  0
SECTION
  2
HEADER
  9
$ACADVER
  1
AC1032
  9
$ACADMAINTVER
 90
      228
  9
$DWGCODEPAGE
  3
ANSI_1252
  9
$REQUIREDVERSIONS
160
                 0
  9
$INSBASE
 10
0.0
 20
0.0
 30
0.0
  9
$EXTMIN
 10
1.000000000000000E+20
 20
1.000000000000000E+20
 30
1.000000000000000E+20
  9
$EXTMAX
 10
-1.000000000000000E+20
 20
-1.000000000000000E+20
 30
-1.000000000000000E+20
  9
$LIMMIN
 10
0.0
 20
0.0
  9
$LIMMAX
 10
12.0
 20
9.0
  9
$ORTHOMODE
 70
     0
  9
$REGENMODE
 70
     1
  9
$FILLMODE
 70
     1
  9
$QTEXTMODE
 70
     0
  9
$MIRRTEXT
 70
     0
  9
$LTSCALE
 40
1.0
  9
$ATTMODE
 70
     1
  9
$TEXTSIZE
 40
0.2
  9
$TRACEWID
 40
0.05
  9
$TEXTSTYLE
  7
Standard
  9
$CLAYER
  8
0
  9
$CELTYPE
  6
ByLayer
  9
$CECOLOR
 62
   256
  9
$CELTSCALE
 40
1.0
  9
$DISPSILH
 70
     0
  9
$DIMSCALE
 40
1.0
  9
$DIMASZ
 40
0.18
  9
$DIMEXO
 40
0.0625
  9
$DIMDLI
 40
0.38
  9
$DIMRND
 40
0.0
  9
$DIMDLE
 40
0.0
  9
$DIMEXE
 40
0.18
  9
$DIMTP
 40
0.0
  9
$DIMTM
 40
0.0
  9
$DIMTXT
 40
0.18
  9
$DIMCEN
 40
0.09
  9
$DIMTSZ
 40
0.0
  9
$DIMTOL
 70
     0
  9
$DIMLIM
 70
     0
  9
$DIMTIH
 70
     1
  9
$DIMTOH
 70
     1
  9
$DIMSE1
 70
     0
  9
$DIMSE2
 70
     0
  9
$DIMTAD
 70
     0
  9
$DIMZIN
 70
     0
  9
$DIMBLK
  1

  9
$DIMASO
 70
     1
  9
$DIMSHO
 70
     1
  9
$DIMPOST
  1

  9
$DIMAPOST
  1

  9
$DIMALT
 70
     0
  9
$DIMALTD
 70
     2
  9
$DIMALTF
 40
25.4
  9
$DIMLFAC
 40
1.0
  9
$DIMTOFL
 70
     0
  9
$DIMTVP
 40
0.0
  9
$DIMTIX
 70
     0
  9
$DIMSOXD
 70
     0
  9
$DIMSAH
 70
     0
  9
$DIMBLK1
  1

  9
$DIMBLK2
  1

  9
$DIMSTYLE
  2
Standard
  9
$DIMCLRD
 70
     0
  9
$DIMCLRE
 70
     0
  9
$DIMCLRT
 70
     0
  9
$DIMTFAC
 40
1.0
  9
$DIMGAP
 40
0.09
  9
$DIMJUST
 70
     0
  9
$DIMSD1
 70
     0
  9
$DIMSD2
 70
     0
  9
$DIMTOLJ
 70
     1
  9
$DIMTZIN
 70
     0
  9
$DIMALTZ
 70
     0
  9
$DIMALTTZ
 70
     0
  9
$DIMUPT
 70
     0
  9
$DIMDEC
 70
     4
  9
$DIMTDEC
 70
     4
  9
$DIMALTU
 70
     2
  9
$DIMALTTD
 70
     2
  9
$DIMTXSTY
  7
Standard
  9
$DIMAUNIT
 70
     0
  9
$DIMADEC
 70
     0
  9
$DIMALTRND
 40
0.0
  9
$DIMAZIN
 70
     0
  9
$DIMDSEP
 70
    46
  9
$DIMATFIT
 70
     3
  9
$DIMFRAC
 70
     0
  9
$DIMLDRBLK
  1

  9
$DIMLUNIT
 70
     2
  9
$DIMLWD
 70
    -2
  9
$DIMLWE
 70
    -2
  9
$DIMTMOVE
 70
     0
  9
$DIMFXL
 40
1.0
  9
$DIMFXLON
 70
     0
  9
$DIMJOGANG
 40
0.7853981633974483
  9
$DIMTFILL
 70
     0
  9
$DIMTFILLCLR
 70
     0
  9
$DIMARCSYM
 70
     0
  9
$DIMLTYPE
  6

  9
$DIMLTEX1
  6

  9
$DIMLTEX2
  6

  9
$DIMTXTDIRECTION
 70
     0
  9
$LUNITS
 70
     2
  9
$LUPREC
 70
     4
  9
$SKETCHINC
 40
0.1
  9
$FILLETRAD
 40
0.0
  9
$AUNITS
 70
     0
  9
$AUPREC
 70
     0
  9
$MENU
  1
.
  9
$ELEVATION
 40
0.0
  9
$PELEVATION
 40
0.0
  9
$THICKNESS
 40
0.0
  9
$LIMCHECK
 70
     0
  9
$CHAMFERA
 40
0.0
  9
$CHAMFERB
 40
0.0
  9
$CHAMFERC
 40
0.0
  9
$CHAMFERD
 40
0.0
  9
$SKPOLY
 70
     0
  9
$TDCREATE
 40
2460384.457129630
  9
$TDUCREATE
 40
2460384.415462963
  9
$TDUPDATE
 40
2460384.457129630
  9
$TDUUPDATE
 40
2460384.415462963
  9
$TDINDWG
 40
0.0000000000
  9
$TDUSRTIMER
 40
0.0000000000
  9
$USRTIMER
 70
     1
  9
$ANGBASE
 50
0.0
  9
$ANGDIR
 70
     0
  9
$PDMODE
 70
     0
  9
$PDSIZE
 40
0.0
  9
$PLINEWID
 40
0.0
  9
$SPLFRAME
 70
     0
  9
$SPLINETYPE
 70
     6
  9
$SPLINESEGS
 70
     8
  9
$HANDSEED
  5
2BA
  9
$SURFTAB1
 70
     6
  9
$SURFTAB2
 70
     6
  9
$SURFTYPE
 70
     6
  9
$SURFU
 70
     6
  9
$SURFV
 70
     6
  9
$UCSBASE
  2

  9
$UCSNAME
  2

  9
$UCSORG
 10
0.0
 20
0.0
 30
0.0
  9
$UCSXDIR
 10
1.0
 20
0.0
 30
0.0
  9
$UCSYDIR
 10
0.0
 20
1.0
 30
0.0
  9
$UCSORTHOREF
  2

  9
$UCSORTHOVIEW
 70
     0
  9
$UCSORGTOP
 10
0.0
 20
0.0
 30
0.0
  9
$UCSORGBOTTOM
 10
0.0
 20
0.0
 30
0.0
  9
$UCSORGLEFT
 10
0.0
 20
0.0
 30
0.0
  9
$UCSORGRIGHT
 10
0.0
 20
0.0
 30
0.0
  9
$UCSORGFRONT
 10
0.0
 20
0.0
 30
0.0
  9
$UCSORGBACK
 10
0.0
 20
0.0
 30
0.0
  9
$PUCSBASE
  2

  9
$PUCSNAME
  2

  9
$PUCSORG
 10
0.0
 20
0.0
 30
0.0
  9
$PUCSXDIR
 10
1.0
 20
0.0
 30
0.0
  9
$PUCSYDIR
 10
0.0
 20
1.0
 30
0.0
  9
$PUCSORTHOREF
  2

  9
$PUCSORTHOVIEW
 70
     0
  9
$PUCSORGTOP
 10
0.0
 20
0.0
 30
0.0
  9
$PUCSORGBOTTOM
 10
0.0
 20
0.0
 30
0.0
  9
$PUCSORGLEFT
 10
0.0
 20
0.0
 30
0.0
  9
$PUCSORGRIGHT
 10
0.0
 20
0.0
 30
0.0
  9
$PUCSORGFRONT
 10
0.0
 20
0.0
 30
0.0
  9
$PUCSORGBACK
 10
0.0
 20
0.0
 30
0.0
  9
$USERI1
 70
     0
  9
$USERI2
 70
     0
  9
$USERI3
 70
     0
  9
$USERI4
 70
     0
  9
$USERI5
 70
     0
  9
$USERR1
 40
0.0
  9
$USERR2
 40
0.0
  9
$USERR3
 40
0.0
  9
$USERR4
 40
0.0
  9
$USERR5
 40
0.0
  9
$WORLDVIEW
 70
     1
  9
$SHADEDGE
 70
     3
  9
$SHADEDIF
 70
    70
  9
$TILEMODE
 70
     1
  9
$MAXACTVP
 70
    64
  9
$PINSBASE
 10
0.0
 20
0.0
 30
0.0
  9
$PLIMCHECK
 70
     0
  9
$PEXTMIN
 10
1.000000000000000E+20
 20
1.000000000000000E+20
 30
1.000000000000000E+20
  9
$PEXTMAX
 10
-1.000000000000000E+20
 20
-1.000000000000000E+20
 30
-1.000000000000000E+20
  9
$PLIMMIN
 10
0.0
 20
0.0
  9
$PLIMMAX
 10
12.0
 20
9.0
  9
$UNITMODE
 70
     0
  9
$VISRETAIN
 70
     1
  9
$PLINEGEN
 70
     0
  9
$PSLTSCALE
 70
     1
  9
$TREEDEPTH
 70
  3020
  9
$CMLSTYLE
  2
Standard
  9
$CMLJUST
 70
     0
  9
$CMLSCALE
 40
1.0
  9
$PROXYGRAPHICS
 70
     1
  9
$MEASUREMENT
 70
     0
  9
$CELWEIGHT
370
    -1
  9
$ENDCAPS
280
     0
  9
$JOINSTYLE
280
     0
  9
$LWDISPLAY
290
     1
  9
$INSUNITS
 70
     4
  9
$HYPERLINKBASE
  1

  9
$STYLESHEET
  1

  9
$XEDIT
290
     1
  9
$CEPSNTYPE
380
     0
  9
$PSTYLEMODE
290
     1
  9
$FINGERPRINTGUID
  2
{871FF638-F466-EB48-9942-7C73FD1958AA}
  9
$VERSIONGUID
  2
{24B83401-ABF5-714C-B6FF-AE5CD5DBEBE3}
  9
$EXTNAMES
290
     1
  9
$PSVPSCALE
 40
0.0
  9
$OLESTARTUP
290
     0
  9
$SORTENTS
280
   127
  9
$INDEXCTL
280
     0
  9
$HIDETEXT
280
     1
  9
$XCLIPFRAME
280
     2
  9
$HALOGAP
280
     0
  9
$OBSCOLOR
 70
   257
  9
$OBSLTYPE
280
     0
  9
$INTERSECTIONDISPLAY
280
     0
  9
$INTERSECTIONCOLOR
 70
   257
  9
$DIMASSOC
280
     2
  9
$PROJECTNAME
  1

  9
$CAMERADISPLAY
290
     0
  9
$LENSLENGTH
 40
50.0
  9
$CAMERAHEIGHT
 40
0.0
  9
$STEPSPERSEC
 40
2.0
  9
$STEPSIZE
 40
6.0
  9
$3DDWFPREC
 40
2.0
  9
$PSOLWIDTH
 40
0.25
  9
$PSOLHEIGHT
 40
4.0
  9
$LOFTANG1
 40
1.570796326794896
  9
$LOFTANG2
 40
1.570796326794896
  9
$LOFTMAG1
 40
0.0
  9
$LOFTMAG2
 40
0.0
  9
$LOFTPARAM
 70
     7
  9
$LOFTNORMALS
280
     1
  9
$LATITUDE
 40
37.795
  9
$LONGITUDE
 40
-122.394
  9
$NORTHDIRECTION
 40
0.0
  9
$TIMEZONE
 70
 -8000
  9
$LIGHTGLYPHDISPLAY
280
     1
  9
$TILEMODELIGHTSYNCH
280
     1
  9
$CMATERIAL
347
11
  9
$SOLIDHIST
280
     0
  9
$SHOWHIST
280
     1
  9
$DWFFRAME
280
     2
  9
$DGNFRAME
280
     0
  9
$REALWORLDSCALE
290
     1
  9
$INTERFERECOLOR
 62
     1
  9
$INTERFEREOBJVS
345
33
  9
$INTERFEREVPVS
346
30
  9
$CSHADOW
280
     0
  9
$SHADOWPLANELOCATION
 40
0.0
  0
ENDSEC
  0
SECTION
  2
CLASSES
  0
CLASS
  1
ACDBDICTIONARYWDFLT
  2
AcDbDictionaryWithDefault
  3
ObjectDBX Classes
 90
        0
 91
        1
280
     0
281
     0
  0
CLASS
  1
MATERIAL
  2
AcDbMaterial
  3
ObjectDBX Classes
 90
     1153
 91
        3
280
     0
281
     0
  0
CLASS
  1
VISUALSTYLE
  2
AcDbVisualStyle
  3
ObjectDBX Classes
 90
     4095
 91
       24
280
     0
281
     0
  0
CLASS
  1
SCALE
  2
AcDbScale
  3
ObjectDBX Classes
 90
     1153
 91
       17
280
     0
281
     0
  0
CLASS
  1
TABLESTYLE
  2
AcDbTableStyle
  3
ObjectDBX Classes
 90
     4095
 91
        1
280
     0
281
     0
  0
CLASS
  1
MLEADERSTYLE
  2
AcDbMLeaderStyle
  3
ACDB_MLEADERSTYLE_CLASS
 90
     4095
 91
        1
280
     0
281
     0
  0
CLASS
  1
ACDBSECTIONVIEWSTYLE
  2
AcDbSectionViewStyle
  3
ObjectDBX Classes
 90
     1025
 91
        1
280
     0
281
     0
  0
CLASS
  1
ACDBDETAILVIEWSTYLE
  2
AcDbDetailViewStyle
  3
ObjectDBX Classes
 90
     1025
 91
        1
280
     0
281
     0
  0
CLASS
  1
DICTIONARYVAR
  2
AcDbDictionaryVar
  3
ObjectDBX Classes
 90
        0
 91
        5
280
     0
281
     0
  0
CLASS
  1
CELLSTYLEMAP
  2
AcDbCellStyleMap
  3
ObjectDBX Classes
 90
     1152
 91
        1
280
     0
281
     0
  0
ENDSEC
  0
SECTION
  2
TABLES
  0
TABLE
  2
VPORT
  5
8
330
0
100
AcDbSymbolTable
 70
     1
  0
VPORT
  5
57
330
8
100
AcDbSymbolTableRecord
100
AcDbViewportTableRecord
  2
*Active
 70
     0
 10
0.0
 20
0.0
 11
1.0
 21
1.0
 12
0.0
 22
0.0
 13
0.0
 23
0.0
 14
1.0
 24
1.0
 15
0.0
 25
0.0
 16
0.0
 26
0.0
 36
1.0
 17
220.5743952927953
 27
136.6188049022186
 37
0.0
 40
111.1412117952424
 41
1.419196576115199
 42
50.0
 43
0.0
 44
0.0
 50
0.0
 51
0.0
 71
     0
 72
   100
 73
     1
 74
     1
 75
     0
 76
     0
 77
     0
 78
     0
281
     0
 65
     1
110
0.0
120
0.0
130
0.0
111
1.0
121
0.0
131
0.0
112
0.0
122
1.0
132
0.0
 79
     0
146
0.0
 60
     3
 61
     5
292
     1
282
     1
141
0.0
142
0.0
 63
   250
421
  3355443
  0
ENDTAB
  0
TABLE
  2
LTYPE
  5
5
330
0
100
AcDbSymbolTable
 70
     7
  0
LTYPE
  5
5B
330
5
100
AcDbSymbolTableRecord
100
AcDbLinetypeTableRecord
  2
ByBlock
 70
     0
  3

 72
    65
 73
     0
 40
0.0
  0
LTYPE
  5
5C
330
5
100
AcDbSymbolTableRecord
100
AcDbLinetypeTableRecord
  2
ByLayer
 70
     0
  3

 72
    65
 73
     0
 40
0.0
  0
LTYPE
  5
5D
330
5
100
AcDbSymbolTableRecord
100
AcDbLinetypeTableRecord
  2
Continuous
 70
     0
  3
Solid line
 72
    65
 73
     0
 40
0.0
  0
LTYPE
  5
7B
330
5
100
AcDbSymbolTableRecord
100
AcDbLinetypeTableRecord
  2
AI-Linetype-0
 70
     0
  3
Adobe Illustrator Linetype No. 0
 72
    65
 73
     4
 40
8.819444442239584
 49
7.055555553791666
 74
     0
 49
-0.7055555553791667
 74
     0
 49
0.3527777776895833
 74
     0
 49
-0.7055555553791667
 74
     0
  0
LTYPE
  5
7D
330
5
100
AcDbSymbolTableRecord
100
AcDbLinetypeTableRecord
  2
AI-Linetype-1
 70
     0
  3
Adobe Illustrator Linetype No. 1
 72
    65
 73
     4
 40
8.819444442239584
 49
7.055555553791666
 74
     0
 49
-0.7055555553791667
 74
     0
 49
0.3527777776895833
 74
     0
 49
-0.7055555553791667
 74
     0
  0
LTYPE
  5
7F
330
5
100
AcDbSymbolTableRecord
100
AcDbLinetypeTableRecord
  2
AI-Linetype-2
 70
     0
  3
Adobe Illustrator Linetype No. 2
 72
    65
 73
     4
 40
8.819444442239584
 49
7.055555553791666
 74
     0
 49
-0.7055555553791667
 74
     0
 49
0.3527777776895833
 74
     0
 49
-0.7055555553791667
 74
     0
  0
LTYPE
  5
81
330
5
100
AcDbSymbolTableRecord
100
AcDbLinetypeTableRecord
  2
AI-Linetype-3
 70
     0
  3
Adobe Illustrator Linetype No. 3
 72
    65
 73
     4
 40
8.819444442239584
 49
7.055555553791666
 74
     0
 49
-0.7055555553791667
 74
     0
 49
0.3527777776895833
 74
     0
 49
-0.7055555553791667
 74
     0
  0
LTYPE
  5
14F
330
5
100
AcDbSymbolTableRecord
100
AcDbLinetypeTableRecord
  2
AI-Linetype-4
 70
     0
  3
Adobe Illustrator Linetype No. 4
 72
    65
 73
     4
 40
4.938888887654167
 49
1.763888888447916
 74
     0
 49
-0.7055555553791667
 74
     0
 49
1.763888888447916
 74
     0
 49
-0.7055555553791667
 74
     0
  0
LTYPE
  5
151
330
5
100
AcDbSymbolTableRecord
100
AcDbLinetypeTableRecord
  2
AI-Linetype-5
 70
     0
  3
Adobe Illustrator Linetype No. 5
 72
    65
 73
     4
 40
4.938888887654167
 49
1.763888888447916
 74
     0
 49
-0.7055555553791667
 74
     0
 49
1.763888888447916
 74
     0
 49
-0.7055555553791667
 74
     0
  0
ENDTAB
  0
TABLE
  2
LAYER
  5
2
330
0
100
AcDbSymbolTable
 70
     5
  0
LAYER
  5
54
330
2
100
AcDbSymbolTableRecord
100
AcDbLayerTableRecord
  2
0
 70
     0
 62
     7
  6
Continuous
370
    -3
390
F
347
21
348
0
  0
LAYER
  5
78
330
2
100
AcDbSymbolTableRecord
100
AcDbLayerTableRecord
  2
grau 10%
 70
     0
 62
     7
  6
Continuous
370
     0
390
F
347
21
348
0
  0
LAYER
  5
79
330
2
100
AcDbSymbolTableRecord
100
AcDbLayerTableRecord
  2
Standardebene
 70
     0
 62
     7
  6
Continuous
370
     0
390
F
347
21
348
0
  0
LAYER
  5
152
330
2
100
AcDbSymbolTableRecord
100
AcDbLayerTableRecord
  2
Bemaßung
 70
     1
 62
     7
  6
Continuous
370
     0
390
F
347
21
348
0
  0
LAYER
  5
2A9
330
2
100
AcDbSymbolTableRecord
100
AcDbLayerTableRecord
  2
Text
 70
     1
 62
     7
  6
Continuous
370
     0
390
F
347
21
348
0
  0
ENDTAB
  0
TABLE
  2
STYLE
  5
3
330
0
100
AcDbSymbolTable
 70
     2
  0
STYLE
  5
55
330
3
100
AcDbSymbolTableRecord
100
AcDbTextStyleTableRecord
  2
Standard
 70
     0
 40
0.0
 41
1.0
 50
0.0
 71
     0
 42
0.2
  3
txt
  4

  0
STYLE
  5
5A
330
3
100
AcDbSymbolTableRecord
100
AcDbTextStyleTableRecord
  2
Annotative
 70
     0
 40
0.0
 41
1.0
 50
0.0
 71
     0
 42
0.2
  3
txt
  4

1001
AcadAnnotative
1000
AnnotativeData
1002
{
1070
     1
1070
     1
1002
}
  0
ENDTAB
  0
TABLE
  2
VIEW
  5
6
330
0
100
AcDbSymbolTable
 70
     0
  0
ENDTAB
  0
TABLE
  2
UCS
  5
7
330
0
100
AcDbSymbolTable
 70
     0
  0
ENDTAB
  0
TABLE
  2
APPID
  5
9
330
0
100
AcDbSymbolTable
 70
     2
  0
APPID
  5
56
330
9
100
AcDbSymbolTableRecord
100
AcDbRegAppTableRecord
  2
ACAD
 70
     0
  0
APPID
  5
5E
330
9
100
AcDbSymbolTableRecord
100
AcDbRegAppTableRecord
  2
AcadAnnotative
 70
     0
  0
ENDTAB
  0
TABLE
  2
DIMSTYLE
  5
A
330
0
100
AcDbSymbolTable
 70
     2
100
AcDbDimStyleTable
 71
     0
  0
DIMSTYLE
105
58
330
A
100
AcDbSymbolTableRecord
100
AcDbDimStyleTableRecord
  2
Standard
 70
     0
340
55
  0
DIMSTYLE
105
59
330
A
100
AcDbSymbolTableRecord
100
AcDbDimStyleTableRecord
  2
Annotative
 70
     0
340
55
1001
AcadAnnotative
1000
AnnotativeData
1002
{
1070
     1
1070
     1
1002
}
  0
ENDTAB
  0
TABLE
  2
BLOCK_RECORD
  5
1
330
0
100
AcDbSymbolTable
 70
     1
  0
BLOCK_RECORD
  5
70
330
1
100
AcDbSymbolTableRecord
100
AcDbBlockTableRecord
  2
*Model_Space
340
73
 70
     0
280
     1
281
     0
  0
BLOCK_RECORD
  5
6C
330
1
100
AcDbSymbolTableRecord
100
AcDbBlockTableRecord
  2
*Paper_Space
340
6F
 70
     0
280
     1
281
     0
  0
BLOCK_RECORD
  5
74
330
1
100
AcDbSymbolTableRecord
100
AcDbBlockTableRecord
  2
*Paper_Space0
340
77
 70
     0
280
     1
281
     0
  0
ENDTAB
  0
ENDSEC
  0
SECTION
  2
BLOCKS
  0
BLOCK
  5
71
330
70
100
AcDbEntity
  8
0
100
AcDbBlockBegin
  2
*Model_Space
 70
     0
 10
0.0
 20
0.0
 30
0.0
  3
*Model_Space
  1

  0
ENDBLK
  5
72
330
70
100
AcDbEntity
  8
0
100
AcDbBlockEnd
  0
BLOCK
  5
6D
330
6C
100
AcDbEntity
 67
     1
  8
0
100
AcDbBlockBegin
  2
*Paper_Space
 70
     0
 10
0.0
 20
0.0
 30
0.0
  3
*Paper_Space
  1

  0
ENDBLK
  5
6E
330
6C
100
AcDbEntity
 67
     1
  8
0
100
AcDbBlockEnd
  0
BLOCK
  5
75
330
74
100
AcDbEntity
 67
     1
  8
0
100
AcDbBlockBegin
  2
*Paper_Space0
 70
     0
 10
0.0
 20
0.0
 30
0.0
  3
*Paper_Space0
  1

  0
ENDBLK
  5
76
330
74
100
AcDbEntity
 67
     1
  8
0
100
AcDbBlockEnd
  0
ENDSEC
  0
SECTION
  2
ENTITIES
  0
LWPOLYLINE
  5
7A
330
70
100
AcDbEntity
  8
Standardebene
  6
AI-Linetype-0
 62
     7
370
     9
100
AcDbPolyline
 90
        7
 70
     0
 43
0.0
 10
224.486761173193
 20
157.0833409315661
 10
220.5855216611333
 20
157.0833409315661
 10
218.0860911062026
 20
157.0833409315661
 10
213.0858188852305
 20
157.0833409315661
 10
208.0858994420361
 20
157.0833409315661
 10
196.3359300005289
 20
157.0833409315661
 10
169.5858494516611
 20
157.0833409315661
  0
LWPOLYLINE
  5
7C
330
70
100
AcDbEntity
  8
Standardebene
  6
AI-Linetype-1
 62
     7
370
     9
100
AcDbPolyline
 90
        7
 70
     0
 43
0.0
 10
167.5192772299554
 20
96.66450205778209
 10
172.0193105621635
 20
96.66450205778209
 10
176.5189911165942
 20
96.66450205778209
 10
181.1671911154323
 20
96.66450205778209
 10
185.8143327809371
 20
96.66450205778209
 10
196.1669494450158
 20
96.66450205778209
 10
224.8146216600758
 20
96.66450205778209
  0
LWPOLYLINE
  5
7E
330
70
100
AcDbEntity
  8
Standardebene
  6
AI-Linetype-2
 62
     7
370
     9
100
AcDbPolyline
 90
        4
 70
     0
 43
0.0
 10
282.4152688626632
 20
141.1861701774701
 10
282.4152688626632
 20
164.8829048185052
 10
282.4152688626632
 20
166.383268707019
 10
282.4152688626632
 20
173.4331798163677
  0
LINE
  5
80
330
70
100
AcDbEntity
  8
Standardebene
  6
AI-Linetype-3
 62
     7
370
     9
100
AcDbLine
 10
297.8495271123009
 20
157.0833409315661
 30
0.0
 11
266.0654299778619
 21
157.0833409315661
 31
0.0
  0
SPLINE
  5
82
330
70
100
AcDbEntity
  8
Standardebene
 62
     7
370
     9
100
AcDbSpline
210
0.0
220
0.0
230
1.0
 70
     8
 71
     3
 72
    11
 73
     7
 74
     0
 42
0.0000000001
 43
0.0000000001
 40
0.0
 40
0.0
 40
0.0
 40
0.0
 40
1.0
 40
1.0
 40
1.0
 40
2.0
 40
2.0
 40
2.0
 40
2.0
 10
286.4150633061079
 20
157.0833409315661
 30
0.0
 10
286.4150633061079
 20
159.2924353754582
 30
0.0
 10
284.6247160843334
 20
161.0834881527883
 30
0.0
 10
282.4152688626632
 20
161.0834881527883
 30
0.0
 10
280.2065271965489
 20
161.0834881527883
 30
0.0
 10
278.4158271969966
 20
159.2924353754582
 30
0.0
 10
278.4154744192188
 20
157.0833409315661
 30
0.0
  0
SPLINE
  5
83
330
70
100
AcDbEntity
  8
Standardebene
 62
     7
370
     9
100
AcDbSpline
210
0.0
220
0.0
230
1.0
 70
     8
 71
     3
 72
    11
 73
     7
 74
     0
 42
0.0000000001
 43
0.0000000001
 40
0.0
 40
0.0
 40
0.0
 40
0.0
 40
1.0
 40
1.0
 40
1.0
 40
2.0
 40
2.0
 40
2.0
 40
2.0
 10
278.4154744192188
 20
157.0833409315661
 30
0.0
 10
278.4154744192188
 20
154.874246487674
 30
0.0
 10
280.2065271965489
 20
153.083193710344
 30
0.0
 10
282.4152688626632
 20
153.083193710344
 30
0.0
 10
284.6247160843334
 20
153.083193710344
 30
0.0
 10
286.4150633061079
 20
154.874246487674
 30
0.0
 10
286.4150633061079
 20
157.0833409315661
 30
0.0
  0
LINE
  5
84
330
70
100
AcDbEntity
  8
Standardebene
 62
     7
370
     9
100
AcDbLine
 10
208.0858994420361
 20
162.8050437079135
 30
0.0
 11
206.0556633314325
 21
163.0904409300644
 31
0.0
  0
LINE
  5
85
330
70
100
AcDbEntity
  8
Standardebene
 62
     7
370
     9
100
AcDbLine
 10
208.0858994420361
 20
151.3609325996635
 30
0.0
 11
206.0856494425361
 21
151.0804742664003
 31
0.0
  0
LINE
  5
86
330
70
100
AcDbEntity
  8
Standardebene
 62
     7
370
     9
100
AcDbLine
 10
205.5130911093458
 20
147.1769881562649
 30
0.0
 11
205.5130911093458
 21
152.943493710379
 31
0.0
  0
LINE
  5
87
330
70
100
AcDbEntity
  8
Standardebene
 62
     7
370
     9
100
AcDbLine
 10
222.5130994384292
 20
153.1766798214318
 30
0.0
 11
222.5130994384292
 21
160.989649263923
 31
0.0
  0
LINE
  5
88
330
70
100
AcDbEntity
  8
Standardebene
 62
     7
370
     9
100
AcDbLine
 10
188.1165605581393
 20
149.0068464891407
 30
0.0
 11
188.1165605581393
 21
165.159129818436
 31
0.0
  0
LINE
  5
89
330
70
100
AcDbEntity
  8
Standardebene
 62
     7
370
     9
100
AcDbLine
 10
205.5130911093458
 20
161.2228353749758
 30
0.0
 11
205.5130911093458
 21
166.9893409290896
 31
0.0
  0
LINE
  5
8A
330
70
100
AcDbEntity
  8
Standardebene
 62
     7
370
     9
100
AcDbLine
 10
196.466457778274
 20
147.3777187117704
 30
0.0
 11
196.466457778274
 21
156.0726325984856
 31
0.0
  0
LINE
  5
8B
330
70
100
AcDbEntity
  8
Standardebene
 62
     7
370
     9
100
AcDbLine
 10
196.466457778274
 20
158.0936964868693
 30
0.0
 11
196.466457778274
 21
166.7886103735844
 31
0.0
  0
LINE
  5
8C
330
70
100
AcDbEntity
  8
Standardebene
 62
     7
370
     9
100
AcDbLine
 10
222.5130994384292
 20
92.75819372542521
 30
0.0
 11
222.5130994384292
 21
100.5704576123608
 31
0.0
  0
LINE
  5
8D
330
70
100
AcDbEntity
  8
Standardebene
 62
     7
370
     9
100
AcDbLine
 10
188.1165605581393
 20
88.58765483757892
 30
0.0
 11
188.1165605581393
 21
104.740290944652
 31
0.0
  0
LINE
  5
8E
330
70
100
AcDbEntity
  8
Standardebene
 62
     7
370
     9
100
AcDbLine
 10
205.5130911093458
 20
105.6645687221986
 30
0.0
 11
205.5130911093458
 21
87.66443539336522
 31
0.0
  0
LINE
  5
8F
330
70
100
AcDbEntity
  8
Standardebene
 62
     7
370
     9
100
AcDbLine
 10
196.466457778274
 20
87.01214928241745
 30
0.0
 11
196.466457778274
 21
106.3165020553689
 31
0.0
  0
SPLINE
  5
90
330
70
100
AcDbEntity
  8
Standardebene
 62
     7
370
    35
100
AcDbSpline
210
0.0
220
0.0
230
1.0
 70
     9
 71
     3
 72
    17
 73
    13
 74
     0
 42
0.0000000001
 43
0.0000000001
 40
0.0
 40
0.0
 40
0.0
 40
0.0
 40
1.0
 40
1.0
 40
1.0
 40
2.0
 40
2.0
 40
2.0
 40
3.0
 40
3.0
 40
3.0
 40
4.0
 40
4.0
 40
4.0
 40
4.0
 10
284.9150521953717
 20
157.0833409315661
 30
0.0
 10
284.9150521953717
 20
158.4637603756653
 30
0.0
 10
283.7960410845405
 20
159.5831242642746
 30
0.0
 10
282.4152688626632
 20
159.5831242642746
 30
0.0
 10
281.0344966407863
 20
159.5831242642746
 30
0.0
 10
279.9151327521773
 20
158.4637603756653
 30
0.0
 10
279.9151327521773
 20
157.0833409315661
 30
0.0
 10
279.9151327521773
 20
155.7022159319114
 30
0.0
 10
281.0344966407863
 20
154.5835575988576
 30
0.0
 10
282.4152688626632
 20
154.5835575988576
 30
0.0
 10
283.7960410845405
 20
154.5835575988576
 30
0.0
 10
284.9150521953717
 20
155.7022159319114
 30
0.0
 10
284.9150521953717
 20
157.0833409315661
 30
0.0
  0
SPLINE
  5
91
330
70
100
AcDbEntity
  8
Standardebene
 62
     7
370
    35
100
AcDbSpline
210
0.0
220
0.0
230
1.0
 70
     9
 71
     3
 72
    17
 73
    13
 74
     0
 42
0.0000000001
 43
0.0000000001
 40
0.0
 40
0.0
 40
0.0
 40
0.0
 40
1.0
 40
1.0
 40
1.0
 40
2.0
 40
2.0
 40
2.0
 40
3.0
 40
3.0
 40
3.0
 40
4.0
 40
4.0
 40
4.0
 40
4.0
 10
284.4151660843854
 20
157.0833409315661
 30
0.0
 10
284.4151660843854
 20
158.1878881535123
 30
0.0
 10
283.5198160846094
 20
159.0828853755106
 30
0.0
 10
282.4152688626632
 20
159.0828853755106
 30
0.0
 10
281.3110744184951
 20
159.0828853755106
 30
0.0
 10
280.4157244187187
 20
158.1878881535123
 30
0.0
 10
280.4157244187187
 20
157.0833409315661
 30
0.0
 10
280.4157244187187
 20
155.9784409318425
 30
0.0
 10
281.3110744184951
 20
155.0830909320661
 30
0.0
 10
282.4152688626632
 20
155.0830909320661
 30
0.0
 10
283.5198160846094
 20
155.0830909320661
 30
0.0
 10
284.4151660843854
 20
155.9784409318425
 30
0.0
 10
284.4151660843854
 20
157.0833409315661
 30
0.0
  0
SPLINE
  5
92
330
70
100
AcDbEntity
  8
Standardebene
 62
     7
370
    35
100
AcDbSpline
210
0.0
220
0.0
230
1.0
 70
    11
 71
     3
 72
    17
 73
    13
 74
     0
 42
0.0000000001
 43
0.0000000001
 40
0.0
 40
0.0
 40
0.0
 40
0.0
 40
1.0
 40
1.0
 40
1.0
 40
2.0
 40
2.0
 40
2.0
 40
3.0
 40
3.0
 40
3.0
 40
4.0
 40
4.0
 40
4.0
 40
4.0
 10
289.4150855275801
 20
157.0833409315661
 30
0.0
 10
289.4150855275801
 20
160.9494325972662
 30
0.0
 10
286.2810077505859
 20
164.0835103742605
 30
0.0
 10
282.4152688626632
 20
164.0835103742605
 30
0.0
 10
278.5495299747409
 20
164.0835103742605
 30
0.0
 10
275.4154521977466
 20
160.9494325972662
 30
0.0
 10
275.4154521977466
 20
157.0833409315661
 30
0.0
 10
275.4154521977466
 20
153.217249265866
 30
0.0
 10
278.5495299747409
 20
150.0831714888717
 30
0.0
 10
282.4152688626632
 20
150.0831714888717
 30
0.0
 10
286.2810077505859
 20
150.0831714888717
 30
0.0
 10
289.4150855275801
 20
153.217249265866
 30
0.0
 10
289.4150855275801
 20
157.0833409315661
 30
0.0
  0
SPLINE
  5
93
330
70
100
AcDbEntity
  8
Standardebene
 62
     7
370
    35
100
AcDbSpline
210
0.0
220
0.0
230
1.0
 70
     9
 71
     3
 72
    17
 73
    13
 74
     0
 42
0.0000000001
 43
0.0000000001
 40
0.0
 40
0.0
 40
0.0
 40
0.0
 40
1.0
 40
1.0
 40
1.0
 40
2.0
 40
2.0
 40
2.0
 40
3.0
 40
3.0
 40
3.0
 40
4.0
 40
4.0
 40
4.0
 40
4.0
 10
296.76556330352
 20
157.0833409315661
 30
0.0
 10
296.76556330352
 20
165.0081409295849
 30
0.0
 10
290.3407744162375
 20
171.4329298168677
 30
0.0
 10
282.4152688626632
 20
171.4329298168677
 30
0.0
 10
274.4901160868667
 20
171.4329298168677
 30
0.0
 10
268.0653271995841
 20
165.0081409295849
 30
0.0
 10
268.0653271995841
 20
157.0833409315661
 30
0.0
 10
268.0653271995841
 20
149.1578353779918
 30
0.0
 10
274.4901160868667
 20
142.7330464907093
 30
0.0
 10
282.4152688626632
 20
142.7330464907093
 30
0.0
 10
290.3407744162375
 20
142.7330464907093
 30
0.0
 10
296.76556330352
 20
149.1578353779918
 30
0.0
 10
296.76556330352
 20
157.0833409315661
 30
0.0
  0
SPLINE
  5
94
330
70
100
AcDbEntity
  8
Standardebene
 62
     7
370
    35
100
AcDbSpline
210
0.0
220
0.0
230
1.0
 70
    11
 71
     3
 72
    17
 73
    13
 74
     0
 42
0.0000000001
 43
0.0000000001
 40
0.0
 40
0.0
 40
0.0
 40
0.0
 40
1.0
 40
1.0
 40
1.0
 40
2.0
 40
2.0
 40
2.0
 40
3.0
 40
3.0
 40
3.0
 40
4.0
 40
4.0
 40
4.0
 40
4.0
 10
283.9156327511772
 20
157.0833409315661
 30
0.0
 10
283.9156327511772
 20
157.9116631535812
 30
0.0
 10
283.2439438624561
 20
158.5833520423024
 30
0.0
 10
282.4152688626632
 20
158.5833520423024
 30
0.0
 10
281.5872994184259
 20
158.5833520423024
 30
0.0
 10
280.9156105297051
 20
157.9116631535812
 30
0.0
 10
280.9156105297051
 20
157.0833409315661
 30
0.0
 10
280.9156105297051
 20
156.255018709551
 30
0.0
 10
281.5872994184259
 20
155.5833298208302
 30
0.0
 10
282.4152688626632
 20
155.5833298208302
 30
0.0
 10
283.2439438624561
 20
155.5833298208302
 30
0.0
 10
283.9156327511772
 20
156.255018709551
 30
0.0
 10
283.9156327511772
 20
157.0833409315661
 30
0.0
  0
SPLINE
  5
95
330
70
100
AcDbEntity
  8
Standardebene
 62
     7
370
    35
100
AcDbSpline
210
0.0
220
0.0
230
1.0
 70
     8
 71
     3
 72
    11
 73
     7
 74
     0
 42
0.0000000001
 43
0.0000000001
 40
0.0
 40
0.0
 40
0.0
 40
0.0
 40
1.0
 40
1.0
 40
1.0
 40
2.0
 40
2.0
 40
2.0
 40
2.0
 10
191.5861300017163
 20
171.4329298168677
 30
0.0
 10
191.5861300017163
 20
171.0191214836376
 30
0.0
 10
191.9216216682992
 20
170.6832770392774
 30
0.0
 10
192.3357827793067
 20
170.6832770392774
 30
0.0
 10
192.750296668092
 20
170.6832770392774
 30
0.0
 10
193.0861411124526
 20
171.0191214836376
 30
0.0
 10
193.0861411124526
 20
171.4329298168677
 30
0.0
  0
SPLINE
  5
96
330
70
100
AcDbEntity
  8
Standardebene
 62
     7
370
    35
100
AcDbSpline
210
0.0
220
0.0
230
1.0
 70
     8
 71
     3
 72
    11
 73
     7
 74
     0
 42
0.0000000001
 43
0.0000000001
 40
0.0
 40
0.0
 40
0.0
 40
0.0
 40
1.0
 40
1.0
 40
1.0
 40
2.0
 40
2.0
 40
2.0
 40
2.0
 10
193.0861411124526
 20
142.7330464907093
 30
0.0
 10
193.0861411124526
 20
143.1472076017168
 30
0.0
 10
192.750296668092
 20
143.4830520460774
 30
0.0
 10
192.3357827793067
 20
143.4830520460774
 30
0.0
 10
191.9216216682992
 20
143.4830520460774
 30
0.0
 10
191.5861300017163
 20
143.1472076017168
 30
0.0
 10
191.5861300017163
 20
142.7330464907093
 30
0.0
  0
LWPOLYLINE
  5
97
330
70
100
AcDbEntity
  8
Standardebene
 62
     7
370
    35
100
AcDbPolyline
 90
       27
 70
     0
 43
0.0
 10
191.5861300017163
 20
171.4329298168677
 10
191.5861300017163
 20
171.3288603724493
 10
191.5861300017163
 20
171.0159464836384
 10
191.5861300017163
 20
170.5005381504341
 10
191.5861300017163
 20
169.7893381506118
 10
191.5861300017163
 20
168.8932825952803
 10
191.5861300017163
 20
167.8240131511032
 10
191.5861300017163
 20
166.599168706965
 10
191.5861300017163
 20
165.2349770406393
 10
191.5861300017163
 20
163.7518992632324
 10
191.5861300017163
 20
162.1718075969607
 10
191.5861300017163
 20
160.5172798195966
 10
191.5861300017163
 20
158.8126575978005
 10
191.5861300017163
 20
157.0833409315661
 10
191.5861300017163
 20
155.353671487554
 10
191.5861300017163
 20
153.6490492657581
 10
191.5861300017163
 20
151.9945214883938
 10
191.5861300017163
 20
150.4147825998998
 10
191.5861300017163
 20
148.9313520447152
 10
191.5861300017163
 20
147.5671603783895
 10
191.5861300017163
 20
146.3423159342513
 10
191.5861300017163
 20
145.2737520456298
 10
191.5861300017163
 20
144.3766381569649
 10
191.5861300017163
 20
143.6654381571429
 10
191.5861300017163
 20
143.1503826017161
 10
191.5861300017163
 20
142.8381742684607
 10
191.5861300017163
 20
142.7330464907093
  0
LWPOLYLINE
  5
98
330
70
100
AcDbEntity
  8
Standardebene
 62
     7
370
    35
100
AcDbPolyline
 90
       27
 70
     0
 43
0.0
 10
193.0861411124526
 20
171.4329298168677
 10
193.0861411124526
 20
171.3288603724493
 10
193.0861411124526
 20
171.0159464836384
 10
193.0861411124526
 20
170.5005381504341
 10
193.0861411124526
 20
169.7893381506118
 10
193.0861411124526
 20
168.8932825952803
 10
193.0861411124526
 20
167.8240131511032
 10
193.0861411124526
 20
166.599168706965
 10
193.0861411124526
 20
165.2349770406393
 10
193.0861411124526
 20
163.7518992632324
 10
193.0861411124526
 20
162.1718075969607
 10
193.0861411124526
 20
160.5172798195966
 10
193.0861411124526
 20
158.8126575978005
 10
193.0861411124526
 20
157.0833409315661
 10
193.0861411124526
 20
155.353671487554
 10
193.0861411124526
 20
153.6490492657581
 10
193.0861411124526
 20
151.9945214883938
 10
193.0861411124526
 20
150.4147825998998
 10
193.0861411124526
 20
148.9313520447152
 10
193.0861411124526
 20
147.5671603783895
 10
193.0861411124526
 20
146.3423159342513
 10
193.0861411124526
 20
145.2737520456298
 10
193.0861411124526
 20
144.3766381569649
 10
193.0861411124526
 20
143.6654381571429
 10
193.0861411124526
 20
143.1503826017161
 10
193.0861411124526
 20
142.8381742684607
 10
193.0861411124526
 20
142.7330464907093
  0
LINE
  5
99
330
70
100
AcDbEntity
  8
Standardebene
 62
     7
370
    35
100
AcDbLine
 10
194.885660556447
 20
171.4329298168677
 30
0.0
 11
193.0861411124526
 21
171.4329298168677
 31
0.0
  0
LINE
  5
9A
330
70
100
AcDbEntity
  8
Standardebene
 62
     7
370
    35
100
AcDbLine
 10
193.0861411124526
 20
142.7330464907093
 30
0.0
 11
194.885660556447
 21
142.7330464907093
 31
0.0
  0
LWPOLYLINE
  5
9B
330
70
100
AcDbEntity
  8
Standardebene
 62
     7
370
    35
100
AcDbPolyline
 90
       27
 70
     0
 43
0.0
 10
194.885660556447
 20
171.4329298168677
 10
194.885660556447
 20
171.3288603724493
 10
194.885660556447
 20
171.0159464836384
 10
194.885660556447
 20
170.5005381504341
 10
194.885660556447
 20
169.7893381506118
 10
194.885660556447
 20
168.8932825952803
 10
194.885660556447
 20
167.8240131511032
 10
194.885660556447
 20
166.599168706965
 10
194.885660556447
 20
165.2349770406393
 10
194.885660556447
 20
163.7518992632324
 10
194.885660556447
 20
162.1718075969607
 10
194.885660556447
 20
160.5172798195966
 10
194.885660556447
 20
158.8126575978005
 10
194.885660556447
 20
157.0833409315661
 10
194.885660556447
 20
155.353671487554
 10
194.885660556447
 20
153.6490492657581
 10
194.885660556447
 20
151.9945214883938
 10
194.885660556447
 20
150.4147825998998
 10
194.885660556447
 20
148.9313520447152
 10
194.885660556447
 20
147.5671603783895
 10
194.885660556447
 20
146.3423159342513
 10
194.885660556447
 20
145.2737520456298
 10
194.885660556447
 20
144.3766381569649
 10
194.885660556447
 20
143.6654381571429
 10
194.885660556447
 20
143.1503826017161
 10
194.885660556447
 20
142.8381742684607
 10
194.885660556447
 20
142.7330464907093
  0
LINE
  5
9C
330
70
100
AcDbEntity
  8
Standardebene
 62
     7
370
    35
100
AcDbLine
 10
191.5861300017163
 20
171.4329298168677
 30
0.0
 11
190.0857661132026
 21
171.4329298168677
 31
0.0
  0
LINE
  5
9D
330
70
100
AcDbEntity
  8
Standardebene
 62
     7
370
    35
100
AcDbLine
 10
190.0857661132026
 20
142.7330464907093
 30
0.0
 11
191.5861300017163
 21
142.7330464907093
 31
0.0
  0
LWPOLYLINE
  5
9E
330
70
100
AcDbEntity
  8
Standardebene
 62
     7
370
    35
100
AcDbPolyline
 90
       27
 70
     0
 43
0.0
 10
190.0857661132026
 20
171.4329298168677
 10
190.0857661132026
 20
171.3288603724493
 10
190.0857661132026
 20
171.0159464836384
 10
190.0857661132026
 20
170.5005381504341
 10
190.0857661132026
 20
169.7893381506118
 10
190.0857661132026
 20
168.8932825952803
 10
190.0857661132026
 20
167.8240131511032
 10
190.0857661132026
 20
166.599168706965
 10
190.0857661132026
 20
165.2349770406393
 10
190.0857661132026
 20
163.7518992632324
 10
190.0857661132026
 20
162.1718075969607
 10
190.0857661132026
 20
160.5172798195966
 10
190.0857661132026
 20
158.8126575978005
 10
190.0857661132026
 20
157.0833409315661
 10
190.0857661132026
 20
155.353671487554
 10
190.0857661132026
 20
153.6490492657581
 10
190.0857661132026
 20
151.9945214883938
 10
190.0857661132026
 20
150.4147825998998
 10
190.0857661132026
 20
148.9313520447152
 10
190.0857661132026
 20
147.5671603783895
 10
190.0857661132026
 20
146.3423159342513
 10
190.0857661132026
 20
145.2737520456298
 10
190.0857661132026
 20
144.3766381569649
 10
190.0857661132026
 20
143.6654381571429
 10
190.0857661132026
 20
143.1503826017161
 10
190.0857661132026
 20
142.8381742684607
 10
190.0857661132026
 20
142.7330464907093
  0
LINE
  5
9F
330
70
100
AcDbEntity
  8
Standardebene
 62
     7
370
    35
100
AcDbLine
 10
194.885660556447
 20
142.7330464907093
 30
0.0
 11
195.085685556397
 21
142.933424268437
 31
0.0
  0
LINE
  5
A0
330
70
100
AcDbEntity
  8
Standardebene
 62
     7
370
    35
100
AcDbLine
 10
195.085685556397
 20
171.2329048169177
 30
0.0
 11
194.885660556447
 21
171.4329298168677
 31
0.0
  0
LWPOLYLINE
  5
A1
330
70
100
AcDbEntity
  8
Standardebene
 62
     7
370
    35
100
AcDbPolyline
 90
       27
 70
     0
 43
0.0
 10
195.085685556397
 20
171.2329048169177
 10
195.085685556397
 20
171.1298937058322
 10
195.085685556397
 20
170.8222714836868
 10
195.085685556397
 20
170.3135659282585
 10
195.085685556397
 20
169.6125964839895
 10
195.085685556397
 20
168.7281825953216
 10
195.085685556397
 20
167.6744353733628
 10
195.085685556397
 20
166.4665242625536
 10
195.085685556397
 20
165.1213825962232
 10
195.085685556397
 20
163.6587659299223
 10
195.085685556397
 20
162.100899263645
 10
195.085685556397
 20
160.4696548196085
 10
195.085685556397
 20
158.7890214866952
 10
195.085685556397
 20
157.0833409315661
 10
195.085685556397
 20
155.3773075986592
 10
195.085685556397
 20
153.696674265746
 10
195.085685556397
 20
152.0657825994872
 10
195.085685556397
 20
150.5072103776547
 10
195.085685556397
 20
149.0449464891312
 10
195.085685556397
 20
147.7001576005786
 10
195.085685556397
 20
146.4915409342139
 10
195.085685556397
 20
145.4377937122555
 10
195.085685556397
 20
144.554085379143
 10
195.085685556397
 20
143.852763157096
 10
195.085685556397
 20
143.3444103794454
 10
195.085685556397
 20
143.0360826017444
 10
195.085685556397
 20
142.933424268437
  0
LINE
  5
A2
330
70
100
AcDbEntity
  8
Standardebene
 62
     7
370
    35
100
AcDbLine
 10
190.0857661132026
 20
171.4329298168677
 30
0.0
 11
188.7120494468793
 21
166.3070687070379
 31
0.0
  0
LINE
  5
A3
330
70
100
AcDbEntity
  8
Standardebene
 62
     7
370
    35
100
AcDbLine
 10
188.7120494468793
 20
147.8596131560944
 30
0.0
 11
190.0857661132026
 21
142.7330464907093
 31
0.0
  0
SPLINE
  5
A4
330
70
100
AcDbEntity
  8
Standardebene
 62
     7
370
    35
100
AcDbSpline
210
0.0
220
0.0
230
1.0
 70
     8
 71
     3
 72
     8
 73
     4
 74
     0
 42
0.0000000001
 43
0.0000000001
 40
0.0
 40
0.0
 40
0.0
 40
0.0
 40
1.0
 40
1.0
 40
1.0
 40
1.0
 10
195.4807966674093
 20
147.3830103784355
 30
0.0
 10
195.329102223003
 20
147.3830103784355
 30
0.0
 10
195.1908133341484
 20
147.326918711783
 30
0.0
 10
195.085685556397
 20
147.2344909340284
 30
0.0
  0
SPLINE
  5
A5
330
70
100
AcDbEntity
  8
Standardebene
 62
     7
370
    35
100
AcDbSpline
210
0.0
220
0.0
230
1.0
 70
     8
 71
     3
 72
     8
 73
     4
 74
     0
 42
0.0000000001
 43
0.0000000001
 40
0.0
 40
0.0
 40
0.0
 40
0.0
 40
1.0
 40
1.0
 40
1.0
 40
1.0
 10
195.085685556397
 20
166.9314853735486
 30
0.0
 10
195.1996327785909
 20
166.8316492624623
 30
0.0
 10
195.3410966674443
 20
166.7826131513634
 30
0.0
 10
195.4807966674093
 20
166.7829659291412
 30
0.0
  0
LWPOLYLINE
  5
A6
330
70
100
AcDbEntity
  8
Standardebene
 62
     7
370
    35
100
AcDbPolyline
 90
       23
 70
     0
 43
0.0
 10
196.542657778255
 20
155.6298964874851
 10
196.4840966671585
 20
155.9579798207365
 10
196.4368244449481
 20
156.287827042876
 10
196.4181272227306
 20
156.4532798206125
 10
196.4036633338453
 20
156.6194381539044
 10
196.3934327782924
 20
156.786654820529
 10
196.3874355560718
 20
156.953871487154
 10
196.3856716671833
 20
157.0833409315661
 10
196.3874355560718
 20
157.2124575982005
 10
196.3934327782924
 20
157.3803798203806
 10
196.4036633338453
 20
157.5472437092278
 10
196.4181272227306
 20
157.7134020425197
 10
196.4368244449481
 20
157.8788548202562
 10
196.4840966671585
 20
158.2087020423957
 10
196.542657778255
 20
158.5367853756472
 10
196.6216800004576
 20
158.9008520422229
 10
196.7165772226562
 20
159.2575103754669
 10
196.826996667073
 20
159.6067603753798
 10
196.9515272225972
 20
159.9493075975162
 10
197.0905216670069
 20
160.284799264099
 10
197.2429216669688
 20
160.6142937084612
 10
197.40766888915
 20
160.9377909306026
 10
197.5858216668832
 20
161.2549381527454
  0
LWPOLYLINE
  5
A7
330
70
100
AcDbEntity
  8
Standardebene
 62
     7
370
    35
100
AcDbPolyline
 90
        3
 70
     0
 43
0.0
 10
197.7332827779574
 20
161.4419103749211
 10
197.6588466668648
 20
161.3494825971662
 10
197.5858216668832
 20
161.2549381527454
  0
SPLINE
  5
A8
330
70
100
AcDbEntity
  8
Standardebene
 62
     7
370
    35
100
AcDbSpline
210
0.0
220
0.0
230
1.0
 70
     8
 71
     3
 72
     8
 73
     4
 74
     0
 42
0.0000000001
 43
0.0000000001
 40
0.0
 40
0.0
 40
0.0
 40
0.0
 40
1.0
 40
1.0
 40
1.0
 40
1.0
 10
197.7332827779574
 20
161.4419103749211
 30
0.0
 10
196.8294661115167
 20
158.4665825978871
 30
0.0
 10
196.8954355559446
 20
155.4274020430911
 30
0.0
 10
197.7332827779574
 20
152.7244187104337
 30
0.0
  0
LWPOLYLINE
  5
A9
330
70
100
AcDbEntity
  8
Standardebene
 62
     7
370
    35
100
AcDbPolyline
 90
        3
 70
     0
 43
0.0
 10
197.5858216668832
 20
152.9110381548313
 10
197.6588466668648
 20
152.817199265966
 10
197.7332827779574
 20
152.7244187104337
  0
LWPOLYLINE
  5
AA
330
70
100
AcDbEntity
  8
Standardebene
 62
     7
370
    35
100
AcDbPolyline
 90
        9
 70
     0
 43
0.0
 10
197.5858216668832
 20
152.9110381548313
 10
197.40766888915
 20
153.2285381547522
 10
197.2429216669688
 20
153.5516825991159
 10
197.0905216670069
 20
153.8811770434777
 10
196.9515272225972
 20
154.2170214878383
 10
196.826996667073
 20
154.559568709975
 10
196.7165772226562
 20
154.9091714876654
 10
196.6216800004576
 20
155.2654770431316
 10
196.542657778255
 20
155.6298964874851
  0
LWPOLYLINE
  5
AB
330
70
100
AcDbEntity
  8
Standardebene
 62
     7
370
    35
100
AcDbPolyline
 90
       10
 70
     0
 43
0.0
 10
196.542657778255
 20
147.3625492673295
 10
197.5858216668832
 20
147.0835020451773
 10
197.5858216668832
 20
147.1843964895963
 10
197.5858216668832
 20
147.487079822854
 10
197.5858216668832
 20
147.9841437116188
 10
197.5858216668832
 20
148.6653576003373
 10
197.5858216668832
 20
149.5180214890131
 10
197.5858216668832
 20
150.523790933206
 10
197.5858216668832
 20
151.6622048218102
 10
197.5858216668832
 20
152.9110381548313
  0
LINE
  5
AC
330
70
100
AcDbEntity
  8
Standardebene
 62
     7
370
    35
100
AcDbLine
 10
197.5858216668832
 20
167.0831798179552
 30
0.0
 11
196.542657778255
 21
166.8037798180249
 31
0.0
  0
LWPOLYLINE
  5
AD
330
70
100
AcDbEntity
  8
Standardebene
 62
     7
370
    35
100
AcDbPolyline
 90
        9
 70
     0
 43
0.0
 10
197.5858216668832
 20
161.2549381527454
 10
197.5858216668832
 20
162.5037714857665
 10
197.5858216668832
 20
163.6428909299262
 10
197.5858216668832
 20
164.6486603741191
 10
197.5858216668832
 20
165.501324262795
 10
197.5858216668832
 20
166.1825381515134
 10
197.5858216668832
 20
166.6792492625005
 10
197.5858216668832
 20
166.9819325957582
 10
197.5858216668832
 20
167.0831798179552
  0
SPLINE
  5
AE
330
70
100
AcDbEntity
  8
Standardebene
 62
     7
370
    35
100
AcDbSpline
210
0.0
220
0.0
230
1.0
 70
     8
 71
     3
 72
     8
 73
     4
 74
     0
 42
0.0000000001
 43
0.0000000001
 40
0.0
 40
0.0
 40
0.0
 40
0.0
 40
1.0
 40
1.0
 40
1.0
 40
1.0
 10
196.3874355560718
 20
166.7829659291412
 30
0.0
 10
196.4424688893913
 20
166.7829659291412
 30
0.0
 10
196.4960911116001
 20
166.7907270402503
 30
0.0
 10
196.542657778255
 20
166.8037798180249
 30
0.0
  0
SPLINE
  5
AF
330
70
100
AcDbEntity
  8
Standardebene
 62
     7
370
    35
100
AcDbSpline
210
0.0
220
0.0
230
1.0
 70
     8
 71
     3
 72
     8
 73
     4
 74
     0
 42
0.0000000001
 43
0.0000000001
 40
0.0
 40
0.0
 40
0.0
 40
0.0
 40
1.0
 40
1.0
 40
1.0
 40
1.0
 10
196.542657778255
 20
147.3625492673295
 30
0.0
 10
196.489388333824
 20
147.3770131562149
 30
0.0
 10
196.4357661116151
 20
147.3837159339911
 30
0.0
 10
196.3874355560718
 20
147.3830103784355
 30
0.0
  0
LINE
  5
B0
330
70
100
AcDbEntity
  8
Standardebene
 62
     7
370
    35
100
AcDbLine
 10
195.4807966674093
 20
147.3830103784355
 30
0.0
 11
196.3874355560718
 21
147.3830103784355
 31
0.0
  0
LINE
  5
B1
330
70
100
AcDbEntity
  8
Standardebene
 62
     7
370
    35
100
AcDbLine
 10
196.3874355560718
 20
166.7829659291412
 30
0.0
 11
195.4807966674093
 21
166.7829659291412
 31
0.0
  0
SPLINE
  5
B2
330
70
100
AcDbEntity
  8
Standardebene
 62
     7
370
    35
100
AcDbSpline
210
0.0
220
0.0
230
1.0
 70
     8
 71
     3
 72
     8
 73
     4
 74
     0
 42
0.0000000001
 43
0.0000000001
 40
0.0
 40
0.0
 40
0.0
 40
0.0
 40
1.0
 40
1.0
 40
1.0
 40
1.0
 10
185.8143327809371
 20
164.0835103742605
 30
0.0
 10
187.1947522250366
 20
164.0835103742605
 30
0.0
 10
188.3582133358568
 20
165.0162548184718
 30
0.0
 10
188.7120494468793
 20
166.3070687070379
 30
0.0
  0
SPLINE
  5
B3
330
70
100
AcDbEntity
  8
Standardebene
 62
     7
370
    35
100
AcDbSpline
210
0.0
220
0.0
230
1.0
 70
     8
 71
     3
 72
     8
 73
     4
 74
     0
 42
0.0000000001
 43
0.0000000001
 40
0.0
 40
0.0
 40
0.0
 40
0.0
 40
1.0
 40
1.0
 40
1.0
 40
1.0
 10
188.7120494468793
 20
147.8596131560944
 30
0.0
 10
188.3550383358576
 20
149.1934659335387
 30
0.0
 10
187.1531244472691
 20
150.0754103777626
 30
0.0
 10
185.8143327809371
 20
150.0831714888717
 30
0.0
  0
LINE
  5
B4
330
70
100
AcDbEntity
  8
Standardebene
 62
     7
370
    35
100
AcDbLine
 10
197.5858216668832
 20
147.0835020451773
 30
0.0
 11
204.2861299985414
 21
147.0835020451773
 31
0.0
  0
LWPOLYLINE
  5
B5
330
70
100
AcDbEntity
  8
Standardebene
 62
     7
370
    35
100
AcDbPolyline
 90
        9
 70
     0
 43
0.0
 10
197.7332827779574
 20
152.7244187104337
 10
204.2861299985414
 20
152.7244187104337
 10
204.2861299985414
 20
151.3464687107782
 10
204.2861299985414
 20
150.1152742666417
 10
204.2861299985414
 20
149.0611742669051
 10
204.2861299985414
 20
148.2130964893391
 10
204.2861299985414
 20
147.5907964894947
 10
204.2861299985414
 20
147.2108548229232
 10
204.2861299985414
 20
147.0835020451773
  0
LINE
  5
B6
330
70
100
AcDbEntity
  8
Standardebene
 62
     7
370
    35
100
AcDbLine
 10
204.2861299985414
 20
167.0831798179552
 30
0.0
 11
197.5858216668832
 21
167.0831798179552
 31
0.0
  0
LWPOLYLINE
  5
B7
330
70
100
AcDbEntity
  8
Standardebene
 62
     7
370
    35
100
AcDbPolyline
 90
        9
 70
     0
 43
0.0
 10
204.2861299985414
 20
167.0831798179552
 10
204.2861299985414
 20
166.9554742624316
 10
204.2861299985414
 20
166.5755325958598
 10
204.2861299985414
 20
165.9535853737931
 10
204.2861299985414
 20
165.104802040672
 10
204.2861299985414
 20
164.0517603742684
 10
204.2861299985414
 20
162.820213152354
 10
204.2861299985414
 20
161.4419103749211
 10
197.7332827779574
 20
161.4419103749211
  0
LINE
  5
B8
330
70
100
AcDbEntity
  8
Standardebene
 62
     7
370
    35
100
AcDbLine
 10
204.2861299985414
 20
147.0835020451773
 30
0.0
 11
204.8854994428361
 21
147.189335378484
 31
0.0
  0
LWPOLYLINE
  5
B9
330
70
100
AcDbEntity
  8
Standardebene
 62
     7
370
    35
100
AcDbPolyline
 90
        3
 70
     0
 43
0.0
 10
204.8854994428361
 20
152.9731270437048
 10
204.5863438873554
 20
152.8475381548474
 10
204.2861299985414
 20
152.7244187104337
  0
LWPOLYLINE
  5
BA
330
70
100
AcDbEntity
  8
Standardebene
 62
     7
370
    35
100
AcDbPolyline
 90
        8
 70
     0
 43
0.0
 10
204.8854994428361
 20
152.9731270437048
 10
204.8854994428361
 20
151.5651909329457
 10
204.8854994428361
 20
150.3043631554829
 10
204.8854994428361
 20
149.2230992668645
 10
204.8854994428361
 20
148.3513853781937
 10
204.8854994428361
 20
147.711093711687
 10
204.8854994428361
 20
147.3202159340068
 10
204.8854994428361
 20
147.189335378484
  0
LWPOLYLINE
  5
BB
330
70
100
AcDbEntity
  8
Standardebene
 62
     7
370
    35
100
AcDbPolyline
 90
       47
 70
     0
 43
0.0
 10
204.2861299985414
 20
161.4419103749211
 10
204.5863438873554
 20
161.3191437082851
 10
204.8854994428361
 20
161.1939075972052
 10
204.9694605539261
 20
161.2567020416338
 10
205.0534216650162
 20
161.3194964860626
 10
205.0841133316754
 20
161.3399575971686
 10
205.1162161094449
 20
161.3572437082753
 10
205.133149442774
 20
161.364652041607
 10
205.1507883316585
 20
161.3706492638277
 10
205.1680744427653
 20
161.3759409304929
 10
205.1864188872054
 20
161.3801742638253
 10
205.2044105538674
 20
161.382643708269
 10
205.2224022205296
 20
161.3840548193797
 10
205.2407466649694
 20
161.3840548193797
 10
205.2594438871869
 20
161.3833492638246
 10
205.295779998289
 20
161.3769992638261
 10
205.3307049982803
 20
161.3664159304955
 10
205.3476383316093
 20
161.3590075971638
 10
205.3638661093831
 20
161.3515992638324
 10
205.380093887157
 20
161.34277981939
 10
205.395968887153
 20
161.3329020416149
 10
205.4111383315936
 20
161.3226714860618
 10
205.4256022204789
 20
161.3110298193982
 10
205.4393605538087
 20
161.2993881527343
 10
205.4534716649162
 20
161.2870409305152
 10
205.4792244426877
 20
161.2616409305216
 10
205.5035661093481
 20
161.2344770416394
 10
205.5257911093426
 20
161.205549263869
 10
205.5469577760041
 20
161.1755631527654
 10
205.557188331557
 20
161.1603937083246
 10
205.5674188871101
 20
161.1448714861063
 10
205.5765911093299
 20
161.1293492638879
 10
205.5861161093276
 20
161.1134742638919
 10
205.6030494426567
 20
161.0817242638998
 10
205.6192772204305
 20
161.048563152797
 10
205.6489105537563
 20
160.9829464861468
 10
205.6750161093052
 20
160.9145075972749
 10
205.6870105537468
 20
160.8802881528391
 10
205.6986522204104
 20
160.8460687084033
 10
205.7095883315188
 20
160.8107909306342
 10
205.7191133315164
 20
160.7755131528654
 10
205.7378105537342
 20
160.705310375105
 10
205.7540383315077
 20
160.6336964862342
 10
205.8616355537032
 20
160.0861853752597
 10
205.9540633314577
 20
159.5365575976194
 10
206.0288522203281
 20
158.9837548199798
 10
206.0856494425361
 20
158.4288353756743
  0
LINE
  5
BC
330
70
100
AcDbEntity
  8
Standardebene
 62
     7
370
    35
100
AcDbLine
 10
206.0856494425361
 20
155.7378464874579
 30
0.0
 11
206.0856494425361
 21
158.4288353756743
 31
0.0
  0
LWPOLYLINE
  5
BD
330
70
100
AcDbEntity
  8
Standardebene
 62
     7
370
    35
100
AcDbPolyline
 90
       41
 70
     0
 43
0.0
 10
206.0856494425361
 20
155.7378464874579
 10
206.0288522203281
 20
155.1829270431524
 10
205.9540633314577
 20
154.6301242655129
 10
205.8616355537032
 20
154.0804964878725
 10
205.7540383315077
 20
153.5326325991206
 10
205.7378105537342
 20
153.461724265805
 10
205.719818887072
 20
153.3911687102668
 10
205.6986522204104
 20
153.3216714880622
 10
205.6757216648607
 20
153.2528798214126
 10
205.6496161093118
 20
153.1851464880961
 10
205.6199827759856
 20
153.1188242658905
 10
205.6037549982121
 20
153.0860159325654
 10
205.5861161093276
 20
153.0535603770181
 10
205.5674188871101
 20
153.0221631548037
 10
205.5480161093371
 20
152.9918242659223
 10
205.5268494426756
 20
152.9621909325965
 10
205.5046244426814
 20
152.9332631548258
 10
205.4806355537984
 20
152.9060992659436
 10
205.4545299982492
 20
152.8799937103947
 10
205.4407716649194
 20
152.8672937103979
 10
205.4266605538118
 20
152.8560048215117
 10
205.4114911093713
 20
152.8443631548482
 10
205.3966744427082
 20
152.8341325992951
 10
205.3807994427121
 20
152.8246075992974
 10
205.3645716649384
 20
152.8154353770775
 10
205.3483438871648
 20
152.8076742659684
 10
205.3314105538358
 20
152.800265932637
 10
205.2961327760667
 20
152.7896825993061
 10
205.2605022205202
 20
152.7829798215302
 10
205.2418049983024
 20
152.7822742659747
 10
205.2231077760849
 20
152.7822742659747
 10
205.2051161094229
 20
152.7833325993077
 10
205.1867716649828
 20
152.7865075993069
 10
205.1687799983208
 20
152.7900353770839
 10
205.1511411094363
 20
152.7956798215271
 10
205.1338549983295
 20
152.8016770437477
 10
205.1169216650005
 20
152.8087325993014
 10
205.0841133316754
 20
152.8263714881859
 10
205.0534216650162
 20
152.8468325992919
 10
204.9694605539261
 20
152.9096270437206
 10
204.8854994428361
 20
152.9731270437048
  0
SPLINE
  5
BE
330
70
100
AcDbEntity
  8
Standardebene
 62
     7
370
    35
100
AcDbSpline
210
0.0
220
0.0
230
1.0
 70
    11
 71
     3
 72
    17
 73
    13
 74
     0
 42
0.0000000001
 43
0.0000000001
 40
0.0
 40
0.0
 40
0.0
 40
0.0
 40
1.0
 40
1.0
 40
1.0
 40
2.0
 40
2.0
 40
2.0
 40
3.0
 40
3.0
 40
3.0
 40
4.0
 40
4.0
 40
4.0
 40
4.0
 10
203.4055966654281
 20
157.0833409315661
 30
0.0
 10
203.4055966654281
 20
158.6408548200656
 30
0.0
 10
202.1430049990772
 20
159.9030937086391
 30
0.0
 10
200.5858438883555
 20
159.9030937086391
 30
0.0
 10
199.028329999856
 20
159.9030937086391
 30
0.0
 10
197.7653855557273
 20
158.6408548200656
 30
0.0
 10
197.7653855557273
 20
157.0833409315661
 30
0.0
 10
197.7653855557273
 20
155.5258270430666
 30
0.0
 10
199.028329999856
 20
154.2628825989379
 30
0.0
 10
200.5858438883555
 20
154.2628825989379
 30
0.0
 10
202.1430049990772
 20
154.2628825989379
 30
0.0
 10
203.4055966654281
 20
155.5258270430666
 30
0.0
 10
203.4055966654281
 20
157.0833409315661
 30
0.0
  0
LINE
  5
BF
330
70
100
AcDbEntity
  8
Standardebene
 62
     7
370
    35
100
AcDbLine
 10
204.8854994428361
 20
166.9773464846483
 30
0.0
 11
204.2861299985414
 21
167.0831798179552
 31
0.0
  0
LWPOLYLINE
  5
C0
330
70
100
AcDbEntity
  8
Standardebene
 62
     7
370
    35
100
AcDbPolyline
 90
        8
 70
     0
 43
0.0
 10
204.8854994428361
 20
166.9773464846483
 10
204.8854994428361
 20
166.8461131513476
 10
204.8854994428361
 20
166.4548825958898
 10
204.8854994428361
 20
165.8152964849388
 10
204.8854994428361
 20
164.9432298184899
 10
204.8854994428361
 20
163.8619659298715
 10
204.8854994428361
 20
162.6014909301865
 10
204.8854994428361
 20
161.1939075972052
  0
LINE
  5
C1
330
70
100
AcDbEntity
  8
Standardebene
 62
     7
370
    35
100
AcDbLine
 10
204.8854994428361
 20
147.189335378484
 30
0.0
 11
205.0534216650162
 21
147.1360659340529
 31
0.0
  0
LINE
  5
C2
330
70
100
AcDbEntity
  8
Standardebene
 62
     7
370
    35
100
AcDbLine
 10
205.0534216650162
 20
167.0302631513016
 30
0.0
 11
204.8854994428361
 21
166.9773464846483
 31
0.0
  0
SPLINE
  5
C3
330
70
100
AcDbEntity
  8
Standardebene
 62
     7
370
    35
100
AcDbSpline
210
0.0
220
0.0
230
1.0
 70
     9
 71
     3
 72
    17
 73
    13
 74
     0
 42
0.0000000001
 43
0.0000000001
 40
0.0
 40
0.0
 40
0.0
 40
0.0
 40
1.0
 40
1.0
 40
1.0
 40
2.0
 40
2.0
 40
2.0
 40
3.0
 40
3.0
 40
3.0
 40
4.0
 40
4.0
 40
4.0
 40
4.0
 10
202.3356216656958
 20
157.0833409315661
 30
0.0
 10
202.3356216656958
 20
158.049599264658
 30
0.0
 10
201.5521022214471
 20
158.8331187089065
 30
0.0
 10
200.5858438883555
 20
158.8331187089065
 30
0.0
 10
199.6192327774861
 20
158.8331187089065
 30
0.0
 10
198.8357133332373
 20
158.049599264658
 30
0.0
 10
198.8357133332373
 20
157.0833409315661
 30
0.0
 10
198.8357133332373
 20
156.1167298206967
 30
0.0
 10
199.6192327774861
 20
155.333210376448
 30
0.0
 10
200.5858438883555
 20
155.333210376448
 30
0.0
 10
201.5521022214471
 20
155.333210376448
 30
0.0
 10
202.3356216656958
 20
156.1167298206967
 30
0.0
 10
202.3356216656958
 20
157.0833409315661
 30
0.0
  0
SPLINE
  5
C4
330
70
100
AcDbEntity
  8
Standardebene
 62
     7
370
    35
100
AcDbSpline
210
0.0
220
0.0
230
1.0
 70
     8
 71
     3
 72
     8
 73
     4
 74
     0
 42
0.0000000001
 43
0.0000000001
 40
0.0
 40
0.0
 40
0.0
 40
0.0
 40
1.0
 40
1.0
 40
1.0
 40
1.0
 10
205.0534216650162
 20
147.1360659340529
 30
0.0
 10
205.3257661093926
 20
147.0503409340745
 30
0.0
 10
205.6132799982098
 20
147.1685214896005
 30
0.0
 10
205.7540383315077
 20
147.4084103784292
 30
0.0
  0
SPLINE
  5
C5
330
70
100
AcDbEntity
  8
Standardebene
 62
     7
370
    35
100
AcDbSpline
210
0.0
220
0.0
230
1.0
 70
     8
 71
     3
 72
     8
 73
     4
 74
     0
 42
0.0000000001
 43
0.0000000001
 40
0.0
 40
0.0
 40
0.0
 40
0.0
 40
1.0
 40
1.0
 40
1.0
 40
1.0
 10
205.7540383315077
 20
166.758271484703
 30
0.0
 10
205.6108105537658
 20
167.0055687068634
 30
0.0
 10
205.3190633316164
 20
167.1128131512811
 30
0.0
 10
205.0534216650162
 20
167.0302631513016
 30
0.0
  0
LINE
  5
C6
330
70
100
AcDbEntity
  8
Standardebene
 62
     7
370
    35
100
AcDbLine
 10
205.7540383315077
 20
147.4084103784292
 30
0.0
 11
206.0856494425361
 21
147.9834381560633
 31
0.0
  0
LWPOLYLINE
  5
C7
330
70
100
AcDbEntity
  8
Standardebene
 62
     7
370
    35
100
AcDbPolyline
 90
       10
 70
     0
 43
0.0
 10
206.0856494425361
 20
155.7378464874579
 10
206.0856494425361
 20
154.3383770433635
 10
206.0856494425361
 20
153.0069937103629
 10
206.0856494425361
 20
151.777210377337
 10
206.0856494425361
 20
150.679365933167
 10
206.0856494425361
 20
149.7420353778457
 10
206.0856494425361
 20
148.9867381558125
 10
206.0856494425361
 20
148.4342881559507
 10
206.0856494425361
 20
148.0963270449239
 10
206.0856494425361
 20
147.9834381560633
  0
LINE
  5
C8
330
70
100
AcDbEntity
  8
Standardebene
 62
     7
370
    35
100
AcDbLine
 10
206.0856494425361
 20
166.1832437070689
 30
0.0
 11
205.7540383315077
 21
166.758271484703
 31
0.0
  0
LWPOLYLINE
  5
C9
330
70
100
AcDbEntity
  8
Standardebene
 62
     7
370
    35
100
AcDbPolyline
 90
       10
 70
     0
 43
0.0
 10
206.0856494425361
 20
166.1832437070689
 10
206.0856494425361
 20
166.0700020404306
 10
206.0856494425361
 20
165.7323937071816
 10
206.0856494425361
 20
165.179590929542
 10
206.0856494425361
 20
164.4246464852865
 10
206.0856494425361
 20
163.4869631521874
 10
206.0856494425361
 20
162.3894714857952
 10
206.0856494425361
 20
161.1596881527693
 10
206.0856494425361
 20
159.8286575975465
 10
206.0856494425361
 20
158.4288353756743
  0
LINE
  5
CA
330
70
100
AcDbEntity
  8
Standardebene
 62
     7
370
    35
100
AcDbLine
 10
176.5189911165942
 20
164.0835103742605
 30
0.0
 11
170.6628800069473
 21
161.3526575971654
 31
0.0
  0
LINE
  5
CB
330
70
100
AcDbEntity
  8
Standardebene
 62
     7
370
    35
100
AcDbLine
 10
170.6628800069473
 20
152.813671488189
 30
0.0
 11
176.5189911165942
 21
150.0831714888717
 31
0.0
  0
LWPOLYLINE
  5
CC
330
70
100
AcDbEntity
  8
Standardebene
 62
     7
370
    35
100
AcDbPolyline
 90
       19
 70
     0
 43
0.0
 10
176.5189911165942
 20
164.0835103742605
 10
176.5189911165942
 20
163.9769714853983
 10
176.5189911165942
 20
163.661235374366
 10
176.5189911165942
 20
163.145474263384
 10
176.5189911165942
 20
162.4455631524477
 10
176.5189911165942
 20
161.582668708219
 10
176.5189911165942
 20
160.5832492640246
 10
176.5189911165942
 20
159.4772909309677
 10
176.5189911165942
 20
158.2986603757066
 10
176.5189911165942
 20
157.0833409315661
 10
176.5189911165942
 20
155.8680214874256
 10
176.5189911165942
 20
154.6893909321646
 10
176.5189911165942
 20
153.5834325991077
 10
176.5189911165942
 20
152.5840131549132
 10
176.5189911165942
 20
151.7207659329067
 10
176.5189911165942
 20
151.0208548219705
 10
176.5189911165942
 20
150.5054464887662
 10
176.5189911165942
 20
150.1897103777339
 10
176.5189911165942
 20
150.0831714888717
  0
LINE
  5
CD
330
70
100
AcDbEntity
  8
Standardebene
 62
     7
370
    35
100
AcDbLine
 10
185.8143327809371
 20
164.0835103742605
 30
0.0
 11
176.5189911165942
 21
164.0835103742605
 31
0.0
  0
LINE
  5
CE
330
70
100
AcDbEntity
  8
Standardebene
 62
     7
370
    35
100
AcDbLine
 10
176.5189911165942
 20
150.0831714888717
 30
0.0
 11
185.8143327809371
 21
150.0831714888717
 31
0.0
  0
LWPOLYLINE
  5
CF
330
70
100
AcDbEntity
  8
Standardebene
 62
     7
370
    35
100
AcDbPolyline
 90
      165
 70
     0
 43
0.0
 10
177.5857911163276
 20
157.0833409315661
 10
177.5893188941046
 20
156.9679825982615
 10
177.600255005213
 20
156.8536825982903
 10
177.6175411163198
 20
156.7400881538742
 10
177.6425883385357
 20
156.6282575983465
 10
177.657052227421
 20
156.5728714872492
 10
177.67398556075
 20
156.5178381539297
 10
177.6919772274123
 20
156.4635103761657
 10
177.712438338518
 20
156.4091825984013
 10
177.7565355607292
 20
156.3033492650944
 10
177.8062772273836
 20
156.2006909317869
 10
177.8623688940361
 20
156.1015603762559
 10
177.9233994495767
 20
156.0048992651691
 10
177.9396272273502
 20
155.9809103762862
 10
177.955855005124
 20
155.9579798207365
 10
177.972788338453
 20
155.9343437096313
 10
177.989721671782
 20
155.9114131540813
 10
178.0253522273289
 20
155.8659048207593
 10
178.0609827828754
 20
155.8218075985482
 10
178.136477227301
 20
155.736788154125
 10
178.2158522272813
 20
155.6552964874788
 10
178.299107782816
 20
155.5780381541647
 10
178.3858911161276
 20
155.5043075986277
 10
178.4313994494495
 20
155.4690298208586
 10
178.4772605605492
 20
155.4348103764228
 10
178.5238272272041
 20
155.4020020430977
 10
178.5707466716371
 20
155.3695464875501
 10
178.6670550049461
 20
155.3095742653428
 10
178.7661855604768
 20
155.2527770431348
 10
178.8670800048961
 20
155.2009187098144
 10
178.9707966715371
 20
155.1532937098266
 10
179.0233605604126
 20
155.1314214876095
 10
179.0766300048437
 20
155.1102548209483
 10
179.1302522270525
 20
155.0897937098423
 10
179.1845800048169
 20
155.0710964876248
 10
179.4043605603173
 20
155.0068909320854
 10
179.6280216713725
 20
154.9610298209857
 10
179.7416161157886
 20
154.9455075987671
 10
179.8552105602047
 20
154.9338659321035
 10
179.9130661157457
 20
154.9296325987713
 10
179.9705688935093
 20
154.9268103765496
 10
180.0284244490503
 20
154.9250464876614
 10
180.0859272268136
 20
154.9243409321059
 10
180.3148800045342
 20
154.9338659321035
 10
180.5420688933664
 20
154.9610298209857
 10
180.6542522266717
 20
154.9818437098691
 10
180.7660827821993
 20
155.0065381543076
 10
180.8211161155189
 20
155.021002043193
 10
180.8765022266159
 20
155.0365242654113
 10
180.932241115491
 20
155.0534575987403
 10
180.9865688932553
 20
155.0710964876248
 10
181.1992938932019
 20
155.152588154271
 10
181.4035522264844
 20
155.2517187098018
 10
181.5019772264596
 20
155.3078103764543
 10
181.5979327819911
 20
155.3677825986616
 10
181.6455577819793
 20
155.4002381542092
 10
181.6921244486345
 20
155.4330464875343
 10
181.7150550041842
 20
155.4503325986411
 10
181.7379855597339
 20
155.4672659319701
 10
181.7605633375061
 20
155.4849048208546
 10
181.7827883375006
 20
155.5025437097392
 10
181.8695716708123
 20
155.5755687097207
 10
181.9524744485692
 20
155.6521214874796
 10
182.0314966707717
 20
155.733260376348
 10
182.1066383374195
 20
155.8172214874382
 10
182.1771938929577
 20
155.9054159318606
 10
182.2435161151631
 20
155.9978437096152
 10
182.2749133373777
 20
156.0454687096033
 10
182.3052522262588
 20
156.0945048207022
 10
182.3341800040294
 20
156.1438937095789
 10
182.3620494484668
 20
156.194693709566
 10
182.4121438928987
 20
156.2973520428737
 10
182.4569466706654
 20
156.4024798206251
 10
182.4950466706559
 20
156.5100770428206
 10
182.5271494484255
 20
156.6204964872374
 10
182.5409077817556
 20
156.6765881538899
 10
182.5521966706414
 20
156.733385376098
 10
182.5627800039723
 20
156.7908881538615
 10
182.5705411150815
 20
156.8476853760696
 10
182.5818300039676
 20
156.9630437093738
 10
182.5860633372998
 20
157.0784020426784
 10
182.5825355595228
 20
157.1944659315382
 10
182.5715994484145
 20
157.3091187092876
 10
182.5546661150854
 20
157.4220075981481
 10
182.5299716706473
 20
157.5338381536757
 10
182.5155077817619
 20
157.5895770425508
 10
182.4985744484329
 20
157.6449631536478
 10
182.4805827817706
 20
157.6999964869677
 10
182.4604744484424
 20
157.7543242647317
 10
182.4163772262312
 20
157.8601575980387
 10
182.3662827817993
 20
157.9628159313464
 10
182.3112494484794
 20
158.0626520424323
 10
182.2502188929392
 20
158.1593131535194
 10
182.2339911151657
 20
158.1829492646246
 10
182.2170577818364
 20
158.2065853757298
 10
182.2008300040629
 20
158.2295159312795
 10
182.1831911151783
 20
158.252799264607
 10
182.148266115187
 20
158.2983075979292
 10
182.111930004085
 20
158.3427575979178
 10
182.0371411152146
 20
158.427777042341
 10
181.9574133374569
 20
158.5092687089876
 10
181.8745105597
 20
158.586879820079
 10
181.7870216708328
 20
158.6602575978386
 10
181.7422188930664
 20
158.6958881533852
 10
181.6963577819667
 20
158.730107597821
 10
181.6497911153115
 20
158.7632687089238
 10
181.6021661153236
 20
158.7957242644714
 10
181.5062105597921
 20
158.8564020422339
 10
181.4070800042613
 20
158.9124937088867
 10
181.3061855598421
 20
158.9647048199845
 10
181.2021161154236
 20
159.0126825977504
 10
181.14919944877
 20
159.0349075977449
 10
181.0959300043389
 20
159.0557214866287
 10
181.0423077821301
 20
159.0758298199569
 10
180.9876272265883
 20
159.09523259773
 10
180.7678466710875
 20
159.1590853754916
 10
180.5438327822549
 20
159.2049464865913
 10
180.430943893394
 20
159.2211742643651
 10
180.3166438934227
 20
159.2328159310287
 10
180.2587883378817
 20
159.2366964865834
 10
180.2012855601181
 20
159.2398714865827
 10
180.1434300045771
 20
159.2416353754711
 10
180.0852216712583
 20
159.2419881532486
 10
179.8562688935377
 20
159.2328159310287
 10
179.6290800047058
 20
159.2049464865913
 10
179.5168966714005
 20
159.1844853754853
 10
179.4050661158729
 20
159.1597909310472
 10
179.3496800047755
 20
159.144974264384
 10
179.2939411159005
 20
159.1298048199435
 10
179.2389077825809
 20
159.1128714866142
 10
179.1838744492614
 20
159.09523259773
 10
178.9707966715371
 20
159.0130353755282
 10
178.7665383382546
 20
158.9142575977749
 10
178.6681133382793
 20
158.8581659311224
 10
178.5721577827478
 20
158.7974881533599
 10
178.5248855605374
 20
158.7650325978123
 10
178.4779661161044
 20
158.7322242644872
 10
178.4550355605547
 20
158.7152909311582
 10
178.4321050050051
 20
158.6976520422737
 10
178.4095272272328
 20
158.6803659311669
 10
178.3873022272383
 20
158.6627270422823
 10
178.3001661161489
 20
158.5889964867453
 10
178.2169105606142
 20
158.5124437089868
 10
178.1378883384117
 20
158.431304820118
 10
178.0634522273194
 20
158.3473437090278
 10
177.9928966717812
 20
158.2584437090502
 10
177.9262216717981
 20
158.166368709073
 10
177.8948244495838
 20
158.1183909313074
 10
177.8648383384802
 20
158.0693548202085
 10
177.8359105607095
 20
158.0192603757767
 10
177.8080411162721
 20
157.9691659313448
 10
177.7579466718403
 20
157.8661548202593
 10
177.713849449629
 20
157.7610270425079
 10
177.675043894083
 20
157.6527242647573
 10
177.6436466718687
 20
157.5423048203404
 10
177.6298883385388
 20
157.4855075981323
 10
177.618246671875
 20
157.4287103759243
 10
177.6087216718773
 20
157.3719131537163
 10
177.600255005213
 20
157.3147631537305
 10
177.5942577829923
 20
157.2572603759672
 10
177.5893188941046
 20
157.1994048204259
 10
177.5875550052161
 20
157.1701242648778
 10
177.5868494496606
 20
157.1411964871071
 10
177.5857911163276
 20
157.1122687093368
 10
177.5857911163276
 20
157.0833409315661
  0
SPLINE
  5
D0
330
70
100
AcDbEntity
  8
Standardebene
 62
     7
370
    35
100
AcDbSpline
210
0.0
220
0.0
230
1.0
 70
     9
 71
     3
 72
    17
 73
    13
 74
     0
 42
0.0000000001
 43
0.0000000001
 40
0.0
 40
0.0
 40
0.0
 40
0.0
 40
1.0
 40
1.0
 40
1.0
 40
2.0
 40
2.0
 40
2.0
 40
3.0
 40
3.0
 40
3.0
 40
4.0
 40
4.0
 40
4.0
 40
4.0
 10
181.7355161152902
 20
157.0833409315661
 30
0.0
 10
181.7355161152902
 20
157.9945659313382
 30
0.0
 10
180.9967994488082
 20
158.7329298200427
 30
0.0
 10
180.0859272268136
 20
158.7329298200427
 30
0.0
 10
179.1743494492637
 20
158.7329298200427
 30
0.0
 10
178.4356327827817
 20
157.9945659313382
 30
0.0
 10
178.4356327827817
 20
157.0833409315661
 30
0.0
 10
178.4356327827817
 20
156.1717631540163
 30
0.0
 10
179.1743494492637
 20
155.4330464875343
 30
0.0
 10
180.0859272268136
 20
155.4330464875343
 30
0.0
 10
180.9967994488082
 20
155.4330464875343
 30
0.0
 10
181.7355161152902
 20
156.1717631540163
 30
0.0
 10
181.7355161152902
 20
157.0833409315661
 30
0.0
  0
LINE
  5
D1
330
70
100
AcDbEntity
  8
Standardebene
 62
     7
370
    35
100
AcDbLine
 10
206.0856494425361
 20
151.0804742664003
 30
0.0
 11
206.1075216647529
 21
151.082943710844
 31
0.0
  0
LINE
  5
D2
330
70
100
AcDbEntity
  8
Standardebene
 62
     7
370
    35
100
AcDbLine
 10
206.1075216647529
 20
163.0833853745105
 30
0.0
 11
206.0856494425361
 21
163.0865603745097
 31
0.0
  0
LWPOLYLINE
  5
D3
330
70
100
AcDbEntity
  8
Standardebene
 62
     7
370
    35
100
AcDbPolyline
 90
       18
 70
     0
 43
0.0
 10
206.1075216647529
 20
151.082943710844
 10
206.1075216647529
 20
151.1856020441517
 10
206.1075216647529
 20
151.4882853774094
 10
206.1075216647529
 20
151.981821488397
 10
206.1075216647529
 20
152.6492770437856
 10
206.1075216647529
 20
153.4673687102479
 10
206.1075216647529
 20
154.4089325989014
 10
206.1075216647529
 20
155.441513154199
 10
206.1075216647529
 20
156.529832598371
 10
206.1075216647529
 20
157.6364964869835
 10
206.1075216647529
 20
158.725521486711
 10
206.1075216647529
 20
159.7573964864531
 10
206.1075216647529
 20
160.6989603751066
 10
206.1075216647529
 20
161.5174048193466
 10
206.1075216647529
 20
162.1845075969575
 10
206.1075216647529
 20
162.6780437079453
 10
206.1075216647529
 20
162.9810798189805
 10
206.1075216647529
 20
163.0833853745105
  0
SPLINE
  5
D4
330
70
100
AcDbEntity
  8
Standardebene
 62
     7
370
    35
100
AcDbSpline
210
0.0
220
0.0
230
1.0
 70
     8
 71
     3
 72
     8
 73
     4
 74
     0
 42
0.0000000001
 43
0.0000000001
 40
0.0
 40
0.0
 40
0.0
 40
0.0
 40
1.0
 40
1.0
 40
1.0
 40
1.0
 10
206.5858883312998
 20
151.5831825996077
 30
0.0
 10
206.3618744424668
 20
151.5831825996077
 30
0.0
 10
206.17207999807
 20
151.4357214885336
 30
0.0
 10
206.1075216647529
 20
151.2286409330299
 30
0.0
  0
SPLINE
  5
D5
330
70
100
AcDbEntity
  8
Standardebene
 62
     7
370
    35
100
AcDbSpline
210
0.0
220
0.0
230
1.0
 70
     8
 71
     3
 72
     8
 73
     4
 74
     0
 42
0.0000000001
 43
0.0000000001
 40
0.0
 40
0.0
 40
0.0
 40
0.0
 40
1.0
 40
1.0
 40
1.0
 40
1.0
 10
206.1075216647529
 20
162.9373353745471
 30
0.0
 10
206.1727855536252
 20
162.7231992634895
 30
0.0
 10
206.3689299980208
 20
162.5845575968575
 30
0.0
 10
206.5858883312998
 20
162.5831464857468
 30
0.0
  0
LINE
  5
D6
330
70
100
AcDbEntity
  8
Standardebene
 62
     7
370
    35
100
AcDbLine
 10
208.0858994420361
 20
151.3609325996635
 30
0.0
 11
218.0860911062026
 21
152.7663992659786
 31
0.0
  0
LINE
  5
D7
330
70
100
AcDbEntity
  8
Standardebene
 62
     7
370
    35
100
AcDbLine
 10
218.0860911062026
 20
161.399577041598
 30
0.0
 11
208.0858994420361
 21
162.8050437079135
 31
0.0
  0
LWPOLYLINE
  5
D8
330
70
100
AcDbEntity
  8
Standardebene
 62
     7
370
    35
100
AcDbPolyline
 90
       15
 70
     0
 43
0.0
 10
218.0860911062026
 20
161.399577041598
 10
218.0860911062026
 20
161.2916270416252
 10
218.0860911062026
 20
160.9720103750384
 10
218.0860911062026
 20
160.4580131529446
 10
218.0860911062026
 20
159.7743298197821
 10
218.0860911062026
 20
158.9562381533202
 10
218.0860911062026
 20
158.0439548202148
 10
218.0860911062026
 20
157.0833409315661
 10
218.0860911062026
 20
156.1227270429174
 10
218.0860911062026
 20
155.2100909320343
 10
218.0860911062026
 20
154.3919992655723
 10
218.0860911062026
 20
153.7083159324099
 10
218.0860911062026
 20
153.194318710316
 10
218.0860911062026
 20
152.8747020437293
 10
218.0860911062026
 20
152.7663992659786
  0
LWPOLYLINE
  5
D9
330
70
100
AcDbEntity
  8
Standardebene
 62
     7
370
    35
100
AcDbPolyline
 90
       17
 70
     0
 43
0.0
 10
208.0858994420361
 20
162.8050437079135
 10
208.0858994420361
 20
162.6949770412744
 10
208.0858994420361
 20
162.3693631524669
 10
208.0858994420361
 20
161.84054926371
 10
208.0858994420361
 20
161.1293492638879
 10
208.0858994420361
 20
160.2622214863271
 10
208.0858994420361
 20
159.2726798199077
 10
208.0858994420361
 20
158.1991770423981
 10
208.0858994420361
 20
157.0833409315661
 10
208.0858994420361
 20
155.9667992651786
 10
208.0858994420361
 20
154.8936492654467
 10
208.0858994420361
 20
153.9041075990277
 10
208.0858994420361
 20
153.0373325992442
 10
208.0858994420361
 20
152.3254270438667
 10
208.0858994420361
 20
151.7969659328878
 10
208.0858994420361
 20
151.4713520440801
 10
208.0858994420361
 20
151.3609325996635
  0
LINE
  5
DA
330
70
100
AcDbEntity
  8
Standardebene
 62
     7
370
    35
100
AcDbLine
 10
206.5858883312998
 20
151.5831825996077
 30
0.0
 11
208.0858994420361
 21
151.5831825996077
 31
0.0
  0
LINE
  5
DB
330
70
100
AcDbEntity
  8
Standardebene
 62
     7
370
    35
100
AcDbLine
 10
208.0858994420361
 20
162.5831464857468
 30
0.0
 11
206.5858883312998
 21
162.5831464857468
 31
0.0
  0
SPLINE
  5
DC
330
70
100
AcDbEntity
  8
Standardebene
 62
     7
370
    35
100
AcDbSpline
210
0.0
220
0.0
230
1.0
 70
     8
 71
     3
 72
     8
 73
     4
 74
     0
 42
0.0000000001
 43
0.0000000001
 40
0.0
 40
0.0
 40
0.0
 40
0.0
 40
1.0
 40
1.0
 40
1.0
 40
1.0
 10
218.0860911062026
 20
161.399577041598
 30
0.0
 10
218.1866327728441
 20
161.0517381527962
 30
0.0
 10
218.5037799949872
 20
160.8256075972973
 30
0.0
 10
218.8537355504549
 20
160.823490930631
 30
0.0
  0
SPLINE
  5
DD
330
70
100
AcDbEntity
  8
Standardebene
 62
     7
370
    35
100
AcDbSpline
210
0.0
220
0.0
230
1.0
 70
     8
 71
     3
 72
     8
 73
     4
 74
     0
 42
0.0000000001
 43
0.0000000001
 40
0.0
 40
0.0
 40
0.0
 40
0.0
 40
1.0
 40
1.0
 40
1.0
 40
1.0
 10
218.8537355504549
 20
153.343543710279
 30
0.0
 10
218.4917855505455
 20
153.343543710279
 30
0.0
 10
218.1855744395111
 20
153.1022437103392
 30
0.0
 10
218.0860911062026
 20
152.7663992659786
 30
0.0
  0
SPLINE
  5
DE
330
70
100
AcDbEntity
  8
Standardebene
 62
     7
370
    35
100
AcDbSpline
210
0.0
220
0.0
230
1.0
 70
     8
 71
     3
 72
     8
 73
     4
 74
     0
 42
0.0000000001
 43
0.0000000001
 40
0.0
 40
0.0
 40
0.0
 40
0.0
 40
1.0
 40
1.0
 40
1.0
 40
1.0
 10
170.6628800069473
 20
161.3526575971654
 30
0.0
 10
170.3016355625931
 20
161.1836770416523
 30
0.0
 10
170.0885577848685
 20
160.827018708408
 30
0.0
 10
170.0860883404248
 20
160.4460187085033
 30
0.0
  0
SPLINE
  5
DF
330
70
100
AcDbEntity
  8
Standardebene
 62
     7
370
    35
100
AcDbSpline
210
0.0
220
0.0
230
1.0
 70
     8
 71
     3
 72
     8
 73
     4
 74
     0
 42
0.0000000001
 43
0.0000000001
 40
0.0
 40
0.0
 40
0.0
 40
0.0
 40
1.0
 40
1.0
 40
1.0
 40
1.0
 10
170.0860883404248
 20
153.7203103768512
 30
0.0
 10
170.0860883404248
 20
153.3216714880622
 30
0.0
 10
170.3192744514776
 20
152.977360377037
 30
0.0
 10
170.6628800069473
 20
152.813671488189
 30
0.0
  0
LWPOLYLINE
  5
E0
330
70
100
AcDbEntity
  8
Standardebene
 62
     7
370
    35
100
AcDbPolyline
 90
       13
 70
     0
 43
0.0
 10
170.0860883404248
 20
160.4460187085033
 10
170.0860883404248
 20
160.3317187085317
 10
170.0860883404248
 20
159.9958742641714
 10
170.0860883404248
 20
159.4610631531938
 10
170.0860883404248
 20
158.7646798200348
 10
170.0860883404248
 20
157.9532909313487
 10
170.0860883404248
 20
157.0833409315661
 10
170.0860883404248
 20
156.2126853762283
 10
170.0860883404248
 20
155.4016492653199
 10
170.0860883404248
 20
154.7049131543829
 10
170.0860883404248
 20
154.1704548211834
 10
170.0860883404248
 20
153.8346103768228
 10
170.0860883404248
 20
153.7203103768512
  0
LINE
  5
E1
330
70
100
AcDbEntity
  8
Standardebene
 62
     7
370
    35
100
AcDbLine
 10
221.2854327720693
 20
161.0834881527883
 30
0.0
 11
219.5861022169385
 21
161.0834881527883
 31
0.0
  0
LINE
  5
E2
330
70
100
AcDbEntity
  8
Standardebene
 62
     7
370
    35
100
AcDbLine
 10
219.5861022169385
 20
153.083193710344
 30
0.0
 11
221.2854327720693
 21
153.083193710344
 31
0.0
  0
LWPOLYLINE
  5
E3
330
70
100
AcDbEntity
  8
Standardebene
 62
     7
370
    35
100
AcDbPolyline
 90
       14
 70
     0
 43
0.0
 10
219.5861022169385
 20
161.0834881527883
 10
219.5861022169385
 20
160.966718708373
 10
219.5861022169385
 20
160.6252298195695
 10
219.5861022169385
 20
160.0773659308176
 10
219.5861022169385
 20
159.3552298198869
 10
219.5861022169385
 20
158.5018603756559
 10
219.5861022169385
 20
157.5652353758901
 10
219.5861022169385
 20
156.6010937094644
 10
219.5861022169385
 20
155.6648214874764
 10
219.5861022169385
 20
154.8107464876898
 10
219.5861022169385
 20
154.0889631545368
 10
219.5861022169385
 20
153.5414520435627
 10
219.5861022169385
 20
153.1996103769815
 10
219.5861022169385
 20
153.083193710344
  0
LWPOLYLINE
  5
E4
330
70
100
AcDbEntity
  8
Standardebene
 62
     7
370
    35
100
AcDbPolyline
 90
       15
 70
     0
 43
0.0
 10
221.2854327720693
 20
161.0834881527883
 10
221.2854327720693
 20
160.966718708373
 10
221.2854327720693
 20
160.6252298195695
 10
221.2854327720693
 20
160.0773659308176
 10
221.2854327720693
 20
159.3552298198869
 10
221.2854327720693
 20
158.5018603756559
 10
221.2854327720693
 20
157.5652353758901
 10
221.2854327720693
 20
156.6010937094644
 10
221.2854327720693
 20
155.6648214874764
 10
221.2854327720693
 20
154.8107464876898
 10
221.2854327720693
 20
154.0889631545368
 10
221.2854327720693
 20
153.5414520435627
 10
221.2854327720693
 20
153.1996103769815
 10
221.2854327720693
 20
153.083193710344
 10
221.885860549697
 20
153.1886742658731
  0
LINE
  5
E5
330
70
100
AcDbEntity
  8
Standardebene
 62
     7
370
    35
100
AcDbLine
 10
221.885860549697
 20
160.9773020417036
 30
0.0
 11
221.2854327720693
 21
161.0834881527883
 31
0.0
  0
LWPOLYLINE
  5
E6
330
70
100
AcDbEntity
  8
Standardebene
 62
     7
370
    35
100
AcDbPolyline
 90
       14
 70
     0
 43
0.0
 10
221.885860549697
 20
160.9773020417036
 10
221.885860549697
 20
160.864413152843
 10
221.885860549697
 20
160.5310381529264
 10
221.885860549697
 20
159.9979909308373
 10
221.885860549697
 20
159.2956103754574
 10
221.885860549697
 20
158.4644659312208
 10
221.885860549697
 20
157.5525353758932
 10
221.885860549697
 20
156.6137937094612
 10
221.885860549697
 20
155.7022159319114
 10
221.885860549697
 20
154.8710714876748
 10
221.885860549697
 20
154.1686909322949
 10
221.885860549697
 20
153.635290932428
 10
221.885860549697
 20
153.3022687102892
 10
221.885860549697
 20
153.1886742658731
  0
SPLINE
  5
E7
330
70
100
AcDbEntity
  8
Standardebene
 62
     7
370
    35
100
AcDbSpline
210
0.0
220
0.0
230
1.0
 70
     8
 71
     3
 72
     8
 73
     4
 74
     0
 42
0.0000000001
 43
0.0000000001
 40
0.0
 40
0.0
 40
0.0
 40
0.0
 40
1.0
 40
1.0
 40
1.0
 40
1.0
 10
219.2110994392545
 20
160.823490930631
 30
0.0
 10
219.3818438836564
 20
160.823490930631
 30
0.0
 10
219.5271883280646
 20
160.9303825972709
 30
0.0
 10
219.5861022169385
 20
161.0834881527883
 30
0.0
  0
SPLINE
  5
E8
330
70
100
AcDbEntity
  8
Standardebene
 62
     7
370
    35
100
AcDbSpline
210
0.0
220
0.0
230
1.0
 70
     8
 71
     3
 72
     8
 73
     4
 74
     0
 42
0.0000000001
 43
0.0000000001
 40
0.0
 40
0.0
 40
0.0
 40
0.0
 40
1.0
 40
1.0
 40
1.0
 40
1.0
 10
219.5861022169385
 20
153.083193710344
 30
0.0
 10
219.5261299947313
 20
153.2430020436375
 30
0.0
 10
219.3751411058802
 20
153.3421325991682
 30
0.0
 10
219.2110994392545
 20
153.343543710279
 30
0.0
  0
SPLINE
  5
E9
330
70
100
AcDbEntity
  8
Standardebene
 62
     7
370
    35
100
AcDbSpline
210
0.0
220
0.0
230
1.0
 70
     8
 71
     3
 72
     8
 73
     4
 74
     0
 42
0.0000000001
 43
0.0000000001
 40
0.0
 40
0.0
 40
0.0
 40
0.0
 40
1.0
 40
1.0
 40
1.0
 40
1.0
 10
222.7540466605912
 20
160.7578742639809
 30
0.0
 10
222.611171660627
 20
161.005524263919
 30
0.0
 10
222.3187188829221
 20
161.1124159305589
 30
0.0
 10
222.0537827718775
 20
161.030571486135
 30
0.0
  0
SPLINE
  5
EA
330
70
100
AcDbEntity
  8
Standardebene
 62
     7
370
    35
100
AcDbSpline
210
0.0
220
0.0
230
1.0
 70
     8
 71
     3
 72
     8
 73
     4
 74
     0
 42
0.0000000001
 43
0.0000000001
 40
0.0
 40
0.0
 40
0.0
 40
0.0
 40
1.0
 40
1.0
 40
1.0
 40
1.0
 10
222.0537827718775
 20
153.1357575992198
 30
0.0
 10
222.3254216606983
 20
153.0503853770189
 30
0.0
 10
222.6136411050707
 20
153.1682131547671
 30
0.0
 10
222.7540466605912
 20
153.4081020435962
 30
0.0
  0
LINE
  5
EB
330
70
100
AcDbEntity
  8
Standardebene
 62
     7
370
    35
100
AcDbLine
 10
222.0537827718775
 20
161.030571486135
 30
0.0
 11
221.885860549697
 21
160.9773020417036
 31
0.0
  0
LINE
  5
EC
330
70
100
AcDbEntity
  8
Standardebene
 62
     7
370
    35
100
AcDbLine
 10
221.885860549697
 20
153.1886742658731
 30
0.0
 11
222.0537827718775
 21
153.1357575992198
 31
0.0
  0
LINE
  5
ED
330
70
100
AcDbEntity
  8
Standardebene
 62
     7
370
    35
100
AcDbLine
 10
219.2110994392545
 20
160.823490930631
 30
0.0
 11
218.8537355504549
 21
160.823490930631
 31
0.0
  0
LINE
  5
EE
330
70
100
AcDbEntity
  8
Standardebene
 62
     7
370
    35
100
AcDbLine
 10
218.8537355504549
 20
153.343543710279
 30
0.0
 11
219.2110994392545
 21
153.343543710279
 31
0.0
  0
LINE
  5
EF
330
70
100
AcDbEntity
  8
Standardebene
 62
     7
370
    35
100
AcDbLine
 10
222.7540466605912
 20
153.4081020435962
 30
0.0
 11
223.086010549397
 21
153.9831298212302
 31
0.0
  0
LINE
  5
F0
330
70
100
AcDbEntity
  8
Standardebene
 62
     7
370
    35
100
AcDbLine
 10
223.086010549397
 20
160.1831992641246
 30
0.0
 11
222.7540466605912
 21
160.7582270417586
 31
0.0
  0
LWPOLYLINE
  5
F1
330
70
100
AcDbEntity
  8
Standardebene
 62
     7
370
    35
100
AcDbPolyline
 90
       13
 70
     0
 43
0.0
 10
223.086010549397
 20
160.1831992641246
 10
223.086010549397
 20
160.0777187085954
 10
223.086010549397
 20
159.7676270420063
 10
223.086010549397
 20
159.2755020421291
 10
223.086010549397
 20
158.6330937089565
 10
223.086010549397
 20
157.8855575980323
 10
223.086010549397
 20
157.0833409315661
 10
223.086010549397
 20
156.2811242650999
 10
223.086010549397
 20
155.533235376398
 10
223.086010549397
 20
154.8911798210031
 10
223.086010549397
 20
154.3987020433485
 10
223.086010549397
 20
154.0889631545368
 10
223.086010549397
 20
153.9831298212302
  0
SPLINE
  5
F2
330
70
100
AcDbEntity
  8
Standardebene
 62
     7
370
    35
100
AcDbSpline
210
0.0
220
0.0
230
1.0
 70
     8
 71
     3
 72
    11
 73
     7
 74
     0
 42
0.0000000001
 43
0.0000000001
 40
0.0
 40
0.0
 40
0.0
 40
0.0
 40
1.0
 40
1.0
 40
1.0
 40
2.0
 40
2.0
 40
2.0
 40
2.0
 10
191.5861300017163
 20
111.0144437208611
 30
0.0
 10
191.5861300017163
 20
110.5999298320758
 30
0.0
 10
191.9216216682992
 20
110.2640853877153
 30
0.0
 10
192.3357827793067
 20
110.2640853877153
 30
0.0
 10
192.750296668092
 20
110.2640853877153
 30
0.0
 10
193.0861411124526
 20
110.5999298320758
 30
0.0
 10
193.0861411124526
 20
111.0144437208611
 30
0.0
  0
SPLINE
  5
F3
330
70
100
AcDbEntity
  8
Standardebene
 62
     7
370
    35
100
AcDbSpline
210
0.0
220
0.0
230
1.0
 70
     8
 71
     3
 72
    11
 73
     7
 74
     0
 42
0.0000000001
 43
0.0000000001
 40
0.0
 40
0.0
 40
0.0
 40
0.0
 40
1.0
 40
1.0
 40
1.0
 40
2.0
 40
2.0
 40
2.0
 40
2.0
 10
193.0861411124526
 20
82.31420761692493
 30
0.0
 10
193.0861411124526
 20
82.72872150571027
 30
0.0
 10
192.750296668092
 20
83.06456595007082
 30
0.0
 10
192.3357827793067
 20
83.06456595007082
 30
0.0
 10
191.9216216682992
 20
83.06456595007082
 30
0.0
 10
191.5861300017163
 20
82.72872150571027
 30
0.0
 10
191.5861300017163
 20
82.31420761692493
 30
0.0
  0
LWPOLYLINE
  5
F4
330
70
100
AcDbEntity
  8
Standardebene
 62
     7
370
    35
100
AcDbPolyline
 90
       14
 70
     0
 43
0.0
 10
191.5861300017163
 20
96.66450205778209
 10
191.5861300017163
 20
94.93447983599221
 10
191.5861300017163
 20
93.22985761419635
 10
191.5861300017163
 20
91.57532983683202
 10
191.5861300017163
 20
89.99559094833804
 10
191.5861300017163
 20
88.51251317093113
 10
191.5861300017163
 20
87.14867428238321
 10
191.5861300017163
 20
85.92312428268954
 10
191.5861300017163
 20
84.85456039406797
 10
191.5861300017163
 20
83.9577992831809
 10
191.5861300017163
 20
83.24695206113629
 10
191.5861300017163
 20
82.73119095015427
 10
191.5861300017163
 20
82.41862983912115
 10
191.5861300017163
 20
82.31420761692493
  0
LWPOLYLINE
  5
F5
330
70
100
AcDbEntity
  8
Standardebene
 62
     7
370
    35
100
AcDbPolyline
 90
       14
 70
     0
 43
0.0
 10
191.5861300017163
 20
111.0144437208611
 10
191.5861300017163
 20
110.9093159431097
 10
191.5861300017163
 20
110.5974603876321
 10
191.5861300017163
 20
110.0816992766498
 10
191.5861300017163
 20
109.3704992768277
 10
191.5861300017163
 20
108.4740909437184
 10
191.5861300017163
 20
107.4055270550965
 10
191.5861300017163
 20
106.1799770554032
 10
191.5861300017163
 20
104.8157853890775
 10
191.5861300017163
 20
103.333060389448
 10
191.5861300017163
 20
101.7526159453989
 10
191.5861300017163
 20
100.0980881680345
 10
191.5861300017163
 20
98.39417150179388
 10
191.5861300017163
 20
96.66450205778209
  0
LWPOLYLINE
  5
F6
330
70
100
AcDbEntity
  8
Standardebene
 62
     7
370
    35
100
AcDbPolyline
 90
       14
 70
     0
 43
0.0
 10
193.0861411124526
 20
96.66450205778209
 10
193.0861411124526
 20
94.93447983599221
 10
193.0861411124526
 20
93.22985761419635
 10
193.0861411124526
 20
91.57532983683202
 10
193.0861411124526
 20
89.99559094833804
 10
193.0861411124526
 20
88.51251317093113
 10
193.0861411124526
 20
87.14867428238321
 10
193.0861411124526
 20
85.92312428268954
 10
193.0861411124526
 20
84.85456039406797
 10
193.0861411124526
 20
83.9577992831809
 10
193.0861411124526
 20
83.24695206113629
 10
193.0861411124526
 20
82.73119095015427
 10
193.0861411124526
 20
82.41862983912115
 10
193.0861411124526
 20
82.31420761692493
  0
LWPOLYLINE
  5
F7
330
70
100
AcDbEntity
  8
Standardebene
 62
     7
370
    35
100
AcDbPolyline
 90
       14
 70
     0
 43
0.0
 10
193.0861411124526
 20
111.0144437208611
 10
193.0861411124526
 20
110.9093159431097
 10
193.0861411124526
 20
110.5974603876321
 10
193.0861411124526
 20
110.0816992766498
 10
193.0861411124526
 20
109.3704992768277
 10
193.0861411124526
 20
108.4740909437184
 10
193.0861411124526
 20
107.4055270550965
 10
193.0861411124526
 20
106.1799770554032
 10
193.0861411124526
 20
104.8157853890775
 10
193.0861411124526
 20
103.333060389448
 10
193.0861411124526
 20
101.7526159453989
 10
193.0861411124526
 20
100.0980881680345
 10
193.0861411124526
 20
98.39417150179388
 10
193.0861411124526
 20
96.66450205778209
  0
LINE
  5
F8
330
70
100
AcDbEntity
  8
Standardebene
 62
     7
370
    35
100
AcDbLine
 10
194.885660556447
 20
111.0144437208611
 30
0.0
 11
193.0861411124526
 21
111.0144437208611
 31
0.0
  0
LINE
  5
F9
330
70
100
AcDbEntity
  8
Standardebene
 62
     7
370
    35
100
AcDbLine
 10
193.0861411124526
 20
82.31420761692493
 30
0.0
 11
194.885660556447
 21
82.31420761692493
 31
0.0
  0
LWPOLYLINE
  5
FA
330
70
100
AcDbEntity
  8
Standardebene
 62
     7
370
    35
100
AcDbPolyline
 90
       14
 70
     0
 43
0.0
 10
194.885660556447
 20
96.66450205778209
 10
194.885660556447
 20
94.93447983599221
 10
194.885660556447
 20
93.22985761419635
 10
194.885660556447
 20
91.57532983683202
 10
194.885660556447
 20
89.99559094833804
 10
194.885660556447
 20
88.51251317093113
 10
194.885660556447
 20
87.14867428238321
 10
194.885660556447
 20
85.92312428268954
 10
194.885660556447
 20
84.85456039406797
 10
194.885660556447
 20
83.9577992831809
 10
194.885660556447
 20
83.24695206113629
 10
194.885660556447
 20
82.73119095015427
 10
194.885660556447
 20
82.41862983912115
 10
194.885660556447
 20
82.31420761692493
  0
LWPOLYLINE
  5
FB
330
70
100
AcDbEntity
  8
Standardebene
 62
     7
370
    35
100
AcDbPolyline
 90
       14
 70
     0
 43
0.0
 10
194.885660556447
 20
111.0144437208611
 10
194.885660556447
 20
110.9093159431097
 10
194.885660556447
 20
110.5974603876321
 10
194.885660556447
 20
110.0816992766498
 10
194.885660556447
 20
109.3704992768277
 10
194.885660556447
 20
108.4740909437184
 10
194.885660556447
 20
107.4055270550965
 10
194.885660556447
 20
106.1799770554032
 10
194.885660556447
 20
104.8157853890775
 10
194.885660556447
 20
103.333060389448
 10
194.885660556447
 20
101.7526159453989
 10
194.885660556447
 20
100.0980881680345
 10
194.885660556447
 20
98.39417150179388
 10
194.885660556447
 20
96.66450205778209
  0
LINE
  5
FC
330
70
100
AcDbEntity
  8
Standardebene
 62
     7
370
    35
100
AcDbLine
 10
191.5861300017163
 20
111.0144437208611
 30
0.0
 11
190.0857661132026
 21
111.0144437208611
 31
0.0
  0
LINE
  5
FD
330
70
100
AcDbEntity
  8
Standardebene
 62
     7
370
    35
100
AcDbLine
 10
190.0857661132026
 20
82.31420761692493
 30
0.0
 11
191.5861300017163
 21
82.31420761692493
 31
0.0
  0
LWPOLYLINE
  5
FE
330
70
100
AcDbEntity
  8
Standardebene
 62
     7
370
    35
100
AcDbPolyline
 90
       14
 70
     0
 43
0.0
 10
190.0857661132026
 20
96.66450205778209
 10
190.0857661132026
 20
94.93447983599221
 10
190.0857661132026
 20
93.22985761419635
 10
190.0857661132026
 20
91.57532983683202
 10
190.0857661132026
 20
89.99559094833804
 10
190.0857661132026
 20
88.51251317093113
 10
190.0857661132026
 20
87.14867428238321
 10
190.0857661132026
 20
85.92312428268954
 10
190.0857661132026
 20
84.85456039406797
 10
190.0857661132026
 20
83.9577992831809
 10
190.0857661132026
 20
83.24695206113629
 10
190.0857661132026
 20
82.73119095015427
 10
190.0857661132026
 20
82.41862983912115
 10
190.0857661132026
 20
82.31420761692493
  0
LWPOLYLINE
  5
FF
330
70
100
AcDbEntity
  8
Standardebene
 62
     7
370
    35
100
AcDbPolyline
 90
       14
 70
     0
 43
0.0
 10
190.0857661132026
 20
111.0144437208611
 10
190.0857661132026
 20
110.9093159431097
 10
190.0857661132026
 20
110.5974603876321
 10
190.0857661132026
 20
110.0816992766498
 10
190.0857661132026
 20
109.3704992768277
 10
190.0857661132026
 20
108.4740909437184
 10
190.0857661132026
 20
107.4055270550965
 10
190.0857661132026
 20
106.1799770554032
 10
190.0857661132026
 20
104.8157853890775
 10
190.0857661132026
 20
103.333060389448
 10
190.0857661132026
 20
101.7526159453989
 10
190.0857661132026
 20
100.0980881680345
 10
190.0857661132026
 20
98.39417150179388
 10
190.0857661132026
 20
96.66450205778209
  0
LINE
  5
100
330
70
100
AcDbEntity
  8
Standardebene
 62
     7
370
    35
100
AcDbLine
 10
194.885660556447
 20
82.31420761692493
 30
0.0
 11
195.085685556397
 21
82.51423261687525
 31
0.0
  0
LINE
  5
101
330
70
100
AcDbEntity
  8
Standardebene
 62
     7
370
    35
100
AcDbLine
 10
195.085685556397
 20
110.8144187209111
 30
0.0
 11
194.885660556447
 21
111.0144437208611
 31
0.0
  0
LWPOLYLINE
  5
102
330
70
100
AcDbEntity
  8
Standardebene
 62
     7
370
    35
100
AcDbPolyline
 90
       14
 70
     0
 43
0.0
 10
195.085685556397
 20
96.66450205778209
 10
195.085685556397
 20
94.95882150265293
 10
195.085685556397
 20
93.27818816973971
 10
195.085685556397
 20
91.6465909479254
 10
195.085685556397
 20
90.08872428164814
 10
195.085685556397
 20
88.62610761534723
 10
195.085685556397
 20
87.2809659490168
 10
195.085685556397
 20
86.07270206042992
 10
195.085685556397
 20
85.01930761624887
 10
195.085685556397
 20
84.13489372758091
 10
195.085685556397
 20
83.43357150553423
 10
195.085685556397
 20
82.92557150566103
 10
195.085685556397
 20
82.61759650573818
 10
195.085685556397
 20
82.51423261687525
  0
LWPOLYLINE
  5
103
330
70
100
AcDbEntity
  8
Standardebene
 62
     7
370
    35
100
AcDbPolyline
 90
       14
 70
     0
 43
0.0
 10
195.085685556397
 20
110.8144187209111
 10
195.085685556397
 20
110.7110548320482
 10
195.085685556397
 20
110.403079832125
 10
195.085685556397
 20
109.8943742766966
 10
195.085685556397
 20
109.1937576102052
 10
195.085685556397
 20
108.3093437215375
 10
195.085685556397
 20
107.2559492773565
 10
195.085685556397
 20
106.0476853887696
 10
195.085685556397
 20
104.7025437224392
 10
195.085685556397
 20
103.2399270561382
 10
195.085685556397
 20
101.682060389861
 10
195.085685556397
 20
100.0504631680467
 10
195.085685556397
 20
98.36982983513347
 10
195.085685556397
 20
96.66450205778209
  0
LINE
  5
104
330
70
100
AcDbEntity
  8
Standardebene
 62
     7
370
    35
100
AcDbLine
 10
190.0857661132026
 20
111.0144437208611
 30
0.0
 11
188.7120494468793
 21
105.8875242776983
 31
0.0
  0
LINE
  5
105
330
70
100
AcDbEntity
  8
Standardebene
 62
     7
370
    35
100
AcDbLine
 10
188.7120494468793
 20
87.44042150453259
 30
0.0
 11
190.0857661132026
 21
82.31420761692493
 31
0.0
  0
SPLINE
  5
106
330
70
100
AcDbEntity
  8
Standardebene
 62
     7
370
    35
100
AcDbSpline
210
0.0
220
0.0
230
1.0
 70
     8
 71
     3
 72
     8
 73
     4
 74
     0
 42
0.0000000001
 43
0.0000000001
 40
0.0
 40
0.0
 40
0.0
 40
0.0
 40
1.0
 40
1.0
 40
1.0
 40
1.0
 10
195.4807966674093
 20
86.96452428242926
 30
0.0
 10
195.329102223003
 20
86.96452428242926
 30
0.0
 10
195.1908133341484
 20
86.90772706022123
 30
0.0
 10
195.085685556397
 20
86.81600483802185
 30
0.0
  0
SPLINE
  5
107
330
70
100
AcDbEntity
  8
Standardebene
 62
     7
370
    35
100
AcDbSpline
210
0.0
220
0.0
230
1.0
 70
     8
 71
     3
 72
     8
 73
     4
 74
     0
 42
0.0000000001
 43
0.0000000001
 40
0.0
 40
0.0
 40
0.0
 40
0.0
 40
1.0
 40
1.0
 40
1.0
 40
1.0
 10
195.085685556397
 20
106.5126464997642
 30
0.0
 10
195.1996327785909
 20
106.413163166456
 30
0.0
 10
195.3410966674443
 20
106.3641270553571
 30
0.0
 10
195.4807966674093
 20
106.3641270553571
 30
0.0
  0
LWPOLYLINE
  5
108
330
70
100
AcDbEntity
  8
Standardebene
 62
     7
370
    35
100
AcDbPolyline
 90
       38
 70
     0
 43
0.0
 10
197.5858216668832
 20
105.752763166621
 10
197.6588466668648
 20
105.7086659444098
 10
197.7332827779574
 20
105.6645687221986
 10
204.2861299985414
 20
105.6645687221986
 10
204.2861299985414
 20
104.9156215001638
 10
204.2861299985414
 20
103.9835826115076
 10
204.2861299985414
 20
102.8889131673368
 10
204.2861299985414
 20
101.6548965009788
 10
204.2861299985414
 20
100.3108131679814
 10
204.2861299985414
 20
98.88523816833803
 10
204.2861299985414
 20
97.40992150203997
 10
204.2861299985414
 20
95.91872983574614
 10
204.2861299985414
 20
94.44341316944838
 10
204.2861299985414
 20
93.01783816980471
 10
204.2861299985414
 20
91.67304928125204
 10
204.2861299985414
 20
90.43973817044923
 10
204.2861299985414
 20
89.34506872627844
 10
204.2861299985414
 20
88.41302983762261
 10
204.2861299985414
 20
87.66443539336522
 10
197.7332827779574
 20
87.66443539336522
 10
197.6588466668648
 20
87.61998539337659
 10
197.5858216668832
 20
87.57624094894282
 10
197.5858216668832
 20
88.26062983766078
 10
197.5858216668832
 20
89.11611594855809
 10
197.5858216668832
 20
90.12506039275018
 10
197.5858216668832
 20
91.26594372579811
 10
197.5858216668832
 20
92.51654094770771
 10
197.5858216668832
 20
93.85145205848528
 10
197.5858216668832
 20
95.24316039147059
 10
197.5858216668832
 20
96.66450205778209
 10
197.5858216668832
 20
98.08478539076029
 10
197.5858216668832
 20
99.47719927930112
 10
197.5858216668832
 20
100.8114048345231
 10
197.5858216668832
 20
102.0627076119879
 10
197.5858216668832
 20
103.2035909450362
 10
197.5858216668832
 20
104.2118298336728
 10
197.5858216668832
 20
105.0673159445701
 10
197.5858216668832
 20
105.752763166621
  0
LWPOLYLINE
  5
109
330
70
100
AcDbEntity
  8
Standardebene
 62
     7
370
    35
100
AcDbPolyline
 90
        3
 70
     0
 43
0.0
 10
204.2861299985414
 20
87.66443539336522
 10
204.5863438873554
 20
87.66443539336522
 10
204.8854994428361
 20
87.66443539336522
  0
LWPOLYLINE
  5
10A
330
70
100
AcDbEntity
  8
Standardebene
 62
     7
370
    35
100
AcDbPolyline
 90
        3
 70
     0
 43
0.0
 10
204.8854994428361
 20
105.6645687221986
 10
204.5863438873554
 20
105.6645687221986
 10
204.2861299985414
 20
105.6645687221986
  0
LWPOLYLINE
  5
10B
330
70
100
AcDbEntity
  8
Standardebene
 62
     7
370
    35
100
AcDbPolyline
 90
       16
 70
     0
 43
0.0
 10
204.8854994428361
 20
105.6645687221986
 10
204.8854994428361
 20
104.9360826112694
 10
204.8854994428361
 20
104.0167437226105
 10
204.8854994428361
 20
102.9270131673274
 10
204.8854994428361
 20
101.6922909454138
 10
204.8854994428361
 20
100.3415048346405
 10
204.8854994428361
 20
98.90499372388852
 10
204.8854994428361
 20
97.41732983537167
 10
204.8854994428361
 20
95.91132150241476
 10
204.8854994428361
 20
94.42295205834238
 10
204.8854994428361
 20
92.98714650314588
 10
204.8854994428361
 20
91.63565483681704
 10
204.8854994428361
 20
90.40093261490349
 10
204.8854994428361
 20
89.3112020596204
 10
204.8854994428361
 20
88.3918631709611
 10
204.8854994428361
 20
87.66443539336522
  0
LWPOLYLINE
  5
10C
330
70
100
AcDbEntity
  8
Standardebene
 62
     7
370
    35
100
AcDbPolyline
 90
        9
 70
     0
 43
0.0
 10
197.5858216668832
 20
105.752763166621
 10
197.40766888915
 20
105.8398992777104
 10
197.2429216669688
 20
105.9213909443567
 10
197.0905216670069
 20
105.9975909443374
 10
196.9515272225972
 20
106.0670881665423
 10
196.826996667073
 20
106.1305881665265
 10
196.7165772226562
 20
106.1859742776238
 10
196.6216800004576
 20
106.2350103887227
 10
196.542657778255
 20
106.2752270553792
  0
LWPOLYLINE
  5
10D
330
70
100
AcDbEntity
  8
Standardebene
 62
     7
370
    35
100
AcDbPolyline
 90
        9
 70
     0
 43
0.0
 10
196.542657778255
 20
87.05307150462942
 10
196.6216800004576
 20
87.09364094906366
 10
196.7165772226562
 20
87.14197150460703
 10
196.826996667073
 20
87.19806317125955
 10
196.9515272225972
 20
87.26156317124377
 10
197.0905216670069
 20
87.33106039344866
 10
197.2429216669688
 20
87.40655483787421
 10
197.40766888915
 20
87.48875206007594
 10
197.5858216668832
 20
87.57624094894282
  0
LWPOLYLINE
  5
10E
330
70
100
AcDbEntity
  8
Standardebene
 62
     7
370
    35
100
AcDbPolyline
 90
       35
 70
     0
 43
0.0
 10
205.7540383315077
 20
105.6645687221986
 10
205.7378105537342
 20
105.6645687221986
 10
205.719818887072
 20
105.6645687221986
 10
205.6986522204104
 20
105.6645687221986
 10
205.6757216648607
 20
105.6645687221986
 10
205.6496161093118
 20
105.6645687221986
 10
205.6199827759856
 20
105.6645687221986
 10
205.6037549982121
 20
105.6645687221986
 10
205.5861161093276
 20
105.6645687221986
 10
205.5674188871101
 20
105.6645687221986
 10
205.5480161093371
 20
105.6645687221986
 10
205.5268494426756
 20
105.6645687221986
 10
205.5046244426814
 20
105.6645687221986
 10
205.4806355537984
 20
105.6645687221986
 10
205.4545299982492
 20
105.6645687221986
 10
205.4407716649194
 20
105.6645687221986
 10
205.4266605538118
 20
105.6645687221986
 10
205.4114911093713
 20
105.6645687221986
 10
205.3966744427082
 20
105.6645687221986
 10
205.3807994427121
 20
105.6645687221986
 10
205.3645716649384
 20
105.6645687221986
 10
205.3483438871648
 20
105.6645687221986
 10
205.3314105538358
 20
105.6645687221986
 10
205.2961327760667
 20
105.6645687221986
 10
205.2605022205202
 20
105.6645687221986
 10
205.2418049983024
 20
105.6645687221986
 10
205.2231077760849
 20
105.6645687221986
 10
205.2051161094229
 20
105.6645687221986
 10
205.1867716649828
 20
105.6645687221986
 10
205.1687799983208
 20
105.6645687221986
 10
205.1511411094363
 20
105.6645687221986
 10
205.1338549983295
 20
105.6645687221986
 10
205.1169216650005
 20
105.6645687221986
 10
205.0841133316754
 20
105.6645687221986
 10
205.0534216650162
 20
105.6645687221986
  0
LWPOLYLINE
  5
10F
330
70
100
AcDbEntity
  8
Standardebene
 62
     7
370
    35
100
AcDbPolyline
 90
       39
 70
     0
 43
0.0
 10
205.0534216650162
 20
87.66443539336522
 10
205.0841133316754
 20
87.66443539336522
 10
205.1162161094449
 20
87.66443539336522
 10
205.133149442774
 20
87.66443539336522
 10
205.1507883316585
 20
87.66443539336522
 10
205.1680744427653
 20
87.66443539336522
 10
205.1864188872054
 20
87.66443539336522
 10
205.2044105538674
 20
87.66443539336522
 10
205.2224022205296
 20
87.66443539336522
 10
205.2407466649694
 20
87.66443539336522
 10
205.2594438871869
 20
87.66443539336522
 10
205.295779998289
 20
87.66443539336522
 10
205.3307049982803
 20
87.66443539336522
 10
205.3476383316093
 20
87.66443539336522
 10
205.3638661093831
 20
87.66443539336522
 10
205.380093887157
 20
87.66443539336522
 10
205.395968887153
 20
87.66443539336522
 10
205.4111383315936
 20
87.66443539336522
 10
205.4256022204789
 20
87.66443539336522
 10
205.4393605538087
 20
87.66443539336522
 10
205.4534716649162
 20
87.66443539336522
 10
205.4792244426877
 20
87.66443539336522
 10
205.5035661093481
 20
87.66443539336522
 10
205.5257911093426
 20
87.66443539336522
 10
205.5469577760041
 20
87.66443539336522
 10
205.557188331557
 20
87.66443539336522
 10
205.5674188871101
 20
87.66443539336522
 10
205.5765911093299
 20
87.66443539336522
 10
205.5861161093276
 20
87.66443539336522
 10
205.6030494426567
 20
87.66443539336522
 10
205.6192772204305
 20
87.66443539336522
 10
205.6489105537563
 20
87.66443539336522
 10
205.6750161093052
 20
87.66443539336522
 10
205.6870105537468
 20
87.66443539336522
 10
205.6986522204104
 20
87.66443539336522
 10
205.7095883315188
 20
87.66443539336522
 10
205.7191133315164
 20
87.66443539336522
 10
205.7378105537342
 20
87.66443539336522
 10
205.7540383315077
 20
87.66443539336522
  0
LWPOLYLINE
  5
110
330
70
100
AcDbEntity
  8
Standardebene
 62
     7
370
    35
100
AcDbPolyline
 90
        3
 70
     0
 43
0.0
 10
205.0534216650162
 20
105.6645687221986
 10
204.9694605539261
 20
105.6645687221986
 10
204.8854994428361
 20
105.6645687221986
  0
LWPOLYLINE
  5
111
330
70
100
AcDbEntity
  8
Standardebene
 62
     7
370
    35
100
AcDbPolyline
 90
        3
 70
     0
 43
0.0
 10
204.8854994428361
 20
87.66443539336522
 10
204.9694605539261
 20
87.66443539336522
 10
205.0534216650162
 20
87.66443539336522
  0
LWPOLYLINE
  5
112
330
70
100
AcDbEntity
  8
Standardebene
 62
     7
370
    35
100
AcDbPolyline
 90
        7
 70
     0
 43
0.0
 10
196.542657778255
 20
106.2752270553792
 10
196.4840966671585
 20
106.3069770553713
 10
196.4368244449481
 20
106.333435388698
 10
196.4181272227306
 20
106.3443714998063
 10
196.4036633338453
 20
106.3531909442487
 10
196.3934327782924
 20
106.3598937220246
 10
196.3874355560718
 20
106.3630687220238
  0
LWPOLYLINE
  5
113
330
70
100
AcDbEntity
  8
Standardebene
 62
     7
370
    35
100
AcDbPolyline
 90
        7
 70
     0
 43
0.0
 10
196.3874355560718
 20
86.96487706020702
 10
196.3934327782924
 20
86.96875761576144
 10
196.4036633338453
 20
86.97546039353763
 10
196.4181272227306
 20
86.98392706020198
 10
196.4368244449481
 20
86.9952159490881
 10
196.4840966671585
 20
87.02167428241475
 10
196.542657778255
 20
87.05307150462942
  0
LINE
  5
114
330
70
100
AcDbEntity
  8
Standardebene
 62
     7
370
    35
100
AcDbLine
 10
195.4807966674093
 20
86.96452428242926
 30
0.0
 11
196.3856716671833
 21
86.96452428242926
 31
0.0
  0
LINE
  5
115
330
70
100
AcDbEntity
  8
Standardebene
 62
     7
370
    35
100
AcDbLine
 10
196.3856716671833
 20
106.3641270553571
 30
0.0
 11
195.4807966674093
 21
106.3641270553571
 31
0.0
  0
LINE
  5
116
330
70
100
AcDbEntity
  8
Standardebene
 62
     7
370
    35
100
AcDbLine
 10
196.3856716671833
 20
86.96452428242926
 30
0.0
 11
196.3874355560718
 21
86.96487706020702
 31
0.0
  0
LINE
  5
117
330
70
100
AcDbEntity
  8
Standardebene
 62
     7
370
    35
100
AcDbLine
 10
196.3874355560718
 20
106.3630687220238
 30
0.0
 11
196.3856716671833
 21
106.3641270553571
 31
0.0
  0
LWPOLYLINE
  5
118
330
70
100
AcDbEntity
  8
Standardebene
 62
     7
370
    35
100
AcDbPolyline
 90
        5
 70
     0
 43
0.0
 10
205.7540383315077
 20
87.66443539336522
 10
205.8616355537032
 20
87.66443539336522
 10
205.9540633314577
 20
87.66443539336522
 10
206.0288522203281
 20
87.66443539336522
 10
206.0856494425361
 20
87.66443539336522
  0
LWPOLYLINE
  5
119
330
70
100
AcDbEntity
  8
Standardebene
 62
     7
370
    35
100
AcDbPolyline
 90
        5
 70
     0
 43
0.0
 10
206.0856494425361
 20
105.6645687221986
 10
206.0288522203281
 20
105.6645687221986
 10
205.9540633314577
 20
105.6645687221986
 10
205.8616355537032
 20
105.6645687221986
 10
205.7540383315077
 20
105.6645687221986
  0
LWPOLYLINE
  5
11A
330
70
100
AcDbEntity
  8
Standardebene
 62
     7
370
    35
100
AcDbPolyline
 90
       20
 70
     0
 43
0.0
 10
206.0856494425361
 20
105.6645687221986
 10
206.0856494425361
 20
105.3625909444964
 10
206.0856494425361
 20
104.8665853890649
 10
206.0856494425361
 20
104.1871353892346
 10
206.0856494425361
 20
103.339057611669
 10
206.0856494425361
 20
102.3417548341405
 10
206.0856494425361
 20
101.2174520566438
 10
206.0856494425361
 20
99.99119650139464
 10
206.0856494425361
 20
98.69121039060871
 10
206.0856494425361
 20
97.34465761316757
 10
206.0856494425361
 20
95.98328816906333
 10
206.0856494425361
 20
94.63744094717771
 10
206.0856494425361
 20
93.33674928083624
 10
206.0856494425361
 20
92.11049372558706
 10
206.0856494425361
 20
90.98619094809039
 10
206.0856494425361
 20
89.98888817056187
 10
206.0856494425361
 20
89.14151594855146
 10
206.0856494425361
 20
88.46136039316599
 10
206.0856494425361
 20
87.96535483773444
 10
206.0856494425361
 20
87.66443539336522
  0
SPLINE
  5
11B
330
70
100
AcDbEntity
  8
Standardebene
 62
     7
370
    35
100
AcDbSpline
210
0.0
220
0.0
230
1.0
 70
     8
 71
     3
 72
     8
 73
     4
 74
     0
 42
0.0000000001
 43
0.0000000001
 40
0.0
 40
0.0
 40
0.0
 40
0.0
 40
1.0
 40
1.0
 40
1.0
 40
1.0
 10
185.8143327809371
 20
103.6639659449209
 30
0.0
 10
187.1947522250366
 20
103.6639659449209
 30
0.0
 10
188.3582133358568
 20
104.5967103891322
 30
0.0
 10
188.7120494468793
 20
105.8875242776983
 30
0.0
  0
SPLINE
  5
11C
330
70
100
AcDbEntity
  8
Standardebene
 62
     7
370
    35
100
AcDbSpline
210
0.0
220
0.0
230
1.0
 70
     8
 71
     3
 72
     8
 73
     4
 74
     0
 42
0.0000000001
 43
0.0000000001
 40
0.0
 40
0.0
 40
0.0
 40
0.0
 40
1.0
 40
1.0
 40
1.0
 40
1.0
 10
188.7120494468793
 20
87.44042150453259
 30
0.0
 10
188.3550383358576
 20
88.77427428197687
 30
0.0
 10
187.1531244472691
 20
89.65621872620083
 30
0.0
 10
185.8143327809371
 20
89.66397983730997
 30
0.0
  0
LINE
  5
11D
330
70
100
AcDbEntity
  8
Standardebene
 62
     7
370
    35
100
AcDbLine
 10
176.5189911165942
 20
103.6639659449209
 30
0.0
 11
170.6628800069473
 21
100.9334659456036
 31
0.0
  0
LINE
  5
11E
330
70
100
AcDbEntity
  8
Standardebene
 62
     7
370
    35
100
AcDbLine
 10
170.6628800069473
 20
92.39518539218279
 30
0.0
 11
176.5189911165942
 21
89.66397983730997
 31
0.0
  0
LWPOLYLINE
  5
11F
330
70
100
AcDbEntity
  8
Standardebene
 62
     7
370
    35
100
AcDbPolyline
 90
       10
 70
     0
 43
0.0
 10
176.5189911165942
 20
96.66450205778209
 10
176.5189911165942
 20
95.44847705808605
 10
176.5189911165942
 20
94.2701992806028
 10
176.5189911165942
 20
93.16388816976811
 10
176.5189911165942
 20
92.16482150335142
 10
176.5189911165942
 20
91.30157428134497
 10
176.5189911165942
 20
90.60201594818646
 10
176.5189911165942
 20
90.08625483720445
 10
176.5189911165942
 20
89.77087150394988
 10
176.5189911165942
 20
89.66397983730997
  0
LWPOLYLINE
  5
120
330
70
100
AcDbEntity
  8
Standardebene
 62
     7
370
    35
100
AcDbPolyline
 90
       10
 70
     0
 43
0.0
 10
176.5189911165942
 20
103.6639659449209
 10
176.5189911165942
 20
103.5577798338365
 10
176.5189911165942
 20
103.2423965005819
 10
176.5189911165942
 20
102.7266353895996
 10
176.5189911165942
 20
102.0263715008859
 10
176.5189911165942
 20
101.163829834435
 10
176.5189911165942
 20
100.1640576124628
 10
176.5189911165942
 20
99.05845205718362
 10
176.5189911165942
 20
97.87946872414485
 10
176.5189911165942
 20
96.66450205778209
  0
LINE
  5
121
330
70
100
AcDbEntity
  8
Standardebene
 62
     7
370
    35
100
AcDbLine
 10
185.8143327809371
 20
103.6639659449209
 30
0.0
 11
176.5189911165942
 21
103.6639659449209
 31
0.0
  0
LINE
  5
122
330
70
100
AcDbEntity
  8
Standardebene
 62
     7
370
    35
100
AcDbLine
 10
182.5860633372998
 20
89.66397983730997
 30
0.0
 11
185.8143327809371
 21
89.66397983730997
 31
0.0
  0
LINE
  5
123
330
70
100
AcDbEntity
  8
Standardebene
 62
     7
370
    35
100
AcDbLine
 10
176.5189911165942
 20
89.66397983730997
 30
0.0
 11
177.5857911163276
 21
89.66397983730997
 31
0.0
  0
LWPOLYLINE
  5
124
330
70
100
AcDbEntity
  8
Standardebene
 62
     7
370
    35
100
AcDbPolyline
 90
       84
 70
     0
 43
0.0
 10
182.5860633372998
 20
89.66397983730997
 10
182.5715994484145
 20
89.66821317064214
 10
182.5546661150854
 20
89.67244650397432
 10
182.5299716706473
 20
89.67844372619499
 10
182.5155077817619
 20
89.68267705952749
 10
182.4985744484329
 20
89.68691039285966
 10
182.4805827817706
 20
89.69114372619184
 10
182.4604744484424
 20
89.69678817063506
 10
182.4163772262312
 20
89.70737150396564
 10
182.3662827817993
 20
89.71971872618473
 10
182.3112494484794
 20
89.73277150395935
 10
182.2502188929392
 20
89.74723539284466
 10
182.2339911151657
 20
89.75111594839908
 10
182.2170577818364
 20
89.75464372617606
 10
182.2008300040629
 20
89.75887705950823
 10
182.1831911151783
 20
89.76240483728522
 10
182.148266115187
 20
89.77051872617211
 10
182.111930004085
 20
89.77827983728126
 10
182.0371411152146
 20
89.79450761505509
 10
181.9574133374569
 20
89.81073539282858
 10
181.8745105597
 20
89.82766872615792
 10
181.7870216708328
 20
89.84389650393142
 10
181.7422188930664
 20
89.85236317059609
 10
181.6963577819667
 20
89.86047705948299
 10
181.6497911153115
 20
89.86894372614768
 10
181.6021661153236
 20
89.87670483725683
 10
181.5062105597921
 20
89.89222705947511
 10
181.4070800042613
 20
89.90739650391565
 10
181.3061855598421
 20
89.92186039280097
 10
181.2021161154236
 20
89.93526594835303
 10
181.14919944877
 20
89.94196872612922
 10
181.0959300043389
 20
89.94796594834987
 10
181.0423077821301
 20
89.95396317057085
 10
180.9876272265883
 20
89.95925483723599
 10
180.7678466710875
 20
89.97936317056423
 10
180.5438327822549
 20
89.99382705944956
 10
180.430943893394
 20
89.99876594833725
 10
180.3166438934227
 20
90.00229372611423
 10
180.2587883378817
 20
90.00405761500273
 10
180.2012855601181
 20
90.00476317055792
 10
180.1434300045771
 20
90.00546872611343
 10
180.0852216712583
 20
90.00546872611343
 10
179.8562688935377
 20
90.00229372611423
 10
179.6290800047058
 20
89.99382705944956
 10
179.5168966714005
 20
89.98712428167337
 10
179.4050661158729
 20
89.97936317056423
 10
179.3496800047755
 20
89.97512983723204
 10
179.2939411159005
 20
89.97019094834435
 10
179.2389077825809
 20
89.96489928167923
 10
179.1838744492614
 20
89.95925483723599
 10
178.9707966715371
 20
89.93526594835303
 10
178.7665383382546
 20
89.90810205947118
 10
178.6681133382793
 20
89.89293261503032
 10
178.5721577827478
 20
89.87741039281202
 10
178.5248855605374
 20
89.86929650392511
 10
178.4779661161044
 20
89.86153539281596
 10
178.4550355605547
 20
89.85730205948378
 10
178.4321050050051
 20
89.85306872615161
 10
178.4095272272328
 20
89.84883539281913
 10
178.3873022272383
 20
89.84460205948694
 10
178.3001661161489
 20
89.82837428171313
 10
178.2169105606142
 20
89.81144094838411
 10
178.1378883384117
 20
89.79521317061028
 10
178.0634522273194
 20
89.77933817061423
 10
177.9928966717812
 20
89.76381594839592
 10
177.9262216717981
 20
89.7486465039554
 10
177.8948244495838
 20
89.74123817062402
 10
177.8648383384802
 20
89.73418261507006
 10
177.8359105607095
 20
89.72677428173868
 10
177.8080411162721
 20
89.72077705951802
 10
177.7579466718403
 20
89.70807705952116
 10
177.713849449629
 20
89.69714094841283
 10
177.675043894083
 20
89.68761594841518
 10
177.6436466718687
 20
89.67914928175051
 10
177.6298883385388
 20
89.67562150397354
 10
177.618246671875
 20
89.67244650397432
 10
177.6087216718773
 20
89.66997705953064
 10
177.600255005213
 20
89.66821317064214
 10
177.5942577829923
 20
89.66644928175368
 10
177.5893188941046
 20
89.66539094842071
 10
177.5875550052161
 20
89.66468539286518
 10
177.5868494496606
 20
89.66468539286518
 10
177.5857911163276
 20
89.66397983730997
 10
177.5857911163276
 20
89.66397983730997
  0
LINE
  5
125
330
70
100
AcDbEntity
  8
Standardebene
 62
     7
370
    35
100
AcDbLine
 10
206.0856494425361
 20
90.66128261483818
 30
0.0
 11
206.1075216647529
 21
90.66445761483739
 31
0.0
  0
LINE
  5
126
330
70
100
AcDbEntity
  8
Standardebene
 62
     7
370
    35
100
AcDbLine
 10
206.1075216647529
 20
102.6641937229487
 30
0.0
 11
206.0856494425361
 21
102.6673687229479
 31
0.0
  0
LWPOLYLINE
  5
127
330
70
100
AcDbEntity
  8
Standardebene
 62
     7
370
    35
100
AcDbPolyline
 90
       18
 70
     0
 43
0.0
 10
206.1075216647529
 20
90.66445761483739
 10
206.1075216647529
 20
90.76641039258992
 10
206.1075216647529
 20
91.06909372584764
 10
206.1075216647529
 20
91.56262983683516
 10
206.1075216647529
 20
92.23008539222382
 10
206.1075216647529
 20
93.04852983646386
 10
206.1075216647529
 20
93.98974094733956
 10
206.1075216647529
 20
95.02232150263685
 10
206.1075216647529
 20
96.11064094680923
 10
206.1075216647529
 20
97.21801039097687
 10
206.1075216647529
 20
98.30597705737149
 10
206.1075216647529
 20
99.33891039044654
 10
206.1075216647529
 20
100.2801215013225
 10
206.1075216647529
 20
101.0985659455623
 10
206.1075216647529
 20
101.7653159453957
 10
206.1075216647529
 20
102.2588520563832
 10
206.1075216647529
 20
102.5622409451965
 10
206.1075216647529
 20
102.6641937229487
  0
SPLINE
  5
128
330
70
100
AcDbEntity
  8
Standardebene
 62
     7
370
    35
100
AcDbSpline
210
0.0
220
0.0
230
1.0
 70
     8
 71
     3
 72
     8
 73
     4
 74
     0
 42
0.0000000001
 43
0.0000000001
 40
0.0
 40
0.0
 40
0.0
 40
0.0
 40
1.0
 40
1.0
 40
1.0
 40
1.0
 10
206.5858883312998
 20
91.1639909480459
 30
0.0
 10
206.3618744424668
 20
91.1639909480459
 30
0.0
 10
206.17207999807
 20
91.01652983697178
 30
0.0
 10
206.1075216647529
 20
90.80980205924559
 30
0.0
  0
SPLINE
  5
129
330
70
100
AcDbEntity
  8
Standardebene
 62
     7
370
    35
100
AcDbSpline
210
0.0
220
0.0
230
1.0
 70
     8
 71
     3
 72
     8
 73
     4
 74
     0
 42
0.0000000001
 43
0.0000000001
 40
0.0
 40
0.0
 40
0.0
 40
0.0
 40
1.0
 40
1.0
 40
1.0
 40
1.0
 10
206.1075216647529
 20
102.5188492785405
 30
0.0
 10
206.1727855536252
 20
102.3043603897054
 30
0.0
 10
206.3689299980208
 20
102.1653659452957
 30
0.0
 10
206.5858883312998
 20
102.163954834185
 30
0.0
  0
LINE
  5
12A
330
70
100
AcDbEntity
  8
Standardebene
 62
     7
370
    35
100
AcDbLine
 10
208.0858994420361
 20
90.94209372587918
 30
0.0
 11
218.0860911062026
 21
92.34791316997238
 31
0.0
  0
LINE
  5
12B
330
70
100
AcDbEntity
  8
Standardebene
 62
     7
370
    35
100
AcDbLine
 10
218.0860911062026
 20
100.980738167814
 30
0.0
 11
208.0858994420361
 21
102.3858520563517
 31
0.0
  0
LWPOLYLINE
  5
12C
330
70
100
AcDbEntity
  8
Standardebene
 62
     7
370
    35
100
AcDbPolyline
 90
        8
 70
     0
 43
0.0
 10
218.0860911062026
 20
96.66450205778209
 10
218.0860911062026
 20
95.7035353913556
 10
218.0860911062026
 20
94.79125205825026
 10
218.0860911062026
 20
93.97280761401054
 10
218.0860911062026
 20
93.28912428084809
 10
218.0860911062026
 20
92.77547983653199
 10
218.0860911062026
 20
92.45621594772302
 10
218.0860911062026
 20
92.34791316997238
  0
LWPOLYLINE
  5
12D
330
70
100
AcDbEntity
  8
Standardebene
 62
     7
370
    35
100
AcDbPolyline
 90
        8
 70
     0
 43
0.0
 10
218.0860911062026
 20
100.980738167814
 10
218.0860911062026
 20
100.8724353900634
 10
218.0860911062026
 20
100.5535242790318
 10
218.0860911062026
 20
100.0388215013828
 10
218.0860911062026
 20
99.3558437237759
 10
218.0860911062026
 20
98.53739927953583
 10
218.0860911062026
 20
97.62441039087528
 10
218.0860911062026
 20
96.66450205778209
  0
LWPOLYLINE
  5
12E
330
70
100
AcDbEntity
  8
Standardebene
 62
     7
370
    35
100
AcDbPolyline
 90
        9
 70
     0
 43
0.0
 10
208.0858994420361
 20
96.66450205778209
 10
208.0858994420361
 20
95.54760761361681
 10
208.0858994420361
 20
94.47481039166273
 10
208.0858994420361
 20
93.48526872524335
 10
208.0858994420361
 20
92.61849372546024
 10
208.0858994420361
 20
91.9069409478604
 10
208.0858994420361
 20
91.37777428132604
 10
208.0858994420361
 20
91.0521603925183
 10
208.0858994420361
 20
90.94209372587918
  0
LWPOLYLINE
  5
12F
330
70
100
AcDbEntity
  8
Standardebene
 62
     7
370
    35
100
AcDbPolyline
 90
        9
 70
     0
 43
0.0
 10
208.0858994420361
 20
102.3858520563517
 10
208.0858994420361
 20
102.2764909452678
 10
208.0858994420361
 20
101.9508770564603
 10
208.0858994420361
 20
101.421710389926
 10
208.0858994420361
 20
100.7101576123262
 10
208.0858994420361
 20
99.84338261254276
 10
208.0858994420361
 20
98.85384094612337
 10
208.0858994420361
 20
97.78033816861409
 10
208.0858994420361
 20
96.66450205778209
  0
LINE
  5
130
330
70
100
AcDbEntity
  8
Standardebene
 62
     7
370
    35
100
AcDbLine
 10
206.5858883312998
 20
91.1639909480459
 30
0.0
 11
208.0858994420361
 21
91.1639909480459
 31
0.0
  0
LINE
  5
131
330
70
100
AcDbEntity
  8
Standardebene
 62
     7
370
    35
100
AcDbLine
 10
208.0858994420361
 20
102.163954834185
 30
0.0
 11
206.5858883312998
 21
102.163954834185
 31
0.0
  0
SPLINE
  5
132
330
70
100
AcDbEntity
  8
Standardebene
 62
     7
370
    35
100
AcDbSpline
210
0.0
220
0.0
230
1.0
 70
     8
 71
     3
 72
     8
 73
     4
 74
     0
 42
0.0000000001
 43
0.0000000001
 40
0.0
 40
0.0
 40
0.0
 40
0.0
 40
1.0
 40
1.0
 40
1.0
 40
1.0
 10
218.0860911062026
 20
100.980738167814
 30
0.0
 10
218.1866327728441
 20
100.6332520567899
 30
0.0
 10
218.5037799949872
 20
100.4067687235129
 30
0.0
 10
218.8537355504549
 20
100.4042992790692
 30
0.0
  0
SPLINE
  5
133
330
70
100
AcDbEntity
  8
Standardebene
 62
     7
370
    35
100
AcDbSpline
210
0.0
220
0.0
230
1.0
 70
     8
 71
     3
 72
     8
 73
     4
 74
     0
 42
0.0000000001
 43
0.0000000001
 40
0.0
 40
0.0
 40
0.0
 40
0.0
 40
1.0
 40
1.0
 40
1.0
 40
1.0
 10
218.8537355504549
 20
92.92435205871717
 30
0.0
 10
218.4917855505455
 20
92.92435205871717
 30
0.0
 10
218.1855744395111
 20
92.68375761433263
 30
0.0
 10
218.0860911062026
 20
92.34791316997238
 30
0.0
  0
SPLINE
  5
134
330
70
100
AcDbEntity
  8
Standardebene
 62
     7
370
    35
100
AcDbSpline
210
0.0
220
0.0
230
1.0
 70
     8
 71
     3
 72
     8
 73
     4
 74
     0
 42
0.0000000001
 43
0.0000000001
 40
0.0
 40
0.0
 40
0.0
 40
0.0
 40
1.0
 40
1.0
 40
1.0
 40
1.0
 10
170.6628800069473
 20
100.9334659456036
 30
0.0
 10
170.3016355625931
 20
100.7651909456457
 30
0.0
 10
170.0885577848685
 20
100.4074742790684
 30
0.0
 10
170.0860883404248
 20
100.0268270569415
 30
0.0
  0
SPLINE
  5
135
330
70
100
AcDbEntity
  8
Standardebene
 62
     7
370
    35
100
AcDbSpline
210
0.0
220
0.0
230
1.0
 70
     8
 71
     3
 72
     8
 73
     4
 74
     0
 42
0.0000000001
 43
0.0000000001
 40
0.0
 40
0.0
 40
0.0
 40
0.0
 40
1.0
 40
1.0
 40
1.0
 40
1.0
 10
170.0860883404248
 20
93.3011187252894
 30
0.0
 10
170.0860883404248
 20
92.90247983650013
 30
0.0
 10
170.3192744514776
 20
92.55816872547523
 30
0.0
 10
170.6628800069473
 20
92.39518539218279
 30
0.0
  0
LWPOLYLINE
  5
136
330
70
100
AcDbEntity
  8
Standardebene
 62
     7
370
    35
100
AcDbPolyline
 90
        7
 70
     0
 43
0.0
 10
170.0860883404248
 20
96.66450205778209
 10
170.0860883404248
 20
95.7934937246665
 10
170.0860883404248
 20
94.98281039153559
 10
170.0860883404248
 20
94.28642705837662
 10
170.0860883404248
 20
93.75161594739902
 10
170.0860883404248
 20
93.41577150303846
 10
170.0860883404248
 20
93.3011187252894
  0
LWPOLYLINE
  5
137
330
70
100
AcDbEntity
  8
Standardebene
 62
     7
370
    35
100
AcDbPolyline
 90
        7
 70
     0
 43
0.0
 10
170.0860883404248
 20
100.0268270569415
 10
170.0860883404248
 20
99.91287983474764
 10
170.0860883404248
 20
99.57632983483188
 10
170.0860883404248
 20
99.04222427940981
 10
170.0860883404248
 20
98.3458409462505
 10
170.0860883404248
 20
97.53445205756442
 10
170.0860883404248
 20
96.66450205778209
  0
SPLINE
  5
138
330
70
100
AcDbEntity
  8
Standardebene
 62
     7
370
    35
100
AcDbSpline
210
0.0
220
0.0
230
1.0
 70
     8
 71
     3
 72
     8
 73
     4
 74
     0
 42
0.0000000001
 43
0.0000000001
 40
0.0
 40
0.0
 40
0.0
 40
0.0
 40
1.0
 40
1.0
 40
1.0
 40
1.0
 10
219.2110994392545
 20
100.4042992790692
 30
0.0
 10
219.3818438836564
 20
100.4042992790692
 30
0.0
 10
219.5271883280646
 20
100.5108381679314
 30
0.0
 10
219.5861022169385
 20
100.6642965012265
 30
0.0
  0
SPLINE
  5
139
330
70
100
AcDbEntity
  8
Standardebene
 62
     7
370
    35
100
AcDbSpline
210
0.0
220
0.0
230
1.0
 70
     8
 71
     3
 72
     8
 73
     4
 74
     0
 42
0.0000000001
 43
0.0000000001
 40
0.0
 40
0.0
 40
0.0
 40
0.0
 40
1.0
 40
1.0
 40
1.0
 40
1.0
 10
219.5861022169385
 20
92.66435483655993
 30
0.0
 10
219.5261299947313
 20
92.82381039207537
 30
0.0
 10
219.3751411058802
 20
92.92294094760611
 30
0.0
 10
219.2110994392545
 20
92.92435205871717
 30
0.0
  0
LWPOLYLINE
  5
13A
330
70
100
AcDbEntity
  8
Standardebene
 62
     7
370
    35
100
AcDbPolyline
 90
        7
 70
     0
 43
0.0
 10
219.5861022169385
 20
96.66450205778209
 10
219.5861022169385
 20
95.62874650248526
 10
219.5861022169385
 20
94.66389928050437
 10
219.5861022169385
 20
93.83557705848923
 10
219.5861022169385
 20
93.20022428087016
 10
219.5861022169385
 20
92.80087983652569
 10
219.5861022169385
 20
92.66435483655993
  0
LWPOLYLINE
  5
13B
330
70
100
AcDbEntity
  8
Standardebene
 62
     7
370
    35
100
AcDbPolyline
 90
        7
 70
     0
 43
0.0
 10
219.5861022169385
 20
100.6642965012265
 10
219.5861022169385
 20
100.5277715012607
 10
219.5861022169385
 20
100.1284270569159
 10
219.5861022169385
 20
99.49236872374164
 10
219.5861022169385
 20
98.66404650172654
 10
219.5861022169385
 20
97.69955205752308
 10
219.5861022169385
 20
96.66450205778209
  0
LINE
  5
13C
330
70
100
AcDbEntity
  8
Standardebene
 62
     7
370
    35
100
AcDbLine
 10
221.2854327720693
 20
100.6642965012265
 30
0.0
 11
219.5861022169385
 21
100.6642965012265
 31
0.0
  0
LINE
  5
13D
330
70
100
AcDbEntity
  8
Standardebene
 62
     7
370
    35
100
AcDbLine
 10
219.5861022169385
 20
92.66435483655993
 30
0.0
 11
221.2854327720693
 21
92.66435483655993
 31
0.0
  0
LWPOLYLINE
  5
13E
330
70
100
AcDbEntity
  8
Standardebene
 62
     7
370
    35
100
AcDbPolyline
 90
        7
 70
     0
 43
0.0
 10
221.2854327720693
 20
96.66450205778209
 10
221.2854327720693
 20
95.62874650248526
 10
221.2854327720693
 20
94.66389928050437
 10
221.2854327720693
 20
93.83557705848923
 10
221.2854327720693
 20
93.20022428087016
 10
221.2854327720693
 20
92.80087983652569
 10
221.2854327720693
 20
92.66435483655993
  0
LWPOLYLINE
  5
13F
330
70
100
AcDbEntity
  8
Standardebene
 62
     7
370
    35
100
AcDbPolyline
 90
        7
 70
     0
 43
0.0
 10
221.2854327720693
 20
100.6642965012265
 10
221.2854327720693
 20
100.5277715012607
 10
221.2854327720693
 20
100.1284270569159
 10
221.2854327720693
 20
99.49236872374164
 10
221.2854327720693
 20
98.66404650172654
 10
221.2854327720693
 20
97.69955205752308
 10
221.2854327720693
 20
96.66450205778209
  0
LINE
  5
140
330
70
100
AcDbEntity
  8
Standardebene
 62
     7
370
    35
100
AcDbLine
 10
221.2854327720693
 20
92.66435483655993
 30
0.0
 11
221.885860549697
 21
92.77018816986654
 31
0.0
  0
LINE
  5
141
330
70
100
AcDbEntity
  8
Standardebene
 62
     7
370
    35
100
AcDbLine
 10
221.885860549697
 20
100.5584631679195
 30
0.0
 11
221.2854327720693
 21
100.6642965012265
 31
0.0
  0
LWPOLYLINE
  5
142
330
70
100
AcDbEntity
  8
Standardebene
 62
     7
370
    35
100
AcDbPolyline
 90
        7
 70
     0
 43
0.0
 10
221.885860549697
 20
96.66450205778209
 10
221.885860549697
 20
95.65626316914519
 10
221.885860549697
 20
94.71716872493542
 10
221.885860549697
 20
93.91071872513704
 10
221.885860549697
 20
93.29159372529177
 10
221.885860549697
 20
92.90247983650013
 10
221.885860549697
 20
92.77018816986654
  0
LWPOLYLINE
  5
143
330
70
100
AcDbEntity
  8
Standardebene
 62
     7
370
    35
100
AcDbPolyline
 90
        7
 70
     0
 43
0.0
 10
221.885860549697
 20
100.5584631679195
 10
221.885860549697
 20
100.4254659457307
 10
221.885860549697
 20
100.0370576124943
 10
221.885860549697
 20
99.41793261264907
 10
221.885860549697
 20
98.61148261285066
 10
221.885860549697
 20
97.67203539086345
 10
221.885860549697
 20
96.66450205778209
  0
SPLINE
  5
144
330
70
100
AcDbEntity
  8
Standardebene
 62
     7
370
    35
100
AcDbSpline
210
0.0
220
0.0
230
1.0
 70
     8
 71
     3
 72
     8
 73
     4
 74
     0
 42
0.0000000001
 43
0.0000000001
 40
0.0
 40
0.0
 40
0.0
 40
0.0
 40
1.0
 40
1.0
 40
1.0
 40
1.0
 10
222.7540466605912
 20
100.3390353901965
 30
0.0
 10
222.611171660627
 20
100.5863326123569
 30
0.0
 10
222.3187188829221
 20
100.6939298345523
 30
0.0
 10
222.0537827718775
 20
100.6117326123506
 30
0.0
  0
SPLINE
  5
145
330
70
100
AcDbEntity
  8
Standardebene
 62
     7
370
    35
100
AcDbSpline
210
0.0
220
0.0
230
1.0
 70
     8
 71
     3
 72
     8
 73
     4
 74
     0
 42
0.0000000001
 43
0.0000000001
 40
0.0
 40
0.0
 40
0.0
 40
0.0
 40
1.0
 40
1.0
 40
1.0
 40
1.0
 10
222.0537827718775
 20
92.71691872543547
 30
0.0
 10
222.3254216606983
 20
92.63119372545707
 30
0.0
 10
222.6136411050707
 20
92.74902150320533
 30
0.0
 10
222.7540466605912
 20
92.98891039203404
 30
0.0
  0
LINE
  5
146
330
70
100
AcDbEntity
  8
Standardebene
 62
     7
370
    35
100
AcDbLine
 10
222.0537827718775
 20
100.6117326123506
 30
0.0
 11
221.885860549697
 21
100.5584631679195
 31
0.0
  0
LINE
  5
147
330
70
100
AcDbEntity
  8
Standardebene
 62
     7
370
    35
100
AcDbLine
 10
221.885860549697
 20
92.77018816986654
 30
0.0
 11
222.0537827718775
 21
92.71691872543547
 31
0.0
  0
LINE
  5
148
330
70
100
AcDbEntity
  8
Standardebene
 62
     7
370
    35
100
AcDbLine
 10
219.2110994392545
 20
100.4042992790692
 30
0.0
 11
218.8537355504549
 21
100.4042992790692
 31
0.0
  0
LINE
  5
149
330
70
100
AcDbEntity
  8
Standardebene
 62
     7
370
    35
100
AcDbLine
 10
218.8537355504549
 20
92.92435205871717
 30
0.0
 11
219.2110994392545
 21
92.92435205871717
 31
0.0
  0
LINE
  5
14A
330
70
100
AcDbEntity
  8
Standardebene
 62
     7
370
    35
100
AcDbLine
 10
222.7540466605912
 20
92.98891039203404
 30
0.0
 11
223.086010549397
 21
93.56393816966811
 31
0.0
  0
LINE
  5
14B
330
70
100
AcDbEntity
  8
Standardebene
 62
     7
370
    35
100
AcDbLine
 10
223.086010549397
 20
99.76400761256279
 30
0.0
 11
222.7540466605912
 21
100.3390353901965
 31
0.0
  0
LWPOLYLINE
  5
14C
330
70
100
AcDbEntity
  8
Standardebene
 62
     7
370
    35
100
AcDbPolyline
 90
        7
 70
     0
 43
0.0
 10
223.086010549397
 20
96.66450205778209
 10
223.086010549397
 20
95.86193261353809
 10
223.086010549397
 20
95.11404372483623
 10
223.086010549397
 20
94.47234094721904
 10
223.086010549397
 20
93.97951039178671
 10
223.086010549397
 20
93.6701242807528
 10
223.086010549397
 20
93.56393816966811
  0
LWPOLYLINE
  5
14D
330
70
100
AcDbEntity
  8
Standardebene
 62
     7
370
    35
100
AcDbPolyline
 90
        7
 70
     0
 43
0.0
 10
223.086010549397
 20
99.76400761256279
 10
223.086010549397
 20
99.65887983481104
 10
223.086010549397
 20
99.34914094599971
 10
223.086010549397
 20
98.85631039056738
 10
223.086010549397
 20
98.21390205739469
 10
223.086010549397
 20
97.466718724248
 10
223.086010549397
 20
96.66450205778209
  0
LINE
  5
14E
330
70
100
AcDbEntity
  8
Standardebene
  6
AI-Linetype-4
 62
     7
370
     9
100
AcDbLine
 10
170.5856216736333
 20
159.0828853755106
 30
0.0
 11
190.0857661132026
 21
159.0828853755106
 31
0.0
  0
LWPOLYLINE
  5
150
330
70
100
AcDbEntity
  8
Standardebene
  6
AI-Linetype-5
 62
     7
370
     9
100
AcDbPolyline
 90
        3
 70
     0
 43
0.0
 10
170.5856216736333
 20
155.0830909320661
 10
190.0857661132026
 20
155.0830909320661
 10
190.0857661132026
 20
159.0828853755106
  0
LINE
  5
153
330
70
100
AcDbEntity
  8
Bemaßung
 62
     7
370
     9
100
AcDbLine
 10
170.5856216736333
 20
159.0828853755106
 30
0.0
 11
158.0856466767583
 21
159.0828853755106
 31
0.0
  0
LINE
  5
154
330
70
100
AcDbEntity
  8
Bemaßung
 62
     7
370
     9
100
AcDbLine
 10
170.5856216736333
 20
155.0830909320661
 30
0.0
 11
158.0856466767583
 21
155.0830909320661
 31
0.0
  0
LINE
  5
155
330
70
100
AcDbEntity
  8
Bemaßung
 62
     7
370
     9
100
AcDbLine
 10
160.0855438984805
 20
146.3331437120315
 30
0.0
 11
160.0855438984805
 21
169.0488575952413
 31
0.0
  0
LWPOLYLINE
  5
156
330
70
100
AcDbEntity
  8
Bemaßung
 62
     7
370
     9
100
AcDbPolyline
 90
        4
 70
     0
 43
0.0
 10
160.0855438984805
 20
159.0828853755106
 10
160.5466244539207
 20
162.5831464857468
 10
159.6248161208177
 20
162.5831464857468
 10
160.0855438984805
 20
159.0828853755106
  0
LINE
  5
157
330
70
100
AcDbEntity
  8
Bemaßung
 62
     7
370
     9
100
AcDbLine
 10
160.5430966761437
 20
162.5831464857468
 30
0.0
 11
160.5430966761437
 21
162.5559825968646
 31
0.0
  0
LINE
  5
158
330
70
100
AcDbEntity
  8
Bemaßung
 62
     7
370
     9
100
AcDbLine
 10
160.5430966761437
 20
162.5831464857468
 30
0.0
 11
160.5430966761437
 21
162.5559825968646
 31
0.0
  0
LINE
  5
159
330
70
100
AcDbEntity
  8
Bemaßung
 62
     7
370
     9
100
AcDbLine
 10
160.4922966761567
 20
162.5831464857468
 30
0.0
 11
160.4922966761567
 21
162.1703964858499
 31
0.0
  0
LINE
  5
15A
330
70
100
AcDbEntity
  8
Bemaßung
 62
     7
370
     9
100
AcDbLine
 10
160.4414966761693
 20
162.5831464857468
 30
0.0
 11
160.4414966761693
 21
161.7841048192798
 31
0.0
  0
LINE
  5
15B
330
70
100
AcDbEntity
  8
Bemaßung
 62
     7
370
     9
100
AcDbLine
 10
160.3906966761819
 20
162.5831464857468
 30
0.0
 11
160.3906966761819
 21
161.3985187082651
 31
0.0
  0
LINE
  5
15C
330
70
100
AcDbEntity
  8
Bemaßung
 62
     7
370
     9
100
AcDbLine
 10
160.3395438984171
 20
162.5831464857468
 30
0.0
 11
160.3395438984171
 21
161.0122270416949
 31
0.0
  0
LINE
  5
15D
330
70
100
AcDbEntity
  8
Bemaßung
 62
     7
370
     9
100
AcDbLine
 10
160.2887438984297
 20
162.5831464857468
 30
0.0
 11
160.2887438984297
 21
160.626993708458
 31
0.0
  0
LINE
  5
15E
330
70
100
AcDbEntity
  8
Bemaßung
 62
     7
370
     9
100
AcDbLine
 10
160.2379438984423
 20
162.5831464857468
 30
0.0
 11
160.2379438984423
 21
160.2407020418878
 31
0.0
  0
LINE
  5
15F
330
70
100
AcDbEntity
  8
Bemaßung
 62
     7
370
     9
100
AcDbLine
 10
160.1871438984549
 20
162.5831464857468
 30
0.0
 11
160.1871438984549
 21
159.8551159308732
 31
0.0
  0
LINE
  5
160
330
70
100
AcDbEntity
  8
Bemaßung
 62
     7
370
     9
100
AcDbLine
 10
160.1363438984679
 20
162.5831464857468
 30
0.0
 11
160.1363438984679
 21
159.468824264303
 31
0.0
  0
LINE
  5
161
330
70
100
AcDbEntity
  8
Bemaßung
 62
     7
370
     9
100
AcDbLine
 10
160.0855438984805
 20
162.5831464857468
 30
0.0
 11
160.0855438984805
 21
159.0828853755106
 31
0.0
  0
LINE
  5
162
330
70
100
AcDbEntity
  8
Bemaßung
 62
     7
370
     9
100
AcDbLine
 10
159.6283438985947
 20
162.5831464857468
 30
0.0
 11
159.6283438985947
 21
162.5559825968646
 31
0.0
  0
LINE
  5
163
330
70
100
AcDbEntity
  8
Bemaßung
 62
     7
370
     9
100
AcDbLine
 10
159.6283438985947
 20
162.5831464857468
 30
0.0
 11
159.6283438985947
 21
162.5559825968646
 31
0.0
  0
LINE
  5
164
330
70
100
AcDbEntity
  8
Bemaßung
 62
     7
370
     9
100
AcDbLine
 10
159.6791438985821
 20
162.5831464857468
 30
0.0
 11
159.6791438985821
 21
162.1703964858499
 31
0.0
  0
LINE
  5
165
330
70
100
AcDbEntity
  8
Bemaßung
 62
     7
370
     9
100
AcDbLine
 10
159.7299438985694
 20
162.5831464857468
 30
0.0
 11
159.7299438985694
 21
161.7841048192798
 31
0.0
  0
LINE
  5
166
330
70
100
AcDbEntity
  8
Bemaßung
 62
     7
370
     9
100
AcDbLine
 10
159.7807438985565
 20
162.5831464857468
 30
0.0
 11
159.7807438985565
 21
161.3985187082651
 31
0.0
  0
LINE
  5
167
330
70
100
AcDbEntity
  8
Bemaßung
 62
     7
370
     9
100
AcDbLine
 10
159.8318966763217
 20
162.5831464857468
 30
0.0
 11
159.8318966763217
 21
161.0122270416949
 31
0.0
  0
LINE
  5
168
330
70
100
AcDbEntity
  8
Bemaßung
 62
     7
370
     9
100
AcDbLine
 10
159.882696676309
 20
162.5831464857468
 30
0.0
 11
159.882696676309
 21
160.626993708458
 31
0.0
  0
LINE
  5
169
330
70
100
AcDbEntity
  8
Bemaßung
 62
     7
370
     9
100
AcDbLine
 10
159.9334966762961
 20
162.5831464857468
 30
0.0
 11
159.9334966762961
 21
160.2407020418878
 31
0.0
  0
LINE
  5
16A
330
70
100
AcDbEntity
  8
Bemaßung
 62
     7
370
     9
100
AcDbLine
 10
159.9842966762835
 20
162.5831464857468
 30
0.0
 11
159.9842966762835
 21
159.8551159308732
 31
0.0
  0
LINE
  5
16B
330
70
100
AcDbEntity
  8
Bemaßung
 62
     7
370
     9
100
AcDbLine
 10
160.0350966762709
 20
162.5831464857468
 30
0.0
 11
160.0350966762709
 21
159.468824264303
 31
0.0
  0
LINE
  5
16C
330
70
100
AcDbEntity
  8
Bemaßung
 62
     7
370
     9
100
AcDbLine
 10
160.0855438984805
 20
162.5831464857468
 30
0.0
 11
160.0855438984805
 21
159.0828853755106
 31
0.0
  0
LWPOLYLINE
  5
16D
330
70
100
AcDbEntity
  8
Bemaßung
 62
     7
370
     9
100
AcDbPolyline
 90
        4
 70
     0
 43
0.0
 10
160.0855438984805
 20
155.0830909320661
 10
159.6248161208177
 20
151.5831825996077
 10
160.5466244539207
 20
151.5831825996077
 10
160.0855438984805
 20
155.0830909320661
  0
LINE
  5
16E
330
70
100
AcDbEntity
  8
Bemaßung
 62
     7
370
     9
100
AcDbLine
 10
159.6283438985947
 20
151.5831825996077
 30
0.0
 11
159.6283438985947
 21
151.6103464884899
 31
0.0
  0
LINE
  5
16F
330
70
100
AcDbEntity
  8
Bemaßung
 62
     7
370
     9
100
AcDbLine
 10
159.6283438985947
 20
151.5831825996077
 30
0.0
 11
159.6283438985947
 21
151.6103464884899
 31
0.0
  0
LINE
  5
170
330
70
100
AcDbEntity
  8
Bemaßung
 62
     7
370
     9
100
AcDbLine
 10
159.6791438985821
 20
151.5831825996077
 30
0.0
 11
159.6791438985821
 21
151.9962853772823
 31
0.0
  0
LINE
  5
171
330
70
100
AcDbEntity
  8
Bemaßung
 62
     7
370
     9
100
AcDbLine
 10
159.7299438985694
 20
151.5831825996077
 30
0.0
 11
159.7299438985694
 21
152.381871488297
 31
0.0
  0
LINE
  5
172
330
70
100
AcDbEntity
  8
Bemaßung
 62
     7
370
     9
100
AcDbLine
 10
159.7807438985565
 20
151.5831825996077
 30
0.0
 11
159.7807438985565
 21
152.7678103770894
 31
0.0
  0
LINE
  5
173
330
70
100
AcDbEntity
  8
Bemaßung
 62
     7
370
     9
100
AcDbLine
 10
159.8318966763217
 20
151.5831825996077
 30
0.0
 11
159.8318966763217
 21
153.1537492658818
 31
0.0
  0
LINE
  5
174
330
70
100
AcDbEntity
  8
Bemaßung
 62
     7
370
     9
100
AcDbLine
 10
159.882696676309
 20
151.5831825996077
 30
0.0
 11
159.882696676309
 21
153.5396881546742
 31
0.0
  0
LINE
  5
175
330
70
100
AcDbEntity
  8
Bemaßung
 62
     7
370
     9
100
AcDbLine
 10
159.9334966762961
 20
151.5831825996077
 30
0.0
 11
159.9334966762961
 21
153.9256270434667
 31
0.0
  0
LINE
  5
176
330
70
100
AcDbEntity
  8
Bemaßung
 62
     7
370
     9
100
AcDbLine
 10
159.9842966762835
 20
151.5831825996077
 30
0.0
 11
159.9842966762835
 21
154.3112131544813
 31
0.0
  0
LINE
  5
177
330
70
100
AcDbEntity
  8
Bemaßung
 62
     7
370
     9
100
AcDbLine
 10
160.0350966762709
 20
151.5831825996077
 30
0.0
 11
160.0350966762709
 21
154.6971520432737
 31
0.0
  0
LINE
  5
178
330
70
100
AcDbEntity
  8
Bemaßung
 62
     7
370
     9
100
AcDbLine
 10
160.0855438984805
 20
151.5831825996077
 30
0.0
 11
160.0855438984805
 21
155.0830909320661
 31
0.0
  0
LINE
  5
179
330
70
100
AcDbEntity
  8
Bemaßung
 62
     7
370
     9
100
AcDbLine
 10
160.5430966761437
 20
151.5831825996077
 30
0.0
 11
160.5430966761437
 21
151.6103464884899
 31
0.0
  0
LINE
  5
17A
330
70
100
AcDbEntity
  8
Bemaßung
 62
     7
370
     9
100
AcDbLine
 10
160.5430966761437
 20
151.5831825996077
 30
0.0
 11
160.5430966761437
 21
151.6103464884899
 31
0.0
  0
LINE
  5
17B
330
70
100
AcDbEntity
  8
Bemaßung
 62
     7
370
     9
100
AcDbLine
 10
160.4922966761567
 20
151.5831825996077
 30
0.0
 11
160.4922966761567
 21
151.9962853772823
 31
0.0
  0
LINE
  5
17C
330
70
100
AcDbEntity
  8
Bemaßung
 62
     7
370
     9
100
AcDbLine
 10
160.4414966761693
 20
151.5831825996077
 30
0.0
 11
160.4414966761693
 21
152.381871488297
 31
0.0
  0
LINE
  5
17D
330
70
100
AcDbEntity
  8
Bemaßung
 62
     7
370
     9
100
AcDbLine
 10
160.3906966761819
 20
151.5831825996077
 30
0.0
 11
160.3906966761819
 21
152.7678103770894
 31
0.0
  0
LINE
  5
17E
330
70
100
AcDbEntity
  8
Bemaßung
 62
     7
370
     9
100
AcDbLine
 10
160.3395438984171
 20
151.5831825996077
 30
0.0
 11
160.3395438984171
 21
153.1537492658818
 31
0.0
  0
LINE
  5
17F
330
70
100
AcDbEntity
  8
Bemaßung
 62
     7
370
     9
100
AcDbLine
 10
160.2887438984297
 20
151.5831825996077
 30
0.0
 11
160.2887438984297
 21
153.5396881546742
 31
0.0
  0
LINE
  5
180
330
70
100
AcDbEntity
  8
Bemaßung
 62
     7
370
     9
100
AcDbLine
 10
160.2379438984423
 20
151.5831825996077
 30
0.0
 11
160.2379438984423
 21
153.9256270434667
 31
0.0
  0
LINE
  5
181
330
70
100
AcDbEntity
  8
Bemaßung
 62
     7
370
     9
100
AcDbLine
 10
160.1871438984549
 20
151.5831825996077
 30
0.0
 11
160.1871438984549
 21
154.3112131544813
 31
0.0
  0
LINE
  5
182
330
70
100
AcDbEntity
  8
Bemaßung
 62
     7
370
     9
100
AcDbLine
 10
160.1363438984679
 20
151.5831825996077
 30
0.0
 11
160.1363438984679
 21
154.6971520432737
 31
0.0
  0
LINE
  5
183
330
70
100
AcDbEntity
  8
Bemaßung
 62
     7
370
     9
100
AcDbLine
 10
160.0855438984805
 20
151.5831825996077
 30
0.0
 11
160.0855438984805
 21
155.0830909320661
 31
0.0
  0
LINE
  5
184
330
70
100
AcDbEntity
  8
Bemaßung
 62
     7
370
     9
100
AcDbLine
 10
176.5189911165942
 20
164.0835103742605
 30
0.0
 11
148.0858077903692
 21
164.0835103742605
 31
0.0
  0
LINE
  5
185
330
70
100
AcDbEntity
  8
Bemaßung
 62
     7
370
     9
100
AcDbLine
 10
176.5189911165942
 20
150.0831714888717
 30
0.0
 11
148.0858077903692
 21
150.0831714888717
 31
0.0
  0
LINE
  5
186
330
70
100
AcDbEntity
  8
Bemaßung
 62
     7
370
     9
100
AcDbLine
 10
150.0860577898692
 20
164.0835103742605
 30
0.0
 11
150.0860577898692
 21
150.0831714888717
 31
0.0
  0
LWPOLYLINE
  5
187
330
70
100
AcDbEntity
  8
Bemaßung
 62
     7
370
     9
100
AcDbPolyline
 90
        4
 70
     0
 43
0.0
 10
150.0860577898692
 20
164.0835103742605
 10
149.624977234429
 20
160.5832492640246
 10
150.5467855675319
 20
160.5832492640246
 10
150.0860577898692
 20
164.0835103742605
  0
LINE
  5
188
330
70
100
AcDbEntity
  8
Bemaßung
 62
     7
370
     9
100
AcDbLine
 10
149.6285050122059
 20
160.5832492640246
 30
0.0
 11
149.6285050122059
 21
160.6104131529068
 31
0.0
  0
LINE
  5
189
330
70
100
AcDbEntity
  8
Bemaßung
 62
     7
370
     9
100
AcDbLine
 10
149.6285050122059
 20
160.5832492640246
 30
0.0
 11
149.6285050122059
 21
160.6104131529068
 31
0.0
  0
LINE
  5
18A
330
70
100
AcDbEntity
  8
Bemaßung
 62
     7
370
     9
100
AcDbLine
 10
149.679305012193
 20
160.5832492640246
 30
0.0
 11
149.679305012193
 21
160.9959992639214
 31
0.0
  0
LINE
  5
18B
330
70
100
AcDbEntity
  8
Bemaßung
 62
     7
370
     9
100
AcDbLine
 10
149.7301050121803
 20
160.5832492640246
 30
0.0
 11
149.7301050121803
 21
161.3819381527138
 31
0.0
  0
LINE
  5
18C
330
70
100
AcDbEntity
  8
Bemaßung
 62
     7
370
     9
100
AcDbLine
 10
149.7809050121678
 20
160.5832492640246
 30
0.0
 11
149.7809050121678
 21
161.7682298192837
 31
0.0
  0
LINE
  5
18D
330
70
100
AcDbEntity
  8
Bemaßung
 62
     7
370
     9
100
AcDbLine
 10
149.8317050121551
 20
160.5832492640246
 30
0.0
 11
149.8317050121551
 21
162.1538159302987
 31
0.0
  0
LINE
  5
18E
330
70
100
AcDbEntity
  8
Bemaßung
 62
     7
370
     9
100
AcDbLine
 10
149.8828577899199
 20
160.5832492640246
 30
0.0
 11
149.8828577899199
 21
162.5401075968685
 31
0.0
  0
LINE
  5
18F
330
70
100
AcDbEntity
  8
Bemaßung
 62
     7
370
     9
100
AcDbLine
 10
149.9336577899073
 20
160.5832492640246
 30
0.0
 11
149.9336577899073
 21
162.9253409301058
 31
0.0
  0
LINE
  5
190
330
70
100
AcDbEntity
  8
Bemaßung
 62
     7
370
     9
100
AcDbLine
 10
149.9844577898947
 20
160.5832492640246
 30
0.0
 11
149.9844577898947
 21
163.3116325966756
 31
0.0
  0
LINE
  5
191
330
70
100
AcDbEntity
  8
Bemaßung
 62
     7
370
     9
100
AcDbLine
 10
150.0352577898818
 20
160.5832492640246
 30
0.0
 11
150.0352577898818
 21
163.6972187076906
 31
0.0
  0
LINE
  5
192
330
70
100
AcDbEntity
  8
Bemaßung
 62
     7
370
     9
100
AcDbLine
 10
150.0860577898692
 20
160.5832492640246
 30
0.0
 11
150.0860577898692
 21
164.0835103742605
 31
0.0
  0
LINE
  5
193
330
70
100
AcDbEntity
  8
Bemaßung
 62
     7
370
     9
100
AcDbLine
 10
150.543257789755
 20
160.5832492640246
 30
0.0
 11
150.543257789755
 21
160.6104131529068
 31
0.0
  0
LINE
  5
194
330
70
100
AcDbEntity
  8
Bemaßung
 62
     7
370
     9
100
AcDbLine
 10
150.543257789755
 20
160.5832492640246
 30
0.0
 11
150.543257789755
 21
160.6104131529068
 31
0.0
  0
LINE
  5
195
330
70
100
AcDbEntity
  8
Bemaßung
 62
     7
370
     9
100
AcDbLine
 10
150.4924577897676
 20
160.5832492640246
 30
0.0
 11
150.4924577897676
 21
160.9959992639214
 31
0.0
  0
LINE
  5
196
330
70
100
AcDbEntity
  8
Bemaßung
 62
     7
370
     9
100
AcDbLine
 10
150.4416577897802
 20
160.5832492640246
 30
0.0
 11
150.4416577897802
 21
161.3819381527138
 31
0.0
  0
LINE
  5
197
330
70
100
AcDbEntity
  8
Bemaßung
 62
     7
370
     9
100
AcDbLine
 10
150.3908577897931
 20
160.5832492640246
 30
0.0
 11
150.3908577897931
 21
161.7682298192837
 31
0.0
  0
LINE
  5
198
330
70
100
AcDbEntity
  8
Bemaßung
 62
     7
370
     9
100
AcDbLine
 10
150.339705012028
 20
160.5832492640246
 30
0.0
 11
150.339705012028
 21
162.1538159302987
 31
0.0
  0
LINE
  5
199
330
70
100
AcDbEntity
  8
Bemaßung
 62
     7
370
     9
100
AcDbLine
 10
150.2889050120406
 20
160.5832492640246
 30
0.0
 11
150.2889050120406
 21
162.5401075968685
 31
0.0
  0
LINE
  5
19A
330
70
100
AcDbEntity
  8
Bemaßung
 62
     7
370
     9
100
AcDbLine
 10
150.2381050120535
 20
160.5832492640246
 30
0.0
 11
150.2381050120535
 21
162.9253409301058
 31
0.0
  0
LINE
  5
19B
330
70
100
AcDbEntity
  8
Bemaßung
 62
     7
370
     9
100
AcDbLine
 10
150.1873050120662
 20
160.5832492640246
 30
0.0
 11
150.1873050120662
 21
163.3116325966756
 31
0.0
  0
LINE
  5
19C
330
70
100
AcDbEntity
  8
Bemaßung
 62
     7
370
     9
100
AcDbLine
 10
150.1365050120788
 20
160.5832492640246
 30
0.0
 11
150.1365050120788
 21
163.6972187076906
 31
0.0
  0
LINE
  5
19D
330
70
100
AcDbEntity
  8
Bemaßung
 62
     7
370
     9
100
AcDbLine
 10
150.0860577898692
 20
160.5832492640246
 30
0.0
 11
150.0860577898692
 21
164.0835103742605
 31
0.0
  0
LWPOLYLINE
  5
19E
330
70
100
AcDbEntity
  8
Bemaßung
 62
     7
370
     9
100
AcDbPolyline
 90
        4
 70
     0
 43
0.0
 10
150.0860577898692
 20
150.0831714888717
 10
150.5467855675319
 20
153.5834325991077
 10
149.624977234429
 20
153.5834325991077
 10
150.0860577898692
 20
150.0831714888717
  0
LINE
  5
19F
330
70
100
AcDbEntity
  8
Bemaßung
 62
     7
370
     9
100
AcDbLine
 10
150.543257789755
 20
153.5834325991077
 30
0.0
 11
150.543257789755
 21
153.5559159324481
 31
0.0
  0
LINE
  5
1A0
330
70
100
AcDbEntity
  8
Bemaßung
 62
     7
370
     9
100
AcDbLine
 10
150.543257789755
 20
153.5834325991077
 30
0.0
 11
150.543257789755
 21
153.5559159324481
 31
0.0
  0
LINE
  5
1A1
330
70
100
AcDbEntity
  8
Bemaßung
 62
     7
370
     9
100
AcDbLine
 10
150.4924577897676
 20
153.5834325991077
 30
0.0
 11
150.4924577897676
 21
153.1699770436556
 31
0.0
  0
LINE
  5
1A2
330
70
100
AcDbEntity
  8
Bemaßung
 62
     7
370
     9
100
AcDbLine
 10
150.4416577897802
 20
153.5834325991077
 30
0.0
 11
150.4416577897802
 21
152.7840381548632
 31
0.0
  0
LINE
  5
1A3
330
70
100
AcDbEntity
  8
Bemaßung
 62
     7
370
     9
100
AcDbLine
 10
150.3908577897931
 20
153.5834325991077
 30
0.0
 11
150.3908577897931
 21
152.3980992660708
 31
0.0
  0
LINE
  5
1A4
330
70
100
AcDbEntity
  8
Bemaßung
 62
     7
370
     9
100
AcDbLine
 10
150.339705012028
 20
153.5834325991077
 30
0.0
 11
150.339705012028
 21
152.0125131550561
 31
0.0
  0
LINE
  5
1A5
330
70
100
AcDbEntity
  8
Bemaßung
 62
     7
370
     9
100
AcDbLine
 10
150.2889050120406
 20
153.5834325991077
 30
0.0
 11
150.2889050120406
 21
151.6265742662637
 31
0.0
  0
LINE
  5
1A6
330
70
100
AcDbEntity
  8
Bemaßung
 62
     7
370
     9
100
AcDbLine
 10
150.2381050120535
 20
153.5834325991077
 30
0.0
 11
150.2381050120535
 21
151.2406353774713
 31
0.0
  0
LINE
  5
1A7
330
70
100
AcDbEntity
  8
Bemaßung
 62
     7
370
     9
100
AcDbLine
 10
150.1873050120662
 20
153.5834325991077
 30
0.0
 11
150.1873050120662
 21
150.8546964886789
 31
0.0
  0
LINE
  5
1A8
330
70
100
AcDbEntity
  8
Bemaßung
 62
     7
370
     9
100
AcDbLine
 10
150.1365050120788
 20
153.5834325991077
 30
0.0
 11
150.1365050120788
 21
150.4687575998864
 31
0.0
  0
LINE
  5
1A9
330
70
100
AcDbEntity
  8
Bemaßung
 62
     7
370
     9
100
AcDbLine
 10
150.0860577898692
 20
153.5834325991077
 30
0.0
 11
150.0860577898692
 21
150.0831714888717
 31
0.0
  0
LINE
  5
1AA
330
70
100
AcDbEntity
  8
Bemaßung
 62
     7
370
     9
100
AcDbLine
 10
149.6285050122059
 20
153.5834325991077
 30
0.0
 11
149.6285050122059
 21
153.5559159324481
 31
0.0
  0
LINE
  5
1AB
330
70
100
AcDbEntity
  8
Bemaßung
 62
     7
370
     9
100
AcDbLine
 10
149.6285050122059
 20
153.5834325991077
 30
0.0
 11
149.6285050122059
 21
153.5559159324481
 31
0.0
  0
LINE
  5
1AC
330
70
100
AcDbEntity
  8
Bemaßung
 62
     7
370
     9
100
AcDbLine
 10
149.679305012193
 20
153.5834325991077
 30
0.0
 11
149.679305012193
 21
153.1699770436556
 31
0.0
  0
LINE
  5
1AD
330
70
100
AcDbEntity
  8
Bemaßung
 62
     7
370
     9
100
AcDbLine
 10
149.7301050121803
 20
153.5834325991077
 30
0.0
 11
149.7301050121803
 21
152.7840381548632
 31
0.0
  0
LINE
  5
1AE
330
70
100
AcDbEntity
  8
Bemaßung
 62
     7
370
     9
100
AcDbLine
 10
149.7809050121678
 20
153.5834325991077
 30
0.0
 11
149.7809050121678
 21
152.3980992660708
 31
0.0
  0
LINE
  5
1AF
330
70
100
AcDbEntity
  8
Bemaßung
 62
     7
370
     9
100
AcDbLine
 10
149.8317050121551
 20
153.5834325991077
 30
0.0
 11
149.8317050121551
 21
152.0125131550561
 31
0.0
  0
LINE
  5
1B0
330
70
100
AcDbEntity
  8
Bemaßung
 62
     7
370
     9
100
AcDbLine
 10
149.8828577899199
 20
153.5834325991077
 30
0.0
 11
149.8828577899199
 21
151.6265742662637
 31
0.0
  0
LINE
  5
1B1
330
70
100
AcDbEntity
  8
Bemaßung
 62
     7
370
     9
100
AcDbLine
 10
149.9336577899073
 20
153.5834325991077
 30
0.0
 11
149.9336577899073
 21
151.2406353774713
 31
0.0
  0
LINE
  5
1B2
330
70
100
AcDbEntity
  8
Bemaßung
 62
     7
370
     9
100
AcDbLine
 10
149.9844577898947
 20
153.5834325991077
 30
0.0
 11
149.9844577898947
 21
150.8546964886789
 31
0.0
  0
LINE
  5
1B3
330
70
100
AcDbEntity
  8
Bemaßung
 62
     7
370
     9
100
AcDbLine
 10
150.0352577898818
 20
153.5834325991077
 30
0.0
 11
150.0352577898818
 21
150.4687575998864
 31
0.0
  0
LINE
  5
1B4
330
70
100
AcDbEntity
  8
Bemaßung
 62
     7
370
     9
100
AcDbLine
 10
150.0860577898692
 20
153.5834325991077
 30
0.0
 11
150.0860577898692
 21
150.0831714888717
 31
0.0
  0
LINE
  5
1B5
330
70
100
AcDbEntity
  8
Bemaßung
 62
     7
370
     9
100
AcDbLine
 10
204.2861299985414
 20
167.0831798179552
 30
0.0
 11
250.4619371377291
 21
167.0831798179552
 31
0.0
  0
LINE
  5
1B6
330
70
100
AcDbEntity
  8
Bemaßung
 62
     7
370
     9
100
AcDbLine
 10
204.2861299985414
 20
147.0835020451773
 30
0.0
 11
250.4619371377291
 21
147.0835020451773
 31
0.0
  0
LINE
  5
1B7
330
70
100
AcDbEntity
  8
Bemaßung
 62
     7
370
     9
100
AcDbLine
 10
248.4616871382291
 20
167.0831798179552
 30
0.0
 11
248.4616871382291
 21
147.0835020451773
 31
0.0
  0
LWPOLYLINE
  5
1B8
330
70
100
AcDbEntity
  8
Bemaßung
 62
     7
370
     9
100
AcDbPolyline
 90
        4
 70
     0
 43
0.0
 10
248.4616871382291
 20
167.0831798179552
 10
248.0013121383441
 20
163.5832714854967
 10
248.9224149158915
 20
163.5832714854967
 10
248.4616871382291
 20
167.0831798179552
  0
LINE
  5
1B9
330
70
100
AcDbEntity
  8
Bemaßung
 62
     7
370
     9
100
AcDbLine
 10
248.0048399161211
 20
163.5832714854967
 30
0.0
 11
248.0048399161211
 21
163.6104353743789
 31
0.0
  0
LINE
  5
1BA
330
70
100
AcDbEntity
  8
Bemaßung
 62
     7
370
     9
100
AcDbLine
 10
248.0048399161211
 20
163.5832714854967
 30
0.0
 11
248.0048399161211
 21
163.6104353743789
 31
0.0
  0
LINE
  5
1BB
330
70
100
AcDbEntity
  8
Bemaßung
 62
     7
370
     9
100
AcDbLine
 10
248.0556399161081
 20
163.5832714854967
 30
0.0
 11
248.0556399161081
 21
163.9960214853936
 31
0.0
  0
LINE
  5
1BC
330
70
100
AcDbEntity
  8
Bemaßung
 62
     7
370
     9
100
AcDbLine
 10
248.1064399160955
 20
163.5832714854967
 30
0.0
 11
248.1064399160955
 21
164.3823131519634
 31
0.0
  0
LINE
  5
1BD
330
70
100
AcDbEntity
  8
Bemaßung
 62
     7
370
     9
100
AcDbLine
 10
248.1572399160829
 20
163.5832714854967
 30
0.0
 11
248.1572399160829
 21
164.7678992629784
 31
0.0
  0
LINE
  5
1BE
330
70
100
AcDbEntity
  8
Bemaßung
 62
     7
370
     9
100
AcDbLine
 10
248.2080399160702
 20
163.5832714854967
 30
0.0
 11
248.2080399160702
 21
165.1541909295483
 31
0.0
  0
LINE
  5
1BF
330
70
100
AcDbEntity
  8
Bemaßung
 62
     7
370
     9
100
AcDbLine
 10
248.2588399160576
 20
163.5832714854967
 30
0.0
 11
248.2588399160576
 21
165.5394242627855
 31
0.0
  0
LINE
  5
1C0
330
70
100
AcDbEntity
  8
Bemaßung
 62
     7
370
     9
100
AcDbLine
 10
248.3096399160447
 20
163.5832714854967
 30
0.0
 11
248.3096399160447
 21
165.9257159293554
 31
0.0
  0
LINE
  5
1C1
330
70
100
AcDbEntity
  8
Bemaßung
 62
     7
370
     9
100
AcDbLine
 10
248.3604399160321
 20
163.5832714854967
 30
0.0
 11
248.3604399160321
 21
166.3113020403704
 31
0.0
  0
LINE
  5
1C2
330
70
100
AcDbEntity
  8
Bemaßung
 62
     7
370
     9
100
AcDbLine
 10
248.4112399160195
 20
163.5832714854967
 30
0.0
 11
248.4112399160195
 21
166.6975937069402
 31
0.0
  0
LINE
  5
1C3
330
70
100
AcDbEntity
  8
Bemaßung
 62
     7
370
     9
100
AcDbLine
 10
248.4616871382291
 20
163.5832714854967
 30
0.0
 11
248.4616871382291
 21
167.0831798179552
 31
0.0
  0
LINE
  5
1C4
330
70
100
AcDbEntity
  8
Bemaßung
 62
     7
370
     9
100
AcDbLine
 10
248.9188871381146
 20
163.5832714854967
 30
0.0
 11
248.9188871381146
 21
163.6104353743789
 31
0.0
  0
LINE
  5
1C5
330
70
100
AcDbEntity
  8
Bemaßung
 62
     7
370
     9
100
AcDbLine
 10
248.9188871381146
 20
163.5832714854967
 30
0.0
 11
248.9188871381146
 21
163.6104353743789
 31
0.0
  0
LINE
  5
1C6
330
70
100
AcDbEntity
  8
Bemaßung
 62
     7
370
     9
100
AcDbLine
 10
248.8680871381275
 20
163.5832714854967
 30
0.0
 11
248.8680871381275
 21
163.9960214853936
 31
0.0
  0
LINE
  5
1C7
330
70
100
AcDbEntity
  8
Bemaßung
 62
     7
370
     9
100
AcDbLine
 10
248.8172871381401
 20
163.5832714854967
 30
0.0
 11
248.8172871381401
 21
164.3823131519634
 31
0.0
  0
LINE
  5
1C8
330
70
100
AcDbEntity
  8
Bemaßung
 62
     7
370
     9
100
AcDbLine
 10
248.7664871381527
 20
163.5832714854967
 30
0.0
 11
248.7664871381527
 21
164.7678992629784
 31
0.0
  0
LINE
  5
1C9
330
70
100
AcDbEntity
  8
Bemaßung
 62
     7
370
     9
100
AcDbLine
 10
248.7156871381654
 20
163.5832714854967
 30
0.0
 11
248.7156871381654
 21
165.1541909295483
 31
0.0
  0
LINE
  5
1CA
330
70
100
AcDbEntity
  8
Bemaßung
 62
     7
370
     9
100
AcDbLine
 10
248.6648871381783
 20
163.5832714854967
 30
0.0
 11
248.6648871381783
 21
165.5394242627855
 31
0.0
  0
LINE
  5
1CB
330
70
100
AcDbEntity
  8
Bemaßung
 62
     7
370
     9
100
AcDbLine
 10
248.6140871381909
 20
163.5832714854967
 30
0.0
 11
248.6140871381909
 21
165.9257159293554
 31
0.0
  0
LINE
  5
1CC
330
70
100
AcDbEntity
  8
Bemaßung
 62
     7
370
     9
100
AcDbLine
 10
248.5632871382035
 20
163.5832714854967
 30
0.0
 11
248.5632871382035
 21
166.3113020403704
 31
0.0
  0
LINE
  5
1CD
330
70
100
AcDbEntity
  8
Bemaßung
 62
     7
370
     9
100
AcDbLine
 10
248.5124871382161
 20
163.5832714854967
 30
0.0
 11
248.5124871382161
 21
166.6975937069402
 31
0.0
  0
LINE
  5
1CE
330
70
100
AcDbEntity
  8
Bemaßung
 62
     7
370
     9
100
AcDbLine
 10
248.4616871382291
 20
163.5832714854967
 30
0.0
 11
248.4616871382291
 21
167.0831798179552
 31
0.0
  0
LWPOLYLINE
  5
1CF
330
70
100
AcDbEntity
  8
Bemaßung
 62
     7
370
     9
100
AcDbPolyline
 90
        4
 70
     0
 43
0.0
 10
248.4616871382291
 20
147.0835020451773
 10
248.9224149158915
 20
150.5834103776355
 10
248.0013121383441
 20
150.5834103776355
 10
248.4616871382291
 20
147.0835020451773
  0
LINE
  5
1D0
330
70
100
AcDbEntity
  8
Bemaßung
 62
     7
370
     9
100
AcDbLine
 10
248.9188871381146
 20
150.5834103776355
 30
0.0
 11
248.9188871381146
 21
150.5562464887536
 31
0.0
  0
LINE
  5
1D1
330
70
100
AcDbEntity
  8
Bemaßung
 62
     7
370
     9
100
AcDbLine
 10
248.9188871381146
 20
150.5834103776355
 30
0.0
 11
248.9188871381146
 21
150.5562464887536
 31
0.0
  0
LINE
  5
1D2
330
70
100
AcDbEntity
  8
Bemaßung
 62
     7
370
     9
100
AcDbLine
 10
248.8680871381275
 20
150.5834103776355
 30
0.0
 11
248.8680871381275
 21
150.1703075999612
 31
0.0
  0
LINE
  5
1D3
330
70
100
AcDbEntity
  8
Bemaßung
 62
     7
370
     9
100
AcDbLine
 10
248.8172871381401
 20
150.5834103776355
 30
0.0
 11
248.8172871381401
 21
149.7843687111688
 31
0.0
  0
LINE
  5
1D4
330
70
100
AcDbEntity
  8
Bemaßung
 62
     7
370
     9
100
AcDbLine
 10
248.7664871381527
 20
150.5834103776355
 30
0.0
 11
248.7664871381527
 21
149.3980770445986
 31
0.0
  0
LINE
  5
1D5
330
70
100
AcDbEntity
  8
Bemaßung
 62
     7
370
     9
100
AcDbLine
 10
248.7156871381654
 20
150.5834103776355
 30
0.0
 11
248.7156871381654
 21
149.0128437113617
 31
0.0
  0
LINE
  5
1D6
330
70
100
AcDbEntity
  8
Bemaßung
 62
     7
370
     9
100
AcDbLine
 10
248.6648871381783
 20
150.5834103776355
 30
0.0
 11
248.6648871381783
 21
148.6269048225693
 31
0.0
  0
LINE
  5
1D7
330
70
100
AcDbEntity
  8
Bemaßung
 62
     7
370
     9
100
AcDbLine
 10
248.6140871381909
 20
150.5834103776355
 30
0.0
 11
248.6140871381909
 21
148.2409659337768
 31
0.0
  0
LINE
  5
1D8
330
70
100
AcDbEntity
  8
Bemaßung
 62
     7
370
     9
100
AcDbLine
 10
248.5632871382035
 20
150.5834103776355
 30
0.0
 11
248.5632871382035
 21
147.8546742672067
 31
0.0
  0
LINE
  5
1D9
330
70
100
AcDbEntity
  8
Bemaßung
 62
     7
370
     9
100
AcDbLine
 10
248.5124871382161
 20
150.5834103776355
 30
0.0
 11
248.5124871382161
 21
147.4694409339698
 31
0.0
  0
LINE
  5
1DA
330
70
100
AcDbEntity
  8
Bemaßung
 62
     7
370
     9
100
AcDbLine
 10
248.4616871382291
 20
150.5834103776355
 30
0.0
 11
248.4616871382291
 21
147.0835020451773
 31
0.0
  0
LINE
  5
1DB
330
70
100
AcDbEntity
  8
Bemaßung
 62
     7
370
     9
100
AcDbLine
 10
248.0048399161211
 20
150.5834103776355
 30
0.0
 11
248.0048399161211
 21
150.5562464887536
 31
0.0
  0
LINE
  5
1DC
330
70
100
AcDbEntity
  8
Bemaßung
 62
     7
370
     9
100
AcDbLine
 10
248.0048399161211
 20
150.5834103776355
 30
0.0
 11
248.0048399161211
 21
150.5562464887536
 31
0.0
  0
LINE
  5
1DD
330
70
100
AcDbEntity
  8
Bemaßung
 62
     7
370
     9
100
AcDbLine
 10
248.0556399161081
 20
150.5834103776355
 30
0.0
 11
248.0556399161081
 21
150.1703075999612
 31
0.0
  0
LINE
  5
1DE
330
70
100
AcDbEntity
  8
Bemaßung
 62
     7
370
     9
100
AcDbLine
 10
248.1064399160955
 20
150.5834103776355
 30
0.0
 11
248.1064399160955
 21
149.7843687111688
 31
0.0
  0
LINE
  5
1DF
330
70
100
AcDbEntity
  8
Bemaßung
 62
     7
370
     9
100
AcDbLine
 10
248.1572399160829
 20
150.5834103776355
 30
0.0
 11
248.1572399160829
 21
149.3980770445986
 31
0.0
  0
LINE
  5
1E0
330
70
100
AcDbEntity
  8
Bemaßung
 62
     7
370
     9
100
AcDbLine
 10
248.2080399160702
 20
150.5834103776355
 30
0.0
 11
248.2080399160702
 21
149.0128437113617
 31
0.0
  0
LINE
  5
1E1
330
70
100
AcDbEntity
  8
Bemaßung
 62
     7
370
     9
100
AcDbLine
 10
248.2588399160576
 20
150.5834103776355
 30
0.0
 11
248.2588399160576
 21
148.6269048225693
 31
0.0
  0
LINE
  5
1E2
330
70
100
AcDbEntity
  8
Bemaßung
 62
     7
370
     9
100
AcDbLine
 10
248.3096399160447
 20
150.5834103776355
 30
0.0
 11
248.3096399160447
 21
148.2409659337768
 31
0.0
  0
LINE
  5
1E3
330
70
100
AcDbEntity
  8
Bemaßung
 62
     7
370
     9
100
AcDbLine
 10
248.3604399160321
 20
150.5834103776355
 30
0.0
 11
248.3604399160321
 21
147.8546742672067
 31
0.0
  0
LINE
  5
1E4
330
70
100
AcDbEntity
  8
Bemaßung
 62
     7
370
     9
100
AcDbLine
 10
248.4112399160195
 20
150.5834103776355
 30
0.0
 11
248.4112399160195
 21
147.4694409339698
 31
0.0
  0
LINE
  5
1E5
330
70
100
AcDbEntity
  8
Bemaßung
 62
     7
370
     9
100
AcDbLine
 10
248.4616871382291
 20
150.5834103776355
 30
0.0
 11
248.4616871382291
 21
147.0835020451773
 31
0.0
  0
LINE
  5
1E6
330
70
100
AcDbEntity
  8
Bemaßung
 62
     7
370
     9
100
AcDbLine
 10
206.1075216647529
 20
163.0833853745105
 30
0.0
 11
240.706112140737
 21
163.0833853745105
 31
0.0
  0
LINE
  5
1E7
330
70
100
AcDbEntity
  8
Bemaßung
 62
     7
370
     9
100
AcDbLine
 10
206.1075216647529
 20
151.082943710844
 30
0.0
 11
240.706112140737
 21
151.082943710844
 31
0.0
  0
LINE
  5
1E8
330
70
100
AcDbEntity
  8
Bemaßung
 62
     7
370
     9
100
AcDbLine
 10
238.7058621412371
 20
163.0833853745105
 30
0.0
 11
238.7058621412371
 21
151.082943710844
 31
0.0
  0
LWPOLYLINE
  5
1E9
330
70
100
AcDbEntity
  8
Bemaßung
 62
     7
370
     9
100
AcDbPolyline
 90
        4
 70
     0
 43
0.0
 10
238.7058621412371
 20
163.0833853745105
 10
238.2454871413521
 20
159.5831242642746
 10
239.1665899188995
 20
159.5831242642746
 10
238.7058621412371
 20
163.0833853745105
  0
LINE
  5
1EA
330
70
100
AcDbEntity
  8
Bemaßung
 62
     7
370
     9
100
AcDbLine
 10
238.249014919129
 20
159.5831242642746
 30
0.0
 11
238.249014919129
 21
159.6102881531564
 31
0.0
  0
LINE
  5
1EB
330
70
100
AcDbEntity
  8
Bemaßung
 62
     7
370
     9
100
AcDbLine
 10
238.249014919129
 20
159.5831242642746
 30
0.0
 11
238.249014919129
 21
159.6102881531564
 31
0.0
  0
LINE
  5
1EC
330
70
100
AcDbEntity
  8
Bemaßung
 62
     7
370
     9
100
AcDbLine
 10
238.2998149191161
 20
159.5831242642746
 30
0.0
 11
238.2998149191161
 21
159.9965798197266
 31
0.0
  0
LINE
  5
1ED
330
70
100
AcDbEntity
  8
Bemaßung
 62
     7
370
     9
100
AcDbLine
 10
238.3506149191035
 20
159.5831242642746
 30
0.0
 11
238.3506149191035
 21
160.382518708519
 31
0.0
  0
LINE
  5
1EE
330
70
100
AcDbEntity
  8
Bemaßung
 62
     7
370
     9
100
AcDbLine
 10
238.4014149190909
 20
159.5831242642746
 30
0.0
 11
238.4014149190909
 21
160.7681048195337
 31
0.0
  0
LINE
  5
1EF
330
70
100
AcDbEntity
  8
Bemaßung
 62
     7
370
     9
100
AcDbLine
 10
238.4522149190782
 20
159.5831242642746
 30
0.0
 11
238.4522149190782
 21
161.1536909305484
 31
0.0
  0
LINE
  5
1F0
330
70
100
AcDbEntity
  8
Bemaßung
 62
     7
370
     9
100
AcDbLine
 10
238.5030149190653
 20
159.5831242642746
 30
0.0
 11
238.5030149190653
 21
161.5399825971186
 31
0.0
  0
LINE
  5
1F1
330
70
100
AcDbEntity
  8
Bemaßung
 62
     7
370
     9
100
AcDbLine
 10
238.5538149190527
 20
159.5831242642746
 30
0.0
 11
238.5538149190527
 21
161.925921485911
 31
0.0
  0
LINE
  5
1F2
330
70
100
AcDbEntity
  8
Bemaßung
 62
     7
370
     9
100
AcDbLine
 10
238.6042621412623
 20
159.5831242642746
 30
0.0
 11
238.6042621412623
 21
162.3115075969256
 31
0.0
  0
LINE
  5
1F3
330
70
100
AcDbEntity
  8
Bemaßung
 62
     7
370
     9
100
AcDbLine
 10
238.6550621412497
 20
159.5831242642746
 30
0.0
 11
238.6550621412497
 21
162.6970937079403
 31
0.0
  0
LINE
  5
1F4
330
70
100
AcDbEntity
  8
Bemaßung
 62
     7
370
     9
100
AcDbLine
 10
238.7058621412371
 20
159.5831242642746
 30
0.0
 11
238.7058621412371
 21
163.0833853745105
 31
0.0
  0
LINE
  5
1F5
330
70
100
AcDbEntity
  8
Bemaßung
 62
     7
370
     9
100
AcDbLine
 10
239.1634149189003
 20
159.5831242642746
 30
0.0
 11
239.1634149189003
 21
159.6102881531564
 31
0.0
  0
LINE
  5
1F6
330
70
100
AcDbEntity
  8
Bemaßung
 62
     7
370
     9
100
AcDbLine
 10
239.1634149189003
 20
159.5831242642746
 30
0.0
 11
239.1634149189003
 21
159.6102881531564
 31
0.0
  0
LINE
  5
1F7
330
70
100
AcDbEntity
  8
Bemaßung
 62
     7
370
     9
100
AcDbLine
 10
239.1126149189129
 20
159.5831242642746
 30
0.0
 11
239.1126149189129
 21
159.9965798197266
 31
0.0
  0
LINE
  5
1F8
330
70
100
AcDbEntity
  8
Bemaßung
 62
     7
370
     9
100
AcDbLine
 10
239.0614621411481
 20
159.5831242642746
 30
0.0
 11
239.0614621411481
 21
160.382518708519
 31
0.0
  0
LINE
  5
1F9
330
70
100
AcDbEntity
  8
Bemaßung
 62
     7
370
     9
100
AcDbLine
 10
239.0106621411607
 20
159.5831242642746
 30
0.0
 11
239.0106621411607
 21
160.7681048195337
 31
0.0
  0
LINE
  5
1FA
330
70
100
AcDbEntity
  8
Bemaßung
 62
     7
370
     9
100
AcDbLine
 10
238.9598621411733
 20
159.5831242642746
 30
0.0
 11
238.9598621411733
 21
161.1536909305484
 31
0.0
  0
LINE
  5
1FB
330
70
100
AcDbEntity
  8
Bemaßung
 62
     7
370
     9
100
AcDbLine
 10
238.909062141186
 20
159.5831242642746
 30
0.0
 11
238.909062141186
 21
161.5399825971186
 31
0.0
  0
LINE
  5
1FC
330
70
100
AcDbEntity
  8
Bemaßung
 62
     7
370
     9
100
AcDbLine
 10
238.8582621411989
 20
159.5831242642746
 30
0.0
 11
238.8582621411989
 21
161.925921485911
 31
0.0
  0
LINE
  5
1FD
330
70
100
AcDbEntity
  8
Bemaßung
 62
     7
370
     9
100
AcDbLine
 10
238.8074621412115
 20
159.5831242642746
 30
0.0
 11
238.8074621412115
 21
162.3115075969256
 31
0.0
  0
LINE
  5
1FE
330
70
100
AcDbEntity
  8
Bemaßung
 62
     7
370
     9
100
AcDbLine
 10
238.7566621412241
 20
159.5831242642746
 30
0.0
 11
238.7566621412241
 21
162.6970937079403
 31
0.0
  0
LINE
  5
1FF
330
70
100
AcDbEntity
  8
Bemaßung
 62
     7
370
     9
100
AcDbLine
 10
238.7058621412371
 20
159.5831242642746
 30
0.0
 11
238.7058621412371
 21
163.0833853745105
 31
0.0
  0
LWPOLYLINE
  5
200
330
70
100
AcDbEntity
  8
Bemaßung
 62
     7
370
     9
100
AcDbPolyline
 90
        4
 70
     0
 43
0.0
 10
238.7058621412371
 20
151.082943710844
 10
239.1665899188995
 20
154.5835575988576
 10
238.2454871413521
 20
154.5835575988576
 10
238.7058621412371
 20
151.082943710844
  0
LINE
  5
201
330
70
100
AcDbEntity
  8
Bemaßung
 62
     7
370
     9
100
AcDbLine
 10
239.1634149189003
 20
154.5835575988576
 30
0.0
 11
239.1634149189003
 21
154.5556881544203
 31
0.0
  0
LINE
  5
202
330
70
100
AcDbEntity
  8
Bemaßung
 62
     7
370
     9
100
AcDbLine
 10
239.1634149189003
 20
154.5835575988576
 30
0.0
 11
239.1634149189003
 21
154.5556881544203
 31
0.0
  0
LINE
  5
203
330
70
100
AcDbEntity
  8
Bemaßung
 62
     7
370
     9
100
AcDbLine
 10
239.1126149189129
 20
154.5835575988576
 30
0.0
 11
239.1126149189129
 21
154.1704548211834
 31
0.0
  0
LINE
  5
204
330
70
100
AcDbEntity
  8
Bemaßung
 62
     7
370
     9
100
AcDbLine
 10
239.0614621411481
 20
154.5835575988576
 30
0.0
 11
239.0614621411481
 21
153.7845159323909
 31
0.0
  0
LINE
  5
205
330
70
100
AcDbEntity
  8
Bemaßung
 62
     7
370
     9
100
AcDbLine
 10
239.0106621411607
 20
154.5835575988576
 30
0.0
 11
239.0106621411607
 21
153.3985770435985
 31
0.0
  0
LINE
  5
206
330
70
100
AcDbEntity
  8
Bemaßung
 62
     7
370
     9
100
AcDbLine
 10
238.9598621411733
 20
154.5835575988576
 30
0.0
 11
238.9598621411733
 21
153.0122853770283
 31
0.0
  0
LINE
  5
207
330
70
100
AcDbEntity
  8
Bemaßung
 62
     7
370
     9
100
AcDbLine
 10
238.909062141186
 20
154.5835575988576
 30
0.0
 11
238.909062141186
 21
152.6263464882359
 31
0.0
  0
LINE
  5
208
330
70
100
AcDbEntity
  8
Bemaßung
 62
     7
370
     9
100
AcDbLine
 10
238.8582621411989
 20
154.5835575988576
 30
0.0
 11
238.8582621411989
 21
152.241113154999
 31
0.0
  0
LINE
  5
209
330
70
100
AcDbEntity
  8
Bemaßung
 62
     7
370
     9
100
AcDbLine
 10
238.8074621412115
 20
154.5835575988576
 30
0.0
 11
238.8074621412115
 21
151.8551742662066
 31
0.0
  0
LINE
  5
20A
330
70
100
AcDbEntity
  8
Bemaßung
 62
     7
370
     9
100
AcDbLine
 10
238.7566621412241
 20
154.5835575988576
 30
0.0
 11
238.7566621412241
 21
151.4688825996364
 31
0.0
  0
LINE
  5
20B
330
70
100
AcDbEntity
  8
Bemaßung
 62
     7
370
     9
100
AcDbLine
 10
238.7058621412371
 20
154.5835575988576
 30
0.0
 11
238.7058621412371
 21
151.082943710844
 31
0.0
  0
LINE
  5
20C
330
70
100
AcDbEntity
  8
Bemaßung
 62
     7
370
     9
100
AcDbLine
 10
238.249014919129
 20
154.5835575988576
 30
0.0
 11
238.249014919129
 21
154.5556881544203
 31
0.0
  0
LINE
  5
20D
330
70
100
AcDbEntity
  8
Bemaßung
 62
     7
370
     9
100
AcDbLine
 10
238.249014919129
 20
154.5835575988576
 30
0.0
 11
238.249014919129
 21
154.5556881544203
 31
0.0
  0
LINE
  5
20E
330
70
100
AcDbEntity
  8
Bemaßung
 62
     7
370
     9
100
AcDbLine
 10
238.2998149191161
 20
154.5835575988576
 30
0.0
 11
238.2998149191161
 21
154.1704548211834
 31
0.0
  0
LINE
  5
20F
330
70
100
AcDbEntity
  8
Bemaßung
 62
     7
370
     9
100
AcDbLine
 10
238.3506149191035
 20
154.5835575988576
 30
0.0
 11
238.3506149191035
 21
153.7845159323909
 31
0.0
  0
LINE
  5
210
330
70
100
AcDbEntity
  8
Bemaßung
 62
     7
370
     9
100
AcDbLine
 10
238.4014149190909
 20
154.5835575988576
 30
0.0
 11
238.4014149190909
 21
153.3985770435985
 31
0.0
  0
LINE
  5
211
330
70
100
AcDbEntity
  8
Bemaßung
 62
     7
370
     9
100
AcDbLine
 10
238.4522149190782
 20
154.5835575988576
 30
0.0
 11
238.4522149190782
 21
153.0122853770283
 31
0.0
  0
LINE
  5
212
330
70
100
AcDbEntity
  8
Bemaßung
 62
     7
370
     9
100
AcDbLine
 10
238.5030149190653
 20
154.5835575988576
 30
0.0
 11
238.5030149190653
 21
152.6263464882359
 31
0.0
  0
LINE
  5
213
330
70
100
AcDbEntity
  8
Bemaßung
 62
     7
370
     9
100
AcDbLine
 10
238.5538149190527
 20
154.5835575988576
 30
0.0
 11
238.5538149190527
 21
152.241113154999
 31
0.0
  0
LINE
  5
214
330
70
100
AcDbEntity
  8
Bemaßung
 62
     7
370
     9
100
AcDbLine
 10
238.6042621412623
 20
154.5835575988576
 30
0.0
 11
238.6042621412623
 21
151.8551742662066
 31
0.0
  0
LINE
  5
215
330
70
100
AcDbEntity
  8
Bemaßung
 62
     7
370
     9
100
AcDbLine
 10
238.6550621412497
 20
154.5835575988576
 30
0.0
 11
238.6550621412497
 21
151.4688825996364
 31
0.0
  0
LINE
  5
216
330
70
100
AcDbEntity
  8
Bemaßung
 62
     7
370
     9
100
AcDbLine
 10
238.7058621412371
 20
154.5835575988576
 30
0.0
 11
238.7058621412371
 21
151.082943710844
 31
0.0
  0
LINE
  5
217
330
70
100
AcDbEntity
  8
Bemaßung
 62
     7
370
     9
100
AcDbLine
 10
268.0653271995841
 20
157.3333409313898
 30
0.0
 11
268.0653271995841
 21
130.7331187113796
 31
0.0
  0
LINE
  5
218
330
70
100
AcDbEntity
  8
Bemaßung
 62
     7
370
     9
100
AcDbLine
 10
296.76556330352
 20
157.3333409313898
 30
0.0
 11
296.76556330352
 21
130.7331187113796
 31
0.0
  0
LINE
  5
219
330
70
100
AcDbEntity
  8
Bemaßung
 62
     7
370
     9
100
AcDbLine
 10
268.0653271995841
 20
132.7333687108795
 30
0.0
 11
296.76556330352
 21
132.7333687108795
 31
0.0
  0
LWPOLYLINE
  5
21A
330
70
100
AcDbEntity
  8
Bemaßung
 62
     7
370
     9
100
AcDbPolyline
 90
        4
 70
     0
 43
0.0
 10
268.0653271995841
 20
132.7333687108795
 10
271.5655883098204
 20
132.2722881554393
 10
271.5655883098204
 20
133.1937437107645
 10
268.0653271995841
 20
132.7333687108795
  0
LINE
  5
21B
330
70
100
AcDbEntity
  8
Bemaßung
 62
     7
370
     9
100
AcDbLine
 10
271.5655883098204
 20
132.2761687109937
 30
0.0
 11
271.5384244209382
 21
132.2761687109937
 31
0.0
  0
LINE
  5
21C
330
70
100
AcDbEntity
  8
Bemaßung
 62
     7
370
     9
100
AcDbLine
 10
271.5655883098204
 20
132.2761687109937
 30
0.0
 11
271.5384244209382
 21
132.2761687109937
 31
0.0
  0
LINE
  5
21D
330
70
100
AcDbEntity
  8
Bemaßung
 62
     7
370
     9
100
AcDbLine
 10
271.5655883098204
 20
132.3266159332033
 30
0.0
 11
271.152132754368
 21
132.3266159332033
 31
0.0
  0
LINE
  5
21E
330
70
100
AcDbEntity
  8
Bemaßung
 62
     7
370
     9
100
AcDbLine
 10
271.5655883098204
 20
132.3774159331907
 30
0.0
 11
270.7665466433534
 21
132.3774159331907
 31
0.0
  0
LINE
  5
21F
330
70
100
AcDbEntity
  8
Bemaßung
 62
     7
370
     9
100
AcDbLine
 10
271.5655883098204
 20
132.4282159331781
 30
0.0
 11
270.3802549767831
 21
132.4282159331781
 31
0.0
  0
LINE
  5
220
330
70
100
AcDbEntity
  8
Bemaßung
 62
     7
370
     9
100
AcDbLine
 10
271.5655883098204
 20
132.4790159331652
 30
0.0
 11
269.9950216435462
 21
132.4790159331652
 31
0.0
  0
LINE
  5
221
330
70
100
AcDbEntity
  8
Bemaßung
 62
     7
370
     9
100
AcDbLine
 10
271.5655883098204
 20
132.5298159331525
 30
0.0
 11
269.6087299769761
 21
132.5298159331525
 31
0.0
  0
LINE
  5
222
330
70
100
AcDbEntity
  8
Bemaßung
 62
     7
370
     9
100
AcDbLine
 10
271.5655883098204
 20
132.5806159331399
 30
0.0
 11
269.2231438659614
 21
132.5806159331399
 31
0.0
  0
LINE
  5
223
330
70
100
AcDbEntity
  8
Bemaßung
 62
     7
370
     9
100
AcDbLine
 10
271.5655883098204
 20
132.6317687109047
 30
0.0
 11
268.8368521993912
 21
132.6317687109047
 31
0.0
  0
LINE
  5
224
330
70
100
AcDbEntity
  8
Bemaßung
 62
     7
370
     9
100
AcDbLine
 10
271.5655883098204
 20
132.6825687108921
 30
0.0
 11
268.4516188661543
 21
132.6825687108921
 31
0.0
  0
LINE
  5
225
330
70
100
AcDbEntity
  8
Bemaßung
 62
     7
370
     9
100
AcDbLine
 10
271.5655883098204
 20
132.7333687108795
 30
0.0
 11
268.0653271995841
 21
132.7333687108795
 31
0.0
  0
LINE
  5
226
330
70
100
AcDbEntity
  8
Bemaßung
 62
     7
370
     9
100
AcDbLine
 10
271.5655883098204
 20
133.1905687107653
 30
0.0
 11
271.5384244209382
 21
133.1905687107653
 31
0.0
  0
LINE
  5
227
330
70
100
AcDbEntity
  8
Bemaßung
 62
     7
370
     9
100
AcDbLine
 10
271.5655883098204
 20
133.1905687107653
 30
0.0
 11
271.5384244209382
 21
133.1905687107653
 31
0.0
  0
LINE
  5
228
330
70
100
AcDbEntity
  8
Bemaßung
 62
     7
370
     9
100
AcDbLine
 10
271.5655883098204
 20
133.1397687107779
 30
0.0
 11
271.152132754368
 21
133.1397687107779
 31
0.0
  0
LINE
  5
229
330
70
100
AcDbEntity
  8
Bemaßung
 62
     7
370
     9
100
AcDbLine
 10
271.5655883098204
 20
133.0886159330128
 30
0.0
 11
270.7665466433534
 21
133.0886159330128
 31
0.0
  0
LINE
  5
22A
330
70
100
AcDbEntity
  8
Bemaßung
 62
     7
370
     9
100
AcDbLine
 10
271.5655883098204
 20
133.0378159330257
 30
0.0
 11
270.3802549767831
 21
133.0378159330257
 31
0.0
  0
LINE
  5
22B
330
70
100
AcDbEntity
  8
Bemaßung
 62
     7
370
     9
100
AcDbLine
 10
271.5655883098204
 20
132.9870159330383
 30
0.0
 11
269.9950216435462
 21
132.9870159330383
 31
0.0
  0
LINE
  5
22C
330
70
100
AcDbEntity
  8
Bemaßung
 62
     7
370
     9
100
AcDbLine
 10
271.5655883098204
 20
132.9362159330509
 30
0.0
 11
269.6087299769761
 21
132.9362159330509
 31
0.0
  0
LINE
  5
22D
330
70
100
AcDbEntity
  8
Bemaßung
 62
     7
370
     9
100
AcDbLine
 10
271.5655883098204
 20
132.8854159330636
 30
0.0
 11
269.2231438659614
 21
132.8854159330636
 31
0.0
  0
LINE
  5
22E
330
70
100
AcDbEntity
  8
Bemaßung
 62
     7
370
     9
100
AcDbLine
 10
271.5655883098204
 20
132.8349687108539
 30
0.0
 11
268.8368521993912
 21
132.8349687108539
 31
0.0
  0
LINE
  5
22F
330
70
100
AcDbEntity
  8
Bemaßung
 62
     7
370
     9
100
AcDbLine
 10
271.5655883098204
 20
132.7841687108669
 30
0.0
 11
268.4516188661543
 21
132.7841687108669
 31
0.0
  0
LINE
  5
230
330
70
100
AcDbEntity
  8
Bemaßung
 62
     7
370
     9
100
AcDbLine
 10
271.5655883098204
 20
132.7333687108795
 30
0.0
 11
268.0653271995841
 21
132.7333687108795
 31
0.0
  0
LWPOLYLINE
  5
231
330
70
100
AcDbEntity
  8
Bemaßung
 62
     7
370
     9
100
AcDbPolyline
 90
        4
 70
     0
 43
0.0
 10
296.76556330352
 20
132.7333687108795
 10
293.2653021932841
 20
133.1937437107645
 10
293.2653021932841
 20
132.2722881554393
 10
296.76556330352
 20
132.7333687108795
  0
LINE
  5
232
330
70
100
AcDbEntity
  8
Bemaßung
 62
     7
370
     9
100
AcDbLine
 10
293.2653021932841
 20
133.1905687107653
 30
0.0
 11
293.2924660821663
 21
133.1905687107653
 31
0.0
  0
LINE
  5
233
330
70
100
AcDbEntity
  8
Bemaßung
 62
     7
370
     9
100
AcDbLine
 10
293.2653021932841
 20
133.1905687107653
 30
0.0
 11
293.2924660821663
 21
133.1905687107653
 31
0.0
  0
LINE
  5
234
330
70
100
AcDbEntity
  8
Bemaßung
 62
     7
370
     9
100
AcDbLine
 10
293.2653021932841
 20
133.1397687107779
 30
0.0
 11
293.6787577487362
 21
133.1397687107779
 31
0.0
  0
LINE
  5
235
330
70
100
AcDbEntity
  8
Bemaßung
 62
     7
370
     9
100
AcDbLine
 10
293.2653021932841
 20
133.0886159330128
 30
0.0
 11
294.0646966375289
 21
133.0886159330128
 31
0.0
  0
LINE
  5
236
330
70
100
AcDbEntity
  8
Bemaßung
 62
     7
370
     9
100
AcDbLine
 10
293.2653021932841
 20
133.0378159330257
 30
0.0
 11
294.4502827485436
 21
133.0378159330257
 31
0.0
  0
LINE
  5
237
330
70
100
AcDbEntity
  8
Bemaßung
 62
     7
370
     9
100
AcDbLine
 10
293.2653021932841
 20
132.9870159330383
 30
0.0
 11
294.8358688595583
 21
132.9870159330383
 31
0.0
  0
LINE
  5
238
330
70
100
AcDbEntity
  8
Bemaßung
 62
     7
370
     9
100
AcDbLine
 10
293.2653021932841
 20
132.9362159330509
 30
0.0
 11
295.2221605261281
 21
132.9362159330509
 31
0.0
  0
LINE
  5
239
330
70
100
AcDbEntity
  8
Bemaßung
 62
     7
370
     9
100
AcDbLine
 10
293.2653021932841
 20
132.8854159330636
 30
0.0
 11
295.6080994149208
 21
132.8854159330636
 31
0.0
  0
LINE
  5
23A
330
70
100
AcDbEntity
  8
Bemaßung
 62
     7
370
     9
100
AcDbLine
 10
293.2653021932841
 20
132.8349687108539
 30
0.0
 11
295.9936855259355
 21
132.8349687108539
 31
0.0
  0
LINE
  5
23B
330
70
100
AcDbEntity
  8
Bemaßung
 62
     7
370
     9
100
AcDbLine
 10
293.2653021932841
 20
132.7841687108669
 30
0.0
 11
296.3792716369502
 21
132.7841687108669
 31
0.0
  0
LINE
  5
23C
330
70
100
AcDbEntity
  8
Bemaßung
 62
     7
370
     9
100
AcDbLine
 10
293.2653021932841
 20
132.7333687108795
 30
0.0
 11
296.76556330352
 21
132.7333687108795
 31
0.0
  0
LINE
  5
23D
330
70
100
AcDbEntity
  8
Bemaßung
 62
     7
370
     9
100
AcDbLine
 10
293.2653021932841
 20
132.2761687109937
 30
0.0
 11
293.2924660821663
 21
132.2761687109937
 31
0.0
  0
LINE
  5
23E
330
70
100
AcDbEntity
  8
Bemaßung
 62
     7
370
     9
100
AcDbLine
 10
293.2653021932841
 20
132.2761687109937
 30
0.0
 11
293.2924660821663
 21
132.2761687109937
 31
0.0
  0
LINE
  5
23F
330
70
100
AcDbEntity
  8
Bemaßung
 62
     7
370
     9
100
AcDbLine
 10
293.2653021932841
 20
132.3266159332033
 30
0.0
 11
293.6787577487362
 21
132.3266159332033
 31
0.0
  0
LINE
  5
240
330
70
100
AcDbEntity
  8
Bemaßung
 62
     7
370
     9
100
AcDbLine
 10
293.2653021932841
 20
132.3774159331907
 30
0.0
 11
294.0646966375289
 21
132.3774159331907
 31
0.0
  0
LINE
  5
241
330
70
100
AcDbEntity
  8
Bemaßung
 62
     7
370
     9
100
AcDbLine
 10
293.2653021932841
 20
132.4282159331781
 30
0.0
 11
294.4502827485436
 21
132.4282159331781
 31
0.0
  0
LINE
  5
242
330
70
100
AcDbEntity
  8
Bemaßung
 62
     7
370
     9
100
AcDbLine
 10
293.2653021932841
 20
132.4790159331652
 30
0.0
 11
294.8358688595583
 21
132.4790159331652
 31
0.0
  0
LINE
  5
243
330
70
100
AcDbEntity
  8
Bemaßung
 62
     7
370
     9
100
AcDbLine
 10
293.2653021932841
 20
132.5298159331525
 30
0.0
 11
295.2221605261281
 21
132.5298159331525
 31
0.0
  0
LINE
  5
244
330
70
100
AcDbEntity
  8
Bemaßung
 62
     7
370
     9
100
AcDbLine
 10
293.2653021932841
 20
132.5806159331399
 30
0.0
 11
295.6080994149208
 21
132.5806159331399
 31
0.0
  0
LINE
  5
245
330
70
100
AcDbEntity
  8
Bemaßung
 62
     7
370
     9
100
AcDbLine
 10
293.2653021932841
 20
132.6317687109047
 30
0.0
 11
295.9936855259355
 21
132.6317687109047
 31
0.0
  0
LINE
  5
246
330
70
100
AcDbEntity
  8
Bemaßung
 62
     7
370
     9
100
AcDbLine
 10
293.2653021932841
 20
132.6825687108921
 30
0.0
 11
296.3792716369502
 21
132.6825687108921
 31
0.0
  0
LINE
  5
247
330
70
100
AcDbEntity
  8
Bemaßung
 62
     7
370
     9
100
AcDbLine
 10
293.2653021932841
 20
132.7333687108795
 30
0.0
 11
296.76556330352
 21
132.7333687108795
 31
0.0
  0
LINE
  5
248
330
70
100
AcDbEntity
  8
Bemaßung
 62
     7
370
     9
100
AcDbLine
 10
195.085685556397
 20
171.2329048169177
 30
0.0
 11
195.085685556397
 21
187.1445937018285
 31
0.0
  0
LINE
  5
249
330
70
100
AcDbEntity
  8
Bemaßung
 62
     7
370
     9
100
AcDbLine
 10
170.0860883404248
 20
160.4460187085033
 30
0.0
 11
170.0860883404248
 21
187.1445937018285
 31
0.0
  0
LINE
  5
24A
330
70
100
AcDbEntity
  8
Bemaßung
 62
     7
370
     9
100
AcDbLine
 10
195.085685556397
 20
185.1439909245508
 30
0.0
 11
170.0860883404248
 21
185.1439909245508
 31
0.0
  0
LWPOLYLINE
  5
24B
330
70
100
AcDbEntity
  8
Bemaßung
 62
     7
370
     9
100
AcDbPolyline
 90
        4
 70
     0
 43
0.0
 10
195.085685556397
 20
185.1439909245508
 10
191.5861300017163
 20
185.6050714799913
 10
191.5861300017163
 20
184.6836159246661
 10
195.085685556397
 20
185.1439909245508
  0
LINE
  5
24C
330
70
100
AcDbEntity
  8
Bemaßung
 62
     7
370
     9
100
AcDbLine
 10
191.5861300017163
 20
185.6015437022143
 30
0.0
 11
191.6132938905985
 21
185.6015437022143
 31
0.0
  0
LINE
  5
24D
330
70
100
AcDbEntity
  8
Bemaßung
 62
     7
370
     9
100
AcDbLine
 10
191.5861300017163
 20
185.6015437022143
 30
0.0
 11
191.6132938905985
 21
185.6015437022143
 31
0.0
  0
LINE
  5
24E
330
70
100
AcDbEntity
  8
Bemaßung
 62
     7
370
     9
100
AcDbLine
 10
191.5861300017163
 20
185.5507437022269
 30
0.0
 11
191.9988800016132
 21
185.5507437022269
 31
0.0
  0
LINE
  5
24F
330
70
100
AcDbEntity
  8
Bemaßung
 62
     7
370
     9
100
AcDbLine
 10
191.5861300017163
 20
185.4999437022396
 30
0.0
 11
192.3848188904056
 21
185.4999437022396
 31
0.0
  0
LINE
  5
250
330
70
100
AcDbEntity
  8
Bemaßung
 62
     7
370
     9
100
AcDbLine
 10
191.5861300017163
 20
185.4491437022525
 30
0.0
 11
192.770757779198
 21
185.4491437022525
 31
0.0
  0
LINE
  5
251
330
70
100
AcDbEntity
  8
Bemaßung
 62
     7
370
     9
100
AcDbLine
 10
191.5861300017163
 20
185.3983437022651
 30
0.0
 11
193.1566966679904
 21
185.3983437022651
 31
0.0
  0
LINE
  5
252
330
70
100
AcDbEntity
  8
Bemaßung
 62
     7
370
     9
100
AcDbLine
 10
191.5861300017163
 20
185.3475437022781
 30
0.0
 11
193.5422827790051
 21
185.3475437022781
 31
0.0
  0
LINE
  5
253
330
70
100
AcDbEntity
  8
Bemaßung
 62
     7
370
     9
100
AcDbLine
 10
191.5861300017163
 20
185.2967437022907
 30
0.0
 11
193.9282216677975
 21
185.2967437022907
 31
0.0
  0
LINE
  5
254
330
70
100
AcDbEntity
  8
Bemaßung
 62
     7
370
     9
100
AcDbLine
 10
191.5861300017163
 20
185.2459437023033
 30
0.0
 11
194.3141605565899
 21
185.2459437023033
 31
0.0
  0
LINE
  5
255
330
70
100
AcDbEntity
  8
Bemaßung
 62
     7
370
     9
100
AcDbLine
 10
191.5861300017163
 20
185.1947909245381
 30
0.0
 11
194.7000994453824
 21
185.1947909245381
 31
0.0
  0
LINE
  5
256
330
70
100
AcDbEntity
  8
Bemaßung
 62
     7
370
     9
100
AcDbLine
 10
191.5861300017163
 20
185.1439909245508
 30
0.0
 11
195.085685556397
 21
185.1439909245508
 31
0.0
  0
LINE
  5
257
330
70
100
AcDbEntity
  8
Bemaßung
 62
     7
370
     9
100
AcDbLine
 10
191.5861300017163
 20
184.6871437024431
 30
0.0
 11
191.6132938905985
 21
184.6871437024431
 31
0.0
  0
LINE
  5
258
330
70
100
AcDbEntity
  8
Bemaßung
 62
     7
370
     9
100
AcDbLine
 10
191.5861300017163
 20
184.6871437024431
 30
0.0
 11
191.6132938905985
 21
184.6871437024431
 31
0.0
  0
LINE
  5
259
330
70
100
AcDbEntity
  8
Bemaßung
 62
     7
370
     9
100
AcDbLine
 10
191.5861300017163
 20
184.7382964802079
 30
0.0
 11
191.9988800016132
 21
184.7382964802079
 31
0.0
  0
LINE
  5
25A
330
70
100
AcDbEntity
  8
Bemaßung
 62
     7
370
     9
100
AcDbLine
 10
191.5861300017163
 20
184.7890964801953
 30
0.0
 11
192.3848188904056
 21
184.7890964801953
 31
0.0
  0
LINE
  5
25B
330
70
100
AcDbEntity
  8
Bemaßung
 62
     7
370
     9
100
AcDbLine
 10
191.5861300017163
 20
184.8395437024049
 30
0.0
 11
192.770757779198
 21
184.8395437024049
 31
0.0
  0
LINE
  5
25C
330
70
100
AcDbEntity
  8
Bemaßung
 62
     7
370
     9
100
AcDbLine
 10
191.5861300017163
 20
184.89069648017
 30
0.0
 11
193.1566966679904
 21
184.89069648017
 31
0.0
  0
LINE
  5
25D
330
70
100
AcDbEntity
  8
Bemaßung
 62
     7
370
     9
100
AcDbLine
 10
191.5861300017163
 20
184.9414964801571
 30
0.0
 11
193.5422827790051
 21
184.9414964801571
 31
0.0
  0
LINE
  5
25E
330
70
100
AcDbEntity
  8
Bemaßung
 62
     7
370
     9
100
AcDbLine
 10
191.5861300017163
 20
184.9915909245892
 30
0.0
 11
193.9282216677975
 21
184.9915909245892
 31
0.0
  0
LINE
  5
25F
330
70
100
AcDbEntity
  8
Bemaßung
 62
     7
370
     9
100
AcDbLine
 10
191.5861300017163
 20
185.0430964801318
 30
0.0
 11
194.3141605565899
 21
185.0430964801318
 31
0.0
  0
LINE
  5
260
330
70
100
AcDbEntity
  8
Bemaßung
 62
     7
370
     9
100
AcDbLine
 10
191.5861300017163
 20
185.0938964801189
 30
0.0
 11
194.7000994453824
 21
185.0938964801189
 31
0.0
  0
LINE
  5
261
330
70
100
AcDbEntity
  8
Bemaßung
 62
     7
370
     9
100
AcDbLine
 10
191.5861300017163
 20
185.1439909245508
 30
0.0
 11
195.085685556397
 21
185.1439909245508
 31
0.0
  0
LWPOLYLINE
  5
262
330
70
100
AcDbEntity
  8
Bemaßung
 62
     7
370
     9
100
AcDbPolyline
 90
        4
 70
     0
 43
0.0
 10
170.0860883404248
 20
185.1439909245508
 10
173.5859966728832
 20
184.6836159246661
 10
173.5859966728832
 20
185.6050714799913
 10
170.0860883404248
 20
185.1439909245508
  0
LINE
  5
263
330
70
100
AcDbEntity
  8
Bemaßung
 62
     7
370
     9
100
AcDbLine
 10
173.5859966728832
 20
184.6871437024431
 30
0.0
 11
173.5588327840011
 21
184.6871437024431
 31
0.0
  0
LINE
  5
264
330
70
100
AcDbEntity
  8
Bemaßung
 62
     7
370
     9
100
AcDbLine
 10
173.5859966728832
 20
184.6871437024431
 30
0.0
 11
173.5588327840011
 21
184.6871437024431
 31
0.0
  0
LINE
  5
265
330
70
100
AcDbEntity
  8
Bemaßung
 62
     7
370
     9
100
AcDbLine
 10
173.5859966728832
 20
184.7382964802079
 30
0.0
 11
173.1728938952086
 21
184.7382964802079
 31
0.0
  0
LINE
  5
266
330
70
100
AcDbEntity
  8
Bemaßung
 62
     7
370
     9
100
AcDbLine
 10
173.5859966728832
 20
184.7890964801953
 30
0.0
 11
172.7869550064162
 21
184.7890964801953
 31
0.0
  0
LINE
  5
267
330
70
100
AcDbEntity
  8
Bemaßung
 62
     7
370
     9
100
AcDbLine
 10
173.5859966728832
 20
184.8395437024049
 30
0.0
 11
172.4010161176238
 21
184.8395437024049
 31
0.0
  0
LINE
  5
268
330
70
100
AcDbEntity
  8
Bemaßung
 62
     7
370
     9
100
AcDbLine
 10
173.5859966728832
 20
184.89069648017
 30
0.0
 11
172.0154300066091
 21
184.89069648017
 31
0.0
  0
LINE
  5
269
330
70
100
AcDbEntity
  8
Bemaßung
 62
     7
370
     9
100
AcDbLine
 10
173.5859966728832
 20
184.9414964801571
 30
0.0
 11
171.6294911178167
 21
184.9414964801571
 31
0.0
  0
LINE
  5
26A
330
70
100
AcDbEntity
  8
Bemaßung
 62
     7
370
     9
100
AcDbLine
 10
173.5859966728832
 20
184.9915909245892
 30
0.0
 11
171.2435522290243
 21
184.9915909245892
 31
0.0
  0
LINE
  5
26B
330
70
100
AcDbEntity
  8
Bemaßung
 62
     7
370
     9
100
AcDbLine
 10
173.5859966728832
 20
185.0430964801318
 30
0.0
 11
170.8576133402319
 21
185.0430964801318
 31
0.0
  0
LINE
  5
26C
330
70
100
AcDbEntity
  8
Bemaßung
 62
     7
370
     9
100
AcDbLine
 10
173.5859966728832
 20
185.0938964801189
 30
0.0
 11
170.4716744514394
 21
185.0938964801189
 31
0.0
  0
LINE
  5
26D
330
70
100
AcDbEntity
  8
Bemaßung
 62
     7
370
     9
100
AcDbLine
 10
173.5859966728832
 20
185.1439909245508
 30
0.0
 11
170.0860883404248
 21
185.1439909245508
 31
0.0
  0
LINE
  5
26E
330
70
100
AcDbEntity
  8
Bemaßung
 62
     7
370
     9
100
AcDbLine
 10
173.5859966728832
 20
185.6015437022143
 30
0.0
 11
173.5588327840011
 21
185.6015437022143
 31
0.0
  0
LINE
  5
26F
330
70
100
AcDbEntity
  8
Bemaßung
 62
     7
370
     9
100
AcDbLine
 10
173.5859966728832
 20
185.6015437022143
 30
0.0
 11
173.5588327840011
 21
185.6015437022143
 31
0.0
  0
LINE
  5
270
330
70
100
AcDbEntity
  8
Bemaßung
 62
     7
370
     9
100
AcDbLine
 10
173.5859966728832
 20
185.5507437022269
 30
0.0
 11
173.1728938952086
 21
185.5507437022269
 31
0.0
  0
LINE
  5
271
330
70
100
AcDbEntity
  8
Bemaßung
 62
     7
370
     9
100
AcDbLine
 10
173.5859966728832
 20
185.4999437022396
 30
0.0
 11
172.7869550064162
 21
185.4999437022396
 31
0.0
  0
LINE
  5
272
330
70
100
AcDbEntity
  8
Bemaßung
 62
     7
370
     9
100
AcDbLine
 10
173.5859966728832
 20
185.4491437022525
 30
0.0
 11
172.4010161176238
 21
185.4491437022525
 31
0.0
  0
LINE
  5
273
330
70
100
AcDbEntity
  8
Bemaßung
 62
     7
370
     9
100
AcDbLine
 10
173.5859966728832
 20
185.3983437022651
 30
0.0
 11
172.0154300066091
 21
185.3983437022651
 31
0.0
  0
LINE
  5
274
330
70
100
AcDbEntity
  8
Bemaßung
 62
     7
370
     9
100
AcDbLine
 10
173.5859966728832
 20
185.3475437022781
 30
0.0
 11
171.6294911178167
 21
185.3475437022781
 31
0.0
  0
LINE
  5
275
330
70
100
AcDbEntity
  8
Bemaßung
 62
     7
370
     9
100
AcDbLine
 10
173.5859966728832
 20
185.2967437022907
 30
0.0
 11
171.2435522290243
 21
185.2967437022907
 31
0.0
  0
LINE
  5
276
330
70
100
AcDbEntity
  8
Bemaßung
 62
     7
370
     9
100
AcDbLine
 10
173.5859966728832
 20
185.2459437023033
 30
0.0
 11
170.8576133402319
 21
185.2459437023033
 31
0.0
  0
LINE
  5
277
330
70
100
AcDbEntity
  8
Bemaßung
 62
     7
370
     9
100
AcDbLine
 10
173.5859966728832
 20
185.1947909245381
 30
0.0
 11
170.4716744514394
 21
185.1947909245381
 31
0.0
  0
LINE
  5
278
330
70
100
AcDbEntity
  8
Bemaßung
 62
     7
370
     9
100
AcDbLine
 10
173.5859966728832
 20
185.1439909245508
 30
0.0
 11
170.0860883404248
 21
185.1439909245508
 31
0.0
  0
LINE
  5
279
330
70
100
AcDbEntity
  8
Bemaßung
 62
     7
370
     9
100
AcDbLine
 10
190.0857661132026
 20
159.0828853755106
 30
0.0
 11
190.0857661132026
 21
178.8024575928029
 31
0.0
  0
LINE
  5
27A
330
70
100
AcDbEntity
  8
Bemaßung
 62
     7
370
     9
100
AcDbLine
 10
170.0860883404248
 20
176.8025603710807
 30
0.0
 11
190.0857661132026
 21
176.8025603710807
 31
0.0
  0
LWPOLYLINE
  5
27B
330
70
100
AcDbEntity
  8
Bemaßung
 62
     7
370
     9
100
AcDbPolyline
 90
        4
 70
     0
 43
0.0
 10
170.0860883404248
 20
176.8025603710807
 10
173.5859966728832
 20
176.3418325934183
 10
173.5859966728832
 20
177.2636409265209
 10
170.0860883404248
 20
176.8025603710807
  0
LINE
  5
27C
330
70
100
AcDbEntity
  8
Bemaßung
 62
     7
370
     9
100
AcDbLine
 10
173.5859966728832
 20
176.3457131489727
 30
0.0
 11
173.5588327840011
 21
176.3457131489727
 31
0.0
  0
LINE
  5
27D
330
70
100
AcDbEntity
  8
Bemaßung
 62
     7
370
     9
100
AcDbLine
 10
173.5859966728832
 20
176.3457131489727
 30
0.0
 11
173.5588327840011
 21
176.3457131489727
 31
0.0
  0
LINE
  5
27E
330
70
100
AcDbEntity
  8
Bemaßung
 62
     7
370
     9
100
AcDbLine
 10
173.5859966728832
 20
176.3961603711823
 30
0.0
 11
173.1728938952086
 21
176.3961603711823
 31
0.0
  0
LINE
  5
27F
330
70
100
AcDbEntity
  8
Bemaßung
 62
     7
370
     9
100
AcDbLine
 10
173.5859966728832
 20
176.4469603711697
 30
0.0
 11
172.7869550064162
 21
176.4469603711697
 31
0.0
  0
LINE
  5
280
330
70
100
AcDbEntity
  8
Bemaßung
 62
     7
370
     9
100
AcDbLine
 10
173.5859966728832
 20
176.4977603711571
 30
0.0
 11
172.4010161176238
 21
176.4977603711571
 31
0.0
  0
LINE
  5
281
330
70
100
AcDbEntity
  8
Bemaßung
 62
     7
370
     9
100
AcDbLine
 10
173.5859966728832
 20
176.5485603711441
 30
0.0
 11
172.0154300066091
 21
176.5485603711441
 31
0.0
  0
LINE
  5
282
330
70
100
AcDbEntity
  8
Bemaßung
 62
     7
370
     9
100
AcDbLine
 10
173.5859966728832
 20
176.5993603711315
 30
0.0
 11
171.6294911178167
 21
176.5993603711315
 31
0.0
  0
LINE
  5
283
330
70
100
AcDbEntity
  8
Bemaßung
 62
     7
370
     9
100
AcDbLine
 10
173.5859966728832
 20
176.6501603711189
 30
0.0
 11
171.2435522290243
 21
176.6501603711189
 31
0.0
  0
LINE
  5
284
330
70
100
AcDbEntity
  8
Bemaßung
 62
     7
370
     9
100
AcDbLine
 10
173.5859966728832
 20
176.7009603711063
 30
0.0
 11
170.8576133402319
 21
176.7009603711063
 31
0.0
  0
LINE
  5
285
330
70
100
AcDbEntity
  8
Bemaßung
 62
     7
370
     9
100
AcDbLine
 10
173.5859966728832
 20
176.7517603710934
 30
0.0
 11
170.4716744514394
 21
176.7517603710934
 31
0.0
  0
LINE
  5
286
330
70
100
AcDbEntity
  8
Bemaßung
 62
     7
370
     9
100
AcDbLine
 10
173.5859966728832
 20
176.8025603710807
 30
0.0
 11
170.0860883404248
 21
176.8025603710807
 31
0.0
  0
LINE
  5
287
330
70
100
AcDbEntity
  8
Bemaßung
 62
     7
370
     9
100
AcDbLine
 10
173.5859966728832
 20
177.2601131487443
 30
0.0
 11
173.5588327840011
 21
177.2601131487443
 31
0.0
  0
LINE
  5
288
330
70
100
AcDbEntity
  8
Bemaßung
 62
     7
370
     9
100
AcDbLine
 10
173.5859966728832
 20
177.2601131487443
 30
0.0
 11
173.5588327840011
 21
177.2601131487443
 31
0.0
  0
LINE
  5
289
330
70
100
AcDbEntity
  8
Bemaßung
 62
     7
370
     9
100
AcDbLine
 10
173.5859966728832
 20
177.2093131487569
 30
0.0
 11
173.1728938952086
 21
177.2093131487569
 31
0.0
  0
LINE
  5
28A
330
70
100
AcDbEntity
  8
Bemaßung
 62
     7
370
     9
100
AcDbLine
 10
173.5859966728832
 20
177.1585131487695
 30
0.0
 11
172.7869550064162
 21
177.1585131487695
 31
0.0
  0
LINE
  5
28B
330
70
100
AcDbEntity
  8
Bemaßung
 62
     7
370
     9
100
AcDbLine
 10
173.5859966728832
 20
177.1077131487821
 30
0.0
 11
172.4010161176238
 21
177.1077131487821
 31
0.0
  0
LINE
  5
28C
330
70
100
AcDbEntity
  8
Bemaßung
 62
     7
370
     9
100
AcDbLine
 10
173.5859966728832
 20
177.0569131487951
 30
0.0
 11
172.0154300066091
 21
177.0569131487951
 31
0.0
  0
LINE
  5
28D
330
70
100
AcDbEntity
  8
Bemaßung
 62
     7
370
     9
100
AcDbLine
 10
173.5859966728832
 20
177.0061131488077
 30
0.0
 11
171.6294911178167
 21
177.0061131488077
 31
0.0
  0
LINE
  5
28E
330
70
100
AcDbEntity
  8
Bemaßung
 62
     7
370
     9
100
AcDbLine
 10
173.5859966728832
 20
176.9553131488203
 30
0.0
 11
171.2435522290243
 21
176.9553131488203
 31
0.0
  0
LINE
  5
28F
330
70
100
AcDbEntity
  8
Bemaßung
 62
     7
370
     9
100
AcDbLine
 10
173.5859966728832
 20
176.9041603710555
 30
0.0
 11
170.8576133402319
 21
176.9041603710555
 31
0.0
  0
LINE
  5
290
330
70
100
AcDbEntity
  8
Bemaßung
 62
     7
370
     9
100
AcDbLine
 10
173.5859966728832
 20
176.8533603710681
 30
0.0
 11
170.4716744514394
 21
176.8533603710681
 31
0.0
  0
LINE
  5
291
330
70
100
AcDbEntity
  8
Bemaßung
 62
     7
370
     9
100
AcDbLine
 10
173.5859966728832
 20
176.8025603710807
 30
0.0
 11
170.0860883404248
 21
176.8025603710807
 31
0.0
  0
LWPOLYLINE
  5
292
330
70
100
AcDbEntity
  8
Bemaßung
 62
     7
370
     9
100
AcDbPolyline
 90
        4
 70
     0
 43
0.0
 10
190.0857661132026
 20
176.8025603710807
 10
186.5858577807442
 20
177.2636409265209
 10
186.5858577807442
 20
176.3418325934183
 10
190.0857661132026
 20
176.8025603710807
  0
LINE
  5
293
330
70
100
AcDbEntity
  8
Bemaßung
 62
     7
370
     9
100
AcDbLine
 10
186.5858577807442
 20
177.2601131487443
 30
0.0
 11
186.6130216696264
 21
177.2601131487443
 31
0.0
  0
LINE
  5
294
330
70
100
AcDbEntity
  8
Bemaßung
 62
     7
370
     9
100
AcDbLine
 10
186.5858577807442
 20
177.2601131487443
 30
0.0
 11
186.6130216696264
 21
177.2601131487443
 31
0.0
  0
LINE
  5
295
330
70
100
AcDbEntity
  8
Bemaßung
 62
     7
370
     9
100
AcDbLine
 10
186.5858577807442
 20
177.2093131487569
 30
0.0
 11
186.9989605584188
 21
177.2093131487569
 31
0.0
  0
LINE
  5
296
330
70
100
AcDbEntity
  8
Bemaßung
 62
     7
370
     9
100
AcDbLine
 10
186.5858577807442
 20
177.1585131487695
 30
0.0
 11
187.3848994472112
 21
177.1585131487695
 31
0.0
  0
LINE
  5
297
330
70
100
AcDbEntity
  8
Bemaßung
 62
     7
370
     9
100
AcDbLine
 10
186.5858577807442
 20
177.1077131487821
 30
0.0
 11
187.7708383360037
 21
177.1077131487821
 31
0.0
  0
LINE
  5
298
330
70
100
AcDbEntity
  8
Bemaßung
 62
     7
370
     9
100
AcDbLine
 10
186.5858577807442
 20
177.0569131487951
 30
0.0
 11
188.1564244470183
 21
177.0569131487951
 31
0.0
  0
LINE
  5
299
330
70
100
AcDbEntity
  8
Bemaßung
 62
     7
370
     9
100
AcDbLine
 10
186.5858577807442
 20
177.0061131488077
 30
0.0
 11
188.5423633358107
 21
177.0061131488077
 31
0.0
  0
LINE
  5
29A
330
70
100
AcDbEntity
  8
Bemaßung
 62
     7
370
     9
100
AcDbLine
 10
186.5858577807442
 20
176.9553131488203
 30
0.0
 11
188.9283022246031
 21
176.9553131488203
 31
0.0
  0
LINE
  5
29B
330
70
100
AcDbEntity
  8
Bemaßung
 62
     7
370
     9
100
AcDbLine
 10
186.5858577807442
 20
176.9041603710555
 30
0.0
 11
189.3142411133956
 21
176.9041603710555
 31
0.0
  0
LINE
  5
29C
330
70
100
AcDbEntity
  8
Bemaßung
 62
     7
370
     9
100
AcDbLine
 10
186.5858577807442
 20
176.8533603710681
 30
0.0
 11
189.6998272244102
 21
176.8533603710681
 31
0.0
  0
LINE
  5
29D
330
70
100
AcDbEntity
  8
Bemaßung
 62
     7
370
     9
100
AcDbLine
 10
186.5858577807442
 20
176.8025603710807
 30
0.0
 11
190.0857661132026
 21
176.8025603710807
 31
0.0
  0
LINE
  5
29E
330
70
100
AcDbEntity
  8
Bemaßung
 62
     7
370
     9
100
AcDbLine
 10
186.5858577807442
 20
176.3457131489727
 30
0.0
 11
186.6130216696264
 21
176.3457131489727
 31
0.0
  0
LINE
  5
29F
330
70
100
AcDbEntity
  8
Bemaßung
 62
     7
370
     9
100
AcDbLine
 10
186.5858577807442
 20
176.3457131489727
 30
0.0
 11
186.6130216696264
 21
176.3457131489727
 31
0.0
  0
LINE
  5
2A0
330
70
100
AcDbEntity
  8
Bemaßung
 62
     7
370
     9
100
AcDbLine
 10
186.5858577807442
 20
176.3961603711823
 30
0.0
 11
186.9989605584188
 21
176.3961603711823
 31
0.0
  0
LINE
  5
2A1
330
70
100
AcDbEntity
  8
Bemaßung
 62
     7
370
     9
100
AcDbLine
 10
186.5858577807442
 20
176.4469603711697
 30
0.0
 11
187.3848994472112
 21
176.4469603711697
 31
0.0
  0
LINE
  5
2A2
330
70
100
AcDbEntity
  8
Bemaßung
 62
     7
370
     9
100
AcDbLine
 10
186.5858577807442
 20
176.4977603711571
 30
0.0
 11
187.7708383360037
 21
176.4977603711571
 31
0.0
  0
LINE
  5
2A3
330
70
100
AcDbEntity
  8
Bemaßung
 62
     7
370
     9
100
AcDbLine
 10
186.5858577807442
 20
176.5485603711441
 30
0.0
 11
188.1564244470183
 21
176.5485603711441
 31
0.0
  0
LINE
  5
2A4
330
70
100
AcDbEntity
  8
Bemaßung
 62
     7
370
     9
100
AcDbLine
 10
186.5858577807442
 20
176.5993603711315
 30
0.0
 11
188.5423633358107
 21
176.5993603711315
 31
0.0
  0
LINE
  5
2A5
330
70
100
AcDbEntity
  8
Bemaßung
 62
     7
370
     9
100
AcDbLine
 10
186.5858577807442
 20
176.6501603711189
 30
0.0
 11
188.9283022246031
 21
176.6501603711189
 31
0.0
  0
LINE
  5
2A6
330
70
100
AcDbEntity
  8
Bemaßung
 62
     7
370
     9
100
AcDbLine
 10
186.5858577807442
 20
176.7009603711063
 30
0.0
 11
189.3142411133956
 21
176.7009603711063
 31
0.0
  0
LINE
  5
2A7
330
70
100
AcDbEntity
  8
Bemaßung
 62
     7
370
     9
100
AcDbLine
 10
186.5858577807442
 20
176.7517603710934
 30
0.0
 11
189.6998272244102
 21
176.7517603710934
 31
0.0
  0
LINE
  5
2A8
330
70
100
AcDbEntity
  8
Bemaßung
 62
     7
370
     9
100
AcDbLine
 10
186.5858577807442
 20
176.8025603710807
 30
0.0
 11
190.0857661132026
 21
176.8025603710807
 31
0.0
  0
MTEXT
  5
2AA
330
70
100
AcDbEntity
  8
Text
100
AcDbMText
 10
157.4548163126328
 20
167.4867621109061
 30
0.0
 40
0.2
 41
0.0
 46
0.0
 71
     7
 72
     1
  1
\C7;\FINDEX Univers 45 Light|b0|i0|c1;\H3.447529;\W1.000000;ø4
 11
0.0000000000000001
 21
1.0
 31
0.0
 73
     1
 44
1.0
  0
MTEXT
  5
2AB
330
70
100
AcDbEntity
  8
Text
100
AcDbMText
 10
147.4550821571466
 20
159.4576225729828
 30
0.0
 40
0.2
 41
0.0
 46
0.0
 71
     7
 72
     1
  1
\C7;\FINDEX Univers 45 Light|b0|i0|c1;\H3.447529;\W1.000000;ø14
 11
0.0000000000000001
 21
1.0
 31
0.0
 73
     1
 44
1.0
  0
MTEXT
  5
2AC
330
70
100
AcDbEntity
  8
Text
100
AcDbMText
 10
245.830952514014
 20
153.0751586054537
 30
0.0
 40
0.2
 41
0.0
 46
0.0
 71
     7
 72
     1
  1
\C7;\FINDEX Univers 45 Light|b0|i0|c1;\H3.447529;\W1.000000;ø20
 11
0.0000000000000001
 21
1.0
 31
0.0
 73
     1
 44
1.0
  0
MTEXT
  5
2AD
330
70
100
AcDbEntity
  8
Text
100
AcDbMText
 10
236.0751829298898
 20
152.8708644431784
 30
0.0
 40
0.2
 41
0.0
 46
0.0
 71
     7
 72
     1
  1
\C7;\FINDEX Univers 45 Light|b0|i0|c1;\H3.447529;\W1.000000;ø12
 11
0.0000000000000001
 21
1.0
 31
0.0
 73
     1
 44
1.0
  0
MTEXT
  5
2AE
330
70
100
AcDbEntity
  8
Text
100
AcDbMText
 10
283.0050501221876
 20
135.3640990077799
 30
0.0
 40
0.2
 41
0.0
 46
0.0
 71
     7
 72
     1
  1
\C7;\FINDEX Univers 45 Light|b0|i0|c1;\H3.447529;\W1.000000;ø28,7
 73
     1
 44
1.0
  0
MTEXT
  5
2AF
330
70
100
AcDbEntity
  8
Text
100
AcDbMText
 10
181.1467379646959
 20
186.8998751702889
 30
0.0
 40
0.2
 41
0.0
 46
0.0
 71
     7
 72
     1
  1
\C7;\FINDEX Univers 45 Light|b0|i0|c1;\H3.447529;\W1.000000;25
 73
     1
 44
1.0
  0
MTEXT
  5
2B0
330
70
100
AcDbEntity
  8
Text
100
AcDbMText
 10
178.7460231757996
 20
178.5580932170792
 30
0.0
 40
0.2
 41
0.0
 46
0.0
 71
     7
 72
     1
  1
\C7;\FINDEX Univers 45 Light|b0|i0|c1;\H3.447529;\W1.000000;20
 73
     1
 44
1.0
  0
ENDSEC
  0
SECTION
  2
OBJECTS
  0
DICTIONARY
  5
C
330
0
100
AcDbDictionary
281
     1
  3
ACAD_COLOR
350
63
  3
ACAD_DETAILVIEWSTYLE
350
6A
  3
ACAD_GROUP
350
D
  3
ACAD_LAYOUT
350
62
  3
ACAD_MATERIAL
350
10
  3
ACAD_MLEADERSTYLE
350
66
  3
ACAD_MLINESTYLE
350
5F
  3
ACAD_PLOTSETTINGS
350
61
  3
ACAD_PLOTSTYLENAME
350
E
  3
ACAD_SCALELIST
350
42
  3
ACAD_SECTIONVIEWSTYLE
350
68
  3
ACAD_TABLESTYLE
350
64
  3
ACAD_VISUALSTYLE
350
29
  3
ACDB_RECOMPOSE_DATA
350
2B9
  3
AcDbVariableDictionary
350
2B1
  0
DICTIONARY
  5
63
102
{ACAD_REACTORS
330
C
102
}
330
C
100
AcDbDictionary
281
     1
  0
DICTIONARY
  5
6A
102
{ACAD_REACTORS
330
C
102
}
330
C
100
AcDbDictionary
281
     1
  3
Imperial24
350
6B
  0
DICTIONARY
  5
D
102
{ACAD_REACTORS
330
C
102
}
330
C
100
AcDbDictionary
281
     1
  0
DICTIONARY
  5
62
102
{ACAD_REACTORS
330
C
102
}
330
C
100
AcDbDictionary
281
     1
  3
Layout1
350
6F
  3
Layout2
350
77
  3
Model
350
73
  0
DICTIONARY
  5
10
102
{ACAD_REACTORS
330
C
102
}
330
C
100
AcDbDictionary
281
     1
  3
ByBlock
350
19
  3
ByLayer
350
11
  3
Global
350
21
  0
DICTIONARY
  5
66
102
{ACAD_REACTORS
330
C
102
}
330
C
100
AcDbDictionary
281
     1
  3
Standard
350
67
  0
DICTIONARY
  5
5F
102
{ACAD_REACTORS
330
C
102
}
330
C
100
AcDbDictionary
281
     1
  3
Standard
350
60
  0
DICTIONARY
  5
61
102
{ACAD_REACTORS
330
C
102
}
330
C
100
AcDbDictionary
281
     1
  0
ACDBDICTIONARYWDFLT
  5
E
102
{ACAD_REACTORS
330
C
102
}
330
C
100
AcDbDictionary
281
     1
  3
Normal
350
F
100
AcDbDictionaryWithDefault
340
F
  0
DICTIONARY
  5
42
102
{ACAD_REACTORS
330
C
102
}
330
C
100
AcDbDictionary
281
     1
  3
A0
350
43
  3
A1
350
44
  3
A2
350
45
  3
A3
350
46
  3
A4
350
47
  3
A5
350
48
  3
A6
350
49
  3
A7
350
4A
  3
A8
350
4B
  3
A9
350
4C
  3
B0
350
4D
  3
B1
350
4E
  3
B2
350
4F
  3
B3
350
50
  3
B4
350
51
  3
B5
350
52
  3
B6
350
53
  0
DICTIONARY
  5
68
102
{ACAD_REACTORS
330
C
102
}
330
C
100
AcDbDictionary
281
     1
  3
Imperial24
350
69
  0
DICTIONARY
  5
64
102
{ACAD_REACTORS
330
C
102
}
330
C
100
AcDbDictionary
281
     1
  3
Standard
350
65
  0
DICTIONARY
  5
29
102
{ACAD_REACTORS
330
C
102
}
330
C
100
AcDbDictionary
281
     1
  3
2dWireframe
350
2F
  3
Basic
350
2E
  3
Brighten
350
35
  3
ColorChange
350
39
  3
Conceptual
350
32
  3
Dim
350
34
  3
EdgeColorOff
350
41
  3
Facepattern
350
38
  3
Flat
350
2A
  3
FlatWithEdges
350
2B
  3
Gouraud
350
2C
  3
GouraudWithEdges
350
2D
  3
Hidden
350
31
  3
JitterOff
350
3F
  3
Linepattern
350
37
  3
OverhangOff
350
40
  3
Realistic
350
33
  3
Shaded
350
3E
  3
Shaded with edges
350
3D
  3
Shades of Gray
350
3A
  3
Sketchy
350
3B
  3
Thicken
350
36
  3
Wireframe
350
30
  3
X-Ray
350
3C
  0
XRECORD
  5
2B9
102
{ACAD_REACTORS
330
C
102
}
330
C
100
AcDbXrecord
280
     1
 90
        1
330
65
  0
DICTIONARY
  5
2B1
102
{ACAD_REACTORS
330
C
102
}
330
C
100
AcDbDictionary
281
     1
  3
CANNOSCALE
350
2B6
  3
CMLEADERSTYLE
350
2B3
  3
CTABLESTYLE
350
2B2
  3
CVIEWDETAILSTYLE
350
2B4
  3
CVIEWSECTIONSTYLE
350
2B5
  0
ACDBDETAILVIEWSTYLE
  5
6B
102
{ACAD_REACTORS
330
6A
102
}
330
6A
100
AcDbModelDocViewStyle
 70
     0
  3
Imperial24
290
     1
300
Imperial24
 90
        0
100
AcDbDetailViewStyle
 70
     0
 71
     0
 90
        3
 71
     1
340
55
 62
   256
 40
0.24
340
0
 62
   256
 40
0.24
300

 40
0.36
280
     3
 71
     2
340
5D
 90
       25
 62
   256
 71
     3
340
55
 62
   256
 40
0.24
 90
        1
 40
0.75
 90
        1
300
%<\AcVar ViewType \f "%tc1">% %<\AcVar ViewDetailId>%\PSCALE %<\AcVar ViewScale \f "%sn">%
 71
     4
340
5D
 90
       25
 62
   256
340
5D
 90
       25
 62
   256
280
     0
  0
LAYOUT
  5
6F
102
{ACAD_REACTORS
330
62
102
}
330
62
100
AcDbPlotSettings
  1

  2

  4

  6

 40
0.0
 41
0.0
 42
0.0
 43
0.0
 44
0.0
 45
0.0
 46
0.0
 47
0.0
 48
0.0
 49
0.0
140
0.0
141
0.0
142
1.0
143
1.0
 70
   688
 72
     0
 73
     0
 74
     5
  7

 75
    16
147
1.0
 76
     0
 77
     2
 78
   300
148
0.0
149
0.0
100
AcDbLayout
  1
Layout1
 70
     1
 71
     1
 10
0.0
 20
0.0
 11
12.0
 21
9.0
 12
0.0
 22
0.0
 32
0.0
 14
0.0
 24
0.0
 34
0.0
 15
0.0
 25
0.0
 35
0.0
146
0.0
 13
0.0
 23
0.0
 33
0.0
 16
1.0
 26
0.0
 36
0.0
 17
0.0
 27
1.0
 37
0.0
 76
     0
330
6C
  0
LAYOUT
  5
77
102
{ACAD_REACTORS
330
62
102
}
330
62
100
AcDbPlotSettings
  1

  2

  4

  6

 40
0.0
 41
0.0
 42
0.0
 43
0.0
 44
0.0
 45
0.0
 46
0.0
 47
0.0
 48
0.0
 49
0.0
140
0.0
141
0.0
142
1.0
143
1.0
 70
   688
 72
     0
 73
     0
 74
     5
  7

 75
    16
147
1.0
 76
     0
 77
     2
 78
   300
148
0.0
149
0.0
100
AcDbLayout
  1
Layout2
 70
     1
 71
     2
 10
0.0
 20
0.0
 11
12.0
 21
9.0
 12
0.0
 22
0.0
 32
0.0
 14
0.0
 24
0.0
 34
0.0
 15
0.0
 25
0.0
 35
0.0
146
0.0
 13
0.0
 23
0.0
 33
0.0
 16
1.0
 26
0.0
 36
0.0
 17
0.0
 27
1.0
 37
0.0
 76
     0
330
74
  0
LAYOUT
  5
73
102
{ACAD_REACTORS
330
62
102
}
330
62
100
AcDbPlotSettings
  1

  2

  4

  6

 40
0.0
 41
0.0
 42
0.0
 43
0.0
 44
0.0
 45
0.0
 46
0.0
 47
0.0
 48
0.0
 49
0.0
140
0.0
141
0.0
142
1.0
143
1.0
 70
  1712
 72
     0
 73
     0
 74
     0
  7

 75
     0
147
1.0
 76
     0
 77
     2
 78
   300
148
0.0
149
0.0
100
AcDbLayout
  1
Model
 70
     1
 71
     0
 10
0.0
 20
0.0
 11
12.0
 21
9.0
 12
0.0
 22
0.0
 32
0.0
 14
0.0
 24
0.0
 34
0.0
 15
0.0
 25
0.0
 35
0.0
146
0.0
 13
0.0
 23
0.0
 33
0.0
 16
1.0
 26
0.0
 36
0.0
 17
0.0
 27
1.0
 37
0.0
 76
     0
330
70
  0
MATERIAL
  5
19
102
{ACAD_XDICTIONARY
360
1A
102
}
102
{ACAD_REACTORS
330
10
102
}
330
10
100
AcDbMaterial
  1
ByBlock
 72
     0
 43
0.0208333333333333
 43
0.0
 43
0.0
 43
0.0
 43
0.0
 43
0.0208333333333333
 43
0.0
 43
0.0
 43
0.0
 43
0.0
 43
1.0
 43
0.0
 43
0.0
 43
0.0
 43
0.0
 43
1.0
 77
     0
 47
0.0208333333333333
 47
0.0
 47
0.0
 47
0.0
 47
0.0
 47
0.0208333333333333
 47
0.0
 47
0.0
 47
0.0
 47
0.0
 47
1.0
 47
0.0
 47
0.0
 47
0.0
 47
0.0
 47
1.0
171
     0
 49
0.0208333333333333
 49
0.0
 49
0.0
 49
0.0
 49
0.0
 49
0.0208333333333333
 49
0.0
 49
0.0
 49
0.0
 49
0.0
 49
1.0
 49
0.0
 49
0.0
 49
0.0
 49
0.0
 49
1.0
175
     0
142
0.0208333333333333
142
0.0
142
0.0
142
0.0
142
0.0
142
0.0208333333333333
142
0.0
142
0.0
142
0.0
142
0.0
142
1.0
142
0.0
142
0.0
142
0.0
142
0.0
142
1.0
179
     0
144
0.0208333333333333
144
0.0
144
0.0
144
0.0
144
0.0
144
0.0208333333333333
144
0.0
144
0.0
144
0.0
144
0.0
144
1.0
144
0.0
144
0.0
144
0.0
144
0.0
144
1.0
147
0.0208333333333333
147
0.0
147
0.0
147
0.0
147
0.0
147
0.0208333333333333
147
0.0
147
0.0
147
0.0
147
0.0
147
1.0
147
0.0
147
0.0
147
0.0
147
0.0
147
1.0
  0
MATERIAL
  5
11
102
{ACAD_XDICTIONARY
360
12
102
}
102
{ACAD_REACTORS
330
10
102
}
330
10
100
AcDbMaterial
  1
ByLayer
 72
     0
 43
0.0208333333333333
 43
0.0
 43
0.0
 43
0.0
 43
0.0
 43
0.0208333333333333
 43
0.0
 43
0.0
 43
0.0
 43
0.0
 43
1.0
 43
0.0
 43
0.0
 43
0.0
 43
0.0
 43
1.0
 77
     0
 47
0.0208333333333333
 47
0.0
 47
0.0
 47
0.0
 47
0.0
 47
0.0208333333333333
 47
0.0
 47
0.0
 47
0.0
 47
0.0
 47
1.0
 47
0.0
 47
0.0
 47
0.0
 47
0.0
 47
1.0
171
     0
 49
0.0208333333333333
 49
0.0
 49
0.0
 49
0.0
 49
0.0
 49
0.0208333333333333
 49
0.0
 49
0.0
 49
0.0
 49
0.0
 49
1.0
 49
0.0
 49
0.0
 49
0.0
 49
0.0
 49
1.0
175
     0
142
0.0208333333333333
142
0.0
142
0.0
142
0.0
142
0.0
142
0.0208333333333333
142
0.0
142
0.0
142
0.0
142
0.0
142
1.0
142
0.0
142
0.0
142
0.0
142
0.0
142
1.0
179
     0
144
0.0208333333333333
144
0.0
144
0.0
144
0.0
144
0.0
144
0.0208333333333333
144
0.0
144
0.0
144
0.0
144
0.0
144
1.0
144
0.0
144
0.0
144
0.0
144
0.0
144
1.0
147
0.0208333333333333
147
0.0
147
0.0
147
0.0
147
0.0
147
0.0208333333333333
147
0.0
147
0.0
147
0.0
147
0.0
147
1.0
147
0.0
147
0.0
147
0.0
147
0.0
147
1.0
  0
MATERIAL
  5
21
102
{ACAD_XDICTIONARY
360
22
102
}
102
{ACAD_REACTORS
330
10
102
}
330
10
100
AcDbMaterial
  1
Global
 72
     0
 43
0.0208333333333333
 43
0.0
 43
0.0
 43
0.0
 43
0.0
 43
0.0208333333333333
 43
0.0
 43
0.0
 43
0.0
 43
0.0
 43
1.0
 43
0.0
 43
0.0
 43
0.0
 43
0.0
 43
1.0
 77
     0
 47
0.0208333333333333
 47
0.0
 47
0.0
 47
0.0
 47
0.0
 47
0.0208333333333333
 47
0.0
 47
0.0
 47
0.0
 47
0.0
 47
1.0
 47
0.0
 47
0.0
 47
0.0
 47
0.0
 47
1.0
171
     0
 49
0.0208333333333333
 49
0.0
 49
0.0
 49
0.0
 49
0.0
 49
0.0208333333333333
 49
0.0
 49
0.0
 49
0.0
 49
0.0
 49
1.0
 49
0.0
 49
0.0
 49
0.0
 49
0.0
 49
1.0
175
     0
142
0.0208333333333333
142
0.0
142
0.0
142
0.0
142
0.0
142
0.0208333333333333
142
0.0
142
0.0
142
0.0
142
0.0
142
1.0
142
0.0
142
0.0
142
0.0
142
0.0
142
1.0
179
     0
144
0.0208333333333333
144
0.0
144
0.0
144
0.0
144
0.0
144
0.0208333333333333
144
0.0
144
0.0
144
0.0
144
0.0
144
1.0
144
0.0
144
0.0
144
0.0
144
0.0
144
1.0
147
0.0208333333333333
147
0.0
147
0.0
147
0.0
147
0.0
147
0.0208333333333333
147
0.0
147
0.0
147
0.0
147
0.0
147
1.0
147
0.0
147
0.0
147
0.0
147
0.0
147
1.0
  0
MLEADERSTYLE
  5
67
102
{ACAD_REACTORS
330
66
102
}
330
66
100
AcDbMLeaderStyle
179
     2
170
     2
171
     1
172
     0
 90
        2
 40
0.0
 41
0.0
173
     1
 91
-1056964608
340
5B
 92
       -2
290
     1
 42
0.09
291
     1
 43
0.36
  3
Standard
 44
0.18
300

342
55
174
     1
178
     6
175
     1
176
     0
 93
-1056964608
 45
0.18
292
     0
297
     0
 46
0.18
 94
-1056964608
 47
1.0
 49
1.0
140
1.0
293
     1
141
0.0
294
     1
177
     0
142
1.0
295
     1
296
     0
143
0.125
271
     0
272
     9
273
     9
298
     1
  0
MLINESTYLE
  5
60
102
{ACAD_REACTORS
330
5F
102
}
330
5F
100
AcDbMlineStyle
  2
STANDARD
 70
     0
  3

 62
   256
 51
90.0
 52
90.0
 71
     2
 49
0.5
 62
   256
  6
BYLAYER
 49
-0.5
 62
   256
  6
BYLAYER
  0
ACDBPLACEHOLDER
  5
F
102
{ACAD_REACTORS
330
E
102
}
330
E
  0
SCALE
  5
43
102
{ACAD_REACTORS
330
42
102
}
330
42
100
AcDbScale
 70
     0
300
1:1
140
1.0
141
1.0
290
     1
  0
SCALE
  5
44
102
{ACAD_REACTORS
330
42
102
}
330
42
100
AcDbScale
 70
     0
300
1/128" = 1'-0"
140
0.0078125
141
12.0
290
     0
  0
SCALE
  5
45
102
{ACAD_REACTORS
330
42
102
}
330
42
100
AcDbScale
 70
     0
300
1/64" = 1'-0"
140
0.015625
141
12.0
290
     0
  0
SCALE
  5
46
102
{ACAD_REACTORS
330
42
102
}
330
42
100
AcDbScale
 70
     0
300
1/32" = 1'-0"
140
0.03125
141
12.0
290
     0
  0
SCALE
  5
47
102
{ACAD_REACTORS
330
42
102
}
330
42
100
AcDbScale
 70
     0
300
1/16" = 1'-0"
140
0.0625
141
12.0
290
     0
  0
SCALE
  5
48
102
{ACAD_REACTORS
330
42
102
}
330
42
100
AcDbScale
 70
     0
300
3/32" = 1'-0"
140
0.09375
141
12.0
290
     0
  0
SCALE
  5
49
102
{ACAD_REACTORS
330
42
102
}
330
42
100
AcDbScale
 70
     0
300
1/8" = 1'-0"
140
0.125
141
12.0
290
     0
  0
SCALE
  5
4A
102
{ACAD_REACTORS
330
42
102
}
330
42
100
AcDbScale
 70
     0
300
3/16" = 1'-0"
140
0.1875
141
12.0
290
     0
  0
SCALE
  5
4B
102
{ACAD_REACTORS
330
42
102
}
330
42
100
AcDbScale
 70
     0
300
1/4" = 1'-0"
140
0.25
141
12.0
290
     0
  0
SCALE
  5
4C
102
{ACAD_REACTORS
330
42
102
}
330
42
100
AcDbScale
 70
     0
300
3/8" = 1'-0"
140
0.375
141
12.0
290
     0
  0
SCALE
  5
4D
102
{ACAD_REACTORS
330
42
102
}
330
42
100
AcDbScale
 70
     0
300
1/2" = 1'-0"
140
0.5
141
12.0
290
     0
  0
SCALE
  5
4E
102
{ACAD_REACTORS
330
42
102
}
330
42
100
AcDbScale
 70
     0
300
3/4" = 1'-0"
140
0.75
141
12.0
290
     0
  0
SCALE
  5
4F
102
{ACAD_REACTORS
330
42
102
}
330
42
100
AcDbScale
 70
     0
300
1" = 1'-0"
140
1.0
141
12.0
290
     0
  0
SCALE
  5
50
102
{ACAD_REACTORS
330
42
102
}
330
42
100
AcDbScale
 70
     0
300
1-1/2" = 1'-0"
140
1.5
141
12.0
290
     0
  0
SCALE
  5
51
102
{ACAD_REACTORS
330
42
102
}
330
42
100
AcDbScale
 70
     0
300
3" = 1'-0"
140
3.0
141
12.0
290
     0
  0
SCALE
  5
52
102
{ACAD_REACTORS
330
42
102
}
330
42
100
AcDbScale
 70
     0
300
6" = 1'-0"
140
6.0
141
12.0
290
     0
  0
SCALE
  5
53
102
{ACAD_REACTORS
330
42
102
}
330
42
100
AcDbScale
 70
     0
300
1'-0" = 1'-0"
140
12.0
141
12.0
290
     0
  0
ACDBSECTIONVIEWSTYLE
  5
69
102
{ACAD_REACTORS
330
68
102
}
330
68
100
AcDbModelDocViewStyle
 70
     0
  3
Imperial24
290
     1
300
Imperial24
 90
        0
100
AcDbSectionViewStyle
 70
     0
 71
     0
 90
       78
 71
     1
340
55
 62
   256
 40
0.24
340
0
340
0
 62
   256
 40
0.24
300
I, O, Q, S, X, Z
 40
0.48
 90
        3
 40
0.18
 90
        1
 71
     2
340
5D
 90
       25
 62
   256
340
5D
 90
       50
 62
   256
 40
0.24
 40
0.0
 40
0.24
 71
     3
340
55
 62
   256
 40
0.24
 90
        1
 40
0.75
 90
        1
300
%<\AcVar ViewType \f "%tc1">% %<\AcVar ViewSectionStartId>%-%<\AcVar ViewSectionEndId>%\PSCALE %<\AcVar ViewScale \f "%sn">%
 71
     4
 62
   256
 62
   257
300
ANSI31
 40
1.0
 90
        0
290
     0
290
     0
 90
        6
 40
0.0
 40
1.570796326794896
 40
0.2617993877991494
 40
1.308996938995747
 40
-0.2617993877991494
 40
1.832595714594046
  0
TABLESTYLE
  5
65
102
{ACAD_XDICTIONARY
360
2B7
102
}
102
{ACAD_REACTORS
330
64
102
}
330
64
100
AcDbTableStyle
280
     0
  3
Standard
 70
     0
 71
     0
 40
0.06
 41
0.06
280
     0
281
     0
  7
Standard
140
0.18
170
     2
 62
     0
 63
     7
283
     0
 90
      512
 91
        0
  1

274
    -2
284
     1
 64
     0
275
    -2
285
     1
 65
     0
276
    -2
286
     1
 66
     0
277
    -2
287
     1
 67
     0
278
    -2
288
     1
 68
     0
279
    -2
289
     1
 69
     0
  7
Standard
140
0.25
170
     5
 62
     0
 63
     7
283
     0
 90
      512
 91
        0
  1

274
    -2
284
     1
 64
     0
275
    -2
285
     1
 65
     0
276
    -2
286
     1
 66
     0
277
    -2
287
     1
 67
     0
278
    -2
288
     1
 68
     0
279
    -2
289
     1
 69
     0
  7
Standard
140
0.18
170
     5
 62
     0
 63
     7
283
     0
 90
      512
 91
        0
  1

274
    -2
284
     1
 64
     0
275
    -2
285
     1
 65
     0
276
    -2
286
     1
 66
     0
277
    -2
287
     1
 67
     0
278
    -2
288
     1
 68
     0
279
    -2
289
     1
 69
     0
  0
VISUALSTYLE
  5
2F
102
{ACAD_REACTORS
330
29
102
}
330
29
100
AcDbVisualStyle
  2
2dWireframe
 70
     4
177
     3
291
     0
 70
    58
 90
        0
176
     1
 90
        2
176
     1
 90
        0
176
     1
 90
        0
176
     1
 40
0.6
176
     1
 40
30.0
176
     1
 62
     7
420
 16777215
176
     1
 90
        1
176
     1
 90
        4
176
     1
 62
     7
176
     1
 62
   257
176
     1
 90
        1
176
     1
 90
        1
176
     1
 40
1.0
176
     1
 90
        0
176
     1
 62
   257
176
     1
 40
1.0
176
     1
 90
        1
176
     1
 90
        6
176
     1
 90
        2
176
     1
 62
     7
176
     1
 90
        5
176
     1
 90
        0
176
     1
 90
        0
176
     1
290
     0
176
     1
 90
        1
176
     1
 40
0.0
176
     1
 90
        0
176
     1
290
     1
176
     1
290
     1
176
     1
290
     0
176
     1
290
     0
176
     1
290
     0
176
     1
290
     0
176
     1
290
     0
176
     1
290
     0
176
     1
290
     0
176
     1
 90
       50
176
     1
 40
0.0
176
     1
 40
1.0
176
     1
 90
        0
176
     1
 62
    18
420
        0
176
     1
 90
       50
176
     1
 90
        3
176
     1
 62
     5
420
      255
176
     1
290
     0
176
     1
 90
       50
176
     1
 90
       50
176
     1
 90
       50
176
     1
290
     0
176
     1
 90
       50
176
     1
 62
   256
176
     0
 40
1.0
176
     0
 90
        2
176
     1
  1
strokes_ogs.tif
176
     1
290
     0
176
     1
 40
1.0
176
     1
 40
1.0
176
     1
  0
VISUALSTYLE
  5
2E
102
{ACAD_REACTORS
330
29
102
}
330
29
100
AcDbVisualStyle
  2
Basic
 70
     7
177
     3
291
     1
 70
    58
 90
        1
176
     1
 90
        0
176
     1
 90
        1
176
     1
 90
        0
176
     1
 40
0.6
176
     1
 40
30.0
176
     1
 62
     7
420
 16777215
176
     1
 90
        0
176
     1
 90
        4
176
     1
 62
     7
176
     1
 62
   257
176
     1
 90
        1
176
     1
 90
        1
176
     1
 40
1.0
176
     1
 90
        8
176
     1
 62
     7
176
     1
 40
1.0
176
     1
 90
        1
176
     1
 90
        6
176
     1
 90
        2
176
     1
 62
     7
176
     1
 90
        5
176
     1
 90
        0
176
     1
 90
        0
176
     1
290
     0
176
     1
 90
        1
176
     1
 40
0.0
176
     1
 90
        0
176
     1
290
     0
176
     1
290
     1
176
     1
290
     1
176
     1
290
     0
176
     1
290
     0
176
     1
290
     0
176
     1
290
     0
176
     1
290
     0
176
     1
290
     0
176
     1
 90
       50
176
     1
 40
0.0
176
     1
 40
1.0
176
     1
 90
        0
176
     1
 62
    18
420
        0
176
     1
 90
       50
176
     1
 90
        3
176
     1
 62
     5
420
      255
176
     1
290
     0
176
     1
 90
       50
176
     1
 90
       50
176
     1
 90
       50
176
     1
290
     0
176
     1
 90
       50
176
     1
 62
   256
176
     0
 40
1.0
176
     0
 90
        2
176
     1
  1
strokes_ogs.tif
176
     1
290
     0
176
     1
 40
1.0
176
     1
 40
1.0
176
     1
  0
VISUALSTYLE
  5
35
102
{ACAD_REACTORS
330
29
102
}
330
29
100
AcDbVisualStyle
  2
Brighten
 70
    12
177
     3
291
     1
 70
    58
 90
        2
176
     1
 90
        2
176
     1
 90
        0
176
     1
 90
        0
176
     1
 40
0.6
176
     1
 40
30.0
176
     1
 62
     7
420
 16777215
176
     1
 90
        1
176
     1
 90
        4
176
     1
 62
     7
176
     1
 62
   257
176
     1
 90
        1
176
     1
 90
        1
176
     1
 40
1.0
176
     1
 90
        8
176
     1
 62
     7
176
     1
 40
1.0
176
     1
 90
        1
176
     1
 90
        6
176
     1
 90
        2
176
     1
 62
     7
176
     1
 90
        5
176
     1
 90
        0
176
     1
 90
        0
176
     1
290
     0
176
     1
 90
        1
176
     1
 40
50.0
176
     1
 90
        0
176
     1
290
     0
176
     1
290
     1
176
     1
290
     1
176
     1
290
     0
176
     1
290
     0
176
     1
290
     0
176
     1
290
     0
176
     1
290
     0
176
     1
290
     0
176
     1
 90
       50
176
     1
 40
0.0
176
     1
 40
1.0
176
     1
 90
        0
176
     1
 62
    18
420
        0
176
     1
 90
       50
176
     1
 90
        3
176
     1
 62
     5
420
      255
176
     1
290
     0
176
     1
 90
       50
176
     1
 90
       50
176
     1
 90
       50
176
     1
290
     0
176
     1
 90
       50
176
     1
 62
   256
176
     0
 40
1.0
176
     0
 90
        2
176
     1
  1
strokes_ogs.tif
176
     1
290
     0
176
     1
 40
1.0
176
     1
 40
1.0
176
     1
  0
VISUALSTYLE
  5
39
102
{ACAD_REACTORS
330
29
102
}
330
29
100
AcDbVisualStyle
  2
ColorChange
 70
    16
177
     3
291
     1
 70
    58
 90
        2
176
     1
 90
        2
176
     1
 90
        3
176
     1
 90
        0
176
     1
 40
0.6
176
     1
 40
30.0
176
     1
 62
     8
420
  8421504
176
     1
 90
        1
176
     1
 90
        4
176
     1
 62
     7
176
     1
 62
   257
176
     1
 90
        1
176
     1
 90
        1
176
     1
 40
1.0
176
     1
 90
        8
176
     1
 62
     8
420
  8421504
176
     1
 40
1.0
176
     1
 90
        1
176
     1
 90
        6
176
     1
 90
        2
176
     1
 62
     7
176
     1
 90
        5
176
     1
 90
        0
176
     1
 90
        0
176
     1
290
     0
176
     1
 90
        1
176
     1
 40
0.0
176
     1
 90
        0
176
     1
290
     0
176
     1
290
     1
176
     1
290
     1
176
     1
290
     0
176
     1
290
     0
176
     1
290
     0
176
     1
290
     0
176
     1
290
     0
176
     1
290
     0
176
     1
 90
       50
176
     1
 40
0.0
176
     1
 40
1.0
176
     1
 90
        0
176
     1
 62
    18
420
        0
176
     1
 90
       50
176
     1
 90
        3
176
     1
 62
     5
420
      255
176
     1
290
     0
176
     1
 90
       50
176
     1
 90
       50
176
     1
 90
       50
176
     1
290
     0
176
     1
 90
       50
176
     1
 62
   256
176
     0
 40
1.0
176
     0
 90
        2
176
     1
  1
strokes_ogs.tif
176
     1
290
     0
176
     1
 40
1.0
176
     1
 40
1.0
176
     1
  0
VISUALSTYLE
  5
32
102
{ACAD_REACTORS
330
29
102
}
330
29
100
AcDbVisualStyle
  2
Conceptual
 70
     9
177
     3
291
     0
 70
    58
 90
        3
176
     1
 90
        2
176
     1
 90
        0
176
     1
 90
        0
176
     1
 40
0.6
176
     1
 40
30.0
176
     1
 62
     7
420
 16777215
176
     1
 90
        2
176
     1
 90
        2
176
     1
 62
     7
176
     1
 62
   257
176
     1
 90
        1
176
     1
 90
        1
176
     1
 40
179.0
176
     1
 90
        8
176
     1
 62
     7
176
     1
 40
1.0
176
     1
 90
        1
176
     1
 90
        6
176
     1
 90
        2
176
     1
 62
     7
176
     1
 90
        3
176
     1
 90
        0
176
     1
 90
        0
176
     1
290
     0
176
     1
 90
        1
176
     1
 40
0.0
176
     1
 90
        0
176
     1
290
     0
176
     1
290
     1
176
     1
290
     1
176
     1
290
     0
176
     1
290
     0
176
     1
290
     0
176
     1
290
     0
176
     1
290
     0
176
     1
290
     0
176
     1
 90
       50
176
     1
 40
0.0
176
     1
 40
1.0
176
     1
 90
        0
176
     1
 62
    18
420
        0
176
     1
 90
       50
176
     1
 90
        3
176
     1
 62
     5
420
      255
176
     1
290
     0
176
     1
 90
       50
176
     1
 90
       50
176
     1
 90
       50
176
     1
290
     0
176
     1
 90
       50
176
     1
 62
   256
176
     0
 40
1.0
176
     0
 90
        2
176
     1
  1
strokes_ogs.tif
176
     1
290
     0
176
     1
 40
1.0
176
     1
 40
1.0
176
     1
  0
VISUALSTYLE
  5
34
102
{ACAD_REACTORS
330
29
102
}
330
29
100
AcDbVisualStyle
  2
Dim
 70
    11
177
     3
291
     1
 70
    58
 90
        2
176
     1
 90
        2
176
     1
 90
        0
176
     1
 90
        0
176
     1
 40
0.6
176
     1
 40
30.0
176
     1
 62
     7
420
 16777215
176
     1
 90
        1
176
     1
 90
        4
176
     1
 62
     7
176
     1
 62
   257
176
     1
 90
        1
176
     1
 90
        1
176
     1
 40
1.0
176
     1
 90
        8
176
     1
 62
     7
176
     1
 40
1.0
176
     1
 90
        1
176
     1
 90
        6
176
     1
 90
        2
176
     1
 62
     7
176
     1
 90
        5
176
     1
 90
        0
176
     1
 90
        0
176
     1
290
     0
176
     1
 90
        1
176
     1
 40
-50.0
176
     1
 90
        0
176
     1
290
     0
176
     1
290
     1
176
     1
290
     1
176
     1
290
     0
176
     1
290
     0
176
     1
290
     0
176
     1
290
     0
176
     1
290
     0
176
     1
290
     0
176
     1
 90
       50
176
     1
 40
0.0
176
     1
 40
1.0
176
     1
 90
        0
176
     1
 62
    18
420
        0
176
     1
 90
       50
176
     1
 90
        3
176
     1
 62
     5
420
      255
176
     1
290
     0
176
     1
 90
       50
176
     1
 90
       50
176
     1
 90
       50
176
     1
290
     0
176
     1
 90
       50
176
     1
 62
   256
176
     0
 40
1.0
176
     0
 90
        2
176
     1
  1
strokes_ogs.tif
176
     1
290
     0
176
     1
 40
1.0
176
     1
 40
1.0
176
     1
  0
VISUALSTYLE
  5
41
102
{ACAD_REACTORS
330
29
102
}
330
29
100
AcDbVisualStyle
  2
EdgeColorOff
 70
    22
177
     3
291
     1
 70
    58
 90
        2
176
     0
 90
        2
176
     0
 90
        0
176
     0
 90
        0
176
     0
 40
0.6
176
     0
 40
30.0
176
     0
 62
     7
420
 16777215
176
     0
 90
        1
176
     0
 90
        4
176
     0
 62
     7
176
     0
 62
   257
176
     0
 90
        1
176
     0
 90
        1
176
     0
 40
1.0
176
     0
 90
        8
176
     2
 62
     7
176
     0
 40
1.0
176
     0
 90
        1
176
     0
 90
        6
176
     0
 90
        2
176
     0
 62
     7
176
     0
 90
        5
176
     0
 90
        0
176
     0
 90
        0
176
     0
290
     0
176
     0
 90
        1
176
     0
 40
0.0
176
     0
 90
        0
176
     0
290
     0
176
     0
290
     1
176
     0
290
     1
176
     0
290
     0
176
     0
290
     0
176
     0
290
     0
176
     0
290
     0
176
     0
290
     0
176
     0
290
     0
176
     0
 90
       50
176
     0
 40
0.0
176
     0
 40
1.0
176
     0
 90
        0
176
     0
 62
    18
420
        0
176
     0
 90
       50
176
     0
 90
        3
176
     0
 62
     5
420
      255
176
     0
290
     0
176
     0
 90
       50
176
     0
 90
       50
176
     0
 90
       50
176
     0
290
     0
176
     0
 90
       50
176
     0
 62
   256
176
     0
 40
1.0
176
     0
 90
        2
176
     0
  1
strokes_ogs.tif
176
     0
290
     0
176
     0
 40
1.0
176
     0
 40
1.0
176
     0
  0
VISUALSTYLE
  5
38
102
{ACAD_REACTORS
330
29
102
}
330
29
100
AcDbVisualStyle
  2
Facepattern
 70
    15
177
     3
291
     1
 70
    58
 90
        2
176
     1
 90
        2
176
     1
 90
        0
176
     1
 90
        0
176
     1
 40
0.6
176
     1
 40
30.0
176
     1
 62
     7
420
 16777215
176
     1
 90
        1
176
     1
 90
        4
176
     1
 62
     7
176
     1
 62
   257
176
     1
 90
        1
176
     1
 90
        1
176
     1
 40
1.0
176
     1
 90
        8
176
     1
 62
     7
176
     1
 40
1.0
176
     1
 90
        1
176
     1
 90
        6
176
     1
 90
        2
176
     1
 62
     7
176
     1
 90
        5
176
     1
 90
        0
176
     1
 90
        0
176
     1
290
     0
176
     1
 90
        1
176
     1
 40
0.0
176
     1
 90
        0
176
     1
290
     0
176
     1
290
     1
176
     1
290
     1
176
     1
290
     0
176
     1
290
     0
176
     1
290
     0
176
     1
290
     0
176
     1
290
     0
176
     1
290
     0
176
     1
 90
       50
176
     1
 40
0.0
176
     1
 40
1.0
176
     1
 90
        0
176
     1
 62
    18
420
        0
176
     1
 90
       50
176
     1
 90
        3
176
     1
 62
     5
420
      255
176
     1
290
     0
176
     1
 90
       50
176
     1
 90
       50
176
     1
 90
       50
176
     1
290
     0
176
     1
 90
       50
176
     1
 62
   256
176
     0
 40
1.0
176
     0
 90
        2
176
     1
  1
strokes_ogs.tif
176
     1
290
     0
176
     1
 40
1.0
176
     1
 40
1.0
176
     1
  0
VISUALSTYLE
  5
2A
102
{ACAD_REACTORS
330
29
102
}
330
29
100
AcDbVisualStyle
  2
Flat
 70
     0
177
     3
291
     1
 70
    58
 90
        2
176
     1
 90
        1
176
     1
 90
        1
176
     1
 90
        2
176
     1
 40
0.6
176
     1
 40
30.0
176
     1
 62
     7
420
 16777215
176
     1
 90
        0
176
     1
 90
        0
176
     1
 62
     7
176
     1
 62
   257
176
     1
 90
        1
176
     1
 90
        1
176
     1
 40
1.0
176
     1
 90
        8
176
     1
 62
     7
176
     1
 40
1.0
176
     1
 90
        1
176
     1
 90
        6
176
     1
 90
        2
176
     1
 62
     7
176
     1
 90
        5
176
     1
 90
        0
176
     1
 90
        0
176
     1
290
     0
176
     1
 90
       13
176
     1
 40
0.0
176
     1
 90
        0
176
     1
290
     0
176
     1
290
     1
176
     1
290
     1
176
     1
290
     0
176
     1
290
     0
176
     1
290
     0
176
     1
290
     0
176
     1
290
     0
176
     1
290
     0
176
     1
 90
       50
176
     1
 40
0.0
176
     1
 40
1.0
176
     1
 90
        0
176
     1
 62
    18
420
        0
176
     1
 90
       50
176
     1
 90
        3
176
     1
 62
     5
420
      255
176
     1
290
     0
176
     1
 90
       50
176
     1
 90
       50
176
     1
 90
       50
176
     1
290
     0
176
     1
 90
       50
176
     1
 62
   256
176
     0
 40
1.0
176
     0
 90
        2
176
     1
  1
strokes_ogs.tif
176
     1
290
     0
176
     1
 40
1.0
176
     1
 40
1.0
176
     1
  0
VISUALSTYLE
  5
2B
102
{ACAD_REACTORS
330
29
102
}
330
29
100
AcDbVisualStyle
  2
FlatWithEdges
 70
     1
177
     3
291
     1
 70
    58
 90
        2
176
     1
 90
        1
176
     1
 90
        1
176
     1
 90
        2
176
     1
 40
0.6
176
     1
 40
30.0
176
     1
 62
     7
420
 16777215
176
     1
 90
        1
176
     1
 90
        0
176
     1
 62
     7
176
     1
 62
   257
176
     1
 90
        1
176
     1
 90
        1
176
     1
 40
1.0
176
     1
 90
        0
176
     1
 62
   257
176
     1
 40
1.0
176
     1
 90
        1
176
     1
 90
        6
176
     1
 90
        2
176
     1
 62
     7
176
     1
 90
        5
176
     1
 90
        0
176
     1
 90
        0
176
     1
290
     0
176
     1
 90
       13
176
     1
 40
0.0
176
     1
 90
        0
176
     1
290
     0
176
     1
290
     1
176
     1
290
     1
176
     1
290
     0
176
     1
290
     0
176
     1
290
     0
176
     1
290
     0
176
     1
290
     0
176
     1
290
     0
176
     1
 90
       50
176
     1
 40
0.0
176
     1
 40
1.0
176
     1
 90
        0
176
     1
 62
    18
420
        0
176
     1
 90
       50
176
     1
 90
        3
176
     1
 62
     5
420
      255
176
     1
290
     0
176
     1
 90
       50
176
     1
 90
       50
176
     1
 90
       50
176
     1
290
     0
176
     1
 90
       50
176
     1
 62
   256
176
     0
 40
1.0
176
     0
 90
        2
176
     1
  1
strokes_ogs.tif
176
     1
290
     0
176
     1
 40
1.0
176
     1
 40
1.0
176
     1
  0
VISUALSTYLE
  5
2C
102
{ACAD_REACTORS
330
29
102
}
330
29
100
AcDbVisualStyle
  2
Gouraud
 70
     2
177
     3
291
     1
 70
    58
 90
        2
176
     1
 90
        2
176
     1
 90
        1
176
     1
 90
        2
176
     1
 40
0.6
176
     1
 40
30.0
176
     1
 62
     7
420
 16777215
176
     1
 90
        0
176
     1
 90
        0
176
     1
 62
     7
176
     1
 62
   257
176
     1
 90
        1
176
     1
 90
        1
176
     1
 40
1.0
176
     1
 90
        0
176
     1
 62
     7
176
     1
 40
1.0
176
     1
 90
        1
176
     1
 90
        6
176
     1
 90
        2
176
     1
 62
     7
176
     1
 90
        5
176
     1
 90
        0
176
     1
 90
        0
176
     1
290
     0
176
     1
 90
       13
176
     1
 40
0.0
176
     1
 90
        0
176
     1
290
     0
176
     1
290
     1
176
     1
290
     1
176
     1
290
     0
176
     1
290
     0
176
     1
290
     0
176
     1
290
     0
176
     1
290
     0
176
     1
290
     0
176
     1
 90
       50
176
     1
 40
0.0
176
     1
 40
1.0
176
     1
 90
        0
176
     1
 62
    18
420
        0
176
     1
 90
       50
176
     1
 90
        3
176
     1
 62
     5
420
      255
176
     1
290
     0
176
     1
 90
       50
176
     1
 90
       50
176
     1
 90
       50
176
     1
290
     0
176
     1
 90
       50
176
     1
 62
   256
176
     0
 40
1.0
176
     0
 90
        2
176
     1
  1
strokes_ogs.tif
176
     1
290
     0
176
     1
 40
1.0
176
     1
 40
1.0
176
     1
  0
VISUALSTYLE
  5
2D
102
{ACAD_REACTORS
330
29
102
}
330
29
100
AcDbVisualStyle
  2
GouraudWithEdges
 70
     3
177
     3
291
     1
 70
    58
 90
        2
176
     1
 90
        2
176
     1
 90
        1
176
     1
 90
        2
176
     1
 40
0.6
176
     1
 40
30.0
176
     1
 62
     7
420
 16777215
176
     1
 90
        1
176
     1
 90
        0
176
     1
 62
     7
176
     1
 62
   257
176
     1
 90
        1
176
     1
 90
        1
176
     1
 40
1.0
176
     1
 90
        0
176
     1
 62
   257
176
     1
 40
1.0
176
     1
 90
        1
176
     1
 90
        6
176
     1
 90
        2
176
     1
 62
     7
176
     1
 90
        5
176
     1
 90
        0
176
     1
 90
        0
176
     1
290
     0
176
     1
 90
       13
176
     1
 40
0.0
176
     1
 90
        0
176
     1
290
     0
176
     1
290
     1
176
     1
290
     1
176
     1
290
     0
176
     1
290
     0
176
     1
290
     0
176
     1
290
     0
176
     1
290
     0
176
     1
290
     0
176
     1
 90
       50
176
     1
 40
0.0
176
     1
 40
1.0
176
     1
 90
        0
176
     1
 62
    18
420
        0
176
     1
 90
       50
176
     1
 90
        3
176
     1
 62
     5
420
      255
176
     1
290
     0
176
     1
 90
       50
176
     1
 90
       50
176
     1
 90
       50
176
     1
290
     0
176
     1
 90
       50
176
     1
 62
   256
176
     0
 40
1.0
176
     0
 90
        2
176
     1
  1
strokes_ogs.tif
176
     1
290
     0
176
     1
 40
1.0
176
     1
 40
1.0
176
     1
  0
VISUALSTYLE
  5
31
102
{ACAD_REACTORS
330
29
102
}
330
29
100
AcDbVisualStyle
  2
Hidden
 70
     6
177
     3
291
     0
 70
    58
 90
        1
176
     1
 90
        2
176
     1
 90
        2
176
     1
 90
        0
176
     1
 40
0.6
176
     1
 40
30.0
176
     1
 62
     7
420
 16777215
176
     1
 90
        2
176
     1
 90
        2
176
     1
 62
     7
176
     1
 62
   257
176
     1
 90
        2
176
     1
 90
        1
176
     1
 40
40.0
176
     1
 90
        0
176
     1
 62
   257
176
     1
 40
1.0
176
     1
 90
        1
176
     1
 90
        6
176
     1
 90
        2
176
     1
 62
     7
176
     1
 90
        3
176
     1
 90
        0
176
     1
 90
        0
176
     1
290
     0
176
     1
 90
        1
176
     1
 40
0.0
176
     1
 90
        0
176
     1
290
     0
176
     1
290
     1
176
     1
290
     1
176
     1
290
     0
176
     1
290
     0
176
     1
290
     0
176
     1
290
     0
176
     1
290
     0
176
     1
290
     0
176
     1
 90
       50
176
     1
 40
0.0
176
     1
 40
1.0
176
     1
 90
        0
176
     1
 62
    18
420
        0
176
     1
 90
       50
176
     1
 90
        3
176
     1
 62
     5
420
      255
176
     1
290
     0
176
     1
 90
       50
176
     1
 90
       50
176
     1
 90
       50
176
     1
290
     0
176
     1
 90
       50
176
     1
 62
   256
176
     0
 40
1.0
176
     0
 90
        2
176
     1
  1
strokes_ogs.tif
176
     1
290
     0
176
     1
 40
1.0
176
     1
 40
1.0
176
     1
  0
VISUALSTYLE
  5
3F
102
{ACAD_REACTORS
330
29
102
}
330
29
100
AcDbVisualStyle
  2
JitterOff
 70
    20
177
     3
291
     1
 70
    58
 90
        2
176
     0
 90
        2
176
     0
 90
        0
176
     0
 90
        0
176
     0
 40
0.6
176
     0
 40
30.0
176
     0
 62
     7
420
 16777215
176
     0
 90
        1
176
     0
 90
        4
176
     0
 62
     7
176
     0
 62
   257
176
     0
 90
        1
176
     0
 90
        1
176
     0
 40
1.0
176
     0
 90
       10
176
     2
 62
     7
176
     0
 40
1.0
176
     0
 90
        1
176
     0
 90
        6
176
     0
 90
        2
176
     0
 62
     7
176
     0
 90
        5
176
     0
 90
        0
176
     0
 90
        0
176
     0
290
     0
176
     0
 90
        1
176
     0
 40
0.0
176
     0
 90
        0
176
     0
290
     0
176
     0
290
     1
176
     0
290
     1
176
     0
290
     0
176
     0
290
     0
176
     0
290
     0
176
     0
290
     0
176
     0
290
     0
176
     0
290
     0
176
     0
 90
       50
176
     0
 40
0.0
176
     0
 40
1.0
176
     0
 90
        0
176
     0
 62
    18
420
        0
176
     0
 90
       50
176
     0
 90
        3
176
     0
 62
     5
420
      255
176
     0
290
     0
176
     0
 90
       50
176
     0
 90
       50
176
     0
 90
       50
176
     0
290
     0
176
     0
 90
       50
176
     0
 62
   256
176
     0
 40
1.0
176
     0
 90
        2
176
     0
  1
strokes_ogs.tif
176
     0
290
     0
176
     0
 40
1.0
176
     0
 40
1.0
176
     0
  0
VISUALSTYLE
  5
37
102
{ACAD_REACTORS
330
29
102
}
330
29
100
AcDbVisualStyle
  2
Linepattern
 70
    14
177
     3
291
     1
 70
    58
 90
        2
176
     1
 90
        2
176
     1
 90
        0
176
     1
 90
        0
176
     1
 40
0.6
176
     1
 40
30.0
176
     1
 62
     7
420
 16777215
176
     1
 90
        1
176
     1
 90
        4
176
     1
 62
     7
176
     1
 62
   257
176
     1
 90
        7
176
     1
 90
        7
176
     1
 40
1.0
176
     1
 90
        8
176
     1
 62
     7
176
     1
 40
1.0
176
     1
 90
        1
176
     1
 90
        6
176
     1
 90
        2
176
     1
 62
     7
176
     1
 90
        5
176
     1
 90
        0
176
     1
 90
        0
176
     1
290
     0
176
     1
 90
        1
176
     1
 40
0.0
176
     1
 90
        0
176
     1
290
     0
176
     1
290
     1
176
     1
290
     1
176
     1
290
     0
176
     1
290
     0
176
     1
290
     0
176
     1
290
     0
176
     1
290
     0
176
     1
290
     0
176
     1
 90
       50
176
     1
 40
0.0
176
     1
 40
1.0
176
     1
 90
        0
176
     1
 62
    18
420
        0
176
     1
 90
       50
176
     1
 90
        3
176
     1
 62
     5
420
      255
176
     1
290
     0
176
     1
 90
       50
176
     1
 90
       50
176
     1
 90
       50
176
     1
290
     0
176
     1
 90
       50
176
     1
 62
   256
176
     0
 40
1.0
176
     0
 90
        2
176
     1
  1
strokes_ogs.tif
176
     1
290
     0
176
     1
 40
1.0
176
     1
 40
1.0
176
     1
  0
VISUALSTYLE
  5
40
102
{ACAD_REACTORS
330
29
102
}
330
29
100
AcDbVisualStyle
  2
OverhangOff
 70
    21
177
     3
291
     1
 70
    58
 90
        2
176
     0
 90
        2
176
     0
 90
        0
176
     0
 90
        0
176
     0
 40
0.6
176
     0
 40
30.0
176
     0
 62
     7
420
 16777215
176
     0
 90
        1
176
     0
 90
        4
176
     0
 62
     7
176
     0
 62
   257
176
     0
 90
        1
176
     0
 90
        1
176
     0
 40
1.0
176
     0
 90
        9
176
     2
 62
     7
176
     0
 40
1.0
176
     0
 90
        1
176
     0
 90
        6
176
     0
 90
        2
176
     0
 62
     7
176
     0
 90
        5
176
     0
 90
        0
176
     0
 90
        0
176
     0
290
     0
176
     0
 90
        1
176
     0
 40
0.0
176
     0
 90
        0
176
     0
290
     0
176
     0
290
     1
176
     0
290
     1
176
     0
290
     0
176
     0
290
     0
176
     0
290
     0
176
     0
290
     0
176
     0
290
     0
176
     0
290
     0
176
     0
 90
       50
176
     0
 40
0.0
176
     0
 40
1.0
176
     0
 90
        0
176
     0
 62
    18
420
        0
176
     0
 90
       50
176
     0
 90
        3
176
     0
 62
     5
420
      255
176
     0
290
     0
176
     0
 90
       50
176
     0
 90
       50
176
     0
 90
       50
176
     0
290
     0
176
     0
 90
       50
176
     0
 62
   256
176
     0
 40
1.0
176
     0
 90
        2
176
     0
  1
strokes_ogs.tif
176
     0
290
     0
176
     0
 40
1.0
176
     0
 40
1.0
176
     0
  0
VISUALSTYLE
  5
33
102
{ACAD_REACTORS
330
29
102
}
330
29
100
AcDbVisualStyle
  2
Realistic
 70
     8
177
     3
291
     0
 70
    58
 90
        2
176
     1
 90
        3
176
     1
 90
        0
176
     1
 90
        2
176
     1
 40
0.6
176
     1
 40
30.0
176
     1
 62
     7
420
 16777215
176
     1
 90
        0
176
     1
 90
        0
176
     1
 62
     7
176
     1
 62
   257
176
     1
 90
        1
176
     1
 90
        1
176
     1
 40
1.0
176
     1
 90
        8
176
     1
 62
   257
176
     1
 40
1.0
176
     1
 90
        1
176
     1
 90
        6
176
     1
 90
        2
176
     1
 62
     7
176
     1
 90
        3
176
     1
 90
        0
176
     1
 90
        0
176
     1
290
     0
176
     1
 90
       13
176
     1
 40
0.0
176
     1
 90
        0
176
     1
290
     0
176
     1
290
     1
176
     1
290
     1
176
     1
290
     0
176
     1
290
     0
176
     1
290
     0
176
     1
290
     0
176
     1
290
     0
176
     1
290
     0
176
     1
 90
       50
176
     1
 40
0.0
176
     1
 40
1.0
176
     1
 90
        0
176
     1
 62
    18
420
        0
176
     1
 90
       50
176
     1
 90
        3
176
     1
 62
     5
420
      255
176
     1
290
     0
176
     1
 90
       50
176
     1
 90
       50
176
     1
 90
       50
176
     1
290
     0
176
     1
 90
       50
176
     1
 62
   256
176
     0
 40
1.0
176
     0
 90
        2
176
     1
  1
strokes_ogs.tif
176
     1
290
     0
176
     1
 40
1.0
176
     1
 40
1.0
176
     1
  0
VISUALSTYLE
  5
3E
102
{ACAD_REACTORS
330
29
102
}
330
29
100
AcDbVisualStyle
  2
Shaded
 70
    27
177
     3
291
     0
 70
    58
 90
        2
176
     1
 90
        2
176
     1
 90
        1
176
     1
 90
        2
176
     1
 40
0.6
176
     1
 40
30.0
176
     1
 62
     7
420
 16777215
176
     1
 90
        0
176
     1
 90
        4
176
     1
 62
     7
176
     1
 62
   257
176
     1
 90
        1
176
     1
 90
        1
176
     1
 40
1.0
176
     1
 90
        8
176
     1
 62
   257
176
     1
 40
1.0
176
     1
 90
        1
176
     1
 90
        6
176
     1
 90
        2
176
     1
 62
     8
420
  7895160
176
     1
 90
        3
176
     1
 90
        0
176
     1
 90
        0
176
     1
290
     0
176
     1
 90
        5
176
     1
 40
0.0
176
     1
 90
        0
176
     1
290
     0
176
     1
290
     1
176
     1
290
     1
176
     1
290
     0
176
     1
290
     0
176
     1
290
     0
176
     1
290
     0
176
     1
290
     0
176
     1
290
     0
176
     1
 90
       50
176
     1
 40
0.0
176
     1
 40
1.0
176
     1
 90
        0
176
     1
 62
    18
420
        0
176
     1
 90
       50
176
     1
 90
        3
176
     1
 62
     5
420
      255
176
     1
290
     0
176
     1
 90
       50
176
     1
 90
       50
176
     1
 90
       50
176
     1
290
     0
176
     1
 90
       50
176
     1
 62
   256
176
     0
 40
1.0
176
     0
 90
        2
176
     1
  1
strokes_ogs.tif
176
     1
290
     0
176
     1
 40
1.0
176
     1
 40
1.0
176
     1
  0
VISUALSTYLE
  5
3D
102
{ACAD_REACTORS
330
29
102
}
330
29
100
AcDbVisualStyle
  2
Shaded with edges
 70
    26
177
     3
291
     0
 70
    58
 90
        2
176
     1
 90
        2
176
     1
 90
        1
176
     1
 90
        2
176
     1
 40
0.6
176
     1
 40
30.0
176
     1
 62
     7
420
 16777215
176
     1
 90
        1
176
     1
 90
        2
176
     1
 62
     7
176
     1
 62
   257
176
     1
 90
        2
176
     1
 90
        1
176
     1
 40
1.0
176
     1
 90
        8
176
     1
 62
   257
176
     1
 40
1.0
176
     1
 90
        1
176
     1
 90
        6
176
     1
 90
        2
176
     1
 62
     7
176
     1
 90
        3
176
     1
 90
        0
176
     1
 90
        0
176
     1
290
     0
176
     1
 90
        5
176
     1
 40
0.0
176
     1
 90
        0
176
     1
290
     0
176
     1
290
     1
176
     1
290
     1
176
     1
290
     0
176
     1
290
     0
176
     1
290
     0
176
     1
290
     0
176
     1
290
     0
176
     1
290
     0
176
     1
 90
       50
176
     1
 40
0.0
176
     1
 40
1.0
176
     1
 90
        0
176
     1
 62
    18
420
        0
176
     1
 90
       50
176
     1
 90
        3
176
     1
 62
     5
420
      255
176
     1
290
     0
176
     1
 90
       50
176
     1
 90
       50
176
     1
 90
       50
176
     1
290
     0
176
     1
 90
       50
176
     1
 62
   256
176
     0
 40
1.0
176
     0
 90
        2
176
     1
  1
strokes_ogs.tif
176
     1
290
     0
176
     1
 40
1.0
176
     1
 40
1.0
176
     1
  0
VISUALSTYLE
  5
3A
102
{ACAD_REACTORS
330
29
102
}
330
29
100
AcDbVisualStyle
  2
Shades of Gray
 70
    23
177
     3
291
     0
 70
    58
 90
        2
176
     1
 90
        2
176
     1
 90
        3
176
     1
 90
        0
176
     1
 40
0.6
176
     1
 40
30.0
176
     1
 62
     7
420
 16777215
176
     1
 90
        2
176
     1
 90
        2
176
     1
 62
     7
176
     1
 62
     7
176
     1
 90
        1
176
     1
 90
        1
176
     1
 40
40.0
176
     1
 90
        8
176
     1
 62
     7
176
     1
 40
1.0
176
     1
 90
        1
176
     1
 90
        6
176
     1
 90
        2
176
     1
 62
     7
176
     1
 90
        3
176
     1
 90
        0
176
     1
 90
        0
176
     1
290
     0
176
     1
 90
        1
176
     1
 40
0.0
176
     1
 90
        0
176
     1
290
     0
176
     1
290
     1
176
     1
290
     1
176
     1
290
     0
176
     1
290
     0
176
     1
290
     0
176
     1
290
     0
176
     1
290
     0
176
     1
290
     0
176
     1
 90
       50
176
     1
 40
0.0
176
     1
 40
1.0
176
     1
 90
        0
176
     1
 62
    18
420
        0
176
     1
 90
       50
176
     1
 90
        3
176
     1
 62
     5
420
      255
176
     1
290
     0
176
     1
 90
       50
176
     1
 90
       50
176
     1
 90
       50
176
     1
290
     0
176
     1
 90
       50
176
     1
 62
   256
176
     0
 40
1.0
176
     0
 90
        2
176
     1
  1
strokes_ogs.tif
176
     1
290
     0
176
     1
 40
1.0
176
     1
 40
1.0
176
     1
  0
VISUALSTYLE
  5
3B
102
{ACAD_REACTORS
330
29
102
}
330
29
100
AcDbVisualStyle
  2
Sketchy
 70
    24
177
     3
291
     0
 70
    58
 90
        1
176
     1
 90
        2
176
     1
 90
        2
176
     1
 90
        0
176
     1
 40
0.6
176
     1
 40
30.0
176
     1
 62
     7
420
 16777215
176
     1
 90
        2
176
     1
 90
        2
176
     1
 62
     7
176
     1
 62
     7
176
     1
 90
        1
176
     1
 90
        1
176
     1
 40
40.0
176
     1
 90
       11
176
     1
 62
     7
176
     1
 40
1.0
176
     1
 90
        1
176
     1
 90
        6
176
     1
 90
        2
176
     1
 62
     7
176
     1
 90
        6
176
     1
 90
        0
176
     1
 90
        0
176
     1
290
     0
176
     1
 90
        1
176
     1
 40
0.0
176
     1
 90
        0
176
     1
290
     0
176
     1
290
     1
176
     1
290
     1
176
     1
290
     0
176
     1
290
     0
176
     1
290
     0
176
     1
290
     0
176
     1
290
     0
176
     1
290
     0
176
     1
 90
       50
176
     1
 40
0.0
176
     1
 40
1.0
176
     1
 90
        0
176
     1
 62
    18
420
        0
176
     1
 90
       50
176
     1
 90
        3
176
     1
 62
     5
420
      255
176
     1
290
     0
176
     1
 90
       50
176
     1
 90
       50
176
     1
 90
       50
176
     1
290
     0
176
     1
 90
       50
176
     1
 62
   256
176
     0
 40
1.0
176
     0
 90
        2
176
     1
  1
strokes_ogs.tif
176
     1
290
     0
176
     1
 40
1.0
176
     1
 40
1.0
176
     1
  0
VISUALSTYLE
  5
36
102
{ACAD_REACTORS
330
29
102
}
330
29
100
AcDbVisualStyle
  2
Thicken
 70
    13
177
     3
291
     1
 70
    58
 90
        2
176
     1
 90
        2
176
     1
 90
        0
176
     1
 90
        0
176
     1
 40
0.6
176
     1
 40
30.0
176
     1
 62
     7
420
 16777215
176
     1
 90
        1
176
     1
 90
        4
176
     1
 62
     7
176
     1
 62
   257
176
     1
 90
        1
176
     1
 90
        1
176
     1
 40
1.0
176
     1
 90
       12
176
     1
 62
     7
176
     1
 40
1.0
176
     1
 90
        1
176
     1
 90
        6
176
     1
 90
        2
176
     1
 62
     7
176
     1
 90
        5
176
     1
 90
        0
176
     1
 90
        0
176
     1
290
     0
176
     1
 90
        1
176
     1
 40
0.0
176
     1
 90
        0
176
     1
290
     0
176
     1
290
     1
176
     1
290
     1
176
     1
290
     0
176
     1
290
     0
176
     1
290
     0
176
     1
290
     0
176
     1
290
     0
176
     1
290
     0
176
     1
 90
       50
176
     1
 40
0.0
176
     1
 40
1.0
176
     1
 90
        0
176
     1
 62
    18
420
        0
176
     1
 90
       50
176
     1
 90
        3
176
     1
 62
     5
420
      255
176
     1
290
     0
176
     1
 90
       50
176
     1
 90
       50
176
     1
 90
       50
176
     1
290
     0
176
     1
 90
       50
176
     1
 62
   256
176
     0
 40
1.0
176
     0
 90
        2
176
     1
  1
strokes_ogs.tif
176
     1
290
     0
176
     1
 40
1.0
176
     1
 40
1.0
176
     1
  0
VISUALSTYLE
  5
30
102
{ACAD_REACTORS
330
29
102
}
330
29
100
AcDbVisualStyle
  2
Wireframe
 70
     5
177
     3
291
     0
 70
    58
 90
        0
176
     1
 90
        2
176
     1
 90
        0
176
     1
 90
        0
176
     1
 40
0.6
176
     1
 40
30.0
176
     1
 62
     7
420
 16777215
176
     1
 90
        1
176
     1
 90
        4
176
     1
 62
     7
176
     1
 62
   257
176
     1
 90
        1
176
     1
 90
        1
176
     1
 40
1.0
176
     1
 90
        0
176
     1
 62
   257
176
     1
 40
1.0
176
     1
 90
        1
176
     1
 90
        6
176
     1
 90
        2
176
     1
 62
     7
176
     1
 90
        3
176
     1
 90
        0
176
     1
 90
        0
176
     1
290
     0
176
     1
 90
        1
176
     1
 40
0.0
176
     1
 90
        0
176
     1
290
     0
176
     1
290
     1
176
     1
290
     1
176
     1
290
     0
176
     1
290
     0
176
     1
290
     0
176
     1
290
     0
176
     1
290
     0
176
     1
290
     0
176
     1
 90
       50
176
     1
 40
0.0
176
     1
 40
1.0
176
     1
 90
        0
176
     1
 62
    18
420
        0
176
     1
 90
       50
176
     1
 90
        3
176
     1
 62
     5
420
      255
176
     1
290
     0
176
     1
 90
       50
176
     1
 90
       50
176
     1
 90
       50
176
     1
290
     0
176
     1
 90
       50
176
     1
 62
   256
176
     0
 40
1.0
176
     0
 90
        2
176
     1
  1
strokes_ogs.tif
176
     1
290
     0
176
     1
 40
1.0
176
     1
 40
1.0
176
     1
  0
VISUALSTYLE
  5
3C
102
{ACAD_REACTORS
330
29
102
}
330
29
100
AcDbVisualStyle
  2
X-Ray
 70
    25
177
     3
291
     0
 70
    58
 90
        2
176
     1
 90
        2
176
     1
 90
        1
176
     1
 90
        1
176
     1
 40
0.5
176
     1
 40
30.0
176
     1
 62
     7
420
 16777215
176
     1
 90
        1
176
     1
 90
        0
176
     1
 62
     7
176
     1
 62
   257
176
     1
 90
        1
176
     1
 90
        1
176
     1
 40
1.0
176
     1
 90
        8
176
     1
 62
     7
176
     1
 40
1.0
176
     1
 90
        1
176
     1
 90
        6
176
     1
 90
        2
176
     1
 62
     7
176
     1
 90
        3
176
     1
 90
        0
176
     1
 90
        0
176
     1
290
     0
176
     1
 90
       13
176
     1
 40
0.0
176
     1
 90
        0
176
     1
290
     0
176
     1
290
     1
176
     1
290
     1
176
     1
290
     0
176
     1
290
     0
176
     1
290
     0
176
     1
290
     0
176
     1
290
     0
176
     1
290
     0
176
     1
 90
       50
176
     1
 40
0.0
176
     1
 40
1.0
176
     1
 90
        0
176
     1
 62
    18
420
        0
176
     1
 90
       50
176
     1
 90
        3
176
     1
 62
     5
420
      255
176
     1
290
     0
176
     1
 90
       50
176
     1
 90
       50
176
     1
 90
       50
176
     1
290
     0
176
     1
 90
       50
176
     1
 62
   256
176
     0
 40
1.0
176
     0
 90
        2
176
     1
  1
strokes_ogs.tif
176
     1
290
     0
176
     1
 40
1.0
176
     1
 40
1.0
176
     1
  0
DICTIONARYVAR
  5
2B6
102
{ACAD_REACTORS
330
2B1
102
}
330
2B1
100
DictionaryVariables
280
     0
  1
1:1
  0
DICTIONARYVAR
  5
2B3
102
{ACAD_REACTORS
330
2B1
102
}
330
2B1
100
DictionaryVariables
280
     0
  1
STANDARD
  0
DICTIONARYVAR
  5
2B2
102
{ACAD_REACTORS
330
2B1
102
}
330
2B1
100
DictionaryVariables
280
     0
  1
STANDARD
  0
DICTIONARYVAR
  5
2B4
102
{ACAD_REACTORS
330
2B1
102
}
330
2B1
100
DictionaryVariables
280
     0
  1
Imperial24
  0
DICTIONARYVAR
  5
2B5
102
{ACAD_REACTORS
330
2B1
102
}
330
2B1
100
DictionaryVariables
280
     0
  1
Imperial24
  0
DICTIONARY
  5
1A
330
19
100
AcDbDictionary
280
     1
281
     1
  3
BUMPTILE
360
1C
  3
DIFFUSETILE
360
1B
  3
OPACITYTILE
360
1F
  3
REFLECTIONTILE
360
1E
  3
REFRACTIONTILE
360
20
  3
SPECULARTILE
360
1D
  0
DICTIONARY
  5
12
330
11
100
AcDbDictionary
280
     1
281
     1
  3
BUMPTILE
360
14
  3
DIFFUSETILE
360
13
  3
OPACITYTILE
360
17
  3
REFLECTIONTILE
360
16
  3
REFRACTIONTILE
360
18
  3
SPECULARTILE
360
15
  0
DICTIONARY
  5
22
330
21
100
AcDbDictionary
280
     1
281
     1
  3
BUMPTILE
360
24
  3
DIFFUSETILE
360
23
  3
OPACITYTILE
360
27
  3
REFLECTIONTILE
360
26
  3
REFRACTIONTILE
360
28
  3
SPECULARTILE
360
25
  0
DICTIONARY
  5
2B7
330
65
100
AcDbDictionary
280
     1
281
     1
  3
ACAD_ROUNDTRIP_2008_TABLESTYLE_CELLSTYLEMAP
360
2B8
  0
XRECORD
  5
1C
102
{ACAD_REACTORS
330
1A
102
}
330
1A
100
AcDbXrecord
280
     1
270
     1
271
     1
  0
XRECORD
  5
1B
102
{ACAD_REACTORS
330
1A
102
}
330
1A
100
AcDbXrecord
280
     1
270
     1
271
     1
  0
XRECORD
  5
1F
102
{ACAD_REACTORS
330
1A
102
}
330
1A
100
AcDbXrecord
280
     1
270
     1
271
     1
  0
XRECORD
  5
1E
102
{ACAD_REACTORS
330
1A
102
}
330
1A
100
AcDbXrecord
280
     1
270
     1
271
     1
  0
XRECORD
  5
20
102
{ACAD_REACTORS
330
1A
102
}
330
1A
100
AcDbXrecord
280
     1
270
     1
271
     1
  0
XRECORD
  5
1D
102
{ACAD_REACTORS
330
1A
102
}
330
1A
100
AcDbXrecord
280
     1
270
     1
271
     1
  0
XRECORD
  5
14
102
{ACAD_REACTORS
330
12
102
}
330
12
100
AcDbXrecord
280
     1
270
     1
271
     1
  0
XRECORD
  5
13
102
{ACAD_REACTORS
330
12
102
}
330
12
100
AcDbXrecord
280
     1
270
     1
271
     1
  0
XRECORD
  5
17
102
{ACAD_REACTORS
330
12
102
}
330
12
100
AcDbXrecord
280
     1
270
     1
271
     1
  0
XRECORD
  5
16
102
{ACAD_REACTORS
330
12
102
}
330
12
100
AcDbXrecord
280
     1
270
     1
271
     1
  0
XRECORD
  5
18
102
{ACAD_REACTORS
330
12
102
}
330
12
100
AcDbXrecord
280
     1
270
     1
271
     1
  0
XRECORD
  5
15
102
{ACAD_REACTORS
330
12
102
}
330
12
100
AcDbXrecord
280
     1
270
     1
271
     1
  0
XRECORD
  5
24
102
{ACAD_REACTORS
330
22
102
}
330
22
100
AcDbXrecord
280
     1
270
     1
271
     1
  0
XRECORD
  5
23
102
{ACAD_REACTORS
330
22
102
}
330
22
100
AcDbXrecord
280
     1
270
     1
271
     1
  0
XRECORD
  5
27
102
{ACAD_REACTORS
330
22
102
}
330
22
100
AcDbXrecord
280
     1
270
     1
271
     1
  0
XRECORD
  5
26
102
{ACAD_REACTORS
330
22
102
}
330
22
100
AcDbXrecord
280
     1
270
     1
271
     1
  0
XRECORD
  5
28
102
{ACAD_REACTORS
330
22
102
}
330
22
100
AcDbXrecord
280
     1
270
     1
271
     1
  0
XRECORD
  5
25
102
{ACAD_REACTORS
330
22
102
}
330
22
100
AcDbXrecord
280
     1
270
     1
271
     1
  0
CELLSTYLEMAP
  5
2B8
102
{ACAD_REACTORS
330
2B7
102
}
330
2B7
100
AcDbCellStyleMap
 90
        3
300
CELLSTYLE
  1
TABLEFORMAT_BEGIN
 90
        5
170
     1
 91
        0
 92
    32768
 62
   257
 93
        1
300
CONTENTFORMAT
  1
CONTENTFORMAT_BEGIN
 90
        0
 91
        0
 92
      512
 93
        0
300

 40
0.0
140
1.0
 94
        5
 62
     0
340
55
144
0.25
309
CONTENTFORMAT_END
171
     0
 94
        0
309
TABLEFORMAT_END
  1
CELLSTYLE_BEGIN
 90
        1
 91
        1
300
_TITLE
309
CELLSTYLE_END
300
CELLSTYLE
  1
TABLEFORMAT_BEGIN
 90
        5
170
     1
 91
        0
 92
        0
 62
   257
 93
        1
300
CONTENTFORMAT
  1
CONTENTFORMAT_BEGIN
 90
        0
 91
        0
 92
      512
 93
        0
300

 40
0.0
140
1.0
 94
        5
 62
     0
340
55
144
0.18
309
CONTENTFORMAT_END
171
     0
 94
        0
309
TABLEFORMAT_END
  1
CELLSTYLE_BEGIN
 90
        2
 91
        1
300
_HEADER
309
CELLSTYLE_END
300
CELLSTYLE
  1
TABLEFORMAT_BEGIN
 90
        5
170
     1
 91
        0
 92
        0
 62
   257
 93
        1
300
CONTENTFORMAT
  1
CONTENTFORMAT_BEGIN
 90
        0
 91
        0
 92
      512
 93
        0
300

 40
0.0
140
1.0
 94
        2
 62
     0
340
55
144
0.18
309
CONTENTFORMAT_END
171
     0
 94
        0
309
TABLEFORMAT_END
  1
CELLSTYLE_BEGIN
 90
        3
 91
        2
300
_DATA
309
CELLSTYLE_END
  0
ENDSEC
  0
EOF
