  0
SECTION
  2
HEADER
  9
$ACADVER
  1
AC1032
  9
$ACADMAINTVER
 90
      228
  9
$DWGCODEPAGE
  3
ANSI_1252
  9
$REQUIREDVERSIONS
160
                 0
  9
$INSBASE
 10
0.0
 20
0.0
 30
0.0
  9
$EXTMIN
 10
1.000000000000000E+20
 20
1.000000000000000E+20
 30
1.000000000000000E+20
  9
$EXTMAX
 10
-1.000000000000000E+20
 20
-1.000000000000000E+20
 30
-1.000000000000000E+20
  9
$LIMMIN
 10
0.0
 20
0.0
  9
$LIMMAX
 10
12.0
 20
9.0
  9
$ORTHOMODE
 70
     0
  9
$REGENMODE
 70
     1
  9
$FILLMODE
 70
     1
  9
$QTEXTMODE
 70
     0
  9
$MIRRTEXT
 70
     0
  9
$LTSCALE
 40
1.0
  9
$ATTMODE
 70
     1
  9
$TEXTSIZE
 40
0.2
  9
$TRACEWID
 40
0.05
  9
$TEXTSTYLE
  7
Standard
  9
$CLAYER
  8
0
  9
$CELTYPE
  6
ByLayer
  9
$CECOLOR
 62
   256
  9
$CELTSCALE
 40
1.0
  9
$DISPSILH
 70
     0
  9
$DIMSCALE
 40
1.0
  9
$DIMASZ
 40
0.18
  9
$DIMEXO
 40
0.0625
  9
$DIMDLI
 40
0.38
  9
$DIMRND
 40
0.0
  9
$DIMDLE
 40
0.0
  9
$DIMEXE
 40
0.18
  9
$DIMTP
 40
0.0
  9
$DIMTM
 40
0.0
  9
$DIMTXT
 40
0.18
  9
$DIMCEN
 40
0.09
  9
$DIMTSZ
 40
0.0
  9
$DIMTOL
 70
     0
  9
$DIMLIM
 70
     0
  9
$DIMTIH
 70
     1
  9
$DIMTOH
 70
     1
  9
$DIMSE1
 70
     0
  9
$DIMSE2
 70
     0
  9
$DIMTAD
 70
     0
  9
$DIMZIN
 70
     0
  9
$DIMBLK
  1

  9
$DIMASO
 70
     1
  9
$DIMSHO
 70
     1
  9
$DIMPOST
  1

  9
$DIMAPOST
  1

  9
$DIMALT
 70
     0
  9
$DIMALTD
 70
     2
  9
$DIMALTF
 40
25.4
  9
$DIMLFAC
 40
1.0
  9
$DIMTOFL
 70
     0
  9
$DIMTVP
 40
0.0
  9
$DIMTIX
 70
     0
  9
$DIMSOXD
 70
     0
  9
$DIMSAH
 70
     0
  9
$DIMBLK1
  1

  9
$DIMBLK2
  1

  9
$DIMSTYLE
  2
Standard
  9
$DIMCLRD
 70
     0
  9
$DIMCLRE
 70
     0
  9
$DIMCLRT
 70
     0
  9
$DIMTFAC
 40
1.0
  9
$DIMGAP
 40
0.09
  9
$DIMJUST
 70
     0
  9
$DIMSD1
 70
     0
  9
$DIMSD2
 70
     0
  9
$DIMTOLJ
 70
     1
  9
$DIMTZIN
 70
     0
  9
$DIMALTZ
 70
     0
  9
$DIMALTTZ
 70
     0
  9
$DIMUPT
 70
     0
  9
$DIMDEC
 70
     4
  9
$DIMTDEC
 70
     4
  9
$DIMALTU
 70
     2
  9
$DIMALTTD
 70
     2
  9
$DIMTXSTY
  7
Standard
  9
$DIMAUNIT
 70
     0
  9
$DIMADEC
 70
     0
  9
$DIMALTRND
 40
0.0
  9
$DIMAZIN
 70
     0
  9
$DIMDSEP
 70
    46
  9
$DIMATFIT
 70
     3
  9
$DIMFRAC
 70
     0
  9
$DIMLDRBLK
  1

  9
$DIMLUNIT
 70
     2
  9
$DIMLWD
 70
    -2
  9
$DIMLWE
 70
    -2
  9
$DIMTMOVE
 70
     0
  9
$DIMFXL
 40
1.0
  9
$DIMFXLON
 70
     0
  9
$DIMJOGANG
 40
0.7853981633974483
  9
$DIMTFILL
 70
     0
  9
$DIMTFILLCLR
 70
     0
  9
$DIMARCSYM
 70
     0
  9
$DIMLTYPE
  6

  9
$DIMLTEX1
  6

  9
$DIMLTEX2
  6

  9
$DIMTXTDIRECTION
 70
     0
  9
$LUNITS
 70
     2
  9
$LUPREC
 70
     4
  9
$SKETCHINC
 40
0.1
  9
$FILLETRAD
 40
0.0
  9
$AUNITS
 70
     0
  9
$AUPREC
 70
     0
  9
$MENU
  1
.
  9
$ELEVATION
 40
0.0
  9
$PELEVATION
 40
0.0
  9
$THICKNESS
 40
0.0
  9
$LIMCHECK
 70
     0
  9
$CHAMFERA
 40
0.0
  9
$CHAMFERB
 40
0.0
  9
$CHAMFERC
 40
0.0
  9
$CHAMFERD
 40
0.0
  9
$SKPOLY
 70
     0
  9
$TDCREATE
 40
2460369.362002315
  9
$TDUCREATE
 40
2460369.320335648
  9
$TDUPDATE
 40
2460369.362002315
  9
$TDUUPDATE
 40
2460369.320335648
  9
$TDINDWG
 40
0.0000000000
  9
$TDUSRTIMER
 40
0.0000000000
  9
$USRTIMER
 70
     1
  9
$ANGBASE
 50
0.0
  9
$ANGDIR
 70
     0
  9
$PDMODE
 70
     0
  9
$PDSIZE
 40
0.0
  9
$PLINEWID
 40
0.0
  9
$SPLFRAME
 70
     0
  9
$SPLINETYPE
 70
     6
  9
$SPLINESEGS
 70
     8
  9
$HANDSEED
  5
257
  9
$SURFTAB1
 70
     6
  9
$SURFTAB2
 70
     6
  9
$SURFTYPE
 70
     6
  9
$SURFU
 70
     6
  9
$SURFV
 70
     6
  9
$UCSBASE
  2

  9
$UCSNAME
  2

  9
$UCSORG
 10
0.0
 20
0.0
 30
0.0
  9
$UCSXDIR
 10
1.0
 20
0.0
 30
0.0
  9
$UCSYDIR
 10
0.0
 20
1.0
 30
0.0
  9
$UCSORTHOREF
  2

  9
$UCSORTHOVIEW
 70
     0
  9
$UCSORGTOP
 10
0.0
 20
0.0
 30
0.0
  9
$UCSORGBOTTOM
 10
0.0
 20
0.0
 30
0.0
  9
$UCSORGLEFT
 10
0.0
 20
0.0
 30
0.0
  9
$UCSORGRIGHT
 10
0.0
 20
0.0
 30
0.0
  9
$UCSORGFRONT
 10
0.0
 20
0.0
 30
0.0
  9
$UCSORGBACK
 10
0.0
 20
0.0
 30
0.0
  9
$PUCSBASE
  2

  9
$PUCSNAME
  2

  9
$PUCSORG
 10
0.0
 20
0.0
 30
0.0
  9
$PUCSXDIR
 10
1.0
 20
0.0
 30
0.0
  9
$PUCSYDIR
 10
0.0
 20
1.0
 30
0.0
  9
$PUCSORTHOREF
  2

  9
$PUCSORTHOVIEW
 70
     0
  9
$PUCSORGTOP
 10
0.0
 20
0.0
 30
0.0
  9
$PUCSORGBOTTOM
 10
0.0
 20
0.0
 30
0.0
  9
$PUCSORGLEFT
 10
0.0
 20
0.0
 30
0.0
  9
$PUCSORGRIGHT
 10
0.0
 20
0.0
 30
0.0
  9
$PUCSORGFRONT
 10
0.0
 20
0.0
 30
0.0
  9
$PUCSORGBACK
 10
0.0
 20
0.0
 30
0.0
  9
$USERI1
 70
     0
  9
$USERI2
 70
     0
  9
$USERI3
 70
     0
  9
$USERI4
 70
     0
  9
$USERI5
 70
     0
  9
$USERR1
 40
0.0
  9
$USERR2
 40
0.0
  9
$USERR3
 40
0.0
  9
$USERR4
 40
0.0
  9
$USERR5
 40
0.0
  9
$WORLDVIEW
 70
     1
  9
$SHADEDGE
 70
     3
  9
$SHADEDIF
 70
    70
  9
$TILEMODE
 70
     1
  9
$MAXACTVP
 70
    64
  9
$PINSBASE
 10
0.0
 20
0.0
 30
0.0
  9
$PLIMCHECK
 70
     0
  9
$PEXTMIN
 10
1.000000000000000E+20
 20
1.000000000000000E+20
 30
1.000000000000000E+20
  9
$PEXTMAX
 10
-1.000000000000000E+20
 20
-1.000000000000000E+20
 30
-1.000000000000000E+20
  9
$PLIMMIN
 10
0.0
 20
0.0
  9
$PLIMMAX
 10
12.0
 20
9.0
  9
$UNITMODE
 70
     0
  9
$VISRETAIN
 70
     1
  9
$PLINEGEN
 70
     0
  9
$PSLTSCALE
 70
     1
  9
$TREEDEPTH
 70
  3020
  9
$CMLSTYLE
  2
Standard
  9
$CMLJUST
 70
     0
  9
$CMLSCALE
 40
1.0
  9
$PROXYGRAPHICS
 70
     1
  9
$MEASUREMENT
 70
     0
  9
$CELWEIGHT
370
    -1
  9
$ENDCAPS
280
     0
  9
$JOINSTYLE
280
     0
  9
$LWDISPLAY
290
     1
  9
$INSUNITS
 70
     4
  9
$HYPERLINKBASE
  1

  9
$STYLESHEET
  1

  9
$XEDIT
290
     1
  9
$CEPSNTYPE
380
     0
  9
$PSTYLEMODE
290
     1
  9
$FINGERPRINTGUID
  2
{A825B54F-601C-1046-873B-43C2306E5634}
  9
$VERSIONGUID
  2
{75778397-022B-064A-B45C-E7B7B60450D4}
  9
$EXTNAMES
290
     1
  9
$PSVPSCALE
 40
0.0
  9
$OLESTARTUP
290
     0
  9
$SORTENTS
280
   127
  9
$INDEXCTL
280
     0
  9
$HIDETEXT
280
     1
  9
$XCLIPFRAME
280
     2
  9
$HALOGAP
280
     0
  9
$OBSCOLOR
 70
   257
  9
$OBSLTYPE
280
     0
  9
$INTERSECTIONDISPLAY
280
     0
  9
$INTERSECTIONCOLOR
 70
   257
  9
$DIMASSOC
280
     2
  9
$PROJECTNAME
  1

  9
$CAMERADISPLAY
290
     0
  9
$LENSLENGTH
 40
50.0
  9
$CAMERAHEIGHT
 40
0.0
  9
$STEPSPERSEC
 40
2.0
  9
$STEPSIZE
 40
6.0
  9
$3DDWFPREC
 40
2.0
  9
$PSOLWIDTH
 40
0.25
  9
$PSOLHEIGHT
 40
4.0
  9
$LOFTANG1
 40
1.570796326794896
  9
$LOFTANG2
 40
1.570796326794896
  9
$LOFTMAG1
 40
0.0
  9
$LOFTMAG2
 40
0.0
  9
$LOFTPARAM
 70
     7
  9
$LOFTNORMALS
280
     1
  9
$LATITUDE
 40
37.795
  9
$LONGITUDE
 40
-122.394
  9
$NORTHDIRECTION
 40
0.0
  9
$TIMEZONE
 70
 -8000
  9
$LIGHTGLYPHDISPLAY
280
     1
  9
$TILEMODELIGHTSYNCH
280
     1
  9
$CMATERIAL
347
11
  9
$SOLIDHIST
280
     0
  9
$SHOWHIST
280
     1
  9
$DWFFRAME
280
     2
  9
$DGNFRAME
280
     0
  9
$REALWORLDSCALE
290
     1
  9
$INTERFERECOLOR
 62
     1
  9
$INTERFEREOBJVS
345
33
  9
$INTERFEREVPVS
346
30
  9
$CSHADOW
280
     0
  9
$SHADOWPLANELOCATION
 40
0.0
  0
ENDSEC
  0
SECTION
  2
CLASSES
  0
CLASS
  1
ACDBDICTIONARYWDFLT
  2
AcDbDictionaryWithDefault
  3
ObjectDBX Classes
 90
        0
 91
        1
280
     0
281
     0
  0
CLASS
  1
MATERIAL
  2
AcDbMaterial
  3
ObjectDBX Classes
 90
     1153
 91
        3
280
     0
281
     0
  0
CLASS
  1
VISUALSTYLE
  2
AcDbVisualStyle
  3
ObjectDBX Classes
 90
     4095
 91
       24
280
     0
281
     0
  0
CLASS
  1
SCALE
  2
AcDbScale
  3
ObjectDBX Classes
 90
     1153
 91
       17
280
     0
281
     0
  0
CLASS
  1
TABLESTYLE
  2
AcDbTableStyle
  3
ObjectDBX Classes
 90
     4095
 91
        1
280
     0
281
     0
  0
CLASS
  1
MLEADERSTYLE
  2
AcDbMLeaderStyle
  3
ACDB_MLEADERSTYLE_CLASS
 90
     4095
 91
        1
280
     0
281
     0
  0
CLASS
  1
ACDBSECTIONVIEWSTYLE
  2
AcDbSectionViewStyle
  3
ObjectDBX Classes
 90
     1025
 91
        1
280
     0
281
     0
  0
CLASS
  1
ACDBDETAILVIEWSTYLE
  2
AcDbDetailViewStyle
  3
ObjectDBX Classes
 90
     1025
 91
        1
280
     0
281
     0
  0
CLASS
  1
DICTIONARYVAR
  2
AcDbDictionaryVar
  3
ObjectDBX Classes
 90
        0
 91
        5
280
     0
281
     0
  0
CLASS
  1
CELLSTYLEMAP
  2
AcDbCellStyleMap
  3
ObjectDBX Classes
 90
     1152
 91
        1
280
     0
281
     0
  0
ENDSEC
  0
SECTION
  2
TABLES
  0
TABLE
  2
VPORT
  5
8
330
0
100
AcDbSymbolTable
 70
     1
  0
VPORT
  5
57
330
8
100
AcDbSymbolTableRecord
100
AcDbViewportTableRecord
  2
*Active
 70
     0
 10
0.0
 20
0.0
 11
1.0
 21
1.0
 12
0.0
 22
0.0
 13
0.0
 23
0.0
 14
1.0
 24
1.0
 15
0.0
 25
0.0
 16
0.0
 26
0.0
 36
1.0
 17
127.7629226258091
 27
81.88504392093477
 37
0.0
 40
40.14974899308439
 41
1.70661377371018
 42
50.0
 43
0.0
 44
0.0
 50
0.0
 51
0.0
 71
     0
 72
   100
 73
     1
 74
     1
 75
     0
 76
     0
 77
     0
 78
     0
281
     0
 65
     1
110
0.0
120
0.0
130
0.0
111
1.0
121
0.0
131
0.0
112
0.0
122
1.0
132
0.0
 79
     0
146
0.0
 60
     3
 61
     5
292
     1
282
     1
141
0.0
142
0.0
 63
   250
421
  3355443
  0
ENDTAB
  0
TABLE
  2
LTYPE
  5
5
330
0
100
AcDbSymbolTable
 70
     4
  0
LTYPE
  5
5B
330
5
100
AcDbSymbolTableRecord
100
AcDbLinetypeTableRecord
  2
ByBlock
 70
     0
  3

 72
    65
 73
     0
 40
0.0
  0
LTYPE
  5
5C
330
5
100
AcDbSymbolTableRecord
100
AcDbLinetypeTableRecord
  2
ByLayer
 70
     0
  3

 72
    65
 73
     0
 40
0.0
  0
LTYPE
  5
5D
330
5
100
AcDbSymbolTableRecord
100
AcDbLinetypeTableRecord
  2
Continuous
 70
     0
  3
Solid line
 72
    65
 73
     0
 40
0.0
  0
LTYPE
  5
AA
330
5
100
AcDbSymbolTableRecord
100
AcDbLinetypeTableRecord
  2
AI-Linetype-0
 70
     0
  3
Adobe Illustrator Linetype No. 0
 72
    65
 73
     4
 40
4.938888887654167
 49
1.763888888447916
 74
     0
 49
-0.7055555553791667
 74
     0
 49
1.763888888447916
 74
     0
 49
-0.7055555553791667
 74
     0
  0
LTYPE
  5
AC
330
5
100
AcDbSymbolTableRecord
100
AcDbLinetypeTableRecord
  2
AI-Linetype-1
 70
     0
  3
Adobe Illustrator Linetype No. 1
 72
    65
 73
     4
 40
4.938888887654167
 49
1.763888888447916
 74
     0
 49
-0.7055555553791667
 74
     0
 49
1.763888888447916
 74
     0
 49
-0.7055555553791667
 74
     0
  0
LTYPE
  5
BB
330
5
100
AcDbSymbolTableRecord
100
AcDbLinetypeTableRecord
  2
AI-Linetype-2
 70
     0
  3
Adobe Illustrator Linetype No. 2
 72
    65
 73
     4
 40
8.819444442239584
 49
7.055555553791666
 74
     0
 49
-0.7055555553791667
 74
     0
 49
0.3527777776895833
 74
     0
 49
-0.7055555553791667
 74
     0
  0
ENDTAB
  0
TABLE
  2
LAYER
  5
2
330
0
100
AcDbSymbolTable
 70
     5
  0
LAYER
  5
54
330
2
100
AcDbSymbolTableRecord
100
AcDbLayerTableRecord
  2
0
 70
     0
 62
     7
  6
Continuous
370
    -3
390
F
347
21
348
0
  0
LAYER
  5
78
330
2
100
AcDbSymbolTableRecord
100
AcDbLayerTableRecord
  2
grau 10%
 70
     4
 62
     7
  6
Continuous
370
     0
390
F
347
21
348
0
  0
LAYER
  5
79
330
2
100
AcDbSymbolTableRecord
100
AcDbLayerTableRecord
  2
Standardebene
 70
     0
 62
     7
  6
Continuous
370
     0
390
F
347
21
348
0
  0
LAYER
  5
BD
330
2
100
AcDbSymbolTableRecord
100
AcDbLayerTableRecord
  2
Bemaßung
 70
     5
 62
     7
  6
Continuous
370
     0
390
F
347
21
348
0
  0
LAYER
  5
243
330
2
100
AcDbSymbolTableRecord
100
AcDbLayerTableRecord
  2
Text
 70
     5
 62
     7
  6
Continuous
370
     0
390
F
347
21
348
0
  0
ENDTAB
  0
TABLE
  2
STYLE
  5
3
330
0
100
AcDbSymbolTable
 70
     2
  0
STYLE
  5
55
330
3
100
AcDbSymbolTableRecord
100
AcDbTextStyleTableRecord
  2
Standard
 70
     0
 40
0.0
 41
1.0
 50
0.0
 71
     0
 42
0.2
  3
txt
  4

  0
STYLE
  5
5A
330
3
100
AcDbSymbolTableRecord
100
AcDbTextStyleTableRecord
  2
Annotative
 70
     0
 40
0.0
 41
1.0
 50
0.0
 71
     0
 42
0.2
  3
txt
  4

1001
AcadAnnotative
1000
AnnotativeData
1002
{
1070
     1
1070
     1
1002
}
  0
ENDTAB
  0
TABLE
  2
VIEW
  5
6
330
0
100
AcDbSymbolTable
 70
     0
  0
ENDTAB
  0
TABLE
  2
UCS
  5
7
330
0
100
AcDbSymbolTable
 70
     0
  0
ENDTAB
  0
TABLE
  2
APPID
  5
9
330
0
100
AcDbSymbolTable
 70
     2
  0
APPID
  5
56
330
9
100
AcDbSymbolTableRecord
100
AcDbRegAppTableRecord
  2
ACAD
 70
     0
  0
APPID
  5
5E
330
9
100
AcDbSymbolTableRecord
100
AcDbRegAppTableRecord
  2
AcadAnnotative
 70
     0
  0
ENDTAB
  0
TABLE
  2
DIMSTYLE
  5
A
330
0
100
AcDbSymbolTable
 70
     2
100
AcDbDimStyleTable
 71
     0
  0
DIMSTYLE
105
58
330
A
100
AcDbSymbolTableRecord
100
AcDbDimStyleTableRecord
  2
Standard
 70
     0
340
55
  0
DIMSTYLE
105
59
330
A
100
AcDbSymbolTableRecord
100
AcDbDimStyleTableRecord
  2
Annotative
 70
     0
340
55
1001
AcadAnnotative
1000
AnnotativeData
1002
{
1070
     1
1070
     1
1002
}
  0
ENDTAB
  0
TABLE
  2
BLOCK_RECORD
  5
1
330
0
100
AcDbSymbolTable
 70
     4
  0
BLOCK_RECORD
  5
70
330
1
100
AcDbSymbolTableRecord
100
AcDbBlockTableRecord
  2
*Model_Space
340
73
 70
     0
280
     1
281
     0
  0
BLOCK_RECORD
  5
6C
330
1
100
AcDbSymbolTableRecord
100
AcDbBlockTableRecord
  2
*Paper_Space
340
6F
 70
     0
280
     1
281
     0
  0
BLOCK_RECORD
  5
74
330
1
100
AcDbSymbolTableRecord
100
AcDbBlockTableRecord
  2
*Paper_Space0
340
77
 70
     0
280
     1
281
     0
  0
BLOCK_RECORD
  5
7A
330
1
100
AcDbSymbolTableRecord
100
AcDbBlockTableRecord
  2
Block_0
340
0
102
{BLKREFS
331
7B
102
}
 70
     0
280
     1
281
     0
  0
BLOCK_RECORD
  5
7E
330
1
100
AcDbSymbolTableRecord
100
AcDbBlockTableRecord
  2
Block_1
340
0
102
{BLKREFS
331
7F
102
}
 70
     0
280
     1
281
     0
  0
BLOCK_RECORD
  5
82
330
1
100
AcDbSymbolTableRecord
100
AcDbBlockTableRecord
  2
Block_2
340
0
102
{BLKREFS
331
83
102
}
 70
     0
280
     1
281
     0
  0
ENDTAB
  0
ENDSEC
  0
SECTION
  2
BLOCKS
  0
BLOCK
  5
71
330
70
100
AcDbEntity
  8
0
100
AcDbBlockBegin
  2
*Model_Space
 70
     0
 10
0.0
 20
0.0
 30
0.0
  3
*Model_Space
  1

  0
ENDBLK
  5
72
330
70
100
AcDbEntity
  8
0
100
AcDbBlockEnd
  0
BLOCK
  5
6D
330
6C
100
AcDbEntity
 67
     1
  8
0
100
AcDbBlockBegin
  2
*Paper_Space
 70
     0
 10
0.0
 20
0.0
 30
0.0
  3
*Paper_Space
  1

  0
ENDBLK
  5
6E
330
6C
100
AcDbEntity
 67
     1
  8
0
100
AcDbBlockEnd
  0
BLOCK
  5
75
330
74
100
AcDbEntity
 67
     1
  8
0
100
AcDbBlockBegin
  2
*Paper_Space0
 70
     0
 10
0.0
 20
0.0
 30
0.0
  3
*Paper_Space0
  1

  0
ENDBLK
  5
76
330
74
100
AcDbEntity
 67
     1
  8
0
100
AcDbBlockEnd
  0
BLOCK
  5
7C
330
7A
100
AcDbEntity
  8
0
100
AcDbBlockBegin
  2
Block_0
 70
     0
 10
0.0
 20
0.0
 30
0.0
  3
Block_0
  1

  0
INSERT
  5
7F
330
7A
100
AcDbEntity
  8
Standardebene
100
AcDbBlockReference
  2
Block_1
 10
0.0
 20
0.0
 30
0.0
  0
INSERT
  5
83
330
7A
100
AcDbEntity
  8
Standardebene
100
AcDbBlockReference
  2
Block_2
 10
0.0
 20
0.0
 30
0.0
  0
ENDBLK
  5
7D
330
7A
100
AcDbEntity
  8
0
100
AcDbBlockEnd
  0
BLOCK
  5
80
330
7E
100
AcDbEntity
  8
0
100
AcDbBlockBegin
  2
Block_1
 70
     0
 10
0.0
 20
0.0
 30
0.0
  3
Block_1
  1

  0
ENDBLK
  5
81
330
7E
100
AcDbEntity
  8
0
100
AcDbBlockEnd
  0
BLOCK
  5
84
330
82
100
AcDbEntity
  8
0
100
AcDbBlockBegin
  2
Block_2
 70
     0
 10
0.0
 20
0.0
 30
0.0
  3
Block_2
  1

  0
LINE
  5
86
330
82
100
AcDbEntity
  8
Standardebene
 62
     7
370
    35
100
AcDbLine
 10
102.6627348192149
 20
101.3899045385039
 30
0.0
 11
101.2580392545666
 21
99.98520897385494
 31
0.0
  0
LWPOLYLINE
  5
87
330
82
100
AcDbEntity
  8
Standardebene
 62
     7
370
    35
100
AcDbPolyline
 90
        7
 70
     0
 43
0.0
 10
101.2580392545666
 20
95.61076890494861
 10
101.2580392545666
 20
96.88718176962964
 10
101.2580392545666
 20
97.97117058435841
 10
101.2580392545666
 20
98.83707880914187
 10
101.2580392545666
 20
99.47207817398316
 10
101.2580392545666
 20
99.85692627388701
 10
101.2580392545666
 20
99.98520897385494
  0
LWPOLYLINE
  5
88
330
82
100
AcDbEntity
  8
Standardebene
 62
     7
370
    35
100
AcDbPolyline
 90
        7
 70
     0
 43
0.0
 10
102.6627348192149
 20
97.63122142944359
 10
102.6627348192149
 20
98.74086678416608
 10
102.6627348192149
 20
99.67091635893384
 10
102.6627348192149
 20
100.4149560187477
 10
102.6627348192149
 20
100.9537433586132
 10
102.6627348192149
 20
101.2744501085328
 10
102.6627348192149
 20
101.3899045385039
  0
LWPOLYLINE
  5
89
330
82
100
AcDbEntity
  8
Standardebene
 62
     7
370
    35
100
AcDbPolyline
 90
        5
 70
     0
 43
0.0
 10
102.6627348192149
 20
97.63122142944359
 10
102.2971291243063
 20
97.13091889956867
 10
101.9443516993946
 20
96.63061636969374
 10
101.5979884094814
 20
96.12389970482041
 10
101.2580392545666
 20
95.61076890494861
  0
LWPOLYLINE
  5
8A
330
82
100
AcDbEntity
  8
Standardebene
 62
     7
370
    35
100
AcDbPolyline
 90
        8
 70
     0
 43
0.0
 10
101.2580392545666
 20
74.98932488510431
 10
102.6627348192149
 20
73.58462932045535
 10
102.6627348192149
 20
73.69366961542801
 10
102.6627348192149
 20
74.02079050034598
 10
102.6627348192149
 20
74.55957784021148
 10
102.6627348192149
 20
75.29720336502698
 10
102.6627348192149
 20
76.23366707479317
 10
102.6627348192149
 20
77.33689829451724
  0
LWPOLYLINE
  5
8B
330
82
100
AcDbEntity
  8
Standardebene
 62
     7
370
    35
100
AcDbPolyline
 90
       12
 70
     0
 43
0.0
 10
101.2580392545666
 20
74.98932488510431
 10
101.2580392545666
 20
75.11760758507225
 10
101.2580392545666
 20
75.50245568497608
 10
101.2580392545666
 20
76.13104091481895
 10
101.2580392545666
 20
77.00336327460084
 10
101.2580392545666
 20
78.08735208932962
 10
101.2580392545666
 20
79.36376495401063
 10
101.5979884094814
 20
78.85063415413886
 10
101.9443516993946
 20
78.34391748926551
 10
102.2971291243063
 20
77.83720082439216
 10
102.6627348192149
 20
77.33689829451724
 10
136.112448835853
 20
77.33689829451724
  0
LINE
  5
8C
330
82
100
AcDbEntity
  8
Standardebene
 62
     7
370
    35
100
AcDbLine
 10
97.26203315056501
 20
79.36376495401063
 30
0.0
 11
101.2580392545666
 21
79.36376495401063
 31
0.0
  0
LWPOLYLINE
  5
8D
330
82
100
AcDbEntity
  8
Standardebene
 62
     7
370
    35
100
AcDbPolyline
 90
        7
 70
     0
 43
0.0
 10
97.26203315056501
 20
95.61076890494861
 10
97.26203315056501
 20
91.48648010097977
 10
97.26203315056501
 20
91.19142989105329
 10
97.26203315056501
 20
87.49688813197726
 10
97.26203315056501
 20
83.77668983290751
 10
97.26203315056501
 20
83.48805375797949
 10
97.26203315056501
 20
79.36376495401063
  0
LINE
  5
8E
330
82
100
AcDbEntity
  8
Standardebene
 62
     7
370
    35
100
AcDbLine
 10
101.2580392545666
 20
95.61076890494861
 30
0.0
 11
97.26203315056501
 21
95.61076890494861
 31
0.0
  0
LINE
  5
8F
330
82
100
AcDbEntity
  8
Standardebene
 62
     7
370
    35
100
AcDbLine
 10
136.112448835853
 20
97.63122142944359
 30
0.0
 11
102.6627348192149
 21
97.63122142944359
 31
0.0
  0
LWPOLYLINE
  5
90
330
82
100
AcDbEntity
  8
Standardebene
 62
     7
370
    35
100
AcDbPolyline
 90
       60
 70
     0
 43
0.0
 10
136.112448835853
 20
77.33689829451724
 10
136.5165393407514
 20
77.90775630937424
 10
136.9206298456506
 20
78.47861432423188
 10
137.3118920805528
 20
79.05588647408731
 10
137.6903260454582
 20
79.64598689394023
 10
138.0623458753652
 20
80.23608731379253
 10
138.4151233002769
 20
80.83901600364168
 10
138.7550724551917
 20
81.45477296348767
 10
139.0821933401103
 20
82.08335819333054
 10
139.1591629600908
 20
82.2372974332922
 10
139.236132580072
 20
82.39765080825229
 10
139.3066880650541
 20
82.55800418321173
 10
139.3836576850346
 20
82.71835755817184
 10
139.5247686549994
 20
83.04547844308979
 10
139.6530513549673
 20
83.36618519300998
 10
139.6979502999563
 20
83.48805375797949
 10
139.8967884849063
 20
84.026841097845
 10
140.1084549398539
 20
84.69391113767779
 10
140.2816365848102
 20
85.37380944750807
 10
140.4035051497797
 20
86.06653602733459
 10
140.4291616897734
 20
86.23971767229155
 10
140.4484040947687
 20
86.41931345224692
 10
140.4612323647655
 20
86.50911134222429
 10
140.467646499764
 20
86.59249509720323
 10
140.4740606347624
 20
86.6822929871806
 10
140.4804747697608
 20
86.7720908771586
 10
140.5061313097546
 20
87.1248683020703
 10
140.5125454447523
 20
87.47764572698198
 10
140.5125454447523
 20
87.49688813197726
 10
140.5061313097546
 20
87.83042315189367
 10
140.4868889047593
 20
88.18320057680535
 10
140.4548182297671
 20
88.52956386671925
 10
140.4099192847781
 20
88.87592715663251
 10
140.3521920697929
 20
89.22229044654576
 10
140.2816365848102
 20
89.56865373645902
 10
140.2431517748202
 20
89.74183538141597
 10
140.2046669648297
 20
89.91501702637291
 10
140.1854245598344
 20
89.99840078135186
 10
140.1597680198406
 20
90.08819867132922
 10
140.1405256148454
 20
90.17158242630882
 10
140.1148690748523
 20
90.26138031628617
 10
140.0122429148774
 20
90.59491533620258
 10
139.9032026199048
 20
90.93486449111741
 10
139.7877481899337
 20
91.26198537603603
 10
139.7043644349547
 20
91.48648010097977
 10
139.6594654899657
 20
91.59552039595242
 10
139.390071820033
 20
92.23693389579214
 10
139.0886074751088
 20
92.87193326063343
 10
138.7679007251886
 20
93.49410435547786
 10
138.4279515702737
 20
94.10986131532387
 10
138.248355790319
 20
94.41773979524718
 10
138.0687600103636
 20
94.71920414017144
 10
137.9789621203863
 20
94.87314338013311
 10
137.8827500954098
 20
95.02066848509633
 10
137.7929522054325
 20
95.16819359005955
 10
137.6967401804566
 20
95.32213283002057
 10
137.3118920805528
 20
95.90581911487509
 10
136.9206298456506
 20
96.48950539972894
 10
136.5165393407514
 20
97.06677754958501
 10
136.112448835853
 20
97.63122142944359
  0
LINE
  5
91
330
82
100
AcDbEntity
  8
Standardebene
 62
     7
370
    35
100
AcDbLine
 10
136.112448835853
 20
73.58462932045535
 30
0.0
 11
141.2629992395647
 21
78.73517972416776
 31
0.0
  0
LINE
  5
92
330
82
100
AcDbEntity
  8
Standardebene
 62
     7
370
    35
100
AcDbLine
 10
141.2629992395647
 20
96.23935413479149
 30
0.0
 11
136.112448835853
 21
101.3899045385039
 31
0.0
  0
LWPOLYLINE
  5
93
330
82
100
AcDbEntity
  8
Standardebene
 62
     7
370
    35
100
AcDbPolyline
 90
        7
 70
     0
 43
0.0
 10
136.112448835853
 20
97.63122142944359
 10
136.112448835853
 20
98.74086678416608
 10
136.112448835853
 20
99.67091635893384
 10
136.112448835853
 20
100.4149560187477
 10
136.112448835853
 20
100.9537433586132
 10
136.112448835853
 20
101.2744501085328
 10
136.112448835853
 20
101.3899045385039
  0
LWPOLYLINE
  5
94
330
82
100
AcDbEntity
  8
Standardebene
 62
     7
370
    35
100
AcDbPolyline
 90
        7
 70
     0
 43
0.0
 10
136.112448835853
 20
73.58462932045535
 10
136.112448835853
 20
73.69366961542801
 10
136.112448835853
 20
74.02079050034598
 10
136.112448835853
 20
74.55957784021148
 10
136.112448835853
 20
75.29720336502698
 10
136.112448835853
 20
76.23366707479317
 10
136.112448835853
 20
77.33689829451724
  0
LWPOLYLINE
  5
95
330
82
100
AcDbEntity
  8
Standardebene
 62
     7
370
    35
100
AcDbPolyline
 90
       24
 70
     0
 43
0.0
 10
141.2629992395647
 20
78.73517972416776
 10
141.2629992395647
 20
78.84422001914042
 10
141.2629992395647
 20
79.16492676905996
 10
141.2629992395647
 20
79.69088583892859
 10
141.2629992395647
 20
80.40926895874882
 10
141.2629992395647
 20
81.30083372352601
 10
141.2629992395647
 20
82.34633772826486
 10
141.2629992395647
 20
83.48805375797949
 10
141.2629992395647
 20
83.5137102979732
 10
141.2629992395647
 20
84.78370902765579
 10
141.2629992395647
 20
86.11784910732202
 10
141.2629992395647
 20
87.48405986198042
 10
141.2629992395647
 20
87.49688813197726
 10
141.2629992395647
 20
88.85668475163722
 10
141.2629992395647
 20
90.19082483130345
 10
141.2629992395647
 20
91.46082356098604
 10
141.2629992395647
 20
91.48648010097977
 10
141.2629992395647
 20
92.62819613069439
 10
141.2629992395647
 20
93.67370013543323
 10
141.2629992395647
 20
94.56526490021042
 10
141.2629992395647
 20
95.28364802003066
 10
141.2629992395647
 20
95.80960708989929
 10
141.2629992395647
 20
96.13031383981883
 10
141.2629992395647
 20
96.23935413479149
  0
LINE
  5
96
330
82
100
AcDbEntity
  8
Standardebene
 62
     7
370
    35
100
AcDbLine
 10
97.26203315056501
 20
74.98932488510431
 30
0.0
 11
101.2580392545666
 21
74.98932488510431
 31
0.0
  0
LWPOLYLINE
  5
97
330
82
100
AcDbEntity
  8
Standardebene
 62
     7
370
    35
100
AcDbPolyline
 90
        9
 70
     0
 43
0.0
 10
97.26203315056501
 20
74.98932488510431
 10
97.26203315056501
 20
75.11760758507225
 10
97.26203315056501
 20
75.50245568497608
 10
97.26203315056501
 20
76.13104091481895
 10
97.26203315056501
 20
77.00336327460084
 10
97.26203315056501
 20
78.08735208932962
 10
97.26203315056501
 20
78.73517972416776
 10
97.26203315056501
 20
78.86346242413572
 10
97.26203315056501
 20
79.36376495401063
  0
LINE
  5
98
330
82
100
AcDbEntity
  8
Standardebene
 62
     7
370
    35
100
AcDbLine
 10
101.2580392545666
 20
99.98520897385494
 30
0.0
 11
97.26203315056501
 21
99.98520897385494
 31
0.0
  0
LWPOLYLINE
  5
99
330
82
100
AcDbEntity
  8
Standardebene
 62
     7
370
    35
100
AcDbPolyline
 90
        9
 70
     0
 43
0.0
 10
97.26203315056501
 20
95.61076890494861
 10
97.26203315056501
 20
96.10465729982511
 10
97.26203315056501
 20
96.23935413479149
 10
97.26203315056501
 20
96.88718176962964
 10
97.26203315056501
 20
97.97117058435841
 10
97.26203315056501
 20
98.83707880914187
 10
97.26203315056501
 20
99.47207817398316
 10
97.26203315056501
 20
99.85692627388701
 10
97.26203315056501
 20
99.98520897385494
  0
LINE
  5
9A
330
82
100
AcDbEntity
  8
Standardebene
 62
     7
370
    35
100
AcDbLine
 10
136.112448835853
 20
101.3899045385039
 30
0.0
 11
102.6627348192149
 21
101.3899045385039
 31
0.0
  0
LINE
  5
9B
330
82
100
AcDbEntity
  8
Standardebene
 62
     7
370
    35
100
AcDbLine
 10
141.2629992395647
 20
78.73517972416776
 30
0.0
 11
156.259246865816
 21
78.73517972416776
 31
0.0
  0
LINE
  5
9C
330
82
100
AcDbEntity
  8
Standardebene
 62
     7
370
    35
100
AcDbLine
 10
156.259246865816
 20
96.23935413479149
 30
0.0
 11
141.2629992395647
 21
96.23935413479149
 31
0.0
  0
LWPOLYLINE
  5
9D
330
82
100
AcDbEntity
  8
Standardebene
 62
     7
370
    35
100
AcDbPolyline
 90
        3
 70
     0
 43
0.0
 10
156.259246865816
 20
96.2201117297962
 10
156.259246865816
 20
96.23293999979305
 10
156.259246865816
 20
96.23935413479149
  0
LWPOLYLINE
  5
9E
330
82
100
AcDbEntity
  8
Standardebene
 62
     7
370
    35
100
AcDbPolyline
 90
        3
 70
     0
 43
0.0
 10
156.259246865816
 20
78.73517972416776
 10
156.259246865816
 20
78.7415938591662
 10
156.259246865816
 20
78.75442212916306
  0
LINE
  5
9F
330
82
100
AcDbEntity
  8
Standardebene
 62
     7
370
    35
100
AcDbLine
 10
97.26203315056501
 20
96.23935413479149
 30
0.0
 11
96.26142809081517
 21
96.23935413479149
 31
0.0
  0
LWPOLYLINE
  5
A0
330
82
100
AcDbEntity
  8
Standardebene
 62
     7
370
    35
100
AcDbPolyline
 90
        3
 70
     0
 43
0.0
 10
96.26142809081517
 20
96.10465729982511
 10
96.26142809081517
 20
96.20086932480091
 10
96.26142809081517
 20
96.23935413479149
  0
LINE
  5
A1
330
82
100
AcDbEntity
  8
Standardebene
 62
     7
370
    35
100
AcDbLine
 10
96.26142809081517
 20
78.73517972416776
 30
0.0
 11
97.26203315056501
 21
78.73517972416776
 31
0.0
  0
LWPOLYLINE
  5
A2
330
82
100
AcDbEntity
  8
Standardebene
 62
     7
370
    35
100
AcDbPolyline
 90
        3
 70
     0
 43
0.0
 10
96.26142809081517
 20
78.73517972416776
 10
96.26142809081517
 20
78.76725039915992
 10
96.26142809081517
 20
78.86346242413572
  0
SPLINE
  5
A3
330
82
100
AcDbEntity
  8
Standardebene
 62
     7
370
    35
100
AcDbSpline
210
0.0
220
0.0
230
1.0
 70
     9
 71
     3
 72
    23
 73
    19
 74
     0
 42
0.0000000001
 43
0.0000000001
 40
0.0
 40
0.0
 40
0.0
 40
0.0
 40
1.0
 40
1.0
 40
1.0
 40
2.0
 40
2.0
 40
2.0
 40
3.0
 40
3.0
 40
3.0
 40
4.0
 40
4.0
 40
4.0
 40
5.0
 40
5.0
 40
5.0
 40
6.0
 40
6.0
 40
6.0
 40
6.0
 10
120.263121254815
 20
87.48405986198042
 30
0.0
 10
120.263121254815
 20
87.49047399697884
 30
0.0
 10
120.263121254815
 20
87.49047399697884
 30
0.0
 10
120.263121254815
 20
87.49688813197726
 30
0.0
 10
120.2567071198166
 20
89.15173496156368
 30
0.0
 10
118.9097387701535
 20
90.48587504122991
 30
0.0
 10
117.2613060755655
 20
90.48587504122991
 30
0.0
 10
115.6064592459791
 20
90.48587504122991
 30
0.0
 10
114.2659050313144
 20
89.15173496156368
 30
0.0
 10
114.259490896316
 20
87.49688813197726
 30
0.0
 10
114.259490896316
 20
87.49047399697884
 30
0.0
 10
114.259490896316
 20
87.49047399697884
 30
0.0
 10
114.259490896316
 20
87.48405986198042
 30
0.0
 10
114.259490896316
 20
85.829213032394
 30
0.0
 10
115.6000451109806
 20
84.48865881772933
 30
0.0
 10
117.2613060755655
 20
84.48865881772933
 30
0.0
 10
118.9161529051519
 20
84.48865881772933
 30
0.0
 10
120.263121254815
 20
85.829213032394
 30
0.0
 10
120.263121254815
 20
87.48405986198042
 30
0.0
  0
LWPOLYLINE
  5
A4
330
82
100
AcDbEntity
  8
Standardebene
 62
     7
370
    35
100
AcDbPolyline
 90
       33
 70
     0
 43
0.0
 10
155.2586418060662
 20
96.10465729982511
 10
155.3612679660404
 20
96.11107143482355
 10
155.4574799910162
 20
96.11107143482355
 10
155.5023789360052
 20
96.11107143482355
 10
155.553692015992
 20
96.11748556982197
 10
155.5729344209873
 20
96.11748556982197
 10
155.5985909609811
 20
96.11748556982197
 10
155.6178333659763
 20
96.11748556982197
 10
155.64348990597
 20
96.11748556982197
 10
155.7332877959474
 20
96.12389970482041
 10
155.8166715509264
 20
96.13672797481726
 10
155.8359139559217
 20
96.13672797481726
 10
155.8551563609169
 20
96.13672797481726
 10
155.8743987659122
 20
96.14314210981568
 10
155.8936411709075
 20
96.14314210981568
 10
155.9321259808974
 20
96.1495562448141
 10
155.9641966558896
 20
96.15597037981254
 10
156.0347521408723
 20
96.16238451481097
 10
156.0924793558575
 20
96.17521278480783
 10
156.1053076258544
 20
96.17521278480783
 10
156.1181358958513
 20
96.17521278480783
 10
156.1309641658481
 20
96.18162691980627
 10
156.143792435845
 20
96.18162691980627
 10
156.1630348408403
 20
96.18804105480469
 10
156.1822772458349
 20
96.19445518980313
 10
156.2015196508302
 20
96.19445518980313
 10
156.214347920827
 20
96.20086932480091
 10
156.2207620558255
 20
96.20086932480091
 10
156.2271761908239
 20
96.20728345979934
 10
156.2335903258223
 20
96.20728345979934
 10
156.2400044608208
 20
96.20728345979934
 10
156.2528327308176
 20
96.21369759479776
 10
156.259246865816
 20
96.2201117297962
  0
LINE
  5
A5
330
82
100
AcDbEntity
  8
Standardebene
 62
     7
370
    35
100
AcDbLine
 10
155.2586418060662
 20
96.10465729982511
 30
0.0
 11
151.2626357020653
 21
96.10465729982511
 31
0.0
  0
LWPOLYLINE
  5
A6
330
82
100
AcDbEntity
  8
Standardebene
 62
     7
370
    35
100
AcDbPolyline
 90
       24
 70
     0
 43
0.0
 10
151.2626357020653
 20
78.86346242413572
 10
151.2626357020653
 20
79.20341157905053
 10
151.2626357020653
 20
79.73578478391761
 10
151.2626357020653
 20
80.46058203873625
 10
151.2626357020653
 20
81.35214680351344
 10
151.2626357020653
 20
82.39123667325385
 10
151.2626357020653
 20
83.48805375797949
 10
151.2626357020653
 20
83.55219510796315
 10
151.2626357020653
 20
83.77668983290751
 10
151.2626357020653
 20
84.80936556764886
 10
151.2626357020653
 20
86.13067737731888
 10
151.2626357020653
 20
87.48405986198042
 10
151.2626357020653
 20
87.49688813197726
 10
151.2626357020653
 20
88.84385648164036
 10
151.2626357020653
 20
90.16516829131038
 10
151.2626357020653
 20
91.19142989105329
 10
151.2626357020653
 20
91.42233875099611
 10
151.2626357020653
 20
91.48648010097977
 10
151.2626357020653
 20
92.58329718570539
 10
151.2626357020653
 20
93.6223870554458
 10
151.2626357020653
 20
94.51395182022299
 10
151.2626357020653
 20
95.23233494004321
 10
151.2626357020653
 20
95.77112227990872
 10
151.2626357020653
 20
96.10465729982511
  0
LINE
  5
A7
330
82
100
AcDbEntity
  8
Standardebene
 62
     7
370
    35
100
AcDbLine
 10
151.2626357020653
 20
78.86346242413572
 30
0.0
 11
155.2586418060662
 21
78.86346242413572
 31
0.0
  0
LWPOLYLINE
  5
A8
330
82
100
AcDbEntity
  8
Standardebene
 62
     7
370
    35
100
AcDbPolyline
 90
       31
 70
     0
 43
0.0
 10
156.259246865816
 20
78.75442212916306
 10
156.2528327308176
 20
78.75442212916306
 10
156.2400044608208
 20
78.76725039915992
 10
156.2271761908239
 20
78.76725039915992
 10
156.214347920827
 20
78.77366453415771
 10
156.2015196508302
 20
78.78007866915613
 10
156.1822772458349
 20
78.78007866915613
 10
156.143792435845
 20
78.79290693915298
 10
156.0924793558575
 20
78.79932107415142
 10
156.0796510858607
 20
78.80573520914984
 10
156.0668228158638
 20
78.80573520914984
 10
156.0475804108692
 20
78.80573520914984
 10
156.0347521408723
 20
78.81214934414828
 10
156.0026814658802
 20
78.81214934414828
 10
155.970610790888
 20
78.8185634791467
 10
155.8936411709075
 20
78.83139174914356
 10
155.8166715509264
 20
78.837805884142
 10
155.7974291459317
 20
78.837805884142
 10
155.7781867409364
 20
78.84422001914042
 10
155.7525302009427
 20
78.84422001914042
 10
155.7332877959474
 20
78.84422001914042
 10
155.6883888509584
 20
78.85063415413886
 10
155.64348990597
 20
78.85063415413886
 10
155.5985909609811
 20
78.85704828913728
 10
155.553692015992
 20
78.85704828913728
 10
155.528035475999
 20
78.85704828913728
 10
155.5023789360052
 20
78.86346242413572
 10
155.48313653101
 20
78.86346242413572
 10
155.4574799910162
 20
78.86346242413572
 10
155.3612679660404
 20
78.86346242413572
 10
155.2586418060662
 20
78.86346242413572
  0
LWPOLYLINE
  5
A9
330
82
100
AcDbEntity
  8
Standardebene
  6
AI-Linetype-0
 62
     7
370
     9
100
AcDbPolyline
 90
        6
 70
     0
 43
0.0
 10
97.26203315056501
 20
83.48805375797949
 10
117.2613060755655
 20
83.48805375797949
 10
139.6979502999563
 20
83.48805375797949
 10
141.2629992395647
 20
83.48805375797949
 10
151.2626357020653
 20
83.48805375797949
 10
156.259246865816
 20
83.48805375797949
  0
LWPOLYLINE
  5
AB
330
82
100
AcDbEntity
  8
Standardebene
  6
AI-Linetype-1
 62
     7
370
     9
100
AcDbPolyline
 90
        6
 70
     0
 43
0.0
 10
156.259246865816
 20
91.48648010097977
 10
151.2626357020653
 20
91.48648010097977
 10
141.2629992395647
 20
91.48648010097977
 10
139.7043644349547
 20
91.48648010097977
 10
117.2613060755655
 20
91.48648010097977
 10
97.26203315056501
 20
91.48648010097977
  0
LWPOLYLINE
  5
AD
330
82
100
AcDbEntity
  8
Standardebene
 62
     7
370
    35
100
AcDbPolyline
 90
       31
 70
     0
 43
0.0
 10
155.2586418060662
 20
83.77668983290751
 10
155.3612679660404
 20
83.77668983290751
 10
155.4574799910162
 20
83.77027569790909
 10
155.5087930710037
 20
83.76386156291067
 10
155.553692015992
 20
83.76386156291067
 10
155.5793485559858
 20
83.75744742791225
 10
155.5985909609811
 20
83.75744742791225
 10
155.6242475009748
 20
83.75103329291382
 10
155.6499040409685
 20
83.75103329291382
 10
155.7332877959474
 20
83.73179088791852
 10
155.8166715509264
 20
83.71254848292323
 10
155.8615704959154
 20
83.70613434792479
 10
155.9000553059059
 20
83.69330607792795
 10
155.9321259808974
 20
83.68047780793109
 10
155.970610790888
 20
83.67406367293266
 10
156.0026814658802
 20
83.66123540293644
 10
156.0347521408723
 20
83.64840713293958
 10
156.0475804108692
 20
83.64199299794115
 10
156.0668228158638
 20
83.64199299794115
 10
156.0796510858607
 20
83.63557886294271
 10
156.0924793558575
 20
83.62916472794429
 10
156.143792435845
 20
83.60350818795058
 10
156.1822772458349
 20
83.58426578295528
 10
156.2015196508302
 20
83.57785164795686
 10
156.214347920827
 20
83.56502337795999
 10
156.2207620558255
 20
83.55860924296157
 10
156.2271761908239
 20
83.55860924296157
 10
156.2335903258223
 20
83.55219510796315
 10
156.2400044608208
 20
83.54578097296473
 10
156.2528327308176
 20
83.5329527029685
 10
156.259246865816
 20
83.52012443297164
  0
LINE
  5
AE
330
82
100
AcDbEntity
  8
Standardebene
 62
     7
370
    35
100
AcDbLine
 10
155.2586418060662
 20
83.77668983290751
 30
0.0
 11
151.2626357020653
 21
83.77668983290751
 31
0.0
  0
LINE
  5
AF
330
82
100
AcDbEntity
  8
Standardebene
 62
     7
370
    35
100
AcDbLine
 10
151.2626357020653
 20
91.19142989105329
 30
0.0
 11
155.2586418060662
 21
91.19142989105329
 31
0.0
  0
LWPOLYLINE
  5
B0
330
82
100
AcDbEntity
  8
Standardebene
 62
     7
370
    35
100
AcDbPolyline
 90
       31
 70
     0
 43
0.0
 10
156.259246865816
 20
91.4544094259876
 10
156.2528327308176
 20
91.44158115599074
 10
156.2400044608208
 20
91.42875288599453
 10
156.2271761908239
 20
91.41592461599769
 10
156.214347920827
 20
91.40951048099925
 10
156.2015196508302
 20
91.39668221100238
 10
156.1822772458349
 20
91.39026807600396
 10
156.143792435845
 20
91.36461153601024
 10
156.0924793558575
 20
91.34536913101497
 10
156.0796510858607
 20
91.33895499601653
 10
156.0668228158638
 20
91.3325408610181
 10
156.0475804108692
 20
91.32612672601966
 10
156.0347521408723
 20
91.32612672601966
 10
156.0026814658802
 20
91.3132984560228
 10
155.970610790888
 20
91.30047018602658
 10
155.9000553059059
 20
91.28122778103131
 10
155.8230856859248
 20
91.26198537603603
 10
155.7974291459317
 20
91.25557124103758
 10
155.7781867409364
 20
91.24915710603916
 10
155.7589443359411
 20
91.24274297104072
 10
155.7332877959474
 20
91.24274297104072
 10
155.6948029859569
 20
91.22991470104386
 10
155.6499040409685
 20
91.22350056604544
 10
155.5985909609811
 20
91.21708643104701
 10
155.553692015992
 20
91.21067229604859
 10
155.5344496109974
 20
91.21067229604859
 10
155.5087930710037
 20
91.20425816105015
 10
155.48313653101
 20
91.20425816105015
 10
155.4574799910162
 20
91.20425816105015
 10
155.3612679660404
 20
91.19784402605173
 10
155.2586418060662
 20
91.19142989105329
  0
LINE
  5
B1
330
82
100
AcDbEntity
  8
Standardebene
 62
     7
370
    35
100
AcDbLine
 10
96.26142809081517
 20
82.48744869822965
 30
0.0
 11
97.26203315056501
 21
83.48805375797949
 31
0.0
  0
LWPOLYLINE
  5
B2
330
82
100
AcDbEntity
  8
Standardebene
 62
     7
370
    35
100
AcDbPolyline
 90
        5
 70
     0
 43
0.0
 10
96.26142809081517
 20
82.71835755817184
 10
96.51157935575263
 20
82.98133709310615
 10
96.76173062069009
 20
83.24431662804046
 10
97.01188188562754
 20
83.5137102979732
 10
97.26203315056501
 20
83.77668983290751
  0
LWPOLYLINE
  5
B3
330
82
100
AcDbEntity
  8
Standardebene
 62
     7
370
    35
100
AcDbPolyline
 90
        4
 70
     0
 43
0.0
 10
96.26142809081517
 20
82.71835755817184
 10
96.26142809081517
 20
82.48744869822965
 10
96.26142809081517
 20
78.86346242413572
 10
97.26203315056501
 20
78.86346242413572
  0
LWPOLYLINE
  5
B4
330
82
100
AcDbEntity
  8
Standardebene
 62
     7
370
    35
100
AcDbPolyline
 90
        5
 70
     0
 43
0.0
 10
97.26203315056501
 20
91.19142989105329
 10
97.01188188562754
 20
91.46082356098604
 10
96.76173062069009
 20
91.73021723091878
 10
96.51157935575263
 20
91.99319676585309
 10
96.26142809081517
 20
92.25617630078742
  0
LWPOLYLINE
  5
B5
330
82
100
AcDbEntity
  8
Standardebene
 62
     7
370
    35
100
AcDbPolyline
 90
        3
 70
     0
 43
0.0
 10
96.26142809081517
 20
96.10465729982511
 10
96.26142809081517
 20
92.48708516072959
 10
96.26142809081517
 20
92.25617630078742
  0
LINE
  5
B6
330
82
100
AcDbEntity
  8
Standardebene
 62
     7
370
    35
100
AcDbLine
 10
97.26203315056501
 20
96.10465729982511
 30
0.0
 11
96.26142809081517
 21
96.10465729982511
 31
0.0
  0
LINE
  5
B7
330
82
100
AcDbEntity
  8
Standardebene
 62
     7
370
    35
100
AcDbLine
 10
97.26203315056501
 20
91.48648010097977
 30
0.0
 11
96.26142809081517
 21
92.48708516072959
 31
0.0
  0
LWPOLYLINE
  5
B8
330
82
100
AcDbEntity
  8
Standardebene
 62
     7
370
    35
100
AcDbPolyline
 90
        3
 70
     0
 43
0.0
 10
156.259246865816
 20
83.52012443297164
 10
156.259246865816
 20
83.48805375797949
 10
156.259246865816
 20
78.75442212916306
  0
LWPOLYLINE
  5
B9
330
82
100
AcDbEntity
  8
Standardebene
 62
     7
370
    35
100
AcDbPolyline
 90
        3
 70
     0
 43
0.0
 10
156.259246865816
 20
96.2201117297962
 10
156.259246865816
 20
91.48648010097977
 10
156.259246865816
 20
91.4544094259876
  0
LWPOLYLINE
  5
BA
330
82
100
AcDbEntity
  8
Standardebene
  6
AI-Linetype-2
 62
     7
370
     9
100
AcDbPolyline
 90
       12
 70
     0
 43
0.0
 10
161.2622721645653
 20
87.49688813197726
 10
158.7607595151906
 20
87.49688813197726
 10
156.259246865816
 20
87.49688813197726
 10
151.2626357020653
 20
87.49688813197726
 10
148.7611230526907
 20
87.49688813197726
 10
141.2629992395647
 20
87.49688813197726
 10
140.5125454447523
 20
87.49688813197726
 10
127.7612450679403
 20
87.49688813197726
 10
120.263121254815
 20
87.49688813197726
 10
114.259490896316
 20
87.49688813197726
 10
97.26203315056501
 20
87.49688813197726
 10
94.2602179713155
 20
87.49688813197726
  0
LINE
  5
BC
330
82
100
AcDbEntity
  8
Standardebene
 62
     7
370
    35
100
AcDbLine
 10
102.6627348192149
 20
73.58462932045535
 30
0.0
 11
136.112448835853
 21
73.58462932045535
 31
0.0
  0
ENDBLK
  5
85
330
82
100
AcDbEntity
  8
0
100
AcDbBlockEnd
  0
ENDSEC
  0
SECTION
  2
ENTITIES
  0
INSERT
  5
7B
330
70
100
AcDbEntity
  8
Standardebene
100
AcDbBlockReference
  2
Block_0
 10
0.0
 20
0.0
 30
0.0
  0
LINE
  5
BE
330
70
100
AcDbEntity
  8
Bemaßung
 62
     7
370
     9
100
AcDbLine
 10
132.3551720691057
 20
95.13792829517592
 30
0.0
 11
158.265889202108
 21
95.13792829517592
 31
0.0
  0
LINE
  5
BF
330
70
100
AcDbEntity
  8
Bemaßung
 62
     7
370
     9
100
AcDbLine
 10
132.3551720691057
 20
79.84795732677608
 30
0.0
 11
158.265889202108
 21
79.84795732677608
 31
0.0
  0
LINE
  5
C0
330
70
100
AcDbEntity
  8
Bemaßung
 62
     7
370
     9
100
AcDbLine
 10
157.1659457301608
 20
95.13792829517592
 30
0.0
 11
157.1659457301608
 21
79.84795732677608
 31
0.0
  0
LWPOLYLINE
  5
C1
330
70
100
AcDbEntity
  8
Bemaßung
 62
     7
370
     9
100
AcDbPolyline
 90
        4
 70
     0
 43
0.0
 10
157.1659457301608
 20
95.13792829517592
 10
156.9125454524462
 20
93.21259065676827
 10
157.4195400356527
 20
93.21259065676827
 10
157.1659457301608
 20
95.13792829517592
  0
LINE
  5
C2
330
70
100
AcDbEntity
  8
Bemaßung
 62
     7
370
     9
100
AcDbLine
 10
156.9144857302233
 20
93.21259065676827
 30
0.0
 11
156.9144857302233
 21
93.22791885120924
 31
0.0
  0
LINE
  5
C3
330
70
100
AcDbEntity
  8
Bemaßung
 62
     7
370
     9
100
AcDbLine
 10
156.9144857302233
 20
93.21259065676827
 30
0.0
 11
156.9144857302233
 21
93.22791885120924
 31
0.0
  0
LINE
  5
C4
330
70
100
AcDbEntity
  8
Bemaßung
 62
     7
370
     9
100
AcDbLine
 10
156.9424257302163
 20
93.21259065676827
 30
0.0
 11
156.9424257302163
 21
93.43979718448952
 31
0.0
  0
LINE
  5
C5
330
70
100
AcDbEntity
  8
Bemaßung
 62
     7
370
     9
100
AcDbLine
 10
156.9703657302094
 20
93.21259065676827
 30
0.0
 11
156.9703657302094
 21
93.65206357332509
 31
0.0
  0
LINE
  5
C6
330
70
100
AcDbEntity
  8
Bemaßung
 62
     7
370
     9
100
AcDbLine
 10
156.9983057302025
 20
93.21259065676827
 30
0.0
 11
156.9983057302025
 21
93.8645239899386
 31
0.0
  0
LINE
  5
C7
330
70
100
AcDbEntity
  8
Bemaßung
 62
     7
370
     9
100
AcDbLine
 10
157.0262457301955
 20
93.21259065676827
 30
0.0
 11
157.0262457301955
 21
94.0767903787748
 31
0.0
  0
LINE
  5
C8
330
70
100
AcDbEntity
  8
Bemaßung
 62
     7
370
     9
100
AcDbLine
 10
157.0541857301886
 20
93.21259065676827
 30
0.0
 11
157.0541857301886
 21
94.28905676761036
 31
0.0
  0
LINE
  5
C9
330
70
100
AcDbEntity
  8
Bemaßung
 62
     7
370
     9
100
AcDbLine
 10
157.0821257301816
 20
93.21259065676827
 30
0.0
 11
157.0821257301816
 21
94.50093510089065
 31
0.0
  0
LINE
  5
CA
330
70
100
AcDbEntity
  8
Bemaßung
 62
     7
370
     9
100
AcDbLine
 10
157.1100657301747
 20
93.21259065676827
 30
0.0
 11
157.1100657301747
 21
94.71339551750416
 31
0.0
  0
LINE
  5
CB
330
70
100
AcDbEntity
  8
Bemaßung
 62
     7
370
     9
100
AcDbLine
 10
157.1380057301678
 20
93.21259065676827
 30
0.0
 11
157.1380057301678
 21
94.92566190634036
 31
0.0
  0
LINE
  5
CC
330
70
100
AcDbEntity
  8
Bemaßung
 62
     7
370
     9
100
AcDbLine
 10
157.1659457301608
 20
93.21259065676827
 30
0.0
 11
157.1659457301608
 21
95.13792829517592
 31
0.0
  0
LINE
  5
CD
330
70
100
AcDbEntity
  8
Bemaßung
 62
     7
370
     9
100
AcDbLine
 10
157.4175997578757
 20
93.21259065676827
 30
0.0
 11
157.4175997578757
 21
93.22791885120924
 31
0.0
  0
LINE
  5
CE
330
70
100
AcDbEntity
  8
Bemaßung
 62
     7
370
     9
100
AcDbLine
 10
157.4175997578757
 20
93.21259065676827
 30
0.0
 11
157.4175997578757
 21
93.22791885120924
 31
0.0
  0
LINE
  5
CF
330
70
100
AcDbEntity
  8
Bemaßung
 62
     7
370
     9
100
AcDbLine
 10
157.3896597578827
 20
93.21259065676827
 30
0.0
 11
157.3896597578827
 21
93.43979718448952
 31
0.0
  0
LINE
  5
D0
330
70
100
AcDbEntity
  8
Bemaßung
 62
     7
370
     9
100
AcDbLine
 10
157.3617197578896
 20
93.21259065676827
 30
0.0
 11
157.3617197578896
 21
93.65206357332509
 31
0.0
  0
LINE
  5
D1
330
70
100
AcDbEntity
  8
Bemaßung
 62
     7
370
     9
100
AcDbLine
 10
157.3337797578965
 20
93.21259065676827
 30
0.0
 11
157.3337797578965
 21
93.8645239899386
 31
0.0
  0
LINE
  5
D2
330
70
100
AcDbEntity
  8
Bemaßung
 62
     7
370
     9
100
AcDbLine
 10
157.3058397579035
 20
93.21259065676827
 30
0.0
 11
157.3058397579035
 21
94.0767903787748
 31
0.0
  0
LINE
  5
D3
330
70
100
AcDbEntity
  8
Bemaßung
 62
     7
370
     9
100
AcDbLine
 10
157.2778997579104
 20
93.21259065676827
 30
0.0
 11
157.2778997579104
 21
94.28905676761036
 31
0.0
  0
LINE
  5
D4
330
70
100
AcDbEntity
  8
Bemaßung
 62
     7
370
     9
100
AcDbLine
 10
157.249959757918
 20
93.21259065676827
 30
0.0
 11
157.249959757918
 21
94.50093510089065
 31
0.0
  0
LINE
  5
D5
330
70
100
AcDbEntity
  8
Bemaßung
 62
     7
370
     9
100
AcDbLine
 10
157.2220197579249
 20
93.21259065676827
 30
0.0
 11
157.2220197579249
 21
94.71339551750416
 31
0.0
  0
LINE
  5
D6
330
70
100
AcDbEntity
  8
Bemaßung
 62
     7
370
     9
100
AcDbLine
 10
157.1940797579312
 20
93.21259065676827
 30
0.0
 11
157.1940797579312
 21
94.92566190634036
 31
0.0
  0
LINE
  5
D7
330
70
100
AcDbEntity
  8
Bemaßung
 62
     7
370
     9
100
AcDbLine
 10
157.1659457301608
 20
93.21259065676827
 30
0.0
 11
157.1659457301608
 21
95.13792829517592
 31
0.0
  0
LWPOLYLINE
  5
D8
330
70
100
AcDbEntity
  8
Bemaßung
 62
     7
370
     9
100
AcDbPolyline
 90
        4
 70
     0
 43
0.0
 10
157.1659457301608
 20
79.84795732677608
 10
157.4195400356527
 20
81.77290690962847
 10
156.9125454524462
 20
81.77290690962847
 10
157.1659457301608
 20
79.84795732677608
  0
LINE
  5
D9
330
70
100
AcDbEntity
  8
Bemaßung
 62
     7
370
     9
100
AcDbLine
 10
157.4175997578757
 20
81.77290690962847
 30
0.0
 11
157.4175997578757
 21
81.75796677074341
 31
0.0
  0
LINE
  5
DA
330
70
100
AcDbEntity
  8
Bemaßung
 62
     7
370
     9
100
AcDbLine
 10
157.4175997578757
 20
81.77290690962847
 30
0.0
 11
157.4175997578757
 21
81.75796677074341
 31
0.0
  0
LINE
  5
DB
330
70
100
AcDbEntity
  8
Bemaßung
 62
     7
370
     9
100
AcDbLine
 10
157.3896597578827
 20
81.77290690962847
 30
0.0
 11
157.3896597578827
 21
81.54570038190721
 31
0.0
  0
LINE
  5
DC
330
70
100
AcDbEntity
  8
Bemaßung
 62
     7
370
     9
100
AcDbLine
 10
157.3617197578896
 20
81.77290690962847
 30
0.0
 11
157.3617197578896
 21
81.33343399307165
 31
0.0
  0
LINE
  5
DD
330
70
100
AcDbEntity
  8
Bemaßung
 62
     7
370
     9
100
AcDbLine
 10
157.3337797578965
 20
81.77290690962847
 30
0.0
 11
157.3337797578965
 21
81.12116760423544
 31
0.0
  0
LINE
  5
DE
330
70
100
AcDbEntity
  8
Bemaßung
 62
     7
370
     9
100
AcDbLine
 10
157.3058397579035
 20
81.77290690962847
 30
0.0
 11
157.3058397579035
 21
80.90870718762193
 31
0.0
  0
LINE
  5
DF
330
70
100
AcDbEntity
  8
Bemaßung
 62
     7
370
     9
100
AcDbLine
 10
157.2778997579104
 20
81.77290690962847
 30
0.0
 11
157.2778997579104
 21
80.69682885434165
 31
0.0
  0
LINE
  5
E0
330
70
100
AcDbEntity
  8
Bemaßung
 62
     7
370
     9
100
AcDbLine
 10
157.249959757918
 20
81.77290690962847
 30
0.0
 11
157.249959757918
 21
80.48456246550609
 31
0.0
  0
LINE
  5
E1
330
70
100
AcDbEntity
  8
Bemaßung
 62
     7
370
     9
100
AcDbLine
 10
157.2220197579249
 20
81.77290690962847
 30
0.0
 11
157.2220197579249
 21
80.27229607666988
 31
0.0
  0
LINE
  5
E2
330
70
100
AcDbEntity
  8
Bemaßung
 62
     7
370
     9
100
AcDbLine
 10
157.1940797579312
 20
81.77290690962847
 30
0.0
 11
157.1940797579312
 21
80.05983566005637
 31
0.0
  0
LINE
  5
E3
330
70
100
AcDbEntity
  8
Bemaßung
 62
     7
370
     9
100
AcDbLine
 10
157.1659457301608
 20
81.77290690962847
 30
0.0
 11
157.1659457301608
 21
79.84795732677608
 31
0.0
  0
LINE
  5
E4
330
70
100
AcDbEntity
  8
Bemaßung
 62
     7
370
     9
100
AcDbLine
 10
156.9144857302233
 20
81.77290690962847
 30
0.0
 11
156.9144857302233
 21
81.75796677074341
 31
0.0
  0
LINE
  5
E5
330
70
100
AcDbEntity
  8
Bemaßung
 62
     7
370
     9
100
AcDbLine
 10
156.9144857302233
 20
81.77290690962847
 30
0.0
 11
156.9144857302233
 21
81.75796677074341
 31
0.0
  0
LINE
  5
E6
330
70
100
AcDbEntity
  8
Bemaßung
 62
     7
370
     9
100
AcDbLine
 10
156.9424257302163
 20
81.77290690962847
 30
0.0
 11
156.9424257302163
 21
81.54570038190721
 31
0.0
  0
LINE
  5
E7
330
70
100
AcDbEntity
  8
Bemaßung
 62
     7
370
     9
100
AcDbLine
 10
156.9703657302094
 20
81.77290690962847
 30
0.0
 11
156.9703657302094
 21
81.33343399307165
 31
0.0
  0
LINE
  5
E8
330
70
100
AcDbEntity
  8
Bemaßung
 62
     7
370
     9
100
AcDbLine
 10
156.9983057302025
 20
81.77290690962847
 30
0.0
 11
156.9983057302025
 21
81.12116760423544
 31
0.0
  0
LINE
  5
E9
330
70
100
AcDbEntity
  8
Bemaßung
 62
     7
370
     9
100
AcDbLine
 10
157.0262457301955
 20
81.77290690962847
 30
0.0
 11
157.0262457301955
 21
80.90870718762193
 31
0.0
  0
LINE
  5
EA
330
70
100
AcDbEntity
  8
Bemaßung
 62
     7
370
     9
100
AcDbLine
 10
157.0541857301886
 20
81.77290690962847
 30
0.0
 11
157.0541857301886
 21
80.69682885434165
 31
0.0
  0
LINE
  5
EB
330
70
100
AcDbEntity
  8
Bemaßung
 62
     7
370
     9
100
AcDbLine
 10
157.0821257301816
 20
81.77290690962847
 30
0.0
 11
157.0821257301816
 21
80.48456246550609
 31
0.0
  0
LINE
  5
EC
330
70
100
AcDbEntity
  8
Bemaßung
 62
     7
370
     9
100
AcDbLine
 10
157.1100657301747
 20
81.77290690962847
 30
0.0
 11
157.1100657301747
 21
80.27229607666988
 31
0.0
  0
LINE
  5
ED
330
70
100
AcDbEntity
  8
Bemaßung
 62
     7
370
     9
100
AcDbLine
 10
157.1380057301678
 20
81.77290690962847
 30
0.0
 11
157.1380057301678
 21
80.05983566005637
 31
0.0
  0
LINE
  5
EE
330
70
100
AcDbEntity
  8
Bemaßung
 62
     7
370
     9
100
AcDbLine
 10
157.1659457301608
 20
81.77290690962847
 30
0.0
 11
157.1659457301608
 21
79.84795732677608
 31
0.0
  0
LINE
  5
EF
330
70
100
AcDbEntity
  8
Bemaßung
 62
     7
370
     9
100
AcDbLine
 10
143.4376506774461
 20
92.30531676810629
 30
0.0
 11
152.714081576427
 21
92.30531676810629
 31
0.0
  0
LINE
  5
F0
330
70
100
AcDbEntity
  8
Bemaßung
 62
     7
370
     9
100
AcDbLine
 10
143.4376506774461
 20
82.68018079829042
 30
0.0
 11
152.714081576427
 21
82.68018079829042
 31
0.0
  0
LINE
  5
F1
330
70
100
AcDbEntity
  8
Bemaßung
 62
     7
370
     9
100
AcDbLine
 10
151.6139440767025
 20
92.30531676810629
 30
0.0
 11
151.6139440767025
 21
83.7059283294125
 31
0.0
  0
LWPOLYLINE
  5
F2
330
70
100
AcDbEntity
  8
Bemaßung
 62
     7
370
     9
100
AcDbPolyline
 90
        4
 70
     0
 43
0.0
 10
151.6139440767025
 20
92.30531676810629
 10
151.3605437989879
 20
90.3801731574766
 10
151.8675383821944
 20
90.3801731574766
 10
151.6139440767025
 20
92.30531676810629
  0
LINE
  5
F3
330
70
100
AcDbEntity
  8
Bemaßung
 62
     7
370
     9
100
AcDbLine
 10
151.3624840767656
 20
90.3801731574766
 30
0.0
 11
151.3624840767656
 21
90.39511329636166
 31
0.0
  0
LINE
  5
F4
330
70
100
AcDbEntity
  8
Bemaßung
 62
     7
370
     9
100
AcDbLine
 10
151.3624840767656
 20
90.3801731574766
 30
0.0
 11
151.3624840767656
 21
90.39511329636166
 31
0.0
  0
LINE
  5
F5
330
70
100
AcDbEntity
  8
Bemaßung
 62
     7
370
     9
100
AcDbLine
 10
151.3904240767586
 20
90.3801731574766
 30
0.0
 11
151.3904240767586
 21
90.60757371297517
 31
0.0
  0
LINE
  5
F6
330
70
100
AcDbEntity
  8
Bemaßung
 62
     7
370
     9
100
AcDbLine
 10
151.418364076751
 20
90.3801731574766
 30
0.0
 11
151.418364076751
 21
90.81984010181074
 31
0.0
  0
LINE
  5
F7
330
70
100
AcDbEntity
  8
Bemaßung
 62
     7
370
     9
100
AcDbLine
 10
151.4463040767441
 20
90.3801731574766
 30
0.0
 11
151.4463040767441
 21
91.03210649064694
 31
0.0
  0
LINE
  5
F8
330
70
100
AcDbEntity
  8
Bemaßung
 62
     7
370
     9
100
AcDbLine
 10
151.4744381045151
 20
90.3801731574766
 30
0.0
 11
151.4744381045151
 21
91.24398482392722
 31
0.0
  0
LINE
  5
F9
330
70
100
AcDbEntity
  8
Bemaßung
 62
     7
370
     9
100
AcDbLine
 10
151.5023781045082
 20
90.3801731574766
 30
0.0
 11
151.5023781045082
 21
91.45644524054073
 31
0.0
  0
LINE
  5
FA
330
70
100
AcDbEntity
  8
Bemaßung
 62
     7
370
     9
100
AcDbLine
 10
151.5303181045012
 20
90.3801731574766
 30
0.0
 11
151.5303181045012
 21
91.6687116293763
 31
0.0
  0
LINE
  5
FB
330
70
100
AcDbEntity
  8
Bemaßung
 62
     7
370
     9
100
AcDbLine
 10
151.5582581044943
 20
90.3801731574766
 30
0.0
 11
151.5582581044943
 21
91.8809780182125
 31
0.0
  0
LINE
  5
FC
330
70
100
AcDbEntity
  8
Bemaßung
 62
     7
370
     9
100
AcDbLine
 10
151.5861981044874
 20
90.3801731574766
 30
0.0
 11
151.5861981044874
 21
92.09324440704806
 31
0.0
  0
LINE
  5
FD
330
70
100
AcDbEntity
  8
Bemaßung
 62
     7
370
     9
100
AcDbLine
 10
151.6139440767025
 20
90.3801731574766
 30
0.0
 11
151.6139440767025
 21
92.30531676810629
 31
0.0
  0
LINE
  5
FE
330
70
100
AcDbEntity
  8
Bemaßung
 62
     7
370
     9
100
AcDbLine
 10
151.8655981044173
 20
90.3801731574766
 30
0.0
 11
151.8655981044173
 21
90.39511329636166
 31
0.0
  0
LINE
  5
FF
330
70
100
AcDbEntity
  8
Bemaßung
 62
     7
370
     9
100
AcDbLine
 10
151.8655981044173
 20
90.3801731574766
 30
0.0
 11
151.8655981044173
 21
90.39511329636166
 31
0.0
  0
LINE
  5
100
330
70
100
AcDbEntity
  8
Bemaßung
 62
     7
370
     9
100
AcDbLine
 10
151.8376581044243
 20
90.3801731574766
 30
0.0
 11
151.8376581044243
 21
90.60757371297517
 31
0.0
  0
LINE
  5
101
330
70
100
AcDbEntity
  8
Bemaßung
 62
     7
370
     9
100
AcDbLine
 10
151.8097181044312
 20
90.3801731574766
 30
0.0
 11
151.8097181044312
 21
90.81984010181074
 31
0.0
  0
LINE
  5
102
330
70
100
AcDbEntity
  8
Bemaßung
 62
     7
370
     9
100
AcDbLine
 10
151.7817781044381
 20
90.3801731574766
 30
0.0
 11
151.7817781044381
 21
91.03210649064694
 31
0.0
  0
LINE
  5
103
330
70
100
AcDbEntity
  8
Bemaßung
 62
     7
370
     9
100
AcDbLine
 10
151.7538381044451
 20
90.3801731574766
 30
0.0
 11
151.7538381044451
 21
91.24398482392722
 31
0.0
  0
LINE
  5
104
330
70
100
AcDbEntity
  8
Bemaßung
 62
     7
370
     9
100
AcDbLine
 10
151.725704076674
 20
90.3801731574766
 30
0.0
 11
151.725704076674
 21
91.45644524054073
 31
0.0
  0
LINE
  5
105
330
70
100
AcDbEntity
  8
Bemaßung
 62
     7
370
     9
100
AcDbLine
 10
151.6977640766817
 20
90.3801731574766
 30
0.0
 11
151.6977640766817
 21
91.6687116293763
 31
0.0
  0
LINE
  5
106
330
70
100
AcDbEntity
  8
Bemaßung
 62
     7
370
     9
100
AcDbLine
 10
151.6698240766886
 20
90.3801731574766
 30
0.0
 11
151.6698240766886
 21
91.8809780182125
 31
0.0
  0
LINE
  5
107
330
70
100
AcDbEntity
  8
Bemaßung
 62
     7
370
     9
100
AcDbLine
 10
151.6418840766955
 20
90.3801731574766
 30
0.0
 11
151.6418840766955
 21
92.09324440704806
 31
0.0
  0
LINE
  5
108
330
70
100
AcDbEntity
  8
Bemaßung
 62
     7
370
     9
100
AcDbLine
 10
151.6139440767025
 20
90.3801731574766
 30
0.0
 11
151.6139440767025
 21
92.30531676810629
 31
0.0
  0
LWPOLYLINE
  5
109
330
70
100
AcDbEntity
  8
Bemaßung
 62
     7
370
     9
100
AcDbPolyline
 90
        4
 70
     0
 43
0.0
 10
151.6139440767025
 20
82.68018079829042
 10
151.8675383821944
 20
84.60532440892013
 10
151.3605437989879
 20
84.60532440892013
 10
151.6139440767025
 20
82.68018079829042
  0
LINE
  5
10A
330
70
100
AcDbEntity
  8
Bemaßung
 62
     7
370
     9
100
AcDbLine
 10
151.8655981044173
 20
84.60532440892013
 30
0.0
 11
151.8655981044173
 21
84.59038427003507
 31
0.0
  0
LINE
  5
10B
330
70
100
AcDbEntity
  8
Bemaßung
 62
     7
370
     9
100
AcDbLine
 10
151.8655981044173
 20
84.60532440892013
 30
0.0
 11
151.8655981044173
 21
84.59038427003507
 31
0.0
  0
LINE
  5
10C
330
70
100
AcDbEntity
  8
Bemaßung
 62
     7
370
     9
100
AcDbLine
 10
151.8376581044243
 20
84.60532440892013
 30
0.0
 11
151.8376581044243
 21
84.37792385342154
 31
0.0
  0
LINE
  5
10D
330
70
100
AcDbEntity
  8
Bemaßung
 62
     7
370
     9
100
AcDbLine
 10
151.8097181044312
 20
84.60532440892013
 30
0.0
 11
151.8097181044312
 21
84.16565746458536
 31
0.0
  0
LINE
  5
10E
330
70
100
AcDbEntity
  8
Bemaßung
 62
     7
370
     9
100
AcDbLine
 10
151.7817781044381
 20
84.60532440892013
 30
0.0
 11
151.7817781044381
 21
83.95377913130507
 31
0.0
  0
LINE
  5
10F
330
70
100
AcDbEntity
  8
Bemaßung
 62
     7
370
     9
100
AcDbLine
 10
151.7538381044451
 20
84.60532440892013
 30
0.0
 11
151.7538381044451
 21
83.74151274246951
 31
0.0
  0
LINE
  5
110
330
70
100
AcDbEntity
  8
Bemaßung
 62
     7
370
     9
100
AcDbLine
 10
151.725704076674
 20
84.60532440892013
 30
0.0
 11
151.725704076674
 21
83.52905232585598
 31
0.0
  0
LINE
  5
111
330
70
100
AcDbEntity
  8
Bemaßung
 62
     7
370
     9
100
AcDbLine
 10
151.6977640766817
 20
84.60532440892013
 30
0.0
 11
151.6977640766817
 21
83.31678593701978
 31
0.0
  0
LINE
  5
112
330
70
100
AcDbEntity
  8
Bemaßung
 62
     7
370
     9
100
AcDbLine
 10
151.6698240766886
 20
84.60532440892013
 30
0.0
 11
151.6698240766886
 21
83.1049076037395
 31
0.0
  0
LINE
  5
113
330
70
100
AcDbEntity
  8
Bemaßung
 62
     7
370
     9
100
AcDbLine
 10
151.6418840766955
 20
84.60532440892013
 30
0.0
 11
151.6418840766955
 21
82.89264121490395
 31
0.0
  0
LINE
  5
114
330
70
100
AcDbEntity
  8
Bemaßung
 62
     7
370
     9
100
AcDbLine
 10
151.6139440767025
 20
84.60532440892013
 30
0.0
 11
151.6139440767025
 21
82.68018079829042
 31
0.0
  0
LINE
  5
115
330
70
100
AcDbEntity
  8
Bemaßung
 62
     7
370
     9
100
AcDbLine
 10
151.3624840767656
 20
84.60532440892013
 30
0.0
 11
151.3624840767656
 21
84.59038427003507
 31
0.0
  0
LINE
  5
116
330
70
100
AcDbEntity
  8
Bemaßung
 62
     7
370
     9
100
AcDbLine
 10
151.3624840767656
 20
84.60532440892013
 30
0.0
 11
151.3624840767656
 21
84.59038427003507
 31
0.0
  0
LINE
  5
117
330
70
100
AcDbEntity
  8
Bemaßung
 62
     7
370
     9
100
AcDbLine
 10
151.3904240767586
 20
84.60532440892013
 30
0.0
 11
151.3904240767586
 21
84.37792385342154
 31
0.0
  0
LINE
  5
118
330
70
100
AcDbEntity
  8
Bemaßung
 62
     7
370
     9
100
AcDbLine
 10
151.418364076751
 20
84.60532440892013
 30
0.0
 11
151.418364076751
 21
84.16565746458536
 31
0.0
  0
LINE
  5
119
330
70
100
AcDbEntity
  8
Bemaßung
 62
     7
370
     9
100
AcDbLine
 10
151.4463040767441
 20
84.60532440892013
 30
0.0
 11
151.4463040767441
 21
83.95377913130507
 31
0.0
  0
LINE
  5
11A
330
70
100
AcDbEntity
  8
Bemaßung
 62
     7
370
     9
100
AcDbLine
 10
151.4744381045151
 20
84.60532440892013
 30
0.0
 11
151.4744381045151
 21
83.74151274246951
 31
0.0
  0
LINE
  5
11B
330
70
100
AcDbEntity
  8
Bemaßung
 62
     7
370
     9
100
AcDbLine
 10
151.5023781045082
 20
84.60532440892013
 30
0.0
 11
151.5023781045082
 21
83.52905232585598
 31
0.0
  0
LINE
  5
11C
330
70
100
AcDbEntity
  8
Bemaßung
 62
     7
370
     9
100
AcDbLine
 10
151.5303181045012
 20
84.60532440892013
 30
0.0
 11
151.5303181045012
 21
83.31678593701978
 31
0.0
  0
LINE
  5
11D
330
70
100
AcDbEntity
  8
Bemaßung
 62
     7
370
     9
100
AcDbLine
 10
151.5582581044943
 20
84.60532440892013
 30
0.0
 11
151.5582581044943
 21
83.1049076037395
 31
0.0
  0
LINE
  5
11E
330
70
100
AcDbEntity
  8
Bemaßung
 62
     7
370
     9
100
AcDbLine
 10
151.5861981044874
 20
84.60532440892013
 30
0.0
 11
151.5861981044874
 21
82.89264121490395
 31
0.0
  0
LINE
  5
11F
330
70
100
AcDbEntity
  8
Bemaßung
 62
     7
370
     9
100
AcDbLine
 10
151.6139440767025
 20
84.60532440892013
 30
0.0
 11
151.6139440767025
 21
82.68018079829042
 31
0.0
  0
LINE
  5
120
330
70
100
AcDbEntity
  8
Bemaßung
 62
     7
370
     9
100
AcDbLine
 10
110.9878630466696
 20
94.36783204536832
 30
0.0
 11
98.33763999427691
 21
94.36783204536832
 31
0.0
  0
LINE
  5
121
330
70
100
AcDbEntity
  8
Bemaßung
 62
     7
370
     9
100
AcDbLine
 10
110.9878630466696
 20
80.6176655210284
 30
0.0
 11
98.33763999427691
 21
80.6176655210284
 31
0.0
  0
LINE
  5
122
330
70
100
AcDbEntity
  8
Bemaßung
 62
     7
370
     9
100
AcDbLine
 10
99.43797152177937
 20
94.36783204536832
 30
0.0
 11
99.43797152177937
 21
80.6176655210284
 31
0.0
  0
LWPOLYLINE
  5
123
330
70
100
AcDbEntity
  8
Bemaßung
 62
     7
370
     9
100
AcDbPolyline
 90
        4
 70
     0
 43
0.0
 10
99.43797152177937
 20
94.36783204536832
 10
99.18437721628748
 20
92.4428824625166
 10
99.691177771716
 20
92.4428824625166
 10
99.43797152177937
 20
94.36783204536832
  0
LINE
  5
124
330
70
100
AcDbEntity
  8
Bemaßung
 62
     7
370
     9
100
AcDbLine
 10
99.18651152184247
 20
92.4428824625166
 30
0.0
 11
99.18651152184247
 21
92.45782260140165
 31
0.0
  0
LINE
  5
125
330
70
100
AcDbEntity
  8
Bemaßung
 62
     7
370
     9
100
AcDbLine
 10
99.18651152184247
 20
92.4428824625166
 30
0.0
 11
99.18651152184247
 21
92.45782260140165
 31
0.0
  0
LINE
  5
126
330
70
100
AcDbEntity
  8
Bemaßung
 62
     7
370
     9
100
AcDbLine
 10
99.21425749405758
 20
92.4428824625166
 30
0.0
 11
99.21425749405758
 21
92.6700889902372
 31
0.0
  0
LINE
  5
127
330
70
100
AcDbEntity
  8
Bemaßung
 62
     7
370
     9
100
AcDbLine
 10
99.24219749405065
 20
92.4428824625166
 30
0.0
 11
99.24219749405065
 21
92.8823553790734
 31
0.0
  0
LINE
  5
128
330
70
100
AcDbEntity
  8
Bemaßung
 62
     7
370
     9
100
AcDbLine
 10
99.2701374940437
 20
92.4428824625166
 30
0.0
 11
99.2701374940437
 21
93.09423371235304
 31
0.0
  0
LINE
  5
129
330
70
100
AcDbEntity
  8
Bemaßung
 62
     7
370
     9
100
AcDbLine
 10
99.29827152181408
 20
92.4428824625166
 30
0.0
 11
99.29827152181408
 21
93.30669412896721
 31
0.0
  0
LINE
  5
12A
330
70
100
AcDbEntity
  8
Bemaßung
 62
     7
370
     9
100
AcDbLine
 10
99.32621152180715
 20
92.4428824625166
 30
0.0
 11
99.32621152180715
 21
93.51896051780277
 31
0.0
  0
LINE
  5
12B
330
70
100
AcDbEntity
  8
Bemaßung
 62
     7
370
     9
100
AcDbLine
 10
99.35395749402289
 20
92.4428824625166
 30
0.0
 11
99.35395749402289
 21
93.73122690663896
 31
0.0
  0
LINE
  5
12C
330
70
100
AcDbEntity
  8
Bemaßung
 62
     7
370
     9
100
AcDbLine
 10
99.38189749401594
 20
92.4428824625166
 30
0.0
 11
99.38189749401594
 21
93.94349329547452
 31
0.0
  0
LINE
  5
12D
330
70
100
AcDbEntity
  8
Bemaßung
 62
     7
370
     9
100
AcDbLine
 10
99.40983749400899
 20
92.4428824625166
 30
0.0
 11
99.40983749400899
 21
94.15556565653275
 31
0.0
  0
LINE
  5
12E
330
70
100
AcDbEntity
  8
Bemaßung
 62
     7
370
     9
100
AcDbLine
 10
99.43797152177937
 20
92.4428824625166
 30
0.0
 11
99.43797152177937
 21
94.36783204536832
 31
0.0
  0
LINE
  5
12F
330
70
100
AcDbEntity
  8
Bemaßung
 62
     7
370
     9
100
AcDbLine
 10
99.68923749393896
 20
92.4428824625166
 30
0.0
 11
99.68923749393896
 21
92.45782260140165
 31
0.0
  0
LINE
  5
130
330
70
100
AcDbEntity
  8
Bemaßung
 62
     7
370
     9
100
AcDbLine
 10
99.68923749393896
 20
92.4428824625166
 30
0.0
 11
99.68923749393896
 21
92.45782260140165
 31
0.0
  0
LINE
  5
131
330
70
100
AcDbEntity
  8
Bemaßung
 62
     7
370
     9
100
AcDbLine
 10
99.66129749394589
 20
92.4428824625166
 30
0.0
 11
99.66129749394589
 21
92.6700889902372
 31
0.0
  0
LINE
  5
132
330
70
100
AcDbEntity
  8
Bemaßung
 62
     7
370
     9
100
AcDbLine
 10
99.63355152173049
 20
92.4428824625166
 30
0.0
 11
99.63355152173049
 21
92.8823553790734
 31
0.0
  0
LINE
  5
133
330
70
100
AcDbEntity
  8
Bemaßung
 62
     7
370
     9
100
AcDbLine
 10
99.60561152173774
 20
92.4428824625166
 30
0.0
 11
99.60561152173774
 21
93.09423371235304
 31
0.0
  0
LINE
  5
134
330
70
100
AcDbEntity
  8
Bemaßung
 62
     7
370
     9
100
AcDbLine
 10
99.57767152174469
 20
92.4428824625166
 30
0.0
 11
99.57767152174469
 21
93.30669412896721
 31
0.0
  0
LINE
  5
135
330
70
100
AcDbEntity
  8
Bemaßung
 62
     7
370
     9
100
AcDbLine
 10
99.54953749397366
 20
92.4428824625166
 30
0.0
 11
99.54953749397366
 21
93.51896051780277
 31
0.0
  0
LINE
  5
136
330
70
100
AcDbEntity
  8
Bemaßung
 62
     7
370
     9
100
AcDbLine
 10
99.52159749398092
 20
92.4428824625166
 30
0.0
 11
99.52159749398092
 21
93.73122690663896
 31
0.0
  0
LINE
  5
137
330
70
100
AcDbEntity
  8
Bemaßung
 62
     7
370
     9
100
AcDbLine
 10
99.49365749398786
 20
92.4428824625166
 30
0.0
 11
99.49365749398786
 21
93.94349329547452
 31
0.0
  0
LINE
  5
138
330
70
100
AcDbEntity
  8
Bemaßung
 62
     7
370
     9
100
AcDbLine
 10
99.46591152177244
 20
92.4428824625166
 30
0.0
 11
99.46591152177244
 21
94.15556565653275
 31
0.0
  0
LINE
  5
139
330
70
100
AcDbEntity
  8
Bemaßung
 62
     7
370
     9
100
AcDbLine
 10
99.43797152177937
 20
92.4428824625166
 30
0.0
 11
99.43797152177937
 21
94.36783204536832
 31
0.0
  0
LWPOLYLINE
  5
13A
330
70
100
AcDbEntity
  8
Bemaßung
 62
     7
370
     9
100
AcDbPolyline
 90
        4
 70
     0
 43
0.0
 10
99.43797152177937
 20
80.6176655210284
 10
99.691177771716
 20
82.54280913165811
 10
99.18437721628748
 20
82.54280913165811
 10
99.43797152177937
 20
80.6176655210284
  0
LINE
  5
13B
330
70
100
AcDbEntity
  8
Bemaßung
 62
     7
370
     9
100
AcDbLine
 10
99.68923749393896
 20
82.54280913165811
 30
0.0
 11
99.68923749393896
 21
82.52786899277303
 31
0.0
  0
LINE
  5
13C
330
70
100
AcDbEntity
  8
Bemaßung
 62
     7
370
     9
100
AcDbLine
 10
99.68923749393896
 20
82.54280913165811
 30
0.0
 11
99.68923749393896
 21
82.52786899277303
 31
0.0
  0
LINE
  5
13D
330
70
100
AcDbEntity
  8
Bemaßung
 62
     7
370
     9
100
AcDbLine
 10
99.66129749394589
 20
82.54280913165811
 30
0.0
 11
99.66129749394589
 21
82.31540857615952
 31
0.0
  0
LINE
  5
13E
330
70
100
AcDbEntity
  8
Bemaßung
 62
     7
370
     9
100
AcDbLine
 10
99.63355152173049
 20
82.54280913165811
 30
0.0
 11
99.63355152173049
 21
82.10353024287924
 31
0.0
  0
LINE
  5
13F
330
70
100
AcDbEntity
  8
Bemaßung
 62
     7
370
     9
100
AcDbLine
 10
99.60561152173774
 20
82.54280913165811
 30
0.0
 11
99.60561152173774
 21
81.89126385404305
 31
0.0
  0
LINE
  5
140
330
70
100
AcDbEntity
  8
Bemaßung
 62
     7
370
     9
100
AcDbLine
 10
99.57767152174469
 20
82.54280913165811
 30
0.0
 11
99.57767152174469
 21
81.67899746520749
 31
0.0
  0
LINE
  5
141
330
70
100
AcDbEntity
  8
Bemaßung
 62
     7
370
     9
100
AcDbLine
 10
99.54953749397366
 20
82.54280913165811
 30
0.0
 11
99.54953749397366
 21
81.46653704859396
 31
0.0
  0
LINE
  5
142
330
70
100
AcDbEntity
  8
Bemaßung
 62
     7
370
     9
100
AcDbLine
 10
99.52159749398092
 20
82.54280913165811
 30
0.0
 11
99.52159749398092
 21
81.25427065975776
 31
0.0
  0
LINE
  5
143
330
70
100
AcDbEntity
  8
Bemaßung
 62
     7
370
     9
100
AcDbLine
 10
99.49365749398786
 20
82.54280913165811
 30
0.0
 11
99.49365749398786
 21
81.04239232647747
 31
0.0
  0
LINE
  5
144
330
70
100
AcDbEntity
  8
Bemaßung
 62
     7
370
     9
100
AcDbLine
 10
99.46591152177244
 20
82.54280913165811
 30
0.0
 11
99.46591152177244
 21
80.83012593764193
 31
0.0
  0
LINE
  5
145
330
70
100
AcDbEntity
  8
Bemaßung
 62
     7
370
     9
100
AcDbLine
 10
99.43797152177937
 20
82.54280913165811
 30
0.0
 11
99.43797152177937
 21
80.6176655210284
 31
0.0
  0
LINE
  5
146
330
70
100
AcDbEntity
  8
Bemaßung
 62
     7
370
     9
100
AcDbLine
 10
99.18651152184247
 20
82.54280913165811
 30
0.0
 11
99.18651152184247
 21
82.52786899277303
 31
0.0
  0
LINE
  5
147
330
70
100
AcDbEntity
  8
Bemaßung
 62
     7
370
     9
100
AcDbLine
 10
99.18651152184247
 20
82.54280913165811
 30
0.0
 11
99.18651152184247
 21
82.52786899277303
 31
0.0
  0
LINE
  5
148
330
70
100
AcDbEntity
  8
Bemaßung
 62
     7
370
     9
100
AcDbLine
 10
99.21425749405758
 20
82.54280913165811
 30
0.0
 11
99.21425749405758
 21
82.31540857615952
 31
0.0
  0
LINE
  5
149
330
70
100
AcDbEntity
  8
Bemaßung
 62
     7
370
     9
100
AcDbLine
 10
99.24219749405065
 20
82.54280913165811
 30
0.0
 11
99.24219749405065
 21
82.10353024287924
 31
0.0
  0
LINE
  5
14A
330
70
100
AcDbEntity
  8
Bemaßung
 62
     7
370
     9
100
AcDbLine
 10
99.2701374940437
 20
82.54280913165811
 30
0.0
 11
99.2701374940437
 21
81.89126385404305
 31
0.0
  0
LINE
  5
14B
330
70
100
AcDbEntity
  8
Bemaßung
 62
     7
370
     9
100
AcDbLine
 10
99.29827152181408
 20
82.54280913165811
 30
0.0
 11
99.29827152181408
 21
81.67899746520749
 31
0.0
  0
LINE
  5
14C
330
70
100
AcDbEntity
  8
Bemaßung
 62
     7
370
     9
100
AcDbLine
 10
99.32621152180715
 20
82.54280913165811
 30
0.0
 11
99.32621152180715
 21
81.46653704859396
 31
0.0
  0
LINE
  5
14D
330
70
100
AcDbEntity
  8
Bemaßung
 62
     7
370
     9
100
AcDbLine
 10
99.35395749402289
 20
82.54280913165811
 30
0.0
 11
99.35395749402289
 21
81.25427065975776
 31
0.0
  0
LINE
  5
14E
330
70
100
AcDbEntity
  8
Bemaßung
 62
     7
370
     9
100
AcDbLine
 10
99.38189749401594
 20
82.54280913165811
 30
0.0
 11
99.38189749401594
 21
81.04239232647747
 31
0.0
  0
LINE
  5
14F
330
70
100
AcDbEntity
  8
Bemaßung
 62
     7
370
     9
100
AcDbLine
 10
99.40983749400899
 20
82.54280913165811
 30
0.0
 11
99.40983749400899
 21
80.83012593764193
 31
0.0
  0
LINE
  5
150
330
70
100
AcDbEntity
  8
Bemaßung
 62
     7
370
     9
100
AcDbLine
 10
99.43797152177937
 20
82.54280913165811
 30
0.0
 11
99.43797152177937
 21
80.6176655210284
 31
0.0
  0
LINE
  5
151
330
70
100
AcDbEntity
  8
Bemaßung
 62
     7
370
     9
100
AcDbLine
 10
110.437988324585
 20
92.30531676810629
 30
0.0
 11
103.8377454095687
 21
92.30531676810629
 31
0.0
  0
LINE
  5
152
330
70
100
AcDbEntity
  8
Bemaßung
 62
     7
370
     9
100
AcDbLine
 10
110.437988324585
 20
82.68018079829042
 30
0.0
 11
103.8377454095687
 21
82.68018079829042
 31
0.0
  0
LINE
  5
153
330
70
100
AcDbEntity
  8
Bemaßung
 62
     7
370
     9
100
AcDbLine
 10
104.9378829092932
 20
92.30531676810629
 30
0.0
 11
104.9378829092932
 21
82.68018079829042
 31
0.0
  0
LWPOLYLINE
  5
154
330
70
100
AcDbEntity
  8
Bemaßung
 62
     7
370
     9
100
AcDbPolyline
 90
        4
 70
     0
 43
0.0
 10
104.9378829092932
 20
92.30531676810629
 10
104.6842886038013
 20
90.3801731574766
 10
105.1910891592298
 20
90.3801731574766
 10
104.9378829092932
 20
92.30531676810629
  0
LINE
  5
155
330
70
100
AcDbEntity
  8
Bemaßung
 62
     7
370
     9
100
AcDbLine
 10
104.6862288815783
 20
90.3801731574766
 30
0.0
 11
104.6862288815783
 21
90.39511329636166
 31
0.0
  0
LINE
  5
156
330
70
100
AcDbEntity
  8
Bemaßung
 62
     7
370
     9
100
AcDbLine
 10
104.6862288815783
 20
90.3801731574766
 30
0.0
 11
104.6862288815783
 21
90.39511329636166
 31
0.0
  0
LINE
  5
157
330
70
100
AcDbEntity
  8
Bemaßung
 62
     7
370
     9
100
AcDbLine
 10
104.7141688815714
 20
90.3801731574766
 30
0.0
 11
104.7141688815714
 21
90.60757371297517
 31
0.0
  0
LINE
  5
158
330
70
100
AcDbEntity
  8
Bemaßung
 62
     7
370
     9
100
AcDbLine
 10
104.7421088815645
 20
90.3801731574766
 30
0.0
 11
104.7421088815645
 21
90.81984010181074
 31
0.0
  0
LINE
  5
159
330
70
100
AcDbEntity
  8
Bemaßung
 62
     7
370
     9
100
AcDbLine
 10
104.7702429093348
 20
90.3801731574766
 30
0.0
 11
104.7702429093348
 21
91.03210649064694
 31
0.0
  0
LINE
  5
15A
330
70
100
AcDbEntity
  8
Bemaßung
 62
     7
370
     9
100
AcDbLine
 10
104.7981829093279
 20
90.3801731574766
 30
0.0
 11
104.7981829093279
 21
91.24398482392722
 31
0.0
  0
LINE
  5
15B
330
70
100
AcDbEntity
  8
Bemaßung
 62
     7
370
     9
100
AcDbLine
 10
104.826122909321
 20
90.3801731574766
 30
0.0
 11
104.826122909321
 21
91.45644524054073
 31
0.0
  0
LINE
  5
15C
330
70
100
AcDbEntity
  8
Bemaßung
 62
     7
370
     9
100
AcDbLine
 10
104.8538688815367
 20
90.3801731574766
 30
0.0
 11
104.8538688815367
 21
91.6687116293763
 31
0.0
  0
LINE
  5
15D
330
70
100
AcDbEntity
  8
Bemaßung
 62
     7
370
     9
100
AcDbLine
 10
104.8818088815291
 20
90.3801731574766
 30
0.0
 11
104.8818088815291
 21
91.8809780182125
 31
0.0
  0
LINE
  5
15E
330
70
100
AcDbEntity
  8
Bemaßung
 62
     7
370
     9
100
AcDbLine
 10
104.9099429093002
 20
90.3801731574766
 30
0.0
 11
104.9099429093002
 21
92.09324440704806
 31
0.0
  0
LINE
  5
15F
330
70
100
AcDbEntity
  8
Bemaßung
 62
     7
370
     9
100
AcDbLine
 10
104.9378829092932
 20
90.3801731574766
 30
0.0
 11
104.9378829092932
 21
92.30531676810629
 31
0.0
  0
LINE
  5
160
330
70
100
AcDbEntity
  8
Bemaßung
 62
     7
370
     9
100
AcDbLine
 10
105.1891488814528
 20
90.3801731574766
 30
0.0
 11
105.1891488814528
 21
90.39511329636166
 31
0.0
  0
LINE
  5
161
330
70
100
AcDbEntity
  8
Bemaßung
 62
     7
370
     9
100
AcDbLine
 10
105.1891488814528
 20
90.3801731574766
 30
0.0
 11
105.1891488814528
 21
90.39511329636166
 31
0.0
  0
LINE
  5
162
330
70
100
AcDbEntity
  8
Bemaßung
 62
     7
370
     9
100
AcDbLine
 10
105.1612088814597
 20
90.3801731574766
 30
0.0
 11
105.1612088814597
 21
90.60757371297517
 31
0.0
  0
LINE
  5
163
330
70
100
AcDbEntity
  8
Bemaßung
 62
     7
370
     9
100
AcDbLine
 10
105.1332688814667
 20
90.3801731574766
 30
0.0
 11
105.1332688814667
 21
90.81984010181074
 31
0.0
  0
LINE
  5
164
330
70
100
AcDbEntity
  8
Bemaßung
 62
     7
370
     9
100
AcDbLine
 10
105.1055229092516
 20
90.3801731574766
 30
0.0
 11
105.1055229092516
 21
91.03210649064694
 31
0.0
  0
LINE
  5
165
330
70
100
AcDbEntity
  8
Bemaßung
 62
     7
370
     9
100
AcDbLine
 10
105.0775829092585
 20
90.3801731574766
 30
0.0
 11
105.0775829092585
 21
91.24398482392722
 31
0.0
  0
LINE
  5
166
330
70
100
AcDbEntity
  8
Bemaßung
 62
     7
370
     9
100
AcDbLine
 10
105.0496429092655
 20
90.3801731574766
 30
0.0
 11
105.0496429092655
 21
91.45644524054073
 31
0.0
  0
LINE
  5
167
330
70
100
AcDbEntity
  8
Bemaßung
 62
     7
370
     9
100
AcDbLine
 10
105.0215088814944
 20
90.3801731574766
 30
0.0
 11
105.0215088814944
 21
91.6687116293763
 31
0.0
  0
LINE
  5
168
330
70
100
AcDbEntity
  8
Bemaßung
 62
     7
370
     9
100
AcDbLine
 10
104.9935688815014
 20
90.3801731574766
 30
0.0
 11
104.9935688815014
 21
91.8809780182125
 31
0.0
  0
LINE
  5
169
330
70
100
AcDbEntity
  8
Bemaßung
 62
     7
370
     9
100
AcDbLine
 10
104.9658229092863
 20
90.3801731574766
 30
0.0
 11
104.9658229092863
 21
92.09324440704806
 31
0.0
  0
LINE
  5
16A
330
70
100
AcDbEntity
  8
Bemaßung
 62
     7
370
     9
100
AcDbLine
 10
104.9378829092932
 20
90.3801731574766
 30
0.0
 11
104.9378829092932
 21
92.30531676810629
 31
0.0
  0
LWPOLYLINE
  5
16B
330
70
100
AcDbEntity
  8
Bemaßung
 62
     7
370
     9
100
AcDbPolyline
 90
        4
 70
     0
 43
0.0
 10
104.9378829092932
 20
82.68018079829042
 10
105.1910891592298
 20
84.60532440892013
 10
104.6842886038013
 20
84.60532440892013
 10
104.9378829092932
 20
82.68018079829042
  0
LINE
  5
16C
330
70
100
AcDbEntity
  8
Bemaßung
 62
     7
370
     9
100
AcDbLine
 10
105.1891488814528
 20
84.60532440892013
 30
0.0
 11
105.1891488814528
 21
84.59038427003507
 31
0.0
  0
LINE
  5
16D
330
70
100
AcDbEntity
  8
Bemaßung
 62
     7
370
     9
100
AcDbLine
 10
105.1891488814528
 20
84.60532440892013
 30
0.0
 11
105.1891488814528
 21
84.59038427003507
 31
0.0
  0
LINE
  5
16E
330
70
100
AcDbEntity
  8
Bemaßung
 62
     7
370
     9
100
AcDbLine
 10
105.1612088814597
 20
84.60532440892013
 30
0.0
 11
105.1612088814597
 21
84.37792385342154
 31
0.0
  0
LINE
  5
16F
330
70
100
AcDbEntity
  8
Bemaßung
 62
     7
370
     9
100
AcDbLine
 10
105.1332688814667
 20
84.60532440892013
 30
0.0
 11
105.1332688814667
 21
84.16565746458536
 31
0.0
  0
LINE
  5
170
330
70
100
AcDbEntity
  8
Bemaßung
 62
     7
370
     9
100
AcDbLine
 10
105.1055229092516
 20
84.60532440892013
 30
0.0
 11
105.1055229092516
 21
83.95377913130507
 31
0.0
  0
LINE
  5
171
330
70
100
AcDbEntity
  8
Bemaßung
 62
     7
370
     9
100
AcDbLine
 10
105.0775829092585
 20
84.60532440892013
 30
0.0
 11
105.0775829092585
 21
83.74151274246951
 31
0.0
  0
LINE
  5
172
330
70
100
AcDbEntity
  8
Bemaßung
 62
     7
370
     9
100
AcDbLine
 10
105.0496429092655
 20
84.60532440892013
 30
0.0
 11
105.0496429092655
 21
83.52905232585598
 31
0.0
  0
LINE
  5
173
330
70
100
AcDbEntity
  8
Bemaßung
 62
     7
370
     9
100
AcDbLine
 10
105.0215088814944
 20
84.60532440892013
 30
0.0
 11
105.0215088814944
 21
83.31678593701978
 31
0.0
  0
LINE
  5
174
330
70
100
AcDbEntity
  8
Bemaßung
 62
     7
370
     9
100
AcDbLine
 10
104.9935688815014
 20
84.60532440892013
 30
0.0
 11
104.9935688815014
 21
83.1049076037395
 31
0.0
  0
LINE
  5
175
330
70
100
AcDbEntity
  8
Bemaßung
 62
     7
370
     9
100
AcDbLine
 10
104.9658229092863
 20
84.60532440892013
 30
0.0
 11
104.9658229092863
 21
82.89264121490395
 31
0.0
  0
LINE
  5
176
330
70
100
AcDbEntity
  8
Bemaßung
 62
     7
370
     9
100
AcDbLine
 10
104.9378829092932
 20
84.60532440892013
 30
0.0
 11
104.9378829092932
 21
82.68018079829042
 31
0.0
  0
LINE
  5
177
330
70
100
AcDbEntity
  8
Bemaßung
 62
     7
370
     9
100
AcDbLine
 10
104.6862288815783
 20
84.60532440892013
 30
0.0
 11
104.6862288815783
 21
84.59038427003507
 31
0.0
  0
LINE
  5
178
330
70
100
AcDbEntity
  8
Bemaßung
 62
     7
370
     9
100
AcDbLine
 10
104.6862288815783
 20
84.60532440892013
 30
0.0
 11
104.6862288815783
 21
84.59038427003507
 31
0.0
  0
LINE
  5
179
330
70
100
AcDbEntity
  8
Bemaßung
 62
     7
370
     9
100
AcDbLine
 10
104.7141688815714
 20
84.60532440892013
 30
0.0
 11
104.7141688815714
 21
84.37792385342154
 31
0.0
  0
LINE
  5
17A
330
70
100
AcDbEntity
  8
Bemaßung
 62
     7
370
     9
100
AcDbLine
 10
104.7421088815645
 20
84.60532440892013
 30
0.0
 11
104.7421088815645
 21
84.16565746458536
 31
0.0
  0
LINE
  5
17B
330
70
100
AcDbEntity
  8
Bemaßung
 62
     7
370
     9
100
AcDbLine
 10
104.7702429093348
 20
84.60532440892013
 30
0.0
 11
104.7702429093348
 21
83.95377913130507
 31
0.0
  0
LINE
  5
17C
330
70
100
AcDbEntity
  8
Bemaßung
 62
     7
370
     9
100
AcDbLine
 10
104.7981829093279
 20
84.60532440892013
 30
0.0
 11
104.7981829093279
 21
83.74151274246951
 31
0.0
  0
LINE
  5
17D
330
70
100
AcDbEntity
  8
Bemaßung
 62
     7
370
     9
100
AcDbLine
 10
104.826122909321
 20
84.60532440892013
 30
0.0
 11
104.826122909321
 21
83.52905232585598
 31
0.0
  0
LINE
  5
17E
330
70
100
AcDbEntity
  8
Bemaßung
 62
     7
370
     9
100
AcDbLine
 10
104.8538688815367
 20
84.60532440892013
 30
0.0
 11
104.8538688815367
 21
83.31678593701978
 31
0.0
  0
LINE
  5
17F
330
70
100
AcDbEntity
  8
Bemaßung
 62
     7
370
     9
100
AcDbLine
 10
104.8818088815291
 20
84.60532440892013
 30
0.0
 11
104.8818088815291
 21
83.1049076037395
 31
0.0
  0
LINE
  5
180
330
70
100
AcDbEntity
  8
Bemaßung
 62
     7
370
     9
100
AcDbLine
 10
104.9099429093002
 20
84.60532440892013
 30
0.0
 11
104.9099429093002
 21
82.89264121490395
 31
0.0
  0
LINE
  5
181
330
70
100
AcDbEntity
  8
Bemaßung
 62
     7
370
     9
100
AcDbLine
 10
104.9378829092932
 20
84.60532440892013
 30
0.0
 11
104.9378829092932
 21
82.68018079829042
 31
0.0
  0
LINE
  5
182
330
70
100
AcDbEntity
  8
Bemaßung
 62
     7
370
     9
100
AcDbLine
 10
110.437988324585
 20
82.68018079829042
 30
0.0
 11
110.437988324585
 21
62.24789163673206
 31
0.0
  0
LINE
  5
183
330
70
100
AcDbEntity
  8
Bemaßung
 62
     7
370
     9
100
AcDbLine
 10
143.4376506774461
 20
82.80785107603625
 30
0.0
 11
143.4376506774461
 21
62.24789163673206
 31
0.0
  0
LINE
  5
184
330
70
100
AcDbEntity
  8
Bemaßung
 62
     7
370
     9
100
AcDbLine
 10
110.437988324585
 20
63.34764108090127
 30
0.0
 11
143.4376506774461
 21
63.34764108090127
 31
0.0
  0
LWPOLYLINE
  5
185
330
70
100
AcDbEntity
  8
Bemaßung
 62
     7
370
     9
100
AcDbPolyline
 90
        4
 70
     0
 43
0.0
 10
110.437988324585
 20
63.34764108090127
 10
112.3629379074368
 20
63.09443483096465
 10
112.3629379074368
 20
63.60104135861586
 10
110.437988324585
 20
63.34764108090127
  0
LINE
  5
186
330
70
100
AcDbEntity
  8
Bemaßung
 62
     7
370
     9
100
AcDbLine
 10
112.3629379074368
 20
63.0963751087417
 30
0.0
 11
112.3479977685523
 21
63.0963751087417
 31
0.0
  0
LINE
  5
187
330
70
100
AcDbEntity
  8
Bemaßung
 62
     7
370
     9
100
AcDbLine
 10
112.3629379074368
 20
63.0963751087417
 30
0.0
 11
112.3479977685523
 21
63.0963751087417
 31
0.0
  0
LINE
  5
188
330
70
100
AcDbEntity
  8
Bemaßung
 62
     7
370
     9
100
AcDbLine
 10
112.3629379074368
 20
63.12431510873476
 30
0.0
 11
112.1357313797161
 21
63.12431510873476
 31
0.0
  0
LINE
  5
189
330
70
100
AcDbEntity
  8
Bemaßung
 62
     7
370
     9
100
AcDbLine
 10
112.3629379074368
 20
63.15225510872782
 30
0.0
 11
111.9234649908799
 21
63.15225510872782
 31
0.0
  0
LINE
  5
18A
330
70
100
AcDbEntity
  8
Bemaßung
 62
     7
370
     9
100
AcDbLine
 10
112.3629379074368
 20
63.18019510872087
 30
0.0
 11
111.7111986020444
 21
63.18019510872087
 31
0.0
  0
LINE
  5
18B
330
70
100
AcDbEntity
  8
Bemaßung
 62
     7
370
     9
100
AcDbLine
 10
112.3629379074368
 20
63.20813510871393
 30
0.0
 11
111.4991262409868
 21
63.20813510871393
 31
0.0
  0
LINE
  5
18C
330
70
100
AcDbEntity
  8
Bemaßung
 62
     7
370
     9
100
AcDbLine
 10
112.3629379074368
 20
63.23588108092903
 30
0.0
 11
111.2868598521506
 21
63.23588108092903
 31
0.0
  0
LINE
  5
18D
330
70
100
AcDbEntity
  8
Bemaßung
 62
     7
370
     9
100
AcDbLine
 10
112.3629379074368
 20
63.26382108092209
 30
0.0
 11
111.0745934633144
 21
63.26382108092209
 31
0.0
  0
LINE
  5
18E
330
70
100
AcDbEntity
  8
Bemaßung
 62
     7
370
     9
100
AcDbLine
 10
112.3629379074368
 20
63.29176108091516
 30
0.0
 11
110.8623270744788
 21
63.29176108091516
 31
0.0
  0
LINE
  5
18F
330
70
100
AcDbEntity
  8
Bemaßung
 62
     7
370
     9
100
AcDbLine
 10
112.3629379074368
 20
63.31970108090821
 30
0.0
 11
110.6498666578653
 21
63.31970108090821
 31
0.0
  0
LINE
  5
190
330
70
100
AcDbEntity
  8
Bemaßung
 62
     7
370
     9
100
AcDbLine
 10
112.3629379074368
 20
63.34764108090127
 30
0.0
 11
110.437988324585
 21
63.34764108090127
 31
0.0
  0
LINE
  5
191
330
70
100
AcDbEntity
  8
Bemaßung
 62
     7
370
     9
100
AcDbLine
 10
112.3629379074368
 20
63.59910108083817
 30
0.0
 11
112.3479977685523
 21
63.59910108083817
 31
0.0
  0
LINE
  5
192
330
70
100
AcDbEntity
  8
Bemaßung
 62
     7
370
     9
100
AcDbLine
 10
112.3629379074368
 20
63.59910108083817
 30
0.0
 11
112.3479977685523
 21
63.59910108083817
 31
0.0
  0
LINE
  5
193
330
70
100
AcDbEntity
  8
Bemaßung
 62
     7
370
     9
100
AcDbLine
 10
112.3629379074368
 20
63.57116108084511
 30
0.0
 11
112.1357313797161
 21
63.57116108084511
 31
0.0
  0
LINE
  5
194
330
70
100
AcDbEntity
  8
Bemaßung
 62
     7
370
     9
100
AcDbLine
 10
112.3629379074368
 20
63.54322108085206
 30
0.0
 11
111.9234649908799
 21
63.54322108085206
 31
0.0
  0
LINE
  5
195
330
70
100
AcDbEntity
  8
Bemaßung
 62
     7
370
     9
100
AcDbLine
 10
112.3629379074368
 20
63.51547510863696
 30
0.0
 11
111.7111986020444
 21
63.51547510863696
 31
0.0
  0
LINE
  5
196
330
70
100
AcDbEntity
  8
Bemaßung
 62
     7
370
     9
100
AcDbLine
 10
112.3629379074368
 20
63.4875351086439
 30
0.0
 11
111.4991262409868
 21
63.4875351086439
 31
0.0
  0
LINE
  5
197
330
70
100
AcDbEntity
  8
Bemaßung
 62
     7
370
     9
100
AcDbLine
 10
112.3629379074368
 20
63.45959510865084
 30
0.0
 11
111.2868598521506
 21
63.45959510865084
 31
0.0
  0
LINE
  5
198
330
70
100
AcDbEntity
  8
Bemaßung
 62
     7
370
     9
100
AcDbLine
 10
112.3629379074368
 20
63.43165510865778
 30
0.0
 11
111.0745934633144
 21
63.43165510865778
 31
0.0
  0
LINE
  5
199
330
70
100
AcDbEntity
  8
Bemaßung
 62
     7
370
     9
100
AcDbLine
 10
112.3629379074368
 20
63.40371510866471
 30
0.0
 11
110.8623270744788
 21
63.40371510866471
 31
0.0
  0
LINE
  5
19A
330
70
100
AcDbEntity
  8
Bemaßung
 62
     7
370
     9
100
AcDbLine
 10
112.3629379074368
 20
63.3757751086723
 30
0.0
 11
110.6498666578653
 21
63.3757751086723
 31
0.0
  0
LINE
  5
19B
330
70
100
AcDbEntity
  8
Bemaßung
 62
     7
370
     9
100
AcDbLine
 10
112.3629379074368
 20
63.34764108090127
 30
0.0
 11
110.437988324585
 21
63.34764108090127
 31
0.0
  0
LWPOLYLINE
  5
19C
330
70
100
AcDbEntity
  8
Bemaßung
 62
     7
370
     9
100
AcDbPolyline
 90
        4
 70
     0
 43
0.0
 10
143.4376506774461
 20
63.34764108090127
 10
141.5127010945937
 20
63.60104135861586
 10
141.5127010945937
 20
63.09443483096465
 10
143.4376506774461
 20
63.34764108090127
  0
LINE
  5
19D
330
70
100
AcDbEntity
  8
Bemaßung
 62
     7
370
     9
100
AcDbLine
 10
141.5127010945937
 20
63.59910108083817
 30
0.0
 11
141.5276412334794
 21
63.59910108083817
 31
0.0
  0
LINE
  5
19E
330
70
100
AcDbEntity
  8
Bemaßung
 62
     7
370
     9
100
AcDbLine
 10
141.5127010945937
 20
63.59910108083817
 30
0.0
 11
141.5276412334794
 21
63.59910108083817
 31
0.0
  0
LINE
  5
19F
330
70
100
AcDbEntity
  8
Bemaßung
 62
     7
370
     9
100
AcDbLine
 10
141.5127010945937
 20
63.57116108084511
 30
0.0
 11
141.739907622315
 21
63.57116108084511
 31
0.0
  0
LINE
  5
1A0
330
70
100
AcDbEntity
  8
Bemaßung
 62
     7
370
     9
100
AcDbLine
 10
141.5127010945937
 20
63.54322108085206
 30
0.0
 11
141.9521740111506
 21
63.54322108085206
 31
0.0
  0
LINE
  5
1A1
330
70
100
AcDbEntity
  8
Bemaßung
 62
     7
370
     9
100
AcDbLine
 10
141.5127010945937
 20
63.51547510863696
 30
0.0
 11
142.1644403999868
 21
63.51547510863696
 31
0.0
  0
LINE
  5
1A2
330
70
100
AcDbEntity
  8
Bemaßung
 62
     7
370
     9
100
AcDbLine
 10
141.5127010945937
 20
63.4875351086439
 30
0.0
 11
142.376512761045
 21
63.4875351086439
 31
0.0
  0
LINE
  5
1A3
330
70
100
AcDbEntity
  8
Bemaßung
 62
     7
370
     9
100
AcDbLine
 10
141.5127010945937
 20
63.45959510865084
 30
0.0
 11
142.5887791498806
 21
63.45959510865084
 31
0.0
  0
LINE
  5
1A4
330
70
100
AcDbEntity
  8
Bemaßung
 62
     7
370
     9
100
AcDbLine
 10
141.5127010945937
 20
63.43165510865778
 30
0.0
 11
142.8010455387161
 21
63.43165510865778
 31
0.0
  0
LINE
  5
1A5
330
70
100
AcDbEntity
  8
Bemaßung
 62
     7
370
     9
100
AcDbLine
 10
141.5127010945937
 20
63.40371510866471
 30
0.0
 11
143.0133119275523
 21
63.40371510866471
 31
0.0
  0
LINE
  5
1A6
330
70
100
AcDbEntity
  8
Bemaßung
 62
     7
370
     9
100
AcDbLine
 10
141.5127010945937
 20
63.3757751086723
 30
0.0
 11
143.2255783163885
 21
63.3757751086723
 31
0.0
  0
LINE
  5
1A7
330
70
100
AcDbEntity
  8
Bemaßung
 62
     7
370
     9
100
AcDbLine
 10
141.5127010945937
 20
63.34764108090127
 30
0.0
 11
143.4376506774461
 21
63.34764108090127
 31
0.0
  0
LINE
  5
1A8
330
70
100
AcDbEntity
  8
Bemaßung
 62
     7
370
     9
100
AcDbLine
 10
141.5127010945937
 20
63.0963751087417
 30
0.0
 11
141.5276412334794
 21
63.0963751087417
 31
0.0
  0
LINE
  5
1A9
330
70
100
AcDbEntity
  8
Bemaßung
 62
     7
370
     9
100
AcDbLine
 10
141.5127010945937
 20
63.0963751087417
 30
0.0
 11
141.5276412334794
 21
63.0963751087417
 31
0.0
  0
LINE
  5
1AA
330
70
100
AcDbEntity
  8
Bemaßung
 62
     7
370
     9
100
AcDbLine
 10
141.5127010945937
 20
63.12431510873476
 30
0.0
 11
141.739907622315
 21
63.12431510873476
 31
0.0
  0
LINE
  5
1AB
330
70
100
AcDbEntity
  8
Bemaßung
 62
     7
370
     9
100
AcDbLine
 10
141.5127010945937
 20
63.15225510872782
 30
0.0
 11
141.9521740111506
 21
63.15225510872782
 31
0.0
  0
LINE
  5
1AC
330
70
100
AcDbEntity
  8
Bemaßung
 62
     7
370
     9
100
AcDbLine
 10
141.5127010945937
 20
63.18019510872087
 30
0.0
 11
142.1644403999868
 21
63.18019510872087
 31
0.0
  0
LINE
  5
1AD
330
70
100
AcDbEntity
  8
Bemaßung
 62
     7
370
     9
100
AcDbLine
 10
141.5127010945937
 20
63.20813510871393
 30
0.0
 11
142.376512761045
 21
63.20813510871393
 31
0.0
  0
LINE
  5
1AE
330
70
100
AcDbEntity
  8
Bemaßung
 62
     7
370
     9
100
AcDbLine
 10
141.5127010945937
 20
63.23588108092903
 30
0.0
 11
142.5887791498806
 21
63.23588108092903
 31
0.0
  0
LINE
  5
1AF
330
70
100
AcDbEntity
  8
Bemaßung
 62
     7
370
     9
100
AcDbLine
 10
141.5127010945937
 20
63.26382108092209
 30
0.0
 11
142.8010455387161
 21
63.26382108092209
 31
0.0
  0
LINE
  5
1B0
330
70
100
AcDbEntity
  8
Bemaßung
 62
     7
370
     9
100
AcDbLine
 10
141.5127010945937
 20
63.29176108091516
 30
0.0
 11
143.0133119275523
 21
63.29176108091516
 31
0.0
  0
LINE
  5
1B1
330
70
100
AcDbEntity
  8
Bemaßung
 62
     7
370
     9
100
AcDbLine
 10
141.5127010945937
 20
63.31970108090821
 30
0.0
 11
143.2255783163885
 21
63.31970108090821
 31
0.0
  0
LINE
  5
1B2
330
70
100
AcDbEntity
  8
Bemaßung
 62
     7
370
     9
100
AcDbLine
 10
141.5127010945937
 20
63.34764108090127
 30
0.0
 11
143.4376506774461
 21
63.34764108090127
 31
0.0
  0
LINE
  5
1B3
330
70
100
AcDbEntity
  8
Bemaßung
 62
     7
370
     9
100
AcDbLine
 10
135.1877835961753
 20
82.68018079829042
 30
0.0
 11
135.1877835961753
 21
73.24771441175977
 31
0.0
  0
LINE
  5
1B4
330
70
100
AcDbEntity
  8
Bemaßung
 62
     7
370
     9
100
AcDbLine
 10
143.4376506774461
 20
74.34765788370694
 30
0.0
 11
135.1877835961753
 21
74.34765788370694
 31
0.0
  0
LWPOLYLINE
  5
1B5
330
70
100
AcDbEntity
  8
Bemaßung
 62
     7
370
     9
100
AcDbPolyline
 90
        4
 70
     0
 43
0.0
 10
143.4376506774461
 20
74.34765788370694
 10
141.5127010945937
 20
74.60125218919886
 10
141.5127010945937
 20
74.09425760599235
 10
143.4376506774461
 20
74.34765788370694
  0
LINE
  5
1B6
330
70
100
AcDbEntity
  8
Bemaßung
 62
     7
370
     9
100
AcDbLine
 10
141.5127010945937
 20
74.59931191142181
 30
0.0
 11
141.5276412334794
 21
74.59931191142181
 31
0.0
  0
LINE
  5
1B7
330
70
100
AcDbEntity
  8
Bemaßung
 62
     7
370
     9
100
AcDbLine
 10
141.5127010945937
 20
74.59931191142181
 30
0.0
 11
141.5276412334794
 21
74.59931191142181
 31
0.0
  0
LINE
  5
1B8
330
70
100
AcDbEntity
  8
Bemaßung
 62
     7
370
     9
100
AcDbLine
 10
141.5127010945937
 20
74.57137191142876
 30
0.0
 11
141.739907622315
 21
74.57137191142876
 31
0.0
  0
LINE
  5
1B9
330
70
100
AcDbEntity
  8
Bemaßung
 62
     7
370
     9
100
AcDbLine
 10
141.5127010945937
 20
74.54343191143569
 30
0.0
 11
141.9521740111506
 21
74.54343191143569
 31
0.0
  0
LINE
  5
1BA
330
70
100
AcDbEntity
  8
Bemaßung
 62
     7
370
     9
100
AcDbLine
 10
141.5127010945937
 20
74.51549191144263
 30
0.0
 11
142.1644403999868
 21
74.51549191144263
 31
0.0
  0
LINE
  5
1BB
330
70
100
AcDbEntity
  8
Bemaßung
 62
     7
370
     9
100
AcDbLine
 10
141.5127010945937
 20
74.48755191144957
 30
0.0
 11
142.376512761045
 21
74.48755191144957
 31
0.0
  0
LINE
  5
1BC
330
70
100
AcDbEntity
  8
Bemaßung
 62
     7
370
     9
100
AcDbLine
 10
141.5127010945937
 20
74.4596119114565
 30
0.0
 11
142.5887791498806
 21
74.4596119114565
 31
0.0
  0
LINE
  5
1BD
330
70
100
AcDbEntity
  8
Bemaßung
 62
     7
370
     9
100
AcDbLine
 10
141.5127010945937
 20
74.43147788368612
 30
0.0
 11
142.8010455387161
 21
74.43147788368612
 31
0.0
  0
LINE
  5
1BE
330
70
100
AcDbEntity
  8
Bemaßung
 62
     7
370
     9
100
AcDbLine
 10
141.5127010945937
 20
74.40353788369306
 30
0.0
 11
143.0133119275523
 21
74.40353788369306
 31
0.0
  0
LINE
  5
1BF
330
70
100
AcDbEntity
  8
Bemaßung
 62
     7
370
     9
100
AcDbLine
 10
141.5127010945937
 20
74.37559788370001
 30
0.0
 11
143.2255783163885
 21
74.37559788370001
 31
0.0
  0
LINE
  5
1C0
330
70
100
AcDbEntity
  8
Bemaßung
 62
     7
370
     9
100
AcDbLine
 10
141.5127010945937
 20
74.34765788370694
 30
0.0
 11
143.4376506774461
 21
74.34765788370694
 31
0.0
  0
LINE
  5
1C1
330
70
100
AcDbEntity
  8
Bemaßung
 62
     7
370
     9
100
AcDbLine
 10
141.5127010945937
 20
74.0961978837694
 30
0.0
 11
141.5276412334794
 21
74.0961978837694
 31
0.0
  0
LINE
  5
1C2
330
70
100
AcDbEntity
  8
Bemaßung
 62
     7
370
     9
100
AcDbLine
 10
141.5127010945937
 20
74.0961978837694
 30
0.0
 11
141.5276412334794
 21
74.0961978837694
 31
0.0
  0
LINE
  5
1C3
330
70
100
AcDbEntity
  8
Bemaßung
 62
     7
370
     9
100
AcDbLine
 10
141.5127010945937
 20
74.12413788376247
 30
0.0
 11
141.739907622315
 21
74.12413788376247
 31
0.0
  0
LINE
  5
1C4
330
70
100
AcDbEntity
  8
Bemaßung
 62
     7
370
     9
100
AcDbLine
 10
141.5127010945937
 20
74.15207788375552
 30
0.0
 11
141.9521740111506
 21
74.15207788375552
 31
0.0
  0
LINE
  5
1C5
330
70
100
AcDbEntity
  8
Bemaßung
 62
     7
370
     9
100
AcDbLine
 10
141.5127010945937
 20
74.18021191152655
 30
0.0
 11
142.1644403999868
 21
74.18021191152655
 31
0.0
  0
LINE
  5
1C6
330
70
100
AcDbEntity
  8
Bemaßung
 62
     7
370
     9
100
AcDbLine
 10
141.5127010945937
 20
74.20815191151961
 30
0.0
 11
142.376512761045
 21
74.20815191151961
 31
0.0
  0
LINE
  5
1C7
330
70
100
AcDbEntity
  8
Bemaßung
 62
     7
370
     9
100
AcDbLine
 10
141.5127010945937
 20
74.23609191151268
 30
0.0
 11
142.5887791498806
 21
74.23609191151268
 31
0.0
  0
LINE
  5
1C8
330
70
100
AcDbEntity
  8
Bemaßung
 62
     7
370
     9
100
AcDbLine
 10
141.5127010945937
 20
74.26403191150573
 30
0.0
 11
142.8010455387161
 21
74.26403191150573
 31
0.0
  0
LINE
  5
1C9
330
70
100
AcDbEntity
  8
Bemaßung
 62
     7
370
     9
100
AcDbLine
 10
141.5127010945937
 20
74.29197191149879
 30
0.0
 11
143.0133119275523
 21
74.29197191149879
 31
0.0
  0
LINE
  5
1CA
330
70
100
AcDbEntity
  8
Bemaßung
 62
     7
370
     9
100
AcDbLine
 10
141.5127010945937
 20
74.31971788371389
 30
0.0
 11
143.2255783163885
 21
74.31971788371389
 31
0.0
  0
LINE
  5
1CB
330
70
100
AcDbEntity
  8
Bemaßung
 62
     7
370
     9
100
AcDbLine
 10
141.5127010945937
 20
74.34765788370694
 30
0.0
 11
143.4376506774461
 21
74.34765788370694
 31
0.0
  0
LWPOLYLINE
  5
1CC
330
70
100
AcDbEntity
  8
Bemaßung
 62
     7
370
     9
100
AcDbPolyline
 90
        4
 70
     0
 43
0.0
 10
135.1877835961753
 20
74.34765788370694
 10
137.1127331790277
 20
74.09425760599235
 10
137.1127331790277
 20
74.60125218919886
 10
135.1877835961753
 20
74.34765788370694
  0
LINE
  5
1CD
330
70
100
AcDbEntity
  8
Bemaßung
 62
     7
370
     9
100
AcDbLine
 10
137.1127331790277
 20
74.0961978837694
 30
0.0
 11
137.0977930401426
 21
74.0961978837694
 31
0.0
  0
LINE
  5
1CE
330
70
100
AcDbEntity
  8
Bemaßung
 62
     7
370
     9
100
AcDbLine
 10
137.1127331790277
 20
74.0961978837694
 30
0.0
 11
137.0977930401426
 21
74.0961978837694
 31
0.0
  0
LINE
  5
1CF
330
70
100
AcDbEntity
  8
Bemaßung
 62
     7
370
     9
100
AcDbLine
 10
137.1127331790277
 20
74.12413788376247
 30
0.0
 11
136.8855266513065
 21
74.12413788376247
 31
0.0
  0
LINE
  5
1D0
330
70
100
AcDbEntity
  8
Bemaßung
 62
     7
370
     9
100
AcDbLine
 10
137.1127331790277
 20
74.15207788375552
 30
0.0
 11
136.6732602624703
 21
74.15207788375552
 31
0.0
  0
LINE
  5
1D1
330
70
100
AcDbEntity
  8
Bemaßung
 62
     7
370
     9
100
AcDbLine
 10
137.1127331790277
 20
74.18021191152655
 30
0.0
 11
136.4609938736347
 21
74.18021191152655
 31
0.0
  0
LINE
  5
1D2
330
70
100
AcDbEntity
  8
Bemaßung
 62
     7
370
     9
100
AcDbLine
 10
137.1127331790277
 20
74.20815191151961
 30
0.0
 11
136.2489215125771
 21
74.20815191151961
 31
0.0
  0
LINE
  5
1D3
330
70
100
AcDbEntity
  8
Bemaßung
 62
     7
370
     9
100
AcDbLine
 10
137.1127331790277
 20
74.23609191151268
 30
0.0
 11
136.0366551237409
 21
74.23609191151268
 31
0.0
  0
LINE
  5
1D4
330
70
100
AcDbEntity
  8
Bemaßung
 62
     7
370
     9
100
AcDbLine
 10
137.1127331790277
 20
74.26403191150573
 30
0.0
 11
135.8243887349047
 21
74.26403191150573
 31
0.0
  0
LINE
  5
1D5
330
70
100
AcDbEntity
  8
Bemaßung
 62
     7
370
     9
100
AcDbLine
 10
137.1127331790277
 20
74.29197191149879
 30
0.0
 11
135.6121223460691
 21
74.29197191149879
 31
0.0
  0
LINE
  5
1D6
330
70
100
AcDbEntity
  8
Bemaßung
 62
     7
370
     9
100
AcDbLine
 10
137.1127331790277
 20
74.31971788371389
 30
0.0
 11
135.4000499850116
 21
74.31971788371389
 31
0.0
  0
LINE
  5
1D7
330
70
100
AcDbEntity
  8
Bemaßung
 62
     7
370
     9
100
AcDbLine
 10
137.1127331790277
 20
74.34765788370694
 30
0.0
 11
135.1877835961753
 21
74.34765788370694
 31
0.0
  0
LINE
  5
1D8
330
70
100
AcDbEntity
  8
Bemaßung
 62
     7
370
     9
100
AcDbLine
 10
137.1127331790277
 20
74.59931191142181
 30
0.0
 11
137.0977930401426
 21
74.59931191142181
 31
0.0
  0
LINE
  5
1D9
330
70
100
AcDbEntity
  8
Bemaßung
 62
     7
370
     9
100
AcDbLine
 10
137.1127331790277
 20
74.59931191142181
 30
0.0
 11
137.0977930401426
 21
74.59931191142181
 31
0.0
  0
LINE
  5
1DA
330
70
100
AcDbEntity
  8
Bemaßung
 62
     7
370
     9
100
AcDbLine
 10
137.1127331790277
 20
74.57137191142876
 30
0.0
 11
136.8855266513065
 21
74.57137191142876
 31
0.0
  0
LINE
  5
1DB
330
70
100
AcDbEntity
  8
Bemaßung
 62
     7
370
     9
100
AcDbLine
 10
137.1127331790277
 20
74.54343191143569
 30
0.0
 11
136.6732602624703
 21
74.54343191143569
 31
0.0
  0
LINE
  5
1DC
330
70
100
AcDbEntity
  8
Bemaßung
 62
     7
370
     9
100
AcDbLine
 10
137.1127331790277
 20
74.51549191144263
 30
0.0
 11
136.4609938736347
 21
74.51549191144263
 31
0.0
  0
LINE
  5
1DD
330
70
100
AcDbEntity
  8
Bemaßung
 62
     7
370
     9
100
AcDbLine
 10
137.1127331790277
 20
74.48755191144957
 30
0.0
 11
136.2489215125771
 21
74.48755191144957
 31
0.0
  0
LINE
  5
1DE
330
70
100
AcDbEntity
  8
Bemaßung
 62
     7
370
     9
100
AcDbLine
 10
137.1127331790277
 20
74.4596119114565
 30
0.0
 11
136.0366551237409
 21
74.4596119114565
 31
0.0
  0
LINE
  5
1DF
330
70
100
AcDbEntity
  8
Bemaßung
 62
     7
370
     9
100
AcDbLine
 10
137.1127331790277
 20
74.43147788368612
 30
0.0
 11
135.8243887349047
 21
74.43147788368612
 31
0.0
  0
LINE
  5
1E0
330
70
100
AcDbEntity
  8
Bemaßung
 62
     7
370
     9
100
AcDbLine
 10
137.1127331790277
 20
74.40353788369306
 30
0.0
 11
135.6121223460691
 21
74.40353788369306
 31
0.0
  0
LINE
  5
1E1
330
70
100
AcDbEntity
  8
Bemaßung
 62
     7
370
     9
100
AcDbLine
 10
137.1127331790277
 20
74.37559788370001
 30
0.0
 11
135.4000499850116
 21
74.37559788370001
 31
0.0
  0
LINE
  5
1E2
330
70
100
AcDbEntity
  8
Bemaßung
 62
     7
370
     9
100
AcDbLine
 10
137.1127331790277
 20
74.34765788370694
 30
0.0
 11
135.1877835961753
 21
74.34765788370694
 31
0.0
  0
LINE
  5
1E3
330
70
100
AcDbEntity
  8
Bemaßung
 62
     7
370
     9
100
AcDbLine
 10
110.9878630466696
 20
80.6176655210284
 30
0.0
 11
110.9878630466696
 21
73.24771441175977
 31
0.0
  0
LINE
  5
1E4
330
70
100
AcDbEntity
  8
Bemaßung
 62
     7
370
     9
100
AcDbLine
 10
115.8003340176886
 20
74.34765788370694
 30
0.0
 11
106.7989973532727
 21
74.34765788370694
 31
0.0
  0
LWPOLYLINE
  5
1E5
330
70
100
AcDbEntity
  8
Bemaßung
 62
     7
370
     9
100
AcDbPolyline
 90
        4
 70
     0
 43
0.0
 10
110.437988324585
 20
74.34765788370694
 10
108.5126506861774
 20
74.60125218919886
 10
108.5126506861774
 20
74.09425760599235
 10
110.437988324585
 20
74.34765788370694
  0
LINE
  5
1E6
330
70
100
AcDbEntity
  8
Bemaßung
 62
     7
370
     9
100
AcDbLine
 10
108.5126506861774
 20
74.59931191142181
 30
0.0
 11
108.5279788806177
 21
74.59931191142181
 31
0.0
  0
LINE
  5
1E7
330
70
100
AcDbEntity
  8
Bemaßung
 62
     7
370
     9
100
AcDbLine
 10
108.5126506861774
 20
74.59931191142181
 30
0.0
 11
108.5279788806177
 21
74.59931191142181
 31
0.0
  0
LINE
  5
1E8
330
70
100
AcDbEntity
  8
Bemaßung
 62
     7
370
     9
100
AcDbLine
 10
108.5126506861774
 20
74.57137191142876
 30
0.0
 11
108.739857213898
 21
74.57137191142876
 31
0.0
  0
LINE
  5
1E9
330
70
100
AcDbEntity
  8
Bemaßung
 62
     7
370
     9
100
AcDbLine
 10
108.5126506861774
 20
74.54343191143569
 30
0.0
 11
108.9521236027342
 21
74.54343191143569
 31
0.0
  0
LINE
  5
1EA
330
70
100
AcDbEntity
  8
Bemaßung
 62
     7
370
     9
100
AcDbLine
 10
108.5126506861774
 20
74.51549191144263
 30
0.0
 11
109.1645840193477
 21
74.51549191144263
 31
0.0
  0
LINE
  5
1EB
330
70
100
AcDbEntity
  8
Bemaßung
 62
     7
370
     9
100
AcDbLine
 10
108.5126506861774
 20
74.48755191144957
 30
0.0
 11
109.3768504081833
 21
74.48755191144957
 31
0.0
  0
LINE
  5
1EC
330
70
100
AcDbEntity
  8
Bemaßung
 62
     7
370
     9
100
AcDbLine
 10
108.5126506861774
 20
74.4596119114565
 30
0.0
 11
109.5891167970195
 21
74.4596119114565
 31
0.0
  0
LINE
  5
1ED
330
70
100
AcDbEntity
  8
Bemaßung
 62
     7
370
     9
100
AcDbLine
 10
108.5126506861774
 20
74.43147788368612
 30
0.0
 11
109.8009951302997
 21
74.43147788368612
 31
0.0
  0
LINE
  5
1EE
330
70
100
AcDbEntity
  8
Bemaßung
 62
     7
370
     9
100
AcDbLine
 10
108.5126506861774
 20
74.40353788369306
 30
0.0
 11
110.0134555469133
 21
74.40353788369306
 31
0.0
  0
LINE
  5
1EF
330
70
100
AcDbEntity
  8
Bemaßung
 62
     7
370
     9
100
AcDbLine
 10
108.5126506861774
 20
74.37559788370001
 30
0.0
 11
110.2257219357488
 21
74.37559788370001
 31
0.0
  0
LINE
  5
1F0
330
70
100
AcDbEntity
  8
Bemaßung
 62
     7
370
     9
100
AcDbLine
 10
108.5126506861774
 20
74.34765788370694
 30
0.0
 11
110.437988324585
 21
74.34765788370694
 31
0.0
  0
LINE
  5
1F1
330
70
100
AcDbEntity
  8
Bemaßung
 62
     7
370
     9
100
AcDbLine
 10
108.5126506861774
 20
74.0961978837694
 30
0.0
 11
108.5279788806177
 21
74.0961978837694
 31
0.0
  0
LINE
  5
1F2
330
70
100
AcDbEntity
  8
Bemaßung
 62
     7
370
     9
100
AcDbLine
 10
108.5126506861774
 20
74.0961978837694
 30
0.0
 11
108.5279788806177
 21
74.0961978837694
 31
0.0
  0
LINE
  5
1F3
330
70
100
AcDbEntity
  8
Bemaßung
 62
     7
370
     9
100
AcDbLine
 10
108.5126506861774
 20
74.12413788376247
 30
0.0
 11
108.739857213898
 21
74.12413788376247
 31
0.0
  0
LINE
  5
1F4
330
70
100
AcDbEntity
  8
Bemaßung
 62
     7
370
     9
100
AcDbLine
 10
108.5126506861774
 20
74.15207788375552
 30
0.0
 11
108.9521236027342
 21
74.15207788375552
 31
0.0
  0
LINE
  5
1F5
330
70
100
AcDbEntity
  8
Bemaßung
 62
     7
370
     9
100
AcDbLine
 10
108.5126506861774
 20
74.18021191152655
 30
0.0
 11
109.1645840193477
 21
74.18021191152655
 31
0.0
  0
LINE
  5
1F6
330
70
100
AcDbEntity
  8
Bemaßung
 62
     7
370
     9
100
AcDbLine
 10
108.5126506861774
 20
74.20815191151961
 30
0.0
 11
109.3768504081833
 21
74.20815191151961
 31
0.0
  0
LINE
  5
1F7
330
70
100
AcDbEntity
  8
Bemaßung
 62
     7
370
     9
100
AcDbLine
 10
108.5126506861774
 20
74.23609191151268
 30
0.0
 11
109.5891167970195
 21
74.23609191151268
 31
0.0
  0
LINE
  5
1F8
330
70
100
AcDbEntity
  8
Bemaßung
 62
     7
370
     9
100
AcDbLine
 10
108.5126506861774
 20
74.26403191150573
 30
0.0
 11
109.8009951302997
 21
74.26403191150573
 31
0.0
  0
LINE
  5
1F9
330
70
100
AcDbEntity
  8
Bemaßung
 62
     7
370
     9
100
AcDbLine
 10
108.5126506861774
 20
74.29197191149879
 30
0.0
 11
110.0134555469133
 21
74.29197191149879
 31
0.0
  0
LINE
  5
1FA
330
70
100
AcDbEntity
  8
Bemaßung
 62
     7
370
     9
100
AcDbLine
 10
108.5126506861774
 20
74.31971788371389
 30
0.0
 11
110.2257219357488
 21
74.31971788371389
 31
0.0
  0
LINE
  5
1FB
330
70
100
AcDbEntity
  8
Bemaßung
 62
     7
370
     9
100
AcDbLine
 10
108.5126506861774
 20
74.34765788370694
 30
0.0
 11
110.437988324585
 21
74.34765788370694
 31
0.0
  0
LWPOLYLINE
  5
1FC
330
70
100
AcDbEntity
  8
Bemaßung
 62
     7
370
     9
100
AcDbPolyline
 90
        4
 70
     0
 43
0.0
 10
110.9878630466696
 20
74.34765788370694
 10
112.912812629522
 20
74.09425760599235
 10
112.912812629522
 20
74.60125218919886
 10
110.9878630466696
 20
74.34765788370694
  0
LINE
  5
1FD
330
70
100
AcDbEntity
  8
Bemaßung
 62
     7
370
     9
100
AcDbLine
 10
112.912812629522
 20
74.0961978837694
 30
0.0
 11
112.8978724906363
 21
74.0961978837694
 31
0.0
  0
LINE
  5
1FE
330
70
100
AcDbEntity
  8
Bemaßung
 62
     7
370
     9
100
AcDbLine
 10
112.912812629522
 20
74.0961978837694
 30
0.0
 11
112.8978724906363
 21
74.0961978837694
 31
0.0
  0
LINE
  5
1FF
330
70
100
AcDbEntity
  8
Bemaßung
 62
     7
370
     9
100
AcDbLine
 10
112.912812629522
 20
74.12413788376247
 30
0.0
 11
112.6856061018008
 21
74.12413788376247
 31
0.0
  0
LINE
  5
200
330
70
100
AcDbEntity
  8
Bemaßung
 62
     7
370
     9
100
AcDbLine
 10
112.912812629522
 20
74.15207788375552
 30
0.0
 11
112.4735337407432
 21
74.15207788375552
 31
0.0
  0
LINE
  5
201
330
70
100
AcDbEntity
  8
Bemaßung
 62
     7
370
     9
100
AcDbLine
 10
112.912812629522
 20
74.18021191152655
 30
0.0
 11
112.261267351907
 21
74.18021191152655
 31
0.0
  0
LINE
  5
202
330
70
100
AcDbEntity
  8
Bemaßung
 62
     7
370
     9
100
AcDbLine
 10
112.912812629522
 20
74.20815191151961
 30
0.0
 11
112.0490009630707
 21
74.20815191151961
 31
0.0
  0
LINE
  5
203
330
70
100
AcDbEntity
  8
Bemaßung
 62
     7
370
     9
100
AcDbLine
 10
112.912812629522
 20
74.23609191151268
 30
0.0
 11
111.8367345742352
 21
74.23609191151268
 31
0.0
  0
LINE
  5
204
330
70
100
AcDbEntity
  8
Bemaßung
 62
     7
370
     9
100
AcDbLine
 10
112.912812629522
 20
74.26403191150573
 30
0.0
 11
111.6246622131776
 21
74.26403191150573
 31
0.0
  0
LINE
  5
205
330
70
100
AcDbEntity
  8
Bemaßung
 62
     7
370
     9
100
AcDbLine
 10
112.912812629522
 20
74.29197191149879
 30
0.0
 11
111.4123958243414
 21
74.29197191149879
 31
0.0
  0
LINE
  5
206
330
70
100
AcDbEntity
  8
Bemaßung
 62
     7
370
     9
100
AcDbLine
 10
112.912812629522
 20
74.31971788371389
 30
0.0
 11
111.2001294355052
 21
74.31971788371389
 31
0.0
  0
LINE
  5
207
330
70
100
AcDbEntity
  8
Bemaßung
 62
     7
370
     9
100
AcDbLine
 10
112.912812629522
 20
74.34765788370694
 30
0.0
 11
110.9878630466696
 21
74.34765788370694
 31
0.0
  0
LINE
  5
208
330
70
100
AcDbEntity
  8
Bemaßung
 62
     7
370
     9
100
AcDbLine
 10
112.912812629522
 20
74.59931191142181
 30
0.0
 11
112.8978724906363
 21
74.59931191142181
 31
0.0
  0
LINE
  5
209
330
70
100
AcDbEntity
  8
Bemaßung
 62
     7
370
     9
100
AcDbLine
 10
112.912812629522
 20
74.59931191142181
 30
0.0
 11
112.8978724906363
 21
74.59931191142181
 31
0.0
  0
LINE
  5
20A
330
70
100
AcDbEntity
  8
Bemaßung
 62
     7
370
     9
100
AcDbLine
 10
112.912812629522
 20
74.57137191142876
 30
0.0
 11
112.6856061018008
 21
74.57137191142876
 31
0.0
  0
LINE
  5
20B
330
70
100
AcDbEntity
  8
Bemaßung
 62
     7
370
     9
100
AcDbLine
 10
112.912812629522
 20
74.54343191143569
 30
0.0
 11
112.4735337407432
 21
74.54343191143569
 31
0.0
  0
LINE
  5
20C
330
70
100
AcDbEntity
  8
Bemaßung
 62
     7
370
     9
100
AcDbLine
 10
112.912812629522
 20
74.51549191144263
 30
0.0
 11
112.261267351907
 21
74.51549191144263
 31
0.0
  0
LINE
  5
20D
330
70
100
AcDbEntity
  8
Bemaßung
 62
     7
370
     9
100
AcDbLine
 10
112.912812629522
 20
74.48755191144957
 30
0.0
 11
112.0490009630707
 21
74.48755191144957
 31
0.0
  0
LINE
  5
20E
330
70
100
AcDbEntity
  8
Bemaßung
 62
     7
370
     9
100
AcDbLine
 10
112.912812629522
 20
74.4596119114565
 30
0.0
 11
111.8367345742352
 21
74.4596119114565
 31
0.0
  0
LINE
  5
20F
330
70
100
AcDbEntity
  8
Bemaßung
 62
     7
370
     9
100
AcDbLine
 10
112.912812629522
 20
74.43147788368612
 30
0.0
 11
111.6246622131776
 21
74.43147788368612
 31
0.0
  0
LINE
  5
210
330
70
100
AcDbEntity
  8
Bemaßung
 62
     7
370
     9
100
AcDbLine
 10
112.912812629522
 20
74.40353788369306
 30
0.0
 11
111.4123958243414
 21
74.40353788369306
 31
0.0
  0
LINE
  5
211
330
70
100
AcDbEntity
  8
Bemaßung
 62
     7
370
     9
100
AcDbLine
 10
112.912812629522
 20
74.37559788370001
 30
0.0
 11
111.2001294355052
 21
74.37559788370001
 31
0.0
  0
LINE
  5
212
330
70
100
AcDbEntity
  8
Bemaßung
 62
     7
370
     9
100
AcDbLine
 10
112.912812629522
 20
74.34765788370694
 30
0.0
 11
110.9878630466696
 21
74.34765788370694
 31
0.0
  0
LINE
  5
213
330
70
100
AcDbEntity
  8
Bemaßung
 62
     7
370
     9
100
AcDbLine
 10
113.187944018342
 20
80.6176655210284
 30
0.0
 11
113.187944018342
 21
67.74780302424591
 31
0.0
  0
LINE
  5
214
330
70
100
AcDbEntity
  8
Bemaßung
 62
     7
370
     9
100
AcDbLine
 10
105.6253233257881
 20
68.84774649619309
 30
0.0
 11
118.0004149893609
 21
68.84774649619309
 31
0.0
  0
LWPOLYLINE
  5
215
330
70
100
AcDbEntity
  8
Bemaßung
 62
     7
370
     9
100
AcDbPolyline
 90
        4
 70
     0
 43
0.0
 10
110.437988324585
 20
68.84774649619309
 10
108.5126506861774
 20
69.101340801685
 10
108.5126506861774
 20
68.5943462184785
 10
110.437988324585
 20
68.84774649619309
  0
LINE
  5
216
330
70
100
AcDbEntity
  8
Bemaßung
 62
     7
370
     9
100
AcDbLine
 10
108.5126506861774
 20
69.09940052390796
 30
0.0
 11
108.5279788806177
 21
69.09940052390796
 31
0.0
  0
LINE
  5
217
330
70
100
AcDbEntity
  8
Bemaßung
 62
     7
370
     9
100
AcDbLine
 10
108.5126506861774
 20
69.09940052390796
 30
0.0
 11
108.5279788806177
 21
69.09940052390796
 31
0.0
  0
LINE
  5
218
330
70
100
AcDbEntity
  8
Bemaßung
 62
     7
370
     9
100
AcDbLine
 10
108.5126506861774
 20
69.07146052391489
 30
0.0
 11
108.739857213898
 21
69.07146052391489
 31
0.0
  0
LINE
  5
219
330
70
100
AcDbEntity
  8
Bemaßung
 62
     7
370
     9
100
AcDbLine
 10
108.5126506861774
 20
69.04352052392183
 30
0.0
 11
108.9521236027342
 21
69.04352052392183
 31
0.0
  0
LINE
  5
21A
330
70
100
AcDbEntity
  8
Bemaßung
 62
     7
370
     9
100
AcDbLine
 10
108.5126506861774
 20
69.01558052392878
 30
0.0
 11
109.1645840193477
 21
69.01558052392878
 31
0.0
  0
LINE
  5
21B
330
70
100
AcDbEntity
  8
Bemaßung
 62
     7
370
     9
100
AcDbLine
 10
108.5126506861774
 20
68.98764052393571
 30
0.0
 11
109.3768504081833
 21
68.98764052393571
 31
0.0
  0
LINE
  5
21C
330
70
100
AcDbEntity
  8
Bemaßung
 62
     7
370
     9
100
AcDbLine
 10
108.5126506861774
 20
68.95950649616469
 30
0.0
 11
109.5891167970195
 21
68.95950649616469
 31
0.0
  0
LINE
  5
21D
330
70
100
AcDbEntity
  8
Bemaßung
 62
     7
370
     9
100
AcDbLine
 10
108.5126506861774
 20
68.93156649617228
 30
0.0
 11
109.8009951302997
 21
68.93156649617228
 31
0.0
  0
LINE
  5
21E
330
70
100
AcDbEntity
  8
Bemaßung
 62
     7
370
     9
100
AcDbLine
 10
108.5126506861774
 20
68.90362649617921
 30
0.0
 11
110.0134555469133
 21
68.90362649617921
 31
0.0
  0
LINE
  5
21F
330
70
100
AcDbEntity
  8
Bemaßung
 62
     7
370
     9
100
AcDbLine
 10
108.5126506861774
 20
68.87568649618614
 30
0.0
 11
110.2257219357488
 21
68.87568649618614
 31
0.0
  0
LINE
  5
220
330
70
100
AcDbEntity
  8
Bemaßung
 62
     7
370
     9
100
AcDbLine
 10
108.5126506861774
 20
68.84774649619309
 30
0.0
 11
110.437988324585
 21
68.84774649619309
 31
0.0
  0
LINE
  5
221
330
70
100
AcDbEntity
  8
Bemaßung
 62
     7
370
     9
100
AcDbLine
 10
108.5126506861774
 20
68.59628649625554
 30
0.0
 11
108.5279788806177
 21
68.59628649625554
 31
0.0
  0
LINE
  5
222
330
70
100
AcDbEntity
  8
Bemaßung
 62
     7
370
     9
100
AcDbLine
 10
108.5126506861774
 20
68.59628649625554
 30
0.0
 11
108.5279788806177
 21
68.59628649625554
 31
0.0
  0
LINE
  5
223
330
70
100
AcDbEntity
  8
Bemaßung
 62
     7
370
     9
100
AcDbLine
 10
108.5126506861774
 20
68.62422649624861
 30
0.0
 11
108.739857213898
 21
68.62422649624861
 31
0.0
  0
LINE
  5
224
330
70
100
AcDbEntity
  8
Bemaßung
 62
     7
370
     9
100
AcDbLine
 10
108.5126506861774
 20
68.65216649624167
 30
0.0
 11
108.9521236027342
 21
68.65216649624167
 31
0.0
  0
LINE
  5
225
330
70
100
AcDbEntity
  8
Bemaßung
 62
     7
370
     9
100
AcDbLine
 10
108.5126506861774
 20
68.68010649623473
 30
0.0
 11
109.1645840193477
 21
68.68010649623473
 31
0.0
  0
LINE
  5
226
330
70
100
AcDbEntity
  8
Bemaßung
 62
     7
370
     9
100
AcDbLine
 10
108.5126506861774
 20
68.70824052400576
 30
0.0
 11
109.3768504081833
 21
68.70824052400576
 31
0.0
  0
LINE
  5
227
330
70
100
AcDbEntity
  8
Bemaßung
 62
     7
370
     9
100
AcDbLine
 10
108.5126506861774
 20
68.73618052399881
 30
0.0
 11
109.5891167970195
 21
68.73618052399881
 31
0.0
  0
LINE
  5
228
330
70
100
AcDbEntity
  8
Bemaßung
 62
     7
370
     9
100
AcDbLine
 10
108.5126506861774
 20
68.76412052399188
 30
0.0
 11
109.8009951302997
 21
68.76412052399188
 31
0.0
  0
LINE
  5
229
330
70
100
AcDbEntity
  8
Bemaßung
 62
     7
370
     9
100
AcDbLine
 10
108.5126506861774
 20
68.79206052398493
 30
0.0
 11
110.0134555469133
 21
68.79206052398493
 31
0.0
  0
LINE
  5
22A
330
70
100
AcDbEntity
  8
Bemaßung
 62
     7
370
     9
100
AcDbLine
 10
108.5126506861774
 20
68.82000052397735
 30
0.0
 11
110.2257219357488
 21
68.82000052397735
 31
0.0
  0
LINE
  5
22B
330
70
100
AcDbEntity
  8
Bemaßung
 62
     7
370
     9
100
AcDbLine
 10
108.5126506861774
 20
68.84774649619309
 30
0.0
 11
110.437988324585
 21
68.84774649619309
 31
0.0
  0
LWPOLYLINE
  5
22C
330
70
100
AcDbEntity
  8
Bemaßung
 62
     7
370
     9
100
AcDbPolyline
 90
        4
 70
     0
 43
0.0
 10
113.187944018342
 20
68.84774649619309
 10
115.1128936011937
 20
68.5943462184785
 10
115.1128936011937
 20
69.101340801685
 10
113.187944018342
 20
68.84774649619309
  0
LINE
  5
22D
330
70
100
AcDbEntity
  8
Bemaßung
 62
     7
370
     9
100
AcDbLine
 10
115.1128936011937
 20
68.59628649625554
 30
0.0
 11
115.0979534623086
 21
68.59628649625554
 31
0.0
  0
LINE
  5
22E
330
70
100
AcDbEntity
  8
Bemaßung
 62
     7
370
     9
100
AcDbLine
 10
115.1128936011937
 20
68.59628649625554
 30
0.0
 11
115.0979534623086
 21
68.59628649625554
 31
0.0
  0
LINE
  5
22F
330
70
100
AcDbEntity
  8
Bemaßung
 62
     7
370
     9
100
AcDbLine
 10
115.1128936011937
 20
68.62422649624861
 30
0.0
 11
114.8856870734731
 21
68.62422649624861
 31
0.0
  0
LINE
  5
230
330
70
100
AcDbEntity
  8
Bemaßung
 62
     7
370
     9
100
AcDbLine
 10
115.1128936011937
 20
68.65216649624167
 30
0.0
 11
114.6734206846369
 21
68.65216649624167
 31
0.0
  0
LINE
  5
231
330
70
100
AcDbEntity
  8
Bemaßung
 62
     7
370
     9
100
AcDbLine
 10
115.1128936011937
 20
68.68010649623473
 30
0.0
 11
114.4613483235793
 21
68.68010649623473
 31
0.0
  0
LINE
  5
232
330
70
100
AcDbEntity
  8
Bemaßung
 62
     7
370
     9
100
AcDbLine
 10
115.1128936011937
 20
68.70824052400576
 30
0.0
 11
114.2490819347431
 21
68.70824052400576
 31
0.0
  0
LINE
  5
233
330
70
100
AcDbEntity
  8
Bemaßung
 62
     7
370
     9
100
AcDbLine
 10
115.1128936011937
 20
68.73618052399881
 30
0.0
 11
114.0368155459075
 21
68.73618052399881
 31
0.0
  0
LINE
  5
234
330
70
100
AcDbEntity
  8
Bemaßung
 62
     7
370
     9
100
AcDbLine
 10
115.1128936011937
 20
68.76412052399188
 30
0.0
 11
113.8245491570713
 21
68.76412052399188
 31
0.0
  0
LINE
  5
235
330
70
100
AcDbEntity
  8
Bemaßung
 62
     7
370
     9
100
AcDbLine
 10
115.1128936011937
 20
68.79206052398493
 30
0.0
 11
113.6120887404584
 21
68.79206052398493
 31
0.0
  0
LINE
  5
236
330
70
100
AcDbEntity
  8
Bemaßung
 62
     7
370
     9
100
AcDbLine
 10
115.1128936011937
 20
68.82000052397735
 30
0.0
 11
113.4002104071775
 21
68.82000052397735
 31
0.0
  0
LINE
  5
237
330
70
100
AcDbEntity
  8
Bemaßung
 62
     7
370
     9
100
AcDbLine
 10
115.1128936011937
 20
68.84774649619309
 30
0.0
 11
113.187944018342
 21
68.84774649619309
 31
0.0
  0
LINE
  5
238
330
70
100
AcDbEntity
  8
Bemaßung
 62
     7
370
     9
100
AcDbLine
 10
115.1128936011937
 20
69.09940052390796
 30
0.0
 11
115.0979534623086
 21
69.09940052390796
 31
0.0
  0
LINE
  5
239
330
70
100
AcDbEntity
  8
Bemaßung
 62
     7
370
     9
100
AcDbLine
 10
115.1128936011937
 20
69.09940052390796
 30
0.0
 11
115.0979534623086
 21
69.09940052390796
 31
0.0
  0
LINE
  5
23A
330
70
100
AcDbEntity
  8
Bemaßung
 62
     7
370
     9
100
AcDbLine
 10
115.1128936011937
 20
69.07146052391489
 30
0.0
 11
114.8856870734731
 21
69.07146052391489
 31
0.0
  0
LINE
  5
23B
330
70
100
AcDbEntity
  8
Bemaßung
 62
     7
370
     9
100
AcDbLine
 10
115.1128936011937
 20
69.04352052392183
 30
0.0
 11
114.6734206846369
 21
69.04352052392183
 31
0.0
  0
LINE
  5
23C
330
70
100
AcDbEntity
  8
Bemaßung
 62
     7
370
     9
100
AcDbLine
 10
115.1128936011937
 20
69.01558052392878
 30
0.0
 11
114.4613483235793
 21
69.01558052392878
 31
0.0
  0
LINE
  5
23D
330
70
100
AcDbEntity
  8
Bemaßung
 62
     7
370
     9
100
AcDbLine
 10
115.1128936011937
 20
68.98764052393571
 30
0.0
 11
114.2490819347431
 21
68.98764052393571
 31
0.0
  0
LINE
  5
23E
330
70
100
AcDbEntity
  8
Bemaßung
 62
     7
370
     9
100
AcDbLine
 10
115.1128936011937
 20
68.95950649616469
 30
0.0
 11
114.0368155459075
 21
68.95950649616469
 31
0.0
  0
LINE
  5
23F
330
70
100
AcDbEntity
  8
Bemaßung
 62
     7
370
     9
100
AcDbLine
 10
115.1128936011937
 20
68.93156649617228
 30
0.0
 11
113.8245491570713
 21
68.93156649617228
 31
0.0
  0
LINE
  5
240
330
70
100
AcDbEntity
  8
Bemaßung
 62
     7
370
     9
100
AcDbLine
 10
115.1128936011937
 20
68.90362649617921
 30
0.0
 11
113.6120887404584
 21
68.90362649617921
 31
0.0
  0
LINE
  5
241
330
70
100
AcDbEntity
  8
Bemaßung
 62
     7
370
     9
100
AcDbLine
 10
115.1128936011937
 20
68.87568649618614
 30
0.0
 11
113.4002104071775
 21
68.87568649618614
 31
0.0
  0
LINE
  5
242
330
70
100
AcDbEntity
  8
Bemaßung
 62
     7
370
     9
100
AcDbLine
 10
115.1128936011937
 20
68.84774649619309
 30
0.0
 11
113.187944018342
 21
68.84774649619309
 31
0.0
  0
MTEXT
  5
244
330
70
100
AcDbEntity
  8
Text
100
AcDbMText
 10
156.5374735122979
 20
83.60885007675404
 30
0.0
 40
0.2
 41
0.0
 46
0.0
 71
     7
 72
     1
  1
\C7;\FINDEX Univers 45 Light|b0|i0|c1;\H2.497667;\W1.000000;ø27,8
 11
0.0000000000000001
 21
1.0
 31
0.0
 73
     1
 44
1.0
  0
MTEXT
  5
245
330
70
100
AcDbEntity
  8
Text
100
AcDbMText
 10
150.9007805341064
 20
83.80177542392804
 30
0.0
 40
0.2
 41
0.0
 46
0.0
 71
     7
 72
     1
  1
\C7;\FINDEX Univers 45 Light|b0|i0|c1;\H2.497667;\W1.000000;ø17,5
 11
0.0000000000000001
 21
1.0
 31
0.0
 73
     1
 44
1.0
  0
MTEXT
  5
246
330
70
100
AcDbEntity
  8
Text
100
AcDbMText
 10
98.7492695879429
 20
84.7661437776366
 30
0.0
 40
0.2
 41
0.0
 46
0.0
 71
     7
 72
     1
  1
\C7;\FINDEX Univers 45 Light|b0|i0|c1;\H2.497667;\W1.000000;ø25
 11
0.0000000000000001
 21
1.0
 31
0.0
 73
     1
 44
1.0
  0
MTEXT
  5
247
330
70
100
AcDbEntity
  8
Text
100
AcDbMText
 10
104.2173251421314
 20
83.97377181602912
 30
0.0
 40
0.2
 41
0.0
 46
0.0
 71
     7
 72
     1
  1
\C7;\FINDEX Univers 45 Light|b0|i0|c1;\H2.497667;\W1.000000;ø17,5
 11
0.0000000000000001
 21
1.0
 31
0.0
 73
     1
 44
1.0
  0
MTEXT
  5
248
330
70
100
AcDbEntity
  8
Text
100
AcDbMText
 10
124.9836717081204
 20
64.02305160617306
 30
0.0
 40
0.2
 41
0.0
 46
0.0
 71
     7
 72
     1
  1
\C7;\FINDEX Univers 45 Light|b0|i0|c1;\H2.497667;\W1.000000;60
 73
     1
 44
1.0
  0
MTEXT
  5
249
330
70
100
AcDbEntity
  8
Text
100
AcDbMText
 10
137.4612907913725
 20
75.05631440723418
 30
0.0
 40
0.2
 41
0.0
 46
0.0
 71
     7
 72
     1
  1
\C7;\FINDEX Univers 45 Light|b0|i0|c1;\H2.497667;\W1.000000;15
 73
     1
 44
1.0
  0
MTEXT
  5
24A
330
70
100
AcDbEntity
  8
Text
100
AcDbMText
 10
106.7424078780453
 20
74.97948877791312
 30
0.0
 40
0.2
 41
0.0
 46
0.0
 71
     7
 72
     1
  1
\C7;\FINDEX Univers 45 Light|b0|i0|c1;\H2.497667;\W1.000000;1
 73
     1
 44
1.0
  0
MTEXT
  5
24B
330
70
100
AcDbEntity
  8
Text
100
AcDbMText
 10
106.4397562396661
 20
69.5228020388259
 30
0.0
 40
0.2
 41
0.0
 46
0.0
 71
     7
 72
     1
  1
\C7;\FINDEX Univers 45 Light|b0|i0|c1;\H2.497667;\W1.000000;5
 73
     1
 44
1.0
  0
MTEXT
  5
24C
330
70
100
AcDbEntity
  8
Text
100
AcDbMText
 10
116.3202174213797
 20
83.01510401875631
 30
0.0
 40
0.2
 41
0.0
 46
0.0
 71
     7
 72
     1
  1
\C7;\FArial|b0|i0|c1;\H2.708832;\W0.833000;mount
 11
0.0000000000000001
 21
1.0
 31
0.0
 73
     1
 44
1.0
  0
MTEXT
  5
24D
330
70
100
AcDbEntity
  8
Text
100
AcDbMText
 10
130.1343612981345
 20
92.78828277387459
 30
0.0
 40
0.2
 41
0.0
 46
0.0
 71
     7
 72
     1
  1
\C7;\FArial|b0|i0|c1;\H2.708832;\W0.828000;remove
 11
-0.0000000000000002
 21
-1.0
 31
0.0
 73
     1
 44
1.0
  0
ENDSEC
  0
SECTION
  2
OBJECTS
  0
DICTIONARY
  5
C
330
0
100
AcDbDictionary
281
     1
  3
ACAD_COLOR
350
63
  3
ACAD_DETAILVIEWSTYLE
350
6A
  3
ACAD_GROUP
350
D
  3
ACAD_LAYOUT
350
62
  3
ACAD_MATERIAL
350
10
  3
ACAD_MLEADERSTYLE
350
66
  3
ACAD_MLINESTYLE
350
5F
  3
ACAD_PLOTSETTINGS
350
61
  3
ACAD_PLOTSTYLENAME
350
E
  3
ACAD_SCALELIST
350
42
  3
ACAD_SECTIONVIEWSTYLE
350
68
  3
ACAD_TABLESTYLE
350
64
  3
ACAD_VISUALSTYLE
350
29
  3
ACDB_RECOMPOSE_DATA
350
256
  3
AcDbVariableDictionary
350
24E
  0
DICTIONARY
  5
63
102
{ACAD_REACTORS
330
C
102
}
330
C
100
AcDbDictionary
281
     1
  0
DICTIONARY
  5
6A
102
{ACAD_REACTORS
330
C
102
}
330
C
100
AcDbDictionary
281
     1
  3
Imperial24
350
6B
  0
DICTIONARY
  5
D
102
{ACAD_REACTORS
330
C
102
}
330
C
100
AcDbDictionary
281
     1
  0
DICTIONARY
  5
62
102
{ACAD_REACTORS
330
C
102
}
330
C
100
AcDbDictionary
281
     1
  3
Layout1
350
6F
  3
Layout2
350
77
  3
Model
350
73
  0
DICTIONARY
  5
10
102
{ACAD_REACTORS
330
C
102
}
330
C
100
AcDbDictionary
281
     1
  3
ByBlock
350
19
  3
ByLayer
350
11
  3
Global
350
21
  0
DICTIONARY
  5
66
102
{ACAD_REACTORS
330
C
102
}
330
C
100
AcDbDictionary
281
     1
  3
Standard
350
67
  0
DICTIONARY
  5
5F
102
{ACAD_REACTORS
330
C
102
}
330
C
100
AcDbDictionary
281
     1
  3
Standard
350
60
  0
DICTIONARY
  5
61
102
{ACAD_REACTORS
330
C
102
}
330
C
100
AcDbDictionary
281
     1
  0
ACDBDICTIONARYWDFLT
  5
E
102
{ACAD_REACTORS
330
C
102
}
330
C
100
AcDbDictionary
281
     1
  3
Normal
350
F
100
AcDbDictionaryWithDefault
340
F
  0
DICTIONARY
  5
42
102
{ACAD_REACTORS
330
C
102
}
330
C
100
AcDbDictionary
281
     1
  3
A0
350
43
  3
A1
350
44
  3
A2
350
45
  3
A3
350
46
  3
A4
350
47
  3
A5
350
48
  3
A6
350
49
  3
A7
350
4A
  3
A8
350
4B
  3
A9
350
4C
  3
B0
350
4D
  3
B1
350
4E
  3
B2
350
4F
  3
B3
350
50
  3
B4
350
51
  3
B5
350
52
  3
B6
350
53
  0
DICTIONARY
  5
68
102
{ACAD_REACTORS
330
C
102
}
330
C
100
AcDbDictionary
281
     1
  3
Imperial24
350
69
  0
DICTIONARY
  5
64
102
{ACAD_REACTORS
330
C
102
}
330
C
100
AcDbDictionary
281
     1
  3
Standard
350
65
  0
DICTIONARY
  5
29
102
{ACAD_REACTORS
330
C
102
}
330
C
100
AcDbDictionary
281
     1
  3
2dWireframe
350
2F
  3
Basic
350
2E
  3
Brighten
350
35
  3
ColorChange
350
39
  3
Conceptual
350
32
  3
Dim
350
34
  3
EdgeColorOff
350
41
  3
Facepattern
350
38
  3
Flat
350
2A
  3
FlatWithEdges
350
2B
  3
Gouraud
350
2C
  3
GouraudWithEdges
350
2D
  3
Hidden
350
31
  3
JitterOff
350
3F
  3
Linepattern
350
37
  3
OverhangOff
350
40
  3
Realistic
350
33
  3
Shaded
350
3E
  3
Shaded with edges
350
3D
  3
Shades of Gray
350
3A
  3
Sketchy
350
3B
  3
Thicken
350
36
  3
Wireframe
350
30
  3
X-Ray
350
3C
  0
XRECORD
  5
256
102
{ACAD_REACTORS
330
C
102
}
330
C
100
AcDbXrecord
280
     1
 90
        1
330
65
  0
DICTIONARY
  5
24E
102
{ACAD_REACTORS
330
C
102
}
330
C
100
AcDbDictionary
281
     1
  3
CANNOSCALE
350
253
  3
CMLEADERSTYLE
350
250
  3
CTABLESTYLE
350
24F
  3
CVIEWDETAILSTYLE
350
251
  3
CVIEWSECTIONSTYLE
350
252
  0
ACDBDETAILVIEWSTYLE
  5
6B
102
{ACAD_REACTORS
330
6A
102
}
330
6A
100
AcDbModelDocViewStyle
 70
     0
  3
Imperial24
290
     1
300
Imperial24
 90
        0
100
AcDbDetailViewStyle
 70
     0
 71
     0
 90
        3
 71
     1
340
55
 62
   256
 40
0.24
340
0
 62
   256
 40
0.24
300

 40
0.36
280
     3
 71
     2
340
5D
 90
       25
 62
   256
 71
     3
340
55
 62
   256
 40
0.24
 90
        1
 40
0.75
 90
        1
300
%<\AcVar ViewType \f "%tc1">% %<\AcVar ViewDetailId>%\PSCALE %<\AcVar ViewScale \f "%sn">%
 71
     4
340
5D
 90
       25
 62
   256
340
5D
 90
       25
 62
   256
280
     0
  0
LAYOUT
  5
6F
102
{ACAD_REACTORS
330
62
102
}
330
62
100
AcDbPlotSettings
  1

  2

  4

  6

 40
0.0
 41
0.0
 42
0.0
 43
0.0
 44
0.0
 45
0.0
 46
0.0
 47
0.0
 48
0.0
 49
0.0
140
0.0
141
0.0
142
1.0
143
1.0
 70
   688
 72
     0
 73
     0
 74
     5
  7

 75
    16
147
1.0
 76
     0
 77
     2
 78
   300
148
0.0
149
0.0
100
AcDbLayout
  1
Layout1
 70
     1
 71
     1
 10
0.0
 20
0.0
 11
12.0
 21
9.0
 12
0.0
 22
0.0
 32
0.0
 14
0.0
 24
0.0
 34
0.0
 15
0.0
 25
0.0
 35
0.0
146
0.0
 13
0.0
 23
0.0
 33
0.0
 16
1.0
 26
0.0
 36
0.0
 17
0.0
 27
1.0
 37
0.0
 76
     0
330
6C
  0
LAYOUT
  5
77
102
{ACAD_REACTORS
330
62
102
}
330
62
100
AcDbPlotSettings
  1

  2

  4

  6

 40
0.0
 41
0.0
 42
0.0
 43
0.0
 44
0.0
 45
0.0
 46
0.0
 47
0.0
 48
0.0
 49
0.0
140
0.0
141
0.0
142
1.0
143
1.0
 70
   688
 72
     0
 73
     0
 74
     5
  7

 75
    16
147
1.0
 76
     0
 77
     2
 78
   300
148
0.0
149
0.0
100
AcDbLayout
  1
Layout2
 70
     1
 71
     2
 10
0.0
 20
0.0
 11
12.0
 21
9.0
 12
0.0
 22
0.0
 32
0.0
 14
0.0
 24
0.0
 34
0.0
 15
0.0
 25
0.0
 35
0.0
146
0.0
 13
0.0
 23
0.0
 33
0.0
 16
1.0
 26
0.0
 36
0.0
 17
0.0
 27
1.0
 37
0.0
 76
     0
330
74
  0
LAYOUT
  5
73
102
{ACAD_REACTORS
330
62
102
}
330
62
100
AcDbPlotSettings
  1

  2

  4

  6

 40
0.0
 41
0.0
 42
0.0
 43
0.0
 44
0.0
 45
0.0
 46
0.0
 47
0.0
 48
0.0
 49
0.0
140
0.0
141
0.0
142
1.0
143
1.0
 70
  1712
 72
     0
 73
     0
 74
     0
  7

 75
     0
147
1.0
 76
     0
 77
     2
 78
   300
148
0.0
149
0.0
100
AcDbLayout
  1
Model
 70
     1
 71
     0
 10
0.0
 20
0.0
 11
12.0
 21
9.0
 12
0.0
 22
0.0
 32
0.0
 14
0.0
 24
0.0
 34
0.0
 15
0.0
 25
0.0
 35
0.0
146
0.0
 13
0.0
 23
0.0
 33
0.0
 16
1.0
 26
0.0
 36
0.0
 17
0.0
 27
1.0
 37
0.0
 76
     0
330
70
  0
MATERIAL
  5
19
102
{ACAD_XDICTIONARY
360
1A
102
}
102
{ACAD_REACTORS
330
10
102
}
330
10
100
AcDbMaterial
  1
ByBlock
 72
     0
 43
0.0208333333333333
 43
0.0
 43
0.0
 43
0.0
 43
0.0
 43
0.0208333333333333
 43
0.0
 43
0.0
 43
0.0
 43
0.0
 43
1.0
 43
0.0
 43
0.0
 43
0.0
 43
0.0
 43
1.0
 77
     0
 47
0.0208333333333333
 47
0.0
 47
0.0
 47
0.0
 47
0.0
 47
0.0208333333333333
 47
0.0
 47
0.0
 47
0.0
 47
0.0
 47
1.0
 47
0.0
 47
0.0
 47
0.0
 47
0.0
 47
1.0
171
     0
 49
0.0208333333333333
 49
0.0
 49
0.0
 49
0.0
 49
0.0
 49
0.0208333333333333
 49
0.0
 49
0.0
 49
0.0
 49
0.0
 49
1.0
 49
0.0
 49
0.0
 49
0.0
 49
0.0
 49
1.0
175
     0
142
0.0208333333333333
142
0.0
142
0.0
142
0.0
142
0.0
142
0.0208333333333333
142
0.0
142
0.0
142
0.0
142
0.0
142
1.0
142
0.0
142
0.0
142
0.0
142
0.0
142
1.0
179
     0
144
0.0208333333333333
144
0.0
144
0.0
144
0.0
144
0.0
144
0.0208333333333333
144
0.0
144
0.0
144
0.0
144
0.0
144
1.0
144
0.0
144
0.0
144
0.0
144
0.0
144
1.0
147
0.0208333333333333
147
0.0
147
0.0
147
0.0
147
0.0
147
0.0208333333333333
147
0.0
147
0.0
147
0.0
147
0.0
147
1.0
147
0.0
147
0.0
147
0.0
147
0.0
147
1.0
  0
MATERIAL
  5
11
102
{ACAD_XDICTIONARY
360
12
102
}
102
{ACAD_REACTORS
330
10
102
}
330
10
100
AcDbMaterial
  1
ByLayer
 72
     0
 43
0.0208333333333333
 43
0.0
 43
0.0
 43
0.0
 43
0.0
 43
0.0208333333333333
 43
0.0
 43
0.0
 43
0.0
 43
0.0
 43
1.0
 43
0.0
 43
0.0
 43
0.0
 43
0.0
 43
1.0
 77
     0
 47
0.0208333333333333
 47
0.0
 47
0.0
 47
0.0
 47
0.0
 47
0.0208333333333333
 47
0.0
 47
0.0
 47
0.0
 47
0.0
 47
1.0
 47
0.0
 47
0.0
 47
0.0
 47
0.0
 47
1.0
171
     0
 49
0.0208333333333333
 49
0.0
 49
0.0
 49
0.0
 49
0.0
 49
0.0208333333333333
 49
0.0
 49
0.0
 49
0.0
 49
0.0
 49
1.0
 49
0.0
 49
0.0
 49
0.0
 49
0.0
 49
1.0
175
     0
142
0.0208333333333333
142
0.0
142
0.0
142
0.0
142
0.0
142
0.0208333333333333
142
0.0
142
0.0
142
0.0
142
0.0
142
1.0
142
0.0
142
0.0
142
0.0
142
0.0
142
1.0
179
     0
144
0.0208333333333333
144
0.0
144
0.0
144
0.0
144
0.0
144
0.0208333333333333
144
0.0
144
0.0
144
0.0
144
0.0
144
1.0
144
0.0
144
0.0
144
0.0
144
0.0
144
1.0
147
0.0208333333333333
147
0.0
147
0.0
147
0.0
147
0.0
147
0.0208333333333333
147
0.0
147
0.0
147
0.0
147
0.0
147
1.0
147
0.0
147
0.0
147
0.0
147
0.0
147
1.0
  0
MATERIAL
  5
21
102
{ACAD_XDICTIONARY
360
22
102
}
102
{ACAD_REACTORS
330
10
102
}
330
10
100
AcDbMaterial
  1
Global
 72
     0
 43
0.0208333333333333
 43
0.0
 43
0.0
 43
0.0
 43
0.0
 43
0.0208333333333333
 43
0.0
 43
0.0
 43
0.0
 43
0.0
 43
1.0
 43
0.0
 43
0.0
 43
0.0
 43
0.0
 43
1.0
 77
     0
 47
0.0208333333333333
 47
0.0
 47
0.0
 47
0.0
 47
0.0
 47
0.0208333333333333
 47
0.0
 47
0.0
 47
0.0
 47
0.0
 47
1.0
 47
0.0
 47
0.0
 47
0.0
 47
0.0
 47
1.0
171
     0
 49
0.0208333333333333
 49
0.0
 49
0.0
 49
0.0
 49
0.0
 49
0.0208333333333333
 49
0.0
 49
0.0
 49
0.0
 49
0.0
 49
1.0
 49
0.0
 49
0.0
 49
0.0
 49
0.0
 49
1.0
175
     0
142
0.0208333333333333
142
0.0
142
0.0
142
0.0
142
0.0
142
0.0208333333333333
142
0.0
142
0.0
142
0.0
142
0.0
142
1.0
142
0.0
142
0.0
142
0.0
142
0.0
142
1.0
179
     0
144
0.0208333333333333
144
0.0
144
0.0
144
0.0
144
0.0
144
0.0208333333333333
144
0.0
144
0.0
144
0.0
144
0.0
144
1.0
144
0.0
144
0.0
144
0.0
144
0.0
144
1.0
147
0.0208333333333333
147
0.0
147
0.0
147
0.0
147
0.0
147
0.0208333333333333
147
0.0
147
0.0
147
0.0
147
0.0
147
1.0
147
0.0
147
0.0
147
0.0
147
0.0
147
1.0
  0
MLEADERSTYLE
  5
67
102
{ACAD_REACTORS
330
66
102
}
330
66
100
AcDbMLeaderStyle
179
     2
170
     2
171
     1
172
     0
 90
        2
 40
0.0
 41
0.0
173
     1
 91
-1056964608
340
5B
 92
       -2
290
     1
 42
0.09
291
     1
 43
0.36
  3
Standard
 44
0.18
300

342
55
174
     1
178
     6
175
     1
176
     0
 93
-1056964608
 45
0.18
292
     0
297
     0
 46
0.18
 94
-1056964608
 47
1.0
 49
1.0
140
1.0
293
     1
141
0.0
294
     1
177
     0
142
1.0
295
     1
296
     0
143
0.125
271
     0
272
     9
273
     9
298
     1
  0
MLINESTYLE
  5
60
102
{ACAD_REACTORS
330
5F
102
}
330
5F
100
AcDbMlineStyle
  2
STANDARD
 70
     0
  3

 62
   256
 51
90.0
 52
90.0
 71
     2
 49
0.5
 62
   256
  6
BYLAYER
 49
-0.5
 62
   256
  6
BYLAYER
  0
ACDBPLACEHOLDER
  5
F
102
{ACAD_REACTORS
330
E
102
}
330
E
  0
SCALE
  5
43
102
{ACAD_REACTORS
330
42
102
}
330
42
100
AcDbScale
 70
     0
300
1:1
140
1.0
141
1.0
290
     1
  0
SCALE
  5
44
102
{ACAD_REACTORS
330
42
102
}
330
42
100
AcDbScale
 70
     0
300
1/128" = 1'-0"
140
0.0078125
141
12.0
290
     0
  0
SCALE
  5
45
102
{ACAD_REACTORS
330
42
102
}
330
42
100
AcDbScale
 70
     0
300
1/64" = 1'-0"
140
0.015625
141
12.0
290
     0
  0
SCALE
  5
46
102
{ACAD_REACTORS
330
42
102
}
330
42
100
AcDbScale
 70
     0
300
1/32" = 1'-0"
140
0.03125
141
12.0
290
     0
  0
SCALE
  5
47
102
{ACAD_REACTORS
330
42
102
}
330
42
100
AcDbScale
 70
     0
300
1/16" = 1'-0"
140
0.0625
141
12.0
290
     0
  0
SCALE
  5
48
102
{ACAD_REACTORS
330
42
102
}
330
42
100
AcDbScale
 70
     0
300
3/32" = 1'-0"
140
0.09375
141
12.0
290
     0
  0
SCALE
  5
49
102
{ACAD_REACTORS
330
42
102
}
330
42
100
AcDbScale
 70
     0
300
1/8" = 1'-0"
140
0.125
141
12.0
290
     0
  0
SCALE
  5
4A
102
{ACAD_REACTORS
330
42
102
}
330
42
100
AcDbScale
 70
     0
300
3/16" = 1'-0"
140
0.1875
141
12.0
290
     0
  0
SCALE
  5
4B
102
{ACAD_REACTORS
330
42
102
}
330
42
100
AcDbScale
 70
     0
300
1/4" = 1'-0"
140
0.25
141
12.0
290
     0
  0
SCALE
  5
4C
102
{ACAD_REACTORS
330
42
102
}
330
42
100
AcDbScale
 70
     0
300
3/8" = 1'-0"
140
0.375
141
12.0
290
     0
  0
SCALE
  5
4D
102
{ACAD_REACTORS
330
42
102
}
330
42
100
AcDbScale
 70
     0
300
1/2" = 1'-0"
140
0.5
141
12.0
290
     0
  0
SCALE
  5
4E
102
{ACAD_REACTORS
330
42
102
}
330
42
100
AcDbScale
 70
     0
300
3/4" = 1'-0"
140
0.75
141
12.0
290
     0
  0
SCALE
  5
4F
102
{ACAD_REACTORS
330
42
102
}
330
42
100
AcDbScale
 70
     0
300
1" = 1'-0"
140
1.0
141
12.0
290
     0
  0
SCALE
  5
50
102
{ACAD_REACTORS
330
42
102
}
330
42
100
AcDbScale
 70
     0
300
1-1/2" = 1'-0"
140
1.5
141
12.0
290
     0
  0
SCALE
  5
51
102
{ACAD_REACTORS
330
42
102
}
330
42
100
AcDbScale
 70
     0
300
3" = 1'-0"
140
3.0
141
12.0
290
     0
  0
SCALE
  5
52
102
{ACAD_REACTORS
330
42
102
}
330
42
100
AcDbScale
 70
     0
300
6" = 1'-0"
140
6.0
141
12.0
290
     0
  0
SCALE
  5
53
102
{ACAD_REACTORS
330
42
102
}
330
42
100
AcDbScale
 70
     0
300
1'-0" = 1'-0"
140
12.0
141
12.0
290
     0
  0
ACDBSECTIONVIEWSTYLE
  5
69
102
{ACAD_REACTORS
330
68
102
}
330
68
100
AcDbModelDocViewStyle
 70
     0
  3
Imperial24
290
     1
300
Imperial24
 90
        0
100
AcDbSectionViewStyle
 70
     0
 71
     0
 90
       78
 71
     1
340
55
 62
   256
 40
0.24
340
0
340
0
 62
   256
 40
0.24
300
I, O, Q, S, X, Z
 40
0.48
 90
        3
 40
0.18
 90
        1
 71
     2
340
5D
 90
       25
 62
   256
340
5D
 90
       50
 62
   256
 40
0.24
 40
0.0
 40
0.24
 71
     3
340
55
 62
   256
 40
0.24
 90
        1
 40
0.75
 90
        1
300
%<\AcVar ViewType \f "%tc1">% %<\AcVar ViewSectionStartId>%-%<\AcVar ViewSectionEndId>%\PSCALE %<\AcVar ViewScale \f "%sn">%
 71
     4
 62
   256
 62
   257
300
ANSI31
 40
1.0
 90
        0
290
     0
290
     0
 90
        6
 40
0.0
 40
1.570796326794896
 40
0.2617993877991494
 40
1.308996938995747
 40
-0.2617993877991494
 40
1.832595714594046
  0
TABLESTYLE
  5
65
102
{ACAD_XDICTIONARY
360
254
102
}
102
{ACAD_REACTORS
330
64
102
}
330
64
100
AcDbTableStyle
280
     0
  3
Standard
 70
     0
 71
     0
 40
0.06
 41
0.06
280
     0
281
     0
  7
Standard
140
0.18
170
     2
 62
     0
 63
     7
283
     0
 90
      512
 91
        0
  1

274
    -2
284
     1
 64
     0
275
    -2
285
     1
 65
     0
276
    -2
286
     1
 66
     0
277
    -2
287
     1
 67
     0
278
    -2
288
     1
 68
     0
279
    -2
289
     1
 69
     0
  7
Standard
140
0.25
170
     5
 62
     0
 63
     7
283
     0
 90
      512
 91
        0
  1

274
    -2
284
     1
 64
     0
275
    -2
285
     1
 65
     0
276
    -2
286
     1
 66
     0
277
    -2
287
     1
 67
     0
278
    -2
288
     1
 68
     0
279
    -2
289
     1
 69
     0
  7
Standard
140
0.18
170
     5
 62
     0
 63
     7
283
     0
 90
      512
 91
        0
  1

274
    -2
284
     1
 64
     0
275
    -2
285
     1
 65
     0
276
    -2
286
     1
 66
     0
277
    -2
287
     1
 67
     0
278
    -2
288
     1
 68
     0
279
    -2
289
     1
 69
     0
  0
VISUALSTYLE
  5
2F
102
{ACAD_REACTORS
330
29
102
}
330
29
100
AcDbVisualStyle
  2
2dWireframe
 70
     4
177
     3
291
     0
 70
    58
 90
        0
176
     1
 90
        2
176
     1
 90
        0
176
     1
 90
        0
176
     1
 40
0.6
176
     1
 40
30.0
176
     1
 62
     7
420
 16777215
176
     1
 90
        1
176
     1
 90
        4
176
     1
 62
     7
176
     1
 62
   257
176
     1
 90
        1
176
     1
 90
        1
176
     1
 40
1.0
176
     1
 90
        0
176
     1
 62
   257
176
     1
 40
1.0
176
     1
 90
        1
176
     1
 90
        6
176
     1
 90
        2
176
     1
 62
     7
176
     1
 90
        5
176
     1
 90
        0
176
     1
 90
        0
176
     1
290
     0
176
     1
 90
        1
176
     1
 40
0.0
176
     1
 90
        0
176
     1
290
     1
176
     1
290
     1
176
     1
290
     0
176
     1
290
     0
176
     1
290
     0
176
     1
290
     0
176
     1
290
     0
176
     1
290
     0
176
     1
290
     0
176
     1
 90
       50
176
     1
 40
0.0
176
     1
 40
1.0
176
     1
 90
        0
176
     1
 62
    18
420
        0
176
     1
 90
       50
176
     1
 90
        3
176
     1
 62
     5
420
      255
176
     1
290
     0
176
     1
 90
       50
176
     1
 90
       50
176
     1
 90
       50
176
     1
290
     0
176
     1
 90
       50
176
     1
 62
   256
176
     0
 40
1.0
176
     0
 90
        2
176
     1
  1
strokes_ogs.tif
176
     1
290
     0
176
     1
 40
1.0
176
     1
 40
1.0
176
     1
  0
VISUALSTYLE
  5
2E
102
{ACAD_REACTORS
330
29
102
}
330
29
100
AcDbVisualStyle
  2
Basic
 70
     7
177
     3
291
     1
 70
    58
 90
        1
176
     1
 90
        0
176
     1
 90
        1
176
     1
 90
        0
176
     1
 40
0.6
176
     1
 40
30.0
176
     1
 62
     7
420
 16777215
176
     1
 90
        0
176
     1
 90
        4
176
     1
 62
     7
176
     1
 62
   257
176
     1
 90
        1
176
     1
 90
        1
176
     1
 40
1.0
176
     1
 90
        8
176
     1
 62
     7
176
     1
 40
1.0
176
     1
 90
        1
176
     1
 90
        6
176
     1
 90
        2
176
     1
 62
     7
176
     1
 90
        5
176
     1
 90
        0
176
     1
 90
        0
176
     1
290
     0
176
     1
 90
        1
176
     1
 40
0.0
176
     1
 90
        0
176
     1
290
     0
176
     1
290
     1
176
     1
290
     1
176
     1
290
     0
176
     1
290
     0
176
     1
290
     0
176
     1
290
     0
176
     1
290
     0
176
     1
290
     0
176
     1
 90
       50
176
     1
 40
0.0
176
     1
 40
1.0
176
     1
 90
        0
176
     1
 62
    18
420
        0
176
     1
 90
       50
176
     1
 90
        3
176
     1
 62
     5
420
      255
176
     1
290
     0
176
     1
 90
       50
176
     1
 90
       50
176
     1
 90
       50
176
     1
290
     0
176
     1
 90
       50
176
     1
 62
   256
176
     0
 40
1.0
176
     0
 90
        2
176
     1
  1
strokes_ogs.tif
176
     1
290
     0
176
     1
 40
1.0
176
     1
 40
1.0
176
     1
  0
VISUALSTYLE
  5
35
102
{ACAD_REACTORS
330
29
102
}
330
29
100
AcDbVisualStyle
  2
Brighten
 70
    12
177
     3
291
     1
 70
    58
 90
        2
176
     1
 90
        2
176
     1
 90
        0
176
     1
 90
        0
176
     1
 40
0.6
176
     1
 40
30.0
176
     1
 62
     7
420
 16777215
176
     1
 90
        1
176
     1
 90
        4
176
     1
 62
     7
176
     1
 62
   257
176
     1
 90
        1
176
     1
 90
        1
176
     1
 40
1.0
176
     1
 90
        8
176
     1
 62
     7
176
     1
 40
1.0
176
     1
 90
        1
176
     1
 90
        6
176
     1
 90
        2
176
     1
 62
     7
176
     1
 90
        5
176
     1
 90
        0
176
     1
 90
        0
176
     1
290
     0
176
     1
 90
        1
176
     1
 40
50.0
176
     1
 90
        0
176
     1
290
     0
176
     1
290
     1
176
     1
290
     1
176
     1
290
     0
176
     1
290
     0
176
     1
290
     0
176
     1
290
     0
176
     1
290
     0
176
     1
290
     0
176
     1
 90
       50
176
     1
 40
0.0
176
     1
 40
1.0
176
     1
 90
        0
176
     1
 62
    18
420
        0
176
     1
 90
       50
176
     1
 90
        3
176
     1
 62
     5
420
      255
176
     1
290
     0
176
     1
 90
       50
176
     1
 90
       50
176
     1
 90
       50
176
     1
290
     0
176
     1
 90
       50
176
     1
 62
   256
176
     0
 40
1.0
176
     0
 90
        2
176
     1
  1
strokes_ogs.tif
176
     1
290
     0
176
     1
 40
1.0
176
     1
 40
1.0
176
     1
  0
VISUALSTYLE
  5
39
102
{ACAD_REACTORS
330
29
102
}
330
29
100
AcDbVisualStyle
  2
ColorChange
 70
    16
177
     3
291
     1
 70
    58
 90
        2
176
     1
 90
        2
176
     1
 90
        3
176
     1
 90
        0
176
     1
 40
0.6
176
     1
 40
30.0
176
     1
 62
     8
420
  8421504
176
     1
 90
        1
176
     1
 90
        4
176
     1
 62
     7
176
     1
 62
   257
176
     1
 90
        1
176
     1
 90
        1
176
     1
 40
1.0
176
     1
 90
        8
176
     1
 62
     8
420
  8421504
176
     1
 40
1.0
176
     1
 90
        1
176
     1
 90
        6
176
     1
 90
        2
176
     1
 62
     7
176
     1
 90
        5
176
     1
 90
        0
176
     1
 90
        0
176
     1
290
     0
176
     1
 90
        1
176
     1
 40
0.0
176
     1
 90
        0
176
     1
290
     0
176
     1
290
     1
176
     1
290
     1
176
     1
290
     0
176
     1
290
     0
176
     1
290
     0
176
     1
290
     0
176
     1
290
     0
176
     1
290
     0
176
     1
 90
       50
176
     1
 40
0.0
176
     1
 40
1.0
176
     1
 90
        0
176
     1
 62
    18
420
        0
176
     1
 90
       50
176
     1
 90
        3
176
     1
 62
     5
420
      255
176
     1
290
     0
176
     1
 90
       50
176
     1
 90
       50
176
     1
 90
       50
176
     1
290
     0
176
     1
 90
       50
176
     1
 62
   256
176
     0
 40
1.0
176
     0
 90
        2
176
     1
  1
strokes_ogs.tif
176
     1
290
     0
176
     1
 40
1.0
176
     1
 40
1.0
176
     1
  0
VISUALSTYLE
  5
32
102
{ACAD_REACTORS
330
29
102
}
330
29
100
AcDbVisualStyle
  2
Conceptual
 70
     9
177
     3
291
     0
 70
    58
 90
        3
176
     1
 90
        2
176
     1
 90
        0
176
     1
 90
        0
176
     1
 40
0.6
176
     1
 40
30.0
176
     1
 62
     7
420
 16777215
176
     1
 90
        2
176
     1
 90
        2
176
     1
 62
     7
176
     1
 62
   257
176
     1
 90
        1
176
     1
 90
        1
176
     1
 40
179.0
176
     1
 90
        8
176
     1
 62
     7
176
     1
 40
1.0
176
     1
 90
        1
176
     1
 90
        6
176
     1
 90
        2
176
     1
 62
     7
176
     1
 90
        3
176
     1
 90
        0
176
     1
 90
        0
176
     1
290
     0
176
     1
 90
        1
176
     1
 40
0.0
176
     1
 90
        0
176
     1
290
     0
176
     1
290
     1
176
     1
290
     1
176
     1
290
     0
176
     1
290
     0
176
     1
290
     0
176
     1
290
     0
176
     1
290
     0
176
     1
290
     0
176
     1
 90
       50
176
     1
 40
0.0
176
     1
 40
1.0
176
     1
 90
        0
176
     1
 62
    18
420
        0
176
     1
 90
       50
176
     1
 90
        3
176
     1
 62
     5
420
      255
176
     1
290
     0
176
     1
 90
       50
176
     1
 90
       50
176
     1
 90
       50
176
     1
290
     0
176
     1
 90
       50
176
     1
 62
   256
176
     0
 40
1.0
176
     0
 90
        2
176
     1
  1
strokes_ogs.tif
176
     1
290
     0
176
     1
 40
1.0
176
     1
 40
1.0
176
     1
  0
VISUALSTYLE
  5
34
102
{ACAD_REACTORS
330
29
102
}
330
29
100
AcDbVisualStyle
  2
Dim
 70
    11
177
     3
291
     1
 70
    58
 90
        2
176
     1
 90
        2
176
     1
 90
        0
176
     1
 90
        0
176
     1
 40
0.6
176
     1
 40
30.0
176
     1
 62
     7
420
 16777215
176
     1
 90
        1
176
     1
 90
        4
176
     1
 62
     7
176
     1
 62
   257
176
     1
 90
        1
176
     1
 90
        1
176
     1
 40
1.0
176
     1
 90
        8
176
     1
 62
     7
176
     1
 40
1.0
176
     1
 90
        1
176
     1
 90
        6
176
     1
 90
        2
176
     1
 62
     7
176
     1
 90
        5
176
     1
 90
        0
176
     1
 90
        0
176
     1
290
     0
176
     1
 90
        1
176
     1
 40
-50.0
176
     1
 90
        0
176
     1
290
     0
176
     1
290
     1
176
     1
290
     1
176
     1
290
     0
176
     1
290
     0
176
     1
290
     0
176
     1
290
     0
176
     1
290
     0
176
     1
290
     0
176
     1
 90
       50
176
     1
 40
0.0
176
     1
 40
1.0
176
     1
 90
        0
176
     1
 62
    18
420
        0
176
     1
 90
       50
176
     1
 90
        3
176
     1
 62
     5
420
      255
176
     1
290
     0
176
     1
 90
       50
176
     1
 90
       50
176
     1
 90
       50
176
     1
290
     0
176
     1
 90
       50
176
     1
 62
   256
176
     0
 40
1.0
176
     0
 90
        2
176
     1
  1
strokes_ogs.tif
176
     1
290
     0
176
     1
 40
1.0
176
     1
 40
1.0
176
     1
  0
VISUALSTYLE
  5
41
102
{ACAD_REACTORS
330
29
102
}
330
29
100
AcDbVisualStyle
  2
EdgeColorOff
 70
    22
177
     3
291
     1
 70
    58
 90
        2
176
     0
 90
        2
176
     0
 90
        0
176
     0
 90
        0
176
     0
 40
0.6
176
     0
 40
30.0
176
     0
 62
     7
420
 16777215
176
     0
 90
        1
176
     0
 90
        4
176
     0
 62
     7
176
     0
 62
   257
176
     0
 90
        1
176
     0
 90
        1
176
     0
 40
1.0
176
     0
 90
        8
176
     2
 62
     7
176
     0
 40
1.0
176
     0
 90
        1
176
     0
 90
        6
176
     0
 90
        2
176
     0
 62
     7
176
     0
 90
        5
176
     0
 90
        0
176
     0
 90
        0
176
     0
290
     0
176
     0
 90
        1
176
     0
 40
0.0
176
     0
 90
        0
176
     0
290
     0
176
     0
290
     1
176
     0
290
     1
176
     0
290
     0
176
     0
290
     0
176
     0
290
     0
176
     0
290
     0
176
     0
290
     0
176
     0
290
     0
176
     0
 90
       50
176
     0
 40
0.0
176
     0
 40
1.0
176
     0
 90
        0
176
     0
 62
    18
420
        0
176
     0
 90
       50
176
     0
 90
        3
176
     0
 62
     5
420
      255
176
     0
290
     0
176
     0
 90
       50
176
     0
 90
       50
176
     0
 90
       50
176
     0
290
     0
176
     0
 90
       50
176
     0
 62
   256
176
     0
 40
1.0
176
     0
 90
        2
176
     0
  1
strokes_ogs.tif
176
     0
290
     0
176
     0
 40
1.0
176
     0
 40
1.0
176
     0
  0
VISUALSTYLE
  5
38
102
{ACAD_REACTORS
330
29
102
}
330
29
100
AcDbVisualStyle
  2
Facepattern
 70
    15
177
     3
291
     1
 70
    58
 90
        2
176
     1
 90
        2
176
     1
 90
        0
176
     1
 90
        0
176
     1
 40
0.6
176
     1
 40
30.0
176
     1
 62
     7
420
 16777215
176
     1
 90
        1
176
     1
 90
        4
176
     1
 62
     7
176
     1
 62
   257
176
     1
 90
        1
176
     1
 90
        1
176
     1
 40
1.0
176
     1
 90
        8
176
     1
 62
     7
176
     1
 40
1.0
176
     1
 90
        1
176
     1
 90
        6
176
     1
 90
        2
176
     1
 62
     7
176
     1
 90
        5
176
     1
 90
        0
176
     1
 90
        0
176
     1
290
     0
176
     1
 90
        1
176
     1
 40
0.0
176
     1
 90
        0
176
     1
290
     0
176
     1
290
     1
176
     1
290
     1
176
     1
290
     0
176
     1
290
     0
176
     1
290
     0
176
     1
290
     0
176
     1
290
     0
176
     1
290
     0
176
     1
 90
       50
176
     1
 40
0.0
176
     1
 40
1.0
176
     1
 90
        0
176
     1
 62
    18
420
        0
176
     1
 90
       50
176
     1
 90
        3
176
     1
 62
     5
420
      255
176
     1
290
     0
176
     1
 90
       50
176
     1
 90
       50
176
     1
 90
       50
176
     1
290
     0
176
     1
 90
       50
176
     1
 62
   256
176
     0
 40
1.0
176
     0
 90
        2
176
     1
  1
strokes_ogs.tif
176
     1
290
     0
176
     1
 40
1.0
176
     1
 40
1.0
176
     1
  0
VISUALSTYLE
  5
2A
102
{ACAD_REACTORS
330
29
102
}
330
29
100
AcDbVisualStyle
  2
Flat
 70
     0
177
     3
291
     1
 70
    58
 90
        2
176
     1
 90
        1
176
     1
 90
        1
176
     1
 90
        2
176
     1
 40
0.6
176
     1
 40
30.0
176
     1
 62
     7
420
 16777215
176
     1
 90
        0
176
     1
 90
        0
176
     1
 62
     7
176
     1
 62
   257
176
     1
 90
        1
176
     1
 90
        1
176
     1
 40
1.0
176
     1
 90
        8
176
     1
 62
     7
176
     1
 40
1.0
176
     1
 90
        1
176
     1
 90
        6
176
     1
 90
        2
176
     1
 62
     7
176
     1
 90
        5
176
     1
 90
        0
176
     1
 90
        0
176
     1
290
     0
176
     1
 90
       13
176
     1
 40
0.0
176
     1
 90
        0
176
     1
290
     0
176
     1
290
     1
176
     1
290
     1
176
     1
290
     0
176
     1
290
     0
176
     1
290
     0
176
     1
290
     0
176
     1
290
     0
176
     1
290
     0
176
     1
 90
       50
176
     1
 40
0.0
176
     1
 40
1.0
176
     1
 90
        0
176
     1
 62
    18
420
        0
176
     1
 90
       50
176
     1
 90
        3
176
     1
 62
     5
420
      255
176
     1
290
     0
176
     1
 90
       50
176
     1
 90
       50
176
     1
 90
       50
176
     1
290
     0
176
     1
 90
       50
176
     1
 62
   256
176
     0
 40
1.0
176
     0
 90
        2
176
     1
  1
strokes_ogs.tif
176
     1
290
     0
176
     1
 40
1.0
176
     1
 40
1.0
176
     1
  0
VISUALSTYLE
  5
2B
102
{ACAD_REACTORS
330
29
102
}
330
29
100
AcDbVisualStyle
  2
FlatWithEdges
 70
     1
177
     3
291
     1
 70
    58
 90
        2
176
     1
 90
        1
176
     1
 90
        1
176
     1
 90
        2
176
     1
 40
0.6
176
     1
 40
30.0
176
     1
 62
     7
420
 16777215
176
     1
 90
        1
176
     1
 90
        0
176
     1
 62
     7
176
     1
 62
   257
176
     1
 90
        1
176
     1
 90
        1
176
     1
 40
1.0
176
     1
 90
        0
176
     1
 62
   257
176
     1
 40
1.0
176
     1
 90
        1
176
     1
 90
        6
176
     1
 90
        2
176
     1
 62
     7
176
     1
 90
        5
176
     1
 90
        0
176
     1
 90
        0
176
     1
290
     0
176
     1
 90
       13
176
     1
 40
0.0
176
     1
 90
        0
176
     1
290
     0
176
     1
290
     1
176
     1
290
     1
176
     1
290
     0
176
     1
290
     0
176
     1
290
     0
176
     1
290
     0
176
     1
290
     0
176
     1
290
     0
176
     1
 90
       50
176
     1
 40
0.0
176
     1
 40
1.0
176
     1
 90
        0
176
     1
 62
    18
420
        0
176
     1
 90
       50
176
     1
 90
        3
176
     1
 62
     5
420
      255
176
     1
290
     0
176
     1
 90
       50
176
     1
 90
       50
176
     1
 90
       50
176
     1
290
     0
176
     1
 90
       50
176
     1
 62
   256
176
     0
 40
1.0
176
     0
 90
        2
176
     1
  1
strokes_ogs.tif
176
     1
290
     0
176
     1
 40
1.0
176
     1
 40
1.0
176
     1
  0
VISUALSTYLE
  5
2C
102
{ACAD_REACTORS
330
29
102
}
330
29
100
AcDbVisualStyle
  2
Gouraud
 70
     2
177
     3
291
     1
 70
    58
 90
        2
176
     1
 90
        2
176
     1
 90
        1
176
     1
 90
        2
176
     1
 40
0.6
176
     1
 40
30.0
176
     1
 62
     7
420
 16777215
176
     1
 90
        0
176
     1
 90
        0
176
     1
 62
     7
176
     1
 62
   257
176
     1
 90
        1
176
     1
 90
        1
176
     1
 40
1.0
176
     1
 90
        0
176
     1
 62
     7
176
     1
 40
1.0
176
     1
 90
        1
176
     1
 90
        6
176
     1
 90
        2
176
     1
 62
     7
176
     1
 90
        5
176
     1
 90
        0
176
     1
 90
        0
176
     1
290
     0
176
     1
 90
       13
176
     1
 40
0.0
176
     1
 90
        0
176
     1
290
     0
176
     1
290
     1
176
     1
290
     1
176
     1
290
     0
176
     1
290
     0
176
     1
290
     0
176
     1
290
     0
176
     1
290
     0
176
     1
290
     0
176
     1
 90
       50
176
     1
 40
0.0
176
     1
 40
1.0
176
     1
 90
        0
176
     1
 62
    18
420
        0
176
     1
 90
       50
176
     1
 90
        3
176
     1
 62
     5
420
      255
176
     1
290
     0
176
     1
 90
       50
176
     1
 90
       50
176
     1
 90
       50
176
     1
290
     0
176
     1
 90
       50
176
     1
 62
   256
176
     0
 40
1.0
176
     0
 90
        2
176
     1
  1
strokes_ogs.tif
176
     1
290
     0
176
     1
 40
1.0
176
     1
 40
1.0
176
     1
  0
VISUALSTYLE
  5
2D
102
{ACAD_REACTORS
330
29
102
}
330
29
100
AcDbVisualStyle
  2
GouraudWithEdges
 70
     3
177
     3
291
     1
 70
    58
 90
        2
176
     1
 90
        2
176
     1
 90
        1
176
     1
 90
        2
176
     1
 40
0.6
176
     1
 40
30.0
176
     1
 62
     7
420
 16777215
176
     1
 90
        1
176
     1
 90
        0
176
     1
 62
     7
176
     1
 62
   257
176
     1
 90
        1
176
     1
 90
        1
176
     1
 40
1.0
176
     1
 90
        0
176
     1
 62
   257
176
     1
 40
1.0
176
     1
 90
        1
176
     1
 90
        6
176
     1
 90
        2
176
     1
 62
     7
176
     1
 90
        5
176
     1
 90
        0
176
     1
 90
        0
176
     1
290
     0
176
     1
 90
       13
176
     1
 40
0.0
176
     1
 90
        0
176
     1
290
     0
176
     1
290
     1
176
     1
290
     1
176
     1
290
     0
176
     1
290
     0
176
     1
290
     0
176
     1
290
     0
176
     1
290
     0
176
     1
290
     0
176
     1
 90
       50
176
     1
 40
0.0
176
     1
 40
1.0
176
     1
 90
        0
176
     1
 62
    18
420
        0
176
     1
 90
       50
176
     1
 90
        3
176
     1
 62
     5
420
      255
176
     1
290
     0
176
     1
 90
       50
176
     1
 90
       50
176
     1
 90
       50
176
     1
290
     0
176
     1
 90
       50
176
     1
 62
   256
176
     0
 40
1.0
176
     0
 90
        2
176
     1
  1
strokes_ogs.tif
176
     1
290
     0
176
     1
 40
1.0
176
     1
 40
1.0
176
     1
  0
VISUALSTYLE
  5
31
102
{ACAD_REACTORS
330
29
102
}
330
29
100
AcDbVisualStyle
  2
Hidden
 70
     6
177
     3
291
     0
 70
    58
 90
        1
176
     1
 90
        2
176
     1
 90
        2
176
     1
 90
        0
176
     1
 40
0.6
176
     1
 40
30.0
176
     1
 62
     7
420
 16777215
176
     1
 90
        2
176
     1
 90
        2
176
     1
 62
     7
176
     1
 62
   257
176
     1
 90
        2
176
     1
 90
        1
176
     1
 40
40.0
176
     1
 90
        0
176
     1
 62
   257
176
     1
 40
1.0
176
     1
 90
        1
176
     1
 90
        6
176
     1
 90
        2
176
     1
 62
     7
176
     1
 90
        3
176
     1
 90
        0
176
     1
 90
        0
176
     1
290
     0
176
     1
 90
        1
176
     1
 40
0.0
176
     1
 90
        0
176
     1
290
     0
176
     1
290
     1
176
     1
290
     1
176
     1
290
     0
176
     1
290
     0
176
     1
290
     0
176
     1
290
     0
176
     1
290
     0
176
     1
290
     0
176
     1
 90
       50
176
     1
 40
0.0
176
     1
 40
1.0
176
     1
 90
        0
176
     1
 62
    18
420
        0
176
     1
 90
       50
176
     1
 90
        3
176
     1
 62
     5
420
      255
176
     1
290
     0
176
     1
 90
       50
176
     1
 90
       50
176
     1
 90
       50
176
     1
290
     0
176
     1
 90
       50
176
     1
 62
   256
176
     0
 40
1.0
176
     0
 90
        2
176
     1
  1
strokes_ogs.tif
176
     1
290
     0
176
     1
 40
1.0
176
     1
 40
1.0
176
     1
  0
VISUALSTYLE
  5
3F
102
{ACAD_REACTORS
330
29
102
}
330
29
100
AcDbVisualStyle
  2
JitterOff
 70
    20
177
     3
291
     1
 70
    58
 90
        2
176
     0
 90
        2
176
     0
 90
        0
176
     0
 90
        0
176
     0
 40
0.6
176
     0
 40
30.0
176
     0
 62
     7
420
 16777215
176
     0
 90
        1
176
     0
 90
        4
176
     0
 62
     7
176
     0
 62
   257
176
     0
 90
        1
176
     0
 90
        1
176
     0
 40
1.0
176
     0
 90
       10
176
     2
 62
     7
176
     0
 40
1.0
176
     0
 90
        1
176
     0
 90
        6
176
     0
 90
        2
176
     0
 62
     7
176
     0
 90
        5
176
     0
 90
        0
176
     0
 90
        0
176
     0
290
     0
176
     0
 90
        1
176
     0
 40
0.0
176
     0
 90
        0
176
     0
290
     0
176
     0
290
     1
176
     0
290
     1
176
     0
290
     0
176
     0
290
     0
176
     0
290
     0
176
     0
290
     0
176
     0
290
     0
176
     0
290
     0
176
     0
 90
       50
176
     0
 40
0.0
176
     0
 40
1.0
176
     0
 90
        0
176
     0
 62
    18
420
        0
176
     0
 90
       50
176
     0
 90
        3
176
     0
 62
     5
420
      255
176
     0
290
     0
176
     0
 90
       50
176
     0
 90
       50
176
     0
 90
       50
176
     0
290
     0
176
     0
 90
       50
176
     0
 62
   256
176
     0
 40
1.0
176
     0
 90
        2
176
     0
  1
strokes_ogs.tif
176
     0
290
     0
176
     0
 40
1.0
176
     0
 40
1.0
176
     0
  0
VISUALSTYLE
  5
37
102
{ACAD_REACTORS
330
29
102
}
330
29
100
AcDbVisualStyle
  2
Linepattern
 70
    14
177
     3
291
     1
 70
    58
 90
        2
176
     1
 90
        2
176
     1
 90
        0
176
     1
 90
        0
176
     1
 40
0.6
176
     1
 40
30.0
176
     1
 62
     7
420
 16777215
176
     1
 90
        1
176
     1
 90
        4
176
     1
 62
     7
176
     1
 62
   257
176
     1
 90
        7
176
     1
 90
        7
176
     1
 40
1.0
176
     1
 90
        8
176
     1
 62
     7
176
     1
 40
1.0
176
     1
 90
        1
176
     1
 90
        6
176
     1
 90
        2
176
     1
 62
     7
176
     1
 90
        5
176
     1
 90
        0
176
     1
 90
        0
176
     1
290
     0
176
     1
 90
        1
176
     1
 40
0.0
176
     1
 90
        0
176
     1
290
     0
176
     1
290
     1
176
     1
290
     1
176
     1
290
     0
176
     1
290
     0
176
     1
290
     0
176
     1
290
     0
176
     1
290
     0
176
     1
290
     0
176
     1
 90
       50
176
     1
 40
0.0
176
     1
 40
1.0
176
     1
 90
        0
176
     1
 62
    18
420
        0
176
     1
 90
       50
176
     1
 90
        3
176
     1
 62
     5
420
      255
176
     1
290
     0
176
     1
 90
       50
176
     1
 90
       50
176
     1
 90
       50
176
     1
290
     0
176
     1
 90
       50
176
     1
 62
   256
176
     0
 40
1.0
176
     0
 90
        2
176
     1
  1
strokes_ogs.tif
176
     1
290
     0
176
     1
 40
1.0
176
     1
 40
1.0
176
     1
  0
VISUALSTYLE
  5
40
102
{ACAD_REACTORS
330
29
102
}
330
29
100
AcDbVisualStyle
  2
OverhangOff
 70
    21
177
     3
291
     1
 70
    58
 90
        2
176
     0
 90
        2
176
     0
 90
        0
176
     0
 90
        0
176
     0
 40
0.6
176
     0
 40
30.0
176
     0
 62
     7
420
 16777215
176
     0
 90
        1
176
     0
 90
        4
176
     0
 62
     7
176
     0
 62
   257
176
     0
 90
        1
176
     0
 90
        1
176
     0
 40
1.0
176
     0
 90
        9
176
     2
 62
     7
176
     0
 40
1.0
176
     0
 90
        1
176
     0
 90
        6
176
     0
 90
        2
176
     0
 62
     7
176
     0
 90
        5
176
     0
 90
        0
176
     0
 90
        0
176
     0
290
     0
176
     0
 90
        1
176
     0
 40
0.0
176
     0
 90
        0
176
     0
290
     0
176
     0
290
     1
176
     0
290
     1
176
     0
290
     0
176
     0
290
     0
176
     0
290
     0
176
     0
290
     0
176
     0
290
     0
176
     0
290
     0
176
     0
 90
       50
176
     0
 40
0.0
176
     0
 40
1.0
176
     0
 90
        0
176
     0
 62
    18
420
        0
176
     0
 90
       50
176
     0
 90
        3
176
     0
 62
     5
420
      255
176
     0
290
     0
176
     0
 90
       50
176
     0
 90
       50
176
     0
 90
       50
176
     0
290
     0
176
     0
 90
       50
176
     0
 62
   256
176
     0
 40
1.0
176
     0
 90
        2
176
     0
  1
strokes_ogs.tif
176
     0
290
     0
176
     0
 40
1.0
176
     0
 40
1.0
176
     0
  0
VISUALSTYLE
  5
33
102
{ACAD_REACTORS
330
29
102
}
330
29
100
AcDbVisualStyle
  2
Realistic
 70
     8
177
     3
291
     0
 70
    58
 90
        2
176
     1
 90
        3
176
     1
 90
        0
176
     1
 90
        2
176
     1
 40
0.6
176
     1
 40
30.0
176
     1
 62
     7
420
 16777215
176
     1
 90
        0
176
     1
 90
        0
176
     1
 62
     7
176
     1
 62
   257
176
     1
 90
        1
176
     1
 90
        1
176
     1
 40
1.0
176
     1
 90
        8
176
     1
 62
   257
176
     1
 40
1.0
176
     1
 90
        1
176
     1
 90
        6
176
     1
 90
        2
176
     1
 62
     7
176
     1
 90
        3
176
     1
 90
        0
176
     1
 90
        0
176
     1
290
     0
176
     1
 90
       13
176
     1
 40
0.0
176
     1
 90
        0
176
     1
290
     0
176
     1
290
     1
176
     1
290
     1
176
     1
290
     0
176
     1
290
     0
176
     1
290
     0
176
     1
290
     0
176
     1
290
     0
176
     1
290
     0
176
     1
 90
       50
176
     1
 40
0.0
176
     1
 40
1.0
176
     1
 90
        0
176
     1
 62
    18
420
        0
176
     1
 90
       50
176
     1
 90
        3
176
     1
 62
     5
420
      255
176
     1
290
     0
176
     1
 90
       50
176
     1
 90
       50
176
     1
 90
       50
176
     1
290
     0
176
     1
 90
       50
176
     1
 62
   256
176
     0
 40
1.0
176
     0
 90
        2
176
     1
  1
strokes_ogs.tif
176
     1
290
     0
176
     1
 40
1.0
176
     1
 40
1.0
176
     1
  0
VISUALSTYLE
  5
3E
102
{ACAD_REACTORS
330
29
102
}
330
29
100
AcDbVisualStyle
  2
Shaded
 70
    27
177
     3
291
     0
 70
    58
 90
        2
176
     1
 90
        2
176
     1
 90
        1
176
     1
 90
        2
176
     1
 40
0.6
176
     1
 40
30.0
176
     1
 62
     7
420
 16777215
176
     1
 90
        0
176
     1
 90
        4
176
     1
 62
     7
176
     1
 62
   257
176
     1
 90
        1
176
     1
 90
        1
176
     1
 40
1.0
176
     1
 90
        8
176
     1
 62
   257
176
     1
 40
1.0
176
     1
 90
        1
176
     1
 90
        6
176
     1
 90
        2
176
     1
 62
     8
420
  7895160
176
     1
 90
        3
176
     1
 90
        0
176
     1
 90
        0
176
     1
290
     0
176
     1
 90
        5
176
     1
 40
0.0
176
     1
 90
        0
176
     1
290
     0
176
     1
290
     1
176
     1
290
     1
176
     1
290
     0
176
     1
290
     0
176
     1
290
     0
176
     1
290
     0
176
     1
290
     0
176
     1
290
     0
176
     1
 90
       50
176
     1
 40
0.0
176
     1
 40
1.0
176
     1
 90
        0
176
     1
 62
    18
420
        0
176
     1
 90
       50
176
     1
 90
        3
176
     1
 62
     5
420
      255
176
     1
290
     0
176
     1
 90
       50
176
     1
 90
       50
176
     1
 90
       50
176
     1
290
     0
176
     1
 90
       50
176
     1
 62
   256
176
     0
 40
1.0
176
     0
 90
        2
176
     1
  1
strokes_ogs.tif
176
     1
290
     0
176
     1
 40
1.0
176
     1
 40
1.0
176
     1
  0
VISUALSTYLE
  5
3D
102
{ACAD_REACTORS
330
29
102
}
330
29
100
AcDbVisualStyle
  2
Shaded with edges
 70
    26
177
     3
291
     0
 70
    58
 90
        2
176
     1
 90
        2
176
     1
 90
        1
176
     1
 90
        2
176
     1
 40
0.6
176
     1
 40
30.0
176
     1
 62
     7
420
 16777215
176
     1
 90
        1
176
     1
 90
        2
176
     1
 62
     7
176
     1
 62
   257
176
     1
 90
        2
176
     1
 90
        1
176
     1
 40
1.0
176
     1
 90
        8
176
     1
 62
   257
176
     1
 40
1.0
176
     1
 90
        1
176
     1
 90
        6
176
     1
 90
        2
176
     1
 62
     7
176
     1
 90
        3
176
     1
 90
        0
176
     1
 90
        0
176
     1
290
     0
176
     1
 90
        5
176
     1
 40
0.0
176
     1
 90
        0
176
     1
290
     0
176
     1
290
     1
176
     1
290
     1
176
     1
290
     0
176
     1
290
     0
176
     1
290
     0
176
     1
290
     0
176
     1
290
     0
176
     1
290
     0
176
     1
 90
       50
176
     1
 40
0.0
176
     1
 40
1.0
176
     1
 90
        0
176
     1
 62
    18
420
        0
176
     1
 90
       50
176
     1
 90
        3
176
     1
 62
     5
420
      255
176
     1
290
     0
176
     1
 90
       50
176
     1
 90
       50
176
     1
 90
       50
176
     1
290
     0
176
     1
 90
       50
176
     1
 62
   256
176
     0
 40
1.0
176
     0
 90
        2
176
     1
  1
strokes_ogs.tif
176
     1
290
     0
176
     1
 40
1.0
176
     1
 40
1.0
176
     1
  0
VISUALSTYLE
  5
3A
102
{ACAD_REACTORS
330
29
102
}
330
29
100
AcDbVisualStyle
  2
Shades of Gray
 70
    23
177
     3
291
     0
 70
    58
 90
        2
176
     1
 90
        2
176
     1
 90
        3
176
     1
 90
        0
176
     1
 40
0.6
176
     1
 40
30.0
176
     1
 62
     7
420
 16777215
176
     1
 90
        2
176
     1
 90
        2
176
     1
 62
     7
176
     1
 62
     7
176
     1
 90
        1
176
     1
 90
        1
176
     1
 40
40.0
176
     1
 90
        8
176
     1
 62
     7
176
     1
 40
1.0
176
     1
 90
        1
176
     1
 90
        6
176
     1
 90
        2
176
     1
 62
     7
176
     1
 90
        3
176
     1
 90
        0
176
     1
 90
        0
176
     1
290
     0
176
     1
 90
        1
176
     1
 40
0.0
176
     1
 90
        0
176
     1
290
     0
176
     1
290
     1
176
     1
290
     1
176
     1
290
     0
176
     1
290
     0
176
     1
290
     0
176
     1
290
     0
176
     1
290
     0
176
     1
290
     0
176
     1
 90
       50
176
     1
 40
0.0
176
     1
 40
1.0
176
     1
 90
        0
176
     1
 62
    18
420
        0
176
     1
 90
       50
176
     1
 90
        3
176
     1
 62
     5
420
      255
176
     1
290
     0
176
     1
 90
       50
176
     1
 90
       50
176
     1
 90
       50
176
     1
290
     0
176
     1
 90
       50
176
     1
 62
   256
176
     0
 40
1.0
176
     0
 90
        2
176
     1
  1
strokes_ogs.tif
176
     1
290
     0
176
     1
 40
1.0
176
     1
 40
1.0
176
     1
  0
VISUALSTYLE
  5
3B
102
{ACAD_REACTORS
330
29
102
}
330
29
100
AcDbVisualStyle
  2
Sketchy
 70
    24
177
     3
291
     0
 70
    58
 90
        1
176
     1
 90
        2
176
     1
 90
        2
176
     1
 90
        0
176
     1
 40
0.6
176
     1
 40
30.0
176
     1
 62
     7
420
 16777215
176
     1
 90
        2
176
     1
 90
        2
176
     1
 62
     7
176
     1
 62
     7
176
     1
 90
        1
176
     1
 90
        1
176
     1
 40
40.0
176
     1
 90
       11
176
     1
 62
     7
176
     1
 40
1.0
176
     1
 90
        1
176
     1
 90
        6
176
     1
 90
        2
176
     1
 62
     7
176
     1
 90
        6
176
     1
 90
        0
176
     1
 90
        0
176
     1
290
     0
176
     1
 90
        1
176
     1
 40
0.0
176
     1
 90
        0
176
     1
290
     0
176
     1
290
     1
176
     1
290
     1
176
     1
290
     0
176
     1
290
     0
176
     1
290
     0
176
     1
290
     0
176
     1
290
     0
176
     1
290
     0
176
     1
 90
       50
176
     1
 40
0.0
176
     1
 40
1.0
176
     1
 90
        0
176
     1
 62
    18
420
        0
176
     1
 90
       50
176
     1
 90
        3
176
     1
 62
     5
420
      255
176
     1
290
     0
176
     1
 90
       50
176
     1
 90
       50
176
     1
 90
       50
176
     1
290
     0
176
     1
 90
       50
176
     1
 62
   256
176
     0
 40
1.0
176
     0
 90
        2
176
     1
  1
strokes_ogs.tif
176
     1
290
     0
176
     1
 40
1.0
176
     1
 40
1.0
176
     1
  0
VISUALSTYLE
  5
36
102
{ACAD_REACTORS
330
29
102
}
330
29
100
AcDbVisualStyle
  2
Thicken
 70
    13
177
     3
291
     1
 70
    58
 90
        2
176
     1
 90
        2
176
     1
 90
        0
176
     1
 90
        0
176
     1
 40
0.6
176
     1
 40
30.0
176
     1
 62
     7
420
 16777215
176
     1
 90
        1
176
     1
 90
        4
176
     1
 62
     7
176
     1
 62
   257
176
     1
 90
        1
176
     1
 90
        1
176
     1
 40
1.0
176
     1
 90
       12
176
     1
 62
     7
176
     1
 40
1.0
176
     1
 90
        1
176
     1
 90
        6
176
     1
 90
        2
176
     1
 62
     7
176
     1
 90
        5
176
     1
 90
        0
176
     1
 90
        0
176
     1
290
     0
176
     1
 90
        1
176
     1
 40
0.0
176
     1
 90
        0
176
     1
290
     0
176
     1
290
     1
176
     1
290
     1
176
     1
290
     0
176
     1
290
     0
176
     1
290
     0
176
     1
290
     0
176
     1
290
     0
176
     1
290
     0
176
     1
 90
       50
176
     1
 40
0.0
176
     1
 40
1.0
176
     1
 90
        0
176
     1
 62
    18
420
        0
176
     1
 90
       50
176
     1
 90
        3
176
     1
 62
     5
420
      255
176
     1
290
     0
176
     1
 90
       50
176
     1
 90
       50
176
     1
 90
       50
176
     1
290
     0
176
     1
 90
       50
176
     1
 62
   256
176
     0
 40
1.0
176
     0
 90
        2
176
     1
  1
strokes_ogs.tif
176
     1
290
     0
176
     1
 40
1.0
176
     1
 40
1.0
176
     1
  0
VISUALSTYLE
  5
30
102
{ACAD_REACTORS
330
29
102
}
330
29
100
AcDbVisualStyle
  2
Wireframe
 70
     5
177
     3
291
     0
 70
    58
 90
        0
176
     1
 90
        2
176
     1
 90
        0
176
     1
 90
        0
176
     1
 40
0.6
176
     1
 40
30.0
176
     1
 62
     7
420
 16777215
176
     1
 90
        1
176
     1
 90
        4
176
     1
 62
     7
176
     1
 62
   257
176
     1
 90
        1
176
     1
 90
        1
176
     1
 40
1.0
176
     1
 90
        0
176
     1
 62
   257
176
     1
 40
1.0
176
     1
 90
        1
176
     1
 90
        6
176
     1
 90
        2
176
     1
 62
     7
176
     1
 90
        3
176
     1
 90
        0
176
     1
 90
        0
176
     1
290
     0
176
     1
 90
        1
176
     1
 40
0.0
176
     1
 90
        0
176
     1
290
     0
176
     1
290
     1
176
     1
290
     1
176
     1
290
     0
176
     1
290
     0
176
     1
290
     0
176
     1
290
     0
176
     1
290
     0
176
     1
290
     0
176
     1
 90
       50
176
     1
 40
0.0
176
     1
 40
1.0
176
     1
 90
        0
176
     1
 62
    18
420
        0
176
     1
 90
       50
176
     1
 90
        3
176
     1
 62
     5
420
      255
176
     1
290
     0
176
     1
 90
       50
176
     1
 90
       50
176
     1
 90
       50
176
     1
290
     0
176
     1
 90
       50
176
     1
 62
   256
176
     0
 40
1.0
176
     0
 90
        2
176
     1
  1
strokes_ogs.tif
176
     1
290
     0
176
     1
 40
1.0
176
     1
 40
1.0
176
     1
  0
VISUALSTYLE
  5
3C
102
{ACAD_REACTORS
330
29
102
}
330
29
100
AcDbVisualStyle
  2
X-Ray
 70
    25
177
     3
291
     0
 70
    58
 90
        2
176
     1
 90
        2
176
     1
 90
        1
176
     1
 90
        1
176
     1
 40
0.5
176
     1
 40
30.0
176
     1
 62
     7
420
 16777215
176
     1
 90
        1
176
     1
 90
        0
176
     1
 62
     7
176
     1
 62
   257
176
     1
 90
        1
176
     1
 90
        1
176
     1
 40
1.0
176
     1
 90
        8
176
     1
 62
     7
176
     1
 40
1.0
176
     1
 90
        1
176
     1
 90
        6
176
     1
 90
        2
176
     1
 62
     7
176
     1
 90
        3
176
     1
 90
        0
176
     1
 90
        0
176
     1
290
     0
176
     1
 90
       13
176
     1
 40
0.0
176
     1
 90
        0
176
     1
290
     0
176
     1
290
     1
176
     1
290
     1
176
     1
290
     0
176
     1
290
     0
176
     1
290
     0
176
     1
290
     0
176
     1
290
     0
176
     1
290
     0
176
     1
 90
       50
176
     1
 40
0.0
176
     1
 40
1.0
176
     1
 90
        0
176
     1
 62
    18
420
        0
176
     1
 90
       50
176
     1
 90
        3
176
     1
 62
     5
420
      255
176
     1
290
     0
176
     1
 90
       50
176
     1
 90
       50
176
     1
 90
       50
176
     1
290
     0
176
     1
 90
       50
176
     1
 62
   256
176
     0
 40
1.0
176
     0
 90
        2
176
     1
  1
strokes_ogs.tif
176
     1
290
     0
176
     1
 40
1.0
176
     1
 40
1.0
176
     1
  0
DICTIONARYVAR
  5
253
102
{ACAD_REACTORS
330
24E
102
}
330
24E
100
DictionaryVariables
280
     0
  1
1:1
  0
DICTIONARYVAR
  5
250
102
{ACAD_REACTORS
330
24E
102
}
330
24E
100
DictionaryVariables
280
     0
  1
STANDARD
  0
DICTIONARYVAR
  5
24F
102
{ACAD_REACTORS
330
24E
102
}
330
24E
100
DictionaryVariables
280
     0
  1
STANDARD
  0
DICTIONARYVAR
  5
251
102
{ACAD_REACTORS
330
24E
102
}
330
24E
100
DictionaryVariables
280
     0
  1
Imperial24
  0
DICTIONARYVAR
  5
252
102
{ACAD_REACTORS
330
24E
102
}
330
24E
100
DictionaryVariables
280
     0
  1
Imperial24
  0
DICTIONARY
  5
1A
330
19
100
AcDbDictionary
280
     1
281
     1
  3
BUMPTILE
360
1C
  3
DIFFUSETILE
360
1B
  3
OPACITYTILE
360
1F
  3
REFLECTIONTILE
360
1E
  3
REFRACTIONTILE
360
20
  3
SPECULARTILE
360
1D
  0
DICTIONARY
  5
12
330
11
100
AcDbDictionary
280
     1
281
     1
  3
BUMPTILE
360
14
  3
DIFFUSETILE
360
13
  3
OPACITYTILE
360
17
  3
REFLECTIONTILE
360
16
  3
REFRACTIONTILE
360
18
  3
SPECULARTILE
360
15
  0
DICTIONARY
  5
22
330
21
100
AcDbDictionary
280
     1
281
     1
  3
BUMPTILE
360
24
  3
DIFFUSETILE
360
23
  3
OPACITYTILE
360
27
  3
REFLECTIONTILE
360
26
  3
REFRACTIONTILE
360
28
  3
SPECULARTILE
360
25
  0
DICTIONARY
  5
254
330
65
100
AcDbDictionary
280
     1
281
     1
  3
ACAD_ROUNDTRIP_2008_TABLESTYLE_CELLSTYLEMAP
360
255
  0
XRECORD
  5
1C
102
{ACAD_REACTORS
330
1A
102
}
330
1A
100
AcDbXrecord
280
     1
270
     1
271
     1
  0
XRECORD
  5
1B
102
{ACAD_REACTORS
330
1A
102
}
330
1A
100
AcDbXrecord
280
     1
270
     1
271
     1
  0
XRECORD
  5
1F
102
{ACAD_REACTORS
330
1A
102
}
330
1A
100
AcDbXrecord
280
     1
270
     1
271
     1
  0
XRECORD
  5
1E
102
{ACAD_REACTORS
330
1A
102
}
330
1A
100
AcDbXrecord
280
     1
270
     1
271
     1
  0
XRECORD
  5
20
102
{ACAD_REACTORS
330
1A
102
}
330
1A
100
AcDbXrecord
280
     1
270
     1
271
     1
  0
XRECORD
  5
1D
102
{ACAD_REACTORS
330
1A
102
}
330
1A
100
AcDbXrecord
280
     1
270
     1
271
     1
  0
XRECORD
  5
14
102
{ACAD_REACTORS
330
12
102
}
330
12
100
AcDbXrecord
280
     1
270
     1
271
     1
  0
XRECORD
  5
13
102
{ACAD_REACTORS
330
12
102
}
330
12
100
AcDbXrecord
280
     1
270
     1
271
     1
  0
XRECORD
  5
17
102
{ACAD_REACTORS
330
12
102
}
330
12
100
AcDbXrecord
280
     1
270
     1
271
     1
  0
XRECORD
  5
16
102
{ACAD_REACTORS
330
12
102
}
330
12
100
AcDbXrecord
280
     1
270
     1
271
     1
  0
XRECORD
  5
18
102
{ACAD_REACTORS
330
12
102
}
330
12
100
AcDbXrecord
280
     1
270
     1
271
     1
  0
XRECORD
  5
15
102
{ACAD_REACTORS
330
12
102
}
330
12
100
AcDbXrecord
280
     1
270
     1
271
     1
  0
XRECORD
  5
24
102
{ACAD_REACTORS
330
22
102
}
330
22
100
AcDbXrecord
280
     1
270
     1
271
     1
  0
XRECORD
  5
23
102
{ACAD_REACTORS
330
22
102
}
330
22
100
AcDbXrecord
280
     1
270
     1
271
     1
  0
XRECORD
  5
27
102
{ACAD_REACTORS
330
22
102
}
330
22
100
AcDbXrecord
280
     1
270
     1
271
     1
  0
XRECORD
  5
26
102
{ACAD_REACTORS
330
22
102
}
330
22
100
AcDbXrecord
280
     1
270
     1
271
     1
  0
XRECORD
  5
28
102
{ACAD_REACTORS
330
22
102
}
330
22
100
AcDbXrecord
280
     1
270
     1
271
     1
  0
XRECORD
  5
25
102
{ACAD_REACTORS
330
22
102
}
330
22
100
AcDbXrecord
280
     1
270
     1
271
     1
  0
CELLSTYLEMAP
  5
255
102
{ACAD_REACTORS
330
254
102
}
330
254
100
AcDbCellStyleMap
 90
        3
300
CELLSTYLE
  1
TABLEFORMAT_BEGIN
 90
        5
170
     1
 91
        0
 92
    32768
 62
   257
 93
        1
300
CONTENTFORMAT
  1
CONTENTFORMAT_BEGIN
 90
        0
 91
        0
 92
      512
 93
        0
300

 40
0.0
140
1.0
 94
        5
 62
     0
340
55
144
0.25
309
CONTENTFORMAT_END
171
     0
 94
        0
309
TABLEFORMAT_END
  1
CELLSTYLE_BEGIN
 90
        1
 91
        1
300
_TITLE
309
CELLSTYLE_END
300
CELLSTYLE
  1
TABLEFORMAT_BEGIN
 90
        5
170
     1
 91
        0
 92
        0
 62
   257
 93
        1
300
CONTENTFORMAT
  1
CONTENTFORMAT_BEGIN
 90
        0
 91
        0
 92
      512
 93
        0
300

 40
0.0
140
1.0
 94
        5
 62
     0
340
55
144
0.18
309
CONTENTFORMAT_END
171
     0
 94
        0
309
TABLEFORMAT_END
  1
CELLSTYLE_BEGIN
 90
        2
 91
        1
300
_HEADER
309
CELLSTYLE_END
300
CELLSTYLE
  1
TABLEFORMAT_BEGIN
 90
        5
170
     1
 91
        0
 92
        0
 62
   257
 93
        1
300
CONTENTFORMAT
  1
CONTENTFORMAT_BEGIN
 90
        0
 91
        0
 92
      512
 93
        0
300

 40
0.0
140
1.0
 94
        2
 62
     0
340
55
144
0.18
309
CONTENTFORMAT_END
171
     0
 94
        0
309
TABLEFORMAT_END
  1
CELLSTYLE_BEGIN
 90
        3
 91
        2
300
_DATA
309
CELLSTYLE_END
  0
ENDSEC
  0
EOF
