  0
SECTION
  2
HEADER
  9
$ACADVER
  1
AC1032
  9
$ACADMAINTVER
 90
      228
  9
$DWGCODEPAGE
  3
ANSI_1252
  9
$REQUIREDVERSIONS
160
                 0
  9
$INSBASE
 10
0.0
 20
0.0
 30
0.0
  9
$EXTMIN
 10
1.000000000000000E+20
 20
1.000000000000000E+20
 30
1.000000000000000E+20
  9
$EXTMAX
 10
-1.000000000000000E+20
 20
-1.000000000000000E+20
 30
-1.000000000000000E+20
  9
$LIMMIN
 10
0.0
 20
0.0
  9
$LIMMAX
 10
12.0
 20
9.0
  9
$ORTHOMODE
 70
     0
  9
$REGENMODE
 70
     1
  9
$FILLMODE
 70
     1
  9
$QTEXTMODE
 70
     0
  9
$MIRRTEXT
 70
     0
  9
$LTSCALE
 40
1.0
  9
$ATTMODE
 70
     1
  9
$TEXTSIZE
 40
0.2
  9
$TRACEWID
 40
0.05
  9
$TEXTSTYLE
  7
Standard
  9
$CLAYER
  8
0
  9
$CELTYPE
  6
ByLayer
  9
$CECOLOR
 62
   256
  9
$CELTSCALE
 40
1.0
  9
$DISPSILH
 70
     0
  9
$DIMSCALE
 40
1.0
  9
$DIMASZ
 40
0.18
  9
$DIMEXO
 40
0.0625
  9
$DIMDLI
 40
0.38
  9
$DIMRND
 40
0.0
  9
$DIMDLE
 40
0.0
  9
$DIMEXE
 40
0.18
  9
$DIMTP
 40
0.0
  9
$DIMTM
 40
0.0
  9
$DIMTXT
 40
0.18
  9
$DIMCEN
 40
0.09
  9
$DIMTSZ
 40
0.0
  9
$DIMTOL
 70
     0
  9
$DIMLIM
 70
     0
  9
$DIMTIH
 70
     1
  9
$DIMTOH
 70
     1
  9
$DIMSE1
 70
     0
  9
$DIMSE2
 70
     0
  9
$DIMTAD
 70
     0
  9
$DIMZIN
 70
     0
  9
$DIMBLK
  1

  9
$DIMASO
 70
     1
  9
$DIMSHO
 70
     1
  9
$DIMPOST
  1

  9
$DIMAPOST
  1

  9
$DIMALT
 70
     0
  9
$DIMALTD
 70
     2
  9
$DIMALTF
 40
25.4
  9
$DIMLFAC
 40
1.0
  9
$DIMTOFL
 70
     0
  9
$DIMTVP
 40
0.0
  9
$DIMTIX
 70
     0
  9
$DIMSOXD
 70
     0
  9
$DIMSAH
 70
     0
  9
$DIMBLK1
  1

  9
$DIMBLK2
  1

  9
$DIMSTYLE
  2
Standard
  9
$DIMCLRD
 70
     0
  9
$DIMCLRE
 70
     0
  9
$DIMCLRT
 70
     0
  9
$DIMTFAC
 40
1.0
  9
$DIMGAP
 40
0.09
  9
$DIMJUST
 70
     0
  9
$DIMSD1
 70
     0
  9
$DIMSD2
 70
     0
  9
$DIMTOLJ
 70
     1
  9
$DIMTZIN
 70
     0
  9
$DIMALTZ
 70
     0
  9
$DIMALTTZ
 70
     0
  9
$DIMUPT
 70
     0
  9
$DIMDEC
 70
     4
  9
$DIMTDEC
 70
     4
  9
$DIMALTU
 70
     2
  9
$DIMALTTD
 70
     2
  9
$DIMTXSTY
  7
Standard
  9
$DIMAUNIT
 70
     0
  9
$DIMADEC
 70
     0
  9
$DIMALTRND
 40
0.0
  9
$DIMAZIN
 70
     0
  9
$DIMDSEP
 70
    46
  9
$DIMATFIT
 70
     3
  9
$DIMFRAC
 70
     0
  9
$DIMLDRBLK
  1

  9
$DIMLUNIT
 70
     2
  9
$DIMLWD
 70
    -2
  9
$DIMLWE
 70
    -2
  9
$DIMTMOVE
 70
     0
  9
$DIMFXL
 40
1.0
  9
$DIMFXLON
 70
     0
  9
$DIMJOGANG
 40
0.7853981633974483
  9
$DIMTFILL
 70
     0
  9
$DIMTFILLCLR
 70
     0
  9
$DIMARCSYM
 70
     0
  9
$DIMLTYPE
  6

  9
$DIMLTEX1
  6

  9
$DIMLTEX2
  6

  9
$DIMTXTDIRECTION
 70
     0
  9
$LUNITS
 70
     2
  9
$LUPREC
 70
     4
  9
$SKETCHINC
 40
0.1
  9
$FILLETRAD
 40
0.0
  9
$AUNITS
 70
     0
  9
$AUPREC
 70
     0
  9
$MENU
  1
.
  9
$ELEVATION
 40
0.0
  9
$PELEVATION
 40
0.0
  9
$THICKNESS
 40
0.0
  9
$LIMCHECK
 70
     0
  9
$CHAMFERA
 40
0.0
  9
$CHAMFERB
 40
0.0
  9
$CHAMFERC
 40
0.0
  9
$CHAMFERD
 40
0.0
  9
$SKPOLY
 70
     0
  9
$TDCREATE
 40
2460269.561504630
  9
$TDUCREATE
 40
2460269.519837963
  9
$TDUPDATE
 40
2460269.561504630
  9
$TDUUPDATE
 40
2460269.519837963
  9
$TDINDWG
 40
0.0000000000
  9
$TDUSRTIMER
 40
0.0000000000
  9
$USRTIMER
 70
     1
  9
$ANGBASE
 50
0.0
  9
$ANGDIR
 70
     0
  9
$PDMODE
 70
     0
  9
$PDSIZE
 40
0.0
  9
$PLINEWID
 40
0.0
  9
$SPLFRAME
 70
     0
  9
$SPLINETYPE
 70
     6
  9
$SPLINESEGS
 70
     8
  9
$HANDSEED
  5
4B2
  9
$SURFTAB1
 70
     6
  9
$SURFTAB2
 70
     6
  9
$SURFTYPE
 70
     6
  9
$SURFU
 70
     6
  9
$SURFV
 70
     6
  9
$UCSBASE
  2

  9
$UCSNAME
  2

  9
$UCSORG
 10
0.0
 20
0.0
 30
0.0
  9
$UCSXDIR
 10
1.0
 20
0.0
 30
0.0
  9
$UCSYDIR
 10
0.0
 20
1.0
 30
0.0
  9
$UCSORTHOREF
  2

  9
$UCSORTHOVIEW
 70
     0
  9
$UCSORGTOP
 10
0.0
 20
0.0
 30
0.0
  9
$UCSORGBOTTOM
 10
0.0
 20
0.0
 30
0.0
  9
$UCSORGLEFT
 10
0.0
 20
0.0
 30
0.0
  9
$UCSORGRIGHT
 10
0.0
 20
0.0
 30
0.0
  9
$UCSORGFRONT
 10
0.0
 20
0.0
 30
0.0
  9
$UCSORGBACK
 10
0.0
 20
0.0
 30
0.0
  9
$PUCSBASE
  2

  9
$PUCSNAME
  2

  9
$PUCSORG
 10
0.0
 20
0.0
 30
0.0
  9
$PUCSXDIR
 10
1.0
 20
0.0
 30
0.0
  9
$PUCSYDIR
 10
0.0
 20
1.0
 30
0.0
  9
$PUCSORTHOREF
  2

  9
$PUCSORTHOVIEW
 70
     0
  9
$PUCSORGTOP
 10
0.0
 20
0.0
 30
0.0
  9
$PUCSORGBOTTOM
 10
0.0
 20
0.0
 30
0.0
  9
$PUCSORGLEFT
 10
0.0
 20
0.0
 30
0.0
  9
$PUCSORGRIGHT
 10
0.0
 20
0.0
 30
0.0
  9
$PUCSORGFRONT
 10
0.0
 20
0.0
 30
0.0
  9
$PUCSORGBACK
 10
0.0
 20
0.0
 30
0.0
  9
$USERI1
 70
     0
  9
$USERI2
 70
     0
  9
$USERI3
 70
     0
  9
$USERI4
 70
     0
  9
$USERI5
 70
     0
  9
$USERR1
 40
0.0
  9
$USERR2
 40
0.0
  9
$USERR3
 40
0.0
  9
$USERR4
 40
0.0
  9
$USERR5
 40
0.0
  9
$WORLDVIEW
 70
     1
  9
$SHADEDGE
 70
     3
  9
$SHADEDIF
 70
    70
  9
$TILEMODE
 70
     1
  9
$MAXACTVP
 70
    64
  9
$PINSBASE
 10
0.0
 20
0.0
 30
0.0
  9
$PLIMCHECK
 70
     0
  9
$PEXTMIN
 10
1.000000000000000E+20
 20
1.000000000000000E+20
 30
1.000000000000000E+20
  9
$PEXTMAX
 10
-1.000000000000000E+20
 20
-1.000000000000000E+20
 30
-1.000000000000000E+20
  9
$PLIMMIN
 10
0.0
 20
0.0
  9
$PLIMMAX
 10
12.0
 20
9.0
  9
$UNITMODE
 70
     0
  9
$VISRETAIN
 70
     1
  9
$PLINEGEN
 70
     0
  9
$PSLTSCALE
 70
     1
  9
$TREEDEPTH
 70
  3020
  9
$CMLSTYLE
  2
Standard
  9
$CMLJUST
 70
     0
  9
$CMLSCALE
 40
1.0
  9
$PROXYGRAPHICS
 70
     1
  9
$MEASUREMENT
 70
     0
  9
$CELWEIGHT
370
    -1
  9
$ENDCAPS
280
     0
  9
$JOINSTYLE
280
     0
  9
$LWDISPLAY
290
     1
  9
$INSUNITS
 70
     4
  9
$HYPERLINKBASE
  1

  9
$STYLESHEET
  1

  9
$XEDIT
290
     1
  9
$CEPSNTYPE
380
     0
  9
$PSTYLEMODE
290
     1
  9
$FINGERPRINTGUID
  2
{E075A6B6-00D2-6042-B08A-C99EF36BAD49}
  9
$VERSIONGUID
  2
{9CF13BAC-5313-0647-9C6F-746513DAD97F}
  9
$EXTNAMES
290
     1
  9
$PSVPSCALE
 40
0.0
  9
$OLESTARTUP
290
     0
  9
$SORTENTS
280
   127
  9
$INDEXCTL
280
     0
  9
$HIDETEXT
280
     1
  9
$XCLIPFRAME
280
     2
  9
$HALOGAP
280
     0
  9
$OBSCOLOR
 70
   257
  9
$OBSLTYPE
280
     0
  9
$INTERSECTIONDISPLAY
280
     0
  9
$INTERSECTIONCOLOR
 70
   257
  9
$DIMASSOC
280
     2
  9
$PROJECTNAME
  1

  9
$CAMERADISPLAY
290
     0
  9
$LENSLENGTH
 40
50.0
  9
$CAMERAHEIGHT
 40
0.0
  9
$STEPSPERSEC
 40
2.0
  9
$STEPSIZE
 40
6.0
  9
$3DDWFPREC
 40
2.0
  9
$PSOLWIDTH
 40
0.25
  9
$PSOLHEIGHT
 40
4.0
  9
$LOFTANG1
 40
1.570796326794896
  9
$LOFTANG2
 40
1.570796326794896
  9
$LOFTMAG1
 40
0.0
  9
$LOFTMAG2
 40
0.0
  9
$LOFTPARAM
 70
     7
  9
$LOFTNORMALS
280
     1
  9
$LATITUDE
 40
37.795
  9
$LONGITUDE
 40
-122.394
  9
$NORTHDIRECTION
 40
0.0
  9
$TIMEZONE
 70
 -8000
  9
$LIGHTGLYPHDISPLAY
280
     1
  9
$TILEMODELIGHTSYNCH
280
     1
  9
$CMATERIAL
347
11
  9
$SOLIDHIST
280
     0
  9
$SHOWHIST
280
     1
  9
$DWFFRAME
280
     2
  9
$DGNFRAME
280
     0
  9
$REALWORLDSCALE
290
     1
  9
$INTERFERECOLOR
 62
     1
  9
$INTERFEREOBJVS
345
33
  9
$INTERFEREVPVS
346
30
  9
$CSHADOW
280
     0
  9
$SHADOWPLANELOCATION
 40
0.0
  0
ENDSEC
  0
SECTION
  2
CLASSES
  0
CLASS
  1
ACDBDICTIONARYWDFLT
  2
AcDbDictionaryWithDefault
  3
ObjectDBX Classes
 90
        0
 91
        1
280
     0
281
     0
  0
CLASS
  1
MATERIAL
  2
AcDbMaterial
  3
ObjectDBX Classes
 90
     1153
 91
        3
280
     0
281
     0
  0
CLASS
  1
VISUALSTYLE
  2
AcDbVisualStyle
  3
ObjectDBX Classes
 90
     4095
 91
       24
280
     0
281
     0
  0
CLASS
  1
SCALE
  2
AcDbScale
  3
ObjectDBX Classes
 90
     1153
 91
       17
280
     0
281
     0
  0
CLASS
  1
TABLESTYLE
  2
AcDbTableStyle
  3
ObjectDBX Classes
 90
     4095
 91
        1
280
     0
281
     0
  0
CLASS
  1
MLEADERSTYLE
  2
AcDbMLeaderStyle
  3
ACDB_MLEADERSTYLE_CLASS
 90
     4095
 91
        1
280
     0
281
     0
  0
CLASS
  1
ACDBSECTIONVIEWSTYLE
  2
AcDbSectionViewStyle
  3
ObjectDBX Classes
 90
     1025
 91
        1
280
     0
281
     0
  0
CLASS
  1
ACDBDETAILVIEWSTYLE
  2
AcDbDetailViewStyle
  3
ObjectDBX Classes
 90
     1025
 91
        1
280
     0
281
     0
  0
CLASS
  1
DICTIONARYVAR
  2
AcDbDictionaryVar
  3
ObjectDBX Classes
 90
        0
 91
        5
280
     0
281
     0
  0
CLASS
  1
CELLSTYLEMAP
  2
AcDbCellStyleMap
  3
ObjectDBX Classes
 90
     1152
 91
        1
280
     0
281
     0
  0
ENDSEC
  0
SECTION
  2
TABLES
  0
TABLE
  2
VPORT
  5
8
330
0
100
AcDbSymbolTable
 70
     1
  0
VPORT
  5
57
330
8
100
AcDbSymbolTableRecord
100
AcDbViewportTableRecord
  2
*Active
 70
     0
 10
0.0
 20
0.0
 11
1.0
 21
1.0
 12
0.0
 22
0.0
 13
0.0
 23
0.0
 14
1.0
 24
1.0
 15
0.0
 25
0.0
 16
0.0
 26
0.0
 36
1.0
 17
188.2316027623653
 27
174.662328577381
 37
0.0
 40
145.9351695395498
 41
1.842688063913388
 42
50.0
 43
0.0
 44
0.0
 50
0.0
 51
0.0
 71
     0
 72
   100
 73
     1
 74
     1
 75
     0
 76
     0
 77
     0
 78
     0
281
     0
 65
     1
110
0.0
120
0.0
130
0.0
111
1.0
121
0.0
131
0.0
112
0.0
122
1.0
132
0.0
 79
     0
146
0.0
 60
     3
 61
     5
292
     1
282
     1
141
0.0
142
0.0
 63
   250
421
  3355443
  0
ENDTAB
  0
TABLE
  2
LTYPE
  5
5
330
0
100
AcDbSymbolTable
 70
     3
  0
LTYPE
  5
5B
330
5
100
AcDbSymbolTableRecord
100
AcDbLinetypeTableRecord
  2
ByBlock
 70
     0
  3

 72
    65
 73
     0
 40
0.0
  0
LTYPE
  5
5C
330
5
100
AcDbSymbolTableRecord
100
AcDbLinetypeTableRecord
  2
ByLayer
 70
     0
  3

 72
    65
 73
     0
 40
0.0
  0
LTYPE
  5
5D
330
5
100
AcDbSymbolTableRecord
100
AcDbLinetypeTableRecord
  2
Continuous
 70
     0
  3
Solid line
 72
    65
 73
     0
 40
0.0
  0
LTYPE
  5
BF
330
5
100
AcDbSymbolTableRecord
100
AcDbLinetypeTableRecord
  2
AI-Linetype-0
 70
     0
  3
Adobe Illustrator Linetype No. 0
 72
    65
 73
     4
 40
8.819444442239584
 49
7.055555553791666
 74
     0
 49
-0.7055555553791667
 74
     0
 49
0.3527777776895833
 74
     0
 49
-0.7055555553791667
 74
     0
  0
LTYPE
  5
15E
330
5
100
AcDbSymbolTableRecord
100
AcDbLinetypeTableRecord
  2
AI-Linetype-1
 70
     0
  3
Adobe Illustrator Linetype No. 1
 72
    65
 73
     4
 40
8.819444442239584
 49
7.055555553791666
 74
     0
 49
-0.7055555553791667
 74
     0
 49
0.3527777776895833
 74
     0
 49
-0.7055555553791667
 74
     0
  0
ENDTAB
  0
TABLE
  2
LAYER
  5
2
330
0
100
AcDbSymbolTable
 70
     7
  0
LAYER
  5
54
330
2
100
AcDbSymbolTableRecord
100
AcDbLayerTableRecord
  2
0
 70
     0
 62
     7
  6
Continuous
370
    -3
390
F
347
21
348
0
  0
LAYER
  5
78
330
2
100
AcDbSymbolTableRecord
100
AcDbLayerTableRecord
  2
grau 10%
 70
     5
 62
     7
  6
Continuous
370
     0
390
F
347
21
348
0
  0
LAYER
  5
7B
330
2
100
AcDbSymbolTableRecord
100
AcDbLayerTableRecord
  2
schlanke Pratze
 70
     0
 62
     7
  6
Continuous
370
     0
390
F
347
21
348
0
  0
LAYER
  5
C0
330
2
100
AcDbSymbolTableRecord
100
AcDbLayerTableRecord
  2
Standardebene
 70
     0
 62
     7
  6
Continuous
370
     0
390
F
347
21
348
0
  0
LAYER
  5
1FC
330
2
100
AcDbSymbolTableRecord
100
AcDbLayerTableRecord
  2
Bemaßung
 70
     5
 62
     7
  6
Continuous
370
     0
390
F
347
21
348
0
  0
LAYER
  5
45C
330
2
100
AcDbSymbolTableRecord
100
AcDbLayerTableRecord
  2
Text
 70
     5
 62
     7
  6
Continuous
370
     0
390
F
347
21
348
0
  0
LAYER
  5
469
330
2
100
AcDbSymbolTableRecord
100
AcDbLayerTableRecord
  2
kräftige Pratze
 70
     5
 62
     7
  6
Continuous
370
     0
390
F
347
21
348
0
  0
ENDTAB
  0
TABLE
  2
STYLE
  5
3
330
0
100
AcDbSymbolTable
 70
     2
  0
STYLE
  5
55
330
3
100
AcDbSymbolTableRecord
100
AcDbTextStyleTableRecord
  2
Standard
 70
     0
 40
0.0
 41
1.0
 50
0.0
 71
     0
 42
0.2
  3
txt
  4

  0
STYLE
  5
5A
330
3
100
AcDbSymbolTableRecord
100
AcDbTextStyleTableRecord
  2
Annotative
 70
     0
 40
0.0
 41
1.0
 50
0.0
 71
     0
 42
0.2
  3
txt
  4

1001
AcadAnnotative
1000
AnnotativeData
1002
{
1070
     1
1070
     1
1002
}
  0
ENDTAB
  0
TABLE
  2
VIEW
  5
6
330
0
100
AcDbSymbolTable
 70
     0
  0
ENDTAB
  0
TABLE
  2
UCS
  5
7
330
0
100
AcDbSymbolTable
 70
     0
  0
ENDTAB
  0
TABLE
  2
APPID
  5
9
330
0
100
AcDbSymbolTable
 70
     2
  0
APPID
  5
56
330
9
100
AcDbSymbolTableRecord
100
AcDbRegAppTableRecord
  2
ACAD
 70
     0
  0
APPID
  5
5E
330
9
100
AcDbSymbolTableRecord
100
AcDbRegAppTableRecord
  2
AcadAnnotative
 70
     0
  0
ENDTAB
  0
TABLE
  2
DIMSTYLE
  5
A
330
0
100
AcDbSymbolTable
 70
     2
100
AcDbDimStyleTable
 71
     0
  0
DIMSTYLE
105
58
330
A
100
AcDbSymbolTableRecord
100
AcDbDimStyleTableRecord
  2
Standard
 70
     0
340
55
  0
DIMSTYLE
105
59
330
A
100
AcDbSymbolTableRecord
100
AcDbDimStyleTableRecord
  2
Annotative
 70
     0
340
55
1001
AcadAnnotative
1000
AnnotativeData
1002
{
1070
     1
1070
     1
1002
}
  0
ENDTAB
  0
TABLE
  2
BLOCK_RECORD
  5
1
330
0
100
AcDbSymbolTable
 70
    10
  0
BLOCK_RECORD
  5
70
330
1
100
AcDbSymbolTableRecord
100
AcDbBlockTableRecord
  2
*Model_Space
340
73
 70
     0
280
     1
281
     0
  0
BLOCK_RECORD
  5
6C
330
1
100
AcDbSymbolTableRecord
100
AcDbBlockTableRecord
  2
*Paper_Space
340
6F
 70
     0
280
     1
281
     0
  0
BLOCK_RECORD
  5
74
330
1
100
AcDbSymbolTableRecord
100
AcDbBlockTableRecord
  2
*Paper_Space0
340
77
 70
     0
280
     1
281
     0
  0
BLOCK_RECORD
  5
7C
330
1
100
AcDbSymbolTableRecord
100
AcDbBlockTableRecord
  2
Block_0
340
0
102
{BLKREFS
331
7D
102
}
 70
     0
280
     1
281
     0
  0
BLOCK_RECORD
  5
80
330
1
100
AcDbSymbolTableRecord
100
AcDbBlockTableRecord
  2
Block_1
340
0
102
{BLKREFS
331
81
102
}
 70
     0
280
     1
281
     0
  0
BLOCK_RECORD
  5
84
330
1
100
AcDbSymbolTableRecord
100
AcDbBlockTableRecord
  2
Block_2
340
0
102
{BLKREFS
331
85
102
}
 70
     0
280
     1
281
     0
  0
BLOCK_RECORD
  5
90
330
1
100
AcDbSymbolTableRecord
100
AcDbBlockTableRecord
  2
Block_3
340
0
102
{BLKREFS
331
91
102
}
 70
     0
280
     1
281
     0
  0
BLOCK_RECORD
  5
94
330
1
100
AcDbSymbolTableRecord
100
AcDbBlockTableRecord
  2
Block_4
340
0
102
{BLKREFS
331
95
102
}
 70
     0
280
     1
281
     0
  0
BLOCK_RECORD
  5
98
330
1
100
AcDbSymbolTableRecord
100
AcDbBlockTableRecord
  2
Block_5
340
0
102
{BLKREFS
331
99
102
}
 70
     0
280
     1
281
     0
  0
BLOCK_RECORD
  5
C1
330
1
100
AcDbSymbolTableRecord
100
AcDbBlockTableRecord
  2
Block_6
340
0
102
{BLKREFS
331
C2
102
}
 70
     0
280
     1
281
     0
  0
BLOCK_RECORD
  5
C5
330
1
100
AcDbSymbolTableRecord
100
AcDbBlockTableRecord
  2
Block_7
340
0
102
{BLKREFS
331
C6
102
}
 70
     0
280
     1
281
     0
  0
BLOCK_RECORD
  5
C9
330
1
100
AcDbSymbolTableRecord
100
AcDbBlockTableRecord
  2
Block_8
340
0
102
{BLKREFS
331
CA
102
}
 70
     0
280
     1
281
     0
  0
ENDTAB
  0
ENDSEC
  0
SECTION
  2
BLOCKS
  0
BLOCK
  5
71
330
70
100
AcDbEntity
  8
0
100
AcDbBlockBegin
  2
*Model_Space
 70
     0
 10
0.0
 20
0.0
 30
0.0
  3
*Model_Space
  1

  0
ENDBLK
  5
72
330
70
100
AcDbEntity
  8
0
100
AcDbBlockEnd
  0
BLOCK
  5
6D
330
6C
100
AcDbEntity
 67
     1
  8
0
100
AcDbBlockBegin
  2
*Paper_Space
 70
     0
 10
0.0
 20
0.0
 30
0.0
  3
*Paper_Space
  1

  0
ENDBLK
  5
6E
330
6C
100
AcDbEntity
 67
     1
  8
0
100
AcDbBlockEnd
  0
BLOCK
  5
75
330
74
100
AcDbEntity
 67
     1
  8
0
100
AcDbBlockBegin
  2
*Paper_Space0
 70
     0
 10
0.0
 20
0.0
 30
0.0
  3
*Paper_Space0
  1

  0
ENDBLK
  5
76
330
74
100
AcDbEntity
 67
     1
  8
0
100
AcDbBlockEnd
  0
BLOCK
  5
7E
330
7C
100
AcDbEntity
  8
0
100
AcDbBlockBegin
  2
Block_0
 70
     0
 10
0.0
 20
0.0
 30
0.0
  3
Block_0
  1

  0
INSERT
  5
81
330
7C
100
AcDbEntity
  8
schlanke Pratze
100
AcDbBlockReference
  2
Block_1
 10
0.0
 20
0.0
 30
0.0
  0
INSERT
  5
85
330
7C
100
AcDbEntity
  8
schlanke Pratze
100
AcDbBlockReference
  2
Block_2
 10
0.0
 20
0.0
 30
0.0
  0
ENDBLK
  5
7F
330
7C
100
AcDbEntity
  8
0
100
AcDbBlockEnd
  0
BLOCK
  5
82
330
80
100
AcDbEntity
  8
0
100
AcDbBlockBegin
  2
Block_1
 70
     0
 10
0.0
 20
0.0
 30
0.0
  3
Block_1
  1

  0
ENDBLK
  5
83
330
80
100
AcDbEntity
  8
0
100
AcDbBlockEnd
  0
BLOCK
  5
86
330
84
100
AcDbEntity
  8
0
100
AcDbBlockBegin
  2
Block_2
 70
     0
 10
0.0
 20
0.0
 30
0.0
  3
Block_2
  1

  0
LWPOLYLINE
  5
88
330
84
100
AcDbEntity
  8
schlanke Pratze
 62
     7
370
    35
100
AcDbPolyline
 90
        5
 70
     0
 43
0.0
 10
190.8485698417103
 20
143.7878897625994
 10
190.8485698417103
 20
130.78643812085
 10
188.8473597222106
 20
130.78643812085
 10
188.8473597222106
 20
143.7878897625994
 10
190.8485698417103
 20
143.7878897625994
  0
LWPOLYLINE
  5
89
330
84
100
AcDbEntity
  8
schlanke Pratze
 62
     7
370
    35
100
AcDbPolyline
 90
        3
 70
     0
 43
0.0
 10
174.2487884658613
 20
130.78643812085
 10
174.2487884658613
 20
143.7878897625994
 10
188.8473597222106
 20
143.7878897625994
  0
LINE
  5
8A
330
84
100
AcDbEntity
  8
schlanke Pratze
 62
     7
370
    35
100
AcDbLine
 10
188.8473597222106
 20
130.78643812085
 30
0.0
 11
174.2487884658613
 21
130.78643812085
 31
0.0
  0
LINE
  5
8B
330
84
100
AcDbEntity
  8
schlanke Pratze
 62
     7
370
    35
100
AcDbLine
 10
198.045229309912
 20
143.7878897625994
 30
0.0
 11
190.8485698417103
 21
143.7878897625994
 31
0.0
  0
LINE
  5
8C
330
84
100
AcDbEntity
  8
schlanke Pratze
 62
     7
370
    35
100
AcDbLine
 10
190.8485698417103
 20
130.78643812085
 30
0.0
 11
198.045229309912
 21
130.78643812085
 31
0.0
  0
SPLINE
  5
8D
330
84
100
AcDbEntity
  8
schlanke Pratze
 62
     7
370
    35
100
AcDbSpline
210
0.0
220
0.0
230
1.0
 70
     8
 71
     3
 72
     8
 73
     4
 74
     0
 42
0.0000000001
 43
0.0000000001
 40
0.0
 40
0.0
 40
0.0
 40
0.0
 40
1.0
 40
1.0
 40
1.0
 40
1.0
 10
198.8469961847112
 20
142.9861228877996
 30
0.0
 10
198.8469961847112
 20
143.4286982026893
 30
0.0
 10
198.4878046248005
 20
143.7878897625994
 30
0.0
 10
198.045229309912
 20
143.7878897625994
 30
0.0
  0
SPLINE
  5
8E
330
84
100
AcDbEntity
  8
schlanke Pratze
 62
     7
370
    35
100
AcDbSpline
210
0.0
220
0.0
230
1.0
 70
     8
 71
     3
 72
     8
 73
     4
 74
     0
 42
0.0000000001
 43
0.0000000001
 40
0.0
 40
0.0
 40
0.0
 40
0.0
 40
1.0
 40
1.0
 40
1.0
 40
1.0
 10
198.045229309912
 20
130.78643812085
 30
0.0
 10
198.4878046248005
 20
130.78643812085
 30
0.0
 10
198.8469961847112
 20
131.1456296807601
 30
0.0
 10
198.8469961847112
 20
131.5882049956491
 30
0.0
  0
LWPOLYLINE
  5
8F
330
84
100
AcDbEntity
  8
schlanke Pratze
 62
     7
370
    35
100
AcDbPolyline
 90
       17
 70
     0
 43
0.0
 10
198.8469961847112
 20
142.9861228877996
 10
198.8469961847112
 20
142.877082592827
 10
198.8469961847112
 20
142.5563758429074
 10
198.8469961847112
 20
142.0304167730388
 10
198.8469961847112
 20
141.318447788217
 10
198.8469961847112
 20
140.4525395634335
 10
198.8469961847112
 20
139.4711769086783
 10
198.8469961847112
 20
138.4000163639464
 10
198.8469961847112
 20
137.2903710092239
 10
198.8469961847112
 20
136.174311519503
 10
198.8469961847112
 20
135.1095651097689
 10
198.8469961847112
 20
134.1217883200159
 10
198.8469961847112
 20
133.2558800952324
 10
198.8469961847112
 20
132.550325245409
 10
198.8469961847112
 20
132.0243661755404
 10
198.8469961847112
 20
131.6972452906218
 10
198.8469961847112
 20
131.5882049956491
  0
ENDBLK
  5
87
330
84
100
AcDbEntity
  8
0
100
AcDbBlockEnd
  0
BLOCK
  5
92
330
90
100
AcDbEntity
  8
0
100
AcDbBlockBegin
  2
Block_3
 70
     0
 10
0.0
 20
0.0
 30
0.0
  3
Block_3
  1

  0
INSERT
  5
95
330
90
100
AcDbEntity
  8
schlanke Pratze
100
AcDbBlockReference
  2
Block_4
 10
0.0
 20
0.0
 30
0.0
  0
INSERT
  5
99
330
90
100
AcDbEntity
  8
schlanke Pratze
100
AcDbBlockReference
  2
Block_5
 10
0.0
 20
0.0
 30
0.0
  0
ENDBLK
  5
93
330
90
100
AcDbEntity
  8
0
100
AcDbBlockEnd
  0
BLOCK
  5
96
330
94
100
AcDbEntity
  8
0
100
AcDbBlockBegin
  2
Block_4
 70
     0
 10
0.0
 20
0.0
 30
0.0
  3
Block_4
  1

  0
ENDBLK
  5
97
330
94
100
AcDbEntity
  8
0
100
AcDbBlockEnd
  0
BLOCK
  5
9A
330
98
100
AcDbEntity
  8
0
100
AcDbBlockBegin
  2
Block_5
 70
     0
 10
0.0
 20
0.0
 30
0.0
  3
Block_5
  1

  0
LINE
  5
9C
330
98
100
AcDbEntity
  8
schlanke Pratze
 62
     7
370
    35
100
AcDbLine
 10
178.0459563849109
 20
228.9098753263189
 30
0.0
 11
177.8471181999615
 21
228.9098753263189
 31
0.0
  0
LWPOLYLINE
  5
9D
330
98
100
AcDbEntity
  8
schlanke Pratze
 62
     7
370
    35
100
AcDbPolyline
 90
       14
 70
     0
 43
0.0
 10
177.8471181999615
 20
220.8729641733281
 10
177.8471181999615
 20
221.5400342131615
 10
177.8471181999615
 20
222.361043492956
 10
177.8471181999615
 20
223.2975072027222
 10
177.8471181999615
 20
224.3045263974704
 10
177.8471181999615
 20
224.7406875773611
 10
177.8471181999615
 20
225.3115455922187
 10
177.8471181999615
 20
226.2864941119748
 10
177.8471181999615
 20
227.1588164717567
 10
177.8471181999615
 20
227.8964419965722
 10
177.8471181999615
 20
228.4480576064346
 10
177.8471181999615
 20
228.5121989564182
 10
177.8471181999615
 20
228.7944208963478
 10
177.8471181999615
 20
228.9098753263189
  0
LWPOLYLINE
  5
9E
330
98
100
AcDbEntity
  8
schlanke Pratze
 62
     7
370
    35
100
AcDbPolyline
 90
        5
 70
     0
 43
0.0
 10
177.8471181999615
 20
219.5965513086471
 10
177.8471181999615
 20
220.3213485634663
 10
177.8471181999615
 20
220.4945302084227
 10
177.8471181999615
 20
220.513772613418
 10
177.8471181999615
 20
220.8729641733281
  0
LINE
  5
9F
330
98
100
AcDbEntity
  8
schlanke Pratze
 62
     7
370
    35
100
AcDbLine
 10
177.8471181999615
 20
219.5965513086471
 30
0.0
 11
177.8471181999615
 21
219.2501880187338
 31
0.0
  0
LWPOLYLINE
  5
A0
330
98
100
AcDbEntity
  8
schlanke Pratze
 62
     7
370
    35
100
AcDbPolyline
 90
        4
 70
     0
 43
0.0
 10
177.8471181999615
 20
217.7428662941106
 10
177.8471181999615
 20
218.0379165040371
 10
177.8471181999615
 20
218.576703843902
 10
177.8471181999615
 20
219.2501880187338
  0
LINE
  5
A1
330
98
100
AcDbEntity
  8
schlanke Pratze
 62
     7
370
    35
100
AcDbLine
 10
177.8471181999615
 20
220.4945302084227
 30
0.0
 11
178.0459563849109
 21
220.4945302084227
 31
0.0
  0
LWPOLYLINE
  5
A2
330
98
100
AcDbEntity
  8
schlanke Pratze
 62
     7
370
    35
100
AcDbPolyline
 90
       13
 70
     0
 43
0.0
 10
178.6488850747606
 20
220.8729641733281
 10
178.6488850747606
 20
221.0782164932765
 10
178.6488850747606
 20
221.5528624831584
 10
178.6488850747606
 20
222.3931141679481
 10
178.6488850747606
 20
223.348820282709
 10
178.6488850747606
 20
224.3622536124556
 10
178.6488850747606
 20
224.7406875773611
 10
178.6488850747606
 20
225.3949293471976
 10
178.6488850747606
 20
226.3698778669537
 10
178.6488850747606
 20
227.2486143617341
 10
178.6488850747606
 20
227.9477550765597
 10
178.6488850747606
 20
227.9734116165527
 10
178.6488850747606
 20
228.5121989564182
  0
LWPOLYLINE
  5
A3
330
98
100
AcDbEntity
  8
schlanke Pratze
 62
     7
370
    35
100
AcDbPolyline
 90
        3
 70
     0
 43
0.0
 10
178.6488850747606
 20
220.8729641733281
 10
178.6488850747606
 20
220.712610798368
 10
178.6488850747606
 20
220.513772613418
  0
LINE
  5
A4
330
98
100
AcDbEntity
  8
schlanke Pratze
 62
     7
370
    35
100
AcDbLine
 10
178.0459563849109
 20
217.7428662941106
 30
0.0
 11
177.8471181999615
 21
217.7428662941106
 31
0.0
  0
LINE
  5
A5
330
98
100
AcDbEntity
  8
schlanke Pratze
 62
     7
370
    35
100
AcDbLine
 10
188.8473597222106
 20
238.2616841539807
 30
0.0
 11
174.2487884658613
 21
238.2616841539807
 31
0.0
  0
LINE
  5
A6
330
98
100
AcDbEntity
  8
schlanke Pratze
 62
     7
370
    35
100
AcDbLine
 10
190.8485698417103
 20
235.4073940796944
 30
0.0
 11
188.8473597222106
 21
238.2616841539807
 31
0.0
  0
LWPOLYLINE
  5
A7
330
98
100
AcDbEntity
  8
schlanke Pratze
 62
     7
370
    35
100
AcDbPolyline
 90
        5
 70
     0
 43
0.0
 10
190.8485698417103
 20
213.6185774901418
 10
190.8485698417103
 20
218.0122599640434
 10
190.8485698417103
 20
224.7406875773611
 10
190.8485698417103
 20
231.0137116057928
 10
190.8485698417103
 20
235.4073940796944
  0
LINE
  5
A8
330
98
100
AcDbEntity
  8
schlanke Pratze
 62
     7
370
    35
100
AcDbLine
 10
188.8473597222106
 20
210.7642874158555
 30
0.0
 11
190.8485698417103
 21
213.6185774901418
 31
0.0
  0
LINE
  5
A9
330
98
100
AcDbEntity
  8
schlanke Pratze
 62
     7
370
    35
100
AcDbLine
 10
174.2487884658613
 20
210.7642874158555
 30
0.0
 11
188.8473597222106
 21
210.7642874158555
 31
0.0
  0
LINE
  5
AA
330
98
100
AcDbEntity
  8
schlanke Pratze
 62
     7
370
    35
100
AcDbLine
 10
175.9613625104323
 20
213.7596884601066
 30
0.0
 11
174.2487884658613
 21
211.3094888907188
 31
0.0
  0
LWPOLYLINE
  5
AB
330
98
100
AcDbEntity
  8
schlanke Pratze
 62
     7
370
    35
100
AcDbPolyline
 90
        3
 70
     0
 43
0.0
 10
179.0465614446607
 20
220.513772613418
 10
179.0465614446607
 20
224.7406875773611
 10
179.0465614446607
 20
228.5121989564182
  0
LINE
  5
AC
330
98
100
AcDbEntity
  8
schlanke Pratze
 62
     7
370
    35
100
AcDbLine
 10
174.2487884658613
 20
210.7642874158555
 30
0.0
 11
174.2487884658613
 21
211.3094888907188
 31
0.0
  0
LWPOLYLINE
  5
AD
330
98
100
AcDbEntity
  8
schlanke Pratze
 62
     7
370
    35
100
AcDbPolyline
 90
        4
 70
     0
 43
0.0
 10
178.0459563849109
 20
220.513772613418
 10
178.6488850747606
 20
220.513772613418
 10
178.7450970997365
 20
220.513772613418
 10
179.0465614446607
 20
220.513772613418
  0
LWPOLYLINE
  5
AE
330
98
100
AcDbEntity
  8
schlanke Pratze
 62
     7
370
    35
100
AcDbPolyline
 90
        4
 70
     0
 43
0.0
 10
179.0465614446607
 20
228.5121989564182
 10
178.7450970997365
 20
228.5121989564182
 10
178.6488850747606
 20
228.5121989564182
 10
178.0459563849109
 20
228.5121989564182
  0
LWPOLYLINE
  5
AF
330
98
100
AcDbEntity
  8
schlanke Pratze
 62
     7
370
    35
100
AcDbPolyline
 90
        3
 70
     0
 43
0.0
 10
178.0459563849109
 20
233.26507299023
 10
178.0459563849109
 20
228.9098753263189
 10
178.0459563849109
 20
228.5121989564182
  0
SPLINE
  5
B0
330
98
100
AcDbEntity
  8
schlanke Pratze
 62
     7
370
    35
100
AcDbSpline
210
0.0
220
0.0
230
1.0
 70
     8
 71
     3
 72
     8
 73
     4
 74
     0
 42
0.0000000001
 43
0.0000000001
 40
0.0
 40
0.0
 40
0.0
 40
0.0
 40
1.0
 40
1.0
 40
1.0
 40
1.0
 10
178.0459563849109
 20
233.26507299023
 30
0.0
 10
178.0459563849109
 20
234.368304209954
 30
0.0
 10
177.154391620135
 20
235.2598689747312
 30
0.0
 10
176.0447462654112
 20
235.2598689747312
 30
0.0
  0
SPLINE
  5
B1
330
98
100
AcDbEntity
  8
schlanke Pratze
 62
     7
370
    35
100
AcDbSpline
210
0.0
220
0.0
230
1.0
 70
     8
 71
     3
 72
     8
 73
     4
 74
     0
 42
0.0000000001
 43
0.0000000001
 40
0.0
 40
0.0
 40
0.0
 40
0.0
 40
1.0
 40
1.0
 40
1.0
 40
1.0
 10
176.0447462654112
 20
213.7596884601066
 30
0.0
 10
177.154391620135
 20
213.7596884601066
 30
0.0
 10
178.0459563849109
 20
214.6576673598822
 30
0.0
 10
178.0459563849109
 20
215.7608985796063
 30
0.0
  0
LINE
  5
B2
330
98
100
AcDbEntity
  8
schlanke Pratze
 62
     7
370
    35
100
AcDbLine
 10
175.9613625104323
 20
213.7596884601066
 30
0.0
 11
176.0447462654112
 21
213.7596884601066
 31
0.0
  0
LWPOLYLINE
  5
B3
330
98
100
AcDbEntity
  8
schlanke Pratze
 62
     7
370
    35
100
AcDbPolyline
 90
        4
 70
     0
 43
0.0
 10
178.0459563849109
 20
220.513772613418
 10
178.0459563849109
 20
220.4945302084227
 10
178.0459563849109
 20
217.7428662941106
 10
178.0459563849109
 20
215.7608985796063
  0
LWPOLYLINE
  5
B4
330
98
100
AcDbEntity
  8
schlanke Pratze
 62
     7
370
    35
100
AcDbPolyline
 90
        4
 70
     0
 43
0.0
 10
175.9613625104323
 20
235.2598689747312
 10
176.0447462654112
 20
235.2598689747312
 10
174.2487884658613
 20
237.710068544119
 10
174.2487884658613
 20
238.2616841539807
  0
LINE
  5
B5
330
98
100
AcDbEntity
  8
schlanke Pratze
 62
     7
370
    35
100
AcDbLine
 10
198.045229309912
 20
231.0137116057928
 30
0.0
 11
190.8485698417103
 21
231.0137116057928
 31
0.0
  0
LINE
  5
B6
330
98
100
AcDbEntity
  8
schlanke Pratze
 62
     7
370
    35
100
AcDbLine
 10
190.8485698417103
 20
218.0122599640434
 30
0.0
 11
198.045229309912
 21
218.0122599640434
 31
0.0
  0
SPLINE
  5
B7
330
98
100
AcDbEntity
  8
schlanke Pratze
 62
     7
370
    35
100
AcDbSpline
210
0.0
220
0.0
230
1.0
 70
     8
 71
     3
 72
     8
 73
     4
 74
     0
 42
0.0000000001
 43
0.0000000001
 40
0.0
 40
0.0
 40
0.0
 40
0.0
 40
1.0
 40
1.0
 40
1.0
 40
1.0
 10
198.8469961847112
 20
230.2119447309936
 30
0.0
 10
198.8469961847112
 20
230.6545200458827
 30
0.0
 10
198.4878046248005
 20
231.0137116057928
 30
0.0
 10
198.045229309912
 20
231.0137116057928
 30
0.0
  0
SPLINE
  5
B8
330
98
100
AcDbEntity
  8
schlanke Pratze
 62
     7
370
    35
100
AcDbSpline
210
0.0
220
0.0
230
1.0
 70
     8
 71
     3
 72
     8
 73
     4
 74
     0
 42
0.0000000001
 43
0.0000000001
 40
0.0
 40
0.0
 40
0.0
 40
0.0
 40
1.0
 40
1.0
 40
1.0
 40
1.0
 10
198.045229309912
 20
218.0122599640434
 30
0.0
 10
198.4878046248005
 20
218.0122599640434
 30
0.0
 10
198.8469961847112
 20
218.3714515239535
 30
0.0
 10
198.8469961847112
 20
218.8140268388432
 30
0.0
  0
LWPOLYLINE
  5
B9
330
98
100
AcDbEntity
  8
schlanke Pratze
 62
     7
370
    35
100
AcDbPolyline
 90
       18
 70
     0
 43
0.0
 10
198.8469961847112
 20
230.2119447309936
 10
198.8469961847112
 20
230.1029044360204
 10
198.8469961847112
 20
229.7757835511024
 10
198.8469961847112
 20
229.2498244812338
 10
198.8469961847112
 20
228.5442696314104
 10
198.8469961847112
 20
227.6783614066269
 10
198.8469961847112
 20
226.6905846168739
 10
198.8469961847112
 20
225.6258382071398
 10
198.8469961847112
 20
224.7406875773611
 10
198.8469961847112
 20
224.5097787174189
 10
198.8469961847112
 20
223.4001333626964
 10
198.8469961847112
 20
222.3289728179638
 10
198.8469961847112
 20
221.3476101632093
 10
198.8469961847112
 20
220.4817019384258
 10
198.8469961847112
 20
219.769732953604
 10
198.8469961847112
 20
219.2437738837354
 10
198.8469961847112
 20
218.9230671338158
 10
198.8469961847112
 20
218.8140268388432
  0
LWPOLYLINE
  5
BA
330
98
100
AcDbEntity
  8
schlanke Pratze
 62
     7
370
    35
100
AcDbPolyline
 90
        5
 70
     0
 43
0.0
 10
177.8471181999615
 20
228.5121989564182
 10
176.5899477402758
 20
228.5121989564182
 10
176.5899477402758
 20
224.7406875773611
 10
176.5899477402758
 20
220.513772613418
 10
177.8471181999615
 20
220.513772613418
  0
LWPOLYLINE
  5
BB
330
98
100
AcDbEntity
  8
schlanke Pratze
 62
     7
370
    35
100
AcDbPolyline
 90
       17
 70
     0
 43
0.0
 10
178.7450970997365
 20
228.5121989564182
 10
178.7450970997365
 20
228.3967445264472
 10
178.7450970997365
 20
228.210734611494
 10
178.7450970997365
 20
228.0567953715323
 10
178.7450970997365
 20
227.50517976167
 10
178.7450970997365
 20
226.7867966418497
 10
178.7450970997365
 20
225.9273025520647
 10
178.7450970997365
 20
224.997252977297
 10
178.7450970997365
 20
224.7406875773611
 10
178.7450970997365
 20
224.0287185925393
 10
178.7450970997365
 20
223.0922548827731
 10
178.7450970997365
 20
222.2391749279864
 10
178.7450970997365
 20
221.5207918081662
 10
178.7450970997365
 20
220.9691761983039
 10
178.7450970997365
 20
220.8088228233444
 10
178.7450970997365
 20
220.6292270433891
 10
178.7450970997365
 20
220.513772613418
  0
SPLINE
  5
BC
330
98
100
AcDbEntity
  8
schlanke Pratze
 62
     7
370
    35
100
AcDbSpline
210
0.0
220
0.0
230
1.0
 70
     8
 71
     3
 72
     8
 73
     4
 74
     0
 42
0.0000000001
 43
0.0000000001
 40
0.0
 40
0.0
 40
0.0
 40
0.0
 40
1.0
 40
1.0
 40
1.0
 40
1.0
 10
178.6488850747606
 20
227.9477550765597
 30
0.0
 10
178.713026424745
 20
228.0247246965402
 30
0.0
 10
178.7450970997365
 20
228.120936721516
 30
0.0
 10
178.7450970997365
 20
228.210734611494
 30
0.0
  0
SPLINE
  5
BD
330
98
100
AcDbEntity
  8
schlanke Pratze
 62
     7
370
    35
100
AcDbSpline
210
0.0
220
0.0
230
1.0
 70
     8
 71
     3
 72
     8
 73
     4
 74
     0
 42
0.0000000001
 43
0.0000000001
 40
0.0
 40
0.0
 40
0.0
 40
0.0
 40
1.0
 40
1.0
 40
1.0
 40
1.0
 10
178.7450970997365
 20
220.8088228233444
 30
0.0
 10
178.7450970997365
 20
220.9114489833186
 30
0.0
 10
178.7066122897459
 20
221.0076610082944
 30
0.0
 10
178.6488850747606
 20
221.0782164932765
 30
0.0
  0
LWPOLYLINE
  5
BE
330
98
100
AcDbEntity
  8
schlanke Pratze
  6
AI-Linetype-0
 62
     7
370
     9
100
AcDbPolyline
 90
        9
 70
     0
 43
0.0
 10
159.8169847194685
 20
224.7406875773611
 10
176.5899477402758
 20
224.7406875773611
 10
177.8471181999615
 20
224.7406875773611
 10
178.6488850747606
 20
224.7406875773611
 10
178.7450970997365
 20
224.7406875773611
 10
179.0465614446607
 20
224.7406875773611
 10
190.8485698417103
 20
224.7406875773611
 10
198.8469961847112
 20
224.7406875773611
 10
201.8616396339576
 20
224.7406875773611
  0
ENDBLK
  5
9B
330
98
100
AcDbEntity
  8
0
100
AcDbBlockEnd
  0
BLOCK
  5
C3
330
C1
100
AcDbEntity
  8
0
100
AcDbBlockBegin
  2
Block_6
 70
     0
 10
0.0
 20
0.0
 30
0.0
  3
Block_6
  1

  0
INSERT
  5
C6
330
C1
100
AcDbEntity
  8
Standardebene
100
AcDbBlockReference
  2
Block_7
 10
0.0
 20
0.0
 30
0.0
  0
INSERT
  5
CA
330
C1
100
AcDbEntity
  8
Standardebene
100
AcDbBlockReference
  2
Block_8
 10
0.0
 20
0.0
 30
0.0
  0
ENDBLK
  5
C4
330
C1
100
AcDbEntity
  8
0
100
AcDbBlockEnd
  0
BLOCK
  5
C7
330
C5
100
AcDbEntity
  8
0
100
AcDbBlockBegin
  2
Block_7
 70
     0
 10
0.0
 20
0.0
 30
0.0
  3
Block_7
  1

  0
ENDBLK
  5
C8
330
C5
100
AcDbEntity
  8
0
100
AcDbBlockEnd
  0
BLOCK
  5
CB
330
C9
100
AcDbEntity
  8
0
100
AcDbBlockBegin
  2
Block_8
 70
     0
 10
0.0
 20
0.0
 30
0.0
  3
Block_8
  1

  0
LWPOLYLINE
  5
CD
330
C9
100
AcDbEntity
  8
Standardebene
 62
     7
370
     9
100
AcDbPolyline
 90
        3
 70
     0
 43
0.0
 10
132.4029717363222
 20
223.4322040376885
 10
130.1002972718976
 20
223.6310422226389
 10
128.7789854622283
 20
221.7324582631134
  0
LINE
  5
CE
330
C9
100
AcDbEntity
  8
Standardebene
 62
     7
370
     9
100
AcDbLine
 10
132.5697392462807
 20
220.1738234585032
 30
0.0
 11
132.0630225814074
 21
219.4490262036845
 31
0.0
  0
CIRCLE
  5
CF
330
C9
100
AcDbEntity
  8
Standardebene
 62
     7
370
     9
100
AcDbCircle
 10
131.0880740616508
 20
221.5207918081665
 30
0.0
 40
3.232724039191801
  0
SPLINE
  5
D0
330
C9
100
AcDbEntity
  8
Standardebene
 62
     7
370
     9
100
AcDbSpline
210
0.0
220
0.0
230
1.0
 70
     8
 71
     3
 72
     8
 73
     4
 74
     0
 42
0.0000000001
 43
0.0000000001
 40
0.0
 40
0.0
 40
0.0
 40
0.0
 40
1.0
 40
1.0
 40
1.0
 40
1.0
 10
130.6647411517569
 20
219.570894768654
 30
0.0
 10
130.8379227967132
 20
219.525995823665
 30
0.0
 10
131.0175185766686
 20
219.5131675536684
 30
0.0
 10
131.1778719516286
 20
219.525995823665
 30
0.0
  0
SPLINE
  5
D1
330
C9
100
AcDbEntity
  8
Standardebene
 62
     7
370
     9
100
AcDbSpline
210
0.0
220
0.0
230
1.0
 70
     8
 71
     3
 72
     8
 73
     4
 74
     0
 42
0.0000000001
 43
0.0000000001
 40
0.0
 40
0.0
 40
0.0
 40
0.0
 40
1.0
 40
1.0
 40
1.0
 40
1.0
 10
132.5697392462807
 20
220.1738234585032
 30
0.0
 10
132.6916078112502
 20
220.3085202934695
 30
0.0
 10
132.7942339712245
 20
220.4560453984327
 30
0.0
 10
132.8647894562066
 20
220.6035705033956
 30
0.0
  0
LWPOLYLINE
  5
D2
330
C9
100
AcDbEntity
  8
Standardebene
 62
     7
370
     9
100
AcDbPolyline
 90
        3
 70
     0
 43
0.0
 10
129.7603481169828
 20
219.6414502536364
 10
129.2792879921032
 20
220.6741259883781
 10
128.7789854622283
 20
221.7324582631134
  0
LINE
  5
D3
330
C9
100
AcDbEntity
  8
Standardebene
 62
     7
370
     9
100
AcDbLine
 10
132.0630225814074
 20
219.4490262036845
 30
0.0
 11
131.1778719516286
 21
219.525995823665
 31
0.0
  0
LINE
  5
D4
330
C9
100
AcDbEntity
  8
Standardebene
 62
     7
370
     9
100
AcDbLine
 10
130.6647411517569
 20
219.570894768654
 30
0.0
 11
129.7603481169828
 21
219.6414502536364
 31
0.0
  0
LINE
  5
D5
330
C9
100
AcDbEntity
  8
Standardebene
 62
     7
370
     9
100
AcDbLine
 10
133.3843343910767
 20
221.3411960282112
 30
0.0
 11
132.4029717363222
 21
223.4322040376885
 31
0.0
  0
LINE
  5
D6
330
C9
100
AcDbEntity
  8
Standardebene
 62
     7
370
     9
100
AcDbLine
 10
133.3843343910767
 20
221.3411960282112
 30
0.0
 11
132.8647894562066
 21
220.6035705033956
 31
0.0
  0
SPLINE
  5
D7
330
C9
100
AcDbEntity
  8
Standardebene
 62
     7
370
     9
100
AcDbSpline
210
0.0
220
0.0
230
1.0
 70
     9
 71
     3
 72
    17
 73
    13
 74
     0
 42
0.0000000001
 43
0.0000000001
 40
0.0
 40
0.0
 40
0.0
 40
0.0
 40
1.0
 40
1.0
 40
1.0
 40
2.0
 40
2.0
 40
2.0
 40
3.0
 40
3.0
 40
3.0
 40
4.0
 40
4.0
 40
4.0
 40
4.0
 10
135.09049430065
 20
221.5207918081666
 30
0.0
 10
135.09049430065
 20
223.7336683826131
 30
0.0
 10
133.2945365010994
 20
225.5232120471659
 30
0.0
 10
131.0880740616506
 20
225.5232120471659
 30
0.0
 10
128.8816116222025
 20
225.5232120471659
 30
0.0
 10
127.0856538226513
 20
223.7336683826131
 30
0.0
 10
127.0856538226513
 20
221.5207918081666
 30
0.0
 10
127.0856538226513
 20
219.3143293687181
 30
0.0
 10
128.8816116222025
 20
217.5247857041653
 30
0.0
 10
131.0880740616506
 20
217.5247857041653
 30
0.0
 10
133.2945365010994
 20
217.5247857041653
 30
0.0
 10
135.09049430065
 20
219.3143293687181
 30
0.0
 10
135.09049430065
 20
221.5207918081666
 30
0.0
  0
SPLINE
  5
D8
330
C9
100
AcDbEntity
  8
Standardebene
 62
     7
370
     9
100
AcDbSpline
210
0.0
220
0.0
230
1.0
 70
     8
 71
     3
 72
    14
 73
    10
 74
     0
 42
0.0000000001
 43
0.0000000001
 40
0.0
 40
0.0
 40
0.0
 40
0.0
 40
1.0
 40
1.0
 40
1.0
 40
2.0
 40
2.0
 40
2.0
 40
3.0
 40
3.0
 40
3.0
 40
3.0
 10
133.0892841811503
 20
221.5207918081666
 30
0.0
 10
133.0892841811503
 20
222.6240230278906
 30
0.0
 10
132.1913052813753
 20
223.5220019276662
 30
0.0
 10
131.0880740616506
 20
223.5220019276662
 30
0.0
 10
129.9848428419266
 20
223.5220019276662
 30
0.0
 10
129.086863942151
 20
222.6240230278906
 30
0.0
 10
129.086863942151
 20
221.5207918081666
 30
0.0
 10
129.086863942151
 20
221.2129133282432
 30
0.0
 10
129.1574194271337
 20
220.9242772533155
 30
0.0
 10
129.2792879921032
 20
220.6741259883781
 30
0.0
  0
SPLINE
  5
D9
330
C9
100
AcDbEntity
  8
Standardebene
 62
     7
370
     9
100
AcDbSpline
210
0.0
220
0.0
230
1.0
 70
     8
 71
     3
 72
     8
 73
     4
 74
     0
 42
0.0000000001
 43
0.0000000001
 40
0.0
 40
0.0
 40
0.0
 40
0.0
 40
1.0
 40
1.0
 40
1.0
 40
1.0
 10
131.1778719516286
 20
219.525995823665
 30
0.0
 10
131.7294875614903
 20
219.5516523636587
 30
0.0
 10
132.2233759563668
 20
219.7953894935977
 30
0.0
 10
132.5697392462807
 20
220.1738234585032
 30
0.0
  0
SPLINE
  5
DA
330
C9
100
AcDbEntity
  8
Standardebene
 62
     7
370
     9
100
AcDbSpline
210
0.0
220
0.0
230
1.0
 70
     8
 71
     3
 72
     8
 73
     4
 74
     0
 42
0.0000000001
 43
0.0000000001
 40
0.0
 40
0.0
 40
0.0
 40
0.0
 40
1.0
 40
1.0
 40
1.0
 40
1.0
 10
132.8647894562066
 20
220.6035705033956
 30
0.0
 10
133.0187286961682
 20
220.8986207133221
 30
0.0
 10
133.0892841811503
 20
221.2193274632416
 30
0.0
 10
133.0892841811503
 20
221.5207918081666
 30
0.0
  0
SPLINE
  5
DB
330
C9
100
AcDbEntity
  8
Standardebene
 62
     7
370
     9
100
AcDbSpline
210
0.0
220
0.0
230
1.0
 70
     8
 71
     3
 72
     8
 73
     4
 74
     0
 42
0.0000000001
 43
0.0000000001
 40
0.0
 40
0.0
 40
0.0
 40
0.0
 40
1.0
 40
1.0
 40
1.0
 40
1.0
 10
129.2792879921032
 20
220.6741259883781
 30
0.0
 10
129.5486816620359
 20
220.0904397035239
 30
0.0
 10
130.0746407319039
 20
219.6991774686219
 30
0.0
 10
130.6647411517569
 20
219.570894768654
 30
0.0
  0
LINE
  5
DC
330
C9
100
AcDbEntity
  8
Standardebene
 62
     7
370
     9
100
AcDbLine
 10
122.3905070038254
 20
223.9581631075572
 30
0.0
 11
121.2487909741108
 21
223.0794266127769
 31
0.0
  0
SPLINE
  5
DD
330
C9
100
AcDbEntity
  8
Standardebene
 62
     7
370
     9
100
AcDbSpline
210
0.0
220
0.0
230
1.0
 70
     8
 71
     3
 72
     8
 73
     4
 74
     0
 42
0.0000000001
 43
0.0000000001
 40
0.0
 40
0.0
 40
0.0
 40
0.0
 40
1.0
 40
1.0
 40
1.0
 40
1.0
 10
123.2371728236136
 20
221.4566504581826
 30
0.0
 10
123.3205565785925
 20
221.5015494031713
 30
0.0
 10
123.3911120635752
 20
221.5592766181568
 30
0.0
 10
123.4488392785605
 20
221.6170038331423
 30
0.0
  0
LINE
  5
DE
330
C9
100
AcDbEntity
  8
Standardebene
 62
     7
370
     9
100
AcDbLine
 10
123.9170711334439
 20
221.9697812580541
 30
0.0
 11
123.4488392785605
 21
221.6170038331423
 31
0.0
  0
LINE
  5
DF
330
C9
100
AcDbEntity
  8
Standardebene
 62
     7
370
     9
100
AcDbLine
 10
123.8401015134627
 20
222.5213968679164
 30
0.0
 11
123.9170711334439
 21
221.9697812580541
 31
0.0
  0
SPLINE
  5
E0
330
C9
100
AcDbEntity
  8
Standardebene
 62
     7
370
     9
100
AcDbSpline
210
0.0
220
0.0
230
1.0
 70
     8
 71
     3
 72
     8
 73
     4
 74
     0
 42
0.0000000001
 43
0.0000000001
 40
0.0
 40
0.0
 40
0.0
 40
0.0
 40
1.0
 40
1.0
 40
1.0
 40
1.0
 10
123.8401015134627
 20
222.5470534079098
 30
0.0
 10
123.8336873784643
 20
222.6432654328859
 30
0.0
 10
123.8208591084674
 20
222.7394774578617
 30
0.0
 10
123.8016167034728
 20
222.8164470778425
 30
0.0
  0
LINE
  5
E1
330
C9
100
AcDbEntity
  8
Standardebene
 62
     7
370
     9
100
AcDbLine
 10
121.2487909741108
 20
223.0794266127769
 30
0.0
 11
121.4348008890639
 21
221.6490745081345
 31
0.0
  0
LINE
  5
E2
330
C9
100
AcDbEntity
  8
Standardebene
 62
     7
370
     9
100
AcDbLine
 10
123.7246470834916
 20
223.4001333626967
 30
0.0
 11
123.8016167034728
 21
222.8164470778425
 31
0.0
  0
LINE
  5
E3
330
C9
100
AcDbEntity
  8
Standardebene
 62
     7
370
     9
100
AcDbLine
 10
122.0762143889037
 20
221.3796808382018
 30
0.0
 11
121.4348008890639
 21
221.6490745081345
 31
0.0
  0
LINE
  5
E4
330
C9
100
AcDbEntity
  8
Standardebene
 62
     7
370
     9
100
AcDbLine
 10
122.7689409687308
 20
221.0910447632737
 30
0.0
 11
122.1403557388879
 21
221.354024298208
 31
0.0
  0
LINE
  5
E5
330
C9
100
AcDbEntity
  8
Standardebene
 62
     7
370
     9
100
AcDbLine
 10
123.2371728236136
 20
221.4566504581826
 30
0.0
 11
122.7689409687308
 21
221.0910447632737
 31
0.0
  0
LWPOLYLINE
  5
E6
330
C9
100
AcDbEntity
  8
Standardebene
 62
     7
370
     9
100
AcDbPolyline
 90
        3
 70
     0
 43
0.0
 10
123.7246470834916
 20
223.4001333626967
 10
122.999849828673
 20
223.7015977076213
 10
122.3905070038254
 20
223.9581631075572
  0
CIRCLE
  5
E7
330
C9
100
AcDbEntity
  8
Standardebene
 62
     7
370
     9
100
AcDbCircle
 10
122.5893451887754
 20
222.5213968679163
 30
0.0
 40
1.648432694587866
  0
SPLINE
  5
E8
330
C9
100
AcDbEntity
  8
Standardebene
 62
     7
370
     9
100
AcDbSpline
210
0.0
220
0.0
230
1.0
 70
    24
 71
     3
 72
     8
 73
     4
 74
     0
 42
0.0000000001
 43
0.0000000001
 40
0.0
 40
0.0
 40
0.0
 40
0.0
 40
1.0
 40
1.0
 40
1.0
 40
1.0
 10
123.8401015134627
 20
222.5213968679164
 30
0.0
 10
123.8401015134627
 20
222.5342251379129
 30
0.0
 10
123.8401015134627
 20
222.5406392729114
 30
0.0
 10
123.8401015134627
 20
222.5470534079098
 30
0.0
  0
SPLINE
  5
E9
330
C9
100
AcDbEntity
  8
Standardebene
 62
     7
370
     9
100
AcDbSpline
210
0.0
220
0.0
230
1.0
 70
     8
 71
     3
 72
    26
 73
    22
 74
     0
 42
0.0000000001
 43
0.0000000001
 40
0.0
 40
0.0
 40
0.0
 40
0.0
 40
1.0
 40
1.0
 40
1.0
 40
2.0
 40
2.0
 40
2.0
 40
3.0
 40
3.0
 40
3.0
 40
4.0
 40
4.0
 40
4.0
 40
5.0
 40
5.0
 40
5.0
 40
6.0
 40
6.0
 40
6.0
 40
7.0
 40
7.0
 40
7.0
 40
7.0
 10
123.8016167034728
 20
222.8164470778425
 30
0.0
 10
123.6989905434979
 20
223.246194122735
 30
0.0
 10
123.3846979285768
 20
223.5669008726549
 30
0.0
 10
122.999849828673
 20
223.7015977076213
 30
0.0
 10
122.8651529937066
 20
223.74649665261
 30
0.0
 10
122.7304561587402
 20
223.7721531926037
 30
0.0
 10
122.5893451887754
 20
223.7721531926037
 30
0.0
 10
121.8966186089489
 20
223.7721531926037
 30
0.0
 10
121.3385888640881
 20
223.2141234477432
 30
0.0
 10
121.3385888640881
 20
222.5213968679164
 30
0.0
 10
121.3385888640881
 20
222.0146802030431
 30
0.0
 10
121.640053209013
 20
221.5785190231521
 30
0.0
 10
122.0762143889037
 20
221.3796808382018
 30
0.0
 10
122.0954567938989
 20
221.3732667032033
 30
0.0
 10
122.1146991988942
 20
221.3604384332064
 30
0.0
 10
122.1403557388879
 20
221.354024298208
 30
0.0
 10
122.2814667088528
 20
221.3027112182209
 30
0.0
 10
122.4289918138153
 20
221.2706405432291
 30
0.0
 10
122.5893451887754
 20
221.2706405432291
 30
0.0
 10
122.826668183716
 20
221.2706405432291
 30
0.0
 10
123.0511629086604
 20
221.3411960282112
 30
0.0
 10
123.2371728236136
 20
221.4566504581826
 30
0.0
  0
SPLINE
  5
EA
330
C9
100
AcDbEntity
  8
Standardebene
 62
     7
370
     9
100
AcDbSpline
210
0.0
220
0.0
230
1.0
 70
     8
 71
     3
 72
     8
 73
     4
 74
     0
 42
0.0000000001
 43
0.0000000001
 40
0.0
 40
0.0
 40
0.0
 40
0.0
 40
1.0
 40
1.0
 40
1.0
 40
1.0
 10
123.4488392785605
 20
221.6170038331423
 30
0.0
 10
123.7054046784964
 20
221.8607409630814
 30
0.0
 10
123.8401015134627
 20
222.1942759829981
 30
0.0
 10
123.8401015134627
 20
222.5213968679164
 30
0.0
  0
SPLINE
  5
EB
330
C9
100
AcDbEntity
  8
Standardebene
 62
     7
370
     9
100
AcDbSpline
210
0.0
220
0.0
230
1.0
 70
    11
 71
     3
 72
    17
 73
    13
 74
     0
 42
0.0000000001
 43
0.0000000001
 40
0.0
 40
0.0
 40
0.0
 40
0.0
 40
1.0
 40
1.0
 40
1.0
 40
2.0
 40
2.0
 40
2.0
 40
3.0
 40
3.0
 40
3.0
 40
4.0
 40
4.0
 40
4.0
 40
4.0
 10
89.23584319711414
 20
238.5246636889153
 30
0.0
 10
89.23584319711414
 20
239.4354708586878
 30
0.0
 10
88.4982176722986
 20
240.1730963835034
 30
0.0
 10
87.58741050252615
 20
240.1730963835034
 30
0.0
 10
86.67660333275399
 20
240.1730963835034
 30
0.0
 10
85.93897780793849
 20
239.4354708586878
 30
0.0
 10
85.93897780793849
 20
238.5246636889153
 30
0.0
 10
85.93897780793849
 20
237.6138565191432
 30
0.0
 10
86.67660333275399
 20
236.8698168593293
 30
0.0
 10
87.58741050252615
 20
236.8698168593293
 30
0.0
 10
88.4982176722986
 20
236.8698168593293
 30
0.0
 10
89.23584319711414
 20
237.6138565191432
 30
0.0
 10
89.23584319711414
 20
238.5246636889153
 30
0.0
  0
LINE
  5
EC
330
C9
100
AcDbEntity
  8
Standardebene
 62
     7
370
     9
100
AcDbLine
 10
87.39498645257423
 20
239.955015793558
 30
0.0
 11
86.24685628786147
 21
239.0762792987777
 31
0.0
  0
SPLINE
  5
ED
330
C9
100
AcDbEntity
  8
Standardebene
 62
     7
370
     9
100
AcDbSpline
210
0.0
220
0.0
230
1.0
 70
     8
 71
     3
 72
     8
 73
     4
 74
     0
 42
0.0000000001
 43
0.0000000001
 40
0.0
 40
0.0
 40
0.0
 40
0.0
 40
1.0
 40
1.0
 40
1.0
 40
1.0
 10
88.23523813736429
 20
237.4535031441831
 30
0.0
 10
88.31862189234355
 20
237.5048162241705
 30
0.0
 10
88.38917737732563
 20
237.5625434391561
 30
0.0
 10
88.45331872730961
 20
237.6202706541416
 30
0.0
  0
LINE
  5
EE
330
C9
100
AcDbEntity
  8
Standardebene
 62
     7
370
     9
100
AcDbLine
 10
88.91513644719427
 20
237.9730480790533
 30
0.0
 11
88.45331872730961
 21
237.6202706541416
 31
0.0
  0
LINE
  5
EF
330
C9
100
AcDbEntity
  8
Standardebene
 62
     7
370
     9
100
AcDbLine
 10
88.83816682721343
 20
238.5246636889153
 30
0.0
 11
88.91513644719427
 21
237.9730480790533
 31
0.0
  0
SPLINE
  5
F0
330
C9
100
AcDbEntity
  8
Standardebene
 62
     7
370
     9
100
AcDbSpline
210
0.0
220
0.0
230
1.0
 70
     8
 71
     3
 72
     8
 73
     4
 74
     0
 42
0.0000000001
 43
0.0000000001
 40
0.0
 40
0.0
 40
0.0
 40
0.0
 40
1.0
 40
1.0
 40
1.0
 40
1.0
 10
88.83816682721343
 20
238.5503202289091
 30
0.0
 10
88.83816682721343
 20
238.6465322538849
 30
0.0
 10
88.82533855721691
 20
238.7363301438625
 30
0.0
 10
88.8060961522216
 20
238.8197138988418
 30
0.0
  0
LINE
  5
F1
330
C9
100
AcDbEntity
  8
Standardebene
 62
     7
370
     9
100
AcDbLine
 10
86.24685628786147
 20
239.0762792987777
 30
0.0
 11
86.43286620281497
 21
237.645927194135
 31
0.0
  0
LINE
  5
F2
330
C9
100
AcDbEntity
  8
Standardebene
 62
     7
370
     9
100
AcDbLine
 10
88.72912653224078
 20
239.4034001836957
 30
0.0
 11
88.8060961522216
 21
238.8197138988418
 31
0.0
  0
LWPOLYLINE
  5
F3
330
C9
100
AcDbEntity
  8
Standardebene
 62
     7
370
     9
100
AcDbPolyline
 90
        3
 70
     0
 43
0.0
 10
87.7670062824812
 20
237.094311584273
 10
87.09993624264809
 20
237.3701193892042
 10
86.43286620281497
 20
237.645927194135
  0
LINE
  5
F4
330
C9
100
AcDbEntity
  8
Standardebene
 62
     7
370
     9
100
AcDbLine
 10
88.23523813736429
 20
237.4535031441831
 30
0.0
 11
87.7670062824812
 21
237.094311584273
 31
0.0
  0
LINE
  5
F5
330
C9
100
AcDbEntity
  8
Standardebene
 62
     7
370
     9
100
AcDbLine
 10
88.72912653224078
 20
239.4034001836957
 30
0.0
 11
87.39498645257423
 21
239.955015793558
 31
0.0
  0
SPLINE
  5
F6
330
C9
100
AcDbEntity
  8
Standardebene
 62
     7
370
     9
100
AcDbSpline
210
0.0
220
0.0
230
1.0
 70
    24
 71
     3
 72
     8
 73
     4
 74
     0
 42
0.0000000001
 43
0.0000000001
 40
0.0
 40
0.0
 40
0.0
 40
0.0
 40
1.0
 40
1.0
 40
1.0
 40
1.0
 10
88.83816682721343
 20
238.5246636889153
 30
0.0
 10
88.83816682721343
 20
238.5310778239138
 30
0.0
 10
88.83816682721343
 20
238.5439060939106
 30
0.0
 10
88.83816682721343
 20
238.5503202289091
 30
0.0
  0
SPLINE
  5
F7
330
C9
100
AcDbEntity
  8
Standardebene
 62
     7
370
     9
100
AcDbSpline
210
0.0
220
0.0
230
1.0
 70
     8
 71
     3
 72
    20
 73
    16
 74
     0
 42
0.0000000001
 43
0.0000000001
 40
0.0
 40
0.0
 40
0.0
 40
0.0
 40
1.0
 40
1.0
 40
1.0
 40
2.0
 40
2.0
 40
2.0
 40
3.0
 40
3.0
 40
3.0
 40
4.0
 40
4.0
 40
4.0
 40
5.0
 40
5.0
 40
5.0
 40
5.0
 10
88.8060961522216
 20
238.8197138988418
 30
0.0
 10
88.66498518225681
 20
239.3841577787007
 30
0.0
 10
88.15826851738346
 20
239.7690058786042
 30
0.0
 10
87.58741050252615
 20
239.7690058786042
 30
0.0
 10
86.89468392269931
 20
239.7690058786042
 30
0.0
 10
86.33665417783886
 20
239.2109761337438
 30
0.0
 10
86.33665417783886
 20
238.5246636889153
 30
0.0
 10
86.33665417783886
 20
238.0051187540455
 30
0.0
 10
86.65094679276029
 20
237.5625434391561
 30
0.0
 10
87.09993624264809
 20
237.3701193892042
 30
0.0
 10
87.24746134761131
 20
237.3123921742186
 30
0.0
 10
87.41422885756952
 20
237.273907364228
 30
0.0
 10
87.58741050252615
 20
237.273907364228
 30
0.0
 10
87.83114763246517
 20
237.273907364228
 30
0.0
 10
88.05564235740924
 20
237.338048714212
 30
0.0
 10
88.23523813736429
 20
237.4535031441831
 30
0.0
  0
SPLINE
  5
F8
330
C9
100
AcDbEntity
  8
Standardebene
 62
     7
370
     9
100
AcDbSpline
210
0.0
220
0.0
230
1.0
 70
     8
 71
     3
 72
     8
 73
     4
 74
     0
 42
0.0000000001
 43
0.0000000001
 40
0.0
 40
0.0
 40
0.0
 40
0.0
 40
1.0
 40
1.0
 40
1.0
 40
1.0
 10
88.45331872730961
 20
237.6202706541416
 30
0.0
 10
88.7098841272455
 20
237.8640077840806
 30
0.0
 10
88.83816682721343
 20
238.191128668999
 30
0.0
 10
88.83816682721343
 20
238.5246636889153
 30
0.0
  0
LINE
  5
F9
330
C9
100
AcDbEntity
  8
Standardebene
 62
     7
370
     9
100
AcDbLine
 10
281.8779737389537
 20
233.5216383901662
 30
0.0
 11
282.8721646637051
 21
234.522243449916
 31
0.0
  0
LINE
  5
FA
330
C9
100
AcDbEntity
  8
Standardebene
 62
     7
370
     9
100
AcDbLine
 10
282.8721646637051
 20
241.5200647331667
 30
0.0
 11
281.8779737389537
 21
242.5206697929166
 31
0.0
  0
LWPOLYLINE
  5
FB
330
C9
100
AcDbEntity
  8
Standardebene
 62
     7
370
     9
100
AcDbPolyline
 90
        6
 70
     0
 43
0.0
 10
272.8725282012051
 20
235.5420909146611
 10
272.8725282012051
 20
236.4657263544301
 10
272.8725282012051
 20
237.4919879541737
 10
272.8725282012051
 20
238.5503202289091
 10
272.8725282012051
 20
239.5765818286526
 10
272.8725282012051
 20
240.5002172684216
  0
LINE
  5
FC
330
C9
100
AcDbEntity
  8
Standardebene
 62
     7
370
     9
100
AcDbLine
 10
305.6615863130076
 20
228.274875961478
 30
0.0
 11
305.3665361030817
 21
228.7815926263513
 31
0.0
  0
LWPOLYLINE
  5
FD
330
C9
100
AcDbEntity
  8
Standardebene
 62
     7
370
     9
100
AcDbPolyline
 90
        5
 70
     0
 43
0.0
 10
305.6615863130076
 20
228.274875961478
 10
306.3735552978294
 20
228.274875961478
 10
307.1047666876471
 20
228.274875961478
 10
307.8295639424658
 20
229.5192181511668
 10
307.1047666876471
 20
230.7699744758541
  0
LWPOLYLINE
  5
FE
330
C9
100
AcDbEntity
  8
Standardebene
 62
     7
370
     9
100
AcDbPolyline
 90
        3
 70
     0
 43
0.0
 10
305.6615863130076
 20
230.7699744758541
 10
306.3735552978294
 20
230.7699744758541
 10
307.1047666876471
 20
230.7699744758541
  0
LINE
  5
FF
330
C9
100
AcDbEntity
  8
Standardebene
 62
     7
370
     9
100
AcDbLine
 10
305.3665361030817
 20
230.2568436759823
 30
0.0
 11
305.6615863130076
 21
230.7699744758541
 31
0.0
  0
SPLINE
  5
100
330
C9
100
AcDbEntity
  8
Standardebene
 62
     7
370
     9
100
AcDbSpline
210
0.0
220
0.0
230
1.0
 70
     8
 71
     3
 72
     8
 73
     4
 74
     0
 42
0.0000000001
 43
0.0000000001
 40
0.0
 40
0.0
 40
0.0
 40
0.0
 40
1.0
 40
1.0
 40
1.0
 40
1.0
 10
305.3665361030817
 20
230.2568436759823
 30
0.0
 10
305.3088088880959
 20
230.1862881909999
 30
0.0
 10
305.2639099431069
 20
230.102904436021
 30
0.0
 10
305.2318392681154
 20
230.0259348160402
 30
0.0
  0
LINE
  5
101
330
C9
100
AcDbEntity
  8
Standardebene
 62
     7
370
     9
100
AcDbLine
 10
304.9367890581889
 20
229.5192181511668
 30
0.0
 11
305.2318392681154
 21
230.0259348160402
 31
0.0
  0
LINE
  5
102
330
C9
100
AcDbEntity
  8
Standardebene
 62
     7
370
     9
100
AcDbLine
 10
305.2318392681154
 20
229.0189156212919
 30
0.0
 11
304.9367890581889
 21
229.5192181511668
 31
0.0
  0
SPLINE
  5
103
330
C9
100
AcDbEntity
  8
Standardebene
 62
     7
370
     9
100
AcDbSpline
210
0.0
220
0.0
230
1.0
 70
     8
 71
     3
 72
     8
 73
     4
 74
     0
 42
0.0000000001
 43
0.0000000001
 40
0.0
 40
0.0
 40
0.0
 40
0.0
 40
1.0
 40
1.0
 40
1.0
 40
1.0
 10
305.2318392681154
 20
229.0189156212919
 30
0.0
 10
305.2703240781053
 20
228.9291177313142
 30
0.0
 10
305.3152230230943
 20
228.8521481113337
 30
0.0
 10
305.3665361030817
 20
228.7815926263513
 30
0.0
  0
SPLINE
  5
104
330
C9
100
AcDbEntity
  8
Standardebene
 62
     7
370
     9
100
AcDbSpline
210
0.0
220
0.0
230
1.0
 70
    11
 71
     3
 72
    17
 73
    13
 74
     0
 42
0.0000000001
 43
0.0000000001
 40
0.0
 40
0.0
 40
0.0
 40
0.0
 40
1.0
 40
1.0
 40
1.0
 40
2.0
 40
2.0
 40
2.0
 40
3.0
 40
3.0
 40
3.0
 40
4.0
 40
4.0
 40
4.0
 40
4.0
 10
308.0219879924174
 20
229.5192181511668
 30
0.0
 10
308.0219879924174
 20
230.430025320939
 30
0.0
 10
307.2843624676019
 20
231.1740649807532
 30
0.0
 10
306.3735552978294
 20
231.1740649807532
 30
0.0
 10
305.4627481280576
 20
231.1740649807532
 30
0.0
 10
304.725122603242
 20
230.430025320939
 30
0.0
 10
304.725122603242
 20
229.5192181511668
 30
0.0
 10
304.725122603242
 20
228.6084109813947
 30
0.0
 10
305.4627481280576
 20
227.8707854565788
 30
0.0
 10
306.3735552978294
 20
227.8707854565788
 30
0.0
 10
307.2843624676019
 20
227.8707854565788
 30
0.0
 10
308.0219879924174
 20
228.6084109813947
 30
0.0
 10
308.0219879924174
 20
229.5192181511668
 30
0.0
  0
SPLINE
  5
105
330
C9
100
AcDbEntity
  8
Standardebene
 62
     7
370
     9
100
AcDbSpline
210
0.0
220
0.0
230
1.0
 70
     8
 71
     3
 72
    11
 73
     7
 74
     0
 42
0.0000000001
 43
0.0000000001
 40
0.0
 40
0.0
 40
0.0
 40
0.0
 40
1.0
 40
1.0
 40
1.0
 40
2.0
 40
2.0
 40
2.0
 40
2.0
 10
307.6243116225167
 20
229.5192181511668
 30
0.0
 10
307.6243116225167
 20
230.2119447309936
 30
0.0
 10
307.0662818776565
 20
230.7699744758541
 30
0.0
 10
306.3735552978294
 20
230.7699744758541
 30
0.0
 10
305.9630506579325
 20
230.7699744758541
 30
0.0
 10
305.5974449630239
 20
230.5711362909038
 30
0.0
 10
305.3665361030817
 20
230.2568436759823
 30
0.0
  0
SPLINE
  5
106
330
C9
100
AcDbEntity
  8
Standardebene
 62
     7
370
     9
100
AcDbSpline
210
0.0
220
0.0
230
1.0
 70
     8
 71
     3
 72
     8
 73
     4
 74
     0
 42
0.0000000001
 43
0.0000000001
 40
0.0
 40
0.0
 40
0.0
 40
0.0
 40
1.0
 40
1.0
 40
1.0
 40
1.0
 10
305.2318392681154
 20
230.0259348160402
 30
0.0
 10
305.0843141631522
 20
229.6923997961235
 30
0.0
 10
305.097142433149
 20
229.3267941012149
 30
0.0
 10
305.2318392681154
 20
229.0189156212919
 30
0.0
  0
SPLINE
  5
107
330
C9
100
AcDbEntity
  8
Standardebene
 62
     7
370
     9
100
AcDbSpline
210
0.0
220
0.0
230
1.0
 70
     8
 71
     3
 72
    11
 73
     7
 74
     0
 42
0.0000000001
 43
0.0000000001
 40
0.0
 40
0.0
 40
0.0
 40
0.0
 40
1.0
 40
1.0
 40
1.0
 40
2.0
 40
2.0
 40
2.0
 40
2.0
 10
305.3665361030817
 20
228.7815926263513
 30
0.0
 10
305.6102732330208
 20
228.4480576064346
 30
0.0
 10
305.9887071979262
 20
228.274875961478
 30
0.0
 10
306.3735552978294
 20
228.274875961478
 30
0.0
 10
307.0662818776565
 20
228.274875961478
 30
0.0
 10
307.6243116225167
 20
228.8329057063384
 30
0.0
 10
307.6243116225167
 20
229.5192181511668
 30
0.0
  0
LINE
  5
108
330
C9
100
AcDbEntity
  8
Standardebene
 62
     7
370
     9
100
AcDbLine
 10
266.6251607127671
 20
220.2379648084871
 30
0.0
 11
267.1382915126382
 21
220.5330150184133
 31
0.0
  0
LWPOLYLINE
  5
109
330
C9
100
AcDbEntity
  8
Standardebene
 62
     7
370
     9
100
AcDbPolyline
 90
        5
 70
     0
 43
0.0
 10
266.6251607127671
 20
220.2379648084871
 10
266.6251607127671
 20
219.5195816886669
 10
266.6251607127671
 20
218.7883702988495
 10
267.8759170374544
 20
218.0699871790292
 10
269.1266733621417
 20
218.7883702988495
  0
LWPOLYLINE
  5
10A
330
C9
100
AcDbEntity
  8
Standardebene
 62
     7
370
     9
100
AcDbPolyline
 90
        3
 70
     0
 43
0.0
 10
269.1266733621417
 20
220.2379648084871
 10
269.1266733621417
 20
219.5195816886669
 10
269.1266733621417
 20
218.7883702988495
  0
LINE
  5
10B
330
C9
100
AcDbEntity
  8
Standardebene
 62
     7
370
     9
100
AcDbLine
 10
268.6135425622699
 20
220.5330150184133
 30
0.0
 11
269.1266733621417
 21
220.2379648084871
 31
0.0
  0
SPLINE
  5
10C
330
C9
100
AcDbEntity
  8
Standardebene
 62
     7
370
     9
100
AcDbSpline
210
0.0
220
0.0
230
1.0
 70
     8
 71
     3
 72
     8
 73
     4
 74
     0
 42
0.0000000001
 43
0.0000000001
 40
0.0
 40
0.0
 40
0.0
 40
0.0
 40
1.0
 40
1.0
 40
1.0
 40
1.0
 10
268.6135425622699
 20
220.5330150184133
 30
0.0
 10
268.5365729422887
 20
220.5843280984007
 30
0.0
 10
268.4531891873098
 20
220.6356411783878
 30
0.0
 10
268.3826337023277
 20
220.6677118533796
 30
0.0
  0
LINE
  5
10D
330
C9
100
AcDbEntity
  8
Standardebene
 62
     7
370
     9
100
AcDbLine
 10
267.8759170374544
 20
220.9563479283076
 30
0.0
 11
268.3826337023277
 21
220.6677118533796
 31
0.0
  0
LINE
  5
10E
330
C9
100
AcDbEntity
  8
Standardebene
 62
     7
370
     9
100
AcDbLine
 10
267.369200372581
 20
220.6677118533796
 30
0.0
 11
267.8759170374544
 21
220.9563479283076
 31
0.0
  0
SPLINE
  5
10F
330
C9
100
AcDbEntity
  8
Standardebene
 62
     7
370
     9
100
AcDbSpline
210
0.0
220
0.0
230
1.0
 70
     8
 71
     3
 72
     8
 73
     4
 74
     0
 42
0.0000000001
 43
0.0000000001
 40
0.0
 40
0.0
 40
0.0
 40
0.0
 40
1.0
 40
1.0
 40
1.0
 40
1.0
 10
267.369200372581
 20
220.6677118533796
 30
0.0
 10
267.2858166176014
 20
220.6292270433894
 30
0.0
 10
267.2024328626225
 20
220.5779139634023
 30
0.0
 10
267.1382915126382
 20
220.5330150184133
 30
0.0
  0
SPLINE
  5
110
330
C9
100
AcDbEntity
  8
Standardebene
 62
     7
370
     9
100
AcDbSpline
210
0.0
220
0.0
230
1.0
 70
    11
 71
     3
 72
    17
 73
    13
 74
     0
 42
0.0000000001
 43
0.0000000001
 40
0.0
 40
0.0
 40
0.0
 40
0.0
 40
1.0
 40
1.0
 40
1.0
 40
2.0
 40
2.0
 40
2.0
 40
3.0
 40
3.0
 40
3.0
 40
4.0
 40
4.0
 40
4.0
 40
4.0
 10
269.5243497320417
 20
219.5195816886669
 30
0.0
 10
269.5243497320417
 20
220.430388858439
 30
0.0
 10
268.7867242072262
 20
221.1744285182529
 30
0.0
 10
267.8759170374544
 20
221.1744285182529
 30
0.0
 10
266.9651098676819
 20
221.1744285182529
 30
0.0
 10
266.2274843428664
 20
220.430388858439
 30
0.0
 10
266.2274843428664
 20
219.5195816886669
 30
0.0
 10
266.2274843428664
 20
218.6087745188944
 30
0.0
 10
266.9651098676819
 20
217.8711489940789
 30
0.0
 10
267.8759170374544
 20
217.8711489940789
 30
0.0
 10
268.7867242072262
 20
217.8711489940789
 30
0.0
 10
269.5243497320417
 20
218.6087745188944
 30
0.0
 10
269.5243497320417
 20
219.5195816886669
 30
0.0
  0
SPLINE
  5
111
330
C9
100
AcDbEntity
  8
Standardebene
 62
     7
370
     9
100
AcDbSpline
210
0.0
220
0.0
230
1.0
 70
     8
 71
     3
 72
     8
 73
     4
 74
     0
 42
0.0000000001
 43
0.0000000001
 40
0.0
 40
0.0
 40
0.0
 40
0.0
 40
1.0
 40
1.0
 40
1.0
 40
1.0
 10
269.1266733621417
 20
219.5195816886669
 30
0.0
 10
269.1266733621417
 20
219.9365004635625
 30
0.0
 10
268.9214210421926
 20
220.3021061584711
 30
0.0
 10
268.6135425622699
 20
220.5330150184133
 30
0.0
  0
SPLINE
  5
112
330
C9
100
AcDbEntity
  8
Standardebene
 62
     7
370
     9
100
AcDbSpline
210
0.0
220
0.0
230
1.0
 70
     8
 71
     3
 72
     8
 73
     4
 74
     0
 42
0.0000000001
 43
0.0000000001
 40
0.0
 40
0.0
 40
0.0
 40
0.0
 40
1.0
 40
1.0
 40
1.0
 40
1.0
 10
268.3826337023277
 20
220.6677118533796
 30
0.0
 10
268.0426845474122
 20
220.8152369583429
 30
0.0
 10
267.6834929875021
 20
220.802408688346
 30
0.0
 10
267.369200372581
 20
220.6677118533796
 30
0.0
  0
SPLINE
  5
113
330
C9
100
AcDbEntity
  8
Standardebene
 62
     7
370
     9
100
AcDbSpline
210
0.0
220
0.0
230
1.0
 70
     8
 71
     3
 72
    14
 73
    10
 74
     0
 42
0.0000000001
 43
0.0000000001
 40
0.0
 40
0.0
 40
0.0
 40
0.0
 40
1.0
 40
1.0
 40
1.0
 40
2.0
 40
2.0
 40
2.0
 40
3.0
 40
3.0
 40
3.0
 40
3.0
 10
267.1382915126382
 20
220.5330150184133
 30
0.0
 10
266.8047564927218
 20
220.2892778884742
 30
0.0
 10
266.6251607127671
 20
219.9108439235688
 30
0.0
 10
266.6251607127671
 20
219.5195816886669
 30
0.0
 10
266.6251607127671
 20
218.8332692438382
 30
0.0
 10
267.1831904576272
 20
218.2752394989777
 30
0.0
 10
267.8759170374544
 20
218.2752394989777
 30
0.0
 10
268.5622294822825
 20
218.2752394989777
 30
0.0
 10
269.1266733621417
 20
218.8332692438382
 30
0.0
 10
269.1266733621417
 20
219.5195816886669
 30
0.0
  0
CIRCLE
  5
114
330
C9
100
AcDbEntity
  8
Standardebene
 62
     7
370
     9
100
AcDbCircle
 10
118.5869249497761
 20
115.8030187645955
 30
0.0
 40
1.648432694587986
  0
SPLINE
  5
115
330
C9
100
AcDbEntity
  8
Standardebene
 62
     7
370
     9
100
AcDbSpline
210
0.0
220
0.0
230
1.0
 70
     8
 71
     3
 72
     8
 73
     4
 74
     0
 42
0.0000000001
 43
0.0000000001
 40
0.0
 40
0.0
 40
0.0
 40
0.0
 40
1.0
 40
1.0
 40
1.0
 40
1.0
 10
117.5799057550278
 20
116.540644289411
 30
0.0
 10
117.5221785400426
 20
116.4636746694305
 30
0.0
 10
117.4772795950536
 20
116.3802909144516
 30
0.0
 10
117.4452089200614
 20
116.3097354294688
 30
0.0
  0
SPLINE
  5
116
330
C9
100
AcDbEntity
  8
Standardebene
 62
     7
370
     9
100
AcDbSpline
210
0.0
220
0.0
230
1.0
 70
     8
 71
     3
 72
     8
 73
     4
 74
     0
 42
0.0000000001
 43
0.0000000001
 40
0.0
 40
0.0
 40
0.0
 40
0.0
 40
1.0
 40
1.0
 40
1.0
 40
1.0
 10
117.4452089200614
 20
115.2963020997221
 30
0.0
 10
117.483693730052
 20
115.2129183447432
 30
0.0
 10
117.528592675041
 20
115.1295345897643
 30
0.0
 10
117.5799057550278
 20
115.06539323978
 30
0.0
  0
LWPOLYLINE
  5
117
330
C9
100
AcDbEntity
  8
Standardebene
 62
     7
370
     9
100
AcDbPolyline
 90
        3
 70
     0
 43
0.0
 10
117.8749559649543
 20
114.5522624399082
 10
118.5869249497761
 20
114.5522624399082
 10
119.3181363395932
 20
114.5522624399082
  0
LWPOLYLINE
  5
118
330
C9
100
AcDbEntity
  8
Standardebene
 62
     7
370
     9
100
AcDbPolyline
 90
        3
 70
     0
 43
0.0
 10
117.8749559649543
 20
117.0537750892828
 10
118.5869249497761
 20
117.0537750892828
 10
119.3181363395932
 20
117.0537750892828
  0
LINE
  5
119
330
C9
100
AcDbEntity
  8
Standardebene
 62
     7
370
     9
100
AcDbLine
 10
117.5799057550278
 20
116.540644289411
 30
0.0
 11
117.8749559649543
 21
117.0537750892828
 31
0.0
  0
LINE
  5
11A
330
C9
100
AcDbEntity
  8
Standardebene
 62
     7
370
     9
100
AcDbLine
 10
119.3181363395932
 20
114.5522624399082
 30
0.0
 11
120.0429335944118
 21
115.8030187645955
 31
0.0
  0
LINE
  5
11B
330
C9
100
AcDbEntity
  8
Standardebene
 62
     7
370
     9
100
AcDbLine
 10
117.156572845134
 20
115.8030187645955
 30
0.0
 11
117.4452089200614
 21
116.3097354294688
 31
0.0
  0
LINE
  5
11C
330
C9
100
AcDbEntity
  8
Standardebene
 62
     7
370
     9
100
AcDbLine
 10
120.0429335944118
 20
115.8030187645955
 30
0.0
 11
119.3181363395932
 21
117.0537750892828
 31
0.0
  0
LINE
  5
11D
330
C9
100
AcDbEntity
  8
Standardebene
 62
     7
370
     9
100
AcDbLine
 10
117.8749559649543
 20
114.5522624399082
 30
0.0
 11
117.5799057550278
 21
115.06539323978
 31
0.0
  0
LINE
  5
11E
330
C9
100
AcDbEntity
  8
Standardebene
 62
     7
370
     9
100
AcDbLine
 10
117.4452089200614
 20
115.2963020997221
 30
0.0
 11
117.156572845134
 21
115.8030187645955
 31
0.0
  0
SPLINE
  5
11F
330
C9
100
AcDbEntity
  8
Standardebene
 62
     7
370
     9
100
AcDbSpline
210
0.0
220
0.0
230
1.0
 70
     8
 71
     3
 72
    11
 73
     7
 74
     0
 42
0.0000000001
 43
0.0000000001
 40
0.0
 40
0.0
 40
0.0
 40
0.0
 40
1.0
 40
1.0
 40
1.0
 40
2.0
 40
2.0
 40
2.0
 40
2.0
 10
119.8376812744634
 20
115.8030187645955
 30
0.0
 10
119.8376812744634
 20
116.4893312094242
 30
0.0
 10
119.2796515296032
 20
117.0537750892828
 30
0.0
 10
118.5869249497761
 20
117.0537750892828
 30
0.0
 10
118.1764203098785
 20
117.0537750892828
 30
0.0
 10
117.81081461497
 20
116.8485227693343
 30
0.0
 10
117.5799057550278
 20
116.540644289411
 30
0.0
  0
SPLINE
  5
120
330
C9
100
AcDbEntity
  8
Standardebene
 62
     7
370
     9
100
AcDbSpline
210
0.0
220
0.0
230
1.0
 70
     8
 71
     3
 72
     8
 73
     4
 74
     0
 42
0.0000000001
 43
0.0000000001
 40
0.0
 40
0.0
 40
0.0
 40
0.0
 40
1.0
 40
1.0
 40
1.0
 40
1.0
 10
117.4452089200614
 20
116.3097354294688
 30
0.0
 10
117.2976838150982
 20
115.969786274554
 30
0.0
 10
117.3105120850951
 20
115.6105947146439
 30
0.0
 10
117.4452089200614
 20
115.2963020997221
 30
0.0
  0
SPLINE
  5
121
330
C9
100
AcDbEntity
  8
Standardebene
 62
     7
370
     9
100
AcDbSpline
210
0.0
220
0.0
230
1.0
 70
     8
 71
     3
 72
    11
 73
     7
 74
     0
 42
0.0000000001
 43
0.0000000001
 40
0.0
 40
0.0
 40
0.0
 40
0.0
 40
1.0
 40
1.0
 40
1.0
 40
2.0
 40
2.0
 40
2.0
 40
2.0
 10
117.5799057550278
 20
115.06539323978
 30
0.0
 10
117.8236428849669
 20
114.7318582198636
 30
0.0
 10
118.2020768498723
 20
114.5522624399082
 30
0.0
 10
118.5869249497761
 20
114.5522624399082
 30
0.0
 10
119.2796515296032
 20
114.5522624399082
 30
0.0
 10
119.8376812744634
 20
115.110292184769
 30
0.0
 10
119.8376812744634
 20
115.8030187645955
 30
0.0
  0
SPLINE
  5
122
330
C9
100
AcDbEntity
  8
Standardebene
 62
     7
370
     9
100
AcDbSpline
210
0.0
220
0.0
230
1.0
 70
     8
 71
     3
 72
     8
 73
     4
 74
     0
 42
0.0000000001
 43
0.0000000001
 40
0.0
 40
0.0
 40
0.0
 40
0.0
 40
1.0
 40
1.0
 40
1.0
 40
1.0
 10
81.73130524899034
 20
116.3097354294688
 30
0.0
 10
81.69282043899979
 20
116.3931191844484
 30
0.0
 10
81.6479214940111
 20
116.4765029394273
 30
0.0
 10
81.59660841402399
 20
116.540644289411
 30
0.0
  0
SPLINE
  5
123
330
C9
100
AcDbEntity
  8
Standardebene
 62
     7
370
     9
100
AcDbSpline
210
0.0
220
0.0
230
1.0
 70
     8
 71
     3
 72
     8
 73
     4
 74
     0
 42
0.0000000001
 43
0.0000000001
 40
0.0
 40
0.0
 40
0.0
 40
0.0
 40
1.0
 40
1.0
 40
1.0
 40
1.0
 10
81.59660841402399
 20
115.06539323978
 30
0.0
 10
81.65433562900952
 20
115.1423628597611
 30
0.0
 10
81.69923457399821
 20
115.2193324797416
 30
0.0
 10
81.73130524899034
 20
115.2963020997221
 30
0.0
  0
LWPOLYLINE
  5
124
330
C9
100
AcDbEntity
  8
Standardebene
 62
     7
370
     9
100
AcDbPolyline
 90
        3
 70
     0
 43
0.0
 10
81.30155820409784
 20
117.0537750892828
 10
80.58958921927573
 20
117.0537750892828
 10
79.85837782945863
 20
117.0537750892828
  0
LWPOLYLINE
  5
125
330
C9
100
AcDbEntity
  8
Standardebene
 62
     7
370
     9
100
AcDbPolyline
 90
        3
 70
     0
 43
0.0
 10
81.30155820409784
 20
114.5522624399082
 10
80.58958921927573
 20
114.5522624399082
 10
79.85837782945863
 20
114.5522624399082
  0
LINE
  5
126
330
C9
100
AcDbEntity
  8
Standardebene
 62
     7
370
     9
100
AcDbLine
 10
81.59660841402399
 20
115.06539323978
 30
0.0
 11
81.30155820409784
 21
114.5522624399082
 31
0.0
  0
LINE
  5
127
330
C9
100
AcDbEntity
  8
Standardebene
 62
     7
370
     9
100
AcDbLine
 10
79.85837782945863
 20
117.0537750892828
 30
0.0
 11
79.13358057463965
 21
115.8030187645955
 31
0.0
  0
LINE
  5
128
330
C9
100
AcDbEntity
  8
Standardebene
 62
     7
370
     9
100
AcDbLine
 10
82.0263554589165
 20
115.8030187645955
 30
0.0
 11
81.73130524899034
 21
115.2963020997221
 31
0.0
  0
LINE
  5
129
330
C9
100
AcDbEntity
  8
Standardebene
 62
     7
370
     9
100
AcDbLine
 10
79.13358057463965
 20
115.8030187645955
 30
0.0
 11
79.85837782945863
 21
114.5522624399082
 31
0.0
  0
LINE
  5
12A
330
C9
100
AcDbEntity
  8
Standardebene
 62
     7
370
     9
100
AcDbLine
 10
81.30155820409784
 20
117.0537750892828
 30
0.0
 11
81.59660841402399
 21
116.540644289411
 31
0.0
  0
LINE
  5
12B
330
C9
100
AcDbEntity
  8
Standardebene
 62
     7
370
     9
100
AcDbLine
 10
81.73130524899034
 20
116.3097354294688
 30
0.0
 11
82.0263554589165
 21
115.8030187645955
 31
0.0
  0
CIRCLE
  5
12C
330
C9
100
AcDbEntity
  8
Standardebene
 62
     7
370
     9
100
AcDbCircle
 10
80.58958921927573
 20
115.8030187645955
 30
0.0
 40
1.648432694587986
  0
SPLINE
  5
12D
330
C9
100
AcDbEntity
  8
Standardebene
 62
     7
370
     9
100
AcDbSpline
210
0.0
220
0.0
230
1.0
 70
     8
 71
     3
 72
     8
 73
     4
 74
     0
 42
0.0000000001
 43
0.0000000001
 40
0.0
 40
0.0
 40
0.0
 40
0.0
 40
1.0
 40
1.0
 40
1.0
 40
1.0
 10
81.84034554396301
 20
115.8030187645955
 30
0.0
 10
81.84034554396301
 20
115.9826145445509
 30
0.0
 10
81.80186073397276
 20
116.1557961895072
 30
0.0
 10
81.73130524899034
 20
116.3097354294688
 30
0.0
  0
SPLINE
  5
12E
330
C9
100
AcDbEntity
  8
Standardebene
 62
     7
370
     9
100
AcDbSpline
210
0.0
220
0.0
230
1.0
 70
     8
 71
     3
 72
    17
 73
    13
 74
     0
 42
0.0000000001
 43
0.0000000001
 40
0.0
 40
0.0
 40
0.0
 40
0.0
 40
1.0
 40
1.0
 40
1.0
 40
2.0
 40
2.0
 40
2.0
 40
3.0
 40
3.0
 40
3.0
 40
4.0
 40
4.0
 40
4.0
 40
4.0
 10
81.59660841402399
 20
116.540644289411
 30
0.0
 10
81.35287128408496
 20
116.874179309328
 30
0.0
 10
80.97443731917955
 20
117.0473609542844
 30
0.0
 10
80.58958921927573
 20
117.0537750892828
 30
0.0
 10
79.89686263944888
 20
117.0537750892828
 30
0.0
 10
79.33883289458842
 20
116.4893312094242
 30
0.0
 10
79.33883289458842
 20
115.8030187645955
 30
0.0
 10
79.33883289458842
 20
115.110292184769
 30
0.0
 10
79.89686263944888
 20
114.5522624399082
 30
0.0
 10
80.58958921927573
 20
114.5522624399082
 30
0.0
 10
81.00009385917294
 20
114.5522624399082
 30
0.0
 10
81.36569955408182
 20
114.7511006248588
 30
0.0
 10
81.59660841402399
 20
115.06539323978
 30
0.0
  0
SPLINE
  5
12F
330
C9
100
AcDbEntity
  8
Standardebene
 62
     7
370
     9
100
AcDbSpline
210
0.0
220
0.0
230
1.0
 70
     8
 71
     3
 72
     8
 73
     4
 74
     0
 42
0.0000000001
 43
0.0000000001
 40
0.0
 40
0.0
 40
0.0
 40
0.0
 40
1.0
 40
1.0
 40
1.0
 40
1.0
 10
81.73130524899034
 20
115.2963020997221
 30
0.0
 10
81.80827486897086
 20
115.4630696096807
 30
0.0
 10
81.84034554396301
 20
115.6362512546376
 30
0.0
 10
81.84034554396301
 20
115.8030187645955
 30
0.0
  0
LINE
  5
130
330
C9
100
AcDbEntity
  8
Standardebene
 62
     7
370
     9
100
AcDbLine
 10
105.5854733080266
 20
141.2992053832217
 30
0.0
 11
106.5860783677765
 21
140.2986003234719
 31
0.0
  0
LINE
  5
131
330
C9
100
AcDbEntity
  8
Standardebene
 62
     7
370
     9
100
AcDbLine
 10
113.5903137860253
 20
140.2986003234719
 30
0.0
 11
114.5909188457752
 21
141.2992053832217
 31
0.0
  0
SPLINE
  5
132
330
C9
100
AcDbEntity
  8
Standardebene
 62
     7
370
     9
100
AcDbSpline
210
0.0
220
0.0
230
1.0
 70
     8
 71
     3
 72
     8
 73
     4
 74
     0
 42
0.0000000001
 43
0.0000000001
 40
0.0
 40
0.0
 40
0.0
 40
0.0
 40
1.0
 40
1.0
 40
1.0
 40
1.0
 10
117.5799057550278
 20
147.5401587366616
 30
0.0
 10
117.5221785400426
 20
147.4631891166808
 30
0.0
 10
117.4772795950536
 20
147.3798053617015
 30
0.0
 10
117.4452089200614
 20
147.3092498767191
 30
0.0
  0
SPLINE
  5
133
330
C9
100
AcDbEntity
  8
Standardebene
 62
     7
370
     9
100
AcDbSpline
210
0.0
220
0.0
230
1.0
 70
     8
 71
     3
 72
     8
 73
     4
 74
     0
 42
0.0000000001
 43
0.0000000001
 40
0.0
 40
0.0
 40
0.0
 40
0.0
 40
1.0
 40
1.0
 40
1.0
 40
1.0
 10
117.4452089200614
 20
146.2958165469728
 30
0.0
 10
117.483693730052
 20
146.2124327919935
 30
0.0
 10
117.528592675041
 20
146.1290490370142
 30
0.0
 10
117.5799057550278
 20
146.0649076870303
 30
0.0
  0
LWPOLYLINE
  5
134
330
C9
100
AcDbEntity
  8
Standardebene
 62
     7
370
     9
100
AcDbPolyline
 90
        3
 70
     0
 43
0.0
 10
117.8749559649543
 20
145.5517768871588
 10
118.5869249497761
 20
145.5517768871588
 10
119.3181363395932
 20
145.5517768871588
  0
LWPOLYLINE
  5
135
330
C9
100
AcDbEntity
  8
Standardebene
 62
     7
370
     9
100
AcDbPolyline
 90
        3
 70
     0
 43
0.0
 10
117.8749559649543
 20
148.0532895365334
 10
118.5869249497761
 20
148.0532895365334
 10
119.3181363395932
 20
148.0532895365334
  0
LINE
  5
136
330
C9
100
AcDbEntity
  8
Standardebene
 62
     7
370
     9
100
AcDbLine
 10
117.5799057550278
 20
147.5401587366616
 30
0.0
 11
117.8749559649543
 21
148.0532895365334
 31
0.0
  0
LINE
  5
137
330
C9
100
AcDbEntity
  8
Standardebene
 62
     7
370
     9
100
AcDbLine
 10
119.3181363395932
 20
145.5517768871588
 30
0.0
 11
120.0429335944118
 21
146.8025332118461
 31
0.0
  0
LINE
  5
138
330
C9
100
AcDbEntity
  8
Standardebene
 62
     7
370
     9
100
AcDbLine
 10
117.156572845134
 20
146.8025332118461
 30
0.0
 11
117.4452089200614
 21
147.3092498767191
 31
0.0
  0
LINE
  5
139
330
C9
100
AcDbEntity
  8
Standardebene
 62
     7
370
     9
100
AcDbLine
 10
120.0429335944118
 20
146.8025332118461
 30
0.0
 11
119.3181363395932
 21
148.0532895365334
 31
0.0
  0
LINE
  5
13A
330
C9
100
AcDbEntity
  8
Standardebene
 62
     7
370
     9
100
AcDbLine
 10
117.8749559649543
 20
145.5517768871588
 30
0.0
 11
117.5799057550278
 21
146.0649076870303
 31
0.0
  0
LINE
  5
13B
330
C9
100
AcDbEntity
  8
Standardebene
 62
     7
370
     9
100
AcDbLine
 10
117.4452089200614
 20
146.2958165469728
 30
0.0
 11
117.156572845134
 21
146.8025332118461
 31
0.0
  0
CIRCLE
  5
13C
330
C9
100
AcDbEntity
  8
Standardebene
 62
     7
370
     9
100
AcDbCircle
 10
118.5869249497761
 20
146.802533211846
 30
0.0
 40
1.648432694587866
  0
SPLINE
  5
13D
330
C9
100
AcDbEntity
  8
Standardebene
 62
     7
370
     9
100
AcDbSpline
210
0.0
220
0.0
230
1.0
 70
     8
 71
     3
 72
    11
 73
     7
 74
     0
 42
0.0000000001
 43
0.0000000001
 40
0.0
 40
0.0
 40
0.0
 40
0.0
 40
1.0
 40
1.0
 40
1.0
 40
2.0
 40
2.0
 40
2.0
 40
2.0
 10
119.8376812744634
 20
146.8025332118461
 30
0.0
 10
119.8376812744634
 20
147.4952597916729
 30
0.0
 10
119.2796515296032
 20
148.0532895365334
 30
0.0
 10
118.5869249497761
 20
148.0532895365334
 30
0.0
 10
118.1764203098785
 20
148.0532895365334
 30
0.0
 10
117.81081461497
 20
147.854451351583
 30
0.0
 10
117.5799057550278
 20
147.5401587366616
 30
0.0
  0
SPLINE
  5
13E
330
C9
100
AcDbEntity
  8
Standardebene
 62
     7
370
     9
100
AcDbSpline
210
0.0
220
0.0
230
1.0
 70
     8
 71
     3
 72
     8
 73
     4
 74
     0
 42
0.0000000001
 43
0.0000000001
 40
0.0
 40
0.0
 40
0.0
 40
0.0
 40
1.0
 40
1.0
 40
1.0
 40
1.0
 10
117.4452089200614
 20
147.3092498767191
 30
0.0
 10
117.2976838150982
 20
146.9693007218043
 30
0.0
 10
117.3105120850951
 20
146.6101091618942
 30
0.0
 10
117.4452089200614
 20
146.2958165469728
 30
0.0
  0
SPLINE
  5
13F
330
C9
100
AcDbEntity
  8
Standardebene
 62
     7
370
     9
100
AcDbSpline
210
0.0
220
0.0
230
1.0
 70
     8
 71
     3
 72
    11
 73
     7
 74
     0
 42
0.0000000001
 43
0.0000000001
 40
0.0
 40
0.0
 40
0.0
 40
0.0
 40
1.0
 40
1.0
 40
1.0
 40
2.0
 40
2.0
 40
2.0
 40
2.0
 10
117.5799057550278
 20
146.0649076870303
 30
0.0
 10
117.8236428849669
 20
145.7313726671139
 30
0.0
 10
118.2020768498723
 20
145.5517768871588
 30
0.0
 10
118.5869249497761
 20
145.5517768871588
 30
0.0
 10
119.2796515296032
 20
145.5517768871588
 30
0.0
 10
119.8376812744634
 20
146.1098066320193
 30
0.0
 10
119.8376812744634
 20
146.8025332118461
 30
0.0
  0
LINE
  5
140
330
C9
100
AcDbEntity
  8
Standardebene
 62
     7
370
     9
100
AcDbLine
 10
71.59055781652529
 20
141.2992053832217
 30
0.0
 11
72.59116287627513
 21
140.2986003234719
 31
0.0
  0
LINE
  5
141
330
C9
100
AcDbEntity
  8
Standardebene
 62
     7
370
     9
100
AcDbLine
 10
79.58898415952588
 20
140.2986003234719
 30
0.0
 11
80.58958921927573
 21
141.2992053832217
 31
0.0
  0
SPLINE
  5
142
330
C9
100
AcDbEntity
  8
Standardebene
 62
     7
370
     9
100
AcDbSpline
210
0.0
220
0.0
230
1.0
 70
     9
 71
     3
 72
    17
 73
    13
 74
     0
 42
0.0000000001
 43
0.0000000001
 40
0.0
 40
0.0
 40
0.0
 40
0.0
 40
1.0
 40
1.0
 40
1.0
 40
2.0
 40
2.0
 40
2.0
 40
3.0
 40
3.0
 40
3.0
 40
4.0
 40
4.0
 40
4.0
 40
4.0
 10
86.24044215286305
 20
146.8025332118461
 30
0.0
 10
86.24044215286305
 20
147.7133403816182
 30
0.0
 10
85.49640249304911
 20
148.4509659064338
 30
0.0
 10
84.58559532327663
 20
148.4509659064338
 30
0.0
 10
83.6747881535045
 20
148.4509659064338
 30
0.0
 10
82.93716262868866
 20
147.7133403816182
 30
0.0
 10
82.93716262868866
 20
146.8025332118461
 30
0.0
 10
82.93716262868866
 20
145.8917260420736
 30
0.0
 10
83.6747881535045
 20
145.1541005172581
 30
0.0
 10
84.58559532327663
 20
145.1541005172581
 30
0.0
 10
85.49640249304911
 20
145.1541005172581
 30
0.0
 10
86.24044215286305
 20
145.8917260420736
 30
0.0
 10
86.24044215286305
 20
146.8025332118461
 30
0.0
  0
SPLINE
  5
143
330
C9
100
AcDbEntity
  8
Standardebene
 62
     7
370
     9
100
AcDbSpline
210
0.0
220
0.0
230
1.0
 70
     8
 71
     3
 72
     8
 73
     4
 74
     0
 42
0.0000000001
 43
0.0000000001
 40
0.0
 40
0.0
 40
0.0
 40
0.0
 40
1.0
 40
1.0
 40
1.0
 40
1.0
 10
83.57857612852837
 20
147.5401587366616
 30
0.0
 10
83.52084891354282
 20
147.4631891166808
 30
0.0
 10
83.47594996855415
 20
147.3798053617015
 30
0.0
 10
83.443879293562
 20
147.3092498767191
 30
0.0
  0
SPLINE
  5
144
330
C9
100
AcDbEntity
  8
Standardebene
 62
     7
370
     9
100
AcDbSpline
210
0.0
220
0.0
230
1.0
 70
     8
 71
     3
 72
     8
 73
     4
 74
     0
 42
0.0000000001
 43
0.0000000001
 40
0.0
 40
0.0
 40
0.0
 40
0.0
 40
1.0
 40
1.0
 40
1.0
 40
1.0
 10
83.443879293562
 20
146.2958165469728
 30
0.0
 10
83.48236410355257
 20
146.2124327919935
 30
0.0
 10
83.52726304854126
 20
146.1290490370142
 30
0.0
 10
83.57857612852837
 20
146.0649076870303
 30
0.0
  0
LWPOLYLINE
  5
145
330
C9
100
AcDbEntity
  8
Standardebene
 62
     7
370
     9
100
AcDbPolyline
 90
        3
 70
     0
 43
0.0
 10
83.87362633845484
 20
145.5517768871588
 10
84.58559532327663
 20
145.5517768871588
 10
85.31680671309372
 20
145.5517768871588
  0
LWPOLYLINE
  5
146
330
C9
100
AcDbEntity
  8
Standardebene
 62
     7
370
     9
100
AcDbPolyline
 90
        3
 70
     0
 43
0.0
 10
83.87362633845484
 20
148.0532895365334
 10
84.58559532327663
 20
148.0532895365334
 10
85.31680671309372
 20
148.0532895365334
  0
LINE
  5
147
330
C9
100
AcDbEntity
  8
Standardebene
 62
     7
370
     9
100
AcDbLine
 10
83.57857612852837
 20
147.5401587366616
 30
0.0
 11
83.87362633845484
 21
148.0532895365334
 31
0.0
  0
LINE
  5
148
330
C9
100
AcDbEntity
  8
Standardebene
 62
     7
370
     9
100
AcDbLine
 10
85.31680671309372
 20
145.5517768871588
 30
0.0
 11
86.0416039679127
 21
146.8025332118461
 31
0.0
  0
LINE
  5
149
330
C9
100
AcDbEntity
  8
Standardebene
 62
     7
370
     9
100
AcDbLine
 10
83.15524321863428
 20
146.8025332118461
 30
0.0
 11
83.443879293562
 21
147.3092498767191
 31
0.0
  0
LINE
  5
14A
330
C9
100
AcDbEntity
  8
Standardebene
 62
     7
370
     9
100
AcDbLine
 10
86.0416039679127
 20
146.8025332118461
 30
0.0
 11
85.31680671309372
 21
148.0532895365334
 31
0.0
  0
LINE
  5
14B
330
C9
100
AcDbEntity
  8
Standardebene
 62
     7
370
     9
100
AcDbLine
 10
83.87362633845484
 20
145.5517768871588
 30
0.0
 11
83.57857612852837
 21
146.0649076870303
 31
0.0
  0
LINE
  5
14C
330
C9
100
AcDbEntity
  8
Standardebene
 62
     7
370
     9
100
AcDbLine
 10
83.443879293562
 20
146.2958165469728
 30
0.0
 11
83.15524321863428
 21
146.8025332118461
 31
0.0
  0
SPLINE
  5
14D
330
C9
100
AcDbEntity
  8
Standardebene
 62
     7
370
     9
100
AcDbSpline
210
0.0
220
0.0
230
1.0
 70
     8
 71
     3
 72
    11
 73
     7
 74
     0
 42
0.0000000001
 43
0.0000000001
 40
0.0
 40
0.0
 40
0.0
 40
0.0
 40
1.0
 40
1.0
 40
1.0
 40
2.0
 40
2.0
 40
2.0
 40
2.0
 10
85.83635164796394
 20
146.8025332118461
 30
0.0
 10
85.83635164796394
 20
147.4952597916729
 30
0.0
 10
85.27832190310347
 20
148.0532895365334
 30
0.0
 10
84.58559532327663
 20
148.0532895365334
 30
0.0
 10
84.1750906833794
 20
148.0532895365334
 30
0.0
 10
83.80948498847086
 20
147.854451351583
 30
0.0
 10
83.57857612852837
 20
147.5401587366616
 30
0.0
  0
SPLINE
  5
14E
330
C9
100
AcDbEntity
  8
Standardebene
 62
     7
370
     9
100
AcDbSpline
210
0.0
220
0.0
230
1.0
 70
     8
 71
     3
 72
     8
 73
     4
 74
     0
 42
0.0000000001
 43
0.0000000001
 40
0.0
 40
0.0
 40
0.0
 40
0.0
 40
1.0
 40
1.0
 40
1.0
 40
1.0
 10
83.443879293562
 20
147.3092498767191
 30
0.0
 10
83.29635418859908
 20
146.9693007218043
 30
0.0
 10
83.30918245859594
 20
146.6101091618942
 30
0.0
 10
83.443879293562
 20
146.2958165469728
 30
0.0
  0
SPLINE
  5
14F
330
C9
100
AcDbEntity
  8
Standardebene
 62
     7
370
     9
100
AcDbSpline
210
0.0
220
0.0
230
1.0
 70
     8
 71
     3
 72
    11
 73
     7
 74
     0
 42
0.0000000001
 43
0.0000000001
 40
0.0
 40
0.0
 40
0.0
 40
0.0
 40
1.0
 40
1.0
 40
1.0
 40
2.0
 40
2.0
 40
2.0
 40
2.0
 10
83.57857612852837
 20
146.0649076870303
 30
0.0
 10
83.8223132584674
 20
145.7313726671139
 30
0.0
 10
84.20074722337281
 20
145.5517768871588
 30
0.0
 10
84.58559532327663
 20
145.5517768871588
 30
0.0
 10
85.27832190310347
 20
145.5517768871588
 30
0.0
 10
85.83635164796394
 20
146.1098066320193
 30
0.0
 10
85.83635164796394
 20
146.8025332118461
 30
0.0
  0
SPLINE
  5
150
330
C9
100
AcDbEntity
  8
Standardebene
 62
     7
370
     9
100
AcDbSpline
210
0.0
220
0.0
230
1.0
 70
     9
 71
     3
 72
    17
 73
    13
 74
     0
 42
0.0000000001
 43
0.0000000001
 40
0.0
 40
0.0
 40
0.0
 40
0.0
 40
1.0
 40
1.0
 40
1.0
 40
2.0
 40
2.0
 40
2.0
 40
3.0
 40
3.0
 40
3.0
 40
4.0
 40
4.0
 40
4.0
 40
4.0
 10
89.23584319711414
 20
116.8036238243453
 30
0.0
 10
89.23584319711414
 20
117.7144309941178
 30
0.0
 10
88.4982176722986
 20
118.4520565189333
 30
0.0
 10
87.58741050252615
 20
118.4520565189333
 30
0.0
 10
86.67660333275399
 20
118.4520565189333
 30
0.0
 10
85.93897780793849
 20
117.7144309941178
 30
0.0
 10
85.93897780793849
 20
116.8036238243453
 30
0.0
 10
85.93897780793849
 20
115.8928166545735
 30
0.0
 10
86.67660333275399
 20
115.1487769947596
 30
0.0
 10
87.58741050252615
 20
115.1487769947596
 30
0.0
 10
88.4982176722986
 20
115.1487769947596
 30
0.0
 10
89.23584319711414
 20
115.8928166545735
 30
0.0
 10
89.23584319711414
 20
116.8036238243453
 30
0.0
  0
LWPOLYLINE
  5
151
330
C9
100
AcDbEntity
  8
Standardebene
 62
     7
370
     9
100
AcDbPolyline
 90
        3
 70
     0
 43
0.0
 10
87.0806938376528
 20
117.94533985406
 10
87.58741050252615
 20
118.233975928988
 10
88.09412716739949
 20
117.94533985406
  0
SPLINE
  5
152
330
C9
100
AcDbEntity
  8
Standardebene
 62
     7
370
     9
100
AcDbSpline
210
0.0
220
0.0
230
1.0
 70
     8
 71
     3
 72
     8
 73
     4
 74
     0
 42
0.0000000001
 43
0.0000000001
 40
0.0
 40
0.0
 40
0.0
 40
0.0
 40
1.0
 40
1.0
 40
1.0
 40
1.0
 10
88.32503602734167
 20
117.8106430190936
 30
0.0
 10
88.24806640736115
 20
117.8683702340795
 30
0.0
 10
88.17109678738033
 20
117.9132691790678
 30
0.0
 10
88.09412716739949
 20
117.94533985406
 30
0.0
  0
SPLINE
  5
153
330
C9
100
AcDbEntity
  8
Standardebene
 62
     7
370
     9
100
AcDbSpline
210
0.0
220
0.0
230
1.0
 70
     8
 71
     3
 72
     8
 73
     4
 74
     0
 42
0.0000000001
 43
0.0000000001
 40
0.0
 40
0.0
 40
0.0
 40
0.0
 40
1.0
 40
1.0
 40
1.0
 40
1.0
 10
87.0806938376528
 20
117.94533985406
 30
0.0
 10
86.99731008267386
 20
117.90685504407
 30
0.0
 10
86.9139263276946
 20
117.861956099081
 30
0.0
 10
86.84978497771062
 20
117.8106430190936
 30
0.0
  0
LINE
  5
154
330
C9
100
AcDbEntity
  8
Standardebene
 62
     7
370
     9
100
AcDbLine
 10
88.32503602734167
 20
117.8106430190936
 30
0.0
 11
88.83816682721343
 21
117.5155928091678
 31
0.0
  0
LINE
  5
155
330
C9
100
AcDbEntity
  8
Standardebene
 62
     7
370
     9
100
AcDbLine
 10
87.58741050252615
 20
115.3476151797096
 30
0.0
 11
88.83816682721343
 21
116.0724124345282
 31
0.0
  0
LINE
  5
156
330
C9
100
AcDbEntity
  8
Standardebene
 62
     7
370
     9
100
AcDbLine
 10
86.33665417783886
 20
116.0724124345282
 30
0.0
 11
87.58741050252615
 21
115.3476151797096
 31
0.0
  0
LINE
  5
157
330
C9
100
AcDbEntity
  8
Standardebene
 62
     7
370
     9
100
AcDbLine
 10
86.33665417783886
 20
117.5155928091678
 30
0.0
 11
86.84978497771062
 21
117.8106430190936
 31
0.0
  0
LWPOLYLINE
  5
158
330
C9
100
AcDbEntity
  8
Standardebene
 62
     7
370
     9
100
AcDbPolyline
 90
        3
 70
     0
 43
0.0
 10
88.83816682721343
 20
117.5155928091678
 10
88.83816682721343
 20
116.8036238243453
 10
88.83816682721343
 20
116.0724124345282
  0
LWPOLYLINE
  5
159
330
C9
100
AcDbEntity
  8
Standardebene
 62
     7
370
     9
100
AcDbPolyline
 90
        3
 70
     0
 43
0.0
 10
86.33665417783886
 20
117.5155928091678
 10
86.33665417783886
 20
116.8036238243453
 10
86.33665417783886
 20
116.0724124345282
  0
SPLINE
  5
15A
330
C9
100
AcDbEntity
  8
Standardebene
 62
     7
370
     9
100
AcDbSpline
210
0.0
220
0.0
230
1.0
 70
     8
 71
     3
 72
     8
 73
     4
 74
     0
 42
0.0000000001
 43
0.0000000001
 40
0.0
 40
0.0
 40
0.0
 40
0.0
 40
1.0
 40
1.0
 40
1.0
 40
1.0
 10
88.83816682721343
 20
116.8036238243453
 30
0.0
 10
88.83816682721343
 20
117.2141284642429
 30
0.0
 10
88.6393286422631
 20
117.5797341591514
 30
0.0
 10
88.32503602734167
 20
117.8106430190936
 30
0.0
  0
SPLINE
  5
15B
330
C9
100
AcDbEntity
  8
Standardebene
 62
     7
370
     9
100
AcDbSpline
210
0.0
220
0.0
230
1.0
 70
     8
 71
     3
 72
     8
 73
     4
 74
     0
 42
0.0000000001
 43
0.0000000001
 40
0.0
 40
0.0
 40
0.0
 40
0.0
 40
1.0
 40
1.0
 40
1.0
 40
1.0
 10
88.09412716739949
 20
117.94533985406
 30
0.0
 10
87.76059214748277
 20
118.0928649590232
 30
0.0
 10
87.39498645257423
 20
118.0800366890263
 30
0.0
 10
87.0806938376528
 20
117.94533985406
 30
0.0
  0
SPLINE
  5
15C
330
C9
100
AcDbEntity
  8
Standardebene
 62
     7
370
     9
100
AcDbSpline
210
0.0
220
0.0
230
1.0
 70
     8
 71
     3
 72
    14
 73
    10
 74
     0
 42
0.0000000001
 43
0.0000000001
 40
0.0
 40
0.0
 40
0.0
 40
0.0
 40
1.0
 40
1.0
 40
1.0
 40
2.0
 40
2.0
 40
2.0
 40
3.0
 40
3.0
 40
3.0
 40
3.0
 10
86.84978497771062
 20
117.8106430190936
 30
0.0
 10
86.51624995779391
 20
117.5669058891546
 30
0.0
 10
86.33665417783886
 20
117.1884719242492
 30
0.0
 10
86.33665417783886
 20
116.8036238243453
 30
0.0
 10
86.33665417783886
 20
116.1108972445188
 30
0.0
 10
86.89468392269931
 20
115.552867499658
 30
0.0
 10
87.58741050252615
 20
115.552867499658
 30
0.0
 10
88.28013708235298
 20
115.552867499658
 30
0.0
 10
88.83816682721343
 20
116.1108972445188
 30
0.0
 10
88.83816682721343
 20
116.8036238243453
 30
0.0
  0
LWPOLYLINE
  5
15D
330
C9
100
AcDbEntity
  8
Standardebene
  6
AI-Linetype-1
 62
     7
370
     9
100
AcDbPolyline
 90
        4
 70
     0
 43
0.0
 10
159.8169847194685
 20
137.3031992792208
 10
173.6907587210005
 20
137.3031992792208
 10
174.2487884658606
 20
137.3031992792208
 10
201.8616396339576
 20
137.3031992792208
  0
LINE
  5
15F
330
C9
100
AcDbEntity
  8
Standardebene
 62
     7
370
     9
100
AcDbLine
 10
108.0356728774138
 20
213.5736785451531
 30
0.0
 11
106.3230988328422
 21
216.0238781145406
 31
0.0
  0
LINE
  5
160
330
C9
100
AcDbEntity
  8
Standardebene
 62
     7
370
     9
100
AcDbLine
 10
109.3120857420948
 20
216.0238781145406
 30
0.0
 11
106.3230988328422
 21
216.0238781145406
 31
0.0
  0
LINE
  5
161
330
C9
100
AcDbEntity
  8
Standardebene
 62
     7
370
    35
100
AcDbLine
 10
122.0890426589005
 20
245.0221824422912
 30
0.0
 11
122.0890426589005
 21
246.022787502041
 31
0.0
  0
LINE
  5
162
330
C9
100
AcDbEntity
  8
Standardebene
 62
     7
370
    35
100
AcDbLine
 10
67.08783504765102
 20
246.022787502041
 30
0.0
 11
67.08783504765102
 21
245.0221824422912
 31
0.0
  0
LINE
  5
163
330
C9
100
AcDbEntity
  8
Standardebene
 62
     7
370
    35
100
AcDbLine
 10
122.0890426589005
 20
246.022787502041
 30
0.0
 11
67.08783504765102
 21
246.022787502041
 31
0.0
  0
LINE
  5
164
330
C9
100
AcDbEntity
  8
Standardebene
 62
     7
370
    35
100
AcDbLine
 10
174.2487884658606
 20
237.7293109491143
 30
0.0
 11
174.2487884658606
 21
238.2745124239779
 31
0.0
  0
LINE
  5
165
330
C9
100
AcDbEntity
  8
Standardebene
 62
     7
370
    35
100
AcDbLine
 10
174.2487884658606
 20
210.7707015508539
 30
0.0
 11
174.2487884658606
 21
211.322317160716
 31
0.0
  0
SPLINE
  5
166
330
C9
100
AcDbEntity
  8
Standardebene
 62
     7
370
    35
100
AcDbSpline
210
0.0
220
0.0
230
1.0
 70
     8
 71
     3
 72
    14
 73
    10
 74
     0
 42
0.0000000001
 43
0.0000000001
 40
0.0
 40
0.0
 40
0.0
 40
0.0
 40
1.0
 40
1.0
 40
1.0
 40
2.0
 40
2.0
 40
2.0
 40
3.0
 40
3.0
 40
3.0
 40
3.0
 10
106.1242606478921
 20
216.5562513194076
 30
0.0
 10
106.1050182428969
 20
216.5562513194076
 30
0.0
 10
106.0793617029031
 20
216.562665454406
 30
0.0
 10
106.0601192979079
 20
216.562665454406
 30
0.0
 10
105.8356245729641
 20
216.562665454406
 30
0.0
 10
105.6560287930087
 20
216.383069674451
 30
0.0
 10
105.6560287930087
 20
216.158574949507
 30
0.0
 10
105.6560287930087
 20
216.0495346545343
 30
0.0
 10
105.7009277379977
 20
215.9533226295581
 30
0.0
 10
105.7714832229798
 20
215.8827671445761
 30
0.0
  0
LINE
  5
167
330
C9
100
AcDbEntity
  8
Standardebene
 62
     7
370
    35
100
AcDbLine
 10
105.7714832229798
 20
215.8827671445761
 30
0.0
 11
108.0356728774138
 21
213.5736785451531
 31
0.0
  0
LINE
  5
168
330
C9
100
AcDbEntity
  8
Standardebene
 62
     7
370
    35
100
AcDbLine
 10
112.0894061964006
 20
207.7945429115981
 30
0.0
 11
108.0356728774138
 21
213.5736785451531
 31
0.0
  0
LINE
  5
169
330
C9
100
AcDbEntity
  8
Standardebene
 62
     7
370
    35
100
AcDbLine
 10
112.0894061964006
 20
207.0248467117905
 30
0.0
 11
112.0894061964006
 21
207.7945429115981
 31
0.0
  0
LINE
  5
16A
330
C9
100
AcDbEntity
  8
Standardebene
 62
     7
370
    35
100
AcDbLine
 10
95.58583684552672
 20
207.0248467117905
 30
0.0
 11
112.0894061964006
 21
207.0248467117905
 31
0.0
  0
LWPOLYLINE
  5
16B
330
C9
100
AcDbEntity
  8
Standardebene
 62
     7
370
    35
100
AcDbPolyline
 90
        4
 70
     0
 43
0.0
 10
82.5715569337801
 20
220.0391266235368
 10
87.58741050252615
 20
215.0232730547907
 10
89.98629699192651
 20
212.6243865653907
 10
95.58583684552672
 20
207.0248467117905
  0
LINE
  5
16C
330
C9
100
AcDbEntity
  8
Standardebene
 62
     7
370
    35
100
AcDbLine
 10
82.5715569337801
 20
245.0221824422912
 30
0.0
 11
82.5715569337801
 21
220.0391266235368
 31
0.0
  0
LWPOLYLINE
  5
16D
330
C9
100
AcDbEntity
  8
Standardebene
 62
     7
370
    35
100
AcDbPolyline
 90
        3
 70
     0
 43
0.0
 10
145.0901307631506
 20
245.0221824422912
 10
122.0890426589005
 20
245.0221824422912
 10
82.5715569337801
 20
245.0221824422912
  0
LWPOLYLINE
  5
16E
330
C9
100
AcDbEntity
  8
Standardebene
 62
     7
370
    35
100
AcDbPolyline
 90
        3
 70
     0
 43
0.0
 10
145.0901307631506
 20
245.0221824422912
 10
151.5876495165261
 20
238.5246636889153
 10
173.6907587210005
 20
238.5246636889153
  0
LWPOLYLINE
  5
16F
330
C9
100
AcDbEntity
  8
Standardebene
 62
     7
370
    35
100
AcDbPolyline
 90
        4
 70
     0
 43
0.0
 10
176.5899477402758
 20
234.3811324799512
 10
174.2487884658606
 20
237.7228968141159
 10
174.2487884658606
 20
237.7293109491143
 10
173.6907587210005
 20
238.5246636889153
  0
LINE
  5
170
330
C9
100
AcDbEntity
  8
Standardebene
 62
     7
370
    35
100
AcDbLine
 10
176.5899477402758
 20
217.0244831742904
 30
0.0
 11
176.5899477402758
 21
234.3811324799512
 31
0.0
  0
LINE
  5
171
330
C9
100
AcDbEntity
  8
Standardebene
 62
     7
370
    35
100
AcDbLine
 10
175.5893426805259
 20
216.0238781145406
 30
0.0
 11
176.5899477402758
 21
217.0244831742904
 31
0.0
  0
LINE
  5
172
330
C9
100
AcDbEntity
  8
Standardebene
 62
     7
370
    35
100
AcDbLine
 10
158.5854707997765
 20
216.0238781145406
 30
0.0
 11
175.5893426805259
 21
216.0238781145406
 31
0.0
  0
LINE
  5
173
330
C9
100
AcDbEntity
  8
Standardebene
 62
     7
370
    35
100
AcDbLine
 10
158.5854707997765
 20
216.5241806444155
 30
0.0
 11
158.5854707997765
 21
216.0238781145406
 31
0.0
  0
LINE
  5
174
330
C9
100
AcDbEntity
  8
Standardebene
 62
     7
370
    35
100
AcDbLine
 10
141.4469020840613
 20
216.5241806444155
 30
0.0
 11
158.5854707997765
 21
216.5241806444155
 31
0.0
  0
SPLINE
  5
175
330
C9
100
AcDbEntity
  8
Standardebene
 62
     7
370
    35
100
AcDbSpline
210
0.0
220
0.0
230
1.0
 70
     8
 71
     3
 72
    17
 73
    13
 74
     0
 42
0.0000000001
 43
0.0000000001
 40
0.0
 40
0.0
 40
0.0
 40
0.0
 40
1.0
 40
1.0
 40
1.0
 40
2.0
 40
2.0
 40
2.0
 40
3.0
 40
3.0
 40
3.0
 40
4.0
 40
4.0
 40
4.0
 40
4.0
 10
142.588618113776
 20
221.5207918081666
 30
0.0
 10
142.588618113776
 20
227.8707854565788
 30
0.0
 10
137.4380677100635
 20
233.0213358602913
 30
0.0
 10
131.0880740616506
 20
233.0213358602913
 30
0.0
 10
125.2576253481086
 20
233.0213358602913
 30
0.0
 10
120.4406099643125
 20
228.6789664663768
 30
0.0
 10
119.6965703044986
 20
223.0537700727831
 30
0.0
 10
119.6196006845181
 20
222.5534675429082
 30
0.0
 10
119.5875300095259
 20
222.0403367430364
 30
0.0
 10
119.5875300095259
 20
221.5207918081666
 30
0.0
 10
119.5875300095259
 20
219.50675341867
 30
0.0
 10
120.1070749443961
 20
217.6081694591446
 30
0.0
 10
120.9858114391765
 20
216.0238781145406
 30
0.0
  0
SPLINE
  5
176
330
C9
100
AcDbEntity
  8
Standardebene
 62
     7
370
    35
100
AcDbSpline
210
0.0
220
0.0
230
1.0
 70
     8
 71
     3
 72
     8
 73
     4
 74
     0
 42
0.0000000001
 43
0.0000000001
 40
0.0
 40
0.0
 40
0.0
 40
0.0
 40
1.0
 40
1.0
 40
1.0
 40
1.0
 10
141.4469020840613
 20
216.5241806444155
 30
0.0
 10
142.2358406888636
 20
218.1597850690066
 30
0.0
 10
142.6014463837728
 20
219.8916015185738
 30
0.0
 10
142.588618113776
 20
221.5207918081666
 30
0.0
  0
LINE
  5
177
330
C9
100
AcDbEntity
  8
Standardebene
 62
     7
370
    35
100
AcDbLine
 10
109.3120857420948
 20
216.0238781145406
 30
0.0
 11
120.9858114391765
 21
216.0238781145406
 31
0.0
  0
LINE
  5
178
330
C9
100
AcDbEntity
  8
Standardebene
 62
     7
370
    35
100
AcDbLine
 10
109.3120857420948
 20
216.0238781145406
 30
0.0
 11
106.1242606478921
 21
216.5562513194076
 31
0.0
  0
SPLINE
  5
179
330
C9
100
AcDbEntity
  8
Standardebene
 62
     7
370
    35
100
AcDbSpline
210
0.0
220
0.0
230
1.0
 70
     9
 71
     3
 72
    17
 73
    13
 74
     0
 42
0.0000000001
 43
0.0000000001
 40
0.0
 40
0.0
 40
0.0
 40
0.0
 40
1.0
 40
1.0
 40
1.0
 40
2.0
 40
2.0
 40
2.0
 40
3.0
 40
3.0
 40
3.0
 40
4.0
 40
4.0
 40
4.0
 40
4.0
 10
89.68483264700195
 20
238.5246636889153
 30
0.0
 10
89.68483264700195
 20
239.6792079886268
 30
0.0
 10
88.74836893723609
 20
240.6220858333911
 30
0.0
 10
87.58741050252615
 20
240.6220858333911
 30
0.0
 10
86.42645206781654
 20
240.6220858333911
 30
0.0
 10
85.48998835805068
 20
239.6792079886268
 30
0.0
 10
85.48998835805068
 20
238.5246636889153
 30
0.0
 10
85.48998835805068
 20
237.3637052542057
 30
0.0
 10
86.42645206781654
 20
236.4208274094414
 30
0.0
 10
87.58741050252615
 20
236.4208274094414
 30
0.0
 10
88.74836893723609
 20
236.4208274094414
 30
0.0
 10
89.68483264700195
 20
237.3637052542057
 30
0.0
 10
89.68483264700195
 20
238.5246636889153
 30
0.0
  0
LWPOLYLINE
  5
17A
330
C9
100
AcDbEntity
  8
Standardebene
 62
     7
370
    35
100
AcDbPolyline
 90
        4
 70
     0
 43
0.0
 10
56.58789605527617
 20
232.5210333304163
 10
56.58789605527617
 20
245.0221824422912
 10
67.08783504765102
 20
245.0221824422912
 10
82.5715569337801
 20
245.0221824422912
  0
LINE
  5
17B
330
C9
100
AcDbEntity
  8
Standardebene
 62
     7
370
    35
100
AcDbLine
 10
76.58716898027638
 20
226.0235145770408
 30
0.0
 11
64.58632239827643
 21
226.0235145770408
 31
0.0
  0
LINE
  5
17C
330
C9
100
AcDbEntity
  8
Standardebene
 62
     7
370
    35
100
AcDbLine
 10
64.58632239827643
 20
232.5210333304163
 30
0.0
 11
64.58632239827643
 21
226.0235145770408
 31
0.0
  0
LINE
  5
17D
330
C9
100
AcDbEntity
  8
Standardebene
 62
     7
370
    35
100
AcDbLine
 10
64.58632239827643
 20
232.5210333304163
 30
0.0
 11
56.58789605527617
 21
232.5210333304163
 31
0.0
  0
LINE
  5
17E
330
C9
100
AcDbEntity
  8
Standardebene
 62
     7
370
    35
100
AcDbLine
 10
82.5715569337801
 20
220.0391266235368
 30
0.0
 11
76.58716898027638
 21
226.0235145770408
 31
0.0
  0
SPLINE
  5
17F
330
C9
100
AcDbEntity
  8
Standardebene
 62
     7
370
    35
100
AcDbSpline
210
0.0
220
0.0
230
1.0
 70
     8
 71
     3
 72
    17
 73
    13
 74
     0
 42
0.0000000001
 43
0.0000000001
 40
0.0
 40
0.0
 40
0.0
 40
0.0
 40
1.0
 40
1.0
 40
1.0
 40
2.0
 40
2.0
 40
2.0
 40
3.0
 40
3.0
 40
3.0
 40
4.0
 40
4.0
 40
4.0
 40
4.0
 10
136.4887757303005
 20
221.5207918081666
 30
0.0
 10
136.4887757303005
 20
224.5033645824208
 30
0.0
 10
134.0706468359055
 20
226.9214934768161
 30
0.0
 10
131.0880740616506
 20
226.9214934768161
 30
0.0
 10
128.3235818773417
 20
226.9214934768161
 30
0.0
 10
126.0401498179131
 20
224.8433137373359
 30
0.0
 10
125.7258572029913
 20
222.1622053080059
 30
0.0
 10
125.7002006629976
 20
221.9505388530591
 30
0.0
 10
125.6873723930008
 20
221.7388723981119
 30
0.0
 10
125.6873723930008
 20
221.5207918081666
 30
0.0
 10
125.6873723930008
 20
219.2758445587275
 30
0.0
 10
127.0599972826582
 20
217.3451899242103
 30
0.0
 10
129.048379132161
 20
216.5241806444155
 30
0.0
  0
SPLINE
  5
180
330
C9
100
AcDbEntity
  8
Standardebene
 62
     7
370
    35
100
AcDbSpline
210
0.0
220
0.0
230
1.0
 70
     8
 71
     3
 72
     8
 73
     4
 74
     0
 42
0.0000000001
 43
0.0000000001
 40
0.0
 40
0.0
 40
0.0
 40
0.0
 40
1.0
 40
1.0
 40
1.0
 40
1.0
 10
133.1277689911409
 20
216.5241806444155
 30
0.0
 10
135.2059487306217
 20
217.3708464642039
 30
0.0
 10
136.4759474603036
 20
219.3656424487052
 30
0.0
 10
136.4887757303005
 20
221.5207918081666
 30
0.0
  0
LWPOLYLINE
  5
181
330
C9
100
AcDbEntity
  8
Standardebene
 62
     7
370
    35
100
AcDbPolyline
 90
       17
 70
     0
 43
0.0
 10
133.1277689911409
 20
216.5241806444155
 10
132.6338805962644
 20
216.5241806444155
 10
132.1271639313911
 20
216.5241806444155
 10
131.8705985314551
 20
216.5241806444155
 10
131.6140331315192
 20
216.5241806444155
 10
131.4793362965529
 20
216.5241806444155
 10
131.3510535965849
 20
216.5241806444155
 10
131.2869122466013
 20
216.5241806444155
 10
131.2163567616186
 20
216.5241806444155
 10
131.1522154116349
 20
216.5241806444155
 10
131.0880740616506
 20
216.5241806444155
 10
130.8250945267163
 20
216.5241806444155
 10
130.5621149917826
 20
216.5241806444155
 10
130.3055495918467
 20
216.5241806444155
 10
130.0489841919109
 20
216.5241806444155
 10
129.5422675270375
 20
216.5241806444155
 10
129.048379132161
 20
216.5241806444155
  0
LINE
  5
182
330
C9
100
AcDbEntity
  8
Standardebene
 62
     7
370
    35
100
AcDbLine
 10
128.586561412276
 20
216.0238781145406
 30
0.0
 11
128.586561412276
 21
216.5241806444155
 31
0.0
  0
SPLINE
  5
183
330
C9
100
AcDbEntity
  8
Standardebene
 62
     7
370
    35
100
AcDbSpline
210
0.0
220
0.0
230
1.0
 70
     9
 71
     3
 72
    23
 73
    19
 74
     0
 42
0.0000000001
 43
0.0000000001
 40
0.0
 40
0.0
 40
0.0
 40
0.0
 40
1.0
 40
1.0
 40
1.0
 40
2.0
 40
2.0
 40
2.0
 40
3.0
 40
3.0
 40
3.0
 40
4.0
 40
4.0
 40
4.0
 40
5.0
 40
5.0
 40
5.0
 40
6.0
 40
6.0
 40
6.0
 40
6.0
 10
124.6867673332509
 20
222.5213968679164
 30
0.0
 10
124.6867673332509
 20
223.682355302626
 30
0.0
 10
123.7503036234854
 20
224.6252331473903
 30
0.0
 10
122.5893451887754
 20
224.6252331473903
 30
0.0
 10
121.5759118590287
 20
224.6252331473903
 30
0.0
 10
120.7228319042422
 20
223.9004358925716
 30
0.0
 10
120.5304078542905
 20
222.9447297778105
 30
0.0
 10
120.4983371792984
 20
222.8036188078457
 30
0.0
 10
120.4855089093015
 20
222.6625078378809
 30
0.0
 10
120.4855089093015
 20
222.5213968679164
 30
0.0
 10
120.4855089093015
 20
221.3604384332064
 30
0.0
 10
121.4283867540655
 20
220.4239747234406
 30
0.0
 10
122.5893451887754
 20
220.4239747234406
 30
0.0
 10
123.6797481385027
 20
220.4239747234406
 30
0.0
 10
124.5713129032798
 20
221.2449840032354
 30
0.0
 10
124.6739390632547
 20
222.3097304129692
 30
0.0
 10
124.6803531982531
 20
222.3802858979516
 30
0.0
 10
124.6867673332509
 20
222.450841382934
 30
0.0
 10
124.6867673332509
 20
222.5213968679164
 30
0.0
  0
LWPOLYLINE
  5
184
330
C9
100
AcDbEntity
  8
Standardebene
 62
     7
370
    35
100
AcDbPolyline
 90
        3
 70
     0
 43
0.0
 10
120.9858114391765
 20
216.0238781145406
 10
121.5630835890319
 20
216.0238781145406
 10
128.586561412276
 20
216.0238781145406
  0
LINE
  5
185
330
C9
100
AcDbEntity
  8
Standardebene
 62
     7
370
    35
100
AcDbLine
 10
128.586561412276
 20
216.5241806444155
 30
0.0
 11
129.048379132161
 21
216.5241806444155
 31
0.0
  0
LWPOLYLINE
  5
186
330
C9
100
AcDbEntity
  8
Standardebene
 62
     7
370
    35
100
AcDbPolyline
 90
        3
 70
     0
 43
0.0
 10
133.1277689911409
 20
216.5241806444155
 10
140.8888723392005
 20
216.5241806444155
 10
141.4469020840613
 20
216.5241806444155
  0
LWPOLYLINE
  5
187
330
C9
100
AcDbEntity
  8
Standardebene
 62
     7
370
    35
100
AcDbPolyline
 90
       15
 70
     0
 43
0.0
 10
87.58741050252615
 20
213.6249916251405
 10
88.1646826523819
 20
212.6243865653907
 10
87.95301619743469
 20
213.0413053402863
 10
87.78624868747648
 20
213.4646382501804
 10
87.72852147249095
 20
213.6763047051276
 10
87.68362252750227
 20
213.8879711600745
 10
87.65796598750855
 20
214.1060517500202
 10
87.64513771751168
 20
214.3241323399655
 10
87.64513771751168
 20
214.3754454199529
 10
87.64513771751168
 20
214.4331726349384
 10
87.65155185251012
 20
214.4844857149255
 10
87.65155185251012
 20
214.5422129299111
 10
87.66438012250699
 20
214.6512532248838
 10
87.68362252750227
 20
214.7538793848583
 10
87.70286493249724
 20
214.8821620848259
  0
LWPOLYLINE
  5
188
330
C9
100
AcDbEntity
  8
Standardebene
 62
     7
370
    35
100
AcDbPolyline
 90
        4
 70
     0
 43
0.0
 10
87.58741050252615
 20
213.6249916251405
 10
87.58741050252615
 20
213.7853450001003
 10
87.58741050252615
 20
214.2599909899815
 10
87.58741050252615
 20
215.0232730547907
  0
LINE
  5
189
330
C9
100
AcDbEntity
  8
Standardebene
 62
     7
370
    35
100
AcDbLine
 10
88.1646826523819
 20
212.6243865653907
 30
0.0
 11
89.98629699192651
 21
212.6243865653907
 31
0.0
  0
SPLINE
  5
18A
330
C9
100
AcDbEntity
  8
Standardebene
 62
     7
370
    35
100
AcDbSpline
210
0.0
220
0.0
230
1.0
 70
     8
 71
     3
 72
    11
 73
     7
 74
     0
 42
0.0000000001
 43
0.0000000001
 40
0.0
 40
0.0
 40
0.0
 40
0.0
 40
1.0
 40
1.0
 40
1.0
 40
2.0
 40
2.0
 40
2.0
 40
2.0
 10
121.5630835890319
 20
216.0238781145406
 30
0.0
 10
123.5835361135269
 20
212.5153462704177
 30
0.0
 10
127.2524213326098
 20
210.5462068259102
 30
0.0
 10
131.0880740616506
 20
210.5205502859165
 30
0.0
 10
135.3406455655874
 20
210.5205502859165
 30
0.0
 10
139.0287731896657
 20
212.9322650453137
 30
0.0
 10
140.8888723392005
 20
216.5241806444155
 30
0.0
  0
LWPOLYLINE
  5
18B
330
C9
100
AcDbEntity
  8
Standardebene
 62
     7
370
    35
100
AcDbPolyline
 90
        4
 70
     0
 43
0.0
 10
282.8721646637051
 20
246.022787502041
 10
285.8739798429546
 20
246.022787502041
 10
285.8739798429546
 20
245.0221824422912
 10
285.8739798429546
 20
231.0201257407916
  0
LWPOLYLINE
  5
18C
330
C9
100
AcDbEntity
  8
Standardebene
 62
     7
370
    35
100
AcDbPolyline
 90
        5
 70
     0
 43
0.0
 10
282.8721646637051
 20
231.0201257407916
 10
282.8721646637051
 20
234.522243449916
 10
282.8721646637051
 20
241.5200647331667
 10
282.8721646637051
 20
245.0221824422912
 10
282.8721646637051
 20
246.022787502041
  0
LINE
  5
18D
330
C9
100
AcDbEntity
  8
Standardebene
 62
     7
370
    35
100
AcDbLine
 10
285.8739798429546
 20
231.0201257407916
 30
0.0
 11
282.8721646637051
 21
231.0201257407916
 31
0.0
  0
SPLINE
  5
18E
330
C9
100
AcDbEntity
  8
Standardebene
 62
     7
370
    35
100
AcDbSpline
210
0.0
220
0.0
230
1.0
 70
     9
 71
     3
 72
    17
 73
    13
 74
     0
 42
0.0000000001
 43
0.0000000001
 40
0.0
 40
0.0
 40
0.0
 40
0.0
 40
1.0
 40
1.0
 40
1.0
 40
2.0
 40
2.0
 40
2.0
 40
3.0
 40
3.0
 40
3.0
 40
4.0
 40
4.0
 40
4.0
 40
4.0
 10
270.5185406567931
 20
219.5195816886669
 30
0.0
 10
270.5185406567931
 20
220.9820044683011
 30
0.0
 10
269.3383398170886
 20
222.1686194430044
 30
0.0
 10
267.8759170374544
 20
222.1686194430044
 30
0.0
 10
266.4134942578195
 20
222.1686194430044
 30
0.0
 10
265.2268792831165
 20
220.9820044683011
 30
0.0
 10
265.2268792831165
 20
219.5195816886669
 30
0.0
 10
265.2268792831165
 20
218.0635730440308
 30
0.0
 10
266.4134942578195
 20
216.8769580693275
 30
0.0
 10
267.8759170374544
 20
216.8769580693275
 30
0.0
 10
269.3383398170886
 20
216.8769580693275
 30
0.0
 10
270.5185406567931
 20
218.0635730440308
 30
0.0
 10
270.5185406567931
 20
219.5195816886669
 30
0.0
  0
SPLINE
  5
18F
330
C9
100
AcDbEntity
  8
Standardebene
 62
     7
370
    35
100
AcDbSpline
210
0.0
220
0.0
230
1.0
 70
     9
 71
     3
 72
    17
 73
    13
 74
     0
 42
0.0000000001
 43
0.0000000001
 40
0.0
 40
0.0
 40
0.0
 40
0.0
 40
1.0
 40
1.0
 40
1.0
 40
2.0
 40
2.0
 40
2.0
 40
3.0
 40
3.0
 40
3.0
 40
4.0
 40
4.0
 40
4.0
 40
4.0
 10
270.377429686829
 20
219.5195816886669
 30
0.0
 10
270.377429686829
 20
220.9050348483202
 30
0.0
 10
269.2549560621096
 20
222.0210943380415
 30
0.0
 10
267.8759170374544
 20
222.0210943380415
 30
0.0
 10
266.4968780127991
 20
222.0210943380415
 30
0.0
 10
265.3744043880798
 20
220.9050348483202
 30
0.0
 10
265.3744043880798
 20
219.5195816886669
 30
0.0
 10
265.3744043880798
 20
218.1405426640116
 30
0.0
 10
266.4968780127991
 20
217.0244831742904
 30
0.0
 10
267.8759170374544
 20
217.0244831742904
 30
0.0
 10
269.2549560621096
 20
217.0244831742904
 30
0.0
 10
270.377429686829
 20
218.1405426640116
 30
0.0
 10
270.377429686829
 20
219.5195816886669
 30
0.0
  0
SPLINE
  5
190
330
C9
100
AcDbEntity
  8
Standardebene
 62
     7
370
    35
100
AcDbSpline
210
0.0
220
0.0
230
1.0
 70
     9
 71
     3
 72
    17
 73
    13
 74
     0
 42
0.0000000001
 43
0.0000000001
 40
0.0
 40
0.0
 40
0.0
 40
0.0
 40
1.0
 40
1.0
 40
1.0
 40
2.0
 40
2.0
 40
2.0
 40
3.0
 40
3.0
 40
3.0
 40
4.0
 40
4.0
 40
4.0
 40
4.0
 10
269.9733391819299
 20
219.5195816886669
 30
0.0
 10
269.9733391819299
 20
220.6805401233765
 30
0.0
 10
269.0368754721637
 20
221.6234179681408
 30
0.0
 10
267.8759170374544
 20
221.6234179681408
 30
0.0
 10
266.7149586027445
 20
221.6234179681408
 30
0.0
 10
265.7720807579798
 20
220.6805401233765
 30
0.0
 10
265.7720807579798
 20
219.5195816886669
 30
0.0
 10
265.7720807579798
 20
218.3650373889554
 30
0.0
 10
266.7149586027445
 20
217.4221595441911
 30
0.0
 10
267.8759170374544
 20
217.4221595441911
 30
0.0
 10
269.0368754721637
 20
217.4221595441911
 30
0.0
 10
269.9733391819299
 20
218.3650373889554
 30
0.0
 10
269.9733391819299
 20
219.5195816886669
 30
0.0
  0
LINE
  5
191
330
C9
100
AcDbEntity
  8
Standardebene
 62
     7
370
    35
100
AcDbLine
 10
304.8726477082046
 20
232.5210333304163
 30
0.0
 11
304.8726477082046
 21
245.0221824422912
 31
0.0
  0
LWPOLYLINE
  5
192
330
C9
100
AcDbEntity
  8
Standardebene
 62
     7
370
    35
100
AcDbPolyline
 90
        4
 70
     0
 43
0.0
 10
319.8753094694544
 20
245.0221824422912
 10
319.8753094694544
 20
220.0391266235368
 10
316.4245048403167
 20
226.0235145770408
 10
309.4908249070507
 20
226.0235145770408
  0
LINE
  5
193
330
C9
100
AcDbEntity
  8
Standardebene
 62
     7
370
    35
100
AcDbLine
 10
309.4908249070507
 20
232.5210333304163
 30
0.0
 11
309.4908249070507
 21
226.0235145770408
 31
0.0
  0
LINE
  5
194
330
C9
100
AcDbEntity
  8
Standardebene
 62
     7
370
    35
100
AcDbLine
 10
309.4908249070507
 20
232.5210333304163
 30
0.0
 11
304.8726477082046
 21
232.5210333304163
 31
0.0
  0
LINE
  5
195
330
C9
100
AcDbEntity
  8
Standardebene
 62
     7
370
    35
100
AcDbLine
 10
304.8726477082046
 20
245.0221824422912
 30
0.0
 11
319.8753094694544
 21
245.0221824422912
 31
0.0
  0
LINE
  5
196
330
C9
100
AcDbEntity
  8
Standardebene
 62
     7
370
    35
100
AcDbLine
 10
301.8772466639536
 20
232.5210333304163
 30
0.0
 11
301.8772466639536
 21
245.0221824422912
 31
0.0
  0
LINE
  5
197
330
C9
100
AcDbEntity
  8
Standardebene
 62
     7
370
    35
100
AcDbLine
 10
304.8726477082046
 20
232.5210333304163
 30
0.0
 11
301.8772466639536
 21
232.5210333304163
 31
0.0
  0
LINE
  5
198
330
C9
100
AcDbEntity
  8
Standardebene
 62
     7
370
    35
100
AcDbLine
 10
301.8772466639536
 20
245.0221824422912
 30
0.0
 11
304.8726477082046
 21
245.0221824422912
 31
0.0
  0
LINE
  5
199
330
C9
100
AcDbEntity
  8
Standardebene
 62
     7
370
    35
100
AcDbLine
 10
276.8749484402045
 20
226.0235145770408
 30
0.0
 11
309.4908249070507
 21
226.0235145770408
 31
0.0
  0
LINE
  5
19A
330
C9
100
AcDbEntity
  8
Standardebene
 62
     7
370
    35
100
AcDbLine
 10
276.8749484402045
 20
245.0221824422912
 30
0.0
 11
276.8749484402045
 21
226.0235145770408
 31
0.0
  0
LWPOLYLINE
  5
19B
330
C9
100
AcDbEntity
  8
Standardebene
 62
     7
370
    35
100
AcDbPolyline
 90
        7
 70
     0
 43
0.0
 10
281.8779737389537
 20
245.0221824422912
 10
281.8779737389537
 20
242.5206697929166
 10
281.8779737389537
 20
233.5216383901662
 10
281.8779737389537
 20
230.5198232109166
 10
300.3763390743288
 20
230.5198232109166
 10
300.3763390743288
 20
230.2247730009905
 10
301.8772466639536
 20
230.2247730009905
  0
SPLINE
  5
19C
330
C9
100
AcDbEntity
  8
Standardebene
 62
     7
370
    35
100
AcDbSpline
210
0.0
220
0.0
230
1.0
 70
     9
 71
     3
 72
    17
 73
    13
 74
     0
 42
0.0000000001
 43
0.0000000001
 40
0.0
 40
0.0
 40
0.0
 40
0.0
 40
1.0
 40
1.0
 40
1.0
 40
2.0
 40
2.0
 40
2.0
 40
3.0
 40
3.0
 40
3.0
 40
4.0
 40
4.0
 40
4.0
 40
4.0
 10
308.4773915773039
 20
229.5192181511668
 30
0.0
 10
308.4773915773039
 20
230.6801765858764
 30
0.0
 10
307.5345137325393
 20
231.6230544306407
 30
0.0
 10
306.3735552978294
 20
231.6230544306407
 30
0.0
 10
305.2125968631201
 20
231.6230544306407
 30
0.0
 10
304.2761331533539
 20
230.6801765858764
 30
0.0
 10
304.2761331533539
 20
229.5192181511668
 30
0.0
 10
304.2761331533539
 20
228.3646738514553
 30
0.0
 10
305.2125968631201
 20
227.4217960066911
 30
0.0
 10
306.3735552978294
 20
227.4217960066911
 30
0.0
 10
307.5345137325393
 20
227.4217960066911
 30
0.0
 10
308.4773915773039
 20
228.3646738514553
 30
0.0
 10
308.4773915773039
 20
229.5192181511668
 30
0.0
  0
LINE
  5
19D
330
C9
100
AcDbEntity
  8
Standardebene
 62
     7
370
    35
100
AcDbLine
 10
301.8772466639536
 20
230.2247730009905
 30
0.0
 11
301.8772466639536
 21
232.5210333304163
 31
0.0
  0
LINE
  5
19E
330
C9
100
AcDbEntity
  8
Standardebene
 62
     7
370
    35
100
AcDbLine
 10
281.8779737389537
 20
245.0221824422912
 30
0.0
 11
276.8749484402045
 21
245.0221824422912
 31
0.0
  0
LWPOLYLINE
  5
19F
330
C9
100
AcDbEntity
  8
Standardebene
 62
     7
370
    35
100
AcDbPolyline
 90
        3
 70
     0
 43
0.0
 10
260.7113282442454
 20
227.0241196367907
 10
267.9272301174412
 20
227.0241196367907
 10
270.8777322167039
 20
227.0241196367907
  0
LWPOLYLINE
  5
1A0
330
C9
100
AcDbEntity
  8
Standardebene
 62
     7
370
    35
100
AcDbPolyline
 90
        3
 70
     0
 43
0.0
 10
260.7113282442454
 20
210.0202477560415
 10
260.7113282442454
 20
216.1136760045183
 10
260.7113282442454
 20
227.0241196367907
  0
LWPOLYLINE
  5
1A1
330
C9
100
AcDbEntity
  8
Standardebene
 62
     7
370
    35
100
AcDbPolyline
 90
        6
 70
     0
 43
0.0
 10
260.7113282442454
 20
210.0202477560415
 10
258.9795117946785
 20
207.0248467117905
 10
255.8750704554541
 20
207.0248467117905
 10
255.8750704554541
 20
210.5205502859165
 10
255.8750704554541
 20
232.5210333304163
 10
255.8750704554541
 20
245.0221824422912
  0
LWPOLYLINE
  5
1A2
330
C9
100
AcDbEntity
  8
Standardebene
 62
     7
370
    35
100
AcDbPolyline
 90
        5
 70
     0
 43
0.0
 10
274.7454556207369
 20
226.0235145770408
 10
273.8346484509644
 20
226.4532616219333
 10
272.8725282012051
 20
226.7675542368548
 10
271.8847514114521
 20
226.9599782868067
 10
270.8777322167039
 20
227.0241196367907
  0
LWPOLYLINE
  5
1A3
330
C9
100
AcDbEntity
  8
Standardebene
 62
     7
370
    35
100
AcDbPolyline
 90
       34
 70
     0
 43
0.0
 10
272.8725282012051
 20
240.5002172684216
 10
272.5710638562802
 20
241.2891558732242
 10
272.1926298913749
 20
241.9690541830542
 10
271.7436404414873
 20
242.5142556579181
 10
271.2497520466109
 20
242.918346162817
 10
270.7173788417438
 20
243.1556691577576
 10
270.1721773668798
 20
243.2198105077415
 10
269.633390027015
 20
243.1171843477673
 10
269.1074309571464
 20
242.8413765428361
 10
268.6199566972683
 20
242.4052153629452
 10
268.1902096523755
 20
241.8279432130898
 10
267.8246039574669
 20
241.122388363266
 10
267.5423820175374
 20
240.3142073534681
 10
267.3435438325873
 20
239.4290567236894
 10
267.2473318076115
 20
238.4925930139235
 10
267.2473318076115
 20
237.5497151691592
 10
267.3435438325873
 20
236.6196655943918
 10
267.5423820175374
 20
235.7345149646131
 10
267.8246039574669
 20
234.9199198198167
 10
268.1902096523755
 20
234.214364969993
 10
268.6199566972683
 20
233.6370928201372
 10
269.1074309571464
 20
233.2009316402463
 10
269.633390027015
 20
232.9251238353155
 10
270.1721773668798
 20
232.8224976753409
 10
270.7173788417438
 20
232.8930531603233
 10
271.2497520466109
 20
233.1303761552639
 10
271.7436404414873
 20
233.5280525251646
 10
272.1926298913749
 20
234.0732540000282
 10
272.5710638562802
 20
234.7531523098582
 10
272.8725282012051
 20
235.5420909146611
 10
273.0136391711699
 20
236.7800189693516
 10
273.0585381161583
 20
238.0243611590405
 10
273.0136391711699
 20
239.2622892137312
 10
272.8725282012051
 20
240.5002172684216
  0
LWPOLYLINE
  5
1A4
330
C9
100
AcDbEntity
  8
Standardebene
 62
     7
370
    35
100
AcDbPolyline
 90
       25
 70
     1
 43
0.0
 10
261.1410752891377
 20
238.5246636889153
 10
261.0897622091508
 20
239.2045619987453
 10
260.948651239186
 20
239.845975498585
 10
260.7113282442454
 20
240.4040052434455
 10
260.4034497643221
 20
240.8465805583349
 10
260.044258204412
 20
241.1352166332629
 10
259.6529959695097
 20
241.2634993332309
 10
259.2553195996091
 20
241.2250145232403
 10
258.8768856347036
 20
241.006933933295
 10
258.5433506147873
 20
240.6413282383864
 10
258.2675428098561
 20
240.1410257085115
 10
258.0751187599044
 20
239.5316828836636
 10
257.9789067349281
 20
238.8646128438305
 10
257.9789067349281
 20
238.1783003990021
 10
258.0751187599044
 20
237.5112303591687
 10
258.2675428098561
 20
236.9083016693195
 10
258.5433506147873
 20
236.4015850044462
 10
258.8768856347036
 20
236.0359793095376
 10
259.2553195996091
 20
235.8178987195923
 10
259.6529959695097
 20
235.7794139096017
 10
260.044258204412
 20
235.9076966095697
 10
260.4034497643221
 20
236.2027468194958
 10
260.7113282442454
 20
236.6389079993868
 10
260.948651239186
 20
237.1969377442475
 10
261.0897622091508
 20
237.8383512440869
  0
LINE
  5
1A5
330
C9
100
AcDbEntity
  8
Standardebene
 62
     7
370
    35
100
AcDbLine
 10
276.8749484402045
 20
226.0235145770408
 30
0.0
 11
274.7454556207369
 21
226.0235145770408
 31
0.0
  0
LINE
  5
1A6
330
C9
100
AcDbEntity
  8
Standardebene
 62
     7
370
    35
100
AcDbLine
 10
255.8750704554541
 20
245.0221824422912
 30
0.0
 11
276.8749484402045
 21
245.0221824422912
 31
0.0
  0
LINE
  5
1A7
330
C9
100
AcDbEntity
  8
Standardebene
 62
     7
370
    35
100
AcDbLine
 10
319.8753094694544
 20
220.0391266235368
 30
0.0
 11
319.8753094694544
 21
207.0248467117905
 31
0.0
  0
LINE
  5
1A8
330
C9
100
AcDbEntity
  8
Standardebene
 62
     7
370
    35
100
AcDbLine
 10
258.9795117946785
 20
207.0248467117905
 30
0.0
 11
319.8753094694544
 21
207.0248467117905
 31
0.0
  0
LINE
  5
1A9
330
C9
100
AcDbEntity
  8
Standardebene
 62
     7
370
    35
100
AcDbLine
 10
278.8761585597042
 20
210.0202477560415
 30
0.0
 11
260.7113282442454
 21
210.0202477560415
 31
0.0
  0
LINE
  5
1AA
330
C9
100
AcDbEntity
  8
Standardebene
 62
     7
370
    35
100
AcDbLine
 10
278.8761585597042
 20
213.0797901502766
 30
0.0
 11
278.8761585597042
 21
210.0202477560415
 31
0.0
  0
LWPOLYLINE
  5
1AB
330
C9
100
AcDbEntity
  8
Standardebene
 62
     7
370
    35
100
AcDbPolyline
 90
       13
 70
     0
 43
0.0
 10
278.8761585597042
 20
213.0797901502766
 10
281.4225701540671
 20
212.7847399403504
 10
283.988224153426
 20
212.6179724303923
 10
286.5538781527849
 20
212.5923158903985
 10
289.1195321521431
 20
212.6885279153743
 10
291.6787720165036
 20
212.9258509103153
 10
294.2187694758681
 20
213.2850424702254
 10
296.739524530238
 20
213.7789308651019
 10
299.2282089096157
 20
214.4011019599463
 10
301.684822614002
 20
215.1515557547587
 10
304.1029515083976
 20
216.0238781145406
 10
306.4633531878074
 20
217.0244831742904
 10
278.8761585597042
 20
217.0244831742904
  0
LINE
  5
1AC
330
C9
100
AcDbEntity
  8
Standardebene
 62
     7
370
    35
100
AcDbLine
 10
278.8761585597042
 20
219.0192791587917
 30
0.0
 11
278.8761585597042
 21
217.0244831742904
 31
0.0
  0
LWPOLYLINE
  5
1AD
330
C9
100
AcDbEntity
  8
Standardebene
 62
     7
370
    35
100
AcDbPolyline
 90
        9
 70
     0
 43
0.0
 10
278.8761585597042
 20
219.0192791587917
 10
278.8056030747214
 20
220.0840255685258
 10
278.5939366197745
 20
221.1295295732643
 10
278.2475733298613
 20
222.1365487680126
 10
277.7665132049817
 20
223.0858407477753
 10
277.1635845151319
 20
223.9645772425556
 10
276.4516155303101
 20
224.7535158473582
 10
275.6434345205125
 20
225.4462424271851
 10
274.7454556207369
 20
226.0235145770408
  0
LINE
  5
1AE
330
C9
100
AcDbEntity
  8
Standardebene
 62
     7
370
    35
100
AcDbLine
 10
278.8761585597042
 20
213.0797901502766
 30
0.0
 11
278.8761585597042
 21
217.0244831742904
 31
0.0
  0
LINE
  5
1AF
330
C9
100
AcDbEntity
  8
Standardebene
 62
     7
370
    35
100
AcDbLine
 10
301.8772466639536
 20
245.0221824422912
 30
0.0
 11
285.8739798429546
 21
245.0221824422912
 31
0.0
  0
LINE
  5
1B0
330
C9
100
AcDbEntity
  8
Standardebene
 62
     7
370
    35
100
AcDbLine
 10
282.8721646637051
 20
245.0221824422912
 30
0.0
 11
281.8779737389537
 21
245.0221824422912
 31
0.0
  0
CIRCLE
  5
1B1
330
C9
100
AcDbEntity
  8
Standardebene
 62
     7
370
    35
100
AcDbCircle
 10
267.8759170374542
 20
219.5195816886668
 30
0.0
 40
3.899794079024919
  0
SPLINE
  5
1B2
330
C9
100
AcDbEntity
  8
Standardebene
 62
     7
370
    35
100
AcDbSpline
210
0.0
220
0.0
230
1.0
 70
     9
 71
     3
 72
    17
 73
    13
 74
     0
 42
0.0000000001
 43
0.0000000001
 40
0.0
 40
0.0
 40
0.0
 40
0.0
 40
1.0
 40
1.0
 40
1.0
 40
2.0
 40
2.0
 40
2.0
 40
3.0
 40
3.0
 40
3.0
 40
4.0
 40
4.0
 40
4.0
 40
4.0
 10
271.6730849565046
 20
219.5195816886669
 30
0.0
 10
271.6730849565046
 20
221.6234179681408
 30
0.0
 10
269.9733391819299
 20
223.3231637427159
 30
0.0
 10
267.8759170374544
 20
223.3231637427159
 30
0.0
 10
265.7784948929783
 20
223.3231637427159
 30
0.0
 10
264.0723349834051
 20
221.6234179681408
 30
0.0
 10
264.0723349834051
 20
219.5195816886669
 30
0.0
 10
264.0723349834051
 20
217.4221595441911
 30
0.0
 10
265.7784948929783
 20
215.722413769616
 30
0.0
 10
267.8759170374544
 20
215.722413769616
 30
0.0
 10
269.9733391819299
 20
215.722413769616
 30
0.0
 10
271.6730849565046
 20
217.4221595441911
 30
0.0
 10
271.6730849565046
 20
219.5195816886669
 30
0.0
  0
LWPOLYLINE
  5
1B3
330
C9
100
AcDbEntity
  8
Standardebene
 62
     7
370
    35
100
AcDbPolyline
 90
       25
 70
     0
 43
0.0
 10
273.828234315966
 20
223.0152852627929
 10
273.4626286210574
 20
223.2205375827414
 10
273.0970229261489
 20
223.4322040376885
 10
273.0072250361715
 20
223.4899312526741
 10
272.9174271461935
 20
223.5412443326612
 10
272.8212151212177
 20
223.5925574126486
 10
272.7314172312404
 20
223.6502846276342
 10
272.5454073162865
 20
223.7529107876084
 10
272.3593974013334
 20
223.861951082581
 10
271.9873775714264
 20
224.0736175375283
 10
271.6217718765178
 20
224.2852839924752
 10
271.2497520466109
 20
224.5033645824208
 10
270.8777322167039
 20
224.715031037368
 10
270.4992982517985
 20
224.9331116273133
 10
270.1272784218915
 20
225.1511922172589
 10
270.0310663969151
 20
225.202505297246
 10
269.9348543719393
 20
225.2602325122316
 10
269.8450564819619
 20
225.3115455922187
 10
269.7488444569861
 20
225.3692728072042
 10
269.5628345420323
 20
225.4783131021769
 10
269.3768246270792
 20
225.5809392621515
 10
269.0112189321699
 20
225.7926057170983
 10
268.6456132372614
 20
226.0042721720455
 10
268.2864216773513
 20
226.2159386269928
 10
267.9272301174412
 20
226.4211909469412
  0
SPLINE
  5
1B4
330
C9
100
AcDbEntity
  8
Standardebene
 62
     7
370
    35
100
AcDbSpline
210
0.0
220
0.0
230
1.0
 70
     8
 71
     3
 72
     8
 73
     4
 74
     0
 42
0.0000000001
 43
0.0000000001
 40
0.0
 40
0.0
 40
0.0
 40
0.0
 40
1.0
 40
1.0
 40
1.0
 40
1.0
 10
273.873133260955
 20
222.9319015078136
 30
0.0
 10
273.8603049909581
 20
222.9575580478073
 30
0.0
 10
273.8410625859629
 20
222.9896287227992
 30
0.0
 10
273.828234315966
 20
223.0152852627929
 30
0.0
  0
LWPOLYLINE
  5
1B5
330
C9
100
AcDbEntity
  8
Standardebene
 62
     7
370
    35
100
AcDbPolyline
 90
       17
 70
     0
 43
0.0
 10
273.873133260955
 20
216.1136760045183
 10
273.873133260955
 20
216.953927689308
 10
273.873133260955
 20
217.8005935090965
 10
273.873133260955
 20
218.2239264189906
 10
273.873133260955
 20
218.6536734638831
 10
273.873133260955
 20
219.0834205087756
 10
273.873133260955
 20
219.5131675536684
 10
273.873133260955
 20
219.6222078486411
 10
273.873133260955
 20
219.7312481436138
 10
273.873133260955
 20
219.8402884385864
 10
273.873133260955
 20
219.9493287335594
 10
273.873133260955
 20
220.1674093235047
 10
273.873133260955
 20
220.3854899134503
 10
273.873133260955
 20
220.8152369583429
 10
273.873133260955
 20
221.238569868237
 10
273.873133260955
 20
222.0916498230236
 10
273.873133260955
 20
222.9319015078136
  0
SPLINE
  5
1B6
330
C9
100
AcDbEntity
  8
Standardebene
 62
     7
370
    35
100
AcDbSpline
210
0.0
220
0.0
230
1.0
 70
     8
 71
     3
 72
     8
 73
     4
 74
     0
 42
0.0000000001
 43
0.0000000001
 40
0.0
 40
0.0
 40
0.0
 40
0.0
 40
1.0
 40
1.0
 40
1.0
 40
1.0
 10
273.828234315966
 20
216.030292249539
 30
0.0
 10
273.8410625859629
 20
216.0623629245311
 30
0.0
 10
273.8603049909581
 20
216.0880194645245
 30
0.0
 10
273.873133260955
 20
216.1136760045183
 30
0.0
  0
LWPOLYLINE
  5
1B7
330
C9
100
AcDbEntity
  8
Standardebene
 62
     7
370
    35
100
AcDbPolyline
 90
       17
 70
     0
 43
0.0
 10
267.9272301174412
 20
212.6243865653907
 10
268.6520273722599
 20
213.0413053402863
 10
269.3832387620775
 20
213.4646382501804
 10
269.7488444569861
 20
213.6763047051276
 10
270.1208642868931
 20
213.8879711600745
 10
270.4928841168
 20
214.1060517500202
 10
270.8713180817055
 20
214.3241323399655
 10
270.9611159716828
 20
214.3754454199529
 10
271.0573279966586
 20
214.4331726349384
 10
271.1535400216344
 20
214.4844857149255
 10
271.2433379116125
 20
214.5422129299111
 10
271.435761961564
 20
214.6512532248838
 10
271.6217718765178
 20
214.7538793848583
 10
271.9937917064248
 20
214.9719599748036
 10
272.3658115363317
 20
215.1836264297508
 10
273.0970229261489
 20
215.6069593396449
 10
273.828234315966
 20
216.030292249539
  0
SPLINE
  5
1B8
330
C9
100
AcDbEntity
  8
Standardebene
 62
     7
370
    35
100
AcDbSpline
210
0.0
220
0.0
230
1.0
 70
    24
 71
     3
 72
     8
 73
     4
 74
     0
 42
0.0000000001
 43
0.0000000001
 40
0.0
 40
0.0
 40
0.0
 40
0.0
 40
1.0
 40
1.0
 40
1.0
 40
1.0
 10
267.8246039574669
 20
212.6243865653907
 30
0.0
 10
267.8630887674575
 20
212.6243865653907
 30
0.0
 10
267.895159442449
 20
212.6243865653907
 30
0.0
 10
267.9272301174412
 20
212.6243865653907
 30
0.0
  0
LWPOLYLINE
  5
1B9
330
C9
100
AcDbEntity
  8
Standardebene
 62
     7
370
    35
100
AcDbPolyline
 90
       25
 70
     0
 43
0.0
 10
267.8246039574669
 20
212.6243865653907
 10
267.4654123975568
 20
212.8296388853391
 10
267.0998067026483
 20
213.0413053402863
 10
267.0035946776725
 20
213.0926184202734
 10
266.9137967876945
 20
213.150345635259
 10
266.8239988977171
 20
213.2016587152461
 10
266.7277868727413
 20
213.2529717952332
 10
266.548191092786
 20
213.3620120902062
 10
266.3621811778328
 20
213.4646382501804
 10
265.9901613479258
 20
213.6827188401261
 10
265.6181415180189
 20
213.8943852950729
 10
265.2461216881118
 20
214.1124658850185
 10
264.8741018582043
 20
214.3241323399655
 10
264.5020820282972
 20
214.5422129299111
 10
264.1236480633919
 20
214.7602935198564
 10
264.0338501734145
 20
214.8116065998438
 10
263.9376381484387
 20
214.8693338148294
 10
263.8414261234629
 20
214.9206468948165
 10
263.7516282334849
 20
214.978374109802
 10
263.5656183185318
 20
215.0810002697763
 10
263.3796084035779
 20
215.1900405647492
 10
263.0075885736709
 20
215.4017070196961
 10
262.6419828787624
 20
215.6133734746433
 10
262.2827913188523
 20
215.8186257945921
 10
261.9235997589421
 20
216.030292249539
  0
SPLINE
  5
1BA
330
C9
100
AcDbEntity
  8
Standardebene
 62
     7
370
    35
100
AcDbSpline
210
0.0
220
0.0
230
1.0
 70
     8
 71
     3
 72
     8
 73
     4
 74
     0
 42
0.0000000001
 43
0.0000000001
 40
0.0
 40
0.0
 40
0.0
 40
0.0
 40
1.0
 40
1.0
 40
1.0
 40
1.0
 10
261.8722866789547
 20
216.1136760045183
 30
0.0
 10
261.89152908395
 20
216.0816053295261
 30
0.0
 10
261.9107714889453
 20
216.0559487895327
 30
0.0
 10
261.9235997589421
 20
216.030292249539
 30
0.0
  0
LWPOLYLINE
  5
1BB
330
C9
100
AcDbEntity
  8
Standardebene
 62
     7
370
    35
100
AcDbPolyline
 90
       17
 70
     0
 43
0.0
 10
261.8722866789547
 20
222.9319015078136
 10
261.8722866789547
 20
222.0916498230236
 10
261.8722866789547
 20
221.2449840032354
 10
261.8722866789547
 20
220.8216510933413
 10
261.8722866789547
 20
220.3919040484488
 10
261.8722866789547
 20
219.962157003556
 10
261.8722866789547
 20
219.5324099586634
 10
261.8722866789547
 20
219.4233696636907
 10
261.8722866789547
 20
219.3143293687181
 10
261.8722866789547
 20
219.2052890737455
 10
261.8722866789547
 20
219.0962487787725
 10
261.8722866789547
 20
218.8781681888272
 10
261.8722866789547
 20
218.6600875988815
 10
261.8722866789547
 20
218.230340553989
 10
261.8722866789547
 20
217.8005935090965
 10
261.8722866789547
 20
216.953927689308
 10
261.8722866789547
 20
216.1136760045183
  0
SPLINE
  5
1BC
330
C9
100
AcDbEntity
  8
Standardebene
 62
     7
370
    35
100
AcDbSpline
210
0.0
220
0.0
230
1.0
 70
     8
 71
     3
 72
     8
 73
     4
 74
     0
 42
0.0000000001
 43
0.0000000001
 40
0.0
 40
0.0
 40
0.0
 40
0.0
 40
1.0
 40
1.0
 40
1.0
 40
1.0
 10
261.9235997589421
 20
223.0152852627929
 30
0.0
 10
261.9043573539469
 20
222.9832145878007
 30
0.0
 10
261.89152908395
 20
222.9575580478073
 30
0.0
 10
261.8722866789547
 20
222.9319015078136
 30
0.0
  0
LWPOLYLINE
  5
1BD
330
C9
100
AcDbEntity
  8
Standardebene
 62
     7
370
    35
100
AcDbPolyline
 90
       17
 70
     0
 43
0.0
 10
267.8246039574669
 20
226.4211909469412
 10
267.0998067026483
 20
226.0042721720455
 10
266.3685953128312
 20
225.5809392621515
 10
265.9965754829242
 20
225.3692728072042
 10
265.630969788015
 20
225.1511922172589
 10
265.2589499581081
 20
224.9395257623117
 10
264.8805159932027
 20
224.7214451723664
 10
264.7907181032253
 20
224.670132092379
 10
264.6945060782495
 20
224.6124048773934
 10
264.5982940532737
 20
224.5610917974063
 10
264.5020820282972
 20
224.5033645824208
 10
264.3160721133441
 20
224.3943242874481
 10
264.1300621983903
 20
224.2852839924752
 10
263.7580423684833
 20
224.0736175375283
 10
263.3860225385764
 20
223.861951082581
 10
262.6548111487592
 20
223.4322040376885
 10
261.9235997589421
 20
223.0152852627929
  0
SPLINE
  5
1BE
330
C9
100
AcDbEntity
  8
Standardebene
 62
     7
370
    35
100
AcDbSpline
210
0.0
220
0.0
230
1.0
 70
    24
 71
     3
 72
     8
 73
     4
 74
     0
 42
0.0000000001
 43
0.0000000001
 40
0.0
 40
0.0
 40
0.0
 40
0.0
 40
1.0
 40
1.0
 40
1.0
 40
1.0
 10
267.9272301174412
 20
226.4211909469412
 30
0.0
 10
267.8887453074506
 20
226.4211909469412
 30
0.0
 10
267.8566746324591
 20
226.4211909469412
 30
0.0
 10
267.8246039574669
 20
226.4211909469412
 30
0.0
  0
SPLINE
  5
1BF
330
C9
100
AcDbEntity
  8
Standardebene
 62
     7
370
    35
100
AcDbSpline
210
0.0
220
0.0
230
1.0
 70
    11
 71
     3
 72
    17
 73
    13
 74
     0
 42
0.0000000001
 43
0.0000000001
 40
0.0
 40
0.0
 40
0.0
 40
0.0
 40
1.0
 40
1.0
 40
1.0
 40
2.0
 40
2.0
 40
2.0
 40
3.0
 40
3.0
 40
3.0
 40
4.0
 40
4.0
 40
4.0
 40
4.0
 10
273.7769212359785
 20
219.5195816886669
 30
0.0
 10
273.7769212359785
 20
222.7779622678523
 30
0.0
 10
271.1342976166398
 20
225.4205858871913
 30
0.0
 10
267.8759170374544
 20
225.4205858871913
 30
0.0
 10
264.617536458269
 20
225.4205858871913
 30
0.0
 10
261.9749128389296
 20
222.7779622678523
 30
0.0
 10
261.9749128389296
 20
219.5195816886669
 30
0.0
 10
261.9749128389296
 20
216.2612011094811
 30
0.0
 10
264.617536458269
 20
213.6249916251405
 30
0.0
 10
267.8759170374544
 20
213.6249916251405
 30
0.0
 10
271.1342976166398
 20
213.6249916251405
 30
0.0
 10
273.7769212359785
 20
216.2612011094811
 30
0.0
 10
273.7769212359785
 20
219.5195816886669
 30
0.0
  0
LINE
  5
1C0
330
C9
100
AcDbEntity
  8
Standardebene
 62
     7
370
    35
100
AcDbLine
 10
247.3763415825789
 20
232.5210333304163
 30
0.0
 11
246.876039052704
 21
232.0207308005414
 31
0.0
  0
LINE
  5
1C1
330
C9
100
AcDbEntity
  8
Standardebene
 62
     7
370
    35
100
AcDbLine
 10
246.876039052704
 20
211.0208528157914
 30
0.0
 11
247.3763415825789
 21
210.5205502859165
 31
0.0
  0
LWPOLYLINE
  5
1C2
330
C9
100
AcDbEntity
  8
Standardebene
 62
     7
370
    35
100
AcDbPolyline
 90
       16
 70
     0
 43
0.0
 10
246.876039052704
 20
215.7801409846015
 10
246.876039052704
 20
217.0950386592728
 10
246.876039052704
 20
218.4997342239217
 10
246.876039052704
 20
219.962157003556
 10
246.876039052704
 20
221.463064593181
 10
246.876039052704
 20
222.9639721828058
 10
246.876039052704
 20
224.4328090974384
 10
246.876039052704
 20
225.8439187970858
 10
246.876039052704
 20
227.1652306067555
 10
246.876039052704
 20
228.3775021214522
 10
246.876039052704
 20
229.442248531186
 10
246.876039052704
 20
230.34664156596
 10
246.876039052704
 20
231.0650246857802
 10
246.876039052704
 20
231.5909837556489
 10
246.876039052704
 20
231.9116905055687
 10
246.876039052704
 20
232.0207308005414
  0
LWPOLYLINE
  5
1C3
330
C9
100
AcDbEntity
  8
Standardebene
 62
     7
370
    35
100
AcDbPolyline
 90
        8
 70
     0
 43
0.0
 10
246.876039052704
 20
211.0208528157914
 10
246.876039052704
 20
211.129893110764
 10
246.876039052704
 20
211.4441857256855
 10
246.876039052704
 20
211.9573165255573
 10
246.876039052704
 20
212.662871375381
 10
246.876039052704
 20
213.5480220051597
 10
246.876039052704
 20
214.5935260098982
 10
246.876039052704
 20
215.7801409846015
  0
LWPOLYLINE
  5
1C4
330
C9
100
AcDbEntity
  8
Standardebene
 62
     7
370
    35
100
AcDbPolyline
 90
        8
 70
     0
 43
0.0
 10
247.3763415825789
 20
215.5043331796707
 10
247.3763415825789
 20
214.2664051249799
 10
247.3763415825789
 20
213.1695880402543
 10
247.3763415825789
 20
212.2395384654868
 10
247.3763415825789
 20
211.501912940671
 10
247.3763415825789
 20
210.9631256008058
 10
247.3763415825789
 20
210.6295905808891
 10
247.3763415825789
 20
210.5205502859165
  0
LWPOLYLINE
  5
1C5
330
C9
100
AcDbEntity
  8
Standardebene
 62
     7
370
    35
100
AcDbPolyline
 90
       16
 70
     0
 43
0.0
 10
247.3763415825789
 20
232.5210333304163
 10
247.3763415825789
 20
232.4119930354437
 10
247.3763415825789
 20
232.0720438805285
 10
247.3763415825789
 20
231.5204282706665
 10
247.3763415825789
 20
230.7635603408557
 10
247.3763415825789
 20
229.8206824960914
 10
247.3763415825789
 20
228.698208871372
 10
247.3763415825789
 20
227.4346242766879
 10
247.3763415825789
 20
226.0491711170342
 10
247.3763415825789
 20
224.5739200674032
 10
247.3763415825789
 20
223.0345276677879
 10
247.3763415825789
 20
221.463064593181
 10
247.3763415825789
 20
219.8916015185738
 10
247.3763415825789
 20
218.3522091189585
 10
247.3763415825789
 20
216.8833722043259
 10
247.3763415825789
 20
215.5043331796707
  0
LINE
  5
1C6
330
C9
100
AcDbEntity
  8
Standardebene
 62
     7
370
    35
100
AcDbLine
 10
247.3763415825789
 20
210.5205502859165
 30
0.0
 11
255.8750704554541
 21
210.5205502859165
 31
0.0
  0
LINE
  5
1C7
330
C9
100
AcDbEntity
  8
Standardebene
 62
     7
370
    35
100
AcDbLine
 10
255.8750704554541
 20
232.5210333304163
 30
0.0
 11
247.3763415825789
 21
232.5210333304163
 31
0.0
  0
LINE
  5
1C8
330
C9
100
AcDbEntity
  8
Standardebene
 62
     7
370
    35
100
AcDbLine
 10
122.0890426589005
 20
137.3031992792208
 30
0.0
 11
122.0890426589005
 21
140.2986003234719
 31
0.0
  0
LINE
  5
1C9
330
C9
100
AcDbEntity
  8
Standardebene
 62
     7
370
    35
100
AcDbLine
 10
122.0890426589005
 20
137.3031992792208
 30
0.0
 11
67.08783504765102
 21
137.3031992792208
 31
0.0
  0
LINE
  5
1CA
330
C9
100
AcDbEntity
  8
Standardebene
 62
     7
370
    35
100
AcDbLine
 10
67.08783504765102
 20
140.2986003234719
 30
0.0
 11
67.08783504765102
 21
137.3031992792208
 31
0.0
  0
LWPOLYLINE
  5
1CB
330
C9
100
AcDbEntity
  8
Standardebene
 62
     7
370
    35
100
AcDbPolyline
 90
        8
 70
     0
 43
0.0
 10
122.0890426589005
 20
140.2986003234719
 10
113.5903137860253
 20
140.2986003234719
 10
106.5860783677765
 20
140.2986003234719
 10
96.49022988030045
 20
140.2986003234719
 10
92.68664782625144
 20
140.2986003234719
 10
79.58898415952588
 20
140.2986003234719
 10
72.59116287627513
 20
140.2986003234719
 10
67.08783504765102
 20
140.2986003234719
  0
LWPOLYLINE
  5
1CC
330
C9
100
AcDbEntity
  8
Standardebene
 62
     7
370
    35
100
AcDbPolyline
 90
        3
 70
     0
 43
0.0
 10
174.2487884658606
 20
129.3047729362205
 10
174.2487884658606
 20
137.3031992792208
 10
174.2487884658606
 20
145.3016256222213
  0
LWPOLYLINE
  5
1CD
330
C9
100
AcDbEntity
  8
Standardebene
 62
     7
370
    35
100
AcDbPolyline
 90
        4
 70
     0
 43
0.0
 10
145.0901307631506
 20
167.3021086667212
 10
145.0901307631506
 20
119.3051364737199
 10
145.0901307631506
 20
103.301869652721
 10
82.5715569337801
 20
103.301869652721
  0
LINE
  5
1CE
330
C9
100
AcDbEntity
  8
Standardebene
 62
     7
370
    35
100
AcDbLine
 10
56.58789605527617
 20
118.3045314139701
 30
0.0
 11
82.5715569337801
 21
103.301869652721
 31
0.0
  0
SPLINE
  5
1CF
330
C9
100
AcDbEntity
  8
Standardebene
 62
     7
370
    35
100
AcDbSpline
210
0.0
220
0.0
230
1.0
 70
     8
 71
     3
 72
    11
 73
     7
 74
     0
 42
0.0000000001
 43
0.0000000001
 40
0.0
 40
0.0
 40
0.0
 40
0.0
 40
1.0
 40
1.0
 40
1.0
 40
2.0
 40
2.0
 40
2.0
 40
2.0
 10
127.5859563525262
 20
119.3051364737199
 30
0.0
 10
127.5859563525262
 20
114.8857974598252
 30
0.0
 10
131.1714578166302
 20
111.3002959957212
 30
0.0
 10
135.5907968305249
 20
111.3002959957212
 30
0.0
 10
140.0037217094218
 20
111.3002959957212
 30
0.0
 10
143.5892231735258
 20
114.8857974598252
 30
0.0
 10
143.5892231735258
 20
119.3051364737199
 30
0.0
  0
LINE
  5
1D0
330
C9
100
AcDbEntity
  8
Standardebene
 62
     7
370
    35
100
AcDbLine
 10
143.5892231735258
 20
119.3051364737199
 30
0.0
 11
143.5892231735258
 21
143.3004155027213
 31
0.0
  0
SPLINE
  5
1D1
330
C9
100
AcDbEntity
  8
Standardebene
 62
     7
370
    35
100
AcDbSpline
210
0.0
220
0.0
230
1.0
 70
     8
 71
     3
 72
    11
 73
     7
 74
     0
 42
0.0000000001
 43
0.0000000001
 40
0.0
 40
0.0
 40
0.0
 40
0.0
 40
1.0
 40
1.0
 40
1.0
 40
2.0
 40
2.0
 40
2.0
 40
2.0
 10
143.5892231735258
 20
143.3004155027213
 30
0.0
 10
143.5892231735258
 20
147.7197545166167
 30
0.0
 10
140.0037217094218
 20
151.2988418457219
 30
0.0
 10
135.5907968305249
 20
151.2988418457219
 30
0.0
 10
131.1714578166302
 20
151.2988418457219
 30
0.0
 10
127.5859563525262
 20
147.7197545166167
 30
0.0
 10
127.5859563525262
 20
143.3004155027213
 30
0.0
  0
LINE
  5
1D2
330
C9
100
AcDbEntity
  8
Standardebene
 62
     7
370
    35
100
AcDbLine
 10
64.58632239827643
 20
141.2992053832217
 30
0.0
 11
64.58632239827643
 21
146.3022306819712
 31
0.0
  0
LWPOLYLINE
  5
1D3
330
C9
100
AcDbEntity
  8
Standardebene
 62
     7
370
    35
100
AcDbPolyline
 90
        6
 70
     0
 43
0.0
 10
100.9608819741829
 20
167.3021086667212
 10
90.56998327678069
 20
161.3048924432203
 10
90.48659952180143
 20
161.2535793632332
 10
87.77342041747962
 20
159.6885304236245
 10
87.58741050252615
 20
159.5794901286518
 10
64.58632239827643
 20
146.3022306819712
  0
LWPOLYLINE
  5
1D4
330
C9
100
AcDbEntity
  8
Standardebene
 62
     7
370
    35
100
AcDbPolyline
 90
        4
 70
     0
 43
0.0
 10
145.0901307631506
 20
167.3021086667212
 10
142.088315583901
 20
167.3021086667212
 10
120.0878325394008
 20
167.3021086667212
 10
100.9608819741829
 20
167.3021086667212
  0
SPLINE
  5
1D5
330
C9
100
AcDbEntity
  8
Standardebene
 62
     7
370
    35
100
AcDbSpline
210
0.0
220
0.0
230
1.0
 70
     9
 71
     3
 72
    17
 73
    13
 74
     0
 42
0.0000000001
 43
0.0000000001
 40
0.0
 40
0.0
 40
0.0
 40
0.0
 40
1.0
 40
1.0
 40
1.0
 40
2.0
 40
2.0
 40
2.0
 40
3.0
 40
3.0
 40
3.0
 40
4.0
 40
4.0
 40
4.0
 40
4.0
 10
82.68701136375119
 20
115.8030187645955
 30
0.0
 10
82.68701136375119
 20
116.9639771993054
 30
0.0
 10
81.75054765398533
 20
117.9004409090716
 30
0.0
 10
80.58958921927573
 20
117.9004409090716
 30
0.0
 10
79.42863078456579
 20
117.9004409090716
 30
0.0
 10
78.4857529398015
 20
116.9639771993054
 30
0.0
 10
78.4857529398015
 20
115.8030187645955
 30
0.0
 10
78.4857529398015
 20
114.6420603298862
 30
0.0
 10
79.42863078456579
 20
113.6991824851216
 30
0.0
 10
80.58958921927573
 20
113.6991824851216
 30
0.0
 10
81.75054765398533
 20
113.6991824851216
 30
0.0
 10
82.68701136375119
 20
114.6420603298862
 30
0.0
 10
82.68701136375119
 20
115.8030187645955
 30
0.0
  0
SPLINE
  5
1D6
330
C9
100
AcDbEntity
  8
Standardebene
 62
     7
370
    35
100
AcDbSpline
210
0.0
220
0.0
230
1.0
 70
     9
 71
     3
 72
    17
 73
    13
 74
     0
 42
0.0000000001
 43
0.0000000001
 40
0.0
 40
0.0
 40
0.0
 40
0.0
 40
1.0
 40
1.0
 40
1.0
 40
2.0
 40
2.0
 40
2.0
 40
3.0
 40
3.0
 40
3.0
 40
4.0
 40
4.0
 40
4.0
 40
4.0
 10
86.68943160275086
 20
146.8025332118461
 30
0.0
 10
86.68943160275086
 20
147.9634916465557
 30
0.0
 10
85.74655375798656
 20
148.8999553563216
 30
0.0
 10
84.58559532327663
 20
148.8999553563216
 30
0.0
 10
83.43105102356545
 20
148.8999553563216
 30
0.0
 10
82.48817317880115
 20
147.9634916465557
 30
0.0
 10
82.48817317880115
 20
146.8025332118461
 30
0.0
 10
82.48817317880115
 20
145.6415747771362
 30
0.0
 10
83.43105102356545
 20
144.7051110673703
 30
0.0
 10
84.58559532327663
 20
144.7051110673703
 30
0.0
 10
85.74655375798656
 20
144.7051110673703
 30
0.0
 10
86.68943160275086
 20
145.6415747771362
 30
0.0
 10
86.68943160275086
 20
146.8025332118461
 30
0.0
  0
SPLINE
  5
1D7
330
C9
100
AcDbEntity
  8
Standardebene
 62
     7
370
    35
100
AcDbSpline
210
0.0
220
0.0
230
1.0
 70
     9
 71
     3
 72
    17
 73
    13
 74
     0
 42
0.0000000001
 43
0.0000000001
 40
0.0
 40
0.0
 40
0.0
 40
0.0
 40
1.0
 40
1.0
 40
1.0
 40
2.0
 40
2.0
 40
2.0
 40
3.0
 40
3.0
 40
3.0
 40
4.0
 40
4.0
 40
4.0
 40
4.0
 10
120.69076122925
 20
115.8030187645955
 30
0.0
 10
120.69076122925
 20
116.9639771993054
 30
0.0
 10
119.747883384486
 20
117.9004409090716
 30
0.0
 10
118.5869249497761
 20
117.9004409090716
 30
0.0
 10
117.4259665150662
 20
117.9004409090716
 30
0.0
 10
116.4895028053006
 20
116.9639771993054
 30
0.0
 10
116.4895028053006
 20
115.8030187645955
 30
0.0
 10
116.4895028053006
 20
114.6420603298862
 30
0.0
 10
117.4259665150662
 20
113.6991824851216
 30
0.0
 10
118.5869249497761
 20
113.6991824851216
 30
0.0
 10
119.747883384486
 20
113.6991824851216
 30
0.0
 10
120.69076122925
 20
114.6420603298862
 30
0.0
 10
120.69076122925
 20
115.8030187645955
 30
0.0
  0
SPLINE
  5
1D8
330
C9
100
AcDbEntity
  8
Standardebene
 62
     7
370
    35
100
AcDbSpline
210
0.0
220
0.0
230
1.0
 70
     9
 71
     3
 72
    17
 73
    13
 74
     0
 42
0.0000000001
 43
0.0000000001
 40
0.0
 40
0.0
 40
0.0
 40
0.0
 40
1.0
 40
1.0
 40
1.0
 40
2.0
 40
2.0
 40
2.0
 40
3.0
 40
3.0
 40
3.0
 40
4.0
 40
4.0
 40
4.0
 40
4.0
 10
120.69076122925
 20
146.8025332118461
 30
0.0
 10
120.69076122925
 20
147.9634916465557
 30
0.0
 10
119.747883384486
 20
148.8999553563216
 30
0.0
 10
118.5869249497761
 20
148.8999553563216
 30
0.0
 10
117.4259665150662
 20
148.8999553563216
 30
0.0
 10
116.4895028053006
 20
147.9634916465557
 30
0.0
 10
116.4895028053006
 20
146.8025332118461
 30
0.0
 10
116.4895028053006
 20
145.6415747771362
 30
0.0
 10
117.4259665150662
 20
144.7051110673703
 30
0.0
 10
118.5869249497761
 20
144.7051110673703
 30
0.0
 10
119.747883384486
 20
144.7051110673703
 30
0.0
 10
120.69076122925
 20
145.6415747771362
 30
0.0
 10
120.69076122925
 20
146.8025332118461
 30
0.0
  0
SPLINE
  5
1D9
330
C9
100
AcDbEntity
  8
Standardebene
 62
     7
370
    35
100
AcDbSpline
210
0.0
220
0.0
230
1.0
 70
     9
 71
     3
 72
    17
 73
    13
 74
     0
 42
0.0000000001
 43
0.0000000001
 40
0.0
 40
0.0
 40
0.0
 40
0.0
 40
1.0
 40
1.0
 40
1.0
 40
2.0
 40
2.0
 40
2.0
 40
3.0
 40
3.0
 40
3.0
 40
4.0
 40
4.0
 40
4.0
 40
4.0
 10
89.68483264700195
 20
116.8036238243453
 30
0.0
 10
89.68483264700195
 20
117.9645822590553
 30
0.0
 10
88.74836893723609
 20
118.9010459688214
 30
0.0
 10
87.58741050252615
 20
118.9010459688214
 30
0.0
 10
86.42645206781654
 20
118.9010459688214
 30
0.0
 10
85.48998835805068
 20
117.9645822590553
 30
0.0
 10
85.48998835805068
 20
116.8036238243453
 30
0.0
 10
85.48998835805068
 20
115.642665389636
 30
0.0
 10
86.42645206781654
 20
114.6997875448714
 30
0.0
 10
87.58741050252615
 20
114.6997875448714
 30
0.0
 10
88.74836893723609
 20
114.6997875448714
 30
0.0
 10
89.68483264700195
 20
115.642665389636
 30
0.0
 10
89.68483264700195
 20
116.8036238243453
 30
0.0
  0
LWPOLYLINE
  5
1DA
330
C9
100
AcDbEntity
  8
Standardebene
 62
     7
370
    35
100
AcDbPolyline
 90
        3
 70
     0
 43
0.0
 10
56.58789605527617
 20
121.2999324582212
 10
64.58632239827643
 20
121.2999324582212
 10
127.5859563525262
 20
121.2999324582212
  0
LINE
  5
1DB
330
C9
100
AcDbEntity
  8
Standardebene
 62
     7
370
    35
100
AcDbLine
 10
127.5859563525262
 20
141.2992053832217
 30
0.0
 11
127.5859563525262
 21
143.3004155027213
 31
0.0
  0
LINE
  5
1DC
330
C9
100
AcDbEntity
  8
Standardebene
 62
     7
370
    35
100
AcDbLine
 10
127.5859563525262
 20
119.3051364737199
 30
0.0
 11
127.5859563525262
 21
121.2999324582212
 31
0.0
  0
LWPOLYLINE
  5
1DD
330
C9
100
AcDbEntity
  8
Standardebene
 62
     7
370
    35
100
AcDbPolyline
 90
        8
 70
     0
 43
0.0
 10
127.5859563525262
 20
141.2992053832217
 10
114.5909188457752
 20
141.2992053832217
 10
105.5854733080266
 20
141.2992053832217
 10
96.49022988030045
 20
141.2992053832217
 10
92.68664782625144
 20
141.2992053832217
 10
80.58958921927573
 20
141.2992053832217
 10
71.59055781652529
 20
141.2992053832217
 10
64.58632239827643
 20
141.2992053832217
  0
LINE
  5
1DE
330
C9
100
AcDbEntity
  8
Standardebene
 62
     7
370
    35
100
AcDbLine
 10
56.58789605527617
 20
121.2999324582212
 30
0.0
 11
56.58789605527617
 21
118.3045314139701
 31
0.0
  0
LINE
  5
1DF
330
C9
100
AcDbEntity
  8
Standardebene
 62
     7
370
    35
100
AcDbLine
 10
151.5876495165261
 20
167.3021086667212
 30
0.0
 11
151.5876495165261
 21
103.301869652721
 31
0.0
  0
LINE
  5
1E0
330
C9
100
AcDbEntity
  8
Standardebene
 62
     7
370
    35
100
AcDbLine
 10
145.0901307631506
 20
103.301869652721
 30
0.0
 11
151.5876495165261
 21
103.301869652721
 31
0.0
  0
LINE
  5
1E1
330
C9
100
AcDbEntity
  8
Standardebene
 62
     7
370
    35
100
AcDbLine
 10
145.0901307631506
 20
167.3021086667212
 30
0.0
 11
151.5876495165261
 21
167.3021086667212
 31
0.0
  0
LWPOLYLINE
  5
1E2
330
C9
100
AcDbEntity
  8
Standardebene
 62
     7
370
    35
100
AcDbPolyline
 90
        3
 70
     0
 43
0.0
 10
173.6907587210005
 20
167.3021086667212
 10
173.6907587210005
 20
137.3031992792208
 10
173.6907587210005
 20
103.301869652721
  0
LINE
  5
1E3
330
C9
100
AcDbEntity
  8
Standardebene
 62
     7
370
    35
100
AcDbLine
 10
176.5899477402758
 20
167.3021086667212
 30
0.0
 11
176.5899477402758
 21
143.9546572725579
 31
0.0
  0
LWPOLYLINE
  5
1E4
330
C9
100
AcDbEntity
  8
Standardebene
 62
     7
370
    35
100
AcDbPolyline
 90
        3
 70
     0
 43
0.0
 10
176.5899477402758
 20
130.5106303159188
 10
176.5899477402758
 20
103.301869652721
 10
173.6907587210005
 20
103.301869652721
  0
LINE
  5
1E5
330
C9
100
AcDbEntity
  8
Standardebene
 62
     7
370
    35
100
AcDbLine
 10
176.5899477402758
 20
167.3021086667212
 30
0.0
 11
173.6907587210005
 21
167.3021086667212
 31
0.0
  0
SPLINE
  5
1E6
330
C9
100
AcDbEntity
  8
Standardebene
 62
     7
370
    35
100
AcDbSpline
210
0.0
220
0.0
230
1.0
 70
     9
 71
     3
 72
    17
 73
    13
 74
     0
 42
0.0000000001
 43
0.0000000001
 40
0.0
 40
0.0
 40
0.0
 40
0.0
 40
1.0
 40
1.0
 40
1.0
 40
2.0
 40
2.0
 40
2.0
 40
3.0
 40
3.0
 40
3.0
 40
4.0
 40
4.0
 40
4.0
 40
4.0
 10
168.8352585272145
 20
157.302472204221
 30
0.0
 10
168.8352585272145
 20
159.6500456136342
 30
0.0
 10
166.9366745676891
 20
161.5486295731593
 30
0.0
 10
164.5891011582755
 20
161.5486295731593
 30
0.0
 10
162.2415277488626
 20
161.5486295731593
 30
0.0
 10
160.3365296543387
 20
159.6500456136342
 30
0.0
 10
160.3365296543387
 20
157.302472204221
 30
0.0
 10
160.3365296543387
 20
154.954898794808
 30
0.0
 10
162.2415277488626
 20
153.0499007002842
 30
0.0
 10
164.5891011582755
 20
153.0499007002842
 30
0.0
 10
166.9366745676891
 20
153.0499007002842
 30
0.0
 10
168.8352585272145
 20
154.954898794808
 30
0.0
 10
168.8352585272145
 20
157.302472204221
 30
0.0
  0
LINE
  5
1E7
330
C9
100
AcDbEntity
  8
Standardebene
 62
     7
370
    35
100
AcDbLine
 10
151.5876495165261
 20
103.301869652721
 30
0.0
 11
173.6907587210005
 21
103.301869652721
 31
0.0
  0
LINE
  5
1E8
330
C9
100
AcDbEntity
  8
Standardebene
 62
     7
370
    35
100
AcDbLine
 10
151.5876495165261
 20
167.3021086667212
 30
0.0
 11
173.6907587210005
 21
167.3021086667212
 31
0.0
  0
LINE
  5
1E9
330
C9
100
AcDbEntity
  8
Standardebene
 62
     7
370
    35
100
AcDbLine
 10
64.58632239827643
 20
122.8008400478459
 30
0.0
 11
127.5859563525262
 21
122.8008400478459
 31
0.0
  0
LINE
  5
1EA
330
C9
100
AcDbEntity
  8
Standardebene
 62
     7
370
    35
100
AcDbLine
 10
64.58632239827643
 20
141.2992053832217
 30
0.0
 11
64.58632239827643
 21
122.8008400478459
 31
0.0
  0
LINE
  5
1EB
330
C9
100
AcDbEntity
  8
Standardebene
 62
     7
370
    35
100
AcDbLine
 10
127.5859563525262
 20
122.8008400478459
 30
0.0
 11
127.5859563525262
 21
141.2992053832217
 31
0.0
  0
LINE
  5
1EC
330
C9
100
AcDbEntity
  8
Standardebene
 62
     7
370
    35
100
AcDbLine
 10
64.58632239827643
 20
122.8008400478459
 30
0.0
 11
64.58632239827643
 21
121.2999324582212
 31
0.0
  0
LINE
  5
1ED
330
C9
100
AcDbEntity
  8
Standardebene
 62
     7
370
    35
100
AcDbLine
 10
127.5859563525262
 20
121.2999324582212
 30
0.0
 11
127.5859563525262
 21
122.8008400478459
 31
0.0
  0
LINE
  5
1EE
330
C9
100
AcDbEntity
  8
Standardebene
 62
     7
370
    35
100
AcDbLine
 10
87.64513771751168
 20
161.3048924432203
 30
0.0
 11
87.58741050252615
 21
161.2022662832461
 31
0.0
  0
LWPOLYLINE
  5
1EF
330
C9
100
AcDbEntity
  8
Standardebene
 62
     7
370
    35
100
AcDbPolyline
 90
        7
 70
     0
 43
0.0
 10
88.1646826523819
 20
161.3048924432203
 10
87.95301619743469
 20
161.3048924432203
 10
87.78624868747648
 20
161.3048924432203
 10
87.72852147249095
 20
161.3048924432203
 10
87.68362252750227
 20
161.3048924432203
 10
87.65796598750855
 20
161.3048924432203
 10
87.64513771751168
 20
161.3048924432203
  0
LWPOLYLINE
  5
1F0
330
C9
100
AcDbEntity
  8
Standardebene
 62
     7
370
    35
100
AcDbPolyline
 90
        3
 70
     0
 43
0.0
 10
88.1646826523819
 20
161.3048924432203
 10
88.1646826523819
 20
161.2792359032269
 10
88.1646826523819
 20
161.2535793632332
  0
LWPOLYLINE
  5
1F1
330
C9
100
AcDbEntity
  8
Standardebene
 62
     7
370
    35
100
AcDbPolyline
 90
        4
 70
     0
 43
0.0
 10
87.7670062824812
 20
159.6949445586229
 10
87.78624868747648
 20
159.7911565835987
 10
87.95301619743469
 20
160.5223679734161
 10
88.1646826523819
 20
161.2535793632332
  0
LWPOLYLINE
  5
1F2
330
C9
100
AcDbEntity
  8
Standardebene
 62
     7
370
    35
100
AcDbPolyline
 90
        5
 70
     0
 43
0.0
 10
87.58741050252615
 20
159.5794901286518
 10
87.58741050252615
 20
160.2722167084787
 10
87.58741050252615
 20
160.778933373352
 10
87.58741050252615
 20
161.0932259882734
 10
87.58741050252615
 20
161.2022662832461
  0
LINE
  5
1F3
330
C9
100
AcDbEntity
  8
Standardebene
 62
     7
370
    35
100
AcDbLine
 10
88.1646826523819
 20
161.2535793632332
 30
0.0
 11
90.48659952180143
 21
161.2535793632332
 31
0.0
  0
LINE
  5
1F4
330
C9
100
AcDbEntity
  8
Standardebene
 62
     7
370
    35
100
AcDbLine
 10
88.1646826523819
 20
161.3048924432203
 30
0.0
 11
90.56998327678069
 21
161.3048924432203
 31
0.0
  0
LINE
  5
1F5
330
C9
100
AcDbEntity
  8
Standardebene
 62
     7
370
    35
100
AcDbLine
 10
96.49022988030045
 20
140.2986003234719
 30
0.0
 11
96.49022988030045
 21
141.2992053832217
 31
0.0
  0
LINE
  5
1F6
330
C9
100
AcDbEntity
  8
Standardebene
 62
     7
370
    35
100
AcDbLine
 10
92.68664782625144
 20
141.2992053832217
 30
0.0
 11
92.68664782625144
 21
140.2986003234719
 31
0.0
  0
LINE
  5
1F7
330
C9
100
AcDbEntity
  8
Standardebene
 62
     7
370
    35
100
AcDbLine
 10
142.088315583901
 20
175.8008375395964
 30
0.0
 11
141.5880130540261
 21
176.3011400694713
 31
0.0
  0
LINE
  5
1F8
330
C9
100
AcDbEntity
  8
Standardebene
 62
     7
370
    35
100
AcDbLine
 10
120.5881350692758
 20
176.3011400694713
 30
0.0
 11
120.0878325394008
 21
175.8008375395964
 31
0.0
  0
LWPOLYLINE
  5
1F9
330
C9
100
AcDbEntity
  8
Standardebene
 62
     7
370
    35
100
AcDbPolyline
 90
       23
 70
     0
 43
0.0
 10
120.5881350692758
 20
176.3011400694713
 10
120.6971753642484
 20
176.3011400694713
 10
121.0114679791702
 20
176.3011400694713
 10
121.5374270490388
 20
176.3011400694713
 10
122.255810168859
 20
176.3011400694713
 10
123.1537890686347
 20
176.3011400694713
 10
124.2121213433697
 20
176.3011400694713
 10
125.4115645880702
 20
176.3011400694713
 10
126.7264622627412
 20
176.3011400694713
 10
128.1311578273901
 20
176.3011400694713
 10
129.5935806070243
 20
176.3011400694713
 10
131.0880740616506
 20
176.3011400694713
 10
132.582567516277
 20
176.3011400694713
 10
134.0449902959118
 20
176.3011400694713
 10
135.4496858605607
 20
176.3011400694713
 10
136.7645835352317
 20
176.3011400694713
 10
137.9640267799322
 20
176.3011400694713
 10
139.0223590546672
 20
176.3011400694713
 10
139.9203379544428
 20
176.3011400694713
 10
140.6387210742631
 20
176.3011400694713
 10
141.1646801441317
 20
176.3011400694713
 10
141.4789727590535
 20
176.3011400694713
 10
141.5880130540261
 20
176.3011400694713
  0
LWPOLYLINE
  5
1FA
330
C9
100
AcDbEntity
  8
Standardebene
 62
     7
370
    35
100
AcDbPolyline
 90
       25
 70
     0
 43
0.0
 10
142.088315583901
 20
175.8008375395964
 10
141.9856894239262
 20
175.8008375395964
 10
141.6778109440035
 20
175.8008375395964
 10
141.1775084141286
 20
175.8008375395964
 10
140.4847818343014
 20
175.8008375395964
 10
139.6188736095179
 20
175.8008375395964
 10
138.5990261447728
 20
175.8008375395964
 10
137.4316535750651
 20
175.8008375395964
 10
136.1488265753857
 20
175.8008375395964
 10
134.7697875507304
 20
175.8008375395964
 10
133.3266071760915
 20
175.8008375395964
 10
131.838527856463
 20
175.8008375395964
 10
130.3376202668382
 20
175.8008375395964
 10
128.8495409472104
 20
175.8008375395964
 10
127.4063605725715
 20
175.8008375395964
 10
126.0273215479162
 20
175.8008375395964
 10
124.7444945482368
 20
175.8008375395964
 10
123.5771219785284
 20
175.8008375395964
 10
122.5572745137833
 20
175.8008375395964
 10
121.6913662889998
 20
175.8008375395964
 10
120.9986397091733
 20
175.8008375395964
 10
120.4983371792984
 20
175.8008375395964
 10
120.1904586993751
 20
175.8008375395964
 10
120.0878325394008
 20
175.8008375395964
 10
120.0878325394008
 20
167.3021086667212
  0
LINE
  5
1FB
330
C9
100
AcDbEntity
  8
Standardebene
 62
     7
370
    35
100
AcDbLine
 10
142.088315583901
 20
167.3021086667212
 30
0.0
 11
142.088315583901
 21
175.8008375395964
 31
0.0
  0
ENDBLK
  5
CC
330
C9
100
AcDbEntity
  8
0
100
AcDbBlockEnd
  0
ENDSEC
  0
SECTION
  2
ENTITIES
  0
LWPOLYLINE
  5
79
330
70
100
AcDbEntity
  8
grau 10%
100
AcDbPolyline
 90
        4
 70
     1
 43
0.0
 10
181.6692966448897
 20
135.5004432285364
 10
180.1380909715137
 20
135.5004432285364
 10
180.1380909715137
 20
170.7632091771674
 10
181.6692966448897
 20
170.7632091771674
  0
HATCH
  5
7A
330
70
100
AcDbEntity
  8
grau 10%
 62
   255
440
 33554687
100
AcDbHatch
 10
0.0
 20
0.0
 30
0.0
210
0.0
220
0.0
230
1.0
  2
SOLID
 70
     1
 71
     1
 91
        1
 92
        1
 93
        4
 72
     1
 10
181.6692966448897
 20
135.5004432285364
 11
180.1380909715137
 21
135.5004432285364
 72
     1
 10
180.1380909715137
 20
135.5004432285364
 11
180.1380909715137
 21
170.7632091771674
 72
     1
 10
180.1380909715137
 20
170.7632091771674
 11
181.6692966448897
 21
170.7632091771674
 72
     1
 10
181.6692966448897
 20
170.7632091771674
 11
181.6692966448897
 21
135.5004432285364
 97
        1
330
79
 75
     0
 76
     1
 98
        1
 10
0.0
 20
0.0
450
        0
451
        0
460
0.0
461
0.0
452
        0
462
0.0
453
        0
470

  0
INSERT
  5
7D
330
70
100
AcDbEntity
  8
schlanke Pratze
100
AcDbBlockReference
  2
Block_0
 10
0.0
 20
0.0
 30
0.0
  0
INSERT
  5
91
330
70
100
AcDbEntity
  8
schlanke Pratze
100
AcDbBlockReference
  2
Block_3
 10
0.0
 20
0.0
 30
0.0
  0
INSERT
  5
C2
330
70
100
AcDbEntity
  8
Standardebene
100
AcDbBlockReference
  2
Block_6
 10
0.0
 20
0.0
 30
0.0
  0
LINE
  5
1FD
330
70
100
AcDbEntity
  8
Bemaßung
 62
     7
370
     9
100
AcDbLine
 10
120.2278572616095
 20
202.9096831567349
 30
0.0
 11
109.22648226436
 21
202.9096831567349
 31
0.0
  0
LINE
  5
1FE
330
70
100
AcDbEntity
  8
Bemaßung
 62
     7
370
     9
100
AcDbLine
 10
110.3266197640852
 20
197.4097717692204
 30
0.0
 11
110.3266197640852
 21
202.9096831567349
 31
0.0
  0
LWPOLYLINE
  5
1FF
330
70
100
AcDbEntity
  8
Bemaßung
 62
     7
370
     9
100
AcDbPolyline
 90
        4
 70
     0
 43
0.0
 10
110.3266197640852
 20
197.4097717692204
 10
110.5800200417991
 20
199.3349153798504
 10
110.0730254585926
 20
199.3349153798504
 10
110.3266197640852
 20
197.4097717692204
  0
LINE
  5
200
330
70
100
AcDbEntity
  8
Bemaßung
 62
     7
370
     9
100
AcDbLine
 10
110.5780797640221
 20
199.3349153798504
 30
0.0
 11
110.5780797640221
 21
199.319975240965
 31
0.0
  0
LINE
  5
201
330
70
100
AcDbEntity
  8
Bemaßung
 62
     7
370
     9
100
AcDbLine
 10
110.5780797640221
 20
199.3349153798504
 30
0.0
 11
110.5780797640221
 21
199.319975240965
 31
0.0
  0
LINE
  5
202
330
70
100
AcDbEntity
  8
Bemaßung
 62
     7
370
     9
100
AcDbLine
 10
110.5499457362517
 20
199.3349153798504
 30
0.0
 11
110.5499457362517
 21
199.1075148243515
 31
0.0
  0
LINE
  5
203
330
70
100
AcDbEntity
  8
Bemaßung
 62
     7
370
     9
100
AcDbLine
 10
110.5220057362586
 20
199.3349153798504
 30
0.0
 11
110.5220057362586
 21
198.8954424632936
 31
0.0
  0
LINE
  5
204
330
70
100
AcDbEntity
  8
Bemaßung
 62
     7
370
     9
100
AcDbLine
 10
110.4942597640429
 20
199.3349153798504
 30
0.0
 11
110.4942597640429
 21
198.6831760744577
 31
0.0
  0
LINE
  5
205
330
70
100
AcDbEntity
  8
Bemaßung
 62
     7
370
     9
100
AcDbLine
 10
110.4663197640498
 20
199.3349153798504
 30
0.0
 11
110.4663197640498
 21
198.4711037133995
 31
0.0
  0
LINE
  5
206
330
70
100
AcDbEntity
  8
Bemaßung
 62
     7
370
     9
100
AcDbLine
 10
110.4383797640568
 20
199.3349153798504
 30
0.0
 11
110.4383797640568
 21
198.258643296786
 31
0.0
  0
LINE
  5
207
330
70
100
AcDbEntity
  8
Bemaßung
 62
     7
370
     9
100
AcDbLine
 10
110.4102457362864
 20
199.3349153798504
 30
0.0
 11
110.4102457362864
 21
198.046570935728
 31
0.0
  0
LINE
  5
208
330
70
100
AcDbEntity
  8
Bemaßung
 62
     7
370
     9
100
AcDbLine
 10
110.3823057362933
 20
199.3349153798504
 30
0.0
 11
110.3823057362933
 21
197.8343045468921
 31
0.0
  0
LINE
  5
209
330
70
100
AcDbEntity
  8
Bemaßung
 62
     7
370
     9
100
AcDbLine
 10
110.3545597640782
 20
199.3349153798504
 30
0.0
 11
110.3545597640782
 21
197.6218441302786
 31
0.0
  0
LINE
  5
20A
330
70
100
AcDbEntity
  8
Bemaßung
 62
     7
370
     9
100
AcDbLine
 10
110.3266197640852
 20
199.3349153798504
 30
0.0
 11
110.3266197640852
 21
197.4097717692204
 31
0.0
  0
LINE
  5
20B
330
70
100
AcDbEntity
  8
Bemaßung
 62
     7
370
     9
100
AcDbLine
 10
110.0749657363703
 20
199.3349153798504
 30
0.0
 11
110.0749657363703
 21
199.319975240965
 31
0.0
  0
LINE
  5
20C
330
70
100
AcDbEntity
  8
Bemaßung
 62
     7
370
     9
100
AcDbLine
 10
110.0749657363703
 20
199.3349153798504
 30
0.0
 11
110.0749657363703
 21
199.319975240965
 31
0.0
  0
LINE
  5
20D
330
70
100
AcDbEntity
  8
Bemaßung
 62
     7
370
     9
100
AcDbLine
 10
110.1029057363634
 20
199.3349153798504
 30
0.0
 11
110.1029057363634
 21
199.1075148243515
 31
0.0
  0
LINE
  5
20E
330
70
100
AcDbEntity
  8
Bemaßung
 62
     7
370
     9
100
AcDbLine
 10
110.1308457363564
 20
199.3349153798504
 30
0.0
 11
110.1308457363564
 21
198.8954424632936
 31
0.0
  0
LINE
  5
20F
330
70
100
AcDbEntity
  8
Bemaßung
 62
     7
370
     9
100
AcDbLine
 10
110.1589797641268
 20
199.3349153798504
 30
0.0
 11
110.1589797641268
 21
198.6831760744577
 31
0.0
  0
LINE
  5
210
330
70
100
AcDbEntity
  8
Bemaßung
 62
     7
370
     9
100
AcDbLine
 10
110.1869197641199
 20
199.3349153798504
 30
0.0
 11
110.1869197641199
 21
198.4711037133995
 31
0.0
  0
LINE
  5
211
330
70
100
AcDbEntity
  8
Bemaßung
 62
     7
370
     9
100
AcDbLine
 10
110.214665736335
 20
199.3349153798504
 30
0.0
 11
110.214665736335
 21
198.258643296786
 31
0.0
  0
LINE
  5
212
330
70
100
AcDbEntity
  8
Bemaßung
 62
     7
370
     9
100
AcDbLine
 10
110.242605736328
 20
199.3349153798504
 30
0.0
 11
110.242605736328
 21
198.046570935728
 31
0.0
  0
LINE
  5
213
330
70
100
AcDbEntity
  8
Bemaßung
 62
     7
370
     9
100
AcDbLine
 10
110.2705457363211
 20
199.3349153798504
 30
0.0
 11
110.2705457363211
 21
197.8343045468921
 31
0.0
  0
LINE
  5
214
330
70
100
AcDbEntity
  8
Bemaßung
 62
     7
370
     9
100
AcDbLine
 10
110.2986797640921
 20
199.3349153798504
 30
0.0
 11
110.2986797640921
 21
197.6218441302786
 31
0.0
  0
LINE
  5
215
330
70
100
AcDbEntity
  8
Bemaßung
 62
     7
370
     9
100
AcDbLine
 10
110.3266197640852
 20
199.3349153798504
 30
0.0
 11
110.3266197640852
 21
197.4097717692204
 31
0.0
  0
LWPOLYLINE
  5
216
330
70
100
AcDbEntity
  8
Bemaßung
 62
     7
370
     9
100
AcDbPolyline
 90
        4
 70
     0
 43
0.0
 10
110.3266197640852
 20
202.9096831567349
 10
110.0730254585926
 20
200.9847335738825
 10
110.5800200417991
 20
200.9847335738825
 10
110.3266197640852
 20
202.9096831567349
  0
LINE
  5
217
330
70
100
AcDbEntity
  8
Bemaßung
 62
     7
370
     9
100
AcDbLine
 10
110.0749657363703
 20
200.9847335738825
 30
0.0
 11
110.0749657363703
 21
200.9996737127676
 31
0.0
  0
LINE
  5
218
330
70
100
AcDbEntity
  8
Bemaßung
 62
     7
370
     9
100
AcDbLine
 10
110.0749657363703
 20
200.9847335738825
 30
0.0
 11
110.0749657363703
 21
200.9996737127676
 31
0.0
  0
LINE
  5
219
330
70
100
AcDbEntity
  8
Bemaßung
 62
     7
370
     9
100
AcDbLine
 10
110.1029057363634
 20
200.9847335738825
 30
0.0
 11
110.1029057363634
 21
201.2119401016038
 31
0.0
  0
LINE
  5
21A
330
70
100
AcDbEntity
  8
Bemaßung
 62
     7
370
     9
100
AcDbLine
 10
110.1308457363564
 20
200.9847335738825
 30
0.0
 11
110.1308457363564
 21
201.4244005182173
 31
0.0
  0
LINE
  5
21B
330
70
100
AcDbEntity
  8
Bemaßung
 62
     7
370
     9
100
AcDbLine
 10
110.1589797641268
 20
200.9847335738825
 30
0.0
 11
110.1589797641268
 21
201.6364728792749
 31
0.0
  0
LINE
  5
21C
330
70
100
AcDbEntity
  8
Bemaßung
 62
     7
370
     9
100
AcDbLine
 10
110.1869197641199
 20
200.9847335738825
 30
0.0
 11
110.1869197641199
 21
201.8485452403332
 31
0.0
  0
LINE
  5
21D
330
70
100
AcDbEntity
  8
Bemaßung
 62
     7
370
     9
100
AcDbLine
 10
110.214665736335
 20
200.9847335738825
 30
0.0
 11
110.214665736335
 21
202.0608116291693
 31
0.0
  0
LINE
  5
21E
330
70
100
AcDbEntity
  8
Bemaßung
 62
     7
370
     9
100
AcDbLine
 10
110.242605736328
 20
200.9847335738825
 30
0.0
 11
110.242605736328
 21
202.2732720457829
 31
0.0
  0
LINE
  5
21F
330
70
100
AcDbEntity
  8
Bemaßung
 62
     7
370
     9
100
AcDbLine
 10
110.2705457363211
 20
200.9847335738825
 30
0.0
 11
110.2705457363211
 21
202.4853444068404
 31
0.0
  0
LINE
  5
220
330
70
100
AcDbEntity
  8
Bemaßung
 62
     7
370
     9
100
AcDbLine
 10
110.2986797640921
 20
200.9847335738825
 30
0.0
 11
110.2986797640921
 21
202.6974167678987
 31
0.0
  0
LINE
  5
221
330
70
100
AcDbEntity
  8
Bemaßung
 62
     7
370
     9
100
AcDbLine
 10
110.3266197640852
 20
200.9847335738825
 30
0.0
 11
110.3266197640852
 21
202.9096831567349
 31
0.0
  0
LINE
  5
222
330
70
100
AcDbEntity
  8
Bemaßung
 62
     7
370
     9
100
AcDbLine
 10
110.5780797640221
 20
200.9847335738825
 30
0.0
 11
110.5780797640221
 21
200.9996737127676
 31
0.0
  0
LINE
  5
223
330
70
100
AcDbEntity
  8
Bemaßung
 62
     7
370
     9
100
AcDbLine
 10
110.5780797640221
 20
200.9847335738825
 30
0.0
 11
110.5780797640221
 21
200.9996737127676
 31
0.0
  0
LINE
  5
224
330
70
100
AcDbEntity
  8
Bemaßung
 62
     7
370
     9
100
AcDbLine
 10
110.5499457362517
 20
200.9847335738825
 30
0.0
 11
110.5499457362517
 21
201.2119401016038
 31
0.0
  0
LINE
  5
225
330
70
100
AcDbEntity
  8
Bemaßung
 62
     7
370
     9
100
AcDbLine
 10
110.5220057362586
 20
200.9847335738825
 30
0.0
 11
110.5220057362586
 21
201.4244005182173
 31
0.0
  0
LINE
  5
226
330
70
100
AcDbEntity
  8
Bemaßung
 62
     7
370
     9
100
AcDbLine
 10
110.4942597640429
 20
200.9847335738825
 30
0.0
 11
110.4942597640429
 21
201.6364728792749
 31
0.0
  0
LINE
  5
227
330
70
100
AcDbEntity
  8
Bemaßung
 62
     7
370
     9
100
AcDbLine
 10
110.4663197640498
 20
200.9847335738825
 30
0.0
 11
110.4663197640498
 21
201.8485452403332
 31
0.0
  0
LINE
  5
228
330
70
100
AcDbEntity
  8
Bemaßung
 62
     7
370
     9
100
AcDbLine
 10
110.4383797640568
 20
200.9847335738825
 30
0.0
 11
110.4383797640568
 21
202.0608116291693
 31
0.0
  0
LINE
  5
229
330
70
100
AcDbEntity
  8
Bemaßung
 62
     7
370
     9
100
AcDbLine
 10
110.4102457362864
 20
200.9847335738825
 30
0.0
 11
110.4102457362864
 21
202.2732720457829
 31
0.0
  0
LINE
  5
22A
330
70
100
AcDbEntity
  8
Bemaßung
 62
     7
370
     9
100
AcDbLine
 10
110.3823057362933
 20
200.9847335738825
 30
0.0
 11
110.3823057362933
 21
202.4853444068404
 31
0.0
  0
LINE
  5
22B
330
70
100
AcDbEntity
  8
Bemaßung
 62
     7
370
     9
100
AcDbLine
 10
110.3545597640782
 20
200.9847335738825
 30
0.0
 11
110.3545597640782
 21
202.6974167678987
 31
0.0
  0
LINE
  5
22C
330
70
100
AcDbEntity
  8
Bemaßung
 62
     7
370
     9
100
AcDbLine
 10
110.3266197640852
 20
200.9847335738825
 30
0.0
 11
110.3266197640852
 21
202.9096831567349
 31
0.0
  0
LINE
  5
22D
330
70
100
AcDbEntity
  8
Bemaßung
 62
     7
370
     9
100
AcDbLine
 10
115.8276953182655
 20
206.4846449613964
 30
0.0
 11
103.7265708768462
 21
206.4846449613964
 31
0.0
  0
LINE
  5
22E
330
70
100
AcDbEntity
  8
Bemaßung
 62
     7
370
     9
100
AcDbLine
 10
104.8267083765713
 20
206.4846449613964
 30
0.0
 11
104.8267083765713
 21
197.4097717692204
 31
0.0
  0
LWPOLYLINE
  5
22F
330
70
100
AcDbEntity
  8
Bemaßung
 62
     7
370
     9
100
AcDbPolyline
 90
        4
 70
     0
 43
0.0
 10
104.8267083765713
 20
206.4846449613964
 10
104.5731140710788
 20
204.559889406322
 10
105.0801086542852
 20
204.559889406322
 10
104.8267083765713
 20
206.4846449613964
  0
LINE
  5
230
330
70
100
AcDbEntity
  8
Bemaßung
 62
     7
370
     9
100
AcDbLine
 10
104.5750543488564
 20
204.559889406322
 30
0.0
 11
104.5750543488564
 21
204.574829545207
 31
0.0
  0
LINE
  5
231
330
70
100
AcDbEntity
  8
Bemaßung
 62
     7
370
     9
100
AcDbLine
 10
104.5750543488564
 20
204.559889406322
 30
0.0
 11
104.5750543488564
 21
204.574829545207
 31
0.0
  0
LINE
  5
232
330
70
100
AcDbEntity
  8
Bemaßung
 62
     7
370
     9
100
AcDbLine
 10
104.6031883766268
 20
204.559889406322
 30
0.0
 11
104.6031883766268
 21
204.7869019062653
 31
0.0
  0
LINE
  5
233
330
70
100
AcDbEntity
  8
Bemaßung
 62
     7
370
     9
100
AcDbLine
 10
104.6309343488419
 20
204.559889406322
 30
0.0
 11
104.6309343488419
 21
204.9993623228791
 31
0.0
  0
LINE
  5
234
330
70
100
AcDbEntity
  8
Bemaßung
 62
     7
370
     9
100
AcDbLine
 10
104.659068376613
 20
204.559889406322
 30
0.0
 11
104.659068376613
 21
205.2116287117144
 31
0.0
  0
LINE
  5
235
330
70
100
AcDbEntity
  8
Bemaßung
 62
     7
370
     9
100
AcDbLine
 10
104.687008376606
 20
204.559889406322
 30
0.0
 11
104.687008376606
 21
205.4237010727726
 31
0.0
  0
LINE
  5
236
330
70
100
AcDbEntity
  8
Bemaßung
 62
     7
370
     9
100
AcDbLine
 10
104.7147543488211
 20
204.559889406322
 30
0.0
 11
104.7147543488211
 21
205.6357734338308
 31
0.0
  0
LINE
  5
237
330
70
100
AcDbEntity
  8
Bemaßung
 62
     7
370
     9
100
AcDbLine
 10
104.7428883765921
 20
204.559889406322
 30
0.0
 11
104.7428883765921
 21
205.8482338504447
 31
0.0
  0
LINE
  5
238
330
70
100
AcDbEntity
  8
Bemaßung
 62
     7
370
     9
100
AcDbLine
 10
104.7706343488072
 20
204.559889406322
 30
0.0
 11
104.7706343488072
 21
206.0605002392799
 31
0.0
  0
LINE
  5
239
330
70
100
AcDbEntity
  8
Bemaßung
 62
     7
370
     9
100
AcDbLine
 10
104.7985743488003
 20
204.559889406322
 30
0.0
 11
104.7985743488003
 21
206.2725726003385
 31
0.0
  0
LINE
  5
23A
330
70
100
AcDbEntity
  8
Bemaßung
 62
     7
370
     9
100
AcDbLine
 10
104.8267083765713
 20
204.559889406322
 30
0.0
 11
104.8267083765713
 21
206.4846449613964
 31
0.0
  0
LINE
  5
23B
330
70
100
AcDbEntity
  8
Bemaßung
 62
     7
370
     9
100
AcDbLine
 10
105.0779743487302
 20
204.559889406322
 30
0.0
 11
105.0779743487302
 21
204.574829545207
 31
0.0
  0
LINE
  5
23C
330
70
100
AcDbEntity
  8
Bemaßung
 62
     7
370
     9
100
AcDbLine
 10
105.0779743487302
 20
204.559889406322
 30
0.0
 11
105.0779743487302
 21
204.574829545207
 31
0.0
  0
LINE
  5
23D
330
70
100
AcDbEntity
  8
Bemaßung
 62
     7
370
     9
100
AcDbLine
 10
105.0502283765152
 20
204.559889406322
 30
0.0
 11
105.0502283765152
 21
204.7869019062653
 31
0.0
  0
LINE
  5
23E
330
70
100
AcDbEntity
  8
Bemaßung
 62
     7
370
     9
100
AcDbLine
 10
105.0222883765221
 20
204.559889406322
 30
0.0
 11
105.0222883765221
 21
204.9993623228791
 31
0.0
  0
LINE
  5
23F
330
70
100
AcDbEntity
  8
Bemaßung
 62
     7
370
     9
100
AcDbLine
 10
104.9941543487517
 20
204.559889406322
 30
0.0
 11
104.9941543487517
 21
205.2116287117144
 31
0.0
  0
LINE
  5
240
330
70
100
AcDbEntity
  8
Bemaßung
 62
     7
370
     9
100
AcDbLine
 10
104.966408376536
 20
204.559889406322
 30
0.0
 11
104.966408376536
 21
205.4237010727726
 31
0.0
  0
LINE
  5
241
330
70
100
AcDbEntity
  8
Bemaßung
 62
     7
370
     9
100
AcDbLine
 10
104.9382743487656
 20
204.559889406322
 30
0.0
 11
104.9382743487656
 21
205.6357734338308
 31
0.0
  0
LINE
  5
242
330
70
100
AcDbEntity
  8
Bemaßung
 62
     7
370
     9
100
AcDbLine
 10
104.9105283765499
 20
204.559889406322
 30
0.0
 11
104.9105283765499
 21
205.8482338504447
 31
0.0
  0
LINE
  5
243
330
70
100
AcDbEntity
  8
Bemaßung
 62
     7
370
     9
100
AcDbLine
 10
104.8825883765568
 20
204.559889406322
 30
0.0
 11
104.8825883765568
 21
206.0605002392799
 31
0.0
  0
LINE
  5
244
330
70
100
AcDbEntity
  8
Bemaßung
 62
     7
370
     9
100
AcDbLine
 10
104.8544543487864
 20
204.559889406322
 30
0.0
 11
104.8544543487864
 21
206.2725726003385
 31
0.0
  0
LINE
  5
245
330
70
100
AcDbEntity
  8
Bemaßung
 62
     7
370
     9
100
AcDbLine
 10
104.8267083765713
 20
204.559889406322
 30
0.0
 11
104.8267083765713
 21
206.4846449613964
 31
0.0
  0
LWPOLYLINE
  5
246
330
70
100
AcDbEntity
  8
Bemaßung
 62
     7
370
     9
100
AcDbPolyline
 90
        4
 70
     0
 43
0.0
 10
104.8267083765713
 20
197.4097717692204
 10
105.0801086542852
 20
199.3349153798504
 10
104.5731140710788
 20
199.3349153798504
 10
104.8267083765713
 20
197.4097717692204
  0
LINE
  5
247
330
70
100
AcDbEntity
  8
Bemaßung
 62
     7
370
     9
100
AcDbLine
 10
105.0779743487302
 20
199.3349153798504
 30
0.0
 11
105.0779743487302
 21
199.319975240965
 31
0.0
  0
LINE
  5
248
330
70
100
AcDbEntity
  8
Bemaßung
 62
     7
370
     9
100
AcDbLine
 10
105.0779743487302
 20
199.3349153798504
 30
0.0
 11
105.0779743487302
 21
199.319975240965
 31
0.0
  0
LINE
  5
249
330
70
100
AcDbEntity
  8
Bemaßung
 62
     7
370
     9
100
AcDbLine
 10
105.0502283765152
 20
199.3349153798504
 30
0.0
 11
105.0502283765152
 21
199.1075148243515
 31
0.0
  0
LINE
  5
24A
330
70
100
AcDbEntity
  8
Bemaßung
 62
     7
370
     9
100
AcDbLine
 10
105.0222883765221
 20
199.3349153798504
 30
0.0
 11
105.0222883765221
 21
198.8954424632936
 31
0.0
  0
LINE
  5
24B
330
70
100
AcDbEntity
  8
Bemaßung
 62
     7
370
     9
100
AcDbLine
 10
104.9941543487517
 20
199.3349153798504
 30
0.0
 11
104.9941543487517
 21
198.6831760744577
 31
0.0
  0
LINE
  5
24C
330
70
100
AcDbEntity
  8
Bemaßung
 62
     7
370
     9
100
AcDbLine
 10
104.966408376536
 20
199.3349153798504
 30
0.0
 11
104.966408376536
 21
198.4711037133995
 31
0.0
  0
LINE
  5
24D
330
70
100
AcDbEntity
  8
Bemaßung
 62
     7
370
     9
100
AcDbLine
 10
104.9382743487656
 20
199.3349153798504
 30
0.0
 11
104.9382743487656
 21
198.258643296786
 31
0.0
  0
LINE
  5
24E
330
70
100
AcDbEntity
  8
Bemaßung
 62
     7
370
     9
100
AcDbLine
 10
104.9105283765499
 20
199.3349153798504
 30
0.0
 11
104.9105283765499
 21
198.046570935728
 31
0.0
  0
LINE
  5
24F
330
70
100
AcDbEntity
  8
Bemaßung
 62
     7
370
     9
100
AcDbLine
 10
104.8825883765568
 20
199.3349153798504
 30
0.0
 11
104.8825883765568
 21
197.8343045468921
 31
0.0
  0
LINE
  5
250
330
70
100
AcDbEntity
  8
Bemaßung
 62
     7
370
     9
100
AcDbLine
 10
104.8544543487864
 20
199.3349153798504
 30
0.0
 11
104.8544543487864
 21
197.6218441302786
 31
0.0
  0
LINE
  5
251
330
70
100
AcDbEntity
  8
Bemaßung
 62
     7
370
     9
100
AcDbLine
 10
104.8267083765713
 20
199.3349153798504
 30
0.0
 11
104.8267083765713
 21
197.4097717692204
 31
0.0
  0
LINE
  5
252
330
70
100
AcDbEntity
  8
Bemaßung
 62
     7
370
     9
100
AcDbLine
 10
104.5750543488564
 20
199.3349153798504
 30
0.0
 11
104.5750543488564
 21
199.319975240965
 31
0.0
  0
LINE
  5
253
330
70
100
AcDbEntity
  8
Bemaßung
 62
     7
370
     9
100
AcDbLine
 10
104.5750543488564
 20
199.3349153798504
 30
0.0
 11
104.5750543488564
 21
199.319975240965
 31
0.0
  0
LINE
  5
254
330
70
100
AcDbEntity
  8
Bemaßung
 62
     7
370
     9
100
AcDbLine
 10
104.6031883766268
 20
199.3349153798504
 30
0.0
 11
104.6031883766268
 21
199.1075148243515
 31
0.0
  0
LINE
  5
255
330
70
100
AcDbEntity
  8
Bemaßung
 62
     7
370
     9
100
AcDbLine
 10
104.6309343488419
 20
199.3349153798504
 30
0.0
 11
104.6309343488419
 21
198.8954424632936
 31
0.0
  0
LINE
  5
256
330
70
100
AcDbEntity
  8
Bemaßung
 62
     7
370
     9
100
AcDbLine
 10
104.659068376613
 20
199.3349153798504
 30
0.0
 11
104.659068376613
 21
198.6831760744577
 31
0.0
  0
LINE
  5
257
330
70
100
AcDbEntity
  8
Bemaßung
 62
     7
370
     9
100
AcDbLine
 10
104.687008376606
 20
199.3349153798504
 30
0.0
 11
104.687008376606
 21
198.4711037133995
 31
0.0
  0
LINE
  5
258
330
70
100
AcDbEntity
  8
Bemaßung
 62
     7
370
     9
100
AcDbLine
 10
104.7147543488211
 20
199.3349153798504
 30
0.0
 11
104.7147543488211
 21
198.258643296786
 31
0.0
  0
LINE
  5
259
330
70
100
AcDbEntity
  8
Bemaßung
 62
     7
370
     9
100
AcDbLine
 10
104.7428883765921
 20
199.3349153798504
 30
0.0
 11
104.7428883765921
 21
198.046570935728
 31
0.0
  0
LINE
  5
25A
330
70
100
AcDbEntity
  8
Bemaßung
 62
     7
370
     9
100
AcDbLine
 10
104.7706343488072
 20
199.3349153798504
 30
0.0
 11
104.7706343488072
 21
197.8343045468921
 31
0.0
  0
LINE
  5
25B
330
70
100
AcDbEntity
  8
Bemaßung
 62
     7
370
     9
100
AcDbLine
 10
104.7985743488003
 20
199.3349153798504
 30
0.0
 11
104.7985743488003
 21
197.6218441302786
 31
0.0
  0
LINE
  5
25C
330
70
100
AcDbEntity
  8
Bemaßung
 62
     7
370
     9
100
AcDbLine
 10
104.8267083765713
 20
199.3349153798504
 30
0.0
 11
104.8267083765713
 21
197.4097717692204
 31
0.0
  0
LINE
  5
25D
330
70
100
AcDbEntity
  8
Bemaßung
 62
     7
370
     9
100
AcDbLine
 10
121.8089657359999
 20
213.9040538427074
 30
0.0
 11
98.69361417006572
 21
213.9040538427074
 31
0.0
  0
LINE
  5
25E
330
70
100
AcDbEntity
  8
Bemaßung
 62
     7
370
     9
100
AcDbLine
 10
143.1830896169822
 20
197.4097717692204
 30
0.0
 11
98.22646546155439
 21
197.4097717692204
 31
0.0
  0
LINE
  5
25F
330
70
100
AcDbEntity
  8
Bemaßung
 62
     7
370
     9
100
AcDbLine
 10
99.32679698905715
 20
213.8793812094149
 30
0.0
 11
99.32679698905715
 21
197.4097717692204
 31
0.0
  0
LWPOLYLINE
  5
260
330
70
100
AcDbEntity
  8
Bemaßung
 62
     7
370
     9
100
AcDbPolyline
 90
        4
 70
     0
 43
0.0
 10
99.32679698905715
 20
213.8793812094149
 10
99.07300865578729
 20
211.9546256543405
 10
99.5800032389938
 20
211.9546256543405
 10
99.32679698905715
 20
213.8793812094149
  0
LINE
  5
261
330
70
100
AcDbEntity
  8
Bemaßung
 62
     7
370
     9
100
AcDbLine
 10
99.07514296134198
 20
211.9546256543405
 30
0.0
 11
99.07514296134198
 21
211.9695657932255
 31
0.0
  0
LINE
  5
262
330
70
100
AcDbEntity
  8
Bemaßung
 62
     7
370
     9
100
AcDbLine
 10
99.07514296134198
 20
211.9546256543405
 30
0.0
 11
99.07514296134198
 21
211.9695657932255
 31
0.0
  0
LINE
  5
263
330
70
100
AcDbEntity
  8
Bemaßung
 62
     7
370
     9
100
AcDbLine
 10
99.10308296133505
 20
211.9546256543405
 30
0.0
 11
99.10308296133505
 21
212.1816381542838
 31
0.0
  0
LINE
  5
264
330
70
100
AcDbEntity
  8
Bemaßung
 62
     7
370
     9
100
AcDbLine
 10
99.13121698910607
 20
211.9546256543405
 30
0.0
 11
99.13121698910607
 21
212.3939045431193
 31
0.0
  0
LINE
  5
265
330
70
100
AcDbEntity
  8
Bemaßung
 62
     7
370
     9
100
AcDbLine
 10
99.15896296132117
 20
211.9546256543405
 30
0.0
 11
99.15896296132117
 21
212.6063649597332
 31
0.0
  0
LINE
  5
266
330
70
100
AcDbEntity
  8
Bemaßung
 62
     7
370
     9
100
AcDbLine
 10
99.18709698909218
 20
211.9546256543405
 30
0.0
 11
99.18709698909218
 21
212.8184373207911
 31
0.0
  0
LINE
  5
267
330
70
100
AcDbEntity
  8
Bemaßung
 62
     7
370
     9
100
AcDbLine
 10
99.21484296130728
 20
211.9546256543405
 30
0.0
 11
99.21484296130728
 21
213.0305096818494
 31
0.0
  0
LINE
  5
268
330
70
100
AcDbEntity
  8
Bemaßung
 62
     7
370
     9
100
AcDbLine
 10
99.24278296130035
 20
211.9546256543405
 30
0.0
 11
99.24278296130035
 21
213.2427760706849
 31
0.0
  0
LINE
  5
269
330
70
100
AcDbEntity
  8
Bemaßung
 62
     7
370
     9
100
AcDbLine
 10
99.27091698907105
 20
211.9546256543405
 30
0.0
 11
99.27091698907105
 21
213.4552364872988
 31
0.0
  0
LINE
  5
26A
330
70
100
AcDbEntity
  8
Bemaßung
 62
     7
370
     9
100
AcDbLine
 10
99.29866296128647
 20
211.9546256543405
 30
0.0
 11
99.29866296128647
 21
213.6673088483567
 31
0.0
  0
LINE
  5
26B
330
70
100
AcDbEntity
  8
Bemaßung
 62
     7
370
     9
100
AcDbLine
 10
99.32679698905715
 20
211.9546256543405
 30
0.0
 11
99.32679698905715
 21
213.8793812094149
 31
0.0
  0
LINE
  5
26C
330
70
100
AcDbEntity
  8
Bemaßung
 62
     7
370
     9
100
AcDbLine
 10
99.57806296121674
 20
211.9546256543405
 30
0.0
 11
99.57806296121674
 21
211.9695657932255
 31
0.0
  0
LINE
  5
26D
330
70
100
AcDbEntity
  8
Bemaßung
 62
     7
370
     9
100
AcDbLine
 10
99.57806296121674
 20
211.9546256543405
 30
0.0
 11
99.57806296121674
 21
211.9695657932255
 31
0.0
  0
LINE
  5
26E
330
70
100
AcDbEntity
  8
Bemaßung
 62
     7
370
     9
100
AcDbLine
 10
99.55031698900134
 20
211.9546256543405
 30
0.0
 11
99.55031698900134
 21
212.1816381542838
 31
0.0
  0
LINE
  5
26F
330
70
100
AcDbEntity
  8
Bemaßung
 62
     7
370
     9
100
AcDbLine
 10
99.5221829612303
 20
211.9546256543405
 30
0.0
 11
99.5221829612303
 21
212.3939045431193
 31
0.0
  0
LINE
  5
270
330
70
100
AcDbEntity
  8
Bemaßung
 62
     7
370
     9
100
AcDbLine
 10
99.4944369890152
 20
211.9546256543405
 30
0.0
 11
99.4944369890152
 21
212.6063649597332
 31
0.0
  0
LINE
  5
271
330
70
100
AcDbEntity
  8
Bemaßung
 62
     7
370
     9
100
AcDbLine
 10
99.46630296124451
 20
211.9546256543405
 30
0.0
 11
99.46630296124451
 21
212.8184373207911
 31
0.0
  0
LINE
  5
272
330
70
100
AcDbEntity
  8
Bemaßung
 62
     7
370
     9
100
AcDbLine
 10
99.43836296125144
 20
211.9546256543405
 30
0.0
 11
99.43836296125144
 21
213.0305096818494
 31
0.0
  0
LINE
  5
273
330
70
100
AcDbEntity
  8
Bemaßung
 62
     7
370
     9
100
AcDbLine
 10
99.41061698903602
 20
211.9546256543405
 30
0.0
 11
99.41061698903602
 21
213.2427760706849
 31
0.0
  0
LINE
  5
274
330
70
100
AcDbEntity
  8
Bemaßung
 62
     7
370
     9
100
AcDbLine
 10
99.38248296126564
 20
211.9546256543405
 30
0.0
 11
99.38248296126564
 21
213.4552364872988
 31
0.0
  0
LINE
  5
275
330
70
100
AcDbEntity
  8
Bemaßung
 62
     7
370
     9
100
AcDbLine
 10
99.3547369890499
 20
211.9546256543405
 30
0.0
 11
99.3547369890499
 21
213.6673088483567
 31
0.0
  0
LINE
  5
276
330
70
100
AcDbEntity
  8
Bemaßung
 62
     7
370
     9
100
AcDbLine
 10
99.32679698905715
 20
211.9546256543405
 30
0.0
 11
99.32679698905715
 21
213.8793812094149
 31
0.0
  0
LWPOLYLINE
  5
277
330
70
100
AcDbEntity
  8
Bemaßung
 62
     7
370
     9
100
AcDbPolyline
 90
        4
 70
     0
 43
0.0
 10
99.32679698905715
 20
197.4097717692204
 10
99.5800032389938
 20
199.3349153798504
 10
99.07300865578729
 20
199.3349153798504
 10
99.32679698905715
 20
197.4097717692204
  0
LINE
  5
278
330
70
100
AcDbEntity
  8
Bemaßung
 62
     7
370
     9
100
AcDbLine
 10
99.57806296121674
 20
199.3349153798504
 30
0.0
 11
99.57806296121674
 21
199.319975240965
 31
0.0
  0
LINE
  5
279
330
70
100
AcDbEntity
  8
Bemaßung
 62
     7
370
     9
100
AcDbLine
 10
99.57806296121674
 20
199.3349153798504
 30
0.0
 11
99.57806296121674
 21
199.319975240965
 31
0.0
  0
LINE
  5
27A
330
70
100
AcDbEntity
  8
Bemaßung
 62
     7
370
     9
100
AcDbLine
 10
99.55031698900134
 20
199.3349153798504
 30
0.0
 11
99.55031698900134
 21
199.1075148243515
 31
0.0
  0
LINE
  5
27B
330
70
100
AcDbEntity
  8
Bemaßung
 62
     7
370
     9
100
AcDbLine
 10
99.5221829612303
 20
199.3349153798504
 30
0.0
 11
99.5221829612303
 21
198.8954424632936
 31
0.0
  0
LINE
  5
27C
330
70
100
AcDbEntity
  8
Bemaßung
 62
     7
370
     9
100
AcDbLine
 10
99.4944369890152
 20
199.3349153798504
 30
0.0
 11
99.4944369890152
 21
198.6831760744577
 31
0.0
  0
LINE
  5
27D
330
70
100
AcDbEntity
  8
Bemaßung
 62
     7
370
     9
100
AcDbLine
 10
99.46630296124451
 20
199.3349153798504
 30
0.0
 11
99.46630296124451
 21
198.4711037133995
 31
0.0
  0
LINE
  5
27E
330
70
100
AcDbEntity
  8
Bemaßung
 62
     7
370
     9
100
AcDbLine
 10
99.43836296125144
 20
199.3349153798504
 30
0.0
 11
99.43836296125144
 21
198.258643296786
 31
0.0
  0
LINE
  5
27F
330
70
100
AcDbEntity
  8
Bemaßung
 62
     7
370
     9
100
AcDbLine
 10
99.41061698903602
 20
199.3349153798504
 30
0.0
 11
99.41061698903602
 21
198.046570935728
 31
0.0
  0
LINE
  5
280
330
70
100
AcDbEntity
  8
Bemaßung
 62
     7
370
     9
100
AcDbLine
 10
99.38248296126564
 20
199.3349153798504
 30
0.0
 11
99.38248296126564
 21
197.8343045468921
 31
0.0
  0
LINE
  5
281
330
70
100
AcDbEntity
  8
Bemaßung
 62
     7
370
     9
100
AcDbLine
 10
99.3547369890499
 20
199.3349153798504
 30
0.0
 11
99.3547369890499
 21
197.6218441302786
 31
0.0
  0
LINE
  5
282
330
70
100
AcDbEntity
  8
Bemaßung
 62
     7
370
     9
100
AcDbLine
 10
99.32679698905715
 20
199.3349153798504
 30
0.0
 11
99.32679698905715
 21
197.4097717692204
 31
0.0
  0
LINE
  5
283
330
70
100
AcDbEntity
  8
Bemaßung
 62
     7
370
     9
100
AcDbLine
 10
99.07514296134198
 20
199.3349153798504
 30
0.0
 11
99.07514296134198
 21
199.319975240965
 31
0.0
  0
LINE
  5
284
330
70
100
AcDbEntity
  8
Bemaßung
 62
     7
370
     9
100
AcDbLine
 10
99.07514296134198
 20
199.3349153798504
 30
0.0
 11
99.07514296134198
 21
199.319975240965
 31
0.0
  0
LINE
  5
285
330
70
100
AcDbEntity
  8
Bemaßung
 62
     7
370
     9
100
AcDbLine
 10
99.10308296133505
 20
199.3349153798504
 30
0.0
 11
99.10308296133505
 21
199.1075148243515
 31
0.0
  0
LINE
  5
286
330
70
100
AcDbEntity
  8
Bemaßung
 62
     7
370
     9
100
AcDbLine
 10
99.13121698910607
 20
199.3349153798504
 30
0.0
 11
99.13121698910607
 21
198.8954424632936
 31
0.0
  0
LINE
  5
287
330
70
100
AcDbEntity
  8
Bemaßung
 62
     7
370
     9
100
AcDbLine
 10
99.15896296132117
 20
199.3349153798504
 30
0.0
 11
99.15896296132117
 21
198.6831760744577
 31
0.0
  0
LINE
  5
288
330
70
100
AcDbEntity
  8
Bemaßung
 62
     7
370
     9
100
AcDbLine
 10
99.18709698909218
 20
199.3349153798504
 30
0.0
 11
99.18709698909218
 21
198.4711037133995
 31
0.0
  0
LINE
  5
289
330
70
100
AcDbEntity
  8
Bemaßung
 62
     7
370
     9
100
AcDbLine
 10
99.21484296130728
 20
199.3349153798504
 30
0.0
 11
99.21484296130728
 21
198.258643296786
 31
0.0
  0
LINE
  5
28A
330
70
100
AcDbEntity
  8
Bemaßung
 62
     7
370
     9
100
AcDbLine
 10
99.24278296130035
 20
199.3349153798504
 30
0.0
 11
99.24278296130035
 21
198.046570935728
 31
0.0
  0
LINE
  5
28B
330
70
100
AcDbEntity
  8
Bemaßung
 62
     7
370
     9
100
AcDbLine
 10
99.27091698907105
 20
199.3349153798504
 30
0.0
 11
99.27091698907105
 21
197.8343045468921
 31
0.0
  0
LINE
  5
28C
330
70
100
AcDbEntity
  8
Bemaßung
 62
     7
370
     9
100
AcDbLine
 10
99.29866296128647
 20
199.3349153798504
 30
0.0
 11
99.29866296128647
 21
197.6218441302786
 31
0.0
  0
LINE
  5
28D
330
70
100
AcDbEntity
  8
Bemaßung
 62
     7
370
     9
100
AcDbLine
 10
99.32679698905715
 20
199.3349153798504
 30
0.0
 11
99.32679698905715
 21
197.4097717692204
 31
0.0
  0
LINE
  5
28E
330
70
100
AcDbEntity
  8
Bemaßung
 62
     7
370
     9
100
AcDbLine
 10
204.4165773809568
 20
209.6786120000693
 30
0.0
 11
186.4303475244402
 21
209.6786120000693
 31
0.0
  0
LINE
  5
28F
330
70
100
AcDbEntity
  8
Bemaßung
 62
     7
370
     9
100
AcDbLine
 10
204.2994652073973
 20
194.5180025592145
 30
0.0
 11
187.7647488995718
 21
194.5180025592145
 31
0.0
  0
LINE
  5
290
330
70
100
AcDbEntity
  8
Bemaßung
 62
     7
370
     9
100
AcDbLine
 10
203.7736955040125
 20
209.6786120000693
 30
0.0
 11
203.7736955040125
 21
194.5180025592145
 31
0.0
  0
LWPOLYLINE
  5
291
330
70
100
AcDbEntity
  8
Bemaßung
 62
     7
370
     9
100
AcDbPolyline
 90
        4
 70
     0
 43
0.0
 10
203.7736955040125
 20
209.6786120000693
 10
203.5199071707426
 20
207.7538564449952
 10
204.0269017539491
 20
207.7538564449952
 10
203.7736955040125
 20
209.6786120000693
  0
LINE
  5
292
330
70
100
AcDbEntity
  8
Bemaßung
 62
     7
370
     9
100
AcDbLine
 10
203.5220414762976
 20
207.7538564449952
 30
0.0
 11
203.5220414762976
 21
207.7687965838803
 31
0.0
  0
LINE
  5
293
330
70
100
AcDbEntity
  8
Bemaßung
 62
     7
370
     9
100
AcDbLine
 10
203.5220414762976
 20
207.7538564449952
 30
0.0
 11
203.5220414762976
 21
207.7687965838803
 31
0.0
  0
LINE
  5
294
330
70
100
AcDbEntity
  8
Bemaßung
 62
     7
370
     9
100
AcDbLine
 10
203.5499814762913
 20
207.7538564449952
 30
0.0
 11
203.5499814762913
 21
207.9808689449382
 31
0.0
  0
LINE
  5
295
330
70
100
AcDbEntity
  8
Bemaßung
 62
     7
370
     9
100
AcDbLine
 10
203.5781155040617
 20
207.7538564449952
 30
0.0
 11
203.5781155040617
 21
208.1931353337741
 31
0.0
  0
LINE
  5
296
330
70
100
AcDbEntity
  8
Bemaßung
 62
     7
370
     9
100
AcDbLine
 10
203.6058614762768
 20
207.7538564449952
 30
0.0
 11
203.6058614762768
 21
208.4055957503876
 31
0.0
  0
LINE
  5
297
330
70
100
AcDbEntity
  8
Bemaßung
 62
     7
370
     9
100
AcDbLine
 10
203.6339955040478
 20
207.7538564449952
 30
0.0
 11
203.6339955040478
 21
208.6176681114459
 31
0.0
  0
LINE
  5
298
330
70
100
AcDbEntity
  8
Bemaßung
 62
     7
370
     9
100
AcDbLine
 10
203.6617414762629
 20
207.7538564449952
 30
0.0
 11
203.6617414762629
 21
208.8297404725038
 31
0.0
  0
LINE
  5
299
330
70
100
AcDbEntity
  8
Bemaßung
 62
     7
370
     9
100
AcDbLine
 10
203.689681476256
 20
207.7538564449952
 30
0.0
 11
203.689681476256
 21
209.0420068613397
 31
0.0
  0
LINE
  5
29A
330
70
100
AcDbEntity
  8
Bemaßung
 62
     7
370
     9
100
AcDbLine
 10
203.7178155040264
 20
207.7538564449952
 30
0.0
 11
203.7178155040264
 21
209.2544672779532
 31
0.0
  0
LINE
  5
29B
330
70
100
AcDbEntity
  8
Bemaßung
 62
     7
370
     9
100
AcDbLine
 10
203.7455614762421
 20
207.7538564449952
 30
0.0
 11
203.7455614762421
 21
209.4665396390114
 31
0.0
  0
LINE
  5
29C
330
70
100
AcDbEntity
  8
Bemaßung
 62
     7
370
     9
100
AcDbLine
 10
203.7736955040125
 20
207.7538564449952
 30
0.0
 11
203.7736955040125
 21
209.6786120000693
 31
0.0
  0
LINE
  5
29D
330
70
100
AcDbEntity
  8
Bemaßung
 62
     7
370
     9
100
AcDbLine
 10
204.0249614761721
 20
207.7538564449952
 30
0.0
 11
204.0249614761721
 21
207.7687965838803
 31
0.0
  0
LINE
  5
29E
330
70
100
AcDbEntity
  8
Bemaßung
 62
     7
370
     9
100
AcDbLine
 10
204.0249614761721
 20
207.7538564449952
 30
0.0
 11
204.0249614761721
 21
207.7687965838803
 31
0.0
  0
LINE
  5
29F
330
70
100
AcDbEntity
  8
Bemaßung
 62
     7
370
     9
100
AcDbLine
 10
203.997215503957
 20
207.7538564449952
 30
0.0
 11
203.997215503957
 21
207.9808689449382
 31
0.0
  0
LINE
  5
2A0
330
70
100
AcDbEntity
  8
Bemaßung
 62
     7
370
     9
100
AcDbLine
 10
203.9690814761859
 20
207.7538564449952
 30
0.0
 11
203.9690814761859
 21
208.1931353337741
 31
0.0
  0
LINE
  5
2A1
330
70
100
AcDbEntity
  8
Bemaßung
 62
     7
370
     9
100
AcDbLine
 10
203.9413355039708
 20
207.7538564449952
 30
0.0
 11
203.9413355039708
 21
208.4055957503876
 31
0.0
  0
LINE
  5
2A2
330
70
100
AcDbEntity
  8
Bemaßung
 62
     7
370
     9
100
AcDbLine
 10
203.9132014761998
 20
207.7538564449952
 30
0.0
 11
203.9132014761998
 21
208.6176681114459
 31
0.0
  0
LINE
  5
2A3
330
70
100
AcDbEntity
  8
Bemaßung
 62
     7
370
     9
100
AcDbLine
 10
203.8852614762068
 20
207.7538564449952
 30
0.0
 11
203.8852614762068
 21
208.8297404725038
 31
0.0
  0
LINE
  5
2A4
330
70
100
AcDbEntity
  8
Bemaßung
 62
     7
370
     9
100
AcDbLine
 10
203.8575155039917
 20
207.7538564449952
 30
0.0
 11
203.8575155039917
 21
209.0420068613397
 31
0.0
  0
LINE
  5
2A5
330
70
100
AcDbEntity
  8
Bemaßung
 62
     7
370
     9
100
AcDbLine
 10
203.8293814762206
 20
207.7538564449952
 30
0.0
 11
203.8293814762206
 21
209.2544672779532
 31
0.0
  0
LINE
  5
2A6
330
70
100
AcDbEntity
  8
Bemaßung
 62
     7
370
     9
100
AcDbLine
 10
203.8016355040056
 20
207.7538564449952
 30
0.0
 11
203.8016355040056
 21
209.4665396390114
 31
0.0
  0
LINE
  5
2A7
330
70
100
AcDbEntity
  8
Bemaßung
 62
     7
370
     9
100
AcDbLine
 10
203.7736955040125
 20
207.7538564449952
 30
0.0
 11
203.7736955040125
 21
209.6786120000693
 31
0.0
  0
LWPOLYLINE
  5
2A8
330
70
100
AcDbEntity
  8
Bemaßung
 62
     7
370
     9
100
AcDbPolyline
 90
        4
 70
     0
 43
0.0
 10
203.7736955040125
 20
194.5180025592145
 10
204.0269017539491
 20
196.4431461698445
 10
203.5199071707426
 20
196.4431461698445
 10
203.7736955040125
 20
194.5180025592145
  0
LINE
  5
2A9
330
70
100
AcDbEntity
  8
Bemaßung
 62
     7
370
     9
100
AcDbLine
 10
204.0249614761721
 20
196.4431461698445
 30
0.0
 11
204.0249614761721
 21
196.4282060309592
 31
0.0
  0
LINE
  5
2AA
330
70
100
AcDbEntity
  8
Bemaßung
 62
     7
370
     9
100
AcDbLine
 10
204.0249614761721
 20
196.4431461698445
 30
0.0
 11
204.0249614761721
 21
196.4282060309592
 31
0.0
  0
LINE
  5
2AB
330
70
100
AcDbEntity
  8
Bemaßung
 62
     7
370
     9
100
AcDbLine
 10
203.997215503957
 20
196.4431461698445
 30
0.0
 11
203.997215503957
 21
196.2157456143456
 31
0.0
  0
LINE
  5
2AC
330
70
100
AcDbEntity
  8
Bemaßung
 62
     7
370
     9
100
AcDbLine
 10
203.9690814761859
 20
196.4431461698445
 30
0.0
 11
203.9690814761859
 21
196.0036732532874
 31
0.0
  0
LINE
  5
2AD
330
70
100
AcDbEntity
  8
Bemaßung
 62
     7
370
     9
100
AcDbLine
 10
203.9413355039708
 20
196.4431461698445
 30
0.0
 11
203.9413355039708
 21
195.7914068644518
 31
0.0
  0
LINE
  5
2AE
330
70
100
AcDbEntity
  8
Bemaßung
 62
     7
370
     9
100
AcDbLine
 10
203.9132014761998
 20
196.4431461698445
 30
0.0
 11
203.9132014761998
 21
195.5793345033936
 31
0.0
  0
LINE
  5
2AF
330
70
100
AcDbEntity
  8
Bemaßung
 62
     7
370
     9
100
AcDbLine
 10
203.8852614762068
 20
196.4431461698445
 30
0.0
 11
203.8852614762068
 21
195.3668740867801
 31
0.0
  0
LINE
  5
2B0
330
70
100
AcDbEntity
  8
Bemaßung
 62
     7
370
     9
100
AcDbLine
 10
203.8575155039917
 20
196.4431461698445
 30
0.0
 11
203.8575155039917
 21
195.1548017257218
 31
0.0
  0
LINE
  5
2B1
330
70
100
AcDbEntity
  8
Bemaßung
 62
     7
370
     9
100
AcDbLine
 10
203.8293814762206
 20
196.4431461698445
 30
0.0
 11
203.8293814762206
 21
194.9425353368863
 31
0.0
  0
LINE
  5
2B2
330
70
100
AcDbEntity
  8
Bemaßung
 62
     7
370
     9
100
AcDbLine
 10
203.8016355040056
 20
196.4431461698445
 30
0.0
 11
203.8016355040056
 21
194.7300749202728
 31
0.0
  0
LINE
  5
2B3
330
70
100
AcDbEntity
  8
Bemaßung
 62
     7
370
     9
100
AcDbLine
 10
203.7736955040125
 20
196.4431461698445
 30
0.0
 11
203.7736955040125
 21
194.5180025592145
 31
0.0
  0
LINE
  5
2B4
330
70
100
AcDbEntity
  8
Bemaßung
 62
     7
370
     9
100
AcDbLine
 10
203.5220414762976
 20
196.4431461698445
 30
0.0
 11
203.5220414762976
 21
196.4282060309592
 31
0.0
  0
LINE
  5
2B5
330
70
100
AcDbEntity
  8
Bemaßung
 62
     7
370
     9
100
AcDbLine
 10
203.5220414762976
 20
196.4431461698445
 30
0.0
 11
203.5220414762976
 21
196.4282060309592
 31
0.0
  0
LINE
  5
2B6
330
70
100
AcDbEntity
  8
Bemaßung
 62
     7
370
     9
100
AcDbLine
 10
203.5499814762913
 20
196.4431461698445
 30
0.0
 11
203.5499814762913
 21
196.2157456143456
 31
0.0
  0
LINE
  5
2B7
330
70
100
AcDbEntity
  8
Bemaßung
 62
     7
370
     9
100
AcDbLine
 10
203.5781155040617
 20
196.4431461698445
 30
0.0
 11
203.5781155040617
 21
196.0036732532874
 31
0.0
  0
LINE
  5
2B8
330
70
100
AcDbEntity
  8
Bemaßung
 62
     7
370
     9
100
AcDbLine
 10
203.6058614762768
 20
196.4431461698445
 30
0.0
 11
203.6058614762768
 21
195.7914068644518
 31
0.0
  0
LINE
  5
2B9
330
70
100
AcDbEntity
  8
Bemaßung
 62
     7
370
     9
100
AcDbLine
 10
203.6339955040478
 20
196.4431461698445
 30
0.0
 11
203.6339955040478
 21
195.5793345033936
 31
0.0
  0
LINE
  5
2BA
330
70
100
AcDbEntity
  8
Bemaßung
 62
     7
370
     9
100
AcDbLine
 10
203.6617414762629
 20
196.4431461698445
 30
0.0
 11
203.6617414762629
 21
195.3668740867801
 31
0.0
  0
LINE
  5
2BB
330
70
100
AcDbEntity
  8
Bemaßung
 62
     7
370
     9
100
AcDbLine
 10
203.689681476256
 20
196.4431461698445
 30
0.0
 11
203.689681476256
 21
195.1548017257218
 31
0.0
  0
LINE
  5
2BC
330
70
100
AcDbEntity
  8
Bemaßung
 62
     7
370
     9
100
AcDbLine
 10
203.7178155040264
 20
196.4431461698445
 30
0.0
 11
203.7178155040264
 21
194.9425353368863
 31
0.0
  0
LINE
  5
2BD
330
70
100
AcDbEntity
  8
Bemaßung
 62
     7
370
     9
100
AcDbLine
 10
203.7455614762421
 20
196.4431461698445
 30
0.0
 11
203.7455614762421
 21
194.7300749202728
 31
0.0
  0
LINE
  5
2BE
330
70
100
AcDbEntity
  8
Bemaßung
 62
     7
370
     9
100
AcDbLine
 10
203.7736955040125
 20
196.4431461698445
 30
0.0
 11
203.7736955040125
 21
194.5180025592145
 31
0.0
  0
LINE
  5
2BF
330
70
100
AcDbEntity
  8
Bemaßung
 62
     7
370
     9
100
AcDbLine
 10
120.2278572616095
 20
202.9096831567349
 30
0.0
 11
120.2278572616095
 21
191.5053867736517
 31
0.0
  0
LINE
  5
2C0
330
70
100
AcDbEntity
  8
Bemaßung
 62
     7
370
     9
100
AcDbLine
 10
115.8276953182655
 20
192.6055242733769
 30
0.0
 11
120.2278572616095
 21
192.6055242733769
 31
0.0
  0
LWPOLYLINE
  5
2C1
330
70
100
AcDbEntity
  8
Bemaßung
 62
     7
370
     9
100
AcDbPolyline
 90
        4
 70
     0
 43
0.0
 10
115.8276953182655
 20
192.6055242733769
 10
117.7528389288946
 20
192.3521239956623
 10
117.7528389288946
 20
192.8587305233135
 10
115.8276953182655
 20
192.6055242733769
  0
LINE
  5
2C2
330
70
100
AcDbEntity
  8
Bemaßung
 62
     7
370
     9
100
AcDbLine
 10
117.7528389288946
 20
192.3540642734393
 30
0.0
 11
117.7378987900101
 21
192.3540642734393
 31
0.0
  0
LINE
  5
2C3
330
70
100
AcDbEntity
  8
Bemaßung
 62
     7
370
     9
100
AcDbLine
 10
117.7528389288946
 20
192.3540642734393
 30
0.0
 11
117.7378987900101
 21
192.3540642734393
 31
0.0
  0
LINE
  5
2C4
330
70
100
AcDbEntity
  8
Bemaßung
 62
     7
370
     9
100
AcDbLine
 10
117.7528389288946
 20
192.3820042734331
 30
0.0
 11
117.5254383733966
 21
192.3820042734331
 31
0.0
  0
LINE
  5
2C5
330
70
100
AcDbEntity
  8
Bemaßung
 62
     7
370
     9
100
AcDbLine
 10
117.7528389288946
 20
192.4099442734254
 30
0.0
 11
117.3131719845604
 21
192.4099442734254
 31
0.0
  0
LINE
  5
2C6
330
70
100
AcDbEntity
  8
Bemaßung
 62
     7
370
     9
100
AcDbLine
 10
117.7528389288946
 20
192.4378842734185
 30
0.0
 11
117.1010996235022
 21
192.4378842734185
 31
0.0
  0
LINE
  5
2C7
330
70
100
AcDbEntity
  8
Bemaßung
 62
     7
370
     9
100
AcDbLine
 10
117.7528389288946
 20
192.4658242734116
 30
0.0
 11
116.8890272624446
 21
192.4658242734116
 31
0.0
  0
LINE
  5
2C8
330
70
100
AcDbEntity
  8
Bemaßung
 62
     7
370
     9
100
AcDbLine
 10
117.7528389288946
 20
192.4937642734046
 30
0.0
 11
116.6765668458311
 21
192.4937642734046
 31
0.0
  0
LINE
  5
2C9
330
70
100
AcDbEntity
  8
Bemaßung
 62
     7
370
     9
100
AcDbLine
 10
117.7528389288946
 20
192.5217042733977
 30
0.0
 11
116.4643004569949
 21
192.5217042733977
 31
0.0
  0
LINE
  5
2CA
330
70
100
AcDbEntity
  8
Bemaßung
 62
     7
370
     9
100
AcDbLine
 10
117.7528389288946
 20
192.5496442733908
 30
0.0
 11
116.2522280959366
 21
192.5496442733908
 31
0.0
  0
LINE
  5
2CB
330
70
100
AcDbEntity
  8
Bemaßung
 62
     7
370
     9
100
AcDbLine
 10
117.7528389288946
 20
192.5775842733838
 30
0.0
 11
116.0399617071011
 21
192.5775842733838
 31
0.0
  0
LINE
  5
2CC
330
70
100
AcDbEntity
  8
Bemaßung
 62
     7
370
     9
100
AcDbLine
 10
117.7528389288946
 20
192.6055242733769
 30
0.0
 11
115.8276953182655
 21
192.6055242733769
 31
0.0
  0
LINE
  5
2CD
330
70
100
AcDbEntity
  8
Bemaßung
 62
     7
370
     9
100
AcDbLine
 10
117.7528389288946
 20
192.8567902455361
 30
0.0
 11
117.7378987900101
 21
192.8567902455361
 31
0.0
  0
LINE
  5
2CE
330
70
100
AcDbEntity
  8
Bemaßung
 62
     7
370
     9
100
AcDbLine
 10
117.7528389288946
 20
192.8567902455361
 30
0.0
 11
117.7378987900101
 21
192.8567902455361
 31
0.0
  0
LINE
  5
2CF
330
70
100
AcDbEntity
  8
Bemaßung
 62
     7
370
     9
100
AcDbLine
 10
117.7528389288946
 20
192.8288502455434
 30
0.0
 11
117.5254383733966
 21
192.8288502455434
 31
0.0
  0
LINE
  5
2D0
330
70
100
AcDbEntity
  8
Bemaßung
 62
     7
370
     9
100
AcDbLine
 10
117.7528389288946
 20
192.8009102455503
 30
0.0
 11
117.3131719845604
 21
192.8009102455503
 31
0.0
  0
LINE
  5
2D1
330
70
100
AcDbEntity
  8
Bemaßung
 62
     7
370
     9
100
AcDbLine
 10
117.7528389288946
 20
192.7729702455573
 30
0.0
 11
117.1010996235022
 21
192.7729702455573
 31
0.0
  0
LINE
  5
2D2
330
70
100
AcDbEntity
  8
Bemaßung
 62
     7
370
     9
100
AcDbLine
 10
117.7528389288946
 20
192.7450302455642
 30
0.0
 11
116.8890272624446
 21
192.7450302455642
 31
0.0
  0
LINE
  5
2D3
330
70
100
AcDbEntity
  8
Bemaßung
 62
     7
370
     9
100
AcDbLine
 10
117.7528389288946
 20
192.7170902455712
 30
0.0
 11
116.6765668458311
 21
192.7170902455712
 31
0.0
  0
LINE
  5
2D4
330
70
100
AcDbEntity
  8
Bemaßung
 62
     7
370
     9
100
AcDbLine
 10
117.7528389288946
 20
192.6891502455781
 30
0.0
 11
116.4643004569949
 21
192.6891502455781
 31
0.0
  0
LINE
  5
2D5
330
70
100
AcDbEntity
  8
Bemaßung
 62
     7
370
     9
100
AcDbLine
 10
117.7528389288946
 20
192.661210245585
 30
0.0
 11
116.2522280959366
 21
192.661210245585
 31
0.0
  0
LINE
  5
2D6
330
70
100
AcDbEntity
  8
Bemaßung
 62
     7
370
     9
100
AcDbLine
 10
117.7528389288946
 20
192.633270245592
 30
0.0
 11
116.0399617071011
 21
192.633270245592
 31
0.0
  0
LINE
  5
2D7
330
70
100
AcDbEntity
  8
Bemaßung
 62
     7
370
     9
100
AcDbLine
 10
117.7528389288946
 20
192.6055242733769
 30
0.0
 11
115.8276953182655
 21
192.6055242733769
 31
0.0
  0
LWPOLYLINE
  5
2D8
330
70
100
AcDbEntity
  8
Bemaßung
 62
     7
370
     9
100
AcDbPolyline
 90
        4
 70
     0
 43
0.0
 10
120.2278572616095
 20
192.6055242733769
 10
118.3027136509798
 20
192.8587305233135
 10
118.3027136509798
 20
192.3521239956623
 10
120.2278572616095
 20
192.6055242733769
  0
LINE
  5
2D9
330
70
100
AcDbEntity
  8
Bemaßung
 62
     7
370
     9
100
AcDbLine
 10
118.3027136509798
 20
192.8567902455361
 30
0.0
 11
118.3176537898649
 21
192.8567902455361
 31
0.0
  0
LINE
  5
2DA
330
70
100
AcDbEntity
  8
Bemaßung
 62
     7
370
     9
100
AcDbLine
 10
118.3027136509798
 20
192.8567902455361
 30
0.0
 11
118.3176537898649
 21
192.8567902455361
 31
0.0
  0
LINE
  5
2DB
330
70
100
AcDbEntity
  8
Bemaßung
 62
     7
370
     9
100
AcDbLine
 10
118.3027136509798
 20
192.8288502455434
 30
0.0
 11
118.5299201787011
 21
192.8288502455434
 31
0.0
  0
LINE
  5
2DC
330
70
100
AcDbEntity
  8
Bemaßung
 62
     7
370
     9
100
AcDbLine
 10
118.3027136509798
 20
192.8009102455503
 30
0.0
 11
118.7419925397587
 21
192.8009102455503
 31
0.0
  0
LINE
  5
2DD
330
70
100
AcDbEntity
  8
Bemaßung
 62
     7
370
     9
100
AcDbLine
 10
118.3027136509798
 20
192.7729702455573
 30
0.0
 11
118.9542589285942
 21
192.7729702455573
 31
0.0
  0
LINE
  5
2DE
330
70
100
AcDbEntity
  8
Bemaßung
 62
     7
370
     9
100
AcDbLine
 10
118.3027136509798
 20
192.7450302455642
 30
0.0
 11
119.1665253174304
 21
192.7450302455642
 31
0.0
  0
LINE
  5
2DF
330
70
100
AcDbEntity
  8
Bemaßung
 62
     7
370
     9
100
AcDbLine
 10
118.3027136509798
 20
192.7170902455712
 30
0.0
 11
119.3789857340439
 21
192.7170902455712
 31
0.0
  0
LINE
  5
2E0
330
70
100
AcDbEntity
  8
Bemaßung
 62
     7
370
     9
100
AcDbLine
 10
118.3027136509798
 20
192.6891502455781
 30
0.0
 11
119.5908640673242
 21
192.6891502455781
 31
0.0
  0
LINE
  5
2E1
330
70
100
AcDbEntity
  8
Bemaßung
 62
     7
370
     9
100
AcDbLine
 10
118.3027136509798
 20
192.661210245585
 30
0.0
 11
119.8031304561598
 21
192.661210245585
 31
0.0
  0
LINE
  5
2E2
330
70
100
AcDbEntity
  8
Bemaßung
 62
     7
370
     9
100
AcDbLine
 10
118.3027136509798
 20
192.633270245592
 30
0.0
 11
120.015396844996
 21
192.633270245592
 31
0.0
  0
LINE
  5
2E3
330
70
100
AcDbEntity
  8
Bemaßung
 62
     7
370
     9
100
AcDbLine
 10
118.3027136509798
 20
192.6055242733769
 30
0.0
 11
120.2278572616095
 21
192.6055242733769
 31
0.0
  0
LINE
  5
2E4
330
70
100
AcDbEntity
  8
Bemaßung
 62
     7
370
     9
100
AcDbLine
 10
118.3027136509798
 20
192.3540642734393
 30
0.0
 11
118.3176537898649
 21
192.3540642734393
 31
0.0
  0
LINE
  5
2E5
330
70
100
AcDbEntity
  8
Bemaßung
 62
     7
370
     9
100
AcDbLine
 10
118.3027136509798
 20
192.3540642734393
 30
0.0
 11
118.3176537898649
 21
192.3540642734393
 31
0.0
  0
LINE
  5
2E6
330
70
100
AcDbEntity
  8
Bemaßung
 62
     7
370
     9
100
AcDbLine
 10
118.3027136509798
 20
192.3820042734331
 30
0.0
 11
118.5299201787011
 21
192.3820042734331
 31
0.0
  0
LINE
  5
2E7
330
70
100
AcDbEntity
  8
Bemaßung
 62
     7
370
     9
100
AcDbLine
 10
118.3027136509798
 20
192.4099442734254
 30
0.0
 11
118.7419925397587
 21
192.4099442734254
 31
0.0
  0
LINE
  5
2E8
330
70
100
AcDbEntity
  8
Bemaßung
 62
     7
370
     9
100
AcDbLine
 10
118.3027136509798
 20
192.4378842734185
 30
0.0
 11
118.9542589285942
 21
192.4378842734185
 31
0.0
  0
LINE
  5
2E9
330
70
100
AcDbEntity
  8
Bemaßung
 62
     7
370
     9
100
AcDbLine
 10
118.3027136509798
 20
192.4658242734116
 30
0.0
 11
119.1665253174304
 21
192.4658242734116
 31
0.0
  0
LINE
  5
2EA
330
70
100
AcDbEntity
  8
Bemaßung
 62
     7
370
     9
100
AcDbLine
 10
118.3027136509798
 20
192.4937642734046
 30
0.0
 11
119.3789857340439
 21
192.4937642734046
 31
0.0
  0
LINE
  5
2EB
330
70
100
AcDbEntity
  8
Bemaßung
 62
     7
370
     9
100
AcDbLine
 10
118.3027136509798
 20
192.5217042733977
 30
0.0
 11
119.5908640673242
 21
192.5217042733977
 31
0.0
  0
LINE
  5
2EC
330
70
100
AcDbEntity
  8
Bemaßung
 62
     7
370
     9
100
AcDbLine
 10
118.3027136509798
 20
192.5496442733908
 30
0.0
 11
119.8031304561598
 21
192.5496442733908
 31
0.0
  0
LINE
  5
2ED
330
70
100
AcDbEntity
  8
Bemaßung
 62
     7
370
     9
100
AcDbLine
 10
118.3027136509798
 20
192.5775842733838
 30
0.0
 11
120.015396844996
 21
192.5775842733838
 31
0.0
  0
LINE
  5
2EE
330
70
100
AcDbEntity
  8
Bemaßung
 62
     7
370
     9
100
AcDbLine
 10
118.3027136509798
 20
192.6055242733769
 30
0.0
 11
120.2278572616095
 21
192.6055242733769
 31
0.0
  0
LINE
  5
2EF
330
70
100
AcDbEntity
  8
Bemaßung
 62
     7
370
     9
100
AcDbLine
 10
126.8279061488485
 20
202.9096831567349
 30
0.0
 11
126.8279061488485
 21
186.0052813583599
 31
0.0
  0
LINE
  5
2F0
330
70
100
AcDbEntity
  8
Bemaßung
 62
     7
370
     9
100
AcDbLine
 10
126.8279061488485
 20
187.105612885863
 30
0.0
 11
115.8276953182655
 21
187.105612885863
 31
0.0
  0
LWPOLYLINE
  5
2F1
330
70
100
AcDbEntity
  8
Bemaßung
 62
     7
370
     9
100
AcDbPolyline
 90
        4
 70
     0
 43
0.0
 10
126.8279061488485
 20
187.105612885863
 10
124.9027625382188
 20
187.3588191357996
 10
124.9027625382188
 20
186.8520185803708
 10
126.8279061488485
 20
187.105612885863
  0
LINE
  5
2F2
330
70
100
AcDbEntity
  8
Bemaßung
 62
     7
370
     9
100
AcDbLine
 10
124.9027625382188
 20
187.356878858022
 30
0.0
 11
124.9177026771039
 21
187.356878858022
 31
0.0
  0
LINE
  5
2F3
330
70
100
AcDbEntity
  8
Bemaßung
 62
     7
370
     9
100
AcDbLine
 10
124.9027625382188
 20
187.356878858022
 30
0.0
 11
124.9177026771039
 21
187.356878858022
 31
0.0
  0
LINE
  5
2F4
330
70
100
AcDbEntity
  8
Bemaßung
 62
     7
370
     9
100
AcDbLine
 10
124.9027625382188
 20
187.3289388580292
 30
0.0
 11
125.1297750381621
 21
187.3289388580292
 31
0.0
  0
LINE
  5
2F5
330
70
100
AcDbEntity
  8
Bemaßung
 62
     7
370
     9
100
AcDbLine
 10
124.9027625382188
 20
187.3009988580361
 30
0.0
 11
125.3420414269976
 21
187.3009988580361
 31
0.0
  0
LINE
  5
2F6
330
70
100
AcDbEntity
  8
Bemaßung
 62
     7
370
     9
100
AcDbLine
 10
124.9027625382188
 20
187.2730588580434
 30
0.0
 11
125.5545018436112
 21
187.2730588580434
 31
0.0
  0
LINE
  5
2F7
330
70
100
AcDbEntity
  8
Bemaßung
 62
     7
370
     9
100
AcDbLine
 10
124.9027625382188
 20
187.2451188580503
 30
0.0
 11
125.7667682324474
 21
187.2451188580503
 31
0.0
  0
LINE
  5
2F8
330
70
100
AcDbEntity
  8
Bemaßung
 62
     7
370
     9
100
AcDbLine
 10
124.9027625382188
 20
187.2171788580573
 30
0.0
 11
125.9786465657277
 21
187.2171788580573
 31
0.0
  0
LINE
  5
2F9
330
70
100
AcDbEntity
  8
Bemaßung
 62
     7
370
     9
100
AcDbLine
 10
124.9027625382188
 20
187.1892388580642
 30
0.0
 11
126.1909129545632
 21
187.1892388580642
 31
0.0
  0
LINE
  5
2FA
330
70
100
AcDbEntity
  8
Bemaßung
 62
     7
370
     9
100
AcDbLine
 10
124.9027625382188
 20
187.1612988580712
 30
0.0
 11
126.4033733711767
 21
187.1612988580712
 31
0.0
  0
LINE
  5
2FB
330
70
100
AcDbEntity
  8
Bemaßung
 62
     7
370
     9
100
AcDbLine
 10
124.9027625382188
 20
187.1335528858561
 30
0.0
 11
126.6156397600129
 21
187.1335528858561
 31
0.0
  0
LINE
  5
2FC
330
70
100
AcDbEntity
  8
Bemaßung
 62
     7
370
     9
100
AcDbLine
 10
124.9027625382188
 20
187.105612885863
 30
0.0
 11
126.8279061488485
 21
187.105612885863
 31
0.0
  0
LINE
  5
2FD
330
70
100
AcDbEntity
  8
Bemaßung
 62
     7
370
     9
100
AcDbLine
 10
124.9027625382188
 20
186.8541528859255
 30
0.0
 11
124.9177026771039
 21
186.8541528859255
 31
0.0
  0
LINE
  5
2FE
330
70
100
AcDbEntity
  8
Bemaßung
 62
     7
370
     9
100
AcDbLine
 10
124.9027625382188
 20
186.8541528859255
 30
0.0
 11
124.9177026771039
 21
186.8541528859255
 31
0.0
  0
LINE
  5
2FF
330
70
100
AcDbEntity
  8
Bemaßung
 62
     7
370
     9
100
AcDbLine
 10
124.9027625382188
 20
186.8820928859185
 30
0.0
 11
125.1297750381621
 21
186.8820928859185
 31
0.0
  0
LINE
  5
300
330
70
100
AcDbEntity
  8
Bemaßung
 62
     7
370
     9
100
AcDbLine
 10
124.9027625382188
 20
186.9100328859116
 30
0.0
 11
125.3420414269976
 21
186.9100328859116
 31
0.0
  0
LINE
  5
301
330
70
100
AcDbEntity
  8
Bemaßung
 62
     7
370
     9
100
AcDbLine
 10
124.9027625382188
 20
186.9379728859047
 30
0.0
 11
125.5545018436112
 21
186.9379728859047
 31
0.0
  0
LINE
  5
302
330
70
100
AcDbEntity
  8
Bemaßung
 62
     7
370
     9
100
AcDbLine
 10
124.9027625382188
 20
186.9659128858977
 30
0.0
 11
125.7667682324474
 21
186.9659128858977
 31
0.0
  0
LINE
  5
303
330
70
100
AcDbEntity
  8
Bemaßung
 62
     7
370
     9
100
AcDbLine
 10
124.9027625382188
 20
186.9938528858908
 30
0.0
 11
125.9786465657277
 21
186.9938528858908
 31
0.0
  0
LINE
  5
304
330
70
100
AcDbEntity
  8
Bemaßung
 62
     7
370
     9
100
AcDbLine
 10
124.9027625382188
 20
187.0217928858838
 30
0.0
 11
126.1909129545632
 21
187.0217928858838
 31
0.0
  0
LINE
  5
305
330
70
100
AcDbEntity
  8
Bemaßung
 62
     7
370
     9
100
AcDbLine
 10
124.9027625382188
 20
187.0497328858769
 30
0.0
 11
126.4033733711767
 21
187.0497328858769
 31
0.0
  0
LINE
  5
306
330
70
100
AcDbEntity
  8
Bemaßung
 62
     7
370
     9
100
AcDbLine
 10
124.9027625382188
 20
187.07767288587
 30
0.0
 11
126.6156397600129
 21
187.07767288587
 31
0.0
  0
LINE
  5
307
330
70
100
AcDbEntity
  8
Bemaßung
 62
     7
370
     9
100
AcDbLine
 10
124.9027625382188
 20
187.105612885863
 30
0.0
 11
126.8279061488485
 21
187.105612885863
 31
0.0
  0
LWPOLYLINE
  5
308
330
70
100
AcDbEntity
  8
Bemaßung
 62
     7
370
     9
100
AcDbPolyline
 90
        4
 70
     0
 43
0.0
 10
115.8276953182655
 20
187.105612885863
 10
117.7528389288946
 20
186.8520185803708
 10
117.7528389288946
 20
187.3588191357996
 10
115.8276953182655
 20
187.105612885863
  0
LINE
  5
309
330
70
100
AcDbEntity
  8
Bemaßung
 62
     7
370
     9
100
AcDbLine
 10
117.7528389288946
 20
186.8541528859255
 30
0.0
 11
117.7378987900101
 21
186.8541528859255
 31
0.0
  0
LINE
  5
30A
330
70
100
AcDbEntity
  8
Bemaßung
 62
     7
370
     9
100
AcDbLine
 10
117.7528389288946
 20
186.8541528859255
 30
0.0
 11
117.7378987900101
 21
186.8541528859255
 31
0.0
  0
LINE
  5
30B
330
70
100
AcDbEntity
  8
Bemaßung
 62
     7
370
     9
100
AcDbLine
 10
117.7528389288946
 20
186.8820928859185
 30
0.0
 11
117.5254383733966
 21
186.8820928859185
 31
0.0
  0
LINE
  5
30C
330
70
100
AcDbEntity
  8
Bemaßung
 62
     7
370
     9
100
AcDbLine
 10
117.7528389288946
 20
186.9100328859116
 30
0.0
 11
117.3131719845604
 21
186.9100328859116
 31
0.0
  0
LINE
  5
30D
330
70
100
AcDbEntity
  8
Bemaßung
 62
     7
370
     9
100
AcDbLine
 10
117.7528389288946
 20
186.9379728859047
 30
0.0
 11
117.1010996235022
 21
186.9379728859047
 31
0.0
  0
LINE
  5
30E
330
70
100
AcDbEntity
  8
Bemaßung
 62
     7
370
     9
100
AcDbLine
 10
117.7528389288946
 20
186.9659128858977
 30
0.0
 11
116.8890272624446
 21
186.9659128858977
 31
0.0
  0
LINE
  5
30F
330
70
100
AcDbEntity
  8
Bemaßung
 62
     7
370
     9
100
AcDbLine
 10
117.7528389288946
 20
186.9938528858908
 30
0.0
 11
116.6765668458311
 21
186.9938528858908
 31
0.0
  0
LINE
  5
310
330
70
100
AcDbEntity
  8
Bemaßung
 62
     7
370
     9
100
AcDbLine
 10
117.7528389288946
 20
187.0217928858838
 30
0.0
 11
116.4643004569949
 21
187.0217928858838
 31
0.0
  0
LINE
  5
311
330
70
100
AcDbEntity
  8
Bemaßung
 62
     7
370
     9
100
AcDbLine
 10
117.7528389288946
 20
187.0497328858769
 30
0.0
 11
116.2522280959366
 21
187.0497328858769
 31
0.0
  0
LINE
  5
312
330
70
100
AcDbEntity
  8
Bemaßung
 62
     7
370
     9
100
AcDbLine
 10
117.7528389288946
 20
187.07767288587
 30
0.0
 11
116.0399617071011
 21
187.07767288587
 31
0.0
  0
LINE
  5
313
330
70
100
AcDbEntity
  8
Bemaßung
 62
     7
370
     9
100
AcDbLine
 10
117.7528389288946
 20
187.105612885863
 30
0.0
 11
115.8276953182655
 21
187.105612885863
 31
0.0
  0
LINE
  5
314
330
70
100
AcDbEntity
  8
Bemaßung
 62
     7
370
     9
100
AcDbLine
 10
117.7528389288946
 20
187.356878858022
 30
0.0
 11
117.7378987900101
 21
187.356878858022
 31
0.0
  0
LINE
  5
315
330
70
100
AcDbEntity
  8
Bemaßung
 62
     7
370
     9
100
AcDbLine
 10
117.7528389288946
 20
187.356878858022
 30
0.0
 11
117.7378987900101
 21
187.356878858022
 31
0.0
  0
LINE
  5
316
330
70
100
AcDbEntity
  8
Bemaßung
 62
     7
370
     9
100
AcDbLine
 10
117.7528389288946
 20
187.3289388580292
 30
0.0
 11
117.5254383733966
 21
187.3289388580292
 31
0.0
  0
LINE
  5
317
330
70
100
AcDbEntity
  8
Bemaßung
 62
     7
370
     9
100
AcDbLine
 10
117.7528389288946
 20
187.3009988580361
 30
0.0
 11
117.3131719845604
 21
187.3009988580361
 31
0.0
  0
LINE
  5
318
330
70
100
AcDbEntity
  8
Bemaßung
 62
     7
370
     9
100
AcDbLine
 10
117.7528389288946
 20
187.2730588580434
 30
0.0
 11
117.1010996235022
 21
187.2730588580434
 31
0.0
  0
LINE
  5
319
330
70
100
AcDbEntity
  8
Bemaßung
 62
     7
370
     9
100
AcDbLine
 10
117.7528389288946
 20
187.2451188580503
 30
0.0
 11
116.8890272624446
 21
187.2451188580503
 31
0.0
  0
LINE
  5
31A
330
70
100
AcDbEntity
  8
Bemaßung
 62
     7
370
     9
100
AcDbLine
 10
117.7528389288946
 20
187.2171788580573
 30
0.0
 11
116.6765668458311
 21
187.2171788580573
 31
0.0
  0
LINE
  5
31B
330
70
100
AcDbEntity
  8
Bemaßung
 62
     7
370
     9
100
AcDbLine
 10
117.7528389288946
 20
187.1892388580642
 30
0.0
 11
116.4643004569949
 21
187.1892388580642
 31
0.0
  0
LINE
  5
31C
330
70
100
AcDbEntity
  8
Bemaßung
 62
     7
370
     9
100
AcDbLine
 10
117.7528389288946
 20
187.1612988580712
 30
0.0
 11
116.2522280959366
 21
187.1612988580712
 31
0.0
  0
LINE
  5
31D
330
70
100
AcDbEntity
  8
Bemaßung
 62
     7
370
     9
100
AcDbLine
 10
117.7528389288946
 20
187.1335528858561
 30
0.0
 11
116.0399617071011
 21
187.1335528858561
 31
0.0
  0
LINE
  5
31E
330
70
100
AcDbEntity
  8
Bemaßung
 62
     7
370
     9
100
AcDbLine
 10
117.7528389288946
 20
187.105612885863
 30
0.0
 11
115.8276953182655
 21
187.105612885863
 31
0.0
  0
LINE
  5
31F
330
70
100
AcDbEntity
  8
Bemaßung
 62
     7
370
     9
100
AcDbLine
 10
143.1830896169822
 20
197.4097717692204
 30
0.0
 11
143.1830896169822
 21
180.5053699708461
 31
0.0
  0
LINE
  5
320
330
70
100
AcDbEntity
  8
Bemaßung
 62
     7
370
     9
100
AcDbLine
 10
115.8276953182655
 20
206.4846449613964
 30
0.0
 11
115.8276953182655
 21
180.5053699708461
 31
0.0
  0
LINE
  5
321
330
70
100
AcDbEntity
  8
Bemaßung
 62
     7
370
     9
100
AcDbLine
 10
143.1830896169822
 20
181.6055074705712
 30
0.0
 11
115.8276953182655
 21
181.6055074705712
 31
0.0
  0
LWPOLYLINE
  5
322
330
70
100
AcDbEntity
  8
Bemaßung
 62
     7
370
     9
100
AcDbPolyline
 90
        4
 70
     0
 43
0.0
 10
143.1830896169822
 20
181.6055074705712
 10
141.2581400341298
 20
181.8587137205078
 10
141.2581400341298
 20
181.351913165079
 10
143.1830896169822
 20
181.6055074705712
  0
LINE
  5
323
330
70
100
AcDbEntity
  8
Bemaßung
 62
     7
370
     9
100
AcDbLine
 10
141.2581400341298
 20
181.8569674705081
 30
0.0
 11
141.2730801730148
 21
181.8569674705081
 31
0.0
  0
LINE
  5
324
330
70
100
AcDbEntity
  8
Bemaßung
 62
     7
370
     9
100
AcDbLine
 10
141.2581400341298
 20
181.8569674705081
 30
0.0
 11
141.2730801730148
 21
181.8569674705081
 31
0.0
  0
LINE
  5
325
330
70
100
AcDbEntity
  8
Bemaßung
 62
     7
370
     9
100
AcDbLine
 10
141.2581400341298
 20
181.829027470515
 30
0.0
 11
141.485346561851
 21
181.829027470515
 31
0.0
  0
LINE
  5
326
330
70
100
AcDbEntity
  8
Bemaßung
 62
     7
370
     9
100
AcDbLine
 10
141.2581400341298
 20
181.8008934427447
 30
0.0
 11
141.6976129506866
 21
181.8008934427447
 31
0.0
  0
LINE
  5
327
330
70
100
AcDbEntity
  8
Bemaßung
 62
     7
370
     9
100
AcDbLine
 10
141.2581400341298
 20
181.7729534427516
 30
0.0
 11
141.9096853117448
 21
181.7729534427516
 31
0.0
  0
LINE
  5
328
330
70
100
AcDbEntity
  8
Bemaßung
 62
     7
370
     9
100
AcDbLine
 10
141.2581400341298
 20
181.7450134427586
 30
0.0
 11
142.1219517005804
 21
181.7450134427586
 31
0.0
  0
LINE
  5
329
330
70
100
AcDbEntity
  8
Bemaßung
 62
     7
370
     9
100
AcDbLine
 10
141.2581400341298
 20
181.7170734427655
 30
0.0
 11
142.3342180894166
 21
181.7170734427655
 31
0.0
  0
LINE
  5
32A
330
70
100
AcDbEntity
  8
Bemaßung
 62
     7
370
     9
100
AcDbLine
 10
141.2581400341298
 20
181.6891334427724
 30
0.0
 11
142.5464844782522
 21
181.6891334427724
 31
0.0
  0
LINE
  5
32B
330
70
100
AcDbEntity
  8
Bemaßung
 62
     7
370
     9
100
AcDbLine
 10
141.2581400341298
 20
181.6613874705573
 30
0.0
 11
142.7585568393104
 21
181.6613874705573
 31
0.0
  0
LINE
  5
32C
330
70
100
AcDbEntity
  8
Bemaßung
 62
     7
370
     9
100
AcDbLine
 10
141.2581400341298
 20
181.6334474705646
 30
0.0
 11
142.970823228146
 21
181.6334474705646
 31
0.0
  0
LINE
  5
32D
330
70
100
AcDbEntity
  8
Bemaßung
 62
     7
370
     9
100
AcDbLine
 10
141.2581400341298
 20
181.6055074705712
 30
0.0
 11
143.1830896169822
 21
181.6055074705712
 31
0.0
  0
LINE
  5
32E
330
70
100
AcDbEntity
  8
Bemaßung
 62
     7
370
     9
100
AcDbLine
 10
141.2581400341298
 20
181.354047470634
 30
0.0
 11
141.2730801730148
 21
181.354047470634
 31
0.0
  0
LINE
  5
32F
330
70
100
AcDbEntity
  8
Bemaßung
 62
     7
370
     9
100
AcDbLine
 10
141.2581400341298
 20
181.354047470634
 30
0.0
 11
141.2730801730148
 21
181.354047470634
 31
0.0
  0
LINE
  5
330
330
70
100
AcDbEntity
  8
Bemaßung
 62
     7
370
     9
100
AcDbLine
 10
141.2581400341298
 20
181.381987470627
 30
0.0
 11
141.485346561851
 21
181.381987470627
 31
0.0
  0
LINE
  5
331
330
70
100
AcDbEntity
  8
Bemaßung
 62
     7
370
     9
100
AcDbLine
 10
141.2581400341298
 20
181.4097334428424
 30
0.0
 11
141.6976129506866
 21
181.4097334428424
 31
0.0
  0
LINE
  5
332
330
70
100
AcDbEntity
  8
Bemaßung
 62
     7
370
     9
100
AcDbLine
 10
141.2581400341298
 20
181.4376734428355
 30
0.0
 11
141.9096853117448
 21
181.4376734428355
 31
0.0
  0
LINE
  5
333
330
70
100
AcDbEntity
  8
Bemaßung
 62
     7
370
     9
100
AcDbLine
 10
141.2581400341298
 20
181.4656134428286
 30
0.0
 11
142.1219517005804
 21
181.4656134428286
 31
0.0
  0
LINE
  5
334
330
70
100
AcDbEntity
  8
Bemaßung
 62
     7
370
     9
100
AcDbLine
 10
141.2581400341298
 20
181.4935534428216
 30
0.0
 11
142.3342180894166
 21
181.4935534428216
 31
0.0
  0
LINE
  5
335
330
70
100
AcDbEntity
  8
Bemaßung
 62
     7
370
     9
100
AcDbLine
 10
141.2581400341298
 20
181.5214934428147
 30
0.0
 11
142.5464844782522
 21
181.5214934428147
 31
0.0
  0
LINE
  5
336
330
70
100
AcDbEntity
  8
Bemaßung
 62
     7
370
     9
100
AcDbLine
 10
141.2581400341298
 20
181.5496274705851
 30
0.0
 11
142.7585568393104
 21
181.5496274705851
 31
0.0
  0
LINE
  5
337
330
70
100
AcDbEntity
  8
Bemaßung
 62
     7
370
     9
100
AcDbLine
 10
141.2581400341298
 20
181.5775674705782
 30
0.0
 11
142.970823228146
 21
181.5775674705782
 31
0.0
  0
LINE
  5
338
330
70
100
AcDbEntity
  8
Bemaßung
 62
     7
370
     9
100
AcDbLine
 10
141.2581400341298
 20
181.6055074705712
 30
0.0
 11
143.1830896169822
 21
181.6055074705712
 31
0.0
  0
LWPOLYLINE
  5
339
330
70
100
AcDbEntity
  8
Bemaßung
 62
     7
370
     9
100
AcDbPolyline
 90
        4
 70
     0
 43
0.0
 10
115.8276953182655
 20
181.6055074705712
 10
117.7528389288946
 20
181.351913165079
 10
117.7528389288946
 20
181.8587137205078
 10
115.8276953182655
 20
181.6055074705712
  0
LINE
  5
33A
330
70
100
AcDbEntity
  8
Bemaßung
 62
     7
370
     9
100
AcDbLine
 10
117.7528389288946
 20
181.354047470634
 30
0.0
 11
117.7378987900101
 21
181.354047470634
 31
0.0
  0
LINE
  5
33B
330
70
100
AcDbEntity
  8
Bemaßung
 62
     7
370
     9
100
AcDbLine
 10
117.7528389288946
 20
181.354047470634
 30
0.0
 11
117.7378987900101
 21
181.354047470634
 31
0.0
  0
LINE
  5
33C
330
70
100
AcDbEntity
  8
Bemaßung
 62
     7
370
     9
100
AcDbLine
 10
117.7528389288946
 20
181.381987470627
 30
0.0
 11
117.5254383733966
 21
181.381987470627
 31
0.0
  0
LINE
  5
33D
330
70
100
AcDbEntity
  8
Bemaßung
 62
     7
370
     9
100
AcDbLine
 10
117.7528389288946
 20
181.4097334428424
 30
0.0
 11
117.3131719845604
 21
181.4097334428424
 31
0.0
  0
LINE
  5
33E
330
70
100
AcDbEntity
  8
Bemaßung
 62
     7
370
     9
100
AcDbLine
 10
117.7528389288946
 20
181.4376734428355
 30
0.0
 11
117.1010996235022
 21
181.4376734428355
 31
0.0
  0
LINE
  5
33F
330
70
100
AcDbEntity
  8
Bemaßung
 62
     7
370
     9
100
AcDbLine
 10
117.7528389288946
 20
181.4656134428286
 30
0.0
 11
116.8890272624446
 21
181.4656134428286
 31
0.0
  0
LINE
  5
340
330
70
100
AcDbEntity
  8
Bemaßung
 62
     7
370
     9
100
AcDbLine
 10
117.7528389288946
 20
181.4935534428216
 30
0.0
 11
116.6765668458311
 21
181.4935534428216
 31
0.0
  0
LINE
  5
341
330
70
100
AcDbEntity
  8
Bemaßung
 62
     7
370
     9
100
AcDbLine
 10
117.7528389288946
 20
181.5214934428147
 30
0.0
 11
116.4643004569949
 21
181.5214934428147
 31
0.0
  0
LINE
  5
342
330
70
100
AcDbEntity
  8
Bemaßung
 62
     7
370
     9
100
AcDbLine
 10
117.7528389288946
 20
181.5496274705851
 30
0.0
 11
116.2522280959366
 21
181.5496274705851
 31
0.0
  0
LINE
  5
343
330
70
100
AcDbEntity
  8
Bemaßung
 62
     7
370
     9
100
AcDbLine
 10
117.7528389288946
 20
181.5775674705782
 30
0.0
 11
116.0399617071011
 21
181.5775674705782
 31
0.0
  0
LINE
  5
344
330
70
100
AcDbEntity
  8
Bemaßung
 62
     7
370
     9
100
AcDbLine
 10
117.7528389288946
 20
181.6055074705712
 30
0.0
 11
115.8276953182655
 21
181.6055074705712
 31
0.0
  0
LINE
  5
345
330
70
100
AcDbEntity
  8
Bemaßung
 62
     7
370
     9
100
AcDbLine
 10
117.7528389288946
 20
181.8569674705081
 30
0.0
 11
117.7378987900101
 21
181.8569674705081
 31
0.0
  0
LINE
  5
346
330
70
100
AcDbEntity
  8
Bemaßung
 62
     7
370
     9
100
AcDbLine
 10
117.7528389288946
 20
181.8569674705081
 30
0.0
 11
117.7378987900101
 21
181.8569674705081
 31
0.0
  0
LINE
  5
347
330
70
100
AcDbEntity
  8
Bemaßung
 62
     7
370
     9
100
AcDbLine
 10
117.7528389288946
 20
181.829027470515
 30
0.0
 11
117.5254383733966
 21
181.829027470515
 31
0.0
  0
LINE
  5
348
330
70
100
AcDbEntity
  8
Bemaßung
 62
     7
370
     9
100
AcDbLine
 10
117.7528389288946
 20
181.8008934427447
 30
0.0
 11
117.3131719845604
 21
181.8008934427447
 31
0.0
  0
LINE
  5
349
330
70
100
AcDbEntity
  8
Bemaßung
 62
     7
370
     9
100
AcDbLine
 10
117.7528389288946
 20
181.7729534427516
 30
0.0
 11
117.1010996235022
 21
181.7729534427516
 31
0.0
  0
LINE
  5
34A
330
70
100
AcDbEntity
  8
Bemaßung
 62
     7
370
     9
100
AcDbLine
 10
117.7528389288946
 20
181.7450134427586
 30
0.0
 11
116.8890272624446
 21
181.7450134427586
 31
0.0
  0
LINE
  5
34B
330
70
100
AcDbEntity
  8
Bemaßung
 62
     7
370
     9
100
AcDbLine
 10
117.7528389288946
 20
181.7170734427655
 30
0.0
 11
116.6765668458311
 21
181.7170734427655
 31
0.0
  0
LINE
  5
34C
330
70
100
AcDbEntity
  8
Bemaßung
 62
     7
370
     9
100
AcDbLine
 10
117.7528389288946
 20
181.6891334427724
 30
0.0
 11
116.4643004569949
 21
181.6891334427724
 31
0.0
  0
LINE
  5
34D
330
70
100
AcDbEntity
  8
Bemaßung
 62
     7
370
     9
100
AcDbLine
 10
117.7528389288946
 20
181.6613874705573
 30
0.0
 11
116.2522280959366
 21
181.6613874705573
 31
0.0
  0
LINE
  5
34E
330
70
100
AcDbEntity
  8
Bemaßung
 62
     7
370
     9
100
AcDbLine
 10
117.7528389288946
 20
181.6334474705646
 30
0.0
 11
116.0399617071011
 21
181.6334474705646
 31
0.0
  0
LINE
  5
34F
330
70
100
AcDbEntity
  8
Bemaßung
 62
     7
370
     9
100
AcDbLine
 10
117.7528389288946
 20
181.6055074705712
 30
0.0
 11
115.8276953182655
 21
181.6055074705712
 31
0.0
  0
LINE
  5
350
330
70
100
AcDbEntity
  8
Bemaßung
 62
     7
370
     9
100
AcDbLine
 10
241.9354673700718
 20
213.9096999595403
 30
0.0
 11
241.9354673700718
 21
221.2539155546308
 31
0.0
  0
LINE
  5
351
330
70
100
AcDbEntity
  8
Bemaßung
 62
     7
370
     9
100
AcDbLine
 10
250.7355972289825
 20
213.3596312096774
 30
0.0
 11
250.7355972289825
 21
221.2539155546308
 31
0.0
  0
LINE
  5
352
330
70
100
AcDbEntity
  8
Bemaßung
 62
     7
370
     9
100
AcDbLine
 10
241.9354673700718
 20
220.1539720826836
 30
0.0
 11
250.7355972289825
 21
220.1539720826836
 31
0.0
  0
LWPOLYLINE
  5
353
330
70
100
AcDbEntity
  8
Bemaßung
 62
     7
370
     9
100
AcDbPolyline
 90
        4
 70
     0
 43
0.0
 10
241.9354673700718
 20
220.1539720826836
 10
243.8606109807015
 20
219.9007658327469
 10
243.8606109807015
 20
220.4075663881758
 10
241.9354673700718
 20
220.1539720826836
  0
LINE
  5
354
330
70
100
AcDbEntity
  8
Bemaßung
 62
     7
370
     9
100
AcDbLine
 10
243.8606109807015
 20
219.9027061105243
 30
0.0
 11
243.8456708418158
 21
219.9027061105243
 31
0.0
  0
LINE
  5
355
330
70
100
AcDbEntity
  8
Bemaßung
 62
     7
370
     9
100
AcDbLine
 10
243.8606109807015
 20
219.9027061105243
 30
0.0
 11
243.8456708418158
 21
219.9027061105243
 31
0.0
  0
LINE
  5
356
330
70
100
AcDbEntity
  8
Bemaßung
 62
     7
370
     9
100
AcDbLine
 10
243.8606109807015
 20
219.9306461105174
 30
0.0
 11
243.6332104252029
 21
219.9306461105174
 31
0.0
  0
LINE
  5
357
330
70
100
AcDbEntity
  8
Bemaßung
 62
     7
370
     9
100
AcDbLine
 10
243.8606109807015
 20
219.9585861105101
 30
0.0
 11
243.4213320919226
 21
219.9585861105101
 31
0.0
  0
LINE
  5
358
330
70
100
AcDbEntity
  8
Bemaßung
 62
     7
370
     9
100
AcDbLine
 10
243.8606109807015
 20
219.9865261105032
 30
0.0
 11
243.2088716753085
 21
219.9865261105032
 31
0.0
  0
LINE
  5
359
330
70
100
AcDbEntity
  8
Bemaßung
 62
     7
370
     9
100
AcDbLine
 10
243.8606109807015
 20
220.0144661104963
 30
0.0
 11
242.9967993142503
 21
220.0144661104963
 31
0.0
  0
LINE
  5
35A
330
70
100
AcDbEntity
  8
Bemaßung
 62
     7
370
     9
100
AcDbLine
 10
243.8606109807015
 20
220.0424061104893
 30
0.0
 11
242.7843388976374
 21
220.0424061104893
 31
0.0
  0
LINE
  5
35B
330
70
100
AcDbEntity
  8
Bemaßung
 62
     7
370
     9
100
AcDbLine
 10
243.8606109807015
 20
220.0701520827047
 30
0.0
 11
242.5722665365792
 21
220.0701520827047
 31
0.0
  0
LINE
  5
35C
330
70
100
AcDbEntity
  8
Bemaßung
 62
     7
370
     9
100
AcDbLine
 10
243.8606109807015
 20
220.0980920826975
 30
0.0
 11
242.3600001477429
 21
220.0980920826975
 31
0.0
  0
LINE
  5
35D
330
70
100
AcDbEntity
  8
Bemaßung
 62
     7
370
     9
100
AcDbLine
 10
243.8606109807015
 20
220.1260320826905
 30
0.0
 11
242.1479277866847
 21
220.1260320826905
 31
0.0
  0
LINE
  5
35E
330
70
100
AcDbEntity
  8
Bemaßung
 62
     7
370
     9
100
AcDbLine
 10
243.8606109807015
 20
220.1539720826836
 30
0.0
 11
241.9354673700718
 21
220.1539720826836
 31
0.0
  0
LINE
  5
35F
330
70
100
AcDbEntity
  8
Bemaßung
 62
     7
370
     9
100
AcDbLine
 10
243.8606109807015
 20
220.4056261103984
 30
0.0
 11
243.8456708418158
 21
220.4056261103984
 31
0.0
  0
LINE
  5
360
330
70
100
AcDbEntity
  8
Bemaßung
 62
     7
370
     9
100
AcDbLine
 10
243.8606109807015
 20
220.4056261103984
 30
0.0
 11
243.8456708418158
 21
220.4056261103984
 31
0.0
  0
LINE
  5
361
330
70
100
AcDbEntity
  8
Bemaßung
 62
     7
370
     9
100
AcDbLine
 10
243.8606109807015
 20
220.3776861104054
 30
0.0
 11
243.6332104252029
 21
220.3776861104054
 31
0.0
  0
LINE
  5
362
330
70
100
AcDbEntity
  8
Bemaßung
 62
     7
370
     9
100
AcDbLine
 10
243.8606109807015
 20
220.3497461104126
 30
0.0
 11
243.4213320919226
 21
220.3497461104126
 31
0.0
  0
LINE
  5
363
330
70
100
AcDbEntity
  8
Bemaßung
 62
     7
370
     9
100
AcDbLine
 10
243.8606109807015
 20
220.3216120826416
 30
0.0
 11
243.2088716753085
 21
220.3216120826416
 31
0.0
  0
LINE
  5
364
330
70
100
AcDbEntity
  8
Bemaßung
 62
     7
370
     9
100
AcDbLine
 10
243.8606109807015
 20
220.2936720826485
 30
0.0
 11
242.9967993142503
 21
220.2936720826485
 31
0.0
  0
LINE
  5
365
330
70
100
AcDbEntity
  8
Bemaßung
 62
     7
370
     9
100
AcDbLine
 10
243.8606109807015
 20
220.2657320826558
 30
0.0
 11
242.7843388976374
 21
220.2657320826558
 31
0.0
  0
LINE
  5
366
330
70
100
AcDbEntity
  8
Bemaßung
 62
     7
370
     9
100
AcDbLine
 10
243.8606109807015
 20
220.2377920826628
 30
0.0
 11
242.5722665365792
 21
220.2377920826628
 31
0.0
  0
LINE
  5
367
330
70
100
AcDbEntity
  8
Bemaßung
 62
     7
370
     9
100
AcDbLine
 10
243.8606109807015
 20
220.2098520826697
 30
0.0
 11
242.3600001477429
 21
220.2098520826697
 31
0.0
  0
LINE
  5
368
330
70
100
AcDbEntity
  8
Bemaßung
 62
     7
370
     9
100
AcDbLine
 10
243.8606109807015
 20
220.1819120826766
 30
0.0
 11
242.1479277866847
 21
220.1819120826766
 31
0.0
  0
LINE
  5
369
330
70
100
AcDbEntity
  8
Bemaßung
 62
     7
370
     9
100
AcDbLine
 10
243.8606109807015
 20
220.1539720826836
 30
0.0
 11
241.9354673700718
 21
220.1539720826836
 31
0.0
  0
LWPOLYLINE
  5
36A
330
70
100
AcDbEntity
  8
Bemaßung
 62
     7
370
     9
100
AcDbPolyline
 90
        4
 70
     0
 43
0.0
 10
250.7355972289825
 20
220.1539720826836
 10
248.8104536183528
 20
220.4075663881758
 10
248.8104536183528
 20
219.9007658327469
 10
250.7355972289825
 20
220.1539720826836
  0
LINE
  5
36B
330
70
100
AcDbEntity
  8
Bemaßung
 62
     7
370
     9
100
AcDbLine
 10
248.8104536183528
 20
220.4056261103984
 30
0.0
 11
248.8253937572379
 21
220.4056261103984
 31
0.0
  0
LINE
  5
36C
330
70
100
AcDbEntity
  8
Bemaßung
 62
     7
370
     9
100
AcDbLine
 10
248.8104536183528
 20
220.4056261103984
 30
0.0
 11
248.8253937572379
 21
220.4056261103984
 31
0.0
  0
LINE
  5
36D
330
70
100
AcDbEntity
  8
Bemaßung
 62
     7
370
     9
100
AcDbLine
 10
248.8104536183528
 20
220.3776861104054
 30
0.0
 11
249.0378541738514
 21
220.3776861104054
 31
0.0
  0
LINE
  5
36E
330
70
100
AcDbEntity
  8
Bemaßung
 62
     7
370
     9
100
AcDbLine
 10
248.8104536183528
 20
220.3497461104126
 30
0.0
 11
249.2501205626876
 21
220.3497461104126
 31
0.0
  0
LINE
  5
36F
330
70
100
AcDbEntity
  8
Bemaßung
 62
     7
370
     9
100
AcDbLine
 10
248.8104536183528
 20
220.3216120826416
 30
0.0
 11
249.4621929237458
 21
220.3216120826416
 31
0.0
  0
LINE
  5
370
330
70
100
AcDbEntity
  8
Bemaßung
 62
     7
370
     9
100
AcDbLine
 10
248.8104536183528
 20
220.2936720826485
 30
0.0
 11
249.6742652848034
 21
220.2936720826485
 31
0.0
  0
LINE
  5
371
330
70
100
AcDbEntity
  8
Bemaßung
 62
     7
370
     9
100
AcDbLine
 10
248.8104536183528
 20
220.2657320826558
 30
0.0
 11
249.8867257014169
 21
220.2657320826558
 31
0.0
  0
LINE
  5
372
330
70
100
AcDbEntity
  8
Bemaßung
 62
     7
370
     9
100
AcDbLine
 10
248.8104536183528
 20
220.2377920826628
 30
0.0
 11
250.0989920902532
 21
220.2377920826628
 31
0.0
  0
LINE
  5
373
330
70
100
AcDbEntity
  8
Bemaßung
 62
     7
370
     9
100
AcDbLine
 10
248.8104536183528
 20
220.2098520826697
 30
0.0
 11
250.3110644513114
 21
220.2098520826697
 31
0.0
  0
LINE
  5
374
330
70
100
AcDbEntity
  8
Bemaßung
 62
     7
370
     9
100
AcDbLine
 10
248.8104536183528
 20
220.1819120826766
 30
0.0
 11
250.5235248679249
 21
220.1819120826766
 31
0.0
  0
LINE
  5
375
330
70
100
AcDbEntity
  8
Bemaßung
 62
     7
370
     9
100
AcDbLine
 10
248.8104536183528
 20
220.1539720826836
 30
0.0
 11
250.7355972289825
 21
220.1539720826836
 31
0.0
  0
LINE
  5
376
330
70
100
AcDbEntity
  8
Bemaßung
 62
     7
370
     9
100
AcDbLine
 10
248.8104536183528
 20
219.9027061105243
 30
0.0
 11
248.8253937572379
 21
219.9027061105243
 31
0.0
  0
LINE
  5
377
330
70
100
AcDbEntity
  8
Bemaßung
 62
     7
370
     9
100
AcDbLine
 10
248.8104536183528
 20
219.9027061105243
 30
0.0
 11
248.8253937572379
 21
219.9027061105243
 31
0.0
  0
LINE
  5
378
330
70
100
AcDbEntity
  8
Bemaßung
 62
     7
370
     9
100
AcDbLine
 10
248.8104536183528
 20
219.9306461105174
 30
0.0
 11
249.0378541738514
 21
219.9306461105174
 31
0.0
  0
LINE
  5
379
330
70
100
AcDbEntity
  8
Bemaßung
 62
     7
370
     9
100
AcDbLine
 10
248.8104536183528
 20
219.9585861105101
 30
0.0
 11
249.2501205626876
 21
219.9585861105101
 31
0.0
  0
LINE
  5
37A
330
70
100
AcDbEntity
  8
Bemaßung
 62
     7
370
     9
100
AcDbLine
 10
248.8104536183528
 20
219.9865261105032
 30
0.0
 11
249.4621929237458
 21
219.9865261105032
 31
0.0
  0
LINE
  5
37B
330
70
100
AcDbEntity
  8
Bemaßung
 62
     7
370
     9
100
AcDbLine
 10
248.8104536183528
 20
220.0144661104963
 30
0.0
 11
249.6742652848034
 21
220.0144661104963
 31
0.0
  0
LINE
  5
37C
330
70
100
AcDbEntity
  8
Bemaßung
 62
     7
370
     9
100
AcDbLine
 10
248.8104536183528
 20
220.0424061104893
 30
0.0
 11
249.8867257014169
 21
220.0424061104893
 31
0.0
  0
LINE
  5
37D
330
70
100
AcDbEntity
  8
Bemaßung
 62
     7
370
     9
100
AcDbLine
 10
248.8104536183528
 20
220.0701520827047
 30
0.0
 11
250.0989920902532
 21
220.0701520827047
 31
0.0
  0
LINE
  5
37E
330
70
100
AcDbEntity
  8
Bemaßung
 62
     7
370
     9
100
AcDbLine
 10
248.8104536183528
 20
220.0980920826975
 30
0.0
 11
250.3110644513114
 21
220.0980920826975
 31
0.0
  0
LINE
  5
37F
330
70
100
AcDbEntity
  8
Bemaßung
 62
     7
370
     9
100
AcDbLine
 10
248.8104536183528
 20
220.1260320826905
 30
0.0
 11
250.5235248679249
 21
220.1260320826905
 31
0.0
  0
LINE
  5
380
330
70
100
AcDbEntity
  8
Bemaßung
 62
     7
370
     9
100
AcDbLine
 10
248.8104536183528
 20
220.1539720826836
 30
0.0
 11
250.7355972289825
 21
220.1539720826836
 31
0.0
  0
LINE
  5
381
330
70
100
AcDbEntity
  8
Bemaßung
 62
     7
370
     9
100
AcDbLine
 10
250.7355972289825
 20
213.3596312096774
 30
0.0
 11
214.0836096554032
 21
213.3596312096774
 31
0.0
  0
LINE
  5
382
330
70
100
AcDbEntity
  8
Bemaßung
 62
     7
370
     9
100
AcDbLine
 10
239.7355804261768
 20
205.3847014894492
 30
0.0
 11
214.0836096554032
 21
205.3847014894492
 31
0.0
  0
LINE
  5
383
330
70
100
AcDbEntity
  8
Bemaßung
 62
     7
370
     9
100
AcDbLine
 10
215.1839411829057
 20
213.3596312096774
 30
0.0
 11
215.1839411829057
 21
205.3847014894492
 31
0.0
  0
LWPOLYLINE
  5
384
330
70
100
AcDbEntity
  8
Bemaßung
 62
     7
370
     9
100
AcDbPolyline
 90
        4
 70
     0
 43
0.0
 10
215.1839411829057
 20
213.3596312096774
 10
214.9303468774138
 20
211.4348756546029
 10
215.437147432843
 20
211.4348756546029
 10
215.1839411829057
 20
213.3596312096774
  0
LINE
  5
385
330
70
100
AcDbEntity
  8
Bemaßung
 62
     7
370
     9
100
AcDbLine
 10
214.9322871551915
 20
211.4348756546029
 30
0.0
 11
214.9322871551915
 21
211.4498157934883
 31
0.0
  0
LINE
  5
386
330
70
100
AcDbEntity
  8
Bemaßung
 62
     7
370
     9
100
AcDbLine
 10
214.9322871551915
 20
211.4348756546029
 30
0.0
 11
214.9322871551915
 21
211.4498157934883
 31
0.0
  0
LINE
  5
387
330
70
100
AcDbEntity
  8
Bemaßung
 62
     7
370
     9
100
AcDbLine
 10
214.9602271551845
 20
211.4348756546029
 30
0.0
 11
214.9602271551845
 21
211.6618881545462
 31
0.0
  0
LINE
  5
388
330
70
100
AcDbEntity
  8
Bemaßung
 62
     7
370
     9
100
AcDbLine
 10
214.988167155177
 20
211.4348756546029
 30
0.0
 11
214.988167155177
 21
211.8741545433821
 31
0.0
  0
LINE
  5
389
330
70
100
AcDbEntity
  8
Bemaßung
 62
     7
370
     9
100
AcDbLine
 10
215.01610715517
 20
211.4348756546029
 30
0.0
 11
215.01610715517
 21
212.0866149599956
 31
0.0
  0
LINE
  5
38A
330
70
100
AcDbEntity
  8
Bemaßung
 62
     7
370
     9
100
AcDbLine
 10
215.0440471551631
 20
211.4348756546029
 30
0.0
 11
215.0440471551631
 21
212.2986873210539
 31
0.0
  0
LINE
  5
38B
330
70
100
AcDbEntity
  8
Bemaßung
 62
     7
370
     9
100
AcDbLine
 10
215.0719871551562
 20
211.4348756546029
 30
0.0
 11
215.0719871551562
 21
212.5107596821118
 31
0.0
  0
LINE
  5
38C
330
70
100
AcDbEntity
  8
Bemaßung
 62
     7
370
     9
100
AcDbLine
 10
215.1001211829271
 20
211.4348756546029
 30
0.0
 11
215.1001211829271
 21
212.7230260709477
 31
0.0
  0
LINE
  5
38D
330
70
100
AcDbEntity
  8
Bemaßung
 62
     7
370
     9
100
AcDbLine
 10
215.1278671551423
 20
211.4348756546029
 30
0.0
 11
215.1278671551423
 21
212.9354864875612
 31
0.0
  0
LINE
  5
38E
330
70
100
AcDbEntity
  8
Bemaßung
 62
     7
370
     9
100
AcDbLine
 10
215.1558071551353
 20
211.4348756546029
 30
0.0
 11
215.1558071551353
 21
213.1475588486194
 31
0.0
  0
LINE
  5
38F
330
70
100
AcDbEntity
  8
Bemaßung
 62
     7
370
     9
100
AcDbLine
 10
215.1839411829057
 20
211.4348756546029
 30
0.0
 11
215.1839411829057
 21
213.3596312096774
 31
0.0
  0
LINE
  5
390
330
70
100
AcDbEntity
  8
Bemaßung
 62
     7
370
     9
100
AcDbLine
 10
215.435013127288
 20
211.4348756546029
 30
0.0
 11
215.435013127288
 21
211.4498157934883
 31
0.0
  0
LINE
  5
391
330
70
100
AcDbEntity
  8
Bemaßung
 62
     7
370
     9
100
AcDbLine
 10
215.435013127288
 20
211.4348756546029
 30
0.0
 11
215.435013127288
 21
211.4498157934883
 31
0.0
  0
LINE
  5
392
330
70
100
AcDbEntity
  8
Bemaßung
 62
     7
370
     9
100
AcDbLine
 10
215.4070731272949
 20
211.4348756546029
 30
0.0
 11
215.4070731272949
 21
211.6618881545462
 31
0.0
  0
LINE
  5
393
330
70
100
AcDbEntity
  8
Bemaßung
 62
     7
370
     9
100
AcDbLine
 10
215.3791331273018
 20
211.4348756546029
 30
0.0
 11
215.3791331273018
 21
211.8741545433821
 31
0.0
  0
LINE
  5
394
330
70
100
AcDbEntity
  8
Bemaßung
 62
     7
370
     9
100
AcDbLine
 10
215.3511931273088
 20
211.4348756546029
 30
0.0
 11
215.3511931273088
 21
212.0866149599956
 31
0.0
  0
LINE
  5
395
330
70
100
AcDbEntity
  8
Bemaßung
 62
     7
370
     9
100
AcDbLine
 10
215.323641182871
 20
211.4348756546029
 30
0.0
 11
215.323641182871
 21
212.2986873210539
 31
0.0
  0
LINE
  5
396
330
70
100
AcDbEntity
  8
Bemaßung
 62
     7
370
     9
100
AcDbLine
 10
215.2953131273227
 20
211.4348756546029
 30
0.0
 11
215.2953131273227
 21
212.5107596821118
 31
0.0
  0
LINE
  5
397
330
70
100
AcDbEntity
  8
Bemaßung
 62
     7
370
     9
100
AcDbLine
 10
215.2673731273296
 20
211.4348756546029
 30
0.0
 11
215.2673731273296
 21
212.7230260709477
 31
0.0
  0
LINE
  5
398
330
70
100
AcDbEntity
  8
Bemaßung
 62
     7
370
     9
100
AcDbLine
 10
215.2394331273365
 20
211.4348756546029
 30
0.0
 11
215.2394331273365
 21
212.9354864875612
 31
0.0
  0
LINE
  5
399
330
70
100
AcDbEntity
  8
Bemaßung
 62
     7
370
     9
100
AcDbLine
 10
215.2114931273441
 20
211.4348756546029
 30
0.0
 11
215.2114931273441
 21
213.1475588486194
 31
0.0
  0
LINE
  5
39A
330
70
100
AcDbEntity
  8
Bemaßung
 62
     7
370
     9
100
AcDbLine
 10
215.1839411829057
 20
211.4348756546029
 30
0.0
 11
215.1839411829057
 21
213.3596312096774
 31
0.0
  0
LWPOLYLINE
  5
39B
330
70
100
AcDbEntity
  8
Bemaßung
 62
     7
370
     9
100
AcDbPolyline
 90
        4
 70
     0
 43
0.0
 10
215.1839411829057
 20
205.3847014894492
 10
215.437147432843
 20
207.3098451000789
 10
214.9303468774138
 20
207.3098451000789
 10
215.1839411829057
 20
205.3847014894492
  0
LINE
  5
39C
330
70
100
AcDbEntity
  8
Bemaßung
 62
     7
370
     9
100
AcDbLine
 10
215.435013127288
 20
207.3098451000789
 30
0.0
 11
215.435013127288
 21
207.2949049611935
 31
0.0
  0
LINE
  5
39D
330
70
100
AcDbEntity
  8
Bemaßung
 62
     7
370
     9
100
AcDbLine
 10
215.435013127288
 20
207.3098451000789
 30
0.0
 11
215.435013127288
 21
207.2949049611935
 31
0.0
  0
LINE
  5
39E
330
70
100
AcDbEntity
  8
Bemaßung
 62
     7
370
     9
100
AcDbLine
 10
215.4070731272949
 20
207.3098451000789
 30
0.0
 11
215.4070731272949
 21
207.08244454458
 31
0.0
  0
LINE
  5
39F
330
70
100
AcDbEntity
  8
Bemaßung
 62
     7
370
     9
100
AcDbLine
 10
215.3791331273018
 20
207.3098451000789
 30
0.0
 11
215.3791331273018
 21
206.8705662113
 31
0.0
  0
LINE
  5
3A0
330
70
100
AcDbEntity
  8
Bemaßung
 62
     7
370
     9
100
AcDbLine
 10
215.3511931273088
 20
207.3098451000789
 30
0.0
 11
215.3511931273088
 21
206.6581057946862
 31
0.0
  0
LINE
  5
3A1
330
70
100
AcDbEntity
  8
Bemaßung
 62
     7
370
     9
100
AcDbLine
 10
215.323641182871
 20
207.3098451000789
 30
0.0
 11
215.323641182871
 21
206.446033433628
 31
0.0
  0
LINE
  5
3A2
330
70
100
AcDbEntity
  8
Bemaßung
 62
     7
370
     9
100
AcDbLine
 10
215.2953131273227
 20
207.3098451000789
 30
0.0
 11
215.2953131273227
 21
206.2335730170144
 31
0.0
  0
LINE
  5
3A3
330
70
100
AcDbEntity
  8
Bemaßung
 62
     7
370
     9
100
AcDbLine
 10
215.2673731273296
 20
207.3098451000789
 30
0.0
 11
215.2673731273296
 21
206.0215006559565
 31
0.0
  0
LINE
  5
3A4
330
70
100
AcDbEntity
  8
Bemaßung
 62
     7
370
     9
100
AcDbLine
 10
215.2394331273365
 20
207.3098451000789
 30
0.0
 11
215.2394331273365
 21
205.8092342671206
 31
0.0
  0
LINE
  5
3A5
330
70
100
AcDbEntity
  8
Bemaßung
 62
     7
370
     9
100
AcDbLine
 10
215.2114931273441
 20
207.3098451000789
 30
0.0
 11
215.2114931273441
 21
205.5971619060627
 31
0.0
  0
LINE
  5
3A6
330
70
100
AcDbEntity
  8
Bemaßung
 62
     7
370
     9
100
AcDbLine
 10
215.1839411829057
 20
207.3098451000789
 30
0.0
 11
215.1839411829057
 21
205.3847014894492
 31
0.0
  0
LINE
  5
3A7
330
70
100
AcDbEntity
  8
Bemaßung
 62
     7
370
     9
100
AcDbLine
 10
214.9322871551915
 20
207.3098451000789
 30
0.0
 11
214.9322871551915
 21
207.2949049611935
 31
0.0
  0
LINE
  5
3A8
330
70
100
AcDbEntity
  8
Bemaßung
 62
     7
370
     9
100
AcDbLine
 10
214.9322871551915
 20
207.3098451000789
 30
0.0
 11
214.9322871551915
 21
207.2949049611935
 31
0.0
  0
LINE
  5
3A9
330
70
100
AcDbEntity
  8
Bemaßung
 62
     7
370
     9
100
AcDbLine
 10
214.9602271551845
 20
207.3098451000789
 30
0.0
 11
214.9602271551845
 21
207.08244454458
 31
0.0
  0
LINE
  5
3AA
330
70
100
AcDbEntity
  8
Bemaßung
 62
     7
370
     9
100
AcDbLine
 10
214.988167155177
 20
207.3098451000789
 30
0.0
 11
214.988167155177
 21
206.8705662113
 31
0.0
  0
LINE
  5
3AB
330
70
100
AcDbEntity
  8
Bemaßung
 62
     7
370
     9
100
AcDbLine
 10
215.01610715517
 20
207.3098451000789
 30
0.0
 11
215.01610715517
 21
206.6581057946862
 31
0.0
  0
LINE
  5
3AC
330
70
100
AcDbEntity
  8
Bemaßung
 62
     7
370
     9
100
AcDbLine
 10
215.0440471551631
 20
207.3098451000789
 30
0.0
 11
215.0440471551631
 21
206.446033433628
 31
0.0
  0
LINE
  5
3AD
330
70
100
AcDbEntity
  8
Bemaßung
 62
     7
370
     9
100
AcDbLine
 10
215.0719871551562
 20
207.3098451000789
 30
0.0
 11
215.0719871551562
 21
206.2335730170144
 31
0.0
  0
LINE
  5
3AE
330
70
100
AcDbEntity
  8
Bemaßung
 62
     7
370
     9
100
AcDbLine
 10
215.1001211829271
 20
207.3098451000789
 30
0.0
 11
215.1001211829271
 21
206.0215006559565
 31
0.0
  0
LINE
  5
3AF
330
70
100
AcDbEntity
  8
Bemaßung
 62
     7
370
     9
100
AcDbLine
 10
215.1278671551423
 20
207.3098451000789
 30
0.0
 11
215.1278671551423
 21
205.8092342671206
 31
0.0
  0
LINE
  5
3B0
330
70
100
AcDbEntity
  8
Bemaßung
 62
     7
370
     9
100
AcDbLine
 10
215.1558071551353
 20
207.3098451000789
 30
0.0
 11
215.1558071551353
 21
205.5971619060627
 31
0.0
  0
LINE
  5
3B1
330
70
100
AcDbEntity
  8
Bemaßung
 62
     7
370
     9
100
AcDbLine
 10
215.1839411829057
 20
207.3098451000789
 30
0.0
 11
215.1839411829057
 21
205.3847014894492
 31
0.0
  0
LINE
  5
3B2
330
70
100
AcDbEntity
  8
Bemaßung
 62
     7
370
     9
100
AcDbLine
 10
181.827602107321
 20
135.4136818408663
 30
0.0
 11
204.9520555826272
 21
135.4136818408663
 31
0.0
  0
LINE
  5
3B3
330
70
100
AcDbEntity
  8
Bemaßung
 62
     7
370
     9
100
AcDbLine
 10
195.2561168559802
 20
154.1136910028578
 30
0.0
 11
204.9520555826272
 21
154.1136910028578
 31
0.0
  0
LINE
  5
3B4
330
70
100
AcDbEntity
  8
Bemaßung
 62
     7
370
     9
100
AcDbLine
 10
203.85211211068
 20
135.4136818408663
 30
0.0
 11
203.85211211068
 21
154.1136910028578
 31
0.0
  0
LWPOLYLINE
  5
3B5
330
70
100
AcDbEntity
  8
Bemaßung
 62
     7
370
     9
100
AcDbPolyline
 90
        4
 70
     0
 43
0.0
 10
203.85211211068
 20
135.4136818408663
 10
204.105512388394
 20
137.338825451496
 10
203.5985178051875
 20
137.338825451496
 10
203.85211211068
 20
135.4136818408663
  0
LINE
  5
3B6
330
70
100
AcDbEntity
  8
Bemaßung
 62
     7
370
     9
100
AcDbLine
 10
204.1035721106169
 20
137.338825451496
 30
0.0
 11
204.1035721106169
 21
137.323885312611
 31
0.0
  0
LINE
  5
3B7
330
70
100
AcDbEntity
  8
Bemaßung
 62
     7
370
     9
100
AcDbLine
 10
204.1035721106169
 20
137.338825451496
 30
0.0
 11
204.1035721106169
 21
137.323885312611
 31
0.0
  0
LINE
  5
3B8
330
70
100
AcDbEntity
  8
Bemaßung
 62
     7
370
     9
100
AcDbLine
 10
204.0756321106239
 20
137.338825451496
 30
0.0
 11
204.0756321106239
 21
137.1114248959974
 31
0.0
  0
LINE
  5
3B9
330
70
100
AcDbEntity
  8
Bemaßung
 62
     7
370
     9
100
AcDbLine
 10
204.0476921106308
 20
137.338825451496
 30
0.0
 11
204.0476921106308
 21
136.8993525349392
 31
0.0
  0
LINE
  5
3BA
330
70
100
AcDbEntity
  8
Bemaßung
 62
     7
370
     9
100
AcDbLine
 10
204.0197521106378
 20
137.338825451496
 30
0.0
 11
204.0197521106378
 21
136.6872801738816
 31
0.0
  0
LINE
  5
3BB
330
70
100
AcDbEntity
  8
Bemaßung
 62
     7
370
     9
100
AcDbLine
 10
203.9918121106447
 20
137.338825451496
 30
0.0
 11
203.9918121106447
 21
136.4750137850454
 31
0.0
  0
LINE
  5
3BC
330
70
100
AcDbEntity
  8
Bemaßung
 62
     7
370
     9
100
AcDbLine
 10
203.9638721106516
 20
137.338825451496
 30
0.0
 11
203.9638721106516
 21
136.2625533684319
 31
0.0
  0
LINE
  5
3BD
330
70
100
AcDbEntity
  8
Bemaßung
 62
     7
370
     9
100
AcDbLine
 10
203.9359321106586
 20
137.338825451496
 30
0.0
 11
203.9359321106586
 21
136.050286979596
 31
0.0
  0
LINE
  5
3BE
330
70
100
AcDbEntity
  8
Bemaßung
 62
     7
370
     9
100
AcDbLine
 10
203.9079921106655
 20
137.338825451496
 30
0.0
 11
203.9079921106655
 21
135.838408646316
 31
0.0
  0
LINE
  5
3BF
330
70
100
AcDbEntity
  8
Bemaßung
 62
     7
370
     9
100
AcDbLine
 10
203.8800521106725
 20
137.338825451496
 30
0.0
 11
203.8800521106725
 21
135.6261422574798
 31
0.0
  0
LINE
  5
3C0
330
70
100
AcDbEntity
  8
Bemaßung
 62
     7
370
     9
100
AcDbLine
 10
203.85211211068
 20
137.338825451496
 30
0.0
 11
203.85211211068
 21
135.4136818408663
 31
0.0
  0
LINE
  5
3C1
330
70
100
AcDbEntity
  8
Bemaßung
 62
     7
370
     9
100
AcDbLine
 10
203.6004580829652
 20
137.338825451496
 30
0.0
 11
203.6004580829652
 21
137.323885312611
 31
0.0
  0
LINE
  5
3C2
330
70
100
AcDbEntity
  8
Bemaßung
 62
     7
370
     9
100
AcDbLine
 10
203.6004580829652
 20
137.338825451496
 30
0.0
 11
203.6004580829652
 21
137.323885312611
 31
0.0
  0
LINE
  5
3C3
330
70
100
AcDbEntity
  8
Bemaßung
 62
     7
370
     9
100
AcDbLine
 10
203.6283980829582
 20
137.338825451496
 30
0.0
 11
203.6283980829582
 21
137.1114248959974
 31
0.0
  0
LINE
  5
3C4
330
70
100
AcDbEntity
  8
Bemaßung
 62
     7
370
     9
100
AcDbLine
 10
203.6563380829507
 20
137.338825451496
 30
0.0
 11
203.6563380829507
 21
136.8993525349392
 31
0.0
  0
LINE
  5
3C5
330
70
100
AcDbEntity
  8
Bemaßung
 62
     7
370
     9
100
AcDbLine
 10
203.6842780829438
 20
137.338825451496
 30
0.0
 11
203.6842780829438
 21
136.6872801738816
 31
0.0
  0
LINE
  5
3C6
330
70
100
AcDbEntity
  8
Bemaßung
 62
     7
370
     9
100
AcDbLine
 10
203.7122180829368
 20
137.338825451496
 30
0.0
 11
203.7122180829368
 21
136.4750137850454
 31
0.0
  0
LINE
  5
3C7
330
70
100
AcDbEntity
  8
Bemaßung
 62
     7
370
     9
100
AcDbLine
 10
203.7401580829305
 20
137.338825451496
 30
0.0
 11
203.7401580829305
 21
136.2625533684319
 31
0.0
  0
LINE
  5
3C8
330
70
100
AcDbEntity
  8
Bemaßung
 62
     7
370
     9
100
AcDbLine
 10
203.7680980829229
 20
137.338825451496
 30
0.0
 11
203.7680980829229
 21
136.050286979596
 31
0.0
  0
LINE
  5
3C9
330
70
100
AcDbEntity
  8
Bemaßung
 62
     7
370
     9
100
AcDbLine
 10
203.796038082916
 20
137.338825451496
 30
0.0
 11
203.796038082916
 21
135.838408646316
 31
0.0
  0
LINE
  5
3CA
330
70
100
AcDbEntity
  8
Bemaßung
 62
     7
370
     9
100
AcDbLine
 10
203.824172110687
 20
137.338825451496
 30
0.0
 11
203.824172110687
 21
135.6261422574798
 31
0.0
  0
LINE
  5
3CB
330
70
100
AcDbEntity
  8
Bemaßung
 62
     7
370
     9
100
AcDbLine
 10
203.85211211068
 20
137.338825451496
 30
0.0
 11
203.85211211068
 21
135.4136818408663
 31
0.0
  0
LWPOLYLINE
  5
3CC
330
70
100
AcDbEntity
  8
Bemaßung
 62
     7
370
     9
100
AcDbPolyline
 90
        4
 70
     0
 43
0.0
 10
203.85211211068
 20
154.1136910028578
 10
203.5985178051875
 20
152.1887414200058
 10
204.105512388394
 20
152.1887414200058
 10
203.85211211068
 20
154.1136910028578
  0
LINE
  5
3CD
330
70
100
AcDbEntity
  8
Bemaßung
 62
     7
370
     9
100
AcDbLine
 10
203.6004580829652
 20
152.1887414200058
 30
0.0
 11
203.6004580829652
 21
152.2036815588909
 31
0.0
  0
LINE
  5
3CE
330
70
100
AcDbEntity
  8
Bemaßung
 62
     7
370
     9
100
AcDbLine
 10
203.6004580829652
 20
152.1887414200058
 30
0.0
 11
203.6004580829652
 21
152.2036815588909
 31
0.0
  0
LINE
  5
3CF
330
70
100
AcDbEntity
  8
Bemaßung
 62
     7
370
     9
100
AcDbLine
 10
203.6283980829582
 20
152.1887414200058
 30
0.0
 11
203.6283980829582
 21
152.4159479477267
 31
0.0
  0
LINE
  5
3D0
330
70
100
AcDbEntity
  8
Bemaßung
 62
     7
370
     9
100
AcDbLine
 10
203.6563380829507
 20
152.1887414200058
 30
0.0
 11
203.6563380829507
 21
152.6284083643402
 31
0.0
  0
LINE
  5
3D1
330
70
100
AcDbEntity
  8
Bemaßung
 62
     7
370
     9
100
AcDbLine
 10
203.6842780829438
 20
152.1887414200058
 30
0.0
 11
203.6842780829438
 21
152.8402866976205
 31
0.0
  0
LINE
  5
3D2
330
70
100
AcDbEntity
  8
Bemaßung
 62
     7
370
     9
100
AcDbLine
 10
203.7122180829368
 20
152.1887414200058
 30
0.0
 11
203.7122180829368
 21
153.0525530864564
 31
0.0
  0
LINE
  5
3D3
330
70
100
AcDbEntity
  8
Bemaßung
 62
     7
370
     9
100
AcDbLine
 10
203.7401580829305
 20
152.1887414200058
 30
0.0
 11
203.7401580829305
 21
153.2648194752923
 31
0.0
  0
LINE
  5
3D4
330
70
100
AcDbEntity
  8
Bemaßung
 62
     7
370
     9
100
AcDbLine
 10
203.7680980829229
 20
152.1887414200058
 30
0.0
 11
203.7680980829229
 21
153.4772798919058
 31
0.0
  0
LINE
  5
3D5
330
70
100
AcDbEntity
  8
Bemaßung
 62
     7
370
     9
100
AcDbLine
 10
203.796038082916
 20
152.1887414200058
 30
0.0
 11
203.796038082916
 21
153.6895462807417
 31
0.0
  0
LINE
  5
3D6
330
70
100
AcDbEntity
  8
Bemaßung
 62
     7
370
     9
100
AcDbLine
 10
203.824172110687
 20
152.1887414200058
 30
0.0
 11
203.824172110687
 21
153.901424614022
 31
0.0
  0
LINE
  5
3D7
330
70
100
AcDbEntity
  8
Bemaßung
 62
     7
370
     9
100
AcDbLine
 10
203.85211211068
 20
152.1887414200058
 30
0.0
 11
203.85211211068
 21
154.1136910028578
 31
0.0
  0
LINE
  5
3D8
330
70
100
AcDbEntity
  8
Bemaßung
 62
     7
370
     9
100
AcDbLine
 10
204.1035721106169
 20
152.1887414200058
 30
0.0
 11
204.1035721106169
 21
152.2036815588909
 31
0.0
  0
LINE
  5
3D9
330
70
100
AcDbEntity
  8
Bemaßung
 62
     7
370
     9
100
AcDbLine
 10
204.1035721106169
 20
152.1887414200058
 30
0.0
 11
204.1035721106169
 21
152.2036815588909
 31
0.0
  0
LINE
  5
3DA
330
70
100
AcDbEntity
  8
Bemaßung
 62
     7
370
     9
100
AcDbLine
 10
204.0756321106239
 20
152.1887414200058
 30
0.0
 11
204.0756321106239
 21
152.4159479477267
 31
0.0
  0
LINE
  5
3DB
330
70
100
AcDbEntity
  8
Bemaßung
 62
     7
370
     9
100
AcDbLine
 10
204.0476921106308
 20
152.1887414200058
 30
0.0
 11
204.0476921106308
 21
152.6284083643402
 31
0.0
  0
LINE
  5
3DC
330
70
100
AcDbEntity
  8
Bemaßung
 62
     7
370
     9
100
AcDbLine
 10
204.0197521106378
 20
152.1887414200058
 30
0.0
 11
204.0197521106378
 21
152.8402866976205
 31
0.0
  0
LINE
  5
3DD
330
70
100
AcDbEntity
  8
Bemaßung
 62
     7
370
     9
100
AcDbLine
 10
203.9918121106447
 20
152.1887414200058
 30
0.0
 11
203.9918121106447
 21
153.0525530864564
 31
0.0
  0
LINE
  5
3DE
330
70
100
AcDbEntity
  8
Bemaßung
 62
     7
370
     9
100
AcDbLine
 10
203.9638721106516
 20
152.1887414200058
 30
0.0
 11
203.9638721106516
 21
153.2648194752923
 31
0.0
  0
LINE
  5
3DF
330
70
100
AcDbEntity
  8
Bemaßung
 62
     7
370
     9
100
AcDbLine
 10
203.9359321106586
 20
152.1887414200058
 30
0.0
 11
203.9359321106586
 21
153.4772798919058
 31
0.0
  0
LINE
  5
3E0
330
70
100
AcDbEntity
  8
Bemaßung
 62
     7
370
     9
100
AcDbLine
 10
203.9079921106655
 20
152.1887414200058
 30
0.0
 11
203.9079921106655
 21
153.6895462807417
 31
0.0
  0
LINE
  5
3E1
330
70
100
AcDbEntity
  8
Bemaßung
 62
     7
370
     9
100
AcDbLine
 10
203.8800521106725
 20
152.1887414200058
 30
0.0
 11
203.8800521106725
 21
153.901424614022
 31
0.0
  0
LINE
  5
3E2
330
70
100
AcDbEntity
  8
Bemaßung
 62
     7
370
     9
100
AcDbLine
 10
203.85211211068
 20
152.1887414200058
 30
0.0
 11
203.85211211068
 21
154.1136910028578
 31
0.0
  0
LINE
  5
3E3
330
70
100
AcDbEntity
  8
Bemaßung
 62
     7
370
     9
100
AcDbLine
 10
180.2326937743861
 20
170.613813220955
 30
0.0
 11
204.9520555826272
 21
170.613813220955
 31
0.0
  0
LINE
  5
3E4
330
70
100
AcDbEntity
  8
Bemaßung
 62
     7
370
     9
100
AcDbLine
 10
203.85211211068
 20
154.1136910028578
 30
0.0
 11
203.85211211068
 21
170.613813220955
 31
0.0
  0
LWPOLYLINE
  5
3E5
330
70
100
AcDbEntity
  8
Bemaßung
 62
     7
370
     9
100
AcDbPolyline
 90
        4
 70
     0
 43
0.0
 10
203.85211211068
 20
154.1136910028578
 10
204.105512388394
 20
156.0388346134879
 10
203.5985178051875
 20
156.0388346134879
 10
203.85211211068
 20
154.1136910028578
  0
LINE
  5
3E6
330
70
100
AcDbEntity
  8
Bemaßung
 62
     7
370
     9
100
AcDbLine
 10
204.1035721106169
 20
156.0388346134879
 30
0.0
 11
204.1035721106169
 21
156.0238944746025
 31
0.0
  0
LINE
  5
3E7
330
70
100
AcDbEntity
  8
Bemaßung
 62
     7
370
     9
100
AcDbLine
 10
204.1035721106169
 20
156.0388346134879
 30
0.0
 11
204.1035721106169
 21
156.0238944746025
 31
0.0
  0
LINE
  5
3E8
330
70
100
AcDbEntity
  8
Bemaßung
 62
     7
370
     9
100
AcDbLine
 10
204.0756321106239
 20
156.0388346134879
 30
0.0
 11
204.0756321106239
 21
155.811434057989
 31
0.0
  0
LINE
  5
3E9
330
70
100
AcDbEntity
  8
Bemaßung
 62
     7
370
     9
100
AcDbLine
 10
204.0476921106308
 20
156.0388346134879
 30
0.0
 11
204.0476921106308
 21
155.5995557247087
 31
0.0
  0
LINE
  5
3EA
330
70
100
AcDbEntity
  8
Bemaßung
 62
     7
370
     9
100
AcDbLine
 10
204.0197521106378
 20
156.0388346134879
 30
0.0
 11
204.0197521106378
 21
155.3872893358728
 31
0.0
  0
LINE
  5
3EB
330
70
100
AcDbEntity
  8
Bemaßung
 62
     7
370
     9
100
AcDbLine
 10
203.9918121106447
 20
156.0388346134879
 30
0.0
 11
203.9918121106447
 21
155.1750229470369
 31
0.0
  0
LINE
  5
3EC
330
70
100
AcDbEntity
  8
Bemaßung
 62
     7
370
     9
100
AcDbLine
 10
203.9638721106516
 20
156.0388346134879
 30
0.0
 11
203.9638721106516
 21
154.9625625304234
 31
0.0
  0
LINE
  5
3ED
330
70
100
AcDbEntity
  8
Bemaßung
 62
     7
370
     9
100
AcDbLine
 10
203.9359321106586
 20
156.0388346134879
 30
0.0
 11
203.9359321106586
 21
154.7502961415875
 31
0.0
  0
LINE
  5
3EE
330
70
100
AcDbEntity
  8
Bemaßung
 62
     7
370
     9
100
AcDbLine
 10
203.9079921106655
 20
156.0388346134879
 30
0.0
 11
203.9079921106655
 21
154.5384178083073
 31
0.0
  0
LINE
  5
3EF
330
70
100
AcDbEntity
  8
Bemaßung
 62
     7
370
     9
100
AcDbLine
 10
203.8800521106725
 20
156.0388346134879
 30
0.0
 11
203.8800521106725
 21
154.3261514194714
 31
0.0
  0
LINE
  5
3F0
330
70
100
AcDbEntity
  8
Bemaßung
 62
     7
370
     9
100
AcDbLine
 10
203.85211211068
 20
156.0388346134879
 30
0.0
 11
203.85211211068
 21
154.1136910028578
 31
0.0
  0
LINE
  5
3F1
330
70
100
AcDbEntity
  8
Bemaßung
 62
     7
370
     9
100
AcDbLine
 10
203.6004580829652
 20
156.0388346134879
 30
0.0
 11
203.6004580829652
 21
156.0238944746025
 31
0.0
  0
LINE
  5
3F2
330
70
100
AcDbEntity
  8
Bemaßung
 62
     7
370
     9
100
AcDbLine
 10
203.6004580829652
 20
156.0388346134879
 30
0.0
 11
203.6004580829652
 21
156.0238944746025
 31
0.0
  0
LINE
  5
3F3
330
70
100
AcDbEntity
  8
Bemaßung
 62
     7
370
     9
100
AcDbLine
 10
203.6283980829582
 20
156.0388346134879
 30
0.0
 11
203.6283980829582
 21
155.811434057989
 31
0.0
  0
LINE
  5
3F4
330
70
100
AcDbEntity
  8
Bemaßung
 62
     7
370
     9
100
AcDbLine
 10
203.6563380829507
 20
156.0388346134879
 30
0.0
 11
203.6563380829507
 21
155.5995557247087
 31
0.0
  0
LINE
  5
3F5
330
70
100
AcDbEntity
  8
Bemaßung
 62
     7
370
     9
100
AcDbLine
 10
203.6842780829438
 20
156.0388346134879
 30
0.0
 11
203.6842780829438
 21
155.3872893358728
 31
0.0
  0
LINE
  5
3F6
330
70
100
AcDbEntity
  8
Bemaßung
 62
     7
370
     9
100
AcDbLine
 10
203.7122180829368
 20
156.0388346134879
 30
0.0
 11
203.7122180829368
 21
155.1750229470369
 31
0.0
  0
LINE
  5
3F7
330
70
100
AcDbEntity
  8
Bemaßung
 62
     7
370
     9
100
AcDbLine
 10
203.7401580829305
 20
156.0388346134879
 30
0.0
 11
203.7401580829305
 21
154.9625625304234
 31
0.0
  0
LINE
  5
3F8
330
70
100
AcDbEntity
  8
Bemaßung
 62
     7
370
     9
100
AcDbLine
 10
203.7680980829229
 20
156.0388346134879
 30
0.0
 11
203.7680980829229
 21
154.7502961415875
 31
0.0
  0
LINE
  5
3F9
330
70
100
AcDbEntity
  8
Bemaßung
 62
     7
370
     9
100
AcDbLine
 10
203.796038082916
 20
156.0388346134879
 30
0.0
 11
203.796038082916
 21
154.5384178083073
 31
0.0
  0
LINE
  5
3FA
330
70
100
AcDbEntity
  8
Bemaßung
 62
     7
370
     9
100
AcDbLine
 10
203.824172110687
 20
156.0388346134879
 30
0.0
 11
203.824172110687
 21
154.3261514194714
 31
0.0
  0
LINE
  5
3FB
330
70
100
AcDbEntity
  8
Bemaßung
 62
     7
370
     9
100
AcDbLine
 10
203.85211211068
 20
156.0388346134879
 30
0.0
 11
203.85211211068
 21
154.1136910028578
 31
0.0
  0
LWPOLYLINE
  5
3FC
330
70
100
AcDbEntity
  8
Bemaßung
 62
     7
370
     9
100
AcDbPolyline
 90
        4
 70
     0
 43
0.0
 10
203.85211211068
 20
170.613813220955
 10
203.5985178051875
 20
168.688863638103
 10
204.105512388394
 20
168.688863638103
 10
203.85211211068
 20
170.613813220955
  0
LINE
  5
3FD
330
70
100
AcDbEntity
  8
Bemaßung
 62
     7
370
     9
100
AcDbLine
 10
203.6004580829652
 20
168.688863638103
 30
0.0
 11
203.6004580829652
 21
168.703803776988
 31
0.0
  0
LINE
  5
3FE
330
70
100
AcDbEntity
  8
Bemaßung
 62
     7
370
     9
100
AcDbLine
 10
203.6004580829652
 20
168.688863638103
 30
0.0
 11
203.6004580829652
 21
168.703803776988
 31
0.0
  0
LINE
  5
3FF
330
70
100
AcDbEntity
  8
Bemaßung
 62
     7
370
     9
100
AcDbLine
 10
203.6283980829582
 20
168.688863638103
 30
0.0
 11
203.6283980829582
 21
168.9160701658239
 31
0.0
  0
LINE
  5
400
330
70
100
AcDbEntity
  8
Bemaßung
 62
     7
370
     9
100
AcDbLine
 10
203.6563380829507
 20
168.688863638103
 30
0.0
 11
203.6563380829507
 21
169.1283365546598
 31
0.0
  0
LINE
  5
401
330
70
100
AcDbEntity
  8
Bemaßung
 62
     7
370
     9
100
AcDbLine
 10
203.6842780829438
 20
168.688863638103
 30
0.0
 11
203.6842780829438
 21
169.3406029434957
 31
0.0
  0
LINE
  5
402
330
70
100
AcDbEntity
  8
Bemaßung
 62
     7
370
     9
100
AcDbLine
 10
203.7122180829368
 20
168.688863638103
 30
0.0
 11
203.7122180829368
 21
169.5526753045536
 31
0.0
  0
LINE
  5
403
330
70
100
AcDbEntity
  8
Bemaßung
 62
     7
370
     9
100
AcDbLine
 10
203.7401580829305
 20
168.688863638103
 30
0.0
 11
203.7401580829305
 21
169.7649416933895
 31
0.0
  0
LINE
  5
404
330
70
100
AcDbEntity
  8
Bemaßung
 62
     7
370
     9
100
AcDbLine
 10
203.7680980829229
 20
168.688863638103
 30
0.0
 11
203.7680980829229
 21
169.9772080822253
 31
0.0
  0
LINE
  5
405
330
70
100
AcDbEntity
  8
Bemaßung
 62
     7
370
     9
100
AcDbLine
 10
203.796038082916
 20
168.688863638103
 30
0.0
 11
203.796038082916
 21
170.1894744710612
 31
0.0
  0
LINE
  5
406
330
70
100
AcDbEntity
  8
Bemaßung
 62
     7
370
     9
100
AcDbLine
 10
203.824172110687
 20
168.688863638103
 30
0.0
 11
203.824172110687
 21
170.4015468321191
 31
0.0
  0
LINE
  5
407
330
70
100
AcDbEntity
  8
Bemaßung
 62
     7
370
     9
100
AcDbLine
 10
203.85211211068
 20
168.688863638103
 30
0.0
 11
203.85211211068
 21
170.613813220955
 31
0.0
  0
LINE
  5
408
330
70
100
AcDbEntity
  8
Bemaßung
 62
     7
370
     9
100
AcDbLine
 10
204.1035721106169
 20
168.688863638103
 30
0.0
 11
204.1035721106169
 21
168.703803776988
 31
0.0
  0
LINE
  5
409
330
70
100
AcDbEntity
  8
Bemaßung
 62
     7
370
     9
100
AcDbLine
 10
204.1035721106169
 20
168.688863638103
 30
0.0
 11
204.1035721106169
 21
168.703803776988
 31
0.0
  0
LINE
  5
40A
330
70
100
AcDbEntity
  8
Bemaßung
 62
     7
370
     9
100
AcDbLine
 10
204.0756321106239
 20
168.688863638103
 30
0.0
 11
204.0756321106239
 21
168.9160701658239
 31
0.0
  0
LINE
  5
40B
330
70
100
AcDbEntity
  8
Bemaßung
 62
     7
370
     9
100
AcDbLine
 10
204.0476921106308
 20
168.688863638103
 30
0.0
 11
204.0476921106308
 21
169.1283365546598
 31
0.0
  0
LINE
  5
40C
330
70
100
AcDbEntity
  8
Bemaßung
 62
     7
370
     9
100
AcDbLine
 10
204.0197521106378
 20
168.688863638103
 30
0.0
 11
204.0197521106378
 21
169.3406029434957
 31
0.0
  0
LINE
  5
40D
330
70
100
AcDbEntity
  8
Bemaßung
 62
     7
370
     9
100
AcDbLine
 10
203.9918121106447
 20
168.688863638103
 30
0.0
 11
203.9918121106447
 21
169.5526753045536
 31
0.0
  0
LINE
  5
40E
330
70
100
AcDbEntity
  8
Bemaßung
 62
     7
370
     9
100
AcDbLine
 10
203.9638721106516
 20
168.688863638103
 30
0.0
 11
203.9638721106516
 21
169.7649416933895
 31
0.0
  0
LINE
  5
40F
330
70
100
AcDbEntity
  8
Bemaßung
 62
     7
370
     9
100
AcDbLine
 10
203.9359321106586
 20
168.688863638103
 30
0.0
 11
203.9359321106586
 21
169.9772080822253
 31
0.0
  0
LINE
  5
410
330
70
100
AcDbEntity
  8
Bemaßung
 62
     7
370
     9
100
AcDbLine
 10
203.9079921106655
 20
168.688863638103
 30
0.0
 11
203.9079921106655
 21
170.1894744710612
 31
0.0
  0
LINE
  5
411
330
70
100
AcDbEntity
  8
Bemaßung
 62
     7
370
     9
100
AcDbLine
 10
203.8800521106725
 20
168.688863638103
 30
0.0
 11
203.8800521106725
 21
170.4015468321191
 31
0.0
  0
LINE
  5
412
330
70
100
AcDbEntity
  8
Bemaßung
 62
     7
370
     9
100
AcDbLine
 10
203.85211211068
 20
168.688863638103
 30
0.0
 11
203.85211211068
 21
170.613813220955
 31
0.0
  0
LINE
  5
413
330
70
100
AcDbEntity
  8
Bemaßung
 62
     7
370
     9
100
AcDbLine
 10
163.6776616951917
 20
144.213811699777
 30
0.0
 11
163.6776616951917
 21
128.2923917776348
 31
0.0
  0
LINE
  5
414
330
70
100
AcDbEntity
  8
Bemaßung
 62
     7
370
     9
100
AcDbLine
 10
115.8276953182655
 20
143.6639369776924
 30
0.0
 11
115.8276953182655
 21
128.2923917776348
 31
0.0
  0
LINE
  5
415
330
70
100
AcDbEntity
  8
Bemaßung
 62
     7
370
     9
100
AcDbLine
 10
163.6776616951917
 20
129.3925292773599
 30
0.0
 11
115.8276953182655
 21
129.3925292773599
 31
0.0
  0
LWPOLYLINE
  5
416
330
70
100
AcDbEntity
  8
Bemaßung
 62
     7
370
     9
100
AcDbPolyline
 90
        4
 70
     0
 43
0.0
 10
163.6776616951917
 20
129.3925292773599
 10
161.7529061401173
 20
129.6457355272965
 10
161.7529061401173
 20
129.1389349718677
 10
163.6776616951917
 20
129.3925292773599
  0
LINE
  5
417
330
70
100
AcDbEntity
  8
Bemaßung
 62
     7
370
     9
100
AcDbLine
 10
161.7529061401173
 20
129.6437952495191
 30
0.0
 11
161.7676522512244
 21
129.6437952495191
 31
0.0
  0
LINE
  5
418
330
70
100
AcDbEntity
  8
Bemaßung
 62
     7
370
     9
100
AcDbLine
 10
161.7529061401173
 20
129.6437952495191
 30
0.0
 11
161.7676522512244
 21
129.6437952495191
 31
0.0
  0
LINE
  5
419
330
70
100
AcDbEntity
  8
Bemaßung
 62
     7
370
     9
100
AcDbLine
 10
161.7529061401173
 20
129.6158552495261
 30
0.0
 11
161.9799186400605
 21
129.6158552495261
 31
0.0
  0
LINE
  5
41A
330
70
100
AcDbEntity
  8
Bemaßung
 62
     7
370
     9
100
AcDbLine
 10
161.7529061401173
 20
129.5881092773107
 30
0.0
 11
162.1921850288961
 21
129.5881092773107
 31
0.0
  0
LINE
  5
41B
330
70
100
AcDbEntity
  8
Bemaßung
 62
     7
370
     9
100
AcDbLine
 10
161.7529061401173
 20
129.5601692773176
 30
0.0
 11
162.4044514177323
 21
129.5601692773176
 31
0.0
  0
LINE
  5
41C
330
70
100
AcDbEntity
  8
Bemaßung
 62
     7
370
     9
100
AcDbLine
 10
161.7529061401173
 20
129.5322292773249
 30
0.0
 11
162.6165237787899
 21
129.5322292773249
 31
0.0
  0
LINE
  5
41D
330
70
100
AcDbEntity
  8
Bemaßung
 62
     7
370
     9
100
AcDbLine
 10
161.7529061401173
 20
129.5040952495542
 30
0.0
 11
162.8287901676261
 21
129.5040952495542
 31
0.0
  0
LINE
  5
41E
330
70
100
AcDbEntity
  8
Bemaßung
 62
     7
370
     9
100
AcDbLine
 10
161.7529061401173
 20
129.4761552495611
 30
0.0
 11
163.0410565564617
 21
129.4761552495611
 31
0.0
  0
LINE
  5
41F
330
70
100
AcDbEntity
  8
Bemaßung
 62
     7
370
     9
100
AcDbLine
 10
161.7529061401173
 20
129.4484092773457
 30
0.0
 11
163.2533229452979
 21
129.4484092773457
 31
0.0
  0
LINE
  5
420
330
70
100
AcDbEntity
  8
Bemaßung
 62
     7
370
     9
100
AcDbLine
 10
161.7529061401173
 20
129.4204692773529
 30
0.0
 11
163.4653953063555
 21
129.4204692773529
 31
0.0
  0
LINE
  5
421
330
70
100
AcDbEntity
  8
Bemaßung
 62
     7
370
     9
100
AcDbLine
 10
161.7529061401173
 20
129.3925292773599
 30
0.0
 11
163.6776616951917
 21
129.3925292773599
 31
0.0
  0
LINE
  5
422
330
70
100
AcDbEntity
  8
Bemaßung
 62
     7
370
     9
100
AcDbLine
 10
161.7529061401173
 20
129.1410692774223
 30
0.0
 11
161.7676522512244
 21
129.1410692774223
 31
0.0
  0
LINE
  5
423
330
70
100
AcDbEntity
  8
Bemaßung
 62
     7
370
     9
100
AcDbLine
 10
161.7529061401173
 20
129.1410692774223
 30
0.0
 11
161.7676522512244
 21
129.1410692774223
 31
0.0
  0
LINE
  5
424
330
70
100
AcDbEntity
  8
Bemaßung
 62
     7
370
     9
100
AcDbLine
 10
161.7529061401173
 20
129.1688152496378
 30
0.0
 11
161.9799186400605
 21
129.1688152496378
 31
0.0
  0
LINE
  5
425
330
70
100
AcDbEntity
  8
Bemaßung
 62
     7
370
     9
100
AcDbLine
 10
161.7529061401173
 20
129.1967552496308
 30
0.0
 11
162.1921850288961
 21
129.1967552496308
 31
0.0
  0
LINE
  5
426
330
70
100
AcDbEntity
  8
Bemaßung
 62
     7
370
     9
100
AcDbLine
 10
161.7529061401173
 20
129.2246952496239
 30
0.0
 11
162.4044514177323
 21
129.2246952496239
 31
0.0
  0
LINE
  5
427
330
70
100
AcDbEntity
  8
Bemaßung
 62
     7
370
     9
100
AcDbLine
 10
161.7529061401173
 20
129.2528292773946
 30
0.0
 11
162.6165237787899
 21
129.2528292773946
 31
0.0
  0
LINE
  5
428
330
70
100
AcDbEntity
  8
Bemaßung
 62
     7
370
     9
100
AcDbLine
 10
161.7529061401173
 20
129.2807692773876
 30
0.0
 11
162.8287901676261
 21
129.2807692773876
 31
0.0
  0
LINE
  5
429
330
70
100
AcDbEntity
  8
Bemaßung
 62
     7
370
     9
100
AcDbLine
 10
161.7529061401173
 20
129.3085152496027
 30
0.0
 11
163.0410565564617
 21
129.3085152496027
 31
0.0
  0
LINE
  5
42A
330
70
100
AcDbEntity
  8
Bemaßung
 62
     7
370
     9
100
AcDbLine
 10
161.7529061401173
 20
129.3364552495958
 30
0.0
 11
163.2533229452979
 21
129.3364552495958
 31
0.0
  0
LINE
  5
42B
330
70
100
AcDbEntity
  8
Bemaßung
 62
     7
370
     9
100
AcDbLine
 10
161.7529061401173
 20
129.3643952495889
 30
0.0
 11
163.4653953063555
 21
129.3643952495889
 31
0.0
  0
LINE
  5
42C
330
70
100
AcDbEntity
  8
Bemaßung
 62
     7
370
     9
100
AcDbLine
 10
161.7529061401173
 20
129.3925292773599
 30
0.0
 11
163.6776616951917
 21
129.3925292773599
 31
0.0
  0
LWPOLYLINE
  5
42D
330
70
100
AcDbEntity
  8
Bemaßung
 62
     7
370
     9
100
AcDbPolyline
 90
        4
 70
     0
 43
0.0
 10
115.8276953182655
 20
129.3925292773599
 10
117.7528389288946
 20
129.1389349718677
 10
117.7528389288946
 20
129.6457355272965
 10
115.8276953182655
 20
129.3925292773599
  0
LINE
  5
42E
330
70
100
AcDbEntity
  8
Bemaßung
 62
     7
370
     9
100
AcDbLine
 10
117.7528389288946
 20
129.1410692774223
 30
0.0
 11
117.7378987900101
 21
129.1410692774223
 31
0.0
  0
LINE
  5
42F
330
70
100
AcDbEntity
  8
Bemaßung
 62
     7
370
     9
100
AcDbLine
 10
117.7528389288946
 20
129.1410692774223
 30
0.0
 11
117.7378987900101
 21
129.1410692774223
 31
0.0
  0
LINE
  5
430
330
70
100
AcDbEntity
  8
Bemaßung
 62
     7
370
     9
100
AcDbLine
 10
117.7528389288946
 20
129.1688152496378
 30
0.0
 11
117.5254383733966
 21
129.1688152496378
 31
0.0
  0
LINE
  5
431
330
70
100
AcDbEntity
  8
Bemaßung
 62
     7
370
     9
100
AcDbLine
 10
117.7528389288946
 20
129.1967552496308
 30
0.0
 11
117.3131719845604
 21
129.1967552496308
 31
0.0
  0
LINE
  5
432
330
70
100
AcDbEntity
  8
Bemaßung
 62
     7
370
     9
100
AcDbLine
 10
117.7528389288946
 20
129.2246952496239
 30
0.0
 11
117.1010996235022
 21
129.2246952496239
 31
0.0
  0
LINE
  5
433
330
70
100
AcDbEntity
  8
Bemaßung
 62
     7
370
     9
100
AcDbLine
 10
117.7528389288946
 20
129.2528292773946
 30
0.0
 11
116.8890272624446
 21
129.2528292773946
 31
0.0
  0
LINE
  5
434
330
70
100
AcDbEntity
  8
Bemaßung
 62
     7
370
     9
100
AcDbLine
 10
117.7528389288946
 20
129.2807692773876
 30
0.0
 11
116.6765668458311
 21
129.2807692773876
 31
0.0
  0
LINE
  5
435
330
70
100
AcDbEntity
  8
Bemaßung
 62
     7
370
     9
100
AcDbLine
 10
117.7528389288946
 20
129.3085152496027
 30
0.0
 11
116.4643004569949
 21
129.3085152496027
 31
0.0
  0
LINE
  5
436
330
70
100
AcDbEntity
  8
Bemaßung
 62
     7
370
     9
100
AcDbLine
 10
117.7528389288946
 20
129.3364552495958
 30
0.0
 11
116.2522280959366
 21
129.3364552495958
 31
0.0
  0
LINE
  5
437
330
70
100
AcDbEntity
  8
Bemaßung
 62
     7
370
     9
100
AcDbLine
 10
117.7528389288946
 20
129.3643952495889
 30
0.0
 11
116.0399617071011
 21
129.3643952495889
 31
0.0
  0
LINE
  5
438
330
70
100
AcDbEntity
  8
Bemaßung
 62
     7
370
     9
100
AcDbLine
 10
117.7528389288946
 20
129.3925292773599
 30
0.0
 11
115.8276953182655
 21
129.3925292773599
 31
0.0
  0
LINE
  5
439
330
70
100
AcDbEntity
  8
Bemaßung
 62
     7
370
     9
100
AcDbLine
 10
117.7528389288946
 20
129.6437952495191
 30
0.0
 11
117.7378987900101
 21
129.6437952495191
 31
0.0
  0
LINE
  5
43A
330
70
100
AcDbEntity
  8
Bemaßung
 62
     7
370
     9
100
AcDbLine
 10
117.7528389288946
 20
129.6437952495191
 30
0.0
 11
117.7378987900101
 21
129.6437952495191
 31
0.0
  0
LINE
  5
43B
330
70
100
AcDbEntity
  8
Bemaßung
 62
     7
370
     9
100
AcDbLine
 10
117.7528389288946
 20
129.6158552495261
 30
0.0
 11
117.5254383733966
 21
129.6158552495261
 31
0.0
  0
LINE
  5
43C
330
70
100
AcDbEntity
  8
Bemaßung
 62
     7
370
     9
100
AcDbLine
 10
117.7528389288946
 20
129.5881092773107
 30
0.0
 11
117.3131719845604
 21
129.5881092773107
 31
0.0
  0
LINE
  5
43D
330
70
100
AcDbEntity
  8
Bemaßung
 62
     7
370
     9
100
AcDbLine
 10
117.7528389288946
 20
129.5601692773176
 30
0.0
 11
117.1010996235022
 21
129.5601692773176
 31
0.0
  0
LINE
  5
43E
330
70
100
AcDbEntity
  8
Bemaßung
 62
     7
370
     9
100
AcDbLine
 10
117.7528389288946
 20
129.5322292773249
 30
0.0
 11
116.8890272624446
 21
129.5322292773249
 31
0.0
  0
LINE
  5
43F
330
70
100
AcDbEntity
  8
Bemaßung
 62
     7
370
     9
100
AcDbLine
 10
117.7528389288946
 20
129.5040952495542
 30
0.0
 11
116.6765668458311
 21
129.5040952495542
 31
0.0
  0
LINE
  5
440
330
70
100
AcDbEntity
  8
Bemaßung
 62
     7
370
     9
100
AcDbLine
 10
117.7528389288946
 20
129.4761552495611
 30
0.0
 11
116.4643004569949
 21
129.4761552495611
 31
0.0
  0
LINE
  5
441
330
70
100
AcDbEntity
  8
Bemaßung
 62
     7
370
     9
100
AcDbLine
 10
117.7528389288946
 20
129.4484092773457
 30
0.0
 11
116.2522280959366
 21
129.4484092773457
 31
0.0
  0
LINE
  5
442
330
70
100
AcDbEntity
  8
Bemaßung
 62
     7
370
     9
100
AcDbLine
 10
117.7528389288946
 20
129.4204692773529
 30
0.0
 11
116.0399617071011
 21
129.4204692773529
 31
0.0
  0
LINE
  5
443
330
70
100
AcDbEntity
  8
Bemaßung
 62
     7
370
     9
100
AcDbLine
 10
117.7528389288946
 20
129.3925292773599
 30
0.0
 11
115.8276953182655
 21
129.3925292773599
 31
0.0
  0
LINE
  5
444
330
70
100
AcDbEntity
  8
Bemaßung
 62
     7
370
     9
100
AcDbLine
 10
115.8276953182655
 20
221.3874557236651
 30
0.0
 11
115.8276953182655
 21
212.2121530756984
 31
0.0
  0
LWPOLYLINE
  5
445
330
70
100
AcDbEntity
  8
Bemaßung
 62
     7
370
     9
100
AcDbPolyline
 90
        4
 70
     0
 43
0.0
 10
115.8276953182655
 20
220.3448706464657
 10
117.7528389288946
 20
220.0914703687511
 10
117.7528389288946
 20
220.5984649519579
 10
115.8276953182655
 20
220.3448706464657
  0
LINE
  5
446
330
70
100
AcDbEntity
  8
Bemaßung
 62
     7
370
     9
100
AcDbLine
 10
117.7528389288946
 20
220.0936046743061
 30
0.0
 11
117.7378987900101
 21
220.0936046743061
 31
0.0
  0
LINE
  5
447
330
70
100
AcDbEntity
  8
Bemaßung
 62
     7
370
     9
100
AcDbLine
 10
117.7528389288946
 20
220.0936046743061
 30
0.0
 11
117.7378987900101
 21
220.0936046743061
 31
0.0
  0
LINE
  5
448
330
70
100
AcDbEntity
  8
Bemaßung
 62
     7
370
     9
100
AcDbLine
 10
117.7528389288946
 20
220.1215446742992
 30
0.0
 11
117.5254383733966
 21
220.1215446742992
 31
0.0
  0
LINE
  5
449
330
70
100
AcDbEntity
  8
Bemaßung
 62
     7
370
     9
100
AcDbLine
 10
117.7528389288946
 20
220.1492906465146
 30
0.0
 11
117.3131719845604
 21
220.1492906465146
 31
0.0
  0
LINE
  5
44A
330
70
100
AcDbEntity
  8
Bemaßung
 62
     7
370
     9
100
AcDbLine
 10
117.7528389288946
 20
220.1772306465077
 30
0.0
 11
117.1010996235022
 21
220.1772306465077
 31
0.0
  0
LINE
  5
44B
330
70
100
AcDbEntity
  8
Bemaßung
 62
     7
370
     9
100
AcDbLine
 10
117.7528389288946
 20
220.2053646742784
 30
0.0
 11
116.8890272624446
 21
220.2053646742784
 31
0.0
  0
LINE
  5
44C
330
70
100
AcDbEntity
  8
Bemaßung
 62
     7
370
     9
100
AcDbLine
 10
117.7528389288946
 20
220.2333046742714
 30
0.0
 11
116.6765668458311
 21
220.2333046742714
 31
0.0
  0
LINE
  5
44D
330
70
100
AcDbEntity
  8
Bemaßung
 62
     7
370
     9
100
AcDbLine
 10
117.7528389288946
 20
220.2612446742645
 30
0.0
 11
116.4643004569949
 21
220.2612446742645
 31
0.0
  0
LINE
  5
44E
330
70
100
AcDbEntity
  8
Bemaßung
 62
     7
370
     9
100
AcDbLine
 10
117.7528389288946
 20
220.2889906464796
 30
0.0
 11
116.2522280959366
 21
220.2889906464796
 31
0.0
  0
LINE
  5
44F
330
70
100
AcDbEntity
  8
Bemaßung
 62
     7
370
     9
100
AcDbLine
 10
117.7528389288946
 20
220.3169306464726
 30
0.0
 11
116.0399617071011
 21
220.3169306464726
 31
0.0
  0
LINE
  5
450
330
70
100
AcDbEntity
  8
Bemaßung
 62
     7
370
     9
100
AcDbLine
 10
117.7528389288946
 20
220.3448706464657
 30
0.0
 11
115.8276953182655
 21
220.3448706464657
 31
0.0
  0
LINE
  5
451
330
70
100
AcDbEntity
  8
Bemaßung
 62
     7
370
     9
100
AcDbLine
 10
117.7528389288946
 20
220.5963306464029
 30
0.0
 11
117.7378987900101
 21
220.5963306464029
 31
0.0
  0
LINE
  5
452
330
70
100
AcDbEntity
  8
Bemaßung
 62
     7
370
     9
100
AcDbLine
 10
117.7528389288946
 20
220.5963306464029
 30
0.0
 11
117.7378987900101
 21
220.5963306464029
 31
0.0
  0
LINE
  5
453
330
70
100
AcDbEntity
  8
Bemaßung
 62
     7
370
     9
100
AcDbLine
 10
117.7528389288946
 20
220.5683906464099
 30
0.0
 11
117.5254383733966
 21
220.5683906464099
 31
0.0
  0
LINE
  5
454
330
70
100
AcDbEntity
  8
Bemaßung
 62
     7
370
     9
100
AcDbLine
 10
117.7528389288946
 20
220.5406446741945
 30
0.0
 11
117.3131719845604
 21
220.5406446741945
 31
0.0
  0
LINE
  5
455
330
70
100
AcDbEntity
  8
Bemaßung
 62
     7
370
     9
100
AcDbLine
 10
117.7528389288946
 20
220.5127046742014
 30
0.0
 11
117.1010996235022
 21
220.5127046742014
 31
0.0
  0
LINE
  5
456
330
70
100
AcDbEntity
  8
Bemaßung
 62
     7
370
     9
100
AcDbLine
 10
117.7528389288946
 20
220.4845706464307
 30
0.0
 11
116.8890272624446
 21
220.4845706464307
 31
0.0
  0
LINE
  5
457
330
70
100
AcDbEntity
  8
Bemaßung
 62
     7
370
     9
100
AcDbLine
 10
117.7528389288946
 20
220.4566306464376
 30
0.0
 11
116.6765668458311
 21
220.4566306464376
 31
0.0
  0
LINE
  5
458
330
70
100
AcDbEntity
  8
Bemaßung
 62
     7
370
     9
100
AcDbLine
 10
117.7528389288946
 20
220.4286906464446
 30
0.0
 11
116.4643004569949
 21
220.4286906464446
 31
0.0
  0
LINE
  5
459
330
70
100
AcDbEntity
  8
Bemaßung
 62
     7
370
     9
100
AcDbLine
 10
117.7528389288946
 20
220.4009446742295
 30
0.0
 11
116.2522280959366
 21
220.4009446742295
 31
0.0
  0
LINE
  5
45A
330
70
100
AcDbEntity
  8
Bemaßung
 62
     7
370
     9
100
AcDbLine
 10
117.7528389288946
 20
220.3730046742364
 30
0.0
 11
116.0399617071011
 21
220.3730046742364
 31
0.0
  0
LINE
  5
45B
330
70
100
AcDbEntity
  8
Bemaßung
 62
     7
370
     9
100
AcDbLine
 10
117.7528389288946
 20
220.3448706464657
 30
0.0
 11
115.8276953182655
 21
220.3448706464657
 31
0.0
  0
MTEXT
  5
45D
330
70
100
AcDbEntity
  8
Text
100
AcDbMText
 10
109.6308620602659
 20
198.2599914055131
 30
0.0
 40
0.2
 41
0.0
 46
0.0
 71
     7
 72
     1
  1
\C7;\FINDEX Univers 45 Light|b0|i0|c1;\H2.497667;\W1.000000;10
 11
0.0000000000000001
 21
1.0
 31
0.0
 73
     1
 44
1.0
  0
MTEXT
  5
45E
330
70
100
AcDbEntity
  8
Text
100
AcDbMText
 10
104.0405917437381
 20
198.9662359799893
 30
0.0
 40
0.2
 41
0.0
 46
0.0
 71
     7
 72
     1
  1
\C7;\FINDEX Univers 45 Light|b0|i0|c1;\H2.497667;\W1.000000;16,5
 11
0.0000000000000001
 21
1.0
 31
0.0
 73
     1
 44
1.0
  0
MTEXT
  5
45F
330
70
100
AcDbEntity
  8
Text
100
AcDbMText
 10
98.67580292671995
 20
203.3601968892641
 30
0.0
 40
0.2
 41
0.0
 46
0.0
 71
     7
 72
     1
  1
\C7;\FINDEX Univers 45 Light|b0|i0|c1;\H2.497667;\W1.000000;30
 11
0.0000000000000001
 21
1.0
 31
0.0
 73
     1
 44
1.0
  0
MTEXT
  5
460
330
70
100
AcDbEntity
  8
Text
100
AcDbMText
 10
203.0307596334871
 20
199.0305731381764
 30
0.0
 40
0.2
 41
0.0
 46
0.0
 71
     7
 72
     1
  1
\C7;\FINDEX Univers 45 Light|b0|i0|c1;\H2.497667;\W1.000000;27,5
 11
0.0000000000000001
 21
1.0
 31
0.0
 73
     1
 44
1.0
  0
MTEXT
  5
461
330
70
100
AcDbEntity
  8
Text
100
AcDbMText
 10
117.1452182053057
 20
193.5724222335079
 30
0.0
 40
0.2
 41
0.0
 46
0.0
 71
     7
 72
     1
  1
\C7;\FINDEX Univers 45 Light|b0|i0|c1;\H2.497667;\W1.000000;8
 73
     1
 44
1.0
  0
MTEXT
  5
462
330
70
100
AcDbEntity
  8
Text
100
AcDbMText
 10
119.3934875189797
 20
187.8916320331052
 30
0.0
 40
0.2
 41
0.0
 46
0.0
 71
     7
 72
     1
  1
\C7;\FINDEX Univers 45 Light|b0|i0|c1;\H2.497667;\W1.000000;20
 73
     1
 44
1.0
  0
MTEXT
  5
463
330
70
100
AcDbEntity
  8
Text
100
AcDbMText
 10
126.3099473425544
 20
182.2560587109464
 30
0.0
 40
0.2
 41
0.0
 46
0.0
 71
     7
 72
     1
  1
\C7;\FINDEX Univers 45 Light|b0|i0|c1;\H2.497667;\W1.000000;49,7
 73
     1
 44
1.0
  0
MTEXT
  5
464
330
70
100
AcDbEntity
  8
Text
100
AcDbMText
 10
244.394126322365
 20
220.7163295617914
 30
0.0
 40
0.2
 41
0.0
 46
0.0
 71
     7
 72
     1
  1
\C7;\FINDEX Univers 45 Light|b0|i0|c1;\H2.497667;\W1.000000;16
 73
     1
 44
1.0
  0
MTEXT
  5
465
330
70
100
AcDbEntity
  8
Text
100
AcDbMText
 10
214.6213527566745
 20
205.9007825548616
 30
0.0
 40
0.2
 41
0.0
 46
0.0
 71
     7
 72
     1
  1
\C7;\FINDEX Univers 45 Light|b0|i0|c1;\H2.497667;\W1.000000;14,5
 11
0.0000000000000001
 21
1.0
 31
0.0
 73
     1
 44
1.0
  0
MTEXT
  5
466
330
70
100
AcDbEntity
  8
Text
100
AcDbMText
 10
203.1996554396515
 20
142.8333143089097
 30
0.0
 40
0.2
 41
0.0
 46
0.0
 71
     7
 72
     1
  1
\C7;\FINDEX Univers 45 Light|b0|i0|c1;\H2.497667;\W1.000000;34
 11
0.0000000000000001
 21
1.0
 31
0.0
 73
     1
 44
1.0
  0
MTEXT
  5
467
330
70
100
AcDbEntity
  8
Text
100
AcDbMText
 10
203.1996554396515
 20
159.8017876119592
 30
0.0
 40
0.2
 41
0.0
 46
0.0
 71
     7
 72
     1
  1
\C7;\FINDEX Univers 45 Light|b0|i0|c1;\H2.497667;\W1.000000;30
 11
0.0000000000000001
 21
1.0
 31
0.0
 73
     1
 44
1.0
  0
MTEXT
  5
468
330
70
100
AcDbEntity
  8
Text
100
AcDbMText
 10
137.3706847801104
 20
130.0452921224366
 30
0.0
 40
0.2
 41
0.0
 46
0.0
 71
     7
 72
     1
  1
\C7;\FINDEX Univers 45 Light|b0|i0|c1;\H2.497667;\W1.000000;87
 73
     1
 44
1.0
  0
LINE
  5
46A
330
70
100
AcDbEntity
  8
kräftige Pratze
 62
   250
370
    18
100
AcDbLine
 10
182.6308771071195
 20
205.1510920450629
 30
0.0
 11
182.4106555793972
 21
205.1510920450629
 31
0.0
  0
LWPOLYLINE
  5
46B
330
70
100
AcDbEntity
  8
kräftige Pratze
 62
   250
370
    18
100
AcDbPolyline
 90
       14
 70
     0
 43
0.0
 10
182.4106555793972
 20
199.3907953798362
 10
182.4106555793972
 20
199.7417916297485
 10
182.4106555793972
 20
200.1896077407481
 10
182.4106555793972
 20
200.7158110739497
 10
182.4106555793972
 20
201.2978944071373
 10
182.4106555793972
 20
201.912574406984
 10
182.4106555793972
 20
202.5346274623839
 10
182.4106555793972
 20
203.138053851122
 10
182.4106555793972
 20
203.6980180176484
 10
182.4106555793972
 20
204.1914306564143
 10
182.4106555793972
 20
204.5979188507568
 10
182.4106555793972
 20
204.9009902395698
 10
182.4106555793972
 20
205.0878389895233
 10
182.4106555793972
 20
205.1510920450629
  0
LWPOLYLINE
  5
46C
330
70
100
AcDbEntity
  8
kräftige Pratze
 62
   250
370
    18
100
AcDbPolyline
 90
        4
 70
     0
 43
0.0
 10
182.4106555793972
 20
198.5935352411467
 10
182.4106555793972
 20
198.9109646855119
 10
182.4106555793972
 20
199.1886184354424
 10
182.4106555793972
 20
199.3907953798362
  0
LINE
  5
46D
330
70
100
AcDbEntity
  8
kräftige Pratze
 62
   250
370
    18
100
AcDbLine
 10
182.4106555793972
 20
198.5935352411467
 30
0.0
 11
182.4106555793972
 21
198.5572520467116
 31
0.0
  0
LWPOLYLINE
  5
46E
330
70
100
AcDbEntity
  8
kräftige Pratze
 62
   250
370
    18
100
AcDbPolyline
 90
        5
 70
     0
 43
0.0
 10
182.6308771071195
 20
197.6841270469298
 10
182.4106555793972
 20
197.6841270469298
 10
182.4106555793972
 20
197.8676773246617
 10
182.4106555793972
 20
198.1775396856957
 10
182.4106555793972
 20
198.5572520467116
  0
LINE
  5
46F
330
70
100
AcDbEntity
  8
kräftige Pratze
 62
   250
370
    18
100
AcDbLine
 10
182.4106555793972
 20
199.1827976021106
 30
0.0
 11
182.6308771071195
 21
199.1827976021106
 31
0.0
  0
LINE
  5
470
330
70
100
AcDbEntity
  8
kräftige Pratze
 62
   250
370
    18
100
AcDbLine
 10
183.8406403012619
 20
209.6474917661615
 30
0.0
 11
183.8406403012619
 21
194.5224444088311
 31
0.0
  0
LINE
  5
471
330
70
100
AcDbEntity
  8
kräftige Pratze
 62
   250
370
    18
100
AcDbLine
 10
188.570843494524
 20
209.6474917661615
 30
0.0
 11
183.8406403012619
 21
209.6474917661615
 31
0.0
  0
LINE
  5
472
330
70
100
AcDbEntity
  8
kräftige Pratze
 62
   250
370
    18
100
AcDbLine
 10
189.6709809942492
 20
208.0764488498874
 30
0.0
 11
188.570843494524
 21
209.6474917661615
 31
0.0
  0
LINE
  5
473
330
70
100
AcDbEntity
  8
kräftige Pratze
 62
   250
370
    18
100
AcDbLine
 10
189.6709809942492
 20
196.0932932973276
 30
0.0
 11
189.6709809942492
 21
208.0764488498874
 31
0.0
  0
LINE
  5
474
330
70
100
AcDbEntity
  8
kräftige Pratze
 62
   250
370
    18
100
AcDbLine
 10
188.570843494524
 20
194.5224444088311
 30
0.0
 11
189.6709809942492
 21
196.0932932973276
 31
0.0
  0
LINE
  5
475
330
70
100
AcDbEntity
  8
kräftige Pratze
 62
   250
370
    18
100
AcDbLine
 10
183.8406403012619
 20
194.5224444088311
 30
0.0
 11
188.570843494524
 21
194.5224444088311
 31
0.0
  0
LINE
  5
476
330
70
100
AcDbEntity
  8
kräftige Pratze
 62
   250
370
    18
100
AcDbLine
 10
181.4843669685181
 20
196.1722626028632
 30
0.0
 11
180.5410039131983
 21
194.8249337143112
 31
0.0
  0
LINE
  5
477
330
70
100
AcDbEntity
  8
kräftige Pratze
 62
   250
370
    18
100
AcDbLine
 10
181.4843669685181
 20
196.1722626028632
 30
0.0
 11
181.530933635173
 21
196.1722626028632
 31
0.0
  0
LWPOLYLINE
  5
478
330
70
100
AcDbEntity
  8
kräftige Pratze
 62
   250
370
    18
100
AcDbPolyline
 90
        7
 70
     0
 43
0.0
 10
182.6308771071195
 20
197.2724001025881
 10
182.5934297460185
 20
196.9875673248816
 10
182.4834159960454
 20
196.7223313527261
 10
182.3087909960894
 20
196.4945427416716
 10
182.0808083572576
 20
196.3195296861597
 10
181.8155723851015
 20
196.2099039917431
 10
181.530933635173
 20
196.1722626028632
  0
LINE
  5
479
330
70
100
AcDbEntity
  8
kräftige Pratze
 62
   250
370
    18
100
AcDbLine
 10
182.6308771071195
 20
206.8973420446263
 30
0.0
 11
182.6308771071195
 21
197.2724001025881
 31
0.0
  0
LWPOLYLINE
  5
47A
330
70
100
AcDbEntity
  8
kräftige Pratze
 62
   250
370
    18
100
AcDbPolyline
 90
        7
 70
     0
 43
0.0
 10
182.6308771071195
 20
206.8973420446263
 10
182.5934297460185
 20
207.1821748223334
 10
182.4834159960454
 20
207.4472167667112
 10
182.3087909960894
 20
207.6751994055431
 10
182.0808083572576
 20
207.850018433277
 10
181.8155723851015
 20
207.9600321832495
 10
181.530933635173
 20
207.9974795443515
  0
LINE
  5
47B
330
70
100
AcDbEntity
  8
kräftige Pratze
 62
   250
370
    18
100
AcDbLine
 10
181.4843669685181
 20
207.9974795443515
 30
0.0
 11
181.530933635173
 21
207.9974795443515
 31
0.0
  0
LINE
  5
47C
330
70
100
AcDbEntity
  8
kräftige Pratze
 62
   250
370
    18
100
AcDbLine
 10
180.5410039131983
 20
209.6474917661615
 30
0.0
 11
183.8406403012619
 21
209.6474917661615
 31
0.0
  0
LINE
  5
47D
330
70
100
AcDbEntity
  8
kräftige Pratze
 62
   250
370
    18
100
AcDbLine
 10
183.8406403012619
 20
194.5224444088311
 30
0.0
 11
180.5410039131983
 21
194.5224444088311
 31
0.0
  0
LINE
  5
47E
330
70
100
AcDbEntity
  8
kräftige Pratze
 62
   250
370
    18
100
AcDbLine
 10
194.6206296041225
 20
206.4846449613964
 30
0.0
 11
189.6709809942492
 21
206.4846449613964
 31
0.0
  0
LINE
  5
47F
330
70
100
AcDbEntity
  8
kräftige Pratze
 62
   250
370
    18
100
AcDbLine
 10
189.6709809942492
 20
197.6849031580407
 30
0.0
 11
194.6206296041225
 21
197.6849031580407
 31
0.0
  0
SPLINE
  5
480
330
70
100
AcDbEntity
  8
kräftige Pratze
 62
   250
370
    18
100
AcDbSpline
210
0.0
220
0.0
230
1.0
 70
     8
 71
     3
 72
     8
 73
     4
 74
     0
 42
0.0000000001
 43
0.0000000001
 40
0.0
 40
0.0
 40
0.0
 40
0.0
 40
1.0
 40
1.0
 40
1.0
 40
1.0
 10
195.1708923817631
 20
205.9349642670891
 30
0.0
 10
195.1708923817631
 20
206.2384237114577
 30
0.0
 10
194.9244771040467
 20
206.4846449613964
 30
0.0
 10
194.6206296041225
 20
206.4846449613964
 30
0.0
  0
SPLINE
  5
481
330
70
100
AcDbEntity
  8
kräftige Pratze
 62
   250
370
    18
100
AcDbSpline
210
0.0
220
0.0
230
1.0
 70
     8
 71
     3
 72
     8
 73
     4
 74
     0
 42
0.0000000001
 43
0.0000000001
 40
0.0
 40
0.0
 40
0.0
 40
0.0
 40
1.0
 40
1.0
 40
1.0
 40
1.0
 10
194.6206296041225
 20
197.6849031580407
 30
0.0
 10
194.9244771040467
 20
197.6849031580407
 30
0.0
 10
195.1708923817631
 20
197.9311244079793
 30
0.0
 10
195.1708923817631
 20
198.2347778801256
 30
0.0
  0
LWPOLYLINE
  5
482
330
70
100
AcDbEntity
  8
kräftige Pratze
 62
   250
370
    18
100
AcDbPolyline
 90
       19
 70
     0
 43
0.0
 10
195.1708923817631
 20
205.9349642670891
 10
195.1708923817631
 20
205.8761738504374
 10
195.1708923817631
 20
205.7027130171472
 10
195.1708923817631
 20
205.4190444061073
 10
195.1708923817631
 20
205.0338992673145
 10
195.1708923817631
 20
204.5596953785443
 10
195.1708923817631
 20
204.0096266286814
 10
195.1708923817631
 20
203.4015435732784
 10
195.1708923817631
 20
202.7532967678848
 10
195.1708923817631
 20
202.0848710736073
 10
195.1708923817631
 20
201.4162513515525
 10
195.1708923817631
 20
200.768004546159
 10
195.1708923817631
 20
200.1597274629773
 10
195.1708923817631
 20
199.6102407964486
 10
195.1708923817631
 20
199.1354548243446
 10
195.1708923817631
 20
198.7505037133301
 10
195.1708923817631
 20
198.4668351022895
 10
195.1708923817631
 20
198.293180241222
 10
195.1708923817631
 20
198.2347778801256
  0
LINE
  5
483
330
70
100
AcDbEntity
  8
kräftige Pratze
 62
   250
370
    18
100
AcDbLine
 10
181.827602107321
 20
199.3349153798504
 30
0.0
 11
182.4106555793972
 21
199.3349153798504
 31
0.0
  0
LINE
  5
484
330
70
100
AcDbEntity
  8
kräftige Pratze
 62
   250
370
    18
100
AcDbLine
 10
182.4106555793972
 20
204.8348267673643
 30
0.0
 11
181.827602107321
 21
204.8348267673643
 31
0.0
  0
LINE
  5
485
330
70
100
AcDbEntity
  8
kräftige Pratze
 62
     7
370
     9
100
AcDbLine
 10
195.1708923817631
 20
221.2904217499986
 30
0.0
 11
195.1708923817631
 21
204.7405371033749
 31
0.0
  0
LINE
  5
486
330
70
100
AcDbEntity
  8
kräftige Pratze
 62
     7
370
     9
100
AcDbLine
 10
195.1708923817631
 20
220.3448706464657
 30
0.0
 11
115.8276953182655
 21
220.3448706464657
 31
0.0
  0
LWPOLYLINE
  5
487
330
70
100
AcDbEntity
  8
kräftige Pratze
 62
     7
370
     9
100
AcDbPolyline
 90
        4
 70
     0
 43
0.0
 10
195.1708923817631
 20
220.3448706464657
 10
193.2457487711327
 20
220.5984649519579
 10
193.2457487711327
 20
220.0914703687511
 10
195.1708923817631
 20
220.3448706464657
  0
LINE
  5
488
330
70
100
AcDbEntity
  8
kräftige Pratze
 62
     7
370
     9
100
AcDbLine
 10
193.2457487711327
 20
220.5963306464029
 30
0.0
 11
193.2606889100178
 21
220.5963306464029
 31
0.0
  0
LINE
  5
489
330
70
100
AcDbEntity
  8
kräftige Pratze
 62
     7
370
     9
100
AcDbLine
 10
193.2457487711327
 20
220.5963306464029
 30
0.0
 11
193.2606889100178
 21
220.5963306464029
 31
0.0
  0
LINE
  5
48A
330
70
100
AcDbEntity
  8
kräftige Pratze
 62
     7
370
     9
100
AcDbLine
 10
193.2457487711327
 20
220.5683906464099
 30
0.0
 11
193.4731493266319
 21
220.5683906464099
 31
0.0
  0
LINE
  5
48B
330
70
100
AcDbEntity
  8
kräftige Pratze
 62
     7
370
     9
100
AcDbLine
 10
193.2457487711327
 20
220.5406446741945
 30
0.0
 11
193.6854157154675
 21
220.5406446741945
 31
0.0
  0
LINE
  5
48C
330
70
100
AcDbEntity
  8
kräftige Pratze
 62
     7
370
     9
100
AcDbLine
 10
193.2457487711327
 20
220.5127046742014
 30
0.0
 11
193.8974880765251
 21
220.5127046742014
 31
0.0
  0
LINE
  5
48D
330
70
100
AcDbEntity
  8
kräftige Pratze
 62
     7
370
     9
100
AcDbLine
 10
193.2457487711327
 20
220.4845706464307
 30
0.0
 11
194.1095604375833
 21
220.4845706464307
 31
0.0
  0
LINE
  5
48E
330
70
100
AcDbEntity
  8
kräftige Pratze
 62
     7
370
     9
100
AcDbLine
 10
193.2457487711327
 20
220.4566306464376
 30
0.0
 11
194.3220208541975
 21
220.4566306464376
 31
0.0
  0
LINE
  5
48F
330
70
100
AcDbEntity
  8
kräftige Pratze
 62
     7
370
     9
100
AcDbLine
 10
193.2457487711327
 20
220.4286906464446
 30
0.0
 11
194.534287243033
 21
220.4286906464446
 31
0.0
  0
LINE
  5
490
330
70
100
AcDbEntity
  8
kräftige Pratze
 62
     7
370
     9
100
AcDbLine
 10
193.2457487711327
 20
220.4009446742295
 30
0.0
 11
194.7463596040907
 21
220.4009446742295
 31
0.0
  0
LINE
  5
491
330
70
100
AcDbEntity
  8
kräftige Pratze
 62
     7
370
     9
100
AcDbLine
 10
193.2457487711327
 20
220.3730046742364
 30
0.0
 11
194.9584319651489
 21
220.3730046742364
 31
0.0
  0
LINE
  5
492
330
70
100
AcDbEntity
  8
kräftige Pratze
 62
     7
370
     9
100
AcDbLine
 10
193.2457487711327
 20
220.3448706464657
 30
0.0
 11
195.1708923817631
 21
220.3448706464657
 31
0.0
  0
LINE
  5
493
330
70
100
AcDbEntity
  8
kräftige Pratze
 62
     7
370
     9
100
AcDbLine
 10
193.2457487711327
 20
220.0936046743061
 30
0.0
 11
193.2606889100178
 21
220.0936046743061
 31
0.0
  0
LINE
  5
494
330
70
100
AcDbEntity
  8
kräftige Pratze
 62
     7
370
     9
100
AcDbLine
 10
193.2457487711327
 20
220.0936046743061
 30
0.0
 11
193.2606889100178
 21
220.0936046743061
 31
0.0
  0
LINE
  5
495
330
70
100
AcDbEntity
  8
kräftige Pratze
 62
     7
370
     9
100
AcDbLine
 10
193.2457487711327
 20
220.1215446742992
 30
0.0
 11
193.4731493266319
 21
220.1215446742992
 31
0.0
  0
LINE
  5
496
330
70
100
AcDbEntity
  8
kräftige Pratze
 62
     7
370
     9
100
AcDbLine
 10
193.2457487711327
 20
220.1492906465146
 30
0.0
 11
193.6854157154675
 21
220.1492906465146
 31
0.0
  0
LINE
  5
497
330
70
100
AcDbEntity
  8
kräftige Pratze
 62
     7
370
     9
100
AcDbLine
 10
193.2457487711327
 20
220.1772306465077
 30
0.0
 11
193.8974880765251
 21
220.1772306465077
 31
0.0
  0
LINE
  5
498
330
70
100
AcDbEntity
  8
kräftige Pratze
 62
     7
370
     9
100
AcDbLine
 10
193.2457487711327
 20
220.2053646742784
 30
0.0
 11
194.1095604375833
 21
220.2053646742784
 31
0.0
  0
LINE
  5
499
330
70
100
AcDbEntity
  8
kräftige Pratze
 62
     7
370
     9
100
AcDbLine
 10
193.2457487711327
 20
220.2333046742714
 30
0.0
 11
194.3220208541975
 21
220.2333046742714
 31
0.0
  0
LINE
  5
49A
330
70
100
AcDbEntity
  8
kräftige Pratze
 62
     7
370
     9
100
AcDbLine
 10
193.2457487711327
 20
220.2612446742645
 30
0.0
 11
194.534287243033
 21
220.2612446742645
 31
0.0
  0
LINE
  5
49B
330
70
100
AcDbEntity
  8
kräftige Pratze
 62
     7
370
     9
100
AcDbLine
 10
193.2457487711327
 20
220.2889906464796
 30
0.0
 11
194.7463596040907
 21
220.2889906464796
 31
0.0
  0
LINE
  5
49C
330
70
100
AcDbEntity
  8
kräftige Pratze
 62
     7
370
     9
100
AcDbLine
 10
193.2457487711327
 20
220.3169306464726
 30
0.0
 11
194.9584319651489
 21
220.3169306464726
 31
0.0
  0
LINE
  5
49D
330
70
100
AcDbEntity
  8
kräftige Pratze
 62
     7
370
     9
100
AcDbLine
 10
193.2457487711327
 20
220.3448706464657
 30
0.0
 11
195.1708923817631
 21
220.3448706464657
 31
0.0
  0
MTEXT
  5
49E
330
70
100
AcDbEntity
  8
kräftige Pratze
100
AcDbMText
 10
152.3290309949038
 20
221.0875386003271
 30
0.0
 40
0.2
 41
0.0
 46
0.0
 71
     7
 72
     1
  1
\C7;\FINDEX Univers 45 Light|b0|i0|c1;\H2.497667;\W1.000000;144,3
 73
     1
 44
1.0
  0
LWPOLYLINE
  5
49F
330
70
100
AcDbEntity
  8
kräftige Pratze
 62
   250
370
    18
100
AcDbPolyline
 90
        5
 70
     0
 43
0.0
 10
189.6709809942492
 20
161.813683362044
 10
189.6709809942492
 20
146.4138926714493
 10
188.570843494524
 20
146.4138926714493
 10
188.570843494524
 20
161.813683362044
 10
189.6709809942492
 20
161.813683362044
  0
LINE
  5
4A0
330
70
100
AcDbEntity
  8
kräftige Pratze
 62
   250
370
    18
100
AcDbLine
 10
180.5410039131983
 20
149.7139171150688
 30
0.0
 11
183.8406403012619
 21
146.4138926714493
 31
0.0
  0
LINE
  5
4A1
330
70
100
AcDbEntity
  8
kräftige Pratze
 62
   250
370
    18
100
AcDbLine
 10
183.8406403012619
 20
161.813683362044
 30
0.0
 11
180.5410039131983
 21
158.5136589184249
 31
0.0
  0
LINE
  5
4A2
330
70
100
AcDbEntity
  8
kräftige Pratze
 62
   250
370
    18
100
AcDbLine
 10
183.8406403012619
 20
161.813683362044
 30
0.0
 11
188.570843494524
 21
161.813683362044
 31
0.0
  0
LINE
  5
4A3
330
70
100
AcDbEntity
  8
kräftige Pratze
 62
   250
370
    18
100
AcDbLine
 10
188.570843494524
 20
146.4138926714493
 30
0.0
 11
183.8406403012619
 21
146.4138926714493
 31
0.0
  0
LINE
  5
4A4
330
70
100
AcDbEntity
  8
kräftige Pratze
 62
   250
370
    18
100
AcDbLine
 10
194.6206296041225
 20
158.5136589184249
 30
0.0
 11
189.6709809942492
 21
158.5136589184249
 31
0.0
  0
LINE
  5
4A5
330
70
100
AcDbEntity
  8
kräftige Pratze
 62
   250
370
    18
100
AcDbLine
 10
189.6709809942492
 20
149.7139171150688
 30
0.0
 11
194.6206296041225
 21
149.7139171150688
 31
0.0
  0
SPLINE
  5
4A6
330
70
100
AcDbEntity
  8
kräftige Pratze
 62
   250
370
    18
100
AcDbSpline
210
0.0
220
0.0
230
1.0
 70
     8
 71
     3
 72
     8
 73
     4
 74
     0
 42
0.0000000001
 43
0.0000000001
 40
0.0
 40
0.0
 40
0.0
 40
0.0
 40
1.0
 40
1.0
 40
1.0
 40
1.0
 10
195.1708923817631
 20
157.9637841963399
 30
0.0
 10
195.1708923817631
 20
158.2674376684862
 30
0.0
 10
194.9244771040467
 20
158.5136589184249
 30
0.0
 10
194.6206296041225
 20
158.5136589184249
 30
0.0
  0
SPLINE
  5
4A7
330
70
100
AcDbEntity
  8
kräftige Pratze
 62
   250
370
    18
100
AcDbSpline
210
0.0
220
0.0
230
1.0
 70
     8
 71
     3
 72
     8
 73
     4
 74
     0
 42
0.0000000001
 43
0.0000000001
 40
0.0
 40
0.0
 40
0.0
 40
0.0
 40
1.0
 40
1.0
 40
1.0
 40
1.0
 10
194.6206296041225
 20
149.7139171150688
 30
0.0
 10
194.9244771040467
 20
149.7139171150688
 30
0.0
 10
195.1708923817631
 20
149.9601383650075
 30
0.0
 10
195.1708923817631
 20
150.2637918371537
 30
0.0
  0
LWPOLYLINE
  5
4A8
330
70
100
AcDbEntity
  8
kräftige Pratze
 62
   250
370
    18
100
AcDbPolyline
 90
       19
 70
     0
 43
0.0
 10
195.1708923817631
 20
157.9637841963399
 10
195.1708923817631
 20
157.9053818352432
 10
195.1708923817631
 20
157.7315329463978
 10
195.1708923817631
 20
157.4478643353578
 10
195.1708923817631
 20
157.0631072521206
 10
195.1708923817631
 20
156.5887093355725
 10
195.1708923817631
 20
156.0388346134879
 10
195.1708923817631
 20
155.4307515580842
 10
195.1708923817631
 20
154.7823107249126
 10
195.1708923817631
 20
154.1136910028578
 10
195.1708923817631
 20
153.4452653085804
 10
195.1708923817631
 20
152.7972125309648
 10
195.1708923817631
 20
152.1887414200058
 10
195.1708923817631
 20
151.6392547534765
 10
195.1708923817631
 20
151.1644687813731
 10
195.1708923817631
 20
150.7797116981359
 10
195.1708923817631
 20
150.4960430870959
 10
195.1708923817631
 20
150.3221941982501
 10
195.1708923817631
 20
150.2637918371537
  0
ENDSEC
  0
SECTION
  2
OBJECTS
  0
DICTIONARY
  5
C
330
0
100
AcDbDictionary
281
     1
  3
ACAD_COLOR
350
63
  3
ACAD_DETAILVIEWSTYLE
350
6A
  3
ACAD_GROUP
350
D
  3
ACAD_LAYOUT
350
62
  3
ACAD_MATERIAL
350
10
  3
ACAD_MLEADERSTYLE
350
66
  3
ACAD_MLINESTYLE
350
5F
  3
ACAD_PLOTSETTINGS
350
61
  3
ACAD_PLOTSTYLENAME
350
E
  3
ACAD_SCALELIST
350
42
  3
ACAD_SECTIONVIEWSTYLE
350
68
  3
ACAD_TABLESTYLE
350
64
  3
ACAD_VISUALSTYLE
350
29
  3
ACDB_RECOMPOSE_DATA
350
4B1
  3
AcDbVariableDictionary
350
4A9
  0
DICTIONARY
  5
63
102
{ACAD_REACTORS
330
C
102
}
330
C
100
AcDbDictionary
281
     1
  0
DICTIONARY
  5
6A
102
{ACAD_REACTORS
330
C
102
}
330
C
100
AcDbDictionary
281
     1
  3
Imperial24
350
6B
  0
DICTIONARY
  5
D
102
{ACAD_REACTORS
330
C
102
}
330
C
100
AcDbDictionary
281
     1
  0
DICTIONARY
  5
62
102
{ACAD_REACTORS
330
C
102
}
330
C
100
AcDbDictionary
281
     1
  3
Layout1
350
6F
  3
Layout2
350
77
  3
Model
350
73
  0
DICTIONARY
  5
10
102
{ACAD_REACTORS
330
C
102
}
330
C
100
AcDbDictionary
281
     1
  3
ByBlock
350
19
  3
ByLayer
350
11
  3
Global
350
21
  0
DICTIONARY
  5
66
102
{ACAD_REACTORS
330
C
102
}
330
C
100
AcDbDictionary
281
     1
  3
Standard
350
67
  0
DICTIONARY
  5
5F
102
{ACAD_REACTORS
330
C
102
}
330
C
100
AcDbDictionary
281
     1
  3
Standard
350
60
  0
DICTIONARY
  5
61
102
{ACAD_REACTORS
330
C
102
}
330
C
100
AcDbDictionary
281
     1
  0
ACDBDICTIONARYWDFLT
  5
E
102
{ACAD_REACTORS
330
C
102
}
330
C
100
AcDbDictionary
281
     1
  3
Normal
350
F
100
AcDbDictionaryWithDefault
340
F
  0
DICTIONARY
  5
42
102
{ACAD_REACTORS
330
C
102
}
330
C
100
AcDbDictionary
281
     1
  3
A0
350
43
  3
A1
350
44
  3
A2
350
45
  3
A3
350
46
  3
A4
350
47
  3
A5
350
48
  3
A6
350
49
  3
A7
350
4A
  3
A8
350
4B
  3
A9
350
4C
  3
B0
350
4D
  3
B1
350
4E
  3
B2
350
4F
  3
B3
350
50
  3
B4
350
51
  3
B5
350
52
  3
B6
350
53
  0
DICTIONARY
  5
68
102
{ACAD_REACTORS
330
C
102
}
330
C
100
AcDbDictionary
281
     1
  3
Imperial24
350
69
  0
DICTIONARY
  5
64
102
{ACAD_REACTORS
330
C
102
}
330
C
100
AcDbDictionary
281
     1
  3
Standard
350
65
  0
DICTIONARY
  5
29
102
{ACAD_REACTORS
330
C
102
}
330
C
100
AcDbDictionary
281
     1
  3
2dWireframe
350
2F
  3
Basic
350
2E
  3
Brighten
350
35
  3
ColorChange
350
39
  3
Conceptual
350
32
  3
Dim
350
34
  3
EdgeColorOff
350
41
  3
Facepattern
350
38
  3
Flat
350
2A
  3
FlatWithEdges
350
2B
  3
Gouraud
350
2C
  3
GouraudWithEdges
350
2D
  3
Hidden
350
31
  3
JitterOff
350
3F
  3
Linepattern
350
37
  3
OverhangOff
350
40
  3
Realistic
350
33
  3
Shaded
350
3E
  3
Shaded with edges
350
3D
  3
Shades of Gray
350
3A
  3
Sketchy
350
3B
  3
Thicken
350
36
  3
Wireframe
350
30
  3
X-Ray
350
3C
  0
XRECORD
  5
4B1
102
{ACAD_REACTORS
330
C
102
}
330
C
100
AcDbXrecord
280
     1
 90
        1
330
65
  0
DICTIONARY
  5
4A9
102
{ACAD_REACTORS
330
C
102
}
330
C
100
AcDbDictionary
281
     1
  3
CANNOSCALE
350
4AE
  3
CMLEADERSTYLE
350
4AB
  3
CTABLESTYLE
350
4AA
  3
CVIEWDETAILSTYLE
350
4AC
  3
CVIEWSECTIONSTYLE
350
4AD
  0
ACDBDETAILVIEWSTYLE
  5
6B
102
{ACAD_REACTORS
330
6A
102
}
330
6A
100
AcDbModelDocViewStyle
 70
     0
  3
Imperial24
290
     1
300
Imperial24
 90
        0
100
AcDbDetailViewStyle
 70
     0
 71
     0
 90
        3
 71
     1
340
55
 62
   256
 40
0.24
340
0
 62
   256
 40
0.24
300

 40
0.36
280
     3
 71
     2
340
5D
 90
       25
 62
   256
 71
     3
340
55
 62
   256
 40
0.24
 90
        1
 40
0.75
 90
        1
300
%<\AcVar ViewType \f "%tc1">% %<\AcVar ViewDetailId>%\PSCALE %<\AcVar ViewScale \f "%sn">%
 71
     4
340
5D
 90
       25
 62
   256
340
5D
 90
       25
 62
   256
280
     0
  0
LAYOUT
  5
6F
102
{ACAD_REACTORS
330
62
102
}
330
62
100
AcDbPlotSettings
  1

  2

  4

  6

 40
0.0
 41
0.0
 42
0.0
 43
0.0
 44
0.0
 45
0.0
 46
0.0
 47
0.0
 48
0.0
 49
0.0
140
0.0
141
0.0
142
1.0
143
1.0
 70
   688
 72
     0
 73
     0
 74
     5
  7

 75
    16
147
1.0
 76
     0
 77
     2
 78
   300
148
0.0
149
0.0
100
AcDbLayout
  1
Layout1
 70
     1
 71
     1
 10
0.0
 20
0.0
 11
12.0
 21
9.0
 12
0.0
 22
0.0
 32
0.0
 14
0.0
 24
0.0
 34
0.0
 15
0.0
 25
0.0
 35
0.0
146
0.0
 13
0.0
 23
0.0
 33
0.0
 16
1.0
 26
0.0
 36
0.0
 17
0.0
 27
1.0
 37
0.0
 76
     0
330
6C
  0
LAYOUT
  5
77
102
{ACAD_REACTORS
330
62
102
}
330
62
100
AcDbPlotSettings
  1

  2

  4

  6

 40
0.0
 41
0.0
 42
0.0
 43
0.0
 44
0.0
 45
0.0
 46
0.0
 47
0.0
 48
0.0
 49
0.0
140
0.0
141
0.0
142
1.0
143
1.0
 70
   688
 72
     0
 73
     0
 74
     5
  7

 75
    16
147
1.0
 76
     0
 77
     2
 78
   300
148
0.0
149
0.0
100
AcDbLayout
  1
Layout2
 70
     1
 71
     2
 10
0.0
 20
0.0
 11
12.0
 21
9.0
 12
0.0
 22
0.0
 32
0.0
 14
0.0
 24
0.0
 34
0.0
 15
0.0
 25
0.0
 35
0.0
146
0.0
 13
0.0
 23
0.0
 33
0.0
 16
1.0
 26
0.0
 36
0.0
 17
0.0
 27
1.0
 37
0.0
 76
     0
330
74
  0
LAYOUT
  5
73
102
{ACAD_REACTORS
330
62
102
}
330
62
100
AcDbPlotSettings
  1

  2

  4

  6

 40
0.0
 41
0.0
 42
0.0
 43
0.0
 44
0.0
 45
0.0
 46
0.0
 47
0.0
 48
0.0
 49
0.0
140
0.0
141
0.0
142
1.0
143
1.0
 70
  1712
 72
     0
 73
     0
 74
     0
  7

 75
     0
147
1.0
 76
     0
 77
     2
 78
   300
148
0.0
149
0.0
100
AcDbLayout
  1
Model
 70
     1
 71
     0
 10
0.0
 20
0.0
 11
12.0
 21
9.0
 12
0.0
 22
0.0
 32
0.0
 14
0.0
 24
0.0
 34
0.0
 15
0.0
 25
0.0
 35
0.0
146
0.0
 13
0.0
 23
0.0
 33
0.0
 16
1.0
 26
0.0
 36
0.0
 17
0.0
 27
1.0
 37
0.0
 76
     0
330
70
  0
MATERIAL
  5
19
102
{ACAD_XDICTIONARY
360
1A
102
}
102
{ACAD_REACTORS
330
10
102
}
330
10
100
AcDbMaterial
  1
ByBlock
 72
     0
 43
0.0208333333333333
 43
0.0
 43
0.0
 43
0.0
 43
0.0
 43
0.0208333333333333
 43
0.0
 43
0.0
 43
0.0
 43
0.0
 43
1.0
 43
0.0
 43
0.0
 43
0.0
 43
0.0
 43
1.0
 77
     0
 47
0.0208333333333333
 47
0.0
 47
0.0
 47
0.0
 47
0.0
 47
0.0208333333333333
 47
0.0
 47
0.0
 47
0.0
 47
0.0
 47
1.0
 47
0.0
 47
0.0
 47
0.0
 47
0.0
 47
1.0
171
     0
 49
0.0208333333333333
 49
0.0
 49
0.0
 49
0.0
 49
0.0
 49
0.0208333333333333
 49
0.0
 49
0.0
 49
0.0
 49
0.0
 49
1.0
 49
0.0
 49
0.0
 49
0.0
 49
0.0
 49
1.0
175
     0
142
0.0208333333333333
142
0.0
142
0.0
142
0.0
142
0.0
142
0.0208333333333333
142
0.0
142
0.0
142
0.0
142
0.0
142
1.0
142
0.0
142
0.0
142
0.0
142
0.0
142
1.0
179
     0
144
0.0208333333333333
144
0.0
144
0.0
144
0.0
144
0.0
144
0.0208333333333333
144
0.0
144
0.0
144
0.0
144
0.0
144
1.0
144
0.0
144
0.0
144
0.0
144
0.0
144
1.0
147
0.0208333333333333
147
0.0
147
0.0
147
0.0
147
0.0
147
0.0208333333333333
147
0.0
147
0.0
147
0.0
147
0.0
147
1.0
147
0.0
147
0.0
147
0.0
147
0.0
147
1.0
  0
MATERIAL
  5
11
102
{ACAD_XDICTIONARY
360
12
102
}
102
{ACAD_REACTORS
330
10
102
}
330
10
100
AcDbMaterial
  1
ByLayer
 72
     0
 43
0.0208333333333333
 43
0.0
 43
0.0
 43
0.0
 43
0.0
 43
0.0208333333333333
 43
0.0
 43
0.0
 43
0.0
 43
0.0
 43
1.0
 43
0.0
 43
0.0
 43
0.0
 43
0.0
 43
1.0
 77
     0
 47
0.0208333333333333
 47
0.0
 47
0.0
 47
0.0
 47
0.0
 47
0.0208333333333333
 47
0.0
 47
0.0
 47
0.0
 47
0.0
 47
1.0
 47
0.0
 47
0.0
 47
0.0
 47
0.0
 47
1.0
171
     0
 49
0.0208333333333333
 49
0.0
 49
0.0
 49
0.0
 49
0.0
 49
0.0208333333333333
 49
0.0
 49
0.0
 49
0.0
 49
0.0
 49
1.0
 49
0.0
 49
0.0
 49
0.0
 49
0.0
 49
1.0
175
     0
142
0.0208333333333333
142
0.0
142
0.0
142
0.0
142
0.0
142
0.0208333333333333
142
0.0
142
0.0
142
0.0
142
0.0
142
1.0
142
0.0
142
0.0
142
0.0
142
0.0
142
1.0
179
     0
144
0.0208333333333333
144
0.0
144
0.0
144
0.0
144
0.0
144
0.0208333333333333
144
0.0
144
0.0
144
0.0
144
0.0
144
1.0
144
0.0
144
0.0
144
0.0
144
0.0
144
1.0
147
0.0208333333333333
147
0.0
147
0.0
147
0.0
147
0.0
147
0.0208333333333333
147
0.0
147
0.0
147
0.0
147
0.0
147
1.0
147
0.0
147
0.0
147
0.0
147
0.0
147
1.0
  0
MATERIAL
  5
21
102
{ACAD_XDICTIONARY
360
22
102
}
102
{ACAD_REACTORS
330
10
102
}
330
10
100
AcDbMaterial
  1
Global
 72
     0
 43
0.0208333333333333
 43
0.0
 43
0.0
 43
0.0
 43
0.0
 43
0.0208333333333333
 43
0.0
 43
0.0
 43
0.0
 43
0.0
 43
1.0
 43
0.0
 43
0.0
 43
0.0
 43
0.0
 43
1.0
 77
     0
 47
0.0208333333333333
 47
0.0
 47
0.0
 47
0.0
 47
0.0
 47
0.0208333333333333
 47
0.0
 47
0.0
 47
0.0
 47
0.0
 47
1.0
 47
0.0
 47
0.0
 47
0.0
 47
0.0
 47
1.0
171
     0
 49
0.0208333333333333
 49
0.0
 49
0.0
 49
0.0
 49
0.0
 49
0.0208333333333333
 49
0.0
 49
0.0
 49
0.0
 49
0.0
 49
1.0
 49
0.0
 49
0.0
 49
0.0
 49
0.0
 49
1.0
175
     0
142
0.0208333333333333
142
0.0
142
0.0
142
0.0
142
0.0
142
0.0208333333333333
142
0.0
142
0.0
142
0.0
142
0.0
142
1.0
142
0.0
142
0.0
142
0.0
142
0.0
142
1.0
179
     0
144
0.0208333333333333
144
0.0
144
0.0
144
0.0
144
0.0
144
0.0208333333333333
144
0.0
144
0.0
144
0.0
144
0.0
144
1.0
144
0.0
144
0.0
144
0.0
144
0.0
144
1.0
147
0.0208333333333333
147
0.0
147
0.0
147
0.0
147
0.0
147
0.0208333333333333
147
0.0
147
0.0
147
0.0
147
0.0
147
1.0
147
0.0
147
0.0
147
0.0
147
0.0
147
1.0
  0
MLEADERSTYLE
  5
67
102
{ACAD_REACTORS
330
66
102
}
330
66
100
AcDbMLeaderStyle
179
     2
170
     2
171
     1
172
     0
 90
        2
 40
0.0
 41
0.0
173
     1
 91
-1056964608
340
5B
 92
       -2
290
     1
 42
0.09
291
     1
 43
0.36
  3
Standard
 44
0.18
300

342
55
174
     1
178
     6
175
     1
176
     0
 93
-1056964608
 45
0.18
292
     0
297
     0
 46
0.18
 94
-1056964608
 47
1.0
 49
1.0
140
1.0
293
     1
141
0.0
294
     1
177
     0
142
1.0
295
     1
296
     0
143
0.125
271
     0
272
     9
273
     9
298
     1
  0
MLINESTYLE
  5
60
102
{ACAD_REACTORS
330
5F
102
}
330
5F
100
AcDbMlineStyle
  2
STANDARD
 70
     0
  3

 62
   256
 51
90.0
 52
90.0
 71
     2
 49
0.5
 62
   256
  6
BYLAYER
 49
-0.5
 62
   256
  6
BYLAYER
  0
ACDBPLACEHOLDER
  5
F
102
{ACAD_REACTORS
330
E
102
}
330
E
  0
SCALE
  5
43
102
{ACAD_REACTORS
330
42
102
}
330
42
100
AcDbScale
 70
     0
300
1:1
140
1.0
141
1.0
290
     1
  0
SCALE
  5
44
102
{ACAD_REACTORS
330
42
102
}
330
42
100
AcDbScale
 70
     0
300
1/128" = 1'-0"
140
0.0078125
141
12.0
290
     0
  0
SCALE
  5
45
102
{ACAD_REACTORS
330
42
102
}
330
42
100
AcDbScale
 70
     0
300
1/64" = 1'-0"
140
0.015625
141
12.0
290
     0
  0
SCALE
  5
46
102
{ACAD_REACTORS
330
42
102
}
330
42
100
AcDbScale
 70
     0
300
1/32" = 1'-0"
140
0.03125
141
12.0
290
     0
  0
SCALE
  5
47
102
{ACAD_REACTORS
330
42
102
}
330
42
100
AcDbScale
 70
     0
300
1/16" = 1'-0"
140
0.0625
141
12.0
290
     0
  0
SCALE
  5
48
102
{ACAD_REACTORS
330
42
102
}
330
42
100
AcDbScale
 70
     0
300
3/32" = 1'-0"
140
0.09375
141
12.0
290
     0
  0
SCALE
  5
49
102
{ACAD_REACTORS
330
42
102
}
330
42
100
AcDbScale
 70
     0
300
1/8" = 1'-0"
140
0.125
141
12.0
290
     0
  0
SCALE
  5
4A
102
{ACAD_REACTORS
330
42
102
}
330
42
100
AcDbScale
 70
     0
300
3/16" = 1'-0"
140
0.1875
141
12.0
290
     0
  0
SCALE
  5
4B
102
{ACAD_REACTORS
330
42
102
}
330
42
100
AcDbScale
 70
     0
300
1/4" = 1'-0"
140
0.25
141
12.0
290
     0
  0
SCALE
  5
4C
102
{ACAD_REACTORS
330
42
102
}
330
42
100
AcDbScale
 70
     0
300
3/8" = 1'-0"
140
0.375
141
12.0
290
     0
  0
SCALE
  5
4D
102
{ACAD_REACTORS
330
42
102
}
330
42
100
AcDbScale
 70
     0
300
1/2" = 1'-0"
140
0.5
141
12.0
290
     0
  0
SCALE
  5
4E
102
{ACAD_REACTORS
330
42
102
}
330
42
100
AcDbScale
 70
     0
300
3/4" = 1'-0"
140
0.75
141
12.0
290
     0
  0
SCALE
  5
4F
102
{ACAD_REACTORS
330
42
102
}
330
42
100
AcDbScale
 70
     0
300
1" = 1'-0"
140
1.0
141
12.0
290
     0
  0
SCALE
  5
50
102
{ACAD_REACTORS
330
42
102
}
330
42
100
AcDbScale
 70
     0
300
1-1/2" = 1'-0"
140
1.5
141
12.0
290
     0
  0
SCALE
  5
51
102
{ACAD_REACTORS
330
42
102
}
330
42
100
AcDbScale
 70
     0
300
3" = 1'-0"
140
3.0
141
12.0
290
     0
  0
SCALE
  5
52
102
{ACAD_REACTORS
330
42
102
}
330
42
100
AcDbScale
 70
     0
300
6" = 1'-0"
140
6.0
141
12.0
290
     0
  0
SCALE
  5
53
102
{ACAD_REACTORS
330
42
102
}
330
42
100
AcDbScale
 70
     0
300
1'-0" = 1'-0"
140
12.0
141
12.0
290
     0
  0
ACDBSECTIONVIEWSTYLE
  5
69
102
{ACAD_REACTORS
330
68
102
}
330
68
100
AcDbModelDocViewStyle
 70
     0
  3
Imperial24
290
     1
300
Imperial24
 90
        0
100
AcDbSectionViewStyle
 70
     0
 71
     0
 90
       78
 71
     1
340
55
 62
   256
 40
0.24
340
0
340
0
 62
   256
 40
0.24
300
I, O, Q, S, X, Z
 40
0.48
 90
        3
 40
0.18
 90
        1
 71
     2
340
5D
 90
       25
 62
   256
340
5D
 90
       50
 62
   256
 40
0.24
 40
0.0
 40
0.24
 71
     3
340
55
 62
   256
 40
0.24
 90
        1
 40
0.75
 90
        1
300
%<\AcVar ViewType \f "%tc1">% %<\AcVar ViewSectionStartId>%-%<\AcVar ViewSectionEndId>%\PSCALE %<\AcVar ViewScale \f "%sn">%
 71
     4
 62
   256
 62
   257
300
ANSI31
 40
1.0
 90
        0
290
     0
290
     0
 90
        6
 40
0.0
 40
1.570796326794896
 40
0.2617993877991494
 40
1.308996938995747
 40
-0.2617993877991494
 40
1.832595714594046
  0
TABLESTYLE
  5
65
102
{ACAD_XDICTIONARY
360
4AF
102
}
102
{ACAD_REACTORS
330
64
102
}
330
64
100
AcDbTableStyle
280
     0
  3
Standard
 70
     0
 71
     0
 40
0.06
 41
0.06
280
     0
281
     0
  7
Standard
140
0.18
170
     2
 62
     0
 63
     7
283
     0
 90
      512
 91
        0
  1

274
    -2
284
     1
 64
     0
275
    -2
285
     1
 65
     0
276
    -2
286
     1
 66
     0
277
    -2
287
     1
 67
     0
278
    -2
288
     1
 68
     0
279
    -2
289
     1
 69
     0
  7
Standard
140
0.25
170
     5
 62
     0
 63
     7
283
     0
 90
      512
 91
        0
  1

274
    -2
284
     1
 64
     0
275
    -2
285
     1
 65
     0
276
    -2
286
     1
 66
     0
277
    -2
287
     1
 67
     0
278
    -2
288
     1
 68
     0
279
    -2
289
     1
 69
     0
  7
Standard
140
0.18
170
     5
 62
     0
 63
     7
283
     0
 90
      512
 91
        0
  1

274
    -2
284
     1
 64
     0
275
    -2
285
     1
 65
     0
276
    -2
286
     1
 66
     0
277
    -2
287
     1
 67
     0
278
    -2
288
     1
 68
     0
279
    -2
289
     1
 69
     0
  0
VISUALSTYLE
  5
2F
102
{ACAD_REACTORS
330
29
102
}
330
29
100
AcDbVisualStyle
  2
2dWireframe
 70
     4
177
     3
291
     0
 70
    58
 90
        0
176
     1
 90
        2
176
     1
 90
        0
176
     1
 90
        0
176
     1
 40
0.6
176
     1
 40
30.0
176
     1
 62
     7
420
 16777215
176
     1
 90
        1
176
     1
 90
        4
176
     1
 62
     7
176
     1
 62
   257
176
     1
 90
        1
176
     1
 90
        1
176
     1
 40
1.0
176
     1
 90
        0
176
     1
 62
   257
176
     1
 40
1.0
176
     1
 90
        1
176
     1
 90
        6
176
     1
 90
        2
176
     1
 62
     7
176
     1
 90
        5
176
     1
 90
        0
176
     1
 90
        0
176
     1
290
     0
176
     1
 90
        1
176
     1
 40
0.0
176
     1
 90
        0
176
     1
290
     1
176
     1
290
     1
176
     1
290
     0
176
     1
290
     0
176
     1
290
     0
176
     1
290
     0
176
     1
290
     0
176
     1
290
     0
176
     1
290
     0
176
     1
 90
       50
176
     1
 40
0.0
176
     1
 40
1.0
176
     1
 90
        0
176
     1
 62
    18
420
        0
176
     1
 90
       50
176
     1
 90
        3
176
     1
 62
     5
420
      255
176
     1
290
     0
176
     1
 90
       50
176
     1
 90
       50
176
     1
 90
       50
176
     1
290
     0
176
     1
 90
       50
176
     1
 62
   256
176
     0
 40
1.0
176
     0
 90
        2
176
     1
  1
strokes_ogs.tif
176
     1
290
     0
176
     1
 40
1.0
176
     1
 40
1.0
176
     1
  0
VISUALSTYLE
  5
2E
102
{ACAD_REACTORS
330
29
102
}
330
29
100
AcDbVisualStyle
  2
Basic
 70
     7
177
     3
291
     1
 70
    58
 90
        1
176
     1
 90
        0
176
     1
 90
        1
176
     1
 90
        0
176
     1
 40
0.6
176
     1
 40
30.0
176
     1
 62
     7
420
 16777215
176
     1
 90
        0
176
     1
 90
        4
176
     1
 62
     7
176
     1
 62
   257
176
     1
 90
        1
176
     1
 90
        1
176
     1
 40
1.0
176
     1
 90
        8
176
     1
 62
     7
176
     1
 40
1.0
176
     1
 90
        1
176
     1
 90
        6
176
     1
 90
        2
176
     1
 62
     7
176
     1
 90
        5
176
     1
 90
        0
176
     1
 90
        0
176
     1
290
     0
176
     1
 90
        1
176
     1
 40
0.0
176
     1
 90
        0
176
     1
290
     0
176
     1
290
     1
176
     1
290
     1
176
     1
290
     0
176
     1
290
     0
176
     1
290
     0
176
     1
290
     0
176
     1
290
     0
176
     1
290
     0
176
     1
 90
       50
176
     1
 40
0.0
176
     1
 40
1.0
176
     1
 90
        0
176
     1
 62
    18
420
        0
176
     1
 90
       50
176
     1
 90
        3
176
     1
 62
     5
420
      255
176
     1
290
     0
176
     1
 90
       50
176
     1
 90
       50
176
     1
 90
       50
176
     1
290
     0
176
     1
 90
       50
176
     1
 62
   256
176
     0
 40
1.0
176
     0
 90
        2
176
     1
  1
strokes_ogs.tif
176
     1
290
     0
176
     1
 40
1.0
176
     1
 40
1.0
176
     1
  0
VISUALSTYLE
  5
35
102
{ACAD_REACTORS
330
29
102
}
330
29
100
AcDbVisualStyle
  2
Brighten
 70
    12
177
     3
291
     1
 70
    58
 90
        2
176
     1
 90
        2
176
     1
 90
        0
176
     1
 90
        0
176
     1
 40
0.6
176
     1
 40
30.0
176
     1
 62
     7
420
 16777215
176
     1
 90
        1
176
     1
 90
        4
176
     1
 62
     7
176
     1
 62
   257
176
     1
 90
        1
176
     1
 90
        1
176
     1
 40
1.0
176
     1
 90
        8
176
     1
 62
     7
176
     1
 40
1.0
176
     1
 90
        1
176
     1
 90
        6
176
     1
 90
        2
176
     1
 62
     7
176
     1
 90
        5
176
     1
 90
        0
176
     1
 90
        0
176
     1
290
     0
176
     1
 90
        1
176
     1
 40
50.0
176
     1
 90
        0
176
     1
290
     0
176
     1
290
     1
176
     1
290
     1
176
     1
290
     0
176
     1
290
     0
176
     1
290
     0
176
     1
290
     0
176
     1
290
     0
176
     1
290
     0
176
     1
 90
       50
176
     1
 40
0.0
176
     1
 40
1.0
176
     1
 90
        0
176
     1
 62
    18
420
        0
176
     1
 90
       50
176
     1
 90
        3
176
     1
 62
     5
420
      255
176
     1
290
     0
176
     1
 90
       50
176
     1
 90
       50
176
     1
 90
       50
176
     1
290
     0
176
     1
 90
       50
176
     1
 62
   256
176
     0
 40
1.0
176
     0
 90
        2
176
     1
  1
strokes_ogs.tif
176
     1
290
     0
176
     1
 40
1.0
176
     1
 40
1.0
176
     1
  0
VISUALSTYLE
  5
39
102
{ACAD_REACTORS
330
29
102
}
330
29
100
AcDbVisualStyle
  2
ColorChange
 70
    16
177
     3
291
     1
 70
    58
 90
        2
176
     1
 90
        2
176
     1
 90
        3
176
     1
 90
        0
176
     1
 40
0.6
176
     1
 40
30.0
176
     1
 62
     8
420
  8421504
176
     1
 90
        1
176
     1
 90
        4
176
     1
 62
     7
176
     1
 62
   257
176
     1
 90
        1
176
     1
 90
        1
176
     1
 40
1.0
176
     1
 90
        8
176
     1
 62
     8
420
  8421504
176
     1
 40
1.0
176
     1
 90
        1
176
     1
 90
        6
176
     1
 90
        2
176
     1
 62
     7
176
     1
 90
        5
176
     1
 90
        0
176
     1
 90
        0
176
     1
290
     0
176
     1
 90
        1
176
     1
 40
0.0
176
     1
 90
        0
176
     1
290
     0
176
     1
290
     1
176
     1
290
     1
176
     1
290
     0
176
     1
290
     0
176
     1
290
     0
176
     1
290
     0
176
     1
290
     0
176
     1
290
     0
176
     1
 90
       50
176
     1
 40
0.0
176
     1
 40
1.0
176
     1
 90
        0
176
     1
 62
    18
420
        0
176
     1
 90
       50
176
     1
 90
        3
176
     1
 62
     5
420
      255
176
     1
290
     0
176
     1
 90
       50
176
     1
 90
       50
176
     1
 90
       50
176
     1
290
     0
176
     1
 90
       50
176
     1
 62
   256
176
     0
 40
1.0
176
     0
 90
        2
176
     1
  1
strokes_ogs.tif
176
     1
290
     0
176
     1
 40
1.0
176
     1
 40
1.0
176
     1
  0
VISUALSTYLE
  5
32
102
{ACAD_REACTORS
330
29
102
}
330
29
100
AcDbVisualStyle
  2
Conceptual
 70
     9
177
     3
291
     0
 70
    58
 90
        3
176
     1
 90
        2
176
     1
 90
        0
176
     1
 90
        0
176
     1
 40
0.6
176
     1
 40
30.0
176
     1
 62
     7
420
 16777215
176
     1
 90
        2
176
     1
 90
        2
176
     1
 62
     7
176
     1
 62
   257
176
     1
 90
        1
176
     1
 90
        1
176
     1
 40
179.0
176
     1
 90
        8
176
     1
 62
     7
176
     1
 40
1.0
176
     1
 90
        1
176
     1
 90
        6
176
     1
 90
        2
176
     1
 62
     7
176
     1
 90
        3
176
     1
 90
        0
176
     1
 90
        0
176
     1
290
     0
176
     1
 90
        1
176
     1
 40
0.0
176
     1
 90
        0
176
     1
290
     0
176
     1
290
     1
176
     1
290
     1
176
     1
290
     0
176
     1
290
     0
176
     1
290
     0
176
     1
290
     0
176
     1
290
     0
176
     1
290
     0
176
     1
 90
       50
176
     1
 40
0.0
176
     1
 40
1.0
176
     1
 90
        0
176
     1
 62
    18
420
        0
176
     1
 90
       50
176
     1
 90
        3
176
     1
 62
     5
420
      255
176
     1
290
     0
176
     1
 90
       50
176
     1
 90
       50
176
     1
 90
       50
176
     1
290
     0
176
     1
 90
       50
176
     1
 62
   256
176
     0
 40
1.0
176
     0
 90
        2
176
     1
  1
strokes_ogs.tif
176
     1
290
     0
176
     1
 40
1.0
176
     1
 40
1.0
176
     1
  0
VISUALSTYLE
  5
34
102
{ACAD_REACTORS
330
29
102
}
330
29
100
AcDbVisualStyle
  2
Dim
 70
    11
177
     3
291
     1
 70
    58
 90
        2
176
     1
 90
        2
176
     1
 90
        0
176
     1
 90
        0
176
     1
 40
0.6
176
     1
 40
30.0
176
     1
 62
     7
420
 16777215
176
     1
 90
        1
176
     1
 90
        4
176
     1
 62
     7
176
     1
 62
   257
176
     1
 90
        1
176
     1
 90
        1
176
     1
 40
1.0
176
     1
 90
        8
176
     1
 62
     7
176
     1
 40
1.0
176
     1
 90
        1
176
     1
 90
        6
176
     1
 90
        2
176
     1
 62
     7
176
     1
 90
        5
176
     1
 90
        0
176
     1
 90
        0
176
     1
290
     0
176
     1
 90
        1
176
     1
 40
-50.0
176
     1
 90
        0
176
     1
290
     0
176
     1
290
     1
176
     1
290
     1
176
     1
290
     0
176
     1
290
     0
176
     1
290
     0
176
     1
290
     0
176
     1
290
     0
176
     1
290
     0
176
     1
 90
       50
176
     1
 40
0.0
176
     1
 40
1.0
176
     1
 90
        0
176
     1
 62
    18
420
        0
176
     1
 90
       50
176
     1
 90
        3
176
     1
 62
     5
420
      255
176
     1
290
     0
176
     1
 90
       50
176
     1
 90
       50
176
     1
 90
       50
176
     1
290
     0
176
     1
 90
       50
176
     1
 62
   256
176
     0
 40
1.0
176
     0
 90
        2
176
     1
  1
strokes_ogs.tif
176
     1
290
     0
176
     1
 40
1.0
176
     1
 40
1.0
176
     1
  0
VISUALSTYLE
  5
41
102
{ACAD_REACTORS
330
29
102
}
330
29
100
AcDbVisualStyle
  2
EdgeColorOff
 70
    22
177
     3
291
     1
 70
    58
 90
        2
176
     0
 90
        2
176
     0
 90
        0
176
     0
 90
        0
176
     0
 40
0.6
176
     0
 40
30.0
176
     0
 62
     7
420
 16777215
176
     0
 90
        1
176
     0
 90
        4
176
     0
 62
     7
176
     0
 62
   257
176
     0
 90
        1
176
     0
 90
        1
176
     0
 40
1.0
176
     0
 90
        8
176
     2
 62
     7
176
     0
 40
1.0
176
     0
 90
        1
176
     0
 90
        6
176
     0
 90
        2
176
     0
 62
     7
176
     0
 90
        5
176
     0
 90
        0
176
     0
 90
        0
176
     0
290
     0
176
     0
 90
        1
176
     0
 40
0.0
176
     0
 90
        0
176
     0
290
     0
176
     0
290
     1
176
     0
290
     1
176
     0
290
     0
176
     0
290
     0
176
     0
290
     0
176
     0
290
     0
176
     0
290
     0
176
     0
290
     0
176
     0
 90
       50
176
     0
 40
0.0
176
     0
 40
1.0
176
     0
 90
        0
176
     0
 62
    18
420
        0
176
     0
 90
       50
176
     0
 90
        3
176
     0
 62
     5
420
      255
176
     0
290
     0
176
     0
 90
       50
176
     0
 90
       50
176
     0
 90
       50
176
     0
290
     0
176
     0
 90
       50
176
     0
 62
   256
176
     0
 40
1.0
176
     0
 90
        2
176
     0
  1
strokes_ogs.tif
176
     0
290
     0
176
     0
 40
1.0
176
     0
 40
1.0
176
     0
  0
VISUALSTYLE
  5
38
102
{ACAD_REACTORS
330
29
102
}
330
29
100
AcDbVisualStyle
  2
Facepattern
 70
    15
177
     3
291
     1
 70
    58
 90
        2
176
     1
 90
        2
176
     1
 90
        0
176
     1
 90
        0
176
     1
 40
0.6
176
     1
 40
30.0
176
     1
 62
     7
420
 16777215
176
     1
 90
        1
176
     1
 90
        4
176
     1
 62
     7
176
     1
 62
   257
176
     1
 90
        1
176
     1
 90
        1
176
     1
 40
1.0
176
     1
 90
        8
176
     1
 62
     7
176
     1
 40
1.0
176
     1
 90
        1
176
     1
 90
        6
176
     1
 90
        2
176
     1
 62
     7
176
     1
 90
        5
176
     1
 90
        0
176
     1
 90
        0
176
     1
290
     0
176
     1
 90
        1
176
     1
 40
0.0
176
     1
 90
        0
176
     1
290
     0
176
     1
290
     1
176
     1
290
     1
176
     1
290
     0
176
     1
290
     0
176
     1
290
     0
176
     1
290
     0
176
     1
290
     0
176
     1
290
     0
176
     1
 90
       50
176
     1
 40
0.0
176
     1
 40
1.0
176
     1
 90
        0
176
     1
 62
    18
420
        0
176
     1
 90
       50
176
     1
 90
        3
176
     1
 62
     5
420
      255
176
     1
290
     0
176
     1
 90
       50
176
     1
 90
       50
176
     1
 90
       50
176
     1
290
     0
176
     1
 90
       50
176
     1
 62
   256
176
     0
 40
1.0
176
     0
 90
        2
176
     1
  1
strokes_ogs.tif
176
     1
290
     0
176
     1
 40
1.0
176
     1
 40
1.0
176
     1
  0
VISUALSTYLE
  5
2A
102
{ACAD_REACTORS
330
29
102
}
330
29
100
AcDbVisualStyle
  2
Flat
 70
     0
177
     3
291
     1
 70
    58
 90
        2
176
     1
 90
        1
176
     1
 90
        1
176
     1
 90
        2
176
     1
 40
0.6
176
     1
 40
30.0
176
     1
 62
     7
420
 16777215
176
     1
 90
        0
176
     1
 90
        0
176
     1
 62
     7
176
     1
 62
   257
176
     1
 90
        1
176
     1
 90
        1
176
     1
 40
1.0
176
     1
 90
        8
176
     1
 62
     7
176
     1
 40
1.0
176
     1
 90
        1
176
     1
 90
        6
176
     1
 90
        2
176
     1
 62
     7
176
     1
 90
        5
176
     1
 90
        0
176
     1
 90
        0
176
     1
290
     0
176
     1
 90
       13
176
     1
 40
0.0
176
     1
 90
        0
176
     1
290
     0
176
     1
290
     1
176
     1
290
     1
176
     1
290
     0
176
     1
290
     0
176
     1
290
     0
176
     1
290
     0
176
     1
290
     0
176
     1
290
     0
176
     1
 90
       50
176
     1
 40
0.0
176
     1
 40
1.0
176
     1
 90
        0
176
     1
 62
    18
420
        0
176
     1
 90
       50
176
     1
 90
        3
176
     1
 62
     5
420
      255
176
     1
290
     0
176
     1
 90
       50
176
     1
 90
       50
176
     1
 90
       50
176
     1
290
     0
176
     1
 90
       50
176
     1
 62
   256
176
     0
 40
1.0
176
     0
 90
        2
176
     1
  1
strokes_ogs.tif
176
     1
290
     0
176
     1
 40
1.0
176
     1
 40
1.0
176
     1
  0
VISUALSTYLE
  5
2B
102
{ACAD_REACTORS
330
29
102
}
330
29
100
AcDbVisualStyle
  2
FlatWithEdges
 70
     1
177
     3
291
     1
 70
    58
 90
        2
176
     1
 90
        1
176
     1
 90
        1
176
     1
 90
        2
176
     1
 40
0.6
176
     1
 40
30.0
176
     1
 62
     7
420
 16777215
176
     1
 90
        1
176
     1
 90
        0
176
     1
 62
     7
176
     1
 62
   257
176
     1
 90
        1
176
     1
 90
        1
176
     1
 40
1.0
176
     1
 90
        0
176
     1
 62
   257
176
     1
 40
1.0
176
     1
 90
        1
176
     1
 90
        6
176
     1
 90
        2
176
     1
 62
     7
176
     1
 90
        5
176
     1
 90
        0
176
     1
 90
        0
176
     1
290
     0
176
     1
 90
       13
176
     1
 40
0.0
176
     1
 90
        0
176
     1
290
     0
176
     1
290
     1
176
     1
290
     1
176
     1
290
     0
176
     1
290
     0
176
     1
290
     0
176
     1
290
     0
176
     1
290
     0
176
     1
290
     0
176
     1
 90
       50
176
     1
 40
0.0
176
     1
 40
1.0
176
     1
 90
        0
176
     1
 62
    18
420
        0
176
     1
 90
       50
176
     1
 90
        3
176
     1
 62
     5
420
      255
176
     1
290
     0
176
     1
 90
       50
176
     1
 90
       50
176
     1
 90
       50
176
     1
290
     0
176
     1
 90
       50
176
     1
 62
   256
176
     0
 40
1.0
176
     0
 90
        2
176
     1
  1
strokes_ogs.tif
176
     1
290
     0
176
     1
 40
1.0
176
     1
 40
1.0
176
     1
  0
VISUALSTYLE
  5
2C
102
{ACAD_REACTORS
330
29
102
}
330
29
100
AcDbVisualStyle
  2
Gouraud
 70
     2
177
     3
291
     1
 70
    58
 90
        2
176
     1
 90
        2
176
     1
 90
        1
176
     1
 90
        2
176
     1
 40
0.6
176
     1
 40
30.0
176
     1
 62
     7
420
 16777215
176
     1
 90
        0
176
     1
 90
        0
176
     1
 62
     7
176
     1
 62
   257
176
     1
 90
        1
176
     1
 90
        1
176
     1
 40
1.0
176
     1
 90
        0
176
     1
 62
     7
176
     1
 40
1.0
176
     1
 90
        1
176
     1
 90
        6
176
     1
 90
        2
176
     1
 62
     7
176
     1
 90
        5
176
     1
 90
        0
176
     1
 90
        0
176
     1
290
     0
176
     1
 90
       13
176
     1
 40
0.0
176
     1
 90
        0
176
     1
290
     0
176
     1
290
     1
176
     1
290
     1
176
     1
290
     0
176
     1
290
     0
176
     1
290
     0
176
     1
290
     0
176
     1
290
     0
176
     1
290
     0
176
     1
 90
       50
176
     1
 40
0.0
176
     1
 40
1.0
176
     1
 90
        0
176
     1
 62
    18
420
        0
176
     1
 90
       50
176
     1
 90
        3
176
     1
 62
     5
420
      255
176
     1
290
     0
176
     1
 90
       50
176
     1
 90
       50
176
     1
 90
       50
176
     1
290
     0
176
     1
 90
       50
176
     1
 62
   256
176
     0
 40
1.0
176
     0
 90
        2
176
     1
  1
strokes_ogs.tif
176
     1
290
     0
176
     1
 40
1.0
176
     1
 40
1.0
176
     1
  0
VISUALSTYLE
  5
2D
102
{ACAD_REACTORS
330
29
102
}
330
29
100
AcDbVisualStyle
  2
GouraudWithEdges
 70
     3
177
     3
291
     1
 70
    58
 90
        2
176
     1
 90
        2
176
     1
 90
        1
176
     1
 90
        2
176
     1
 40
0.6
176
     1
 40
30.0
176
     1
 62
     7
420
 16777215
176
     1
 90
        1
176
     1
 90
        0
176
     1
 62
     7
176
     1
 62
   257
176
     1
 90
        1
176
     1
 90
        1
176
     1
 40
1.0
176
     1
 90
        0
176
     1
 62
   257
176
     1
 40
1.0
176
     1
 90
        1
176
     1
 90
        6
176
     1
 90
        2
176
     1
 62
     7
176
     1
 90
        5
176
     1
 90
        0
176
     1
 90
        0
176
     1
290
     0
176
     1
 90
       13
176
     1
 40
0.0
176
     1
 90
        0
176
     1
290
     0
176
     1
290
     1
176
     1
290
     1
176
     1
290
     0
176
     1
290
     0
176
     1
290
     0
176
     1
290
     0
176
     1
290
     0
176
     1
290
     0
176
     1
 90
       50
176
     1
 40
0.0
176
     1
 40
1.0
176
     1
 90
        0
176
     1
 62
    18
420
        0
176
     1
 90
       50
176
     1
 90
        3
176
     1
 62
     5
420
      255
176
     1
290
     0
176
     1
 90
       50
176
     1
 90
       50
176
     1
 90
       50
176
     1
290
     0
176
     1
 90
       50
176
     1
 62
   256
176
     0
 40
1.0
176
     0
 90
        2
176
     1
  1
strokes_ogs.tif
176
     1
290
     0
176
     1
 40
1.0
176
     1
 40
1.0
176
     1
  0
VISUALSTYLE
  5
31
102
{ACAD_REACTORS
330
29
102
}
330
29
100
AcDbVisualStyle
  2
Hidden
 70
     6
177
     3
291
     0
 70
    58
 90
        1
176
     1
 90
        2
176
     1
 90
        2
176
     1
 90
        0
176
     1
 40
0.6
176
     1
 40
30.0
176
     1
 62
     7
420
 16777215
176
     1
 90
        2
176
     1
 90
        2
176
     1
 62
     7
176
     1
 62
   257
176
     1
 90
        2
176
     1
 90
        1
176
     1
 40
40.0
176
     1
 90
        0
176
     1
 62
   257
176
     1
 40
1.0
176
     1
 90
        1
176
     1
 90
        6
176
     1
 90
        2
176
     1
 62
     7
176
     1
 90
        3
176
     1
 90
        0
176
     1
 90
        0
176
     1
290
     0
176
     1
 90
        1
176
     1
 40
0.0
176
     1
 90
        0
176
     1
290
     0
176
     1
290
     1
176
     1
290
     1
176
     1
290
     0
176
     1
290
     0
176
     1
290
     0
176
     1
290
     0
176
     1
290
     0
176
     1
290
     0
176
     1
 90
       50
176
     1
 40
0.0
176
     1
 40
1.0
176
     1
 90
        0
176
     1
 62
    18
420
        0
176
     1
 90
       50
176
     1
 90
        3
176
     1
 62
     5
420
      255
176
     1
290
     0
176
     1
 90
       50
176
     1
 90
       50
176
     1
 90
       50
176
     1
290
     0
176
     1
 90
       50
176
     1
 62
   256
176
     0
 40
1.0
176
     0
 90
        2
176
     1
  1
strokes_ogs.tif
176
     1
290
     0
176
     1
 40
1.0
176
     1
 40
1.0
176
     1
  0
VISUALSTYLE
  5
3F
102
{ACAD_REACTORS
330
29
102
}
330
29
100
AcDbVisualStyle
  2
JitterOff
 70
    20
177
     3
291
     1
 70
    58
 90
        2
176
     0
 90
        2
176
     0
 90
        0
176
     0
 90
        0
176
     0
 40
0.6
176
     0
 40
30.0
176
     0
 62
     7
420
 16777215
176
     0
 90
        1
176
     0
 90
        4
176
     0
 62
     7
176
     0
 62
   257
176
     0
 90
        1
176
     0
 90
        1
176
     0
 40
1.0
176
     0
 90
       10
176
     2
 62
     7
176
     0
 40
1.0
176
     0
 90
        1
176
     0
 90
        6
176
     0
 90
        2
176
     0
 62
     7
176
     0
 90
        5
176
     0
 90
        0
176
     0
 90
        0
176
     0
290
     0
176
     0
 90
        1
176
     0
 40
0.0
176
     0
 90
        0
176
     0
290
     0
176
     0
290
     1
176
     0
290
     1
176
     0
290
     0
176
     0
290
     0
176
     0
290
     0
176
     0
290
     0
176
     0
290
     0
176
     0
290
     0
176
     0
 90
       50
176
     0
 40
0.0
176
     0
 40
1.0
176
     0
 90
        0
176
     0
 62
    18
420
        0
176
     0
 90
       50
176
     0
 90
        3
176
     0
 62
     5
420
      255
176
     0
290
     0
176
     0
 90
       50
176
     0
 90
       50
176
     0
 90
       50
176
     0
290
     0
176
     0
 90
       50
176
     0
 62
   256
176
     0
 40
1.0
176
     0
 90
        2
176
     0
  1
strokes_ogs.tif
176
     0
290
     0
176
     0
 40
1.0
176
     0
 40
1.0
176
     0
  0
VISUALSTYLE
  5
37
102
{ACAD_REACTORS
330
29
102
}
330
29
100
AcDbVisualStyle
  2
Linepattern
 70
    14
177
     3
291
     1
 70
    58
 90
        2
176
     1
 90
        2
176
     1
 90
        0
176
     1
 90
        0
176
     1
 40
0.6
176
     1
 40
30.0
176
     1
 62
     7
420
 16777215
176
     1
 90
        1
176
     1
 90
        4
176
     1
 62
     7
176
     1
 62
   257
176
     1
 90
        7
176
     1
 90
        7
176
     1
 40
1.0
176
     1
 90
        8
176
     1
 62
     7
176
     1
 40
1.0
176
     1
 90
        1
176
     1
 90
        6
176
     1
 90
        2
176
     1
 62
     7
176
     1
 90
        5
176
     1
 90
        0
176
     1
 90
        0
176
     1
290
     0
176
     1
 90
        1
176
     1
 40
0.0
176
     1
 90
        0
176
     1
290
     0
176
     1
290
     1
176
     1
290
     1
176
     1
290
     0
176
     1
290
     0
176
     1
290
     0
176
     1
290
     0
176
     1
290
     0
176
     1
290
     0
176
     1
 90
       50
176
     1
 40
0.0
176
     1
 40
1.0
176
     1
 90
        0
176
     1
 62
    18
420
        0
176
     1
 90
       50
176
     1
 90
        3
176
     1
 62
     5
420
      255
176
     1
290
     0
176
     1
 90
       50
176
     1
 90
       50
176
     1
 90
       50
176
     1
290
     0
176
     1
 90
       50
176
     1
 62
   256
176
     0
 40
1.0
176
     0
 90
        2
176
     1
  1
strokes_ogs.tif
176
     1
290
     0
176
     1
 40
1.0
176
     1
 40
1.0
176
     1
  0
VISUALSTYLE
  5
40
102
{ACAD_REACTORS
330
29
102
}
330
29
100
AcDbVisualStyle
  2
OverhangOff
 70
    21
177
     3
291
     1
 70
    58
 90
        2
176
     0
 90
        2
176
     0
 90
        0
176
     0
 90
        0
176
     0
 40
0.6
176
     0
 40
30.0
176
     0
 62
     7
420
 16777215
176
     0
 90
        1
176
     0
 90
        4
176
     0
 62
     7
176
     0
 62
   257
176
     0
 90
        1
176
     0
 90
        1
176
     0
 40
1.0
176
     0
 90
        9
176
     2
 62
     7
176
     0
 40
1.0
176
     0
 90
        1
176
     0
 90
        6
176
     0
 90
        2
176
     0
 62
     7
176
     0
 90
        5
176
     0
 90
        0
176
     0
 90
        0
176
     0
290
     0
176
     0
 90
        1
176
     0
 40
0.0
176
     0
 90
        0
176
     0
290
     0
176
     0
290
     1
176
     0
290
     1
176
     0
290
     0
176
     0
290
     0
176
     0
290
     0
176
     0
290
     0
176
     0
290
     0
176
     0
290
     0
176
     0
 90
       50
176
     0
 40
0.0
176
     0
 40
1.0
176
     0
 90
        0
176
     0
 62
    18
420
        0
176
     0
 90
       50
176
     0
 90
        3
176
     0
 62
     5
420
      255
176
     0
290
     0
176
     0
 90
       50
176
     0
 90
       50
176
     0
 90
       50
176
     0
290
     0
176
     0
 90
       50
176
     0
 62
   256
176
     0
 40
1.0
176
     0
 90
        2
176
     0
  1
strokes_ogs.tif
176
     0
290
     0
176
     0
 40
1.0
176
     0
 40
1.0
176
     0
  0
VISUALSTYLE
  5
33
102
{ACAD_REACTORS
330
29
102
}
330
29
100
AcDbVisualStyle
  2
Realistic
 70
     8
177
     3
291
     0
 70
    58
 90
        2
176
     1
 90
        3
176
     1
 90
        0
176
     1
 90
        2
176
     1
 40
0.6
176
     1
 40
30.0
176
     1
 62
     7
420
 16777215
176
     1
 90
        0
176
     1
 90
        0
176
     1
 62
     7
176
     1
 62
   257
176
     1
 90
        1
176
     1
 90
        1
176
     1
 40
1.0
176
     1
 90
        8
176
     1
 62
   257
176
     1
 40
1.0
176
     1
 90
        1
176
     1
 90
        6
176
     1
 90
        2
176
     1
 62
     7
176
     1
 90
        3
176
     1
 90
        0
176
     1
 90
        0
176
     1
290
     0
176
     1
 90
       13
176
     1
 40
0.0
176
     1
 90
        0
176
     1
290
     0
176
     1
290
     1
176
     1
290
     1
176
     1
290
     0
176
     1
290
     0
176
     1
290
     0
176
     1
290
     0
176
     1
290
     0
176
     1
290
     0
176
     1
 90
       50
176
     1
 40
0.0
176
     1
 40
1.0
176
     1
 90
        0
176
     1
 62
    18
420
        0
176
     1
 90
       50
176
     1
 90
        3
176
     1
 62
     5
420
      255
176
     1
290
     0
176
     1
 90
       50
176
     1
 90
       50
176
     1
 90
       50
176
     1
290
     0
176
     1
 90
       50
176
     1
 62
   256
176
     0
 40
1.0
176
     0
 90
        2
176
     1
  1
strokes_ogs.tif
176
     1
290
     0
176
     1
 40
1.0
176
     1
 40
1.0
176
     1
  0
VISUALSTYLE
  5
3E
102
{ACAD_REACTORS
330
29
102
}
330
29
100
AcDbVisualStyle
  2
Shaded
 70
    27
177
     3
291
     0
 70
    58
 90
        2
176
     1
 90
        2
176
     1
 90
        1
176
     1
 90
        2
176
     1
 40
0.6
176
     1
 40
30.0
176
     1
 62
     7
420
 16777215
176
     1
 90
        0
176
     1
 90
        4
176
     1
 62
     7
176
     1
 62
   257
176
     1
 90
        1
176
     1
 90
        1
176
     1
 40
1.0
176
     1
 90
        8
176
     1
 62
   257
176
     1
 40
1.0
176
     1
 90
        1
176
     1
 90
        6
176
     1
 90
        2
176
     1
 62
     8
420
  7895160
176
     1
 90
        3
176
     1
 90
        0
176
     1
 90
        0
176
     1
290
     0
176
     1
 90
        5
176
     1
 40
0.0
176
     1
 90
        0
176
     1
290
     0
176
     1
290
     1
176
     1
290
     1
176
     1
290
     0
176
     1
290
     0
176
     1
290
     0
176
     1
290
     0
176
     1
290
     0
176
     1
290
     0
176
     1
 90
       50
176
     1
 40
0.0
176
     1
 40
1.0
176
     1
 90
        0
176
     1
 62
    18
420
        0
176
     1
 90
       50
176
     1
 90
        3
176
     1
 62
     5
420
      255
176
     1
290
     0
176
     1
 90
       50
176
     1
 90
       50
176
     1
 90
       50
176
     1
290
     0
176
     1
 90
       50
176
     1
 62
   256
176
     0
 40
1.0
176
     0
 90
        2
176
     1
  1
strokes_ogs.tif
176
     1
290
     0
176
     1
 40
1.0
176
     1
 40
1.0
176
     1
  0
VISUALSTYLE
  5
3D
102
{ACAD_REACTORS
330
29
102
}
330
29
100
AcDbVisualStyle
  2
Shaded with edges
 70
    26
177
     3
291
     0
 70
    58
 90
        2
176
     1
 90
        2
176
     1
 90
        1
176
     1
 90
        2
176
     1
 40
0.6
176
     1
 40
30.0
176
     1
 62
     7
420
 16777215
176
     1
 90
        1
176
     1
 90
        2
176
     1
 62
     7
176
     1
 62
   257
176
     1
 90
        2
176
     1
 90
        1
176
     1
 40
1.0
176
     1
 90
        8
176
     1
 62
   257
176
     1
 40
1.0
176
     1
 90
        1
176
     1
 90
        6
176
     1
 90
        2
176
     1
 62
     7
176
     1
 90
        3
176
     1
 90
        0
176
     1
 90
        0
176
     1
290
     0
176
     1
 90
        5
176
     1
 40
0.0
176
     1
 90
        0
176
     1
290
     0
176
     1
290
     1
176
     1
290
     1
176
     1
290
     0
176
     1
290
     0
176
     1
290
     0
176
     1
290
     0
176
     1
290
     0
176
     1
290
     0
176
     1
 90
       50
176
     1
 40
0.0
176
     1
 40
1.0
176
     1
 90
        0
176
     1
 62
    18
420
        0
176
     1
 90
       50
176
     1
 90
        3
176
     1
 62
     5
420
      255
176
     1
290
     0
176
     1
 90
       50
176
     1
 90
       50
176
     1
 90
       50
176
     1
290
     0
176
     1
 90
       50
176
     1
 62
   256
176
     0
 40
1.0
176
     0
 90
        2
176
     1
  1
strokes_ogs.tif
176
     1
290
     0
176
     1
 40
1.0
176
     1
 40
1.0
176
     1
  0
VISUALSTYLE
  5
3A
102
{ACAD_REACTORS
330
29
102
}
330
29
100
AcDbVisualStyle
  2
Shades of Gray
 70
    23
177
     3
291
     0
 70
    58
 90
        2
176
     1
 90
        2
176
     1
 90
        3
176
     1
 90
        0
176
     1
 40
0.6
176
     1
 40
30.0
176
     1
 62
     7
420
 16777215
176
     1
 90
        2
176
     1
 90
        2
176
     1
 62
     7
176
     1
 62
     7
176
     1
 90
        1
176
     1
 90
        1
176
     1
 40
40.0
176
     1
 90
        8
176
     1
 62
     7
176
     1
 40
1.0
176
     1
 90
        1
176
     1
 90
        6
176
     1
 90
        2
176
     1
 62
     7
176
     1
 90
        3
176
     1
 90
        0
176
     1
 90
        0
176
     1
290
     0
176
     1
 90
        1
176
     1
 40
0.0
176
     1
 90
        0
176
     1
290
     0
176
     1
290
     1
176
     1
290
     1
176
     1
290
     0
176
     1
290
     0
176
     1
290
     0
176
     1
290
     0
176
     1
290
     0
176
     1
290
     0
176
     1
 90
       50
176
     1
 40
0.0
176
     1
 40
1.0
176
     1
 90
        0
176
     1
 62
    18
420
        0
176
     1
 90
       50
176
     1
 90
        3
176
     1
 62
     5
420
      255
176
     1
290
     0
176
     1
 90
       50
176
     1
 90
       50
176
     1
 90
       50
176
     1
290
     0
176
     1
 90
       50
176
     1
 62
   256
176
     0
 40
1.0
176
     0
 90
        2
176
     1
  1
strokes_ogs.tif
176
     1
290
     0
176
     1
 40
1.0
176
     1
 40
1.0
176
     1
  0
VISUALSTYLE
  5
3B
102
{ACAD_REACTORS
330
29
102
}
330
29
100
AcDbVisualStyle
  2
Sketchy
 70
    24
177
     3
291
     0
 70
    58
 90
        1
176
     1
 90
        2
176
     1
 90
        2
176
     1
 90
        0
176
     1
 40
0.6
176
     1
 40
30.0
176
     1
 62
     7
420
 16777215
176
     1
 90
        2
176
     1
 90
        2
176
     1
 62
     7
176
     1
 62
     7
176
     1
 90
        1
176
     1
 90
        1
176
     1
 40
40.0
176
     1
 90
       11
176
     1
 62
     7
176
     1
 40
1.0
176
     1
 90
        1
176
     1
 90
        6
176
     1
 90
        2
176
     1
 62
     7
176
     1
 90
        6
176
     1
 90
        0
176
     1
 90
        0
176
     1
290
     0
176
     1
 90
        1
176
     1
 40
0.0
176
     1
 90
        0
176
     1
290
     0
176
     1
290
     1
176
     1
290
     1
176
     1
290
     0
176
     1
290
     0
176
     1
290
     0
176
     1
290
     0
176
     1
290
     0
176
     1
290
     0
176
     1
 90
       50
176
     1
 40
0.0
176
     1
 40
1.0
176
     1
 90
        0
176
     1
 62
    18
420
        0
176
     1
 90
       50
176
     1
 90
        3
176
     1
 62
     5
420
      255
176
     1
290
     0
176
     1
 90
       50
176
     1
 90
       50
176
     1
 90
       50
176
     1
290
     0
176
     1
 90
       50
176
     1
 62
   256
176
     0
 40
1.0
176
     0
 90
        2
176
     1
  1
strokes_ogs.tif
176
     1
290
     0
176
     1
 40
1.0
176
     1
 40
1.0
176
     1
  0
VISUALSTYLE
  5
36
102
{ACAD_REACTORS
330
29
102
}
330
29
100
AcDbVisualStyle
  2
Thicken
 70
    13
177
     3
291
     1
 70
    58
 90
        2
176
     1
 90
        2
176
     1
 90
        0
176
     1
 90
        0
176
     1
 40
0.6
176
     1
 40
30.0
176
     1
 62
     7
420
 16777215
176
     1
 90
        1
176
     1
 90
        4
176
     1
 62
     7
176
     1
 62
   257
176
     1
 90
        1
176
     1
 90
        1
176
     1
 40
1.0
176
     1
 90
       12
176
     1
 62
     7
176
     1
 40
1.0
176
     1
 90
        1
176
     1
 90
        6
176
     1
 90
        2
176
     1
 62
     7
176
     1
 90
        5
176
     1
 90
        0
176
     1
 90
        0
176
     1
290
     0
176
     1
 90
        1
176
     1
 40
0.0
176
     1
 90
        0
176
     1
290
     0
176
     1
290
     1
176
     1
290
     1
176
     1
290
     0
176
     1
290
     0
176
     1
290
     0
176
     1
290
     0
176
     1
290
     0
176
     1
290
     0
176
     1
 90
       50
176
     1
 40
0.0
176
     1
 40
1.0
176
     1
 90
        0
176
     1
 62
    18
420
        0
176
     1
 90
       50
176
     1
 90
        3
176
     1
 62
     5
420
      255
176
     1
290
     0
176
     1
 90
       50
176
     1
 90
       50
176
     1
 90
       50
176
     1
290
     0
176
     1
 90
       50
176
     1
 62
   256
176
     0
 40
1.0
176
     0
 90
        2
176
     1
  1
strokes_ogs.tif
176
     1
290
     0
176
     1
 40
1.0
176
     1
 40
1.0
176
     1
  0
VISUALSTYLE
  5
30
102
{ACAD_REACTORS
330
29
102
}
330
29
100
AcDbVisualStyle
  2
Wireframe
 70
     5
177
     3
291
     0
 70
    58
 90
        0
176
     1
 90
        2
176
     1
 90
        0
176
     1
 90
        0
176
     1
 40
0.6
176
     1
 40
30.0
176
     1
 62
     7
420
 16777215
176
     1
 90
        1
176
     1
 90
        4
176
     1
 62
     7
176
     1
 62
   257
176
     1
 90
        1
176
     1
 90
        1
176
     1
 40
1.0
176
     1
 90
        0
176
     1
 62
   257
176
     1
 40
1.0
176
     1
 90
        1
176
     1
 90
        6
176
     1
 90
        2
176
     1
 62
     7
176
     1
 90
        3
176
     1
 90
        0
176
     1
 90
        0
176
     1
290
     0
176
     1
 90
        1
176
     1
 40
0.0
176
     1
 90
        0
176
     1
290
     0
176
     1
290
     1
176
     1
290
     1
176
     1
290
     0
176
     1
290
     0
176
     1
290
     0
176
     1
290
     0
176
     1
290
     0
176
     1
290
     0
176
     1
 90
       50
176
     1
 40
0.0
176
     1
 40
1.0
176
     1
 90
        0
176
     1
 62
    18
420
        0
176
     1
 90
       50
176
     1
 90
        3
176
     1
 62
     5
420
      255
176
     1
290
     0
176
     1
 90
       50
176
     1
 90
       50
176
     1
 90
       50
176
     1
290
     0
176
     1
 90
       50
176
     1
 62
   256
176
     0
 40
1.0
176
     0
 90
        2
176
     1
  1
strokes_ogs.tif
176
     1
290
     0
176
     1
 40
1.0
176
     1
 40
1.0
176
     1
  0
VISUALSTYLE
  5
3C
102
{ACAD_REACTORS
330
29
102
}
330
29
100
AcDbVisualStyle
  2
X-Ray
 70
    25
177
     3
291
     0
 70
    58
 90
        2
176
     1
 90
        2
176
     1
 90
        1
176
     1
 90
        1
176
     1
 40
0.5
176
     1
 40
30.0
176
     1
 62
     7
420
 16777215
176
     1
 90
        1
176
     1
 90
        0
176
     1
 62
     7
176
     1
 62
   257
176
     1
 90
        1
176
     1
 90
        1
176
     1
 40
1.0
176
     1
 90
        8
176
     1
 62
     7
176
     1
 40
1.0
176
     1
 90
        1
176
     1
 90
        6
176
     1
 90
        2
176
     1
 62
     7
176
     1
 90
        3
176
     1
 90
        0
176
     1
 90
        0
176
     1
290
     0
176
     1
 90
       13
176
     1
 40
0.0
176
     1
 90
        0
176
     1
290
     0
176
     1
290
     1
176
     1
290
     1
176
     1
290
     0
176
     1
290
     0
176
     1
290
     0
176
     1
290
     0
176
     1
290
     0
176
     1
290
     0
176
     1
 90
       50
176
     1
 40
0.0
176
     1
 40
1.0
176
     1
 90
        0
176
     1
 62
    18
420
        0
176
     1
 90
       50
176
     1
 90
        3
176
     1
 62
     5
420
      255
176
     1
290
     0
176
     1
 90
       50
176
     1
 90
       50
176
     1
 90
       50
176
     1
290
     0
176
     1
 90
       50
176
     1
 62
   256
176
     0
 40
1.0
176
     0
 90
        2
176
     1
  1
strokes_ogs.tif
176
     1
290
     0
176
     1
 40
1.0
176
     1
 40
1.0
176
     1
  0
DICTIONARYVAR
  5
4AE
102
{ACAD_REACTORS
330
4A9
102
}
330
4A9
100
DictionaryVariables
280
     0
  1
1:1
  0
DICTIONARYVAR
  5
4AB
102
{ACAD_REACTORS
330
4A9
102
}
330
4A9
100
DictionaryVariables
280
     0
  1
STANDARD
  0
DICTIONARYVAR
  5
4AA
102
{ACAD_REACTORS
330
4A9
102
}
330
4A9
100
DictionaryVariables
280
     0
  1
STANDARD
  0
DICTIONARYVAR
  5
4AC
102
{ACAD_REACTORS
330
4A9
102
}
330
4A9
100
DictionaryVariables
280
     0
  1
Imperial24
  0
DICTIONARYVAR
  5
4AD
102
{ACAD_REACTORS
330
4A9
102
}
330
4A9
100
DictionaryVariables
280
     0
  1
Imperial24
  0
DICTIONARY
  5
1A
330
19
100
AcDbDictionary
280
     1
281
     1
  3
BUMPTILE
360
1C
  3
DIFFUSETILE
360
1B
  3
OPACITYTILE
360
1F
  3
REFLECTIONTILE
360
1E
  3
REFRACTIONTILE
360
20
  3
SPECULARTILE
360
1D
  0
DICTIONARY
  5
12
330
11
100
AcDbDictionary
280
     1
281
     1
  3
BUMPTILE
360
14
  3
DIFFUSETILE
360
13
  3
OPACITYTILE
360
17
  3
REFLECTIONTILE
360
16
  3
REFRACTIONTILE
360
18
  3
SPECULARTILE
360
15
  0
DICTIONARY
  5
22
330
21
100
AcDbDictionary
280
     1
281
     1
  3
BUMPTILE
360
24
  3
DIFFUSETILE
360
23
  3
OPACITYTILE
360
27
  3
REFLECTIONTILE
360
26
  3
REFRACTIONTILE
360
28
  3
SPECULARTILE
360
25
  0
DICTIONARY
  5
4AF
330
65
100
AcDbDictionary
280
     1
281
     1
  3
ACAD_ROUNDTRIP_2008_TABLESTYLE_CELLSTYLEMAP
360
4B0
  0
XRECORD
  5
1C
102
{ACAD_REACTORS
330
1A
102
}
330
1A
100
AcDbXrecord
280
     1
270
     1
271
     1
  0
XRECORD
  5
1B
102
{ACAD_REACTORS
330
1A
102
}
330
1A
100
AcDbXrecord
280
     1
270
     1
271
     1
  0
XRECORD
  5
1F
102
{ACAD_REACTORS
330
1A
102
}
330
1A
100
AcDbXrecord
280
     1
270
     1
271
     1
  0
XRECORD
  5
1E
102
{ACAD_REACTORS
330
1A
102
}
330
1A
100
AcDbXrecord
280
     1
270
     1
271
     1
  0
XRECORD
  5
20
102
{ACAD_REACTORS
330
1A
102
}
330
1A
100
AcDbXrecord
280
     1
270
     1
271
     1
  0
XRECORD
  5
1D
102
{ACAD_REACTORS
330
1A
102
}
330
1A
100
AcDbXrecord
280
     1
270
     1
271
     1
  0
XRECORD
  5
14
102
{ACAD_REACTORS
330
12
102
}
330
12
100
AcDbXrecord
280
     1
270
     1
271
     1
  0
XRECORD
  5
13
102
{ACAD_REACTORS
330
12
102
}
330
12
100
AcDbXrecord
280
     1
270
     1
271
     1
  0
XRECORD
  5
17
102
{ACAD_REACTORS
330
12
102
}
330
12
100
AcDbXrecord
280
     1
270
     1
271
     1
  0
XRECORD
  5
16
102
{ACAD_REACTORS
330
12
102
}
330
12
100
AcDbXrecord
280
     1
270
     1
271
     1
  0
XRECORD
  5
18
102
{ACAD_REACTORS
330
12
102
}
330
12
100
AcDbXrecord
280
     1
270
     1
271
     1
  0
XRECORD
  5
15
102
{ACAD_REACTORS
330
12
102
}
330
12
100
AcDbXrecord
280
     1
270
     1
271
     1
  0
XRECORD
  5
24
102
{ACAD_REACTORS
330
22
102
}
330
22
100
AcDbXrecord
280
     1
270
     1
271
     1
  0
XRECORD
  5
23
102
{ACAD_REACTORS
330
22
102
}
330
22
100
AcDbXrecord
280
     1
270
     1
271
     1
  0
XRECORD
  5
27
102
{ACAD_REACTORS
330
22
102
}
330
22
100
AcDbXrecord
280
     1
270
     1
271
     1
  0
XRECORD
  5
26
102
{ACAD_REACTORS
330
22
102
}
330
22
100
AcDbXrecord
280
     1
270
     1
271
     1
  0
XRECORD
  5
28
102
{ACAD_REACTORS
330
22
102
}
330
22
100
AcDbXrecord
280
     1
270
     1
271
     1
  0
XRECORD
  5
25
102
{ACAD_REACTORS
330
22
102
}
330
22
100
AcDbXrecord
280
     1
270
     1
271
     1
  0
CELLSTYLEMAP
  5
4B0
102
{ACAD_REACTORS
330
4AF
102
}
330
4AF
100
AcDbCellStyleMap
 90
        3
300
CELLSTYLE
  1
TABLEFORMAT_BEGIN
 90
        5
170
     1
 91
        0
 92
    32768
 62
   257
 93
        1
300
CONTENTFORMAT
  1
CONTENTFORMAT_BEGIN
 90
        0
 91
        0
 92
      512
 93
        0
300

 40
0.0
140
1.0
 94
        5
 62
     0
340
55
144
0.25
309
CONTENTFORMAT_END
171
     0
 94
        0
309
TABLEFORMAT_END
  1
CELLSTYLE_BEGIN
 90
        1
 91
        1
300
_TITLE
309
CELLSTYLE_END
300
CELLSTYLE
  1
TABLEFORMAT_BEGIN
 90
        5
170
     1
 91
        0
 92
        0
 62
   257
 93
        1
300
CONTENTFORMAT
  1
CONTENTFORMAT_BEGIN
 90
        0
 91
        0
 92
      512
 93
        0
300

 40
0.0
140
1.0
 94
        5
 62
     0
340
55
144
0.18
309
CONTENTFORMAT_END
171
     0
 94
        0
309
TABLEFORMAT_END
  1
CELLSTYLE_BEGIN
 90
        2
 91
        1
300
_HEADER
309
CELLSTYLE_END
300
CELLSTYLE
  1
TABLEFORMAT_BEGIN
 90
        5
170
     1
 91
        0
 92
        0
 62
   257
 93
        1
300
CONTENTFORMAT
  1
CONTENTFORMAT_BEGIN
 90
        0
 91
        0
 92
      512
 93
        0
300

 40
0.0
140
1.0
 94
        2
 62
     0
340
55
144
0.18
309
CONTENTFORMAT_END
171
     0
 94
        0
309
TABLEFORMAT_END
  1
CELLSTYLE_BEGIN
 90
        3
 91
        2
300
_DATA
309
CELLSTYLE_END
  0
ENDSEC
  0
EOF
