  0
SECTION
  2
HEADER
  9
$ACADVER
  1
AC1032
  9
$ACADMAINTVER
 90
      228
  9
$DWGCODEPAGE
  3
ANSI_1252
  9
$REQUIREDVERSIONS
160
                 0
  9
$INSBASE
 10
0.0
 20
0.0
 30
0.0
  9
$EXTMIN
 10
1.000000000000000E+20
 20
1.000000000000000E+20
 30
1.000000000000000E+20
  9
$EXTMAX
 10
-1.000000000000000E+20
 20
-1.000000000000000E+20
 30
-1.000000000000000E+20
  9
$LIMMIN
 10
0.0
 20
0.0
  9
$LIMMAX
 10
12.0
 20
9.0
  9
$ORTHOMODE
 70
     0
  9
$REGENMODE
 70
     1
  9
$FILLMODE
 70
     1
  9
$QTEXTMODE
 70
     0
  9
$MIRRTEXT
 70
     0
  9
$LTSCALE
 40
1.0
  9
$ATTMODE
 70
     1
  9
$TEXTSIZE
 40
0.2
  9
$TRACEWID
 40
0.05
  9
$TEXTSTYLE
  7
Standard
  9
$CLAYER
  8
0
  9
$CELTYPE
  6
ByLayer
  9
$CECOLOR
 62
   256
  9
$CELTSCALE
 40
1.0
  9
$DISPSILH
 70
     0
  9
$DIMSCALE
 40
1.0
  9
$DIMASZ
 40
0.18
  9
$DIMEXO
 40
0.0625
  9
$DIMDLI
 40
0.38
  9
$DIMRND
 40
0.0
  9
$DIMDLE
 40
0.0
  9
$DIMEXE
 40
0.18
  9
$DIMTP
 40
0.0
  9
$DIMTM
 40
0.0
  9
$DIMTXT
 40
0.18
  9
$DIMCEN
 40
0.09
  9
$DIMTSZ
 40
0.0
  9
$DIMTOL
 70
     0
  9
$DIMLIM
 70
     0
  9
$DIMTIH
 70
     1
  9
$DIMTOH
 70
     1
  9
$DIMSE1
 70
     0
  9
$DIMSE2
 70
     0
  9
$DIMTAD
 70
     0
  9
$DIMZIN
 70
     0
  9
$DIMBLK
  1

  9
$DIMASO
 70
     1
  9
$DIMSHO
 70
     1
  9
$DIMPOST
  1

  9
$DIMAPOST
  1

  9
$DIMALT
 70
     0
  9
$DIMALTD
 70
     2
  9
$DIMALTF
 40
25.4
  9
$DIMLFAC
 40
1.0
  9
$DIMTOFL
 70
     0
  9
$DIMTVP
 40
0.0
  9
$DIMTIX
 70
     0
  9
$DIMSOXD
 70
     0
  9
$DIMSAH
 70
     0
  9
$DIMBLK1
  1

  9
$DIMBLK2
  1

  9
$DIMSTYLE
  2
Standard
  9
$DIMCLRD
 70
     0
  9
$DIMCLRE
 70
     0
  9
$DIMCLRT
 70
     0
  9
$DIMTFAC
 40
1.0
  9
$DIMGAP
 40
0.09
  9
$DIMJUST
 70
     0
  9
$DIMSD1
 70
     0
  9
$DIMSD2
 70
     0
  9
$DIMTOLJ
 70
     1
  9
$DIMTZIN
 70
     0
  9
$DIMALTZ
 70
     0
  9
$DIMALTTZ
 70
     0
  9
$DIMUPT
 70
     0
  9
$DIMDEC
 70
     4
  9
$DIMTDEC
 70
     4
  9
$DIMALTU
 70
     2
  9
$DIMALTTD
 70
     2
  9
$DIMTXSTY
  7
Standard
  9
$DIMAUNIT
 70
     0
  9
$DIMADEC
 70
     0
  9
$DIMALTRND
 40
0.0
  9
$DIMAZIN
 70
     0
  9
$DIMDSEP
 70
    46
  9
$DIMATFIT
 70
     3
  9
$DIMFRAC
 70
     0
  9
$DIMLDRBLK
  1

  9
$DIMLUNIT
 70
     2
  9
$DIMLWD
 70
    -2
  9
$DIMLWE
 70
    -2
  9
$DIMTMOVE
 70
     0
  9
$DIMFXL
 40
1.0
  9
$DIMFXLON
 70
     0
  9
$DIMJOGANG
 40
0.7853981633974483
  9
$DIMTFILL
 70
     0
  9
$DIMTFILLCLR
 70
     0
  9
$DIMARCSYM
 70
     0
  9
$DIMLTYPE
  6

  9
$DIMLTEX1
  6

  9
$DIMLTEX2
  6

  9
$DIMTXTDIRECTION
 70
     0
  9
$LUNITS
 70
     2
  9
$LUPREC
 70
     4
  9
$SKETCHINC
 40
0.1
  9
$FILLETRAD
 40
0.0
  9
$AUNITS
 70
     0
  9
$AUPREC
 70
     0
  9
$MENU
  1
.
  9
$ELEVATION
 40
0.0
  9
$PELEVATION
 40
0.0
  9
$THICKNESS
 40
0.0
  9
$LIMCHECK
 70
     0
  9
$CHAMFERA
 40
0.0
  9
$CHAMFERB
 40
0.0
  9
$CHAMFERC
 40
0.0
  9
$CHAMFERD
 40
0.0
  9
$SKPOLY
 70
     0
  9
$TDCREATE
 40
2460287.391053241
  9
$TDUCREATE
 40
2460287.349386574
  9
$TDUPDATE
 40
2460287.391053241
  9
$TDUUPDATE
 40
2460287.349386574
  9
$TDINDWG
 40
0.0000000000
  9
$TDUSRTIMER
 40
0.0000000000
  9
$USRTIMER
 70
     1
  9
$ANGBASE
 50
0.0
  9
$ANGDIR
 70
     0
  9
$PDMODE
 70
     0
  9
$PDSIZE
 40
0.0
  9
$PLINEWID
 40
0.0
  9
$SPLFRAME
 70
     0
  9
$SPLINETYPE
 70
     6
  9
$SPLINESEGS
 70
     8
  9
$HANDSEED
  5
274
  9
$SURFTAB1
 70
     6
  9
$SURFTAB2
 70
     6
  9
$SURFTYPE
 70
     6
  9
$SURFU
 70
     6
  9
$SURFV
 70
     6
  9
$UCSBASE
  2

  9
$UCSNAME
  2

  9
$UCSORG
 10
0.0
 20
0.0
 30
0.0
  9
$UCSXDIR
 10
1.0
 20
0.0
 30
0.0
  9
$UCSYDIR
 10
0.0
 20
1.0
 30
0.0
  9
$UCSORTHOREF
  2

  9
$UCSORTHOVIEW
 70
     0
  9
$UCSORGTOP
 10
0.0
 20
0.0
 30
0.0
  9
$UCSORGBOTTOM
 10
0.0
 20
0.0
 30
0.0
  9
$UCSORGLEFT
 10
0.0
 20
0.0
 30
0.0
  9
$UCSORGRIGHT
 10
0.0
 20
0.0
 30
0.0
  9
$UCSORGFRONT
 10
0.0
 20
0.0
 30
0.0
  9
$UCSORGBACK
 10
0.0
 20
0.0
 30
0.0
  9
$PUCSBASE
  2

  9
$PUCSNAME
  2

  9
$PUCSORG
 10
0.0
 20
0.0
 30
0.0
  9
$PUCSXDIR
 10
1.0
 20
0.0
 30
0.0
  9
$PUCSYDIR
 10
0.0
 20
1.0
 30
0.0
  9
$PUCSORTHOREF
  2

  9
$PUCSORTHOVIEW
 70
     0
  9
$PUCSORGTOP
 10
0.0
 20
0.0
 30
0.0
  9
$PUCSORGBOTTOM
 10
0.0
 20
0.0
 30
0.0
  9
$PUCSORGLEFT
 10
0.0
 20
0.0
 30
0.0
  9
$PUCSORGRIGHT
 10
0.0
 20
0.0
 30
0.0
  9
$PUCSORGFRONT
 10
0.0
 20
0.0
 30
0.0
  9
$PUCSORGBACK
 10
0.0
 20
0.0
 30
0.0
  9
$USERI1
 70
     0
  9
$USERI2
 70
     0
  9
$USERI3
 70
     0
  9
$USERI4
 70
     0
  9
$USERI5
 70
     0
  9
$USERR1
 40
0.0
  9
$USERR2
 40
0.0
  9
$USERR3
 40
0.0
  9
$USERR4
 40
0.0
  9
$USERR5
 40
0.0
  9
$WORLDVIEW
 70
     1
  9
$SHADEDGE
 70
     3
  9
$SHADEDIF
 70
    70
  9
$TILEMODE
 70
     1
  9
$MAXACTVP
 70
    64
  9
$PINSBASE
 10
0.0
 20
0.0
 30
0.0
  9
$PLIMCHECK
 70
     0
  9
$PEXTMIN
 10
1.000000000000000E+20
 20
1.000000000000000E+20
 30
1.000000000000000E+20
  9
$PEXTMAX
 10
-1.000000000000000E+20
 20
-1.000000000000000E+20
 30
-1.000000000000000E+20
  9
$PLIMMIN
 10
0.0
 20
0.0
  9
$PLIMMAX
 10
12.0
 20
9.0
  9
$UNITMODE
 70
     0
  9
$VISRETAIN
 70
     1
  9
$PLINEGEN
 70
     0
  9
$PSLTSCALE
 70
     1
  9
$TREEDEPTH
 70
  3020
  9
$CMLSTYLE
  2
Standard
  9
$CMLJUST
 70
     0
  9
$CMLSCALE
 40
1.0
  9
$PROXYGRAPHICS
 70
     1
  9
$MEASUREMENT
 70
     0
  9
$CELWEIGHT
370
    -1
  9
$ENDCAPS
280
     0
  9
$JOINSTYLE
280
     0
  9
$LWDISPLAY
290
     1
  9
$INSUNITS
 70
     4
  9
$HYPERLINKBASE
  1

  9
$STYLESHEET
  1

  9
$XEDIT
290
     1
  9
$CEPSNTYPE
380
     0
  9
$PSTYLEMODE
290
     1
  9
$FINGERPRINTGUID
  2
{9B038724-7C1A-8A4F-828F-54BA6B715DF9}
  9
$VERSIONGUID
  2
{8CD45575-0F8E-3243-AA2A-7F13940B96AF}
  9
$EXTNAMES
290
     1
  9
$PSVPSCALE
 40
0.0
  9
$OLESTARTUP
290
     0
  9
$SORTENTS
280
   127
  9
$INDEXCTL
280
     0
  9
$HIDETEXT
280
     1
  9
$XCLIPFRAME
280
     2
  9
$HALOGAP
280
     0
  9
$OBSCOLOR
 70
   257
  9
$OBSLTYPE
280
     0
  9
$INTERSECTIONDISPLAY
280
     0
  9
$INTERSECTIONCOLOR
 70
   257
  9
$DIMASSOC
280
     2
  9
$PROJECTNAME
  1

  9
$CAMERADISPLAY
290
     0
  9
$LENSLENGTH
 40
50.0
  9
$CAMERAHEIGHT
 40
0.0
  9
$STEPSPERSEC
 40
2.0
  9
$STEPSIZE
 40
6.0
  9
$3DDWFPREC
 40
2.0
  9
$PSOLWIDTH
 40
0.25
  9
$PSOLHEIGHT
 40
4.0
  9
$LOFTANG1
 40
1.570796326794896
  9
$LOFTANG2
 40
1.570796326794896
  9
$LOFTMAG1
 40
0.0
  9
$LOFTMAG2
 40
0.0
  9
$LOFTPARAM
 70
     7
  9
$LOFTNORMALS
280
     1
  9
$LATITUDE
 40
37.795
  9
$LONGITUDE
 40
-122.394
  9
$NORTHDIRECTION
 40
0.0
  9
$TIMEZONE
 70
 -8000
  9
$LIGHTGLYPHDISPLAY
280
     1
  9
$TILEMODELIGHTSYNCH
280
     1
  9
$CMATERIAL
347
11
  9
$SOLIDHIST
280
     0
  9
$SHOWHIST
280
     1
  9
$DWFFRAME
280
     2
  9
$DGNFRAME
280
     0
  9
$REALWORLDSCALE
290
     1
  9
$INTERFERECOLOR
 62
     1
  9
$INTERFEREOBJVS
345
33
  9
$INTERFEREVPVS
346
30
  9
$CSHADOW
280
     0
  9
$SHADOWPLANELOCATION
 40
0.0
  0
ENDSEC
  0
SECTION
  2
CLASSES
  0
CLASS
  1
ACDBDICTIONARYWDFLT
  2
AcDbDictionaryWithDefault
  3
ObjectDBX Classes
 90
        0
 91
        1
280
     0
281
     0
  0
CLASS
  1
MATERIAL
  2
AcDbMaterial
  3
ObjectDBX Classes
 90
     1153
 91
        3
280
     0
281
     0
  0
CLASS
  1
VISUALSTYLE
  2
AcDbVisualStyle
  3
ObjectDBX Classes
 90
     4095
 91
       24
280
     0
281
     0
  0
CLASS
  1
SCALE
  2
AcDbScale
  3
ObjectDBX Classes
 90
     1153
 91
       17
280
     0
281
     0
  0
CLASS
  1
TABLESTYLE
  2
AcDbTableStyle
  3
ObjectDBX Classes
 90
     4095
 91
        1
280
     0
281
     0
  0
CLASS
  1
MLEADERSTYLE
  2
AcDbMLeaderStyle
  3
ACDB_MLEADERSTYLE_CLASS
 90
     4095
 91
        1
280
     0
281
     0
  0
CLASS
  1
ACDBSECTIONVIEWSTYLE
  2
AcDbSectionViewStyle
  3
ObjectDBX Classes
 90
     1025
 91
        1
280
     0
281
     0
  0
CLASS
  1
ACDBDETAILVIEWSTYLE
  2
AcDbDetailViewStyle
  3
ObjectDBX Classes
 90
     1025
 91
        1
280
     0
281
     0
  0
CLASS
  1
DICTIONARYVAR
  2
AcDbDictionaryVar
  3
ObjectDBX Classes
 90
        0
 91
        5
280
     0
281
     0
  0
CLASS
  1
CELLSTYLEMAP
  2
AcDbCellStyleMap
  3
ObjectDBX Classes
 90
     1152
 91
        1
280
     0
281
     0
  0
ENDSEC
  0
SECTION
  2
TABLES
  0
TABLE
  2
VPORT
  5
8
330
0
100
AcDbSymbolTable
 70
     1
  0
VPORT
  5
57
330
8
100
AcDbSymbolTableRecord
100
AcDbViewportTableRecord
  2
*Active
 70
     0
 10
0.0
 20
0.0
 11
1.0
 21
1.0
 12
0.0
 22
0.0
 13
0.0
 23
0.0
 14
1.0
 24
1.0
 15
0.0
 25
0.0
 16
0.0
 26
0.0
 36
1.0
 17
187.8050175637295
 27
163.0527240866144
 37
0.0
 40
150.23100060392
 41
1.719280536870734
 42
50.0
 43
0.0
 44
0.0
 50
0.0
 51
0.0
 71
     0
 72
   100
 73
     1
 74
     1
 75
     0
 76
     0
 77
     0
 78
     0
281
     0
 65
     1
110
0.0
120
0.0
130
0.0
111
1.0
121
0.0
131
0.0
112
0.0
122
1.0
132
0.0
 79
     0
146
0.0
 60
     3
 61
     5
292
     1
282
     1
141
0.0
142
0.0
 63
   250
421
  3355443
  0
ENDTAB
  0
TABLE
  2
LTYPE
  5
5
330
0
100
AcDbSymbolTable
 70
     5
  0
LTYPE
  5
5B
330
5
100
AcDbSymbolTableRecord
100
AcDbLinetypeTableRecord
  2
ByBlock
 70
     0
  3

 72
    65
 73
     0
 40
0.0
  0
LTYPE
  5
5C
330
5
100
AcDbSymbolTableRecord
100
AcDbLinetypeTableRecord
  2
ByLayer
 70
     0
  3

 72
    65
 73
     0
 40
0.0
  0
LTYPE
  5
5D
330
5
100
AcDbSymbolTableRecord
100
AcDbLinetypeTableRecord
  2
Continuous
 70
     0
  3
Solid line
 72
    65
 73
     0
 40
0.0
  0
LTYPE
  5
87
330
5
100
AcDbSymbolTableRecord
100
AcDbLinetypeTableRecord
  2
AI-Linetype-0
 70
     0
  3
Adobe Illustrator Linetype No. 0
 72
    65
 73
     4
 40
8.819444442239584
 49
7.055555553791666
 74
     0
 49
-0.7055555553791667
 74
     0
 49
0.3527777776895833
 74
     0
 49
-0.7055555553791667
 74
     0
  0
LTYPE
  5
89
330
5
100
AcDbSymbolTableRecord
100
AcDbLinetypeTableRecord
  2
AI-Linetype-1
 70
     0
  3
Adobe Illustrator Linetype No. 1
 72
    65
 73
     4
 40
8.819444442239584
 49
7.055555553791666
 74
     0
 49
-0.7055555553791667
 74
     0
 49
0.3527777776895833
 74
     0
 49
-0.7055555553791667
 74
     0
  0
LTYPE
  5
8B
330
5
100
AcDbSymbolTableRecord
100
AcDbLinetypeTableRecord
  2
AI-Linetype-2
 70
     0
  3
Adobe Illustrator Linetype No. 2
 72
    65
 73
     4
 40
8.819444442239584
 49
7.055555553791666
 74
     0
 49
-0.7055555553791667
 74
     0
 49
0.3527777776895833
 74
     0
 49
-0.7055555553791667
 74
     0
  0
LTYPE
  5
8D
330
5
100
AcDbSymbolTableRecord
100
AcDbLinetypeTableRecord
  2
AI-Linetype-3
 70
     0
  3
Adobe Illustrator Linetype No. 3
 72
    65
 73
     4
 40
8.819444442239584
 49
7.055555553791666
 74
     0
 49
-0.7055555553791667
 74
     0
 49
0.3527777776895833
 74
     0
 49
-0.7055555553791667
 74
     0
  0
ENDTAB
  0
TABLE
  2
LAYER
  5
2
330
0
100
AcDbSymbolTable
 70
     5
  0
LAYER
  5
54
330
2
100
AcDbSymbolTableRecord
100
AcDbLayerTableRecord
  2
0
 70
     0
 62
     7
  6
Continuous
370
    -3
390
F
347
21
348
0
  0
LAYER
  5
78
330
2
100
AcDbSymbolTableRecord
100
AcDbLayerTableRecord
  2
grau 10%
 70
     0
 62
     7
  6
Continuous
370
     0
390
F
347
21
348
0
  0
LAYER
  5
79
330
2
100
AcDbSymbolTableRecord
100
AcDbLayerTableRecord
  2
Standardebene
 70
     0
 62
     7
  6
Continuous
370
     0
390
F
347
21
348
0
  0
LAYER
  5
159
330
2
100
AcDbSymbolTableRecord
100
AcDbLayerTableRecord
  2
Bemaßung
 70
     1
 62
     7
  6
Continuous
370
     0
390
F
347
21
348
0
  0
LAYER
  5
264
330
2
100
AcDbSymbolTableRecord
100
AcDbLayerTableRecord
  2
Text
 70
     1
 62
     7
  6
Continuous
370
     0
390
F
347
21
348
0
  0
ENDTAB
  0
TABLE
  2
STYLE
  5
3
330
0
100
AcDbSymbolTable
 70
     2
  0
STYLE
  5
55
330
3
100
AcDbSymbolTableRecord
100
AcDbTextStyleTableRecord
  2
Standard
 70
     0
 40
0.0
 41
1.0
 50
0.0
 71
     0
 42
0.2
  3
txt
  4

  0
STYLE
  5
5A
330
3
100
AcDbSymbolTableRecord
100
AcDbTextStyleTableRecord
  2
Annotative
 70
     0
 40
0.0
 41
1.0
 50
0.0
 71
     0
 42
0.2
  3
txt
  4

1001
AcadAnnotative
1000
AnnotativeData
1002
{
1070
     1
1070
     1
1002
}
  0
ENDTAB
  0
TABLE
  2
VIEW
  5
6
330
0
100
AcDbSymbolTable
 70
     0
  0
ENDTAB
  0
TABLE
  2
UCS
  5
7
330
0
100
AcDbSymbolTable
 70
     0
  0
ENDTAB
  0
TABLE
  2
APPID
  5
9
330
0
100
AcDbSymbolTable
 70
     2
  0
APPID
  5
56
330
9
100
AcDbSymbolTableRecord
100
AcDbRegAppTableRecord
  2
ACAD
 70
     0
  0
APPID
  5
5E
330
9
100
AcDbSymbolTableRecord
100
AcDbRegAppTableRecord
  2
AcadAnnotative
 70
     0
  0
ENDTAB
  0
TABLE
  2
DIMSTYLE
  5
A
330
0
100
AcDbSymbolTable
 70
     2
100
AcDbDimStyleTable
 71
     0
  0
DIMSTYLE
105
58
330
A
100
AcDbSymbolTableRecord
100
AcDbDimStyleTableRecord
  2
Standard
 70
     0
340
55
  0
DIMSTYLE
105
59
330
A
100
AcDbSymbolTableRecord
100
AcDbDimStyleTableRecord
  2
Annotative
 70
     0
340
55
1001
AcadAnnotative
1000
AnnotativeData
1002
{
1070
     1
1070
     1
1002
}
  0
ENDTAB
  0
TABLE
  2
BLOCK_RECORD
  5
1
330
0
100
AcDbSymbolTable
 70
     1
  0
BLOCK_RECORD
  5
70
330
1
100
AcDbSymbolTableRecord
100
AcDbBlockTableRecord
  2
*Model_Space
340
73
 70
     0
280
     1
281
     0
  0
BLOCK_RECORD
  5
6C
330
1
100
AcDbSymbolTableRecord
100
AcDbBlockTableRecord
  2
*Paper_Space
340
6F
 70
     0
280
     1
281
     0
  0
BLOCK_RECORD
  5
74
330
1
100
AcDbSymbolTableRecord
100
AcDbBlockTableRecord
  2
*Paper_Space0
340
77
 70
     0
280
     1
281
     0
  0
ENDTAB
  0
ENDSEC
  0
SECTION
  2
BLOCKS
  0
BLOCK
  5
71
330
70
100
AcDbEntity
  8
0
100
AcDbBlockBegin
  2
*Model_Space
 70
     0
 10
0.0
 20
0.0
 30
0.0
  3
*Model_Space
  1

  0
ENDBLK
  5
72
330
70
100
AcDbEntity
  8
0
100
AcDbBlockEnd
  0
BLOCK
  5
6D
330
6C
100
AcDbEntity
 67
     1
  8
0
100
AcDbBlockBegin
  2
*Paper_Space
 70
     0
 10
0.0
 20
0.0
 30
0.0
  3
*Paper_Space
  1

  0
ENDBLK
  5
6E
330
6C
100
AcDbEntity
 67
     1
  8
0
100
AcDbBlockEnd
  0
BLOCK
  5
75
330
74
100
AcDbEntity
 67
     1
  8
0
100
AcDbBlockBegin
  2
*Paper_Space0
 70
     0
 10
0.0
 20
0.0
 30
0.0
  3
*Paper_Space0
  1

  0
ENDBLK
  5
76
330
74
100
AcDbEntity
 67
     1
  8
0
100
AcDbBlockEnd
  0
ENDSEC
  0
SECTION
  2
ENTITIES
  0
LINE
  5
7A
330
70
100
AcDbEntity
  8
Standardebene
 62
     7
370
     9
100
AcDbLine
 10
198.2729740352796
 20
182.4379880243404
 30
0.0
 11
198.2729740352796
 21
192.6547852440089
 31
0.0
  0
LINE
  5
7B
330
70
100
AcDbEntity
  8
Standardebene
 62
     7
370
     9
100
AcDbLine
 10
195.7731907025711
 20
202.5484380193133
 30
0.0
 11
195.7731907025711
 21
212.7652352389812
 31
0.0
  0
LINE
  5
7C
330
70
100
AcDbEntity
  8
Standardebene
 62
     7
370
     9
100
AcDbLine
 10
195.7731907025711
 20
182.4379880243404
 30
0.0
 11
195.7731907025711
 21
192.6547852440089
 31
0.0
  0
LINE
  5
7D
330
70
100
AcDbEntity
  8
Standardebene
 62
     7
370
     9
100
AcDbLine
 10
198.2729740352796
 20
202.5484380193133
 30
0.0
 11
198.2729740352796
 21
212.7652352389812
 31
0.0
  0
LINE
  5
7E
330
70
100
AcDbEntity
  8
Standardebene
 62
     7
370
     9
100
AcDbLine
 10
189.8479351484971
 20
181.7902880245026
 30
0.0
 11
189.8479351484971
 21
213.4125824610416
 31
0.0
  0
LINE
  5
7F
330
70
100
AcDbEntity
  8
Standardebene
 62
     7
370
     9
100
AcDbLine
 10
176.455785151845
 20
209.8565824619306
 30
0.0
 11
176.455785151845
 21
185.3459352458358
 31
0.0
  0
LINE
  5
80
330
70
100
AcDbEntity
  8
Standardebene
 62
     7
370
     9
100
AcDbLine
 10
195.7731907025711
 20
117.0332822804013
 30
0.0
 11
195.7731907025711
 21
127.2497267222914
 31
0.0
  0
LINE
  5
81
330
70
100
AcDbEntity
  8
Standardebene
 62
     7
370
     9
100
AcDbLine
 10
198.2729740352796
 20
117.0332822804013
 30
0.0
 11
198.2729740352796
 21
127.2497267222914
 31
0.0
  0
LINE
  5
82
330
70
100
AcDbEntity
  8
Standardebene
 62
     7
370
     9
100
AcDbLine
 10
195.7731907025711
 20
96.92318506320628
 30
0.0
 11
195.7731907025711
 21
107.1396295050969
 31
0.0
  0
LINE
  5
83
330
70
100
AcDbEntity
  8
Standardebene
 62
     7
370
     9
100
AcDbLine
 10
198.2729740352796
 20
96.92318506320628
 30
0.0
 11
198.2729740352796
 21
107.1396295050969
 31
0.0
  0
LINE
  5
84
330
70
100
AcDbEntity
  8
Standardebene
 62
     7
370
     9
100
AcDbLine
 10
189.8479351484971
 20
96.27548506336845
 30
0.0
 11
189.8479351484971
 21
127.8974267221298
 31
0.0
  0
LINE
  5
85
330
70
100
AcDbEntity
  8
Standardebene
 62
     7
370
     9
100
AcDbLine
 10
176.455785151845
 20
124.3417795007966
 30
0.0
 11
176.455785151845
 21
99.83113228470166
 31
0.0
  0
LWPOLYLINE
  5
86
330
70
100
AcDbEntity
  8
Standardebene
  6
AI-Linetype-0
 62
     7
370
     9
100
AcDbPolyline
 90
        6
 70
     0
 43
0.0
 10
223.522690695634
 20
197.6014352427719
 10
199.522865701634
 20
197.6014352427719
 10
175.5230407076339
 20
197.6014352427719
 10
149.2731990475296
 20
197.6014352427719
 10
78.52326295410612
 20
197.6014352427719
 10
75.02300184386992
 20
197.6014352427719
  0
LWPOLYLINE
  5
88
330
70
100
AcDbEntity
  8
Standardebene
  6
AI-Linetype-1
 62
     7
370
     9
100
AcDbPolyline
 90
        6
 70
     0
 43
0.0
 10
226.5227129171062
 20
112.0866322816377
 10
201.0232295901477
 20
112.0866322816377
 10
175.5230407076339
 20
112.0866322816377
 10
150.772857380488
 20
112.0866322816377
 10
78.52326295410612
 20
112.0866322816377
 10
75.02300184386992
 20
112.0866322816377
  0
LWPOLYLINE
  5
8A
330
70
100
AcDbEntity
  8
Standardebene
  6
AI-Linetype-2
 62
     7
370
     9
100
AcDbPolyline
 90
        4
 70
     0
 43
0.0
 10
289.8187807151268
 20
172.9265804376888
 10
289.8187807151268
 20
209.2261685731993
 10
289.8187807151268
 20
210.726532461713
 10
289.8187807151268
 20
221.6016130145498
  0
LINE
  5
8C
330
70
100
AcDbEntity
  8
Standardebene
  6
AI-Linetype-3
 62
     7
370
     9
100
AcDbLine
 10
314.3732906223689
 20
197.6014352427719
 30
0.0
 11
265.8193084989043
 21
197.6014352427719
 31
0.0
  0
LINE
  5
8E
330
70
100
AcDbEntity
  8
Standardebene
 62
     7
370
    35
100
AcDbLine
 10
178.5227101513284
 20
220.1012491260362
 30
0.0
 11
178.0231768181199
 21
219.6017157928277
 31
0.0
  0
LINE
  5
8F
330
70
100
AcDbEntity
  8
Standardebene
 62
     7
370
    35
100
AcDbLine
 10
178.0231768181199
 20
175.6015074704943
 30
0.0
 11
178.5227101513284
 21
175.1012685817307
 31
0.0
  0
LWPOLYLINE
  5
90
330
70
100
AcDbEntity
  8
Standardebene
 62
     7
370
    35
100
AcDbPolyline
 90
       17
 70
     0
 43
0.0
 10
178.0231768181199
 20
197.6014352427719
 10
178.0231768181199
 20
199.7579657977887
 10
178.0231768181199
 20
201.8936824639215
 10
178.0231768181199
 20
203.9877713522868
 10
178.0231768181199
 20
206.0201241295566
 10
178.0231768181199
 20
207.9723963512905
 10
178.0231768181199
 20
209.8241269063833
 10
178.0231768181199
 20
211.5580296837273
 10
178.0231768181199
 20
213.1575241277721
 10
178.0231768181199
 20
214.6074407940762
 10
178.0231768181199
 20
215.89402134931
 10
178.0231768181199
 20
217.0038602379214
 10
178.0231768181199
 20
217.9267269043573
 10
178.0231768181199
 20
218.6541546819532
 10
178.0231768181199
 20
219.1783824596002
 10
178.0231768181199
 20
219.4951769039652
 10
178.0231768181199
 20
219.6017157928277
  0
LWPOLYLINE
  5
91
330
70
100
AcDbEntity
  8
Standardebene
 62
     7
370
    35
100
AcDbPolyline
 90
       17
 70
     0
 43
0.0
 10
178.0231768181199
 20
175.6015074704943
 10
178.0231768181199
 20
175.707340803801
 10
178.0231768181199
 20
176.0241352481666
 10
178.0231768181199
 20
176.5490685813685
 10
178.0231768181199
 20
177.2757908034088
 10
178.0231768181199
 20
178.1993630254003
 10
178.0231768181199
 20
179.3092019140119
 10
178.0231768181199
 20
180.59507691369
 10
178.0231768181199
 20
182.0449935799944
 10
178.0231768181199
 20
183.6444880240388
 10
178.0231768181199
 20
185.379096356939
 10
178.0231768181199
 20
187.2308269120315
 10
178.0231768181199
 20
189.1820408004323
 10
178.0231768181199
 20
191.2154519110354
 10
178.0231768181199
 20
193.3095407994007
 10
178.0231768181199
 20
195.4452574655334
 10
178.0231768181199
 20
197.6014352427719
  0
LWPOLYLINE
  5
92
330
70
100
AcDbEntity
  8
Standardebene
 62
     7
370
    35
100
AcDbPolyline
 90
       17
 70
     0
 43
0.0
 10
178.5227101513284
 20
197.6014352427719
 10
178.5227101513284
 20
195.3962213544342
 10
178.5227101513284
 20
193.2118213549806
 10
178.5227101513284
 20
191.0697546888494
 10
178.5227101513284
 20
188.9911880227025
 10
178.5227101513284
 20
186.995171356535
 10
178.5227101513284
 20
185.1011074681194
 10
178.5227101513284
 20
183.3273408018961
 10
178.5227101513284
 20
181.691863024527
 10
178.5227101513284
 20
180.2084324693424
 10
178.5227101513284
 20
178.8936296918937
 10
178.5227101513284
 20
177.7583908032883
 10
178.5227101513284
 20
176.8143574701912
 10
178.5227101513284
 20
176.069996359266
 10
178.5227101513284
 20
175.5337741371776
 10
178.5227101513284
 20
175.2099241372587
 10
178.5227101513284
 20
175.1012685817307
  0
LWPOLYLINE
  5
93
330
70
100
AcDbEntity
  8
Standardebene
 62
     7
370
    35
100
AcDbPolyline
 90
       17
 70
     0
 43
0.0
 10
178.5227101513284
 20
220.1012491260362
 10
178.5227101513284
 20
219.993299126063
 10
178.5227101513284
 20
219.6687435705885
 10
178.5227101513284
 20
219.1325213485005
 10
178.5227101513284
 20
218.3888657931308
 10
178.5227101513284
 20
217.4448324600334
 10
178.5227101513284
 20
216.3095935714287
 10
178.5227101513284
 20
214.9940852384238
 10
178.5227101513284
 20
213.5113602387946
 10
178.5227101513284
 20
211.8751769058704
 10
178.5227101513284
 20
210.1014102396471
 10
178.5227101513284
 20
208.2080519067873
 10
178.5227101513284
 20
206.2116824628418
 10
178.5227101513284
 20
204.1327630189172
 10
178.5227101513284
 20
201.990696352786
 10
178.5227101513284
 20
199.8070019088873
 10
178.5227101513284
 20
197.6014352427719
  0
LINE
  5
94
330
70
100
AcDbEntity
  8
Standardebene
 62
     7
370
    35
100
AcDbLine
 10
178.5227101513284
 20
175.1012685817307
 30
0.0
 11
187.5227768157449
 21
175.1012685817307
 31
0.0
  0
LINE
  5
95
330
70
100
AcDbEntity
  8
Standardebene
 62
     7
370
    35
100
AcDbLine
 10
187.5227768157449
 20
220.1012491260362
 30
0.0
 11
178.5227101513284
 21
220.1012491260362
 31
0.0
  0
LWPOLYLINE
  5
96
330
70
100
AcDbEntity
  8
Standardebene
 62
     7
370
    35
100
AcDbPolyline
 90
       34
 70
     0
 43
0.0
 10
187.5227768157449
 20
175.1012685817307
 10
187.5227768157449
 20
175.2032213594825
 10
187.5227768157449
 20
175.508374137184
 10
187.5227768157449
 20
176.0124935815024
 10
187.5227768157449
 20
176.7131102479942
 10
187.5227768157449
 20
177.6028158033276
 10
187.5227768157449
 20
178.6731435808377
 10
187.5227768157449
 20
179.9149213583045
 10
187.5227768157449
 20
181.3172130246208
 10
187.5227768157449
 20
182.8673185797889
 10
187.5227768157449
 20
184.5500685793683
 10
187.5227768157449
 20
186.3513519122513
 10
187.5227768157449
 20
188.2545880228867
 10
187.5227768157449
 20
190.2421380223898
 10
187.5227768157449
 20
192.2970685774313
 10
187.5227768157449
 20
194.3992713546838
 10
187.5227768157449
 20
196.530754687484
 10
187.5227768157449
 20
198.6717630202819
 10
187.5227768157449
 20
200.8032463530829
 10
187.5227768157449
 20
202.9061546858903
 10
187.5227768157449
 20
204.9603796853768
 10
187.5227768157449
 20
206.9479296848801
 10
187.5227768157449
 20
208.8511657955152
 10
187.5227768157449
 20
210.6524491283985
 10
187.5227768157449
 20
212.3359046835328
 10
187.5227768157449
 20
213.8853046831454
 10
187.5227768157449
 20
215.2875963494616
 10
187.5227768157449
 20
216.5293741269291
 10
187.5227768157449
 20
217.6004074599947
 10
187.5227768157449
 20
218.4894074597723
 10
187.5227768157449
 20
219.1900241262637
 10
187.5227768157449
 20
219.6948491261377
 10
187.5227768157449
 20
219.9992963482836
 10
187.5227768157449
 20
220.1012491260362
  0
LINE
  5
97
330
70
100
AcDbEntity
  8
Standardebene
 62
     7
370
    35
100
AcDbLine
 10
187.5227768157449
 20
175.1012685817307
 30
0.0
 11
188.023015704509
 21
175.6015074704943
 31
0.0
  0
LINE
  5
98
330
70
100
AcDbEntity
  8
Standardebene
 62
     7
370
    35
100
AcDbLine
 10
188.023015704509
 20
219.6017157928277
 30
0.0
 11
187.5227768157449
 21
220.1012491260362
 31
0.0
  0
LWPOLYLINE
  5
99
330
70
100
AcDbEntity
  8
Standardebene
 62
     7
370
    35
100
AcDbPolyline
 90
       33
 70
     0
 43
0.0
 10
188.023015704509
 20
219.6017157928277
 10
188.023015704509
 20
219.4951769039652
 10
188.023015704509
 20
219.1783824596002
 10
188.023015704509
 20
218.6541546819532
 10
188.023015704509
 20
217.9267269043573
 10
188.023015704509
 20
217.0038602379214
 10
188.023015704509
 20
215.89402134931
 10
188.023015704509
 20
214.6074407940762
 10
188.023015704509
 20
213.1575241277721
 10
188.023015704509
 20
211.5580296837273
 10
188.023015704509
 20
209.8241269063833
 10
188.023015704509
 20
207.9723963512905
 10
188.023015704509
 20
206.0201241295566
 10
188.023015704509
 20
203.9877713522868
 10
188.023015704509
 20
201.8936824639215
 10
188.023015704509
 20
199.7579657977887
 10
188.023015704509
 20
197.6014352427719
 10
188.023015704509
 20
195.4452574655334
 10
188.023015704509
 20
193.3095407994007
 10
188.023015704509
 20
191.2154519110354
 10
188.023015704509
 20
189.1820408004323
 10
188.023015704509
 20
187.2308269120315
 10
188.023015704509
 20
185.379096356939
 10
188.023015704509
 20
183.6444880240388
 10
188.023015704509
 20
182.0449935799944
 10
188.023015704509
 20
180.59507691369
 10
188.023015704509
 20
179.3092019140119
 10
188.023015704509
 20
178.1993630254003
 10
188.023015704509
 20
177.2757908034088
 10
188.023015704509
 20
176.5490685813685
 10
188.023015704509
 20
176.0241352481666
 10
188.023015704509
 20
175.707340803801
 10
188.023015704509
 20
175.6015074704943
  0
SPLINE
  5
9A
330
70
100
AcDbEntity
  8
Standardebene
 62
     7
370
    35
100
AcDbSpline
210
0.0
220
0.0
230
1.0
 70
     8
 71
     3
 72
     8
 73
     4
 74
     0
 42
0.0000000001
 43
0.0000000001
 40
0.0
 40
0.0
 40
0.0
 40
0.0
 40
1.0
 40
1.0
 40
1.0
 40
1.0
 10
188.023015704509
 20
213.7762963498396
 30
0.0
 10
188.023015704509
 20
213.5558102387836
 30
0.0
 10
188.2018740377974
 20
213.3762463499396
 30
0.0
 10
188.4230657044089
 20
213.3762463499396
 30
0.0
  0
SPLINE
  5
9B
330
70
100
AcDbEntity
  8
Standardebene
 62
     7
370
    35
100
AcDbSpline
210
0.0
220
0.0
230
1.0
 70
     8
 71
     3
 72
     8
 73
     4
 74
     0
 42
0.0000000001
 43
0.0000000001
 40
0.0
 40
0.0
 40
0.0
 40
0.0
 40
1.0
 40
1.0
 40
1.0
 40
1.0
 10
188.4230657044089
 20
181.8262713578272
 30
0.0
 10
188.2018740377974
 20
181.8262713578272
 30
0.0
 10
188.023015704509
 20
181.6474130245381
 30
0.0
 10
188.023015704509
 20
181.4262213579272
 30
0.0
  0
LINE
  5
9C
330
70
100
AcDbEntity
  8
Standardebene
 62
     7
370
    35
100
AcDbLine
 10
202.723265700834
 20
213.5512241276736
 30
0.0
 11
190.0232657040089
 21
213.5512241276736
 31
0.0
  0
LINE
  5
9D
330
70
100
AcDbEntity
  8
Standardebene
 62
     7
370
    35
100
AcDbLine
 10
190.0232657040089
 20
181.6512935800928
 30
0.0
 11
202.723265700834
 21
181.6512935800928
 31
0.0
  0
LWPOLYLINE
  5
9E
330
70
100
AcDbEntity
  8
Standardebene
 62
     7
370
    35
100
AcDbPolyline
 90
       28
 70
     0
 43
0.0
 10
190.0232657040089
 20
213.5512241276736
 10
190.0232657040089
 20
213.4436269054782
 10
190.0232657040089
 20
213.1215407944478
 10
190.0232657040089
 20
212.5891991279142
 10
190.0232657040089
 20
211.8547157947644
 10
190.0232657040089
 20
210.9272630172185
 10
190.0232657040089
 20
209.8195407952731
 10
190.0232657040089
 20
208.5470713511468
 10
190.0232657040089
 20
207.126082462613
 10
190.0232657040089
 20
205.5763296852225
 10
190.0232657040089
 20
203.9186269078596
 10
190.0232657040089
 20
202.1762574638507
 10
190.0232657040089
 20
200.371093575413
 10
190.0232657040089
 20
198.5285352425403
 10
190.0232657040089
 20
196.6743352430041
 10
190.0232657040089
 20
194.8314241323536
 10
190.0232657040089
 20
193.0266130216937
 10
190.0232657040089
 20
191.2842435776848
 10
190.0232657040089
 20
189.6261880225435
 10
190.0232657040089
 20
188.0764352451531
 10
190.0232657040089
 20
186.6561519121749
 10
190.0232657040089
 20
185.3829769124931
 10
190.0232657040089
 20
184.275254690548
 10
190.0232657040089
 20
183.3478019130024
 10
190.0232657040089
 20
182.6133185798526
 10
190.0232657040089
 20
182.0816824688746
 10
190.0232657040089
 20
181.7595963578438
 10
190.0232657040089
 20
181.6512935800928
  0
LINE
  5
9F
330
70
100
AcDbEntity
  8
Standardebene
 62
     7
370
    35
100
AcDbLine
 10
195.9460518136393
 20
182.4009463576832
 30
0.0
 11
198.1001129242118
 21
182.4009463576832
 31
0.0
  0
LWPOLYLINE
  5
A0
330
70
100
AcDbEntity
  8
Standardebene
 62
     7
370
    35
100
AcDbPolyline
 90
       21
 70
     0
 43
0.0
 10
198.3594045908135
 20
182.5050158021016
 10
198.344235146373
 20
182.4877296909952
 10
198.3255379241555
 20
182.4707963576658
 10
198.3153073686023
 20
182.4626824687792
 10
198.3029601463832
 20
182.4549213576698
 10
198.2906129241641
 20
182.4468074687832
 10
198.275796257501
 20
182.4397519132292
 10
198.2602740352828
 20
182.4319908021198
 10
198.2433407019537
 20
182.4252880243436
 10
198.2341684797339
 20
182.4217602465673
 10
198.2239379241807
 20
182.4185852465681
 10
198.2137073686279
 20
182.4161158021237
 10
198.2034768130747
 20
182.4129408021245
 10
198.1918351464111
 20
182.4108241354586
 10
198.180546257525
 20
182.4080019132371
 10
198.1678462575282
 20
182.4062380243483
 10
198.1551462575313
 20
182.4044741354602
 10
198.1417407019793
 20
182.402710246572
 10
198.1279823686492
 20
182.4016519132387
 10
198.1142240353193
 20
182.4009463576832
 10
198.1001129242118
 20
182.4009463576832
  0
LWPOLYLINE
  5
A1
330
70
100
AcDbEntity
  8
Standardebene
 62
     7
370
    35
100
AcDbPolyline
 90
       10
 70
     0
 43
0.0
 10
198.3594045908135
 20
192.4533491329482
 10
198.7284101462769
 20
190.9501630222127
 10
199.0085157017624
 20
189.5154158003488
 10
199.1972518128263
 20
188.1642769117977
 10
199.2914434794696
 20
186.9094463565563
 10
199.2914434794696
 20
185.7657408012866
 10
199.1972518128263
 20
184.7433908015418
 10
199.0085157017624
 20
183.8529796906535
 10
198.7284101462769
 20
183.1047380241742
 10
198.3594045908135
 20
182.5050158021016
  0
LWPOLYLINE
  5
A2
330
70
100
AcDbEntity
  8
Standardebene
 62
     7
370
    35
100
AcDbPolyline
 90
       21
 70
     0
 43
0.0
 10
198.1001129242118
 20
192.7694380217576
 10
198.1142240353193
 20
192.7690852439799
 10
198.1279823686492
 20
192.7669685773139
 10
198.1346851464254
 20
192.7655574662035
 10
198.1417407019793
 20
192.763440799537
 10
198.1484434797551
 20
192.7609713550932
 10
198.1551462575313
 20
192.7588546884273
 10
198.1798407019695
 20
192.746860243986
 10
198.2034768130747
 20
192.731338021767
 10
198.2239379241807
 20
192.7129935773273
 10
198.2433407019537
 20
192.6932380217771
 10
198.2518073686184
 20
192.683007466224
 10
198.2602740352828
 20
192.6724241328931
 10
198.2687407019474
 20
192.661488021785
 10
198.275796257501
 20
192.6501991328986
 10
198.2906129241641
 20
192.6269157995715
 10
198.3029601463832
 20
192.603279688466
 10
198.3146018130471
 20
192.5789380218056
 10
198.3255379241555
 20
192.5549491329223
 10
198.344235146373
 20
192.5045019107126
 10
198.3594045908135
 20
192.4533491329482
  0
LINE
  5
A3
330
70
100
AcDbEntity
  8
Standardebene
 62
     7
370
    35
100
AcDbLine
 10
198.1001129242118
 20
192.7694380217576
 30
0.0
 11
195.9460518136393
 21
192.7694380217576
 31
0.0
  0
LWPOLYLINE
  5
A4
330
70
100
AcDbEntity
  8
Standardebene
 62
     7
370
    35
100
AcDbPolyline
 90
       21
 70
     0
 43
0.0
 10
195.6864073692598
 20
192.4533491329482
 10
195.7019295914781
 20
192.5045019107126
 10
195.7206268136956
 20
192.5545963551451
 10
195.7308573692484
 20
192.5789380218056
 10
195.7424990359123
 20
192.6029269106882
 10
195.7559045914647
 20
192.6265630217937
 10
195.7696629247945
 20
192.6501991328986
 10
195.785890702568
 20
192.6724241328931
 10
195.8028240358973
 20
192.6932380217771
 10
195.8119962581172
 20
192.7038213551074
 10
195.8215212581148
 20
192.7133463551051
 10
195.8317518136676
 20
192.7228713551027
 10
195.842687924776
 20
192.731338021767
 10
195.8536240358844
 20
192.7394519106543
 10
195.865618480326
 20
192.746860243986
 10
195.8783184803229
 20
192.7535630217615
 10
195.8910184803197
 20
192.7588546884273
 10
195.9044240358718
 20
192.763440799537
 10
195.9181823692016
 20
192.7669685773139
 10
195.9322934803095
 20
192.7690852439799
 10
195.9460518136393
 20
192.7694380217576
  0
LWPOLYLINE
  5
A5
330
70
100
AcDbEntity
  8
Standardebene
 62
     7
370
    35
100
AcDbPolyline
 90
       10
 70
     0
 43
0.0
 10
195.6864073692598
 20
182.5050158021016
 10
195.3177545915741
 20
183.1047380241742
 10
195.0376490360887
 20
183.8529796906535
 10
194.8489129250244
 20
184.7433908015418
 10
194.7543684806036
 20
185.7657408012866
 10
194.7543684806036
 20
186.9094463565563
 10
194.8489129250244
 20
188.1642769117977
 10
195.0376490360887
 20
189.5154158003488
 10
195.3177545915741
 20
190.9501630222127
 10
195.6864073692598
 20
192.4533491329482
  0
LWPOLYLINE
  5
A6
330
70
100
AcDbEntity
  8
Standardebene
 62
     7
370
    35
100
AcDbPolyline
 90
       21
 70
     0
 43
0.0
 10
195.9460518136393
 20
182.4009463576832
 10
195.9322934803095
 20
182.4009463576832
 10
195.9181823692016
 20
182.4016519132387
 10
195.9111268136479
 20
182.4023574687942
 10
195.9044240358718
 20
182.402710246572
 10
195.8977212580956
 20
182.4037685799046
 10
195.8910184803197
 20
182.4044741354602
 10
195.865618480326
 20
182.4080019132371
 10
195.842687924776
 20
182.4129408021245
 10
195.8215212581148
 20
182.4185852465681
 10
195.8028240358973
 20
182.4252880243436
 10
195.7943573692326
 20
182.4284630243428
 10
195.785890702568
 20
182.4319908021198
 10
195.7774240359036
 20
182.4355185798968
 10
195.7696629247945
 20
182.4397519132292
 10
195.7559045914647
 20
182.4468074687832
 10
195.7432045914678
 20
182.4549213576698
 10
195.7308573692484
 20
182.4626824687792
 10
195.7206268136956
 20
182.4707963576658
 10
195.7019295914781
 20
182.4873769132174
 10
195.6864073692598
 20
182.5050158021016
  0
LWPOLYLINE
  5
A7
330
70
100
AcDbEntity
  8
Standardebene
 62
     7
370
    35
100
AcDbPolyline
 90
       28
 70
     0
 43
0.0
 10
202.723265700834
 20
213.5512241276736
 10
202.723265700834
 20
213.4436269054782
 10
202.723265700834
 20
213.1215407944478
 10
202.723265700834
 20
212.5891991279142
 10
202.723265700834
 20
211.8547157947644
 10
202.723265700834
 20
210.9272630172185
 10
202.723265700834
 20
209.8195407952731
 10
202.723265700834
 20
208.5470713511468
 10
202.723265700834
 20
207.126082462613
 10
202.723265700834
 20
205.5763296852225
 10
202.723265700834
 20
203.9186269078596
 10
202.723265700834
 20
202.1762574638507
 10
202.723265700834
 20
200.371093575413
 10
202.723265700834
 20
198.5285352425403
 10
202.723265700834
 20
196.6743352430041
 10
202.723265700834
 20
194.8314241323536
 10
202.723265700834
 20
193.0266130216937
 10
202.723265700834
 20
191.2842435776848
 10
202.723265700834
 20
189.6261880225435
 10
202.723265700834
 20
188.0764352451531
 10
202.723265700834
 20
186.6561519121749
 10
202.723265700834
 20
185.3829769124931
 10
202.723265700834
 20
184.275254690548
 10
202.723265700834
 20
183.3478019130024
 10
202.723265700834
 20
182.6133185798526
 10
202.723265700834
 20
182.0816824688746
 10
202.723265700834
 20
181.7595963578438
 10
202.723265700834
 20
181.6512935800928
  0
LINE
  5
A8
330
70
100
AcDbEntity
  8
Standardebene
 62
     7
370
    35
100
AcDbLine
 10
195.9460518136393
 20
202.4330796860084
 30
0.0
 11
198.1001129242118
 21
202.4330796860084
 31
0.0
  0
LWPOLYLINE
  5
A9
330
70
100
AcDbEntity
  8
Standardebene
 62
     7
370
    35
100
AcDbPolyline
 90
       21
 70
     0
 43
0.0
 10
198.3594045908135
 20
202.749874130374
 10
198.344235146373
 20
202.6987213526088
 10
198.3255379241555
 20
202.6482741303992
 10
198.3153073686023
 20
202.623579685961
 10
198.3029601463832
 20
202.5995907970778
 10
198.2906129241641
 20
202.5759546859729
 10
198.275796257501
 20
202.5530241304229
 10
198.2602740352828
 20
202.5307991304284
 10
198.2433407019537
 20
202.5092796859895
 10
198.2341684797339
 20
202.4990491304363
 10
198.2239379241807
 20
202.4891713526615
 10
198.2137073686279
 20
202.4803519082188
 10
198.2034768130747
 20
202.4718852415544
 10
198.1918351464111
 20
202.4634185748901
 10
198.180546257525
 20
202.4563630193362
 10
198.1678462575282
 20
202.44966024156
 10
198.1551462575313
 20
202.4443685748948
 10
198.1417407019793
 20
202.4397824637846
 10
198.1279823686492
 20
202.4362546860076
 10
198.1142240353193
 20
202.4341380193417
 10
198.1001129242118
 20
202.4330796860084
  0
LWPOLYLINE
  5
AA
330
70
100
AcDbEntity
  8
Standardebene
 62
     7
370
    35
100
AcDbPolyline
 90
       10
 70
     0
 43
0.0
 10
198.3594045908135
 20
212.6975019056648
 10
198.7284101462769
 20
212.0984852391478
 10
199.0085157017624
 20
211.349538017113
 10
199.1972518128263
 20
210.4598324617799
 10
199.2914434794696
 20
209.4374824620354
 10
199.2914434794696
 20
208.2930713512105
 10
199.1972518128263
 20
207.0389463515239
 10
199.0085157017624
 20
205.6874546851949
 10
198.7284101462769
 20
204.2527074633317
 10
198.3594045908135
 20
202.749874130374
  0
LWPOLYLINE
  5
AB
330
70
100
AcDbEntity
  8
Standardebene
 62
     7
370
    35
100
AcDbPolyline
 90
       21
 70
     0
 43
0.0
 10
198.1001129242118
 20
212.8015713500833
 10
198.1142240353193
 20
212.8015713500833
 10
198.1279823686492
 20
212.8008657945278
 10
198.1346851464254
 20
212.8008657945278
 10
198.1417407019793
 20
212.7998074611948
 10
198.1484434797551
 20
212.7991019056393
 10
198.1551462575313
 20
212.7987491278615
 10
198.1798407019695
 20
212.7945157945293
 10
198.2034768130747
 20
212.7895769056416
 10
198.2239379241807
 20
212.7839324611987
 10
198.2433407019537
 20
212.7775824612003
 10
198.2518073686184
 20
212.7740546834234
 10
198.2602740352828
 20
212.7705269056463
 10
198.2687407019474
 20
212.7669991278697
 10
198.275796257501
 20
212.7634713500927
 10
198.2906129241641
 20
212.7557102389836
 10
198.3029601463832
 20
212.7483019056519
 10
198.3146018130471
 20
212.7398352389875
 10
198.3255379241555
 20
212.7317213501006
 10
198.344235146373
 20
212.7147880167716
 10
198.3594045908135
 20
212.6975019056648
  0
LINE
  5
AC
330
70
100
AcDbEntity
  8
Standardebene
 62
     7
370
    35
100
AcDbLine
 10
198.1001129242118
 20
212.8015713500833
 30
0.0
 11
195.9460518136393
 21
212.8015713500833
 31
0.0
  0
LWPOLYLINE
  5
AD
330
70
100
AcDbEntity
  8
Standardebene
 62
     7
370
    35
100
AcDbPolyline
 90
       21
 70
     0
 43
0.0
 10
195.6864073692598
 20
212.6975019056648
 10
195.7019295914781
 20
212.7147880167716
 10
195.7206268136956
 20
212.7317213501006
 10
195.7308573692484
 20
212.7398352389875
 10
195.7424990359123
 20
212.7483019056519
 10
195.7559045914647
 20
212.7557102389836
 10
195.7696629247945
 20
212.7634713500927
 10
195.785890702568
 20
212.7705269056463
 10
195.8028240358973
 20
212.7775824612003
 10
195.8119962581172
 20
212.7807574611995
 10
195.8215212581148
 20
212.7839324611987
 10
195.8317518136676
 20
212.7871074611979
 10
195.842687924776
 20
212.7895769056416
 10
195.8536240358844
 20
212.7923991278631
 10
195.865618480326
 20
212.7945157945293
 10
195.8783184803229
 20
212.7969852389734
 10
195.8910184803197
 20
212.7987491278615
 10
195.9044240358718
 20
212.7998074611948
 10
195.9181823692016
 20
212.8008657945278
 10
195.9322934803095
 20
212.8015713500833
 10
195.9460518136393
 20
212.8015713500833
  0
LWPOLYLINE
  5
AE
330
70
100
AcDbEntity
  8
Standardebene
 62
     7
370
    35
100
AcDbPolyline
 90
       10
 70
     0
 43
0.0
 10
195.6864073692598
 20
202.749874130374
 10
195.3177545915741
 20
204.2527074633317
 10
195.0376490360887
 20
205.6874546851949
 10
194.8489129250244
 20
207.0389463515239
 10
194.7543684806036
 20
208.2930713512105
 10
194.7543684806036
 20
209.4374824620354
 10
194.8489129250244
 20
210.4598324617799
 10
195.0376490360887
 20
211.349538017113
 10
195.3177545915741
 20
212.0984852391478
 10
195.6864073692598
 20
212.6975019056648
  0
LWPOLYLINE
  5
AF
330
70
100
AcDbEntity
  8
Standardebene
 62
     7
370
    35
100
AcDbPolyline
 90
       21
 70
     0
 43
0.0
 10
195.9460518136393
 20
202.4330796860084
 10
195.9322934803095
 20
202.4341380193417
 10
195.9181823692016
 20
202.4362546860076
 10
195.9111268136479
 20
202.4376657971187
 10
195.9044240358718
 20
202.4394296860068
 10
195.8977212580956
 20
202.4415463526734
 10
195.8910184803197
 20
202.4436630193393
 10
195.865618480326
 20
202.4563630193362
 10
195.842687924776
 20
202.4718852415544
 10
195.8215212581148
 20
202.4895241304387
 10
195.8028240358973
 20
202.5092796859895
 10
195.7943573692326
 20
202.5195102415426
 10
195.785890702568
 20
202.5307991304284
 10
195.7774240359036
 20
202.5413824637593
 10
195.7696629247945
 20
202.5530241304229
 10
195.7559045914647
 20
202.5756019081951
 10
195.7432045914678
 20
202.5992380193006
 10
195.7308573692484
 20
202.623579685961
 10
195.7206268136956
 20
202.6482741303992
 10
195.7019295914781
 20
202.6980157970533
 10
195.6864073692598
 20
202.749874130374
  0
LWPOLYLINE
  5
B0
330
70
100
AcDbEntity
  8
Standardebene
 62
     7
370
    35
100
AcDbPolyline
 90
      139
 70
     0
 43
0.0
 10
192.0231629257311
 20
197.6014352427719
 10
192.032335147951
 20
197.4045852428214
 10
192.0612629257213
 20
197.2109102428695
 10
192.0831351479384
 20
197.1160130206709
 10
192.1088879257095
 20
197.0207630206952
 10
192.1240573701504
 20
196.9738435762626
 10
192.1402851479239
 20
196.927276909607
 10
192.1572184812529
 20
196.8807102429521
 10
192.1759157034707
 20
196.8348491318528
 10
192.2595240367832
 20
196.6581074652302
 10
192.3597129256469
 20
196.4905380208276
 10
192.3875823700843
 20
196.4499685763933
 10
192.4165101478549
 20
196.4104574652918
 10
192.4461434811808
 20
196.3712991319686
 10
192.47683514784
 20
196.3324935764225
 10
192.5413934811571
 20
196.2577046875525
 10
192.6091268144736
 20
196.1867963542366
 10
192.7534129255485
 20
196.055915798714
 10
192.9111045921757
 20
195.9387935765209
 10
192.9523795921655
 20
195.9119824654169
 10
192.9947129254882
 20
195.8862296876454
 10
193.0366934810331
 20
195.8611824654295
 10
193.0797323699114
 20
195.8375463543239
 10
193.1672212587783
 20
195.7934491321127
 10
193.2568268143114
 20
195.7539380210118
 10
193.3478434809552
 20
195.7186602432427
 10
193.4409768142653
 20
195.6879685765839
 10
193.4882490364757
 20
195.6742102432538
 10
193.5358740364639
 20
195.6618630210347
 10
193.5842045920073
 20
195.6505741321489
 10
193.632535147551
 20
195.639990798818
 10
193.8269157030578
 20
195.6114157988251
 10
194.02200181412
 20
195.6011852432719
 10
194.1200740363179
 20
195.6036546877162
 10
194.2184990362934
 20
195.6110630210473
 10
194.2431934807316
 20
195.613532465491
 10
194.2678879251697
 20
195.6167074654902
 10
194.2922295918305
 20
195.6198824654894
 10
194.3162184807134
 20
195.6234102432664
 10
194.365254591812
 20
195.6308185765981
 10
194.4135851473557
 20
195.639990798818
 10
194.6030268139751
 20
195.6876157988061
 10
194.7875295917065
 20
195.753585243234
 10
194.832685147251
 20
195.7726352432293
 10
194.8774879250173
 20
195.793096354335
 10
194.9222907027841
 20
195.8149685765517
 10
194.9656823694398
 20
195.8375463543239
 10
195.0514073694185
 20
195.8862296876454
 10
195.1343101471754
 20
195.9384407987432
 10
195.2140379249334
 20
195.9948852431735
 10
195.290590702692
 20
196.054504687603
 10
195.3286907026825
 20
196.0862546875951
 10
195.3650268137845
 20
196.1187102431427
 10
195.4010101471088
 20
196.152224132023
 10
195.4366407026554
 20
196.1864435764594
 10
195.5685795915112
 20
196.3324935764225
 10
195.6849962581487
 20
196.4887741319394
 10
195.7375601470246
 20
196.5713241319183
 10
195.785890702568
 20
196.6566963541192
 10
195.808821258118
 20
196.7004407985526
 10
195.8306934803347
 20
196.7448907985416
 10
195.8511545914407
 20
196.7900463540861
 10
195.8705573692137
 20
196.8355546874077
 10
195.9365268136416
 20
197.0193519095842
 10
195.9841518136298
 20
197.2091463539813
 10
195.9933240358497
 20
197.2571241317473
 10
196.0010851469588
 20
197.3058074650681
 10
196.0046129247358
 20
197.330854687284
 10
196.007787924735
 20
197.3551963539444
 10
196.0106101469565
 20
197.3798907983832
 10
196.0130795914001
 20
197.4042324650436
 10
196.0208407025093
 20
197.5026574650192
 10
196.0233101469533
 20
197.600729687217
 10
196.0137851469557
 20
197.7961685760564
 10
195.984857369185
 20
197.9905491315638
 10
195.9742740358544
 20
198.0385269093297
 10
195.9629851469683
 20
198.0865046870951
 10
195.950990702527
 20
198.1348352426387
 10
195.9368795914194
 20
198.1814019092936
 10
195.9061879247602
 20
198.274535242604
 10
195.8712629247689
 20
198.3659046870257
 10
195.8317518136676
 20
198.4555102425584
 10
195.7876545914565
 20
198.5426463536476
 10
195.7636657025738
 20
198.5860380203039
 10
195.7393240359131
 20
198.628724131404
 10
195.7128657025864
 20
198.6707046869493
 10
195.6864073692598
 20
198.711979686939
 10
195.5696379248445
 20
198.8696713535663
 10
195.4387573693216
 20
199.0139574646413
 10
195.367849036006
 20
199.0816907979573
 10
195.2930601471356
 20
199.1462491312748
 10
195.2736573693629
 20
199.1617713534931
 10
195.2542545915899
 20
199.1769407979337
 10
195.2352045915946
 20
199.1921102423742
 10
195.2150962582664
 20
199.2072796868147
 10
195.1752323693874
 20
199.2358546868076
 10
195.1353684805087
 20
199.2633713534679
 10
194.9674462583282
 20
199.3642657978871
 10
194.7910573694835
 20
199.4478741311993
 10
194.7451962583837
 20
199.4665713534168
 10
194.6986295917289
 20
199.4835046867461
 10
194.6520629250737
 20
199.5000852422977
 10
194.605143480641
 20
199.5145491311827
 10
194.5102462584424
 20
199.5413602422868
 10
194.4146434806887
 20
199.5628796867264
 10
194.2213212585149
 20
199.5918074644964
 10
194.0244712585641
 20
199.6016852422718
 10
193.8283268141685
 20
199.5921602422742
 10
193.6342990364394
 20
199.5632324645035
 10
193.5386962586854
 20
199.5417130200646
 10
193.4445045920423
 20
199.5159602422931
 10
193.3968795920541
 20
199.5007907978526
 10
193.3503129253992
 20
199.4852685756343
 10
193.3044518142996
 20
199.4679824645278
 10
193.2585907031999
 20
199.4496380200881
 10
193.0814962587999
 20
199.3660296867753
 10
192.9135740366194
 20
199.2658407979116
 10
192.8730045921852
 20
199.2376185756965
 10
192.8331407033062
 20
199.2090435757035
 10
192.7939823699827
 20
199.1794102423773
 10
192.7551768144369
 20
199.1483657979408
 10
192.6810934811221
 20
199.0845130201788
 10
192.6098323700287
 20
199.0167796868627
 10
192.4785990367281
 20
198.8724935757878
 10
192.3614768145354
 20
198.7151546869382
 10
192.3343129256532
 20
198.673174131393
 10
192.3089129256595
 20
198.6315463536254
 10
192.2835129256658
 20
198.5892130203031
 10
192.2598768145606
 20
198.5458213536468
 10
192.2157795923494
 20
198.4586852425577
 10
192.1766212590259
 20
198.369432464802
 10
192.1409907034794
 20
198.2780630203804
 10
192.1102990368202
 20
198.1849296870706
 10
192.0961879257126
 20
198.1380102426379
 10
192.0834879257158
 20
198.090032464872
 10
192.0721990368297
 20
198.0420546871061
 10
192.0619684812769
 20
197.9940769093408
 10
192.0330407035062
 20
197.7989907982785
 10
192.0231629257311
 20
197.6014352427719
  0
LINE
  5
B1
330
70
100
AcDbEntity
  8
Standardebene
 62
     7
370
    35
100
AcDbLine
 10
202.723265700834
 20
181.6512935800928
 30
0.0
 11
203.0227740340921
 21
181.9515074689068
 31
0.0
  0
LINE
  5
B2
330
70
100
AcDbEntity
  8
Standardebene
 62
     7
370
    35
100
AcDbLine
 10
203.0227740340921
 20
213.2517157944151
 30
0.0
 11
202.723265700834
 21
213.5512241276736
 31
0.0
  0
LWPOLYLINE
  5
B3
330
70
100
AcDbEntity
  8
Standardebene
 62
     7
370
    35
100
AcDbPolyline
 90
       28
 70
     0
 43
0.0
 10
203.0227740340921
 20
213.2517157944151
 10
203.0227740340921
 20
213.1455296833304
 10
203.0227740340921
 20
212.8297935722984
 10
203.0227740340921
 20
212.3073296835399
 10
203.0227740340921
 20
211.5866046837202
 10
203.0227740340921
 20
210.6771435728366
 10
203.0227740340921
 20
209.590235239775
 10
203.0227740340921
 20
208.3414019067539
 10
203.0227740340921
 20
206.9472241293246
 10
203.0227740340921
 20
205.4263991297047
 10
203.0227740340921
 20
203.8000935745555
 10
203.0227740340921
 20
202.0901796860942
 10
203.0227740340921
 20
200.3192352420923
 10
203.0227740340921
 20
198.5116019092109
 10
203.0227740340921
 20
196.6916213541105
 10
203.0227740340921
 20
194.8839880212292
 10
203.0227740340921
 20
193.1130435772273
 10
203.0227740340921
 20
191.403129688766
 10
203.0227740340921
 20
189.7764713558397
 10
203.0227740340921
 20
188.2556463562194
 10
203.0227740340921
 20
186.8614685787903
 10
203.0227740340921
 20
185.6129880235467
 10
203.0227740340921
 20
184.526079690485
 10
203.0227740340921
 20
183.6159130240459
 10
203.0227740340921
 20
182.8951880242262
 10
203.0227740340921
 20
182.3734296910236
 10
203.0227740340921
 20
182.0569880244357
 10
203.0227740340921
 20
181.9515074689068
  0
LINE
  5
B4
330
70
100
AcDbEntity
  8
Standardebene
 62
     7
370
    35
100
AcDbLine
 10
190.0232657040089
 20
213.5512241276736
 30
0.0
 11
189.9650573706898
 21
213.4933685721326
 31
0.0
  0
LINE
  5
B5
330
70
100
AcDbEntity
  8
Standardebene
 62
     7
370
    35
100
AcDbLine
 10
189.9650573706898
 20
181.7091491356341
 30
0.0
 11
190.0232657040089
 21
181.6512935800928
 31
0.0
  0
SPLINE
  5
B6
330
70
100
AcDbEntity
  8
Standardebene
 62
     7
370
    35
100
AcDbSpline
210
0.0
220
0.0
230
1.0
 70
     8
 71
     3
 72
     8
 73
     4
 74
     0
 42
0.0000000001
 43
0.0000000001
 40
0.0
 40
0.0
 40
0.0
 40
0.0
 40
1.0
 40
1.0
 40
1.0
 40
1.0
 10
189.6824823707607
 20
213.3762463499396
 30
0.0
 10
189.7929018151776
 20
213.3762463499396
 30
0.0
 10
189.8927379262635
 20
213.4214019054837
 30
0.0
 10
189.9650573706898
 20
213.4933685721326
 30
0.0
  0
SPLINE
  5
B7
330
70
100
AcDbEntity
  8
Standardebene
 62
     7
370
    35
100
AcDbSpline
210
0.0
220
0.0
230
1.0
 70
     8
 71
     3
 72
     8
 73
     4
 74
     0
 42
0.0000000001
 43
0.0000000001
 40
0.0
 40
0.0
 40
0.0
 40
0.0
 40
1.0
 40
1.0
 40
1.0
 40
1.0
 10
189.9650573706898
 20
181.7091491356341
 30
0.0
 10
189.8870934818206
 20
181.7871130245034
 30
0.0
 10
189.7844351485129
 20
181.8262713578272
 30
0.0
 10
189.6824823707607
 20
181.8262713578272
 30
0.0
  0
LINE
  5
B8
330
70
100
AcDbEntity
  8
Standardebene
 62
     7
370
    35
100
AcDbLine
 10
189.6824823707607
 20
213.3762463499396
 30
0.0
 11
188.4230657044089
 21
213.3762463499396
 31
0.0
  0
LINE
  5
B9
330
70
100
AcDbEntity
  8
Standardebene
 62
     7
370
    35
100
AcDbLine
 10
188.4230657044089
 20
181.8262713578272
 30
0.0
 11
189.6824823707607
 21
181.8262713578272
 31
0.0
  0
SPLINE
  5
BA
330
70
100
AcDbEntity
  8
Standardebene
 62
     7
370
    35
100
AcDbSpline
210
0.0
220
0.0
230
1.0
 70
     8
 71
     3
 72
     8
 73
     4
 74
     0
 42
0.0000000001
 43
0.0000000001
 40
0.0
 40
0.0
 40
0.0
 40
0.0
 40
1.0
 40
1.0
 40
1.0
 40
1.0
 10
177.6481740404358
 20
209.851643573043
 30
0.0
 10
177.7906962626226
 20
209.851643573043
 30
0.0
 10
177.9212240403677
 20
209.9010324619193
 30
0.0
 10
178.0231768181199
 20
209.983229684121
 30
0.0
  0
SPLINE
  5
BB
330
70
100
AcDbEntity
  8
Standardebene
 62
     7
370
    35
100
AcDbSpline
210
0.0
220
0.0
230
1.0
 70
     8
 71
     3
 72
     8
 73
     4
 74
     0
 42
0.0000000001
 43
0.0000000001
 40
0.0
 40
0.0
 40
0.0
 40
0.0
 40
1.0
 40
1.0
 40
1.0
 40
1.0
 10
178.0231768181199
 20
185.2199935792006
 30
0.0
 10
177.9120518181478
 20
185.3085408014008
 30
0.0
 10
177.7787018181809
 20
185.3519324680565
 30
0.0
 10
177.6481740404358
 20
185.3515796902787
 30
0.0
  0
LWPOLYLINE
  5
BC
330
70
100
AcDbEntity
  8
Standardebene
 62
     7
370
    35
100
AcDbPolyline
 90
       37
 70
     0
 43
0.0
 10
203.2178601451545
 20
208.4221880178449
 10
203.2069240340461
 20
208.4250102400663
 10
203.1949295896048
 20
208.42747968451
 10
203.1889323673841
 20
208.4295963511763
 10
203.1822295896079
 20
208.4317130178425
 10
203.1748212562765
 20
208.4338296845084
 10
203.1670601451674
 20
208.4370046845076
 10
203.1585934785027
 20
208.4401796845069
 10
203.1494212562829
 20
208.4437074622838
 10
203.1448351451729
 20
208.4465296845053
 10
203.1398962562852
 20
208.448999128949
 10
203.1338990340645
 20
208.4518213511707
 10
203.1289601451768
 20
208.4542907956144
 10
203.1229629229562
 20
208.4574657956137
 10
203.1176712562907
 20
208.4606407956128
 10
203.1120268118478
 20
208.4641685733898
 10
203.1074407007379
 20
208.4676963511665
 10
203.0982684785177
 20
208.4740463511649
 10
203.0905073674086
 20
208.4793380178304
 10
203.0838045896327
 20
208.4846296844958
 10
203.078865700745
 20
208.4895685733835
 10
203.0735740340795
 20
208.4945074622712
 10
203.0693407007473
 20
208.4980352400482
 10
203.0619323674156
 20
208.5061491289347
 10
203.055935145195
 20
208.5128519067109
 10
203.0509962563073
 20
208.5184963511538
 10
203.0467629229751
 20
208.5241407955971
 10
203.0432351451981
 20
208.52978524004
 10
203.0397073674215
 20
208.5340185733722
 10
203.0347684785338
 20
208.5431907955924
 10
203.0305351452013
 20
208.5505991289238
 10
203.0280657007576
 20
208.5573019066999
 10
203.0255962563139
 20
208.5625935733651
 10
203.0245379229806
 20
208.5678852400305
 10
203.0234795896477
 20
208.5724713511404
 10
203.0227740340921
 20
208.5759991289174
 10
203.0227740340921
 20
208.5795269066944
  0
LWPOLYLINE
  5
BD
330
70
100
AcDbEntity
  8
Standardebene
 62
     7
370
    35
100
AcDbPolyline
 90
       53
 70
     0
 43
0.0
 10
204.3178212559907
 20
208.4285380178433
 10
204.2888934782201
 20
208.43206579562
 10
204.2574962560057
 20
208.4331241289529
 10
204.2236295893476
 20
208.4324185733977
 10
204.1869407004678
 20
208.4303019067315
 10
204.1463712560336
 20
208.4264213511771
 10
204.1022740338224
 20
208.420424128956
 10
204.0779323671617
 20
208.4172491289569
 10
204.0521795893905
 20
208.4133685734024
 10
204.0253684782861
 20
208.4098407956258
 10
203.9964407005155
 20
208.4049019067378
 10
203.9650434783011
 20
208.4003157956281
 10
203.9311768116427
 20
208.3960824622956
 10
203.9131851449808
 20
208.3932602400742
 10
203.8937823672077
 20
208.3907907956305
 10
203.8733212561017
 20
208.3879685734088
 10
203.8521545894405
 20
208.3858519067425
 10
203.8299295894461
 20
208.383029684521
 10
203.8055879227854
 20
208.3809130178551
 10
203.7794823672364
 20
208.3787963511888
 10
203.7519657005765
 20
208.3770324623004
 10
203.736796256136
 20
208.3759741289675
 10
203.7216268116954
 20
208.3749157956345
 10
203.7053990339216
 20
208.374210240079
 10
203.6884657005926
 20
208.3738574623012
 10
203.6715323672633
 20
208.3731519067456
 10
203.653893478379
 20
208.3727991289682
 10
203.6351962561612
 20
208.3727991289682
 10
203.6164990339437
 20
208.3731519067456
 10
203.6069740339461
 20
208.3731519067456
 10
203.5978018117262
 20
208.3738574623012
 10
203.5882768117286
 20
208.3738574623012
 10
203.5783990339532
 20
208.374210240079
 10
203.5597018117357
 20
208.3749157956345
 10
203.5417101450737
 20
208.3759741289675
 10
203.5325379228538
 20
208.3763269067449
 10
203.5233657006336
 20
208.3773852400781
 10
203.5145462561915
 20
208.3777380178559
 10
203.5060795895268
 20
208.3780907956337
 10
203.4898518117533
 20
208.3795019067441
 10
203.4739768117573
 20
208.3812657956329
 10
203.4588073673164
 20
208.3826769067433
 10
203.4436379228759
 20
208.3844407956321
 10
203.4298795895461
 20
208.3862046845203
 10
203.4164740339937
 20
208.3879685734088
 10
203.3907212562226
 20
208.3914963511857
 10
203.3670851451174
 20
208.3950241289627
 10
203.3448601451229
 20
208.3985519067394
 10
203.3240462562392
 20
208.4024324622941
 10
203.3035851451332
 20
208.405960240071
 10
203.2848879229156
 20
208.409488017848
 10
203.2499629229243
 20
208.4161907956242
 10
203.2178601451545
 20
208.4221880178449
  0
LWPOLYLINE
  5
BE
330
70
100
AcDbEntity
  8
Standardebene
 62
     7
370
    35
100
AcDbPolyline
 90
        3
 70
     0
 43
0.0
 10
204.329815700432
 20
208.4267741289545
 10
204.3238184782114
 20
208.42747968451
 10
204.3178212559907
 20
208.4285380178433
  0
LWPOLYLINE
  5
BF
330
70
100
AcDbEntity
  8
Standardebene
 62
     7
370
    35
100
AcDbPolyline
 90
        3
 70
     0
 43
0.0
 10
204.3178212559907
 20
205.0573935742413
 10
204.3238184782114
 20
205.0838519075683
 10
204.329815700432
 20
205.1110157964501
  0
LWPOLYLINE
  5
C0
330
70
100
AcDbEntity
  8
Standardebene
 62
     7
370
    35
100
AcDbPolyline
 90
       53
 70
     0
 43
0.0
 10
203.2178601451545
 20
204.039276907829
 10
203.2499629229243
 20
203.9778935745114
 10
203.2848879229156
 20
203.9172157967486
 10
203.3035851451332
 20
203.887582463423
 10
203.3229879229062
 20
203.8579491300968
 10
203.3441545895674
 20
203.829374130104
 10
203.3660268117841
 20
203.8018574634443
 10
203.3893101451119
 20
203.7750463523396
 10
203.41400458955
 20
203.7503519079014
 10
203.4274101451021
 20
203.7376519079046
 10
203.4415212562096
 20
203.726010241241
 10
203.455985145095
 20
203.7150741301323
 10
203.470801811758
 20
203.7048435745798
 10
203.4866768117541
 20
203.6949657968044
 10
203.5036101450832
 20
203.6864991301394
 10
203.5120768117478
 20
203.6826185745853
 10
203.5205434784122
 20
203.6783852412528
 10
203.5290101450768
 20
203.6755630190314
 10
203.5385351450745
 20
203.6723880190322
 10
203.556174033959
 20
203.6678019079219
 10
203.5748712561765
 20
203.664274130145
 10
203.5840434783964
 20
203.6632157968123
 10
203.593568478394
 20
203.6625102412568
 10
203.6030934783917
 20
203.6625102412568
 10
203.6129712561671
 20
203.6628630190346
 10
203.6316684783846
 20
203.6649796857005
 10
203.6496601450465
 20
203.6688602412552
 10
203.6680045894866
 20
203.6741519079204
 10
203.6852907005934
 20
203.6808546856966
 10
203.7022240339224
 20
203.6882630190282
 10
203.7180990339185
 20
203.6970824634704
 10
203.7336212561367
 20
203.7069602412457
 10
203.7487907005773
 20
203.7171907967989
 10
203.776660145015
 20
203.740474130126
 10
203.8027657005639
 20
203.7644630190093
 10
203.8267545894469
 20
203.7909213523357
 10
203.8496851449965
 20
203.8180852412181
 10
203.8708518116581
 20
203.8459546856555
 10
203.8913129227641
 20
203.8745296856484
 10
203.9100101449816
 20
203.9034574634191
 10
203.9283545894213
 20
203.9327380189669
 10
203.9622212560797
 20
203.9927102411741
 10
203.993618478294
 20
204.0526824633814
 10
204.0225462560644
 20
204.1144185744774
 10
204.0497101449465
 20
204.1765074633506
 10
204.0761684782732
 20
204.2393019077794
 10
204.1005101449339
 20
204.3020963522081
 10
204.1449601449229
 20
204.4276852410654
 10
204.1862351449126
 20
204.5543324632562
 10
204.2229240337921
 20
204.6802741298913
 10
204.2574962560057
 20
204.8062157965265
 10
204.2888934782201
 20
204.9325102409394
 10
204.3178212559907
 20
205.0573935742413
  0
LWPOLYLINE
  5
C1
330
70
100
AcDbEntity
  8
Standardebene
 62
     7
370
    35
100
AcDbPolyline
 90
       39
 70
     0
 43
0.0
 10
203.0227740340921
 20
203.6910852412497
 10
203.0234795896477
 20
203.7746935745619
 10
203.0255962563139
 20
203.8575963523191
 10
203.0280657007576
 20
203.8981657967533
 10
203.0305351452013
 20
203.9380296856327
 10
203.0347684785338
 20
203.9778935745114
 10
203.0397073674215
 20
204.0166991300574
 10
203.0432351451981
 20
204.0357491300527
 10
203.0467629229751
 20
204.0540935744924
 10
203.0509962563073
 20
204.0724380189322
 10
203.055935145195
 20
204.0900769078164
 10
203.0619323674156
 20
204.1073630189235
 10
203.0693407007473
 20
204.1239435744751
 10
203.0735740340795
 20
204.1309991300284
 10
203.078865700745
 20
204.1387602411378
 10
203.0845101451879
 20
204.145463018914
 10
203.0905073674086
 20
204.1511074633569
 10
203.0940351451855
 20
204.1532241300229
 10
203.0982684785177
 20
204.1556935744666
 10
203.1025018118502
 20
204.1567519077998
 10
203.1074407007379
 20
204.1578102411331
 10
203.1120268118478
 20
204.1581630189109
 10
203.1176712562907
 20
204.1578102411331
 10
203.1229629229562
 20
204.1563991300221
 10
203.1286073673991
 20
204.1546352411339
 10
203.1338990340645
 20
204.1514602411347
 10
203.1391907007296
 20
204.1482852411355
 10
203.1448351451729
 20
204.1444046855807
 10
203.1494212562829
 20
204.140524130026
 10
203.1543601451705
 20
204.1359380189164
 10
203.1585934785027
 20
204.1313519078062
 10
203.1628268118349
 20
204.1271185744743
 10
203.1670601451674
 20
204.1221796855863
 10
203.1744684784988
 20
204.1119491300331
 10
203.1822295896079
 20
204.1020713522577
 10
203.1889323673841
 20
204.0918407967052
 10
203.1949295896048
 20
204.0816102411521
 10
203.2069240340461
 20
204.0607963522686
 10
203.2178601451545
 20
204.039276907829
  0
LWPOLYLINE
  5
C2
330
70
100
AcDbEntity
  8
Standardebene
 62
     7
370
    35
100
AcDbPolyline
 90
       37
 70
     0
 43
0.0
 10
203.2178601451545
 20
191.163240799937
 10
203.2069240340461
 20
191.1424269110535
 10
203.1949295896048
 20
191.1216130221701
 10
203.1889323673841
 20
191.1113824666169
 10
203.1822295896079
 20
191.1011519110638
 10
203.1748212562765
 20
191.0912741332884
 10
203.1670601451674
 20
191.081396355513
 10
203.1585934785027
 20
191.0711657999605
 10
203.1494212562829
 20
191.0626991332955
 10
203.1448351451729
 20
191.0581130221859
 10
203.1398962562852
 20
191.0542324666311
 10
203.1338990340645
 20
191.0510574666319
 10
203.1289601451768
 20
191.0485880221882
 10
203.1229629229562
 20
191.0461185777439
 10
203.1176712562907
 20
191.0447074666335
 10
203.1120268118478
 20
191.0443546888558
 10
203.1074407007379
 20
191.0447074666335
 10
203.0982684785177
 20
191.047529688855
 10
203.0905073674086
 20
191.0521157999652
 10
203.0838045896327
 20
191.0577602444081
 10
203.078865700745
 20
191.0644630221843
 10
203.0735740340795
 20
191.0715185777376
 10
203.0693407007473
 20
191.0796324666248
 10
203.0619323674156
 20
191.0955074666209
 10
203.055935145195
 20
191.1131463555051
 10
203.0509962563073
 20
191.13078524439
 10
203.0467629229751
 20
191.1491296888297
 10
203.0432351451981
 20
191.1678269110472
 10
203.0397073674215
 20
191.1865241332647
 10
203.0347684785338
 20
191.2256824665879
 10
203.0305351452013
 20
191.264488022134
 10
203.0280657007576
 20
191.3050574665682
 10
203.0255962563139
 20
191.3456269110024
 10
203.0245379229806
 20
191.3865491332144
 10
203.0234795896477
 20
191.4278241332042
 10
203.0227740340921
 20
191.4698046887494
 10
203.0227740340921
 20
191.5121380220725
  0
LWPOLYLINE
  5
C3
330
70
100
AcDbEntity
  8
Standardebene
 62
     7
370
    35
100
AcDbPolyline
 90
       53
 70
     0
 43
0.0
 10
204.3178212559907
 20
190.1454769113025
 10
204.2888934782201
 20
190.270360244605
 10
204.2574962560057
 20
190.3955963556846
 10
204.2236295893476
 20
190.5204796889865
 10
204.1869407004678
 20
190.6460685778439
 10
204.1463712560336
 20
190.7713046889242
 10
204.1022740338224
 20
190.8965408000038
 10
204.0779323671617
 20
190.958629688877
 10
204.0521795893905
 20
191.0203657999731
 10
204.0253684782861
 20
191.0824546888463
 10
203.9964407005155
 20
191.1438380221639
 10
203.9650434783011
 20
191.2048685777045
 10
203.9311768116427
 20
191.2648407999117
 10
203.9131851449808
 20
191.2948269110157
 10
203.8937823672077
 20
191.3241074665634
 10
203.8733212561017
 20
191.3530352443341
 10
203.8521545894405
 20
191.3812574665493
 10
203.8299295894461
 20
191.4087741332089
 10
203.8055879227854
 20
191.4352324665359
 10
203.7794823672364
 20
191.4595741331963
 10
203.7519657005765
 20
191.4832102443018
 10
203.736796256136
 20
191.4934407998543
 10
203.7216268116954
 20
191.5036713554075
 10
203.7053990339216
 20
191.5124907998496
 10
203.6884657005926
 20
191.5206046887368
 10
203.6715323672633
 20
191.527307466513
 10
203.653893478379
 20
191.5329519109559
 10
203.6351962561612
 20
191.5371852442884
 10
203.6164990339437
 20
191.5393019109543
 10
203.6069740339461
 20
191.5403602442876
 10
203.5978018117262
 20
191.5403602442876
 10
203.5882768117286
 20
191.5396546887321
 10
203.5783990339532
 20
191.5393019109543
 10
203.5597018117357
 20
191.5357741331773
 10
203.5417101450737
 20
191.5311880220671
 10
203.5325379228538
 20
191.5287185776234
 10
203.5233657006336
 20
191.5255435776242
 10
203.5145462561915
 20
191.5220157998472
 10
203.5060795895268
 20
191.5177824665154
 10
203.4898518117533
 20
191.5093157998503
 10
203.4739768117573
 20
191.5001435776305
 10
203.4588073673164
 20
191.489913022078
 10
203.4436379228759
 20
191.4782713554138
 10
203.4298795895461
 20
191.4666296887502
 10
203.4164740339937
 20
191.4546352443089
 10
203.3907212562226
 20
191.4292352443152
 10
203.3670851451174
 20
191.4024241332104
 10
203.3448601451229
 20
191.3745546887731
 10
203.3240462562392
 20
191.3459796887802
 10
203.3035851451332
 20
191.3159935776769
 10
203.2848879229156
 20
191.2867130221284
 10
203.2499629229243
 20
191.2256824665879
 10
203.2178601451545
 20
191.163240799937
  0
LWPOLYLINE
  5
C4
330
70
100
AcDbEntity
  8
Standardebene
 62
     7
370
    35
100
AcDbPolyline
 90
        3
 70
     0
 43
0.0
 10
204.329815700432
 20
190.0922074668714
 10
204.3238184782114
 20
190.1186658001983
 10
204.3178212559907
 20
190.1454769113025
  0
LWPOLYLINE
  5
C5
330
70
100
AcDbEntity
  8
Standardebene
 62
     7
370
    35
100
AcDbPolyline
 90
        3
 70
     0
 43
0.0
 10
204.3178212559907
 20
186.774685245479
 10
204.3238184782114
 20
186.7750380232561
 10
204.329815700432
 20
186.7757435788116
  0
LWPOLYLINE
  5
C6
330
70
100
AcDbEntity
  8
Standardebene
 62
     7
370
    35
100
AcDbPolyline
 90
       53
 70
     0
 43
0.0
 10
203.2178601451545
 20
186.7803296899219
 10
203.2499629229243
 20
186.7870324676981
 10
203.2848879229156
 20
186.7937352454743
 10
203.3035851451332
 20
186.7972630232506
 10
203.3229879229062
 20
186.8004380232498
 10
203.3441545895674
 20
186.8039658010268
 10
203.3660268117841
 20
186.8074935788038
 10
203.3893101451119
 20
186.8110213565807
 10
203.41400458955
 20
186.8145491343577
 10
203.4274101451021
 20
186.8159602454681
 10
203.4415212562096
 20
186.8177241343569
 10
203.455985145095
 20
186.8194880232451
 10
203.470801811758
 20
186.8208991343561
 10
203.4866768117541
 20
186.8226630232443
 10
203.5036101450832
 20
186.8244269121331
 10
203.5120768117478
 20
186.8247796899109
 10
203.5205434784122
 20
186.8258380232435
 10
203.5290101450768
 20
186.8258380232435
 10
203.5385351450745
 20
186.826543578799
 10
203.556174033959
 20
186.8276019121323
 10
203.5748712561765
 20
186.8283074676878
 10
203.5840434783964
 20
186.8290130232427
 10
203.593568478394
 20
186.8293658010205
 10
203.6030934783917
 20
186.8293658010205
 10
203.6129712561671
 20
186.8293658010205
 10
203.6316684783846
 20
186.8297185787982
 10
203.6496601450465
 20
186.8297185787982
 10
203.6680045894866
 20
186.8293658010205
 10
203.6852907005934
 20
186.8293658010205
 10
203.7022240339224
 20
186.8283074676878
 10
203.7180990339185
 20
186.8279546899101
 10
203.7336212561367
 20
186.8272491343546
 10
203.7487907005773
 20
186.8261908010213
 10
203.776660145015
 20
186.8244269121331
 10
203.8027657005639
 20
186.8223102454665
 10
203.8267545894469
 20
186.8194880232451
 10
203.8496851449965
 20
186.8173713565792
 10
203.8708518116581
 20
186.8152546899132
 10
203.8913129227641
 20
186.8124324676918
 10
203.9100101449816
 20
186.8103158010252
 10
203.9283545894213
 20
186.8074935788038
 10
203.9622212560797
 20
186.8025546899164
 10
203.993618478294
 20
186.7983213565839
 10
204.0225462560644
 20
186.7937352454743
 10
204.0497101449465
 20
186.7898546899196
 10
204.0761684782732
 20
186.7856213565871
 10
204.1005101449339
 20
186.7820935788101
 10
204.1449601449229
 20
186.7768019121449
 10
204.1862351449126
 20
186.7729213565902
 10
204.2229240337921
 20
186.7700991343687
 10
204.2574962560057
 20
186.769746356591
 10
204.2888934782201
 20
186.771157467702
 10
204.3178212559907
 20
186.774685245479
  0
LWPOLYLINE
  5
C7
330
70
100
AcDbEntity
  8
Standardebene
 62
     7
370
    35
100
AcDbPolyline
 90
       38
 70
     0
 43
0.0
 10
203.0238323674254
 20
186.6328685788478
 10
203.0255962563139
 20
186.6399241344011
 10
203.0280657007576
 20
186.6459213566218
 10
203.0305351452013
 20
186.6526241343979
 10
203.0347684785338
 20
186.6596796899519
 10
203.0397073674215
 20
186.668499134394
 10
203.0432351451981
 20
186.673438023282
 10
203.0467629229751
 20
186.6783769121694
 10
203.0509962563073
 20
186.6840213566123
 10
203.055935145195
 20
186.6903713566107
 10
203.0619323674156
 20
186.6970741343869
 10
203.0693407007473
 20
186.7044824677186
 10
203.0735740340795
 20
186.7090685788282
 10
203.078865700745
 20
186.7129491343829
 10
203.0845101451879
 20
186.717888023271
 10
203.0905073674086
 20
186.7231796899361
 10
203.0940351451855
 20
186.7260019121576
 10
203.0982684785177
 20
186.7291769121568
 10
203.1025018118502
 20
186.732351912156
 10
203.1074407007379
 20
186.7355269121552
 10
203.1120268118478
 20
186.7383491343766
 10
203.1176712562907
 20
186.7422296899314
 10
203.1229629229562
 20
186.7450519121528
 10
203.1286073673991
 20
186.748226912152
 10
203.1338990340645
 20
186.7514019121512
 10
203.1391907007296
 20
186.7542241343727
 10
203.1448351451729
 20
186.7563408010386
 10
203.1494212562829
 20
186.7584574677052
 10
203.1543601451705
 20
186.7609269121489
 10
203.1585934785027
 20
186.7630435788148
 10
203.1628268118349
 20
186.7644546899258
 10
203.1670601451674
 20
186.766218578814
 10
203.1744684784988
 20
186.7686880232577
 10
203.1822295896079
 20
186.7715102454798
 10
203.1889323673841
 20
186.773274134368
 10
203.1949295896048
 20
186.7750380232561
 10
203.2069240340461
 20
186.7782130232553
 10
203.2178601451545
 20
186.7803296899219
  0
LINE
  5
C8
330
70
100
AcDbEntity
  8
Standardebene
 62
     7
370
    35
100
AcDbLine
 10
78.52326295410612
 20
210.1014102396471
 30
0.0
 11
78.02302406534209
 21
209.6015241286611
 31
0.0
  0
LINE
  5
C9
330
70
100
AcDbEntity
  8
Standardebene
 62
     7
370
    35
100
AcDbLine
 10
78.02302406534209
 20
185.6013463568831
 30
0.0
 11
78.52326295410612
 21
185.1011074681194
 31
0.0
  0
LWPOLYLINE
  5
CA
330
70
100
AcDbEntity
  8
Standardebene
 62
     7
370
    35
100
AcDbPolyline
 90
       13
 70
     0
 43
0.0
 10
78.02302406534209
 20
197.6014352427719
 10
78.02302406534209
 20
199.1677685757138
 10
78.02302406534209
 20
200.7069380197732
 10
78.02302406534209
 20
202.1938963527349
 10
78.02302406534209
 20
203.6014796857162
 10
78.02302406534209
 20
204.9064046853902
 10
78.02302406534209
 20
206.0864463517618
 10
78.02302406534209
 20
207.1214963515034
 10
78.02302406534209
 20
207.9939157957297
 10
78.02302406534209
 20
208.6881824622225
 10
78.02302406534209
 20
209.1923019065409
 10
78.02302406534209
 20
209.4988657953534
 10
78.02302406534209
 20
209.6015241286611
  0
LWPOLYLINE
  5
CB
330
70
100
AcDbEntity
  8
Standardebene
 62
     7
370
    35
100
AcDbPolyline
 90
       13
 70
     0
 43
0.0
 10
78.02302406534209
 20
185.6013463568831
 10
78.02302406534209
 20
185.7043574679683
 10
78.02302406534209
 20
186.0102158012252
 10
78.02302406534209
 20
186.5150408010992
 10
78.02302406534209
 20
187.2093074675926
 10
78.02302406534209
 20
188.0810213562634
 10
78.02302406534209
 20
189.1160713560043
 10
78.02302406534209
 20
190.2961130223764
 10
78.02302406534209
 20
191.6017435776053
 10
78.02302406534209
 20
193.0093269105866
 10
78.02302406534209
 20
194.4955796879927
 10
78.02302406534209
 20
196.0354546876077
 10
78.02302406534209
 20
197.6014352427719
  0
LWPOLYLINE
  5
CC
330
70
100
AcDbEntity
  8
Standardebene
 62
     7
370
    35
100
AcDbPolyline
 90
       13
 70
     0
 43
0.0
 10
78.52326295410612
 20
197.6014352427719
 10
78.52326295410612
 20
195.9698380209575
 10
78.52326295410612
 20
194.3664630213584
 10
78.52326295410612
 20
192.8181213550791
 10
78.52326295410612
 20
191.351271355446
 10
78.52326295410612
 20
189.9920185780077
 10
78.52326295410612
 20
188.762940800537
 10
78.52326295410612
 20
187.6844991341403
 10
78.52326295410612
 20
186.7764491343672
 10
78.52326295410612
 20
186.052901912326
 10
78.52326295410612
 20
185.5272630235686
 10
78.52326295410612
 20
185.2083519125371
 10
78.52326295410612
 20
185.1011074681194
  0
LWPOLYLINE
  5
CD
330
70
100
AcDbEntity
  8
Standardebene
 62
     7
370
    35
100
AcDbPolyline
 90
       13
 70
     0
 43
0.0
 10
78.52326295410612
 20
210.1014102396471
 10
78.52326295410612
 20
209.9941657952297
 10
78.52326295410612
 20
209.6752546841982
 10
78.52326295410612
 20
209.1496157954408
 10
78.52326295410612
 20
208.4267741289545
 10
78.52326295410612
 20
207.5180185736265
 10
78.52326295410612
 20
206.4402824627847
 10
78.52326295410612
 20
205.2112046853138
 10
78.52326295410612
 20
203.8512463523207
 10
78.52326295410612
 20
202.3851019082431
 10
78.52326295410612
 20
200.8367602419632
 10
78.52326295410612
 20
199.2326796868084
 10
78.52326295410612
 20
197.6014352427719
  0
LINE
  5
CE
330
70
100
AcDbEntity
  8
Standardebene
 62
     7
370
    35
100
AcDbLine
 10
78.52326295410612
 20
185.1011074681194
 30
0.0
 11
175.5230407076339
 21
185.1011074681194
 31
0.0
  0
LINE
  5
CF
330
70
100
AcDbEntity
  8
Standardebene
 62
     7
370
    35
100
AcDbLine
 10
175.5230407076339
 20
210.1014102396471
 30
0.0
 11
78.52326295410612
 21
210.1014102396471
 31
0.0
  0
LWPOLYLINE
  5
D0
330
70
100
AcDbEntity
  8
Standardebene
 62
     7
370
    35
100
AcDbPolyline
 90
       13
 70
     0
 43
0.0
 10
175.5230407076339
 20
197.6014352427719
 10
175.5230407076339
 20
195.9698380209575
 10
175.5230407076339
 20
194.3664630213584
 10
175.5230407076339
 20
192.8181213550791
 10
175.5230407076339
 20
191.351271355446
 10
175.5230407076339
 20
189.9920185780077
 10
175.5230407076339
 20
188.762940800537
 10
175.5230407076339
 20
187.6844991341403
 10
175.5230407076339
 20
186.7764491343672
 10
175.5230407076339
 20
186.052901912326
 10
175.5230407076339
 20
185.5272630235686
 10
175.5230407076339
 20
185.2083519125371
 10
175.5230407076339
 20
185.1011074681194
  0
LWPOLYLINE
  5
D1
330
70
100
AcDbEntity
  8
Standardebene
 62
     7
370
    35
100
AcDbPolyline
 90
       13
 70
     0
 43
0.0
 10
175.5230407076339
 20
210.1014102396471
 10
175.5230407076339
 20
209.9941657952297
 10
175.5230407076339
 20
209.6752546841982
 10
175.5230407076339
 20
209.1496157954408
 10
175.5230407076339
 20
208.4267741289545
 10
175.5230407076339
 20
207.5180185736265
 10
175.5230407076339
 20
206.4402824627847
 10
175.5230407076339
 20
205.2112046853138
 10
175.5230407076339
 20
203.8512463523207
 10
175.5230407076339
 20
202.3851019082431
 10
175.5230407076339
 20
200.8367602419632
 10
175.5230407076339
 20
199.2326796868084
 10
175.5230407076339
 20
197.6014352427719
  0
LINE
  5
D2
330
70
100
AcDbEntity
  8
Standardebene
 62
     7
370
    35
100
AcDbLine
 10
175.5230407076339
 20
185.1011074681194
 30
0.0
 11
176.3795851518642
 21
185.331118579173
 31
0.0
  0
LINE
  5
D3
330
70
100
AcDbEntity
  8
Standardebene
 62
     7
370
    35
100
AcDbLine
 10
176.3795851518642
 20
209.8717519063712
 30
0.0
 11
175.5230407076339
 21
210.1014102396471
 31
0.0
  0
SPLINE
  5
D4
330
70
100
AcDbEntity
  8
Standardebene
 62
     7
370
    35
100
AcDbSpline
210
0.0
220
0.0
230
1.0
 70
     8
 71
     3
 72
     8
 73
     4
 74
     0
 42
0.0000000001
 43
0.0000000001
 40
0.0
 40
0.0
 40
0.0
 40
0.0
 40
1.0
 40
1.0
 40
1.0
 40
1.0
 10
176.5348073740475
 20
185.3515796902787
 30
0.0
 10
176.4797740407279
 20
185.3515796902787
 30
0.0
 10
176.4261518185191
 20
185.3438185791699
 30
0.0
 10
176.3795851518642
 20
185.331118579173
 30
0.0
  0
SPLINE
  5
D5
330
70
100
AcDbEntity
  8
Standardebene
 62
     7
370
    35
100
AcDbSpline
210
0.0
220
0.0
230
1.0
 70
     8
 71
     3
 72
     8
 73
     4
 74
     0
 42
0.0000000001
 43
0.0000000001
 40
0.0
 40
0.0
 40
0.0
 40
0.0
 40
1.0
 40
1.0
 40
1.0
 40
1.0
 10
176.3795851518642
 20
209.8717519063712
 30
0.0
 10
176.4332073740731
 20
209.8576407952636
 30
0.0
 10
176.4864768185041
 20
209.8509380174874
 30
0.0
 10
176.5348073740475
 20
209.851643573043
 30
0.0
  0
LINE
  5
D6
330
70
100
AcDbEntity
  8
Standardebene
 62
     7
370
    35
100
AcDbLine
 10
177.6481740404358
 20
209.851643573043
 30
0.0
 11
176.5348073740475
 21
209.851643573043
 31
0.0
  0
LINE
  5
D7
330
70
100
AcDbEntity
  8
Standardebene
 62
     7
370
    35
100
AcDbLine
 10
176.5348073740475
 20
185.3515796902787
 30
0.0
 11
177.6481740404358
 21
185.3515796902787
 31
0.0
  0
LWPOLYLINE
  5
D8
330
70
100
AcDbEntity
  8
Standardebene
 62
     7
370
    35
100
AcDbPolyline
 90
       45
 70
     0
 43
0.0
 10
204.5231379226062
 20
205.2196713519788
 10
204.5220795892729
 20
205.2609463519686
 10
204.5213740337177
 20
205.301163018625
 10
204.5189045892736
 20
205.3403213519482
 10
204.515376811497
 20
205.3791269074943
 10
204.5136129226085
 20
205.3978241297118
 10
204.5111434781645
 20
205.4161685741516
 10
204.5076157003876
 20
205.4334546852587
 10
204.5033823670554
 20
205.4503880185873
 10
204.5016184781669
 20
205.4588546852524
 10
204.4984434781677
 20
205.4666157963612
 10
204.4956212559462
 20
205.4740241296929
 10
204.4917407003918
 20
205.4807269074691
 10
204.4899768115033
 20
205.4839019074683
 10
204.4875073670593
 20
205.4870769074675
 10
204.4846851448379
 20
205.4891935741334
 10
204.4822157003942
 20
205.4913102407994
 10
204.4786879226172
 20
205.4927213519104
 10
204.4748073670624
 20
205.4930741296881
 10
204.4723379226188
 20
205.4930741296881
 10
204.4702212559526
 20
205.4927213519104
 10
204.4677518115088
 20
205.4920157963548
 10
204.4652823670648
 20
205.4906046852444
 10
204.4628129226211
 20
205.4888407963556
 10
204.4603434781771
 20
205.4870769074675
 10
204.4575212559557
 20
205.484254685246
 10
204.455051811512
 20
205.4821380185795
 10
204.4508184781798
 20
205.4768463519143
 10
204.4465851448473
 20
205.4704963519159
 10
204.4430573670707
 20
205.4644991296953
 10
204.4391768115159
 20
205.4588546852524
 10
204.435649033739
 20
205.4525046852539
 10
204.4324740337398
 20
205.446860240811
 10
204.4264768115191
 20
205.4345130185913
 10
204.4211851448536
 20
205.4218130185945
 10
204.4162462559659
 20
205.4094657963754
 10
204.4109545893008
 20
205.397471351934
 10
204.4024879226361
 20
205.3727769074959
 10
204.3940212559718
 20
205.3487880186132
 10
204.3866129226401
 20
205.32479912973
 10
204.3788518115309
 20
205.301163018625
 10
204.3654462559789
 20
205.2535380186369
 10
204.352746255982
 20
205.2059130186487
 10
204.3414573670959
 20
205.1586407964383
 10
204.329815700432
 20
205.1110157964501
  0
LWPOLYLINE
  5
D9
330
70
100
AcDbEntity
  8
Standardebene
 62
     7
370
    35
100
AcDbPolyline
 90
      129
 70
     0
 43
0.0
 10
204.5231379226062
 20
189.9828463557878
 10
204.5231379226062
 20
190.044935244661
 10
204.5231379226062
 20
190.1063185779793
 10
204.5231379226062
 20
190.1881630224032
 10
204.5231379226062
 20
190.270360244605
 10
204.5231379226062
 20
190.3550269112504
 10
204.5231379226062
 20
190.4400463556736
 10
204.5231379226062
 20
190.5278880223182
 10
204.5231379226062
 20
190.6160824667406
 10
204.5231379226062
 20
190.7063935778289
 10
204.5231379226062
 20
190.7981158000283
 10
204.5231379226062
 20
190.8916019111165
 10
204.5231379226062
 20
190.9861463555373
 10
204.5231379226062
 20
191.0831602444018
 10
204.5231379226062
 20
191.1801741332663
 10
204.5231379226062
 20
191.2800102443523
 10
204.5231379226062
 20
191.380199133216
 10
204.5231379226062
 20
191.4832102443018
 10
204.5231379226062
 20
191.5869269109425
 10
204.5231379226062
 20
191.6931130220269
 10
204.5231379226062
 20
191.7989463553335
 10
204.5231379226062
 20
191.90795468864
 10
204.5231379226062
 20
192.0176685775013
 10
204.5231379226062
 20
192.1294991330292
 10
204.5231379226062
 20
192.2413296885565
 10
204.5231379226062
 20
192.3556296885281
 10
204.5231379226062
 20
192.4706352440546
 10
204.5231379226062
 20
192.5881102440254
 10
204.5231379226062
 20
192.705938021774
 10
204.5231379226062
 20
192.8255296884108
 10
204.5231379226062
 20
192.9458269106024
 10
204.5231379226062
 20
193.0689463550161
 10
204.5231379226062
 20
193.1913602438743
 10
204.5231379226062
 20
193.3165963549546
 10
204.5231379226062
 20
193.4418324660343
 10
204.5231379226062
 20
193.5691852437798
 10
204.5231379226062
 20
193.696538021526
 10
204.5231379226062
 20
193.8260074659382
 10
204.5231379226062
 20
193.9561824659058
 10
204.5231379226062
 20
194.0874157992062
 10
204.5231379226062
 20
194.219354688062
 10
204.5231379226062
 20
194.3530574658066
 10
204.5231379226062
 20
194.4871130213284
 10
204.5231379226062
 20
194.6225796879612
 10
204.5231379226062
 20
194.7583991323718
 10
204.5231379226062
 20
194.8956296878927
 10
204.5231379226062
 20
195.0328602434144
 10
204.5231379226062
 20
195.1711491322686
 10
204.5231379226062
 20
195.3101435766784
 10
204.5231379226062
 20
195.4505491321985
 10
204.5231379226062
 20
195.5906019099416
 10
204.5231379226062
 20
195.7320657987951
 10
204.5231379226062
 20
195.8731769098708
 10
204.5231379226062
 20
196.0153463542798
 10
204.5231379226062
 20
196.1578685764665
 10
204.5231379226062
 20
196.3014491319859
 10
204.5231379226062
 20
196.4443241319504
 10
204.5231379226062
 20
196.5882574652476
 10
204.5231379226062
 20
196.7325435763225
 10
204.5231379226062
 20
196.8768296873974
 10
204.5231379226062
 20
197.0214685762501
 10
204.5231379226062
 20
197.1664602428805
 10
204.5231379226062
 20
197.3110991317332
 10
204.5231379226062
 20
197.4564435761414
 10
204.5231379226062
 20
197.6014352427719
 10
204.5231379226062
 20
197.7467796871801
 10
204.5231379226062
 20
197.8914185760327
 10
204.5231379226062
 20
198.0367630204409
 10
204.5231379226062
 20
198.1810491315158
 10
204.5231379226062
 20
198.3256880203685
 10
204.5231379226062
 20
198.4699741314441
 10
204.5231379226062
 20
198.6146130202968
 10
204.5231379226062
 20
198.7581935758162
 10
204.5231379226062
 20
198.9017741313356
 10
204.5231379226062
 20
199.0446491313001
 10
204.5231379226062
 20
199.1871713534868
 10
204.5231379226062
 20
199.3293407978958
 10
204.5231379226062
 20
199.471157464527
 10
204.5231379226062
 20
199.6126213533805
 10
204.5231379226062
 20
199.7526741311229
 10
204.5231379226062
 20
199.8923741310882
 10
204.5231379226062
 20
200.031368575498
 10
204.5231379226062
 20
200.1703630199078
 10
204.5231379226062
 20
200.3075935754288
 10
204.5231379226062
 20
200.4448241309504
 10
204.5231379226062
 20
200.5806435753603
 10
204.5231379226062
 20
200.7161102419931
 10
204.5231379226062
 20
200.84946024196
 10
204.5231379226062
 20
200.9831630197047
 10
204.5231379226062
 20
201.1151019085605
 10
204.5231379226062
 20
201.2470407974163
 10
204.5231379226062
 20
201.3765102418284
 10
204.5231379226062
 20
201.5063324640184
 10
204.5231379226062
 20
201.6340380195417
 10
204.5231379226062
 20
201.7613907972879
 10
204.5231379226062
 20
201.8866269083676
 10
204.5231379226062
 20
202.0111574638917
 10
204.5231379226062
 20
202.1342769083054
 10
204.5231379226062
 20
202.2566907971636
 10
204.5231379226062
 20
202.3769880193559
 10
204.5231379226062
 20
202.4972852415481
 10
204.5231379226062
 20
202.6144074637412
 10
204.5231379226062
 20
202.7318824637114
 10
204.5231379226062
 20
202.8468880192385
 10
204.5231379226062
 20
202.9615407969879
 10
204.5231379226062
 20
203.0737241302929
 10
204.5231379226062
 20
203.1855546858202
 10
204.5231379226062
 20
203.2945630191267
 10
204.5231379226062
 20
203.4035713524325
 10
204.5231379226062
 20
203.5101102412947
 10
204.5231379226062
 20
203.6155907968241
 10
204.5231379226062
 20
203.7196602412426
 10
204.5231379226062
 20
203.82231857455
 10
204.5231379226062
 20
203.9225074634137
 10
204.5231379226062
 20
204.0223435745003
 10
204.5231379226062
 20
204.1200630189203
 10
204.5231379226062
 20
204.2170769077849
 10
204.5231379226062
 20
204.3109157966501
 10
204.5231379226062
 20
204.4051074632932
 10
204.5231379226062
 20
204.4964769077148
 10
204.5231379226062
 20
204.5871407965809
 10
204.5231379226062
 20
204.6753352410033
 10
204.5231379226062
 20
204.7631769076486
 10
204.5231379226062
 20
204.8481963520718
 10
204.5231379226062
 20
204.9328630187172
 10
204.5231379226062
 20
205.0143546853634
 10
204.5231379226062
 20
205.0961991297874
 10
204.5231379226062
 20
205.1582880186606
 10
204.5231379226062
 20
205.2196713519788
  0
LWPOLYLINE
  5
DA
330
70
100
AcDbEntity
  8
Standardebene
 62
     7
370
    35
100
AcDbPolyline
 90
       41
 70
     0
 43
0.0
 10
204.329815700432
 20
190.0922074668714
 10
204.3414573670959
 20
190.0445824668832
 10
204.352746255982
 20
189.9973102446728
 10
204.3654462559789
 20
189.9496852446852
 10
204.3788518115309
 20
189.9013546891415
 10
204.3866129226401
 20
189.8773658002589
 10
204.3940212559718
 20
189.8533769113756
 10
204.4024879226361
 20
189.829388022493
 10
204.411660144856
 20
189.8046935780548
 10
204.4162462559659
 20
189.7923463558357
 10
204.4211851448536
 20
189.7803519113938
 10
204.4271823670746
 20
189.7680046891747
 10
204.4331795892952
 20
189.7553046891778
 10
204.4363545892945
 20
189.7496602447349
 10
204.4391768115159
 20
189.7433102447365
 10
204.4434101448481
 20
189.7376658002936
 10
204.4465851448473
 20
189.7313158002952
 10
204.4508184781798
 20
189.7260241336301
 10
204.4557573670672
 20
189.7207324669643
 10
204.4603434781771
 20
189.7157935780769
 10
204.4652823670648
 20
189.7122658002999
 10
204.4677518115088
 20
189.7108546891889
 10
204.4705740337303
 20
189.7097963558563
 10
204.473043478174
 20
189.7094435780785
 10
204.4748073670624
 20
189.7094435780785
 10
204.4790407003949
 20
189.7097963558563
 10
204.4822157003942
 20
189.7115602447444
 10
204.4875073670593
 20
189.7161463558546
 10
204.4917407003918
 20
189.7224963558531
 10
204.4956212559462
 20
189.7291991336293
 10
204.4984434781677
 20
189.7362546891826
 10
204.5016184781669
 20
189.7443685780698
 10
204.5040879226109
 20
189.7521296891786
 10
204.5076157003876
 20
189.7697685780635
 10
204.5111434781645
 20
189.7874074669477
 10
204.5136129226085
 20
189.8057519113875
 10
204.515376811497
 20
189.824449133605
 10
204.5189045892736
 20
189.8621963558177
 10
204.5213740337177
 20
189.9020602446971
 10
204.5220795892729
 20
189.9419241335758
 10
204.5231379226062
 20
189.9828463557878
  0
LWPOLYLINE
  5
DB
330
70
100
AcDbEntity
  8
Standardebene
 62
     7
370
    35
100
AcDbPolyline
 90
        3
 70
     0
 43
0.0
 10
221.0232601407033
 20
208.2091102401203
 10
212.7728462538768
 20
208.4161907956242
 10
204.5231379226062
 20
208.6236241289056
  0
LWPOLYLINE
  5
DC
330
70
100
AcDbEntity
  8
Standardebene
 62
     7
370
    35
100
AcDbPolyline
 90
        3
 70
     0
 43
0.0
 10
204.5231379226062
 20
186.5795991344167
 10
212.7728462538768
 20
186.7870324676981
 10
221.0232601407033
 20
186.9937602454239
  0
LWPOLYLINE
  5
DD
330
70
100
AcDbEntity
  8
Standardebene
 62
     7
370
    35
100
AcDbPolyline
 90
        5
 70
     0
 43
0.0
 10
204.5231379226062
 20
208.6215074622394
 10
204.5231379226062
 20
208.6236241289056
 10
204.5231379226062
 20
208.6250352400163
 10
204.5231379226062
 20
208.6264463511271
 10
204.5231379226062
 20
208.6267991289048
  0
LWPOLYLINE
  5
DE
330
70
100
AcDbEntity
  8
Standardebene
 62
     7
370
    35
100
AcDbPolyline
 90
        5
 70
     0
 43
0.0
 10
204.5231379226062
 20
186.5764241344175
 10
204.5231379226062
 20
186.5767769121946
 10
204.5231379226062
 20
186.5781880233057
 10
204.5231379226062
 20
186.5795991344167
 10
204.5231379226062
 20
186.5817158010826
  0
LWPOLYLINE
  5
DF
330
70
100
AcDbEntity
  8
Standardebene
 62
     7
370
    35
100
AcDbPolyline
 90
       39
 70
     0
 43
0.0
 10
204.5231379226062
 20
189.9828463557878
 10
204.6025129225861
 20
189.6120769114362
 10
204.6780073670117
 20
189.253301911526
 10
204.7146962558915
 20
189.0793824671249
 10
204.7492684781051
 20
188.908638022723
 10
204.7824295892079
 20
188.7410685783203
 10
204.8138268114223
 20
188.5780852450279
 10
204.8434601447481
 20
188.4186296895124
 10
204.8699184780748
 20
188.263054689551
 10
204.8819129225164
 20
188.18685468957
 10
204.8935545891799
 20
188.1127713562555
 10
204.8988462558454
 20
188.0757296895982
 10
204.9044907002883
 20
188.0386880229403
 10
204.909429589176
 20
188.0030574673941
 10
204.914015700286
 20
187.9670741340695
 10
204.929890700282
 20
187.8284324674375
 10
204.9418851447237
 20
187.697551911915
 10
204.9492934780551
 20
187.5740796897235
 10
204.9514101447213
 20
187.4583685786415
 10
204.9492934780551
 20
187.3500658008905
 10
204.9418851447237
 20
187.2498769120268
 10
204.936946255836
 20
187.2026046898164
 10
204.929890700282
 20
187.1567435787164
 10
204.9224823669506
 20
187.1137046898385
 10
204.914015700286
 20
187.0720769120709
 10
204.8942601447355
 20
186.9955241343121
 10
204.8706240336303
 20
186.9260269121079
 10
204.8441657003036
 20
186.8649963565673
 10
204.8148851447552
 20
186.8103158010252
 10
204.7834879225408
 20
186.7616324677044
 10
204.750326811438
 20
186.7192991343814
 10
204.715401811447
 20
186.6833158010574
 10
204.6790657003449
 20
186.6526241343979
 10
204.6603684781274
 20
186.6392185788462
 10
204.6409657003544
 20
186.6272241344042
 10
204.6222684781369
 20
186.6162880232962
 10
204.6025129225861
 20
186.6071158010763
 10
204.5630018114849
 20
186.5919463566358
 10
204.5231379226062
 20
186.5817158010826
  0
LWPOLYLINE
  5
E0
330
70
100
AcDbEntity
  8
Standardebene
 62
     7
370
    35
100
AcDbPolyline
 90
       39
 70
     0
 43
0.0
 10
204.5231379226062
 20
208.6215074622394
 10
204.6025129225861
 20
208.5961074622457
 10
204.6780073670117
 20
208.5505991289238
 10
204.7146962558915
 20
208.5202602400423
 10
204.7492684781051
 20
208.4842769067181
 10
204.7824295892079
 20
208.4422963511731
 10
204.8138268114223
 20
208.3943185734072
 10
204.8434601447481
 20
208.3392852400876
 10
204.8699184780748
 20
208.2775491289922
 10
204.8819129225164
 20
208.2440352401113
 10
204.8935545891799
 20
208.2091102401203
 10
204.8988462558454
 20
208.1904130179028
 10
204.9044907002883
 20
208.1710102401297
 10
204.909429589176
 20
208.1519602401344
 10
204.914015700286
 20
208.1318519068062
 10
204.929890700282
 20
208.0471852401608
 10
204.9418851447237
 20
207.9554630179615
 10
204.9492934780551
 20
207.8556269068752
 10
204.9514101447213
 20
207.74802968468
 10
204.9492934780551
 20
207.63196579582
 10
204.9418851447237
 20
207.508140795851
 10
204.936946255836
 20
207.4432296847561
 10
204.929890700282
 20
207.3769074625504
 10
204.9224823669506
 20
207.3077630181233
 10
204.914015700286
 20
207.2375602403632
 10
204.8942601447355
 20
207.0925685737328
 10
204.8706240336303
 20
206.9426380182146
 10
204.8441657003036
 20
206.7884741293643
 10
204.8148851447552
 20
206.6290185738485
 10
204.7834879225408
 20
206.4660352405561
 10
204.750326811438
 20
206.2984657961534
 10
204.715401811447
 20
206.1270157961963
 10
204.6790657003449
 20
205.9523907962399
 10
204.6603684781274
 20
205.8638435740397
 10
204.6409657003544
 20
205.7742380185069
 10
204.6222684781369
 20
205.6832213518624
 10
204.6025129225861
 20
205.5922046852186
 10
204.5630018114849
 20
205.4077019074872
 10
204.5231379226062
 20
205.2196713519788
  0
LWPOLYLINE
  5
E1
330
70
100
AcDbEntity
  8
Standardebene
 62
     7
370
    35
100
AcDbPolyline
 90
        3
 70
     0
 43
0.0
 10
218.6730545857352
 20
199.9907991310638
 10
219.8481573632193
 20
199.9572852421828
 10
221.0232601407033
 20
199.9227130199693
  0
LWPOLYLINE
  5
E2
330
70
100
AcDbEntity
  8
Standardebene
 62
     7
370
    35
100
AcDbPolyline
 90
       45
 70
     0
 43
0.0
 10
218.6730545857352
 20
195.2117185767028
 10
218.5774518079814
 20
195.3450685766697
 10
218.483260141338
 20
195.4794769099692
 10
218.3929490302498
 20
195.6160019099353
 10
218.3047545858273
 20
195.7539380210118
 10
218.2200879191819
 20
195.894343576532
 10
218.1389490303132
 20
196.0361602431632
 10
218.0620434747769
 20
196.1815046875714
 10
217.9897240303505
 20
196.3293185764233
 10
217.9555045859148
 20
196.4041074652933
 10
217.9223434748119
 20
196.4803074652744
 10
217.891299030375
 20
196.5575657985888
 10
217.8620184748269
 20
196.6344713541247
 10
217.808396252618
 20
196.7903991318639
 10
217.7635934748517
 20
196.9484435762689
 10
217.7269045859719
 20
197.1089574651176
 10
217.7000934748674
 20
197.2719407984101
 10
217.694801808202
 20
197.3132157983998
 10
217.6909212526475
 20
197.3548435761673
 10
217.6870406970928
 20
197.3961185761564
 10
217.6838656970936
 20
197.4380991317017
 10
217.6796323637614
 20
197.5210019094589
 10
217.6785740304285
 20
197.6031991316607
 10
217.6842184748714
 20
197.7675935760641
 10
217.7000934748674
 20
197.9312824649121
 10
217.7265518081941
 20
198.0932074648712
 10
217.7635934748517
 20
198.2540741314977
 10
217.7741768081823
 20
198.2946435759319
 10
217.7854656970684
 20
198.3348602425884
 10
217.7967545859542
 20
198.37437135369
 10
217.8087490303958
 20
198.4138824647909
 10
217.8352073637225
 20
198.4925519092157
 10
217.8623712526047
 20
198.5698102425301
 10
217.9230490303671
 20
198.7225630202693
 10
217.9893712525728
 20
198.8728463535655
 10
218.0609851414439
 20
199.0199546868619
 10
218.1375379192024
 20
199.1645935757146
 10
218.2186768080709
 20
199.3071157979013
 10
218.3036962524941
 20
199.4478741311993
 10
218.3474406969278
 20
199.5173713534041
 10
218.3918906969165
 20
199.5865157978313
 10
218.4373990302387
 20
199.6549546867029
 10
218.483260141338
 20
199.7226880200196
 10
218.5767462524259
 20
199.8581546866524
 10
218.6730545857352
 20
199.9907991310638
  0
LWPOLYLINE
  5
E3
330
70
100
AcDbEntity
  8
Standardebene
 62
     7
370
    35
100
AcDbPolyline
 90
        3
 70
     0
 43
0.0
 10
221.0232601407033
 20
195.2801574655744
 10
219.8481573632193
 20
195.2452324655831
 10
218.6730545857352
 20
195.2117185767028
  0
LWPOLYLINE
  5
E4
330
70
100
AcDbEntity
  8
Standardebene
 62
     7
370
    35
100
AcDbPolyline
 90
      166
 70
     0
 43
0.0
 10
221.0232601407033
 20
195.2801574655744
 10
221.0232601407033
 20
195.1887880211528
 10
221.0232601407033
 20
195.097771354509
 10
221.0232601407033
 20
194.9637157989872
 10
221.0232601407033
 20
194.8300130212426
 10
221.0232601407033
 20
194.697721354609
 10
221.0232601407033
 20
194.5664880213087
 10
221.0232601407033
 20
194.4359602435632
 10
221.0232601407033
 20
194.3054324658185
 10
221.0232601407033
 20
194.1777269102945
 10
221.0232601407033
 20
194.0493157992156
 10
221.0232601407033
 20
193.9226685770249
 10
221.0232601407033
 20
193.7967269103898
 10
221.0232601407033
 20
193.6729019104212
 10
221.0232601407033
 20
193.5490769104519
 10
221.0232601407033
 20
193.4270157993715
 10
221.0232601407033
 20
193.3060130216237
 10
221.0232601407033
 20
193.1860685772092
 10
221.0232601407033
 20
193.0675352439057
 10
221.0232601407033
 20
192.9504130217127
 10
221.0232601407033
 20
192.8336435772973
 10
221.0232601407033
 20
192.7196963551035
 10
221.0232601407033
 20
192.6061019106874
 10
221.0232601407033
 20
192.4942713551601
 10
221.0232601407033
 20
192.3834991329655
 10
221.0232601407033
 20
192.2741380218819
 10
221.0232601407033
 20
192.1661880219087
 10
221.0232601407033
 20
192.0600019108243
 10
221.0232601407033
 20
191.9548741330726
 10
221.0232601407033
 20
191.8515102442097
 10
221.0232601407033
 20
191.7492046886794
 10
221.0232601407033
 20
191.6490157998157
 10
221.0232601407033
 20
191.5495324665075
 10
221.0232601407033
 20
191.4521657998652
 10
221.0232601407033
 20
191.3555046887778
 10
221.0232601407033
 20
191.2613130221348
 10
221.0232601407033
 20
191.1678269110472
 10
221.0232601407033
 20
191.0764574666256
 10
221.0232601407033
 20
190.9861463555373
 10
221.0232601407033
 20
190.898304688892
 10
221.0232601407033
 20
190.8101102444696
 10
221.0232601407033
 20
190.7254435778242
 10
221.0232601407033
 20
190.6407769111788
 10
221.0232601407033
 20
190.5589324667548
 10
221.0232601407033
 20
190.4774408001086
 10
221.0232601407033
 20
190.3984185779061
 10
221.0232601407033
 20
190.3201019112591
 10
221.0232601407033
 20
190.243901911278
 10
221.0232601407033
 20
190.1687602446302
 10
221.0232601407033
 20
190.0960880224261
 10
221.0232601407033
 20
190.0230630224442
 10
221.0232601407033
 20
189.9535658002394
 10
221.0232601407033
 20
189.8840685780345
 10
221.0232601407033
 20
189.8163352447184
 10
221.0232601407033
 20
189.7500130225127
 10
221.0232601407033
 20
189.6854546891952
 10
221.0232601407033
 20
189.6216019114338
 10
221.0232601407033
 20
189.5602185781156
 10
221.0232601407033
 20
189.4988352447979
 10
221.0232601407033
 20
189.4406269114788
 10
221.0232601407033
 20
189.3820658003826
 10
221.0232601407033
 20
189.3259741337301
 10
221.0232601407033
 20
189.2698824670769
 10
221.0232601407033
 20
189.215907467091
 10
221.0232601407033
 20
189.162990800437
 10
221.0232601407033
 20
189.1118380226725
 10
221.0232601407033
 20
189.0610380226851
 10
221.0232601407033
 20
189.0123546893637
 10
221.0232601407033
 20
188.9640241338206
 10
221.0232601407033
 20
188.9171046893873
 10
221.0232601407033
 20
188.871243578288
 10
221.0232601407033
 20
188.826793578299
 10
221.0232601407033
 20
188.7830491338656
 10
221.0232601407033
 20
188.7407158005425
 10
221.0232601407033
 20
188.6983824672201
 10
221.0232601407033
 20
188.6581658005637
 10
221.0232601407033
 20
188.6186546894621
 10
221.0232601407033
 20
188.579849133916
 10
221.0232601407033
 20
188.542454689481
 10
221.0232601407033
 20
188.5054130228238
 10
221.0232601407033
 20
188.4694296894998
 10
221.0232601407033
 20
188.4348574672863
 10
221.0232601407033
 20
188.3999324672949
 10
221.0232601407033
 20
188.3671241339695
 10
221.0232601407033
 20
188.333963022867
 10
221.0232601407033
 20
188.3018602450971
 10
221.0232601407033
 20
188.2708158006605
 10
221.0232601407033
 20
188.2404769117788
 10
221.0232601407033
 20
188.2101380228978
 10
221.0232601407033
 20
188.1812102451271
 10
221.0232601407033
 20
188.1522824673564
 10
221.0232601407033
 20
188.1247658006968
 10
221.0232601407033
 20
188.0976019118149
 10
221.0232601407033
 20
188.0707908007102
 10
221.0232601407033
 20
188.0439796896061
 10
221.0232601407033
 20
188.0182269118347
 10
221.0232601407033
 20
187.992826911841
 10
221.0232601407033
 20
187.9684852451806
 10
221.0232601407033
 20
187.9437908007417
 10
221.0232601407033
 20
187.9198019118591
 10
221.0232601407033
 20
187.8961658007542
 10
221.0232601407033
 20
187.873588022982
 10
221.0232601407033
 20
187.8503046896542
 10
221.0232601407033
 20
187.8284324674375
 10
221.0232601407033
 20
187.806207467443
 10
221.0232601407033
 20
187.7843352452263
 10
221.0232601407033
 20
187.7628158007873
 10
221.0232601407033
 20
187.7420019119033
 10
221.0232601407033
 20
187.7215408007976
 10
221.0232601407033
 20
187.7007269119142
 10
221.0232601407033
 20
187.6806185785856
 10
221.0232601407033
 20
187.6605102452571
 10
221.0232601407033
 20
187.6404019119291
 10
221.0232601407033
 20
187.6213519119339
 10
221.0232601407033
 20
187.6015963563831
 10
221.0232601407033
 20
187.5825463563878
 10
221.0232601407033
 20
187.5638491341703
 10
221.0232601407033
 20
187.5451519119528
 10
221.0232601407033
 20
187.5264546897353
 10
221.0232601407033
 20
187.5088158008511
 10
221.0232601407033
 20
187.4908241341884
 10
221.0232601407033
 20
187.4724796897487
 10
221.0232601407033
 20
187.4551935786423
 10
221.0232601407033
 20
187.4372019119796
 10
221.0232601407033
 20
187.4199158008732
 10
221.0232601407033
 20
187.4029824675438
 10
221.0232601407033
 20
187.3860491342145
 10
221.0232601407033
 20
187.3691158008858
 10
221.0232601407033
 20
187.3532408008897
 10
221.0232601407033
 20
187.3366602453381
 10
221.0232601407033
 20
187.3207852453421
 10
221.0232601407033
 20
187.3045574675683
 10
221.0232601407033
 20
187.28903524535
 10
221.0232601407033
 20
187.2738658009094
 10
221.0232601407033
 20
187.2583435786911
 10
221.0232601407033
 20
187.2435269120284
 10
221.0232601407033
 20
187.2290630231427
 10
221.0232601407033
 20
187.2145991342577
 10
221.0232601407033
 20
187.2008408009276
 10
221.0232601407033
 20
187.1870824675981
 10
221.0232601407033
 20
187.1736769120457
 10
221.0232601407033
 20
187.1602713564934
 10
221.0232601407033
 20
187.1479241342743
 10
221.0232601407033
 20
187.1348713564996
 10
221.0232601407033
 20
187.1228769120583
 10
221.0232601407033
 20
187.1112352453948
 10
221.0232601407033
 20
187.1006519120639
 10
221.0232601407033
 20
187.0893630231781
 10
221.0232601407033
 20
187.0791324676249
 10
221.0232601407033
 20
187.0689019120717
 10
221.0232601407033
 20
187.0600824676296
 10
221.0232601407033
 20
187.0509102454098
 10
221.0232601407033
 20
187.0427963565225
 10
221.0232601407033
 20
187.0346824676359
 10
221.0232601407033
 20
187.027626912082
 10
221.0232601407033
 20
187.0209241343058
 10
221.0232601407033
 20
187.0145741343074
 10
221.0232601407033
 20
187.0092824676422
 10
221.0232601407033
 20
187.0043435787549
 10
221.0232601407033
 20
187.0004630232001
 10
221.0232601407033
 20
186.9972880232009
 10
221.0232601407033
 20
186.9941130232017
 10
221.0232601407033
 20
186.9923491343129
 10
221.0232601407033
 20
186.9909380232025
 10
221.0232601407033
 20
186.9905852454247
 10
221.0232601407033
 20
186.9919963565358
  0
LWPOLYLINE
  5
E5
330
70
100
AcDbEntity
  8
Standardebene
 62
     7
370
    35
100
AcDbPolyline
 90
      166
 70
     0
 43
0.0
 10
221.0232601407033
 20
208.2112269067865
 10
221.0232601407033
 20
208.2119324623417
 10
221.0232601407033
 20
208.211579684564
 10
221.0232601407033
 20
208.2101685734532
 10
221.0232601407033
 20
208.2084046845647
 10
221.0232601407033
 20
208.205935240121
 10
221.0232601407033
 20
208.2027602401218
 10
221.0232601407033
 20
208.1981741290119
 10
221.0232601407033
 20
208.1932352401242
 10
221.0232601407033
 20
208.1879435734588
 10
221.0232601407033
 20
208.1822991290159
 10
221.0232601407033
 20
208.1755963512397
 10
221.0232601407033
 20
208.1678352401305
 10
221.0232601407033
 20
208.1604269067991
 10
221.0232601407033
 20
208.1519602401344
 10
221.0232601407033
 20
208.1431407956924
 10
221.0232601407033
 20
208.1336157956947
 10
221.0232601407033
 20
208.1233852401416
 10
221.0232601407033
 20
208.1131546845887
 10
221.0232601407033
 20
208.1029241290356
 10
221.0232601407033
 20
208.091282462372
 10
221.0232601407033
 20
208.0796407957081
 10
221.0232601407033
 20
208.0676463512665
 10
221.0232601407033
 20
208.0552991290474
 10
221.0232601407033
 20
208.0429519068283
 10
221.0232601407033
 20
208.0295463512763
 10
221.0232601407033
 20
208.0161407957242
 10
221.0232601407033
 20
208.0023824623941
 10
221.0232601407033
 20
207.9879185735087
 10
221.0232601407033
 20
207.9738074624012
 10
221.0232601407033
 20
207.9589907957384
 10
221.0232601407033
 20
207.9445269068531
 10
221.0232601407033
 20
207.9293574624122
 10
221.0232601407033
 20
207.9134824624162
 10
221.0232601407033
 20
207.8979602401979
 10
221.0232601407033
 20
207.8824380179796
 10
221.0232601407033
 20
207.8665630179835
 10
221.0232601407033
 20
207.8499824624323
 10
221.0232601407033
 20
207.833401906881
 10
221.0232601407033
 20
207.8164685735517
 10
221.0232601407033
 20
207.7995352402226
 10
221.0232601407033
 20
207.7826019068936
 10
221.0232601407033
 20
207.7653157957865
 10
221.0232601407033
 20
207.74802968468
 10
221.0232601407033
 20
207.7300380180178
 10
221.0232601407033
 20
207.7123991291332
 10
221.0232601407033
 20
207.6940546846935
 10
221.0232601407033
 20
207.6757102402537
 10
221.0232601407033
 20
207.6573657958137
 10
221.0232601407033
 20
207.6386685735962
 10
221.0232601407033
 20
207.6199713513787
 10
221.0232601407033
 20
207.6009213513834
 10
221.0232601407033
 20
207.5818713513881
 10
221.0232601407033
 20
207.5621157958376
 10
221.0232601407033
 20
207.5427130180646
 10
221.0232601407033
 20
207.5226046847364
 10
221.0232601407033
 20
207.5024963514081
 10
221.0232601407033
 20
207.4816824625244
 10
221.0232601407033
 20
207.4612213514184
 10
221.0232601407033
 20
207.4397019069794
 10
221.0232601407033
 20
207.4181824625402
 10
221.0232601407033
 20
207.3970157958787
 10
221.0232601407033
 20
207.3747907958842
 10
221.0232601407033
 20
207.35256579589
 10
221.0232601407033
 20
207.32963524034
 10
221.0232601407033
 20
207.3063519070125
 10
221.0232601407033
 20
207.2830685736851
 10
221.0232601407033
 20
207.2587269070244
 10
221.0232601407033
 20
207.234385240364
 10
221.0232601407033
 20
207.2096907959258
 10
221.0232601407033
 20
207.1842907959321
 10
221.0232601407033
 20
207.1585380181607
 10
221.0232601407033
 20
207.1324324626115
 10
221.0232601407033
 20
207.1056213515074
 10
221.0232601407033
 20
207.0784574626252
 10
221.0232601407033
 20
207.0502352404097
 10
221.0232601407033
 20
207.0213074626394
 10
221.0232601407033
 20
206.992379684869
 10
221.0232601407033
 20
206.9627463515428
 10
221.0232601407033
 20
206.9324074626618
 10
221.0232601407033
 20
206.9006574626697
 10
221.0232601407033
 20
206.8685546848998
 10
221.0232601407033
 20
206.8360991293522
 10
221.0232601407033
 20
206.8025852404719
 10
221.0232601407033
 20
206.7680130182583
 10
221.0232601407033
 20
206.733088018267
 10
221.0232601407033
 20
206.6971046849427
 10
221.0232601407033
 20
206.6607685738406
 10
221.0232601407033
 20
206.6226685738501
 10
221.0232601407033
 20
206.5845685738596
 10
221.0232601407033
 20
206.5443519072031
 10
221.0232601407033
 20
206.5041352405466
 10
221.0232601407033
 20
206.4625074627791
 10
221.0232601407033
 20
206.4201741294564
 10
221.0232601407033
 20
206.3764296850226
 10
221.0232601407033
 20
206.331979685034
 10
221.0232601407033
 20
206.2857657961566
 10
221.0232601407033
 20
206.238846351724
 10
221.0232601407033
 20
206.190868573958
 10
221.0232601407033
 20
206.1421852406369
 10
221.0232601407033
 20
206.0913852406498
 10
221.0232601407033
 20
206.0402324628847
 10
221.0232601407033
 20
205.9866102406757
 10
221.0232601407033
 20
205.9329880184668
 10
221.0232601407033
 20
205.8772491295921
 10
221.0232601407033
 20
205.8211574629396
 10
221.0232601407033
 20
205.762243574065
 10
221.0232601407033
 20
205.7040352407465
 10
221.0232601407033
 20
205.6422991296504
 10
221.0232601407033
 20
205.5809157963328
 10
221.0232601407033
 20
205.5170630185708
 10
221.0232601407033
 20
205.4532102408094
 10
221.0232601407033
 20
205.3861824630482
 10
221.0232601407033
 20
205.319154685287
 10
221.0232601407033
 20
205.2496574630822
 10
221.0232601407033
 20
205.1794546853217
 10
221.0232601407033
 20
205.1071352408954
 10
221.0232601407033
 20
205.0341102409142
 10
221.0232601407033
 20
204.9586157964886
 10
221.0232601407033
 20
204.8824157965075
 10
221.0232601407033
 20
204.8040991298606
 10
221.0232601407033
 20
204.7254296854358
 10
221.0232601407033
 20
204.6435852410118
 10
221.0232601407033
 20
204.5617407965878
 10
221.0232601407033
 20
204.4770741299418
 10
221.0232601407033
 20
204.3924074632964
 10
221.0232601407033
 20
204.3049185744295
 10
221.0232601407033
 20
204.2170769077849
 10
221.0232601407033
 20
204.126060241141
 10
221.0232601407033
 20
204.0353963522749
 10
221.0232601407033
 20
203.9412046856319
 10
221.0232601407033
 20
203.8473657967659
 10
221.0232601407033
 20
203.7507046856792
 10
221.0232601407033
 20
203.6536907968147
 10
221.0232601407033
 20
203.5542074635058
 10
221.0232601407033
 20
203.4540185746422
 10
221.0232601407033
 20
203.3510074635569
 10
221.0232601407033
 20
203.2483491302496
 10
221.0232601407033
 20
203.1425157969423
 10
221.0232601407033
 20
203.0366824636356
 10
221.0232601407033
 20
202.9283796858847
 10
221.0232601407033
 20
202.8197241303566
 10
221.0232601407033
 20
202.7082463526065
 10
221.0232601407033
 20
202.5971213526341
 10
221.0232601407033
 20
202.4828213526631
 10
221.0232601407033
 20
202.3688741304693
 10
221.0232601407033
 20
202.252104686054
 10
221.0232601407033
 20
202.1356880194165
 10
221.0232601407033
 20
202.0168019083352
 10
221.0232601407033
 20
201.8972102416978
 10
221.0232601407033
 20
201.7755019083951
 10
221.0232601407033
 20
201.6541463528703
 10
221.0232601407033
 20
201.530321352901
 10
221.0232601407033
 20
201.4057907973762
 10
221.0232601407033
 20
201.2798491307411
 10
221.0232601407033
 20
201.1539074641059
 10
221.0232601407033
 20
201.025496353027
 10
221.0232601407033
 20
200.8974380197259
 10
221.0232601407033
 20
200.7672630197583
 10
221.0232601407033
 20
200.6367352420135
 10
221.0232601407033
 20
200.5047963531576
 10
221.0232601407033
 20
200.3725046865241
 10
221.0232601407033
 20
200.2388019087794
 10
221.0232601407033
 20
200.1054519088125
 10
221.0232601407033
 20
200.0144352421687
 10
221.0232601407033
 20
199.9227130199693
  0
LWPOLYLINE
  5
E6
330
70
100
AcDbEntity
  8
Standardebene
 62
     7
370
    35
100
AcDbPolyline
 90
        6
 70
     0
 43
0.0
 10
218.6730545857352
 20
195.2117185767028
 10
218.6730545857352
 20
196.1021296875911
 10
218.6730545857352
 20
197.0906130206772
 10
218.6730545857352
 20
198.1119046870887
 10
218.6730545857352
 20
199.1003880201748
 10
218.6730545857352
 20
199.9907991310638
  0
LWPOLYLINE
  5
E7
330
70
100
AcDbEntity
  8
Standardebene
 62
     7
370
    35
100
AcDbPolyline
 90
        9
 70
     0
 43
0.0
 10
221.0232601407033
 20
199.9227130199693
 10
221.1590795851139
 20
199.8278157977707
 10
221.2920768073027
 20
199.7293907977958
 10
221.4226045850478
 20
199.62637968671
 10
221.5499573627937
 20
199.5191352422923
 10
221.6744879183181
 20
199.407304686765
 10
221.7944323627326
 20
199.290182464572
 10
221.9108490293702
 20
199.1677685757138
 10
222.0226795848978
 20
199.0379463535239
  0
LWPOLYLINE
  5
E8
330
70
100
AcDbEntity
  8
Standardebene
 62
     7
370
    35
100
AcDbPolyline
 90
        4
 70
     0
 43
0.0
 10
222.0226795848978
 20
196.1645713542421
 10
222.0226795848978
 20
197.1124852428946
 10
222.0226795848978
 20
198.090032464872
 10
222.0226795848978
 20
199.0379463535239
  0
LWPOLYLINE
  5
E9
330
70
100
AcDbEntity
  8
Standardebene
 62
     7
370
    35
100
AcDbPolyline
 90
        9
 70
     0
 43
0.0
 10
222.0226795848978
 20
196.1645713542421
 10
221.9108490293702
 20
196.0354546876077
 10
221.7944323627326
 20
195.9123352431946
 10
221.6744879183181
 20
195.7952130210016
 10
221.5499573627937
 20
195.6833824654736
 10
221.4226045850478
 20
195.5761380210559
 10
221.2920768073027
 20
195.4738324655263
 10
221.1590795851139
 20
195.3747019099953
 10
221.0232601407033
 20
195.2801574655744
  0
LWPOLYLINE
  5
EA
330
70
100
AcDbEntity
  8
Standardebene
 62
     7
370
    35
100
AcDbPolyline
 90
      174
 70
     0
 43
0.0
 10
221.0232601407033
 20
186.9919963565358
 10
221.5227934739115
 20
187.2805685786856
 10
222.0226795848978
 20
187.5687880230577
 10
222.0226795848978
 20
187.5684352452806
 10
222.0226795848978
 20
187.5687880230577
 10
222.0226795848978
 20
187.5694935786132
 10
222.0226795848978
 20
187.5716102452798
 10
222.0226795848978
 20
187.5740796897235
 10
222.0226795848978
 20
187.5772546897227
 10
222.0226795848978
 20
187.5807824674997
 10
222.0226795848978
 20
187.585721356387
 10
222.0226795848978
 20
187.5910130230522
 10
222.0226795848978
 20
187.596304689718
 10
222.0226795848978
 20
187.6026546897164
 10
222.0226795848978
 20
187.6097102452697
 10
222.0226795848978
 20
187.6164130230458
 10
222.0226795848978
 20
187.6248796897108
 10
222.0226795848978
 20
187.6329935785975
 10
222.0226795848978
 20
187.6418130230396
 10
222.0226795848978
 20
187.6506324674817
 10
222.0226795848978
 20
187.6605102452571
 10
222.0226795848978
 20
187.6707408008102
 10
222.0226795848978
 20
187.6806185785856
 10
222.0226795848978
 20
187.6915546896936
 10
222.0226795848978
 20
187.7028435785801
 10
222.0226795848978
 20
187.7144852452437
 10
222.0226795848978
 20
187.7261269119078
 10
222.0226795848978
 20
187.7384741341269
 10
222.0226795848978
 20
187.7504685785682
 10
222.0226795848978
 20
187.7635213563429
 10
222.0226795848978
 20
187.775868578562
 10
222.0226795848978
 20
187.7892741341137
 10
222.0226795848978
 20
187.802679689666
 10
222.0226795848978
 20
187.8164380229962
 10
222.0226795848978
 20
187.8301963563257
 10
222.0226795848978
 20
187.8439546896558
 10
222.0226795848978
 20
187.8584185785415
 10
222.0226795848978
 20
187.8725296896487
 10
222.0226795848978
 20
187.8873463563115
 10
222.0226795848978
 20
187.9018102451971
 10
222.0226795848978
 20
187.9166269118599
 10
222.0226795848978
 20
187.9317963563004
 10
222.0226795848978
 20
187.946965800741
 10
222.0226795848978
 20
187.9624880229593
 10
222.0226795848978
 20
187.9780102451782
 10
222.0226795848978
 20
187.9942380229514
 10
222.0226795848978
 20
188.0097602451697
 10
222.0226795848978
 20
188.0256352451657
 10
222.0226795848978
 20
188.0422158007173
 10
222.0226795848978
 20
188.0584435784911
 10
222.0226795848978
 20
188.0743185784872
 10
222.0226795848978
 20
188.0912519118165
 10
222.0226795848978
 20
188.1081852451452
 10
222.0226795848978
 20
188.1251185784746
 10
222.0226795848978
 20
188.1420519118033
 10
222.0226795848978
 20
188.1593380229104
 10
222.0226795848978
 20
188.1773296895724
 10
222.0226795848978
 20
188.1946158006795
 10
222.0226795848978
 20
188.2129602451192
 10
222.0226795848978
 20
188.2309519117812
 10
222.0226795848978
 20
188.2492963562209
 10
222.0226795848978
 20
188.2679935784384
 10
222.0226795848978
 20
188.2866908006566
 10
222.0226795848978
 20
188.3064463562067
 10
222.0226795848978
 20
188.325496356202
 10
222.0226795848978
 20
188.3456046895306
 10
222.0226795848978
 20
188.3657130228585
 10
222.0226795848978
 20
188.3861741339648
 10
222.0226795848978
 20
188.4066352450705
 10
222.0226795848978
 20
188.4281546895101
 10
222.0226795848978
 20
188.449674133949
 10
222.0226795848978
 20
188.4715463561657
 10
222.0226795848978
 20
188.4944769117158
 10
222.0226795848978
 20
188.5170546894873
 10
222.0226795848978
 20
188.5406908005928
 10
222.0226795848978
 20
188.5643269116977
 10
222.0226795848978
 20
188.5886685783588
 10
222.0226795848978
 20
188.6137158005747
 10
222.0226795848978
 20
188.6391158005684
 10
222.0226795848978
 20
188.6655741338947
 10
222.0226795848978
 20
188.6920324672217
 10
222.0226795848978
 20
188.7191963561036
 10
222.0226795848978
 20
188.7477713560965
 10
222.0226795848978
 20
188.7763463560894
 10
222.0226795848978
 20
188.8056269116378
 10
222.0226795848978
 20
188.8359658005189
 10
222.0226795848978
 20
188.8673630227332
 10
222.0226795848978
 20
188.8984074671698
 10
222.0226795848978
 20
188.9312158004952
 10
222.0226795848978
 20
188.9647296893755
 10
222.0226795848978
 20
188.9989491338113
 10
222.0226795848978
 20
189.0342269115804
 10
222.0226795848978
 20
189.0698574671272
 10
222.0226795848978
 20
189.1072519115622
 10
222.0226795848978
 20
189.144999133775
 10
222.0226795848978
 20
189.1838046893211
 10
222.0226795848978
 20
189.2240213559775
 10
222.0226795848978
 20
189.2649435781896
 10
222.0226795848978
 20
189.3072769115126
 10
222.0226795848978
 20
189.3499630226127
 10
222.0226795848978
 20
189.3944130226017
 10
222.0226795848978
 20
189.4395685781462
 10
222.0226795848978
 20
189.4868408003565
 10
222.0226795848978
 20
189.5344658003441
 10
222.0226795848978
 20
189.5835019114433
 10
222.0226795848978
 20
189.6332435780974
 10
222.0226795848978
 20
189.6854546891952
 10
222.0226795848978
 20
189.7376658002936
 10
222.0226795848978
 20
189.791993578058
 10
222.0226795848978
 20
189.8466741335994
 10
222.0226795848978
 20
189.9038241335853
 10
222.0226795848978
 20
189.9613269113488
 10
222.0226795848978
 20
190.0212991335561
 10
222.0226795848978
 20
190.0809185779856
 10
222.0226795848978
 20
190.1437130224143
 10
222.0226795848978
 20
190.206507466843
 10
222.0226795848978
 20
190.2721241334931
 10
222.0226795848978
 20
190.3380935779211
 10
222.0226795848978
 20
190.4061796890155
 10
222.0226795848978
 20
190.4746185778871
 10
222.0226795848978
 20
190.5458796889802
 10
222.0226795848978
 20
190.6178463556288
 10
222.0226795848978
 20
190.6915769111662
 10
222.0226795848978
 20
190.7660130222584
 10
222.0226795848978
 20
190.8436241333506
 10
222.0226795848978
 20
190.9208824666642
 10
222.0226795848978
 20
191.0013157999778
 10
222.0226795848978
 20
191.081396355513
 10
222.0226795848978
 20
191.1642991332703
 10
222.0226795848978
 20
191.2479074665824
 10
222.0226795848978
 20
191.3339852443389
 10
222.0226795848978
 20
191.4207685776508
 10
222.0226795848978
 20
191.5100213554059
 10
222.0226795848978
 20
191.5992741331616
 10
222.0226795848978
 20
191.6917019109165
 10
222.0226795848978
 20
191.783776910893
 10
222.0226795848978
 20
191.8790269108693
 10
222.0226795848978
 20
191.9746296886234
 10
222.0226795848978
 20
192.0723491330434
 10
222.0226795848978
 20
192.1707741330184
 10
222.0226795848978
 20
192.2720213552153
 10
222.0226795848978
 20
192.3732685774123
 10
222.0226795848978
 20
192.4766324662753
 10
222.0226795848978
 20
192.5807019106937
 10
222.0226795848978
 20
192.6872407995559
 10
222.0226795848978
 20
192.7941324661964
 10
222.0226795848978
 20
192.9027880217245
 10
222.0226795848978
 20
193.0125019105858
 10
222.0226795848978
 20
193.123979688336
 10
222.0226795848978
 20
193.2365157994188
 10
222.0226795848978
 20
193.3504630216126
 10
222.0226795848978
 20
193.4647630215843
 10
222.0226795848978
 20
193.5815324659996
 10
222.0226795848978
 20
193.6983019104142
 10
222.0226795848978
 20
193.8171880214961
 10
222.0226795848978
 20
193.936426910355
 10
222.0226795848978
 20
194.05778246588
 10
222.0226795848978
 20
194.1794907991833
 10
222.0226795848978
 20
194.3022574658193
 10
222.0226795848978
 20
194.4260824657879
 10
222.0226795848978
 20
194.5509657990904
 10
222.0226795848978
 20
194.6765546879478
 10
222.0226795848978
 20
194.8035546879162
 10
222.0226795848978
 20
194.9302019101063
 10
222.0226795848978
 20
195.0589657989629
 10
222.0226795848978
 20
195.1877296878202
 10
222.0226795848978
 20
195.318257465565
 10
222.0226795848978
 20
195.4484324655326
 10
222.0226795848978
 20
195.5796657988329
 10
222.0226795848978
 20
195.7116046876888
 10
222.0226795848978
 20
195.8438963543224
 10
222.0226795848978
 20
195.9772463542892
 10
222.0226795848978
 20
196.0710852431545
 10
222.0226795848978
 20
196.1645713542421
  0
LWPOLYLINE
  5
EB
330
70
100
AcDbEntity
  8
Standardebene
 62
     7
370
    35
100
AcDbPolyline
 90
        3
 70
     0
 43
0.0
 10
222.0226795848978
 20
207.6337296847084
 10
221.5227934739115
 20
207.9226546846363
 10
221.0232601407033
 20
208.2112269067865
  0
LWPOLYLINE
  5
EC
330
70
100
AcDbEntity
  8
Standardebene
 62
     7
370
    35
100
AcDbPolyline
 90
      172
 70
     0
 43
0.0
 10
222.0226795848978
 20
199.0379463535239
 10
222.0226795848978
 20
199.1321380201669
 10
222.0226795848978
 20
199.2256241312551
 10
222.0226795848978
 20
199.3586213534436
 10
222.0226795848978
 20
199.4916185756327
 10
222.0226795848978
 20
199.6228519089337
 10
222.0226795848978
 20
199.7547907977895
 10
222.0226795848978
 20
199.8849657977565
 10
222.0226795848978
 20
200.0147880199464
 10
222.0226795848978
 20
200.1435519088031
 10
222.0226795848978
 20
200.2723157976597
 10
222.0226795848978
 20
200.3993157976281
 10
222.0226795848978
 20
200.5266685753744
 10
222.0226795848978
 20
200.6522574642318
 10
222.0226795848978
 20
200.7771407975337
 10
222.0226795848978
 20
200.9002602419474
 10
222.0226795848978
 20
201.0237324641389
 10
222.0226795848978
 20
201.1454407974415
 10
222.0226795848978
 20
201.2660907974116
 10
222.0226795848978
 20
201.3853296862706
 10
222.0226795848978
 20
201.5042157973518
 10
222.0226795848978
 20
201.6216907973226
 10
222.0226795848978
 20
201.7377546861824
 10
222.0226795848978
 20
201.8527602417095
 10
222.0226795848978
 20
201.9667074639027
 10
222.0226795848978
 20
202.0785380194307
 10
222.0226795848978
 20
202.1903685749579
 10
222.0226795848978
 20
202.3000824638199
 10
222.0226795848978
 20
202.4090907971257
 10
222.0226795848978
 20
202.5159824637657
 10
222.0226795848978
 20
202.6225213526278
 10
222.0226795848978
 20
202.7265907970462
 10
222.0226795848978
 20
202.8299546859092
 10
222.0226795848978
 20
202.9312019081062
 10
222.0226795848978
 20
203.0317435747476
 10
222.0226795848978
 20
203.1301685747232
 10
222.0226795848978
 20
203.2285935746987
 10
222.0226795848978
 20
203.3234907968973
 10
222.0226795848978
 20
203.418740796873
 10
222.0226795848978
 20
203.5115213524057
 10
222.0226795848978
 20
203.603243574605
 10
222.0226795848978
 20
203.6932019079156
 10
222.0226795848978
 20
203.7817491301157
 10
222.0226795848978
 20
203.8688852412055
 10
222.0226795848978
 20
203.9546102411836
 10
222.0226795848978
 20
204.0385713522741
 10
222.0226795848978
 20
204.121121352253
 10
222.0226795848978
 20
204.2019074633443
 10
222.0226795848978
 20
204.2816352411017
 10
222.0226795848978
 20
204.3595991299716
 10
222.0226795848978
 20
204.4365046855076
 10
222.0226795848978
 20
204.5109407966005
 10
222.0226795848978
 20
204.5853769076927
 10
222.0226795848978
 20
204.6566380187858
 10
222.0226795848978
 20
204.7278991298795
 10
222.0226795848978
 20
204.7970435743066
 10
222.0226795848978
 20
204.8651296854004
 10
222.0226795848978
 20
204.9310991298284
 10
222.0226795848978
 20
204.9960102409237
 10
222.0226795848978
 20
205.0588046853524
 10
222.0226795848978
 20
205.121599129781
 10
222.0226795848978
 20
205.1819241297661
 10
222.0226795848978
 20
205.2415435741956
 10
222.0226795848978
 20
205.2993991297363
 10
222.0226795848978
 20
205.3558435741665
 10
222.0226795848978
 20
205.4112296852642
 10
222.0226795848978
 20
205.4655574630285
 10
222.0226795848978
 20
205.5177685741263
 10
222.0226795848978
 20
205.5692741296692
 10
222.0226795848978
 20
205.6197213518788
 10
222.0226795848978
 20
205.6687574629774
 10
222.0226795848978
 20
205.7163824629656
 10
222.0226795848978
 20
205.7629491296204
 10
222.0226795848978
 20
205.808104685165
 10
222.0226795848978
 20
205.8525546851539
 10
222.0226795848978
 20
205.8952407962541
 10
222.0226795848978
 20
205.9382796851326
 10
222.0226795848978
 20
205.9788491295668
 10
222.0226795848978
 20
206.0187130184455
 10
222.0226795848978
 20
206.0575185739915
 10
222.0226795848978
 20
206.0959713517594
 10
222.0226795848978
 20
206.1326602406392
 10
222.0226795848978
 20
206.1689963517413
 10
222.0226795848978
 20
206.2035685739548
 10
222.0226795848978
 20
206.2384935739462
 10
222.0226795848978
 20
206.2713019072713
 10
222.0226795848978
 20
206.3044630183741
 10
222.0226795848978
 20
206.3355074628107
 10
222.0226795848978
 20
206.3672574628028
 10
222.0226795848978
 20
206.396890796129
 10
222.0226795848978
 20
206.4268769072323
 10
222.0226795848978
 20
206.4554519072252
 10
222.0226795848978
 20
206.4833213516626
 10
222.0226795848978
 20
206.5104852405451
 10
222.0226795848978
 20
206.5372963516491
 10
222.0226795848978
 20
206.5634019071984
 10
222.0226795848978
 20
206.5888019071921
 10
222.0226795848978
 20
206.613849129408
 10
222.0226795848978
 20
206.6385435738462
 10
222.0226795848978
 20
206.6625324627291
 10
222.0226795848978
 20
206.6854630182788
 10
222.0226795848978
 20
206.7087463516066
 10
222.0226795848978
 20
206.7309713516011
 10
222.0226795848978
 20
206.7528435738178
 10
222.0226795848978
 20
206.7747157960345
 10
222.0226795848978
 20
206.7958824626957
 10
222.0226795848978
 20
206.8170491293572
 10
222.0226795848978
 20
206.8375102404632
 10
222.0226795848978
 20
206.8576185737914
 10
222.0226795848978
 20
206.8770213515641
 10
222.0226795848978
 20
206.896776907115
 10
222.0226795848978
 20
206.9158269071102
 10
222.0226795848978
 20
206.9345241293277
 10
222.0226795848978
 20
206.9532213515452
 10
222.0226795848978
 20
206.971565795985
 10
222.0226795848978
 20
206.9902630182028
 10
222.0226795848978
 20
207.0079019070873
 10
222.0226795848978
 20
207.0258935737493
 10
222.0226795848978
 20
207.0431796848561
 10
222.0226795848978
 20
207.0604657959629
 10
222.0226795848978
 20
207.0781046848474
 10
222.0226795848978
 20
207.0950380181765
 10
222.0226795848978
 20
207.1112657959503
 10
222.0226795848978
 20
207.1281991292793
 10
222.0226795848978
 20
207.1447796848306
 10
222.0226795848978
 20
207.1610074626043
 10
222.0226795848978
 20
207.1768824626004
 10
222.0226795848978
 20
207.193463018152
 10
222.0226795848978
 20
207.2089852403703
 10
222.0226795848978
 20
207.2245074625886
 10
222.0226795848978
 20
207.2400296848069
 10
222.0226795848978
 20
207.2559046848029
 10
222.0226795848978
 20
207.2707213514657
 10
222.0226795848978
 20
207.2858907959066
 10
222.0226795848978
 20
207.3007074625696
 10
222.0226795848978
 20
207.3158769070102
 10
222.0226795848978
 20
207.3299880181178
 10
222.0226795848978
 20
207.3448046847809
 10
222.0226795848978
 20
207.3585630181106
 10
222.0226795848978
 20
207.373026906996
 10
222.0226795848978
 20
207.3867852403258
 10
222.0226795848978
 20
207.4005435736556
 10
222.0226795848978
 20
207.413949129208
 10
222.0226795848978
 20
207.4266491292048
 10
222.0226795848978
 20
207.4397019069794
 10
222.0226795848978
 20
207.4527546847537
 10
222.0226795848978
 20
207.4647491291953
 10
222.0226795848978
 20
207.4770963514144
 10
222.0226795848978
 20
207.488738018078
 10
222.0226795848978
 20
207.5003796847419
 10
222.0226795848978
 20
207.5109630180725
 10
222.0226795848978
 20
207.5222519069586
 10
222.0226795848978
 20
207.5324824625115
 10
222.0226795848978
 20
207.5427130180646
 10
222.0226795848978
 20
207.5518852402845
 10
222.0226795848978
 20
207.5614102402821
 10
222.0226795848978
 20
207.5702296847242
 10
222.0226795848978
 20
207.5783435736115
 10
222.0226795848978
 20
207.5857519069425
 10
222.0226795848978
 20
207.593513018052
 10
222.0226795848978
 20
207.6002157958282
 10
222.0226795848978
 20
207.6062130180488
 10
222.0226795848978
 20
207.6122102402695
 10
222.0226795848978
 20
207.6175019069346
 10
222.0226795848978
 20
207.6213824624894
 10
222.0226795848978
 20
207.6259685735993
 10
222.0226795848978
 20
207.6291435735985
 10
222.0226795848978
 20
207.6312602402647
 10
222.0226795848978
 20
207.6330241291529
 10
222.0226795848978
 20
207.634435240264
 10
222.0226795848978
 20
207.6347880180418
 10
222.0226795848978
 20
207.6337296847084
  0
LWPOLYLINE
  5
ED
330
70
100
AcDbEntity
  8
Standardebene
 62
     7
370
    35
100
AcDbPolyline
 90
       45
 70
     0
 43
0.0
 10
204.5231379226062
 20
186.5817158010826
 10
204.5220795892729
 20
186.5940630233017
 10
204.5213740337177
 20
186.6078213566319
 10
204.5189045892736
 20
186.6226380232946
 10
204.515376811497
 20
186.6392185788462
 10
204.5136129226085
 20
186.6480380232883
 10
204.5111434781645
 20
186.6568574677304
 10
204.5076157003876
 20
186.6667352455058
 10
204.5033823670554
 20
186.6773185788361
 10
204.5016184781669
 20
186.6833158010574
 10
204.4984434781677
 20
186.6886074677225
 10
204.4956212559462
 20
186.6953102454987
 10
204.4917407003918
 20
186.7020130232749
 10
204.4899768115033
 20
186.7055408010519
 10
204.4875073670593
 20
186.709421356606
 10
204.4846851448379
 20
186.7136546899385
 10
204.4822157003942
 20
186.7175352454932
 10
204.4786879226172
 20
186.7224741343806
 10
204.4748073670624
 20
186.7277658010457
 10
204.4723379226188
 20
186.7298824677123
 10
204.4702212559526
 20
186.7327046899337
 10
204.4677518115088
 20
186.7355269121552
 10
204.4652823670648
 20
186.7376435788211
 10
204.4628129226211
 20
186.7401130232654
 10
204.4603434781771
 20
186.7429352454869
 10
204.4575212559557
 20
186.7446991343751
 10
204.455051811512
 20
186.746815801041
 10
204.4508184781798
 20
186.7506963565957
 10
204.4465851448473
 20
186.7535185788172
 10
204.4430573670707
 20
186.7563408010386
 10
204.4391768115159
 20
186.7581046899274
 10
204.435649033739
 20
186.7602213565934
 10
204.4324740337398
 20
186.7619852454821
 10
204.4264768115191
 20
186.7648074677036
 10
204.4211851448536
 20
186.7672769121473
 10
204.4162462559659
 20
186.7693935788132
 10
204.4109545893008
 20
186.771157467702
 10
204.4024879226361
 20
186.773274134368
 10
204.3940212559718
 20
186.7750380232561
 10
204.3866129226401
 20
186.7764491343672
 10
204.3788518115309
 20
186.7768019121449
 10
204.3654462559789
 20
186.7782130232553
 10
204.352746255982
 20
186.7778602454782
 10
204.3414573670959
 20
186.7768019121449
 10
204.329815700432
 20
186.7757435788116
  0
LWPOLYLINE
  5
EE
330
70
100
AcDbEntity
  8
Standardebene
 62
     7
370
    35
100
AcDbPolyline
 90
       53
 70
     0
 43
0.0
 10
204.329815700432
 20
208.4267741289545
 10
204.3414573670959
 20
208.4257157956215
 10
204.352746255982
 20
208.4250102400663
 10
204.3654462559789
 20
208.4250102400663
 10
204.3788518115309
 20
208.4253630178441
 10
204.3866129226401
 20
208.4267741289545
 10
204.3940212559718
 20
208.42747968451
 10
204.4024879226361
 20
208.4295963511763
 10
204.411660144856
 20
208.43206579562
 10
204.4162462559659
 20
208.4334769067307
 10
204.4211851448536
 20
208.4355935733969
 10
204.4271823670746
 20
208.4380630178409
 10
204.4331795892952
 20
208.4408852400624
 10
204.4363545892945
 20
208.4426491289505
 10
204.4391768115159
 20
208.4444130178394
 10
204.4434101448481
 20
208.4472352400608
 10
204.4465851448473
 20
208.4493519067267
 10
204.4508184781798
 20
208.4525269067259
 10
204.4557573670672
 20
208.4560546845029
 10
204.4603434781771
 20
208.4606407956128
 10
204.4652823670648
 20
208.4655796845005
 10
204.4677518115088
 20
208.4676963511665
 10
204.4705740337303
 20
208.4708713511657
 10
204.473043478174
 20
208.4729880178319
 10
204.4748073670624
 20
208.4758102400537
 10
204.4790407003949
 20
208.4807491289411
 10
204.4822157003942
 20
208.4849824622736
 10
204.4875073670593
 20
208.4934491289379
 10
204.4917407003918
 20
208.5012102400474
 10
204.4956212559462
 20
208.5079130178232
 10
204.4984434781677
 20
208.5139102400439
 10
204.5016184781669
 20
208.5202602400423
 10
204.5040879226109
 20
208.5255519067078
 10
204.5076157003876
 20
208.5364880178162
 10
204.5111434781645
 20
208.5460130178138
 10
204.5136129226085
 20
208.5555380178115
 10
204.515376811497
 20
208.5640046844761
 10
204.5189045892736
 20
208.5798796844722
 10
204.5213740337177
 20
208.5946963511349
 10
204.5220795892729
 20
208.6084546844647
 10
204.5231379226062
 20
208.6215074622394
 10
204.5185518114962
 20
208.589051906692
 10
204.5069101448323
 20
208.5534213511452
 10
204.4984434781677
 20
208.5354296844832
 10
204.4875073670593
 20
208.5181435733761
 10
204.4748073670624
 20
208.5015630178248
 10
204.4610490337326
 20
208.4863935733843
 10
204.4448212559588
 20
208.4729880178319
 10
204.4278879226298
 20
208.4613463511681
 10
204.4102490337452
 20
208.4518213511707
 10
204.3922573670833
 20
208.4437074622838
 10
204.3559212559812
 20
208.4341824622862
 10
204.3178212559907
 20
208.4317130178425
  0
LWPOLYLINE
  5
EF
330
70
100
AcDbEntity
  8
Standardebene
 62
     7
370
    35
100
AcDbPolyline
 90
       13
 70
     0
 43
0.0
 10
204.3178212559907
 20
186.7715102454798
 10
204.3559212559812
 20
186.7683352454806
 10
204.3922573670833
 20
186.7591630232607
 10
204.4102490337452
 20
186.7514019121512
 10
204.4278879226298
 20
186.7411713565981
 10
204.4448212559588
 20
186.7295296899345
 10
204.4610490337326
 20
186.7161241343821
 10
204.4748073670624
 20
186.7009546899416
 10
204.4875073670593
 20
186.6850796899456
 10
204.4984434781677
 20
186.6677935788391
 10
204.5069101448323
 20
186.6494491343987
 10
204.5185518114962
 20
186.6138185788525
 10
204.5231379226062
 20
186.5764241344175
  0
LINE
  5
F0
330
70
100
AcDbEntity
  8
Standardebene
 62
     7
370
    35
100
AcDbLine
 10
178.5227101513284
 20
134.5864461649018
 30
0.0
 11
178.0231768181199
 21
134.0869128316936
 31
0.0
  0
LINE
  5
F1
330
70
100
AcDbEntity
  8
Standardebene
 62
     7
370
    35
100
AcDbLine
 10
178.0231768181199
 20
90.08670450936021
 30
0.0
 11
178.5227101513284
 21
89.58646562059648
 31
0.0
  0
LWPOLYLINE
  5
F2
330
70
100
AcDbEntity
  8
Standardebene
 62
     7
370
    35
100
AcDbPolyline
 90
       33
 70
     0
 43
0.0
 10
178.0231768181199
 20
90.08670450936021
 10
178.0231768181199
 20
90.19253784266682
 10
178.0231768181199
 20
90.50897950925467
 10
178.0231768181199
 20
91.03391284245656
 10
178.0231768181199
 20
91.76134062005244
 10
178.0231768181199
 20
92.68420728648839
 10
178.0231768181199
 20
93.79404617510003
 10
178.0231768181199
 20
95.08062673033361
 10
178.0231768181199
 20
96.530543396638
 10
178.0231768181199
 20
98.13003784068245
 10
178.0231768181199
 20
99.86429339580482
 10
178.0231768181199
 20
101.7156711731196
 10
178.0231768181199
 20
103.6675906170758
 10
178.0231768181199
 20
105.7002961721234
 10
178.0231768181199
 20
107.7943850604887
 10
178.0231768181199
 20
109.9304545043992
 10
178.0231768181199
 20
112.0866322816377
 10
178.0231768181199
 20
114.2431628366545
 10
178.0231768181199
 20
116.3785267250095
 10
178.0231768181199
 20
118.4726156133748
 10
178.0231768181199
 20
120.5053211684224
 10
178.0231768181199
 20
122.4572406123787
 10
178.0231768181199
 20
124.309323945249
 10
178.0231768181199
 20
126.0428739448152
 10
178.0231768181199
 20
127.6430739444152
 10
178.0231768181199
 20
129.0929906107195
 10
178.0231768181199
 20
130.3788656103982
 10
178.0231768181199
 20
131.4887044990099
 10
178.0231768181199
 20
132.4115711654458
 10
178.0231768181199
 20
133.1389989430417
 10
178.0231768181199
 20
133.6639322762436
 10
178.0231768181199
 20
133.9803739428308
 10
178.0231768181199
 20
134.0869128316936
  0
LWPOLYLINE
  5
F3
330
70
100
AcDbEntity
  8
Standardebene
 62
     7
370
    35
100
AcDbPolyline
 90
       35
 70
     0
 43
0.0
 10
178.5227101513284
 20
134.5864461649018
 10
178.5227101513284
 20
134.484846164927
 10
178.5227101513284
 20
134.1796933872256
 10
178.5227101513284
 20
133.6748683873516
 10
178.5227101513284
 20
132.9746044986382
 10
178.5227101513284
 20
132.0856044988603
 10
178.5227101513284
 20
131.0145711657947
 10
178.5227101513284
 20
129.7724406105495
 10
178.5227101513284
 20
128.370501722011
 10
178.5227101513284
 20
126.8211017223984
 10
178.5227101513284
 20
125.1379989450419
 10
178.5227101513284
 20
123.3367156121589
 10
178.5227101513284
 20
121.4331267237457
 10
178.5227101513284
 20
119.4459295020203
 10
178.5227101513284
 20
117.391351724756
 10
178.5227101513284
 20
115.2887961697264
 10
178.5227101513284
 20
113.1569600591477
 10
178.5227101513284
 20
111.0159517263499
 10
178.5227101513284
 20
108.8848211713273
 10
178.5227101513284
 20
106.7822656162971
 10
178.5227101513284
 20
104.7276878390334
 10
178.5227101513284
 20
102.7397850617525
 10
178.5227101513284
 20
100.8369017288948
 10
178.5227101513284
 20
99.03561839601193
 10
178.5227101513284
 20
97.35251561865471
 10
178.5227101513284
 20
95.80241006348659
 10
178.5227101513284
 20
94.40047117494811
 10
178.5227101513284
 20
93.15834061970353
 10
178.5227101513284
 20
92.08801284219282
 10
178.5227101513284
 20
91.19830728686002
 10
178.5227101513284
 20
90.49804339814599
 10
178.5227101513284
 20
89.99321839827265
 10
178.5227101513284
 20
89.68877117612613
 10
178.5227101513284
 20
89.58646562059648
 10
187.5227768157449
 20
89.58646562059648
  0
LINE
  5
F4
330
70
100
AcDbEntity
  8
Standardebene
 62
     7
370
    35
100
AcDbLine
 10
187.5227768157449
 20
134.5864461649018
 30
0.0
 11
178.5227101513284
 21
134.5864461649018
 31
0.0
  0
LWPOLYLINE
  5
F5
330
70
100
AcDbEntity
  8
Standardebene
 62
     7
370
    35
100
AcDbPolyline
 90
       34
 70
     0
 43
0.0
 10
187.5227768157449
 20
89.58646562059648
 10
187.5227768157449
 20
89.68877117612613
 10
187.5227768157449
 20
89.99321839827265
 10
187.5227768157449
 20
90.49804339814599
 10
187.5227768157449
 20
91.19830728686002
 10
187.5227768157449
 20
92.08801284219282
 10
187.5227768157449
 20
93.15834061970353
 10
187.5227768157449
 20
94.40047117494811
 10
187.5227768157449
 20
95.80241006348659
 10
187.5227768157449
 20
97.35251561865471
 10
187.5227768157449
 20
99.03561839601193
 10
187.5227768157449
 20
100.8369017288948
 10
187.5227768157449
 20
102.7397850617525
 10
187.5227768157449
 20
104.7276878390334
 10
187.5227768157449
 20
106.7822656162971
 10
187.5227768157449
 20
108.8848211713273
 10
187.5227768157449
 20
111.0159517263499
 10
187.5227768157449
 20
113.1569600591477
 10
187.5227768157449
 20
115.2887961697264
 10
187.5227768157449
 20
117.391351724756
 10
187.5227768157449
 20
119.4459295020203
 10
187.5227768157449
 20
121.4331267237457
 10
187.5227768157449
 20
123.3367156121589
 10
187.5227768157449
 20
125.1379989450419
 10
187.5227768157449
 20
126.8211017223984
 10
187.5227768157449
 20
128.370501722011
 10
187.5227768157449
 20
129.7724406105495
 10
187.5227768157449
 20
131.0145711657947
 10
187.5227768157449
 20
132.0856044988603
 10
187.5227768157449
 20
132.9746044986382
 10
187.5227768157449
 20
133.6748683873516
 10
187.5227768157449
 20
134.1796933872256
 10
187.5227768157449
 20
134.484846164927
 10
187.5227768157449
 20
134.5864461649018
  0
LINE
  5
F6
330
70
100
AcDbEntity
  8
Standardebene
 62
     7
370
    35
100
AcDbLine
 10
187.5227768157449
 20
89.58646562059648
 30
0.0
 11
188.023015704509
 21
90.08670450936021
 31
0.0
  0
LINE
  5
F7
330
70
100
AcDbEntity
  8
Standardebene
 62
     7
370
    35
100
AcDbLine
 10
188.023015704509
 20
134.0869128316936
 30
0.0
 11
187.5227768157449
 21
134.5864461649018
 31
0.0
  0
LWPOLYLINE
  5
F8
330
70
100
AcDbEntity
  8
Standardebene
 62
     7
370
    35
100
AcDbPolyline
 90
       33
 70
     0
 43
0.0
 10
188.023015704509
 20
134.0869128316936
 10
188.023015704509
 20
133.9803739428308
 10
188.023015704509
 20
133.6639322762436
 10
188.023015704509
 20
133.1389989430417
 10
188.023015704509
 20
132.4115711654458
 10
188.023015704509
 20
131.4887044990099
 10
188.023015704509
 20
130.3788656103982
 10
188.023015704509
 20
129.0929906107195
 10
188.023015704509
 20
127.6430739444152
 10
188.023015704509
 20
126.0428739448152
 10
188.023015704509
 20
124.309323945249
 10
188.023015704509
 20
122.4572406123787
 10
188.023015704509
 20
120.5053211684224
 10
188.023015704509
 20
118.4726156133748
 10
188.023015704509
 20
116.3785267250095
 10
188.023015704509
 20
114.2431628366545
 10
188.023015704509
 20
112.0866322816377
 10
188.023015704509
 20
109.9304545043992
 10
188.023015704509
 20
107.7943850604887
 10
188.023015704509
 20
105.7002961721234
 10
188.023015704509
 20
103.6675906170758
 10
188.023015704509
 20
101.7156711731196
 10
188.023015704509
 20
99.86429339580482
 10
188.023015704509
 20
98.13003784068245
 10
188.023015704509
 20
96.530543396638
 10
188.023015704509
 20
95.08062673033361
 10
188.023015704509
 20
93.79404617510003
 10
188.023015704509
 20
92.68420728648839
 10
188.023015704509
 20
91.76134062005244
 10
188.023015704509
 20
91.03391284245656
 10
188.023015704509
 20
90.50897950925467
 10
188.023015704509
 20
90.19253784266682
 10
188.023015704509
 20
90.08670450936021
  0
SPLINE
  5
F9
330
70
100
AcDbEntity
  8
Standardebene
 62
     7
370
    35
100
AcDbSpline
210
0.0
220
0.0
230
1.0
 70
     8
 71
     3
 72
     8
 73
     4
 74
     0
 42
0.0000000001
 43
0.0000000001
 40
0.0
 40
0.0
 40
0.0
 40
0.0
 40
1.0
 40
1.0
 40
1.0
 40
1.0
 10
188.023015704509
 20
128.261846166483
 30
0.0
 10
188.023015704509
 20
128.0406544998714
 30
0.0
 10
188.2018740377974
 20
127.861796166583
 30
0.0
 10
188.4230657044089
 20
127.861796166583
 30
0.0
  0
SPLINE
  5
FA
330
70
100
AcDbEntity
  8
Standardebene
 62
     7
370
    35
100
AcDbSpline
210
0.0
220
0.0
230
1.0
 70
     8
 71
     3
 72
     8
 73
     4
 74
     0
 42
0.0000000001
 43
0.0000000001
 40
0.0
 40
0.0
 40
0.0
 40
0.0
 40
1.0
 40
1.0
 40
1.0
 40
1.0
 10
188.4230657044089
 20
96.31182117447018
 30
0.0
 10
188.2018740377974
 20
96.31182117447018
 30
0.0
 10
188.023015704509
 20
96.13225728562618
 30
0.0
 10
188.023015704509
 20
95.91177117457018
 30
0.0
  0
LINE
  5
FB
330
70
100
AcDbEntity
  8
Standardebene
 62
     7
370
    35
100
AcDbLine
 10
190.0232657040089
 20
128.0364211665396
 30
0.0
 11
189.9650573706898
 21
127.978918388776
 31
0.0
  0
LINE
  5
FC
330
70
100
AcDbEntity
  8
Standardebene
 62
     7
370
    35
100
AcDbLine
 10
189.9650573706898
 20
96.19469895227776
 30
0.0
 11
190.0232657040089
 21
96.13649061895866
 31
0.0
  0
LWPOLYLINE
  5
FD
330
70
100
AcDbEntity
  8
Standardebene
 62
     7
370
    35
100
AcDbPolyline
 90
       28
 70
     0
 43
0.0
 10
190.0232657040089
 20
128.0364211665396
 10
190.0232657040089
 20
127.9288239443442
 10
190.0232657040089
 20
127.6063850555356
 10
190.0232657040089
 20
127.0747489445576
 10
190.0232657040089
 20
126.3402656114078
 10
190.0232657040089
 20
125.4128128338616
 10
190.0232657040089
 20
124.3050906119165
 10
190.0232657040089
 20
123.0322683900124
 10
190.0232657040089
 20
121.6109267237015
 10
190.0232657040089
 20
120.0615267240883
 10
190.0232657040089
 20
118.4038239467254
 10
190.0232657040089
 20
116.6611017249387
 10
190.0232657040089
 20
114.8562906142788
 10
190.0232657040089
 20
113.0137322814061
 10
190.0232657040089
 20
111.1591795040921
 10
190.0232657040089
 20
109.3169739489972
 10
190.0232657040089
 20
107.5118100605595
 10
190.0232657040089
 20
105.7690878387728
 10
190.0232657040089
 20
104.1113850614093
 10
190.0232657040089
 20
102.5619850617967
 10
190.0232657040089
 20
101.1413489510407
 10
190.0232657040089
 20
99.86782117358179
 10
190.0232657040089
 20
98.76080450719157
 10
190.0232657040089
 20
97.83335172964539
 10
190.0232657040089
 20
97.09816284094067
 10
190.0232657040089
 20
96.56617395218484
 10
190.0232657040089
 20
96.24408784115409
 10
190.0232657040089
 20
96.13649061895866
  0
LINE
  5
FE
330
70
100
AcDbEntity
  8
Standardebene
 62
     7
370
    35
100
AcDbLine
 10
202.723265700834
 20
128.0364211665396
 30
0.0
 11
190.0232657040089
 21
128.0364211665396
 31
0.0
  0
LINE
  5
FF
330
70
100
AcDbEntity
  8
Standardebene
 62
     7
370
    35
100
AcDbLine
 10
195.9979101469596
 20
96.13649061895866
 30
0.0
 11
202.723265700834
 21
96.13649061895866
 31
0.0
  0
LINE
  5
100
330
70
100
AcDbEntity
  8
Standardebene
 62
     7
370
    35
100
AcDbLine
 10
190.0232657040089
 20
96.13649061895866
 30
0.0
 11
192.0231629257311
 21
96.13649061895866
 31
0.0
  0
LWPOLYLINE
  5
101
330
70
100
AcDbEntity
  8
Standardebene
 62
     7
370
    35
100
AcDbPolyline
 90
       66
 70
     0
 43
0.0
 10
196.0233101469533
 20
96.13649061895866
 10
195.984857369185
 20
96.14142950784668
 10
195.9742740358544
 20
96.14248784117933
 10
195.9629851469683
 20
96.14389895229038
 10
195.950990702527
 20
96.14566284117854
 10
195.9368795914194
 20
96.14742673006736
 10
195.9061879247602
 20
96.15095450784432
 10
195.8712629247689
 20
96.15518784117618
 10
195.8317518136676
 20
96.15942117450867
 10
195.7876545914565
 20
96.16436006339604
 10
195.7636657025738
 20
96.16682950784039
 10
195.7393240359131
 20
96.16965173006184
 10
195.7128657025864
 20
96.17212117450552
 10
195.6864073692598
 20
96.17529617450472
 10
195.5696379248445
 20
96.18729061894605
 10
195.4387573693216
 20
96.19928506338737
 10
195.367849036006
 20
96.20528228560804
 10
195.2930601471356
 20
96.21163228560646
 10
195.2736573693629
 20
96.21339617449526
 10
195.2542545915899
 20
96.21445450782792
 10
195.2352045915946
 20
96.21621839671671
 10
195.2150962582664
 20
96.21762950782711
 10
195.1752323693874
 20
96.22045173004856
 10
195.1353684805087
 20
96.22362673004779
 10
194.9674462583282
 20
96.23456284115647
 10
194.7910573694835
 20
96.24408784115409
 10
194.7451962583837
 20
96.24585173004227
 10
194.6986295917289
 20
96.2483211744866
 10
194.6520629250737
 20
96.25008506337476
 10
194.605143480641
 20
96.25184895226356
 10
194.5102462584424
 20
96.25502395226277
 10
194.4146434806887
 20
96.25749339670647
 10
194.2213212585149
 20
96.26102117448343
 10
194.0244712585641
 20
96.26278506337159
 10
193.8283268141685
 20
96.26102117448343
 10
193.6342990364394
 20
96.25749339670647
 10
193.5386962586854
 20
96.25502395226277
 10
193.4445045920423
 20
96.25184895226356
 10
193.3968795920541
 20
96.25008506337476
 10
193.3503129253992
 20
96.2483211744866
 10
193.3044518142996
 20
96.24585173004227
 10
193.2585907031999
 20
96.24408784115409
 10
193.0814962587999
 20
96.23456284115647
 10
192.9135740366194
 20
96.22362673004779
 10
192.8730045921852
 20
96.22045173004856
 10
192.8331407033062
 20
96.21762950782711
 10
192.7939823699827
 20
96.21516006338342
 10
192.7551768144369
 20
96.21198506338423
 10
192.6810934811221
 20
96.20598784116355
 10
192.6098323700287
 20
96.19928506338737
 10
192.4785990367281
 20
96.18729061894605
 10
192.3614768145354
 20
96.17529617450472
 10
192.3343129256532
 20
96.17282673006103
 10
192.3089129256595
 20
96.16965173006184
 10
192.2835129256658
 20
96.16682950784039
 10
192.2598768145606
 20
96.16436006339604
 10
192.2157795923494
 20
96.15942117450867
 10
192.1766212590259
 20
96.15518784117618
 10
192.1409907034794
 20
96.15095450784432
 10
192.1102990368202
 20
96.14742673006736
 10
192.0961879257126
 20
96.14566284117854
 10
192.0834879257158
 20
96.14389895229038
 10
192.0721990368297
 20
96.14248784117933
 10
192.0619684812769
 20
96.14142950784668
 10
192.0330407035062
 20
96.13790173006972
 10
192.0231629257311
 20
96.13649061895866
  0
LINE
  5
102
330
70
100
AcDbEntity
  8
Standardebene
 62
     7
370
    35
100
AcDbLine
 10
195.9460518136393
 20
116.9182767248742
 30
0.0
 11
198.1001129242118
 21
116.9182767248742
 31
0.0
  0
LWPOLYLINE
  5
103
330
70
100
AcDbEntity
  8
Standardebene
 62
     7
370
    35
100
AcDbPolyline
 90
       21
 70
     0
 43
0.0
 10
198.3594045908135
 20
117.2350711692398
 10
198.344235146373
 20
117.1835656136969
 10
198.3255379241555
 20
117.133471169265
 10
198.3153073686023
 20
117.1087767248269
 10
198.3029601463832
 20
117.0851406137213
 10
198.2906129241641
 20
117.0611517248387
 10
198.275796257501
 20
117.0382211692887
 10
198.2602740352828
 20
117.0156433915165
 10
198.2433407019537
 20
116.9944767248553
 10
198.2341684797339
 20
116.9842461693021
 10
198.2239379241807
 20
116.9747211693045
 10
198.2137073686279
 20
116.9655489470846
 10
198.2034768130747
 20
116.9570822804202
 10
198.1918351464111
 20
116.9486156137559
 10
198.180546257525
 20
116.9415600582019
 10
198.1678462575282
 20
116.9348572804258
 10
198.1551462575313
 20
116.9292128359829
 10
198.1417407019793
 20
116.9249795026504
 10
198.1279823686492
 20
116.9214517248734
 10
198.1142240353193
 20
116.9189822804297
 10
198.1001129242118
 20
116.9182767248742
  0
LWPOLYLINE
  5
104
330
70
100
AcDbEntity
  8
Standardebene
 62
     7
370
    35
100
AcDbPolyline
 90
       10
 70
     0
 43
0.0
 10
198.3594045908135
 20
127.1826989445308
 10
198.7284101462769
 20
126.5836822780137
 10
199.0085157017624
 20
125.835087833756
 10
199.1972518128263
 20
124.9446767228677
 10
199.2914434794696
 20
123.9226795009013
 10
199.2914434794696
 20
122.7786211678539
 10
199.1972518128263
 20
121.5237906126118
 10
199.0085157017624
 20
120.1726517240607
 10
198.7284101462769
 20
118.7379045021975
 10
198.3594045908135
 20
117.2350711692398
  0
LWPOLYLINE
  5
105
330
70
100
AcDbEntity
  8
Standardebene
 62
     7
370
    35
100
AcDbPolyline
 90
       21
 70
     0
 43
0.0
 10
198.1001129242118
 20
127.2867683889492
 10
198.1142240353193
 20
127.2867683889492
 10
198.1279823686492
 20
127.2860628333937
 10
198.1346851464254
 20
127.2860628333937
 10
198.1417407019793
 20
127.2850045000604
 10
198.1484434797551
 20
127.2842989445049
 10
198.1551462575313
 20
127.28359338895
 10
198.1798407019695
 20
127.280065611173
 10
198.2034768130747
 20
127.275126722285
 10
198.2239379241807
 20
127.2691295000644
 10
198.2433407019537
 20
127.2624267222882
 10
198.2518073686184
 20
127.2596045000667
 10
198.2602740352828
 20
127.2560767222898
 10
198.2687407019474
 20
127.2521961667357
 10
198.275796257501
 20
127.2486683889587
 10
198.2906129241641
 20
127.2409072778492
 10
198.3029601463832
 20
127.2334989445175
 10
198.3146018130471
 20
127.2250322778532
 10
198.3255379241555
 20
127.2172711667443
 10
198.344235146373
 20
127.200337833415
 10
198.3594045908135
 20
127.1826989445308
  0
LINE
  5
106
330
70
100
AcDbEntity
  8
Standardebene
 62
     7
370
    35
100
AcDbLine
 10
198.1001129242118
 20
127.2867683889492
 30
0.0
 11
195.9460518136393
 21
127.2867683889492
 31
0.0
  0
LWPOLYLINE
  5
107
330
70
100
AcDbEntity
  8
Standardebene
 62
     7
370
    35
100
AcDbPolyline
 90
       21
 70
     0
 43
0.0
 10
195.6864073692598
 20
127.1826989445308
 10
195.7019295914781
 20
127.200337833415
 10
195.7206268136956
 20
127.2172711667443
 10
195.7308573692484
 20
127.2250322778532
 10
195.7424990359123
 20
127.2334989445175
 10
195.7559045914647
 20
127.2409072778492
 10
195.7696629247945
 20
127.2486683889587
 10
195.785890702568
 20
127.2560767222898
 10
195.8028240358973
 20
127.2624267222882
 10
195.8119962581172
 20
127.2663072778429
 10
195.8215212581148
 20
127.2691295000644
 10
195.8317518136676
 20
127.2723045000636
 10
195.842687924776
 20
127.275126722285
 10
195.8536240358844
 20
127.2775961667287
 10
195.865618480326
 20
127.280065611173
 10
195.8783184803229
 20
127.2818295000612
 10
195.8910184803197
 20
127.28359338895
 10
195.9044240358718
 20
127.2850045000604
 10
195.9181823692016
 20
127.2860628333937
 10
195.9322934803095
 20
127.2867683889492
 10
195.9460518136393
 20
127.2867683889492
  0
LWPOLYLINE
  5
108
330
70
100
AcDbEntity
  8
Standardebene
 62
     7
370
    35
100
AcDbPolyline
 90
       10
 70
     0
 43
0.0
 10
195.6864073692598
 20
117.2350711692398
 10
195.3177545915741
 20
118.7379045021975
 10
195.0376490360887
 20
120.1726517240607
 10
194.8489129250244
 20
121.5237906126118
 10
194.7543684806036
 20
122.7786211678539
 10
194.7543684806036
 20
123.9226795009013
 10
194.8489129250244
 20
124.9446767228677
 10
195.0376490360887
 20
125.835087833756
 10
195.3177545915741
 20
126.5836822780137
 10
195.6864073692598
 20
127.1826989445308
  0
LWPOLYLINE
  5
109
330
70
100
AcDbEntity
  8
Standardebene
 62
     7
370
    35
100
AcDbPolyline
 90
       21
 70
     0
 43
0.0
 10
195.9460518136393
 20
116.9182767248742
 10
195.9322934803095
 20
116.9189822804297
 10
195.9181823692016
 20
116.9214517248734
 10
195.9111268136479
 20
116.9225100582067
 10
195.9044240358718
 20
116.9246267248726
 10
195.8977212580956
 20
116.9263906137614
 10
195.8910184803197
 20
116.9292128359829
 10
195.865618480326
 20
116.9415600582019
 10
195.842687924776
 20
116.9570822804202
 10
195.8215212581148
 20
116.9747211693045
 10
195.8028240358973
 20
116.9944767248553
 10
195.7943573692326
 20
117.0047072804084
 10
195.785890702568
 20
117.0156433915165
 10
195.7774240359036
 20
117.0265795026251
 10
195.7696629247945
 20
117.0382211692887
 10
195.7559045914647
 20
117.0611517248387
 10
195.7432045914678
 20
117.0844350581665
 10
195.7308573692484
 20
117.1087767248269
 10
195.7206268136956
 20
117.133471169265
 10
195.7019295914781
 20
117.1835656136969
 10
195.6864073692598
 20
117.2350711692398
  0
LWPOLYLINE
  5
10A
330
70
100
AcDbEntity
  8
Standardebene
 62
     7
370
    35
100
AcDbPolyline
 90
       28
 70
     0
 43
0.0
 10
202.723265700834
 20
128.0364211665396
 10
202.723265700834
 20
127.9288239443442
 10
202.723265700834
 20
127.6063850555356
 10
202.723265700834
 20
127.0747489445576
 10
202.723265700834
 20
126.3402656114078
 10
202.723265700834
 20
125.4128128338616
 10
202.723265700834
 20
124.3050906119165
 10
202.723265700834
 20
123.0322683900124
 10
202.723265700834
 20
121.6109267237015
 10
202.723265700834
 20
120.0615267240883
 10
202.723265700834
 20
118.4038239467254
 10
202.723265700834
 20
116.6611017249387
 10
202.723265700834
 20
114.8562906142788
 10
202.723265700834
 20
113.0137322814061
 10
202.723265700834
 20
111.1591795040921
 10
202.723265700834
 20
109.3169739489972
 10
202.723265700834
 20
107.5118100605595
 10
202.723265700834
 20
105.7690878387728
 10
202.723265700834
 20
104.1113850614093
 10
202.723265700834
 20
102.5619850617967
 10
202.723265700834
 20
101.1413489510407
 10
202.723265700834
 20
99.86782117358179
 10
202.723265700834
 20
98.76080450719157
 10
202.723265700834
 20
97.83335172964539
 10
202.723265700834
 20
97.09816284094067
 10
202.723265700834
 20
96.56617395218484
 10
202.723265700834
 20
96.24408784115409
 10
202.723265700834
 20
96.13649061895866
  0
LINE
  5
10B
330
70
100
AcDbEntity
  8
Standardebene
 62
     7
370
    35
100
AcDbLine
 10
195.9460518136393
 20
96.88614339654904
 30
0.0
 11
198.1001129242118
 21
96.88614339654904
 31
0.0
  0
LWPOLYLINE
  5
10C
330
70
100
AcDbEntity
  8
Standardebene
 62
     7
370
    35
100
AcDbPolyline
 90
       21
 70
     0
 43
0.0
 10
198.3594045908135
 20
96.99021284096749
 10
198.344235146373
 20
96.97327950763813
 10
198.3255379241555
 20
96.95634617430945
 10
198.3153073686023
 20
96.9478795076451
 10
198.3029601463832
 20
96.94011839653562
 10
198.2906129241641
 20
96.93200450764905
 10
198.275796257501
 20
96.92424339653957
 10
198.2602740352828
 20
96.91754061876338
 10
198.2433407019537
 20
96.91048506320944
 10
198.2341684797339
 20
96.90731006321023
 10
198.2239379241807
 20
96.90378228543389
 10
198.2137073686279
 20
96.90131284098956
 10
198.2034768130747
 20
96.89813784099037
 10
198.1918351464111
 20
96.89602117432443
 10
198.180546257525
 20
96.89355172988074
 10
198.1678462575282
 20
96.89108228543705
 10
198.1551462575313
 20
96.88931839654825
 10
198.1417407019793
 20
96.88790728543784
 10
198.1279823686492
 20
96.88684895210457
 10
198.1142240353193
 20
96.88614339654904
 10
198.1001129242118
 20
96.88614339654904
  0
LWPOLYLINE
  5
10D
330
70
100
AcDbEntity
  8
Standardebene
 62
     7
370
    35
100
AcDbPolyline
 90
       10
 70
     0
 43
0.0
 10
198.3594045908135
 20
106.938546171814
 10
198.7284101462769
 20
105.4350072833007
 10
199.0085157017624
 20
104.0002600614375
 10
199.1972518128263
 20
102.6491211728864
 10
199.2914434794696
 20
101.3949961731999
 10
199.2914434794696
 20
100.2509378401524
 10
199.1972518128263
 20
99.22823506263055
 10
199.0085157017624
 20
98.33782395174159
 10
198.7284101462769
 20
97.58993506304003
 10
198.3594045908135
 20
96.99021284096749
  0
LWPOLYLINE
  5
10E
330
70
100
AcDbEntity
  8
Standardebene
 62
     7
370
    35
100
AcDbPolyline
 90
       21
 70
     0
 43
0.0
 10
198.1001129242118
 20
107.2549878384012
 10
198.1142240353193
 20
107.2539295050685
 10
198.1279823686492
 20
107.2521656161797
 10
198.1346851464254
 20
107.2504017272916
 10
198.1417407019793
 20
107.2486378384028
 10
198.1484434797551
 20
107.2461683939591
 10
198.1551462575313
 20
107.2436989495154
 10
198.1798407019695
 20
107.2320572828518
 10
198.2034768130747
 20
107.2165350606329
 10
198.2239379241807
 20
107.1981906161931
 10
198.2433407019537
 20
107.178435060643
 10
198.2518073686184
 20
107.1682045050898
 10
198.2602740352828
 20
107.1572683939811
 10
198.2687407019474
 20
107.1463322828731
 10
198.275796257501
 20
107.1353961717644
 10
198.2906129241641
 20
107.1121128384373
 10
198.3029601463832
 20
107.0884767273318
 10
198.3146018130471
 20
107.0641350606714
 10
198.3255379241555
 20
107.0401461717881
 10
198.344235146373
 20
106.9893461718014
 10
198.3594045908135
 20
106.938546171814
  0
LINE
  5
10F
330
70
100
AcDbEntity
  8
Standardebene
 62
     7
370
    35
100
AcDbLine
 10
198.1001129242118
 20
107.2549878384012
 30
0.0
 11
195.9460518136393
 21
107.2549878384012
 31
0.0
  0
LWPOLYLINE
  5
110
330
70
100
AcDbEntity
  8
Standardebene
 62
     7
370
    35
100
AcDbPolyline
 90
       21
 70
     0
 43
0.0
 10
195.6864073692598
 20
106.938546171814
 10
195.7019295914781
 20
106.9893461718014
 10
195.7206268136956
 20
107.0394406162332
 10
195.7308573692484
 20
107.0641350606714
 10
195.7424990359123
 20
107.0884767273318
 10
195.7559045914647
 20
107.1121128384373
 10
195.7696629247945
 20
107.1353961717644
 10
195.785890702568
 20
107.1572683939811
 10
195.8028240358973
 20
107.178435060643
 10
195.8119962581172
 20
107.1886656161955
 10
195.8215212581148
 20
107.1981906161931
 10
195.8317518136676
 20
107.2080683939685
 10
195.842687924776
 20
107.2165350606329
 10
195.8536240358844
 20
107.2242961717423
 10
195.865618480326
 20
107.2320572828518
 10
195.8783184803229
 20
107.2380545050725
 10
195.8910184803197
 20
107.2436989495154
 10
195.9044240358718
 20
107.2486378384028
 10
195.9181823692016
 20
107.2521656161797
 10
195.9322934803095
 20
107.2539295050685
 10
195.9460518136393
 20
107.2549878384012
  0
LWPOLYLINE
  5
111
330
70
100
AcDbEntity
  8
Standardebene
 62
     7
370
    35
100
AcDbPolyline
 90
       10
 70
     0
 43
0.0
 10
195.6864073692598
 20
96.99021284096749
 10
195.3177545915741
 20
97.58993506304003
 10
195.0376490360887
 20
98.33782395174159
 10
194.8489129250244
 20
99.22823506263055
 10
194.7543684806036
 20
100.2509378401524
 10
194.7543684806036
 20
101.3949961731999
 10
194.8489129250244
 20
102.6491211728864
 10
195.0376490360887
 20
104.0002600614375
 10
195.3177545915741
 20
105.4350072833007
 10
195.6864073692598
 20
106.938546171814
  0
LWPOLYLINE
  5
112
330
70
100
AcDbEntity
  8
Standardebene
 62
     7
370
    35
100
AcDbPolyline
 90
       21
 70
     0
 43
0.0
 10
195.9460518136393
 20
96.88614339654904
 10
195.9322934803095
 20
96.88614339654904
 10
195.9181823692016
 20
96.88684895210457
 10
195.9111268136479
 20
96.88755450766008
 10
195.9044240358718
 20
96.88790728543784
 10
195.8977212580956
 20
96.88861284099273
 10
195.8910184803197
 20
96.88931839654825
 10
195.865618480326
 20
96.89355172988074
 10
195.842687924776
 20
96.89813784099037
 10
195.8215212581148
 20
96.90378228543389
 10
195.8028240358973
 20
96.91048506320944
 10
195.7943573692326
 20
96.91401284098642
 10
195.785890702568
 20
96.91754061876338
 10
195.7774240359036
 20
96.92071561876261
 10
195.7696629247945
 20
96.92424339653957
 10
195.7559045914647
 20
96.93200450764905
 10
195.7432045914678
 20
96.94011839653562
 10
195.7308573692484
 20
96.9478795076451
 10
195.7206268136956
 20
96.95634617430945
 10
195.7019295914781
 20
96.97257395208326
 10
195.6864073692598
 20
96.99021284096749
  0
LINE
  5
113
330
70
100
AcDbEntity
  8
Standardebene
 62
     7
370
    35
100
AcDbLine
 10
202.723265700834
 20
96.13649061895866
 30
0.0
 11
203.0227740340921
 21
96.43670450777271
 31
0.0
  0
LINE
  5
114
330
70
100
AcDbEntity
  8
Standardebene
 62
     7
370
    35
100
AcDbLine
 10
203.0227740340921
 20
127.7369128332811
 30
0.0
 11
202.723265700834
 21
128.0364211665396
 31
0.0
  0
LWPOLYLINE
  5
115
330
70
100
AcDbEntity
  8
Standardebene
 62
     7
370
    35
100
AcDbPolyline
 90
       28
 70
     0
 43
0.0
 10
203.0227740340921
 20
127.7369128332811
 10
203.0227740340921
 20
127.6310794999738
 10
203.0227740340921
 20
127.3146378333866
 10
203.0227740340921
 20
126.7925267224055
 10
203.0227740340921
 20
126.0718017225858
 10
203.0227740340921
 20
125.1616350561467
 10
203.0227740340921
 20
124.0754322786406
 10
203.0227740340921
 20
122.8262461678421
 10
203.0227740340921
 20
121.4320683904124
 10
203.0227740340921
 20
119.9115961685705
 10
203.0227740340921
 20
118.2849378356436
 10
203.0227740340921
 20
116.57537672496
 10
203.0227740340921
 20
114.804079503181
 10
203.0227740340921
 20
112.9967989480768
 10
203.0227740340921
 20
111.1768183929763
 10
203.0227740340921
 20
109.3688322823172
 10
203.0227740340921
 20
107.5982406160931
 10
203.0227740340921
 20
105.887973949854
 10
203.0227740340921
 20
104.2613156169277
 10
203.0227740340921
 20
102.7408433950852
 10
203.0227740340921
 20
101.3466656176562
 10
203.0227740340921
 20
100.0981850624125
 10
203.0227740340921
 20
99.01127672935089
 10
203.0227740340921
 20
98.1011100629118
 10
203.0227740340921
 20
97.38038506309209
 10
203.0227740340921
 20
96.85827395211164
 10
203.0227740340921
 20
96.54253784107933
 10
203.0227740340921
 20
96.43670450777271
  0
SPLINE
  5
116
330
70
100
AcDbEntity
  8
Standardebene
 62
     7
370
    35
100
AcDbSpline
210
0.0
220
0.0
230
1.0
 70
     8
 71
     3
 72
     8
 73
     4
 74
     0
 42
0.0000000001
 43
0.0000000001
 40
0.0
 40
0.0
 40
0.0
 40
0.0
 40
1.0
 40
1.0
 40
1.0
 40
1.0
 10
189.6824823707607
 20
127.861796166583
 30
0.0
 10
189.7929018151776
 20
127.861796166583
 30
0.0
 10
189.8927379262635
 20
127.9065989443497
 30
0.0
 10
189.9650573706898
 20
127.978918388776
 30
0.0
  0
SPLINE
  5
117
330
70
100
AcDbEntity
  8
Standardebene
 62
     7
370
    35
100
AcDbSpline
210
0.0
220
0.0
230
1.0
 70
     8
 71
     3
 72
     8
 73
     4
 74
     0
 42
0.0000000001
 43
0.0000000001
 40
0.0
 40
0.0
 40
0.0
 40
0.0
 40
1.0
 40
1.0
 40
1.0
 40
1.0
 10
189.9650573706898
 20
96.19469895227776
 30
0.0
 10
189.8870934818206
 20
96.272662841147
 30
0.0
 10
189.7844351485129
 20
96.31182117447018
 30
0.0
 10
189.6824823707607
 20
96.31182117447018
 30
0.0
  0
LINE
  5
118
330
70
100
AcDbEntity
  8
Standardebene
 62
     7
370
    35
100
AcDbLine
 10
189.6824823707607
 20
127.861796166583
 30
0.0
 11
188.4230657044089
 21
127.861796166583
 31
0.0
  0
LINE
  5
119
330
70
100
AcDbEntity
  8
Standardebene
 62
     7
370
    35
100
AcDbLine
 10
188.4230657044089
 20
96.31182117447018
 30
0.0
 11
189.6824823707607
 21
96.31182117447018
 31
0.0
  0
SPLINE
  5
11A
330
70
100
AcDbEntity
  8
Standardebene
 62
     7
370
    35
100
AcDbSpline
210
0.0
220
0.0
230
1.0
 70
     8
 71
     3
 72
     8
 73
     4
 74
     0
 42
0.0000000001
 43
0.0000000001
 40
0.0
 40
0.0
 40
0.0
 40
0.0
 40
1.0
 40
1.0
 40
1.0
 40
1.0
 10
177.6481740404358
 20
124.3364878341308
 30
0.0
 10
177.7906962626226
 20
124.3364878341308
 30
0.0
 10
177.9212240403677
 20
124.3858767230078
 30
0.0
 10
178.0231768181199
 20
124.4680739452089
 30
0.0
  0
SPLINE
  5
11B
330
70
100
AcDbEntity
  8
Standardebene
 62
     7
370
    35
100
AcDbSpline
210
0.0
220
0.0
230
1.0
 70
     8
 71
     3
 72
     8
 73
     4
 74
     0
 42
0.0000000001
 43
0.0000000001
 40
0.0
 40
0.0
 40
0.0
 40
0.0
 40
1.0
 40
1.0
 40
1.0
 40
1.0
 10
178.0231768181199
 20
99.70483784028871
 30
0.0
 10
177.9120518181478
 20
99.79373784026664
 30
0.0
 10
177.7787018181809
 20
99.83712950692233
 30
0.0
 10
177.6481740404358
 20
99.8364239513668
 30
0.0
  0
SPLINE
  5
11C
330
70
100
AcDbEntity
  8
Standardebene
 62
     7
370
    35
100
AcDbSpline
210
0.0
220
0.0
230
1.0
 70
     8
 71
     3
 72
     8
 73
     4
 74
     0
 42
0.0000000001
 43
0.0000000001
 40
0.0
 40
0.0
 40
0.0
 40
0.0
 40
1.0
 40
1.0
 40
1.0
 40
1.0
 10
203.0227740340921
 20
123.0865961677767
 30
0.0
 10
203.4249407006584
 20
122.7853239456301
 30
0.0
 10
203.9802129227417
 20
122.8322433900627
 30
0.0
 10
204.329815700432
 20
123.1797295010865
 30
0.0
  0
LWPOLYLINE
  5
11D
330
70
100
AcDbEntity
  8
Standardebene
 62
     7
370
    35
100
AcDbPolyline
 90
        3
 70
     0
 43
0.0
 10
204.3178212559907
 20
122.6420961678878
 10
204.3238184782114
 20
122.6572656123283
 10
204.329815700432
 20
122.6720822789918
  0
LWPOLYLINE
  5
11E
330
70
100
AcDbEntity
  8
Standardebene
 62
     7
370
    35
100
AcDbPolyline
 90
       53
 70
     0
 43
0.0
 10
203.2178601451545
 20
122.051193390258
 10
203.2499629229243
 20
122.0113295013787
 10
203.2848879229156
 20
121.972876723611
 10
203.3035851451332
 20
121.953473945838
 10
203.3229879229062
 20
121.9347767236205
 10
203.3441545895674
 20
121.9164322791807
 10
203.3660268117841
 20
121.8984406125181
 10
203.3893101451119
 20
121.8808017236339
 10
203.41400458955
 20
121.8645739458601
 10
203.4274101451021
 20
121.8561072791957
 10
203.4415212562096
 20
121.8483461680862
 10
203.455985145095
 20
121.8409378347545
 10
203.470801811758
 20
121.8338822792012
 10
203.4866768117541
 20
121.8278850569806
 10
203.5036101450832
 20
121.822240612537
 10
203.5120768117478
 20
121.8194183903156
 10
203.5205434784122
 20
121.8169489458719
 10
203.5290101450768
 20
121.8144795014282
 10
203.5385351450745
 20
121.8127156125394
 10
203.556174033959
 20
121.8088350569853
 10
203.5748712561765
 20
121.8067183903187
 10
203.5840434783964
 20
121.8060128347639
 10
203.593568478394
 20
121.8053072792083
 10
203.6030934783917
 20
121.8053072792083
 10
203.6129712561671
 20
121.8053072792083
 10
203.6316684783846
 20
121.8067183903187
 10
203.6496601450465
 20
121.8084822792075
 10
203.6680045894866
 20
121.8120100569845
 10
203.6852907005934
 20
121.8155378347615
 10
203.7022240339224
 20
121.8204767236489
 10
203.7180990339185
 20
121.825768390314
 10
203.7336212561367
 20
121.8324711680902
 10
203.7487907005773
 20
121.8384683903108
 10
203.776660145015
 20
121.8529322791965
 10
203.8027657005639
 20
121.868101723637
 10
203.8267545894469
 20
121.8850350569657
 10
203.8496851449965
 20
121.9019683902951
 10
203.8708518116581
 20
121.9196072791799
 10
203.8913129227641
 20
121.9375989458419
 10
203.9100101449816
 20
121.9552378347261
 10
203.9283545894213
 20
121.9739350569436
 10
203.9622212560797
 20
122.0113295013787
 10
203.993618478294
 20
122.0487239458143
 10
204.0225462560644
 20
122.0868239458042
 10
204.0497101449465
 20
122.1249239457947
 10
204.0761684782732
 20
122.1630239457853
 10
204.1005101449339
 20
122.2011239457758
 10
204.1449601449229
 20
122.2776767235347
 10
204.1862351449126
 20
122.3528183901825
 10
204.2229240337921
 20
122.4269017234969
 10
204.2574962560057
 20
122.4999267234788
 10
204.2888934782201
 20
122.5718933901274
 10
204.3178212559907
 20
122.6420961678878
  0
LINE
  5
11F
330
70
100
AcDbEntity
  8
Standardebene
 62
     7
370
    35
100
AcDbLine
 10
203.0227740340921
 20
121.9407739458411
 30
0.0
 11
203.0238323674254
 21
121.9968656124936
 31
0.0
  0
LWPOLYLINE
  5
120
330
70
100
AcDbEntity
  8
Standardebene
 62
     7
370
    35
100
AcDbPolyline
 90
       34
 70
     0
 43
0.0
 10
203.0322990340898
 20
122.0730656124747
 10
203.0397073674215
 20
122.1019933902454
 10
203.0432351451981
 20
122.1104600569097
 10
203.0467629229751
 20
122.1182211680186
 10
203.0509962563073
 20
122.1256295013503
 10
203.055935145195
 20
122.1326850569042
 10
203.0619323674156
 20
122.1383295013471
 10
203.0693407007473
 20
122.1436211680122
 10
203.0735740340795
 20
122.1453850569011
 10
203.078865700745
 20
122.1467961680115
 10
203.0845101451879
 20
122.1478545013447
 10
203.0905073674086
 20
122.1485600569003
 10
203.0940351451855
 20
122.1485600569003
 10
203.0982684785177
 20
122.1478545013447
 10
203.1025018118502
 20
122.1467961680115
 10
203.1074407007379
 20
122.1453850569011
 10
203.1120268118478
 20
122.1436211680122
 10
203.1176712562907
 20
122.1418572791241
 10
203.1229629229562
 20
122.1393878346804
 10
203.1286073673991
 20
122.1358600569034
 10
203.1338990340645
 20
122.1326850569042
 10
203.1391907007296
 20
122.1291572791272
 10
203.1448351451729
 20
122.1256295013503
 10
203.1494212562829
 20
122.1217489457955
 10
203.1543601451705
 20
122.1182211680186
 10
203.1585934785027
 20
122.1146933902422
 10
203.1628268118349
 20
122.1104600569097
 10
203.1670601451674
 20
122.1069322791328
 10
203.1744684784988
 20
122.0995239458011
 10
203.1822295896079
 20
122.0928211680255
 10
203.1889323673841
 20
122.0850600569161
 10
203.1949295896048
 20
122.0783572791399
 10
203.2069240340461
 20
122.0645989458097
 10
203.2178601451545
 20
122.051193390258
  0
LWPOLYLINE
  5
121
330
70
100
AcDbEntity
  8
Standardebene
 62
     7
370
    35
100
AcDbPolyline
 90
       37
 70
     0
 43
0.0
 10
203.2178601451545
 20
110.9002406152678
 10
203.2069240340461
 20
110.8769572819401
 10
203.1949295896048
 20
110.8547322819456
 10
203.1889323673841
 20
110.8437961708375
 10
203.1822295896079
 20
110.8335656152844
 10
203.1748212562765
 20
110.8233350597312
 10
203.1670601451674
 20
110.8131045041787
 10
203.1585934785027
 20
110.8039322819589
 10
203.1494212562829
 20
110.7961711708494
 10
203.1448351451729
 20
110.7926433930724
 10
203.1398962562852
 20
110.7894683930732
 10
203.1338990340645
 20
110.7869989486295
 10
203.1289601451768
 20
110.7859406152962
 10
203.1229629229562
 20
110.7852350597407
 10
203.1176712562907
 20
110.7852350597407
 10
203.1120268118478
 20
110.7869989486295
 10
203.1074407007379
 20
110.7894683930732
 10
203.0982684785177
 20
110.7961711708494
 10
203.0905073674086
 20
110.8046378375137
 10
203.0838045896327
 20
110.8141628375114
 10
203.078865700745
 20
110.82509894862
 10
203.0735740340795
 20
110.8360350597281
 10
203.0693407007473
 20
110.8469711708368
 10
203.0619323674156
 20
110.8699017263868
 10
203.055935145195
 20
110.8938906152694
 10
203.0509962563073
 20
110.9182322819298
 10
203.0467629229751
 20
110.9422211708131
 10
203.0432351451981
 20
110.967268393029
 10
203.0397073674215
 20
110.9919628374672
 10
203.0347684785338
 20
111.0413517263435
 10
203.0305351452013
 20
111.0910933929976
 10
203.0280657007576
 20
111.1411878374295
 10
203.0255962563139
 20
111.191282281862
 10
203.0245379229806
 20
111.2413767262939
 10
203.0234795896477
 20
111.2921767262812
 10
203.0227740340921
 20
111.3422711707131
 10
203.0227740340921
 20
111.3930711706998
  0
LWPOLYLINE
  5
122
330
70
100
AcDbEntity
  8
Standardebene
 62
     7
370
    35
100
AcDbPolyline
 90
       53
 70
     0
 43
0.0
 10
204.3178212559907
 20
109.728312837783
 10
204.2888934782201
 20
109.8743628377467
 10
204.2574962560057
 20
110.0193545043772
 10
204.2236295893476
 20
110.1636406154521
 10
204.1869407004678
 20
110.3075739487492
 10
204.1463712560336
 20
110.4493906153805
 10
204.1022740338224
 20
110.5908545042339
 10
204.0779323671617
 20
110.6603517264388
 10
204.0521795893905
 20
110.7298489486437
 10
204.0253684782861
 20
110.7993461708486
 10
203.9964407005155
 20
110.8674322819424
 10
203.9650434783011
 20
110.9351656152592
 10
203.9311768116427
 20
111.0021933930203
 10
203.9131851449808
 20
111.0346489485674
 10
203.8937823672077
 20
111.0674572818928
 10
203.8733212561017
 20
111.0995600596626
 10
203.8521545894405
 20
111.1302517263214
 10
203.8299295894461
 20
111.1609433929803
 10
203.8055879227854
 20
111.1895183929732
 10
203.7794823672364
 20
111.2173878374106
 10
203.7519657005765
 20
111.2424350596265
 10
203.736796256136
 20
111.2547822818456
 10
203.7216268116954
 20
111.2657183929543
 10
203.7053990339216
 20
111.2752433929519
 10
203.6884657005926
 20
111.2847683929495
 10
203.6715323672633
 20
111.2921767262812
 10
203.653893478379
 20
111.2981739485019
 10
203.6351962561612
 20
111.3031128373893
 10
203.6164990339437
 20
111.3059350596107
 10
203.6069740339461
 20
111.3066406151663
 10
203.5978018117262
 20
111.3066406151663
 10
203.5882768117286
 20
111.3066406151663
 10
203.5783990339532
 20
111.3059350596107
 10
203.5597018117357
 20
111.3031128373893
 10
203.5417101450737
 20
111.2981739485019
 10
203.5325379228538
 20
111.2949989485027
 10
203.5233657006336
 20
111.2921767262812
 10
203.5145462561915
 20
111.2879433929487
 10
203.5060795895268
 20
111.2844156151718
 10
203.4898518117533
 20
111.2752433929519
 10
203.4739768117573
 20
111.2650128373987
 10
203.4588073673164
 20
111.2540767262907
 10
203.4436379228759
 20
111.2420822818487
 10
203.4298795895461
 20
111.2293822818519
 10
203.4164740339937
 20
111.2166822818551
 10
203.3907212562226
 20
111.1895183929732
 10
203.3670851451174
 20
111.1605906152025
 10
203.3448601451229
 20
111.1302517263214
 10
203.3240462562392
 20
111.0988545041071
 10
203.3035851451332
 20
111.0667517263372
 10
203.2848879229156
 20
111.0342961707896
 10
203.2499629229243
 20
110.9683267263617
 10
203.2178601451545
 20
110.9002406152678
  0
LWPOLYLINE
  5
123
330
70
100
AcDbEntity
  8
Standardebene
 62
     7
370
    35
100
AcDbPolyline
 90
        3
 70
     0
 43
0.0
 10
204.329815700432
 20
109.6655183933543
 10
204.3238184782114
 20
109.6969156155686
 10
204.3178212559907
 20
109.728312837783
  0
LWPOLYLINE
  5
124
330
70
100
AcDbEntity
  8
Standardebene
 62
     7
370
    35
100
AcDbPolyline
 90
        3
 70
     0
 43
0.0
 10
204.3178212559907
 20
103.8891350614651
 10
204.3238184782114
 20
103.9053628392389
 10
204.329815700432
 20
103.9219433947899
  0
LWPOLYLINE
  5
125
330
70
100
AcDbEntity
  8
Standardebene
 62
     7
370
    35
100
AcDbPolyline
 90
       53
 70
     0
 43
0.0
 10
203.2178601451545
 20
103.3088156171656
 10
203.2499629229243
 20
103.2802406171727
 10
203.2848879229156
 20
103.2530767282908
 10
203.3035851451332
 20
103.2400239505162
 10
203.3229879229062
 20
103.2273239505194
 10
203.3441545895674
 20
103.2149767283003
 10
203.3660268117841
 20
103.202982283859
 10
203.3893101451119
 20
103.1916933949726
 10
203.41400458955
 20
103.1807572838645
 10
203.4274101451021
 20
103.1758183949765
 10
203.4415212562096
 20
103.1708795060891
 10
203.455985145095
 20
103.1666461727566
 10
203.470801811758
 20
103.1624128394248
 10
203.4866768117541
 20
103.1588850616478
 10
203.5036101450832
 20
103.1553572838708
 10
203.5120768117478
 20
103.1539461727598
 10
203.5205434784122
 20
103.1521822838716
 10
203.5290101450768
 20
103.1511239505383
 10
203.5385351450745
 20
103.1497128394279
 10
203.556174033959
 20
103.1486545060946
 10
203.5748712561765
 20
103.1475961727613
 10
203.5840434783964
 20
103.1475961727613
 10
203.593568478394
 20
103.1475961727613
 10
203.6030934783917
 20
103.1479489505391
 10
203.6129712561671
 20
103.1479489505391
 10
203.6316684783846
 20
103.1493600616502
 10
203.6496601450465
 20
103.1518295060938
 10
203.6680045894866
 20
103.1546517283153
 10
203.6852907005934
 20
103.1578267283145
 10
203.7022240339224
 20
103.1613545060915
 10
203.7180990339185
 20
103.165587839424
 10
203.7336212561367
 20
103.1708795060891
 10
203.7487907005773
 20
103.1758183949765
 10
203.776660145015
 20
103.1867545060852
 10
203.8027657005639
 20
103.198043394971
 10
203.8267545894469
 20
103.2107433949678
 10
203.8496851449965
 20
103.2234433949647
 10
203.8708518116581
 20
103.236848950517
 10
203.8913129227641
 20
103.2502545060694
 10
203.9100101449816
 20
103.2640128393989
 10
203.9283545894213
 20
103.2784767282845
 10
203.9622212560797
 20
103.3074045060552
 10
203.993618478294
 20
103.3370378393807
 10
204.0225462560644
 20
103.3673767282618
 10
204.0497101449465
 20
103.3980683949213
 10
204.0761684782732
 20
103.4301711726912
 10
204.1005101449339
 20
103.4626267282382
 10
204.1449601449229
 20
103.5285961726661
 10
204.1862351449126
 20
103.5966822837605
 10
204.2229240337921
 20
103.6668850615203
 10
204.2574962560057
 20
103.7388517281696
 10
204.2888934782201
 20
103.8132878392618
 10
204.3178212559907
 20
103.8891350614651
  0
LWPOLYLINE
  5
126
330
70
100
AcDbEntity
  8
Standardebene
 62
     7
370
    35
100
AcDbPolyline
 90
       38
 70
     0
 43
0.0
 10
203.0238323674254
 20
102.9987239505768
 10
203.0255962563139
 20
103.0410572838992
 10
203.0280657007576
 20
103.0713961727803
 10
203.0305351452013
 20
103.1020878394397
 10
203.0347684785338
 20
103.1334850616541
 10
203.0397073674215
 20
103.1662933949789
 10
203.0432351451981
 20
103.1825211727527
 10
203.0467629229751
 20
103.199454506082
 10
203.0509962563073
 20
103.2163878394107
 10
203.055935145195
 20
103.2336739505178
 10
203.0619323674156
 20
103.251312839402
 10
203.0693407007473
 20
103.2700100616195
 10
203.0735740340795
 20
103.2791822838394
 10
203.078865700745
 20
103.2880017282822
 10
203.0845101451879
 20
103.2978795060576
 10
203.0905073674086
 20
103.3070517282774
 10
203.0940351451855
 20
103.3116378393871
 10
203.0982684785177
 20
103.3158711727196
 10
203.1025018118502
 20
103.3208100616069
 10
203.1074407007379
 20
103.3250433949394
 10
203.1120268118478
 20
103.3285711727164
 10
203.1176712562907
 20
103.3328045060482
 10
203.1229629229562
 20
103.3352739504926
 10
203.1286073673991
 20
103.3377433949363
 10
203.1338990340645
 20
103.3395072838244
 10
203.1391907007296
 20
103.3412711727132
 10
203.1448351451729
 20
103.3419767282688
 10
203.1494212562829
 20
103.3419767282688
 10
203.1543601451705
 20
103.3419767282688
 10
203.1585934785027
 20
103.3412711727132
 10
203.1628268118349
 20
103.34021283938
 10
203.1670601451674
 20
103.3395072838244
 10
203.1744684784988
 20
103.3370378393807
 10
203.1822295896079
 20
103.3342156171593
 10
203.1889323673841
 20
103.3303350616046
 10
203.1949295896048
 20
103.3268072838276
 10
203.2069240340461
 20
103.3183406171632
 10
203.2178601451545
 20
103.3088156171656
  0
LINE
  5
127
330
70
100
AcDbEntity
  8
Standardebene
 62
     7
370
    35
100
AcDbLine
 10
78.52326295410612
 20
99.58630450698526
 30
0.0
 11
175.5230407076339
 21
99.58630450698526
 31
0.0
  0
LINE
  5
128
330
70
100
AcDbEntity
  8
Standardebene
 62
     7
370
    35
100
AcDbLine
 10
175.5230407076339
 20
124.586607278513
 30
0.0
 11
78.52326295410612
 21
124.586607278513
 31
0.0
  0
LWPOLYLINE
  5
129
330
70
100
AcDbEntity
  8
Standardebene
 62
     7
370
    35
100
AcDbPolyline
 90
       25
 70
     0
 43
0.0
 10
175.5230407076339
 20
124.586607278513
 10
175.5230407076339
 20
124.4797156118731
 10
175.5230407076339
 20
124.1608045008415
 10
175.5230407076339
 20
123.6351656120842
 10
175.5230407076339
 20
122.9119711678201
 10
175.5230407076339
 20
122.0035683902698
 10
175.5230407076339
 20
120.9251267238725
 10
175.5230407076339
 20
119.6960489464019
 10
175.5230407076339
 20
118.3367961689642
 10
175.5230407076339
 20
116.8699461693311
 10
175.5230407076339
 20
115.3219572808289
 10
175.5230407076339
 20
113.718229503452
 10
175.5230407076339
 20
112.0866322816377
 10
175.5230407076339
 20
110.4550350598234
 10
175.5230407076339
 20
108.8516600602242
 10
175.5230407076339
 20
107.3033183939449
 10
175.5230407076339
 20
105.8368211720889
 10
175.5230407076339
 20
104.4768628390957
 10
175.5230407076339
 20
103.2477850616251
 10
175.5230407076339
 20
102.1693433952284
 10
175.5230407076339
 20
101.2609406176775
 10
175.5230407076339
 20
100.5377461734141
 10
175.5230407076339
 20
100.0128128402115
 10
175.5230407076339
 20
99.69319617362517
 10
175.5230407076339
 20
99.58630450698526
  0
LWPOLYLINE
  5
12A
330
70
100
AcDbEntity
  8
Standardebene
 62
     7
370
    35
100
AcDbPolyline
 90
       25
 70
     0
 43
0.0
 10
78.52326295410612
 20
124.586607278513
 10
78.52326295410612
 20
124.4797156118731
 10
78.52326295410612
 20
124.1608045008415
 10
78.52326295410612
 20
123.6351656120842
 10
78.52326295410612
 20
122.9119711678201
 10
78.52326295410612
 20
122.0035683902698
 10
78.52326295410612
 20
120.9251267238725
 10
78.52326295410612
 20
119.6960489464019
 10
78.52326295410612
 20
118.3367961689642
 10
78.52326295410612
 20
116.8699461693311
 10
78.52326295410612
 20
115.3219572808289
 10
78.52326295410612
 20
113.718229503452
 10
78.52326295410612
 20
112.0866322816377
 10
78.52326295410612
 20
110.4550350598234
 10
78.52326295410612
 20
108.8516600602242
 10
78.52326295410612
 20
107.3033183939449
 10
78.52326295410612
 20
105.8368211720889
 10
78.52326295410612
 20
104.4768628390957
 10
78.52326295410612
 20
103.2477850616251
 10
78.52326295410612
 20
102.1693433952284
 10
78.52326295410612
 20
101.2609406176775
 10
78.52326295410612
 20
100.5377461734141
 10
78.52326295410612
 20
100.0128128402115
 10
78.52326295410612
 20
99.69319617362517
 10
78.52326295410612
 20
99.58630450698526
  0
LINE
  5
12B
330
70
100
AcDbEntity
  8
Standardebene
 62
     7
370
    35
100
AcDbLine
 10
175.5230407076339
 20
99.58630450698526
 30
0.0
 11
176.3795851518642
 21
99.81596284026112
 31
0.0
  0
LINE
  5
12C
330
70
100
AcDbEntity
  8
Standardebene
 62
     7
370
    35
100
AcDbLine
 10
176.3795851518642
 20
124.3569489452371
 30
0.0
 11
175.5230407076339
 21
124.586607278513
 31
0.0
  0
LINE
  5
12D
330
70
100
AcDbEntity
  8
Standardebene
 62
     7
370
    35
100
AcDbLine
 10
78.52326295410612
 20
124.586607278513
 30
0.0
 11
78.02302406534209
 21
124.0863683897493
 31
0.0
  0
LINE
  5
12E
330
70
100
AcDbEntity
  8
Standardebene
 62
     7
370
    35
100
AcDbLine
 10
78.02302406534209
 20
100.086543395749
 30
0.0
 11
78.52326295410612
 21
99.58630450698526
 31
0.0
  0
LWPOLYLINE
  5
12F
330
70
100
AcDbEntity
  8
Standardebene
 62
     7
370
    35
100
AcDbPolyline
 90
       25
 70
     0
 43
0.0
 10
78.02302406534209
 20
100.086543395749
 10
78.02302406534209
 20
100.1892017290564
 10
78.02302406534209
 20
100.495412840091
 10
78.02302406534209
 20
100.9998850621873
 10
78.02302406534209
 20
101.6941517286806
 10
78.02302406534209
 20
102.5662183951292
 10
78.02302406534209
 20
103.6016211726479
 10
78.02302406534209
 20
104.7813100612422
 10
78.02302406534209
 20
106.0862350609156
 10
78.02302406534209
 20
107.4941711716747
 10
78.02302406534209
 20
108.9804239490808
 10
78.02302406534209
 20
110.5199461709186
 10
78.02302406534209
 20
112.0866322816377
 10
78.02302406534209
 20
113.6529656145796
 10
78.02302406534209
 20
115.1924878364168
 10
78.02302406534209
 20
116.6787406138229
 10
78.02302406534209
 20
118.0866767245821
 10
78.02302406534209
 20
119.391601724256
 10
78.02302406534209
 20
120.5719961684052
 10
78.02302406534209
 20
121.606693390369
 10
78.02302406534209
 20
122.4787600568176
 10
78.02302406534209
 20
123.173026723311
 10
78.02302406534209
 20
123.6774989454065
 10
78.02302406534209
 20
123.9837100564412
 10
78.02302406534209
 20
124.0863683897493
  0
SPLINE
  5
130
330
70
100
AcDbEntity
  8
Standardebene
 62
     7
370
    35
100
AcDbSpline
210
0.0
220
0.0
230
1.0
 70
     8
 71
     3
 72
     8
 73
     4
 74
     0
 42
0.0000000001
 43
0.0000000001
 40
0.0
 40
0.0
 40
0.0
 40
0.0
 40
1.0
 40
1.0
 40
1.0
 40
1.0
 10
176.5348073740475
 20
99.8364239513668
 30
0.0
 10
176.4797740407279
 20
99.8364239513668
 30
0.0
 10
176.4261518185191
 20
99.82936839581348
 30
0.0
 10
176.3795851518642
 20
99.81596284026112
 30
0.0
  0
SPLINE
  5
131
330
70
100
AcDbEntity
  8
Standardebene
 62
     7
370
    35
100
AcDbSpline
210
0.0
220
0.0
230
1.0
 70
     8
 71
     3
 72
     8
 73
     4
 74
     0
 42
0.0000000001
 43
0.0000000001
 40
0.0
 40
0.0
 40
0.0
 40
0.0
 40
1.0
 40
1.0
 40
1.0
 40
1.0
 10
176.3795851518642
 20
124.3569489452371
 30
0.0
 10
176.4332073740731
 20
124.3424850563515
 30
0.0
 10
176.4864768185041
 20
124.3357822785753
 30
0.0
 10
176.5348073740475
 20
124.3364878341308
 30
0.0
  0
LINE
  5
132
330
70
100
AcDbEntity
  8
Standardebene
 62
     7
370
    35
100
AcDbLine
 10
177.6481740404358
 20
124.3364878341308
 30
0.0
 11
176.5348073740475
 21
124.3364878341308
 31
0.0
  0
LINE
  5
133
330
70
100
AcDbEntity
  8
Standardebene
 62
     7
370
    35
100
AcDbLine
 10
176.5348073740475
 20
99.8364239513668
 30
0.0
 11
177.6481740404358
 21
99.8364239513668
 31
0.0
  0
LWPOLYLINE
  5
134
330
70
100
AcDbEntity
  8
Standardebene
 62
     7
370
    35
100
AcDbPolyline
 90
        3
 70
     0
 43
0.0
 10
221.0232601407033
 20
123.3970406121433
 10
212.9845129204907
 20
123.5988295009818
 10
204.9461184780558
 20
123.8013239453758
  0
LWPOLYLINE
  5
135
330
70
100
AcDbEntity
  8
Standardebene
 62
     7
370
    35
100
AcDbPolyline
 90
        3
 70
     0
 43
0.0
 10
204.5231379226062
 20
101.7611795064412
 10
211.105618476516
 20
101.9266322841779
 10
217.6891573637591
 20
102.092085061914
  0
LWPOLYLINE
  5
136
330
70
100
AcDbEntity
  8
Standardebene
 62
     7
370
    35
100
AcDbPolyline
 90
      129
 70
     0
 43
0.0
 10
204.5231379226062
 20
109.6521128378019
 10
204.5231379226062
 20
109.7244322822283
 10
204.5231379226062
 20
109.7963989488768
 10
204.5231379226062
 20
109.8912961710754
 10
204.5231379226062
 20
109.9868989488295
 10
204.5231379226062
 20
110.083912837694
 10
204.5231379226062
 20
110.1812795043363
 10
204.5231379226062
 20
110.2814683932
 10
204.5231379226062
 20
110.3813045042866
 10
204.5231379226062
 20
110.483962837594
 10
204.5231379226062
 20
110.5866211709021
 10
204.5231379226062
 20
110.6917489486532
 10
204.5231379226062
 20
110.7961711708494
 10
204.5231379226062
 20
110.9037683930448
 10
204.5231379226062
 20
111.0106600596847
 10
204.5231379226062
 20
111.1207267263238
 10
204.5231379226062
 20
111.2304406151852
 10
204.5231379226062
 20
111.3422711707131
 10
204.5231379226062
 20
111.4533961706849
 10
204.5231379226062
 20
111.5676961706565
 10
204.5231379226062
 20
111.6816433928503
 10
204.5231379226062
 20
111.7977072817101
 10
204.5231379226062
 20
111.9137711705699
 10
204.5231379226062
 20
112.0315989483184
 10
204.5231379226062
 20
112.1494267260664
 10
204.5231379226062
 20
112.2690183927031
 10
204.5231379226062
 20
112.3886100593399
 10
204.5231379226062
 20
112.5099656148654
 10
204.5231379226062
 20
112.6313211703904
 10
204.5231379226062
 20
112.7544406148041
 10
204.5231379226062
 20
112.87720728144
 10
204.5231379226062
 20
113.0017378369648
 10
204.5231379226062
 20
113.1259156147112
 10
204.5231379226062
 20
113.2522100591241
 10
204.5231379226062
 20
113.3774461702037
 10
204.5231379226062
 20
113.50479894795
 10
204.5231379226062
 20
113.6310933923629
 10
204.5231379226062
 20
113.759151725664
 10
204.5231379226062
 20
113.8872100589657
 10
204.5231379226062
 20
114.0159739478223
 10
204.5231379226062
 20
114.1443850589012
 10
204.5231379226062
 20
114.2738545033133
 10
204.5231379226062
 20
114.4036767255033
 10
204.5231379226062
 20
114.5334989476925
 10
204.5231379226062
 20
114.6633211698824
 10
204.5231379226062
 20
114.7938489476278
 10
204.5231379226062
 20
114.9243767253727
 10
204.5231379226062
 20
115.0549045031181
 10
204.5231379226062
 20
115.1854322808629
 10
204.5231379226062
 20
115.3159600586083
 10
204.5231379226062
 20
115.4464878363537
 10
204.5231379226062
 20
115.5773683918763
 10
204.5231379226062
 20
115.7071906140662
 10
204.5231379226062
 20
115.837718391811
 10
204.5231379226062
 20
115.9675406140008
 10
204.5231379226062
 20
116.0973628361908
 10
204.5231379226062
 20
116.2268322806029
 10
204.5231379226062
 20
116.3566545027928
 10
204.5231379226062
 20
116.4854183916494
 10
204.5231379226062
 20
116.6138295027283
 10
204.5231379226062
 20
116.7418878360294
 10
204.5231379226062
 20
116.8695933915534
 10
204.5231379226062
 20
116.9969461692989
 10
204.5231379226062
 20
117.1232406137119
 10
204.5231379226062
 20
117.2488295025693
 10
204.5231379226062
 20
117.3744183914273
 10
204.5231379226062
 20
117.4989489469515
 10
204.5231379226062
 20
117.6227739469207
 10
204.5231379226062
 20
117.7458933913344
 10
204.5231379226062
 20
117.8686600579704
 10
204.5231379226062
 20
117.9900156134953
 10
204.5231379226062
 20
118.1110183912431
 10
204.5231379226062
 20
118.2306100578798
 10
204.5231379226062
 20
118.3494961689611
 10
204.5231379226062
 20
118.4680295022645
 10
204.5231379226062
 20
118.5844461689021
 10
204.5231379226062
 20
118.7005100577625
 10
204.5231379226062
 20
118.8151628355112
 10
204.5231379226062
 20
118.9294628354828
 10
204.5231379226062
 20
119.0416461687879
 10
204.5231379226062
 20
119.1534767243158
 10
204.5231379226062
 20
119.2635433909549
 10
204.5231379226062
 20
119.3732572798163
 10
204.5231379226062
 20
119.4808545020117
 10
204.5231379226062
 20
119.5877461686516
 10
204.5231379226062
 20
119.6935795019582
 10
204.5231379226062
 20
119.7980017241544
 10
204.5231379226062
 20
119.9006600574618
 10
204.5231379226062
 20
120.0022600574366
 10
204.5231379226062
 20
120.1024489463003
 10
204.5231379226062
 20
120.2008739462758
 10
204.5231379226062
 20
120.2982406129181
 10
204.5231379226062
 20
120.3949017240055
 10
204.5231379226062
 20
120.4890933906486
 10
204.5231379226062
 20
120.5822267239583
 10
204.5231379226062
 20
120.6739489461577
 10
204.5231379226062
 20
120.7646128350238
 10
204.5231379226062
 20
120.8528072794462
 10
204.5231379226062
 20
120.9410017238686
 10
204.5231379226062
 20
121.0260211682918
 10
204.5231379226062
 20
121.1106878349372
 10
204.5231379226062
 20
121.1935906126945
 10
204.5231379226062
 20
121.2750822793407
 10
204.5231379226062
 20
121.3548100570987
 10
204.5231379226062
 20
121.4331267237457
 10
204.5231379226062
 20
121.5093267237268
 10
204.5231379226062
 20
121.5855267237079
 10
204.5231379226062
 20
121.6585517236891
 10
204.5231379226062
 20
121.7315767236709
 10
204.5231379226062
 20
121.8017795014314
 10
204.5231379226062
 20
121.8712767236362
 10
204.5231379226062
 20
121.9383045013974
 10
204.5231379226062
 20
122.005332279158
 10
204.5231379226062
 20
122.0695378346978
 10
204.5231379226062
 20
122.1326850569042
 10
204.5231379226062
 20
122.1944211679996
 10
204.5231379226062
 20
122.2547461679847
 10
204.5231379226062
 20
122.3133072790815
 10
204.5231379226062
 20
122.3708100568444
 10
204.5231379226062
 20
122.4261961679421
 10
204.5231379226062
 20
122.4812295012613
 10
204.5231379226062
 20
122.5337933901375
 10
204.5231379226062
 20
122.5852989456797
 10
204.5231379226062
 20
122.6353933901116
 10
204.5231379226062
 20
122.6844295012108
 10
204.5231379226062
 20
122.732054501199
 10
204.5231379226062
 20
122.7779156122984
 10
204.5231379226062
 20
122.8128406122897
 10
204.5231379226062
 20
122.8474128345033
  0
LWPOLYLINE
  5
137
330
70
100
AcDbEntity
  8
Standardebene
 62
     7
370
    35
100
AcDbPolyline
 90
       20
 70
     0
 43
0.0
 10
204.9514101447213
 20
123.8006183898203
 10
204.9418851447237
 20
123.7826267231583
 10
204.936946255836
 20
123.7727489453829
 10
204.929890700282
 20
123.7607545009416
 10
204.9224823669506
 20
123.745585056501
 10
204.914015700286
 20
123.7293572787272
 10
204.8942601447355
 20
123.6894933898485
 10
204.8706240336303
 20
123.642926723193
 10
204.8441657003036
 20
123.5893045009841
 10
204.8148851447552
 20
123.5293322787769
 10
204.7834879225408
 20
123.4630100565719
 10
204.750326811438
 20
123.3903378343678
 10
204.715401811447
 20
123.3123739454979
 10
204.6790657003449
 20
123.2291183899635
 10
204.6603684781274
 20
123.1857267233078
 10
204.6409657003544
 20
123.1409239455411
 10
204.6222684781369
 20
123.0950628344411
 10
204.6025129225861
 20
123.0474378344529
 10
204.5630018114849
 20
122.9500711678107
 10
204.5231379226062
 20
122.8474128345033
  0
LWPOLYLINE
  5
138
330
70
100
AcDbEntity
  8
Standardebene
 62
     7
370
    35
100
AcDbPolyline
 90
       64
 70
     0
 43
0.0
 10
204.5231379226062
 20
101.7611795064412
 10
204.5231379226062
 20
101.7640017286633
 10
204.5231379226062
 20
101.7671767286625
 10
204.5231379226062
 20
101.7714100619943
 10
204.5231379226062
 20
101.777407284215
 10
204.5231379226062
 20
101.7841100619912
 10
204.5231379226062
 20
101.7925767286555
 10
204.5231379226062
 20
101.8021017286532
 10
204.5231379226062
 20
101.8123322842063
 10
204.5231379226062
 20
101.8246795064254
 10
204.5231379226062
 20
101.8377322842
 10
204.5231379226062
 20
101.8518433953079
 10
204.5231379226062
 20
101.8673656175262
 10
204.5231379226062
 20
101.8842989508549
 10
204.5231379226062
 20
101.9019378397398
 10
204.5231379226062
 20
101.9206350619573
 10
204.5231379226062
 20
101.9410961730629
 10
204.5231379226062
 20
101.9622628397248
 10
204.5231379226062
 20
101.9844878397193
 10
204.5231379226062
 20
102.0081239508241
 10
204.5231379226062
 20
102.0328183952623
 10
204.5231379226062
 20
102.058218395256
 10
204.5231379226062
 20
102.0853822841379
 10
204.5231379226062
 20
102.1132517285759
 10
204.5231379226062
 20
102.141473950791
 10
204.5231379226062
 20
102.1711072841166
 10
204.5231379226062
 20
102.2021517285532
 10
204.5231379226062
 20
102.2335489507675
 10
204.5231379226062
 20
102.2660045063152
 10
204.5231379226062
 20
102.2998711729732
 10
204.5231379226062
 20
102.3337378396319
 10
204.5231379226062
 20
102.3686628396232
 10
204.5231379226062
 20
102.4049989507249
 10
204.5231379226062
 20
102.4413350618267
 10
204.5231379226062
 20
102.4787295062623
 10
204.5231379226062
 20
102.5175350618077
 10
204.5231379226062
 20
102.555987839576
 10
204.5231379226062
 20
102.5958517284547
 10
204.5231379226062
 20
102.6364211728896
 10
204.5231379226062
 20
102.6773433951016
 10
204.5231379226062
 20
102.7186183950907
 10
204.5231379226062
 20
102.7613045061915
 10
204.5231379226062
 20
102.8036378395139
 10
204.5231379226062
 20
102.8466767283924
 10
204.5231379226062
 20
102.8900683950481
 10
204.5231379226062
 20
102.9348711728148
 10
204.5231379226062
 20
102.978968395026
 10
204.5231379226062
 20
103.0248295061254
 10
204.5231379226062
 20
103.0699850616699
 10
204.5231379226062
 20
103.1158461727692
 10
204.5231379226062
 20
103.162060061647
 10
204.5231379226062
 20
103.2082739505241
 10
204.5231379226062
 20
103.254840617179
 10
204.5231379226062
 20
103.3021128393894
 10
204.5231379226062
 20
103.3490322838221
 10
204.5231379226062
 20
103.397010061588
 10
204.5231379226062
 20
103.4446350615762
 10
204.5231379226062
 20
103.4922600615644
 10
204.5231379226062
 20
103.5402378393303
 10
204.5231379226062
 20
103.5885683948733
 10
204.5231379226062
 20
103.6361933948615
 10
204.5231379226062
 20
103.684876728183
 10
204.5231379226062
 20
103.7226239503957
 10
204.5231379226062
 20
103.7607239503863
  0
LWPOLYLINE
  5
139
330
70
100
AcDbEntity
  8
Standardebene
 62
     7
370
    35
100
AcDbPolyline
 90
       39
 70
     0
 43
0.0
 10
204.5231379226062
 20
109.6521128378019
 10
204.6025129225861
 20
109.2086711712463
 10
204.6780073670117
 20
108.7687572824676
 10
204.7146962558915
 20
108.5503878380775
 10
204.7492684781051
 20
108.3316656159097
 10
204.7824295892079
 20
108.1147072826307
 10
204.8138268114223
 20
107.8984545049072
 10
204.8434601447481
 20
107.6822017271837
 10
204.8699184780748
 20
107.4677128383483
 10
204.8819129225164
 20
107.3608211717084
 10
204.8935545891799
 20
107.2539295050685
 10
204.8988462558454
 20
107.2006600606368
 10
204.9044907002883
 20
107.1470378384286
 10
204.909429589176
 20
107.0944739495524
 10
204.914015700286
 20
107.0412045051214
 10
204.929890700282
 20
106.8327128385067
 10
204.9418851447237
 20
106.6281017274468
 10
204.9492934780551
 20
106.4280767274971
 10
204.9514101447213
 20
106.2319322831015
 10
204.9492934780551
 20
106.0403739498162
 10
204.9418851447237
 20
105.8530489498627
 10
204.936946255836
 20
105.7613267276634
 10
204.929890700282
 20
105.6699572832417
 10
204.9224823669506
 20
105.5799989499312
 10
204.914015700286
 20
105.4918045055088
 10
204.8942601447355
 20
105.318943394441
 10
204.8706240336303
 20
105.1534906167042
 10
204.8441657003036
 20
104.9929767278555
 10
204.8148851447552
 20
104.8381072834503
 10
204.7834879225408
 20
104.6878239501541
 10
204.750326811438
 20
104.5428322835236
 10
204.715401811447
 20
104.4020739502257
 10
204.6790657003449
 20
104.2655489502596
 10
204.6603684781274
 20
104.198521172499
 10
204.6409657003544
 20
104.133257283626
 10
204.6222684781369
 20
104.0686989503091
 10
204.6025129225861
 20
104.0044933947694
 10
204.5630018114849
 20
103.8806683948008
 10
204.5231379226062
 20
103.7607239503863
  0
LWPOLYLINE
  5
13A
330
70
100
AcDbEntity
  8
Standardebene
 62
     7
370
    35
100
AcDbPolyline
 90
        3
 70
     0
 43
0.0
 10
218.6730545857352
 20
102.2945795063081
 10
219.8481573632193
 20
102.3192739507462
 10
221.0232601407033
 20
102.3439683951844
  0
LWPOLYLINE
  5
13B
330
70
100
AcDbEntity
  8
Standardebene
 62
     7
370
    35
100
AcDbPolyline
 90
       23
 70
     0
 43
0.0
 10
217.6785740304285
 20
102.092085061914
 10
217.6842184748714
 20
102.0927906174696
 10
217.7000934748674
 20
102.095612839691
 10
217.7265518081941
 20
102.100551728579
 10
217.7635934748517
 20
102.1072545063552
 10
217.7741768081823
 20
102.1090183952434
 10
217.7854656970684
 20
102.1114878396871
 10
217.7967545859542
 20
102.1132517285759
 10
217.8087490303958
 20
102.1157211730196
 10
217.8352073637225
 20
102.1199545063521
 10
217.8623712526047
 20
102.1252461730172
 10
217.9230490303671
 20
102.1368878396808
 10
217.9893712525728
 20
102.1495878396776
 10
218.0609851414439
 20
102.1633461730077
 10
218.1375379192024
 20
102.1785156174483
 10
218.2186768080709
 20
102.1954489507776
 10
218.3036962524941
 20
102.2130878396618
 10
218.3474406969278
 20
102.2226128396595
 10
218.3918906969165
 20
102.2321378396571
 10
218.4373990302387
 20
102.241310061877
 10
218.483260141338
 20
102.2515406174301
 10
218.5767462524259
 20
102.2727072840913
 10
218.6730545857352
 20
102.2945795063081
  0
LWPOLYLINE
  5
13C
330
70
100
AcDbEntity
  8
Standardebene
 62
     7
370
    35
100
AcDbPolyline
 90
      105
 70
     0
 43
0.0
 10
221.0232601407033
 20
123.3970406121433
 10
221.0232601407033
 20
123.3970406121433
 10
221.0232601407033
 20
123.3963350565884
 10
221.0232601407033
 20
123.3952767232551
 10
221.0232601407033
 20
123.3942183899219
 10
221.0232601407033
 20
123.3924545010337
 10
221.0232601407033
 20
123.38998505659
 10
221.0232601407033
 20
123.3875156121457
 10
221.0232601407033
 20
123.385046167702
 10
221.0232601407033
 20
123.381518389925
 10
221.0232601407033
 20
123.3776378343709
 10
221.0232601407033
 20
123.3734045010384
 10
221.0232601407033
 20
123.3688183899282
 10
221.0232601407033
 20
123.3638795010408
 10
221.0232601407033
 20
123.3585878343756
 10
221.0232601407033
 20
123.3522378343772
 10
221.0232601407033
 20
123.3458878343788
 10
221.0232601407033
 20
123.3391850566026
 10
221.0232601407033
 20
123.3317767232709
 10
221.0232601407033
 20
123.3240156121621
 10
221.0232601407033
 20
123.3155489454971
 10
221.0232601407033
 20
123.3063767232772
 10
221.0232601407033
 20
123.2968517232796
 10
221.0232601407033
 20
123.2866211677271
 10
221.0232601407033
 20
123.2756850566184
 10
221.0232601407033
 20
123.2647489455097
 10
221.0232601407033
 20
123.2527545010684
 10
221.0232601407033
 20
123.2400545010715
 10
221.0232601407033
 20
123.2266489455198
 10
221.0232601407033
 20
123.2128906121897
 10
221.0232601407033
 20
123.1977211677492
 10
221.0232601407033
 20
123.1825517233086
 10
221.0232601407033
 20
123.1663239455348
 10
221.0232601407033
 20
123.1493906122055
 10
221.0232601407033
 20
123.1317517233212
 10
221.0232601407033
 20
123.1130545011037
 10
221.0232601407033
 20
123.0943572788862
 10
221.0232601407033
 20
123.0738961677799
 10
221.0232601407033
 20
123.0527295011187
 10
221.0232601407033
 20
123.0305045011242
 10
221.0232601407033
 20
123.007926723352
 10
221.0232601407033
 20
122.9839378344693
 10
221.0232601407033
 20
122.9595961678083
 10
221.0232601407033
 20
122.9338433900375
 10
221.0232601407033
 20
122.9073850567105
 10
221.0232601407033
 20
122.8795156122731
 10
221.0232601407033
 20
122.8509406122802
 10
221.0232601407033
 20
122.8202489456214
 10
221.0232601407033
 20
122.7899100567397
 10
221.0232601407033
 20
122.7574545011927
 10
221.0232601407033
 20
122.7242933900895
 10
221.0232601407033
 20
122.689721167876
 10
221.0232601407033
 20
122.6547961678846
 10
221.0232601407033
 20
122.6177545012274
 10
221.0232601407033
 20
122.5796545012369
 10
221.0232601407033
 20
122.540496167913
 10
221.0232601407033
 20
122.4999267234788
 10
221.0232601407033
 20
122.4582989457113
 10
221.0232601407033
 20
122.4156128346111
 10
221.0232601407033
 20
122.3708100568444
 10
221.0232601407033
 20
122.3256545013006
 10
221.0232601407033
 20
122.2783822790902
 10
221.0232601407033
 20
122.2300517235465
 10
221.0232601407033
 20
122.1799572791146
 10
221.0232601407033
 20
122.1298628346828
 10
221.0232601407033
 20
122.0765933902517
 10
221.0232601407033
 20
122.0229711680429
 10
221.0232601407033
 20
121.9672322791675
 10
221.0232601407033
 20
121.911140612515
 10
221.0232601407033
 20
121.8525795014187
 10
221.0232601407033
 20
121.793312834767
 10
221.0232601407033
 20
121.7315767236709
 10
221.0232601407033
 20
121.6694878347978
 10
221.0232601407033
 20
121.6049295014802
 10
221.0232601407033
 20
121.5403711681634
 10
221.0232601407033
 20
121.4726378348466
 10
221.0232601407033
 20
121.4049045015306
 10
221.0232601407033
 20
121.3343489459924
 10
221.0232601407033
 20
121.2630878348993
 10
221.0232601407033
 20
121.1897100571397
 10
221.0232601407033
 20
121.1156267238252
 10
221.0232601407033
 20
121.0394267238442
 10
221.0232601407033
 20
120.9621683905298
 10
221.0232601407033
 20
120.8827933905501
 10
221.0232601407033
 20
120.8027128350143
 10
221.0232601407033
 20
120.7205156128126
 10
221.0232601407033
 20
120.637612835056
 10
221.0232601407033
 20
120.5525933906328
 10
221.0232601407033
 20
120.4661628350986
 10
221.0232601407033
 20
120.3779683906762
 10
221.0232601407033
 20
120.2890683906983
 10
221.0232601407033
 20
120.1984045018322
 10
221.0232601407033
 20
120.1066822796328
 10
221.0232601407033
 20
120.0131961685453
 10
221.0232601407033
 20
119.9182989463467
 10
221.0232601407033
 20
119.8223433908148
 10
221.0232601407033
 20
119.7249767241725
 10
221.0232601407033
 20
119.6258461686421
 10
221.0232601407033
 20
119.5256572797784
 10
221.0232601407033
 20
119.4240572798036
 10
221.0232601407033
 20
119.3213989464956
 10
221.0232601407033
 20
119.2176822798549
 10
221.0232601407033
 20
119.1125545021038
 10
221.0232601407033
 20
119.0405878354552
 10
221.0232601407033
 20
118.968621168806
  0
LWPOLYLINE
  5
13D
330
70
100
AcDbEntity
  8
Standardebene
 62
     7
370
    35
100
AcDbPolyline
 90
        3
 70
     0
 43
0.0
 10
218.6730545857352
 20
119.051876724341
 10
219.8481573632193
 20
119.0102489465735
 10
221.0232601407033
 20
118.968621168806
  0
LWPOLYLINE
  5
13E
330
70
100
AcDbEntity
  8
Standardebene
 62
     7
370
    35
100
AcDbPolyline
 90
       45
 70
     0
 43
0.0
 10
218.6730545857352
 20
114.9134406142646
 10
218.5774518079814
 20
115.0397350586775
 10
218.483260141338
 20
115.1660295030905
 10
218.3929490302498
 20
115.2940878363916
 10
218.3047545858273
 20
115.4228517252482
 10
218.2200879191819
 20
115.5533795029936
 10
218.1389490303132
 20
115.6849656140717
 10
218.0620434747769
 20
115.8183156140386
 10
217.9897240303505
 20
115.9530767251159
 10
217.9555045859148
 20
116.0215156139875
 10
217.9223434748119
 20
116.0910128361923
 10
217.891299030375
 20
116.1598045028417
 10
217.8620184748269
 20
116.2296545028244
 10
217.808396252618
 20
116.3700600583445
 10
217.7635934748517
 20
116.5108183916431
 10
217.7269045859719
 20
116.6533406138292
 10
217.7000934748674
 20
116.7969211693493
 10
217.694801808202
 20
116.833257280451
 10
217.6909212526475
 20
116.8688878359978
 10
217.6870406970928
 20
116.9052239470996
 10
217.6838656970936
 20
116.9419128359797
 10
217.6796323637614
 20
117.0138795026283
 10
217.6785740304285
 20
117.0858461692769
 10
217.6842184748714
 20
117.2276628359081
 10
217.7000934748674
 20
117.3673628358734
 10
217.7265518081941
 20
117.5056517247276
 10
217.7635934748517
 20
117.6414711691382
 10
217.7741768081823
 20
117.6753378357963
 10
217.7854656970684
 20
117.7092045024543
 10
217.7967545859542
 20
117.7423656135575
 10
217.8087490303958
 20
117.77552672466
 10
217.8352073637225
 20
117.8414961690879
 10
217.8623712526047
 20
117.9060545024054
 10
217.9230490303671
 20
118.0323489468183
 10
217.9893712525728
 20
118.1561739467869
 10
218.0609851414439
 20
118.2764711689792
 10
218.1375379192024
 20
118.3942989467278
 10
218.2186768080709
 20
118.5089517244765
 10
218.3036962524941
 20
118.6218406133371
 10
218.3474406969278
 20
118.6775795022125
 10
218.3918906969165
 20
118.7329656133095
 10
218.4373990302387
 20
118.7872933910738
 10
218.483260141338
 20
118.8412683910604
 10
218.5767462524259
 20
118.9474545021448
 10
218.6730545857352
 20
119.051876724341
  0
LWPOLYLINE
  5
13F
330
70
100
AcDbEntity
  8
Standardebene
 62
     7
370
    35
100
AcDbPolyline
 90
        3
 70
     0
 43
0.0
 10
221.0232601407033
 20
114.9473072809227
 10
219.8481573632193
 20
114.9303739475933
 10
218.6730545857352
 20
114.9134406142646
  0
LWPOLYLINE
  5
140
330
70
100
AcDbEntity
  8
Standardebene
 62
     7
370
    35
100
AcDbPolyline
 90
      209
 70
     0
 43
0.0
 10
221.0232601407033
 20
114.9473072809227
 10
221.0232601407033
 20
114.8615822809439
 10
221.0232601407033
 20
114.7758572809659
 10
221.0232601407033
 20
114.6488572809974
 10
221.0232601407033
 20
114.5215045032512
 10
221.0232601407033
 20
114.3952100588383
 10
221.0232601407033
 20
114.2682100588705
 10
221.0232601407033
 20
114.1426211700131
 10
221.0232601407033
 20
114.0163267256001
 10
221.0232601407033
 20
113.8914433922976
 10
221.0232601407033
 20
113.7658545034402
 10
221.0232601407033
 20
113.6420295034709
 10
221.0232601407033
 20
113.5167933923913
 10
221.0232601407033
 20
113.3936739479776
 10
221.0232601407033
 20
113.2705545035638
 10
221.0232601407033
 20
113.1484933924834
 10
221.0232601407033
 20
113.0257267258474
 10
221.0232601407033
 20
112.9050767258774
 10
221.0232601407033
 20
112.7840739481303
 10
221.0232601407033
 20
112.665187837049
 10
221.0232601407033
 20
112.5455961704123
 10
221.0232601407033
 20
112.4277683926637
 10
221.0232601407033
 20
112.3099406149151
 10
221.0232601407033
 20
112.1938767260553
 10
221.0232601407033
 20
112.0774600594178
 10
221.0232601407033
 20
111.9631600594462
 10
221.0232601407033
 20
111.8485072816975
 10
221.0232601407033
 20
111.7366767261696
 10
221.0232601407033
 20
111.623787837309
 10
221.0232601407033
 20
111.5137211706699
 10
221.0232601407033
 20
111.403301726253
 10
221.0232601407033
 20
111.2949989485027
 10
221.0232601407033
 20
111.1870489485295
 10
221.0232601407033
 20
111.0812156152222
 10
221.0232601407033
 20
110.9750295041379
 10
221.0232601407033
 20
110.8709600597194
 10
221.0232601407033
 20
110.7672433930787
 10
221.0232601407033
 20
110.6663489486595
 10
221.0232601407033
 20
110.5647489486847
 10
221.0232601407033
 20
110.4663239487098
 10
221.0232601407033
 20
110.3671933931787
 10
221.0232601407033
 20
110.270532282092
 10
221.0232601407033
 20
110.1745767265601
 10
221.0232601407033
 20
110.0803850599171
 10
221.0232601407033
 20
109.9868989488295
 10
221.0232601407033
 20
109.8955295044079
 10
221.0232601407033
 20
109.8038072822085
 10
221.0232601407033
 20
109.7149072822306
 10
221.0232601407033
 20
109.6267128378082
 10
221.0232601407033
 20
109.5402822822747
 10
221.0232601407033
 20
109.4545572822959
 10
221.0232601407033
 20
109.370596171206
 10
221.0232601407033
 20
109.287340615671
 10
221.0232601407033
 20
109.2062017268026
 10
221.0232601407033
 20
109.1254156157112
 10
221.0232601407033
 20
109.0467461712865
 10
221.0232601407033
 20
108.9687822824172
 10
221.0232601407033
 20
108.8925822824362
 10
221.0232601407033
 20
108.8167350602329
 10
221.0232601407033
 20
108.7437100602516
 10
221.0232601407033
 20
108.670332282492
 10
221.0232601407033
 20
108.5997767269538
 10
221.0232601407033
 20
108.5292211714163
 10
221.0232601407033
 20
108.460782282544
 10
221.0232601407033
 20
108.3919906158947
 10
221.0232601407033
 20
108.3260211714668
 10
221.0232601407033
 20
108.2604045048166
 10
221.0232601407033
 20
108.1969045048324
 10
221.0232601407033
 20
108.1334045048482
 10
221.0232601407033
 20
108.0716683937527
 10
221.0232601407033
 20
108.0102850604344
 10
221.0232601407033
 20
107.9510183937827
 10
221.0232601407033
 20
107.8924572826865
 10
221.0232601407033
 20
107.8349545049229
 10
221.0232601407033
 20
107.7781572827149
 10
221.0232601407033
 20
107.7227711716179
 10
221.0232601407033
 20
107.667737838298
 10
221.0232601407033
 20
107.6144683938669
 10
221.0232601407033
 20
107.5615517272136
 10
221.0232601407033
 20
107.5100461716707
 10
221.0232601407033
 20
107.4585406161285
 10
221.0232601407033
 20
107.4091517272515
 10
221.0232601407033
 20
107.3597628383752
 10
221.0232601407033
 20
107.3117850606092
 10
221.0232601407033
 20
107.2634545050662
 10
221.0232601407033
 20
107.2168878384107
 10
221.0232601407033
 20
107.1706739495335
 10
221.0232601407033
 20
107.1251656162113
 10
221.0232601407033
 20
107.0800100606674
 10
221.0232601407033
 20
107.036265616234
 10
221.0232601407033
 20
106.9928739495777
 10
221.0232601407033
 20
106.9501878384775
 10
221.0232601407033
 20
106.9071489495996
 10
221.0232601407033
 20
106.8655211718321
 10
221.0232601407033
 20
106.8238933940646
 10
221.0232601407033
 20
106.7833239496304
 10
221.0232601407033
 20
106.7427545051961
 10
221.0232601407033
 20
106.7028906163174
 10
221.0232601407033
 20
106.6630267274381
 10
221.0232601407033
 20
106.6238683941149
 10
221.0232601407033
 20
106.5847100607911
 10
221.0232601407033
 20
106.545904505245
 10
221.0232601407033
 20
106.5070989496996
 10
221.0232601407033
 20
106.4693517274868
 10
221.0232601407033
 20
106.4312517274963
 10
221.0232601407033
 20
106.3931517275058
 10
221.0232601407033
 20
106.3557572830708
 10
221.0232601407033
 20
106.3187156164129
 10
221.0232601407033
 20
106.2813211719779
 10
221.0232601407033
 20
106.2439267275428
 10
221.0232601407033
 20
106.2065322831078
 10
221.0232601407033
 20
106.1694906164506
 10
221.0232601407033
 20
106.1320961720155
 10
221.0232601407033
 20
106.0947017275805
 10
221.0232601407033
 20
106.0580128387004
 10
221.0232601407033
 20
106.0209711720432
 10
221.0232601407033
 20
105.9835767276081
 10
221.0232601407033
 20
105.9461822831731
 10
221.0232601407033
 20
105.9087878387381
 10
221.0232601407033
 20
105.8706878387476
 10
221.0232601407033
 20
105.8336461720897
 10
221.0232601407033
 20
105.795193394322
 10
221.0232601407033
 20
105.7574461721093
 10
221.0232601407033
 20
105.718993394341
 10
221.0232601407033
 20
105.6808933943504
 10
221.0232601407033
 20
105.6417350610266
 10
221.0232601407033
 20
105.6036350610367
 10
221.0232601407033
 20
105.5637711721574
 10
221.0232601407033
 20
105.5249656166113
 10
221.0232601407033
 20
105.4851017277326
 10
221.0232601407033
 20
105.4459433944094
 10
221.0232601407033
 20
105.4053739499746
 10
221.0232601407033
 20
105.3655100610958
 10
221.0232601407033
 20
105.3245878388839
 10
221.0232601407033
 20
105.2840183944496
 10
221.0232601407033
 20
105.2423906166821
 10
221.0232601407033
 20
105.2007628389146
 10
221.0232601407033
 20
105.1591350611478
 10
221.0232601407033
 20
105.1171545056025
 10
221.0232601407033
 20
105.0744683945023
 10
221.0232601407033
 20
105.0321350611793
 10
221.0232601407033
 20
104.9890961723014
 10
221.0232601407033
 20
104.9464100612006
 10
221.0232601407033
 20
104.9023128389894
 10
221.0232601407033
 20
104.8592739501115
 10
221.0232601407033
 20
104.8151767279003
 10
221.0232601407033
 20
104.7710795056891
 10
221.0232601407033
 20
104.7266295057001
 10
221.0232601407033
 20
104.6818267279334
 10
221.0232601407033
 20
104.6370239501667
 10
221.0232601407033
 20
104.5918683946228
 10
221.0232601407033
 20
104.5463600613006
 10
221.0232601407033
 20
104.5012045057568
 10
221.0232601407033
 20
104.4553433946568
 10
221.0232601407033
 20
104.4098350613351
 10
221.0232601407033
 20
104.3639739502351
 10
221.0232601407033
 20
104.3181128391358
 10
221.0232601407033
 20
104.2715461724803
 10
221.0232601407033
 20
104.2256850613809
 10
221.0232601407033
 20
104.179118394726
 10
221.0232601407033
 20
104.133257283626
 10
221.0232601407033
 20
104.0859850614156
 10
221.0232601407033
 20
104.0401239503162
 10
221.0232601407033
 20
103.9932045058836
 10
221.0232601407033
 20
103.9476961725613
 10
221.0232601407033
 20
103.9007767281287
 10
221.0232601407033
 20
103.8549156170293
 10
221.0232601407033
 20
103.8090545059293
 10
221.0232601407033
 20
103.7628406170522
 10
221.0232601407033
 20
103.7169795059522
 10
221.0232601407033
 20
103.6718239504083
 10
221.0232601407033
 20
103.6259628393084
 10
221.0232601407033
 20
103.5811600615423
 10
221.0232601407033
 20
103.5360045059978
 10
221.0232601407033
 20
103.4912017282311
 10
221.0232601407033
 20
103.4471045060199
 10
221.0232601407033
 20
103.4030072838087
 10
221.0232601407033
 20
103.359615617153
 10
221.0232601407033
 20
103.3165767282751
 10
221.0232601407033
 20
103.2731850616188
 10
221.0232601407033
 20
103.2315572838519
 10
221.0232601407033
 20
103.1892239505289
 10
221.0232601407033
 20
103.1479489505391
 10
221.0232601407033
 20
103.1070267283271
 10
221.0232601407033
 20
103.0664572838929
 10
221.0232601407033
 20
103.0265933950142
 10
221.0232601407033
 20
102.9877878394681
 10
221.0232601407033
 20
102.9493350616998
 10
221.0232601407033
 20
102.9119406172648
 10
221.0232601407033
 20
102.8745461728298
 10
221.0232601407033
 20
102.8382100617274
 10
221.0232601407033
 20
102.8018739506257
 10
221.0232601407033
 20
102.7673017284121
 10
221.0232601407033
 20
102.7330822839763
 10
221.0232601407033
 20
102.6999211728732
 10
221.0232601407033
 20
102.6671128395484
 10
221.0232601407033
 20
102.6357156173341
 10
221.0232601407033
 20
102.6050239506753
 10
221.0232601407033
 20
102.5753906173491
 10
221.0232601407033
 20
102.5464628395784
 10
221.0232601407033
 20
102.518593395141
 10
221.0232601407033
 20
102.4914295062592
 10
221.0232601407033
 20
102.4653239507099
 10
221.0232601407033
 20
102.4406295062718
 10
221.0232601407033
 20
102.4166406173885
 10
221.0232601407033
 20
102.3937100618391
 10
221.0232601407033
 20
102.3718378396224
 10
221.0232601407033
 20
102.3573739507368
 10
221.0232601407033
 20
102.3439683951844
  0
LWPOLYLINE
  5
141
330
70
100
AcDbEntity
  8
Standardebene
 62
     7
370
    35
100
AcDbPolyline
 90
       45
 70
     0
 43
0.0
 10
204.5231379226062
 20
103.7607239503863
 10
204.5220795892729
 20
103.7991767281539
 10
204.5213740337177
 20
103.8379822837
 10
204.5189045892736
 20
103.8778461725787
 10
204.515376811497
 20
103.9187683947907
 10
204.5136129226085
 20
103.9399350614525
 10
204.5111434781645
 20
103.9611017281137
 10
204.5076157003876
 20
103.9822683947749
 10
204.5033823670554
 20
104.0044933947694
 10
204.5016184781669
 20
104.0154295058781
 10
204.4984434781677
 20
104.0270711725416
 10
204.4956212559462
 20
104.0383600614274
 10
204.4917407003918
 20
104.0500017280916
 10
204.4899768115033
 20
104.0559989503123
 10
204.4875073670593
 20
104.061996172533
 10
204.4846851448379
 20
104.0686989503091
 10
204.4822157003942
 20
104.0746961725298
 10
204.4786879226172
 20
104.0806933947505
 10
204.4748073670624
 20
104.0866906169711
 10
204.4723379226188
 20
104.0898656169703
 10
204.4702212559526
 20
104.092335061414
 10
204.4677518115088
 20
104.0951572836355
 10
204.4652823670648
 20
104.0969211725243
 10
204.4628129226211
 20
104.0986850614124
 10
204.4603434781771
 20
104.100801728079
 10
204.4575212559557
 20
104.1018600614116
 10
204.455051811512
 20
104.1025656169672
 10
204.4508184781798
 20
104.1036239503005
 10
204.4465851448473
 20
104.1036239503005
 10
204.4430573670707
 20
104.1036239503005
 10
204.4391768115159
 20
104.1025656169672
 10
204.435649033739
 20
104.1011545058567
 10
204.4324740337398
 20
104.099390616968
 10
204.4264768115191
 20
104.095862839191
 10
204.4211851448536
 20
104.0916295058591
 10
204.4162462559659
 20
104.0866906169711
 10
204.4109545893008
 20
104.081398950306
 10
204.4024879226361
 20
104.0704628391973
 10
204.3940212559718
 20
104.058468394756
 10
204.3866129226401
 20
104.0457683947591
 10
204.3788518115309
 20
104.0330683947623
 10
204.3654462559789
 20
104.0062572836582
 10
204.352746255982
 20
103.9787406169979
 10
204.3414573670959
 20
103.9508711725605
 10
204.329815700432
 20
103.9219433947899
  0
LWPOLYLINE
  5
142
330
70
100
AcDbEntity
  8
Standardebene
 62
     7
370
    35
100
AcDbPolyline
 90
       41
 70
     0
 43
0.0
 10
204.329815700432
 20
109.6655183933543
 10
204.3414573670959
 20
109.6097795044795
 10
204.352746255982
 20
109.5547461711596
 10
204.3654462559789
 20
109.4997128378404
 10
204.3788518115309
 20
109.4453850600761
 10
204.3866129226401
 20
109.4175156156387
 10
204.3940212559718
 20
109.3910572823117
 10
204.4024879226361
 20
109.3638933934299
 10
204.411660144856
 20
109.3367295045474
 10
204.4162462559659
 20
109.3240295045505
 10
204.4211851448536
 20
109.3106239489988
 10
204.4271823670746
 20
109.2975711712242
 10
204.4331795892952
 20
109.2852239490051
 10
204.4363545892945
 20
109.2788739490067
 10
204.4391768115159
 20
109.2732295045631
 10
204.4434101448481
 20
109.267937837898
 10
204.4465851448473
 20
109.2622933934551
 10
204.4508184781798
 20
109.2577072823448
 10
204.4557573670672
 20
109.253473949013
 10
204.4603434781771
 20
109.2502989490138
 10
204.4652823670648
 20
109.2492406156805
 10
204.4677518115088
 20
109.2492406156805
 10
204.4705740337303
 20
109.2495933934582
 10
204.473043478174
 20
109.2510045045693
 10
204.4748073670624
 20
109.2520628379019
 10
204.4790407003949
 20
109.2552378379011
 10
204.4822157003942
 20
109.2601767267892
 10
204.4875073670593
 20
109.2697017267868
 10
204.4917407003918
 20
109.2813433934504
 10
204.4956212559462
 20
109.2933378378917
 10
204.4984434781677
 20
109.305332282333
 10
204.5016184781669
 20
109.3180322823299
 10
204.5040879226109
 20
109.3307322823267
 10
204.5076157003876
 20
109.3561322823204
 10
204.5111434781645
 20
109.3825906156474
 10
204.5136129226085
 20
109.4086961711959
 10
204.515376811497
 20
109.4351545045229
 10
204.5189045892736
 20
109.4891295045095
 10
204.5213740337177
 20
109.5427517267183
 10
204.5220795892729
 20
109.5970795044827
 10
204.5231379226062
 20
109.6521128378019
  0
LWPOLYLINE
  5
143
330
70
100
AcDbEntity
  8
Standardebene
 62
     7
370
    35
100
AcDbPolyline
 90
       45
 70
     0
 43
0.0
 10
204.5231379226062
 20
122.8474128345033
 10
204.5220795892729
 20
122.8636406122771
 10
204.5213740337177
 20
122.8788100567176
 10
204.5189045892736
 20
122.8932739456026
 10
204.515376811497
 20
122.9059739455995
 10
204.5136129226085
 20
122.9119711678201
 10
204.5111434781645
 20
122.9169100567081
 10
204.5076157003876
 20
122.9218489455955
 10
204.5033823670554
 20
122.9253767233725
 10
204.5016184781669
 20
122.9264350567058
 10
204.4984434781677
 20
122.9278461678162
 10
204.4956212559462
 20
122.9281989455939
 10
204.4917407003918
 20
122.9281989455939
 10
204.4899768115033
 20
122.9278461678162
 10
204.4875073670593
 20
122.9278461678162
 10
204.4846851448379
 20
122.9264350567058
 10
204.4822157003942
 20
122.9253767233725
 10
204.4786879226172
 20
122.9236128344843
 10
204.4748073670624
 20
122.9211433900406
 10
204.4723379226188
 20
122.9193795011518
 10
204.4702212559526
 20
122.9179683900414
 10
204.4677518115088
 20
122.9154989455971
 10
204.4652823670648
 20
122.9137350567089
 10
204.4628129226211
 20
122.9109128344875
 10
204.4603434781771
 20
122.9084433900438
 10
204.4575212559557
 20
122.9059739455995
 10
204.455051811512
 20
122.9035045011558
 10
204.4508184781798
 20
122.8982128344906
 10
204.4465851448473
 20
122.8932739456026
 10
204.4430573670707
 20
122.8879822789375
 10
204.4391768115159
 20
122.8830433900501
 10
204.435649033739
 20
122.8788100567176
 10
204.4324740337398
 20
122.8738711678302
 10
204.4264768115191
 20
122.8654045011652
 10
204.4211851448536
 20
122.8565850567231
 10
204.4162462559659
 20
122.8484711678365
 10
204.4109545893008
 20
122.8407100567271
 10
204.4024879226361
 20
122.8251878345088
 10
204.3940212559718
 20
122.8100183900682
 10
204.3866129226401
 20
122.7955545011826
 10
204.3788518115309
 20
122.7814433900753
 10
204.3654462559789
 20
122.7532211678602
 10
204.352746255982
 20
122.7260572789777
 10
204.3414573670959
 20
122.6988933900958
 10
204.329815700432
 20
122.6720822789918
  0
LWPOLYLINE
  5
144
330
70
100
AcDbEntity
  8
Standardebene
 62
     7
370
    35
100
AcDbPolyline
 90
        9
 70
     0
 43
0.0
 10
221.0232601407033
 20
102.3439683951844
 10
221.1590795851139
 20
102.4099378396123
 10
221.2920768073027
 20
102.4737906173743
 10
221.4226045850478
 20
102.5362322840252
 10
221.5499573627937
 20
102.5965572840102
 10
221.6744879183181
 20
102.655823950662
 10
221.7944323627326
 20
102.71262117287
 10
221.9108490293702
 20
102.7669489506344
 10
222.0226795848978
 20
102.8195128395099
  0
LWPOLYLINE
  5
145
330
70
100
AcDbEntity
  8
Standardebene
 62
     7
370
    35
100
AcDbPolyline
 90
        9
 70
     0
 43
0.0
 10
222.0226795848978
 20
115.4757683919015
 10
221.9108490293702
 20
115.3900433919234
 10
221.7944323627326
 20
115.3110211697209
 10
221.6744879183181
 20
115.2379961697391
 10
221.5499573627937
 20
115.1702628364223
 10
221.4226045850478
 20
115.1081739475491
 10
221.2920768073027
 20
115.0499656142301
 10
221.1590795851139
 20
114.9970489475768
 10
221.0232601407033
 20
114.9473072809227
  0
LWPOLYLINE
  5
146
330
70
100
AcDbEntity
  8
Standardebene
 62
     7
370
    35
100
AcDbPolyline
 90
      221
 70
     0
 43
0.0
 10
222.0226795848978
 20
102.8195128395099
 10
222.0226795848978
 20
102.8283322839527
 10
222.0226795848978
 20
102.8382100617274
 10
222.0226795848978
 20
102.8526739506131
 10
222.0226795848978
 20
102.8681961728314
 10
222.0226795848978
 20
102.8851295061607
 10
222.0226795848978
 20
102.9027683950449
 10
222.0226795848978
 20
102.922171172818
 10
222.0226795848978
 20
102.9419267283688
 10
222.0226795848978
 20
102.96309339503
 10
222.0226795848978
 20
102.9849656172467
 10
222.0226795848978
 20
103.0078961727967
 10
222.0226795848978
 20
103.0318850616793
 10
222.0226795848978
 20
103.0569322838953
 10
222.0226795848978
 20
103.0833906172222
 10
222.0226795848978
 20
103.1098489505486
 10
222.0226795848978
 20
103.1377183949859
 10
222.0226795848978
 20
103.1666461727566
 10
222.0226795848978
 20
103.1962795060828
 10
222.0226795848978
 20
103.2266183949639
 10
222.0226795848978
 20
103.2573100616227
 10
222.0226795848978
 20
103.2894128393926
 10
222.0226795848978
 20
103.3225739504957
 10
222.0226795848978
 20
103.3557350615982
 10
222.0226795848978
 20
103.3903072838118
 10
222.0226795848978
 20
103.4252322838032
 10
222.0226795848978
 20
103.46086283935
 10
222.0226795848978
 20
103.4964933948962
 10
222.0226795848978
 20
103.5335350615541
 10
222.0226795848978
 20
103.5709295059891
 10
222.0226795848978
 20
103.6090295059796
 10
222.0226795848978
 20
103.6474822837479
 10
222.0226795848978
 20
103.6869933948489
 10
222.0226795848978
 20
103.7261517281727
 10
222.0226795848978
 20
103.7667211726069
 10
222.0226795848978
 20
103.8065850614856
 10
222.0226795848978
 20
103.8475072836976
 10
222.0226795848978
 20
103.8891350614651
 10
222.0226795848978
 20
103.9304100614549
 10
222.0226795848978
 20
103.9720378392224
 10
222.0226795848978
 20
104.0147239503225
 10
222.0226795848978
 20
104.0570572836456
 10
222.0226795848978
 20
104.1000961725235
 10
222.0226795848978
 20
104.1424295058459
 10
222.0226795848978
 20
104.1858211725022
 10
222.0226795848978
 20
104.2292128391579
 10
222.0226795848978
 20
104.2729572835913
 10
222.0226795848978
 20
104.316348950247
 10
222.0226795848978
 20
104.3597406169026
 10
222.0226795848978
 20
104.403132283559
 10
222.0226795848978
 20
104.4472295057702
 10
222.0226795848978
 20
104.4909739502036
 10
222.0226795848978
 20
104.5350711724148
 10
222.0226795848978
 20
104.5784628390705
 10
222.0226795848978
 20
104.6225600612817
 10
222.0226795848978
 20
104.6659517279374
 10
222.0226795848978
 20
104.7100489501485
 10
222.0226795848978
 20
104.7530878390271
 10
222.0226795848978
 20
104.7964795056828
 10
222.0226795848978
 20
104.8395183945607
 10
222.0226795848978
 20
104.8829100612164
 10
222.0226795848978
 20
104.9252433945394
 10
222.0226795848978
 20
104.9686350611951
 10
222.0226795848978
 20
105.0102628389626
 10
222.0226795848978
 20
105.0533017278405
 10
222.0226795848978
 20
105.094929505608
 10
222.0226795848978
 20
105.137262838931
 10
222.0226795848978
 20
105.1778322833653
 10
222.0226795848978
 20
105.2194600611321
 10
222.0226795848978
 20
105.2603822833441
 10
222.0226795848978
 20
105.3016572833339
 10
222.0226795848978
 20
105.3415211722132
 10
222.0226795848978
 20
105.3817378388697
 10
222.0226795848978
 20
105.4212489499706
 10
222.0226795848978
 20
105.46111283885
 10
222.0226795848978
 20
105.5002711721731
 10
222.0226795848978
 20
105.539429505497
 10
222.0226795848978
 20
105.5775295054875
 10
222.0226795848978
 20
105.6163350610329
 10
222.0226795848978
 20
105.6537295054686
 10
222.0226795848978
 20
105.6918295054591
 10
222.0226795848978
 20
105.7292239498941
 10
222.0226795848978
 20
105.7659128387736
 10
222.0226795848978
 20
105.8029545054309
 10
222.0226795848978
 20
105.8392906165332
 10
222.0226795848978
 20
105.8749211720794
 10
222.0226795848978
 20
105.9116100609596
 10
222.0226795848978
 20
105.9465350609509
 10
222.0226795848978
 20
105.9818128387193
 10
222.0226795848978
 20
106.0167378387107
 10
222.0226795848978
 20
106.051662838702
 10
222.0226795848978
 20
106.0862350609156
 10
222.0226795848978
 20
106.1208072831291
 10
222.0226795848978
 20
106.1550267275649
 10
222.0226795848978
 20
106.1888933942236
 10
222.0226795848978
 20
106.2220545053261
 10
222.0226795848978
 20
106.2559211719842
 10
222.0226795848978
 20
106.2890822830873
 10
222.0226795848978
 20
106.3229489497454
 10
222.0226795848978
 20
106.3557572830708
 10
222.0226795848978
 20
106.3889183941733
 10
222.0226795848978
 20
106.4220795052764
 10
222.0226795848978
 20
106.4552406163789
 10
222.0226795848978
 20
106.4880489497044
 10
222.0226795848978
 20
106.5212100608069
 10
222.0226795848978
 20
106.5536656163545
 10
222.0226795848978
 20
106.5871795052348
 10
222.0226795848978
 20
106.6203406163379
 10
222.0226795848978
 20
106.6535017274405
 10
222.0226795848978
 20
106.6866628385436
 10
222.0226795848978
 20
106.7198239496461
 10
222.0226795848978
 20
106.7536906163042
 10
222.0226795848978
 20
106.7875572829629
 10
222.0226795848978
 20
106.8214239496209
 10
222.0226795848978
 20
106.855290616279
 10
222.0226795848978
 20
106.8902156162703
 10
222.0226795848978
 20
106.9247878384838
 10
222.0226795848978
 20
106.9604183940307
 10
222.0226795848978
 20
106.9960489495769
 10
222.0226795848978
 20
107.0316795051237
 10
222.0226795848978
 20
107.0683683940032
 10
222.0226795848978
 20
107.1047045051056
 10
222.0226795848978
 20
107.1420989495406
 10
222.0226795848978
 20
107.1801989495311
 10
222.0226795848978
 20
107.2182989495217
 10
222.0226795848978
 20
107.2574572828449
 10
222.0226795848978
 20
107.2962628383909
 10
222.0226795848978
 20
107.3371850606029
 10
222.0226795848978
 20
107.3777545050371
 10
222.0226795848978
 20
107.4193822828046
 10
222.0226795848978
 20
107.4610100605722
 10
222.0226795848978
 20
107.5040489494501
 10
222.0226795848978
 20
107.5474406161057
 10
222.0226795848978
 20
107.5922433938725
 10
222.0226795848978
 20
107.6373989494169
 10
222.0226795848978
 20
107.6839656160718
 10
222.0226795848978
 20
107.7305322827267
 10
222.0226795848978
 20
107.7788628382704
 10
222.0226795848978
 20
107.8271933938141
 10
222.0226795848978
 20
107.877287838246
 10
222.0226795848978
 20
107.9273822826778
 10
222.0226795848978
 20
107.9792406159979
 10
222.0226795848978
 20
108.031804504874
 10
222.0226795848978
 20
108.08577950486
 10
222.0226795848978
 20
108.1401072826243
 10
222.0226795848978
 20
108.1969045048324
 10
222.0226795848978
 20
108.2529961714849
 10
222.0226795848978
 20
108.3115572825818
 10
222.0226795848978
 20
108.3708239492335
 10
222.0226795848978
 20
108.431854504774
 10
222.0226795848978
 20
108.4928850603139
 10
222.0226795848978
 20
108.5556795047426
 10
222.0226795848978
 20
108.6191795047269
 10
222.0226795848978
 20
108.684796171377
 10
222.0226795848978
 20
108.7507656158049
 10
222.0226795848978
 20
108.8192045046772
 10
222.0226795848978
 20
108.887290615771
 10
222.0226795848978
 20
108.9578461713092
 10
222.0226795848978
 20
109.0287545046245
 10
222.0226795848978
 20
109.1024850601619
 10
222.0226795848978
 20
109.1755100601437
 10
222.0226795848978
 20
109.2517100601242
 10
222.0226795848978
 20
109.3275572823275
 10
222.0226795848978
 20
109.4062267267522
 10
222.0226795848978
 20
109.484896171177
 10
222.0226795848978
 20
109.5656822822683
 10
222.0226795848978
 20
109.646468393359
 10
222.0226795848978
 20
109.7300767266712
 10
222.0226795848978
 20
109.8140378377617
 10
222.0226795848978
 20
109.9004683932953
 10
222.0226795848978
 20
109.9868989488295
 10
222.0226795848978
 20
110.0754461710297
 10
222.0226795848978
 20
110.1643461710076
 10
222.0226795848978
 20
110.2553628376514
 10
222.0226795848978
 20
110.3467322820731
 10
222.0226795848978
 20
110.4409239487161
 10
222.0226795848978
 20
110.5347628375814
 10
222.0226795848978
 20
110.6307183931133
 10
222.0226795848978
 20
110.7273795042
 10
222.0226795848978
 20
110.8258045041756
 10
222.0226795848978
 20
110.924935059706
 10
222.0226795848978
 20
111.0258295041252
 10
222.0226795848978
 20
111.1267239485445
 10
222.0226795848978
 20
111.2297350596296
 10
222.0226795848978
 20
111.3330989484932
 10
222.0226795848978
 20
111.4382267262443
 10
222.0226795848978
 20
111.5433545039961
 10
222.0226795848978
 20
111.6509517261915
 10
222.0226795848978
 20
111.7585489483863
 10
222.0226795848978
 20
111.8679100594705
 10
222.0226795848978
 20
111.9772711705541
 10
222.0226795848978
 20
112.0883961705265
 10
222.0226795848978
 20
112.1995211704982
 10
222.0226795848978
 20
112.3124100593595
 10
222.0226795848978
 20
112.42529894822
 10
222.0226795848978
 20
112.539598948191
 10
222.0226795848978
 20
112.6542517259404
 10
222.0226795848978
 20
112.7703156148001
 10
222.0226795848978
 20
112.8863795036599
 10
222.0226795848978
 20
113.003501725853
 10
222.0226795848978
 20
113.1213295036015
 10
222.0226795848978
 20
113.2395100591272
 10
222.0226795848978
 20
113.3580433924314
 10
222.0226795848978
 20
113.4776350590681
 10
222.0226795848978
 20
113.5972267257048
 10
222.0226795848978
 20
113.7175239478971
 10
222.0226795848978
 20
113.8381739478665
 10
222.0226795848978
 20
113.9591767256143
 10
222.0226795848978
 20
114.0805322811392
 10
222.0226795848978
 20
114.2025933922203
 10
222.0226795848978
 20
114.3239489477452
 10
222.0226795848978
 20
114.4467156143812
 10
222.0226795848978
 20
114.5687767254616
 10
222.0226795848978
 20
114.6911906143198
 10
222.0226795848978
 20
114.8139572809558
 10
222.0226795848978
 20
114.9363711698146
 10
222.0226795848978
 20
115.0591378364506
 10
222.0226795848978
 20
115.1819045030865
 10
222.0226795848978
 20
115.3036128363892
 10
222.0226795848978
 20
115.3900433919234
 10
222.0226795848978
 20
115.4757683919015
  0
LWPOLYLINE
  5
147
330
70
100
AcDbEntity
  8
Standardebene
 62
     7
370
    35
100
AcDbPolyline
 90
        6
 70
     0
 43
0.0
 10
218.6730545857352
 20
114.9134406142646
 10
218.6730545857352
 20
115.4341406141346
 10
218.6730545857352
 20
116.160862836175
 10
218.6730545857352
 20
117.0452767248426
 10
218.6730545857352
 20
118.0305850579295
 10
218.6730545857352
 20
119.051876724341
  0
LWPOLYLINE
  5
148
330
70
100
AcDbEntity
  8
Standardebene
 62
     7
370
    35
100
AcDbPolyline
 90
        9
 70
     0
 43
0.0
 10
221.0232601407033
 20
118.968621168806
 10
221.1590795851139
 20
118.8532628355018
 10
221.2920768073027
 20
118.7354350577532
 10
221.4226045850478
 20
118.6158433911164
 10
221.5499573627937
 20
118.4920183911478
 10
221.6744879183181
 20
118.3657239467349
 10
221.7944323627326
 20
118.235901724545
 10
221.9108490293702
 20
118.1025517245781
 10
222.0226795848978
 20
117.9646156135016
  0
LWPOLYLINE
  5
149
330
70
100
AcDbEntity
  8
Standardebene
 62
     7
370
    35
100
AcDbPolyline
 90
        4
 70
     0
 43
0.0
 10
222.0226795848978
 20
115.4757683919015
 10
222.0226795848978
 20
116.1785017250592
 10
222.0226795848978
 20
117.024815613737
 10
222.0226795848978
 20
117.9646156135016
  0
LWPOLYLINE
  5
14A
330
70
100
AcDbEntity
  8
Standardebene
 62
     7
370
    35
100
AcDbPolyline
 90
       13
 70
     0
 43
0.0
 10
204.3178212559907
 20
101.9562656175035
 10
204.3559212559812
 20
101.9537961730598
 10
204.3922573670833
 20
101.9442711730622
 10
204.4102490337452
 20
101.9361572841756
 10
204.4278879226298
 20
101.9266322841779
 10
204.4448212559588
 20
101.9146378397366
 10
204.4610490337326
 20
101.9012322841843
 10
204.4748073670624
 20
101.8860628397437
 10
204.4875073670593
 20
101.8698350619699
 10
204.4984434781677
 20
101.8529017286405
 10
204.5069101448323
 20
101.8349100619786
 10
204.5185518114962
 20
101.7992795064317
 10
204.5231379226062
 20
101.7611795064412
  0
LWPOLYLINE
  5
14B
330
70
100
AcDbEntity
  8
Standardebene
 62
     7
370
    35
100
AcDbPolyline
 90
        3
 70
     0
 43
0.0
 10
203.2178601451545
 20
101.9283961730661
 10
203.7681934783503
 20
101.9428600619517
 10
204.3178212559907
 20
101.9562656175035
  0
LWPOLYLINE
  5
14C
330
70
100
AcDbEntity
  8
Standardebene
 62
     7
370
    35
100
AcDbPolyline
 90
        3
 70
     0
 43
0.0
 10
222.0290295848962
 20
122.8160156122889
 10
221.5259684739107
 20
123.1070572788831
 10
221.0232601407033
 20
123.3970406121433
  0
LWPOLYLINE
  5
14D
330
70
100
AcDbEntity
  8
Standardebene
 62
     7
370
    35
100
AcDbPolyline
 90
      111
 70
     0
 43
0.0
 10
222.0226795848978
 20
117.9646156135016
 10
222.0226795848978
 20
118.0408156134827
 10
222.0226795848978
 20
118.1173683912415
 10
222.0226795848978
 20
118.2256711689918
 10
222.0226795848978
 20
118.3325628356317
 10
222.0226795848978
 20
118.438396168939
 10
222.0226795848978
 20
118.5428183911352
 10
222.0226795848978
 20
118.6461822799981
 10
222.0226795848978
 20
118.7488406133055
 10
222.0226795848978
 20
118.8504406132803
 10
222.0226795848978
 20
118.950629502144
 10
222.0226795848978
 20
119.0490545021196
 10
222.0226795848978
 20
119.1467739465396
 10
222.0226795848978
 20
119.2434350576264
 10
222.0226795848978
 20
119.3383322798249
 10
222.0226795848978
 20
119.4318183909125
 10
222.0226795848978
 20
119.5249517242229
 10
222.0226795848978
 20
119.615615613089
 10
222.0226795848978
 20
119.7055739463995
 10
222.0226795848978
 20
119.7937683908219
 10
222.0226795848978
 20
119.8809045019117
 10
222.0226795848978
 20
119.9666295018904
 10
222.0226795848978
 20
120.0512961685358
 10
222.0226795848978
 20
120.1338461685147
 10
222.0226795848978
 20
120.2149850573837
 10
222.0226795848978
 20
120.2947128351412
 10
222.0226795848978
 20
120.3737350573437
 10
222.0226795848978
 20
120.4502878351025
 10
222.0226795848978
 20
120.5264878350836
 10
222.0226795848978
 20
120.6002183906203
 10
222.0226795848978
 20
120.6732433906022
 10
222.0226795848978
 20
120.7441517239181
 10
222.0226795848978
 20
120.8147072794556
 10
222.0226795848978
 20
120.8824406127724
 10
222.0226795848978
 20
120.9494683905336
 10
222.0226795848978
 20
121.014732279406
 10
222.0226795848978
 20
121.0792906127228
 10
222.0226795848978
 20
121.1410267238189
 10
222.0226795848978
 20
121.2024100571366
 10
222.0226795848978
 20
121.2616767237883
 10
222.0226795848978
 20
121.3202378348851
 10
222.0226795848978
 20
121.3770350570932
 10
222.0226795848978
 20
121.432773945968
 10
222.0226795848978
 20
121.4863961681768
 10
222.0226795848978
 20
121.5389600570523
 10
222.0226795848978
 20
121.5897600570397
 10
222.0226795848978
 20
121.6398545014716
 10
222.0226795848978
 20
121.6881850570153
 10
222.0226795848978
 20
121.7354572792257
 10
222.0226795848978
 20
121.7806128347701
 10
222.0226795848978
 20
121.8254156125362
 10
222.0226795848978
 20
121.868101723637
 10
222.0226795848978
 20
121.9104350569594
 10
222.0226795848978
 20
121.9510045013943
 10
222.0226795848978
 20
121.9901628347175
 10
222.0226795848978
 20
122.028262834708
 10
222.0226795848978
 20
122.065657279143
 10
222.0226795848978
 20
122.1009350569121
 10
222.0226795848978
 20
122.1358600569034
 10
222.0226795848978
 20
122.1690211680059
 10
222.0226795848978
 20
122.2011239457758
 10
222.0226795848978
 20
122.2318156124347
 10
222.0226795848978
 20
122.2621545013164
 10
222.0226795848978
 20
122.291082279087
 10
222.0226795848978
 20
122.3189517235244
 10
222.0226795848978
 20
122.3461156124063
 10
222.0226795848978
 20
122.3715156124
 10
222.0226795848978
 20
122.3962100568381
 10
222.0226795848978
 20
122.4209045012763
 10
222.0226795848978
 20
122.4431295012708
 10
222.0226795848978
 20
122.465707279043
 10
222.0226795848978
 20
122.4868739457042
 10
222.0226795848978
 20
122.5073350568105
 10
222.0226795848978
 20
122.526032279028
 10
222.0226795848978
 20
122.5447295012455
 10
222.0226795848978
 20
122.5623683901297
 10
222.0226795848978
 20
122.5796545012369
 10
222.0226795848978
 20
122.5962350567884
 10
222.0226795848978
 20
122.6117572790067
 10
222.0226795848978
 20
122.6262211678917
 10
222.0226795848978
 20
122.6403322789996
 10
222.0226795848978
 20
122.6533850567743
 10
222.0226795848978
 20
122.666790612326
 10
222.0226795848978
 20
122.6787850567673
 10
222.0226795848978
 20
122.689721167876
 10
222.0226795848978
 20
122.7006572789846
 10
222.0226795848978
 20
122.7108878345372
 10
222.0226795848978
 20
122.7204128345348
 10
222.0226795848978
 20
122.7302906123102
 10
222.0226795848978
 20
122.7387572789746
 10
222.0226795848978
 20
122.746518390084
 10
222.0226795848978
 20
122.7542795011935
 10
222.0226795848978
 20
122.7616878345246
 10
222.0226795848978
 20
122.7683906123007
 10
222.0226795848978
 20
122.7743878345214
 10
222.0226795848978
 20
122.7796795011865
 10
222.0226795848978
 20
122.7856767234078
 10
222.0226795848978
 20
122.7906156122952
 10
222.0226795848978
 20
122.7948489456277
 10
222.0226795848978
 20
122.7990822789596
 10
222.0226795848978
 20
122.8026100567365
 10
222.0226795848978
 20
122.8057850567358
 10
222.0226795848978
 20
122.8086072789572
 10
222.0226795848978
 20
122.8117822789564
 10
222.0226795848978
 20
122.8135461678452
 10
222.0226795848978
 20
122.8153100567334
 10
222.0226795848978
 20
122.8170739456222
 10
222.0226795848978
 20
122.8184850567326
 10
222.0226795848978
 20
122.8191906122881
 10
222.0226795848978
 20
122.8195433900659
 10
222.0226795848978
 20
122.8195433900659
  0
LWPOLYLINE
  5
14E
330
70
100
AcDbEntity
  8
Standardebene
 62
     7
370
    35
100
AcDbPolyline
 90
        7
 70
     0
 43
0.0
 10
203.0778073674117
 20
101.8663072841929
 10
203.0644018118596
 20
101.8511378397524
 10
203.0531129229735
 20
101.834204506423
 10
203.0432351451981
 20
101.8165656175388
 10
203.035474034089
 20
101.7978683953213
 10
203.0255962563139
 20
101.761532284219
 10
203.0227740340921
 20
101.7237850620062
  0
LWPOLYLINE
  5
14F
330
70
100
AcDbEntity
  8
Standardebene
 62
     7
370
    35
100
AcDbPolyline
 90
        7
 70
     0
 43
0.0
 10
203.0778073674117
 20
101.8663072841929
 10
203.09332958963
 20
101.8807711730779
 10
203.1092045896261
 20
101.8934711730748
 10
203.1264907007328
 20
101.9037017286279
 10
203.1448351451729
 20
101.9128739508478
 10
203.1797601451642
 20
101.9241628397343
 10
203.2178601451545
 20
101.9283961730661
  0
LINE
  5
150
330
70
100
AcDbEntity
  8
Standardebene
 62
     7
370
    35
100
AcDbLine
 10
204.9436490336121
 20
123.7928572787114
 30
0.0
 11
204.329815700432
 21
123.1797295010865
 31
0.0
  0
SPLINE
  5
151
330
70
100
AcDbEntity
  8
Standardebene
 62
     7
370
    35
100
AcDbSpline
210
0.0
220
0.0
230
1.0
 70
     9
 71
     3
 72
    17
 73
    13
 74
     0
 42
0.0000000001
 43
0.0000000001
 40
0.0
 40
0.0
 40
0.0
 40
0.0
 40
1.0
 40
1.0
 40
1.0
 40
2.0
 40
2.0
 40
2.0
 40
3.0
 40
3.0
 40
3.0
 40
4.0
 40
4.0
 40
4.0
 40
4.0
 10
301.8192223787933
 20
197.6014352427719
 30
0.0
 10
301.8192223787933
 20
204.2290713522262
 30
0.0
 10
296.4464168245808
 20
209.6015241286611
 30
0.0
 10
289.8187807151268
 20
209.6015241286611
 30
0.0
 10
283.1918501612278
 20
209.6015241286611
 30
0.0
 10
277.8190446070155
 20
204.2290713522262
 30
0.0
 10
277.8190446070155
 20
197.6014352427719
 30
0.0
 10
277.8190446070155
 20
190.9741519110953
 30
0.0
 10
283.1918501612278
 20
185.6013463568831
 30
0.0
 10
289.8187807151268
 20
185.6013463568831
 30
0.0
 10
296.4464168245808
 20
185.6013463568831
 30
0.0
 10
301.8192223787933
 20
190.9741519110953
 30
0.0
 10
301.8192223787933
 20
197.6014352427719
 30
0.0
  0
SPLINE
  5
152
330
70
100
AcDbEntity
  8
Standardebene
 62
     7
370
    35
100
AcDbSpline
210
0.0
220
0.0
230
1.0
 70
     9
 71
     3
 72
    17
 73
    13
 74
     0
 42
0.0000000001
 43
0.0000000001
 40
0.0
 40
0.0
 40
0.0
 40
0.0
 40
1.0
 40
1.0
 40
1.0
 40
2.0
 40
2.0
 40
2.0
 40
3.0
 40
3.0
 40
3.0
 40
4.0
 40
4.0
 40
4.0
 40
4.0
 10
302.3187557120019
 20
197.6014352427719
 30
0.0
 10
302.3187557120019
 20
204.5049435743798
 30
0.0
 10
296.7226418245119
 20
210.1014102396471
 30
0.0
 10
289.8187807151268
 20
210.1014102396471
 30
0.0
 10
282.915625161297
 20
210.1014102396471
 30
0.0
 10
277.3188057182518
 20
204.5049435743798
 30
0.0
 10
277.3188057182518
 20
197.6014352427719
 30
0.0
 10
277.3188057182518
 20
190.6979269111646
 30
0.0
 10
282.915625161297
 20
185.1011074681194
 30
0.0
 10
289.8187807151268
 20
185.1011074681194
 30
0.0
 10
296.7226418245119
 20
185.1011074681194
 30
0.0
 10
302.3187557120019
 20
190.6979269111646
 30
0.0
 10
302.3187557120019
 20
197.6014352427719
 30
0.0
  0
SPLINE
  5
153
330
70
100
AcDbEntity
  8
Standardebene
 62
     7
370
    35
100
AcDbSpline
210
0.0
220
0.0
230
1.0
 70
    11
 71
     3
 72
    17
 73
    13
 74
     0
 42
0.0000000001
 43
0.0000000001
 40
0.0
 40
0.0
 40
0.0
 40
0.0
 40
1.0
 40
1.0
 40
1.0
 40
2.0
 40
2.0
 40
2.0
 40
3.0
 40
3.0
 40
3.0
 40
4.0
 40
4.0
 40
4.0
 40
4.0
 10
297.3188362688071
 20
197.6014352427719
 30
0.0
 10
297.3188362688071
 20
201.743751908403
 30
0.0
 10
293.9607446029802
 20
205.1011380186747
 30
0.0
 10
289.8187807151268
 20
205.1011380186747
 30
0.0
 10
285.6768168272735
 20
205.1011380186747
 30
0.0
 10
282.3187251614462
 20
201.743751908403
 30
0.0
 10
282.3187251614462
 20
197.6014352427719
 30
0.0
 10
282.3187251614462
 20
193.4591185771407
 30
0.0
 10
285.6768168272735
 20
190.1013796890912
 30
0.0
 10
289.8187807151268
 20
190.1013796890912
 30
0.0
 10
293.9607446029802
 20
190.1013796890912
 30
0.0
 10
297.3188362688071
 20
193.4591185771407
 30
0.0
 10
297.3188362688071
 20
197.6014352427719
 30
0.0
  0
SPLINE
  5
154
330
70
100
AcDbEntity
  8
Standardebene
 62
     7
370
    35
100
AcDbSpline
210
0.0
220
0.0
230
1.0
 70
     9
 71
     3
 72
    17
 73
    13
 74
     0
 42
0.0000000001
 43
0.0000000001
 40
0.0
 40
0.0
 40
0.0
 40
0.0
 40
1.0
 40
1.0
 40
1.0
 40
2.0
 40
2.0
 40
2.0
 40
3.0
 40
3.0
 40
3.0
 40
4.0
 40
4.0
 40
4.0
 40
4.0
 10
293.1073751587489
 20
197.6014352427719
 30
0.0
 10
293.1073751587489
 20
199.4175352423182
 30
0.0
 10
291.6348807146729
 20
200.8900296863942
 30
0.0
 10
289.8187807151268
 20
200.8900296863942
 30
0.0
 10
288.0030334933586
 20
200.8900296863942
 30
0.0
 10
286.5301862715045
 20
199.4175352423182
 30
0.0
 10
286.5301862715045
 20
197.6014352427719
 30
0.0
 10
286.5301862715045
 20
195.7849824654484
 30
0.0
 10
288.0030334933586
 20
194.3124880213718
 30
0.0
 10
289.8187807151268
 20
194.3124880213718
 30
0.0
 10
291.6348807146729
 20
194.3124880213718
 30
0.0
 10
293.1073751587489
 20
195.7849824654484
 30
0.0
 10
293.1073751587489
 20
197.6014352427719
 30
0.0
  0
SPLINE
  5
155
330
70
100
AcDbEntity
  8
Standardebene
 62
     7
370
    35
100
AcDbSpline
210
0.0
220
0.0
230
1.0
 70
     9
 71
     3
 72
    17
 73
    13
 74
     0
 42
0.0000000001
 43
0.0000000001
 40
0.0
 40
0.0
 40
0.0
 40
0.0
 40
1.0
 40
1.0
 40
1.0
 40
2.0
 40
2.0
 40
2.0
 40
3.0
 40
3.0
 40
3.0
 40
4.0
 40
4.0
 40
4.0
 40
4.0
 10
292.818802936599
 20
197.6014352427719
 30
0.0
 10
292.818802936599
 20
199.2580796868021
 30
0.0
 10
291.4757779369345
 20
200.6011046864666
 30
0.0
 10
289.8187807151268
 20
200.6011046864666
 30
0.0
 10
288.162489048874
 20
200.6011046864666
 30
0.0
 10
286.8187584936547
 20
199.2580796868021
 30
0.0
 10
286.8187584936547
 20
197.6014352427719
 30
0.0
 10
286.8187584936547
 20
195.9444380209639
 30
0.0
 10
288.162489048874
 20
194.6017657990778
 30
0.0
 10
289.8187807151268
 20
194.6017657990778
 30
0.0
 10
291.4757779369345
 20
194.6017657990778
 30
0.0
 10
292.818802936599
 20
195.9444380209639
 30
0.0
 10
292.818802936599
 20
197.6014352427719
 30
0.0
  0
SPLINE
  5
156
330
70
100
AcDbEntity
  8
Standardebene
 62
     7
370
    35
100
AcDbSpline
210
0.0
220
0.0
230
1.0
 70
     9
 71
     3
 72
    17
 73
    13
 74
     0
 42
0.0000000001
 43
0.0000000001
 40
0.0
 40
0.0
 40
0.0
 40
0.0
 40
1.0
 40
1.0
 40
1.0
 40
2.0
 40
2.0
 40
2.0
 40
3.0
 40
3.0
 40
3.0
 40
4.0
 40
4.0
 40
4.0
 40
4.0
 10
311.8190612651821
 20
197.6014352427719
 30
0.0
 10
311.8190612651821
 20
209.7514546841793
 30
0.0
 10
301.9688001565337
 20
219.6017157928277
 30
0.0
 10
289.8187807151268
 20
219.6017157928277
 30
0.0
 10
277.6691140514974
 20
219.6017157928277
 30
0.0
 10
267.818852942849
 20
209.7514546841793
 30
0.0
 10
267.818852942849
 20
197.6014352427719
 30
0.0
 10
267.818852942849
 20
185.4510630235876
 30
0.0
 10
277.6691140514974
 20
175.6015074704943
 30
0.0
 10
289.8187807151268
 20
175.6015074704943
 30
0.0
 10
301.9688001565337
 20
175.6015074704943
 30
0.0
 10
311.8190612651821
 20
185.4510630235876
 30
0.0
 10
311.8190612651821
 20
197.6014352427719
 30
0.0
  0
SPLINE
  5
157
330
70
100
AcDbEntity
  8
Standardebene
 62
     7
370
    35
100
AcDbSpline
210
0.0
220
0.0
230
1.0
 70
     9
 71
     3
 72
    17
 73
    13
 74
     0
 42
0.0000000001
 43
0.0000000001
 40
0.0
 40
0.0
 40
0.0
 40
0.0
 40
1.0
 40
1.0
 40
1.0
 40
2.0
 40
2.0
 40
2.0
 40
3.0
 40
3.0
 40
3.0
 40
4.0
 40
4.0
 40
4.0
 40
4.0
 10
312.3193001539461
 20
197.6014352427719
 30
0.0
 10
312.3193001539461
 20
210.02767968411
 30
0.0
 10
302.2453779342423
 20
220.1012491260362
 30
0.0
 10
289.8187807151268
 20
220.1012491260362
 30
0.0
 10
277.3928890515667
 20
220.1012491260362
 30
0.0
 10
267.3189668318627
 20
210.02767968411
 30
0.0
 10
267.3189668318627
 20
197.6014352427719
 30
0.0
 10
267.3189668318627
 20
185.1755435792117
 30
0.0
 10
277.3928890515667
 20
175.1012685817307
 30
0.0
 10
289.8187807151268
 20
175.1012685817307
 30
0.0
 10
302.2453779342423
 20
175.1012685817307
 30
0.0
 10
312.3193001539461
 20
185.1755435792117
 30
0.0
 10
312.3193001539461
 20
197.6014352427719
 30
0.0
  0
SPLINE
  5
158
330
70
100
AcDbEntity
  8
Standardebene
 62
     7
370
    35
100
AcDbSpline
210
0.0
220
0.0
230
1.0
 70
     9
 71
     3
 72
    17
 73
    13
 74
     0
 42
0.0000000001
 43
0.0000000001
 40
0.0
 40
0.0
 40
0.0
 40
0.0
 40
1.0
 40
1.0
 40
1.0
 40
2.0
 40
2.0
 40
2.0
 40
3.0
 40
3.0
 40
3.0
 40
4.0
 40
4.0
 40
4.0
 40
4.0
 10
304.3115973781701
 20
197.6014352427719
 30
0.0
 10
304.3115973781701
 20
205.6052574629932
 30
0.0
 10
297.8233084909033
 20
212.0942519058156
 30
0.0
 10
289.8187807151268
 20
212.0942519058156
 30
0.0
 10
281.8146057171278
 20
212.0942519058156
 30
0.0
 10
275.3259640520832
 20
205.6052574629932
 30
0.0
 10
275.3259640520832
 20
197.6014352427719
 30
0.0
 10
275.3259640520832
 20
189.5972602447728
 30
0.0
 10
281.8146057171278
 20
183.1082658019512
 30
0.0
 10
289.8187807151268
 20
183.1082658019512
 30
0.0
 10
297.8233084909033
 20
183.1082658019512
 30
0.0
 10
304.3115973781701
 20
189.5972602447728
 30
0.0
 10
304.3115973781701
 20
197.6014352427719
 30
0.0
  0
LINE
  5
15A
330
70
100
AcDbEntity
  8
Bemaßung
 62
     7
370
     9
100
AcDbLine
 10
78.52326295410612
 20
210.1014102396471
 30
0.0
 11
66.02328795723114
 21
210.1014102396471
 31
0.0
  0
LINE
  5
15B
330
70
100
AcDbEntity
  8
Bemaßung
 62
     7
370
     9
100
AcDbLine
 10
78.52326295410612
 20
185.1011074681194
 30
0.0
 11
66.02328795723114
 21
185.1011074681194
 31
0.0
  0
LINE
  5
15C
330
70
100
AcDbEntity
  8
Bemaßung
 62
     7
370
     9
100
AcDbLine
 10
68.02283240117557
 20
210.1014102396471
 30
0.0
 11
68.02283240117557
 21
185.1011074681194
 31
0.0
  0
LWPOLYLINE
  5
15D
330
70
100
AcDbEntity
  8
Bemaßung
 62
     7
370
     9
100
AcDbPolyline
 90
        4
 70
     0
 43
0.0
 10
68.02283240117557
 20
210.1014102396471
 10
67.56245740129056
 20
206.6015019071889
 10
68.48356017883801
 20
206.6015019071889
 10
68.02283240117557
 20
210.1014102396471
  0
LINE
  5
15E
330
70
100
AcDbEntity
  8
Bemaßung
 62
     7
370
     9
100
AcDbLine
 10
67.56598517906754
 20
206.6015019071889
 30
0.0
 11
67.56598517906754
 21
206.6286657960708
 31
0.0
  0
LINE
  5
15F
330
70
100
AcDbEntity
  8
Bemaßung
 62
     7
370
     9
100
AcDbLine
 10
67.56598517906754
 20
206.6015019071889
 30
0.0
 11
67.56598517906754
 21
206.6286657960708
 31
0.0
  0
LINE
  5
160
330
70
100
AcDbEntity
  8
Bemaßung
 62
     7
370
     9
100
AcDbLine
 10
67.61643240127715
 20
206.6015019071889
 30
0.0
 11
67.61643240127715
 21
207.0142519070858
 31
0.0
  0
LINE
  5
161
330
70
100
AcDbEntity
  8
Bemaßung
 62
     7
370
     9
100
AcDbLine
 10
67.66758517904229
 20
206.6015019071889
 30
0.0
 11
67.66758517904229
 21
207.4005435736556
 31
0.0
  0
LINE
  5
162
330
70
100
AcDbEntity
  8
Bemaßung
 62
     7
370
     9
100
AcDbLine
 10
67.71803240125159
 20
206.6015019071889
 30
0.0
 11
67.71803240125159
 21
207.7861296846706
 31
0.0
  0
LINE
  5
163
330
70
100
AcDbEntity
  8
Bemaßung
 62
     7
370
     9
100
AcDbLine
 10
67.76918517901674
 20
206.6015019071889
 30
0.0
 11
67.76918517901674
 21
208.1724213512404
 31
0.0
  0
LINE
  5
164
330
70
100
AcDbEntity
  8
Bemaßung
 62
     7
370
     9
100
AcDbLine
 10
67.81998517900412
 20
206.6015019071889
 30
0.0
 11
67.81998517900412
 21
208.5576546844777
 31
0.0
  0
LINE
  5
165
330
70
100
AcDbEntity
  8
Bemaßung
 62
     7
370
     9
100
AcDbLine
 10
67.87043240121374
 20
206.6015019071889
 30
0.0
 11
67.87043240121374
 21
208.9439463510475
 31
0.0
  0
LINE
  5
166
330
70
100
AcDbEntity
  8
Bemaßung
 62
     7
370
     9
100
AcDbLine
 10
67.92158517897856
 20
206.6015019071889
 30
0.0
 11
67.92158517897856
 21
209.3295324620625
 31
0.0
  0
LINE
  5
167
330
70
100
AcDbEntity
  8
Bemaßung
 62
     7
370
     9
100
AcDbLine
 10
67.97203240118818
 20
206.6015019071889
 30
0.0
 11
67.97203240118818
 21
209.7158241286324
 31
0.0
  0
LINE
  5
168
330
70
100
AcDbEntity
  8
Bemaßung
 62
     7
370
     9
100
AcDbLine
 10
68.02283240117557
 20
206.6015019071889
 30
0.0
 11
68.02283240117557
 21
210.1014102396471
 31
0.0
  0
LINE
  5
169
330
70
100
AcDbEntity
  8
Bemaßung
 62
     7
370
     9
100
AcDbLine
 10
68.4803851788388
 20
206.6015019071889
 30
0.0
 11
68.4803851788388
 21
206.6286657960708
 31
0.0
  0
LINE
  5
16A
330
70
100
AcDbEntity
  8
Bemaßung
 62
     7
370
     9
100
AcDbLine
 10
68.4803851788388
 20
206.6015019071889
 30
0.0
 11
68.4803851788388
 21
206.6286657960708
 31
0.0
  0
LINE
  5
16B
330
70
100
AcDbEntity
  8
Bemaßung
 62
     7
370
     9
100
AcDbLine
 10
68.42923240107399
 20
206.6015019071889
 30
0.0
 11
68.42923240107399
 21
207.0142519070858
 31
0.0
  0
LINE
  5
16C
330
70
100
AcDbEntity
  8
Bemaßung
 62
     7
370
     9
100
AcDbLine
 10
68.3784324010866
 20
206.6015019071889
 30
0.0
 11
68.3784324010866
 21
207.4005435736556
 31
0.0
  0
LINE
  5
16D
330
70
100
AcDbEntity
  8
Bemaßung
 62
     7
370
     9
100
AcDbLine
 10
68.32798517887699
 20
206.6015019071889
 30
0.0
 11
68.32798517887699
 21
207.7861296846706
 31
0.0
  0
LINE
  5
16E
330
70
100
AcDbEntity
  8
Bemaßung
 62
     7
370
     9
100
AcDbLine
 10
68.27683240111216
 20
206.6015019071889
 30
0.0
 11
68.27683240111216
 21
208.1724213512404
 31
0.0
  0
LINE
  5
16F
330
70
100
AcDbEntity
  8
Bemaßung
 62
     7
370
     9
100
AcDbLine
 10
68.22638517890253
 20
206.6015019071889
 30
0.0
 11
68.22638517890253
 21
208.5576546844777
 31
0.0
  0
LINE
  5
170
330
70
100
AcDbEntity
  8
Bemaßung
 62
     7
370
     9
100
AcDbLine
 10
68.17558517891516
 20
206.6015019071889
 30
0.0
 11
68.17558517891516
 21
208.9439463510475
 31
0.0
  0
LINE
  5
171
330
70
100
AcDbEntity
  8
Bemaßung
 62
     7
370
     9
100
AcDbLine
 10
68.12443240115001
 20
206.6015019071889
 30
0.0
 11
68.12443240115001
 21
209.3295324620625
 31
0.0
  0
LINE
  5
172
330
70
100
AcDbEntity
  8
Bemaßung
 62
     7
370
     9
100
AcDbLine
 10
68.07398517894039
 20
206.6015019071889
 30
0.0
 11
68.07398517894039
 21
209.7158241286324
 31
0.0
  0
LINE
  5
173
330
70
100
AcDbEntity
  8
Bemaßung
 62
     7
370
     9
100
AcDbLine
 10
68.02283240117557
 20
206.6015019071889
 30
0.0
 11
68.02283240117557
 21
210.1014102396471
 31
0.0
  0
LWPOLYLINE
  5
174
330
70
100
AcDbEntity
  8
Bemaßung
 62
     7
370
     9
100
AcDbPolyline
 90
        4
 70
     0
 43
0.0
 10
68.02283240117557
 20
185.1011074681194
 10
68.48356017883801
 20
188.6017213561334
 10
67.56245740129056
 20
188.6017213561334
 10
68.02283240117557
 20
185.1011074681194
  0
LINE
  5
175
330
70
100
AcDbEntity
  8
Bemaßung
 62
     7
370
     9
100
AcDbLine
 10
68.4803851788388
 20
188.6017213561334
 30
0.0
 11
68.4803851788388
 21
188.5742046894731
 31
0.0
  0
LINE
  5
176
330
70
100
AcDbEntity
  8
Bemaßung
 62
     7
370
     9
100
AcDbLine
 10
68.4803851788388
 20
188.6017213561334
 30
0.0
 11
68.4803851788388
 21
188.5742046894731
 31
0.0
  0
LINE
  5
177
330
70
100
AcDbEntity
  8
Bemaßung
 62
     7
370
     9
100
AcDbLine
 10
68.42923240107399
 20
188.6017213561334
 30
0.0
 11
68.42923240107399
 21
188.188265800681
 31
0.0
  0
LINE
  5
178
330
70
100
AcDbEntity
  8
Bemaßung
 62
     7
370
     9
100
AcDbLine
 10
68.3784324010866
 20
188.6017213561334
 30
0.0
 11
68.3784324010866
 21
187.802679689666
 31
0.0
  0
LINE
  5
179
330
70
100
AcDbEntity
  8
Bemaßung
 62
     7
370
     9
100
AcDbLine
 10
68.32798517887699
 20
188.6017213561334
 30
0.0
 11
68.32798517887699
 21
187.4163880230962
 31
0.0
  0
LINE
  5
17A
330
70
100
AcDbEntity
  8
Bemaßung
 62
     7
370
     9
100
AcDbLine
 10
68.27683240111216
 20
188.6017213561334
 30
0.0
 11
68.27683240111216
 21
187.0308019120812
 31
0.0
  0
LINE
  5
17B
330
70
100
AcDbEntity
  8
Bemaßung
 62
     7
370
     9
100
AcDbLine
 10
68.22638517890253
 20
188.6017213561334
 30
0.0
 11
68.22638517890253
 21
186.6448630232891
 31
0.0
  0
LINE
  5
17C
330
70
100
AcDbEntity
  8
Bemaßung
 62
     7
370
     9
100
AcDbLine
 10
68.17558517891516
 20
188.6017213561334
 30
0.0
 11
68.17558517891516
 21
186.2592769122741
 31
0.0
  0
LINE
  5
17D
330
70
100
AcDbEntity
  8
Bemaßung
 62
     7
370
     9
100
AcDbLine
 10
68.12443240115001
 20
188.6017213561334
 30
0.0
 11
68.12443240115001
 21
185.8729852457043
 31
0.0
  0
LINE
  5
17E
330
70
100
AcDbEntity
  8
Bemaßung
 62
     7
370
     9
100
AcDbLine
 10
68.07398517894039
 20
188.6017213561334
 30
0.0
 11
68.07398517894039
 21
185.4873991346893
 31
0.0
  0
LINE
  5
17F
330
70
100
AcDbEntity
  8
Bemaßung
 62
     7
370
     9
100
AcDbLine
 10
68.02283240117557
 20
188.6017213561334
 30
0.0
 11
68.02283240117557
 21
185.1011074681194
 31
0.0
  0
LINE
  5
180
330
70
100
AcDbEntity
  8
Bemaßung
 62
     7
370
     9
100
AcDbLine
 10
67.56598517906754
 20
188.6017213561334
 30
0.0
 11
67.56598517906754
 21
188.5742046894731
 31
0.0
  0
LINE
  5
181
330
70
100
AcDbEntity
  8
Bemaßung
 62
     7
370
     9
100
AcDbLine
 10
67.56598517906754
 20
188.6017213561334
 30
0.0
 11
67.56598517906754
 21
188.5742046894731
 31
0.0
  0
LINE
  5
182
330
70
100
AcDbEntity
  8
Bemaßung
 62
     7
370
     9
100
AcDbLine
 10
67.61643240127715
 20
188.6017213561334
 30
0.0
 11
67.61643240127715
 21
188.188265800681
 31
0.0
  0
LINE
  5
183
330
70
100
AcDbEntity
  8
Bemaßung
 62
     7
370
     9
100
AcDbLine
 10
67.66758517904229
 20
188.6017213561334
 30
0.0
 11
67.66758517904229
 21
187.802679689666
 31
0.0
  0
LINE
  5
184
330
70
100
AcDbEntity
  8
Bemaßung
 62
     7
370
     9
100
AcDbLine
 10
67.71803240125159
 20
188.6017213561334
 30
0.0
 11
67.71803240125159
 21
187.4163880230962
 31
0.0
  0
LINE
  5
185
330
70
100
AcDbEntity
  8
Bemaßung
 62
     7
370
     9
100
AcDbLine
 10
67.76918517901674
 20
188.6017213561334
 30
0.0
 11
67.76918517901674
 21
187.0308019120812
 31
0.0
  0
LINE
  5
186
330
70
100
AcDbEntity
  8
Bemaßung
 62
     7
370
     9
100
AcDbLine
 10
67.81998517900412
 20
188.6017213561334
 30
0.0
 11
67.81998517900412
 21
186.6448630232891
 31
0.0
  0
LINE
  5
187
330
70
100
AcDbEntity
  8
Bemaßung
 62
     7
370
     9
100
AcDbLine
 10
67.87043240121374
 20
188.6017213561334
 30
0.0
 11
67.87043240121374
 21
186.2592769122741
 31
0.0
  0
LINE
  5
188
330
70
100
AcDbEntity
  8
Bemaßung
 62
     7
370
     9
100
AcDbLine
 10
67.92158517897856
 20
188.6017213561334
 30
0.0
 11
67.92158517897856
 21
185.8729852457043
 31
0.0
  0
LINE
  5
189
330
70
100
AcDbEntity
  8
Bemaßung
 62
     7
370
     9
100
AcDbLine
 10
67.97203240118818
 20
188.6017213561334
 30
0.0
 11
67.97203240118818
 21
185.4873991346893
 31
0.0
  0
LINE
  5
18A
330
70
100
AcDbEntity
  8
Bemaßung
 62
     7
370
     9
100
AcDbLine
 10
68.02283240117557
 20
188.6017213561334
 30
0.0
 11
68.02283240117557
 21
185.1011074681194
 31
0.0
  0
LINE
  5
18B
330
70
100
AcDbEntity
  8
Bemaßung
 62
     7
370
     9
100
AcDbLine
 10
187.5227768157449
 20
220.1012491260362
 30
0.0
 11
239.1110120653202
 21
220.1012491260362
 31
0.0
  0
LINE
  5
18C
330
70
100
AcDbEntity
  8
Bemaßung
 62
     7
370
     9
100
AcDbLine
 10
187.5227768157449
 20
175.1012685817307
 30
0.0
 11
239.1110120653202
 21
175.1012685817307
 31
0.0
  0
LINE
  5
18D
330
70
100
AcDbEntity
  8
Bemaßung
 62
     7
370
     9
100
AcDbLine
 10
237.1111148435977
 20
220.1012491260362
 30
0.0
 11
237.1111148435977
 21
175.1012685817307
 31
0.0
  0
LWPOLYLINE
  5
18E
330
70
100
AcDbEntity
  8
Bemaßung
 62
     7
370
     9
100
AcDbPolyline
 90
        4
 70
     0
 43
0.0
 10
237.1111148435977
 20
220.1012491260362
 10
236.650739843713
 20
216.6016935713555
 10
237.5721953990382
 20
216.6016935713555
 10
237.1111148435977
 20
220.1012491260362
  0
LINE
  5
18F
330
70
100
AcDbEntity
  8
Bemaßung
 62
     7
370
     9
100
AcDbLine
 10
236.6542676214899
 20
216.6016935713555
 30
0.0
 11
236.6542676214899
 21
216.6288574602373
 31
0.0
  0
LINE
  5
190
330
70
100
AcDbEntity
  8
Bemaßung
 62
     7
370
     9
100
AcDbLine
 10
236.6542676214899
 20
216.6016935713555
 30
0.0
 11
236.6542676214899
 21
216.6288574602373
 31
0.0
  0
LINE
  5
191
330
70
100
AcDbEntity
  8
Bemaßung
 62
     7
370
     9
100
AcDbLine
 10
236.705067621477
 20
216.6016935713555
 30
0.0
 11
236.705067621477
 21
217.0144435712523
 31
0.0
  0
LINE
  5
192
330
70
100
AcDbEntity
  8
Bemaßung
 62
     7
370
     9
100
AcDbLine
 10
236.7558676214644
 20
216.6016935713555
 30
0.0
 11
236.7558676214644
 21
217.4007352378222
 31
0.0
  0
LINE
  5
193
330
70
100
AcDbEntity
  8
Bemaßung
 62
     7
370
     9
100
AcDbLine
 10
236.8066676214517
 20
216.6016935713555
 30
0.0
 11
236.8066676214517
 21
217.7859685710593
 31
0.0
  0
LINE
  5
194
330
70
100
AcDbEntity
  8
Bemaßung
 62
     7
370
     9
100
AcDbLine
 10
236.8571148436614
 20
216.6016935713555
 30
0.0
 11
236.8571148436614
 21
218.1722602376293
 31
0.0
  0
LINE
  5
195
330
70
100
AcDbEntity
  8
Bemaßung
 62
     7
370
     9
100
AcDbLine
 10
236.9079148436485
 20
216.6016935713555
 30
0.0
 11
236.9079148436485
 21
218.5578463486442
 31
0.0
  0
LINE
  5
196
330
70
100
AcDbEntity
  8
Bemaßung
 62
     7
370
     9
100
AcDbLine
 10
236.9587148436358
 20
216.6016935713555
 30
0.0
 11
236.9587148436358
 21
218.9441380152141
 31
0.0
  0
LINE
  5
197
330
70
100
AcDbEntity
  8
Bemaßung
 62
     7
370
     9
100
AcDbLine
 10
237.0095148436232
 20
216.6016935713555
 30
0.0
 11
237.0095148436232
 21
219.3293713484513
 31
0.0
  0
LINE
  5
198
330
70
100
AcDbEntity
  8
Bemaßung
 62
     7
370
     9
100
AcDbLine
 10
237.0603148436106
 20
216.6016935713555
 30
0.0
 11
237.0603148436106
 21
219.7156630150212
 31
0.0
  0
LINE
  5
199
330
70
100
AcDbEntity
  8
Bemaßung
 62
     7
370
     9
100
AcDbLine
 10
237.1111148435977
 20
216.6016935713555
 30
0.0
 11
237.1111148435977
 21
220.1012491260362
 31
0.0
  0
LINE
  5
19A
330
70
100
AcDbEntity
  8
Bemaßung
 62
     7
370
     9
100
AcDbLine
 10
237.5686676212612
 20
216.6016935713555
 30
0.0
 11
237.5686676212612
 21
216.6288574602373
 31
0.0
  0
LINE
  5
19B
330
70
100
AcDbEntity
  8
Bemaßung
 62
     7
370
     9
100
AcDbLine
 10
237.5686676212612
 20
216.6016935713555
 30
0.0
 11
237.5686676212612
 21
216.6288574602373
 31
0.0
  0
LINE
  5
19C
330
70
100
AcDbEntity
  8
Bemaßung
 62
     7
370
     9
100
AcDbLine
 10
237.5178676212738
 20
216.6016935713555
 30
0.0
 11
237.5178676212738
 21
217.0144435712523
 31
0.0
  0
LINE
  5
19D
330
70
100
AcDbEntity
  8
Bemaßung
 62
     7
370
     9
100
AcDbLine
 10
237.4670676212864
 20
216.6016935713555
 30
0.0
 11
237.4670676212864
 21
217.4007352378222
 31
0.0
  0
LINE
  5
19E
330
70
100
AcDbEntity
  8
Bemaßung
 62
     7
370
     9
100
AcDbLine
 10
237.4162676212994
 20
216.6016935713555
 30
0.0
 11
237.4162676212994
 21
217.7859685710593
 31
0.0
  0
LINE
  5
19F
330
70
100
AcDbEntity
  8
Bemaßung
 62
     7
370
     9
100
AcDbLine
 10
237.365467621312
 20
216.6016935713555
 30
0.0
 11
237.365467621312
 21
218.1722602376293
 31
0.0
  0
LINE
  5
1A0
330
70
100
AcDbEntity
  8
Bemaßung
 62
     7
370
     9
100
AcDbLine
 10
237.3143148435469
 20
216.6016935713555
 30
0.0
 11
237.3143148435469
 21
218.5578463486442
 31
0.0
  0
LINE
  5
1A1
330
70
100
AcDbEntity
  8
Bemaßung
 62
     7
370
     9
100
AcDbLine
 10
237.2635148435598
 20
216.6016935713555
 30
0.0
 11
237.2635148435598
 21
218.9441380152141
 31
0.0
  0
LINE
  5
1A2
330
70
100
AcDbEntity
  8
Bemaßung
 62
     7
370
     9
100
AcDbLine
 10
237.2127148435724
 20
216.6016935713555
 30
0.0
 11
237.2127148435724
 21
219.3293713484513
 31
0.0
  0
LINE
  5
1A3
330
70
100
AcDbEntity
  8
Bemaßung
 62
     7
370
     9
100
AcDbLine
 10
237.1619148435851
 20
216.6016935713555
 30
0.0
 11
237.1619148435851
 21
219.7156630150212
 31
0.0
  0
LINE
  5
1A4
330
70
100
AcDbEntity
  8
Bemaßung
 62
     7
370
     9
100
AcDbLine
 10
237.1111148435977
 20
216.6016935713555
 30
0.0
 11
237.1111148435977
 21
220.1012491260362
 31
0.0
  0
LWPOLYLINE
  5
1A5
330
70
100
AcDbEntity
  8
Bemaßung
 62
     7
370
     9
100
AcDbPolyline
 90
        4
 70
     0
 43
0.0
 10
237.1111148435977
 20
175.1012685817307
 10
237.5721953990382
 20
178.6015296919662
 10
236.650739843713
 20
178.6015296919662
 10
237.1111148435977
 20
175.1012685817307
  0
LINE
  5
1A6
330
70
100
AcDbEntity
  8
Bemaßung
 62
     7
370
     9
100
AcDbLine
 10
237.5686676212612
 20
178.6015296919662
 30
0.0
 11
237.5686676212612
 21
178.5743658030844
 31
0.0
  0
LINE
  5
1A7
330
70
100
AcDbEntity
  8
Bemaßung
 62
     7
370
     9
100
AcDbLine
 10
237.5686676212612
 20
178.6015296919662
 30
0.0
 11
237.5686676212612
 21
178.5743658030844
 31
0.0
  0
LINE
  5
1A8
330
70
100
AcDbEntity
  8
Bemaßung
 62
     7
370
     9
100
AcDbLine
 10
237.5178676212738
 20
178.6015296919662
 30
0.0
 11
237.5178676212738
 21
178.1880741365145
 31
0.0
  0
LINE
  5
1A9
330
70
100
AcDbEntity
  8
Bemaßung
 62
     7
370
     9
100
AcDbLine
 10
237.4670676212864
 20
178.6015296919662
 30
0.0
 11
237.4670676212864
 21
177.8024880254995
 31
0.0
  0
LINE
  5
1AA
330
70
100
AcDbEntity
  8
Bemaßung
 62
     7
370
     9
100
AcDbLine
 10
237.4162676212994
 20
178.6015296919662
 30
0.0
 11
237.4162676212994
 21
177.4165491367074
 31
0.0
  0
LINE
  5
1AB
330
70
100
AcDbEntity
  8
Bemaßung
 62
     7
370
     9
100
AcDbLine
 10
237.365467621312
 20
178.6015296919662
 30
0.0
 11
237.365467621312
 21
177.0309630256925
 31
0.0
  0
LINE
  5
1AC
330
70
100
AcDbEntity
  8
Bemaßung
 62
     7
370
     9
100
AcDbLine
 10
237.3143148435469
 20
178.6015296919662
 30
0.0
 11
237.3143148435469
 21
176.6446713591226
 31
0.0
  0
LINE
  5
1AD
330
70
100
AcDbEntity
  8
Bemaßung
 62
     7
370
     9
100
AcDbLine
 10
237.2635148435598
 20
178.6015296919662
 30
0.0
 11
237.2635148435598
 21
176.2590852481076
 31
0.0
  0
LINE
  5
1AE
330
70
100
AcDbEntity
  8
Bemaßung
 62
     7
370
     9
100
AcDbLine
 10
237.2127148435724
 20
178.6015296919662
 30
0.0
 11
237.2127148435724
 21
175.8731463593155
 31
0.0
  0
LINE
  5
1AF
330
70
100
AcDbEntity
  8
Bemaßung
 62
     7
370
     9
100
AcDbLine
 10
237.1619148435851
 20
178.6015296919662
 30
0.0
 11
237.1619148435851
 21
175.4875602483005
 31
0.0
  0
LINE
  5
1B0
330
70
100
AcDbEntity
  8
Bemaßung
 62
     7
370
     9
100
AcDbLine
 10
237.1111148435977
 20
178.6015296919662
 30
0.0
 11
237.1111148435977
 21
175.1012685817307
 31
0.0
  0
LINE
  5
1B1
330
70
100
AcDbEntity
  8
Bemaßung
 62
     7
370
     9
100
AcDbLine
 10
236.6542676214899
 20
178.6015296919662
 30
0.0
 11
236.6542676214899
 21
178.5743658030844
 31
0.0
  0
LINE
  5
1B2
330
70
100
AcDbEntity
  8
Bemaßung
 62
     7
370
     9
100
AcDbLine
 10
236.6542676214899
 20
178.6015296919662
 30
0.0
 11
236.6542676214899
 21
178.5743658030844
 31
0.0
  0
LINE
  5
1B3
330
70
100
AcDbEntity
  8
Bemaßung
 62
     7
370
     9
100
AcDbLine
 10
236.705067621477
 20
178.6015296919662
 30
0.0
 11
236.705067621477
 21
178.1880741365145
 31
0.0
  0
LINE
  5
1B4
330
70
100
AcDbEntity
  8
Bemaßung
 62
     7
370
     9
100
AcDbLine
 10
236.7558676214644
 20
178.6015296919662
 30
0.0
 11
236.7558676214644
 21
177.8024880254995
 31
0.0
  0
LINE
  5
1B5
330
70
100
AcDbEntity
  8
Bemaßung
 62
     7
370
     9
100
AcDbLine
 10
236.8066676214517
 20
178.6015296919662
 30
0.0
 11
236.8066676214517
 21
177.4165491367074
 31
0.0
  0
LINE
  5
1B6
330
70
100
AcDbEntity
  8
Bemaßung
 62
     7
370
     9
100
AcDbLine
 10
236.8571148436614
 20
178.6015296919662
 30
0.0
 11
236.8571148436614
 21
177.0309630256925
 31
0.0
  0
LINE
  5
1B7
330
70
100
AcDbEntity
  8
Bemaßung
 62
     7
370
     9
100
AcDbLine
 10
236.9079148436485
 20
178.6015296919662
 30
0.0
 11
236.9079148436485
 21
176.6446713591226
 31
0.0
  0
LINE
  5
1B8
330
70
100
AcDbEntity
  8
Bemaßung
 62
     7
370
     9
100
AcDbLine
 10
236.9587148436358
 20
178.6015296919662
 30
0.0
 11
236.9587148436358
 21
176.2590852481076
 31
0.0
  0
LINE
  5
1B9
330
70
100
AcDbEntity
  8
Bemaßung
 62
     7
370
     9
100
AcDbLine
 10
237.0095148436232
 20
178.6015296919662
 30
0.0
 11
237.0095148436232
 21
175.8731463593155
 31
0.0
  0
LINE
  5
1BA
330
70
100
AcDbEntity
  8
Bemaßung
 62
     7
370
     9
100
AcDbLine
 10
237.0603148436106
 20
178.6015296919662
 30
0.0
 11
237.0603148436106
 21
175.4875602483005
 31
0.0
  0
LINE
  5
1BB
330
70
100
AcDbEntity
  8
Bemaßung
 62
     7
370
     9
100
AcDbLine
 10
237.1111148435977
 20
178.6015296919662
 30
0.0
 11
237.1111148435977
 21
175.1012685817307
 31
0.0
  0
LWPOLYLINE
  5
1BC
330
70
100
AcDbEntity
  8
Bemaßung
 62
     7
370
     9
100
AcDbPolyline
 90
        6
 70
     0
 43
0.0
 10
257.4485654085271
 20
229.5648657903369
 10
236.3204101368791
 20
229.5648657903369
 10
212.2009934762423
 20
208.4303019067315
 10
215.1371629199525
 20
210.3906880173527
 10
214.5296795867711
 20
211.0838963505128
 10
212.2009934762423
 20
208.4303019067315
  0
LINE
  5
1BD
330
70
100
AcDbEntity
  8
Bemaßung
 62
     7
370
     9
100
AcDbLine
 10
215.1350462532862
 20
210.3931574617964
 30
0.0
 11
215.1145851421806
 21
210.3755185729119
 31
0.0
  0
LINE
  5
1BE
330
70
100
AcDbEntity
  8
Bemaßung
 62
     7
370
     9
100
AcDbLine
 10
215.1350462532862
 20
210.3931574617964
 30
0.0
 11
215.1145851421806
 21
210.3755185729119
 31
0.0
  0
LINE
  5
1BF
330
70
100
AcDbEntity
  8
Bemaßung
 62
     7
370
     9
100
AcDbLine
 10
215.1011795866282
 20
210.4316102395647
 30
0.0
 11
214.7907351422613
 21
210.1589130174106
 31
0.0
  0
LINE
  5
1C0
330
70
100
AcDbEntity
  8
Bemaßung
 62
     7
370
     9
100
AcDbLine
 10
215.0676656977476
 20
210.4693574617775
 30
0.0
 11
214.4668851423424
 21
209.9430130174646
 31
0.0
  0
LINE
  5
1C1
330
70
100
AcDbEntity
  8
Bemaßung
 62
     7
370
     9
100
AcDbLine
 10
215.0345045866448
 20
210.5078102395455
 30
0.0
 11
214.1430351424232
 21
209.7271130175185
 31
0.0
  0
LINE
  5
1C2
330
70
100
AcDbEntity
  8
Bemaßung
 62
     7
370
     9
100
AcDbLine
 10
215.0009906977645
 20
210.5462630173138
 30
0.0
 11
213.819537920282
 21
209.5108602397947
 31
0.0
  0
LINE
  5
1C3
330
70
100
AcDbEntity
  8
Bemaßung
 62
     7
370
     9
100
AcDbLine
 10
214.9674768088839
 20
210.584363017304
 30
0.0
 11
213.4956879203627
 21
209.294960239849
 31
0.0
  0
LINE
  5
1C4
330
70
100
AcDbEntity
  8
Bemaßung
 62
     7
370
     9
100
AcDbLine
 10
214.9339629200033
 20
210.6228157950723
 30
0.0
 11
213.1725434759994
 21
209.0787074621248
 31
0.0
  0
LINE
  5
1C5
330
70
100
AcDbEntity
  8
Bemaßung
 62
     7
370
     9
100
AcDbLine
 10
214.9008018089004
 20
210.660563017285
 30
0.0
 11
212.8486934760801
 21
208.8628074621791
 31
0.0
  0
LINE
  5
1C6
330
70
100
AcDbEntity
  8
Bemaßung
 62
     7
370
     9
100
AcDbLine
 10
214.8672879200198
 20
210.6990157950534
 30
0.0
 11
212.5248434761612
 21
208.6462019066775
 31
0.0
  0
LINE
  5
1C7
330
70
100
AcDbEntity
  8
Bemaßung
 62
     7
370
     9
100
AcDbLine
 10
214.8334212533618
 20
210.7367630172661
 30
0.0
 11
212.2009934762423
 21
208.4303019067315
 31
0.0
  0
LINE
  5
1C8
330
70
100
AcDbEntity
  8
Bemaßung
 62
     7
370
     9
100
AcDbLine
 10
214.5325018089926
 20
211.081074128291
 30
0.0
 11
214.5120406978866
 21
211.0627296838513
 31
0.0
  0
LINE
  5
1C9
330
70
100
AcDbEntity
  8
Bemaßung
 62
     7
370
     9
100
AcDbLine
 10
214.5325018089926
 20
211.081074128291
 30
0.0
 11
214.5120406978866
 21
211.0627296838513
 31
0.0
  0
LINE
  5
1CA
330
70
100
AcDbEntity
  8
Bemaßung
 62
     7
370
     9
100
AcDbLine
 10
214.5656629200954
 20
211.0426213505231
 30
0.0
 11
214.2548656979508
 21
210.7706296839242
 31
0.0
  0
LINE
  5
1CB
330
70
100
AcDbEntity
  8
Bemaßung
 62
     7
370
     9
100
AcDbLine
 10
214.599176808976
 20
211.0048741283103
 30
0.0
 11
213.9983962535705
 21
210.4778241284418
 31
0.0
  0
LINE
  5
1CC
330
70
100
AcDbEntity
  8
Bemaßung
 62
     7
370
     9
100
AcDbLine
 10
214.633043475634
 20
210.9660685727642
 30
0.0
 11
213.7415740314124
 21
210.185724128515
 31
0.0
  0
LINE
  5
1CD
330
70
100
AcDbEntity
  8
Bemaßung
 62
     7
370
     9
100
AcDbLine
 10
214.6665573645146
 20
210.9283213505515
 30
0.0
 11
213.4847518092544
 21
209.8932713508105
 31
0.0
  0
LINE
  5
1CE
330
70
100
AcDbEntity
  8
Bemaßung
 62
     7
370
     9
100
AcDbLine
 10
214.6997184756175
 20
210.8898685727831
 30
0.0
 11
213.2282823648741
 21
209.6004657953281
 31
0.0
  0
LINE
  5
1CF
330
70
100
AcDbEntity
  8
Bemaßung
 62
     7
370
     9
100
AcDbLine
 10
214.7332323644981
 20
210.8517685727929
 30
0.0
 11
212.9711073649383
 21
209.3076602398455
 31
0.0
  0
LINE
  5
1D0
330
70
100
AcDbEntity
  8
Bemaßung
 62
     7
370
     9
100
AcDbLine
 10
214.7667462533783
 20
210.8133157950246
 30
0.0
 11
212.7149906983358
 21
209.0152074621409
 31
0.0
  0
LINE
  5
1D1
330
70
100
AcDbEntity
  8
Bemaßung
 62
     7
370
     9
100
AcDbLine
 10
214.7999073644812
 20
210.7755685728119
 30
0.0
 11
212.4581684761778
 21
208.7231074622138
 31
0.0
  0
LINE
  5
1D2
330
70
100
AcDbEntity
  8
Bemaßung
 62
     7
370
     9
100
AcDbLine
 10
214.8334212533618
 20
210.7367630172661
 30
0.0
 11
212.2009934762423
 21
208.4303019067315
 31
0.0
  0
LINE
  5
1D3
330
70
100
AcDbEntity
  8
Bemaßung
 62
     7
370
     9
100
AcDbLine
 10
178.0231768181199
 20
175.6015074704943
 30
0.0
 11
178.0231768181199
 21
162.3515324741479
 31
0.0
  0
LINE
  5
1D4
330
70
100
AcDbEntity
  8
Bemaßung
 62
     7
370
     9
100
AcDbLine
 10
178.0231768181199
 20
164.3514296958701
 30
0.0
 11
203.0227740340921
 21
164.3514296958701
 31
0.0
  0
LWPOLYLINE
  5
1D5
330
70
100
AcDbEntity
  8
Bemaßung
 62
     7
370
     9
100
AcDbPolyline
 90
        4
 70
     0
 43
0.0
 10
178.0231768181199
 20
164.3514296958701
 10
181.5227323728006
 20
163.8903491404302
 10
181.5227323728006
 20
164.8125102513106
 10
178.0231768181199
 20
164.3514296958701
  0
LINE
  5
1D6
330
70
100
AcDbEntity
  8
Bemaßung
 62
     7
370
     9
100
AcDbLine
 10
181.5227323728006
 20
163.8938769182072
 30
0.0
 11
181.4959212616962
 21
163.8938769182072
 31
0.0
  0
LINE
  5
1D7
330
70
100
AcDbEntity
  8
Bemaßung
 62
     7
370
     9
100
AcDbLine
 10
181.5227323728006
 20
163.8938769182072
 30
0.0
 11
181.4959212616962
 21
163.8938769182072
 31
0.0
  0
LINE
  5
1D8
330
70
100
AcDbEntity
  8
Bemaßung
 62
     7
370
     9
100
AcDbLine
 10
181.5227323728006
 20
163.9453824737495
 30
0.0
 11
181.1099823729037
 21
163.9453824737495
 31
0.0
  0
LINE
  5
1D9
330
70
100
AcDbEntity
  8
Bemaßung
 62
     7
370
     9
100
AcDbLine
 10
181.5227323728006
 20
163.9961824737368
 30
0.0
 11
180.7240434841113
 21
163.9961824737368
 31
0.0
  0
LINE
  5
1DA
330
70
100
AcDbEntity
  8
Bemaßung
 62
     7
370
     9
100
AcDbLine
 10
181.5227323728006
 20
164.0462769181687
 30
0.0
 11
180.3381045953189
 21
164.0462769181687
 31
0.0
  0
LINE
  5
1DB
330
70
100
AcDbEntity
  8
Bemaßung
 62
     7
370
     9
100
AcDbLine
 10
181.5227323728006
 20
164.0974296959339
 30
0.0
 11
179.9525184843042
 21
164.0974296959339
 31
0.0
  0
LINE
  5
1DC
330
70
100
AcDbEntity
  8
Bemaßung
 62
     7
370
     9
100
AcDbLine
 10
181.5227323728006
 20
164.1482296959212
 30
0.0
 11
179.5665795955118
 21
164.1482296959212
 31
0.0
  0
LINE
  5
1DD
330
70
100
AcDbEntity
  8
Bemaßung
 62
     7
370
     9
100
AcDbLine
 10
181.5227323728006
 20
164.1986769181309
 30
0.0
 11
179.1806407067194
 21
164.1986769181309
 31
0.0
  0
LINE
  5
1DE
330
70
100
AcDbEntity
  8
Bemaßung
 62
     7
370
     9
100
AcDbLine
 10
181.5227323728006
 20
164.249829695896
 30
0.0
 11
178.794701817927
 21
164.249829695896
 31
0.0
  0
LINE
  5
1DF
330
70
100
AcDbEntity
  8
Bemaßung
 62
     7
370
     9
100
AcDbLine
 10
181.5227323728006
 20
164.3002769181056
 30
0.0
 11
178.4091157069123
 21
164.3002769181056
 31
0.0
  0
LINE
  5
1E0
330
70
100
AcDbEntity
  8
Bemaßung
 62
     7
370
     9
100
AcDbLine
 10
181.5227323728006
 20
164.3514296958701
 30
0.0
 11
178.0231768181199
 21
164.3514296958701
 31
0.0
  0
LINE
  5
1E1
330
70
100
AcDbEntity
  8
Bemaßung
 62
     7
370
     9
100
AcDbLine
 10
181.5227323728006
 20
164.8089824735337
 30
0.0
 11
181.4959212616962
 21
164.8089824735337
 31
0.0
  0
LINE
  5
1E2
330
70
100
AcDbEntity
  8
Bemaßung
 62
     7
370
     9
100
AcDbLine
 10
181.5227323728006
 20
164.8089824735337
 30
0.0
 11
181.4959212616962
 21
164.8089824735337
 31
0.0
  0
LINE
  5
1E3
330
70
100
AcDbEntity
  8
Bemaßung
 62
     7
370
     9
100
AcDbLine
 10
181.5227323728006
 20
164.7578296957686
 30
0.0
 11
181.1099823729037
 21
164.7578296957686
 31
0.0
  0
LINE
  5
1E4
330
70
100
AcDbEntity
  8
Bemaßung
 62
     7
370
     9
100
AcDbLine
 10
181.5227323728006
 20
164.7070296957818
 30
0.0
 11
180.7240434841113
 21
164.7070296957818
 31
0.0
  0
LINE
  5
1E5
330
70
100
AcDbEntity
  8
Bemaßung
 62
     7
370
     9
100
AcDbLine
 10
181.5227323728006
 20
164.6565824735722
 30
0.0
 11
180.3381045953189
 21
164.6565824735722
 31
0.0
  0
LINE
  5
1E6
330
70
100
AcDbEntity
  8
Bemaßung
 62
     7
370
     9
100
AcDbLine
 10
181.5227323728006
 20
164.605429695807
 30
0.0
 11
179.9525184843042
 21
164.605429695807
 31
0.0
  0
LINE
  5
1E7
330
70
100
AcDbEntity
  8
Bemaßung
 62
     7
370
     9
100
AcDbLine
 10
181.5227323728006
 20
164.5546296958196
 30
0.0
 11
179.5665795955118
 21
164.5546296958196
 31
0.0
  0
LINE
  5
1E8
330
70
100
AcDbEntity
  8
Bemaßung
 62
     7
370
     9
100
AcDbLine
 10
181.5227323728006
 20
164.5038296958323
 30
0.0
 11
179.1806407067194
 21
164.5038296958323
 31
0.0
  0
LINE
  5
1E9
330
70
100
AcDbEntity
  8
Bemaßung
 62
     7
370
     9
100
AcDbLine
 10
181.5227323728006
 20
164.4530296958449
 30
0.0
 11
178.794701817927
 21
164.4530296958449
 31
0.0
  0
LINE
  5
1EA
330
70
100
AcDbEntity
  8
Bemaßung
 62
     7
370
     9
100
AcDbLine
 10
181.5227323728006
 20
164.4022296958575
 30
0.0
 11
178.4091157069123
 21
164.4022296958575
 31
0.0
  0
LINE
  5
1EB
330
70
100
AcDbEntity
  8
Bemaßung
 62
     7
370
     9
100
AcDbLine
 10
181.5227323728006
 20
164.3514296958701
 30
0.0
 11
178.0231768181199
 21
164.3514296958701
 31
0.0
  0
LWPOLYLINE
  5
1EC
330
70
100
AcDbEntity
  8
Bemaßung
 62
     7
370
     9
100
AcDbPolyline
 90
        4
 70
     0
 43
0.0
 10
203.0227740340921
 20
164.3514296958701
 10
199.522865701634
 20
164.8125102513106
 10
199.522865701634
 20
163.8903491404302
 10
203.0227740340921
 20
164.3514296958701
  0
LINE
  5
1ED
330
70
100
AcDbEntity
  8
Bemaßung
 62
     7
370
     9
100
AcDbLine
 10
199.522865701634
 20
164.8089824735337
 30
0.0
 11
199.5500295905158
 21
164.8089824735337
 31
0.0
  0
LINE
  5
1EE
330
70
100
AcDbEntity
  8
Bemaßung
 62
     7
370
     9
100
AcDbLine
 10
199.522865701634
 20
164.8089824735337
 30
0.0
 11
199.5500295905158
 21
164.8089824735337
 31
0.0
  0
LINE
  5
1EF
330
70
100
AcDbEntity
  8
Bemaßung
 62
     7
370
     9
100
AcDbLine
 10
199.522865701634
 20
164.7578296957686
 30
0.0
 11
199.9359684793083
 21
164.7578296957686
 31
0.0
  0
LINE
  5
1F0
330
70
100
AcDbEntity
  8
Bemaßung
 62
     7
370
     9
100
AcDbLine
 10
199.522865701634
 20
164.7070296957818
 30
0.0
 11
200.3219073681007
 21
164.7070296957818
 31
0.0
  0
LINE
  5
1F1
330
70
100
AcDbEntity
  8
Bemaßung
 62
     7
370
     9
100
AcDbLine
 10
199.522865701634
 20
164.6565824735722
 30
0.0
 11
200.7078462568931
 21
164.6565824735722
 31
0.0
  0
LINE
  5
1F2
330
70
100
AcDbEntity
  8
Bemaßung
 62
     7
370
     9
100
AcDbLine
 10
199.522865701634
 20
164.605429695807
 30
0.0
 11
201.0934323679078
 21
164.605429695807
 31
0.0
  0
LINE
  5
1F3
330
70
100
AcDbEntity
  8
Bemaßung
 62
     7
370
     9
100
AcDbLine
 10
199.522865701634
 20
164.5546296958196
 30
0.0
 11
201.4793712567002
 21
164.5546296958196
 31
0.0
  0
LINE
  5
1F4
330
70
100
AcDbEntity
  8
Bemaßung
 62
     7
370
     9
100
AcDbLine
 10
199.522865701634
 20
164.5038296958323
 30
0.0
 11
201.8653101454926
 21
164.5038296958323
 31
0.0
  0
LINE
  5
1F5
330
70
100
AcDbEntity
  8
Bemaßung
 62
     7
370
     9
100
AcDbLine
 10
199.522865701634
 20
164.4530296958449
 30
0.0
 11
202.2512490342851
 21
164.4530296958449
 31
0.0
  0
LINE
  5
1F6
330
70
100
AcDbEntity
  8
Bemaßung
 62
     7
370
     9
100
AcDbLine
 10
199.522865701634
 20
164.4022296958575
 30
0.0
 11
202.6368351452997
 21
164.4022296958575
 31
0.0
  0
LINE
  5
1F7
330
70
100
AcDbEntity
  8
Bemaßung
 62
     7
370
     9
100
AcDbLine
 10
199.522865701634
 20
164.3514296958701
 30
0.0
 11
203.0227740340921
 21
164.3514296958701
 31
0.0
  0
LINE
  5
1F8
330
70
100
AcDbEntity
  8
Bemaßung
 62
     7
370
     9
100
AcDbLine
 10
199.522865701634
 20
163.8938769182072
 30
0.0
 11
199.5500295905158
 21
163.8938769182072
 31
0.0
  0
LINE
  5
1F9
330
70
100
AcDbEntity
  8
Bemaßung
 62
     7
370
     9
100
AcDbLine
 10
199.522865701634
 20
163.8938769182072
 30
0.0
 11
199.5500295905158
 21
163.8938769182072
 31
0.0
  0
LINE
  5
1FA
330
70
100
AcDbEntity
  8
Bemaßung
 62
     7
370
     9
100
AcDbLine
 10
199.522865701634
 20
163.9453824737495
 30
0.0
 11
199.9359684793083
 21
163.9453824737495
 31
0.0
  0
LINE
  5
1FB
330
70
100
AcDbEntity
  8
Bemaßung
 62
     7
370
     9
100
AcDbLine
 10
199.522865701634
 20
163.9961824737368
 30
0.0
 11
200.3219073681007
 21
163.9961824737368
 31
0.0
  0
LINE
  5
1FC
330
70
100
AcDbEntity
  8
Bemaßung
 62
     7
370
     9
100
AcDbLine
 10
199.522865701634
 20
164.0462769181687
 30
0.0
 11
200.7078462568931
 21
164.0462769181687
 31
0.0
  0
LINE
  5
1FD
330
70
100
AcDbEntity
  8
Bemaßung
 62
     7
370
     9
100
AcDbLine
 10
199.522865701634
 20
164.0974296959339
 30
0.0
 11
201.0934323679078
 21
164.0974296959339
 31
0.0
  0
LINE
  5
1FE
330
70
100
AcDbEntity
  8
Bemaßung
 62
     7
370
     9
100
AcDbLine
 10
199.522865701634
 20
164.1482296959212
 30
0.0
 11
201.4793712567002
 21
164.1482296959212
 31
0.0
  0
LINE
  5
1FF
330
70
100
AcDbEntity
  8
Bemaßung
 62
     7
370
     9
100
AcDbLine
 10
199.522865701634
 20
164.1986769181309
 30
0.0
 11
201.8653101454926
 21
164.1986769181309
 31
0.0
  0
LINE
  5
200
330
70
100
AcDbEntity
  8
Bemaßung
 62
     7
370
     9
100
AcDbLine
 10
199.522865701634
 20
164.249829695896
 30
0.0
 11
202.2512490342851
 21
164.249829695896
 31
0.0
  0
LINE
  5
201
330
70
100
AcDbEntity
  8
Bemaßung
 62
     7
370
     9
100
AcDbLine
 10
199.522865701634
 20
164.3002769181056
 30
0.0
 11
202.6368351452997
 21
164.3002769181056
 31
0.0
  0
LINE
  5
202
330
70
100
AcDbEntity
  8
Bemaßung
 62
     7
370
     9
100
AcDbLine
 10
199.522865701634
 20
164.3514296958701
 30
0.0
 11
203.0227740340921
 21
164.3514296958701
 31
0.0
  0
LINE
  5
203
330
70
100
AcDbEntity
  8
Bemaßung
 62
     7
370
     9
100
AcDbLine
 10
203.0227740340921
 20
181.9515074689068
 30
0.0
 11
203.0227740340921
 21
152.3516935877592
 31
0.0
  0
LINE
  5
204
330
70
100
AcDbEntity
  8
Bemaßung
 62
     7
370
     9
100
AcDbLine
 10
203.0227740340921
 20
154.3515908094814
 30
0.0
 11
78.02302406534209
 21
154.3515908094814
 31
0.0
  0
LWPOLYLINE
  5
205
330
70
100
AcDbEntity
  8
Bemaßung
 62
     7
370
     9
100
AcDbPolyline
 90
        4
 70
     0
 43
0.0
 10
203.0227740340921
 20
154.3515908094814
 10
199.522865701634
 20
154.8123185871441
 10
199.522865701634
 20
153.8905102540415
 10
203.0227740340921
 20
154.3515908094814
  0
LINE
  5
206
330
70
100
AcDbEntity
  8
Bemaßung
 62
     7
370
     9
100
AcDbLine
 10
199.522865701634
 20
154.8087908093672
 30
0.0
 11
199.5500295905158
 21
154.8087908093672
 31
0.0
  0
LINE
  5
207
330
70
100
AcDbEntity
  8
Bemaßung
 62
     7
370
     9
100
AcDbLine
 10
199.522865701634
 20
154.8087908093672
 30
0.0
 11
199.5500295905158
 21
154.8087908093672
 31
0.0
  0
LINE
  5
208
330
70
100
AcDbEntity
  8
Bemaßung
 62
     7
370
     9
100
AcDbLine
 10
199.522865701634
 20
154.7579908093798
 30
0.0
 11
199.9359684793083
 21
154.7579908093798
 31
0.0
  0
LINE
  5
209
330
70
100
AcDbEntity
  8
Bemaßung
 62
     7
370
     9
100
AcDbLine
 10
199.522865701634
 20
154.7071908093924
 30
0.0
 11
200.3219073681007
 21
154.7071908093924
 31
0.0
  0
LINE
  5
20A
330
70
100
AcDbEntity
  8
Bemaßung
 62
     7
370
     9
100
AcDbLine
 10
199.522865701634
 20
154.656390809405
 30
0.0
 11
200.7078462568931
 21
154.656390809405
 31
0.0
  0
LINE
  5
20B
330
70
100
AcDbEntity
  8
Bemaßung
 62
     7
370
     9
100
AcDbLine
 10
199.522865701634
 20
154.6055908094183
 30
0.0
 11
201.0934323679078
 21
154.6055908094183
 31
0.0
  0
LINE
  5
20C
330
70
100
AcDbEntity
  8
Bemaßung
 62
     7
370
     9
100
AcDbLine
 10
199.522865701634
 20
154.5547908094309
 30
0.0
 11
201.4793712567002
 21
154.5547908094309
 31
0.0
  0
LINE
  5
20D
330
70
100
AcDbEntity
  8
Bemaßung
 62
     7
370
     9
100
AcDbLine
 10
199.522865701634
 20
154.5039908094435
 30
0.0
 11
201.8653101454926
 21
154.5039908094435
 31
0.0
  0
LINE
  5
20E
330
70
100
AcDbEntity
  8
Bemaßung
 62
     7
370
     9
100
AcDbLine
 10
199.522865701634
 20
154.4531908094561
 30
0.0
 11
202.2512490342851
 21
154.4531908094561
 31
0.0
  0
LINE
  5
20F
330
70
100
AcDbEntity
  8
Bemaßung
 62
     7
370
     9
100
AcDbLine
 10
199.522865701634
 20
154.4023908094687
 30
0.0
 11
202.6368351452997
 21
154.4023908094687
 31
0.0
  0
LINE
  5
210
330
70
100
AcDbEntity
  8
Bemaßung
 62
     7
370
     9
100
AcDbLine
 10
199.522865701634
 20
154.3515908094814
 30
0.0
 11
203.0227740340921
 21
154.3515908094814
 31
0.0
  0
LINE
  5
211
330
70
100
AcDbEntity
  8
Bemaßung
 62
     7
370
     9
100
AcDbLine
 10
199.522865701634
 20
153.8940380318178
 30
0.0
 11
199.5500295905158
 21
153.8940380318178
 31
0.0
  0
LINE
  5
212
330
70
100
AcDbEntity
  8
Bemaßung
 62
     7
370
     9
100
AcDbLine
 10
199.522865701634
 20
153.8940380318178
 30
0.0
 11
199.5500295905158
 21
153.8940380318178
 31
0.0
  0
LINE
  5
213
330
70
100
AcDbEntity
  8
Bemaßung
 62
     7
370
     9
100
AcDbLine
 10
199.522865701634
 20
153.9448380318052
 30
0.0
 11
199.9359684793083
 21
153.9448380318052
 31
0.0
  0
LINE
  5
214
330
70
100
AcDbEntity
  8
Bemaßung
 62
     7
370
     9
100
AcDbLine
 10
199.522865701634
 20
153.9956380317926
 30
0.0
 11
200.3219073681007
 21
153.9956380317926
 31
0.0
  0
LINE
  5
215
330
70
100
AcDbEntity
  8
Bemaßung
 62
     7
370
     9
100
AcDbLine
 10
199.522865701634
 20
154.0464380317799
 30
0.0
 11
200.7078462568931
 21
154.0464380317799
 31
0.0
  0
LINE
  5
216
330
70
100
AcDbEntity
  8
Bemaßung
 62
     7
370
     9
100
AcDbLine
 10
199.522865701634
 20
154.0972380317673
 30
0.0
 11
201.0934323679078
 21
154.0972380317673
 31
0.0
  0
LINE
  5
217
330
70
100
AcDbEntity
  8
Bemaßung
 62
     7
370
     9
100
AcDbLine
 10
199.522865701634
 20
154.1480380317547
 30
0.0
 11
201.4793712567002
 21
154.1480380317547
 31
0.0
  0
LINE
  5
218
330
70
100
AcDbEntity
  8
Bemaßung
 62
     7
370
     9
100
AcDbLine
 10
199.522865701634
 20
154.1988380317421
 30
0.0
 11
201.8653101454926
 21
154.1988380317421
 31
0.0
  0
LINE
  5
219
330
70
100
AcDbEntity
  8
Bemaßung
 62
     7
370
     9
100
AcDbLine
 10
199.522865701634
 20
154.2496380317295
 30
0.0
 11
202.2512490342851
 21
154.2496380317295
 31
0.0
  0
LINE
  5
21A
330
70
100
AcDbEntity
  8
Bemaßung
 62
     7
370
     9
100
AcDbLine
 10
199.522865701634
 20
154.3004380317162
 30
0.0
 11
202.6368351452997
 21
154.3004380317162
 31
0.0
  0
LINE
  5
21B
330
70
100
AcDbEntity
  8
Bemaßung
 62
     7
370
     9
100
AcDbLine
 10
199.522865701634
 20
154.3515908094814
 30
0.0
 11
203.0227740340921
 21
154.3515908094814
 31
0.0
  0
LWPOLYLINE
  5
21C
330
70
100
AcDbEntity
  8
Bemaßung
 62
     7
370
     9
100
AcDbPolyline
 90
        4
 70
     0
 43
0.0
 10
78.02302406534209
 20
154.3515908094814
 10
81.52293239780055
 20
153.8905102540415
 10
81.52293239780055
 20
154.8123185871441
 10
78.02302406534209
 20
154.3515908094814
  0
LINE
  5
21D
330
70
100
AcDbEntity
  8
Bemaßung
 62
     7
370
     9
100
AcDbLine
 10
81.52293239780055
 20
153.8940380318178
 30
0.0
 11
81.49612128669614
 21
153.8940380318178
 31
0.0
  0
LINE
  5
21E
330
70
100
AcDbEntity
  8
Bemaßung
 62
     7
370
     9
100
AcDbLine
 10
81.52293239780055
 20
153.8940380318178
 30
0.0
 11
81.49612128669614
 21
153.8940380318178
 31
0.0
  0
LINE
  5
21F
330
70
100
AcDbEntity
  8
Bemaßung
 62
     7
370
     9
100
AcDbLine
 10
81.52293239780055
 20
153.9448380318052
 30
0.0
 11
81.11018239790372
 21
153.9448380318052
 31
0.0
  0
LINE
  5
220
330
70
100
AcDbEntity
  8
Bemaßung
 62
     7
370
     9
100
AcDbLine
 10
81.52293239780055
 20
153.9956380317926
 30
0.0
 11
80.72424350911129
 21
153.9956380317926
 31
0.0
  0
LINE
  5
221
330
70
100
AcDbEntity
  8
Bemaßung
 62
     7
370
     9
100
AcDbLine
 10
81.52293239780055
 20
154.0464380317799
 30
0.0
 11
80.33795184254111
 21
154.0464380317799
 31
0.0
  0
LINE
  5
222
330
70
100
AcDbEntity
  8
Bemaßung
 62
     7
370
     9
100
AcDbLine
 10
81.52293239780055
 20
154.0972380317673
 30
0.0
 11
79.95201295374869
 21
154.0972380317673
 31
0.0
  0
LINE
  5
223
330
70
100
AcDbEntity
  8
Bemaßung
 62
     7
370
     9
100
AcDbLine
 10
81.52293239780055
 20
154.1480380317547
 30
0.0
 11
79.5667796205118
 21
154.1480380317547
 31
0.0
  0
LINE
  5
224
330
70
100
AcDbEntity
  8
Bemaßung
 62
     7
370
     9
100
AcDbLine
 10
81.52293239780055
 20
154.1988380317421
 30
0.0
 11
79.18084073171937
 21
154.1988380317421
 31
0.0
  0
LINE
  5
225
330
70
100
AcDbEntity
  8
Bemaßung
 62
     7
370
     9
100
AcDbLine
 10
81.52293239780055
 20
154.2496380317295
 30
0.0
 11
78.79454906514919
 21
154.2496380317295
 31
0.0
  0
LINE
  5
226
330
70
100
AcDbEntity
  8
Bemaßung
 62
     7
370
     9
100
AcDbLine
 10
81.52293239780055
 20
154.3004380317162
 30
0.0
 11
78.40861017635676
 21
154.3004380317162
 31
0.0
  0
LINE
  5
227
330
70
100
AcDbEntity
  8
Bemaßung
 62
     7
370
     9
100
AcDbLine
 10
81.52293239780055
 20
154.3515908094814
 30
0.0
 11
78.02302406534209
 21
154.3515908094814
 31
0.0
  0
LINE
  5
228
330
70
100
AcDbEntity
  8
Bemaßung
 62
     7
370
     9
100
AcDbLine
 10
81.52293239780055
 20
154.8087908093672
 30
0.0
 11
81.49612128669614
 21
154.8087908093672
 31
0.0
  0
LINE
  5
229
330
70
100
AcDbEntity
  8
Bemaßung
 62
     7
370
     9
100
AcDbLine
 10
81.52293239780055
 20
154.8087908093672
 30
0.0
 11
81.49612128669614
 21
154.8087908093672
 31
0.0
  0
LINE
  5
22A
330
70
100
AcDbEntity
  8
Bemaßung
 62
     7
370
     9
100
AcDbLine
 10
81.52293239780055
 20
154.7579908093798
 30
0.0
 11
81.11018239790372
 21
154.7579908093798
 31
0.0
  0
LINE
  5
22B
330
70
100
AcDbEntity
  8
Bemaßung
 62
     7
370
     9
100
AcDbLine
 10
81.52293239780055
 20
154.7071908093924
 30
0.0
 11
80.72424350911129
 21
154.7071908093924
 31
0.0
  0
LINE
  5
22C
330
70
100
AcDbEntity
  8
Bemaßung
 62
     7
370
     9
100
AcDbLine
 10
81.52293239780055
 20
154.656390809405
 30
0.0
 11
80.33795184254111
 21
154.656390809405
 31
0.0
  0
LINE
  5
22D
330
70
100
AcDbEntity
  8
Bemaßung
 62
     7
370
     9
100
AcDbLine
 10
81.52293239780055
 20
154.6055908094183
 30
0.0
 11
79.95201295374869
 21
154.6055908094183
 31
0.0
  0
LINE
  5
22E
330
70
100
AcDbEntity
  8
Bemaßung
 62
     7
370
     9
100
AcDbLine
 10
81.52293239780055
 20
154.5547908094309
 30
0.0
 11
79.5667796205118
 21
154.5547908094309
 31
0.0
  0
LINE
  5
22F
330
70
100
AcDbEntity
  8
Bemaßung
 62
     7
370
     9
100
AcDbLine
 10
81.52293239780055
 20
154.5039908094435
 30
0.0
 11
79.18084073171937
 21
154.5039908094435
 31
0.0
  0
LINE
  5
230
330
70
100
AcDbEntity
  8
Bemaßung
 62
     7
370
     9
100
AcDbLine
 10
81.52293239780055
 20
154.4531908094561
 30
0.0
 11
78.79454906514919
 21
154.4531908094561
 31
0.0
  0
LINE
  5
231
330
70
100
AcDbEntity
  8
Bemaßung
 62
     7
370
     9
100
AcDbLine
 10
81.52293239780055
 20
154.4023908094687
 30
0.0
 11
78.40861017635676
 21
154.4023908094687
 31
0.0
  0
LINE
  5
232
330
70
100
AcDbEntity
  8
Bemaßung
 62
     7
370
     9
100
AcDbLine
 10
81.52293239780055
 20
154.3515908094814
 30
0.0
 11
78.02302406534209
 21
154.3515908094814
 31
0.0
  0
LINE
  5
233
330
70
100
AcDbEntity
  8
Bemaßung
 62
     7
370
     9
100
AcDbLine
 10
222.0226795848978
 20
188.8578380227356
 30
0.0
 11
222.0226795848978
 21
142.323751773989
 31
0.0
  0
LINE
  5
234
330
70
100
AcDbEntity
  8
Bemaßung
 62
     7
370
     9
100
AcDbLine
 10
78.02302406534209
 20
184.851346357412
 30
0.0
 11
78.02302406534209
 21
141.5737517745179
 31
0.0
  0
LINE
  5
235
330
70
100
AcDbEntity
  8
Bemaßung
 62
     7
370
     9
100
AcDbLine
 10
222.0226795848978
 20
144.3240017734889
 30
0.0
 11
78.02302406534209
 21
144.3240017734889
 31
0.0
  0
LWPOLYLINE
  5
236
330
70
100
AcDbEntity
  8
Bemaßung
 62
     7
370
     9
100
AcDbPolyline
 90
        4
 70
     0
 43
0.0
 10
222.0226795848978
 20
144.3240017734889
 10
218.5227712524393
 20
144.7843767733739
 10
218.5227712524393
 20
143.8629212180484
 10
222.0226795848978
 20
144.3240017734889
  0
LINE
  5
237
330
70
100
AcDbEntity
  8
Bemaßung
 62
     7
370
     9
100
AcDbLine
 10
218.5227712524393
 20
144.7812017733747
 30
0.0
 11
218.5499351413215
 21
144.7812017733747
 31
0.0
  0
LINE
  5
238
330
70
100
AcDbEntity
  8
Bemaßung
 62
     7
370
     9
100
AcDbLine
 10
218.5227712524393
 20
144.7812017733747
 30
0.0
 11
218.5499351413215
 21
144.7812017733747
 31
0.0
  0
LINE
  5
239
330
70
100
AcDbEntity
  8
Bemaßung
 62
     7
370
     9
100
AcDbLine
 10
218.5227712524393
 20
144.7304017733873
 30
0.0
 11
218.9358740301139
 21
144.7304017733873
 31
0.0
  0
LINE
  5
23A
330
70
100
AcDbEntity
  8
Bemaßung
 62
     7
370
     9
100
AcDbLine
 10
218.5227712524393
 20
144.6792489956222
 30
0.0
 11
219.3221656966841
 21
144.6792489956222
 31
0.0
  0
LINE
  5
23B
330
70
100
AcDbEntity
  8
Bemaßung
 62
     7
370
     9
100
AcDbLine
 10
218.5227712524393
 20
144.6284489956348
 30
0.0
 11
219.7077518076988
 21
144.6284489956348
 31
0.0
  0
LINE
  5
23C
330
70
100
AcDbEntity
  8
Bemaßung
 62
     7
370
     9
100
AcDbLine
 10
218.5227712524393
 20
144.5776489956474
 30
0.0
 11
220.0933379187135
 21
144.5776489956474
 31
0.0
  0
LINE
  5
23D
330
70
100
AcDbEntity
  8
Bemaßung
 62
     7
370
     9
100
AcDbLine
 10
218.5227712524393
 20
144.5268489956601
 30
0.0
 11
220.4792768075058
 21
144.5268489956601
 31
0.0
  0
LINE
  5
23E
330
70
100
AcDbEntity
  8
Bemaßung
 62
     7
370
     9
100
AcDbLine
 10
218.5227712524393
 20
144.4760489956733
 30
0.0
 11
220.865568474076
 21
144.4760489956733
 31
0.0
  0
LINE
  5
23F
330
70
100
AcDbEntity
  8
Bemaßung
 62
     7
370
     9
100
AcDbLine
 10
218.5227712524393
 20
144.4256017734637
 30
0.0
 11
221.2511545850907
 21
144.4256017734637
 31
0.0
  0
LINE
  5
240
330
70
100
AcDbEntity
  8
Bemaßung
 62
     7
370
     9
100
AcDbLine
 10
218.5227712524393
 20
144.3748017734763
 30
0.0
 11
221.6374462516609
 21
144.3748017734763
 31
0.0
  0
LINE
  5
241
330
70
100
AcDbEntity
  8
Bemaßung
 62
     7
370
     9
100
AcDbLine
 10
218.5227712524393
 20
144.3240017734889
 30
0.0
 11
222.0226795848978
 21
144.3240017734889
 31
0.0
  0
LINE
  5
242
330
70
100
AcDbEntity
  8
Bemaßung
 62
     7
370
     9
100
AcDbLine
 10
218.5227712524393
 20
143.8668017736031
 30
0.0
 11
218.5499351413215
 21
143.8668017736031
 31
0.0
  0
LINE
  5
243
330
70
100
AcDbEntity
  8
Bemaßung
 62
     7
370
     9
100
AcDbLine
 10
218.5227712524393
 20
143.8668017736031
 30
0.0
 11
218.5499351413215
 21
143.8668017736031
 31
0.0
  0
LINE
  5
244
330
70
100
AcDbEntity
  8
Bemaßung
 62
     7
370
     9
100
AcDbLine
 10
218.5227712524393
 20
143.9172489958127
 30
0.0
 11
218.9358740301139
 21
143.9172489958127
 31
0.0
  0
LINE
  5
245
330
70
100
AcDbEntity
  8
Bemaßung
 62
     7
370
     9
100
AcDbLine
 10
218.5227712524393
 20
143.9680489958001
 30
0.0
 11
219.3221656966841
 21
143.9680489958001
 31
0.0
  0
LINE
  5
246
330
70
100
AcDbEntity
  8
Bemaßung
 62
     7
370
     9
100
AcDbLine
 10
218.5227712524393
 20
144.0188489957875
 30
0.0
 11
219.7077518076988
 21
144.0188489957875
 31
0.0
  0
LINE
  5
247
330
70
100
AcDbEntity
  8
Bemaßung
 62
     7
370
     9
100
AcDbLine
 10
218.5227712524393
 20
144.0696489957749
 30
0.0
 11
220.0933379187135
 21
144.0696489957749
 31
0.0
  0
LINE
  5
248
330
70
100
AcDbEntity
  8
Bemaßung
 62
     7
370
     9
100
AcDbLine
 10
218.5227712524393
 20
144.1204489957617
 30
0.0
 11
220.4792768075058
 21
144.1204489957617
 31
0.0
  0
LINE
  5
249
330
70
100
AcDbEntity
  8
Bemaßung
 62
     7
370
     9
100
AcDbLine
 10
218.5227712524393
 20
144.1716017735268
 30
0.0
 11
220.865568474076
 21
144.1716017735268
 31
0.0
  0
LINE
  5
24A
330
70
100
AcDbEntity
  8
Bemaßung
 62
     7
370
     9
100
AcDbLine
 10
218.5227712524393
 20
144.2224017735141
 30
0.0
 11
221.2511545850907
 21
144.2224017735141
 31
0.0
  0
LINE
  5
24B
330
70
100
AcDbEntity
  8
Bemaßung
 62
     7
370
     9
100
AcDbLine
 10
218.5227712524393
 20
144.2732017735016
 30
0.0
 11
221.6374462516609
 21
144.2732017735016
 31
0.0
  0
LINE
  5
24C
330
70
100
AcDbEntity
  8
Bemaßung
 62
     7
370
     9
100
AcDbLine
 10
218.5227712524393
 20
144.3240017734889
 30
0.0
 11
222.0226795848978
 21
144.3240017734889
 31
0.0
  0
LWPOLYLINE
  5
24D
330
70
100
AcDbEntity
  8
Bemaßung
 62
     7
370
     9
100
AcDbPolyline
 90
        4
 70
     0
 43
0.0
 10
78.02302406534209
 20
144.3240017734889
 10
81.52293239780055
 20
143.8629212180484
 10
81.52293239780055
 20
144.7843767733739
 10
78.02302406534209
 20
144.3240017734889
  0
LINE
  5
24E
330
70
100
AcDbEntity
  8
Bemaßung
 62
     7
370
     9
100
AcDbLine
 10
81.52293239780055
 20
143.8668017736031
 30
0.0
 11
81.49612128669614
 21
143.8668017736031
 31
0.0
  0
LINE
  5
24F
330
70
100
AcDbEntity
  8
Bemaßung
 62
     7
370
     9
100
AcDbLine
 10
81.52293239780055
 20
143.8668017736031
 30
0.0
 11
81.49612128669614
 21
143.8668017736031
 31
0.0
  0
LINE
  5
250
330
70
100
AcDbEntity
  8
Bemaßung
 62
     7
370
     9
100
AcDbLine
 10
81.52293239780055
 20
143.9172489958127
 30
0.0
 11
81.11018239790372
 21
143.9172489958127
 31
0.0
  0
LINE
  5
251
330
70
100
AcDbEntity
  8
Bemaßung
 62
     7
370
     9
100
AcDbLine
 10
81.52293239780055
 20
143.9680489958001
 30
0.0
 11
80.72424350911129
 21
143.9680489958001
 31
0.0
  0
LINE
  5
252
330
70
100
AcDbEntity
  8
Bemaßung
 62
     7
370
     9
100
AcDbLine
 10
81.52293239780055
 20
144.0188489957875
 30
0.0
 11
80.33795184254111
 21
144.0188489957875
 31
0.0
  0
LINE
  5
253
330
70
100
AcDbEntity
  8
Bemaßung
 62
     7
370
     9
100
AcDbLine
 10
81.52293239780055
 20
144.0696489957749
 30
0.0
 11
79.95201295374869
 21
144.0696489957749
 31
0.0
  0
LINE
  5
254
330
70
100
AcDbEntity
  8
Bemaßung
 62
     7
370
     9
100
AcDbLine
 10
81.52293239780055
 20
144.1204489957617
 30
0.0
 11
79.5667796205118
 21
144.1204489957617
 31
0.0
  0
LINE
  5
255
330
70
100
AcDbEntity
  8
Bemaßung
 62
     7
370
     9
100
AcDbLine
 10
81.52293239780055
 20
144.1716017735268
 30
0.0
 11
79.18084073171937
 21
144.1716017735268
 31
0.0
  0
LINE
  5
256
330
70
100
AcDbEntity
  8
Bemaßung
 62
     7
370
     9
100
AcDbLine
 10
81.52293239780055
 20
144.2224017735141
 30
0.0
 11
78.79454906514919
 21
144.2224017735141
 31
0.0
  0
LINE
  5
257
330
70
100
AcDbEntity
  8
Bemaßung
 62
     7
370
     9
100
AcDbLine
 10
81.52293239780055
 20
144.2732017735016
 30
0.0
 11
78.40861017635676
 21
144.2732017735016
 31
0.0
  0
LINE
  5
258
330
70
100
AcDbEntity
  8
Bemaßung
 62
     7
370
     9
100
AcDbLine
 10
81.52293239780055
 20
144.3240017734889
 30
0.0
 11
78.02302406534209
 21
144.3240017734889
 31
0.0
  0
LINE
  5
259
330
70
100
AcDbEntity
  8
Bemaßung
 62
     7
370
     9
100
AcDbLine
 10
81.52293239780055
 20
144.7812017733747
 30
0.0
 11
81.49612128669614
 21
144.7812017733747
 31
0.0
  0
LINE
  5
25A
330
70
100
AcDbEntity
  8
Bemaßung
 62
     7
370
     9
100
AcDbLine
 10
81.52293239780055
 20
144.7812017733747
 30
0.0
 11
81.49612128669614
 21
144.7812017733747
 31
0.0
  0
LINE
  5
25B
330
70
100
AcDbEntity
  8
Bemaßung
 62
     7
370
     9
100
AcDbLine
 10
81.52293239780055
 20
144.7304017733873
 30
0.0
 11
81.11018239790372
 21
144.7304017733873
 31
0.0
  0
LINE
  5
25C
330
70
100
AcDbEntity
  8
Bemaßung
 62
     7
370
     9
100
AcDbLine
 10
81.52293239780055
 20
144.6792489956222
 30
0.0
 11
80.72424350911129
 21
144.6792489956222
 31
0.0
  0
LINE
  5
25D
330
70
100
AcDbEntity
  8
Bemaßung
 62
     7
370
     9
100
AcDbLine
 10
81.52293239780055
 20
144.6284489956348
 30
0.0
 11
80.33795184254111
 21
144.6284489956348
 31
0.0
  0
LINE
  5
25E
330
70
100
AcDbEntity
  8
Bemaßung
 62
     7
370
     9
100
AcDbLine
 10
81.52293239780055
 20
144.5776489956474
 30
0.0
 11
79.95201295374869
 21
144.5776489956474
 31
0.0
  0
LINE
  5
25F
330
70
100
AcDbEntity
  8
Bemaßung
 62
     7
370
     9
100
AcDbLine
 10
81.52293239780055
 20
144.5268489956601
 30
0.0
 11
79.5667796205118
 21
144.5268489956601
 31
0.0
  0
LINE
  5
260
330
70
100
AcDbEntity
  8
Bemaßung
 62
     7
370
     9
100
AcDbLine
 10
81.52293239780055
 20
144.4760489956733
 30
0.0
 11
79.18084073171937
 21
144.4760489956733
 31
0.0
  0
LINE
  5
261
330
70
100
AcDbEntity
  8
Bemaßung
 62
     7
370
     9
100
AcDbLine
 10
81.52293239780055
 20
144.4256017734637
 30
0.0
 11
78.79454906514919
 21
144.4256017734637
 31
0.0
  0
LINE
  5
262
330
70
100
AcDbEntity
  8
Bemaßung
 62
     7
370
     9
100
AcDbLine
 10
81.52293239780055
 20
144.3748017734763
 30
0.0
 11
78.40861017635676
 21
144.3748017734763
 31
0.0
  0
LINE
  5
263
330
70
100
AcDbEntity
  8
Bemaßung
 62
     7
370
     9
100
AcDbLine
 10
81.52293239780055
 20
144.3240017734889
 30
0.0
 11
78.02302406534209
 21
144.3240017734889
 31
0.0
  0
MTEXT
  5
265
330
70
100
AcDbEntity
  8
Text
100
AcDbMText
 10
65.39254165710023
 20
199.828443795156
 30
0.0
 40
0.2
 41
0.0
 46
0.0
 71
     7
 72
     1
  1
\C7;\FINDEX Univers 45 Light|b0|i0|c1;\H3.447529;\W1.000000;ø25
 11
0.0000000000000001
 21
1.0
 31
0.0
 73
     1
 44
1.0
  0
MTEXT
  5
266
330
70
100
AcDbEntity
  8
Text
100
AcDbMText
 10
235.1165380102042
 20
195.2143116780844
 30
0.0
 40
0.2
 41
0.0
 46
0.0
 71
     7
 72
     1
  1
\C7;\FINDEX Univers 45 Light|b0|i0|c1;\H3.447529;\W1.000000;ø45
 11
0.0000000000000001
 21
1.0
 31
0.0
 73
     1
 44
1.0
  0
MTEXT
  5
267
330
70
100
AcDbEntity
  8
Text
100
AcDbMText
 10
237.7328296490901
 20
232.495423237639
 30
0.0
 40
0.2
 41
0.0
 46
0.0
 71
     7
 72
     1
  1
\C7;\FINDEX Univers 45 Light|b0|i0|c1;\H3.447529;\W1.000000;CAPTO C3
 73
     1
 44
1.0
  0
MTEXT
  5
268
330
70
100
AcDbEntity
  8
Text
100
AcDbMText
 10
188.8126567792399
 20
166.1068102739233
 30
0.0
 40
0.2
 41
0.0
 46
0.0
 71
     7
 72
     1
  1
\C7;\FINDEX Univers 45 Light|b0|i0|c1;\H3.447529;\W1.000000;25
 73
     1
 44
1.0
  0
MTEXT
  5
269
330
70
100
AcDbEntity
  8
Text
100
AcDbMText
 10
138.0305712884632
 20
156.1067316088886
 30
0.0
 40
0.2
 41
0.0
 46
0.0
 71
     7
 72
     1
  1
\C7;\FINDEX Univers 45 Light|b0|i0|c1;\H3.447529;\W1.000000;125
 73
     1
 44
1.0
  0
MTEXT
  5
26A
330
70
100
AcDbEntity
  8
Text
100
AcDbMText
 10
147.2065831134262
 20
146.0795362743118
 30
0.0
 40
0.2
 41
0.0
 46
0.0
 71
     7
 72
     1
  1
\C7;\FINDEX Univers 45 Light|b0|i0|c1;\H3.447529;\W1.000000;144
 73
     1
 44
1.0
  0
ENDSEC
  0
SECTION
  2
OBJECTS
  0
DICTIONARY
  5
C
330
0
100
AcDbDictionary
281
     1
  3
ACAD_COLOR
350
63
  3
ACAD_DETAILVIEWSTYLE
350
6A
  3
ACAD_GROUP
350
D
  3
ACAD_LAYOUT
350
62
  3
ACAD_MATERIAL
350
10
  3
ACAD_MLEADERSTYLE
350
66
  3
ACAD_MLINESTYLE
350
5F
  3
ACAD_PLOTSETTINGS
350
61
  3
ACAD_PLOTSTYLENAME
350
E
  3
ACAD_SCALELIST
350
42
  3
ACAD_SECTIONVIEWSTYLE
350
68
  3
ACAD_TABLESTYLE
350
64
  3
ACAD_VISUALSTYLE
350
29
  3
ACDB_RECOMPOSE_DATA
350
273
  3
AcDbVariableDictionary
350
26B
  0
DICTIONARY
  5
63
102
{ACAD_REACTORS
330
C
102
}
330
C
100
AcDbDictionary
281
     1
  0
DICTIONARY
  5
6A
102
{ACAD_REACTORS
330
C
102
}
330
C
100
AcDbDictionary
281
     1
  3
Imperial24
350
6B
  0
DICTIONARY
  5
D
102
{ACAD_REACTORS
330
C
102
}
330
C
100
AcDbDictionary
281
     1
  0
DICTIONARY
  5
62
102
{ACAD_REACTORS
330
C
102
}
330
C
100
AcDbDictionary
281
     1
  3
Layout1
350
6F
  3
Layout2
350
77
  3
Model
350
73
  0
DICTIONARY
  5
10
102
{ACAD_REACTORS
330
C
102
}
330
C
100
AcDbDictionary
281
     1
  3
ByBlock
350
19
  3
ByLayer
350
11
  3
Global
350
21
  0
DICTIONARY
  5
66
102
{ACAD_REACTORS
330
C
102
}
330
C
100
AcDbDictionary
281
     1
  3
Standard
350
67
  0
DICTIONARY
  5
5F
102
{ACAD_REACTORS
330
C
102
}
330
C
100
AcDbDictionary
281
     1
  3
Standard
350
60
  0
DICTIONARY
  5
61
102
{ACAD_REACTORS
330
C
102
}
330
C
100
AcDbDictionary
281
     1
  0
ACDBDICTIONARYWDFLT
  5
E
102
{ACAD_REACTORS
330
C
102
}
330
C
100
AcDbDictionary
281
     1
  3
Normal
350
F
100
AcDbDictionaryWithDefault
340
F
  0
DICTIONARY
  5
42
102
{ACAD_REACTORS
330
C
102
}
330
C
100
AcDbDictionary
281
     1
  3
A0
350
43
  3
A1
350
44
  3
A2
350
45
  3
A3
350
46
  3
A4
350
47
  3
A5
350
48
  3
A6
350
49
  3
A7
350
4A
  3
A8
350
4B
  3
A9
350
4C
  3
B0
350
4D
  3
B1
350
4E
  3
B2
350
4F
  3
B3
350
50
  3
B4
350
51
  3
B5
350
52
  3
B6
350
53
  0
DICTIONARY
  5
68
102
{ACAD_REACTORS
330
C
102
}
330
C
100
AcDbDictionary
281
     1
  3
Imperial24
350
69
  0
DICTIONARY
  5
64
102
{ACAD_REACTORS
330
C
102
}
330
C
100
AcDbDictionary
281
     1
  3
Standard
350
65
  0
DICTIONARY
  5
29
102
{ACAD_REACTORS
330
C
102
}
330
C
100
AcDbDictionary
281
     1
  3
2dWireframe
350
2F
  3
Basic
350
2E
  3
Brighten
350
35
  3
ColorChange
350
39
  3
Conceptual
350
32
  3
Dim
350
34
  3
EdgeColorOff
350
41
  3
Facepattern
350
38
  3
Flat
350
2A
  3
FlatWithEdges
350
2B
  3
Gouraud
350
2C
  3
GouraudWithEdges
350
2D
  3
Hidden
350
31
  3
JitterOff
350
3F
  3
Linepattern
350
37
  3
OverhangOff
350
40
  3
Realistic
350
33
  3
Shaded
350
3E
  3
Shaded with edges
350
3D
  3
Shades of Gray
350
3A
  3
Sketchy
350
3B
  3
Thicken
350
36
  3
Wireframe
350
30
  3
X-Ray
350
3C
  0
XRECORD
  5
273
102
{ACAD_REACTORS
330
C
102
}
330
C
100
AcDbXrecord
280
     1
 90
        1
330
65
  0
DICTIONARY
  5
26B
102
{ACAD_REACTORS
330
C
102
}
330
C
100
AcDbDictionary
281
     1
  3
CANNOSCALE
350
270
  3
CMLEADERSTYLE
350
26D
  3
CTABLESTYLE
350
26C
  3
CVIEWDETAILSTYLE
350
26E
  3
CVIEWSECTIONSTYLE
350
26F
  0
ACDBDETAILVIEWSTYLE
  5
6B
102
{ACAD_REACTORS
330
6A
102
}
330
6A
100
AcDbModelDocViewStyle
 70
     0
  3
Imperial24
290
     1
300
Imperial24
 90
        0
100
AcDbDetailViewStyle
 70
     0
 71
     0
 90
        3
 71
     1
340
55
 62
   256
 40
0.24
340
0
 62
   256
 40
0.24
300

 40
0.36
280
     3
 71
     2
340
5D
 90
       25
 62
   256
 71
     3
340
55
 62
   256
 40
0.24
 90
        1
 40
0.75
 90
        1
300
%<\AcVar ViewType \f "%tc1">% %<\AcVar ViewDetailId>%\PSCALE %<\AcVar ViewScale \f "%sn">%
 71
     4
340
5D
 90
       25
 62
   256
340
5D
 90
       25
 62
   256
280
     0
  0
LAYOUT
  5
6F
102
{ACAD_REACTORS
330
62
102
}
330
62
100
AcDbPlotSettings
  1

  2

  4

  6

 40
0.0
 41
0.0
 42
0.0
 43
0.0
 44
0.0
 45
0.0
 46
0.0
 47
0.0
 48
0.0
 49
0.0
140
0.0
141
0.0
142
1.0
143
1.0
 70
   688
 72
     0
 73
     0
 74
     5
  7

 75
    16
147
1.0
 76
     0
 77
     2
 78
   300
148
0.0
149
0.0
100
AcDbLayout
  1
Layout1
 70
     1
 71
     1
 10
0.0
 20
0.0
 11
12.0
 21
9.0
 12
0.0
 22
0.0
 32
0.0
 14
0.0
 24
0.0
 34
0.0
 15
0.0
 25
0.0
 35
0.0
146
0.0
 13
0.0
 23
0.0
 33
0.0
 16
1.0
 26
0.0
 36
0.0
 17
0.0
 27
1.0
 37
0.0
 76
     0
330
6C
  0
LAYOUT
  5
77
102
{ACAD_REACTORS
330
62
102
}
330
62
100
AcDbPlotSettings
  1

  2

  4

  6

 40
0.0
 41
0.0
 42
0.0
 43
0.0
 44
0.0
 45
0.0
 46
0.0
 47
0.0
 48
0.0
 49
0.0
140
0.0
141
0.0
142
1.0
143
1.0
 70
   688
 72
     0
 73
     0
 74
     5
  7

 75
    16
147
1.0
 76
     0
 77
     2
 78
   300
148
0.0
149
0.0
100
AcDbLayout
  1
Layout2
 70
     1
 71
     2
 10
0.0
 20
0.0
 11
12.0
 21
9.0
 12
0.0
 22
0.0
 32
0.0
 14
0.0
 24
0.0
 34
0.0
 15
0.0
 25
0.0
 35
0.0
146
0.0
 13
0.0
 23
0.0
 33
0.0
 16
1.0
 26
0.0
 36
0.0
 17
0.0
 27
1.0
 37
0.0
 76
     0
330
74
  0
LAYOUT
  5
73
102
{ACAD_REACTORS
330
62
102
}
330
62
100
AcDbPlotSettings
  1

  2

  4

  6

 40
0.0
 41
0.0
 42
0.0
 43
0.0
 44
0.0
 45
0.0
 46
0.0
 47
0.0
 48
0.0
 49
0.0
140
0.0
141
0.0
142
1.0
143
1.0
 70
  1712
 72
     0
 73
     0
 74
     0
  7

 75
     0
147
1.0
 76
     0
 77
     2
 78
   300
148
0.0
149
0.0
100
AcDbLayout
  1
Model
 70
     1
 71
     0
 10
0.0
 20
0.0
 11
12.0
 21
9.0
 12
0.0
 22
0.0
 32
0.0
 14
0.0
 24
0.0
 34
0.0
 15
0.0
 25
0.0
 35
0.0
146
0.0
 13
0.0
 23
0.0
 33
0.0
 16
1.0
 26
0.0
 36
0.0
 17
0.0
 27
1.0
 37
0.0
 76
     0
330
70
  0
MATERIAL
  5
19
102
{ACAD_XDICTIONARY
360
1A
102
}
102
{ACAD_REACTORS
330
10
102
}
330
10
100
AcDbMaterial
  1
ByBlock
 72
     0
 43
0.0208333333333333
 43
0.0
 43
0.0
 43
0.0
 43
0.0
 43
0.0208333333333333
 43
0.0
 43
0.0
 43
0.0
 43
0.0
 43
1.0
 43
0.0
 43
0.0
 43
0.0
 43
0.0
 43
1.0
 77
     0
 47
0.0208333333333333
 47
0.0
 47
0.0
 47
0.0
 47
0.0
 47
0.0208333333333333
 47
0.0
 47
0.0
 47
0.0
 47
0.0
 47
1.0
 47
0.0
 47
0.0
 47
0.0
 47
0.0
 47
1.0
171
     0
 49
0.0208333333333333
 49
0.0
 49
0.0
 49
0.0
 49
0.0
 49
0.0208333333333333
 49
0.0
 49
0.0
 49
0.0
 49
0.0
 49
1.0
 49
0.0
 49
0.0
 49
0.0
 49
0.0
 49
1.0
175
     0
142
0.0208333333333333
142
0.0
142
0.0
142
0.0
142
0.0
142
0.0208333333333333
142
0.0
142
0.0
142
0.0
142
0.0
142
1.0
142
0.0
142
0.0
142
0.0
142
0.0
142
1.0
179
     0
144
0.0208333333333333
144
0.0
144
0.0
144
0.0
144
0.0
144
0.0208333333333333
144
0.0
144
0.0
144
0.0
144
0.0
144
1.0
144
0.0
144
0.0
144
0.0
144
0.0
144
1.0
147
0.0208333333333333
147
0.0
147
0.0
147
0.0
147
0.0
147
0.0208333333333333
147
0.0
147
0.0
147
0.0
147
0.0
147
1.0
147
0.0
147
0.0
147
0.0
147
0.0
147
1.0
  0
MATERIAL
  5
11
102
{ACAD_XDICTIONARY
360
12
102
}
102
{ACAD_REACTORS
330
10
102
}
330
10
100
AcDbMaterial
  1
ByLayer
 72
     0
 43
0.0208333333333333
 43
0.0
 43
0.0
 43
0.0
 43
0.0
 43
0.0208333333333333
 43
0.0
 43
0.0
 43
0.0
 43
0.0
 43
1.0
 43
0.0
 43
0.0
 43
0.0
 43
0.0
 43
1.0
 77
     0
 47
0.0208333333333333
 47
0.0
 47
0.0
 47
0.0
 47
0.0
 47
0.0208333333333333
 47
0.0
 47
0.0
 47
0.0
 47
0.0
 47
1.0
 47
0.0
 47
0.0
 47
0.0
 47
0.0
 47
1.0
171
     0
 49
0.0208333333333333
 49
0.0
 49
0.0
 49
0.0
 49
0.0
 49
0.0208333333333333
 49
0.0
 49
0.0
 49
0.0
 49
0.0
 49
1.0
 49
0.0
 49
0.0
 49
0.0
 49
0.0
 49
1.0
175
     0
142
0.0208333333333333
142
0.0
142
0.0
142
0.0
142
0.0
142
0.0208333333333333
142
0.0
142
0.0
142
0.0
142
0.0
142
1.0
142
0.0
142
0.0
142
0.0
142
0.0
142
1.0
179
     0
144
0.0208333333333333
144
0.0
144
0.0
144
0.0
144
0.0
144
0.0208333333333333
144
0.0
144
0.0
144
0.0
144
0.0
144
1.0
144
0.0
144
0.0
144
0.0
144
0.0
144
1.0
147
0.0208333333333333
147
0.0
147
0.0
147
0.0
147
0.0
147
0.0208333333333333
147
0.0
147
0.0
147
0.0
147
0.0
147
1.0
147
0.0
147
0.0
147
0.0
147
0.0
147
1.0
  0
MATERIAL
  5
21
102
{ACAD_XDICTIONARY
360
22
102
}
102
{ACAD_REACTORS
330
10
102
}
330
10
100
AcDbMaterial
  1
Global
 72
     0
 43
0.0208333333333333
 43
0.0
 43
0.0
 43
0.0
 43
0.0
 43
0.0208333333333333
 43
0.0
 43
0.0
 43
0.0
 43
0.0
 43
1.0
 43
0.0
 43
0.0
 43
0.0
 43
0.0
 43
1.0
 77
     0
 47
0.0208333333333333
 47
0.0
 47
0.0
 47
0.0
 47
0.0
 47
0.0208333333333333
 47
0.0
 47
0.0
 47
0.0
 47
0.0
 47
1.0
 47
0.0
 47
0.0
 47
0.0
 47
0.0
 47
1.0
171
     0
 49
0.0208333333333333
 49
0.0
 49
0.0
 49
0.0
 49
0.0
 49
0.0208333333333333
 49
0.0
 49
0.0
 49
0.0
 49
0.0
 49
1.0
 49
0.0
 49
0.0
 49
0.0
 49
0.0
 49
1.0
175
     0
142
0.0208333333333333
142
0.0
142
0.0
142
0.0
142
0.0
142
0.0208333333333333
142
0.0
142
0.0
142
0.0
142
0.0
142
1.0
142
0.0
142
0.0
142
0.0
142
0.0
142
1.0
179
     0
144
0.0208333333333333
144
0.0
144
0.0
144
0.0
144
0.0
144
0.0208333333333333
144
0.0
144
0.0
144
0.0
144
0.0
144
1.0
144
0.0
144
0.0
144
0.0
144
0.0
144
1.0
147
0.0208333333333333
147
0.0
147
0.0
147
0.0
147
0.0
147
0.0208333333333333
147
0.0
147
0.0
147
0.0
147
0.0
147
1.0
147
0.0
147
0.0
147
0.0
147
0.0
147
1.0
  0
MLEADERSTYLE
  5
67
102
{ACAD_REACTORS
330
66
102
}
330
66
100
AcDbMLeaderStyle
179
     2
170
     2
171
     1
172
     0
 90
        2
 40
0.0
 41
0.0
173
     1
 91
-1056964608
340
5B
 92
       -2
290
     1
 42
0.09
291
     1
 43
0.36
  3
Standard
 44
0.18
300

342
55
174
     1
178
     6
175
     1
176
     0
 93
-1056964608
 45
0.18
292
     0
297
     0
 46
0.18
 94
-1056964608
 47
1.0
 49
1.0
140
1.0
293
     1
141
0.0
294
     1
177
     0
142
1.0
295
     1
296
     0
143
0.125
271
     0
272
     9
273
     9
298
     1
  0
MLINESTYLE
  5
60
102
{ACAD_REACTORS
330
5F
102
}
330
5F
100
AcDbMlineStyle
  2
STANDARD
 70
     0
  3

 62
   256
 51
90.0
 52
90.0
 71
     2
 49
0.5
 62
   256
  6
BYLAYER
 49
-0.5
 62
   256
  6
BYLAYER
  0
ACDBPLACEHOLDER
  5
F
102
{ACAD_REACTORS
330
E
102
}
330
E
  0
SCALE
  5
43
102
{ACAD_REACTORS
330
42
102
}
330
42
100
AcDbScale
 70
     0
300
1:1
140
1.0
141
1.0
290
     1
  0
SCALE
  5
44
102
{ACAD_REACTORS
330
42
102
}
330
42
100
AcDbScale
 70
     0
300
1/128" = 1'-0"
140
0.0078125
141
12.0
290
     0
  0
SCALE
  5
45
102
{ACAD_REACTORS
330
42
102
}
330
42
100
AcDbScale
 70
     0
300
1/64" = 1'-0"
140
0.015625
141
12.0
290
     0
  0
SCALE
  5
46
102
{ACAD_REACTORS
330
42
102
}
330
42
100
AcDbScale
 70
     0
300
1/32" = 1'-0"
140
0.03125
141
12.0
290
     0
  0
SCALE
  5
47
102
{ACAD_REACTORS
330
42
102
}
330
42
100
AcDbScale
 70
     0
300
1/16" = 1'-0"
140
0.0625
141
12.0
290
     0
  0
SCALE
  5
48
102
{ACAD_REACTORS
330
42
102
}
330
42
100
AcDbScale
 70
     0
300
3/32" = 1'-0"
140
0.09375
141
12.0
290
     0
  0
SCALE
  5
49
102
{ACAD_REACTORS
330
42
102
}
330
42
100
AcDbScale
 70
     0
300
1/8" = 1'-0"
140
0.125
141
12.0
290
     0
  0
SCALE
  5
4A
102
{ACAD_REACTORS
330
42
102
}
330
42
100
AcDbScale
 70
     0
300
3/16" = 1'-0"
140
0.1875
141
12.0
290
     0
  0
SCALE
  5
4B
102
{ACAD_REACTORS
330
42
102
}
330
42
100
AcDbScale
 70
     0
300
1/4" = 1'-0"
140
0.25
141
12.0
290
     0
  0
SCALE
  5
4C
102
{ACAD_REACTORS
330
42
102
}
330
42
100
AcDbScale
 70
     0
300
3/8" = 1'-0"
140
0.375
141
12.0
290
     0
  0
SCALE
  5
4D
102
{ACAD_REACTORS
330
42
102
}
330
42
100
AcDbScale
 70
     0
300
1/2" = 1'-0"
140
0.5
141
12.0
290
     0
  0
SCALE
  5
4E
102
{ACAD_REACTORS
330
42
102
}
330
42
100
AcDbScale
 70
     0
300
3/4" = 1'-0"
140
0.75
141
12.0
290
     0
  0
SCALE
  5
4F
102
{ACAD_REACTORS
330
42
102
}
330
42
100
AcDbScale
 70
     0
300
1" = 1'-0"
140
1.0
141
12.0
290
     0
  0
SCALE
  5
50
102
{ACAD_REACTORS
330
42
102
}
330
42
100
AcDbScale
 70
     0
300
1-1/2" = 1'-0"
140
1.5
141
12.0
290
     0
  0
SCALE
  5
51
102
{ACAD_REACTORS
330
42
102
}
330
42
100
AcDbScale
 70
     0
300
3" = 1'-0"
140
3.0
141
12.0
290
     0
  0
SCALE
  5
52
102
{ACAD_REACTORS
330
42
102
}
330
42
100
AcDbScale
 70
     0
300
6" = 1'-0"
140
6.0
141
12.0
290
     0
  0
SCALE
  5
53
102
{ACAD_REACTORS
330
42
102
}
330
42
100
AcDbScale
 70
     0
300
1'-0" = 1'-0"
140
12.0
141
12.0
290
     0
  0
ACDBSECTIONVIEWSTYLE
  5
69
102
{ACAD_REACTORS
330
68
102
}
330
68
100
AcDbModelDocViewStyle
 70
     0
  3
Imperial24
290
     1
300
Imperial24
 90
        0
100
AcDbSectionViewStyle
 70
     0
 71
     0
 90
       78
 71
     1
340
55
 62
   256
 40
0.24
340
0
340
0
 62
   256
 40
0.24
300
I, O, Q, S, X, Z
 40
0.48
 90
        3
 40
0.18
 90
        1
 71
     2
340
5D
 90
       25
 62
   256
340
5D
 90
       50
 62
   256
 40
0.24
 40
0.0
 40
0.24
 71
     3
340
55
 62
   256
 40
0.24
 90
        1
 40
0.75
 90
        1
300
%<\AcVar ViewType \f "%tc1">% %<\AcVar ViewSectionStartId>%-%<\AcVar ViewSectionEndId>%\PSCALE %<\AcVar ViewScale \f "%sn">%
 71
     4
 62
   256
 62
   257
300
ANSI31
 40
1.0
 90
        0
290
     0
290
     0
 90
        6
 40
0.0
 40
1.570796326794896
 40
0.2617993877991494
 40
1.308996938995747
 40
-0.2617993877991494
 40
1.832595714594046
  0
TABLESTYLE
  5
65
102
{ACAD_XDICTIONARY
360
271
102
}
102
{ACAD_REACTORS
330
64
102
}
330
64
100
AcDbTableStyle
280
     0
  3
Standard
 70
     0
 71
     0
 40
0.06
 41
0.06
280
     0
281
     0
  7
Standard
140
0.18
170
     2
 62
     0
 63
     7
283
     0
 90
      512
 91
        0
  1

274
    -2
284
     1
 64
     0
275
    -2
285
     1
 65
     0
276
    -2
286
     1
 66
     0
277
    -2
287
     1
 67
     0
278
    -2
288
     1
 68
     0
279
    -2
289
     1
 69
     0
  7
Standard
140
0.25
170
     5
 62
     0
 63
     7
283
     0
 90
      512
 91
        0
  1

274
    -2
284
     1
 64
     0
275
    -2
285
     1
 65
     0
276
    -2
286
     1
 66
     0
277
    -2
287
     1
 67
     0
278
    -2
288
     1
 68
     0
279
    -2
289
     1
 69
     0
  7
Standard
140
0.18
170
     5
 62
     0
 63
     7
283
     0
 90
      512
 91
        0
  1

274
    -2
284
     1
 64
     0
275
    -2
285
     1
 65
     0
276
    -2
286
     1
 66
     0
277
    -2
287
     1
 67
     0
278
    -2
288
     1
 68
     0
279
    -2
289
     1
 69
     0
  0
VISUALSTYLE
  5
2F
102
{ACAD_REACTORS
330
29
102
}
330
29
100
AcDbVisualStyle
  2
2dWireframe
 70
     4
177
     3
291
     0
 70
    58
 90
        0
176
     1
 90
        2
176
     1
 90
        0
176
     1
 90
        0
176
     1
 40
0.6
176
     1
 40
30.0
176
     1
 62
     7
420
 16777215
176
     1
 90
        1
176
     1
 90
        4
176
     1
 62
     7
176
     1
 62
   257
176
     1
 90
        1
176
     1
 90
        1
176
     1
 40
1.0
176
     1
 90
        0
176
     1
 62
   257
176
     1
 40
1.0
176
     1
 90
        1
176
     1
 90
        6
176
     1
 90
        2
176
     1
 62
     7
176
     1
 90
        5
176
     1
 90
        0
176
     1
 90
        0
176
     1
290
     0
176
     1
 90
        1
176
     1
 40
0.0
176
     1
 90
        0
176
     1
290
     1
176
     1
290
     1
176
     1
290
     0
176
     1
290
     0
176
     1
290
     0
176
     1
290
     0
176
     1
290
     0
176
     1
290
     0
176
     1
290
     0
176
     1
 90
       50
176
     1
 40
0.0
176
     1
 40
1.0
176
     1
 90
        0
176
     1
 62
    18
420
        0
176
     1
 90
       50
176
     1
 90
        3
176
     1
 62
     5
420
      255
176
     1
290
     0
176
     1
 90
       50
176
     1
 90
       50
176
     1
 90
       50
176
     1
290
     0
176
     1
 90
       50
176
     1
 62
   256
176
     0
 40
1.0
176
     0
 90
        2
176
     1
  1
strokes_ogs.tif
176
     1
290
     0
176
     1
 40
1.0
176
     1
 40
1.0
176
     1
  0
VISUALSTYLE
  5
2E
102
{ACAD_REACTORS
330
29
102
}
330
29
100
AcDbVisualStyle
  2
Basic
 70
     7
177
     3
291
     1
 70
    58
 90
        1
176
     1
 90
        0
176
     1
 90
        1
176
     1
 90
        0
176
     1
 40
0.6
176
     1
 40
30.0
176
     1
 62
     7
420
 16777215
176
     1
 90
        0
176
     1
 90
        4
176
     1
 62
     7
176
     1
 62
   257
176
     1
 90
        1
176
     1
 90
        1
176
     1
 40
1.0
176
     1
 90
        8
176
     1
 62
     7
176
     1
 40
1.0
176
     1
 90
        1
176
     1
 90
        6
176
     1
 90
        2
176
     1
 62
     7
176
     1
 90
        5
176
     1
 90
        0
176
     1
 90
        0
176
     1
290
     0
176
     1
 90
        1
176
     1
 40
0.0
176
     1
 90
        0
176
     1
290
     0
176
     1
290
     1
176
     1
290
     1
176
     1
290
     0
176
     1
290
     0
176
     1
290
     0
176
     1
290
     0
176
     1
290
     0
176
     1
290
     0
176
     1
 90
       50
176
     1
 40
0.0
176
     1
 40
1.0
176
     1
 90
        0
176
     1
 62
    18
420
        0
176
     1
 90
       50
176
     1
 90
        3
176
     1
 62
     5
420
      255
176
     1
290
     0
176
     1
 90
       50
176
     1
 90
       50
176
     1
 90
       50
176
     1
290
     0
176
     1
 90
       50
176
     1
 62
   256
176
     0
 40
1.0
176
     0
 90
        2
176
     1
  1
strokes_ogs.tif
176
     1
290
     0
176
     1
 40
1.0
176
     1
 40
1.0
176
     1
  0
VISUALSTYLE
  5
35
102
{ACAD_REACTORS
330
29
102
}
330
29
100
AcDbVisualStyle
  2
Brighten
 70
    12
177
     3
291
     1
 70
    58
 90
        2
176
     1
 90
        2
176
     1
 90
        0
176
     1
 90
        0
176
     1
 40
0.6
176
     1
 40
30.0
176
     1
 62
     7
420
 16777215
176
     1
 90
        1
176
     1
 90
        4
176
     1
 62
     7
176
     1
 62
   257
176
     1
 90
        1
176
     1
 90
        1
176
     1
 40
1.0
176
     1
 90
        8
176
     1
 62
     7
176
     1
 40
1.0
176
     1
 90
        1
176
     1
 90
        6
176
     1
 90
        2
176
     1
 62
     7
176
     1
 90
        5
176
     1
 90
        0
176
     1
 90
        0
176
     1
290
     0
176
     1
 90
        1
176
     1
 40
50.0
176
     1
 90
        0
176
     1
290
     0
176
     1
290
     1
176
     1
290
     1
176
     1
290
     0
176
     1
290
     0
176
     1
290
     0
176
     1
290
     0
176
     1
290
     0
176
     1
290
     0
176
     1
 90
       50
176
     1
 40
0.0
176
     1
 40
1.0
176
     1
 90
        0
176
     1
 62
    18
420
        0
176
     1
 90
       50
176
     1
 90
        3
176
     1
 62
     5
420
      255
176
     1
290
     0
176
     1
 90
       50
176
     1
 90
       50
176
     1
 90
       50
176
     1
290
     0
176
     1
 90
       50
176
     1
 62
   256
176
     0
 40
1.0
176
     0
 90
        2
176
     1
  1
strokes_ogs.tif
176
     1
290
     0
176
     1
 40
1.0
176
     1
 40
1.0
176
     1
  0
VISUALSTYLE
  5
39
102
{ACAD_REACTORS
330
29
102
}
330
29
100
AcDbVisualStyle
  2
ColorChange
 70
    16
177
     3
291
     1
 70
    58
 90
        2
176
     1
 90
        2
176
     1
 90
        3
176
     1
 90
        0
176
     1
 40
0.6
176
     1
 40
30.0
176
     1
 62
     8
420
  8421504
176
     1
 90
        1
176
     1
 90
        4
176
     1
 62
     7
176
     1
 62
   257
176
     1
 90
        1
176
     1
 90
        1
176
     1
 40
1.0
176
     1
 90
        8
176
     1
 62
     8
420
  8421504
176
     1
 40
1.0
176
     1
 90
        1
176
     1
 90
        6
176
     1
 90
        2
176
     1
 62
     7
176
     1
 90
        5
176
     1
 90
        0
176
     1
 90
        0
176
     1
290
     0
176
     1
 90
        1
176
     1
 40
0.0
176
     1
 90
        0
176
     1
290
     0
176
     1
290
     1
176
     1
290
     1
176
     1
290
     0
176
     1
290
     0
176
     1
290
     0
176
     1
290
     0
176
     1
290
     0
176
     1
290
     0
176
     1
 90
       50
176
     1
 40
0.0
176
     1
 40
1.0
176
     1
 90
        0
176
     1
 62
    18
420
        0
176
     1
 90
       50
176
     1
 90
        3
176
     1
 62
     5
420
      255
176
     1
290
     0
176
     1
 90
       50
176
     1
 90
       50
176
     1
 90
       50
176
     1
290
     0
176
     1
 90
       50
176
     1
 62
   256
176
     0
 40
1.0
176
     0
 90
        2
176
     1
  1
strokes_ogs.tif
176
     1
290
     0
176
     1
 40
1.0
176
     1
 40
1.0
176
     1
  0
VISUALSTYLE
  5
32
102
{ACAD_REACTORS
330
29
102
}
330
29
100
AcDbVisualStyle
  2
Conceptual
 70
     9
177
     3
291
     0
 70
    58
 90
        3
176
     1
 90
        2
176
     1
 90
        0
176
     1
 90
        0
176
     1
 40
0.6
176
     1
 40
30.0
176
     1
 62
     7
420
 16777215
176
     1
 90
        2
176
     1
 90
        2
176
     1
 62
     7
176
     1
 62
   257
176
     1
 90
        1
176
     1
 90
        1
176
     1
 40
179.0
176
     1
 90
        8
176
     1
 62
     7
176
     1
 40
1.0
176
     1
 90
        1
176
     1
 90
        6
176
     1
 90
        2
176
     1
 62
     7
176
     1
 90
        3
176
     1
 90
        0
176
     1
 90
        0
176
     1
290
     0
176
     1
 90
        1
176
     1
 40
0.0
176
     1
 90
        0
176
     1
290
     0
176
     1
290
     1
176
     1
290
     1
176
     1
290
     0
176
     1
290
     0
176
     1
290
     0
176
     1
290
     0
176
     1
290
     0
176
     1
290
     0
176
     1
 90
       50
176
     1
 40
0.0
176
     1
 40
1.0
176
     1
 90
        0
176
     1
 62
    18
420
        0
176
     1
 90
       50
176
     1
 90
        3
176
     1
 62
     5
420
      255
176
     1
290
     0
176
     1
 90
       50
176
     1
 90
       50
176
     1
 90
       50
176
     1
290
     0
176
     1
 90
       50
176
     1
 62
   256
176
     0
 40
1.0
176
     0
 90
        2
176
     1
  1
strokes_ogs.tif
176
     1
290
     0
176
     1
 40
1.0
176
     1
 40
1.0
176
     1
  0
VISUALSTYLE
  5
34
102
{ACAD_REACTORS
330
29
102
}
330
29
100
AcDbVisualStyle
  2
Dim
 70
    11
177
     3
291
     1
 70
    58
 90
        2
176
     1
 90
        2
176
     1
 90
        0
176
     1
 90
        0
176
     1
 40
0.6
176
     1
 40
30.0
176
     1
 62
     7
420
 16777215
176
     1
 90
        1
176
     1
 90
        4
176
     1
 62
     7
176
     1
 62
   257
176
     1
 90
        1
176
     1
 90
        1
176
     1
 40
1.0
176
     1
 90
        8
176
     1
 62
     7
176
     1
 40
1.0
176
     1
 90
        1
176
     1
 90
        6
176
     1
 90
        2
176
     1
 62
     7
176
     1
 90
        5
176
     1
 90
        0
176
     1
 90
        0
176
     1
290
     0
176
     1
 90
        1
176
     1
 40
-50.0
176
     1
 90
        0
176
     1
290
     0
176
     1
290
     1
176
     1
290
     1
176
     1
290
     0
176
     1
290
     0
176
     1
290
     0
176
     1
290
     0
176
     1
290
     0
176
     1
290
     0
176
     1
 90
       50
176
     1
 40
0.0
176
     1
 40
1.0
176
     1
 90
        0
176
     1
 62
    18
420
        0
176
     1
 90
       50
176
     1
 90
        3
176
     1
 62
     5
420
      255
176
     1
290
     0
176
     1
 90
       50
176
     1
 90
       50
176
     1
 90
       50
176
     1
290
     0
176
     1
 90
       50
176
     1
 62
   256
176
     0
 40
1.0
176
     0
 90
        2
176
     1
  1
strokes_ogs.tif
176
     1
290
     0
176
     1
 40
1.0
176
     1
 40
1.0
176
     1
  0
VISUALSTYLE
  5
41
102
{ACAD_REACTORS
330
29
102
}
330
29
100
AcDbVisualStyle
  2
EdgeColorOff
 70
    22
177
     3
291
     1
 70
    58
 90
        2
176
     0
 90
        2
176
     0
 90
        0
176
     0
 90
        0
176
     0
 40
0.6
176
     0
 40
30.0
176
     0
 62
     7
420
 16777215
176
     0
 90
        1
176
     0
 90
        4
176
     0
 62
     7
176
     0
 62
   257
176
     0
 90
        1
176
     0
 90
        1
176
     0
 40
1.0
176
     0
 90
        8
176
     2
 62
     7
176
     0
 40
1.0
176
     0
 90
        1
176
     0
 90
        6
176
     0
 90
        2
176
     0
 62
     7
176
     0
 90
        5
176
     0
 90
        0
176
     0
 90
        0
176
     0
290
     0
176
     0
 90
        1
176
     0
 40
0.0
176
     0
 90
        0
176
     0
290
     0
176
     0
290
     1
176
     0
290
     1
176
     0
290
     0
176
     0
290
     0
176
     0
290
     0
176
     0
290
     0
176
     0
290
     0
176
     0
290
     0
176
     0
 90
       50
176
     0
 40
0.0
176
     0
 40
1.0
176
     0
 90
        0
176
     0
 62
    18
420
        0
176
     0
 90
       50
176
     0
 90
        3
176
     0
 62
     5
420
      255
176
     0
290
     0
176
     0
 90
       50
176
     0
 90
       50
176
     0
 90
       50
176
     0
290
     0
176
     0
 90
       50
176
     0
 62
   256
176
     0
 40
1.0
176
     0
 90
        2
176
     0
  1
strokes_ogs.tif
176
     0
290
     0
176
     0
 40
1.0
176
     0
 40
1.0
176
     0
  0
VISUALSTYLE
  5
38
102
{ACAD_REACTORS
330
29
102
}
330
29
100
AcDbVisualStyle
  2
Facepattern
 70
    15
177
     3
291
     1
 70
    58
 90
        2
176
     1
 90
        2
176
     1
 90
        0
176
     1
 90
        0
176
     1
 40
0.6
176
     1
 40
30.0
176
     1
 62
     7
420
 16777215
176
     1
 90
        1
176
     1
 90
        4
176
     1
 62
     7
176
     1
 62
   257
176
     1
 90
        1
176
     1
 90
        1
176
     1
 40
1.0
176
     1
 90
        8
176
     1
 62
     7
176
     1
 40
1.0
176
     1
 90
        1
176
     1
 90
        6
176
     1
 90
        2
176
     1
 62
     7
176
     1
 90
        5
176
     1
 90
        0
176
     1
 90
        0
176
     1
290
     0
176
     1
 90
        1
176
     1
 40
0.0
176
     1
 90
        0
176
     1
290
     0
176
     1
290
     1
176
     1
290
     1
176
     1
290
     0
176
     1
290
     0
176
     1
290
     0
176
     1
290
     0
176
     1
290
     0
176
     1
290
     0
176
     1
 90
       50
176
     1
 40
0.0
176
     1
 40
1.0
176
     1
 90
        0
176
     1
 62
    18
420
        0
176
     1
 90
       50
176
     1
 90
        3
176
     1
 62
     5
420
      255
176
     1
290
     0
176
     1
 90
       50
176
     1
 90
       50
176
     1
 90
       50
176
     1
290
     0
176
     1
 90
       50
176
     1
 62
   256
176
     0
 40
1.0
176
     0
 90
        2
176
     1
  1
strokes_ogs.tif
176
     1
290
     0
176
     1
 40
1.0
176
     1
 40
1.0
176
     1
  0
VISUALSTYLE
  5
2A
102
{ACAD_REACTORS
330
29
102
}
330
29
100
AcDbVisualStyle
  2
Flat
 70
     0
177
     3
291
     1
 70
    58
 90
        2
176
     1
 90
        1
176
     1
 90
        1
176
     1
 90
        2
176
     1
 40
0.6
176
     1
 40
30.0
176
     1
 62
     7
420
 16777215
176
     1
 90
        0
176
     1
 90
        0
176
     1
 62
     7
176
     1
 62
   257
176
     1
 90
        1
176
     1
 90
        1
176
     1
 40
1.0
176
     1
 90
        8
176
     1
 62
     7
176
     1
 40
1.0
176
     1
 90
        1
176
     1
 90
        6
176
     1
 90
        2
176
     1
 62
     7
176
     1
 90
        5
176
     1
 90
        0
176
     1
 90
        0
176
     1
290
     0
176
     1
 90
       13
176
     1
 40
0.0
176
     1
 90
        0
176
     1
290
     0
176
     1
290
     1
176
     1
290
     1
176
     1
290
     0
176
     1
290
     0
176
     1
290
     0
176
     1
290
     0
176
     1
290
     0
176
     1
290
     0
176
     1
 90
       50
176
     1
 40
0.0
176
     1
 40
1.0
176
     1
 90
        0
176
     1
 62
    18
420
        0
176
     1
 90
       50
176
     1
 90
        3
176
     1
 62
     5
420
      255
176
     1
290
     0
176
     1
 90
       50
176
     1
 90
       50
176
     1
 90
       50
176
     1
290
     0
176
     1
 90
       50
176
     1
 62
   256
176
     0
 40
1.0
176
     0
 90
        2
176
     1
  1
strokes_ogs.tif
176
     1
290
     0
176
     1
 40
1.0
176
     1
 40
1.0
176
     1
  0
VISUALSTYLE
  5
2B
102
{ACAD_REACTORS
330
29
102
}
330
29
100
AcDbVisualStyle
  2
FlatWithEdges
 70
     1
177
     3
291
     1
 70
    58
 90
        2
176
     1
 90
        1
176
     1
 90
        1
176
     1
 90
        2
176
     1
 40
0.6
176
     1
 40
30.0
176
     1
 62
     7
420
 16777215
176
     1
 90
        1
176
     1
 90
        0
176
     1
 62
     7
176
     1
 62
   257
176
     1
 90
        1
176
     1
 90
        1
176
     1
 40
1.0
176
     1
 90
        0
176
     1
 62
   257
176
     1
 40
1.0
176
     1
 90
        1
176
     1
 90
        6
176
     1
 90
        2
176
     1
 62
     7
176
     1
 90
        5
176
     1
 90
        0
176
     1
 90
        0
176
     1
290
     0
176
     1
 90
       13
176
     1
 40
0.0
176
     1
 90
        0
176
     1
290
     0
176
     1
290
     1
176
     1
290
     1
176
     1
290
     0
176
     1
290
     0
176
     1
290
     0
176
     1
290
     0
176
     1
290
     0
176
     1
290
     0
176
     1
 90
       50
176
     1
 40
0.0
176
     1
 40
1.0
176
     1
 90
        0
176
     1
 62
    18
420
        0
176
     1
 90
       50
176
     1
 90
        3
176
     1
 62
     5
420
      255
176
     1
290
     0
176
     1
 90
       50
176
     1
 90
       50
176
     1
 90
       50
176
     1
290
     0
176
     1
 90
       50
176
     1
 62
   256
176
     0
 40
1.0
176
     0
 90
        2
176
     1
  1
strokes_ogs.tif
176
     1
290
     0
176
     1
 40
1.0
176
     1
 40
1.0
176
     1
  0
VISUALSTYLE
  5
2C
102
{ACAD_REACTORS
330
29
102
}
330
29
100
AcDbVisualStyle
  2
Gouraud
 70
     2
177
     3
291
     1
 70
    58
 90
        2
176
     1
 90
        2
176
     1
 90
        1
176
     1
 90
        2
176
     1
 40
0.6
176
     1
 40
30.0
176
     1
 62
     7
420
 16777215
176
     1
 90
        0
176
     1
 90
        0
176
     1
 62
     7
176
     1
 62
   257
176
     1
 90
        1
176
     1
 90
        1
176
     1
 40
1.0
176
     1
 90
        0
176
     1
 62
     7
176
     1
 40
1.0
176
     1
 90
        1
176
     1
 90
        6
176
     1
 90
        2
176
     1
 62
     7
176
     1
 90
        5
176
     1
 90
        0
176
     1
 90
        0
176
     1
290
     0
176
     1
 90
       13
176
     1
 40
0.0
176
     1
 90
        0
176
     1
290
     0
176
     1
290
     1
176
     1
290
     1
176
     1
290
     0
176
     1
290
     0
176
     1
290
     0
176
     1
290
     0
176
     1
290
     0
176
     1
290
     0
176
     1
 90
       50
176
     1
 40
0.0
176
     1
 40
1.0
176
     1
 90
        0
176
     1
 62
    18
420
        0
176
     1
 90
       50
176
     1
 90
        3
176
     1
 62
     5
420
      255
176
     1
290
     0
176
     1
 90
       50
176
     1
 90
       50
176
     1
 90
       50
176
     1
290
     0
176
     1
 90
       50
176
     1
 62
   256
176
     0
 40
1.0
176
     0
 90
        2
176
     1
  1
strokes_ogs.tif
176
     1
290
     0
176
     1
 40
1.0
176
     1
 40
1.0
176
     1
  0
VISUALSTYLE
  5
2D
102
{ACAD_REACTORS
330
29
102
}
330
29
100
AcDbVisualStyle
  2
GouraudWithEdges
 70
     3
177
     3
291
     1
 70
    58
 90
        2
176
     1
 90
        2
176
     1
 90
        1
176
     1
 90
        2
176
     1
 40
0.6
176
     1
 40
30.0
176
     1
 62
     7
420
 16777215
176
     1
 90
        1
176
     1
 90
        0
176
     1
 62
     7
176
     1
 62
   257
176
     1
 90
        1
176
     1
 90
        1
176
     1
 40
1.0
176
     1
 90
        0
176
     1
 62
   257
176
     1
 40
1.0
176
     1
 90
        1
176
     1
 90
        6
176
     1
 90
        2
176
     1
 62
     7
176
     1
 90
        5
176
     1
 90
        0
176
     1
 90
        0
176
     1
290
     0
176
     1
 90
       13
176
     1
 40
0.0
176
     1
 90
        0
176
     1
290
     0
176
     1
290
     1
176
     1
290
     1
176
     1
290
     0
176
     1
290
     0
176
     1
290
     0
176
     1
290
     0
176
     1
290
     0
176
     1
290
     0
176
     1
 90
       50
176
     1
 40
0.0
176
     1
 40
1.0
176
     1
 90
        0
176
     1
 62
    18
420
        0
176
     1
 90
       50
176
     1
 90
        3
176
     1
 62
     5
420
      255
176
     1
290
     0
176
     1
 90
       50
176
     1
 90
       50
176
     1
 90
       50
176
     1
290
     0
176
     1
 90
       50
176
     1
 62
   256
176
     0
 40
1.0
176
     0
 90
        2
176
     1
  1
strokes_ogs.tif
176
     1
290
     0
176
     1
 40
1.0
176
     1
 40
1.0
176
     1
  0
VISUALSTYLE
  5
31
102
{ACAD_REACTORS
330
29
102
}
330
29
100
AcDbVisualStyle
  2
Hidden
 70
     6
177
     3
291
     0
 70
    58
 90
        1
176
     1
 90
        2
176
     1
 90
        2
176
     1
 90
        0
176
     1
 40
0.6
176
     1
 40
30.0
176
     1
 62
     7
420
 16777215
176
     1
 90
        2
176
     1
 90
        2
176
     1
 62
     7
176
     1
 62
   257
176
     1
 90
        2
176
     1
 90
        1
176
     1
 40
40.0
176
     1
 90
        0
176
     1
 62
   257
176
     1
 40
1.0
176
     1
 90
        1
176
     1
 90
        6
176
     1
 90
        2
176
     1
 62
     7
176
     1
 90
        3
176
     1
 90
        0
176
     1
 90
        0
176
     1
290
     0
176
     1
 90
        1
176
     1
 40
0.0
176
     1
 90
        0
176
     1
290
     0
176
     1
290
     1
176
     1
290
     1
176
     1
290
     0
176
     1
290
     0
176
     1
290
     0
176
     1
290
     0
176
     1
290
     0
176
     1
290
     0
176
     1
 90
       50
176
     1
 40
0.0
176
     1
 40
1.0
176
     1
 90
        0
176
     1
 62
    18
420
        0
176
     1
 90
       50
176
     1
 90
        3
176
     1
 62
     5
420
      255
176
     1
290
     0
176
     1
 90
       50
176
     1
 90
       50
176
     1
 90
       50
176
     1
290
     0
176
     1
 90
       50
176
     1
 62
   256
176
     0
 40
1.0
176
     0
 90
        2
176
     1
  1
strokes_ogs.tif
176
     1
290
     0
176
     1
 40
1.0
176
     1
 40
1.0
176
     1
  0
VISUALSTYLE
  5
3F
102
{ACAD_REACTORS
330
29
102
}
330
29
100
AcDbVisualStyle
  2
JitterOff
 70
    20
177
     3
291
     1
 70
    58
 90
        2
176
     0
 90
        2
176
     0
 90
        0
176
     0
 90
        0
176
     0
 40
0.6
176
     0
 40
30.0
176
     0
 62
     7
420
 16777215
176
     0
 90
        1
176
     0
 90
        4
176
     0
 62
     7
176
     0
 62
   257
176
     0
 90
        1
176
     0
 90
        1
176
     0
 40
1.0
176
     0
 90
       10
176
     2
 62
     7
176
     0
 40
1.0
176
     0
 90
        1
176
     0
 90
        6
176
     0
 90
        2
176
     0
 62
     7
176
     0
 90
        5
176
     0
 90
        0
176
     0
 90
        0
176
     0
290
     0
176
     0
 90
        1
176
     0
 40
0.0
176
     0
 90
        0
176
     0
290
     0
176
     0
290
     1
176
     0
290
     1
176
     0
290
     0
176
     0
290
     0
176
     0
290
     0
176
     0
290
     0
176
     0
290
     0
176
     0
290
     0
176
     0
 90
       50
176
     0
 40
0.0
176
     0
 40
1.0
176
     0
 90
        0
176
     0
 62
    18
420
        0
176
     0
 90
       50
176
     0
 90
        3
176
     0
 62
     5
420
      255
176
     0
290
     0
176
     0
 90
       50
176
     0
 90
       50
176
     0
 90
       50
176
     0
290
     0
176
     0
 90
       50
176
     0
 62
   256
176
     0
 40
1.0
176
     0
 90
        2
176
     0
  1
strokes_ogs.tif
176
     0
290
     0
176
     0
 40
1.0
176
     0
 40
1.0
176
     0
  0
VISUALSTYLE
  5
37
102
{ACAD_REACTORS
330
29
102
}
330
29
100
AcDbVisualStyle
  2
Linepattern
 70
    14
177
     3
291
     1
 70
    58
 90
        2
176
     1
 90
        2
176
     1
 90
        0
176
     1
 90
        0
176
     1
 40
0.6
176
     1
 40
30.0
176
     1
 62
     7
420
 16777215
176
     1
 90
        1
176
     1
 90
        4
176
     1
 62
     7
176
     1
 62
   257
176
     1
 90
        7
176
     1
 90
        7
176
     1
 40
1.0
176
     1
 90
        8
176
     1
 62
     7
176
     1
 40
1.0
176
     1
 90
        1
176
     1
 90
        6
176
     1
 90
        2
176
     1
 62
     7
176
     1
 90
        5
176
     1
 90
        0
176
     1
 90
        0
176
     1
290
     0
176
     1
 90
        1
176
     1
 40
0.0
176
     1
 90
        0
176
     1
290
     0
176
     1
290
     1
176
     1
290
     1
176
     1
290
     0
176
     1
290
     0
176
     1
290
     0
176
     1
290
     0
176
     1
290
     0
176
     1
290
     0
176
     1
 90
       50
176
     1
 40
0.0
176
     1
 40
1.0
176
     1
 90
        0
176
     1
 62
    18
420
        0
176
     1
 90
       50
176
     1
 90
        3
176
     1
 62
     5
420
      255
176
     1
290
     0
176
     1
 90
       50
176
     1
 90
       50
176
     1
 90
       50
176
     1
290
     0
176
     1
 90
       50
176
     1
 62
   256
176
     0
 40
1.0
176
     0
 90
        2
176
     1
  1
strokes_ogs.tif
176
     1
290
     0
176
     1
 40
1.0
176
     1
 40
1.0
176
     1
  0
VISUALSTYLE
  5
40
102
{ACAD_REACTORS
330
29
102
}
330
29
100
AcDbVisualStyle
  2
OverhangOff
 70
    21
177
     3
291
     1
 70
    58
 90
        2
176
     0
 90
        2
176
     0
 90
        0
176
     0
 90
        0
176
     0
 40
0.6
176
     0
 40
30.0
176
     0
 62
     7
420
 16777215
176
     0
 90
        1
176
     0
 90
        4
176
     0
 62
     7
176
     0
 62
   257
176
     0
 90
        1
176
     0
 90
        1
176
     0
 40
1.0
176
     0
 90
        9
176
     2
 62
     7
176
     0
 40
1.0
176
     0
 90
        1
176
     0
 90
        6
176
     0
 90
        2
176
     0
 62
     7
176
     0
 90
        5
176
     0
 90
        0
176
     0
 90
        0
176
     0
290
     0
176
     0
 90
        1
176
     0
 40
0.0
176
     0
 90
        0
176
     0
290
     0
176
     0
290
     1
176
     0
290
     1
176
     0
290
     0
176
     0
290
     0
176
     0
290
     0
176
     0
290
     0
176
     0
290
     0
176
     0
290
     0
176
     0
 90
       50
176
     0
 40
0.0
176
     0
 40
1.0
176
     0
 90
        0
176
     0
 62
    18
420
        0
176
     0
 90
       50
176
     0
 90
        3
176
     0
 62
     5
420
      255
176
     0
290
     0
176
     0
 90
       50
176
     0
 90
       50
176
     0
 90
       50
176
     0
290
     0
176
     0
 90
       50
176
     0
 62
   256
176
     0
 40
1.0
176
     0
 90
        2
176
     0
  1
strokes_ogs.tif
176
     0
290
     0
176
     0
 40
1.0
176
     0
 40
1.0
176
     0
  0
VISUALSTYLE
  5
33
102
{ACAD_REACTORS
330
29
102
}
330
29
100
AcDbVisualStyle
  2
Realistic
 70
     8
177
     3
291
     0
 70
    58
 90
        2
176
     1
 90
        3
176
     1
 90
        0
176
     1
 90
        2
176
     1
 40
0.6
176
     1
 40
30.0
176
     1
 62
     7
420
 16777215
176
     1
 90
        0
176
     1
 90
        0
176
     1
 62
     7
176
     1
 62
   257
176
     1
 90
        1
176
     1
 90
        1
176
     1
 40
1.0
176
     1
 90
        8
176
     1
 62
   257
176
     1
 40
1.0
176
     1
 90
        1
176
     1
 90
        6
176
     1
 90
        2
176
     1
 62
     7
176
     1
 90
        3
176
     1
 90
        0
176
     1
 90
        0
176
     1
290
     0
176
     1
 90
       13
176
     1
 40
0.0
176
     1
 90
        0
176
     1
290
     0
176
     1
290
     1
176
     1
290
     1
176
     1
290
     0
176
     1
290
     0
176
     1
290
     0
176
     1
290
     0
176
     1
290
     0
176
     1
290
     0
176
     1
 90
       50
176
     1
 40
0.0
176
     1
 40
1.0
176
     1
 90
        0
176
     1
 62
    18
420
        0
176
     1
 90
       50
176
     1
 90
        3
176
     1
 62
     5
420
      255
176
     1
290
     0
176
     1
 90
       50
176
     1
 90
       50
176
     1
 90
       50
176
     1
290
     0
176
     1
 90
       50
176
     1
 62
   256
176
     0
 40
1.0
176
     0
 90
        2
176
     1
  1
strokes_ogs.tif
176
     1
290
     0
176
     1
 40
1.0
176
     1
 40
1.0
176
     1
  0
VISUALSTYLE
  5
3E
102
{ACAD_REACTORS
330
29
102
}
330
29
100
AcDbVisualStyle
  2
Shaded
 70
    27
177
     3
291
     0
 70
    58
 90
        2
176
     1
 90
        2
176
     1
 90
        1
176
     1
 90
        2
176
     1
 40
0.6
176
     1
 40
30.0
176
     1
 62
     7
420
 16777215
176
     1
 90
        0
176
     1
 90
        4
176
     1
 62
     7
176
     1
 62
   257
176
     1
 90
        1
176
     1
 90
        1
176
     1
 40
1.0
176
     1
 90
        8
176
     1
 62
   257
176
     1
 40
1.0
176
     1
 90
        1
176
     1
 90
        6
176
     1
 90
        2
176
     1
 62
     8
420
  7895160
176
     1
 90
        3
176
     1
 90
        0
176
     1
 90
        0
176
     1
290
     0
176
     1
 90
        5
176
     1
 40
0.0
176
     1
 90
        0
176
     1
290
     0
176
     1
290
     1
176
     1
290
     1
176
     1
290
     0
176
     1
290
     0
176
     1
290
     0
176
     1
290
     0
176
     1
290
     0
176
     1
290
     0
176
     1
 90
       50
176
     1
 40
0.0
176
     1
 40
1.0
176
     1
 90
        0
176
     1
 62
    18
420
        0
176
     1
 90
       50
176
     1
 90
        3
176
     1
 62
     5
420
      255
176
     1
290
     0
176
     1
 90
       50
176
     1
 90
       50
176
     1
 90
       50
176
     1
290
     0
176
     1
 90
       50
176
     1
 62
   256
176
     0
 40
1.0
176
     0
 90
        2
176
     1
  1
strokes_ogs.tif
176
     1
290
     0
176
     1
 40
1.0
176
     1
 40
1.0
176
     1
  0
VISUALSTYLE
  5
3D
102
{ACAD_REACTORS
330
29
102
}
330
29
100
AcDbVisualStyle
  2
Shaded with edges
 70
    26
177
     3
291
     0
 70
    58
 90
        2
176
     1
 90
        2
176
     1
 90
        1
176
     1
 90
        2
176
     1
 40
0.6
176
     1
 40
30.0
176
     1
 62
     7
420
 16777215
176
     1
 90
        1
176
     1
 90
        2
176
     1
 62
     7
176
     1
 62
   257
176
     1
 90
        2
176
     1
 90
        1
176
     1
 40
1.0
176
     1
 90
        8
176
     1
 62
   257
176
     1
 40
1.0
176
     1
 90
        1
176
     1
 90
        6
176
     1
 90
        2
176
     1
 62
     7
176
     1
 90
        3
176
     1
 90
        0
176
     1
 90
        0
176
     1
290
     0
176
     1
 90
        5
176
     1
 40
0.0
176
     1
 90
        0
176
     1
290
     0
176
     1
290
     1
176
     1
290
     1
176
     1
290
     0
176
     1
290
     0
176
     1
290
     0
176
     1
290
     0
176
     1
290
     0
176
     1
290
     0
176
     1
 90
       50
176
     1
 40
0.0
176
     1
 40
1.0
176
     1
 90
        0
176
     1
 62
    18
420
        0
176
     1
 90
       50
176
     1
 90
        3
176
     1
 62
     5
420
      255
176
     1
290
     0
176
     1
 90
       50
176
     1
 90
       50
176
     1
 90
       50
176
     1
290
     0
176
     1
 90
       50
176
     1
 62
   256
176
     0
 40
1.0
176
     0
 90
        2
176
     1
  1
strokes_ogs.tif
176
     1
290
     0
176
     1
 40
1.0
176
     1
 40
1.0
176
     1
  0
VISUALSTYLE
  5
3A
102
{ACAD_REACTORS
330
29
102
}
330
29
100
AcDbVisualStyle
  2
Shades of Gray
 70
    23
177
     3
291
     0
 70
    58
 90
        2
176
     1
 90
        2
176
     1
 90
        3
176
     1
 90
        0
176
     1
 40
0.6
176
     1
 40
30.0
176
     1
 62
     7
420
 16777215
176
     1
 90
        2
176
     1
 90
        2
176
     1
 62
     7
176
     1
 62
     7
176
     1
 90
        1
176
     1
 90
        1
176
     1
 40
40.0
176
     1
 90
        8
176
     1
 62
     7
176
     1
 40
1.0
176
     1
 90
        1
176
     1
 90
        6
176
     1
 90
        2
176
     1
 62
     7
176
     1
 90
        3
176
     1
 90
        0
176
     1
 90
        0
176
     1
290
     0
176
     1
 90
        1
176
     1
 40
0.0
176
     1
 90
        0
176
     1
290
     0
176
     1
290
     1
176
     1
290
     1
176
     1
290
     0
176
     1
290
     0
176
     1
290
     0
176
     1
290
     0
176
     1
290
     0
176
     1
290
     0
176
     1
 90
       50
176
     1
 40
0.0
176
     1
 40
1.0
176
     1
 90
        0
176
     1
 62
    18
420
        0
176
     1
 90
       50
176
     1
 90
        3
176
     1
 62
     5
420
      255
176
     1
290
     0
176
     1
 90
       50
176
     1
 90
       50
176
     1
 90
       50
176
     1
290
     0
176
     1
 90
       50
176
     1
 62
   256
176
     0
 40
1.0
176
     0
 90
        2
176
     1
  1
strokes_ogs.tif
176
     1
290
     0
176
     1
 40
1.0
176
     1
 40
1.0
176
     1
  0
VISUALSTYLE
  5
3B
102
{ACAD_REACTORS
330
29
102
}
330
29
100
AcDbVisualStyle
  2
Sketchy
 70
    24
177
     3
291
     0
 70
    58
 90
        1
176
     1
 90
        2
176
     1
 90
        2
176
     1
 90
        0
176
     1
 40
0.6
176
     1
 40
30.0
176
     1
 62
     7
420
 16777215
176
     1
 90
        2
176
     1
 90
        2
176
     1
 62
     7
176
     1
 62
     7
176
     1
 90
        1
176
     1
 90
        1
176
     1
 40
40.0
176
     1
 90
       11
176
     1
 62
     7
176
     1
 40
1.0
176
     1
 90
        1
176
     1
 90
        6
176
     1
 90
        2
176
     1
 62
     7
176
     1
 90
        6
176
     1
 90
        0
176
     1
 90
        0
176
     1
290
     0
176
     1
 90
        1
176
     1
 40
0.0
176
     1
 90
        0
176
     1
290
     0
176
     1
290
     1
176
     1
290
     1
176
     1
290
     0
176
     1
290
     0
176
     1
290
     0
176
     1
290
     0
176
     1
290
     0
176
     1
290
     0
176
     1
 90
       50
176
     1
 40
0.0
176
     1
 40
1.0
176
     1
 90
        0
176
     1
 62
    18
420
        0
176
     1
 90
       50
176
     1
 90
        3
176
     1
 62
     5
420
      255
176
     1
290
     0
176
     1
 90
       50
176
     1
 90
       50
176
     1
 90
       50
176
     1
290
     0
176
     1
 90
       50
176
     1
 62
   256
176
     0
 40
1.0
176
     0
 90
        2
176
     1
  1
strokes_ogs.tif
176
     1
290
     0
176
     1
 40
1.0
176
     1
 40
1.0
176
     1
  0
VISUALSTYLE
  5
36
102
{ACAD_REACTORS
330
29
102
}
330
29
100
AcDbVisualStyle
  2
Thicken
 70
    13
177
     3
291
     1
 70
    58
 90
        2
176
     1
 90
        2
176
     1
 90
        0
176
     1
 90
        0
176
     1
 40
0.6
176
     1
 40
30.0
176
     1
 62
     7
420
 16777215
176
     1
 90
        1
176
     1
 90
        4
176
     1
 62
     7
176
     1
 62
   257
176
     1
 90
        1
176
     1
 90
        1
176
     1
 40
1.0
176
     1
 90
       12
176
     1
 62
     7
176
     1
 40
1.0
176
     1
 90
        1
176
     1
 90
        6
176
     1
 90
        2
176
     1
 62
     7
176
     1
 90
        5
176
     1
 90
        0
176
     1
 90
        0
176
     1
290
     0
176
     1
 90
        1
176
     1
 40
0.0
176
     1
 90
        0
176
     1
290
     0
176
     1
290
     1
176
     1
290
     1
176
     1
290
     0
176
     1
290
     0
176
     1
290
     0
176
     1
290
     0
176
     1
290
     0
176
     1
290
     0
176
     1
 90
       50
176
     1
 40
0.0
176
     1
 40
1.0
176
     1
 90
        0
176
     1
 62
    18
420
        0
176
     1
 90
       50
176
     1
 90
        3
176
     1
 62
     5
420
      255
176
     1
290
     0
176
     1
 90
       50
176
     1
 90
       50
176
     1
 90
       50
176
     1
290
     0
176
     1
 90
       50
176
     1
 62
   256
176
     0
 40
1.0
176
     0
 90
        2
176
     1
  1
strokes_ogs.tif
176
     1
290
     0
176
     1
 40
1.0
176
     1
 40
1.0
176
     1
  0
VISUALSTYLE
  5
30
102
{ACAD_REACTORS
330
29
102
}
330
29
100
AcDbVisualStyle
  2
Wireframe
 70
     5
177
     3
291
     0
 70
    58
 90
        0
176
     1
 90
        2
176
     1
 90
        0
176
     1
 90
        0
176
     1
 40
0.6
176
     1
 40
30.0
176
     1
 62
     7
420
 16777215
176
     1
 90
        1
176
     1
 90
        4
176
     1
 62
     7
176
     1
 62
   257
176
     1
 90
        1
176
     1
 90
        1
176
     1
 40
1.0
176
     1
 90
        0
176
     1
 62
   257
176
     1
 40
1.0
176
     1
 90
        1
176
     1
 90
        6
176
     1
 90
        2
176
     1
 62
     7
176
     1
 90
        3
176
     1
 90
        0
176
     1
 90
        0
176
     1
290
     0
176
     1
 90
        1
176
     1
 40
0.0
176
     1
 90
        0
176
     1
290
     0
176
     1
290
     1
176
     1
290
     1
176
     1
290
     0
176
     1
290
     0
176
     1
290
     0
176
     1
290
     0
176
     1
290
     0
176
     1
290
     0
176
     1
 90
       50
176
     1
 40
0.0
176
     1
 40
1.0
176
     1
 90
        0
176
     1
 62
    18
420
        0
176
     1
 90
       50
176
     1
 90
        3
176
     1
 62
     5
420
      255
176
     1
290
     0
176
     1
 90
       50
176
     1
 90
       50
176
     1
 90
       50
176
     1
290
     0
176
     1
 90
       50
176
     1
 62
   256
176
     0
 40
1.0
176
     0
 90
        2
176
     1
  1
strokes_ogs.tif
176
     1
290
     0
176
     1
 40
1.0
176
     1
 40
1.0
176
     1
  0
VISUALSTYLE
  5
3C
102
{ACAD_REACTORS
330
29
102
}
330
29
100
AcDbVisualStyle
  2
X-Ray
 70
    25
177
     3
291
     0
 70
    58
 90
        2
176
     1
 90
        2
176
     1
 90
        1
176
     1
 90
        1
176
     1
 40
0.5
176
     1
 40
30.0
176
     1
 62
     7
420
 16777215
176
     1
 90
        1
176
     1
 90
        0
176
     1
 62
     7
176
     1
 62
   257
176
     1
 90
        1
176
     1
 90
        1
176
     1
 40
1.0
176
     1
 90
        8
176
     1
 62
     7
176
     1
 40
1.0
176
     1
 90
        1
176
     1
 90
        6
176
     1
 90
        2
176
     1
 62
     7
176
     1
 90
        3
176
     1
 90
        0
176
     1
 90
        0
176
     1
290
     0
176
     1
 90
       13
176
     1
 40
0.0
176
     1
 90
        0
176
     1
290
     0
176
     1
290
     1
176
     1
290
     1
176
     1
290
     0
176
     1
290
     0
176
     1
290
     0
176
     1
290
     0
176
     1
290
     0
176
     1
290
     0
176
     1
 90
       50
176
     1
 40
0.0
176
     1
 40
1.0
176
     1
 90
        0
176
     1
 62
    18
420
        0
176
     1
 90
       50
176
     1
 90
        3
176
     1
 62
     5
420
      255
176
     1
290
     0
176
     1
 90
       50
176
     1
 90
       50
176
     1
 90
       50
176
     1
290
     0
176
     1
 90
       50
176
     1
 62
   256
176
     0
 40
1.0
176
     0
 90
        2
176
     1
  1
strokes_ogs.tif
176
     1
290
     0
176
     1
 40
1.0
176
     1
 40
1.0
176
     1
  0
DICTIONARYVAR
  5
270
102
{ACAD_REACTORS
330
26B
102
}
330
26B
100
DictionaryVariables
280
     0
  1
1:1
  0
DICTIONARYVAR
  5
26D
102
{ACAD_REACTORS
330
26B
102
}
330
26B
100
DictionaryVariables
280
     0
  1
STANDARD
  0
DICTIONARYVAR
  5
26C
102
{ACAD_REACTORS
330
26B
102
}
330
26B
100
DictionaryVariables
280
     0
  1
STANDARD
  0
DICTIONARYVAR
  5
26E
102
{ACAD_REACTORS
330
26B
102
}
330
26B
100
DictionaryVariables
280
     0
  1
Imperial24
  0
DICTIONARYVAR
  5
26F
102
{ACAD_REACTORS
330
26B
102
}
330
26B
100
DictionaryVariables
280
     0
  1
Imperial24
  0
DICTIONARY
  5
1A
330
19
100
AcDbDictionary
280
     1
281
     1
  3
BUMPTILE
360
1C
  3
DIFFUSETILE
360
1B
  3
OPACITYTILE
360
1F
  3
REFLECTIONTILE
360
1E
  3
REFRACTIONTILE
360
20
  3
SPECULARTILE
360
1D
  0
DICTIONARY
  5
12
330
11
100
AcDbDictionary
280
     1
281
     1
  3
BUMPTILE
360
14
  3
DIFFUSETILE
360
13
  3
OPACITYTILE
360
17
  3
REFLECTIONTILE
360
16
  3
REFRACTIONTILE
360
18
  3
SPECULARTILE
360
15
  0
DICTIONARY
  5
22
330
21
100
AcDbDictionary
280
     1
281
     1
  3
BUMPTILE
360
24
  3
DIFFUSETILE
360
23
  3
OPACITYTILE
360
27
  3
REFLECTIONTILE
360
26
  3
REFRACTIONTILE
360
28
  3
SPECULARTILE
360
25
  0
DICTIONARY
  5
271
330
65
100
AcDbDictionary
280
     1
281
     1
  3
ACAD_ROUNDTRIP_2008_TABLESTYLE_CELLSTYLEMAP
360
272
  0
XRECORD
  5
1C
102
{ACAD_REACTORS
330
1A
102
}
330
1A
100
AcDbXrecord
280
     1
270
     1
271
     1
  0
XRECORD
  5
1B
102
{ACAD_REACTORS
330
1A
102
}
330
1A
100
AcDbXrecord
280
     1
270
     1
271
     1
  0
XRECORD
  5
1F
102
{ACAD_REACTORS
330
1A
102
}
330
1A
100
AcDbXrecord
280
     1
270
     1
271
     1
  0
XRECORD
  5
1E
102
{ACAD_REACTORS
330
1A
102
}
330
1A
100
AcDbXrecord
280
     1
270
     1
271
     1
  0
XRECORD
  5
20
102
{ACAD_REACTORS
330
1A
102
}
330
1A
100
AcDbXrecord
280
     1
270
     1
271
     1
  0
XRECORD
  5
1D
102
{ACAD_REACTORS
330
1A
102
}
330
1A
100
AcDbXrecord
280
     1
270
     1
271
     1
  0
XRECORD
  5
14
102
{ACAD_REACTORS
330
12
102
}
330
12
100
AcDbXrecord
280
     1
270
     1
271
     1
  0
XRECORD
  5
13
102
{ACAD_REACTORS
330
12
102
}
330
12
100
AcDbXrecord
280
     1
270
     1
271
     1
  0
XRECORD
  5
17
102
{ACAD_REACTORS
330
12
102
}
330
12
100
AcDbXrecord
280
     1
270
     1
271
     1
  0
XRECORD
  5
16
102
{ACAD_REACTORS
330
12
102
}
330
12
100
AcDbXrecord
280
     1
270
     1
271
     1
  0
XRECORD
  5
18
102
{ACAD_REACTORS
330
12
102
}
330
12
100
AcDbXrecord
280
     1
270
     1
271
     1
  0
XRECORD
  5
15
102
{ACAD_REACTORS
330
12
102
}
330
12
100
AcDbXrecord
280
     1
270
     1
271
     1
  0
XRECORD
  5
24
102
{ACAD_REACTORS
330
22
102
}
330
22
100
AcDbXrecord
280
     1
270
     1
271
     1
  0
XRECORD
  5
23
102
{ACAD_REACTORS
330
22
102
}
330
22
100
AcDbXrecord
280
     1
270
     1
271
     1
  0
XRECORD
  5
27
102
{ACAD_REACTORS
330
22
102
}
330
22
100
AcDbXrecord
280
     1
270
     1
271
     1
  0
XRECORD
  5
26
102
{ACAD_REACTORS
330
22
102
}
330
22
100
AcDbXrecord
280
     1
270
     1
271
     1
  0
XRECORD
  5
28
102
{ACAD_REACTORS
330
22
102
}
330
22
100
AcDbXrecord
280
     1
270
     1
271
     1
  0
XRECORD
  5
25
102
{ACAD_REACTORS
330
22
102
}
330
22
100
AcDbXrecord
280
     1
270
     1
271
     1
  0
CELLSTYLEMAP
  5
272
102
{ACAD_REACTORS
330
271
102
}
330
271
100
AcDbCellStyleMap
 90
        3
300
CELLSTYLE
  1
TABLEFORMAT_BEGIN
 90
        5
170
     1
 91
        0
 92
    32768
 62
   257
 93
        1
300
CONTENTFORMAT
  1
CONTENTFORMAT_BEGIN
 90
        0
 91
        0
 92
      512
 93
        0
300

 40
0.0
140
1.0
 94
        5
 62
     0
340
55
144
0.25
309
CONTENTFORMAT_END
171
     0
 94
        0
309
TABLEFORMAT_END
  1
CELLSTYLE_BEGIN
 90
        1
 91
        1
300
_TITLE
309
CELLSTYLE_END
300
CELLSTYLE
  1
TABLEFORMAT_BEGIN
 90
        5
170
     1
 91
        0
 92
        0
 62
   257
 93
        1
300
CONTENTFORMAT
  1
CONTENTFORMAT_BEGIN
 90
        0
 91
        0
 92
      512
 93
        0
300

 40
0.0
140
1.0
 94
        5
 62
     0
340
55
144
0.18
309
CONTENTFORMAT_END
171
     0
 94
        0
309
TABLEFORMAT_END
  1
CELLSTYLE_BEGIN
 90
        2
 91
        1
300
_HEADER
309
CELLSTYLE_END
300
CELLSTYLE
  1
TABLEFORMAT_BEGIN
 90
        5
170
     1
 91
        0
 92
        0
 62
   257
 93
        1
300
CONTENTFORMAT
  1
CONTENTFORMAT_BEGIN
 90
        0
 91
        0
 92
      512
 93
        0
300

 40
0.0
140
1.0
 94
        2
 62
     0
340
55
144
0.18
309
CONTENTFORMAT_END
171
     0
 94
        0
309
TABLEFORMAT_END
  1
CELLSTYLE_BEGIN
 90
        3
 91
        2
300
_DATA
309
CELLSTYLE_END
  0
ENDSEC
  0
EOF
