  0
SECTION
  2
HEADER
  9
$ACADVER
  1
AC1014
  9
$ACADMAINTVER
 70
     9
  9
$DWGCODEPAGE
  3
ANSI_1252
  9
$INSBASE
 10
0.0
 20
0.0
 30
0.0
  9
$EXTMIN
 10
1.000000000000000E+20
 20
1.000000000000000E+20
 30
1.000000000000000E+20
  9
$EXTMAX
 10
-1.000000000000000E+20
 20
-1.000000000000000E+20
 30
-1.000000000000000E+20
  9
$LIMMIN
 10
0.0
 20
0.0
  9
$LIMMAX
 10
12.0
 20
9.0
  9
$ORTHOMODE
 70
     0
  9
$REGENMODE
 70
     1
  9
$FILLMODE
 70
     1
  9
$QTEXTMODE
 70
     0
  9
$MIRRTEXT
 70
     1
  9
$DRAGMODE
 70
     2
  9
$LTSCALE
 40
1.0
  9
$OSMODE
 70
    37
  9
$ATTMODE
 70
     1
  9
$TEXTSIZE
 40
0.2
  9
$TRACEWID
 40
0.05
  9
$TEXTSTYLE
  7
STANDARD
  9
$CLAYER
  8
0
  9
$CELTYPE
  6
BYLAYER
  9
$CECOLOR
 62
   256
  9
$CELTSCALE
 40
1.0
  9
$DELOBJ
 70
     1
  9
$DISPSILH
 70
     0
  9
$DIMSCALE
 40
1.0
  9
$DIMASZ
 40
0.18
  9
$DIMEXO
 40
0.0625
  9
$DIMDLI
 40
0.38
  9
$DIMRND
 40
0.0
  9
$DIMDLE
 40
0.0
  9
$DIMEXE
 40
0.18
  9
$DIMTP
 40
0.0
  9
$DIMTM
 40
0.0
  9
$DIMTXT
 40
0.18
  9
$DIMCEN
 40
0.09
  9
$DIMTSZ
 40
0.0
  9
$DIMTOL
 70
     0
  9
$DIMLIM
 70
     0
  9
$DIMTIH
 70
     1
  9
$DIMTOH
 70
     1
  9
$DIMSE1
 70
     0
  9
$DIMSE2
 70
     0
  9
$DIMTAD
 70
     0
  9
$DIMZIN
 70
     0
  9
$DIMBLK
  1

  9
$DIMASO
 70
     1
  9
$DIMSHO
 70
     1
  9
$DIMPOST
  1

  9
$DIMAPOST
  1

  9
$DIMALT
 70
     0
  9
$DIMALTD
 70
     2
  9
$DIMALTF
 40
25.4
  9
$DIMLFAC
 40
1.0
  9
$DIMTOFL
 70
     0
  9
$DIMTVP
 40
0.0
  9
$DIMTIX
 70
     0
  9
$DIMSOXD
 70
     0
  9
$DIMSAH
 70
     0
  9
$DIMBLK1
  1

  9
$DIMBLK2
  1

  9
$DIMSTYLE
  2
STANDARD
  9
$DIMCLRD
 70
     0
  9
$DIMCLRE
 70
     0
  9
$DIMCLRT
 70
     0
  9
$DIMTFAC
 40
1.0
  9
$DIMGAP
 40
0.09
  9
$DIMJUST
 70
     0
  9
$DIMSD1
 70
     0
  9
$DIMSD2
 70
     0
  9
$DIMTOLJ
 70
     1
  9
$DIMTZIN
 70
     0
  9
$DIMALTZ
 70
     0
  9
$DIMALTTZ
 70
     0
  9
$DIMFIT
 70
     3
  9
$DIMUPT
 70
     0
  9
$DIMUNIT
 70
     2
  9
$DIMDEC
 70
     4
  9
$DIMTDEC
 70
     4
  9
$DIMALTU
 70
     2
  9
$DIMALTTD
 70
     2
  9
$DIMTXSTY
  7
STANDARD
  9
$DIMAUNIT
 70
     0
  9
$LUNITS
 70
     2
  9
$LUPREC
 70
     4
  9
$SKETCHINC
 40
0.1
  9
$FILLETRAD
 40
0.5
  9
$AUNITS
 70
     0
  9
$AUPREC
 70
     0
  9
$MENU
  1
.
  9
$ELEVATION
 40
0.0
  9
$PELEVATION
 40
0.0
  9
$THICKNESS
 40
0.0
  9
$LIMCHECK
 70
     0
  9
$CHAMFERA
 40
0.5
  9
$CHAMFERB
 40
0.5
  9
$CHAMFERC
 40
1.0
  9
$CHAMFERD
 40
0.0
  9
$SKPOLY
 70
     0
  9
$TDCREATE
 40
2458982.45582978
  9
$TDUPDATE
 40
2458982.455830162
  9
$TDINDWG
 40
0.0000000116
  9
$TDUSRTIMER
 40
0.0000000116
  9
$USRTIMER
 70
     1
  9
$ANGBASE
 50
0.0
  9
$ANGDIR
 70
     0
  9
$PDMODE
 70
     0
  9
$PDSIZE
 40
0.0
  9
$PLINEWID
 40
0.0
  9
$COORDS
 70
     1
  9
$SPLFRAME
 70
     0
  9
$SPLINETYPE
 70
     6
  9
$SPLINESEGS
 70
     8
  9
$ATTDIA
 70
     0
  9
$ATTREQ
 70
     1
  9
$HANDLING
 70
     1
  9
$HANDSEED
  5
8F6
  9
$SURFTAB1
 70
     6
  9
$SURFTAB2
 70
     6
  9
$SURFTYPE
 70
     6
  9
$SURFU
 70
     6
  9
$SURFV
 70
     6
  9
$UCSNAME
  2

  9
$UCSORG
 10
0.0
 20
0.0
 30
0.0
  9
$UCSXDIR
 10
1.0
 20
0.0
 30
0.0
  9
$UCSYDIR
 10
0.0
 20
1.0
 30
0.0
  9
$PUCSNAME
  2

  9
$PUCSORG
 10
0.0
 20
0.0
 30
0.0
  9
$PUCSXDIR
 10
1.0
 20
0.0
 30
0.0
  9
$PUCSYDIR
 10
0.0
 20
1.0
 30
0.0
  9
$USERI1
 70
     0
  9
$USERI2
 70
     0
  9
$USERI3
 70
     0
  9
$USERI4
 70
     0
  9
$USERI5
 70
     0
  9
$USERR1
 40
0.0
  9
$USERR2
 40
0.0
  9
$USERR3
 40
0.0
  9
$USERR4
 40
0.0
  9
$USERR5
 40
0.0
  9
$WORLDVIEW
 70
     1
  9
$SHADEDGE
 70
     3
  9
$SHADEDIF
 70
    70
  9
$TILEMODE
 70
     1
  9
$MAXACTVP
 70
    64
  9
$PINSBASE
 10
0.0
 20
0.0
 30
0.0
  9
$PLIMCHECK
 70
     0
  9
$PEXTMIN
 10
1.000000000000000E+20
 20
1.000000000000000E+20
 30
1.000000000000000E+20
  9
$PEXTMAX
 10
-1.000000000000000E+20
 20
-1.000000000000000E+20
 30
-1.000000000000000E+20
  9
$PLIMMIN
 10
0.0
 20
0.0
  9
$PLIMMAX
 10
12.0
 20
9.0
  9
$UNITMODE
 70
     0
  9
$VISRETAIN
 70
     1
  9
$PLINEGEN
 70
     0
  9
$PSLTSCALE
 70
     1
  9
$TREEDEPTH
 70
  3020
  9
$PICKSTYLE
 70
     1
  9
$CMLSTYLE
  2
STANDARD
  9
$CMLJUST
 70
     0
  9
$CMLSCALE
 40
1.0
  9
$PROXYGRAPHICS
 70
     1
  9
$MEASUREMENT
 70
     0
  0
ENDSEC
  0
SECTION
  2
CLASSES
  0
CLASS
  1
ACDBDICTIONARYWDFLT
  2
AcDbDictionaryWithDefault
  3
ObjectDBX Classes
 90
        0
280
     0
281
     0
  0
CLASS
  1
VISUALSTYLE
  2
AcDbVisualStyle
  3
ObjectDBX Classes
 90
     4095
280
     0
281
     0
  0
CLASS
  1
MATERIAL
  2
AcDbMaterial
  3
ObjectDBX Classes
 90
     1153
280
     0
281
     0
  0
CLASS
  1
SUN
  2
AcDbSun
  3
SCENEOE
 90
     1024
280
     0
281
     0
  0
CLASS
  1
DICTIONARYVAR
  2
AcDbDictionaryVar
  3
ObjectDBX Classes
 90
        0
280
     0
281
     0
  0
CLASS
  1
XRECORD
  2
AcDbXrecord
  3
AutoCAD 2000
 90
        0
280
     0
281
     0
  0
CLASS
  1
LWPOLYLINE
  2
AcDbPolyline
  3
AutoCAD 2000
 90
        0
280
     0
281
     1
  0
CLASS
  1
HATCH
  2
AcDbHatch
  3
AutoCAD 2000
 90
        0
280
     0
281
     1
  0
CLASS
  1
ACDBPLACEHOLDER
  2
AcDbPlaceHolder
  3
ObjectDBX Classes
 90
        0
280
     0
281
     0
  0
CLASS
  1
LAYOUT
  2
AcDbLayout
  3
ObjectDBX Classes
 90
        0
280
     0
281
     0
  0
ENDSEC
  0
SECTION
  2
TABLES
  0
TABLE
  2
VPORT
  5
8
330
0
100
AcDbSymbolTable
 70
     1
  0
VPORT
  5
29
330
8
100
AcDbSymbolTableRecord
100
AcDbViewportTableRecord
  2
*ACTIVE
 70
     0
 10
0.0
 20
0.0
 11
1.0
 21
1.0
 12
0.0
 22
0.0
 13
0.0
 23
0.0
 14
0.5
 24
0.5
 15
0.5
 25
0.5
 16
0.0
 26
0.0
 36
1.0
 17
53.89354363575384
 27
132.3466799853594
 37
0.0
 40
43.71572198342886
 41
1.258797453712417
 42
50.0
 43
0.0
 44
0.0
 50
0.0
 51
0.0
 71
     0
 72
   100
 73
     1
 74
     3
 75
     0
 76
     0
 77
     0
 78
     0
  0
ENDTAB
  0
TABLE
  2
LTYPE
  5
5
330
0
100
AcDbSymbolTable
 70
     1
  0
LTYPE
  5
14
330
5
100
AcDbSymbolTableRecord
100
AcDbLinetypeTableRecord
  2
BYBLOCK
 70
     0
  3

 72
    65
 73
     0
 40
0.0
  0
LTYPE
  5
15
330
5
100
AcDbSymbolTableRecord
100
AcDbLinetypeTableRecord
  2
BYLAYER
 70
     0
  3

 72
    65
 73
     0
 40
0.0
  0
LTYPE
  5
16
330
5
100
AcDbSymbolTableRecord
100
AcDbLinetypeTableRecord
  2
CONTINUOUS
 70
     0
  3
Solid line
 72
    65
 73
     0
 40
0.0
  0
ENDTAB
  0
TABLE
  2
LAYER
  5
2
330
0
100
AcDbSymbolTable
 70
     5
  0
LAYER
  5
10
330
2
100
AcDbSymbolTableRecord
100
AcDbLayerTableRecord
  2
0
 70
     0
 62
     7
  6
CONTINUOUS
  0
LAYER
  5
40
330
2
100
AcDbSymbolTableRecord
100
AcDbLayerTableRecord
  2
GRAU_10_
 70
     0
 62
     7
  6
CONTINUOUS
  0
LAYER
  5
5BB
330
2
100
AcDbSymbolTableRecord
100
AcDbLayerTableRecord
  2
STANDARDEBENE
 70
     0
 62
     7
  6
CONTINUOUS
  0
LAYER
  5
737
330
2
100
AcDbSymbolTableRecord
100
AcDbLayerTableRecord
  2
BEMA_U_00DFUNG
 70
     1
 62
     7
  6
CONTINUOUS
  0
LAYER
  5
8C8
330
2
100
AcDbSymbolTableRecord
100
AcDbLayerTableRecord
  2
TEXT
 70
     1
 62
     7
  6
CONTINUOUS
  0
ENDTAB
  0
TABLE
  2
STYLE
  5
3
330
0
100
AcDbSymbolTable
 70
     1
  0
STYLE
  5
11
330
3
100
AcDbSymbolTableRecord
100
AcDbTextStyleTableRecord
  2
STANDARD
 70
     0
 40
0.0
 41
1.0
 50
0.0
 71
     0
 42
0.2
  3
txt
  4

  0
ENDTAB
  0
TABLE
  2
VIEW
  5
6
330
0
100
AcDbSymbolTable
 70
     0
  0
ENDTAB
  0
TABLE
  2
UCS
  5
7
330
0
100
AcDbSymbolTable
 70
     0
  0
ENDTAB
  0
TABLE
  2
APPID
  5
9
330
0
100
AcDbSymbolTable
 70
     1
  0
APPID
  5
12
330
9
100
AcDbSymbolTableRecord
100
AcDbRegAppTableRecord
  2
ACAD
 70
     0
  0
ENDTAB
  0
TABLE
  2
DIMSTYLE
  5
A
330
0
100
AcDbSymbolTable
 70
     1
  0
DIMSTYLE
105
27
330
A
100
AcDbSymbolTableRecord
100
AcDbDimStyleTableRecord
  2
STANDARD
 70
     0
  3

  4

  5

  6

  7

 40
1.0
 41
0.18
 42
0.0625
 43
0.38
 44
0.18
 45
0.0
 46
0.0
 47
0.0
 48
0.0
140
0.18
141
0.09
142
0.0
143
25.4
144
1.0
145
0.0
146
1.0
147
0.09
 71
     0
 72
     0
 73
     1
 74
     1
 75
     0
 76
     0
 77
     0
 78
     0
170
     0
171
     2
172
     0
173
     0
174
     0
175
     0
176
     0
177
     0
178
     0
270
     2
271
     4
272
     4
273
     2
274
     2
340
11
275
     0
280
     0
281
     0
282
     0
283
     1
284
     0
285
     0
286
     0
287
     3
288
     0
  0
ENDTAB
  0
TABLE
  2
BLOCK_RECORD
  5
1
330
0
100
AcDbSymbolTable
 70
     1
  0
BLOCK_RECORD
  5
1F
330
1
100
AcDbSymbolTableRecord
100
AcDbBlockTableRecord
  2
*MODEL_SPACE
  0
BLOCK_RECORD
  5
1B
330
1
100
AcDbSymbolTableRecord
100
AcDbBlockTableRecord
  2
*PAPER_SPACE
  0
ENDTAB
  0
ENDSEC
  0
SECTION
  2
BLOCKS
  0
BLOCK
  5
20
330
1F
100
AcDbEntity
  8
0
100
AcDbBlockBegin
  2
*MODEL_SPACE
 70
     0
 10
0.0
 20
0.0
 30
0.0
  3
*MODEL_SPACE
  1

  0
ENDBLK
  5
21
330
1F
100
AcDbEntity
  8
0
100
AcDbBlockEnd
  0
BLOCK
  5
1C
330
1B
100
AcDbEntity
 67
     1
  8
0
100
AcDbBlockBegin
  2
*PAPER_SPACE
 70
     0
 10
0.0
 20
0.0
 30
0.0
  3
*PAPER_SPACE
  1

  0
ENDBLK
  5
1D
330
1B
100
AcDbEntity
 67
     1
  8
0
100
AcDbBlockEnd
  0
ENDSEC
  0
SECTION
  2
ENTITIES
  0
SPLINE
  5
41
330
1F
100
AcDbEntity
  8
GRAU_10_
 62
     7
100
AcDbSpline
210
0.0
220
0.0
230
1.0
 70
     8
 71
     3
 72
     8
 73
     4
 74
     0
 42
0.0000000001
 43
0.0000000001
 12
1.0
 22
0.0
 32
0.0
 13
1.0
 23
0.0
 33
0.0
 40
0.0
 40
0.0
 40
0.0
 40
0.0
 40
1.0
 40
1.0
 40
1.0
 40
1.0
 10
54.32905176050623
 20
123.8657995458563
 30
0.0
 10
54.14490176055229
 20
123.8657995458563
 30
0.0
 10
53.98438787170356
 20
123.7659634347703
 30
0.0
 10
53.89654620505893
 20
123.6160328792522
 30
0.0
  0
SPLINE
  5
42
330
1F
100
AcDbEntity
  8
GRAU_10_
 62
     7
100
AcDbSpline
210
0.0
220
0.0
230
1.0
 70
     8
 71
     3
 72
     8
 73
     4
 74
     0
 42
0.0000000001
 43
0.0000000001
 12
1.0
 22
0.0
 32
0.0
 13
1.0
 23
0.0
 33
0.0
 40
0.0
 40
0.0
 40
0.0
 40
0.0
 40
1.0
 40
1.0
 40
1.0
 40
1.0
 10
53.89619342728116
 20
110.9149745490942
 30
0.0
 10
53.98791564948053
 20
110.7562245491339
 30
0.0
 10
54.15477953832769
 20
110.6666189936008
 30
0.0
 10
54.32905176050623
 20
110.6652078824898
 30
0.0
  0
POLYLINE
  5
43
330
1F
100
AcDbEntity
  8
GRAU_10_
 62
     7
100
AcDb2dPolyline
 66
     1
 10
0.0
 20
0.0
 30
0.0
  0
VERTEX
  5
44
330
43
100
AcDbEntity
  8
GRAU_10_
 62
     7
100
AcDbVertex
100
AcDb2dVertex
 10
53.89654620505893
 20
110.9146217713164
 30
0.0
  0
VERTEX
  5
45
330
43
100
AcDbEntity
  8
GRAU_10_
 62
     7
100
AcDbVertex
100
AcDb2dVertex
 10
53.87890731617438
 20
110.9474301046415
 30
0.0
  0
VERTEX
  5
46
330
43
100
AcDbEntity
  8
GRAU_10_
 62
     7
100
AcDbVertex
100
AcDb2dVertex
 10
53.86479620506681
 20
110.9809439935221
 30
0.0
  0
VERTEX
  5
47
330
43
100
AcDbEntity
  8
GRAU_10_
 62
     7
100
AcDbVertex
100
AcDb2dVertex
 10
53.85280176062549
 20
111.0144578824027
 30
0.0
  0
VERTEX
  5
48
330
43
100
AcDbEntity
  8
GRAU_10_
 62
     7
100
AcDbVertex
100
AcDb2dVertex
 10
53.84433509396082
 20
111.0479717712833
 30
0.0
  0
VERTEX
  5
49
330
43
100
AcDbEntity
  8
GRAU_10_
 62
     7
100
AcDbVertex
100
AcDb2dVertex
 10
53.83234064951949
 20
111.1149995490442
 30
0.0
  0
VERTEX
  5
4A
330
43
100
AcDbEntity
  8
GRAU_10_
 62
     7
100
AcDbVertex
100
AcDb2dVertex
 10
53.82916564952028
 20
111.1830856601384
 30
0.0
  0
VERTEX
  5
4B
330
43
100
AcDbEntity
  8
GRAU_10_
 62
     7
100
AcDbVertex
100
AcDb2dVertex
 10
53.82916564952028
 20
111.4381439934079
 30
0.0
  0
VERTEX
  5
4C
330
43
100
AcDbEntity
  8
GRAU_10_
 62
     7
100
AcDbVertex
100
AcDb2dVertex
 10
53.82916564952028
 20
111.9828328821606
 30
0.0
  0
VERTEX
  5
4D
330
43
100
AcDbEntity
  8
GRAU_10_
 62
     7
100
AcDbVertex
100
AcDb2dVertex
 10
53.82916564952028
 20
112.790341215292
 30
0.0
  0
VERTEX
  5
4E
330
43
100
AcDbEntity
  8
GRAU_10_
 62
     7
100
AcDbVertex
100
AcDb2dVertex
 10
53.82916564952028
 20
113.8215106594785
 30
0.0
  0
VERTEX
  5
4F
330
43
100
AcDbEntity
  8
GRAU_10_
 62
     7
100
AcDbVertex
100
AcDb2dVertex
 10
53.83234064951949
 20
113.8895967705727
 30
0.0
  0
VERTEX
  5
50
330
43
100
AcDbEntity
  8
GRAU_10_
 62
     7
100
AcDbVertex
100
AcDb2dVertex
 10
53.84433509396082
 20
113.9569773261113
 30
0.0
  0
VERTEX
  5
51
330
43
100
AcDbEntity
  8
GRAU_10_
 62
     7
100
AcDbVertex
100
AcDb2dVertex
 10
53.85280176062549
 20
113.9901384372142
 30
0.0
  0
VERTEX
  5
52
330
43
100
AcDbEntity
  8
GRAU_10_
 62
     7
100
AcDbVertex
100
AcDb2dVertex
 10
53.86479620506681
 20
114.0236523260948
 30
0.0
  0
VERTEX
  5
53
330
43
100
AcDbEntity
  8
GRAU_10_
 62
     7
100
AcDbVertex
100
AcDb2dVertex
 10
53.87890731617438
 20
114.0571662149754
 30
0.0
  0
VERTEX
  5
54
330
43
100
AcDbEntity
  8
GRAU_10_
 62
     7
100
AcDbVertex
100
AcDb2dVertex
 10
53.89654620505893
 20
114.0899745483004
 30
0.0
  0
VERTEX
  5
55
330
43
100
AcDbEntity
  8
GRAU_10_
 62
     7
100
AcDbVertex
100
AcDb2dVertex
 10
53.87890731617438
 20
114.1559439927284
 30
0.0
  0
VERTEX
  5
56
330
43
100
AcDbEntity
  8
GRAU_10_
 62
     7
100
AcDbVertex
100
AcDb2dVertex
 10
53.86479620506681
 20
114.222266214934
 30
0.0
  0
VERTEX
  5
57
330
43
100
AcDbEntity
  8
GRAU_10_
 62
     7
100
AcDbVertex
100
AcDb2dVertex
 10
53.85280176062549
 20
114.2892939926952
 30
0.0
  0
VERTEX
  5
58
330
43
100
AcDbEntity
  8
GRAU_10_
 62
     7
100
AcDbVertex
100
AcDb2dVertex
 10
53.84433509396082
 20
114.3563217704561
 30
0.0
  0
VERTEX
  5
59
330
43
100
AcDbEntity
  8
GRAU_10_
 62
     7
100
AcDbVertex
100
AcDb2dVertex
 10
53.83234064951949
 20
114.4914356593112
 30
0.0
  0
VERTEX
  5
5A
330
43
100
AcDbEntity
  8
GRAU_10_
 62
     7
100
AcDbVertex
100
AcDb2dVertex
 10
53.82916564952028
 20
114.6272551037217
 30
0.0
  0
VERTEX
  5
5B
330
43
100
AcDbEntity
  8
GRAU_10_
 62
     7
100
AcDbVertex
100
AcDb2dVertex
 10
53.82916564952028
 20
115.9127773256223
 30
0.0
  0
VERTEX
  5
5C
330
43
100
AcDbEntity
  8
GRAU_10_
 62
     7
100
AcDbVertex
100
AcDb2dVertex
 10
53.82916564952028
 20
117.2656801030622
 30
0.0
  0
VERTEX
  5
5D
330
43
100
AcDbEntity
  8
GRAU_10_
 62
     7
100
AcDbVertex
100
AcDb2dVertex
 10
53.82916564952028
 20
118.6182301027237
 30
0.0
  0
VERTEX
  5
5E
330
43
100
AcDbEntity
  8
GRAU_10_
 62
     7
100
AcDbVertex
100
AcDb2dVertex
 10
53.82916564952028
 20
119.9037523246246
 30
0.0
  0
VERTEX
  5
5F
330
43
100
AcDbEntity
  8
GRAU_10_
 62
     7
100
AcDbVertex
100
AcDb2dVertex
 10
53.83234064951949
 20
120.0395717690352
 30
0.0
  0
VERTEX
  5
60
330
43
100
AcDbEntity
  8
GRAU_10_
 62
     7
100
AcDbVertex
100
AcDb2dVertex
 10
53.84433509396082
 20
120.1746856578902
 30
0.0
  0
VERTEX
  5
61
330
43
100
AcDbEntity
  8
GRAU_10_
 62
     7
100
AcDbVertex
100
AcDb2dVertex
 10
53.85280176062549
 20
120.2417134356514
 30
0.0
  0
VERTEX
  5
62
330
43
100
AcDbEntity
  8
GRAU_10_
 62
     7
100
AcDbVertex
100
AcDb2dVertex
 10
53.86479620506681
 20
120.3087412134123
 30
0.0
  0
VERTEX
  5
63
330
43
100
AcDbEntity
  8
GRAU_10_
 62
     7
100
AcDbVertex
100
AcDb2dVertex
 10
53.87890731617438
 20
120.375063435618
 30
0.0
  0
VERTEX
  5
64
330
43
100
AcDbEntity
  8
GRAU_10_
 62
     7
100
AcDbVertex
100
AcDb2dVertex
 10
53.89654620505893
 20
120.4410328800459
 30
0.0
  0
VERTEX
  5
65
330
43
100
AcDbEntity
  8
GRAU_10_
 62
     7
100
AcDbVertex
100
AcDb2dVertex
 10
53.87890731617438
 20
120.473841213371
 30
0.0
  0
VERTEX
  5
66
330
43
100
AcDbEntity
  8
GRAU_10_
 62
     7
100
AcDbVertex
100
AcDb2dVertex
 10
53.86479620506681
 20
120.5073551022516
 30
0.0
  0
VERTEX
  5
67
330
43
100
AcDbEntity
  8
GRAU_10_
 62
     7
100
AcDbVertex
100
AcDb2dVertex
 10
53.85280176062549
 20
120.5408689911322
 30
0.0
  0
VERTEX
  5
68
330
43
100
AcDbEntity
  8
GRAU_10_
 62
     7
100
AcDbVertex
100
AcDb2dVertex
 10
53.84433509396082
 20
120.574030102235
 30
0.0
  0
VERTEX
  5
69
330
43
100
AcDbEntity
  8
GRAU_10_
 62
     7
100
AcDbVertex
100
AcDb2dVertex
 10
53.83234064951949
 20
120.6414106577737
 30
0.0
  0
VERTEX
  5
6A
330
43
100
AcDbEntity
  8
GRAU_10_
 62
     7
100
AcDbVertex
100
AcDb2dVertex
 10
53.82916564952028
 20
120.7094967688678
 30
0.0
  0
VERTEX
  5
6B
330
43
100
AcDbEntity
  8
GRAU_10_
 62
     7
100
AcDbVertex
100
AcDb2dVertex
 10
53.82916564952028
 20
121.7406662130544
 30
0.0
  0
VERTEX
  5
6C
330
43
100
AcDbEntity
  8
GRAU_10_
 62
     7
100
AcDbVertex
100
AcDb2dVertex
 10
53.82916564952028
 20
122.5481745461858
 30
0.0
  0
VERTEX
  5
6D
330
43
100
AcDbEntity
  8
GRAU_10_
 62
     7
100
AcDbVertex
100
AcDb2dVertex
 10
53.82916564952028
 20
123.0928634349388
 30
0.0
  0
VERTEX
  5
6E
330
43
100
AcDbEntity
  8
GRAU_10_
 62
     7
100
AcDbVertex
100
AcDb2dVertex
 10
53.82916564952028
 20
123.3479217682083
 30
0.0
  0
VERTEX
  5
6F
330
43
100
AcDbEntity
  8
GRAU_10_
 62
     7
100
AcDbVertex
100
AcDb2dVertex
 10
53.83234064951949
 20
123.4160078793022
 30
0.0
  0
VERTEX
  5
70
330
43
100
AcDbEntity
  8
GRAU_10_
 62
     7
100
AcDbVertex
100
AcDb2dVertex
 10
53.84433509396082
 20
123.4833884348411
 30
0.0
  0
VERTEX
  5
71
330
43
100
AcDbEntity
  8
GRAU_10_
 62
     7
100
AcDbVertex
100
AcDb2dVertex
 10
53.85280176062549
 20
123.5165495459436
 30
0.0
  0
VERTEX
  5
72
330
43
100
AcDbEntity
  8
GRAU_10_
 62
     7
100
AcDbVertex
100
AcDb2dVertex
 10
53.86479620506681
 20
123.5500634348243
 30
0.0
  0
VERTEX
  5
73
330
43
100
AcDbEntity
  8
GRAU_10_
 62
     7
100
AcDbVertex
100
AcDb2dVertex
 10
53.87890731617438
 20
123.5835773237048
 30
0.0
  0
VERTEX
  5
74
330
43
100
AcDbEntity
  8
GRAU_10_
 62
     7
100
AcDbVertex
100
AcDb2dVertex
 10
53.89654620505893
 20
123.6163856570299
 30
0.0
  0
SEQEND
  5
75
330
43
100
AcDbEntity
  8
GRAU_10_
 62
     7
  0
POLYLINE
  5
76
330
1F
100
AcDbEntity
  8
GRAU_10_
 62
     7
100
AcDb2dPolyline
 66
     1
 10
0.0
 20
0.0
 30
0.0
  0
VERTEX
  5
77
330
76
100
AcDbEntity
  8
GRAU_10_
 62
     7
100
AcDbVertex
100
AcDb2dVertex
 10
60.74466842556921
 20
123.8657995458563
 30
0.0
  0
VERTEX
  5
78
330
76
100
AcDbEntity
  8
GRAU_10_
 62
     7
100
AcDbVertex
100
AcDb2dVertex
 10
54.32905176050623
 20
123.8657995458563
 30
0.0
  0
SEQEND
  5
79
330
76
100
AcDbEntity
  8
GRAU_10_
 62
     7
  0
POLYLINE
  5
7A
330
1F
100
AcDbEntity
  8
GRAU_10_
 62
     7
100
AcDb2dPolyline
 66
     1
 10
0.0
 20
0.0
 30
0.0
  0
VERTEX
  5
7B
330
7A
100
AcDbEntity
  8
GRAU_10_
 62
     7
100
AcDbVertex
100
AcDb2dVertex
 10
54.32905176050623
 20
110.6652078824898
 30
0.0
  0
VERTEX
  5
7C
330
7A
100
AcDbEntity
  8
GRAU_10_
 62
     7
100
AcDbVertex
100
AcDb2dVertex
 10
60.74466842556921
 20
110.6652078824898
 30
0.0
  0
SEQEND
  5
7D
330
7A
100
AcDbEntity
  8
GRAU_10_
 62
     7
  0
SPLINE
  5
7E
330
1F
100
AcDbEntity
  8
GRAU_10_
 62
     7
100
AcDbSpline
210
0.0
220
0.0
230
1.0
 70
     8
 71
     3
 72
     8
 73
     4
 74
     0
 42
0.0000000001
 43
0.0000000001
 12
1.0
 22
0.0
 32
0.0
 13
1.0
 23
0.0
 33
0.0
 40
0.0
 40
0.0
 40
0.0
 40
0.0
 40
1.0
 40
1.0
 40
1.0
 40
1.0
 10
61.24455453655516
 20
123.3652078793148
 30
0.0
 10
61.24455453655516
 20
123.6417856570236
 30
0.0
 10
61.02054064772219
 20
123.8657995458563
 30
0.0
 10
60.74466842556921
 20
123.8657995458563
 30
0.0
  0
SPLINE
  5
7F
330
1F
100
AcDbEntity
  8
GRAU_10_
 62
     7
100
AcDbSpline
210
0.0
220
0.0
230
1.0
 70
     8
 71
     3
 72
     8
 73
     4
 74
     0
 42
0.0000000001
 43
0.0000000001
 12
1.0
 22
0.0
 32
0.0
 13
1.0
 23
0.0
 33
0.0
 40
0.0
 40
0.0
 40
0.0
 40
0.0
 40
1.0
 40
1.0
 40
1.0
 40
1.0
 10
60.74466842556921
 20
110.6652078824898
 30
0.0
 10
61.02054064772219
 20
110.6652078824898
 30
0.0
 10
61.24455453655516
 20
110.8892217713228
 30
0.0
 10
61.24455453655516
 20
111.1657995490313
 30
0.0
  0
POLYLINE
  5
80
330
1F
100
AcDbEntity
  8
GRAU_10_
 62
     7
100
AcDb2dPolyline
 66
     1
 10
0.0
 20
0.0
 30
0.0
  0
VERTEX
  5
81
330
80
100
AcDbEntity
  8
GRAU_10_
 62
     7
100
AcDbVertex
100
AcDb2dVertex
 10
61.24455453655516
 20
123.3652078793148
 30
0.0
  0
VERTEX
  5
82
330
80
100
AcDbEntity
  8
GRAU_10_
 62
     7
100
AcDbVertex
100
AcDb2dVertex
 10
61.24455453655516
 20
123.2618439904519
 30
0.0
  0
VERTEX
  5
83
330
80
100
AcDbEntity
  8
GRAU_10_
 62
     7
100
AcDbVertex
100
AcDb2dVertex
 10
61.24455453655516
 20
122.9535162127512
 30
0.0
  0
VERTEX
  5
84
330
80
100
AcDbEntity
  8
GRAU_10_
 62
     7
100
AcDbVertex
100
AcDb2dVertex
 10
61.24455453655516
 20
122.4515134350987
 30
0.0
  0
VERTEX
  5
85
330
80
100
AcDbEntity
  8
GRAU_10_
 62
     7
100
AcDbVertex
100
AcDb2dVertex
 10
61.24455453655516
 20
121.773121768602
 30
0.0
  0
VERTEX
  5
86
330
80
100
AcDbEntity
  8
GRAU_10_
 62
     7
100
AcDbVertex
100
AcDb2dVertex
 10
61.24455453655516
 20
120.9416245465877
 30
0.0
  0
VERTEX
  5
87
330
80
100
AcDbEntity
  8
GRAU_10_
 62
     7
100
AcDbVertex
100
AcDb2dVertex
 10
61.24455453655516
 20
119.9845384357156
 30
0.0
  0
VERTEX
  5
88
330
80
100
AcDbEntity
  8
GRAU_10_
 62
     7
100
AcDbVertex
100
AcDb2dVertex
 10
61.24455453655516
 20
118.9350245470893
 30
0.0
  0
VERTEX
  5
89
330
80
100
AcDbEntity
  8
GRAU_10_
 62
     7
100
AcDbVertex
100
AcDb2dVertex
 10
61.24455453655516
 20
117.8280078806991
 30
0.0
  0
VERTEX
  5
8A
330
80
100
AcDbEntity
  8
GRAU_10_
 62
     7
100
AcDbVertex
100
AcDb2dVertex
 10
61.24455453655516
 20
116.7026467698695
 30
0.0
  0
VERTEX
  5
8B
330
80
100
AcDbEntity
  8
GRAU_10_
 62
     7
100
AcDbVertex
100
AcDb2dVertex
 10
61.24455453655516
 20
115.5959828812574
 30
0.0
  0
VERTEX
  5
8C
330
80
100
AcDbEntity
  8
GRAU_10_
 62
     7
100
AcDbVertex
100
AcDb2dVertex
 10
61.24455453655516
 20
114.5464689926307
 30
0.0
  0
VERTEX
  5
8D
330
80
100
AcDbEntity
  8
GRAU_10_
 62
     7
100
AcDbVertex
100
AcDb2dVertex
 10
61.24455453655516
 20
113.589382881759
 30
0.0
  0
VERTEX
  5
8E
330
80
100
AcDbEntity
  8
GRAU_10_
 62
     7
100
AcDbVertex
100
AcDb2dVertex
 10
61.24455453655516
 20
112.7571801041891
 30
0.0
  0
VERTEX
  5
8F
330
80
100
AcDbEntity
  8
GRAU_10_
 62
     7
100
AcDbVertex
100
AcDb2dVertex
 10
61.24455453655516
 20
112.0794939932473
 30
0.0
  0
VERTEX
  5
90
330
80
100
AcDbEntity
  8
GRAU_10_
 62
     7
100
AcDbVertex
100
AcDb2dVertex
 10
61.24455453655516
 20
111.5774912155951
 30
0.0
  0
VERTEX
  5
91
330
80
100
AcDbEntity
  8
GRAU_10_
 62
     7
100
AcDbVertex
100
AcDb2dVertex
 10
61.24455453655516
 20
111.2691634378945
 30
0.0
  0
VERTEX
  5
92
330
80
100
AcDbEntity
  8
GRAU_10_
 62
     7
100
AcDbVertex
100
AcDb2dVertex
 10
61.24455453655516
 20
111.1657995490313
 30
0.0
  0
SEQEND
  5
93
330
80
100
AcDbEntity
  8
GRAU_10_
 62
     7
  0
POLYLINE
  5
94
330
1F
100
AcDbEntity
  8
GRAU_10_
 62
     7
100
AcDb2dPolyline
 66
     1
 10
0.0
 20
0.0
 30
0.0
  0
VERTEX
  5
95
330
94
100
AcDbEntity
  8
GRAU_10_
 62
     7
100
AcDbVertex
100
AcDb2dVertex
 10
74.07896286668
 20
124.6764828789872
 30
0.0
  0
VERTEX
  5
96
330
94
100
AcDbEntity
  8
GRAU_10_
 62
     7
100
AcDbVertex
100
AcDb2dVertex
 10
74.07896286668
 20
131.5348356550503
 30
0.0
  0
SEQEND
  5
97
330
94
100
AcDbEntity
  8
GRAU_10_
 62
     7
  0
POLYLINE
  5
98
330
1F
100
AcDbEntity
  8
GRAU_10_
 62
     7
100
AcDb2dPolyline
 66
     1
 10
0.0
 20
0.0
 30
0.0
  0
VERTEX
  5
99
330
98
100
AcDbEntity
  8
GRAU_10_
 62
     7
100
AcDbVertex
100
AcDb2dVertex
 10
61.57863509202723
 20
131.5348356550503
 30
0.0
  0
VERTEX
  5
9A
330
98
100
AcDbEntity
  8
GRAU_10_
 62
     7
100
AcDbVertex
100
AcDb2dVertex
 10
61.57863509202723
 20
124.6764828789872
 30
0.0
  0
SEQEND
  5
9B
330
98
100
AcDbEntity
  8
GRAU_10_
 62
     7
  0
POLYLINE
  5
9C
330
1F
100
AcDbEntity
  8
GRAU_10_
 62
     7
100
AcDb2dPolyline
 66
     1
 10
0.0
 20
0.0
 30
0.0
  0
VERTEX
  5
9D
330
9C
100
AcDbEntity
  8
GRAU_10_
 62
     7
100
AcDbVertex
100
AcDb2dVertex
 10
74.07896286668
 20
131.5348356550503
 30
0.0
  0
VERTEX
  5
9E
330
9C
100
AcDbEntity
  8
GRAU_10_
 62
     7
100
AcDbVertex
100
AcDb2dVertex
 10
73.9727767555953
 20
131.5348356550503
 30
0.0
  0
VERTEX
  5
9F
330
9C
100
AcDbEntity
  8
GRAU_10_
 62
     7
100
AcDbVertex
100
AcDb2dVertex
 10
73.65668786678553
 20
131.5348356550503
 30
0.0
  0
VERTEX
  5
A0
330
9C
100
AcDbEntity
  8
GRAU_10_
 62
     7
100
AcDbVertex
100
AcDb2dVertex
 10
73.14269064469168
 20
131.5348356550503
 30
0.0
  0
VERTEX
  5
A1
330
9C
100
AcDbEntity
  8
GRAU_10_
 62
     7
100
AcDbVertex
100
AcDb2dVertex
 10
72.44807120042088
 20
131.5348356550503
 30
0.0
  0
VERTEX
  5
A2
330
9C
100
AcDbEntity
  8
GRAU_10_
 62
     7
100
AcDbVertex
100
AcDb2dVertex
 10
71.59505453396758
 20
131.5348356550503
 30
0.0
  0
VERTEX
  5
A3
330
9C
100
AcDbEntity
  8
GRAU_10_
 62
     7
100
AcDbVertex
100
AcDb2dVertex
 10
70.61468508976807
 20
131.5348356550503
 30
0.0
  0
VERTEX
  5
A4
330
9C
100
AcDbEntity
  8
GRAU_10_
 62
     7
100
AcDbVertex
100
AcDb2dVertex
 10
69.53906564559254
 20
131.5348356550503
 30
0.0
  0
VERTEX
  5
A5
330
9C
100
AcDbEntity
  8
GRAU_10_
 62
     7
100
AcDbVertex
100
AcDb2dVertex
 10
68.405590645876
 20
131.5348356550503
 30
0.0
  0
VERTEX
  5
A6
330
9C
100
AcDbEntity
  8
GRAU_10_
 62
     7
100
AcDbVertex
100
AcDb2dVertex
 10
67.25236009060868
 20
131.5348356550503
 30
0.0
  0
VERTEX
  5
A7
330
9C
100
AcDbEntity
  8
GRAU_10_
 62
     7
100
AcDbVertex
100
AcDb2dVertex
 10
66.11853231311437
 20
131.5348356550503
 30
0.0
  0
VERTEX
  5
A8
330
9C
100
AcDbEntity
  8
GRAU_10_
 62
     7
100
AcDbVertex
100
AcDb2dVertex
 10
65.0432656467166
 20
131.5348356550503
 30
0.0
  0
VERTEX
  5
A9
330
9C
100
AcDbEntity
  8
GRAU_10_
 62
     7
100
AcDbVertex
100
AcDb2dVertex
 10
64.06254342473964
 20
131.5348356550503
 30
0.0
  0
VERTEX
  5
AA
330
9C
100
AcDbEntity
  8
GRAU_10_
 62
     7
100
AcDbVertex
100
AcDb2dVertex
 10
63.2098795360638
 20
131.5348356550503
 30
0.0
  0
VERTEX
  5
AB
330
9C
100
AcDbEntity
  8
GRAU_10_
 62
     7
100
AcDbVertex
100
AcDb2dVertex
 10
62.51490731401523
 20
131.5348356550503
 30
0.0
  0
VERTEX
  5
AC
330
9C
100
AcDbEntity
  8
GRAU_10_
 62
     7
100
AcDbVertex
100
AcDb2dVertex
 10
62.0009100919217
 20
131.5348356550503
 30
0.0
  0
VERTEX
  5
AD
330
9C
100
AcDbEntity
  8
GRAU_10_
 62
     7
100
AcDbVertex
100
AcDb2dVertex
 10
61.68552675866714
 20
131.5348356550503
 30
0.0
  0
VERTEX
  5
AE
330
9C
100
AcDbEntity
  8
GRAU_10_
 62
     7
100
AcDbVertex
100
AcDb2dVertex
 10
61.57863509202723
 20
131.5348356550503
 30
0.0
  0
SEQEND
  5
AF
330
9C
100
AcDbEntity
  8
GRAU_10_
 62
     7
  0
SPLINE
  5
B0
330
1F
100
AcDbEntity
  8
GRAU_10_
 62
     7
100
AcDbSpline
210
0.0
220
0.0
230
1.0
 70
     8
 71
     3
 72
     8
 73
     4
 74
     0
 42
0.0000000001
 43
0.0000000001
 12
1.0
 22
0.0
 32
0.0
 13
1.0
 23
0.0
 33
0.0
 40
0.0
 40
0.0
 40
0.0
 40
0.0
 40
1.0
 40
1.0
 40
1.0
 40
1.0
 10
61.57863509202723
 20
124.6764828789872
 30
0.0
 10
61.57863509202723
 20
124.4926856568107
 30
0.0
 10
61.67847120311351
 20
124.3318189901845
 30
0.0
 10
61.82875453640909
 20
124.2439773235395
 30
0.0
  0
SPLINE
  5
B1
330
1F
100
AcDbEntity
  8
GRAU_10_
 62
     7
100
AcDbSpline
210
0.0
220
0.0
230
1.0
 70
     8
 71
     3
 72
     8
 73
     4
 74
     0
 42
0.0000000001
 43
0.0000000001
 12
1.0
 22
0.0
 32
0.0
 13
1.0
 23
0.0
 33
0.0
 40
0.0
 40
0.0
 40
0.0
 40
0.0
 40
1.0
 40
1.0
 40
1.0
 40
1.0
 10
73.82884342229815
 20
124.2439773235395
 30
0.0
 10
73.9882989778136
 20
124.3353467679611
 30
0.0
 10
74.07825731112447
 20
124.5022106568083
 30
0.0
 10
74.07896286668
 20
124.6764828789872
 30
0.0
  0
POLYLINE
  5
B2
330
1F
100
AcDbEntity
  8
GRAU_10_
 62
     7
100
AcDb2dPolyline
 66
     1
 10
0.0
 20
0.0
 30
0.0
  0
VERTEX
  5
B3
330
B2
100
AcDbEntity
  8
GRAU_10_
 62
     7
100
AcDbVertex
100
AcDb2dVertex
 10
74.07896286668
 20
131.5348356550503
 30
0.0
  0
VERTEX
  5
B4
330
B2
100
AcDbEntity
  8
GRAU_10_
 62
     7
100
AcDbVertex
100
AcDb2dVertex
 10
73.67891286678001
 20
131.7655523216591
 30
0.0
  0
SEQEND
  5
B5
330
B2
100
AcDbEntity
  8
GRAU_10_
 62
     7
  0
POLYLINE
  5
B6
330
1F
100
AcDbEntity
  8
GRAU_10_
 62
     7
100
AcDb2dPolyline
 66
     1
 10
0.0
 20
0.0
 30
0.0
  0
VERTEX
  5
B7
330
B6
100
AcDbEntity
  8
GRAU_10_
 62
     7
100
AcDbVertex
100
AcDb2dVertex
 10
61.97903786970499
 20
131.7655523216591
 30
0.0
  0
VERTEX
  5
B8
330
B6
100
AcDbEntity
  8
GRAU_10_
 62
     7
100
AcDbVertex
100
AcDb2dVertex
 10
61.57863509202723
 20
131.5348356550503
 30
0.0
  0
SEQEND
  5
B9
330
B6
100
AcDbEntity
  8
GRAU_10_
 62
     7
  0
POLYLINE
  5
BA
330
1F
100
AcDbEntity
  8
GRAU_10_
 62
     7
100
AcDb2dPolyline
 66
     1
 10
0.0
 20
0.0
 30
0.0
  0
VERTEX
  5
BB
330
BA
100
AcDbEntity
  8
GRAU_10_
 62
     7
100
AcDbVertex
100
AcDb2dVertex
 10
73.67891286678001
 20
131.7655523216591
 30
0.0
  0
VERTEX
  5
BC
330
BA
100
AcDbEntity
  8
GRAU_10_
 62
     7
100
AcDbVertex
100
AcDb2dVertex
 10
73.56672953347464
 20
131.7655523216591
 30
0.0
  0
VERTEX
  5
BD
330
BA
100
AcDbEntity
  8
GRAU_10_
 62
     7
100
AcDbVertex
100
AcDb2dVertex
 10
73.23335453355809
 20
131.7655523216591
 30
0.0
  0
VERTEX
  5
BE
330
BA
100
AcDbEntity
  8
GRAU_10_
 62
     7
100
AcDbVertex
100
AcDb2dVertex
 10
72.69325175591536
 20
131.7655523216591
 30
0.0
  0
VERTEX
  5
BF
330
BA
100
AcDbEntity
  8
GRAU_10_
 62
     7
100
AcDbVertex
100
AcDb2dVertex
 10
71.96582397831915
 20
131.7655523216591
 30
0.0
  0
VERTEX
  5
C0
330
BA
100
AcDbEntity
  8
GRAU_10_
 62
     7
100
AcDbVertex
100
AcDb2dVertex
 10
71.07894064520782
 20
131.7655523216591
 30
0.0
  0
VERTEX
  5
C1
330
BA
100
AcDbEntity
  8
GRAU_10_
 62
     7
100
AcDbVertex
100
AcDb2dVertex
 10
70.06787953434947
 20
131.7655523216591
 30
0.0
  0
VERTEX
  5
C2
330
BA
100
AcDbEntity
  8
GRAU_10_
 62
     7
100
AcDbVertex
100
AcDb2dVertex
 10
68.97003509017946
 20
131.7655523216591
 30
0.0
  0
VERTEX
  5
C3
330
BA
100
AcDbEntity
  8
GRAU_10_
 62
     7
100
AcDbVertex
100
AcDb2dVertex
 10
67.82915175713121
 20
131.7655523216591
 30
0.0
  0
VERTEX
  5
C4
330
BA
100
AcDbEntity
  8
GRAU_10_
 62
     7
100
AcDbVertex
100
AcDb2dVertex
 10
66.68756286852776
 20
131.7655523216591
 30
0.0
  0
VERTEX
  5
C5
330
BA
100
AcDbEntity
  8
GRAU_10_
 62
     7
100
AcDbVertex
100
AcDb2dVertex
 10
65.59042397991328
 20
131.7655523216591
 30
0.0
  0
VERTEX
  5
C6
330
BA
100
AcDbEntity
  8
GRAU_10_
 62
     7
100
AcDbVertex
100
AcDb2dVertex
 10
64.57901009127718
 20
131.7655523216591
 30
0.0
  0
VERTEX
  5
C7
330
BA
100
AcDbEntity
  8
GRAU_10_
 62
     7
100
AcDbVertex
100
AcDb2dVertex
 10
63.69247953594328
 20
131.7655523216591
 30
0.0
  0
VERTEX
  5
C8
330
BA
100
AcDbEntity
  8
GRAU_10_
 62
     7
100
AcDbVertex
100
AcDb2dVertex
 10
62.96469898056964
 20
131.7655523216591
 30
0.0
  0
VERTEX
  5
C9
330
BA
100
AcDbEntity
  8
GRAU_10_
 62
     7
100
AcDbVertex
100
AcDb2dVertex
 10
62.42459620292691
 20
131.7655523216591
 30
0.0
  0
VERTEX
  5
CA
330
BA
100
AcDbEntity
  8
GRAU_10_
 62
     7
100
AcDbVertex
100
AcDb2dVertex
 10
62.09122120301003
 20
131.7655523216591
 30
0.0
  0
VERTEX
  5
CB
330
BA
100
AcDbEntity
  8
GRAU_10_
 62
     7
100
AcDbVertex
100
AcDb2dVertex
 10
61.97903786970499
 20
131.7655523216591
 30
0.0
  0
SEQEND
  5
CC
330
BA
100
AcDbEntity
  8
GRAU_10_
 62
     7
  0
POLYLINE
  5
CD
330
1F
100
AcDbEntity
  8
GRAU_10_
 62
     7
100
AcDb2dPolyline
 66
     1
 10
0.0
 20
0.0
 30
0.0
  0
VERTEX
  5
CE
330
CD
100
AcDbEntity
  8
GRAU_10_
 62
     7
100
AcDbVertex
100
AcDb2dVertex
 10
61.82875453640909
 20
124.2439773235395
 30
0.0
  0
VERTEX
  5
CF
330
CD
100
AcDbEntity
  8
GRAU_10_
 62
     7
100
AcDbVertex
100
AcDb2dVertex
 10
63.32911842492278
 20
123.3775551015339
 30
0.0
  0
SEQEND
  5
D0
330
CD
100
AcDbEntity
  8
GRAU_10_
 62
     7
  0
POLYLINE
  5
D1
330
1F
100
AcDbEntity
  8
GRAU_10_
 62
     7
100
AcDb2dPolyline
 66
     1
 10
0.0
 20
0.0
 30
0.0
  0
VERTEX
  5
D2
330
D1
100
AcDbEntity
  8
GRAU_10_
 62
     7
100
AcDbVertex
100
AcDb2dVertex
 10
72.3288323115619
 20
123.3775551015339
 30
0.0
  0
VERTEX
  5
D3
330
D1
100
AcDbEntity
  8
GRAU_10_
 62
     7
100
AcDbVertex
100
AcDb2dVertex
 10
73.82884342229815
 20
124.2439773235395
 30
0.0
  0
SEQEND
  5
D4
330
D1
100
AcDbEntity
  8
GRAU_10_
 62
     7
  0
POLYLINE
  5
D5
330
1F
100
AcDbEntity
  8
GRAU_10_
 62
     7
100
AcDb2dPolyline
 66
     1
 10
0.0
 20
0.0
 30
0.0
  0
VERTEX
  5
D6
330
D5
100
AcDbEntity
  8
GRAU_10_
 62
     7
100
AcDbVertex
100
AcDb2dVertex
 10
72.3288323115619
 20
123.3775551015339
 30
0.0
  0
VERTEX
  5
D7
330
D5
100
AcDbEntity
  8
GRAU_10_
 62
     7
100
AcDbVertex
100
AcDb2dVertex
 10
72.21594342270133
 20
123.3775551015339
 30
0.0
  0
VERTEX
  5
D8
330
D5
100
AcDbEntity
  8
GRAU_10_
 62
     7
100
AcDbVertex
100
AcDb2dVertex
 10
71.88327397833997
 20
123.3775551015339
 30
0.0
  0
VERTEX
  5
D9
330
D5
100
AcDbEntity
  8
GRAU_10_
 62
     7
100
AcDbVertex
100
AcDb2dVertex
 10
71.34705175625166
 20
123.3775551015339
 30
0.0
  0
VERTEX
  5
DA
330
D5
100
AcDbEntity
  8
GRAU_10_
 62
     7
100
AcDbVertex
100
AcDb2dVertex
 10
70.63479342309662
 20
123.3775551015339
 30
0.0
  0
VERTEX
  5
DB
330
D5
100
AcDbEntity
  8
GRAU_10_
 62
     7
100
AcDbVertex
100
AcDb2dVertex
 10
69.78107120108781
 20
123.3775551015339
 30
0.0
  0
VERTEX
  5
DC
330
D5
100
AcDbEntity
  8
GRAU_10_
 62
     7
100
AcDbVertex
100
AcDb2dVertex
 10
68.82998231243673
 20
123.3775551015339
 30
0.0
  0
VERTEX
  5
DD
330
D5
100
AcDbEntity
  8
GRAU_10_
 62
     7
100
AcDbVertex
100
AcDb2dVertex
 10
67.82915175713121
 20
123.3775551015339
 30
0.0
  0
VERTEX
  5
DE
330
D5
100
AcDbEntity
  8
GRAU_10_
 62
     7
100
AcDbVertex
100
AcDb2dVertex
 10
66.82761564627052
 20
123.3775551015339
 30
0.0
  0
VERTEX
  5
DF
330
D5
100
AcDbEntity
  8
GRAU_10_
 62
     7
100
AcDbVertex
100
AcDb2dVertex
 10
65.87652675761943
 20
123.3775551015339
 30
0.0
  0
VERTEX
  5
E0
330
D5
100
AcDbEntity
  8
GRAU_10_
 62
     7
100
AcDbVertex
100
AcDb2dVertex
 10
65.02351009116613
 20
123.3775551015339
 30
0.0
  0
VERTEX
  5
E1
330
D5
100
AcDbEntity
  8
GRAU_10_
 62
     7
100
AcDbVertex
100
AcDb2dVertex
 10
64.31054620245526
 20
123.3775551015339
 30
0.0
  0
VERTEX
  5
E2
330
D5
100
AcDbEntity
  8
GRAU_10_
 62
     7
100
AcDbVertex
100
AcDb2dVertex
 10
63.77467675814502
 20
123.3775551015339
 30
0.0
  0
VERTEX
  5
E3
330
D5
100
AcDbEntity
  8
GRAU_10_
 62
     7
100
AcDbVertex
100
AcDb2dVertex
 10
63.44165453600591
 20
123.3775551015339
 30
0.0
  0
VERTEX
  5
E4
330
D5
100
AcDbEntity
  8
GRAU_10_
 62
     7
100
AcDbVertex
100
AcDb2dVertex
 10
63.32911842492278
 20
123.3775551015339
 30
0.0
  0
SEQEND
  5
E5
330
D5
100
AcDbEntity
  8
GRAU_10_
 62
     7
  0
POLYLINE
  5
E6
330
1F
100
AcDbEntity
  8
GRAU_10_
 62
     7
100
AcDb2dPolyline
 66
     1
 10
0.0
 20
0.0
 30
0.0
  0
VERTEX
  5
E7
330
E6
100
AcDbEntity
  8
GRAU_10_
 62
     7
100
AcDbVertex
100
AcDb2dVertex
 10
73.67891286678001
 20
136.4656106538175
 30
0.0
  0
VERTEX
  5
E8
330
E6
100
AcDbEntity
  8
GRAU_10_
 62
     7
100
AcDbVertex
100
AcDb2dVertex
 10
73.37869897796597
 20
136.7658245426316
 30
0.0
  0
SEQEND
  5
E9
330
E6
100
AcDbEntity
  8
GRAU_10_
 62
     7
  0
POLYLINE
  5
EA
330
1F
100
AcDbEntity
  8
GRAU_10_
 62
     7
100
AcDb2dPolyline
 66
     1
 10
0.0
 20
0.0
 30
0.0
  0
VERTEX
  5
EB
330
EA
100
AcDbEntity
  8
GRAU_10_
 62
     7
100
AcDbVertex
100
AcDb2dVertex
 10
62.2792517585187
 20
136.7658245426316
 30
0.0
  0
VERTEX
  5
EC
330
EA
100
AcDbEntity
  8
GRAU_10_
 62
     7
100
AcDbVertex
100
AcDb2dVertex
 10
61.97903786970499
 20
136.4656106538175
 30
0.0
  0
SEQEND
  5
ED
330
EA
100
AcDbEntity
  8
GRAU_10_
 62
     7
  0
POLYLINE
  5
EE
330
1F
100
AcDbEntity
  8
GRAU_10_
 62
     7
100
AcDb2dPolyline
 66
     1
 10
0.0
 20
0.0
 30
0.0
  0
VERTEX
  5
EF
330
EE
100
AcDbEntity
  8
GRAU_10_
 62
     7
100
AcDbVertex
100
AcDb2dVertex
 10
73.67891286678001
 20
136.4656106538175
 30
0.0
  0
VERTEX
  5
F0
330
EE
100
AcDbEntity
  8
GRAU_10_
 62
     7
100
AcDbVertex
100
AcDb2dVertex
 10
73.56672953347464
 20
136.4656106538175
 30
0.0
  0
VERTEX
  5
F1
330
EE
100
AcDbEntity
  8
GRAU_10_
 62
     7
100
AcDbVertex
100
AcDb2dVertex
 10
73.23335453355809
 20
136.4656106538175
 30
0.0
  0
VERTEX
  5
F2
330
EE
100
AcDbEntity
  8
GRAU_10_
 62
     7
100
AcDbVertex
100
AcDb2dVertex
 10
72.69325175591536
 20
136.4656106538175
 30
0.0
  0
VERTEX
  5
F3
330
EE
100
AcDbEntity
  8
GRAU_10_
 62
     7
100
AcDbVertex
100
AcDb2dVertex
 10
71.96582397831915
 20
136.4656106538175
 30
0.0
  0
VERTEX
  5
F4
330
EE
100
AcDbEntity
  8
GRAU_10_
 62
     7
100
AcDbVertex
100
AcDb2dVertex
 10
71.07894064520782
 20
136.4656106538175
 30
0.0
  0
VERTEX
  5
F5
330
EE
100
AcDbEntity
  8
GRAU_10_
 62
     7
100
AcDbVertex
100
AcDb2dVertex
 10
70.06787953434947
 20
136.4656106538175
 30
0.0
  0
VERTEX
  5
F6
330
EE
100
AcDbEntity
  8
GRAU_10_
 62
     7
100
AcDbVertex
100
AcDb2dVertex
 10
68.97003509017946
 20
136.4656106538175
 30
0.0
  0
VERTEX
  5
F7
330
EE
100
AcDbEntity
  8
GRAU_10_
 62
     7
100
AcDbVertex
100
AcDb2dVertex
 10
67.82915175713121
 20
136.4656106538175
 30
0.0
  0
VERTEX
  5
F8
330
EE
100
AcDbEntity
  8
GRAU_10_
 62
     7
100
AcDbVertex
100
AcDb2dVertex
 10
66.68756286852776
 20
136.4656106538175
 30
0.0
  0
VERTEX
  5
F9
330
EE
100
AcDbEntity
  8
GRAU_10_
 62
     7
100
AcDbVertex
100
AcDb2dVertex
 10
65.59042397991328
 20
136.4656106538175
 30
0.0
  0
VERTEX
  5
FA
330
EE
100
AcDbEntity
  8
GRAU_10_
 62
     7
100
AcDbVertex
100
AcDb2dVertex
 10
64.57901009127718
 20
136.4656106538175
 30
0.0
  0
VERTEX
  5
FB
330
EE
100
AcDbEntity
  8
GRAU_10_
 62
     7
100
AcDbVertex
100
AcDb2dVertex
 10
63.69247953594328
 20
136.4656106538175
 30
0.0
  0
VERTEX
  5
FC
330
EE
100
AcDbEntity
  8
GRAU_10_
 62
     7
100
AcDbVertex
100
AcDb2dVertex
 10
62.96469898056964
 20
136.4656106538175
 30
0.0
  0
VERTEX
  5
FD
330
EE
100
AcDbEntity
  8
GRAU_10_
 62
     7
100
AcDbVertex
100
AcDb2dVertex
 10
62.42459620292691
 20
136.4656106538175
 30
0.0
  0
VERTEX
  5
FE
330
EE
100
AcDbEntity
  8
GRAU_10_
 62
     7
100
AcDbVertex
100
AcDb2dVertex
 10
62.09122120301003
 20
136.4656106538175
 30
0.0
  0
VERTEX
  5
FF
330
EE
100
AcDbEntity
  8
GRAU_10_
 62
     7
100
AcDbVertex
100
AcDb2dVertex
 10
61.97903786970499
 20
136.4656106538175
 30
0.0
  0
SEQEND
  5
100
330
EE
100
AcDbEntity
  8
GRAU_10_
 62
     7
  0
POLYLINE
  5
101
330
1F
100
AcDbEntity
  8
GRAU_10_
 62
     7
100
AcDb2dPolyline
 66
     1
 10
0.0
 20
0.0
 30
0.0
  0
VERTEX
  5
102
330
101
100
AcDbEntity
  8
GRAU_10_
 62
     7
100
AcDbVertex
100
AcDb2dVertex
 10
73.37869897796597
 20
136.7658245426316
 30
0.0
  0
VERTEX
  5
103
330
101
100
AcDbEntity
  8
GRAU_10_
 62
     7
100
AcDbVertex
100
AcDb2dVertex
 10
73.2725128668816
 20
136.7658245426316
 30
0.0
  0
VERTEX
  5
104
330
101
100
AcDbEntity
  8
GRAU_10_
 62
     7
100
AcDbVertex
100
AcDb2dVertex
 10
72.95642397807183
 20
136.7658245426316
 30
0.0
  0
VERTEX
  5
105
330
101
100
AcDbEntity
  8
GRAU_10_
 62
     7
100
AcDbVertex
100
AcDb2dVertex
 10
72.4438378670887
 20
136.7658245426316
 30
0.0
  0
VERTEX
  5
106
330
101
100
AcDbEntity
  8
GRAU_10_
 62
     7
100
AcDbVertex
100
AcDb2dVertex
 10
71.75309897837263
 20
136.7658245426316
 30
0.0
  0
VERTEX
  5
107
330
101
100
AcDbEntity
  8
GRAU_10_
 62
     7
100
AcDbVertex
100
AcDb2dVertex
 10
70.9124295341381
 20
136.7658245426316
 30
0.0
  0
VERTEX
  5
108
330
101
100
AcDbEntity
  8
GRAU_10_
 62
     7
100
AcDbVertex
100
AcDb2dVertex
 10
69.9525212010449
 20
136.7658245426316
 30
0.0
  0
VERTEX
  5
109
330
101
100
AcDbEntity
  8
GRAU_10_
 62
     7
100
AcDbVertex
100
AcDb2dVertex
 10
68.91147397908293
 20
136.7658245426316
 30
0.0
  0
VERTEX
  5
10A
330
101
100
AcDbEntity
  8
GRAU_10_
 62
     7
100
AcDbVertex
100
AcDb2dVertex
 10
67.82915175713121
 20
136.7658245426316
 30
0.0
  0
VERTEX
  5
10B
330
101
100
AcDbEntity
  8
GRAU_10_
 62
     7
100
AcDbVertex
100
AcDb2dVertex
 10
66.7461239796243
 20
136.7658245426316
 30
0.0
  0
VERTEX
  5
10C
330
101
100
AcDbEntity
  8
GRAU_10_
 62
     7
100
AcDbVertex
100
AcDb2dVertex
 10
65.70472397988458
 20
136.7658245426316
 30
0.0
  0
VERTEX
  5
10D
330
101
100
AcDbEntity
  8
GRAU_10_
 62
     7
100
AcDbVertex
100
AcDb2dVertex
 10
64.74552120234658
 20
136.7658245426316
 30
0.0
  0
VERTEX
  5
10E
330
101
100
AcDbEntity
  8
GRAU_10_
 62
     7
100
AcDbVertex
100
AcDb2dVertex
 10
63.9044989803346
 20
136.7658245426316
 30
0.0
  0
VERTEX
  5
10F
330
101
100
AcDbEntity
  8
GRAU_10_
 62
     7
100
AcDbVertex
100
AcDb2dVertex
 10
63.21411286939629
 20
136.7658245426316
 30
0.0
  0
VERTEX
  5
110
330
101
100
AcDbEntity
  8
GRAU_10_
 62
     7
100
AcDbVertex
100
AcDb2dVertex
 10
62.70152675841317
 20
136.7658245426316
 30
0.0
  0
VERTEX
  5
111
330
101
100
AcDbEntity
  8
GRAU_10_
 62
     7
100
AcDbVertex
100
AcDb2dVertex
 10
62.3854378696034
 20
136.7658245426316
 30
0.0
  0
VERTEX
  5
112
330
101
100
AcDbEntity
  8
GRAU_10_
 62
     7
100
AcDbVertex
100
AcDb2dVertex
 10
62.2792517585187
 20
136.7658245426316
 30
0.0
  0
SEQEND
  5
113
330
101
100
AcDbEntity
  8
GRAU_10_
 62
     7
  0
POLYLINE
  5
114
330
1F
100
AcDbEntity
  8
GRAU_10_
 62
     7
100
AcDb2dPolyline
 66
     1
 10
0.0
 20
0.0
 30
0.0
  0
VERTEX
  5
115
330
114
100
AcDbEntity
  8
GRAU_10_
 62
     7
100
AcDbVertex
100
AcDb2dVertex
 10
73.67891286678001
 20
131.7655523216591
 30
0.0
  0
VERTEX
  5
116
330
114
100
AcDbEntity
  8
GRAU_10_
 62
     7
100
AcDbVertex
100
AcDb2dVertex
 10
73.67891286678001
 20
136.4656106538175
 30
0.0
  0
SEQEND
  5
117
330
114
100
AcDbEntity
  8
GRAU_10_
 62
     7
  0
POLYLINE
  5
118
330
1F
100
AcDbEntity
  8
GRAU_10_
 62
     7
100
AcDb2dPolyline
 66
     1
 10
0.0
 20
0.0
 30
0.0
  0
VERTEX
  5
119
330
118
100
AcDbEntity
  8
GRAU_10_
 62
     7
100
AcDbVertex
100
AcDb2dVertex
 10
61.97903786970499
 20
136.4656106538175
 30
0.0
  0
VERTEX
  5
11A
330
118
100
AcDbEntity
  8
GRAU_10_
 62
     7
100
AcDbVertex
100
AcDb2dVertex
 10
61.97903786970499
 20
131.7655523216591
 30
0.0
  0
SEQEND
  5
11B
330
118
100
AcDbEntity
  8
GRAU_10_
 62
     7
  0
POLYLINE
  5
11C
330
1F
100
AcDbEntity
  8
GRAU_10_
 62
     7
100
AcDb2dPolyline
 66
     1
 10
0.0
 20
0.0
 30
0.0
  0
VERTEX
  5
11D
330
11C
100
AcDbEntity
  8
GRAU_10_
 62
     7
100
AcDbVertex
100
AcDb2dVertex
 10
62.12861564744536
 20
137.8654328756901
 30
0.0
  0
VERTEX
  5
11E
330
11C
100
AcDbEntity
  8
GRAU_10_
 62
     7
100
AcDbVertex
100
AcDb2dVertex
 10
62.32864064739536
 20
137.6657606535175
 30
0.0
  0
SEQEND
  5
11F
330
11C
100
AcDbEntity
  8
GRAU_10_
 62
     7
  0
POLYLINE
  5
120
330
1F
100
AcDbEntity
  8
GRAU_10_
 62
     7
100
AcDb2dPolyline
 66
     1
 10
0.0
 20
0.0
 30
0.0
  0
VERTEX
  5
121
330
120
100
AcDbEntity
  8
GRAU_10_
 62
     7
100
AcDbVertex
100
AcDb2dVertex
 10
73.32860453353412
 20
137.6657606535175
 30
0.0
  0
VERTEX
  5
122
330
120
100
AcDbEntity
  8
GRAU_10_
 62
     7
100
AcDbVertex
100
AcDb2dVertex
 10
73.52862953348411
 20
137.8654328756901
 30
0.0
  0
SEQEND
  5
123
330
120
100
AcDbEntity
  8
GRAU_10_
 62
     7
  0
POLYLINE
  5
124
330
1F
100
AcDbEntity
  8
GRAU_10_
 62
     7
100
AcDb2dPolyline
 66
     1
 10
0.0
 20
0.0
 30
0.0
  0
VERTEX
  5
125
330
124
100
AcDbEntity
  8
GRAU_10_
 62
     7
100
AcDbVertex
100
AcDb2dVertex
 10
73.32860453353412
 20
137.6657606535175
 30
0.0
  0
VERTEX
  5
126
330
124
100
AcDbEntity
  8
GRAU_10_
 62
     7
100
AcDbVertex
100
AcDb2dVertex
 10
73.2234767557827
 20
137.6657606535175
 30
0.0
  0
VERTEX
  5
127
330
124
100
AcDbEntity
  8
GRAU_10_
 62
     7
100
AcDbVertex
100
AcDb2dVertex
 10
72.91056286697214
 20
137.6657606535175
 30
0.0
  0
VERTEX
  5
128
330
124
100
AcDbEntity
  8
GRAU_10_
 62
     7
100
AcDbVertex
100
AcDb2dVertex
 10
72.4022100893212
 20
137.6657606535175
 30
0.0
  0
VERTEX
  5
129
330
124
100
AcDbEntity
  8
GRAU_10_
 62
     7
100
AcDbVertex
100
AcDb2dVertex
 10
71.7181739783813
 20
137.6657606535175
 30
0.0
  0
VERTEX
  5
12A
330
124
100
AcDbEntity
  8
GRAU_10_
 62
     7
100
AcDbVertex
100
AcDb2dVertex
 10
70.88491286747848
 20
137.6657606535175
 30
0.0
  0
VERTEX
  5
12B
330
124
100
AcDbEntity
  8
GRAU_10_
 62
     7
100
AcDbVertex
100
AcDb2dVertex
 10
69.93382397882739
 20
137.6657606535175
 30
0.0
  0
VERTEX
  5
12C
330
124
100
AcDbEntity
  8
GRAU_10_
 62
     7
100
AcDbVertex
100
AcDb2dVertex
 10
68.9019489790853
 20
137.6657606535175
 30
0.0
  0
VERTEX
  5
12D
330
124
100
AcDbEntity
  8
GRAU_10_
 62
     7
100
AcDbVertex
100
AcDb2dVertex
 10
67.82915175713121
 20
137.6657606535175
 30
0.0
  0
VERTEX
  5
12E
330
124
100
AcDbEntity
  8
GRAU_10_
 62
     7
100
AcDbVertex
100
AcDb2dVertex
 10
66.7560017573997
 20
137.6657606535175
 30
0.0
  0
VERTEX
  5
12F
330
124
100
AcDbEntity
  8
GRAU_10_
 62
     7
100
AcDbVertex
100
AcDb2dVertex
 10
65.7241267576576
 20
137.6657606535175
 30
0.0
  0
VERTEX
  5
130
330
124
100
AcDbEntity
  8
GRAU_10_
 62
     7
100
AcDbVertex
100
AcDb2dVertex
 10
64.77303786900652
 20
137.6657606535175
 30
0.0
  0
VERTEX
  5
131
330
124
100
AcDbEntity
  8
GRAU_10_
 62
     7
100
AcDbVertex
100
AcDb2dVertex
 10
63.94012953588113
 20
137.6657606535175
 30
0.0
  0
VERTEX
  5
132
330
124
100
AcDbEntity
  8
GRAU_10_
 62
     7
100
AcDbVertex
100
AcDb2dVertex
 10
63.25609342494124
 20
137.6657606535175
 30
0.0
  0
VERTEX
  5
133
330
124
100
AcDbEntity
  8
GRAU_10_
 62
     7
100
AcDbVertex
100
AcDb2dVertex
 10
62.74774064729062
 20
137.6657606535175
 30
0.0
  0
VERTEX
  5
134
330
124
100
AcDbEntity
  8
GRAU_10_
 62
     7
100
AcDbVertex
100
AcDb2dVertex
 10
62.43482675847974
 20
137.6657606535175
 30
0.0
  0
VERTEX
  5
135
330
124
100
AcDbEntity
  8
GRAU_10_
 62
     7
100
AcDbVertex
100
AcDb2dVertex
 10
62.32864064739536
 20
137.6657606535175
 30
0.0
  0
SEQEND
  5
136
330
124
100
AcDbEntity
  8
GRAU_10_
 62
     7
  0
POLYLINE
  5
137
330
1F
100
AcDbEntity
  8
GRAU_10_
 62
     7
100
AcDb2dPolyline
 66
     1
 10
0.0
 20
0.0
 30
0.0
  0
VERTEX
  5
138
330
137
100
AcDbEntity
  8
GRAU_10_
 62
     7
100
AcDbVertex
100
AcDb2dVertex
 10
73.52862953348411
 20
137.8654328756901
 30
0.0
  0
VERTEX
  5
139
330
137
100
AcDbEntity
  8
GRAU_10_
 62
     7
100
AcDbVertex
100
AcDb2dVertex
 10
73.41926842240052
 20
137.8654328756901
 30
0.0
  0
VERTEX
  5
13A
330
137
100
AcDbEntity
  8
GRAU_10_
 62
     7
100
AcDbVertex
100
AcDb2dVertex
 10
73.09506564470384
 20
137.8654328756901
 30
0.0
  0
VERTEX
  5
13B
330
137
100
AcDbEntity
  8
GRAU_10_
 62
     7
100
AcDbVertex
100
AcDb2dVertex
 10
72.56801564483538
 20
137.8654328756901
 30
0.0
  0
VERTEX
  5
13C
330
137
100
AcDbEntity
  8
GRAU_10_
 62
     7
100
AcDbVertex
100
AcDb2dVertex
 10
71.85963786723477
 20
137.8654328756901
 30
0.0
  0
VERTEX
  5
13D
330
137
100
AcDbEntity
  8
GRAU_10_
 62
     7
100
AcDbVertex
100
AcDb2dVertex
 10
70.99603786745055
 20
137.8654328756901
 30
0.0
  0
VERTEX
  5
13E
330
137
100
AcDbEntity
  8
GRAU_10_
 62
     7
100
AcDbVertex
100
AcDb2dVertex
 10
70.01002397880815
 20
137.8654328756901
 30
0.0
  0
VERTEX
  5
13F
330
137
100
AcDbEntity
  8
GRAU_10_
 62
     7
100
AcDbVertex
100
AcDb2dVertex
 10
68.94075453463104
 20
137.8654328756901
 30
0.0
  0
VERTEX
  5
140
330
137
100
AcDbEntity
  8
GRAU_10_
 62
     7
100
AcDbVertex
100
AcDb2dVertex
 10
67.82915175713121
 20
137.8654328756901
 30
0.0
  0
VERTEX
  5
141
330
137
100
AcDbEntity
  8
GRAU_10_
 62
     7
100
AcDbVertex
100
AcDb2dVertex
 10
66.71684342407588
 20
137.8654328756901
 30
0.0
  0
VERTEX
  5
142
330
137
100
AcDbEntity
  8
GRAU_10_
 62
     7
100
AcDbVertex
100
AcDb2dVertex
 10
65.64792675767653
 20
137.8654328756901
 30
0.0
  0
VERTEX
  5
143
330
137
100
AcDbEntity
  8
GRAU_10_
 62
     7
100
AcDbVertex
100
AcDb2dVertex
 10
64.66226564681187
 20
137.8654328756901
 30
0.0
  0
VERTEX
  5
144
330
137
100
AcDbEntity
  8
GRAU_10_
 62
     7
100
AcDbVertex
100
AcDb2dVertex
 10
63.79831286925022
 20
137.8654328756901
 30
0.0
  0
VERTEX
  5
145
330
137
100
AcDbEntity
  8
GRAU_10_
 62
     7
100
AcDbVertex
100
AcDb2dVertex
 10
63.08958231387184
 20
137.8654328756901
 30
0.0
  0
VERTEX
  5
146
330
137
100
AcDbEntity
  8
GRAU_10_
 62
     7
100
AcDbVertex
100
AcDb2dVertex
 10
62.56288509178116
 20
137.8654328756901
 30
0.0
  0
VERTEX
  5
147
330
137
100
AcDbEntity
  8
GRAU_10_
 62
     7
100
AcDbVertex
100
AcDb2dVertex
 10
62.23832953630671
 20
137.8654328756901
 30
0.0
  0
VERTEX
  5
148
330
137
100
AcDbEntity
  8
GRAU_10_
 62
     7
100
AcDbVertex
100
AcDb2dVertex
 10
62.12861564744536
 20
137.8654328756901
 30
0.0
  0
SEQEND
  5
149
330
137
100
AcDbEntity
  8
GRAU_10_
 62
     7
  0
POLYLINE
  5
14A
330
1F
100
AcDbEntity
  8
GRAU_10_
 62
     7
100
AcDb2dPolyline
 66
     1
 10
0.0
 20
0.0
 30
0.0
  0
VERTEX
  5
14B
330
14A
100
AcDbEntity
  8
GRAU_10_
 62
     7
100
AcDbVertex
100
AcDb2dVertex
 10
73.52862953348411
 20
137.8654328756901
 30
0.0
  0
VERTEX
  5
14C
330
14A
100
AcDbEntity
  8
GRAU_10_
 62
     7
100
AcDbVertex
100
AcDb2dVertex
 10
73.52862953348411
 20
138.765368986576
 30
0.0
  0
SEQEND
  5
14D
330
14A
100
AcDbEntity
  8
GRAU_10_
 62
     7
  0
POLYLINE
  5
14E
330
1F
100
AcDbEntity
  8
GRAU_10_
 62
     7
100
AcDb2dPolyline
 66
     1
 10
0.0
 20
0.0
 30
0.0
  0
VERTEX
  5
14F
330
14E
100
AcDbEntity
  8
GRAU_10_
 62
     7
100
AcDbVertex
100
AcDb2dVertex
 10
62.12861564744536
 20
138.765368986576
 30
0.0
  0
VERTEX
  5
150
330
14E
100
AcDbEntity
  8
GRAU_10_
 62
     7
100
AcDbVertex
100
AcDb2dVertex
 10
62.12861564744536
 20
137.8654328756901
 30
0.0
  0
SEQEND
  5
151
330
14E
100
AcDbEntity
  8
GRAU_10_
 62
     7
  0
POLYLINE
  5
152
330
1F
100
AcDbEntity
  8
GRAU_10_
 62
     7
100
AcDb2dPolyline
 66
     1
 10
0.0
 20
0.0
 30
0.0
  0
VERTEX
  5
153
330
152
100
AcDbEntity
  8
GRAU_10_
 62
     7
100
AcDbVertex
100
AcDb2dVertex
 10
73.52862953348411
 20
138.765368986576
 30
0.0
  0
VERTEX
  5
154
330
152
100
AcDbEntity
  8
GRAU_10_
 62
     7
100
AcDbVertex
100
AcDb2dVertex
 10
73.41926842240052
 20
138.765368986576
 30
0.0
  0
VERTEX
  5
155
330
152
100
AcDbEntity
  8
GRAU_10_
 62
     7
100
AcDbVertex
100
AcDb2dVertex
 10
73.09506564470384
 20
138.765368986576
 30
0.0
  0
VERTEX
  5
156
330
152
100
AcDbEntity
  8
GRAU_10_
 62
     7
100
AcDbVertex
100
AcDb2dVertex
 10
72.56801564483538
 20
138.765368986576
 30
0.0
  0
VERTEX
  5
157
330
152
100
AcDbEntity
  8
GRAU_10_
 62
     7
100
AcDbVertex
100
AcDb2dVertex
 10
71.85963786723477
 20
138.765368986576
 30
0.0
  0
VERTEX
  5
158
330
152
100
AcDbEntity
  8
GRAU_10_
 62
     7
100
AcDbVertex
100
AcDb2dVertex
 10
70.99603786745055
 20
138.765368986576
 30
0.0
  0
VERTEX
  5
159
330
152
100
AcDbEntity
  8
GRAU_10_
 62
     7
100
AcDbVertex
100
AcDb2dVertex
 10
70.01002397880815
 20
138.765368986576
 30
0.0
  0
VERTEX
  5
15A
330
152
100
AcDbEntity
  8
GRAU_10_
 62
     7
100
AcDbVertex
100
AcDb2dVertex
 10
68.94075453463104
 20
138.765368986576
 30
0.0
  0
VERTEX
  5
15B
330
152
100
AcDbEntity
  8
GRAU_10_
 62
     7
100
AcDbVertex
100
AcDb2dVertex
 10
67.82915175713121
 20
138.765368986576
 30
0.0
  0
VERTEX
  5
15C
330
152
100
AcDbEntity
  8
GRAU_10_
 62
     7
100
AcDbVertex
100
AcDb2dVertex
 10
66.71684342407588
 20
138.765368986576
 30
0.0
  0
VERTEX
  5
15D
330
152
100
AcDbEntity
  8
GRAU_10_
 62
     7
100
AcDbVertex
100
AcDb2dVertex
 10
65.64792675767653
 20
138.765368986576
 30
0.0
  0
VERTEX
  5
15E
330
152
100
AcDbEntity
  8
GRAU_10_
 62
     7
100
AcDbVertex
100
AcDb2dVertex
 10
64.66226564681187
 20
138.765368986576
 30
0.0
  0
VERTEX
  5
15F
330
152
100
AcDbEntity
  8
GRAU_10_
 62
     7
100
AcDbVertex
100
AcDb2dVertex
 10
63.79831286925022
 20
138.765368986576
 30
0.0
  0
VERTEX
  5
160
330
152
100
AcDbEntity
  8
GRAU_10_
 62
     7
100
AcDbVertex
100
AcDb2dVertex
 10
63.08958231387184
 20
138.765368986576
 30
0.0
  0
VERTEX
  5
161
330
152
100
AcDbEntity
  8
GRAU_10_
 62
     7
100
AcDbVertex
100
AcDb2dVertex
 10
62.56288509178116
 20
138.765368986576
 30
0.0
  0
VERTEX
  5
162
330
152
100
AcDbEntity
  8
GRAU_10_
 62
     7
100
AcDbVertex
100
AcDb2dVertex
 10
62.23832953630671
 20
138.765368986576
 30
0.0
  0
VERTEX
  5
163
330
152
100
AcDbEntity
  8
GRAU_10_
 62
     7
100
AcDbVertex
100
AcDb2dVertex
 10
62.12861564744536
 20
138.765368986576
 30
0.0
  0
SEQEND
  5
164
330
152
100
AcDbEntity
  8
GRAU_10_
 62
     7
  0
POLYLINE
  5
165
330
1F
100
AcDbEntity
  8
GRAU_10_
 62
     7
100
AcDb2dPolyline
 66
     1
 10
0.0
 20
0.0
 30
0.0
  0
VERTEX
  5
166
330
165
100
AcDbEntity
  8
GRAU_10_
 62
     7
100
AcDbVertex
100
AcDb2dVertex
 10
73.52862953348411
 20
138.765368986576
 30
0.0
  0
VERTEX
  5
167
330
165
100
AcDbEntity
  8
GRAU_10_
 62
     7
100
AcDbVertex
100
AcDb2dVertex
 10
72.66291286703397
 20
139.2656078753397
 30
0.0
  0
SEQEND
  5
168
330
165
100
AcDbEntity
  8
GRAU_10_
 62
     7
  0
POLYLINE
  5
169
330
1F
100
AcDbEntity
  8
GRAU_10_
 62
     7
100
AcDb2dPolyline
 66
     1
 10
0.0
 20
0.0
 30
0.0
  0
VERTEX
  5
16A
330
169
100
AcDbEntity
  8
GRAU_10_
 62
     7
100
AcDbVertex
100
AcDb2dVertex
 10
62.99503786945102
 20
139.2656078753397
 30
0.0
  0
VERTEX
  5
16B
330
169
100
AcDbEntity
  8
GRAU_10_
 62
     7
100
AcDbVertex
100
AcDb2dVertex
 10
62.12861564744536
 20
138.765368986576
 30
0.0
  0
SEQEND
  5
16C
330
169
100
AcDbEntity
  8
GRAU_10_
 62
     7
  0
POLYLINE
  5
16D
330
1F
100
AcDbEntity
  8
GRAU_10_
 62
     7
100
AcDb2dPolyline
 66
     1
 10
0.0
 20
0.0
 30
0.0
  0
VERTEX
  5
16E
330
16D
100
AcDbEntity
  8
GRAU_10_
 62
     7
100
AcDbVertex
100
AcDb2dVertex
 10
72.66291286703397
 20
139.2656078753397
 30
0.0
  0
VERTEX
  5
16F
330
16D
100
AcDbEntity
  8
GRAU_10_
 62
     7
100
AcDbVertex
100
AcDb2dVertex
 10
72.5574323115048
 20
139.2656078753397
 30
0.0
  0
VERTEX
  5
170
330
16D
100
AcDbEntity
  8
GRAU_10_
 62
     7
100
AcDbVertex
100
AcDb2dVertex
 10
72.24487120047168
 20
139.2656078753397
 30
0.0
  0
VERTEX
  5
171
330
16D
100
AcDbEntity
  8
GRAU_10_
 62
     7
100
AcDbVertex
100
AcDb2dVertex
 10
71.73969342282027
 20
139.2656078753397
 30
0.0
  0
VERTEX
  5
172
330
16D
100
AcDbEntity
  8
GRAU_10_
 62
     7
100
AcDbVertex
100
AcDb2dVertex
 10
71.06341842298953
 20
139.2656078753397
 30
0.0
  0
VERTEX
  5
173
330
16D
100
AcDbEntity
  8
GRAU_10_
 62
     7
100
AcDbVertex
100
AcDb2dVertex
 10
70.24603231208243
 20
139.2656078753397
 30
0.0
  0
VERTEX
  5
174
330
16D
100
AcDbEntity
  8
GRAU_10_
 62
     7
100
AcDbVertex
100
AcDb2dVertex
 10
69.32281286786905
 20
139.2656078753397
 30
0.0
  0
VERTEX
  5
175
330
16D
100
AcDbEntity
  8
GRAU_10_
 62
     7
100
AcDbVertex
100
AcDb2dVertex
 10
68.33397675700519
 20
139.2656078753397
 30
0.0
  0
VERTEX
  5
176
330
16D
100
AcDbEntity
  8
GRAU_10_
 62
     7
100
AcDbVertex
100
AcDb2dVertex
 10
67.32362120170205
 20
139.2656078753397
 30
0.0
  0
VERTEX
  5
177
330
16D
100
AcDbEntity
  8
GRAU_10_
 62
     7
100
AcDbVertex
100
AcDb2dVertex
 10
66.33513786861594
 20
139.2656078753397
 30
0.0
  0
VERTEX
  5
178
330
16D
100
AcDbEntity
  8
GRAU_10_
 62
     7
100
AcDbVertex
100
AcDb2dVertex
 10
65.41227120218001
 20
139.2656078753397
 30
0.0
  0
VERTEX
  5
179
330
16D
100
AcDbEntity
  8
GRAU_10_
 62
     7
100
AcDbVertex
100
AcDb2dVertex
 10
64.59417953571771
 20
139.2656078753397
 30
0.0
  0
VERTEX
  5
17A
330
16D
100
AcDbEntity
  8
GRAU_10_
 62
     7
100
AcDbVertex
100
AcDb2dVertex
 10
63.91790453588697
 20
139.2656078753397
 30
0.0
  0
VERTEX
  5
17B
330
16D
100
AcDbEntity
  8
GRAU_10_
 62
     7
100
AcDbVertex
100
AcDb2dVertex
 10
63.413079536013
 20
139.2656078753397
 30
0.0
  0
VERTEX
  5
17C
330
16D
100
AcDbEntity
  8
GRAU_10_
 62
     7
100
AcDbVertex
100
AcDb2dVertex
 10
63.10087120275765
 20
139.2656078753397
 30
0.0
  0
VERTEX
  5
17D
330
16D
100
AcDbEntity
  8
GRAU_10_
 62
     7
100
AcDbVertex
100
AcDb2dVertex
 10
62.99503786945102
 20
139.2656078753397
 30
0.0
  0
SEQEND
  5
17E
330
16D
100
AcDbEntity
  8
GRAU_10_
 62
     7
  0
POLYLINE
  5
17F
330
1F
100
AcDbEntity
  8
GRAU_10_
 62
     7
100
AcDb2dPolyline
 66
     1
 10
0.0
 20
0.0
 30
0.0
  0
VERTEX
  5
180
330
17F
100
AcDbEntity
  8
GRAU_10_
 62
     7
100
AcDbVertex
100
AcDb2dVertex
 10
48.24469342869389
 20
122.7654856572426
 30
0.0
  0
VERTEX
  5
181
330
17F
100
AcDbEntity
  8
GRAU_10_
 62
     7
100
AcDbVertex
100
AcDb2dVertex
 10
47.93742398432654
 20
122.7654856572426
 30
0.0
  0
SEQEND
  5
182
330
17F
100
AcDbEntity
  8
GRAU_10_
 62
     7
  0
POLYLINE
  5
183
330
1F
100
AcDbEntity
  8
GRAU_10_
 62
     7
100
AcDb2dPolyline
 66
     1
 10
0.0
 20
0.0
 30
0.0
  0
VERTEX
  5
184
330
183
100
AcDbEntity
  8
GRAU_10_
 62
     7
100
AcDbVertex
100
AcDb2dVertex
 10
47.93742398432654
 20
111.7655217711038
 30
0.0
  0
VERTEX
  5
185
330
183
100
AcDbEntity
  8
GRAU_10_
 62
     7
100
AcDbVertex
100
AcDb2dVertex
 10
48.24469342869389
 20
111.7655217711038
 30
0.0
  0
SEQEND
  5
186
330
183
100
AcDbEntity
  8
GRAU_10_
 62
     7
  0
POLYLINE
  5
187
330
1F
100
AcDbEntity
  8
GRAU_10_
 62
     7
100
AcDb2dPolyline
 66
     1
 10
0.0
 20
0.0
 30
0.0
  0
VERTEX
  5
188
330
187
100
AcDbEntity
  8
GRAU_10_
 62
     7
100
AcDbVertex
100
AcDb2dVertex
 10
47.93742398432654
 20
122.7654856572426
 30
0.0
  0
VERTEX
  5
189
330
187
100
AcDbEntity
  8
GRAU_10_
 62
     7
100
AcDbVertex
100
AcDb2dVertex
 10
47.93742398432654
 20
122.6596523239356
 30
0.0
  0
VERTEX
  5
18A
330
187
100
AcDbEntity
  8
GRAU_10_
 62
     7
100
AcDbVertex
100
AcDb2dVertex
 10
47.93742398432654
 20
122.3470912129028
 30
0.0
  0
VERTEX
  5
18B
330
187
100
AcDbEntity
  8
GRAU_10_
 62
     7
100
AcDbVertex
100
AcDb2dVertex
 10
47.93742398432654
 20
121.8387384352522
 30
0.0
  0
VERTEX
  5
18C
330
187
100
AcDbEntity
  8
GRAU_10_
 62
     7
100
AcDbVertex
100
AcDb2dVertex
 10
47.93742398432654
 20
121.154702324312
 30
0.0
  0
VERTEX
  5
18D
330
187
100
AcDbEntity
  8
GRAU_10_
 62
     7
100
AcDbVertex
100
AcDb2dVertex
 10
47.93742398432654
 20
120.3210884356317
 30
0.0
  0
VERTEX
  5
18E
330
187
100
AcDbEntity
  8
GRAU_10_
 62
     7
100
AcDbVertex
100
AcDb2dVertex
 10
47.93742398432654
 20
119.3699995469803
 30
0.0
  0
VERTEX
  5
18F
330
187
100
AcDbEntity
  8
GRAU_10_
 62
     7
100
AcDbVertex
100
AcDb2dVertex
 10
47.93742398432654
 20
118.338477325016
 30
0.0
  0
VERTEX
  5
190
330
187
100
AcDbEntity
  8
GRAU_10_
 62
     7
100
AcDbVertex
100
AcDb2dVertex
 10
47.93742398432654
 20
117.2656801030622
 30
0.0
  0
VERTEX
  5
191
330
187
100
AcDbEntity
  8
GRAU_10_
 62
     7
100
AcDbVertex
100
AcDb2dVertex
 10
47.93742398432654
 20
116.1925301033304
 30
0.0
  0
VERTEX
  5
192
330
187
100
AcDbEntity
  8
GRAU_10_
 62
     7
100
AcDbVertex
100
AcDb2dVertex
 10
47.93742398432654
 20
115.161007881366
 30
0.0
  0
VERTEX
  5
193
330
187
100
AcDbEntity
  8
GRAU_10_
 62
     7
100
AcDbVertex
100
AcDb2dVertex
 10
47.93742398432654
 20
114.209918992715
 30
0.0
  0
VERTEX
  5
194
330
187
100
AcDbEntity
  8
GRAU_10_
 62
     7
100
AcDbVertex
100
AcDb2dVertex
 10
47.93742398432654
 20
113.3766578818121
 30
0.0
  0
VERTEX
  5
195
330
187
100
AcDbEntity
  8
GRAU_10_
 62
     7
100
AcDbVertex
100
AcDb2dVertex
 10
47.93742398432654
 20
112.6922689930945
 30
0.0
  0
VERTEX
  5
196
330
187
100
AcDbEntity
  8
GRAU_10_
 62
     7
100
AcDbVertex
100
AcDb2dVertex
 10
47.93742398432654
 20
112.1839162154435
 30
0.0
  0
VERTEX
  5
197
330
187
100
AcDbEntity
  8
GRAU_10_
 62
     7
100
AcDbVertex
100
AcDb2dVertex
 10
47.93742398432654
 20
111.8713551044104
 30
0.0
  0
VERTEX
  5
198
330
187
100
AcDbEntity
  8
GRAU_10_
 62
     7
100
AcDbVertex
100
AcDb2dVertex
 10
47.93742398432654
 20
111.7655217711038
 30
0.0
  0
SEQEND
  5
199
330
187
100
AcDbEntity
  8
GRAU_10_
 62
     7
  0
POLYLINE
  5
19A
330
1F
100
AcDbEntity
  8
GRAU_10_
 62
     7
100
AcDb2dPolyline
 66
     1
 10
0.0
 20
0.0
 30
0.0
  0
VERTEX
  5
19B
330
19A
100
AcDbEntity
  8
GRAU_10_
 62
     7
100
AcDbVertex
100
AcDb2dVertex
 10
48.24469342869389
 20
119.6631578802404
 30
0.0
  0
VERTEX
  5
19C
330
19A
100
AcDbEntity
  8
GRAU_10_
 62
     7
100
AcDbVertex
100
AcDb2dVertex
 10
48.24469342869389
 20
117.2656801030622
 30
0.0
  0
SEQEND
  5
19D
330
19A
100
AcDbEntity
  8
GRAU_10_
 62
     7
  0
POLYLINE
  5
19E
330
1F
100
AcDbEntity
  8
GRAU_10_
 62
     7
100
AcDb2dPolyline
 66
     1
 10
0.0
 20
0.0
 30
0.0
  0
VERTEX
  5
19F
330
19E
100
AcDbEntity
  8
GRAU_10_
 62
     7
100
AcDbVertex
100
AcDb2dVertex
 10
48.44754065086565
 20
110.9146217713164
 30
0.0
  0
VERTEX
  5
1A0
330
19E
100
AcDbEntity
  8
GRAU_10_
 62
     7
100
AcDbVertex
100
AcDb2dVertex
 10
53.89654620505893
 20
110.9146217713164
 30
0.0
  0
SEQEND
  5
1A1
330
19E
100
AcDbEntity
  8
GRAU_10_
 62
     7
  0
POLYLINE
  5
1A2
330
1F
100
AcDbEntity
  8
GRAU_10_
 62
     7
100
AcDb2dPolyline
 66
     1
 10
0.0
 20
0.0
 30
0.0
  0
VERTEX
  5
1A3
330
1A2
100
AcDbEntity
  8
GRAU_10_
 62
     7
100
AcDbVertex
100
AcDb2dVertex
 10
48.24469342869389
 20
111.3033828823303
 30
0.0
  0
VERTEX
  5
1A4
330
1A2
100
AcDbEntity
  8
GRAU_10_
 62
     7
100
AcDbVertex
100
AcDb2dVertex
 10
48.34064898422574
 20
111.1079439934906
 30
0.0
  0
VERTEX
  5
1A5
330
1A2
100
AcDbEntity
  8
GRAU_10_
 62
     7
100
AcDbVertex
100
AcDb2dVertex
 10
48.44754065086565
 20
110.9146217713164
 30
0.0
  0
SEQEND
  5
1A6
330
1A2
100
AcDbEntity
  8
GRAU_10_
 62
     7
  0
POLYLINE
  5
1A7
330
1F
100
AcDbEntity
  8
GRAU_10_
 62
     7
100
AcDb2dPolyline
 66
     1
 10
0.0
 20
0.0
 30
0.0
  0
VERTEX
  5
1A8
330
1A7
100
AcDbEntity
  8
GRAU_10_
 62
     7
100
AcDbVertex
100
AcDb2dVertex
 10
48.24469342869389
 20
112.5021217709196
 30
0.0
  0
VERTEX
  5
1A9
330
1A7
100
AcDbEntity
  8
GRAU_10_
 62
     7
100
AcDbVertex
100
AcDb2dVertex
 10
48.24469342869389
 20
111.3033828823303
 30
0.0
  0
SEQEND
  5
1AA
330
1A7
100
AcDbEntity
  8
GRAU_10_
 62
     7
  0
POLYLINE
  5
1AB
330
1F
100
AcDbEntity
  8
GRAU_10_
 62
     7
100
AcDb2dPolyline
 66
     1
 10
0.0
 20
0.0
 30
0.0
  0
VERTEX
  5
1AC
330
1AB
100
AcDbEntity
  8
GRAU_10_
 62
     7
100
AcDbVertex
100
AcDb2dVertex
 10
48.44754065086565
 20
123.6163856570299
 30
0.0
  0
VERTEX
  5
1AD
330
1AB
100
AcDbEntity
  8
GRAU_10_
 62
     7
100
AcDbVertex
100
AcDb2dVertex
 10
53.89654620505893
 20
123.6163856570299
 30
0.0
  0
SEQEND
  5
1AE
330
1AB
100
AcDbEntity
  8
GRAU_10_
 62
     7
  0
POLYLINE
  5
1AF
330
1F
100
AcDbEntity
  8
GRAU_10_
 62
     7
100
AcDb2dPolyline
 66
     1
 10
0.0
 20
0.0
 30
0.0
  0
VERTEX
  5
1B0
330
1AF
100
AcDbEntity
  8
GRAU_10_
 62
     7
100
AcDbVertex
100
AcDb2dVertex
 10
48.24469342869389
 20
123.227624546016
 30
0.0
  0
VERTEX
  5
1B1
330
1AF
100
AcDbEntity
  8
GRAU_10_
 62
     7
100
AcDbVertex
100
AcDb2dVertex
 10
48.24469342869389
 20
122.0288856574268
 30
0.0
  0
SEQEND
  5
1B2
330
1AF
100
AcDbEntity
  8
GRAU_10_
 62
     7
  0
POLYLINE
  5
1B3
330
1F
100
AcDbEntity
  8
GRAU_10_
 62
     7
100
AcDb2dPolyline
 66
     1
 10
0.0
 20
0.0
 30
0.0
  0
VERTEX
  5
1B4
330
1B3
100
AcDbEntity
  8
GRAU_10_
 62
     7
100
AcDbVertex
100
AcDb2dVertex
 10
48.44754065086565
 20
123.6163856570299
 30
0.0
  0
VERTEX
  5
1B5
330
1B3
100
AcDbEntity
  8
GRAU_10_
 62
     7
100
AcDbVertex
100
AcDb2dVertex
 10
48.34064898422574
 20
123.4230634348561
 30
0.0
  0
VERTEX
  5
1B6
330
1B3
100
AcDbEntity
  8
GRAU_10_
 62
     7
100
AcDbVertex
100
AcDb2dVertex
 10
48.24469342869389
 20
123.227624546016
 30
0.0
  0
SEQEND
  5
1B7
330
1B3
100
AcDbEntity
  8
GRAU_10_
 62
     7
  0
SPLINE
  5
1B8
330
1F
100
AcDbEntity
  8
GRAU_10_
 62
     7
100
AcDbSpline
210
0.0
220
0.0
230
1.0
 70
     8
 71
     3
 72
     8
 73
     4
 74
     0
 42
0.0000000001
 43
0.0000000001
 12
1.0
 22
0.0
 32
0.0
 13
1.0
 23
0.0
 33
0.0
 40
0.0
 40
0.0
 40
0.0
 40
0.0
 40
1.0
 40
1.0
 40
1.0
 40
1.0
 10
61.24455453655516
 20
122.2655995462566
 30
0.0
 10
61.24455453655516
 20
121.9893745463255
 30
0.0
 10
61.46892120316588
 20
121.7657134352703
 30
0.0
 10
61.74444064754143
 20
121.7657134352703
 30
0.0
  0
SPLINE
  5
1B9
330
1F
100
AcDbEntity
  8
GRAU_10_
 62
     7
100
AcDbSpline
210
0.0
220
0.0
230
1.0
 70
     8
 71
     3
 72
     8
 73
     4
 74
     0
 42
0.0000000001
 43
0.0000000001
 12
1.0
 22
0.0
 32
0.0
 13
1.0
 23
0.0
 33
0.0
 40
0.0
 40
0.0
 40
0.0
 40
0.0
 40
1.0
 40
1.0
 40
1.0
 40
1.0
 10
61.74444064754143
 20
112.765293993076
 30
0.0
 10
61.46892120316588
 20
112.765293993076
 30
0.0
 10
61.24455453655516
 20
112.5412801042431
 30
0.0
 10
61.24455453655516
 20
112.2657606598675
 30
0.0
  0
POLYLINE
  5
1BA
330
1F
100
AcDbEntity
  8
GRAU_10_
 62
     7
100
AcDb2dPolyline
 66
     1
 10
0.0
 20
0.0
 30
0.0
  0
VERTEX
  5
1BB
330
1BA
100
AcDbEntity
  8
GRAU_10_
 62
     7
100
AcDbVertex
100
AcDb2dVertex
 10
61.74444064754143
 20
120.9282189910353
 30
0.0
  0
VERTEX
  5
1BC
330
1BA
100
AcDbEntity
  8
GRAU_10_
 62
     7
100
AcDbVertex
100
AcDb2dVertex
 10
61.74056009198669
 20
120.916224546594
 30
0.0
  0
VERTEX
  5
1BD
330
1BA
100
AcDbEntity
  8
GRAU_10_
 62
     7
100
AcDbVertex
100
AcDb2dVertex
 10
61.73632675865452
 20
120.9038773243749
 30
0.0
  0
VERTEX
  5
1BE
330
1BA
100
AcDbEntity
  8
GRAU_10_
 62
     7
100
AcDbVertex
100
AcDb2dVertex
 10
61.73244620309978
 20
120.8918828799333
 30
0.0
  0
VERTEX
  5
1BF
330
1BA
100
AcDbEntity
  8
GRAU_10_
 62
     7
100
AcDbVertex
100
AcDb2dVertex
 10
61.72891842532313
 20
120.8791828799364
 30
0.0
  0
VERTEX
  5
1C0
330
1BA
100
AcDbEntity
  8
GRAU_10_
 62
     7
100
AcDbVertex
100
AcDb2dVertex
 10
61.72468509199064
 20
120.8668356577174
 30
0.0
  0
VERTEX
  5
1C1
330
1BA
100
AcDbEntity
  8
GRAU_10_
 62
     7
100
AcDbVertex
100
AcDb2dVertex
 10
61.72080453643623
 20
120.8544884354983
 30
0.0
  0
VERTEX
  5
1C2
330
1BA
100
AcDbEntity
  8
GRAU_10_
 62
     7
100
AcDbVertex
100
AcDb2dVertex
 10
61.71692398088149
 20
120.8414356577237
 30
0.0
  0
VERTEX
  5
1C3
330
1BA
100
AcDbEntity
  8
GRAU_10_
 62
     7
100
AcDbVertex
100
AcDb2dVertex
 10
61.71269064754932
 20
120.8290884355046
 30
0.0
  0
VERTEX
  5
1C4
330
1BA
100
AcDbEntity
  8
GRAU_10_
 62
     7
100
AcDbVertex
100
AcDb2dVertex
 10
61.70845731421714
 20
120.81603565773
 30
0.0
  0
VERTEX
  5
1C5
330
1BA
100
AcDbEntity
  8
GRAU_10_
 62
     7
100
AcDbVertex
100
AcDb2dVertex
 10
61.70457675866241
 20
120.8036884355109
 30
0.0
  0
VERTEX
  5
1C6
330
1BA
100
AcDbEntity
  8
GRAU_10_
 62
     7
100
AcDbVertex
100
AcDb2dVertex
 10
61.70069620310767
 20
120.7906356577363
 30
0.0
  0
VERTEX
  5
1C7
330
1BA
100
AcDbEntity
  8
GRAU_10_
 62
     7
100
AcDbVertex
100
AcDb2dVertex
 10
61.69646286977549
 20
120.7772301021842
 30
0.0
  0
VERTEX
  5
1C8
330
1BA
100
AcDbEntity
  8
GRAU_10_
 62
     7
100
AcDbVertex
100
AcDb2dVertex
 10
61.69258231422108
 20
120.7638245466319
 30
0.0
  0
VERTEX
  5
1C9
330
1BA
100
AcDbEntity
  8
GRAU_10_
 62
     7
100
AcDbVertex
100
AcDb2dVertex
 10
61.68905453644411
 20
120.751124546635
 30
0.0
  0
VERTEX
  5
1CA
330
1BA
100
AcDbEntity
  8
GRAU_10_
 62
     7
100
AcDbVertex
100
AcDb2dVertex
 10
61.68517398088937
 20
120.737718991083
 30
0.0
  0
VERTEX
  5
1CB
330
1BA
100
AcDbEntity
  8
GRAU_10_
 62
     7
100
AcDbVertex
100
AcDb2dVertex
 10
61.68129342533496
 20
120.7243134355309
 30
0.0
  0
VERTEX
  5
1CC
330
1BA
100
AcDbEntity
  8
GRAU_10_
 62
     7
100
AcDbVertex
100
AcDb2dVertex
 10
61.67706009200246
 20
120.7105551022008
 30
0.0
  0
VERTEX
  5
1CD
330
1BA
100
AcDbEntity
  8
GRAU_10_
 62
     7
100
AcDbVertex
100
AcDb2dVertex
 10
61.67317953644805
 20
120.6971495466484
 30
0.0
  0
VERTEX
  5
1CE
330
1BA
100
AcDbEntity
  8
GRAU_10_
 62
     7
100
AcDbVertex
100
AcDb2dVertex
 10
61.66929898089332
 20
120.6833912133189
 30
0.0
  0
VERTEX
  5
1CF
330
1BA
100
AcDbEntity
  8
GRAU_10_
 62
     7
100
AcDbVertex
100
AcDb2dVertex
 10
61.66577120311667
 20
120.6696328799888
 30
0.0
  0
VERTEX
  5
1D0
330
1BA
100
AcDbEntity
  8
GRAU_10_
 62
     7
100
AcDbVertex
100
AcDb2dVertex
 10
61.66189064756193
 20
120.6551689911035
 30
0.0
  0
VERTEX
  5
1D1
330
1BA
100
AcDbEntity
  8
GRAU_10_
 62
     7
100
AcDbVertex
100
AcDb2dVertex
 10
61.65801009200752
 20
120.6414106577737
 30
0.0
  0
VERTEX
  5
1D2
330
1BA
100
AcDbEntity
  8
GRAU_10_
 62
     7
100
AcDbVertex
100
AcDb2dVertex
 10
61.65412953645279
 20
120.6276523244439
 30
0.0
  0
VERTEX
  5
1D3
330
1BA
100
AcDbEntity
  8
GRAU_10_
 62
     7
100
AcDbVertex
100
AcDb2dVertex
 10
61.64989620312061
 20
120.6128356577808
 30
0.0
  0
VERTEX
  5
1D4
330
1BA
100
AcDbEntity
  8
GRAU_10_
 62
     7
100
AcDbVertex
100
AcDb2dVertex
 10
61.64636842534364
 20
120.599077324451
 30
0.0
  0
VERTEX
  5
1D5
330
1BA
100
AcDbEntity
  8
GRAU_10_
 62
     7
100
AcDbVertex
100
AcDb2dVertex
 10
61.64284064756666
 20
120.5842606577879
 30
0.0
  0
VERTEX
  5
1D6
330
1BA
100
AcDbEntity
  8
GRAU_10_
 62
     7
100
AcDbVertex
100
AcDb2dVertex
 10
61.63896009201225
 20
120.5701495466803
 30
0.0
  0
VERTEX
  5
1D7
330
1BA
100
AcDbEntity
  8
GRAU_10_
 62
     7
100
AcDbVertex
100
AcDb2dVertex
 10
61.63507953645752
 20
120.5549801022398
 30
0.0
  0
VERTEX
  5
1D8
330
1BA
100
AcDbEntity
  8
GRAU_10_
 62
     7
100
AcDbVertex
100
AcDb2dVertex
 10
61.6311989809031
 20
120.5408689911322
 30
0.0
  0
VERTEX
  5
1D9
330
1BA
100
AcDbEntity
  8
GRAU_10_
 62
     7
100
AcDbVertex
100
AcDb2dVertex
 10
61.62802398090389
 20
120.5260523244691
 30
0.0
  0
VERTEX
  5
1DA
330
1BA
100
AcDbEntity
  8
GRAU_10_
 62
     7
100
AcDbVertex
100
AcDb2dVertex
 10
61.62414342534916
 20
120.5108828800286
 30
0.0
  0
VERTEX
  5
1DB
330
1BA
100
AcDbEntity
  8
GRAU_10_
 62
     7
100
AcDbVertex
100
AcDb2dVertex
 10
61.62026286979474
 20
120.4957134355877
 30
0.0
  0
VERTEX
  5
1DC
330
1BA
100
AcDbEntity
  8
GRAU_10_
 62
     7
100
AcDbVertex
100
AcDb2dVertex
 10
61.61673509201777
 20
120.4805439911472
 30
0.0
  0
VERTEX
  5
1DD
330
1BA
100
AcDbEntity
  8
GRAU_10_
 62
     7
100
AcDbVertex
100
AcDb2dVertex
 10
61.61356009201856
 20
120.4653745467066
 30
0.0
  0
VERTEX
  5
1DE
330
1BA
100
AcDbEntity
  8
GRAU_10_
 62
     7
100
AcDbVertex
100
AcDb2dVertex
 10
61.60086009202171
 20
120.4057551022771
 30
0.0
  0
VERTEX
  5
1DF
330
1BA
100
AcDbEntity
  8
GRAU_10_
 62
     7
100
AcDbVertex
100
AcDb2dVertex
 10
61.59027675869112
 20
120.3440189911814
 30
0.0
  0
VERTEX
  5
1E0
330
1BA
100
AcDbEntity
  8
GRAU_10_
 62
     7
100
AcDbVertex
100
AcDb2dVertex
 10
61.58181009202644
 20
120.2805189911972
 30
0.0
  0
VERTEX
  5
1E1
330
1BA
100
AcDbEntity
  8
GRAU_10_
 62
     7
100
AcDbVertex
100
AcDb2dVertex
 10
61.57546009202802
 20
120.21596065788
 30
0.0
  0
VERTEX
  5
1E2
330
1BA
100
AcDbEntity
  8
GRAU_10_
 62
     7
100
AcDbVertex
100
AcDb2dVertex
 10
61.57016842536257
 20
120.1496384356743
 30
0.0
  0
VERTEX
  5
1E3
330
1BA
100
AcDbEntity
  8
GRAU_10_
 62
     7
100
AcDbVertex
100
AcDb2dVertex
 10
61.56769898091888
 20
120.0815523245805
 30
0.0
  0
VERTEX
  5
1E4
330
1BA
100
AcDbEntity
  8
GRAU_10_
 62
     7
100
AcDbVertex
100
AcDb2dVertex
 10
61.56664064758591
 20
120.0117023245978
 30
0.0
  0
VERTEX
  5
1E5
330
1BA
100
AcDbEntity
  8
GRAU_10_
 62
     7
100
AcDbVertex
100
AcDb2dVertex
 10
61.56805175869664
 20
119.9407939912822
 30
0.0
  0
VERTEX
  5
1E6
330
1BA
100
AcDbEntity
  8
GRAU_10_
 62
     7
100
AcDbVertex
100
AcDb2dVertex
 10
61.57016842536257
 20
119.8681217690781
 30
0.0
  0
VERTEX
  5
1E7
330
1BA
100
AcDbEntity
  8
GRAU_10_
 62
     7
100
AcDbVertex
100
AcDb2dVertex
 10
61.5747545364725
 20
119.7940384357633
 30
0.0
  0
VERTEX
  5
1E8
330
1BA
100
AcDbEntity
  8
GRAU_10_
 62
     7
100
AcDbVertex
100
AcDb2dVertex
 10
61.58110453647092
 20
119.7188967691155
 30
0.0
  0
VERTEX
  5
1E9
330
1BA
100
AcDbEntity
  8
GRAU_10_
 62
     7
100
AcDbVertex
100
AcDb2dVertex
 10
61.58886564758007
 20
119.6430495469122
 30
0.0
  0
VERTEX
  5
1EA
330
1BA
100
AcDbEntity
  8
GRAU_10_
 62
     7
100
AcDbVertex
100
AcDb2dVertex
 10
61.59874342535547
 20
119.5664967691533
 30
0.0
  0
VERTEX
  5
1EB
330
1BA
100
AcDbEntity
  8
GRAU_10_
 62
     7
100
AcDbVertex
100
AcDb2dVertex
 10
61.60967953646382
 20
119.4892384358396
 30
0.0
  0
VERTEX
  5
1EC
330
1BA
100
AcDbEntity
  8
GRAU_10_
 62
     7
100
AcDbVertex
100
AcDb2dVertex
 10
61.62237953646067
 20
119.4112745469701
 30
0.0
  0
VERTEX
  5
1ED
330
1BA
100
AcDbEntity
  8
GRAU_10_
 62
     7
100
AcDbVertex
100
AcDb2dVertex
 10
61.636843425346
 20
119.3322523247675
 30
0.0
  0
VERTEX
  5
1EE
330
1BA
100
AcDbEntity
  8
GRAU_10_
 62
     7
100
AcDbVertex
100
AcDb2dVertex
 10
61.63966564756745
 20
119.3153189914385
 30
0.0
  0
VERTEX
  5
1EF
330
1BA
100
AcDbEntity
  8
GRAU_10_
 62
     7
100
AcDbVertex
100
AcDb2dVertex
 10
61.64319342534443
 20
119.2987384358869
 30
0.0
  0
VERTEX
  5
1F0
330
1BA
100
AcDbEntity
  8
GRAU_10_
 62
     7
100
AcDbVertex
100
AcDb2dVertex
 10
61.64601564756587
 20
119.2825106581134
 30
0.0
  0
VERTEX
  5
1F1
330
1BA
100
AcDbEntity
  8
GRAU_10_
 62
     7
100
AcDbVertex
100
AcDb2dVertex
 10
61.64954342534285
 20
119.2659301025622
 30
0.0
  0
VERTEX
  5
1F2
330
1BA
100
AcDbEntity
  8
GRAU_10_
 62
     7
100
AcDbVertex
100
AcDb2dVertex
 10
61.6523656475643
 20
119.2493495470106
 30
0.0
  0
VERTEX
  5
1F3
330
1BA
100
AcDbEntity
  8
GRAU_10_
 62
     7
100
AcDbVertex
100
AcDb2dVertex
 10
61.65624620311903
 20
119.2331217692368
 30
0.0
  0
VERTEX
  5
1F4
330
1BA
100
AcDbEntity
  8
GRAU_10_
 62
     7
100
AcDbVertex
100
AcDb2dVertex
 10
61.65942120311824
 20
119.216893991463
 30
0.0
  0
VERTEX
  5
1F5
330
1BA
100
AcDbEntity
  8
GRAU_10_
 62
     7
100
AcDbVertex
100
AcDb2dVertex
 10
61.6622434253397
 20
119.2003134359117
 30
0.0
  0
VERTEX
  5
1F6
330
1BA
100
AcDbEntity
  8
GRAU_10_
 62
     7
100
AcDbVertex
100
AcDb2dVertex
 10
61.66577120311667
 20
119.1844384359157
 30
0.0
  0
VERTEX
  5
1F7
330
1BA
100
AcDbEntity
  8
GRAU_10_
 62
     7
100
AcDbVertex
100
AcDb2dVertex
 10
61.66859342533812
 20
119.1682106581422
 30
0.0
  0
VERTEX
  5
1F8
330
1BA
100
AcDbEntity
  8
GRAU_10_
 62
     7
100
AcDbVertex
100
AcDb2dVertex
 10
61.67212120311509
 20
119.1523356581461
 30
0.0
  0
VERTEX
  5
1F9
330
1BA
100
AcDbEntity
  8
GRAU_10_
 62
     7
100
AcDbVertex
100
AcDb2dVertex
 10
61.6752962031143
 20
119.1368134359278
 30
0.0
  0
VERTEX
  5
1FA
330
1BA
100
AcDbEntity
  8
GRAU_10_
 62
     7
100
AcDbVertex
100
AcDb2dVertex
 10
61.67882398089095
 20
119.120585658154
 30
0.0
  0
VERTEX
  5
1FB
330
1BA
100
AcDbEntity
  8
GRAU_10_
 62
     7
100
AcDbVertex
100
AcDb2dVertex
 10
61.68164620311272
 20
119.1047106581579
 30
0.0
  0
VERTEX
  5
1FC
330
1BA
100
AcDbEntity
  8
GRAU_10_
 62
     7
100
AcDbVertex
100
AcDb2dVertex
 10
61.68517398088937
 20
119.0895412137174
 30
0.0
  0
VERTEX
  5
1FD
330
1BA
100
AcDbEntity
  8
GRAU_10_
 62
     7
100
AcDbVertex
100
AcDb2dVertex
 10
61.68799620311115
 20
119.0736662137213
 30
0.0
  0
VERTEX
  5
1FE
330
1BA
100
AcDbEntity
  8
GRAU_10_
 62
     7
100
AcDbVertex
100
AcDb2dVertex
 10
61.6915239808878
 20
119.0577912137253
 30
0.0
  0
VERTEX
  5
1FF
330
1BA
100
AcDbEntity
  8
GRAU_10_
 62
     7
100
AcDbVertex
100
AcDb2dVertex
 10
61.69434620310925
 20
119.042268991507
 30
0.0
  0
VERTEX
  5
200
330
1BA
100
AcDbEntity
  8
GRAU_10_
 62
     7
100
AcDbVertex
100
AcDb2dVertex
 10
61.69787398088622
 20
119.0270995470661
 30
0.0
  0
VERTEX
  5
201
330
1BA
100
AcDbEntity
  8
GRAU_10_
 62
     7
100
AcDbVertex
100
AcDb2dVertex
 10
61.70069620310767
 20
119.0115773248478
 30
0.0
  0
VERTEX
  5
202
330
1BA
100
AcDbEntity
  8
GRAU_10_
 62
     7
100
AcDbVertex
100
AcDb2dVertex
 10
61.70422398088464
 20
118.996407880407
 30
0.0
  0
VERTEX
  5
203
330
1BA
100
AcDbEntity
  8
GRAU_10_
 62
     7
100
AcDbVertex
100
AcDb2dVertex
 10
61.70775175866162
 20
118.9812384359664
 30
0.0
  0
VERTEX
  5
204
330
1BA
100
AcDbEntity
  8
GRAU_10_
 62
     7
100
AcDbVertex
100
AcDb2dVertex
 10
61.71057398088307
 20
118.9664217693037
 30
0.0
  0
VERTEX
  5
205
330
1BA
100
AcDbEntity
  8
GRAU_10_
 62
     7
100
AcDbVertex
100
AcDb2dVertex
 10
61.71339620310452
 20
118.9516051026406
 30
0.0
  0
VERTEX
  5
206
330
1BA
100
AcDbEntity
  8
GRAU_10_
 62
     7
100
AcDbVertex
100
AcDb2dVertex
 10
61.71692398088149
 20
118.9367884359775
 30
0.0
  0
VERTEX
  5
207
330
1BA
100
AcDbEntity
  8
GRAU_10_
 62
     7
100
AcDbVertex
100
AcDb2dVertex
 10
61.71974620310294
 20
118.9216189915369
 30
0.0
  0
VERTEX
  5
208
330
1BA
100
AcDbEntity
  8
GRAU_10_
 62
     7
100
AcDbVertex
100
AcDb2dVertex
 10
61.72327398087991
 20
118.9075078804294
 30
0.0
  0
VERTEX
  5
209
330
1BA
100
AcDbEntity
  8
GRAU_10_
 62
     7
100
AcDbVertex
100
AcDb2dVertex
 10
61.72609620310136
 20
118.8926912137663
 30
0.0
  0
VERTEX
  5
20A
330
1BA
100
AcDbEntity
  8
GRAU_10_
 62
     7
100
AcDbVertex
100
AcDb2dVertex
 10
61.72962398087834
 20
118.8778745471035
 30
0.0
  0
VERTEX
  5
20B
330
1BA
100
AcDbEntity
  8
GRAU_10_
 62
     7
100
AcDbVertex
100
AcDb2dVertex
 10
61.73244620309978
 20
118.8637634359959
 30
0.0
  0
VERTEX
  5
20C
330
1BA
100
AcDbEntity
  8
GRAU_10_
 62
     7
100
AcDbVertex
100
AcDb2dVertex
 10
61.73562120309899
 20
118.8492995471106
 30
0.0
  0
VERTEX
  5
20D
330
1BA
100
AcDbEntity
  8
GRAU_10_
 62
     7
100
AcDbVertex
100
AcDb2dVertex
 10
61.73844342532045
 20
118.835188436003
 30
0.0
  0
VERTEX
  5
20E
330
1BA
100
AcDbEntity
  8
GRAU_10_
 62
     7
100
AcDbVertex
100
AcDb2dVertex
 10
61.74197120309742
 20
118.8210773248955
 30
0.0
  0
VERTEX
  5
20F
330
1BA
100
AcDbEntity
  8
GRAU_10_
 62
     7
100
AcDbVertex
100
AcDb2dVertex
 10
61.74444064754143
 20
118.8066134360101
 30
0.0
  0
SEQEND
  5
210
330
1BA
100
AcDbEntity
  8
GRAU_10_
 62
     7
  0
POLYLINE
  5
211
330
1F
100
AcDbEntity
  8
GRAU_10_
 62
     7
100
AcDb2dPolyline
 66
     1
 10
0.0
 20
0.0
 30
0.0
  0
VERTEX
  5
212
330
211
100
AcDbEntity
  8
GRAU_10_
 62
     7
100
AcDbVertex
100
AcDb2dVertex
 10
61.74549898087439
 20
117.5884717696479
 30
0.0
  0
VERTEX
  5
213
330
211
100
AcDbEntity
  8
GRAU_10_
 62
     7
100
AcDbVertex
100
AcDb2dVertex
 10
61.74549898087439
 20
117.5884717696479
 30
0.0
  0
VERTEX
  5
214
330
211
100
AcDbEntity
  8
GRAU_10_
 62
     7
100
AcDbVertex
100
AcDb2dVertex
 10
61.74479342531887
 20
117.5884717696479
 30
0.0
  0
VERTEX
  5
215
330
211
100
AcDbEntity
  8
GRAU_10_
 62
     7
100
AcDbVertex
100
AcDb2dVertex
 10
61.74479342531887
 20
117.5888245474256
 30
0.0
  0
VERTEX
  5
216
330
211
100
AcDbEntity
  8
GRAU_10_
 62
     7
100
AcDbVertex
100
AcDb2dVertex
 10
61.74444064754143
 20
117.5891773252034
 30
0.0
  0
VERTEX
  5
217
330
211
100
AcDbEntity
  8
GRAU_10_
 62
     7
100
AcDbVertex
100
AcDb2dVertex
 10
61.74444064754143
 20
117.5902356585367
 30
0.0
  0
VERTEX
  5
218
330
211
100
AcDbEntity
  8
GRAU_10_
 62
     7
100
AcDbVertex
100
AcDb2dVertex
 10
61.74444064754143
 20
117.5905884363141
 30
0.0
  0
VERTEX
  5
219
330
211
100
AcDbEntity
  8
GRAU_10_
 62
     7
100
AcDbVertex
100
AcDb2dVertex
 10
61.74408786976367
 20
117.5916467696471
 30
0.0
  0
VERTEX
  5
21A
330
211
100
AcDbEntity
  8
GRAU_10_
 62
     7
100
AcDbVertex
100
AcDb2dVertex
 10
61.7437350919859
 20
117.5923523252026
 30
0.0
  0
VERTEX
  5
21B
330
211
100
AcDbEntity
  8
GRAU_10_
 62
     7
100
AcDbVertex
100
AcDb2dVertex
 10
61.7430295364307
 20
117.5937634363133
 30
0.0
  0
VERTEX
  5
21C
330
211
100
AcDbEntity
  8
GRAU_10_
 62
     7
100
AcDbVertex
100
AcDb2dVertex
 10
61.74267675865294
 20
117.5948217696463
 30
0.0
  0
VERTEX
  5
21D
330
211
100
AcDbEntity
  8
GRAU_10_
 62
     7
100
AcDbVertex
100
AcDb2dVertex
 10
61.74232398087518
 20
117.5958801029796
 30
0.0
  0
VERTEX
  5
21E
330
211
100
AcDbEntity
  8
GRAU_10_
 62
     7
100
AcDbVertex
100
AcDb2dVertex
 10
61.74232398087518
 20
117.5972912140903
 30
0.0
  0
VERTEX
  5
21F
330
211
100
AcDbEntity
  8
GRAU_10_
 62
     7
100
AcDbVertex
100
AcDb2dVertex
 10
61.74161842531966
 20
117.598702325201
 30
0.0
  0
VERTEX
  5
220
330
211
100
AcDbEntity
  8
GRAU_10_
 62
     7
100
AcDbVertex
100
AcDb2dVertex
 10
61.74091286976446
 20
117.6004662140895
 30
0.0
  0
VERTEX
  5
221
330
211
100
AcDbEntity
  8
GRAU_10_
 62
     7
100
AcDbVertex
100
AcDb2dVertex
 10
61.74020731420893
 20
117.602230102978
 30
0.0
  0
VERTEX
  5
222
330
211
100
AcDbEntity
  8
GRAU_10_
 62
     7
100
AcDbVertex
100
AcDb2dVertex
 10
61.74020731420893
 20
117.6039939918661
 30
0.0
  0
VERTEX
  5
223
330
211
100
AcDbEntity
  8
GRAU_10_
 62
     7
100
AcDbVertex
100
AcDb2dVertex
 10
61.73950175865373
 20
117.6061106585324
 30
0.0
  0
VERTEX
  5
224
330
211
100
AcDbEntity
  8
GRAU_10_
 62
     7
100
AcDbVertex
100
AcDb2dVertex
 10
61.73844342532045
 20
117.6085801029764
 30
0.0
  0
VERTEX
  5
225
330
211
100
AcDbEntity
  8
GRAU_10_
 62
     7
100
AcDbVertex
100
AcDb2dVertex
 10
61.738090647543
 20
117.6106967696423
 30
0.0
  0
VERTEX
  5
226
330
211
100
AcDbEntity
  8
GRAU_10_
 62
     7
100
AcDbVertex
100
AcDb2dVertex
 10
61.73738509198748
 20
117.6128134363086
 30
0.0
  0
VERTEX
  5
227
330
211
100
AcDbEntity
  8
GRAU_10_
 62
     7
100
AcDbVertex
100
AcDb2dVertex
 10
61.73632675865452
 20
117.61563565853
 30
0.0
  0
VERTEX
  5
228
330
211
100
AcDbEntity
  8
GRAU_10_
 62
     7
100
AcDbVertex
100
AcDb2dVertex
 10
61.73597398087676
 20
117.6177523251963
 30
0.0
  0
VERTEX
  5
229
330
211
100
AcDbEntity
  8
GRAU_10_
 62
     7
100
AcDbVertex
100
AcDb2dVertex
 10
61.73385731421051
 20
117.6258662140832
 30
0.0
  0
VERTEX
  5
22A
330
211
100
AcDbEntity
  8
GRAU_10_
 62
     7
100
AcDbVertex
100
AcDb2dVertex
 10
61.73174064754458
 20
117.6329217696368
 30
0.0
  0
VERTEX
  5
22B
330
211
100
AcDbEntity
  8
GRAU_10_
 62
     7
100
AcDbVertex
100
AcDb2dVertex
 10
61.72962398087834
 20
117.6406828807463
 30
0.0
  0
VERTEX
  5
22C
330
211
100
AcDbEntity
  8
GRAU_10_
 62
     7
100
AcDbVertex
100
AcDb2dVertex
 10
61.72715453643465
 20
117.6480912140774
 30
0.0
  0
VERTEX
  5
22D
330
211
100
AcDbEntity
  8
GRAU_10_
 62
     7
100
AcDbVertex
100
AcDb2dVertex
 10
61.72292120310215
 20
117.6632606585182
 30
0.0
  0
VERTEX
  5
22E
330
211
100
AcDbEntity
  8
GRAU_10_
 62
     7
100
AcDbVertex
100
AcDb2dVertex
 10
61.71868786976997
 20
117.6784301029591
 30
0.0
  0
VERTEX
  5
22F
330
211
100
AcDbEntity
  8
GRAU_10_
 62
     7
100
AcDbVertex
100
AcDb2dVertex
 10
61.7144545364378
 20
117.6935995473996
 30
0.0
  0
VERTEX
  5
230
330
211
100
AcDbEntity
  8
GRAU_10_
 62
     7
100
AcDbVertex
100
AcDb2dVertex
 10
61.71022120310531
 20
117.7091217696179
 30
0.0
  0
VERTEX
  5
231
330
211
100
AcDbEntity
  8
GRAU_10_
 62
     7
100
AcDbVertex
100
AcDb2dVertex
 10
61.70175453644096
 20
117.739460658499
 30
0.0
  0
VERTEX
  5
232
330
211
100
AcDbEntity
  8
GRAU_10_
 62
     7
100
AcDbVertex
100
AcDb2dVertex
 10
61.69364064755405
 20
117.7701523251581
 30
0.0
  0
VERTEX
  5
233
330
211
100
AcDbEntity
  8
GRAU_10_
 62
     7
100
AcDbVertex
100
AcDb2dVertex
 10
61.68552675866714
 20
117.8004912140395
 30
0.0
  0
VERTEX
  5
234
330
211
100
AcDbEntity
  8
GRAU_10_
 62
     7
100
AcDbVertex
100
AcDb2dVertex
 10
61.67706009200246
 20
117.8311828806983
 30
0.0
  0
VERTEX
  5
235
330
211
100
AcDbEntity
  8
GRAU_10_
 62
     7
100
AcDbVertex
100
AcDb2dVertex
 10
61.66189064756193
 20
117.8922134362389
 30
0.0
  0
VERTEX
  5
236
330
211
100
AcDbEntity
  8
GRAU_10_
 62
     7
100
AcDbVertex
100
AcDb2dVertex
 10
61.64636842534364
 20
117.9535967695565
 30
0.0
  0
VERTEX
  5
237
330
211
100
AcDbEntity
  8
GRAU_10_
 62
     7
100
AcDbVertex
100
AcDb2dVertex
 10
61.63225731423606
 20
118.0146273250971
 30
0.0
  0
VERTEX
  5
238
330
211
100
AcDbEntity
  8
GRAU_10_
 62
     7
100
AcDbVertex
100
AcDb2dVertex
 10
61.6181462031285
 20
118.0756578806373
 30
0.0
  0
VERTEX
  5
239
330
211
100
AcDbEntity
  8
GRAU_10_
 62
     7
100
AcDbVertex
100
AcDb2dVertex
 10
61.59168786980184
 20
118.1991301028288
 30
0.0
  0
VERTEX
  5
23A
330
211
100
AcDbEntity
  8
GRAU_10_
 62
     7
100
AcDbVertex
100
AcDb2dVertex
 10
61.57122675869585
 20
118.3070801028016
 30
0.0
  0
SEQEND
  5
23B
330
211
100
AcDbEntity
  8
GRAU_10_
 62
     7
  0
POLYLINE
  5
23C
330
1F
100
AcDbEntity
  8
GRAU_10_
 62
     7
100
AcDb2dPolyline
 66
     1
 10
0.0
 20
0.0
 30
0.0
  0
VERTEX
  5
23D
330
23C
100
AcDbEntity
  8
GRAU_10_
 62
     7
100
AcDbVertex
100
AcDb2dVertex
 10
61.50419898093465
 20
119.7802801024335
 30
0.0
  0
VERTEX
  5
23E
330
23C
100
AcDbEntity
  8
GRAU_10_
 62
     7
100
AcDbVertex
100
AcDb2dVertex
 10
61.5070212031561
 20
119.8109717690923
 30
0.0
  0
VERTEX
  5
23F
330
23C
100
AcDbEntity
  8
GRAU_10_
 62
     7
100
AcDbVertex
100
AcDb2dVertex
 10
61.51090175871083
 20
119.8448384357507
 30
0.0
  0
VERTEX
  5
240
330
23C
100
AcDbEntity
  8
GRAU_10_
 62
     7
100
AcDbVertex
100
AcDb2dVertex
 10
61.51478231426525
 20
119.8783523246309
 30
0.0
  0
VERTEX
  5
241
330
23C
100
AcDbEntity
  8
GRAU_10_
 62
     7
100
AcDbVertex
100
AcDb2dVertex
 10
61.51831009204222
 20
119.9118662135115
 30
0.0
  0
VERTEX
  5
242
330
23C
100
AcDbEntity
  8
GRAU_10_
 62
     7
100
AcDbVertex
100
AcDb2dVertex
 10
61.52254342537471
 20
119.9443217690589
 30
0.0
  0
VERTEX
  5
243
330
23C
100
AcDbEntity
  8
GRAU_10_
 62
     7
100
AcDbVertex
100
AcDb2dVertex
 10
61.52712953648465
 20
119.9771301023843
 30
0.0
  0
VERTEX
  5
244
330
23C
100
AcDbEntity
  8
GRAU_10_
 62
     7
100
AcDbVertex
100
AcDb2dVertex
 10
61.53171564759459
 20
120.0099384357093
 30
0.0
  0
VERTEX
  5
245
330
23C
100
AcDbEntity
  8
GRAU_10_
 62
     7
100
AcDbVertex
100
AcDb2dVertex
 10
61.53630175870452
 20
120.0416884357014
 30
0.0
  0
VERTEX
  5
246
330
23C
100
AcDbEntity
  8
GRAU_10_
 62
     7
100
AcDbVertex
100
AcDb2dVertex
 10
61.54088786981446
 20
120.0734384356932
 30
0.0
  0
VERTEX
  5
247
330
23C
100
AcDbEntity
  8
GRAU_10_
 62
     7
100
AcDbVertex
100
AcDb2dVertex
 10
61.54617953647992
 20
120.1055412134631
 30
0.0
  0
VERTEX
  5
248
330
23C
100
AcDbEntity
  8
GRAU_10_
 62
     7
100
AcDbVertex
100
AcDb2dVertex
 10
61.55111842536729
 20
120.1365856578997
 30
0.0
  0
VERTEX
  5
249
330
23C
100
AcDbEntity
  8
GRAU_10_
 62
     7
100
AcDbVertex
100
AcDb2dVertex
 10
61.55605731425499
 20
120.1679828801141
 30
0.0
  0
VERTEX
  5
24A
330
23C
100
AcDbEntity
  8
GRAU_10_
 62
     7
100
AcDbVertex
100
AcDb2dVertex
 10
61.56170175869821
 20
120.1986745467732
 30
0.0
  0
VERTEX
  5
24B
330
23C
100
AcDbEntity
  8
GRAU_10_
 62
     7
100
AcDbVertex
100
AcDb2dVertex
 10
61.56734620314111
 20
120.2293662134324
 30
0.0
  0
VERTEX
  5
24C
330
23C
100
AcDbEntity
  8
GRAU_10_
 62
     7
100
AcDbVertex
100
AcDb2dVertex
 10
61.57228509202881
 20
120.2597051023134
 30
0.0
  0
VERTEX
  5
24D
330
23C
100
AcDbEntity
  8
GRAU_10_
 62
     7
100
AcDbVertex
100
AcDb2dVertex
 10
61.57828231424947
 20
120.2900439911948
 30
0.0
  0
VERTEX
  5
24E
330
23C
100
AcDbEntity
  8
GRAU_10_
 62
     7
100
AcDbVertex
100
AcDb2dVertex
 10
61.58427953647013
 20
120.3193245467429
 30
0.0
  0
VERTEX
  5
24F
330
23C
100
AcDbEntity
  8
GRAU_10_
 62
     7
100
AcDbVertex
100
AcDb2dVertex
 10
61.59027675869112
 20
120.3493106578469
 30
0.0
  0
VERTEX
  5
250
330
23C
100
AcDbEntity
  8
GRAU_10_
 62
     7
100
AcDbVertex
100
AcDb2dVertex
 10
61.59662675868954
 20
120.378591213395
 30
0.0
  0
VERTEX
  5
251
330
23C
100
AcDbEntity
  8
GRAU_10_
 62
     7
100
AcDbVertex
100
AcDb2dVertex
 10
61.60227120313244
 20
120.4075189911653
 30
0.0
  0
VERTEX
  5
252
330
23C
100
AcDbEntity
  8
GRAU_10_
 62
     7
100
AcDbVertex
100
AcDb2dVertex
 10
61.60862120313086
 20
120.4360939911582
 30
0.0
  0
VERTEX
  5
253
330
23C
100
AcDbEntity
  8
GRAU_10_
 62
     7
100
AcDbVertex
100
AcDb2dVertex
 10
61.61532398090704
 20
120.4639634355956
 30
0.0
  0
VERTEX
  5
254
330
23C
100
AcDbEntity
  8
GRAU_10_
 62
     7
100
AcDbVertex
100
AcDb2dVertex
 10
61.62590731423764
 20
120.5094717689178
 30
0.0
  0
SEQEND
  5
255
330
23C
100
AcDbEntity
  8
GRAU_10_
 62
     7
  0
POLYLINE
  5
256
330
1F
100
AcDbEntity
  8
GRAU_10_
 62
     7
100
AcDb2dPolyline
 66
     1
 10
0.0
 20
0.0
 30
0.0
  0
VERTEX
  5
257
330
256
100
AcDbEntity
  8
GRAU_10_
 62
     7
100
AcDbVertex
100
AcDb2dVertex
 10
47.93742398432654
 20
122.1294273240683
 30
0.0
  0
VERTEX
  5
258
330
256
100
AcDbEntity
  8
GRAU_10_
 62
     7
100
AcDbVertex
100
AcDb2dVertex
 10
41.82554898585425
 20
122.1294273240683
 30
0.0
  0
SEQEND
  5
259
330
256
100
AcDbEntity
  8
GRAU_10_
 62
     7
  0
POLYLINE
  5
25A
330
1F
100
AcDbEntity
  8
GRAU_10_
 62
     7
100
AcDb2dPolyline
 66
     1
 10
0.0
 20
0.0
 30
0.0
  0
VERTEX
  5
25B
330
25A
100
AcDbEntity
  8
GRAU_10_
 62
     7
100
AcDbVertex
100
AcDb2dVertex
 10
41.82554898585425
 20
112.4015801042781
 30
0.0
  0
VERTEX
  5
25C
330
25A
100
AcDbEntity
  8
GRAU_10_
 62
     7
100
AcDbVertex
100
AcDb2dVertex
 10
47.93742398432654
 20
112.4015801042781
 30
0.0
  0
SEQEND
  5
25D
330
25A
100
AcDbEntity
  8
GRAU_10_
 62
     7
  0
POLYLINE
  5
25E
330
1F
100
AcDbEntity
  8
GRAU_10_
 62
     7
100
AcDb2dPolyline
 66
     1
 10
0.0
 20
0.0
 30
0.0
  0
VERTEX
  5
25F
330
25E
100
AcDbEntity
  8
GRAU_10_
 62
     7
100
AcDbVertex
100
AcDb2dVertex
 10
41.82554898585425
 20
122.1294273240683
 30
0.0
  0
VERTEX
  5
260
330
25E
100
AcDbEntity
  8
GRAU_10_
 62
     7
100
AcDbVertex
100
AcDb2dVertex
 10
41.82554898585425
 20
122.0232412129836
 30
0.0
  0
VERTEX
  5
261
330
25E
100
AcDbEntity
  8
GRAU_10_
 62
     7
100
AcDbVertex
100
AcDb2dVertex
 10
41.82554898585425
 20
121.7089162130623
 30
0.0
  0
VERTEX
  5
262
330
25E
100
AcDbEntity
  8
GRAU_10_
 62
     7
100
AcDbVertex
100
AcDb2dVertex
 10
41.82554898585425
 20
121.2005634354117
 30
0.0
  0
VERTEX
  5
263
330
25E
100
AcDbEntity
  8
GRAU_10_
 62
     7
100
AcDbVertex
100
AcDb2dVertex
 10
41.82554898585425
 20
120.5204078800262
 30
0.0
  0
VERTEX
  5
264
330
25E
100
AcDbEntity
  8
GRAU_10_
 62
     7
100
AcDbVertex
100
AcDb2dVertex
 10
41.82554898585425
 20
119.6973773246765
 30
0.0
  0
VERTEX
  5
265
330
25E
100
AcDbEntity
  8
GRAU_10_
 62
     7
100
AcDbVertex
100
AcDb2dVertex
 10
41.82554898585425
 20
118.7688662137974
 30
0.0
  0
VERTEX
  5
266
330
25E
100
AcDbEntity
  8
GRAU_10_
 62
     7
100
AcDbVertex
100
AcDb2dVertex
 10
41.82554898585425
 20
117.7736801029351
 30
0.0
  0
VERTEX
  5
267
330
25E
100
AcDbEntity
  8
GRAU_10_
 62
     7
100
AcDbVertex
100
AcDb2dVertex
 10
41.82554898585425
 20
116.7573273254113
 30
0.0
  0
VERTEX
  5
268
330
25E
100
AcDbEntity
  8
GRAU_10_
 62
     7
100
AcDbVertex
100
AcDb2dVertex
 10
41.82554898585425
 20
115.762141214549
 30
0.0
  0
VERTEX
  5
269
330
25E
100
AcDbEntity
  8
GRAU_10_
 62
     7
100
AcDbVertex
100
AcDb2dVertex
 10
41.82554898585425
 20
114.8336301036701
 30
0.0
  0
VERTEX
  5
26A
330
25E
100
AcDbEntity
  8
GRAU_10_
 62
     7
100
AcDbVertex
100
AcDb2dVertex
 10
41.82554898585425
 20
114.0109523260979
 30
0.0
  0
VERTEX
  5
26B
330
25E
100
AcDbEntity
  8
GRAU_10_
 62
     7
100
AcDbVertex
100
AcDb2dVertex
 10
41.82554898585425
 20
113.3300912151569
 30
0.0
  0
VERTEX
  5
26C
330
25E
100
AcDbEntity
  8
GRAU_10_
 62
     7
100
AcDbVertex
100
AcDb2dVertex
 10
41.82554898585425
 20
112.8220912152841
 30
0.0
  0
VERTEX
  5
26D
330
25E
100
AcDbEntity
  8
GRAU_10_
 62
     7
100
AcDbVertex
100
AcDb2dVertex
 10
41.82554898585425
 20
112.5077662153625
 30
0.0
  0
VERTEX
  5
26E
330
25E
100
AcDbEntity
  8
GRAU_10_
 62
     7
100
AcDbVertex
100
AcDb2dVertex
 10
41.82554898585425
 20
112.4015801042781
 30
0.0
  0
SEQEND
  5
26F
330
25E
100
AcDbEntity
  8
GRAU_10_
 62
     7
  0
POLYLINE
  5
270
330
1F
100
AcDbEntity
  8
GRAU_10_
 62
     7
100
AcDb2dPolyline
 66
     1
 10
0.0
 20
0.0
 30
0.0
  0
VERTEX
  5
271
330
270
100
AcDbEntity
  8
GRAU_10_
 62
     7
100
AcDbVertex
100
AcDb2dVertex
 10
41.82554898585425
 20
122.1294273240683
 30
0.0
  0
VERTEX
  5
272
330
270
100
AcDbEntity
  8
GRAU_10_
 62
     7
100
AcDbVertex
100
AcDb2dVertex
 10
41.2448767637773
 20
121.5487551019913
 30
0.0
  0
SEQEND
  5
273
330
270
100
AcDbEntity
  8
GRAU_10_
 62
     7
  0
POLYLINE
  5
274
330
1F
100
AcDbEntity
  8
GRAU_10_
 62
     7
100
AcDb2dPolyline
 66
     1
 10
0.0
 20
0.0
 30
0.0
  0
VERTEX
  5
275
330
274
100
AcDbEntity
  8
GRAU_10_
 62
     7
100
AcDbVertex
100
AcDb2dVertex
 10
41.2448767637773
 20
112.982252326355
 30
0.0
  0
VERTEX
  5
276
330
274
100
AcDbEntity
  8
GRAU_10_
 62
     7
100
AcDbVertex
100
AcDb2dVertex
 10
41.82554898585425
 20
112.4015801042781
 30
0.0
  0
SEQEND
  5
277
330
274
100
AcDbEntity
  8
GRAU_10_
 62
     7
  0
POLYLINE
  5
278
330
1F
100
AcDbEntity
  8
GRAU_10_
 62
     7
100
AcDb2dPolyline
 66
     1
 10
0.0
 20
0.0
 30
0.0
  0
VERTEX
  5
279
330
278
100
AcDbEntity
  8
GRAU_10_
 62
     7
100
AcDbVertex
100
AcDb2dVertex
 10
41.2448767637773
 20
121.5487551019913
 30
0.0
  0
VERTEX
  5
27A
330
278
100
AcDbEntity
  8
GRAU_10_
 62
     7
100
AcDbVertex
100
AcDb2dVertex
 10
41.2448767637773
 20
121.4408051020181
 30
0.0
  0
VERTEX
  5
27B
330
278
100
AcDbEntity
  8
GRAU_10_
 62
     7
100
AcDbVertex
100
AcDb2dVertex
 10
41.2448767637773
 20
121.1243634354309
 30
0.0
  0
VERTEX
  5
27C
330
278
100
AcDbEntity
  8
GRAU_10_
 62
     7
100
AcDbVertex
100
AcDb2dVertex
 10
41.2448767637773
 20
120.6142467688915
 30
0.0
  0
VERTEX
  5
27D
330
278
100
AcDbEntity
  8
GRAU_10_
 62
     7
100
AcDbVertex
100
AcDb2dVertex
 10
41.2448767637773
 20
119.9358551023945
 30
0.0
  0
VERTEX
  5
27E
330
278
100
AcDbEntity
  8
GRAU_10_
 62
     7
100
AcDbVertex
100
AcDb2dVertex
 10
41.2448767637773
 20
119.1237606581532
 30
0.0
  0
VERTEX
  5
27F
330
278
100
AcDbEntity
  8
GRAU_10_
 62
     7
100
AcDbVertex
100
AcDb2dVertex
 10
41.2448767637773
 20
118.2188856583792
 30
0.0
  0
VERTEX
  5
280
330
278
100
AcDbEntity
  8
GRAU_10_
 62
     7
100
AcDbVertex
100
AcDb2dVertex
 10
41.2448767637773
 20
117.2656801030622
 30
0.0
  0
VERTEX
  5
281
330
278
100
AcDbEntity
  8
GRAU_10_
 62
     7
100
AcDbVertex
100
AcDb2dVertex
 10
41.2448767637773
 20
116.3124745477449
 30
0.0
  0
VERTEX
  5
282
330
278
100
AcDbEntity
  8
GRAU_10_
 62
     7
100
AcDbVertex
100
AcDb2dVertex
 10
41.2448767637773
 20
115.4072467701935
 30
0.0
  0
VERTEX
  5
283
330
278
100
AcDbEntity
  8
GRAU_10_
 62
     7
100
AcDbVertex
100
AcDb2dVertex
 10
41.2448767637773
 20
114.5951523259519
 30
0.0
  0
VERTEX
  5
284
330
278
100
AcDbEntity
  8
GRAU_10_
 62
     7
100
AcDbVertex
100
AcDb2dVertex
 10
41.2448767637773
 20
113.9167606594549
 30
0.0
  0
VERTEX
  5
285
330
278
100
AcDbEntity
  8
GRAU_10_
 62
     7
100
AcDbVertex
100
AcDb2dVertex
 10
41.2448767637773
 20
113.406291215138
 30
0.0
  0
VERTEX
  5
286
330
278
100
AcDbEntity
  8
GRAU_10_
 62
     7
100
AcDbVertex
100
AcDb2dVertex
 10
41.2448767637773
 20
113.0902023263282
 30
0.0
  0
VERTEX
  5
287
330
278
100
AcDbEntity
  8
GRAU_10_
 62
     7
100
AcDbVertex
100
AcDb2dVertex
 10
41.2448767637773
 20
112.982252326355
 30
0.0
  0
SEQEND
  5
288
330
278
100
AcDbEntity
  8
GRAU_10_
 62
     7
  0
POLYLINE
  5
289
330
1F
100
AcDbEntity
  8
GRAU_10_
 62
     7
100
AcDb2dPolyline
 66
     1
 10
0.0
 20
0.0
 30
0.0
  0
VERTEX
  5
28A
330
289
100
AcDbEntity
  8
GRAU_10_
 62
     7
100
AcDbVertex
100
AcDb2dVertex
 10
61.74444064754143
 20
112.765293993076
 30
0.0
  0
VERTEX
  5
28B
330
289
100
AcDbEntity
  8
GRAU_10_
 62
     7
100
AcDbVertex
100
AcDb2dVertex
 10
67.82915175713121
 20
112.765293993076
 30
0.0
  0
SEQEND
  5
28C
330
289
100
AcDbEntity
  8
GRAU_10_
 62
     7
  0
POLYLINE
  5
28D
330
1F
100
AcDbEntity
  8
GRAU_10_
 62
     7
100
AcDb2dPolyline
 66
     1
 10
0.0
 20
0.0
 30
0.0
  0
VERTEX
  5
28E
330
28D
100
AcDbEntity
  8
GRAU_10_
 62
     7
100
AcDbVertex
100
AcDb2dVertex
 10
61.74444064754143
 20
117.5881189918704
 30
0.0
  0
VERTEX
  5
28F
330
28D
100
AcDbEntity
  8
GRAU_10_
 62
     7
100
AcDbVertex
100
AcDb2dVertex
 10
61.75502398087202
 20
117.578241214095
 30
0.0
  0
VERTEX
  5
290
330
28D
100
AcDbEntity
  8
GRAU_10_
 62
     7
100
AcDbVertex
100
AcDb2dVertex
 10
61.76560731420263
 20
117.5687162140974
 30
0.0
  0
VERTEX
  5
291
330
28D
100
AcDbEntity
  8
GRAU_10_
 62
     7
100
AcDbVertex
100
AcDb2dVertex
 10
61.77619064753354
 20
117.5595439918775
 30
0.0
  0
VERTEX
  5
292
330
28D
100
AcDbEntity
  8
GRAU_10_
 62
     7
100
AcDbVertex
100
AcDb2dVertex
 10
61.78677398086414
 20
117.5496662141021
 30
0.0
  0
VERTEX
  5
293
330
28D
100
AcDbEntity
  8
GRAU_10_
 62
     7
100
AcDbVertex
100
AcDb2dVertex
 10
61.79735731419473
 20
117.54084676966
 30
0.0
  0
VERTEX
  5
294
330
28D
100
AcDbEntity
  8
GRAU_10_
 62
     7
100
AcDbVertex
100
AcDb2dVertex
 10
61.80794064752534
 20
117.5309689918846
 30
0.0
  0
VERTEX
  5
295
330
28D
100
AcDbEntity
  8
GRAU_10_
 62
     7
100
AcDbVertex
100
AcDb2dVertex
 10
61.81922953641146
 20
117.5221495474422
 30
0.0
  0
VERTEX
  5
296
330
28D
100
AcDbEntity
  8
GRAU_10_
 62
     7
100
AcDbVertex
100
AcDb2dVertex
 10
61.83016564751981
 20
117.5122717696671
 30
0.0
  0
VERTEX
  5
297
330
28D
100
AcDbEntity
  8
GRAU_10_
 62
     7
100
AcDbVertex
100
AcDb2dVertex
 10
61.84074898085073
 20
117.5034523252247
 30
0.0
  0
VERTEX
  5
298
330
28D
100
AcDbEntity
  8
GRAU_10_
 62
     7
100
AcDbVertex
100
AcDb2dVertex
 10
61.84286564751666
 20
117.500982880781
 30
0.0
  0
SEQEND
  5
299
330
28D
100
AcDbEntity
  8
GRAU_10_
 62
     7
  0
POLYLINE
  5
29A
330
1F
100
AcDbEntity
  8
GRAU_10_
 62
     7
100
AcDb2dPolyline
 66
     1
 10
0.0
 20
0.0
 30
0.0
  0
VERTEX
  5
29B
330
29A
100
AcDbEntity
  8
GRAU_10_
 62
     7
100
AcDbVertex
100
AcDb2dVertex
 10
62.93541842502121
 20
117.2656801030622
 30
0.0
  0
VERTEX
  5
29C
330
29A
100
AcDbEntity
  8
GRAU_10_
 62
     7
100
AcDbVertex
100
AcDb2dVertex
 10
62.92236564724693
 20
117.2815551030583
 30
0.0
  0
VERTEX
  5
29D
330
29A
100
AcDbEntity
  8
GRAU_10_
 62
     7
100
AcDbVertex
100
AcDb2dVertex
 10
62.90966564725008
 20
117.297430103054
 30
0.0
  0
VERTEX
  5
29E
330
29A
100
AcDbEntity
  8
GRAU_10_
 62
     7
100
AcDbVertex
100
AcDb2dVertex
 10
62.89696564725323
 20
117.3136578808278
 30
0.0
  0
VERTEX
  5
29F
330
29A
100
AcDbEntity
  8
GRAU_10_
 62
     7
100
AcDbVertex
100
AcDb2dVertex
 10
62.88426564725639
 20
117.3291801030461
 30
0.0
  0
VERTEX
  5
2A0
330
29A
100
AcDbEntity
  8
GRAU_10_
 62
     7
100
AcDbVertex
100
AcDb2dVertex
 10
62.87191842503731
 20
117.3454078808199
 30
0.0
  0
VERTEX
  5
2A1
330
29A
100
AcDbEntity
  8
GRAU_10_
 62
     7
100
AcDbVertex
100
AcDb2dVertex
 10
62.85921842504046
 20
117.3609301030382
 30
0.0
  0
VERTEX
  5
2A2
330
29A
100
AcDbEntity
  8
GRAU_10_
 62
     7
100
AcDbVertex
100
AcDb2dVertex
 10
62.84687120282138
 20
117.3760995474791
 30
0.0
  0
VERTEX
  5
2A3
330
29A
100
AcDbEntity
  8
GRAU_10_
 62
     7
100
AcDbVertex
100
AcDb2dVertex
 10
62.83452398060229
 20
117.3916217696974
 30
0.0
  0
VERTEX
  5
2A4
330
29A
100
AcDbEntity
  8
GRAU_10_
 62
     7
100
AcDbVertex
100
AcDb2dVertex
 10
62.82288231393841
 20
117.4064384363602
 30
0.0
  0
VERTEX
  5
2A5
330
29A
100
AcDbEntity
  8
GRAU_10_
 62
     7
100
AcDbVertex
100
AcDb2dVertex
 10
62.81088786949709
 20
117.4212551030229
 30
0.0
  0
VERTEX
  5
2A6
330
29A
100
AcDbEntity
  8
GRAU_10_
 62
     7
100
AcDbVertex
100
AcDb2dVertex
 10
62.79889342505545
 20
117.436071769686
 30
0.0
  0
VERTEX
  5
2A7
330
29A
100
AcDbEntity
  8
GRAU_10_
 62
     7
100
AcDbVertex
100
AcDb2dVertex
 10
62.78725175839188
 20
117.4508884363491
 30
0.0
  0
VERTEX
  5
2A8
330
29A
100
AcDbEntity
  8
GRAU_10_
 62
     7
100
AcDbVertex
100
AcDb2dVertex
 10
62.77525731395024
 20
117.4649995474567
 30
0.0
  0
VERTEX
  5
2A9
330
29A
100
AcDbEntity
  8
GRAU_10_
 62
     7
100
AcDbVertex
100
AcDb2dVertex
 10
62.76432120284188
 20
117.4798162141198
 30
0.0
  0
VERTEX
  5
2AA
330
29A
100
AcDbEntity
  8
GRAU_10_
 62
     7
100
AcDbVertex
100
AcDb2dVertex
 10
62.752679536178
 20
117.4935745474496
 30
0.0
  0
VERTEX
  5
2AB
330
29A
100
AcDbEntity
  8
GRAU_10_
 62
     7
100
AcDbVertex
100
AcDb2dVertex
 10
62.7413906472922
 20
117.5083912141127
 30
0.0
  0
VERTEX
  5
2AC
330
29A
100
AcDbEntity
  8
GRAU_10_
 62
     7
100
AcDbVertex
100
AcDb2dVertex
 10
62.73045453618384
 20
117.5221495474422
 30
0.0
  0
VERTEX
  5
2AD
330
29A
100
AcDbEntity
  8
GRAU_10_
 62
     7
100
AcDbVertex
100
AcDb2dVertex
 10
62.71916564729772
 20
117.5359078807723
 30
0.0
  0
VERTEX
  5
2AE
330
29A
100
AcDbEntity
  8
GRAU_10_
 62
     7
100
AcDbVertex
100
AcDb2dVertex
 10
62.70822953618936
 20
117.5496662141021
 30
0.0
  0
VERTEX
  5
2AF
330
29A
100
AcDbEntity
  8
GRAU_10_
 62
     7
100
AcDbVertex
100
AcDb2dVertex
 10
62.69764620285844
 20
117.5630717696542
 30
0.0
  0
VERTEX
  5
2B0
330
29A
100
AcDbEntity
  8
GRAU_10_
 62
     7
100
AcDbVertex
100
AcDb2dVertex
 10
62.68706286952784
 20
117.5764773252065
 30
0.0
  0
VERTEX
  5
2B1
330
29A
100
AcDbEntity
  8
GRAU_10_
 62
     7
100
AcDbVertex
100
AcDb2dVertex
 10
62.67647953619725
 20
117.5898828807589
 30
0.0
  0
VERTEX
  5
2B2
330
29A
100
AcDbEntity
  8
GRAU_10_
 62
     7
100
AcDbVertex
100
AcDb2dVertex
 10
62.66589620286665
 20
117.6025828807557
 30
0.0
  0
VERTEX
  5
2B3
330
29A
100
AcDbEntity
  8
GRAU_10_
 62
     7
100
AcDbVertex
100
AcDb2dVertex
 10
62.65566564731349
 20
117.61563565853
 30
0.0
  0
VERTEX
  5
2B4
330
29A
100
AcDbEntity
  8
GRAU_10_
 62
     7
100
AcDbVertex
100
AcDb2dVertex
 10
62.6450823139829
 20
117.6286884363046
 30
0.0
  0
VERTEX
  5
2B5
330
29A
100
AcDbEntity
  8
GRAU_10_
 62
     7
100
AcDbVertex
100
AcDb2dVertex
 10
62.63485175842974
 20
117.6413884363015
 30
0.0
  0
VERTEX
  5
2B6
330
29A
100
AcDbEntity
  8
GRAU_10_
 62
     7
100
AcDbVertex
100
AcDb2dVertex
 10
62.62497398065466
 20
117.6540884362983
 30
0.0
  0
VERTEX
  5
2B7
330
29A
100
AcDbEntity
  8
GRAU_10_
 62
     7
100
AcDbVertex
100
AcDb2dVertex
 10
62.61509620287926
 20
117.6664356585174
 30
0.0
  0
VERTEX
  5
2B8
330
29A
100
AcDbEntity
  8
GRAU_10_
 62
     7
100
AcDbVertex
100
AcDb2dVertex
 10
62.60521842510387
 20
117.6784301029591
 30
0.0
  0
VERTEX
  5
2B9
330
29A
100
AcDbEntity
  8
GRAU_10_
 62
     7
100
AcDbVertex
100
AcDb2dVertex
 10
62.59534064732848
 20
117.6907773251781
 30
0.0
  0
VERTEX
  5
2BA
330
29A
100
AcDbEntity
  8
GRAU_10_
 62
     7
100
AcDbVertex
100
AcDb2dVertex
 10
62.5861684251086
 20
117.7024189918417
 30
0.0
  0
VERTEX
  5
2BB
330
29A
100
AcDbEntity
  8
GRAU_10_
 62
     7
100
AcDbVertex
100
AcDb2dVertex
 10
62.57664342511097
 20
117.714413436283
 30
0.0
  0
VERTEX
  5
2BC
330
29A
100
AcDbEntity
  8
GRAU_10_
 62
     7
100
AcDbVertex
100
AcDb2dVertex
 10
62.5674712028911
 20
117.7260551029469
 30
0.0
  0
VERTEX
  5
2BD
330
29A
100
AcDbEntity
  8
GRAU_10_
 62
     7
100
AcDbVertex
100
AcDb2dVertex
 10
62.55829898067122
 20
117.7376967696108
 30
0.0
  0
VERTEX
  5
2BE
330
29A
100
AcDbEntity
  8
GRAU_10_
 62
     7
100
AcDbVertex
100
AcDb2dVertex
 10
62.54877398067359
 20
117.7493384362744
 30
0.0
  0
VERTEX
  5
2BF
330
29A
100
AcDbEntity
  8
GRAU_10_
 62
     7
100
AcDbVertex
100
AcDb2dVertex
 10
62.53995453623148
 20
117.7609801029382
 30
0.0
  0
VERTEX
  5
2C0
330
29A
100
AcDbEntity
  8
GRAU_10_
 62
     7
100
AcDbVertex
100
AcDb2dVertex
 10
62.53148786956681
 20
117.7719162140466
 30
0.0
  0
VERTEX
  5
2C1
330
29A
100
AcDbEntity
  8
GRAU_10_
 62
     7
100
AcDbVertex
100
AcDb2dVertex
 10
62.52266842512469
 20
117.7824995473772
 30
0.0
  0
VERTEX
  5
2C2
330
29A
100
AcDbEntity
  8
GRAU_10_
 62
     7
100
AcDbVertex
100
AcDb2dVertex
 10
62.51420175846003
 20
117.7937884362633
 30
0.0
  0
VERTEX
  5
2C3
330
29A
100
AcDbEntity
  8
GRAU_10_
 62
     7
100
AcDbVertex
100
AcDb2dVertex
 10
62.50502953624015
 20
117.8043717695942
 30
0.0
  0
VERTEX
  5
2C4
330
29A
100
AcDbEntity
  8
GRAU_10_
 62
     7
100
AcDbVertex
100
AcDb2dVertex
 10
62.497268425131
 20
117.8146023251471
 30
0.0
  0
VERTEX
  5
2C5
330
29A
100
AcDbEntity
  8
GRAU_10_
 62
     7
100
AcDbVertex
100
AcDb2dVertex
 10
62.48844898068857
 20
117.8255384362554
 30
0.0
  0
VERTEX
  5
2C6
330
29A
100
AcDbEntity
  8
GRAU_10_
 62
     7
100
AcDbVertex
100
AcDb2dVertex
 10
62.48068786957943
 20
117.8357689918086
 30
0.0
  0
VERTEX
  5
2C7
330
29A
100
AcDbEntity
  8
GRAU_10_
 62
     7
100
AcDbVertex
100
AcDb2dVertex
 10
62.47257398069252
 20
117.8459995473614
 30
0.0
  0
VERTEX
  5
2C8
330
29A
100
AcDbEntity
  8
GRAU_10_
 62
     7
100
AcDbVertex
100
AcDb2dVertex
 10
62.46446009180593
 20
117.8558773251368
 30
0.0
  0
VERTEX
  5
2C9
330
29A
100
AcDbEntity
  8
GRAU_10_
 62
     7
100
AcDbVertex
100
AcDb2dVertex
 10
62.45634620291901
 20
117.8661078806897
 30
0.0
  0
VERTEX
  5
2CA
330
29A
100
AcDbEntity
  8
GRAU_10_
 62
     7
100
AcDbVertex
100
AcDb2dVertex
 10
62.44929064736507
 20
117.8752801029095
 30
0.0
  0
VERTEX
  5
2CB
330
29A
100
AcDbEntity
  8
GRAU_10_
 62
     7
100
AcDbVertex
100
AcDb2dVertex
 10
62.44152953625593
 20
117.8851578806849
 30
0.0
  0
VERTEX
  5
2CC
330
29A
100
AcDbEntity
  8
GRAU_10_
 62
     7
100
AcDbVertex
100
AcDb2dVertex
 10
62.43376842514677
 20
117.8943301029048
 30
0.0
  0
VERTEX
  5
2CD
330
29A
100
AcDbEntity
  8
GRAU_10_
 62
     7
100
AcDbVertex
100
AcDb2dVertex
 10
62.42671286959283
 20
117.9042078806802
 30
0.0
  0
VERTEX
  5
2CE
330
29A
100
AcDbEntity
  8
GRAU_10_
 62
     7
100
AcDbVertex
100
AcDb2dVertex
 10
62.41895175848369
 20
117.9126745473445
 30
0.0
  0
VERTEX
  5
2CF
330
29A
100
AcDbEntity
  8
GRAU_10_
 62
     7
100
AcDbVertex
100
AcDb2dVertex
 10
62.41189620293006
 20
117.9221995473422
 30
0.0
  0
VERTEX
  5
2D0
330
29A
100
AcDbEntity
  8
GRAU_10_
 62
     7
100
AcDbVertex
100
AcDb2dVertex
 10
62.40519342515388
 20
117.9310189917846
 30
0.0
  0
VERTEX
  5
2D1
330
29A
100
AcDbEntity
  8
GRAU_10_
 62
     7
100
AcDbVertex
100
AcDb2dVertex
 10
62.39778509182248
 20
117.9394856584493
 30
0.0
  0
VERTEX
  5
2D2
330
29A
100
AcDbEntity
  8
GRAU_10_
 62
     7
100
AcDbVertex
100
AcDb2dVertex
 10
62.3910823140463
 20
117.9483051028914
 30
0.0
  0
VERTEX
  5
2D3
330
29A
100
AcDbEntity
  8
GRAU_10_
 62
     7
100
AcDbVertex
100
AcDb2dVertex
 10
62.38473231404788
 20
117.9567717695557
 30
0.0
  0
VERTEX
  5
2D4
330
29A
100
AcDbEntity
  8
GRAU_10_
 62
     7
100
AcDbVertex
100
AcDb2dVertex
 10
62.37838231404946
 20
117.9652384362204
 30
0.0
  0
VERTEX
  5
2D5
330
29A
100
AcDbEntity
  8
GRAU_10_
 62
     7
100
AcDbVertex
100
AcDb2dVertex
 10
62.37167953627328
 20
117.9737051028851
 30
0.0
  0
VERTEX
  5
2D6
330
29A
100
AcDbEntity
  8
GRAU_10_
 62
     7
100
AcDbVertex
100
AcDb2dVertex
 10
62.36532953627485
 20
117.9814662139942
 30
0.0
  0
VERTEX
  5
2D7
330
29A
100
AcDbEntity
  8
GRAU_10_
 62
     7
100
AcDbVertex
100
AcDb2dVertex
 10
62.35933231405419
 20
117.9892273251034
 30
0.0
  0
VERTEX
  5
2D8
330
29A
100
AcDbEntity
  8
GRAU_10_
 62
     7
100
AcDbVertex
100
AcDb2dVertex
 10
62.35298231405577
 20
117.9973412139903
 30
0.0
  0
VERTEX
  5
2D9
330
29A
100
AcDbEntity
  8
GRAU_10_
 62
     7
100
AcDbVertex
100
AcDb2dVertex
 10
62.34698509183511
 20
118.0047495473217
 30
0.0
  0
VERTEX
  5
2DA
330
29A
100
AcDbEntity
  8
GRAU_10_
 62
     7
100
AcDbVertex
100
AcDb2dVertex
 10
62.34098786961444
 20
118.0125106584308
 30
0.0
  0
VERTEX
  5
2DB
330
29A
100
AcDbEntity
  8
GRAU_10_
 62
     7
100
AcDbVertex
100
AcDb2dVertex
 10
62.33499064739378
 20
118.0195662139848
 30
0.0
  0
VERTEX
  5
2DC
330
29A
100
AcDbEntity
  8
GRAU_10_
 62
     7
100
AcDbVertex
100
AcDb2dVertex
 10
62.32969898072832
 20
118.0266217695384
 30
0.0
  0
VERTEX
  5
2DD
330
29A
100
AcDbEntity
  8
GRAU_10_
 62
     7
100
AcDbVertex
100
AcDb2dVertex
 10
62.32370175850766
 20
118.0340301028701
 30
0.0
  0
VERTEX
  5
2DE
330
29A
100
AcDbEntity
  8
GRAU_10_
 62
     7
100
AcDbVertex
100
AcDb2dVertex
 10
62.29653786962548
 20
118.0696606584166
 30
0.0
  0
VERTEX
  5
2DF
330
29A
100
AcDbEntity
  8
GRAU_10_
 62
     7
100
AcDbVertex
100
AcDb2dVertex
 10
62.2686684251881
 20
118.1056439917409
 30
0.0
  0
VERTEX
  5
2E0
330
29A
100
AcDbEntity
  8
GRAU_10_
 62
     7
100
AcDbVertex
100
AcDb2dVertex
 10
62.24150453630592
 20
118.1402162139545
 30
0.0
  0
VERTEX
  5
2E1
330
29A
100
AcDbEntity
  8
GRAU_10_
 62
     7
100
AcDbVertex
100
AcDb2dVertex
 10
62.21434064742375
 20
118.1754939917236
 30
0.0
  0
VERTEX
  5
2E2
330
29A
100
AcDbEntity
  8
GRAU_10_
 62
     7
100
AcDbVertex
100
AcDb2dVertex
 10
62.18752953631933
 20
118.2097134361594
 30
0.0
  0
VERTEX
  5
2E3
330
29A
100
AcDbEntity
  8
GRAU_10_
 62
     7
100
AcDbVertex
100
AcDb2dVertex
 10
62.16142398077044
 20
118.2442856583729
 30
0.0
  0
VERTEX
  5
2E4
330
29A
100
AcDbEntity
  8
GRAU_10_
 62
     7
100
AcDbVertex
100
AcDb2dVertex
 10
62.13531842522123
 20
118.2777995472535
 30
0.0
  0
VERTEX
  5
2E5
330
29A
100
AcDbEntity
  8
GRAU_10_
 62
     7
100
AcDbVertex
100
AcDb2dVertex
 10
62.1095656474501
 20
118.3116662139116
 30
0.0
  0
VERTEX
  5
2E6
330
29A
100
AcDbEntity
  8
GRAU_10_
 62
     7
100
AcDbVertex
100
AcDb2dVertex
 10
62.08451842523417
 20
118.3451801027922
 30
0.0
  0
VERTEX
  5
2E7
330
29A
100
AcDbEntity
  8
GRAU_10_
 62
     7
100
AcDbVertex
100
AcDb2dVertex
 10
62.05947120301823
 20
118.378341213895
 30
0.0
  0
VERTEX
  5
2E8
330
29A
100
AcDbEntity
  8
GRAU_10_
 62
     7
100
AcDbVertex
100
AcDb2dVertex
 10
62.03477675857975
 20
118.4107967694423
 30
0.0
  0
VERTEX
  5
2E9
330
29A
100
AcDbEntity
  8
GRAU_10_
 62
     7
100
AcDbVertex
100
AcDb2dVertex
 10
62.0107878696971
 20
118.44325232499
 30
0.0
  0
VERTEX
  5
2EA
330
29A
100
AcDbEntity
  8
GRAU_10_
 62
     7
100
AcDbVertex
100
AcDb2dVertex
 10
61.98644620303637
 20
118.4753551027598
 30
0.0
  0
VERTEX
  5
2EB
330
29A
100
AcDbEntity
  8
GRAU_10_
 62
     7
100
AcDbVertex
100
AcDb2dVertex
 10
61.96281009193117
 20
118.5067523249742
 30
0.0
  0
VERTEX
  5
2EC
330
29A
100
AcDbEntity
  8
GRAU_10_
 62
     7
100
AcDbVertex
100
AcDb2dVertex
 10
61.93952675860373
 20
118.538502324966
 30
0.0
  0
VERTEX
  5
2ED
330
29A
100
AcDbEntity
  8
GRAU_10_
 62
     7
100
AcDbVertex
100
AcDb2dVertex
 10
61.91659620305372
 20
118.5691939916251
 30
0.0
  0
VERTEX
  5
2EE
330
29A
100
AcDbEntity
  8
GRAU_10_
 62
     7
100
AcDbVertex
100
AcDb2dVertex
 10
61.89401842528181
 20
118.599885658284
 30
0.0
  0
VERTEX
  5
2EF
330
29A
100
AcDbEntity
  8
GRAU_10_
 62
     7
100
AcDbVertex
100
AcDb2dVertex
 10
61.87179342528732
 20
118.6305773249431
 30
0.0
  0
VERTEX
  5
2F0
330
29A
100
AcDbEntity
  8
GRAU_10_
 62
     7
100
AcDbVertex
100
AcDb2dVertex
 10
61.84956842529284
 20
118.6605634360467
 30
0.0
  0
VERTEX
  5
2F1
330
29A
100
AcDbEntity
  8
GRAU_10_
 62
     7
100
AcDbVertex
100
AcDb2dVertex
 10
61.82804898085389
 20
118.6909023249278
 30
0.0
  0
VERTEX
  5
2F2
330
29A
100
AcDbEntity
  8
GRAU_10_
 62
     7
100
AcDbVertex
100
AcDb2dVertex
 10
61.80688231419237
 20
118.7198301026985
 30
0.0
  0
VERTEX
  5
2F3
330
29A
100
AcDbEntity
  8
GRAU_10_
 62
     7
100
AcDbVertex
100
AcDb2dVertex
 10
61.78571564753086
 20
118.7491106582469
 30
0.0
  0
VERTEX
  5
2F4
330
29A
100
AcDbEntity
  8
GRAU_10_
 62
     7
100
AcDbVertex
100
AcDb2dVertex
 10
61.76525453642486
 20
118.7776856582398
 30
0.0
  0
VERTEX
  5
2F5
330
29A
100
AcDbEntity
  8
GRAU_10_
 62
     7
100
AcDbVertex
100
AcDb2dVertex
 10
61.74444064754143
 20
118.8066134360101
 30
0.0
  0
SEQEND
  5
2F6
330
29A
100
AcDbEntity
  8
GRAU_10_
 62
     7
  0
POLYLINE
  5
2F7
330
1F
100
AcDbEntity
  8
GRAU_10_
 62
     7
100
AcDb2dPolyline
 66
     1
 10
0.0
 20
0.0
 30
0.0
  0
VERTEX
  5
2F8
330
2F7
100
AcDbEntity
  8
GRAU_10_
 62
     7
100
AcDbVertex
100
AcDb2dVertex
 10
62.67647953619725
 20
120.5969606577847
 30
0.0
  0
VERTEX
  5
2F9
330
2F7
100
AcDbEntity
  8
GRAU_10_
 62
     7
100
AcDbVertex
100
AcDb2dVertex
 10
62.69129620286002
 20
120.6142467688915
 30
0.0
  0
VERTEX
  5
2FA
330
2F7
100
AcDbEntity
  8
GRAU_10_
 62
     7
100
AcDbVertex
100
AcDb2dVertex
 10
62.70611286952311
 20
120.631885657776
 30
0.0
  0
VERTEX
  5
2FB
330
2F7
100
AcDbEntity
  8
GRAU_10_
 62
     7
100
AcDbVertex
100
AcDb2dVertex
 10
62.7209295361862
 20
120.649877324438
 30
0.0
  0
VERTEX
  5
2FC
330
2F7
100
AcDbEntity
  8
GRAU_10_
 62
     7
100
AcDbVertex
100
AcDb2dVertex
 10
62.73574620284898
 20
120.6671634355451
 30
0.0
  0
VERTEX
  5
2FD
330
2F7
100
AcDbEntity
  8
GRAU_10_
 62
     7
100
AcDbVertex
100
AcDb2dVertex
 10
62.75056286951207
 20
120.6851551022071
 30
0.0
  0
VERTEX
  5
2FE
330
2F7
100
AcDbEntity
  8
GRAU_10_
 62
     7
100
AcDbVertex
100
AcDb2dVertex
 10
62.76537953617484
 20
120.7024412133139
 30
0.0
  0
VERTEX
  5
2FF
330
2F7
100
AcDbEntity
  8
GRAU_10_
 62
     7
100
AcDbVertex
100
AcDb2dVertex
 10
62.78090175839346
 20
120.7193745466429
 30
0.0
  0
VERTEX
  5
300
330
2F7
100
AcDbEntity
  8
GRAU_10_
 62
     7
100
AcDbVertex
100
AcDb2dVertex
 10
62.79571842505624
 20
120.73666065775
 30
0.0
  0
VERTEX
  5
301
330
2F7
100
AcDbEntity
  8
GRAU_10_
 62
     7
100
AcDbVertex
100
AcDb2dVertex
 10
62.81053509171932
 20
120.7539467688565
 30
0.0
  0
VERTEX
  5
302
330
2F7
100
AcDbEntity
  8
GRAU_10_
 62
     7
100
AcDbVertex
100
AcDb2dVertex
 10
62.8253517583821
 20
120.7715856577413
 30
0.0
  0
VERTEX
  5
303
330
2F7
100
AcDbEntity
  8
GRAU_10_
 62
     7
100
AcDbVertex
100
AcDb2dVertex
 10
62.84016842504519
 20
120.78851899107
 30
0.0
  0
VERTEX
  5
304
330
2F7
100
AcDbEntity
  8
GRAU_10_
 62
     7
100
AcDbVertex
100
AcDb2dVertex
 10
62.85498509170829
 20
120.8058051021771
 30
0.0
  0
VERTEX
  5
305
330
2F7
100
AcDbEntity
  8
GRAU_10_
 62
     7
100
AcDbVertex
100
AcDb2dVertex
 10
62.86980175837106
 20
120.8227384355062
 30
0.0
  0
VERTEX
  5
306
330
2F7
100
AcDbEntity
  8
GRAU_10_
 62
     7
100
AcDbVertex
100
AcDb2dVertex
 10
62.88461842503416
 20
120.8396717688352
 30
0.0
  0
VERTEX
  5
307
330
2F7
100
AcDbEntity
  8
GRAU_10_
 62
     7
100
AcDbVertex
100
AcDb2dVertex
 10
62.89908231391949
 20
120.8562523243868
 30
0.0
  0
VERTEX
  5
308
330
2F7
100
AcDbEntity
  8
GRAU_10_
 62
     7
100
AcDbVertex
100
AcDb2dVertex
 10
62.91389898058225
 20
120.8731856577158
 30
0.0
  0
VERTEX
  5
309
330
2F7
100
AcDbEntity
  8
GRAU_10_
 62
     7
100
AcDbVertex
100
AcDb2dVertex
 10
62.92871564724535
 20
120.8894134354893
 30
0.0
  0
VERTEX
  5
30A
330
2F7
100
AcDbEntity
  8
GRAU_10_
 62
     7
100
AcDbVertex
100
AcDb2dVertex
 10
62.94317953613068
 20
120.9063467688186
 30
0.0
  0
VERTEX
  5
30B
330
2F7
100
AcDbEntity
  8
GRAU_10_
 62
     7
100
AcDbVertex
100
AcDb2dVertex
 10
62.95799620279345
 20
120.9229273243699
 30
0.0
  0
VERTEX
  5
30C
330
2F7
100
AcDbEntity
  8
GRAU_10_
 62
     7
100
AcDbVertex
100
AcDb2dVertex
 10
62.97281286945655
 20
120.9398606576989
 30
0.0
  0
VERTEX
  5
30D
330
2F7
100
AcDbEntity
  8
GRAU_10_
 62
     7
100
AcDbVertex
100
AcDb2dVertex
 10
62.98727675834188
 20
120.9564412132505
 30
0.0
  0
VERTEX
  5
30E
330
2F7
100
AcDbEntity
  8
GRAU_10_
 62
     7
100
AcDbVertex
100
AcDb2dVertex
 10
63.00209342500465
 20
120.9723162132465
 30
0.0
  0
VERTEX
  5
30F
330
2F7
100
AcDbEntity
  8
GRAU_10_
 62
     7
100
AcDbVertex
100
AcDb2dVertex
 10
63.01655731388998
 20
120.9892495465756
 30
0.0
  0
VERTEX
  5
310
330
2F7
100
AcDbEntity
  8
GRAU_10_
 62
     7
100
AcDbVertex
100
AcDb2dVertex
 10
63.03102120277531
 20
121.0054773243494
 30
0.0
  0
VERTEX
  5
311
330
2F7
100
AcDbEntity
  8
GRAU_10_
 62
     7
100
AcDbVertex
100
AcDb2dVertex
 10
63.04548509166064
 20
121.0213523243454
 30
0.0
  0
VERTEX
  5
312
330
2F7
100
AcDbEntity
  8
GRAU_10_
 62
     7
100
AcDbVertex
100
AcDb2dVertex
 10
63.05959620276822
 20
121.0379328798967
 30
0.0
  0
VERTEX
  5
313
330
2F7
100
AcDbEntity
  8
GRAU_10_
 62
     7
100
AcDbVertex
100
AcDb2dVertex
 10
63.07370731387579
 20
121.0538078798927
 30
0.0
  0
VERTEX
  5
314
330
2F7
100
AcDbEntity
  8
GRAU_10_
 62
     7
100
AcDbVertex
100
AcDb2dVertex
 10
63.0881712027608
 20
121.0703884354443
 30
0.0
  0
VERTEX
  5
315
330
2F7
100
AcDbEntity
  8
GRAU_10_
 62
     7
100
AcDbVertex
100
AcDb2dVertex
 10
63.10263509164614
 20
121.0862634354404
 30
0.0
  0
VERTEX
  5
316
330
2F7
100
AcDbEntity
  8
GRAU_10_
 62
     7
100
AcDbVertex
100
AcDb2dVertex
 10
63.11709898053147
 20
121.1024912132139
 30
0.0
  0
VERTEX
  5
317
330
2F7
100
AcDbEntity
  8
GRAU_10_
 62
     7
100
AcDbVertex
100
AcDb2dVertex
 10
63.13085731386127
 20
121.1180134354325
 30
0.0
  0
VERTEX
  5
318
330
2F7
100
AcDbEntity
  8
GRAU_10_
 62
     7
100
AcDbVertex
100
AcDb2dVertex
 10
63.14496842496884
 20
121.1338884354282
 30
0.0
  0
VERTEX
  5
319
330
2F7
100
AcDbEntity
  8
GRAU_10_
 62
     7
100
AcDbVertex
100
AcDb2dVertex
 10
63.15943231385418
 20
121.1501162132021
 30
0.0
  0
VERTEX
  5
31A
330
2F7
100
AcDbEntity
  8
GRAU_10_
 62
     7
100
AcDbVertex
100
AcDb2dVertex
 10
63.17354342496174
 20
121.1656384354203
 30
0.0
  0
VERTEX
  5
31B
330
2F7
100
AcDbEntity
  8
GRAU_10_
 62
     7
100
AcDbVertex
100
AcDb2dVertex
 10
63.18694898051412
 20
121.1818662131942
 30
0.0
  0
VERTEX
  5
31C
330
2F7
100
AcDbEntity
  8
GRAU_10_
 62
     7
100
AcDbVertex
100
AcDb2dVertex
 10
63.20141286939945
 20
121.1977412131902
 30
0.0
  0
VERTEX
  5
31D
330
2F7
100
AcDbEntity
  8
GRAU_10_
 62
     7
100
AcDbVertex
100
AcDb2dVertex
 10
63.2148184249515
 20
121.2129106576308
 30
0.0
  0
VERTEX
  5
31E
330
2F7
100
AcDbEntity
  8
GRAU_10_
 62
     7
100
AcDbVertex
100
AcDb2dVertex
 10
63.22892953605906
 20
121.2284328798491
 30
0.0
  0
VERTEX
  5
31F
330
2F7
100
AcDbEntity
  8
GRAU_10_
 62
     7
100
AcDbVertex
100
AcDb2dVertex
 10
63.24233509161143
 20
121.2446606576229
 30
0.0
  0
VERTEX
  5
320
330
2F7
100
AcDbEntity
  8
GRAU_10_
 62
     7
100
AcDbVertex
100
AcDb2dVertex
 10
63.25609342494124
 20
121.2601828798412
 30
0.0
  0
VERTEX
  5
321
330
2F7
100
AcDbEntity
  8
GRAU_10_
 62
     7
100
AcDbVertex
100
AcDb2dVertex
 10
63.26949898049329
 20
121.2757051020595
 30
0.0
  0
VERTEX
  5
322
330
2F7
100
AcDbEntity
  8
GRAU_10_
 62
     7
100
AcDbVertex
100
AcDb2dVertex
 10
63.28361009160086
 20
121.2908745465003
 30
0.0
  0
VERTEX
  5
323
330
2F7
100
AcDbEntity
  8
GRAU_10_
 62
     7
100
AcDbVertex
100
AcDb2dVertex
 10
63.29666286937547
 20
121.3063967687186
 30
0.0
  0
VERTEX
  5
324
330
2F7
100
AcDbEntity
  8
GRAU_10_
 62
     7
100
AcDbVertex
100
AcDb2dVertex
 10
63.31042120270528
 20
121.3215662131591
 30
0.0
  0
VERTEX
  5
325
330
2F7
100
AcDbEntity
  8
GRAU_10_
 62
     7
100
AcDbVertex
100
AcDb2dVertex
 10
63.32347398047988
 20
121.3367356575997
 30
0.0
  0
VERTEX
  5
326
330
2F7
100
AcDbEntity
  8
GRAU_10_
 62
     7
100
AcDbVertex
100
AcDb2dVertex
 10
63.33723231380969
 20
121.352257879818
 30
0.0
  0
VERTEX
  5
327
330
2F7
100
AcDbEntity
  8
GRAU_10_
 62
     7
100
AcDbVertex
100
AcDb2dVertex
 10
63.3502850915843
 20
121.3674273242588
 30
0.0
  0
VERTEX
  5
328
330
2F7
100
AcDbEntity
  8
GRAU_10_
 62
     7
100
AcDbVertex
100
AcDb2dVertex
 10
63.36333786935891
 20
121.3825967686997
 30
0.0
  0
VERTEX
  5
329
330
2F7
100
AcDbEntity
  8
GRAU_10_
 62
     7
100
AcDbVertex
100
AcDb2dVertex
 10
63.37639064713319
 20
121.3977662131402
 30
0.0
  0
VERTEX
  5
32A
330
2F7
100
AcDbEntity
  8
GRAU_10_
 62
     7
100
AcDbVertex
100
AcDb2dVertex
 10
63.38979620268556
 20
121.4129356575807
 30
0.0
  0
VERTEX
  5
32B
330
2F7
100
AcDbEntity
  8
GRAU_10_
 62
     7
100
AcDbVertex
100
AcDb2dVertex
 10
63.40249620268241
 20
121.4281051020213
 30
0.0
  0
VERTEX
  5
32C
330
2F7
100
AcDbEntity
  8
GRAU_10_
 62
     7
100
AcDbVertex
100
AcDb2dVertex
 10
63.41554898045701
 20
121.4432745464621
 30
0.0
  0
SEQEND
  5
32D
330
2F7
100
AcDbEntity
  8
GRAU_10_
 62
     7
  0
POLYLINE
  5
32E
330
1F
100
AcDbEntity
  8
GRAU_10_
 62
     7
100
AcDb2dPolyline
 66
     1
 10
0.0
 20
0.0
 30
0.0
  0
VERTEX
  5
32F
330
32E
100
AcDbEntity
  8
GRAU_10_
 62
     7
100
AcDbVertex
100
AcDb2dVertex
 10
61.74444064754143
 20
120.9282189910353
 30
0.0
  0
VERTEX
  5
330
330
32E
100
AcDbEntity
  8
GRAU_10_
 62
     7
100
AcDbVertex
100
AcDb2dVertex
 10
61.75467120309426
 20
120.9370384354774
 30
0.0
  0
VERTEX
  5
331
330
32E
100
AcDbEntity
  8
GRAU_10_
 62
     7
100
AcDbVertex
100
AcDb2dVertex
 10
61.76490175864742
 20
120.9462106576973
 30
0.0
  0
VERTEX
  5
332
330
32E
100
AcDbEntity
  8
GRAU_10_
 62
     7
100
AcDbVertex
100
AcDb2dVertex
 10
61.77513231420026
 20
120.9553828799172
 30
0.0
  0
VERTEX
  5
333
330
32E
100
AcDbEntity
  8
GRAU_10_
 62
     7
100
AcDbVertex
100
AcDb2dVertex
 10
61.78501009197566
 20
120.9642023243596
 30
0.0
  0
VERTEX
  5
334
330
32E
100
AcDbEntity
  8
GRAU_10_
 62
     7
100
AcDbVertex
100
AcDb2dVertex
 10
61.79594620308401
 20
120.9737273243573
 30
0.0
  0
VERTEX
  5
335
330
32E
100
AcDbEntity
  8
GRAU_10_
 62
     7
100
AcDbVertex
100
AcDb2dVertex
 10
61.80652953641461
 20
120.9825467687997
 30
0.0
  0
VERTEX
  5
336
330
32E
100
AcDbEntity
  8
GRAU_10_
 62
     7
100
AcDbVertex
100
AcDb2dVertex
 10
61.81711286974553
 20
120.9920717687973
 30
0.0
  0
VERTEX
  5
337
330
32E
100
AcDbEntity
  8
GRAU_10_
 62
     7
100
AcDbVertex
100
AcDb2dVertex
 10
61.82769620307613
 20
121.0008912132394
 30
0.0
  0
VERTEX
  5
338
330
32E
100
AcDbEntity
  8
GRAU_10_
 62
     7
100
AcDbVertex
100
AcDb2dVertex
 10
61.83863231418449
 20
121.0107689910148
 30
0.0
  0
VERTEX
  5
339
330
32E
100
AcDbEntity
  8
GRAU_10_
 62
     7
100
AcDbVertex
100
AcDb2dVertex
 10
61.84921564751508
 20
121.0195884354569
 30
0.0
  0
VERTEX
  5
33A
330
32E
100
AcDbEntity
  8
GRAU_10_
 62
     7
100
AcDbVertex
100
AcDb2dVertex
 10
61.86015175862345
 20
121.0287606576768
 30
0.0
  0
VERTEX
  5
33B
330
32E
100
AcDbEntity
  8
GRAU_10_
 62
     7
100
AcDbVertex
100
AcDb2dVertex
 10
61.87179342528732
 20
121.0382856576745
 30
0.0
  0
VERTEX
  5
33C
330
32E
100
AcDbEntity
  8
GRAU_10_
 62
     7
100
AcDbVertex
100
AcDb2dVertex
 10
61.88272953639569
 20
121.0471051021166
 30
0.0
  0
VERTEX
  5
33D
330
32E
100
AcDbEntity
  8
GRAU_10_
 62
     7
100
AcDbVertex
100
AcDb2dVertex
 10
61.89401842528181
 20
121.056982879892
 30
0.0
  0
VERTEX
  5
33E
330
32E
100
AcDbEntity
  8
GRAU_10_
 62
     7
100
AcDbVertex
100
AcDb2dVertex
 10
61.90601286972313
 20
121.0658023243341
 30
0.0
  0
VERTEX
  5
33F
330
32E
100
AcDbEntity
  8
GRAU_10_
 62
     7
100
AcDbVertex
100
AcDb2dVertex
 10
61.91694898083149
 20
121.0753273243317
 30
0.0
  0
SEQEND
  5
340
330
32E
100
AcDbEntity
  8
GRAU_10_
 62
     7
  0
POLYLINE
  5
341
330
1F
100
AcDbEntity
  8
GRAU_10_
 62
     7
100
AcDb2dPolyline
 66
     1
 10
0.0
 20
0.0
 30
0.0
  0
VERTEX
  5
342
330
341
100
AcDbEntity
  8
GRAU_10_
 62
     7
100
AcDbVertex
100
AcDb2dVertex
 10
62.93541842502121
 20
117.2656801030622
 30
0.0
  0
VERTEX
  5
343
330
341
100
AcDbEntity
  8
GRAU_10_
 62
     7
100
AcDbVertex
100
AcDb2dVertex
 10
62.89661286947548
 20
117.6068162140879
 30
0.0
  0
VERTEX
  5
344
330
341
100
AcDbEntity
  8
GRAU_10_
 62
     7
100
AcDbVertex
100
AcDb2dVertex
 10
62.85710175837421
 20
117.9465412140029
 30
0.0
  0
VERTEX
  5
345
330
341
100
AcDbEntity
  8
GRAU_10_
 62
     7
100
AcDbVertex
100
AcDb2dVertex
 10
62.81864898060623
 20
118.2855606583627
 30
0.0
  0
VERTEX
  5
346
330
341
100
AcDbEntity
  8
GRAU_10_
 62
     7
100
AcDbVertex
100
AcDb2dVertex
 10
62.78160731394866
 20
118.6214051027229
 30
0.0
  0
VERTEX
  5
347
330
341
100
AcDbEntity
  8
GRAU_10_
 62
     7
100
AcDbVertex
100
AcDb2dVertex
 10
62.74809342506806
 20
118.9540745470846
 30
0.0
  0
VERTEX
  5
348
330
341
100
AcDbEntity
  8
GRAU_10_
 62
     7
100
AcDbVertex
100
AcDb2dVertex
 10
62.71916564729772
 20
119.2828634358909
 30
0.0
  0
VERTEX
  5
349
330
341
100
AcDbEntity
  8
GRAU_10_
 62
     7
100
AcDbVertex
100
AcDb2dVertex
 10
62.69694064730324
 20
119.6053023246994
 30
0.0
  0
VERTEX
  5
34A
330
341
100
AcDbEntity
  8
GRAU_10_
 62
     7
100
AcDbVertex
100
AcDb2dVertex
 10
62.68212398064015
 20
119.9217439912869
 30
0.0
  0
VERTEX
  5
34B
330
341
100
AcDbEntity
  8
GRAU_10_
 62
     7
100
AcDbVertex
100
AcDb2dVertex
 10
62.6793017584187
 20
119.9319745468398
 30
0.0
  0
VERTEX
  5
34C
330
341
100
AcDbEntity
  8
GRAU_10_
 62
     7
100
AcDbVertex
100
AcDb2dVertex
 10
62.67683231397501
 20
119.9425578801707
 30
0.0
  0
VERTEX
  5
34D
330
341
100
AcDbEntity
  8
GRAU_10_
 62
     7
100
AcDbVertex
100
AcDb2dVertex
 10
62.674362869531
 20
119.9524356579461
 30
0.0
  0
VERTEX
  5
34E
330
341
100
AcDbEntity
  8
GRAU_10_
 62
     7
100
AcDbVertex
100
AcDb2dVertex
 10
62.67224620286507
 20
119.9626662134989
 30
0.0
  0
VERTEX
  5
34F
330
341
100
AcDbEntity
  8
GRAU_10_
 62
     7
100
AcDbVertex
100
AcDb2dVertex
 10
62.67012953619882
 20
119.9725439912743
 30
0.0
  0
VERTEX
  5
350
330
341
100
AcDbEntity
  8
GRAU_10_
 62
     7
100
AcDbVertex
100
AcDb2dVertex
 10
62.66801286953257
 20
119.9820689912716
 30
0.0
  0
VERTEX
  5
351
330
341
100
AcDbEntity
  8
GRAU_10_
 62
     7
100
AcDbVertex
100
AcDb2dVertex
 10
62.66589620286665
 20
119.991946769047
 30
0.0
  0
VERTEX
  5
352
330
341
100
AcDbEntity
  8
GRAU_10_
 62
     7
100
AcDbVertex
100
AcDb2dVertex
 10
62.6637795362004
 20
120.0018245468224
 30
0.0
  0
VERTEX
  5
353
330
341
100
AcDbEntity
  8
GRAU_10_
 62
     7
100
AcDbVertex
100
AcDb2dVertex
 10
62.66201564731191
 20
120.0109967690423
 30
0.0
  0
VERTEX
  5
354
330
341
100
AcDbEntity
  8
GRAU_10_
 62
     7
100
AcDbVertex
100
AcDb2dVertex
 10
62.65989898064566
 20
120.0208745468177
 30
0.0
  0
VERTEX
  5
355
330
341
100
AcDbEntity
  8
GRAU_10_
 62
     7
100
AcDbVertex
100
AcDb2dVertex
 10
62.65778231397974
 20
120.0303995468153
 30
0.0
  0
VERTEX
  5
356
330
341
100
AcDbEntity
  8
GRAU_10_
 62
     7
100
AcDbVertex
100
AcDb2dVertex
 10
62.65601842509125
 20
120.0392189912574
 30
0.0
  0
VERTEX
  5
357
330
341
100
AcDbEntity
  8
GRAU_10_
 62
     7
100
AcDbVertex
100
AcDb2dVertex
 10
62.65425453620276
 20
120.0483912134773
 30
0.0
  0
VERTEX
  5
358
330
341
100
AcDbEntity
  8
GRAU_10_
 62
     7
100
AcDbVertex
100
AcDb2dVertex
 10
62.65284342509204
 20
120.0579162134749
 30
0.0
  0
VERTEX
  5
359
330
341
100
AcDbEntity
  8
GRAU_10_
 62
     7
100
AcDbVertex
100
AcDb2dVertex
 10
62.65143231398132
 20
120.0663828801396
 30
0.0
  0
VERTEX
  5
35A
330
341
100
AcDbEntity
  8
GRAU_10_
 62
     7
100
AcDbVertex
100
AcDb2dVertex
 10
62.64931564731507
 20
120.0755551023595
 30
0.0
  0
VERTEX
  5
35B
330
341
100
AcDbEntity
  8
GRAU_10_
 62
     7
100
AcDbVertex
100
AcDb2dVertex
 10
62.64790453620434
 20
120.0840217690241
 30
0.0
  0
VERTEX
  5
35C
330
341
100
AcDbEntity
  8
GRAU_10_
 62
     7
100
AcDbVertex
100
AcDb2dVertex
 10
62.64684620287138
 20
120.093193991244
 30
0.0
  0
VERTEX
  5
35D
330
341
100
AcDbEntity
  8
GRAU_10_
 62
     7
100
AcDbVertex
100
AcDb2dVertex
 10
62.6450823139829
 20
120.1020134356861
 30
0.0
  0
VERTEX
  5
35E
330
341
100
AcDbEntity
  8
GRAU_10_
 62
     7
100
AcDbVertex
100
AcDb2dVertex
 10
62.64367120287217
 20
120.1104801023508
 30
0.0
  0
VERTEX
  5
35F
330
341
100
AcDbEntity
  8
GRAU_10_
 62
     7
100
AcDbVertex
100
AcDb2dVertex
 10
62.64261286953889
 20
120.1189467690155
 30
0.0
  0
VERTEX
  5
360
330
341
100
AcDbEntity
  8
GRAU_10_
 62
     7
100
AcDbVertex
100
AcDb2dVertex
 10
62.64084898065072
 20
120.1270606579021
 30
0.0
  0
VERTEX
  5
361
330
341
100
AcDbEntity
  8
GRAU_10_
 62
     7
100
AcDbVertex
100
AcDb2dVertex
 10
62.6401434250952
 20
120.1355273245667
 30
0.0
  0
VERTEX
  5
362
330
341
100
AcDbEntity
  8
GRAU_10_
 62
     7
100
AcDbVertex
100
AcDb2dVertex
 10
62.63873231398447
 20
120.1432884356759
 30
0.0
  0
VERTEX
  5
363
330
341
100
AcDbEntity
  8
GRAU_10_
 62
     7
100
AcDbVertex
100
AcDb2dVertex
 10
62.63802675842895
 20
120.1514023245628
 30
0.0
  0
VERTEX
  5
364
330
341
100
AcDbEntity
  8
GRAU_10_
 62
     7
100
AcDbVertex
100
AcDb2dVertex
 10
62.63661564731822
 20
120.1598689912275
 30
0.0
  0
VERTEX
  5
365
330
341
100
AcDbEntity
  8
GRAU_10_
 62
     7
100
AcDbVertex
100
AcDb2dVertex
 10
62.63591009176302
 20
120.1676301023366
 30
0.0
  0
VERTEX
  5
366
330
341
100
AcDbEntity
  8
GRAU_10_
 62
     7
100
AcDbVertex
100
AcDb2dVertex
 10
62.6344989806523
 20
120.175038435668
 30
0.0
  0
VERTEX
  5
367
330
341
100
AcDbEntity
  8
GRAU_10_
 62
     7
100
AcDbVertex
100
AcDb2dVertex
 10
62.63379342509678
 20
120.1831523245549
 30
0.0
  0
VERTEX
  5
368
330
341
100
AcDbEntity
  8
GRAU_10_
 62
     7
100
AcDbVertex
100
AcDb2dVertex
 10
62.63273509176381
 20
120.1905606578863
 30
0.0
  0
VERTEX
  5
369
330
341
100
AcDbEntity
  8
GRAU_10_
 62
     7
100
AcDbVertex
100
AcDb2dVertex
 10
62.63202953620829
 20
120.1986745467732
 30
0.0
  0
VERTEX
  5
36A
330
341
100
AcDbEntity
  8
GRAU_10_
 62
     7
100
AcDbVertex
100
AcDb2dVertex
 10
62.63097120287532
 20
120.2057301023268
 30
0.0
  0
VERTEX
  5
36B
330
341
100
AcDbEntity
  8
GRAU_10_
 62
     7
100
AcDbVertex
100
AcDb2dVertex
 10
62.6302656473198
 20
120.2134912134363
 30
0.0
  0
VERTEX
  5
36C
330
341
100
AcDbEntity
  8
GRAU_10_
 62
     7
100
AcDbVertex
100
AcDb2dVertex
 10
62.62991286954204
 20
120.2208995467677
 30
0.0
  0
VERTEX
  5
36D
330
341
100
AcDbEntity
  8
GRAU_10_
 62
     7
100
AcDbVertex
100
AcDb2dVertex
 10
62.62885453620908
 20
120.2276023245439
 30
0.0
  0
VERTEX
  5
36E
330
341
100
AcDbEntity
  8
GRAU_10_
 62
     7
100
AcDbVertex
100
AcDb2dVertex
 10
62.62814898065388
 20
120.2350106578753
 30
0.0
  0
VERTEX
  5
36F
330
341
100
AcDbEntity
  8
GRAU_10_
 62
     7
100
AcDbVertex
100
AcDb2dVertex
 10
62.62814898065388
 20
120.242418991207
 30
0.0
  0
VERTEX
  5
370
330
341
100
AcDbEntity
  8
GRAU_10_
 62
     7
100
AcDbVertex
100
AcDb2dVertex
 10
62.62744342509835
 20
120.2494745467606
 30
0.0
  0
SEQEND
  5
371
330
341
100
AcDbEntity
  8
GRAU_10_
 62
     7
  0
POLYLINE
  5
372
330
1F
100
AcDbEntity
  8
GRAU_10_
 62
     7
100
AcDb2dPolyline
 66
     1
 10
0.0
 20
0.0
 30
0.0
  0
VERTEX
  5
373
330
372
100
AcDbEntity
  8
GRAU_10_
 62
     7
100
AcDbVertex
100
AcDb2dVertex
 10
63.33617398047673
 20
119.9228023246199
 30
0.0
  0
VERTEX
  5
374
330
372
100
AcDbEntity
  8
GRAU_10_
 62
     7
100
AcDbVertex
100
AcDb2dVertex
 10
63.33405731381048
 20
119.9238606579532
 30
0.0
  0
VERTEX
  5
375
330
372
100
AcDbEntity
  8
GRAU_10_
 62
     7
100
AcDbVertex
100
AcDb2dVertex
 10
63.33229342492199
 20
119.9245662135084
 30
0.0
  0
VERTEX
  5
376
330
372
100
AcDbEntity
  8
GRAU_10_
 62
     7
100
AcDbVertex
100
AcDb2dVertex
 10
63.33017675825607
 20
119.9256245468413
 30
0.0
  0
VERTEX
  5
377
330
372
100
AcDbEntity
  8
GRAU_10_
 62
     7
100
AcDbVertex
100
AcDb2dVertex
 10
63.32806009158982
 20
119.9270356579524
 30
0.0
  0
VERTEX
  5
378
330
372
100
AcDbEntity
  8
GRAU_10_
 62
     7
100
AcDbVertex
100
AcDb2dVertex
 10
63.32594342492357
 20
119.9277412135076
 30
0.0
  0
VERTEX
  5
379
330
372
100
AcDbEntity
  8
GRAU_10_
 62
     7
100
AcDbVertex
100
AcDb2dVertex
 10
63.32347398047988
 20
119.9291523246183
 30
0.0
  0
VERTEX
  5
37A
330
372
100
AcDbEntity
  8
GRAU_10_
 62
     7
100
AcDbVertex
100
AcDb2dVertex
 10
63.32135731381364
 20
119.9302106579516
 30
0.0
  0
VERTEX
  5
37B
330
372
100
AcDbEntity
  8
GRAU_10_
 62
     7
100
AcDbVertex
100
AcDb2dVertex
 10
63.31888786936995
 20
119.9309162135068
 30
0.0
  0
VERTEX
  5
37C
330
372
100
AcDbEntity
  8
GRAU_10_
 62
     7
100
AcDbVertex
100
AcDb2dVertex
 10
63.31571286937073
 20
119.9326801023953
 30
0.0
  0
VERTEX
  5
37D
330
372
100
AcDbEntity
  8
GRAU_10_
 62
     7
100
AcDbVertex
100
AcDb2dVertex
 10
63.31324342492704
 20
119.934091213506
 30
0.0
  0
VERTEX
  5
37E
330
372
100
AcDbEntity
  8
GRAU_10_
 62
     7
100
AcDbVertex
100
AcDb2dVertex
 10
63.31042120270528
 20
119.9347967690612
 30
0.0
  0
VERTEX
  5
37F
330
372
100
AcDbEntity
  8
GRAU_10_
 62
     7
100
AcDbVertex
100
AcDb2dVertex
 10
63.30724620270607
 20
119.9362078801723
 30
0.0
  0
VERTEX
  5
380
330
372
100
AcDbEntity
  8
GRAU_10_
 62
     7
100
AcDbVertex
100
AcDb2dVertex
 10
63.30442398048461
 20
119.9379717690604
 30
0.0
  0
VERTEX
  5
381
330
372
100
AcDbEntity
  8
GRAU_10_
 62
     7
100
AcDbVertex
100
AcDb2dVertex
 10
63.30089620270764
 20
119.9393828801715
 30
0.0
  0
VERTEX
  5
382
330
372
100
AcDbEntity
  8
GRAU_10_
 62
     7
100
AcDbVertex
100
AcDb2dVertex
 10
63.29772120270843
 20
119.9411467690596
 30
0.0
  0
VERTEX
  5
383
330
372
100
AcDbEntity
  8
GRAU_10_
 62
     7
100
AcDbVertex
100
AcDb2dVertex
 10
63.29419342493178
 20
119.9425578801707
 30
0.0
  0
VERTEX
  5
384
330
372
100
AcDbEntity
  8
GRAU_10_
 62
     7
100
AcDbVertex
100
AcDb2dVertex
 10
63.29101842493257
 20
119.9443217690589
 30
0.0
  0
VERTEX
  5
385
330
372
100
AcDbEntity
  8
GRAU_10_
 62
     7
100
AcDbVertex
100
AcDb2dVertex
 10
63.28713786937783
 20
119.9460856579477
 30
0.0
  0
VERTEX
  5
386
330
372
100
AcDbEntity
  8
GRAU_10_
 62
     7
100
AcDbVertex
100
AcDb2dVertex
 10
63.28325731382342
 20
119.9478495468358
 30
0.0
  0
VERTEX
  5
387
330
372
100
AcDbEntity
  8
GRAU_10_
 62
     7
100
AcDbVertex
100
AcDb2dVertex
 10
63.27937675826868
 20
119.9496134357243
 30
0.0
  0
VERTEX
  5
388
330
372
100
AcDbEntity
  8
GRAU_10_
 62
     7
100
AcDbVertex
100
AcDb2dVertex
 10
63.27514342493651
 20
119.9513773246128
 30
0.0
  0
VERTEX
  5
389
330
372
100
AcDbEntity
  8
GRAU_10_
 62
     7
100
AcDbVertex
100
AcDb2dVertex
 10
63.27126286938178
 20
119.9531412135013
 30
0.0
  0
VERTEX
  5
38A
330
372
100
AcDbEntity
  8
GRAU_10_
 62
     7
100
AcDbVertex
100
AcDb2dVertex
 10
63.2670295360496
 20
119.9556106579453
 30
0.0
  0
VERTEX
  5
38B
330
372
100
AcDbEntity
  8
GRAU_10_
 62
     7
100
AcDbVertex
100
AcDb2dVertex
 10
63.26244342493966
 20
119.9577273246112
 30
0.0
  0
VERTEX
  5
38C
330
372
100
AcDbEntity
  8
GRAU_10_
 62
     7
100
AcDbVertex
100
AcDb2dVertex
 10
63.25821009160749
 20
119.9594912134997
 30
0.0
  0
VERTEX
  5
38D
330
372
100
AcDbEntity
  8
GRAU_10_
 62
     7
100
AcDbVertex
100
AcDb2dVertex
 10
63.25397675827499
 20
119.961607880166
 30
0.0
  0
VERTEX
  5
38E
330
372
100
AcDbEntity
  8
GRAU_10_
 62
     7
100
AcDbVertex
100
AcDb2dVertex
 10
63.24939064716506
 20
119.9640773246096
 30
0.0
  0
VERTEX
  5
38F
330
372
100
AcDbEntity
  8
GRAU_10_
 62
     7
100
AcDbVertex
100
AcDb2dVertex
 10
63.2440989804996
 20
119.9661939912759
 30
0.0
  0
VERTEX
  5
390
330
372
100
AcDbEntity
  8
GRAU_10_
 62
     7
100
AcDbVertex
100
AcDb2dVertex
 10
63.23951286938966
 20
119.9683106579421
 30
0.0
  0
VERTEX
  5
391
330
372
100
AcDbEntity
  8
GRAU_10_
 62
     7
100
AcDbVertex
100
AcDb2dVertex
 10
63.23457398050196
 20
119.9704273246081
 30
0.0
  0
VERTEX
  5
392
330
372
100
AcDbEntity
  8
GRAU_10_
 62
     7
100
AcDbVertex
100
AcDb2dVertex
 10
63.22928231383683
 20
119.9732495468295
 30
0.0
  0
VERTEX
  5
393
330
372
100
AcDbEntity
  8
GRAU_10_
 62
     7
100
AcDbVertex
100
AcDb2dVertex
 10
63.22434342494913
 20
119.9753662134958
 30
0.0
  0
VERTEX
  5
394
330
372
100
AcDbEntity
  8
GRAU_10_
 62
     7
100
AcDbVertex
100
AcDb2dVertex
 10
63.21869898050623
 20
119.9781884357172
 30
0.0
  0
VERTEX
  5
395
330
372
100
AcDbEntity
  8
GRAU_10_
 62
     7
100
AcDbVertex
100
AcDb2dVertex
 10
63.21376009161853
 20
119.9803051023835
 30
0.0
  0
VERTEX
  5
396
330
372
100
AcDbEntity
  8
GRAU_10_
 62
     7
100
AcDbVertex
100
AcDb2dVertex
 10
63.20776286939787
 20
119.9831273246049
 30
0.0
  0
VERTEX
  5
397
330
372
100
AcDbEntity
  8
GRAU_10_
 62
     7
100
AcDbVertex
100
AcDb2dVertex
 10
63.20211842495465
 20
119.9855967690486
 30
0.0
  0
VERTEX
  5
398
330
372
100
AcDbEntity
  8
GRAU_10_
 62
     7
100
AcDbVertex
100
AcDb2dVertex
 10
63.19682675828919
 20
119.9884189912701
 30
0.0
  0
VERTEX
  5
399
330
372
100
AcDbEntity
  8
GRAU_10_
 62
     7
100
AcDbVertex
100
AcDb2dVertex
 10
63.19082953606853
 20
119.9912412134918
 30
0.0
  0
VERTEX
  5
39A
330
372
100
AcDbEntity
  8
GRAU_10_
 62
     7
100
AcDbVertex
100
AcDb2dVertex
 10
63.18483231384786
 20
119.9937106579355
 30
0.0
  0
VERTEX
  5
39B
330
372
100
AcDbEntity
  8
GRAU_10_
 62
     7
100
AcDbVertex
100
AcDb2dVertex
 10
63.17848231384944
 20
119.9968856579347
 30
0.0
  0
VERTEX
  5
39C
330
372
100
AcDbEntity
  8
GRAU_10_
 62
     7
100
AcDbVertex
100
AcDb2dVertex
 10
63.17248509162878
 20
119.9997078801565
 30
0.0
  0
VERTEX
  5
39D
330
372
100
AcDbEntity
  8
GRAU_10_
 62
     7
100
AcDbVertex
100
AcDb2dVertex
 10
63.16613509163036
 20
120.0021773246002
 30
0.0
  0
VERTEX
  5
39E
330
372
100
AcDbEntity
  8
GRAU_10_
 62
     7
100
AcDbVertex
100
AcDb2dVertex
 10
63.15978509163194
 20
120.0053523245994
 30
0.0
  0
VERTEX
  5
39F
330
372
100
AcDbEntity
  8
GRAU_10_
 62
     7
100
AcDbVertex
100
AcDb2dVertex
 10
63.15343509163351
 20
120.0085273245986
 30
0.0
  0
VERTEX
  5
3A0
330
372
100
AcDbEntity
  8
GRAU_10_
 62
     7
100
AcDbVertex
100
AcDb2dVertex
 10
63.14708509163509
 20
120.0117023245978
 30
0.0
  0
VERTEX
  5
3A1
330
372
100
AcDbEntity
  8
GRAU_10_
 62
     7
100
AcDbVertex
100
AcDb2dVertex
 10
63.14038231385891
 20
120.0141717690415
 30
0.0
  0
VERTEX
  5
3A2
330
372
100
AcDbEntity
  8
GRAU_10_
 62
     7
100
AcDbVertex
100
AcDb2dVertex
 10
63.13297398052752
 20
120.0173467690407
 30
0.0
  0
VERTEX
  5
3A3
330
372
100
AcDbEntity
  8
GRAU_10_
 62
     7
100
AcDbVertex
100
AcDb2dVertex
 10
63.12627120275133
 20
120.0208745468177
 30
0.0
  0
VERTEX
  5
3A4
330
372
100
AcDbEntity
  8
GRAU_10_
 62
     7
100
AcDbVertex
100
AcDb2dVertex
 10
63.11956842497548
 20
120.0240495468169
 30
0.0
  0
VERTEX
  5
3A5
330
372
100
AcDbEntity
  8
GRAU_10_
 62
     7
100
AcDbVertex
100
AcDb2dVertex
 10
63.11251286942153
 20
120.0275773245939
 30
0.0
  0
VERTEX
  5
3A6
330
372
100
AcDbEntity
  8
GRAU_10_
 62
     7
100
AcDbVertex
100
AcDb2dVertex
 10
63.10510453609014
 20
120.0307523245931
 30
0.0
  0
VERTEX
  5
3A7
330
372
100
AcDbEntity
  8
GRAU_10_
 62
     7
100
AcDbVertex
100
AcDb2dVertex
 10
63.0980489805362
 20
120.0339273245923
 30
0.0
  0
VERTEX
  5
3A8
330
372
100
AcDbEntity
  8
GRAU_10_
 62
     7
100
AcDbVertex
100
AcDb2dVertex
 10
63.09028786942705
 20
120.0374551023693
 30
0.0
  0
VERTEX
  5
3A9
330
372
100
AcDbEntity
  8
GRAU_10_
 62
     7
100
AcDbVertex
100
AcDb2dVertex
 10
63.08323231387342
 20
120.0409828801459
 30
0.0
  0
VERTEX
  5
3AA
330
372
100
AcDbEntity
  8
GRAU_10_
 62
     7
100
AcDbVertex
100
AcDb2dVertex
 10
63.07547120276428
 20
120.0445106579229
 30
0.0
  0
VERTEX
  5
3AB
330
372
100
AcDbEntity
  8
GRAU_10_
 62
     7
100
AcDbVertex
100
AcDb2dVertex
 10
63.06771009165481
 20
120.0476856579221
 30
0.0
  0
VERTEX
  5
3AC
330
372
100
AcDbEntity
  8
GRAU_10_
 62
     7
100
AcDbVertex
100
AcDb2dVertex
 10
63.05959620276822
 20
120.0512134356991
 30
0.0
  0
VERTEX
  5
3AD
330
372
100
AcDbEntity
  8
GRAU_10_
 62
     7
100
AcDbVertex
100
AcDb2dVertex
 10
63.05218786943651
 20
120.0547412134757
 30
0.0
  0
VERTEX
  5
3AE
330
372
100
AcDbEntity
  8
GRAU_10_
 62
     7
100
AcDbVertex
100
AcDb2dVertex
 10
63.04407398054961
 20
120.0582689912527
 30
0.0
  0
VERTEX
  5
3AF
330
372
100
AcDbEntity
  8
GRAU_10_
 62
     7
100
AcDbVertex
100
AcDb2dVertex
 10
63.03596009166301
 20
120.0625023245852
 30
0.0
  0
VERTEX
  5
3B0
330
372
100
AcDbEntity
  8
GRAU_10_
 62
     7
100
AcDbVertex
100
AcDb2dVertex
 10
63.0278462027761
 20
120.0660301023622
 30
0.0
  0
VERTEX
  5
3B1
330
372
100
AcDbEntity
  8
GRAU_10_
 62
     7
100
AcDbVertex
100
AcDb2dVertex
 10
63.01973231388919
 20
120.0699106579166
 30
0.0
  0
VERTEX
  5
3B2
330
372
100
AcDbEntity
  8
GRAU_10_
 62
     7
100
AcDbVertex
100
AcDb2dVertex
 10
63.01126564722453
 20
120.0734384356932
 30
0.0
  0
VERTEX
  5
3B3
330
372
100
AcDbEntity
  8
GRAU_10_
 62
     7
100
AcDbVertex
100
AcDb2dVertex
 10
63.00350453611538
 20
120.077318991248
 30
0.0
  0
VERTEX
  5
3B4
330
372
100
AcDbEntity
  8
GRAU_10_
 62
     7
100
AcDbVertex
100
AcDb2dVertex
 10
62.99503786945102
 20
120.0815523245805
 30
0.0
  0
VERTEX
  5
3B5
330
372
100
AcDbEntity
  8
GRAU_10_
 62
     7
100
AcDbVertex
100
AcDb2dVertex
 10
62.98657120278636
 20
120.0850801023571
 30
0.0
  0
VERTEX
  5
3B6
330
372
100
AcDbEntity
  8
GRAU_10_
 62
     7
100
AcDbVertex
100
AcDb2dVertex
 10
62.97775175834425
 20
120.0889606579119
 30
0.0
  0
VERTEX
  5
3B7
330
372
100
AcDbEntity
  8
GRAU_10_
 62
     7
100
AcDbVertex
100
AcDb2dVertex
 10
62.96893231390181
 20
120.093193991244
 30
0.0
  0
VERTEX
  5
3B8
330
372
100
AcDbEntity
  8
GRAU_10_
 62
     7
100
AcDbVertex
100
AcDb2dVertex
 10
62.96046564723746
 20
120.0970745467988
 30
0.0
  0
VERTEX
  5
3B9
330
372
100
AcDbEntity
  8
GRAU_10_
 62
     7
100
AcDbVertex
100
AcDb2dVertex
 10
62.95164620279503
 20
120.1006023245757
 30
0.0
  0
VERTEX
  5
3BA
330
372
100
AcDbEntity
  8
GRAU_10_
 62
     7
100
AcDbVertex
100
AcDb2dVertex
 10
62.94317953613068
 20
120.1051884356853
 30
0.0
  0
VERTEX
  5
3BB
330
372
100
AcDbEntity
  8
GRAU_10_
 62
     7
100
AcDbVertex
100
AcDb2dVertex
 10
62.93436009168825
 20
120.1090689912401
 30
0.0
  0
VERTEX
  5
3BC
330
372
100
AcDbEntity
  8
GRAU_10_
 62
     7
100
AcDbVertex
100
AcDb2dVertex
 10
62.92518786946837
 20
120.1129495467948
 30
0.0
  0
VERTEX
  5
3BD
330
372
100
AcDbEntity
  8
GRAU_10_
 62
     7
100
AcDbVertex
100
AcDb2dVertex
 10
62.91601564724851
 20
120.117182880127
 30
0.0
  0
VERTEX
  5
3BE
330
372
100
AcDbEntity
  8
GRAU_10_
 62
     7
100
AcDbVertex
100
AcDb2dVertex
 10
62.90754898058383
 20
120.1210634356814
 30
0.0
  0
VERTEX
  5
3BF
330
372
100
AcDbEntity
  8
GRAU_10_
 62
     7
100
AcDbVertex
100
AcDb2dVertex
 10
62.89837675836396
 20
120.1256495467917
 30
0.0
  0
VERTEX
  5
3C0
330
372
100
AcDbEntity
  8
GRAU_10_
 62
     7
100
AcDbVertex
100
AcDb2dVertex
 10
62.88885175836633
 20
120.1295301023461
 30
0.0
  0
VERTEX
  5
3C1
330
372
100
AcDbEntity
  8
GRAU_10_
 62
     7
100
AcDbVertex
100
AcDb2dVertex
 10
62.88038509170165
 20
120.1337634356782
 30
0.0
  0
VERTEX
  5
3C2
330
372
100
AcDbEntity
  8
GRAU_10_
 62
     7
100
AcDbVertex
100
AcDb2dVertex
 10
62.87121286948178
 20
120.137643991233
 30
0.0
  0
VERTEX
  5
3C3
330
372
100
AcDbEntity
  8
GRAU_10_
 62
     7
100
AcDbVertex
100
AcDb2dVertex
 10
62.86168786948415
 20
120.1422301023429
 30
0.0
  0
VERTEX
  5
3C4
330
372
100
AcDbEntity
  8
GRAU_10_
 62
     7
100
AcDbVertex
100
AcDb2dVertex
 10
62.85251564726428
 20
120.1461106578973
 30
0.0
  0
VERTEX
  5
3C5
330
372
100
AcDbEntity
  8
GRAU_10_
 62
     7
100
AcDbVertex
100
AcDb2dVertex
 10
62.84299064726664
 20
120.1506967690076
 30
0.0
  0
VERTEX
  5
3C6
330
372
100
AcDbEntity
  8
GRAU_10_
 62
     7
100
AcDbVertex
100
AcDb2dVertex
 10
62.83417120282453
 20
120.154577324562
 30
0.0
  0
VERTEX
  5
3C7
330
372
100
AcDbEntity
  8
GRAU_10_
 62
     7
100
AcDbVertex
100
AcDb2dVertex
 10
62.82499898060466
 20
120.1591634356719
 30
0.0
  0
VERTEX
  5
3C8
330
372
100
AcDbEntity
  8
GRAU_10_
 62
     7
100
AcDbVertex
100
AcDb2dVertex
 10
62.81547398060702
 20
120.1630439912267
 30
0.0
  0
VERTEX
  5
3C9
330
372
100
AcDbEntity
  8
GRAU_10_
 62
     7
100
AcDbVertex
100
AcDb2dVertex
 10
62.80665453616459
 20
120.1676301023366
 30
0.0
  0
VERTEX
  5
3CA
330
372
100
AcDbEntity
  8
GRAU_10_
 62
     7
100
AcDbVertex
100
AcDb2dVertex
 10
62.7967767583892
 20
120.171510657891
 30
0.0
  0
VERTEX
  5
3CB
330
372
100
AcDbEntity
  8
GRAU_10_
 62
     7
100
AcDbVertex
100
AcDb2dVertex
 10
62.78795731394708
 20
120.1760967690013
 30
0.0
  0
VERTEX
  5
3CC
330
372
100
AcDbEntity
  8
GRAU_10_
 62
     7
100
AcDbVertex
100
AcDb2dVertex
 10
62.77878509172722
 20
120.1799773245557
 30
0.0
  0
VERTEX
  5
3CD
330
372
100
AcDbEntity
  8
GRAU_10_
 62
     7
100
AcDbVertex
100
AcDb2dVertex
 10
62.76926009172958
 20
120.1845634356656
 30
0.0
  0
VERTEX
  5
3CE
330
372
100
AcDbEntity
  8
GRAU_10_
 62
     7
100
AcDbVertex
100
AcDb2dVertex
 10
62.76044064728747
 20
120.1884439912204
 30
0.0
  0
VERTEX
  5
3CF
330
372
100
AcDbEntity
  8
GRAU_10_
 62
     7
100
AcDbVertex
100
AcDb2dVertex
 10
62.75091564728983
 20
120.1923245467748
 30
0.0
  0
VERTEX
  5
3D0
330
372
100
AcDbEntity
  8
GRAU_10_
 62
     7
100
AcDbVertex
100
AcDb2dVertex
 10
62.74174342506964
 20
120.1969106578847
 30
0.0
  0
VERTEX
  5
3D1
330
372
100
AcDbEntity
  8
GRAU_10_
 62
     7
100
AcDbVertex
100
AcDb2dVertex
 10
62.73292398062753
 20
120.2007912134395
 30
0.0
  0
VERTEX
  5
3D2
330
372
100
AcDbEntity
  8
GRAU_10_
 62
     7
100
AcDbVertex
100
AcDb2dVertex
 10
62.7233989806299
 20
120.2053773245494
 30
0.0
  0
VERTEX
  5
3D3
330
372
100
AcDbEntity
  8
GRAU_10_
 62
     7
100
AcDbVertex
100
AcDb2dVertex
 10
62.71457953618778
 20
120.208905102326
 30
0.0
  0
VERTEX
  5
3D4
330
372
100
AcDbEntity
  8
GRAU_10_
 62
     7
100
AcDbVertex
100
AcDb2dVertex
 10
62.70576009174535
 20
120.2134912134363
 30
0.0
  0
VERTEX
  5
3D5
330
372
100
AcDbEntity
  8
GRAU_10_
 62
     7
100
AcDbVertex
100
AcDb2dVertex
 10
62.69694064730324
 20
120.2173717689907
 30
0.0
  0
VERTEX
  5
3D6
330
372
100
AcDbEntity
  8
GRAU_10_
 62
     7
100
AcDbVertex
100
AcDb2dVertex
 10
62.68776842508337
 20
120.2212523245454
 30
0.0
  0
VERTEX
  5
3D7
330
372
100
AcDbEntity
  8
GRAU_10_
 62
     7
100
AcDbVertex
100
AcDb2dVertex
 10
62.67894898064093
 20
120.2258384356554
 30
0.0
  0
VERTEX
  5
3D8
330
372
100
AcDbEntity
  8
GRAU_10_
 62
     7
100
AcDbVertex
100
AcDb2dVertex
 10
62.67048231397658
 20
120.2293662134324
 30
0.0
  0
VERTEX
  5
3D9
330
372
100
AcDbEntity
  8
GRAU_10_
 62
     7
100
AcDbVertex
100
AcDb2dVertex
 10
62.66201564731191
 20
120.2332467689868
 30
0.0
  0
VERTEX
  5
3DA
330
372
100
AcDbEntity
  8
GRAU_10_
 62
     7
100
AcDbVertex
100
AcDb2dVertex
 10
62.65354898064724
 20
120.2374801023189
 30
0.0
  0
VERTEX
  5
3DB
330
372
100
AcDbEntity
  8
GRAU_10_
 62
     7
100
AcDbVertex
100
AcDb2dVertex
 10
62.6450823139829
 20
120.2413606578737
 30
0.0
  0
VERTEX
  5
3DC
330
372
100
AcDbEntity
  8
GRAU_10_
 62
     7
100
AcDbVertex
100
AcDb2dVertex
 10
62.63661564731822
 20
120.2448884356507
 30
0.0
  0
VERTEX
  5
3DD
330
372
100
AcDbEntity
  8
GRAU_10_
 62
     7
100
AcDbVertex
100
AcDb2dVertex
 10
62.62814898065388
 20
120.2491217689828
 30
0.0
  0
VERTEX
  5
3DE
330
372
100
AcDbEntity
  8
GRAU_10_
 62
     7
100
AcDbVertex
100
AcDb2dVertex
 10
62.62673786954283
 20
120.2561773245365
 30
0.0
  0
VERTEX
  5
3DF
330
372
100
AcDbEntity
  8
GRAU_10_
 62
     7
100
AcDbVertex
100
AcDb2dVertex
 10
62.62638509176539
 20
120.2621745467574
 30
0.0
  0
VERTEX
  5
3E0
330
372
100
AcDbEntity
  8
GRAU_10_
 62
     7
100
AcDbVertex
100
AcDb2dVertex
 10
62.62638509176539
 20
120.2688773245333
 30
0.0
  0
VERTEX
  5
3E1
330
372
100
AcDbEntity
  8
GRAU_10_
 62
     7
100
AcDbVertex
100
AcDb2dVertex
 10
62.62603231398762
 20
120.2752273245317
 30
0.0
  0
VERTEX
  5
3E2
330
372
100
AcDbEntity
  8
GRAU_10_
 62
     7
100
AcDbVertex
100
AcDb2dVertex
 10
62.62567953620987
 20
120.2819301023079
 30
0.0
  0
VERTEX
  5
3E3
330
372
100
AcDbEntity
  8
GRAU_10_
 62
     7
100
AcDbVertex
100
AcDb2dVertex
 10
62.62567953620987
 20
120.2882801023063
 30
0.0
  0
VERTEX
  5
3E4
330
372
100
AcDbEntity
  8
GRAU_10_
 62
     7
100
AcDbVertex
100
AcDb2dVertex
 10
62.62497398065466
 20
120.294277324527
 30
0.0
  0
VERTEX
  5
3E5
330
372
100
AcDbEntity
  8
GRAU_10_
 62
     7
100
AcDbVertex
100
AcDb2dVertex
 10
62.62497398065466
 20
120.3006273245254
 30
0.0
  0
VERTEX
  5
3E6
330
372
100
AcDbEntity
  8
GRAU_10_
 62
     7
100
AcDbVertex
100
AcDb2dVertex
 10
62.62497398065466
 20
120.3069773245238
 30
0.0
  0
VERTEX
  5
3E7
330
372
100
AcDbEntity
  8
GRAU_10_
 62
     7
100
AcDbVertex
100
AcDb2dVertex
 10
62.6246212028769
 20
120.312621768967
 30
0.0
  0
VERTEX
  5
3E8
330
372
100
AcDbEntity
  8
GRAU_10_
 62
     7
100
AcDbVertex
100
AcDb2dVertex
 10
62.6246212028769
 20
120.3189717689655
 30
0.0
  0
VERTEX
  5
3E9
330
372
100
AcDbEntity
  8
GRAU_10_
 62
     7
100
AcDbVertex
100
AcDb2dVertex
 10
62.6246212028769
 20
120.3246162134084
 30
0.0
  0
VERTEX
  5
3EA
330
372
100
AcDbEntity
  8
GRAU_10_
 62
     7
100
AcDbVertex
100
AcDb2dVertex
 10
62.6246212028769
 20
120.3309662134068
 30
0.0
  0
VERTEX
  5
3EB
330
372
100
AcDbEntity
  8
GRAU_10_
 62
     7
100
AcDbVertex
100
AcDb2dVertex
 10
62.62497398065466
 20
120.33661065785
 30
0.0
  0
VERTEX
  5
3EC
330
372
100
AcDbEntity
  8
GRAU_10_
 62
     7
100
AcDbVertex
100
AcDb2dVertex
 10
62.62497398065466
 20
120.3426078800707
 30
0.0
  0
VERTEX
  5
3ED
330
372
100
AcDbEntity
  8
GRAU_10_
 62
     7
100
AcDbVertex
100
AcDb2dVertex
 10
62.62567953620987
 20
120.3482523245136
 30
0.0
  0
VERTEX
  5
3EE
330
372
100
AcDbEntity
  8
GRAU_10_
 62
     7
100
AcDbVertex
100
AcDb2dVertex
 10
62.62567953620987
 20
120.3542495467342
 30
0.0
  0
VERTEX
  5
3EF
330
372
100
AcDbEntity
  8
GRAU_10_
 62
     7
100
AcDbVertex
100
AcDb2dVertex
 10
62.62603231398762
 20
120.3598939911775
 30
0.0
  0
VERTEX
  5
3F0
330
372
100
AcDbEntity
  8
GRAU_10_
 62
     7
100
AcDbVertex
100
AcDb2dVertex
 10
62.62603231398762
 20
120.3651856578429
 30
0.0
  0
VERTEX
  5
3F1
330
372
100
AcDbEntity
  8
GRAU_10_
 62
     7
100
AcDbVertex
100
AcDb2dVertex
 10
62.62638509176539
 20
120.3711828800636
 30
0.0
  0
VERTEX
  5
3F2
330
372
100
AcDbEntity
  8
GRAU_10_
 62
     7
100
AcDbVertex
100
AcDb2dVertex
 10
62.62638509176539
 20
120.3764745467287
 30
0.0
  0
VERTEX
  5
3F3
330
372
100
AcDbEntity
  8
GRAU_10_
 62
     7
100
AcDbVertex
100
AcDb2dVertex
 10
62.62673786954283
 20
120.3821189911716
 30
0.0
  0
VERTEX
  5
3F4
330
372
100
AcDbEntity
  8
GRAU_10_
 62
     7
100
AcDbVertex
100
AcDb2dVertex
 10
62.62744342509835
 20
120.3870578800596
 30
0.0
  0
VERTEX
  5
3F5
330
372
100
AcDbEntity
  8
GRAU_10_
 62
     7
100
AcDbVertex
100
AcDb2dVertex
 10
62.62814898065388
 20
120.3923495467248
 30
0.0
  0
VERTEX
  5
3F6
330
372
100
AcDbEntity
  8
GRAU_10_
 62
     7
100
AcDbVertex
100
AcDb2dVertex
 10
62.62814898065388
 20
120.3976412133902
 30
0.0
  0
VERTEX
  5
3F7
330
372
100
AcDbEntity
  8
GRAU_10_
 62
     7
100
AcDbVertex
100
AcDb2dVertex
 10
62.62850175843131
 20
120.4029328800557
 30
0.0
  0
VERTEX
  5
3F8
330
372
100
AcDbEntity
  8
GRAU_10_
 62
     7
100
AcDbVertex
100
AcDb2dVertex
 10
62.6295600917646
 20
120.4085773244986
 30
0.0
  0
VERTEX
  5
3F9
330
372
100
AcDbEntity
  8
GRAU_10_
 62
     7
100
AcDbVertex
100
AcDb2dVertex
 10
62.62991286954204
 20
120.4138689911637
 30
0.0
  0
VERTEX
  5
3FA
330
372
100
AcDbEntity
  8
GRAU_10_
 62
     7
100
AcDbVertex
100
AcDb2dVertex
 10
62.6302656473198
 20
120.4191606578292
 30
0.0
  0
VERTEX
  5
3FB
330
372
100
AcDbEntity
  8
GRAU_10_
 62
     7
100
AcDbVertex
100
AcDb2dVertex
 10
62.63097120287532
 20
120.4240995467169
 30
0.0
  0
VERTEX
  5
3FC
330
372
100
AcDbEntity
  8
GRAU_10_
 62
     7
100
AcDbVertex
100
AcDb2dVertex
 10
62.63202953620829
 20
120.4290384356046
 30
0.0
  0
VERTEX
  5
3FD
330
372
100
AcDbEntity
  8
GRAU_10_
 62
     7
100
AcDbVertex
100
AcDb2dVertex
 10
62.63238231398605
 20
120.4343301022701
 30
0.0
  0
VERTEX
  5
3FE
330
372
100
AcDbEntity
  8
GRAU_10_
 62
     7
100
AcDbVertex
100
AcDb2dVertex
 10
62.63273509176381
 20
120.4392689911574
 30
0.0
  0
VERTEX
  5
3FF
330
372
100
AcDbEntity
  8
GRAU_10_
 62
     7
100
AcDbVertex
100
AcDb2dVertex
 10
62.63414620287453
 20
120.4442078800451
 30
0.0
  0
VERTEX
  5
400
330
372
100
AcDbEntity
  8
GRAU_10_
 62
     7
100
AcDbVertex
100
AcDb2dVertex
 10
62.6344989806523
 20
120.4484412133773
 30
0.0
  0
VERTEX
  5
401
330
372
100
AcDbEntity
  8
GRAU_10_
 62
     7
100
AcDbVertex
100
AcDb2dVertex
 10
62.6352045362075
 20
120.4533801022653
 30
0.0
  0
VERTEX
  5
402
330
372
100
AcDbEntity
  8
GRAU_10_
 62
     7
100
AcDbVertex
100
AcDb2dVertex
 10
62.63626286954046
 20
120.4583189911527
 30
0.0
  0
VERTEX
  5
403
330
372
100
AcDbEntity
  8
GRAU_10_
 62
     7
100
AcDbVertex
100
AcDb2dVertex
 10
62.63696842509599
 20
120.4632578800404
 30
0.0
  0
VERTEX
  5
404
330
372
100
AcDbEntity
  8
GRAU_10_
 62
     7
100
AcDbVertex
100
AcDb2dVertex
 10
62.63802675842895
 20
120.4681967689281
 30
0.0
  0
VERTEX
  5
405
330
372
100
AcDbEntity
  8
GRAU_10_
 62
     7
100
AcDbVertex
100
AcDb2dVertex
 10
62.63873231398447
 20
120.4724301022603
 30
0.0
  0
VERTEX
  5
406
330
372
100
AcDbEntity
  8
GRAU_10_
 62
     7
100
AcDbVertex
100
AcDb2dVertex
 10
62.63943786953967
 20
120.4770162133702
 30
0.0
  0
VERTEX
  5
407
330
372
100
AcDbEntity
  8
GRAU_10_
 62
     7
100
AcDbVertex
100
AcDb2dVertex
 10
62.64084898065072
 20
120.4819551022579
 30
0.0
  0
VERTEX
  5
408
330
372
100
AcDbEntity
  8
GRAU_10_
 62
     7
100
AcDbVertex
100
AcDb2dVertex
 10
62.64155453620592
 20
120.4865412133678
 30
0.0
  0
VERTEX
  5
409
330
372
100
AcDbEntity
  8
GRAU_10_
 62
     7
100
AcDbVertex
100
AcDb2dVertex
 10
62.64296564731664
 20
120.4907745467003
 30
0.0
  0
VERTEX
  5
40A
330
372
100
AcDbEntity
  8
GRAU_10_
 62
     7
100
AcDbVertex
100
AcDb2dVertex
 10
62.64331842509441
 20
120.4957134355877
 30
0.0
  0
VERTEX
  5
40B
330
372
100
AcDbEntity
  8
GRAU_10_
 62
     7
100
AcDbVertex
100
AcDb2dVertex
 10
62.64472953620513
 20
120.4995939911424
 30
0.0
  0
VERTEX
  5
40C
330
372
100
AcDbEntity
  8
GRAU_10_
 62
     7
100
AcDbVertex
100
AcDb2dVertex
 10
62.64543509176065
 20
120.5041801022524
 30
0.0
  0
VERTEX
  5
40D
330
372
100
AcDbEntity
  8
GRAU_10_
 62
     7
100
AcDbVertex
100
AcDb2dVertex
 10
62.64719898064882
 20
120.5087662133623
 30
0.0
  0
VERTEX
  5
40E
330
372
100
AcDbEntity
  8
GRAU_10_
 62
     7
100
AcDbVertex
100
AcDb2dVertex
 10
62.64790453620434
 20
120.5126467689171
 30
0.0
  0
VERTEX
  5
40F
330
372
100
AcDbEntity
  8
GRAU_10_
 62
     7
100
AcDbVertex
100
AcDb2dVertex
 10
62.64931564731507
 20
120.5175856578044
 30
0.0
  0
VERTEX
  5
410
330
372
100
AcDbEntity
  8
GRAU_10_
 62
     7
100
AcDbVertex
100
AcDb2dVertex
 10
62.65002120287059
 20
120.5214662133592
 30
0.0
  0
VERTEX
  5
411
330
372
100
AcDbEntity
  8
GRAU_10_
 62
     7
100
AcDbVertex
100
AcDb2dVertex
 10
62.65143231398132
 20
120.5260523244691
 30
0.0
  0
VERTEX
  5
412
330
372
100
AcDbEntity
  8
GRAU_10_
 62
     7
100
AcDbVertex
100
AcDb2dVertex
 10
62.65284342509204
 20
120.5299328800238
 30
0.0
  0
VERTEX
  5
413
330
372
100
AcDbEntity
  8
GRAU_10_
 62
     7
100
AcDbVertex
100
AcDb2dVertex
 10
62.65390175842501
 20
120.5345189911338
 30
0.0
  0
VERTEX
  5
414
330
372
100
AcDbEntity
  8
GRAU_10_
 62
     7
100
AcDbVertex
100
AcDb2dVertex
 10
62.65531286953573
 20
120.5380467689107
 30
0.0
  0
VERTEX
  5
415
330
372
100
AcDbEntity
  8
GRAU_10_
 62
     7
100
AcDbVertex
100
AcDb2dVertex
 10
62.65637120286902
 20
120.5426328800207
 30
0.0
  0
VERTEX
  5
416
330
372
100
AcDbEntity
  8
GRAU_10_
 62
     7
100
AcDbVertex
100
AcDb2dVertex
 10
62.65778231397974
 20
120.5465134355751
 30
0.0
  0
VERTEX
  5
417
330
372
100
AcDbEntity
  8
GRAU_10_
 62
     7
100
AcDbVertex
100
AcDb2dVertex
 10
62.65919342509046
 20
120.5503939911298
 30
0.0
  0
VERTEX
  5
418
330
372
100
AcDbEntity
  8
GRAU_10_
 62
     7
100
AcDbVertex
100
AcDb2dVertex
 10
62.66025175842343
 20
120.554627324462
 30
0.0
  0
VERTEX
  5
419
330
372
100
AcDbEntity
  8
GRAU_10_
 62
     7
100
AcDbVertex
100
AcDb2dVertex
 10
62.66201564731191
 20
120.5585078800164
 30
0.0
  0
VERTEX
  5
41A
330
372
100
AcDbEntity
  8
GRAU_10_
 62
     7
100
AcDbVertex
100
AcDb2dVertex
 10
62.66342675842264
 20
120.5623884355712
 30
0.0
  0
VERTEX
  5
41B
330
372
100
AcDbEntity
  8
GRAU_10_
 62
     7
100
AcDbVertex
100
AcDb2dVertex
 10
62.6644850917556
 20
120.5666217689036
 30
0.0
  0
VERTEX
  5
41C
330
372
100
AcDbEntity
  8
GRAU_10_
 62
     7
100
AcDbVertex
100
AcDb2dVertex
 10
62.66624898064409
 20
120.5701495466803
 30
0.0
  0
VERTEX
  5
41D
330
372
100
AcDbEntity
  8
GRAU_10_
 62
     7
100
AcDbVertex
100
AcDb2dVertex
 10
62.66766009175481
 20
120.574030102235
 30
0.0
  0
VERTEX
  5
41E
330
372
100
AcDbEntity
  8
GRAU_10_
 62
     7
100
AcDbVertex
100
AcDb2dVertex
 10
62.6687184250881
 20
120.5782634355672
 30
0.0
  0
VERTEX
  5
41F
330
372
100
AcDbEntity
  8
GRAU_10_
 62
     7
100
AcDbVertex
100
AcDb2dVertex
 10
62.67048231397658
 20
120.5817912133442
 30
0.0
  0
VERTEX
  5
420
330
372
100
AcDbEntity
  8
GRAU_10_
 62
     7
100
AcDbVertex
100
AcDb2dVertex
 10
62.67224620286507
 20
120.5853189911212
 30
0.0
  0
VERTEX
  5
421
330
372
100
AcDbEntity
  8
GRAU_10_
 62
     7
100
AcDbVertex
100
AcDb2dVertex
 10
62.6736573139758
 20
120.5891995466756
 30
0.0
  0
VERTEX
  5
422
330
372
100
AcDbEntity
  8
GRAU_10_
 62
     7
100
AcDbVertex
100
AcDb2dVertex
 10
62.67471564730876
 20
120.5927273244525
 30
0.0
  0
VERTEX
  5
423
330
372
100
AcDbEntity
  8
GRAU_10_
 62
     7
100
AcDbVertex
100
AcDb2dVertex
 10
62.67647953619725
 20
120.5969606577847
 30
0.0
  0
SEQEND
  5
424
330
372
100
AcDbEntity
  8
GRAU_10_
 62
     7
  0
POLYLINE
  5
425
330
1F
100
AcDbEntity
  8
GRAU_10_
 62
     7
100
AcDb2dPolyline
 66
     1
 10
0.0
 20
0.0
 30
0.0
  0
VERTEX
  5
426
330
425
100
AcDbEntity
  8
GRAU_10_
 62
     7
100
AcDbVertex
100
AcDb2dVertex
 10
72.3288323115619
 20
117.2656801030622
 30
0.0
  0
VERTEX
  5
427
330
425
100
AcDbEntity
  8
GRAU_10_
 62
     7
100
AcDbVertex
100
AcDb2dVertex
 10
72.3288323115619
 20
123.3775551015339
 30
0.0
  0
SEQEND
  5
428
330
425
100
AcDbEntity
  8
GRAU_10_
 62
     7
  0
POLYLINE
  5
429
330
1F
100
AcDbEntity
  8
GRAU_10_
 62
     7
100
AcDb2dPolyline
 66
     1
 10
0.0
 20
0.0
 30
0.0
  0
VERTEX
  5
42A
330
429
100
AcDbEntity
  8
GRAU_10_
 62
     7
100
AcDbVertex
100
AcDb2dVertex
 10
63.32911842492278
 20
123.3775551015339
 30
0.0
  0
VERTEX
  5
42B
330
429
100
AcDbEntity
  8
GRAU_10_
 62
     7
100
AcDbVertex
100
AcDb2dVertex
 10
63.32911842492278
 20
121.9865523241041
 30
0.0
  0
SEQEND
  5
42C
330
429
100
AcDbEntity
  8
GRAU_10_
 62
     7
  0
POLYLINE
  5
42D
330
1F
100
AcDbEntity
  8
GRAU_10_
 62
     7
100
AcDb2dPolyline
 66
     1
 10
0.0
 20
0.0
 30
0.0
  0
VERTEX
  5
42E
330
42D
100
AcDbEntity
  8
GRAU_10_
 62
     7
100
AcDbVertex
100
AcDb2dVertex
 10
65.00057953561613
 20
122.1435384351759
 30
0.0
  0
VERTEX
  5
42F
330
42D
100
AcDbEntity
  8
GRAU_10_
 62
     7
100
AcDbVertex
100
AcDb2dVertex
 10
65.08101286892938
 20
122.1410689907322
 30
0.0
  0
VERTEX
  5
430
330
42D
100
AcDbEntity
  8
GRAU_10_
 62
     7
100
AcDbVertex
100
AcDb2dVertex
 10
65.16144620224263
 20
122.1357773240667
 30
0.0
  0
VERTEX
  5
431
330
42D
100
AcDbEntity
  8
GRAU_10_
 62
     7
100
AcDbVertex
100
AcDb2dVertex
 10
65.2432906466666
 20
122.1266051018468
 30
0.0
  0
VERTEX
  5
432
330
42D
100
AcDbEntity
  8
GRAU_10_
 62
     7
100
AcDbVertex
100
AcDb2dVertex
 10
65.3265462022013
 20
122.11390510185
 30
0.0
  0
VERTEX
  5
433
330
42D
100
AcDbEntity
  8
GRAU_10_
 62
     7
100
AcDbVertex
100
AcDb2dVertex
 10
65.49446842438174
 20
122.0814495463027
 30
0.0
  0
VERTEX
  5
434
330
42D
100
AcDbEntity
  8
GRAU_10_
 62
     7
100
AcDbVertex
100
AcDb2dVertex
 10
65.66697675767179
 20
122.0384106574244
 30
0.0
  0
VERTEX
  5
435
330
42D
100
AcDbEntity
  8
GRAU_10_
 62
     7
100
AcDbVertex
100
AcDb2dVertex
 10
65.71036842432747
 20
122.0257106574276
 30
0.0
  0
VERTEX
  5
436
330
42D
100
AcDbEntity
  8
GRAU_10_
 62
     7
100
AcDbVertex
100
AcDb2dVertex
 10
65.75376009098346
 20
122.0133634352085
 30
0.0
  0
VERTEX
  5
437
330
42D
100
AcDbEntity
  8
GRAU_10_
 62
     7
100
AcDbVertex
100
AcDb2dVertex
 10
65.7975045354169
 20
121.9999578796564
 30
0.0
  0
VERTEX
  5
438
330
42D
100
AcDbEntity
  8
GRAU_10_
 62
     7
100
AcDbVertex
100
AcDb2dVertex
 10
65.84124897985033
 20
121.9865523241041
 30
0.0
  0
VERTEX
  5
439
330
42D
100
AcDbEntity
  8
GRAU_10_
 62
     7
100
AcDbVertex
100
AcDb2dVertex
 10
65.92944342427273
 20
121.9586828796667
 30
0.0
  0
VERTEX
  5
43A
330
42D
100
AcDbEntity
  8
GRAU_10_
 62
     7
100
AcDbVertex
100
AcDb2dVertex
 10
66.0172850909177
 20
121.9286967685628
 30
0.0
  0
VERTEX
  5
43B
330
42D
100
AcDbEntity
  8
GRAU_10_
 62
     7
100
AcDbVertex
100
AcDb2dVertex
 10
66.19402675753992
 20
121.8644912130237
 30
0.0
  0
VERTEX
  5
43C
330
42D
100
AcDbEntity
  8
GRAU_10_
 62
     7
100
AcDbVertex
100
AcDb2dVertex
 10
66.37182675749544
 20
121.7964051019292
 30
0.0
  0
VERTEX
  5
43D
330
42D
100
AcDbEntity
  8
GRAU_10_
 62
     7
100
AcDbVertex
100
AcDb2dVertex
 10
66.551037868562
 20
121.7233801019476
 30
0.0
  0
VERTEX
  5
43E
330
42D
100
AcDbEntity
  8
GRAU_10_
 62
     7
100
AcDbVertex
100
AcDb2dVertex
 10
66.7313073129612
 20
121.6468273241891
 30
0.0
  0
VERTEX
  5
43F
330
42D
100
AcDbEntity
  8
GRAU_10_
 62
     7
100
AcDbVertex
100
AcDb2dVertex
 10
66.82161842404984
 20
121.6069634353101
 30
0.0
  0
VERTEX
  5
440
330
42D
100
AcDbEntity
  8
GRAU_10_
 62
     7
100
AcDbVertex
100
AcDb2dVertex
 10
66.91334064624922
 20
121.5670995464311
 30
0.0
  0
VERTEX
  5
441
330
42D
100
AcDbEntity
  8
GRAU_10_
 62
     7
100
AcDbVertex
100
AcDb2dVertex
 10
67.00435731289306
 20
121.5261773242191
 30
0.0
  0
VERTEX
  5
442
330
42D
100
AcDbEntity
  8
GRAU_10_
 62
     7
100
AcDbVertex
100
AcDb2dVertex
 10
67.09607953509243
 20
121.4845495464516
 30
0.0
  0
VERTEX
  5
443
330
42D
100
AcDbEntity
  8
GRAU_10_
 62
     7
100
AcDbVertex
100
AcDb2dVertex
 10
67.27881842393565
 20
121.4012939909172
 30
0.0
  0
VERTEX
  5
444
330
42D
100
AcDbEntity
  8
GRAU_10_
 62
     7
100
AcDbVertex
100
AcDb2dVertex
 10
67.4619100905563
 20
121.316274546494
 30
0.0
  0
VERTEX
  5
445
330
42D
100
AcDbEntity
  8
GRAU_10_
 62
     7
100
AcDbVertex
100
AcDb2dVertex
 10
67.5532795349779
 20
121.272882879838
 30
0.0
  0
VERTEX
  5
446
330
42D
100
AcDbEntity
  8
GRAU_10_
 62
     7
100
AcDbVertex
100
AcDb2dVertex
 10
67.64500175717728
 20
121.2298439909598
 30
0.0
  0
VERTEX
  5
447
330
42D
100
AcDbEntity
  8
GRAU_10_
 62
     7
100
AcDbVertex
100
AcDb2dVertex
 10
67.69121564605473
 20
121.2083245465208
 30
0.0
  0
VERTEX
  5
448
330
42D
100
AcDbEntity
  8
GRAU_10_
 62
     7
100
AcDbVertex
100
AcDb2dVertex
 10
67.73707675715441
 20
121.1864523243041
 30
0.0
  0
VERTEX
  5
449
330
42D
100
AcDbEntity
  8
GRAU_10_
 62
     7
100
AcDbVertex
100
AcDb2dVertex
 10
67.76000731270409
 20
121.1758689909732
 30
0.0
  0
VERTEX
  5
44A
330
42D
100
AcDbEntity
  8
GRAU_10_
 62
     7
100
AcDbVertex
100
AcDb2dVertex
 10
67.78329064603153
 20
121.1652856576429
 30
0.0
  0
VERTEX
  5
44B
330
42D
100
AcDbEntity
  8
GRAU_10_
 62
     7
100
AcDbVertex
100
AcDb2dVertex
 10
67.80622120158154
 20
121.1539967687565
 30
0.0
  0
VERTEX
  5
44C
330
42D
100
AcDbEntity
  8
GRAU_10_
 62
     7
100
AcDbVertex
100
AcDb2dVertex
 10
67.82915175713121
 20
121.1434134354259
 30
0.0
  0
SEQEND
  5
44D
330
42D
100
AcDbEntity
  8
GRAU_10_
 62
     7
  0
POLYLINE
  5
44E
330
1F
100
AcDbEntity
  8
GRAU_10_
 62
     7
100
AcDb2dPolyline
 66
     1
 10
0.0
 20
0.0
 30
0.0
  0
VERTEX
  5
44F
330
44E
100
AcDbEntity
  8
GRAU_10_
 62
     7
100
AcDbVertex
100
AcDb2dVertex
 10
63.32911842492278
 20
121.9865523241041
 30
0.0
  0
VERTEX
  5
450
330
44E
100
AcDbEntity
  8
GRAU_10_
 62
     7
100
AcDbVertex
100
AcDb2dVertex
 10
63.32947120270055
 20
121.9865523241041
 30
0.0
  0
VERTEX
  5
451
330
44E
100
AcDbEntity
  8
GRAU_10_
 62
     7
100
AcDbVertex
100
AcDb2dVertex
 10
63.33052953603383
 20
121.9861995463263
 30
0.0
  0
VERTEX
  5
452
330
44E
100
AcDbEntity
  8
GRAU_10_
 62
     7
100
AcDbVertex
100
AcDb2dVertex
 10
63.33299898047752
 20
121.9851412129934
 30
0.0
  0
VERTEX
  5
453
330
44E
100
AcDbEntity
  8
GRAU_10_
 62
     7
100
AcDbVertex
100
AcDb2dVertex
 10
63.33582120269897
 20
121.9844356574378
 30
0.0
  0
VERTEX
  5
454
330
44E
100
AcDbEntity
  8
GRAU_10_
 62
     7
100
AcDbVertex
100
AcDb2dVertex
 10
63.34428786936364
 20
121.9819662129942
 30
0.0
  0
VERTEX
  5
455
330
44E
100
AcDbEntity
  8
GRAU_10_
 62
     7
100
AcDbVertex
100
AcDb2dVertex
 10
63.35628231380496
 20
121.9794967685501
 30
0.0
  0
VERTEX
  5
456
330
44E
100
AcDbEntity
  8
GRAU_10_
 62
     7
100
AcDbVertex
100
AcDb2dVertex
 10
63.38979620268556
 20
121.972793990774
 30
0.0
  0
VERTEX
  5
457
330
44E
100
AcDbEntity
  8
GRAU_10_
 62
     7
100
AcDbVertex
100
AcDb2dVertex
 10
63.43671564711821
 20
121.9657384352203
 30
0.0
  0
VERTEX
  5
458
330
44E
100
AcDbEntity
  8
GRAU_10_
 62
     7
100
AcDbVertex
100
AcDb2dVertex
 10
63.49598231377026
 20
121.9593884352219
 30
0.0
  0
VERTEX
  5
459
330
44E
100
AcDbEntity
  8
GRAU_10_
 62
     7
100
AcDbVertex
100
AcDb2dVertex
 10
63.5690073137518
 20
121.954802324112
 30
0.0
  0
VERTEX
  5
45A
330
44E
100
AcDbEntity
  8
GRAU_10_
 62
     7
100
AcDbVertex
100
AcDb2dVertex
 10
63.58982120263556
 20
121.9544495463342
 30
0.0
  0
VERTEX
  5
45B
330
44E
100
AcDbEntity
  8
GRAU_10_
 62
     7
100
AcDbVertex
100
AcDb2dVertex
 10
63.61098786929707
 20
121.9540967685565
 30
0.0
  0
VERTEX
  5
45C
330
44E
100
AcDbEntity
  8
GRAU_10_
 62
     7
100
AcDbVertex
100
AcDb2dVertex
 10
63.63250731373603
 20
121.9544495463342
 30
0.0
  0
VERTEX
  5
45D
330
44E
100
AcDbEntity
  8
GRAU_10_
 62
     7
100
AcDbVertex
100
AcDb2dVertex
 10
63.65508509150827
 20
121.954802324112
 30
0.0
  0
VERTEX
  5
45E
330
44E
100
AcDbEntity
  8
GRAU_10_
 62
     7
100
AcDbVertex
100
AcDb2dVertex
 10
63.70306286927388
 20
121.9572717685557
 30
0.0
  0
VERTEX
  5
45F
330
44E
100
AcDbEntity
  8
GRAU_10_
 62
     7
100
AcDbVertex
100
AcDb2dVertex
 10
63.75315731370574
 20
121.9607995463326
 30
0.0
  0
VERTEX
  5
460
330
44E
100
AcDbEntity
  8
GRAU_10_
 62
     7
100
AcDbVertex
100
AcDb2dVertex
 10
63.80642675813682
 20
121.9660912129981
 30
0.0
  0
VERTEX
  5
461
330
44E
100
AcDbEntity
  8
GRAU_10_
 62
     7
100
AcDbVertex
100
AcDb2dVertex
 10
63.86251842478966
 20
121.974205101885
 30
0.0
  0
VERTEX
  5
462
330
44E
100
AcDbEntity
  8
GRAU_10_
 62
     7
100
AcDbVertex
100
AcDb2dVertex
 10
63.92143231366362
 20
121.9830245463271
 30
0.0
  0
VERTEX
  5
463
330
44E
100
AcDbEntity
  8
GRAU_10_
 62
     7
100
AcDbVertex
100
AcDb2dVertex
 10
63.98281564698161
 20
121.994666212991
 30
0.0
  0
VERTEX
  5
464
330
44E
100
AcDbEntity
  8
GRAU_10_
 62
     7
100
AcDbVertex
100
AcDb2dVertex
 10
64.0473739802988
 20
122.0073662129875
 30
0.0
  0
VERTEX
  5
465
330
44E
100
AcDbEntity
  8
GRAU_10_
 62
     7
100
AcDbVertex
100
AcDb2dVertex
 10
64.11475453583776
 20
122.0218301018732
 30
0.0
  0
VERTEX
  5
466
330
44E
100
AcDbEntity
  8
GRAU_10_
 62
     7
100
AcDbVertex
100
AcDb2dVertex
 10
64.18460453582009
 20
122.0369995463137
 30
0.0
  0
VERTEX
  5
467
330
44E
100
AcDbEntity
  8
GRAU_10_
 62
     7
100
AcDbVertex
100
AcDb2dVertex
 10
64.25762953580195
 20
122.052521768532
 30
0.0
  0
VERTEX
  5
468
330
44E
100
AcDbEntity
  8
GRAU_10_
 62
     7
100
AcDbVertex
100
AcDb2dVertex
 10
64.33347675800526
 20
122.069455101861
 30
0.0
  0
VERTEX
  5
469
330
44E
100
AcDbEntity
  8
GRAU_10_
 62
     7
100
AcDbVertex
100
AcDb2dVertex
 10
64.41179342465226
 20
122.0849773240796
 30
0.0
  0
VERTEX
  5
46A
330
44E
100
AcDbEntity
  8
GRAU_10_
 62
     7
100
AcDbVertex
100
AcDb2dVertex
 10
64.49293231352104
 20
122.1001467685202
 30
0.0
  0
VERTEX
  5
46B
330
44E
100
AcDbEntity
  8
GRAU_10_
 62
     7
100
AcDbVertex
100
AcDb2dVertex
 10
64.57654064683317
 20
122.11390510185
 30
0.0
  0
VERTEX
  5
46C
330
44E
100
AcDbEntity
  8
GRAU_10_
 62
     7
100
AcDbVertex
100
AcDb2dVertex
 10
64.75081286901204
 20
122.1354245462893
 30
0.0
  0
VERTEX
  5
46D
330
44E
100
AcDbEntity
  8
GRAU_10_
 62
     7
100
AcDbVertex
100
AcDb2dVertex
 10
64.93566842452118
 20
122.1435384351759
 30
0.0
  0
VERTEX
  5
46E
330
44E
100
AcDbEntity
  8
GRAU_10_
 62
     7
100
AcDbVertex
100
AcDb2dVertex
 10
65.00057953561613
 20
122.1435384351759
 30
0.0
  0
SEQEND
  5
46F
330
44E
100
AcDbEntity
  8
GRAU_10_
 62
     7
  0
SPLINE
  5
470
330
1F
100
AcDbEntity
  8
GRAU_10_
 62
     7
100
AcDbSpline
210
0.0
220
0.0
230
1.0
 70
     8
 71
     3
 72
     8
 73
     4
 74
     0
 42
0.0000000001
 43
0.0000000001
 12
1.0
 22
0.0
 32
0.0
 13
1.0
 23
0.0
 33
0.0
 40
0.0
 40
0.0
 40
0.0
 40
0.0
 40
1.0
 40
1.0
 40
1.0
 40
1.0
 10
67.82915175713121
 20
112.765293993076
 30
0.0
 10
70.3141184231766
 20
112.765293993076
 30
0.0
 10
72.3288323115619
 20
114.7800078814613
 30
0.0
 10
72.3288323115619
 20
117.2656801030622
 30
0.0
  0
POLYLINE
  5
471
330
1F
100
AcDbEntity
  8
GRAU_10_
 62
     7
100
AcDb2dPolyline
 66
     1
 10
0.0
 20
0.0
 30
0.0
  0
VERTEX
  5
472
330
471
100
AcDbEntity
  8
GRAU_10_
 62
     7
100
AcDbVertex
100
AcDb2dVertex
 10
71.37880175624377
 20
136.7658245426316
 30
0.0
  0
VERTEX
  5
473
330
471
100
AcDbEntity
  8
GRAU_10_
 62
     7
100
AcDbVertex
100
AcDb2dVertex
 10
71.37880175624377
 20
137.6657606535175
 30
0.0
  0
SEQEND
  5
474
330
471
100
AcDbEntity
  8
GRAU_10_
 62
     7
  0
POLYLINE
  5
475
330
1F
100
AcDbEntity
  8
GRAU_10_
 62
     7
100
AcDb2dPolyline
 66
     1
 10
0.0
 20
0.0
 30
0.0
  0
VERTEX
  5
476
330
475
100
AcDbEntity
  8
GRAU_10_
 62
     7
100
AcDbVertex
100
AcDb2dVertex
 10
64.27879620246314
 20
137.6657606535175
 30
0.0
  0
VERTEX
  5
477
330
475
100
AcDbEntity
  8
GRAU_10_
 62
     7
100
AcDbVertex
100
AcDb2dVertex
 10
64.27879620246314
 20
136.7658245426316
 30
0.0
  0
SEQEND
  5
478
330
475
100
AcDbEntity
  8
GRAU_10_
 62
     7
  0
POLYLINE
  5
479
330
1F
100
AcDbEntity
  8
GRAU_10_
 62
     7
100
AcDb2dPolyline
 66
     1
 10
0.0
 20
0.0
 30
0.0
  0
VERTEX
  5
47A
330
479
100
AcDbEntity
  8
GRAU_10_
 62
     7
100
AcDbVertex
100
AcDb2dVertex
 10
63.43530453600749
 20
121.492310657561
 30
0.0
  0
VERTEX
  5
47B
330
479
100
AcDbEntity
  8
GRAU_10_
 62
     7
100
AcDbVertex
100
AcDb2dVertex
 10
63.54642953597956
 20
121.591088435314
 30
0.0
  0
SEQEND
  5
47C
330
479
100
AcDbEntity
  8
GRAU_10_
 62
     7
  0
POLYLINE
  5
47D
330
1F
100
AcDbEntity
  8
GRAU_10_
 62
     7
100
AcDb2dPolyline
 66
     1
 10
0.0
 20
0.0
 30
0.0
  0
VERTEX
  5
47E
330
47D
100
AcDbEntity
  8
GRAU_10_
 62
     7
100
AcDbVertex
100
AcDb2dVertex
 10
63.78102675814344
 20
121.773121768602
 30
0.0
  0
VERTEX
  5
47F
330
47D
100
AcDbEntity
  8
GRAU_10_
 62
     7
100
AcDbVertex
100
AcDb2dVertex
 10
63.9037934247794
 20
121.8570828796919
 30
0.0
  0
SEQEND
  5
480
330
47D
100
AcDbEntity
  8
GRAU_10_
 62
     7
  0
POLYLINE
  5
481
330
1F
100
AcDbEntity
  8
GRAU_10_
 62
     7
100
AcDb2dPolyline
 66
     1
 10
0.0
 20
0.0
 30
0.0
  0
VERTEX
  5
482
330
481
100
AcDbEntity
  8
GRAU_10_
 62
     7
100
AcDbVertex
100
AcDb2dVertex
 10
63.43495175822972
 20
121.494427324227
 30
0.0
  0
VERTEX
  5
483
330
481
100
AcDbEntity
  8
GRAU_10_
 62
     7
100
AcDbVertex
100
AcDb2dVertex
 10
63.54642953597956
 20
121.5924995464248
 30
0.0
  0
SEQEND
  5
484
330
481
100
AcDbEntity
  8
GRAU_10_
 62
     7
  0
POLYLINE
  5
485
330
1F
100
AcDbEntity
  8
GRAU_10_
 62
     7
100
AcDb2dPolyline
 66
     1
 10
0.0
 20
0.0
 30
0.0
  0
VERTEX
  5
486
330
485
100
AcDbEntity
  8
GRAU_10_
 62
     7
100
AcDbVertex
100
AcDb2dVertex
 10
63.78102675814344
 20
121.773121768602
 30
0.0
  0
VERTEX
  5
487
330
485
100
AcDbEntity
  8
GRAU_10_
 62
     7
100
AcDbVertex
100
AcDb2dVertex
 10
63.9037934247794
 20
121.8570828796919
 30
0.0
  0
SEQEND
  5
488
330
485
100
AcDbEntity
  8
GRAU_10_
 62
     7
  0
POLYLINE
  5
489
330
1F
100
AcDbEntity
  8
GRAU_10_
 62
     7
100
AcDb2dPolyline
 66
     1
 10
0.0
 20
0.0
 30
0.0
  0
VERTEX
  5
48A
330
489
100
AcDbEntity
  8
GRAU_10_
 62
     7
100
AcDbVertex
100
AcDb2dVertex
 10
63.33194064714456
 20
121.9794967685501
 30
0.0
  0
VERTEX
  5
48B
330
489
100
AcDbEntity
  8
GRAU_10_
 62
     7
100
AcDbVertex
100
AcDb2dVertex
 10
63.29172398048777
 20
121.9657384352203
 30
0.0
  0
VERTEX
  5
48C
330
489
100
AcDbEntity
  8
GRAU_10_
 62
     7
100
AcDbVertex
100
AcDb2dVertex
 10
63.2515073138313
 20
121.9519801018905
 30
0.0
  0
SEQEND
  5
48D
330
489
100
AcDbEntity
  8
GRAU_10_
 62
     7
  0
POLYLINE
  5
48E
330
1F
100
AcDbEntity
  8
GRAU_10_
 62
     7
100
AcDb2dPolyline
 66
     1
 10
0.0
 20
0.0
 30
0.0
  0
VERTEX
  5
48F
330
48E
100
AcDbEntity
  8
GRAU_10_
 62
     7
100
AcDbVertex
100
AcDb2dVertex
 10
63.4328350915638
 20
121.495838435338
 30
0.0
  0
VERTEX
  5
490
330
48E
100
AcDbEntity
  8
GRAU_10_
 62
     7
100
AcDbVertex
100
AcDb2dVertex
 10
63.4328350915638
 20
121.4961912131155
 30
0.0
  0
VERTEX
  5
491
330
48E
100
AcDbEntity
  8
GRAU_10_
 62
     7
100
AcDbVertex
100
AcDb2dVertex
 10
63.43248231378603
 20
121.4979551020039
 30
0.0
  0
VERTEX
  5
492
330
48E
100
AcDbEntity
  8
GRAU_10_
 62
     7
100
AcDbVertex
100
AcDb2dVertex
 10
63.43248231378603
 20
121.5000717686702
 30
0.0
  0
VERTEX
  5
493
330
48E
100
AcDbEntity
  8
GRAU_10_
 62
     7
100
AcDbVertex
100
AcDb2dVertex
 10
63.43248231378603
 20
121.5046578797801
 30
0.0
  0
VERTEX
  5
494
330
48E
100
AcDbEntity
  8
GRAU_10_
 62
     7
100
AcDbVertex
100
AcDb2dVertex
 10
63.43248231378603
 20
121.5046578797801
 30
0.0
  0
VERTEX
  5
495
330
48E
100
AcDbEntity
  8
GRAU_10_
 62
     7
100
AcDbVertex
100
AcDb2dVertex
 10
63.43212953600827
 20
121.5064217686686
 30
0.0
  0
VERTEX
  5
496
330
48E
100
AcDbEntity
  8
GRAU_10_
 62
     7
100
AcDbVertex
100
AcDb2dVertex
 10
63.43107120267531
 20
121.512771768667
 30
0.0
  0
SEQEND
  5
497
330
48E
100
AcDbEntity
  8
GRAU_10_
 62
     7
  0
SPLINE
  5
498
330
1F
100
AcDbEntity
  8
GRAU_10_
 62
     7
100
AcDbSpline
210
0.0
220
0.0
230
1.0
 70
     8
 71
     3
 72
   350
 73
   346
 74
     0
 42
0.0000000001
 43
0.0000000001
 12
1.0
 22
0.0
 32
0.0
 13
1.0
 23
0.0
 33
0.0
 40
0.0
 40
0.0
 40
0.0
 40
0.0
 40
1.0
 40
1.0
 40
1.0
 40
2.0
 40
2.0
 40
2.0
 40
3.0
 40
3.0
 40
3.0
 40
4.0
 40
4.0
 40
4.0
 40
5.0
 40
5.0
 40
5.0
 40
6.0
 40
6.0
 40
6.0
 40
7.0
 40
7.0
 40
7.0
 40
8.0
 40
8.0
 40
8.0
 40
9.0
 40
9.0
 40
9.0
 40
10.0
 40
10.0
 40
10.0
 40
11.0
 40
11.0
 40
11.0
 40
12.0
 40
12.0
 40
12.0
 40
13.0
 40
13.0
 40
13.0
 40
14.0
 40
14.0
 40
14.0
 40
15.0
 40
15.0
 40
15.0
 40
16.0
 40
16.0
 40
16.0
 40
17.0
 40
17.0
 40
17.0
 40
18.0
 40
18.0
 40
18.0
 40
19.0
 40
19.0
 40
19.0
 40
20.0
 40
20.0
 40
20.0
 40
21.0
 40
21.0
 40
21.0
 40
22.0
 40
22.0
 40
22.0
 40
23.0
 40
23.0
 40
23.0
 40
24.0
 40
24.0
 40
24.0
 40
25.0
 40
25.0
 40
25.0
 40
26.0
 40
26.0
 40
26.0
 40
27.0
 40
27.0
 40
27.0
 40
28.0
 40
28.0
 40
28.0
 40
29.0
 40
29.0
 40
29.0
 40
30.0
 40
30.0
 40
30.0
 40
31.0
 40
31.0
 40
31.0
 40
32.0
 40
32.0
 40
32.0
 40
33.0
 40
33.0
 40
33.0
 40
34.0
 40
34.0
 40
34.0
 40
35.0
 40
35.0
 40
35.0
 40
36.0
 40
36.0
 40
36.0
 40
37.0
 40
37.0
 40
37.0
 40
38.0
 40
38.0
 40
38.0
 40
39.0
 40
39.0
 40
39.0
 40
40.0
 40
40.0
 40
40.0
 40
41.0
 40
41.0
 40
41.0
 40
42.0
 40
42.0
 40
42.0
 40
43.0
 40
43.0
 40
43.0
 40
44.0
 40
44.0
 40
44.0
 40
45.0
 40
45.0
 40
45.0
 40
46.0
 40
46.0
 40
46.0
 40
47.0
 40
47.0
 40
47.0
 40
48.0
 40
48.0
 40
48.0
 40
49.0
 40
49.0
 40
49.0
 40
50.0
 40
50.0
 40
50.0
 40
51.0
 40
51.0
 40
51.0
 40
52.0
 40
52.0
 40
52.0
 40
53.0
 40
53.0
 40
53.0
 40
54.0
 40
54.0
 40
54.0
 40
55.0
 40
55.0
 40
55.0
 40
56.0
 40
56.0
 40
56.0
 40
57.0
 40
57.0
 40
57.0
 40
58.0
 40
58.0
 40
58.0
 40
59.0
 40
59.0
 40
59.0
 40
60.0
 40
60.0
 40
60.0
 40
61.0
 40
61.0
 40
61.0
 40
62.0
 40
62.0
 40
62.0
 40
63.0
 40
63.0
 40
63.0
 40
64.0
 40
64.0
 40
64.0
 40
65.0
 40
65.0
 40
65.0
 40
66.0
 40
66.0
 40
66.0
 40
67.0
 40
67.0
 40
67.0
 40
68.0
 40
68.0
 40
68.0
 40
69.0
 40
69.0
 40
69.0
 40
70.0
 40
70.0
 40
70.0
 40
71.0
 40
71.0
 40
71.0
 40
72.0
 40
72.0
 40
72.0
 40
73.0
 40
73.0
 40
73.0
 40
74.0
 40
74.0
 40
74.0
 40
75.0
 40
75.0
 40
75.0
 40
76.0
 40
76.0
 40
76.0
 40
77.0
 40
77.0
 40
77.0
 40
78.0
 40
78.0
 40
78.0
 40
79.0
 40
79.0
 40
79.0
 40
80.0
 40
80.0
 40
80.0
 40
81.0
 40
81.0
 40
81.0
 40
82.0
 40
82.0
 40
82.0
 40
83.0
 40
83.0
 40
83.0
 40
84.0
 40
84.0
 40
84.0
 40
85.0
 40
85.0
 40
85.0
 40
86.0
 40
86.0
 40
86.0
 40
87.0
 40
87.0
 40
87.0
 40
88.0
 40
88.0
 40
88.0
 40
89.0
 40
89.0
 40
89.0
 40
90.0
 40
90.0
 40
90.0
 40
91.0
 40
91.0
 40
91.0
 40
92.0
 40
92.0
 40
92.0
 40
93.0
 40
93.0
 40
93.0
 40
94.0
 40
94.0
 40
94.0
 40
95.0
 40
95.0
 40
95.0
 40
96.0
 40
96.0
 40
96.0
 40
97.0
 40
97.0
 40
97.0
 40
98.0
 40
98.0
 40
98.0
 40
99.0
 40
99.0
 40
99.0
 40
100.0
 40
100.0
 40
100.0
 40
101.0
 40
101.0
 40
101.0
 40
102.0
 40
102.0
 40
102.0
 40
103.0
 40
103.0
 40
103.0
 40
104.0
 40
104.0
 40
104.0
 40
105.0
 40
105.0
 40
105.0
 40
106.0
 40
106.0
 40
106.0
 40
107.0
 40
107.0
 40
107.0
 40
108.0
 40
108.0
 40
108.0
 40
109.0
 40
109.0
 40
109.0
 40
110.0
 40
110.0
 40
110.0
 40
111.0
 40
111.0
 40
111.0
 40
112.0
 40
112.0
 40
112.0
 40
113.0
 40
113.0
 40
113.0
 40
114.0
 40
114.0
 40
114.0
 40
115.0
 40
115.0
 40
115.0
 40
115.0
 10
63.25679898049644
 20
121.9540967685565
 30
0.0
 10
63.25679898049644
 20
121.9540967685565
 30
0.0
 10
63.25679898049644
 20
121.9540967685565
 30
0.0
 10
63.25679898049644
 20
121.9540967685565
 30
0.0
 10
63.25679898049644
 20
121.9540967685565
 30
0.0
 10
63.25679898049644
 20
121.9540967685565
 30
0.0
 10
63.25679898049644
 20
121.9540967685565
 30
0.0
 10
63.25679898049644
 20
121.9540967685565
 30
0.0
 10
63.25750453605197
 20
121.953743990779
 30
0.0
 10
63.25750453605197
 20
121.953743990779
 30
0.0
 10
63.25750453605197
 20
121.953743990779
 30
0.0
 10
63.25785731382973
 20
121.9526856574461
 30
0.0
 10
63.25785731382973
 20
121.9526856574461
 30
0.0
 10
63.25785731382973
 20
121.9526856574461
 30
0.0
 10
63.25821009160749
 20
121.9523328796683
 30
0.0
 10
63.25821009160749
 20
121.9523328796683
 30
0.0
 10
63.25821009160749
 20
121.9523328796683
 30
0.0
 10
63.25821009160749
 20
121.951274546335
 30
0.0
 10
63.25821009160749
 20
121.951274546335
 30
0.0
 10
63.25821009160749
 20
121.951274546335
 30
0.0
 10
63.25891564716269
 20
121.9505689907798
 30
0.0
 10
63.25891564716269
 20
121.9505689907798
 30
0.0
 10
63.25891564716269
 20
121.9505689907798
 30
0.0
 10
63.25997398049566
 20
121.9491578796691
 30
0.0
 10
63.25997398049566
 20
121.9491578796691
 30
0.0
 10
63.25997398049566
 20
121.9491578796691
 30
0.0
 10
63.26032675827341
 20
121.9484523241135
 30
0.0
 10
63.26032675827341
 20
121.9484523241135
 30
0.0
 10
63.26032675827341
 20
121.9484523241135
 30
0.0
 10
63.26103231382894
 20
121.9470412130028
 30
0.0
 10
63.26103231382894
 20
121.9470412130028
 30
0.0
 10
63.26103231382894
 20
121.9470412130028
 30
0.0
 10
63.26209064716191
 20
121.9452773241143
 30
0.0
 10
63.26209064716191
 20
121.9452773241143
 30
0.0
 10
63.26209064716191
 20
121.9452773241143
 30
0.0
 10
63.26244342493966
 20
121.9438662130036
 30
0.0
 10
63.26244342493966
 20
121.9438662130036
 30
0.0
 10
63.26244342493966
 20
121.9438662130036
 30
0.0
 10
63.26385453605039
 20
121.9417495463374
 30
0.0
 10
63.26385453605039
 20
121.9417495463374
 30
0.0
 10
63.26385453605039
 20
121.9417495463374
 30
0.0
 10
63.26456009160559
 20
121.9399856574492
 30
0.0
 10
63.26456009160559
 20
121.9399856574492
 30
0.0
 10
63.26456009160559
 20
121.9399856574492
 30
0.0
 10
63.26597120271663
 20
121.9375162130052
 30
0.0
 10
63.26597120271663
 20
121.9375162130052
 30
0.0
 10
63.26597120271663
 20
121.9375162130052
 30
0.0
 10
63.26667675827184
 20
121.9353995463389
 30
0.0
 10
63.26667675827184
 20
121.9353995463389
 30
0.0
 10
63.26667675827184
 20
121.9353995463389
 30
0.0
 10
63.26844064716033
 20
121.933282879673
 30
0.0
 10
63.26844064716033
 20
121.933282879673
 30
0.0
 10
63.26844064716033
 20
121.933282879673
 30
0.0
 10
63.26949898049329
 20
121.9304606574516
 30
0.0
 10
63.26949898049329
 20
121.9304606574516
 30
0.0
 10
63.26949898049329
 20
121.9304606574516
 30
0.0
 10
63.27091009160402
 20
121.9276384352298
 30
0.0
 10
63.27091009160402
 20
121.9276384352298
 30
0.0
 10
63.27091009160402
 20
121.9276384352298
 30
0.0
 10
63.27232120271506
 20
121.9255217685635
 30
0.0
 10
63.27232120271506
 20
121.9255217685635
 30
0.0
 10
63.27232120271506
 20
121.9255217685635
 30
0.0
 10
63.27373231382578
 20
121.9219939907869
 30
0.0
 10
63.27373231382578
 20
121.9219939907869
 30
0.0
 10
63.27373231382578
 20
121.9219939907869
 30
0.0
 10
63.27514342493651
 20
121.9191717685651
 30
0.0
 10
63.27514342493651
 20
121.9191717685651
 30
0.0
 10
63.27514342493651
 20
121.9191717685651
 30
0.0
 10
63.27726009160244
 20
121.9163495463437
 30
0.0
 10
63.27726009160244
 20
121.9163495463437
 30
0.0
 10
63.27726009160244
 20
121.9163495463437
 30
0.0
 10
63.27867120271316
 20
121.912821768567
 30
0.0
 10
63.27867120271316
 20
121.912821768567
 30
0.0
 10
63.27867120271316
 20
121.912821768567
 30
0.0
 10
63.28008231382421
 20
121.9089412130123
 30
0.0
 10
63.28008231382421
 20
121.9089412130123
 30
0.0
 10
63.28008231382421
 20
121.9089412130123
 30
0.0
 10
63.28184620271237
 20
121.9054134352356
 30
0.0
 10
63.28184620271237
 20
121.9054134352356
 30
0.0
 10
63.28184620271237
 20
121.9054134352356
 30
0.0
 10
63.28361009160086
 20
121.9018856574587
 30
0.0
 10
63.28361009160086
 20
121.9018856574587
 30
0.0
 10
63.28361009160086
 20
121.9018856574587
 30
0.0
 10
63.28572675826711
 20
121.8983578796817
 30
0.0
 10
63.28572675826711
 20
121.8983578796817
 30
0.0
 10
63.28572675826711
 20
121.8983578796817
 30
0.0
 10
63.28784342493336
 20
121.8937717685718
 30
0.0
 10
63.28784342493336
 20
121.8937717685718
 30
0.0
 10
63.28784342493336
 20
121.8937717685718
 30
0.0
 10
63.28960731382184
 20
121.889891213017
 30
0.0
 10
63.28960731382184
 20
121.889891213017
 30
0.0
 10
63.28960731382184
 20
121.889891213017
 30
0.0
 10
63.29172398048777
 20
121.8860106574626
 30
0.0
 10
63.29172398048777
 20
121.8860106574626
 30
0.0
 10
63.29172398048777
 20
121.8860106574626
 30
0.0
 10
63.29384064715402
 20
121.8814245463523
 30
0.0
 10
63.29384064715402
 20
121.8814245463523
 30
0.0
 10
63.29384064715402
 20
121.8814245463523
 30
0.0
 10
63.29595731382027
 20
121.8768384352427
 30
0.0
 10
63.29595731382027
 20
121.8768384352427
 30
0.0
 10
63.29595731382027
 20
121.8768384352427
 30
0.0
 10
63.29807398048619
 20
121.8726051019102
 30
0.0
 10
63.29807398048619
 20
121.8726051019102
 30
0.0
 10
63.29807398048619
 20
121.8726051019102
 30
0.0
 10
63.30019064715244
 20
121.8676662130229
 30
0.0
 10
63.30019064715244
 20
121.8676662130229
 30
0.0
 10
63.30019064715244
 20
121.8676662130229
 30
0.0
 10
63.30230731381869
 20
121.8627273241348
 30
0.0
 10
63.30230731381869
 20
121.8627273241348
 30
0.0
 10
63.30230731381869
 20
121.8627273241348
 30
0.0
 10
63.30477675826238
 20
121.8577884352475
 30
0.0
 10
63.30477675826238
 20
121.8577884352475
 30
0.0
 10
63.30477675826238
 20
121.8577884352475
 30
0.0
 10
63.30689342492862
 20
121.852496768582
 30
0.0
 10
63.30689342492862
 20
121.852496768582
 30
0.0
 10
63.30689342492862
 20
121.852496768582
 30
0.0
 10
63.30936286937231
 20
121.8475578796943
 30
0.0
 10
63.30936286937231
 20
121.8475578796943
 30
0.0
 10
63.30936286937231
 20
121.8475578796943
 30
0.0
 10
63.31218509159376
 20
121.8422662130292
 30
0.0
 10
63.31218509159376
 20
121.8422662130292
 30
0.0
 10
63.31218509159376
 20
121.8422662130292
 30
0.0
 10
63.31430175826001
 20
121.8373273241412
 30
0.0
 10
63.31430175826001
 20
121.8373273241412
 30
0.0
 10
63.31430175826001
 20
121.8373273241412
 30
0.0
 10
63.3167712027037
 20
121.8316828796982
 30
0.0
 10
63.3167712027037
 20
121.8316828796982
 30
0.0
 10
63.3167712027037
 20
121.8316828796982
 30
0.0
 10
63.31924064714771
 20
121.8263912130331
 30
0.0
 10
63.31924064714771
 20
121.8263912130331
 30
0.0
 10
63.31924064714771
 20
121.8263912130331
 30
0.0
 10
63.3217100915914
 20
121.8203939908124
 30
0.0
 10
63.3217100915914
 20
121.8203939908124
 30
0.0
 10
63.3217100915914
 20
121.8203939908124
 30
0.0
 10
63.32417953603541
 20
121.815102324147
 30
0.0
 10
63.32417953603541
 20
121.815102324147
 30
0.0
 10
63.32417953603541
 20
121.815102324147
 30
0.0
 10
63.32700175825686
 20
121.8087523241486
 30
0.0
 10
63.32700175825686
 20
121.8087523241486
 30
0.0
 10
63.32700175825686
 20
121.8087523241486
 30
0.0
 10
63.32947120270055
 20
121.8031078797054
 30
0.0
 10
63.32947120270055
 20
121.8031078797054
 30
0.0
 10
63.32947120270055
 20
121.8031078797054
 30
0.0
 10
63.33194064714456
 20
121.7971106574847
 30
0.0
 10
63.33194064714456
 20
121.7971106574847
 30
0.0
 10
63.33194064714456
 20
121.7971106574847
 30
0.0
 10
63.33441009158824
 20
121.7914662130418
 30
0.0
 10
63.33441009158824
 20
121.7914662130418
 30
0.0
 10
63.33441009158824
 20
121.7914662130418
 30
0.0
 10
63.33758509158746
 20
121.7847634352656
 30
0.0
 10
63.33758509158746
 20
121.7847634352656
 30
0.0
 10
63.33758509158746
 20
121.7847634352656
 30
0.0
 10
63.34005453603146
 20
121.7791189908227
 30
0.0
 10
63.34005453603146
 20
121.7791189908227
 30
0.0
 10
63.34005453603146
 20
121.7791189908227
 30
0.0
 10
63.34252398047515
 20
121.7727689908243
 30
0.0
 10
63.34252398047515
 20
121.7727689908243
 30
0.0
 10
63.34252398047515
 20
121.7727689908243
 30
0.0
 10
63.34499342491884
 20
121.7664189908259
 30
0.0
 10
63.34499342491884
 20
121.7664189908259
 30
0.0
 10
63.34499342491884
 20
121.7664189908259
 30
0.0
 10
63.34816842491805
 20
121.7604217686052
 30
0.0
 10
63.34816842491805
 20
121.7604217686052
 30
0.0
 10
63.34816842491805
 20
121.7604217686052
 30
0.0
 10
63.35063786936206
 20
121.7540717686068
 30
0.0
 10
63.35063786936206
 20
121.7540717686068
 30
0.0
 10
63.35063786936206
 20
121.7540717686068
 30
0.0
 10
63.35310731380575
 20
121.7473689908306
 30
0.0
 10
63.35310731380575
 20
121.7473689908306
 30
0.0
 10
63.35310731380575
 20
121.7473689908306
 30
0.0
 10
63.35628231380496
 20
121.7406662130544
 30
0.0
 10
63.35628231380496
 20
121.7406662130544
 30
0.0
 10
63.35628231380496
 20
121.7406662130544
 30
0.0
 10
63.35875175824897
 20
121.734316213056
 30
0.0
 10
63.35875175824897
 20
121.734316213056
 30
0.0
 10
63.35875175824897
 20
121.734316213056
 30
0.0
 10
63.36122120269266
 20
121.7283189908353
 30
0.0
 10
63.36122120269266
 20
121.7283189908353
 30
0.0
 10
63.36122120269266
 20
121.7283189908353
 30
0.0
 10
63.36369064713666
 20
121.7216162130591
 30
0.0
 10
63.36369064713666
 20
121.7216162130591
 30
0.0
 10
63.36369064713666
 20
121.7216162130591
 30
0.0
 10
63.36686564713555
 20
121.714913435283
 30
0.0
 10
63.36686564713555
 20
121.714913435283
 30
0.0
 10
63.36686564713555
 20
121.714913435283
 30
0.0
 10
63.36933509157956
 20
121.7082106575068
 30
0.0
 10
63.36933509157956
 20
121.7082106575068
 30
0.0
 10
63.36933509157956
 20
121.7082106575068
 30
0.0
 10
63.37180453602326
 20
121.7018606575083
 30
0.0
 10
63.37180453602326
 20
121.7018606575083
 30
0.0
 10
63.37180453602326
 20
121.7018606575083
 30
0.0
 10
63.37427398046727
 20
121.6951578797325
 30
0.0
 10
63.37427398046727
 20
121.6951578797325
 30
0.0
 10
63.37427398046727
 20
121.6951578797325
 30
0.0
 10
63.37709620268871
 20
121.6891606575118
 30
0.0
 10
63.37709620268871
 20
121.6891606575118
 30
0.0
 10
63.37709620268871
 20
121.6891606575118
 30
0.0
 10
63.3795656471324
 20
121.6824578797356
 30
0.0
 10
63.3795656471324
 20
121.6824578797356
 30
0.0
 10
63.3795656471324
 20
121.6824578797356
 30
0.0
 10
63.38203509157641
 20
121.6761078797372
 30
0.0
 10
63.38203509157641
 20
121.6761078797372
 30
0.0
 10
63.38203509157641
 20
121.6761078797372
 30
0.0
 10
63.38415175824266
 20
121.669405101961
 30
0.0
 10
63.38415175824266
 20
121.669405101961
 30
0.0
 10
63.38415175824266
 20
121.669405101961
 30
0.0
 10
63.38662120268635
 20
121.6627023241852
 30
0.0
 10
63.38662120268635
 20
121.6627023241852
 30
0.0
 10
63.38662120268635
 20
121.6627023241852
 30
0.0
 10
63.3887378693526
 20
121.6563523241867
 30
0.0
 10
63.3887378693526
 20
121.6563523241867
 30
0.0
 10
63.3887378693526
 20
121.6563523241867
 30
0.0
 10
63.39120731379629
 20
121.6503551019661
 30
0.0
 10
63.39120731379629
 20
121.6503551019661
 30
0.0
 10
63.39120731379629
 20
121.6503551019661
 30
0.0
 10
63.39332398046253
 20
121.6436523241899
 30
0.0
 10
63.39332398046253
 20
121.6436523241899
 30
0.0
 10
63.39332398046253
 20
121.6436523241899
 30
0.0
 10
63.39614620268398
 20
121.6373023241915
 30
0.0
 10
63.39614620268398
 20
121.6373023241915
 30
0.0
 10
63.39614620268398
 20
121.6373023241915
 30
0.0
 10
63.39826286935023
 20
121.6313051019708
 30
0.0
 10
63.39826286935023
 20
121.6313051019708
 30
0.0
 10
63.39826286935023
 20
121.6313051019708
 30
0.0
 10
63.40037953601616
 20
121.6249551019724
 30
0.0
 10
63.40037953601616
 20
121.6249551019724
 30
0.0
 10
63.40037953601616
 20
121.6249551019724
 30
0.0
 10
63.40249620268241
 20
121.618605101974
 30
0.0
 10
63.40249620268241
 20
121.618605101974
 30
0.0
 10
63.40249620268241
 20
121.618605101974
 30
0.0
 10
63.40390731379313
 20
121.6122551019755
 30
0.0
 10
63.40390731379313
 20
121.6122551019755
 30
0.0
 10
63.40390731379313
 20
121.6122551019755
 30
0.0
 10
63.40602398045938
 20
121.6066106575323
 30
0.0
 10
63.40602398045938
 20
121.6066106575323
 30
0.0
 10
63.40602398045938
 20
121.6066106575323
 30
0.0
 10
63.40778786934786
 20
121.6002606575339
 30
0.0
 10
63.40778786934786
 20
121.6002606575339
 30
0.0
 10
63.40778786934786
 20
121.6002606575339
 30
0.0
 10
63.40955175823603
 20
121.594616213091
 30
0.0
 10
63.40955175823603
 20
121.594616213091
 30
0.0
 10
63.40955175823603
 20
121.594616213091
 30
0.0
 10
63.41166842490228
 20
121.5882662130926
 30
0.0
 10
63.41166842490228
 20
121.5882662130926
 30
0.0
 10
63.41166842490228
 20
121.5882662130926
 30
0.0
 10
63.41378509156853
 20
121.5826217686494
 30
0.0
 10
63.41378509156853
 20
121.5826217686494
 30
0.0
 10
63.41378509156853
 20
121.5826217686494
 30
0.0
 10
63.41519620267925
 20
121.5766245464287
 30
0.0
 10
63.41519620267925
 20
121.5766245464287
 30
0.0
 10
63.41519620267925
 20
121.5766245464287
 30
0.0
 10
63.41660731378997
 20
121.5713328797636
 30
0.0
 10
63.41660731378997
 20
121.5713328797636
 30
0.0
 10
63.41660731378997
 20
121.5713328797636
 30
0.0
 10
63.4180184249007
 20
121.5656884353203
 30
0.0
 10
63.4180184249007
 20
121.5656884353203
 30
0.0
 10
63.4180184249007
 20
121.5656884353203
 30
0.0
 10
63.41978231378918
 20
121.5603967686549
 30
0.0
 10
63.41978231378918
 20
121.5603967686549
 30
0.0
 10
63.41978231378918
 20
121.5603967686549
 30
0.0
 10
63.42119342489991
 20
121.5551051019897
 30
0.0
 10
63.42119342489991
 20
121.5551051019897
 30
0.0
 10
63.42119342489991
 20
121.5551051019897
 30
0.0
 10
63.42225175823287
 20
121.5494606575468
 30
0.0
 10
63.42225175823287
 20
121.5494606575468
 30
0.0
 10
63.42225175823287
 20
121.5494606575468
 30
0.0
 10
63.42401564712137
 20
121.5441689908814
 30
0.0
 10
63.42401564712137
 20
121.5441689908814
 30
0.0
 10
63.42401564712137
 20
121.5441689908814
 30
0.0
 10
63.42472120267688
 20
121.5392301019937
 30
0.0
 10
63.42472120267688
 20
121.5392301019937
 30
0.0
 10
63.42472120267688
 20
121.5392301019937
 30
0.0
 10
63.42613231378761
 20
121.5339384353282
 30
0.0
 10
63.42613231378761
 20
121.5339384353282
 30
0.0
 10
63.42613231378761
 20
121.5339384353282
 30
0.0
 10
63.42683786934281
 20
121.5297051019961
 30
0.0
 10
63.42683786934281
 20
121.5297051019961
 30
0.0
 10
63.42683786934281
 20
121.5297051019961
 30
0.0
 10
63.42824898045386
 20
121.5247662131084
 30
0.0
 10
63.42824898045386
 20
121.5247662131084
 30
0.0
 10
63.42824898045386
 20
121.5247662131084
 30
0.0
 10
63.42895453600906
 20
121.5201801019984
 30
0.0
 10
63.42895453600906
 20
121.5201801019984
 30
0.0
 10
63.42895453600906
 20
121.5201801019984
 30
0.0
 10
63.43001286934202
 20
121.5152412131107
 30
0.0
 10
63.43001286934202
 20
121.5152412131107
 30
0.0
 10
63.43001286934202
 20
121.5152412131107
 30
0.0
 10
63.43036564711979
 20
121.5113606575563
 30
0.0
 10
63.43036564711979
 20
121.5113606575563
 30
0.0
 10
63.43036564711979
 20
121.5113606575563
 30
0.0
 10
63.43107120267531
 20
121.5067745464461
 30
0.0
 10
63.43107120267531
 20
121.5067745464461
 30
0.0
 10
63.43107120267531
 20
121.5067745464461
 30
0.0
 10
63.43177675823051
 20
121.5028939908916
 30
0.0
 10
63.43177675823051
 20
121.5028939908916
 30
0.0
 10
63.43177675823051
 20
121.5028939908916
 30
0.0
 10
63.43212953600827
 20
121.4990134353372
 30
0.0
 10
63.43212953600827
 20
121.4990134353372
 30
0.0
 10
63.43212953600827
 20
121.4990134353372
 30
0.0
 10
63.43248231378603
 20
121.4947801020047
 30
0.0
 10
63.43248231378603
 20
121.4947801020047
 30
0.0
 10
63.43248231378603
 20
121.4947801020047
 30
0.0
 10
63.43248231378603
 20
121.4912523242278
 30
0.0
 10
63.43248231378603
 20
121.4912523242278
 30
0.0
 10
63.43248231378603
 20
121.4912523242278
 30
0.0
 10
63.4328350915638
 20
121.4877245464508
 30
0.0
 10
63.4328350915638
 20
121.4877245464508
 30
0.0
 10
63.4328350915638
 20
121.4877245464508
 30
0.0
 10
63.4328350915638
 20
121.4845495464516
 30
0.0
 10
63.4328350915638
 20
121.4845495464516
 30
0.0
 10
63.4328350915638
 20
121.4845495464516
 30
0.0
 10
63.4328350915638
 20
121.4810217686749
 30
0.0
 10
63.4328350915638
 20
121.4810217686749
 30
0.0
 10
63.4328350915638
 20
121.4810217686749
 30
0.0
 10
63.4328350915638
 20
121.4778467686757
 30
0.0
 10
63.4328350915638
 20
121.4778467686757
 30
0.0
 10
63.4328350915638
 20
121.4778467686757
 30
0.0
 10
63.43248231378603
 20
121.4753773242317
 30
0.0
 10
63.43248231378603
 20
121.4753773242317
 30
0.0
 10
63.43248231378603
 20
121.4753773242317
 30
0.0
 10
63.43248231378603
 20
121.4725551020102
 30
0.0
 10
63.43248231378603
 20
121.4725551020102
 30
0.0
 10
63.43248231378603
 20
121.4725551020102
 30
0.0
 10
63.43212953600827
 20
121.469380102011
 30
0.0
 10
63.43212953600827
 20
121.469380102011
 30
0.0
 10
63.43212953600827
 20
121.469380102011
 30
0.0
 10
63.43177675823051
 20
121.4672634353451
 30
0.0
 10
63.43177675823051
 20
121.4672634353451
 30
0.0
 10
63.43177675823051
 20
121.4672634353451
 30
0.0
 10
63.43071842489755
 20
121.4651467686789
 30
0.0
 10
63.43071842489755
 20
121.4651467686789
 30
0.0
 10
63.43071842489755
 20
121.4651467686789
 30
0.0
 10
63.43036564711979
 20
121.4626773242348
 30
0.0
 10
63.43036564711979
 20
121.4626773242348
 30
0.0
 10
63.43036564711979
 20
121.4626773242348
 30
0.0
 10
63.42966009156459
 20
121.4605606575689
 30
0.0
 10
63.42966009156459
 20
121.4605606575689
 30
0.0
 10
63.42966009156459
 20
121.4605606575689
 30
0.0
 10
63.42824898045386
 20
121.4587967686804
 30
0.0
 10
63.42824898045386
 20
121.4587967686804
 30
0.0
 10
63.42824898045386
 20
121.4587967686804
 30
0.0
 10
63.42754342489834
 20
121.4573856575697
 30
0.0
 10
63.42754342489834
 20
121.4573856575697
 30
0.0
 10
63.42754342489834
 20
121.4573856575697
 30
0.0
 10
63.42613231378761
 20
121.4556217686812
 30
0.0
 10
63.42613231378761
 20
121.4556217686812
 30
0.0
  0
POLYLINE
  5
499
330
1F
100
AcDbEntity
  8
GRAU_10_
 62
     7
100
AcDb2dPolyline
 66
     1
 10
0.0
 20
0.0
 30
0.0
  0
VERTEX
  5
49A
330
499
100
AcDbEntity
  8
GRAU_10_
 62
     7
100
AcDbVertex
100
AcDb2dVertex
 10
63.256446202719
 20
121.9540967685565
 30
0.0
  0
VERTEX
  5
49B
330
499
100
AcDbEntity
  8
GRAU_10_
 62
     7
100
AcDbVertex
100
AcDb2dVertex
 10
62.84263786948888
 20
121.8133384352585
 30
0.0
  0
VERTEX
  5
49C
330
499
100
AcDbEntity
  8
GRAU_10_
 62
     7
100
AcDbVertex
100
AcDb2dVertex
 10
62.40801564737532
 20
121.7657134352703
 30
0.0
  0
SEQEND
  5
49D
330
499
100
AcDbEntity
  8
GRAU_10_
 62
     7
  0
POLYLINE
  5
49E
330
1F
100
AcDbEntity
  8
GRAU_10_
 62
     7
100
AcDb2dPolyline
 66
     1
 10
0.0
 20
0.0
 30
0.0
  0
VERTEX
  5
49F
330
49E
100
AcDbEntity
  8
GRAU_10_
 62
     7
100
AcDbVertex
100
AcDb2dVertex
 10
61.91694898083149
 20
121.0753273243317
 30
0.0
  0
VERTEX
  5
4A0
330
49E
100
AcDbEntity
  8
GRAU_10_
 62
     7
100
AcDbVertex
100
AcDb2dVertex
 10
61.92082953638622
 20
121.0785023243309
 30
0.0
  0
VERTEX
  5
4A1
330
49E
100
AcDbEntity
  8
GRAU_10_
 62
     7
100
AcDbVertex
100
AcDb2dVertex
 10
61.92471009194063
 20
121.0813245465524
 30
0.0
  0
VERTEX
  5
4A2
330
49E
100
AcDbEntity
  8
GRAU_10_
 62
     7
100
AcDbVertex
100
AcDb2dVertex
 10
61.92894342527313
 20
121.0841467687741
 30
0.0
  0
VERTEX
  5
4A3
330
49E
100
AcDbEntity
  8
GRAU_10_
 62
     7
100
AcDbVertex
100
AcDb2dVertex
 10
61.93247120304978
 20
121.0876745465508
 30
0.0
  0
VERTEX
  5
4A4
330
49E
100
AcDbEntity
  8
GRAU_10_
 62
     7
100
AcDbVertex
100
AcDb2dVertex
 10
61.93599898082675
 20
121.09084954655
 30
0.0
  0
VERTEX
  5
4A5
330
49E
100
AcDbEntity
  8
GRAU_10_
 62
     7
100
AcDbVertex
100
AcDb2dVertex
 10
61.93987953638149
 20
121.094377324327
 30
0.0
  0
VERTEX
  5
4A6
330
49E
100
AcDbEntity
  8
GRAU_10_
 62
     7
100
AcDbVertex
100
AcDb2dVertex
 10
61.9437600919359
 20
121.0975523243262
 30
0.0
  0
VERTEX
  5
4A7
330
49E
100
AcDbEntity
  8
GRAU_10_
 62
     7
100
AcDbVertex
100
AcDb2dVertex
 10
61.94764064749064
 20
121.1007273243254
 30
0.0
  0
VERTEX
  5
4A8
330
49E
100
AcDbEntity
  8
GRAU_10_
 62
     7
100
AcDbVertex
100
AcDb2dVertex
 10
61.95152120304505
 20
121.1042551021024
 30
0.0
  0
VERTEX
  5
4A9
330
49E
100
AcDbEntity
  8
GRAU_10_
 62
     7
100
AcDbVertex
100
AcDb2dVertex
 10
61.95469620304426
 20
121.1077828798793
 30
0.0
  0
VERTEX
  5
4AA
330
49E
100
AcDbEntity
  8
GRAU_10_
 62
     7
100
AcDbVertex
100
AcDb2dVertex
 10
61.95857675859899
 20
121.1109578798786
 30
0.0
  0
VERTEX
  5
4AB
330
49E
100
AcDbEntity
  8
GRAU_10_
 62
     7
100
AcDbVertex
100
AcDb2dVertex
 10
61.96245731415341
 20
121.1144856576555
 30
0.0
  0
VERTEX
  5
4AC
330
49E
100
AcDbEntity
  8
GRAU_10_
 62
     7
100
AcDbVertex
100
AcDb2dVertex
 10
61.96633786970814
 20
121.1180134354325
 30
0.0
  0
VERTEX
  5
4AD
330
49E
100
AcDbEntity
  8
GRAU_10_
 62
     7
100
AcDbVertex
100
AcDb2dVertex
 10
61.96951286970735
 20
121.1215412132092
 30
0.0
  0
VERTEX
  5
4AE
330
49E
100
AcDbEntity
  8
GRAU_10_
 62
     7
100
AcDbVertex
100
AcDb2dVertex
 10
61.97339342526177
 20
121.1247162132084
 30
0.0
  0
VERTEX
  5
4AF
330
49E
100
AcDbEntity
  8
GRAU_10_
 62
     7
100
AcDbVertex
100
AcDb2dVertex
 10
61.97727398081651
 20
121.1285967687628
 30
0.0
  0
VERTEX
  5
4B0
330
49E
100
AcDbEntity
  8
GRAU_10_
 62
     7
100
AcDbVertex
100
AcDb2dVertex
 10
61.98115453637092
 20
121.1321245465397
 30
0.0
  0
VERTEX
  5
4B1
330
49E
100
AcDbEntity
  8
GRAU_10_
 62
     7
100
AcDbVertex
100
AcDb2dVertex
 10
61.98432953637013
 20
121.1356523243167
 30
0.0
  0
VERTEX
  5
4B2
330
49E
100
AcDbEntity
  8
GRAU_10_
 62
     7
100
AcDbVertex
100
AcDb2dVertex
 10
61.9878573141471
 20
121.1398856576492
 30
0.0
  0
VERTEX
  5
4B3
330
49E
100
AcDbEntity
  8
GRAU_10_
 62
     7
100
AcDbVertex
100
AcDb2dVertex
 10
61.99209064747927
 20
121.1434134354259
 30
0.0
  0
VERTEX
  5
4B4
330
49E
100
AcDbEntity
  8
GRAU_10_
 62
     7
100
AcDbVertex
100
AcDb2dVertex
 10
61.99561842525625
 20
121.1469412132028
 30
0.0
  0
VERTEX
  5
4B5
330
49E
100
AcDbEntity
  8
GRAU_10_
 62
     7
100
AcDbVertex
100
AcDb2dVertex
 10
61.99879342525546
 20
121.1508217687573
 30
0.0
  0
VERTEX
  5
4B6
330
49E
100
AcDbEntity
  8
GRAU_10_
 62
     7
100
AcDbVertex
100
AcDb2dVertex
 10
62.00267398081019
 20
121.1550551020897
 30
0.0
  0
VERTEX
  5
4B7
330
49E
100
AcDbEntity
  8
GRAU_10_
 62
     7
100
AcDbVertex
100
AcDb2dVertex
 10
62.00620175858685
 20
121.1585828798667
 30
0.0
  0
VERTEX
  5
4B8
330
49E
100
AcDbEntity
  8
GRAU_10_
 62
     7
100
AcDbVertex
100
AcDb2dVertex
 10
62.01008231414158
 20
121.1624634354211
 30
0.0
  0
VERTEX
  5
4B9
330
49E
100
AcDbEntity
  8
GRAU_10_
 62
     7
100
AcDbVertex
100
AcDb2dVertex
 10
62.01325731414079
 20
121.1666967687533
 30
0.0
  0
VERTEX
  5
4BA
330
49E
100
AcDbEntity
  8
GRAU_10_
 62
     7
100
AcDbVertex
100
AcDb2dVertex
 10
62.01713786969552
 20
121.170577324308
 30
0.0
  0
VERTEX
  5
4BB
330
49E
100
AcDbEntity
  8
GRAU_10_
 62
     7
100
AcDbVertex
100
AcDb2dVertex
 10
62.02066564747218
 20
121.1744578798628
 30
0.0
  0
VERTEX
  5
4BC
330
49E
100
AcDbEntity
  8
GRAU_10_
 62
     7
100
AcDbVertex
100
AcDb2dVertex
 10
62.02384064747139
 20
121.178691213195
 30
0.0
  0
VERTEX
  5
4BD
330
49E
100
AcDbEntity
  8
GRAU_10_
 62
     7
100
AcDbVertex
100
AcDb2dVertex
 10
62.02772120302613
 20
121.1825717687494
 30
0.0
  0
VERTEX
  5
4BE
330
49E
100
AcDbEntity
  8
GRAU_10_
 62
     7
100
AcDbVertex
100
AcDb2dVertex
 10
62.0312489808031
 20
121.1864523243041
 30
0.0
  0
VERTEX
  5
4BF
330
49E
100
AcDbEntity
  8
GRAU_10_
 62
     7
100
AcDbVertex
100
AcDb2dVertex
 10
62.03442398080231
 20
121.191038435414
 30
0.0
  0
VERTEX
  5
4C0
330
49E
100
AcDbEntity
  8
GRAU_10_
 62
     7
100
AcDbVertex
100
AcDb2dVertex
 10
62.03830453635672
 20
121.1949189909684
 30
0.0
  0
VERTEX
  5
4C1
330
49E
100
AcDbEntity
  8
GRAU_10_
 62
     7
100
AcDbVertex
100
AcDb2dVertex
 10
62.04183231413369
 20
121.199152324301
 30
0.0
  0
VERTEX
  5
4C2
330
49E
100
AcDbEntity
  8
GRAU_10_
 62
     7
100
AcDbVertex
100
AcDb2dVertex
 10
62.0450073141329
 20
121.2030328798557
 30
0.0
  0
VERTEX
  5
4C3
330
49E
100
AcDbEntity
  8
GRAU_10_
 62
     7
100
AcDbVertex
100
AcDb2dVertex
 10
62.04888786968732
 20
121.2076189909653
 30
0.0
  0
VERTEX
  5
4C4
330
49E
100
AcDbEntity
  8
GRAU_10_
 62
     7
100
AcDbVertex
100
AcDb2dVertex
 10
62.05241564746429
 20
121.21149954652
 30
0.0
  0
VERTEX
  5
4C5
330
49E
100
AcDbEntity
  8
GRAU_10_
 62
     7
100
AcDbVertex
100
AcDb2dVertex
 10
62.0555906474635
 20
121.21608565763
 30
0.0
  0
VERTEX
  5
4C6
330
49E
100
AcDbEntity
  8
GRAU_10_
 62
     7
100
AcDbVertex
100
AcDb2dVertex
 10
62.05911842524048
 20
121.2203189909621
 30
0.0
  0
VERTEX
  5
4C7
330
49E
100
AcDbEntity
  8
GRAU_10_
 62
     7
100
AcDbVertex
100
AcDb2dVertex
 10
62.06264620301745
 20
121.2249051020724
 30
0.0
  0
VERTEX
  5
4C8
330
49E
100
AcDbEntity
  8
GRAU_10_
 62
     7
100
AcDbVertex
100
AcDb2dVertex
 10
62.06582120301666
 20
121.2287856576268
 30
0.0
  0
VERTEX
  5
4C9
330
49E
100
AcDbEntity
  8
GRAU_10_
 62
     7
100
AcDbVertex
100
AcDb2dVertex
 10
62.06970175857107
 20
121.2333717687367
 30
0.0
  0
VERTEX
  5
4CA
330
49E
100
AcDbEntity
  8
GRAU_10_
 62
     7
100
AcDbVertex
100
AcDb2dVertex
 10
62.07322953634804
 20
121.2379578798467
 30
0.0
  0
VERTEX
  5
4CB
330
49E
100
AcDbEntity
  8
GRAU_10_
 62
     7
100
AcDbVertex
100
AcDb2dVertex
 10
62.0760517585695
 20
121.2421912131789
 30
0.0
  0
VERTEX
  5
4CC
330
49E
100
AcDbEntity
  8
GRAU_10_
 62
     7
100
AcDbVertex
100
AcDb2dVertex
 10
62.07993231412423
 20
121.2467773242891
 30
0.0
  0
VERTEX
  5
4CD
330
49E
100
AcDbEntity
  8
GRAU_10_
 62
     7
100
AcDbVertex
100
AcDb2dVertex
 10
62.08310731412344
 20
121.2513634353991
 30
0.0
  0
VERTEX
  5
4CE
330
49E
100
AcDbEntity
  8
GRAU_10_
 62
     7
100
AcDbVertex
100
AcDb2dVertex
 10
62.08663509190009
 20
121.2555967687312
 30
0.0
  0
VERTEX
  5
4CF
330
49E
100
AcDbEntity
  8
GRAU_10_
 62
     7
100
AcDbVertex
100
AcDb2dVertex
 10
62.09016286967707
 20
121.2601828798412
 30
0.0
  0
VERTEX
  5
4D0
330
49E
100
AcDbEntity
  8
GRAU_10_
 62
     7
100
AcDbVertex
100
AcDb2dVertex
 10
62.09298509189852
 20
121.2644162131733
 30
0.0
  0
VERTEX
  5
4D1
330
49E
100
AcDbEntity
  8
GRAU_10_
 62
     7
100
AcDbVertex
100
AcDb2dVertex
 10
62.09686564745325
 20
121.2690023242836
 30
0.0
  0
VERTEX
  5
4D2
330
49E
100
AcDbEntity
  8
GRAU_10_
 62
     7
100
AcDbVertex
100
AcDb2dVertex
 10
62.0996878696747
 20
121.273941213171
 30
0.0
  0
VERTEX
  5
4D3
330
49E
100
AcDbEntity
  8
GRAU_10_
 62
     7
100
AcDbVertex
100
AcDb2dVertex
 10
62.10321564745167
 20
121.2785273242812
 30
0.0
  0
VERTEX
  5
4D4
330
49E
100
AcDbEntity
  8
GRAU_10_
 62
     7
100
AcDbVertex
100
AcDb2dVertex
 10
62.10674342522864
 20
121.2827606576134
 30
0.0
  0
VERTEX
  5
4D5
330
49E
100
AcDbEntity
  8
GRAU_10_
 62
     7
100
AcDbVertex
100
AcDb2dVertex
 10
62.10991842522786
 20
121.2876995465011
 30
0.0
  0
VERTEX
  5
4D6
330
49E
100
AcDbEntity
  8
GRAU_10_
 62
     7
100
AcDbVertex
100
AcDb2dVertex
 10
62.11344620300451
 20
121.292285657611
 30
0.0
  0
VERTEX
  5
4D7
330
49E
100
AcDbEntity
  8
GRAU_10_
 62
     7
100
AcDbVertex
100
AcDb2dVertex
 10
62.11662120300372
 20
121.2972245464987
 30
0.0
  0
VERTEX
  5
4D8
330
49E
100
AcDbEntity
  8
GRAU_10_
 62
     7
100
AcDbVertex
100
AcDb2dVertex
 10
62.12014898078069
 20
121.3014578798309
 30
0.0
  0
VERTEX
  5
4D9
330
49E
100
AcDbEntity
  8
GRAU_10_
 62
     7
100
AcDbVertex
100
AcDb2dVertex
 10
62.12297120300214
 20
121.3063967687186
 30
0.0
  0
VERTEX
  5
4DA
330
49E
100
AcDbEntity
  8
GRAU_10_
 62
     7
100
AcDbVertex
100
AcDb2dVertex
 10
62.12649898077912
 20
121.311335657606
 30
0.0
  0
VERTEX
  5
4DB
330
49E
100
AcDbEntity
  8
GRAU_10_
 62
     7
100
AcDbVertex
100
AcDb2dVertex
 10
62.13002675855609
 20
121.3159217687163
 30
0.0
  0
VERTEX
  5
4DC
330
49E
100
AcDbEntity
  8
GRAU_10_
 62
     7
100
AcDbVertex
100
AcDb2dVertex
 10
62.13284898077754
 20
121.3201551020484
 30
0.0
  0
VERTEX
  5
4DD
330
49E
100
AcDbEntity
  8
GRAU_10_
 62
     7
100
AcDbVertex
100
AcDb2dVertex
 10
62.13637675855451
 20
121.3250939909361
 30
0.0
  0
VERTEX
  5
4DE
330
49E
100
AcDbEntity
  8
GRAU_10_
 62
     7
100
AcDbVertex
100
AcDb2dVertex
 10
62.13955175855372
 20
121.3300328798238
 30
0.0
  0
VERTEX
  5
4DF
330
49E
100
AcDbEntity
  8
GRAU_10_
 62
     7
100
AcDbVertex
100
AcDb2dVertex
 10
62.1430795363307
 20
121.3349717687115
 30
0.0
  0
VERTEX
  5
4E0
330
49E
100
AcDbEntity
  8
GRAU_10_
 62
     7
100
AcDbVertex
100
AcDb2dVertex
 10
62.14590175855215
 20
121.3395578798215
 30
0.0
  0
VERTEX
  5
4E1
330
49E
100
AcDbEntity
  8
GRAU_10_
 62
     7
100
AcDbVertex
100
AcDb2dVertex
 10
62.14942953632912
 20
121.3441439909314
 30
0.0
  0
VERTEX
  5
4E2
330
49E
100
AcDbEntity
  8
GRAU_10_
 62
     7
100
AcDbVertex
100
AcDb2dVertex
 10
62.15225175855057
 20
121.3490828798188
 30
0.0
  0
VERTEX
  5
4E3
330
49E
100
AcDbEntity
  8
GRAU_10_
 62
     7
100
AcDbVertex
100
AcDb2dVertex
 10
62.15577953632754
 20
121.353668990929
 30
0.0
  0
VERTEX
  5
4E4
330
49E
100
AcDbEntity
  8
GRAU_10_
 62
     7
100
AcDbVertex
100
AcDb2dVertex
 10
62.15860175854899
 20
121.3589606575942
 30
0.0
  0
VERTEX
  5
4E5
330
49E
100
AcDbEntity
  8
GRAU_10_
 62
     7
100
AcDbVertex
100
AcDb2dVertex
 10
62.16212953632564
 20
121.3635467687044
 30
0.0
  0
VERTEX
  5
4E6
330
49E
100
AcDbEntity
  8
GRAU_10_
 62
     7
100
AcDbVertex
100
AcDb2dVertex
 10
62.16495175854742
 20
121.3684856575918
 30
0.0
  0
VERTEX
  5
4E7
330
49E
100
AcDbEntity
  8
GRAU_10_
 62
     7
100
AcDbVertex
100
AcDb2dVertex
 10
62.16847953632406
 20
121.373071768702
 30
0.0
  0
VERTEX
  5
4E8
330
49E
100
AcDbEntity
  8
GRAU_10_
 62
     7
100
AcDbVertex
100
AcDb2dVertex
 10
62.17130175854584
 20
121.3780106575894
 30
0.0
  0
VERTEX
  5
4E9
330
49E
100
AcDbEntity
  8
GRAU_10_
 62
     7
100
AcDbVertex
100
AcDb2dVertex
 10
62.17482953632249
 20
121.3825967686997
 30
0.0
  0
VERTEX
  5
4EA
330
49E
100
AcDbEntity
  8
GRAU_10_
 62
     7
100
AcDbVertex
100
AcDb2dVertex
 10
62.17765175854426
 20
121.3878884353648
 30
0.0
  0
VERTEX
  5
4EB
330
49E
100
AcDbEntity
  8
GRAU_10_
 62
     7
100
AcDbVertex
100
AcDb2dVertex
 10
62.18117953632091
 20
121.3928273242525
 30
0.0
  0
VERTEX
  5
4EC
330
49E
100
AcDbEntity
  8
GRAU_10_
 62
     7
100
AcDbVertex
100
AcDb2dVertex
 10
62.18400175854268
 20
121.3977662131402
 30
0.0
  0
VERTEX
  5
4ED
330
49E
100
AcDbEntity
  8
GRAU_10_
 62
     7
100
AcDbVertex
100
AcDb2dVertex
 10
62.1871767585419
 20
121.4027051020276
 30
0.0
  0
VERTEX
  5
4EE
330
49E
100
AcDbEntity
  8
GRAU_10_
 62
     7
100
AcDbVertex
100
AcDb2dVertex
 10
62.19070453631855
 20
121.4069384353601
 30
0.0
  0
VERTEX
  5
4EF
330
49E
100
AcDbEntity
  8
GRAU_10_
 62
     7
100
AcDbVertex
100
AcDb2dVertex
 10
62.19352675854032
 20
121.4118773242478
 30
0.0
  0
VERTEX
  5
4F0
330
49E
100
AcDbEntity
  8
GRAU_10_
 62
     7
100
AcDbVertex
100
AcDb2dVertex
 10
62.19634898076177
 20
121.4168162131355
 30
0.0
  0
VERTEX
  5
4F1
330
49E
100
AcDbEntity
  8
GRAU_10_
 62
     7
100
AcDbVertex
100
AcDb2dVertex
 10
62.19987675853874
 20
121.4217551020229
 30
0.0
  0
VERTEX
  5
4F2
330
49E
100
AcDbEntity
  8
GRAU_10_
 62
     7
100
AcDbVertex
100
AcDb2dVertex
 10
62.20269898076019
 20
121.4266939909109
 30
0.0
  0
VERTEX
  5
4F3
330
49E
100
AcDbEntity
  8
GRAU_10_
 62
     7
100
AcDbVertex
100
AcDb2dVertex
 10
62.2058739807594
 20
121.431985657576
 30
0.0
  0
VERTEX
  5
4F4
330
49E
100
AcDbEntity
  8
GRAU_10_
 62
     7
100
AcDbVertex
100
AcDb2dVertex
 10
62.20869620298085
 20
121.436571768686
 30
0.0
  0
VERTEX
  5
4F5
330
49E
100
AcDbEntity
  8
GRAU_10_
 62
     7
100
AcDbVertex
100
AcDb2dVertex
 10
62.21187120298006
 20
121.4415106575737
 30
0.0
  0
VERTEX
  5
4F6
330
49E
100
AcDbEntity
  8
GRAU_10_
 62
     7
100
AcDbVertex
100
AcDb2dVertex
 10
62.21469342520151
 20
121.4464495464614
 30
0.0
  0
VERTEX
  5
4F7
330
49E
100
AcDbEntity
  8
GRAU_10_
 62
     7
100
AcDbVertex
100
AcDb2dVertex
 10
62.21822120297848
 20
121.4510356575713
 30
0.0
  0
VERTEX
  5
4F8
330
49E
100
AcDbEntity
  8
GRAU_10_
 62
     7
100
AcDbVertex
100
AcDb2dVertex
 10
62.22104342519994
 20
121.455974546459
 30
0.0
  0
VERTEX
  5
4F9
330
49E
100
AcDbEntity
  8
GRAU_10_
 62
     7
100
AcDbVertex
100
AcDb2dVertex
 10
62.22386564742138
 20
121.4605606575689
 30
0.0
  0
VERTEX
  5
4FA
330
49E
100
AcDbEntity
  8
GRAU_10_
 62
     7
100
AcDbVertex
100
AcDb2dVertex
 10
62.22704064742059
 20
121.4658523242341
 30
0.0
  0
VERTEX
  5
4FB
330
49E
100
AcDbEntity
  8
GRAU_10_
 62
     7
100
AcDbVertex
100
AcDb2dVertex
 10
62.22986286964205
 20
121.4707912131221
 30
0.0
  0
VERTEX
  5
4FC
330
49E
100
AcDbEntity
  8
GRAU_10_
 62
     7
100
AcDbVertex
100
AcDb2dVertex
 10
62.23303786964126
 20
121.4753773242317
 30
0.0
  0
VERTEX
  5
4FD
330
49E
100
AcDbEntity
  8
GRAU_10_
 62
     7
100
AcDbVertex
100
AcDb2dVertex
 10
62.23586009186303
 20
121.479963435342
 30
0.0
  0
VERTEX
  5
4FE
330
49E
100
AcDbEntity
  8
GRAU_10_
 62
     7
100
AcDbVertex
100
AcDb2dVertex
 10
62.23903509186224
 20
121.4849023242293
 30
0.0
  0
VERTEX
  5
4FF
330
49E
100
AcDbEntity
  8
GRAU_10_
 62
     7
100
AcDbVertex
100
AcDb2dVertex
 10
62.24185731408369
 20
121.4894884353396
 30
0.0
  0
VERTEX
  5
500
330
49E
100
AcDbEntity
  8
GRAU_10_
 62
     7
100
AcDbVertex
100
AcDb2dVertex
 10
62.24467953630514
 20
121.494427324227
 30
0.0
  0
VERTEX
  5
501
330
49E
100
AcDbEntity
  8
GRAU_10_
 62
     7
100
AcDbVertex
100
AcDb2dVertex
 10
62.24785453630435
 20
121.4997189908924
 30
0.0
  0
VERTEX
  5
502
330
49E
100
AcDbEntity
  8
GRAU_10_
 62
     7
100
AcDbVertex
100
AcDb2dVertex
 10
62.25032398074804
 20
121.5043051020024
 30
0.0
  0
VERTEX
  5
503
330
49E
100
AcDbEntity
  8
GRAU_10_
 62
     7
100
AcDbVertex
100
AcDb2dVertex
 10
62.25385175852501
 20
121.5092439908901
 30
0.0
  0
VERTEX
  5
504
330
49E
100
AcDbEntity
  8
GRAU_10_
 62
     7
100
AcDbVertex
100
AcDb2dVertex
 10
62.25667398074646
 20
121.5134773242222
 30
0.0
  0
VERTEX
  5
505
330
49E
100
AcDbEntity
  8
GRAU_10_
 62
     7
100
AcDbVertex
100
AcDb2dVertex
 10
62.25914342519047
 20
121.5184162131099
 30
0.0
  0
VERTEX
  5
506
330
49E
100
AcDbEntity
  8
GRAU_10_
 62
     7
100
AcDbVertex
100
AcDb2dVertex
 10
62.26231842518968
 20
121.5233551019976
 30
0.0
  0
VERTEX
  5
507
330
49E
100
AcDbEntity
  8
GRAU_10_
 62
     7
100
AcDbVertex
100
AcDb2dVertex
 10
62.26514064741113
 20
121.5279412131076
 30
0.0
  0
VERTEX
  5
508
330
49E
100
AcDbEntity
  8
GRAU_10_
 62
     7
100
AcDbVertex
100
AcDb2dVertex
 10
62.26796286963258
 20
121.5321745464397
 30
0.0
  0
VERTEX
  5
509
330
49E
100
AcDbEntity
  8
GRAU_10_
 62
     7
100
AcDbVertex
100
AcDb2dVertex
 10
62.27113786963179
 20
121.5371134353274
 30
0.0
  0
VERTEX
  5
50A
330
49E
100
AcDbEntity
  8
GRAU_10_
 62
     7
100
AcDbVertex
100
AcDb2dVertex
 10
62.2736073140758
 20
121.5420523242151
 30
0.0
  0
VERTEX
  5
50B
330
49E
100
AcDbEntity
  8
GRAU_10_
 62
     7
100
AcDbVertex
100
AcDb2dVertex
 10
62.27678231407501
 20
121.5466384353251
 30
0.0
  0
VERTEX
  5
50C
330
49E
100
AcDbEntity
  8
GRAU_10_
 62
     7
100
AcDbVertex
100
AcDb2dVertex
 10
62.27960453629647
 20
121.5508717686572
 30
0.0
  0
VERTEX
  5
50D
330
49E
100
AcDbEntity
  8
GRAU_10_
 62
     7
100
AcDbVertex
100
AcDb2dVertex
 10
62.28207398074015
 20
121.5554578797675
 30
0.0
  0
VERTEX
  5
50E
330
49E
100
AcDbEntity
  8
GRAU_10_
 62
     7
100
AcDbVertex
100
AcDb2dVertex
 10
62.28524898073937
 20
121.5603967686549
 30
0.0
  0
VERTEX
  5
50F
330
49E
100
AcDbEntity
  8
GRAU_10_
 62
     7
100
AcDbVertex
100
AcDb2dVertex
 10
62.28807120296113
 20
121.5646301019874
 30
0.0
  0
VERTEX
  5
510
330
49E
100
AcDbEntity
  8
GRAU_10_
 62
     7
100
AcDbVertex
100
AcDb2dVertex
 10
62.29054064740482
 20
121.5692162130973
 30
0.0
  0
VERTEX
  5
511
330
49E
100
AcDbEntity
  8
GRAU_10_
 62
     7
100
AcDbVertex
100
AcDb2dVertex
 10
62.29371564740403
 20
121.5738023242073
 30
0.0
  0
VERTEX
  5
512
330
49E
100
AcDbEntity
  8
GRAU_10_
 62
     7
100
AcDbVertex
100
AcDb2dVertex
 10
62.29653786962548
 20
121.5780356575394
 30
0.0
  0
VERTEX
  5
513
330
49E
100
AcDbEntity
  8
GRAU_10_
 62
     7
100
AcDbVertex
100
AcDb2dVertex
 10
62.29865453629174
 20
121.5826217686494
 30
0.0
  0
VERTEX
  5
514
330
49E
100
AcDbEntity
  8
GRAU_10_
 62
     7
100
AcDbVertex
100
AcDb2dVertex
 10
62.30712120295608
 20
121.5960273242017
 30
0.0
  0
VERTEX
  5
515
330
49E
100
AcDbEntity
  8
GRAU_10_
 62
     7
100
AcDbVertex
100
AcDb2dVertex
 10
62.31523509184299
 20
121.6083745464208
 30
0.0
  0
VERTEX
  5
516
330
49E
100
AcDbEntity
  8
GRAU_10_
 62
     7
100
AcDbVertex
100
AcDb2dVertex
 10
62.32299620295214
 20
121.6203689908621
 30
0.0
  0
VERTEX
  5
517
330
49E
100
AcDbEntity
  8
GRAU_10_
 62
     7
100
AcDbVertex
100
AcDb2dVertex
 10
62.33005175850609
 20
121.6323634353038
 30
0.0
  0
VERTEX
  5
518
330
49E
100
AcDbEntity
  8
GRAU_10_
 62
     7
100
AcDbVertex
100
AcDb2dVertex
 10
62.33675453628227
 20
121.6436523241899
 30
0.0
  0
VERTEX
  5
519
330
49E
100
AcDbEntity
  8
GRAU_10_
 62
     7
100
AcDbVertex
100
AcDb2dVertex
 10
62.34345731405813
 20
121.6545884352979
 30
0.0
  0
VERTEX
  5
51A
330
49E
100
AcDbEntity
  8
GRAU_10_
 62
     7
100
AcDbVertex
100
AcDb2dVertex
 10
62.34980731405656
 20
121.6655245464066
 30
0.0
  0
VERTEX
  5
51B
330
49E
100
AcDbEntity
  8
GRAU_10_
 62
     7
100
AcDbVertex
100
AcDb2dVertex
 10
62.35545175849978
 20
121.675402324182
 30
0.0
  0
VERTEX
  5
51C
330
49E
100
AcDbEntity
  8
GRAU_10_
 62
     7
100
AcDbVertex
100
AcDb2dVertex
 10
62.3618017584982
 20
121.6845745464019
 30
0.0
  0
VERTEX
  5
51D
330
49E
100
AcDbEntity
  8
GRAU_10_
 62
     7
100
AcDbVertex
100
AcDb2dVertex
 10
62.36709342516334
 20
121.693393990844
 30
0.0
  0
VERTEX
  5
51E
330
49E
100
AcDbEntity
  8
GRAU_10_
 62
     7
100
AcDbVertex
100
AcDb2dVertex
 10
62.37203231405103
 20
121.7018606575083
 30
0.0
  0
VERTEX
  5
51F
330
49E
100
AcDbEntity
  8
GRAU_10_
 62
     7
100
AcDbVertex
100
AcDb2dVertex
 10
62.37626564738353
 20
121.7099745463956
 30
0.0
  0
VERTEX
  5
520
330
49E
100
AcDbEntity
  8
GRAU_10_
 62
     7
100
AcDbVertex
100
AcDb2dVertex
 10
62.38049898071571
 20
121.717382879727
 30
0.0
  0
VERTEX
  5
521
330
49E
100
AcDbEntity
  8
GRAU_10_
 62
     7
100
AcDbVertex
100
AcDb2dVertex
 10
62.38473231404788
 20
121.7247912130584
 30
0.0
  0
VERTEX
  5
522
330
49E
100
AcDbEntity
  8
GRAU_10_
 62
     7
100
AcDbVertex
100
AcDb2dVertex
 10
62.38861286960262
 20
121.730788435279
 30
0.0
  0
VERTEX
  5
523
330
49E
100
AcDbEntity
  8
GRAU_10_
 62
     7
100
AcDbVertex
100
AcDb2dVertex
 10
62.39178786960183
 20
121.7367856574997
 30
0.0
  0
VERTEX
  5
524
330
49E
100
AcDbEntity
  8
GRAU_10_
 62
     7
100
AcDbVertex
100
AcDb2dVertex
 10
62.39531564737848
 20
121.7420773241651
 30
0.0
  0
VERTEX
  5
525
330
49E
100
AcDbEntity
  8
GRAU_10_
 62
     7
100
AcDbVertex
100
AcDb2dVertex
 10
62.39778509182248
 20
121.7470162130528
 30
0.0
  0
VERTEX
  5
526
330
49E
100
AcDbEntity
  8
GRAU_10_
 62
     7
100
AcDbVertex
100
AcDb2dVertex
 10
62.39990175848842
 20
121.751249546385
 30
0.0
  0
VERTEX
  5
527
330
49E
100
AcDbEntity
  8
GRAU_10_
 62
     7
100
AcDbVertex
100
AcDb2dVertex
 10
62.40201842515467
 20
121.7551301019397
 30
0.0
  0
VERTEX
  5
528
330
49E
100
AcDbEntity
  8
GRAU_10_
 62
     7
100
AcDbVertex
100
AcDb2dVertex
 10
62.40413509182091
 20
121.7579523241612
 30
0.0
  0
VERTEX
  5
529
330
49E
100
AcDbEntity
  8
GRAU_10_
 62
     7
100
AcDbVertex
100
AcDb2dVertex
 10
62.4058989807094
 20
121.7607745463826
 30
0.0
  0
VERTEX
  5
52A
330
49E
100
AcDbEntity
  8
GRAU_10_
 62
     7
100
AcDbVertex
100
AcDb2dVertex
 10
62.40695731404236
 20
121.7625384352711
 30
0.0
  0
VERTEX
  5
52B
330
49E
100
AcDbEntity
  8
GRAU_10_
 62
     7
100
AcDbVertex
100
AcDb2dVertex
 10
62.40766286959789
 20
121.7643023241596
 30
0.0
  0
VERTEX
  5
52C
330
49E
100
AcDbEntity
  8
GRAU_10_
 62
     7
100
AcDbVertex
100
AcDb2dVertex
 10
62.40801564737532
 20
121.7653606574926
 30
0.0
  0
VERTEX
  5
52D
330
49E
100
AcDbEntity
  8
GRAU_10_
 62
     7
100
AcDbVertex
100
AcDb2dVertex
 10
62.40801564737532
 20
121.7657134352703
 30
0.0
  0
SEQEND
  5
52E
330
49E
100
AcDbEntity
  8
GRAU_10_
 62
     7
  0
POLYLINE
  5
52F
330
1F
100
AcDbEntity
  8
GRAU_10_
 62
     7
100
AcDb2dPolyline
 66
     1
 10
0.0
 20
0.0
 30
0.0
  0
VERTEX
  5
530
330
52F
100
AcDbEntity
  8
GRAU_10_
 62
     7
100
AcDbVertex
100
AcDb2dVertex
 10
70.82882120082564
 20
136.6610495426576
 30
0.0
  0
VERTEX
  5
531
330
52F
100
AcDbEntity
  8
GRAU_10_
 62
     7
100
AcDbVertex
100
AcDb2dVertex
 10
70.82882120082564
 20
137.7031550979525
 30
0.0
  0
SEQEND
  5
532
330
52F
100
AcDbEntity
  8
GRAU_10_
 62
     7
  0
POLYLINE
  5
533
330
1F
100
AcDbEntity
  8
GRAU_10_
 62
     7
100
AcDb2dPolyline
 66
     1
 10
0.0
 20
0.0
 30
0.0
  0
VERTEX
  5
534
330
533
100
AcDbEntity
  8
GRAU_10_
 62
     7
100
AcDbVertex
100
AcDb2dVertex
 10
70.82882120082564
 20
138.74490787547
 30
0.0
  0
VERTEX
  5
535
330
533
100
AcDbEntity
  8
GRAU_10_
 62
     7
100
AcDbVertex
100
AcDb2dVertex
 10
70.82882120082564
 20
139.2656078753397
 30
0.0
  0
SEQEND
  5
536
330
533
100
AcDbEntity
  8
GRAU_10_
 62
     7
  0
POLYLINE
  5
537
330
1F
100
AcDbEntity
  8
GRAU_10_
 62
     7
100
AcDb2dPolyline
 66
     1
 10
0.0
 20
0.0
 30
0.0
  0
VERTEX
  5
538
330
537
100
AcDbEntity
  8
GRAU_10_
 62
     7
100
AcDbVertex
100
AcDb2dVertex
 10
64.82912953565904
 20
139.2656078753397
 30
0.0
  0
VERTEX
  5
539
330
537
100
AcDbEntity
  8
GRAU_10_
 62
     7
100
AcDbVertex
100
AcDb2dVertex
 10
64.82912953565904
 20
138.74490787547
 30
0.0
  0
SEQEND
  5
53A
330
537
100
AcDbEntity
  8
GRAU_10_
 62
     7
  0
POLYLINE
  5
53B
330
1F
100
AcDbEntity
  8
GRAU_10_
 62
     7
100
AcDb2dPolyline
 66
     1
 10
0.0
 20
0.0
 30
0.0
  0
VERTEX
  5
53C
330
53B
100
AcDbEntity
  8
GRAU_10_
 62
     7
100
AcDbVertex
100
AcDb2dVertex
 10
64.82912953565904
 20
137.7031550979525
 30
0.0
  0
VERTEX
  5
53D
330
53B
100
AcDbEntity
  8
GRAU_10_
 62
     7
100
AcDbVertex
100
AcDb2dVertex
 10
64.82912953565904
 20
136.6610495426576
 30
0.0
  0
SEQEND
  5
53E
330
53B
100
AcDbEntity
  8
GRAU_10_
 62
     7
  0
POLYLINE
  5
53F
330
1F
100
AcDbEntity
  8
GRAU_10_
 62
     7
100
AcDb2dPolyline
 66
     1
 10
0.0
 20
0.0
 30
0.0
  0
VERTEX
  5
540
330
53F
100
AcDbEntity
  8
GRAU_10_
 62
     7
100
AcDbVertex
100
AcDb2dVertex
 10
62.43729620292375
 20
121.7657134352703
 30
0.0
  0
VERTEX
  5
541
330
53F
100
AcDbEntity
  8
GRAU_10_
 62
     7
100
AcDbVertex
100
AcDb2dVertex
 10
61.74444064754143
 20
121.7657134352703
 30
0.0
  0
SEQEND
  5
542
330
53F
100
AcDbEntity
  8
GRAU_10_
 62
     7
  0
POLYLINE
  5
543
330
1F
100
AcDbEntity
  8
GRAU_10_
 62
     7
100
AcDb2dPolyline
 66
     1
 10
0.0
 20
0.0
 30
0.0
  0
VERTEX
  5
544
330
543
100
AcDbEntity
  8
GRAU_10_
 62
     7
100
AcDbVertex
100
AcDb2dVertex
 10
48.44754065086565
 20
123.6163856570299
 30
0.0
  0
VERTEX
  5
545
330
543
100
AcDbEntity
  8
GRAU_10_
 62
     7
100
AcDbVertex
100
AcDb2dVertex
 10
48.24469342869389
 20
123.2653717682288
 30
0.0
  0
VERTEX
  5
546
330
543
100
AcDbEntity
  8
GRAU_10_
 62
     7
100
AcDbVertex
100
AcDb2dVertex
 10
48.24469342869389
 20
123.256199546009
 30
0.0
  0
VERTEX
  5
547
330
543
100
AcDbEntity
  8
GRAU_10_
 62
     7
100
AcDbVertex
100
AcDb2dVertex
 10
48.24469342869389
 20
123.227624546016
 30
0.0
  0
SEQEND
  5
548
330
543
100
AcDbEntity
  8
GRAU_10_
 62
     7
  0
POLYLINE
  5
549
330
1F
100
AcDbEntity
  8
GRAU_10_
 62
     7
100
AcDb2dPolyline
 66
     1
 10
0.0
 20
0.0
 30
0.0
  0
VERTEX
  5
54A
330
549
100
AcDbEntity
  8
GRAU_10_
 62
     7
100
AcDbVertex
100
AcDb2dVertex
 10
48.24469342869389
 20
111.2656356601175
 30
0.0
  0
VERTEX
  5
54B
330
549
100
AcDbEntity
  8
GRAU_10_
 62
     7
100
AcDbVertex
100
AcDb2dVertex
 10
48.44754065086565
 20
110.9146217713164
 30
0.0
  0
SEQEND
  5
54C
330
549
100
AcDbEntity
  8
GRAU_10_
 62
     7
  0
POLYLINE
  5
54D
330
1F
100
AcDbEntity
  8
GRAU_10_
 62
     7
100
AcDb2dPolyline
 66
     1
 10
0.0
 20
0.0
 30
0.0
  0
VERTEX
  5
54E
330
54D
100
AcDbEntity
  8
GRAU_10_
 62
     7
100
AcDbVertex
100
AcDb2dVertex
 10
48.24469342869389
 20
111.3033828823303
 30
0.0
  0
VERTEX
  5
54F
330
54D
100
AcDbEntity
  8
GRAU_10_
 62
     7
100
AcDbVertex
100
AcDb2dVertex
 10
48.24469342869389
 20
111.2748078823377
 30
0.0
  0
VERTEX
  5
550
330
54D
100
AcDbEntity
  8
GRAU_10_
 62
     7
100
AcDbVertex
100
AcDb2dVertex
 10
48.24469342869389
 20
111.2656356601175
 30
0.0
  0
SEQEND
  5
551
330
54D
100
AcDbEntity
  8
GRAU_10_
 62
     7
  0
POLYLINE
  5
552
330
1F
100
AcDbEntity
  8
GRAU_10_
 62
     7
100
AcDb2dPolyline
 66
     1
 10
0.0
 20
0.0
 30
0.0
  0
VERTEX
  5
553
330
552
100
AcDbEntity
  8
GRAU_10_
 62
     7
100
AcDbVertex
100
AcDb2dVertex
 10
62.7420962028474
 20
120.6689273244333
 30
0.0
  0
VERTEX
  5
554
330
552
100
AcDbEntity
  8
GRAU_10_
 62
     7
100
AcDbVertex
100
AcDb2dVertex
 10
62.72551564729614
 20
120.6495245466606
 30
0.0
  0
VERTEX
  5
555
330
552
100
AcDbEntity
  8
GRAU_10_
 62
     7
100
AcDbVertex
100
AcDb2dVertex
 10
62.71105175841081
 20
120.631885657776
 30
0.0
  0
VERTEX
  5
556
330
552
100
AcDbEntity
  8
GRAU_10_
 62
     7
100
AcDbVertex
100
AcDb2dVertex
 10
62.697293425081
 20
120.614952324447
 30
0.0
  0
VERTEX
  5
557
330
552
100
AcDbEntity
  8
GRAU_10_
 62
     7
100
AcDbVertex
100
AcDb2dVertex
 10
62.68282953619567
 20
120.5976662133402
 30
0.0
  0
VERTEX
  5
558
330
552
100
AcDbEntity
  8
GRAU_10_
 62
     7
100
AcDbVertex
100
AcDb2dVertex
 10
62.66836564731034
 20
120.5803801022334
 30
0.0
  0
VERTEX
  5
559
330
552
100
AcDbEntity
  8
GRAU_10_
 62
     7
100
AcDbVertex
100
AcDb2dVertex
 10
62.65390175842501
 20
120.5630939911267
 30
0.0
  0
VERTEX
  5
55A
330
552
100
AcDbEntity
  8
GRAU_10_
 62
     7
100
AcDbVertex
100
AcDb2dVertex
 10
62.63943786953967
 20
120.5451023244644
 30
0.0
  0
VERTEX
  5
55B
330
552
100
AcDbEntity
  8
GRAU_10_
 62
     7
100
AcDbVertex
100
AcDb2dVertex
 10
62.62567953620987
 20
120.5278162133576
 30
0.0
  0
VERTEX
  5
55C
330
552
100
AcDbEntity
  8
GRAU_10_
 62
     7
100
AcDbVertex
100
AcDb2dVertex
 10
62.61121564732453
 20
120.5098245466956
 30
0.0
  0
VERTEX
  5
55D
330
552
100
AcDbEntity
  8
GRAU_10_
 62
     7
100
AcDbVertex
100
AcDb2dVertex
 10
62.59675175843952
 20
120.492185657811
 30
0.0
  0
VERTEX
  5
55E
330
552
100
AcDbEntity
  8
GRAU_10_
 62
     7
100
AcDbVertex
100
AcDb2dVertex
 10
62.58228786955419
 20
120.4741939911488
 30
0.0
  0
VERTEX
  5
55F
330
552
100
AcDbEntity
  8
GRAU_10_
 62
     7
100
AcDbVertex
100
AcDb2dVertex
 10
62.56782398066886
 20
120.4565551022645
 30
0.0
  0
VERTEX
  5
560
330
552
100
AcDbEntity
  8
GRAU_10_
 62
     7
100
AcDbVertex
100
AcDb2dVertex
 10
62.55406564733905
 20
120.4382106578245
 30
0.0
  0
VERTEX
  5
561
330
552
100
AcDbEntity
  8
GRAU_10_
 62
     7
100
AcDbVertex
100
AcDb2dVertex
 10
62.53995453623148
 20
120.4205717689399
 30
0.0
  0
VERTEX
  5
562
330
552
100
AcDbEntity
  8
GRAU_10_
 62
     7
100
AcDbVertex
100
AcDb2dVertex
 10
62.52549064734615
 20
120.4022273245002
 30
0.0
  0
VERTEX
  5
563
330
552
100
AcDbEntity
  8
GRAU_10_
 62
     7
100
AcDbVertex
100
AcDb2dVertex
 10
62.51102675846082
 20
120.3835301022827
 30
0.0
  0
VERTEX
  5
564
330
552
100
AcDbEntity
  8
GRAU_10_
 62
     7
100
AcDbVertex
100
AcDb2dVertex
 10
62.497268425131
 20
120.3655384356204
 30
0.0
  0
VERTEX
  5
565
330
552
100
AcDbEntity
  8
GRAU_10_
 62
     7
100
AcDbVertex
100
AcDb2dVertex
 10
62.48315731402344
 20
120.3468412134029
 30
0.0
  0
VERTEX
  5
566
330
552
100
AcDbEntity
  8
GRAU_10_
 62
     7
100
AcDbVertex
100
AcDb2dVertex
 10
62.4686934251381
 20
120.3288495467406
 30
0.0
  0
VERTEX
  5
567
330
552
100
AcDbEntity
  8
GRAU_10_
 62
     7
100
AcDbVertex
100
AcDb2dVertex
 10
62.45528786958573
 20
120.310152324523
 30
0.0
  0
VERTEX
  5
568
330
552
100
AcDbEntity
  8
GRAU_10_
 62
     7
100
AcDbVertex
100
AcDb2dVertex
 10
62.45246564736428
 20
120.3069773245238
 30
0.0
  0
SEQEND
  5
569
330
552
100
AcDbEntity
  8
GRAU_10_
 62
     7
  0
POLYLINE
  5
56A
330
1F
100
AcDbEntity
  8
GRAU_10_
 62
     7
100
AcDb2dPolyline
 66
     1
 10
0.0
 20
0.0
 30
0.0
  0
VERTEX
  5
56B
330
56A
100
AcDbEntity
  8
GRAU_10_
 62
     7
100
AcDbVertex
100
AcDb2dVertex
 10
61.98574064748085
 20
119.5086412136123
 30
0.0
  0
VERTEX
  5
56C
330
56A
100
AcDbEntity
  8
GRAU_10_
 62
     7
100
AcDbVertex
100
AcDb2dVertex
 10
61.98009620303795
 20
119.4945301025048
 30
0.0
  0
VERTEX
  5
56D
330
56A
100
AcDbEntity
  8
GRAU_10_
 62
     7
100
AcDbVertex
100
AcDb2dVertex
 10
61.97304064748432
 20
119.4747745469543
 30
0.0
  0
VERTEX
  5
56E
330
56A
100
AcDbEntity
  8
GRAU_10_
 62
     7
100
AcDbVertex
100
AcDb2dVertex
 10
61.96633786970814
 20
119.455724546959
 30
0.0
  0
VERTEX
  5
56F
330
56A
100
AcDbEntity
  8
GRAU_10_
 62
     7
100
AcDbVertex
100
AcDb2dVertex
 10
61.95857675859899
 20
119.4338523247423
 30
0.0
  0
VERTEX
  5
570
330
56A
100
AcDbEntity
  8
GRAU_10_
 62
     7
100
AcDbVertex
100
AcDb2dVertex
 10
61.95046286971208
 20
119.4116273247478
 30
0.0
  0
VERTEX
  5
571
330
56A
100
AcDbEntity
  8
GRAU_10_
 62
     7
100
AcDbVertex
100
AcDb2dVertex
 10
61.94234898082518
 20
119.3869328803093
 30
0.0
  0
VERTEX
  5
572
330
56A
100
AcDbEntity
  8
GRAU_10_
 62
     7
100
AcDbVertex
100
AcDb2dVertex
 10
61.93494064749379
 20
119.3625912136489
 30
0.0
  0
VERTEX
  5
573
330
56A
100
AcDbEntity
  8
GRAU_10_
 62
     7
100
AcDbVertex
100
AcDb2dVertex
 10
61.92647398082912
 20
119.3354273247668
 30
0.0
  0
VERTEX
  5
574
330
56A
100
AcDbEntity
  8
GRAU_10_
 62
     7
100
AcDbVertex
100
AcDb2dVertex
 10
61.91836009194221
 20
119.3082634358846
 30
0.0
  0
VERTEX
  5
575
330
56A
100
AcDbEntity
  8
GRAU_10_
 62
     7
100
AcDbVertex
100
AcDb2dVertex
 10
61.9095406475001
 20
119.2782773247813
 30
0.0
  0
VERTEX
  5
576
330
56A
100
AcDbEntity
  8
GRAU_10_
 62
     7
100
AcDbVertex
100
AcDb2dVertex
 10
61.90142675861319
 20
119.2489967692328
 30
0.0
  0
VERTEX
  5
577
330
56A
100
AcDbEntity
  8
GRAU_10_
 62
     7
100
AcDbVertex
100
AcDb2dVertex
 10
61.89296009194852
 20
119.2165412136855
 30
0.0
  0
VERTEX
  5
578
330
56A
100
AcDbEntity
  8
GRAU_10_
 62
     7
100
AcDbVertex
100
AcDb2dVertex
 10
61.88484620306193
 20
119.1833801025827
 30
0.0
  0
VERTEX
  5
579
330
56A
100
AcDbEntity
  8
GRAU_10_
 62
     7
100
AcDbVertex
100
AcDb2dVertex
 10
61.87673231417502
 20
119.1488078803691
 30
0.0
  0
VERTEX
  5
57A
330
56A
100
AcDbEntity
  8
GRAU_10_
 62
     7
100
AcDbVertex
100
AcDb2dVertex
 10
61.86897120306588
 20
119.1131773248223
 30
0.0
  0
VERTEX
  5
57B
330
56A
100
AcDbEntity
  8
GRAU_10_
 62
     7
100
AcDbVertex
100
AcDb2dVertex
 10
61.86191564751193
 20
119.0747245470543
 30
0.0
  0
VERTEX
  5
57C
330
56A
100
AcDbEntity
  8
GRAU_10_
 62
     7
100
AcDbVertex
100
AcDb2dVertex
 10
61.8548600919583
 20
119.0366245470638
 30
0.0
  0
VERTEX
  5
57D
330
56A
100
AcDbEntity
  8
GRAU_10_
 62
     7
100
AcDbVertex
100
AcDb2dVertex
 10
61.84992120307061
 20
119.0066384359601
 30
0.0
  0
VERTEX
  5
57E
330
56A
100
AcDbEntity
  8
GRAU_10_
 62
     7
100
AcDbVertex
100
AcDb2dVertex
 10
61.84533509196067
 20
118.9759467693013
 30
0.0
  0
VERTEX
  5
57F
330
56A
100
AcDbEntity
  8
GRAU_10_
 62
     7
100
AcDbVertex
100
AcDb2dVertex
 10
61.84110175862818
 20
118.9470189915306
 30
0.0
  0
VERTEX
  5
580
330
56A
100
AcDbEntity
  8
GRAU_10_
 62
     7
100
AcDbVertex
100
AcDb2dVertex
 10
61.83722120307376
 20
118.917032880427
 30
0.0
  0
VERTEX
  5
581
330
56A
100
AcDbEntity
  8
GRAU_10_
 62
     7
100
AcDbVertex
100
AcDb2dVertex
 10
61.83439898085231
 20
118.8881051026564
 30
0.0
  0
VERTEX
  5
582
330
56A
100
AcDbEntity
  8
GRAU_10_
 62
     7
100
AcDbVertex
100
AcDb2dVertex
 10
61.83087120307534
 20
118.8588245471082
 30
0.0
  0
VERTEX
  5
583
330
56A
100
AcDbEntity
  8
GRAU_10_
 62
     7
100
AcDbVertex
100
AcDb2dVertex
 10
61.82840175863133
 20
118.8302495471153
 30
0.0
  0
VERTEX
  5
584
330
56A
100
AcDbEntity
  8
GRAU_10_
 62
     7
100
AcDbVertex
100
AcDb2dVertex
 10
61.8262850919654
 20
118.802380102678
 30
0.0
  0
VERTEX
  5
585
330
56A
100
AcDbEntity
  8
GRAU_10_
 62
     7
100
AcDbVertex
100
AcDb2dVertex
 10
61.82416842529916
 20
118.7741578804628
 30
0.0
  0
VERTEX
  5
586
330
56A
100
AcDbEntity
  8
GRAU_10_
 62
     7
100
AcDbVertex
100
AcDb2dVertex
 10
61.82240453641067
 20
118.7459356582477
 30
0.0
  0
VERTEX
  5
587
330
56A
100
AcDbEntity
  8
GRAU_10_
 62
     7
100
AcDbVertex
100
AcDb2dVertex
 10
61.82169898085547
 20
118.7184189915877
 30
0.0
  0
VERTEX
  5
588
330
56A
100
AcDbEntity
  8
GRAU_10_
 62
     7
100
AcDbVertex
100
AcDb2dVertex
 10
61.82028786974474
 20
118.6909023249278
 30
0.0
  0
VERTEX
  5
589
330
56A
100
AcDbEntity
  8
GRAU_10_
 62
     7
100
AcDbVertex
100
AcDb2dVertex
 10
61.81993509196698
 20
118.6640912138237
 30
0.0
  0
VERTEX
  5
58A
330
56A
100
AcDbEntity
  8
GRAU_10_
 62
     7
100
AcDbVertex
100
AcDb2dVertex
 10
61.81958231418922
 20
118.637280102719
 30
0.0
  0
VERTEX
  5
58B
330
56A
100
AcDbEntity
  8
GRAU_10_
 62
     7
100
AcDbVertex
100
AcDb2dVertex
 10
61.81958231418922
 20
118.6111745471701
 30
0.0
  0
VERTEX
  5
58C
330
56A
100
AcDbEntity
  8
GRAU_10_
 62
     7
100
AcDbVertex
100
AcDb2dVertex
 10
61.81958231418922
 20
118.6009439916172
 30
0.0
  0
SEQEND
  5
58D
330
56A
100
AcDbEntity
  8
GRAU_10_
 62
     7
  0
POLYLINE
  5
58E
330
1F
100
AcDbEntity
  8
GRAU_10_
 62
     7
100
AcDb2dPolyline
 66
     1
 10
0.0
 20
0.0
 30
0.0
  0
VERTEX
  5
58F
330
58E
100
AcDbEntity
  8
GRAU_10_
 62
     7
100
AcDbVertex
100
AcDb2dVertex
 10
61.97092398081808
 20
117.6897189918449
 30
0.0
  0
VERTEX
  5
590
330
58E
100
AcDbEntity
  8
GRAU_10_
 62
     7
100
AcDbVertex
100
AcDb2dVertex
 10
61.97727398081651
 20
117.6717273251829
 30
0.0
  0
VERTEX
  5
591
330
58E
100
AcDbEntity
  8
GRAU_10_
 62
     7
100
AcDbVertex
100
AcDb2dVertex
 10
61.98503509192565
 20
117.6495023251884
 30
0.0
  0
VERTEX
  5
592
330
58E
100
AcDbEntity
  8
GRAU_10_
 62
     7
100
AcDbVertex
100
AcDb2dVertex
 10
61.99244342525704
 20
117.6276301029717
 30
0.0
  0
VERTEX
  5
593
330
58E
100
AcDbEntity
  8
GRAU_10_
 62
     7
100
AcDbVertex
100
AcDb2dVertex
 10
62.0009100919217
 20
117.605757880755
 30
0.0
  0
VERTEX
  5
594
330
58E
100
AcDbEntity
  8
GRAU_10_
 62
     7
100
AcDbVertex
100
AcDb2dVertex
 10
62.00937675858606
 20
117.5838856585382
 30
0.0
  0
VERTEX
  5
595
330
58E
100
AcDbEntity
  8
GRAU_10_
 62
     7
100
AcDbVertex
100
AcDb2dVertex
 10
62.01854898080625
 20
117.5616606585438
 30
0.0
  0
VERTEX
  5
596
330
58E
100
AcDbEntity
  8
GRAU_10_
 62
     7
100
AcDbVertex
100
AcDb2dVertex
 10
62.02736842524836
 20
117.5394356585493
 30
0.0
  0
VERTEX
  5
597
330
58E
100
AcDbEntity
  8
GRAU_10_
 62
     7
100
AcDbVertex
100
AcDb2dVertex
 10
62.03618786969047
 20
117.5172106585548
 30
0.0
  0
VERTEX
  5
598
330
58E
100
AcDbEntity
  8
GRAU_10_
 62
     7
100
AcDbVertex
100
AcDb2dVertex
 10
62.04606564746587
 20
117.4949856585603
 30
0.0
  0
VERTEX
  5
599
330
58E
100
AcDbEntity
  8
GRAU_10_
 62
     7
100
AcDbVertex
100
AcDb2dVertex
 10
62.0555906474635
 20
117.4720551030103
 30
0.0
  0
VERTEX
  5
59A
330
58E
100
AcDbEntity
  8
GRAU_10_
 62
     7
100
AcDbVertex
100
AcDb2dVertex
 10
62.06582120301666
 20
117.4494773252384
 30
0.0
  0
VERTEX
  5
59B
330
58E
100
AcDbEntity
  8
GRAU_10_
 62
     7
100
AcDbVertex
100
AcDb2dVertex
 10
62.0760517585695
 20
117.4268995474662
 30
0.0
  0
VERTEX
  5
59C
330
58E
100
AcDbEntity
  8
GRAU_10_
 62
     7
100
AcDbVertex
100
AcDb2dVertex
 10
62.08698786967786
 20
117.4039689919165
 30
0.0
  0
VERTEX
  5
59D
330
58E
100
AcDbEntity
  8
GRAU_10_
 62
     7
100
AcDbVertex
100
AcDb2dVertex
 10
62.09827675856398
 20
117.3813912141442
 30
0.0
  0
VERTEX
  5
59E
330
58E
100
AcDbEntity
  8
GRAU_10_
 62
     7
100
AcDbVertex
100
AcDb2dVertex
 10
62.1095656474501
 20
117.3581078808168
 30
0.0
  0
VERTEX
  5
59F
330
58E
100
AcDbEntity
  8
GRAU_10_
 62
     7
100
AcDbVertex
100
AcDb2dVertex
 10
62.12050175855845
 20
117.3348245474893
 30
0.0
  0
VERTEX
  5
5A0
330
58E
100
AcDbEntity
  8
GRAU_10_
 62
     7
100
AcDbVertex
100
AcDb2dVertex
 10
62.13284898077754
 20
117.3122467697171
 30
0.0
  0
VERTEX
  5
5A1
330
58E
100
AcDbEntity
  8
GRAU_10_
 62
     7
100
AcDbVertex
100
AcDb2dVertex
 10
62.14519620299662
 20
117.2886106586119
 30
0.0
  0
VERTEX
  5
5A2
330
58E
100
AcDbEntity
  8
GRAU_10_
 62
     7
100
AcDbVertex
100
AcDb2dVertex
 10
62.15754342521571
 20
117.2656801030622
 30
0.0
  0
SEQEND
  5
5A3
330
58E
100
AcDbEntity
  8
GRAU_10_
 62
     7
  0
POLYLINE
  5
5A4
330
1F
100
AcDbEntity
  8
GRAU_10_
 62
     7
100
AcDb2dPolyline
 66
     1
 10
0.0
 20
0.0
 30
0.0
  0
VERTEX
  5
5A5
330
5A4
100
AcDbEntity
  8
GRAU_10_
 62
     7
100
AcDbVertex
100
AcDb2dVertex
 10
48.24469342869389
 20
117.2656801030622
 30
0.0
  0
VERTEX
  5
5A6
330
5A4
100
AcDbEntity
  8
GRAU_10_
 62
     7
100
AcDbVertex
100
AcDb2dVertex
 10
48.24469342869389
 20
114.867849548106
 30
0.0
  0
SEQEND
  5
5A7
330
5A4
100
AcDbEntity
  8
GRAU_10_
 62
     7
  0
POLYLINE
  5
5A8
330
1F
100
AcDbEntity
  8
GRAU_10_
 62
     7
100
AcDb2dPolyline
 66
     1
 10
0.0
 20
0.0
 30
0.0
  0
VERTEX
  5
5A9
330
5A8
100
AcDbEntity
  8
GRAU_10_
 62
     7
100
AcDbVertex
100
AcDb2dVertex
 10
48.44754065086565
 20
114.0899745483004
 30
0.0
  0
VERTEX
  5
5AA
330
5A8
100
AcDbEntity
  8
GRAU_10_
 62
     7
100
AcDbVertex
100
AcDb2dVertex
 10
48.34064898422574
 20
113.8962995483489
 30
0.0
  0
VERTEX
  5
5AB
330
5A8
100
AcDbEntity
  8
GRAU_10_
 62
     7
100
AcDbVertex
100
AcDb2dVertex
 10
48.24469342869389
 20
113.7012134372866
 30
0.0
  0
VERTEX
  5
5AC
330
5A8
100
AcDbEntity
  8
GRAU_10_
 62
     7
100
AcDbVertex
100
AcDb2dVertex
 10
48.24469342869389
 20
112.5021217709196
 30
0.0
  0
SEQEND
  5
5AD
330
5A8
100
AcDbEntity
  8
GRAU_10_
 62
     7
  0
POLYLINE
  5
5AE
330
1F
100
AcDbEntity
  8
GRAU_10_
 62
     7
100
AcDb2dPolyline
 66
     1
 10
0.0
 20
0.0
 30
0.0
  0
VERTEX
  5
5AF
330
5AE
100
AcDbEntity
  8
GRAU_10_
 62
     7
100
AcDbVertex
100
AcDb2dVertex
 10
48.24469342869389
 20
122.0288856574268
 30
0.0
  0
VERTEX
  5
5B0
330
5AE
100
AcDbEntity
  8
GRAU_10_
 62
     7
100
AcDbVertex
100
AcDb2dVertex
 10
48.24469342869389
 20
120.8297939910598
 30
0.0
  0
SEQEND
  5
5B1
330
5AE
100
AcDbEntity
  8
GRAU_10_
 62
     7
  0
POLYLINE
  5
5B2
330
1F
100
AcDbEntity
  8
GRAU_10_
 62
     7
100
AcDb2dPolyline
 66
     1
 10
0.0
 20
0.0
 30
0.0
  0
VERTEX
  5
5B3
330
5B2
100
AcDbEntity
  8
GRAU_10_
 62
     7
100
AcDbVertex
100
AcDb2dVertex
 10
48.24469342869389
 20
114.867849548106
 30
0.0
  0
VERTEX
  5
5B4
330
5B2
100
AcDbEntity
  8
GRAU_10_
 62
     7
100
AcDbVertex
100
AcDb2dVertex
 10
48.24469342869389
 20
114.2656578815897
 30
0.0
  0
VERTEX
  5
5B5
330
5B2
100
AcDbEntity
  8
GRAU_10_
 62
     7
100
AcDbVertex
100
AcDb2dVertex
 10
48.24469342869389
 20
113.7012134372866
 30
0.0
  0
SEQEND
  5
5B6
330
5B2
100
AcDbEntity
  8
GRAU_10_
 62
     7
  0
POLYLINE
  5
5B7
330
1F
100
AcDbEntity
  8
GRAU_10_
 62
     7
100
AcDb2dPolyline
 66
     1
 10
0.0
 20
0.0
 30
0.0
  0
VERTEX
  5
5B8
330
5B7
100
AcDbEntity
  8
GRAU_10_
 62
     7
100
AcDbVertex
100
AcDb2dVertex
 10
48.48528787307843
 20
120.2653495467566
 30
0.0
  0
VERTEX
  5
5B9
330
5B7
100
AcDbEntity
  8
GRAU_10_
 62
     7
100
AcDbVertex
100
AcDb2dVertex
 10
47.42272120667718
 20
120.2653495467566
 30
0.0
  0
SEQEND
  5
5BA
330
5B7
100
AcDbEntity
  8
GRAU_10_
 62
     7
  0
POLYLINE
  5
5BC
330
1F
100
AcDbEntity
  8
STANDARDEBENE
 62
   155
100
AcDb2dPolyline
 66
     1
 10
0.0
 20
0.0
 30
0.0
  0
VERTEX
  5
5BD
330
5BC
100
AcDbEntity
  8
STANDARDEBENE
 62
   155
100
AcDbVertex
100
AcDb2dVertex
 10
64.9935239800625
 20
122.1435384351759
 30
0.0
  0
VERTEX
  5
5BE
330
5BC
100
AcDbEntity
  8
STANDARDEBENE
 62
   155
100
AcDbVertex
100
AcDb2dVertex
 10
64.97941286895494
 20
122.1435384351759
 30
0.0
  0
SEQEND
  5
5BF
330
5BC
100
AcDbEntity
  8
STANDARDEBENE
 62
   155
  0
POLYLINE
  5
5C0
330
1F
100
AcDbEntity
  8
STANDARDEBENE
 62
   155
100
AcDb2dPolyline
 66
     1
 10
0.0
 20
0.0
 30
0.0
  0
VERTEX
  5
5C1
330
5C0
100
AcDbEntity
  8
STANDARDEBENE
 62
   155
100
AcDbVertex
100
AcDb2dVertex
 10
64.95013231340651
 20
122.1435384351759
 30
0.0
  0
VERTEX
  5
5C2
330
5C0
100
AcDbEntity
  8
STANDARDEBENE
 62
   155
100
AcDbVertex
100
AcDb2dVertex
 10
64.93566842452118
 20
122.1435384351759
 30
0.0
  0
SEQEND
  5
5C3
330
5C0
100
AcDbEntity
  8
STANDARDEBENE
 62
   155
  0
POLYLINE
  5
5C4
330
1F
100
AcDbEntity
  8
STANDARDEBENE
 62
   155
100
AcDb2dPolyline
 66
     1
 10
0.0
 20
0.0
 30
0.0
  0
VERTEX
  5
5C5
330
5C4
100
AcDbEntity
  8
STANDARDEBENE
 62
   155
100
AcDbVertex
100
AcDb2dVertex
 10
64.9942295356177
 20
122.1435384351759
 30
0.0
  0
VERTEX
  5
5C6
330
5C4
100
AcDbEntity
  8
STANDARDEBENE
 62
   155
100
AcDbVertex
100
AcDb2dVertex
 10
64.93566842452118
 20
122.1435384351759
 30
0.0
  0
SEQEND
  5
5C7
330
5C4
100
AcDbEntity
  8
STANDARDEBENE
 62
   155
  0
POLYLINE
  5
5C8
330
1F
100
AcDbEntity
  8
STANDARDEBENE
 62
   155
100
AcDb2dPolyline
 66
     1
 10
0.0
 20
0.0
 30
0.0
  0
VERTEX
  5
5C9
330
5C8
100
AcDbEntity
  8
STANDARDEBENE
 62
   155
100
AcDbVertex
100
AcDb2dVertex
 10
63.41554898045701
 20
121.4432745464621
 30
0.0
  0
VERTEX
  5
5CA
330
5C8
100
AcDbEntity
  8
STANDARDEBENE
 62
   155
100
AcDbVertex
100
AcDb2dVertex
 10
63.75668509148272
 20
121.7015078797309
 30
0.0
  0
SEQEND
  5
5CB
330
5C8
100
AcDbEntity
  8
STANDARDEBENE
 62
   155
  0
POLYLINE
  5
5CC
330
1F
100
AcDbEntity
  8
STANDARDEBENE
 62
   155
100
AcDb2dPolyline
 66
     1
 10
0.0
 20
0.0
 30
0.0
  0
VERTEX
  5
5CD
330
5CC
100
AcDbEntity
  8
STANDARDEBENE
 62
   155
100
AcDbVertex
100
AcDb2dVertex
 10
64.51692120240368
 20
122.0514634351987
 30
0.0
  0
VERTEX
  5
5CE
330
5CC
100
AcDbEntity
  8
STANDARDEBENE
 62
   155
100
AcDbVertex
100
AcDb2dVertex
 10
64.93566842452118
 20
122.1435384351759
 30
0.0
  0
SEQEND
  5
5CF
330
5CC
100
AcDbEntity
  8
STANDARDEBENE
 62
   155
  0
SPLINE
  5
5D0
330
1F
100
AcDbEntity
  8
STANDARDEBENE
 62
   155
100
AcDbSpline
210
0.0
220
0.0
230
1.0
 70
     8
 71
     3
 72
     8
 73
     4
 74
     0
 42
0.0000000001
 43
0.0000000001
 12
1.0
 22
0.0
 32
0.0
 13
1.0
 23
0.0
 33
0.0
 40
0.0
 40
0.0
 40
0.0
 40
0.0
 40
1.0
 40
1.0
 40
1.0
 40
1.0
 10
64.93566842452118
 20
122.1435384351759
 30
0.0
 10
64.32853786911757
 20
122.1435384351759
 30
0.0
 10
63.78455453592009
 20
121.872957879688
 30
0.0
 10
63.41554898045701
 20
121.4432745464621
 30
0.0
  0
POLYLINE
  5
5D1
330
1F
100
AcDbEntity
  8
STANDARDEBENE
 62
     7
100
AcDb2dPolyline
 66
     1
 10
0.0
 20
0.0
 30
0.0
  0
VERTEX
  5
5D2
330
5D1
100
AcDbEntity
  8
STANDARDEBENE
 62
     7
100
AcDbVertex
100
AcDb2dVertex
 10
61.67071009200436
 20
124.387910656837
 30
0.0
  0
VERTEX
  5
5D3
330
5D1
100
AcDbEntity
  8
STANDARDEBENE
 62
     7
100
AcDbVertex
100
AcDb2dVertex
 10
73.98724064448064
 20
124.387910656837
 30
0.0
  0
SEQEND
  5
5D4
330
5D1
100
AcDbEntity
  8
STANDARDEBENE
 62
     7
  0
POLYLINE
  5
5D5
330
1F
100
AcDbEntity
  8
STANDARDEBENE
 62
     7
100
AcDb2dPolyline
 66
     1
 10
0.0
 20
0.0
 30
0.0
  0
VERTEX
  5
5D6
330
5D5
100
AcDbEntity
  8
STANDARDEBENE
 62
     7
100
AcDbVertex
100
AcDb2dVertex
 10
70.82882120082564
 20
126.765632878465
 30
0.0
  0
VERTEX
  5
5D7
330
5D5
100
AcDbEntity
  8
STANDARDEBENE
 62
     7
100
AcDbVertex
100
AcDb2dVertex
 10
70.82882120082564
 20
127.2866856561122
 30
0.0
  0
SEQEND
  5
5D8
330
5D5
100
AcDbEntity
  8
STANDARDEBENE
 62
     7
  0
POLYLINE
  5
5D9
330
1F
100
AcDbEntity
  8
STANDARDEBENE
 62
     7
100
AcDb2dPolyline
 66
     1
 10
0.0
 20
0.0
 30
0.0
  0
VERTEX
  5
5DA
330
5D9
100
AcDbEntity
  8
STANDARDEBENE
 62
     7
100
AcDbVertex
100
AcDb2dVertex
 10
70.82882120082564
 20
128.3280856558519
 30
0.0
  0
VERTEX
  5
5DB
330
5D9
100
AcDbEntity
  8
STANDARDEBENE
 62
     7
100
AcDbVertex
100
AcDb2dVertex
 10
70.82882120082564
 20
129.3694856555917
 30
0.0
  0
SEQEND
  5
5DC
330
5D9
100
AcDbEntity
  8
STANDARDEBENE
 62
     7
  0
POLYLINE
  5
5DD
330
1F
100
AcDbEntity
  8
STANDARDEBENE
 62
     7
100
AcDb2dPolyline
 66
     1
 10
0.0
 20
0.0
 30
0.0
  0
VERTEX
  5
5DE
330
5DD
100
AcDbEntity
  8
STANDARDEBENE
 62
     7
100
AcDbVertex
100
AcDb2dVertex
 10
70.82882120082564
 20
130.4112384331088
 30
0.0
  0
VERTEX
  5
5DF
330
5DD
100
AcDbEntity
  8
STANDARDEBENE
 62
     7
100
AcDbVertex
100
AcDb2dVertex
 10
70.82882120082564
 20
131.4526384328485
 30
0.0
  0
SEQEND
  5
5E0
330
5DD
100
AcDbEntity
  8
STANDARDEBENE
 62
     7
  0
POLYLINE
  5
5E1
330
1F
100
AcDbEntity
  8
STANDARDEBENE
 62
     7
100
AcDb2dPolyline
 66
     1
 10
0.0
 20
0.0
 30
0.0
  0
VERTEX
  5
5E2
330
5E1
100
AcDbEntity
  8
STANDARDEBENE
 62
     7
100
AcDbVertex
100
AcDb2dVertex
 10
70.82882120082564
 20
132.4947439881438
 30
0.0
  0
VERTEX
  5
5E3
330
5E1
100
AcDbEntity
  8
STANDARDEBENE
 62
     7
100
AcDbVertex
100
AcDb2dVertex
 10
70.82882120082564
 20
133.536496765661
 30
0.0
  0
SEQEND
  5
5E4
330
5E1
100
AcDbEntity
  8
STANDARDEBENE
 62
     7
  0
POLYLINE
  5
5E5
330
1F
100
AcDbEntity
  8
STANDARDEBENE
 62
     7
100
AcDb2dPolyline
 66
     1
 10
0.0
 20
0.0
 30
0.0
  0
VERTEX
  5
5E6
330
5E5
100
AcDbEntity
  8
STANDARDEBENE
 62
     7
100
AcDbVertex
100
AcDb2dVertex
 10
70.82882120082564
 20
134.5778967654007
 30
0.0
  0
VERTEX
  5
5E7
330
5E5
100
AcDbEntity
  8
STANDARDEBENE
 62
     7
100
AcDbVertex
100
AcDb2dVertex
 10
70.82882120082564
 20
135.6192967651404
 30
0.0
  0
SEQEND
  5
5E8
330
5E5
100
AcDbEntity
  8
STANDARDEBENE
 62
     7
  0
POLYLINE
  5
5E9
330
1F
100
AcDbEntity
  8
STANDARDEBENE
 62
     7
100
AcDb2dPolyline
 66
     1
 10
0.0
 20
0.0
 30
0.0
  0
VERTEX
  5
5EA
330
5E9
100
AcDbEntity
  8
STANDARDEBENE
 62
     7
100
AcDbVertex
100
AcDb2dVertex
 10
64.82912953565904
 20
135.6192967651404
 30
0.0
  0
VERTEX
  5
5EB
330
5E9
100
AcDbEntity
  8
STANDARDEBENE
 62
     7
100
AcDbVertex
100
AcDb2dVertex
 10
64.82912953565904
 20
134.5778967654007
 30
0.0
  0
SEQEND
  5
5EC
330
5E9
100
AcDbEntity
  8
STANDARDEBENE
 62
     7
  0
POLYLINE
  5
5ED
330
1F
100
AcDbEntity
  8
STANDARDEBENE
 62
     7
100
AcDb2dPolyline
 66
     1
 10
0.0
 20
0.0
 30
0.0
  0
VERTEX
  5
5EE
330
5ED
100
AcDbEntity
  8
STANDARDEBENE
 62
     7
100
AcDbVertex
100
AcDb2dVertex
 10
64.82912953565904
 20
133.536496765661
 30
0.0
  0
VERTEX
  5
5EF
330
5ED
100
AcDbEntity
  8
STANDARDEBENE
 62
     7
100
AcDbVertex
100
AcDb2dVertex
 10
64.82912953565904
 20
132.4947439881438
 30
0.0
  0
SEQEND
  5
5F0
330
5ED
100
AcDbEntity
  8
STANDARDEBENE
 62
     7
  0
POLYLINE
  5
5F1
330
1F
100
AcDbEntity
  8
STANDARDEBENE
 62
     7
100
AcDb2dPolyline
 66
     1
 10
0.0
 20
0.0
 30
0.0
  0
VERTEX
  5
5F2
330
5F1
100
AcDbEntity
  8
STANDARDEBENE
 62
     7
100
AcDbVertex
100
AcDb2dVertex
 10
64.82912953565904
 20
131.4526384328485
 30
0.0
  0
VERTEX
  5
5F3
330
5F1
100
AcDbEntity
  8
STANDARDEBENE
 62
     7
100
AcDbVertex
100
AcDb2dVertex
 10
64.82912953565904
 20
130.4112384331088
 30
0.0
  0
SEQEND
  5
5F4
330
5F1
100
AcDbEntity
  8
STANDARDEBENE
 62
     7
  0
POLYLINE
  5
5F5
330
1F
100
AcDbEntity
  8
STANDARDEBENE
 62
     7
100
AcDb2dPolyline
 66
     1
 10
0.0
 20
0.0
 30
0.0
  0
VERTEX
  5
5F6
330
5F5
100
AcDbEntity
  8
STANDARDEBENE
 62
     7
100
AcDbVertex
100
AcDb2dVertex
 10
64.82912953565904
 20
129.3694856555917
 30
0.0
  0
VERTEX
  5
5F7
330
5F5
100
AcDbEntity
  8
STANDARDEBENE
 62
     7
100
AcDbVertex
100
AcDb2dVertex
 10
64.82912953565904
 20
128.3280856558519
 30
0.0
  0
SEQEND
  5
5F8
330
5F5
100
AcDbEntity
  8
STANDARDEBENE
 62
     7
  0
POLYLINE
  5
5F9
330
1F
100
AcDbEntity
  8
STANDARDEBENE
 62
     7
100
AcDb2dPolyline
 66
     1
 10
0.0
 20
0.0
 30
0.0
  0
VERTEX
  5
5FA
330
5F9
100
AcDbEntity
  8
STANDARDEBENE
 62
     7
100
AcDbVertex
100
AcDb2dVertex
 10
64.82912953565904
 20
127.2866856561122
 30
0.0
  0
VERTEX
  5
5FB
330
5F9
100
AcDbEntity
  8
STANDARDEBENE
 62
     7
100
AcDbVertex
100
AcDb2dVertex
 10
64.82912953565904
 20
126.765632878465
 30
0.0
  0
SEQEND
  5
5FC
330
5F9
100
AcDbEntity
  8
STANDARDEBENE
 62
     7
  0
POLYLINE
  5
5FD
330
1F
100
AcDbEntity
  8
STANDARDEBENE
 62
     7
100
AcDb2dPolyline
 66
     1
 10
0.0
 20
0.0
 30
0.0
  0
VERTEX
  5
5FE
330
5FD
100
AcDbEntity
  8
STANDARDEBENE
 62
     7
100
AcDbVertex
100
AcDb2dVertex
 10
70.82882120082564
 20
126.765632878465
 30
0.0
  0
VERTEX
  5
5FF
330
5FD
100
AcDbEntity
  8
STANDARDEBENE
 62
     7
100
AcDbVertex
100
AcDb2dVertex
 10
70.72686842307344
 20
126.765632878465
 30
0.0
  0
VERTEX
  5
600
330
5FD
100
AcDbEntity
  8
STANDARDEBENE
 62
     7
100
AcDbVertex
100
AcDb2dVertex
 10
70.42736008981493
 20
126.765632878465
 30
0.0
  0
VERTEX
  5
601
330
5FD
100
AcDbEntity
  8
STANDARDEBENE
 62
     7
100
AcDbVertex
100
AcDb2dVertex
 10
70.32893508983969
 20
126.765632878465
 30
0.0
  0
SEQEND
  5
602
330
5FD
100
AcDbEntity
  8
STANDARDEBENE
 62
     7
  0
POLYLINE
  5
603
330
1F
100
AcDbEntity
  8
STANDARDEBENE
 62
     7
100
AcDb2dPolyline
 66
     1
 10
0.0
 20
0.0
 30
0.0
  0
VERTEX
  5
604
330
603
100
AcDbEntity
  8
STANDARDEBENE
 62
     7
100
AcDbVertex
100
AcDb2dVertex
 10
69.32916286786747
 20
126.765632878465
 30
0.0
  0
VERTEX
  5
605
330
603
100
AcDbEntity
  8
STANDARDEBENE
 62
     7
100
AcDbVertex
100
AcDb2dVertex
 10
68.60526286804824
 20
126.765632878465
 30
0.0
  0
VERTEX
  5
606
330
603
100
AcDbEntity
  8
STANDARDEBENE
 62
     7
100
AcDbVertex
100
AcDb2dVertex
 10
68.3290378681175
 20
126.765632878465
 30
0.0
  0
SEQEND
  5
607
330
603
100
AcDbEntity
  8
STANDARDEBENE
 62
     7
  0
POLYLINE
  5
608
330
1F
100
AcDbEntity
  8
STANDARDEBENE
 62
     7
100
AcDb2dPolyline
 66
     1
 10
0.0
 20
0.0
 30
0.0
  0
VERTEX
  5
609
330
608
100
AcDbEntity
  8
STANDARDEBENE
 62
     7
100
AcDbVertex
100
AcDb2dVertex
 10
67.32926564614527
 20
126.765632878465
 30
0.0
  0
VERTEX
  5
60A
330
608
100
AcDbEntity
  8
STANDARDEBENE
 62
     7
100
AcDbVertex
100
AcDb2dVertex
 10
67.05268786843644
 20
126.765632878465
 30
0.0
  0
VERTEX
  5
60B
330
608
100
AcDbEntity
  8
STANDARDEBENE
 62
     7
100
AcDbVertex
100
AcDb2dVertex
 10
66.32878786861752
 20
126.765632878465
 30
0.0
  0
SEQEND
  5
60C
330
608
100
AcDbEntity
  8
STANDARDEBENE
 62
     7
  0
POLYLINE
  5
60D
330
1F
100
AcDbEntity
  8
STANDARDEBENE
 62
     7
100
AcDb2dPolyline
 66
     1
 10
0.0
 20
0.0
 30
0.0
  0
VERTEX
  5
60E
330
60D
100
AcDbEntity
  8
STANDARDEBENE
 62
     7
100
AcDbVertex
100
AcDb2dVertex
 10
65.32866286886754
 20
126.765632878465
 30
0.0
  0
VERTEX
  5
60F
330
60D
100
AcDbEntity
  8
STANDARDEBENE
 62
     7
100
AcDbVertex
100
AcDb2dVertex
 10
65.23059064666975
 20
126.765632878465
 30
0.0
  0
VERTEX
  5
610
330
60D
100
AcDbEntity
  8
STANDARDEBENE
 62
     7
100
AcDbVertex
100
AcDb2dVertex
 10
64.931435091189
 20
126.765632878465
 30
0.0
  0
VERTEX
  5
611
330
60D
100
AcDbEntity
  8
STANDARDEBENE
 62
     7
100
AcDbVertex
100
AcDb2dVertex
 10
64.82912953565904
 20
126.765632878465
 30
0.0
  0
SEQEND
  5
612
330
60D
100
AcDbEntity
  8
STANDARDEBENE
 62
     7
  0
POLYLINE
  5
613
330
1F
100
AcDbEntity
  8
STANDARDEBENE
 62
     7
100
AcDb2dPolyline
 66
     1
 10
0.0
 20
0.0
 30
0.0
  0
VERTEX
  5
614
330
613
100
AcDbEntity
  8
STANDARDEBENE
 62
     7
100
AcDbVertex
100
AcDb2dVertex
 10
70.32893508983969
 20
124.390380101281
 30
0.0
  0
VERTEX
  5
615
330
613
100
AcDbEntity
  8
STANDARDEBENE
 62
     7
100
AcDbVertex
100
AcDb2dVertex
 10
70.32893508983969
 20
125.3407634343766
 30
0.0
  0
SEQEND
  5
616
330
613
100
AcDbEntity
  8
STANDARDEBENE
 62
     7
  0
POLYLINE
  5
617
330
1F
100
AcDbEntity
  8
STANDARDEBENE
 62
     7
100
AcDb2dPolyline
 66
     1
 10
0.0
 20
0.0
 30
0.0
  0
VERTEX
  5
618
330
617
100
AcDbEntity
  8
STANDARDEBENE
 62
     7
100
AcDbVertex
100
AcDb2dVertex
 10
70.32893508983969
 20
126.2907939896947
 30
0.0
  0
VERTEX
  5
619
330
617
100
AcDbEntity
  8
STANDARDEBENE
 62
     7
100
AcDbVertex
100
AcDb2dVertex
 10
70.32893508983969
 20
126.765632878465
 30
0.0
  0
SEQEND
  5
61A
330
617
100
AcDbEntity
  8
STANDARDEBENE
 62
     7
  0
POLYLINE
  5
61B
330
1F
100
AcDbEntity
  8
STANDARDEBENE
 62
     7
100
AcDb2dPolyline
 66
     1
 10
0.0
 20
0.0
 30
0.0
  0
VERTEX
  5
61C
330
61B
100
AcDbEntity
  8
STANDARDEBENE
 62
     7
100
AcDbVertex
100
AcDb2dVertex
 10
65.32866286886754
 20
126.765632878465
 30
0.0
  0
VERTEX
  5
61D
330
61B
100
AcDbEntity
  8
STANDARDEBENE
 62
     7
100
AcDbVertex
100
AcDb2dVertex
 10
65.32866286886754
 20
126.1824912119441
 30
0.0
  0
SEQEND
  5
61E
330
61B
100
AcDbEntity
  8
STANDARDEBENE
 62
     7
  0
SPLINE
  5
61F
330
1F
100
AcDbEntity
  8
STANDARDEBENE
 62
     7
100
AcDbSpline
210
0.0
220
0.0
230
1.0
 70
     8
 71
     3
 72
     8
 73
     4
 74
     0
 42
0.0000000001
 43
0.0000000001
 12
1.0
 22
0.0
 32
0.0
 13
1.0
 23
0.0
 33
0.0
 40
0.0
 40
0.0
 40
0.0
 40
0.0
 40
1.0
 40
1.0
 40
1.0
 40
1.0
 10
64.93566842452118
 20
122.1435384351759
 30
0.0
 10
64.32853786911757
 20
122.1435384351759
 30
0.0
 10
63.78455453592009
 20
121.872957879688
 30
0.0
 10
63.41554898045701
 20
121.4432745464621
 30
0.0
  0
POLYLINE
  5
620
330
1F
100
AcDbEntity
  8
STANDARDEBENE
 62
     7
100
AcDb2dPolyline
 66
     1
 10
0.0
 20
0.0
 30
0.0
  0
VERTEX
  5
621
330
620
100
AcDbEntity
  8
STANDARDEBENE
 62
     7
100
AcDbVertex
100
AcDb2dVertex
 10
70.32893508983969
 20
117.2656801030622
 30
0.0
  0
VERTEX
  5
622
330
620
100
AcDbEntity
  8
STANDARDEBENE
 62
     7
100
AcDbVertex
100
AcDb2dVertex
 10
70.32893508983969
 20
117.7401662140545
 30
0.0
  0
SEQEND
  5
623
330
620
100
AcDbEntity
  8
STANDARDEBENE
 62
     7
  0
POLYLINE
  5
624
330
1F
100
AcDbEntity
  8
STANDARDEBENE
 62
     7
100
AcDb2dPolyline
 66
     1
 10
0.0
 20
0.0
 30
0.0
  0
VERTEX
  5
625
330
624
100
AcDbEntity
  8
STANDARDEBENE
 62
     7
100
AcDbVertex
100
AcDb2dVertex
 10
70.32893508983969
 20
118.6905495471504
 30
0.0
  0
VERTEX
  5
626
330
624
100
AcDbEntity
  8
STANDARDEBENE
 62
     7
100
AcDbVertex
100
AcDb2dVertex
 10
70.32893508983969
 20
119.6405801024685
 30
0.0
  0
SEQEND
  5
627
330
624
100
AcDbEntity
  8
STANDARDEBENE
 62
     7
  0
POLYLINE
  5
628
330
1F
100
AcDbEntity
  8
STANDARDEBENE
 62
     7
100
AcDb2dPolyline
 66
     1
 10
0.0
 20
0.0
 30
0.0
  0
VERTEX
  5
629
330
628
100
AcDbEntity
  8
STANDARDEBENE
 62
     7
100
AcDbVertex
100
AcDb2dVertex
 10
70.32893508983969
 20
120.5906106577863
 30
0.0
  0
VERTEX
  5
62A
330
628
100
AcDbEntity
  8
STANDARDEBENE
 62
     7
100
AcDbVertex
100
AcDb2dVertex
 10
70.32893508983969
 20
121.5402884353266
 30
0.0
  0
SEQEND
  5
62B
330
628
100
AcDbEntity
  8
STANDARDEBENE
 62
     7
  0
POLYLINE
  5
62C
330
1F
100
AcDbEntity
  8
STANDARDEBENE
 62
     7
100
AcDb2dPolyline
 66
     1
 10
0.0
 20
0.0
 30
0.0
  0
VERTEX
  5
62D
330
62C
100
AcDbEntity
  8
STANDARDEBENE
 62
     7
100
AcDbVertex
100
AcDb2dVertex
 10
70.32893508983969
 20
122.4903189906448
 30
0.0
  0
VERTEX
  5
62E
330
62C
100
AcDbEntity
  8
STANDARDEBENE
 62
     7
100
AcDbVertex
100
AcDb2dVertex
 10
70.32893508983969
 20
123.4403495459629
 30
0.0
  0
SEQEND
  5
62F
330
62C
100
AcDbEntity
  8
STANDARDEBENE
 62
     7
  0
POLYLINE
  5
630
330
1F
100
AcDbEntity
  8
STANDARDEBENE
 62
     7
100
AcDb2dPolyline
 66
     1
 10
0.0
 20
0.0
 30
0.0
  0
VERTEX
  5
631
330
630
100
AcDbEntity
  8
STANDARDEBENE
 62
     7
100
AcDbVertex
100
AcDb2dVertex
 10
65.32866286886754
 20
125.0155023233466
 30
0.0
  0
VERTEX
  5
632
330
630
100
AcDbEntity
  8
STANDARDEBENE
 62
     7
100
AcDbVertex
100
AcDb2dVertex
 10
65.32866286886754
 20
123.8485134347498
 30
0.0
  0
SEQEND
  5
633
330
630
100
AcDbEntity
  8
STANDARDEBENE
 62
     7
  0
POLYLINE
  5
634
330
1F
100
AcDbEntity
  8
STANDARDEBENE
 62
     7
100
AcDb2dPolyline
 66
     1
 10
0.0
 20
0.0
 30
0.0
  0
VERTEX
  5
635
330
634
100
AcDbEntity
  8
STANDARDEBENE
 62
     7
100
AcDbVertex
100
AcDb2dVertex
 10
65.32866286886754
 20
122.6818773239301
 30
0.0
  0
VERTEX
  5
636
330
634
100
AcDbEntity
  8
STANDARDEBENE
 62
     7
100
AcDbVertex
100
AcDb2dVertex
 10
65.32866286886754
 20
121.5152412131107
 30
0.0
  0
SEQEND
  5
637
330
634
100
AcDbEntity
  8
STANDARDEBENE
 62
     7
  0
POLYLINE
  5
638
330
1F
100
AcDbEntity
  8
STANDARDEBENE
 62
     7
100
AcDb2dPolyline
 66
     1
 10
0.0
 20
0.0
 30
0.0
  0
VERTEX
  5
639
330
638
100
AcDbEntity
  8
STANDARDEBENE
 62
     7
100
AcDbVertex
100
AcDb2dVertex
 10
65.32866286886754
 20
120.3486051022913
 30
0.0
  0
VERTEX
  5
63A
330
638
100
AcDbEntity
  8
STANDARDEBENE
 62
     7
100
AcDbVertex
100
AcDb2dVertex
 10
65.32866286886754
 20
119.7658162135481
 30
0.0
  0
SEQEND
  5
63B
330
638
100
AcDbEntity
  8
STANDARDEBENE
 62
     7
  0
POLYLINE
  5
63C
330
1F
100
AcDbEntity
  8
STANDARDEBENE
 62
     7
100
AcDb2dPolyline
 66
     1
 10
0.0
 20
0.0
 30
0.0
  0
VERTEX
  5
63D
330
63C
100
AcDbEntity
  8
STANDARDEBENE
 62
     7
100
AcDbVertex
100
AcDb2dVertex
 10
67.82915175713121
 20
117.2656801030622
 30
0.0
  0
VERTEX
  5
63E
330
63C
100
AcDbEntity
  8
STANDARDEBENE
 62
     7
100
AcDbVertex
100
AcDb2dVertex
 10
67.51659064609842
 20
117.578241214095
 30
0.0
  0
SEQEND
  5
63F
330
63C
100
AcDbEntity
  8
STANDARDEBENE
 62
     7
  0
POLYLINE
  5
640
330
1F
100
AcDbEntity
  8
STANDARDEBENE
 62
     7
100
AcDb2dPolyline
 66
     1
 10
0.0
 20
0.0
 30
0.0
  0
VERTEX
  5
641
330
640
100
AcDbEntity
  8
STANDARDEBENE
 62
     7
100
AcDbVertex
100
AcDb2dVertex
 10
66.89111564625473
 20
118.2026578806054
 30
0.0
  0
VERTEX
  5
642
330
640
100
AcDbEntity
  8
STANDARDEBENE
 62
     7
100
AcDbVertex
100
AcDb2dVertex
 10
66.74400731295805
 20
118.3501189916799
 30
0.0
  0
VERTEX
  5
643
330
640
100
AcDbEntity
  8
STANDARDEBENE
 62
     7
100
AcDbVertex
100
AcDb2dVertex
 10
66.26987397974324
 20
118.8238995471169
 30
0.0
  0
VERTEX
  5
644
330
640
100
AcDbEntity
  8
STANDARDEBENE
 62
     7
100
AcDbVertex
100
AcDb2dVertex
 10
66.26669897974402
 20
118.8281328804494
 30
0.0
  0
SEQEND
  5
645
330
640
100
AcDbEntity
  8
STANDARDEBENE
 62
     7
  0
POLYLINE
  5
646
330
1F
100
AcDbEntity
  8
STANDARDEBENE
 62
     7
100
AcDb2dPolyline
 66
     1
 10
0.0
 20
0.0
 30
0.0
  0
VERTEX
  5
647
330
646
100
AcDbEntity
  8
STANDARDEBENE
 62
     7
100
AcDbVertex
100
AcDb2dVertex
 10
65.64157675767811
 20
119.4529023247373
 30
0.0
  0
VERTEX
  5
648
330
646
100
AcDbEntity
  8
STANDARDEBENE
 62
     7
100
AcDbVertex
100
AcDb2dVertex
 10
65.57666564658315
 20
119.51816621361
 30
0.0
  0
VERTEX
  5
649
330
646
100
AcDbEntity
  8
STANDARDEBENE
 62
     7
100
AcDbVertex
100
AcDb2dVertex
 10
65.391810091074
 20
119.7030217691194
 30
0.0
  0
VERTEX
  5
64A
330
646
100
AcDbEntity
  8
STANDARDEBENE
 62
     7
100
AcDbVertex
100
AcDb2dVertex
 10
65.32866286886754
 20
119.7658162135481
 30
0.0
  0
SEQEND
  5
64B
330
646
100
AcDbEntity
  8
STANDARDEBENE
 62
     7
  0
POLYLINE
  5
64C
330
1F
100
AcDbEntity
  8
STANDARDEBENE
 62
     7
100
AcDb2dPolyline
 66
     1
 10
0.0
 20
0.0
 30
0.0
  0
VERTEX
  5
64D
330
64C
100
AcDbEntity
  8
STANDARDEBENE
 62
     7
100
AcDbVertex
100
AcDb2dVertex
 10
70.32893508983969
 20
117.2656801030622
 30
0.0
  0
VERTEX
  5
64E
330
64C
100
AcDbEntity
  8
STANDARDEBENE
 62
     7
100
AcDbVertex
100
AcDb2dVertex
 10
70.20687397875894
 20
117.2656801030622
 30
0.0
  0
VERTEX
  5
64F
330
64C
100
AcDbEntity
  8
STANDARDEBENE
 62
     7
100
AcDbVertex
100
AcDb2dVertex
 10
69.85162675662566
 20
117.2656801030622
 30
0.0
  0
VERTEX
  5
650
330
64C
100
AcDbEntity
  8
STANDARDEBENE
 62
     7
100
AcDbVertex
100
AcDb2dVertex
 10
69.70416564555153
 20
117.2656801030622
 30
0.0
  0
SEQEND
  5
651
330
64C
100
AcDbEntity
  8
STANDARDEBENE
 62
     7
  0
POLYLINE
  5
652
330
1F
100
AcDbEntity
  8
STANDARDEBENE
 62
     7
100
AcDb2dPolyline
 66
     1
 10
0.0
 20
0.0
 30
0.0
  0
VERTEX
  5
653
330
652
100
AcDbEntity
  8
STANDARDEBENE
 62
     7
100
AcDbVertex
100
AcDb2dVertex
 10
68.45392120141938
 20
117.2656801030622
 30
0.0
  0
VERTEX
  5
654
330
652
100
AcDbEntity
  8
STANDARDEBENE
 62
     7
100
AcDbVertex
100
AcDb2dVertex
 10
67.82915175713121
 20
117.2656801030622
 30
0.0
  0
SEQEND
  5
655
330
652
100
AcDbEntity
  8
STANDARDEBENE
 62
     7
  0
POLYLINE
  5
656
330
1F
100
AcDbEntity
  8
STANDARDEBENE
 62
     7
100
AcDb2dPolyline
 66
     1
 10
0.0
 20
0.0
 30
0.0
  0
VERTEX
  5
657
330
656
100
AcDbEntity
  8
STANDARDEBENE
 62
     7
100
AcDbVertex
100
AcDb2dVertex
 10
65.32866286886754
 20
119.7658162135481
 30
0.0
  0
VERTEX
  5
658
330
656
100
AcDbEntity
  8
STANDARDEBENE
 62
     7
100
AcDbVertex
100
AcDb2dVertex
 10
64.82242675788285
 20
119.7658162135481
 30
0.0
  0
SEQEND
  5
659
330
656
100
AcDbEntity
  8
STANDARDEBENE
 62
     7
  0
POLYLINE
  5
65A
330
1F
100
AcDbEntity
  8
STANDARDEBENE
 62
     7
100
AcDb2dPolyline
 66
     1
 10
0.0
 20
0.0
 30
0.0
  0
VERTEX
  5
65B
330
65A
100
AcDbEntity
  8
STANDARDEBENE
 62
     7
100
AcDbVertex
100
AcDb2dVertex
 10
65.19672398001171
 20
114.7651912147982
 30
0.0
  0
VERTEX
  5
65C
330
65A
100
AcDbEntity
  8
STANDARDEBENE
 62
     7
100
AcDbVertex
100
AcDb2dVertex
 10
66.249765646415
 20
114.7651912147982
 30
0.0
  0
SEQEND
  5
65D
330
65A
100
AcDbEntity
  8
STANDARDEBENE
 62
     7
  0
POLYLINE
  5
65E
330
1F
100
AcDbEntity
  8
STANDARDEBENE
 62
     7
100
AcDb2dPolyline
 66
     1
 10
0.0
 20
0.0
 30
0.0
  0
VERTEX
  5
65F
330
65E
100
AcDbEntity
  8
STANDARDEBENE
 62
     7
100
AcDbVertex
100
AcDb2dVertex
 10
67.30245453504085
 20
114.7651912147982
 30
0.0
  0
VERTEX
  5
660
330
65E
100
AcDbEntity
  8
STANDARDEBENE
 62
     7
100
AcDbVertex
100
AcDb2dVertex
 10
67.82915175713121
 20
114.7651912147982
 30
0.0
  0
SEQEND
  5
661
330
65E
100
AcDbEntity
  8
STANDARDEBENE
 62
     7
  0
POLYLINE
  5
662
330
1F
100
AcDbEntity
  8
STANDARDEBENE
 62
     7
100
AcDb2dPolyline
 66
     1
 10
0.0
 20
0.0
 30
0.0
  0
VERTEX
  5
663
330
662
100
AcDbEntity
  8
STANDARDEBENE
 62
     7
100
AcDbVertex
100
AcDb2dVertex
 10
67.82915175713121
 20
117.2656801030622
 30
0.0
  0
VERTEX
  5
664
330
662
100
AcDbEntity
  8
STANDARDEBENE
 62
     7
100
AcDbVertex
100
AcDb2dVertex
 10
67.82915175713121
 20
116.640557880996
 30
0.0
  0
SEQEND
  5
665
330
662
100
AcDbEntity
  8
STANDARDEBENE
 62
     7
  0
POLYLINE
  5
666
330
1F
100
AcDbEntity
  8
STANDARDEBENE
 62
     7
100
AcDb2dPolyline
 66
     1
 10
0.0
 20
0.0
 30
0.0
  0
VERTEX
  5
667
330
666
100
AcDbEntity
  8
STANDARDEBENE
 62
     7
100
AcDbVertex
100
AcDb2dVertex
 10
67.82915175713121
 20
115.3906662146419
 30
0.0
  0
VERTEX
  5
668
330
666
100
AcDbEntity
  8
STANDARDEBENE
 62
     7
100
AcDbVertex
100
AcDb2dVertex
 10
67.82915175713121
 20
115.24285232579
 30
0.0
  0
VERTEX
  5
669
330
666
100
AcDbEntity
  8
STANDARDEBENE
 62
     7
100
AcDbVertex
100
AcDb2dVertex
 10
67.82915175713121
 20
114.8879578814342
 30
0.0
  0
VERTEX
  5
66A
330
666
100
AcDbEntity
  8
STANDARDEBENE
 62
     7
100
AcDbVertex
100
AcDb2dVertex
 10
67.82915175713121
 20
114.7651912147982
 30
0.0
  0
SEQEND
  5
66B
330
666
100
AcDbEntity
  8
STANDARDEBENE
 62
     7
  0
POLYLINE
  5
66C
330
1F
100
AcDbEntity
  8
STANDARDEBENE
 62
     7
100
AcDb2dPolyline
 66
     1
 10
0.0
 20
0.0
 30
0.0
  0
VERTEX
  5
66D
330
66C
100
AcDbEntity
  8
STANDARDEBENE
 62
     7
100
AcDbVertex
100
AcDb2dVertex
 10
48.44754065086565
 20
120.4410328800459
 30
0.0
  0
VERTEX
  5
66E
330
66C
100
AcDbEntity
  8
STANDARDEBENE
 62
     7
100
AcDbVertex
100
AcDb2dVertex
 10
53.89654620505893
 20
120.4410328800459
 30
0.0
  0
SEQEND
  5
66F
330
66C
100
AcDbEntity
  8
STANDARDEBENE
 62
     7
  0
POLYLINE
  5
670
330
1F
100
AcDbEntity
  8
STANDARDEBENE
 62
     7
100
AcDb2dPolyline
 66
     1
 10
0.0
 20
0.0
 30
0.0
  0
VERTEX
  5
671
330
670
100
AcDbEntity
  8
STANDARDEBENE
 62
     7
100
AcDbVertex
100
AcDb2dVertex
 10
48.44754065086565
 20
114.0899745483004
 30
0.0
  0
VERTEX
  5
672
330
670
100
AcDbEntity
  8
STANDARDEBENE
 62
     7
100
AcDbVertex
100
AcDb2dVertex
 10
53.89654620505893
 20
114.0899745483004
 30
0.0
  0
SEQEND
  5
673
330
670
100
AcDbEntity
  8
STANDARDEBENE
 62
     7
  0
POLYLINE
  5
674
330
1F
100
AcDbEntity
  8
STANDARDEBENE
 62
     7
100
AcDb2dPolyline
 66
     1
 10
0.0
 20
0.0
 30
0.0
  0
VERTEX
  5
675
330
674
100
AcDbEntity
  8
STANDARDEBENE
 62
     7
100
AcDbVertex
100
AcDb2dVertex
 10
48.24469342869389
 20
114.867849548106
 30
0.0
  0
VERTEX
  5
676
330
674
100
AcDbEntity
  8
STANDARDEBENE
 62
     7
100
AcDbVertex
100
AcDb2dVertex
 10
48.34064898422574
 20
114.4769717704258
 30
0.0
  0
VERTEX
  5
677
330
674
100
AcDbEntity
  8
STANDARDEBENE
 62
     7
100
AcDbVertex
100
AcDb2dVertex
 10
48.44754065086565
 20
114.0899745483004
 30
0.0
  0
SEQEND
  5
678
330
674
100
AcDbEntity
  8
STANDARDEBENE
 62
     7
  0
POLYLINE
  5
679
330
1F
100
AcDbEntity
  8
STANDARDEBENE
 62
     7
100
AcDb2dPolyline
 66
     1
 10
0.0
 20
0.0
 30
0.0
  0
VERTEX
  5
67A
330
679
100
AcDbEntity
  8
STANDARDEBENE
 62
     7
100
AcDbVertex
100
AcDb2dVertex
 10
48.44754065086565
 20
120.4410328800459
 30
0.0
  0
VERTEX
  5
67B
330
679
100
AcDbEntity
  8
STANDARDEBENE
 62
     7
100
AcDbVertex
100
AcDb2dVertex
 10
48.34064898422574
 20
120.0540356579205
 30
0.0
  0
VERTEX
  5
67C
330
679
100
AcDbEntity
  8
STANDARDEBENE
 62
     7
100
AcDbVertex
100
AcDb2dVertex
 10
48.24469342869389
 20
119.6631578802404
 30
0.0
  0
SEQEND
  5
67D
330
679
100
AcDbEntity
  8
STANDARDEBENE
 62
     7
  0
POLYLINE
  5
67E
330
1F
100
AcDbEntity
  8
STANDARDEBENE
 62
     7
100
AcDb2dPolyline
 66
     1
 10
0.0
 20
0.0
 30
0.0
  0
VERTEX
  5
67F
330
67E
100
AcDbEntity
  8
STANDARDEBENE
 62
     7
100
AcDbVertex
100
AcDb2dVertex
 10
48.24469342869389
 20
120.8297939910598
 30
0.0
  0
VERTEX
  5
680
330
67E
100
AcDbEntity
  8
STANDARDEBENE
 62
     7
100
AcDbVertex
100
AcDb2dVertex
 10
48.34064898422574
 20
120.6347078799975
 30
0.0
  0
VERTEX
  5
681
330
67E
100
AcDbEntity
  8
STANDARDEBENE
 62
     7
100
AcDbVertex
100
AcDb2dVertex
 10
48.44754065086565
 20
120.4410328800459
 30
0.0
  0
SEQEND
  5
682
330
67E
100
AcDbEntity
  8
STANDARDEBENE
 62
     7
  0
POLYLINE
  5
683
330
1F
100
AcDbEntity
  8
STANDARDEBENE
 62
     7
100
AcDb2dPolyline
 66
     1
 10
0.0
 20
0.0
 30
0.0
  0
VERTEX
  5
684
330
683
100
AcDbEntity
  8
STANDARDEBENE
 62
     7
100
AcDbVertex
100
AcDb2dVertex
 10
48.24469342869389
 20
120.8297939910598
 30
0.0
  0
VERTEX
  5
685
330
683
100
AcDbEntity
  8
STANDARDEBENE
 62
     7
100
AcDbVertex
100
AcDb2dVertex
 10
48.24469342869389
 20
120.2653495467566
 30
0.0
  0
VERTEX
  5
686
330
683
100
AcDbEntity
  8
STANDARDEBENE
 62
     7
100
AcDbVertex
100
AcDb2dVertex
 10
48.24469342869389
 20
119.6631578802404
 30
0.0
  0
SEQEND
  5
687
330
683
100
AcDbEntity
  8
STANDARDEBENE
 62
     7
  0
POLYLINE
  5
688
330
1F
100
AcDbEntity
  8
STANDARDEBENE
 62
     7
100
AcDb2dPolyline
 66
     1
 10
0.0
 20
0.0
 30
0.0
  0
VERTEX
  5
689
330
688
100
AcDbEntity
  8
STANDARDEBENE
 62
     7
100
AcDbVertex
100
AcDb2dVertex
 10
62.04959342524284
 20
117.3404689919323
 30
0.0
  0
VERTEX
  5
68A
330
688
100
AcDbEntity
  8
STANDARDEBENE
 62
     7
100
AcDbVertex
100
AcDb2dVertex
 10
62.05911842524048
 20
117.3337662141561
 30
0.0
  0
VERTEX
  5
68B
330
688
100
AcDbEntity
  8
STANDARDEBENE
 62
     7
100
AcDbVertex
100
AcDb2dVertex
 10
62.07146564745956
 20
117.3245939919362
 30
0.0
  0
VERTEX
  5
68C
330
688
100
AcDbEntity
  8
STANDARDEBENE
 62
     7
100
AcDbVertex
100
AcDb2dVertex
 10
62.08310731412344
 20
117.3161273252718
 30
0.0
  0
VERTEX
  5
68D
330
688
100
AcDbEntity
  8
STANDARDEBENE
 62
     7
100
AcDbVertex
100
AcDb2dVertex
 10
62.09545453634252
 20
117.3076606586072
 30
0.0
  0
VERTEX
  5
68E
330
688
100
AcDbEntity
  8
STANDARDEBENE
 62
     7
100
AcDbVertex
100
AcDb2dVertex
 10
62.10744898078385
 20
117.2991939919425
 30
0.0
  0
VERTEX
  5
68F
330
688
100
AcDbEntity
  8
STANDARDEBENE
 62
     7
100
AcDbVertex
100
AcDb2dVertex
 10
62.12014898078069
 20
117.2903745475004
 30
0.0
  0
VERTEX
  5
690
330
688
100
AcDbEntity
  8
STANDARDEBENE
 62
     7
100
AcDbVertex
100
AcDb2dVertex
 10
62.13249620299977
 20
117.2826134363912
 30
0.0
  0
VERTEX
  5
691
330
688
100
AcDbEntity
  8
STANDARDEBENE
 62
     7
100
AcDbVertex
100
AcDb2dVertex
 10
62.14519620299662
 20
117.2741467697266
 30
0.0
  0
VERTEX
  5
692
330
688
100
AcDbEntity
  8
STANDARDEBENE
 62
     7
100
AcDbVertex
100
AcDb2dVertex
 10
62.15754342521571
 20
117.2656801030622
 30
0.0
  0
SEQEND
  5
693
330
688
100
AcDbEntity
  8
STANDARDEBENE
 62
     7
  0
POLYLINE
  5
694
330
1F
100
AcDbEntity
  8
STANDARDEBENE
 62
     7
100
AcDb2dPolyline
 66
     1
 10
0.0
 20
0.0
 30
0.0
  0
VERTEX
  5
695
330
694
100
AcDbEntity
  8
STANDARDEBENE
 62
     7
100
AcDbVertex
100
AcDb2dVertex
 10
63.33617398047673
 20
119.9228023246199
 30
0.0
  0
VERTEX
  5
696
330
694
100
AcDbEntity
  8
STANDARDEBENE
 62
     7
100
AcDbVertex
100
AcDb2dVertex
 10
63.31500731381522
 20
119.8681217690781
 30
0.0
  0
VERTEX
  5
697
330
694
100
AcDbEntity
  8
STANDARDEBENE
 62
     7
100
AcDbVertex
100
AcDb2dVertex
 10
63.30230731381869
 20
119.8106189913149
 30
0.0
  0
SEQEND
  5
698
330
694
100
AcDbEntity
  8
STANDARDEBENE
 62
     7
  0
POLYLINE
  5
699
330
1F
100
AcDbEntity
  8
STANDARDEBENE
 62
     7
100
AcDb2dPolyline
 66
     1
 10
0.0
 20
0.0
 30
0.0
  0
VERTEX
  5
69A
330
699
100
AcDbEntity
  8
STANDARDEBENE
 62
     7
100
AcDbVertex
100
AcDb2dVertex
 10
54.32905176050623
 20
114.2656578815897
 30
0.0
  0
VERTEX
  5
69B
330
699
100
AcDbEntity
  8
STANDARDEBENE
 62
     7
100
AcDbVertex
100
AcDb2dVertex
 10
54.54565731600781
 20
114.3901884371142
 30
0.0
  0
SEQEND
  5
69C
330
699
100
AcDbEntity
  8
STANDARDEBENE
 62
     7
  0
POLYLINE
  5
69D
330
1F
100
AcDbEntity
  8
STANDARDEBENE
 62
     7
100
AcDb2dPolyline
 66
     1
 10
0.0
 20
0.0
 30
0.0
  0
VERTEX
  5
69E
330
69D
100
AcDbEntity
  8
STANDARDEBENE
 62
     7
100
AcDbVertex
100
AcDb2dVertex
 10
54.97851564923288
 20
114.6406606592738
 30
0.0
  0
VERTEX
  5
69F
330
69D
100
AcDbEntity
  8
STANDARDEBENE
 62
     7
100
AcDbVertex
100
AcDb2dVertex
 10
55.19476842695637
 20
114.7651912147982
 30
0.0
  0
SEQEND
  5
6A0
330
69D
100
AcDbEntity
  8
STANDARDEBENE
 62
     7
  0
POLYLINE
  5
6A1
330
1F
100
AcDbEntity
  8
STANDARDEBENE
 62
     7
100
AcDb2dPolyline
 66
     1
 10
0.0
 20
0.0
 30
0.0
  0
VERTEX
  5
6A2
330
6A1
100
AcDbEntity
  8
STANDARDEBENE
 62
     7
100
AcDbVertex
100
AcDb2dVertex
 10
55.19476842695637
 20
119.7658162135481
 30
0.0
  0
VERTEX
  5
6A3
330
6A1
100
AcDbEntity
  8
STANDARDEBENE
 62
     7
100
AcDbVertex
100
AcDb2dVertex
 10
54.97851564923288
 20
119.8903467690726
 30
0.0
  0
SEQEND
  5
6A4
330
6A1
100
AcDbEntity
  8
STANDARDEBENE
 62
     7
  0
POLYLINE
  5
6A5
330
1F
100
AcDbEntity
  8
STANDARDEBENE
 62
     7
100
AcDb2dPolyline
 66
     1
 10
0.0
 20
0.0
 30
0.0
  0
VERTEX
  5
6A6
330
6A5
100
AcDbEntity
  8
STANDARDEBENE
 62
     7
100
AcDbVertex
100
AcDb2dVertex
 10
54.54565731600781
 20
120.1408189912322
 30
0.0
  0
VERTEX
  5
6A7
330
6A5
100
AcDbEntity
  8
STANDARDEBENE
 62
     7
100
AcDbVertex
100
AcDb2dVertex
 10
54.32905176050623
 20
120.2653495467566
 30
0.0
  0
SEQEND
  5
6A8
330
6A5
100
AcDbEntity
  8
STANDARDEBENE
 62
     7
  0
POLYLINE
  5
6A9
330
1F
100
AcDbEntity
  8
STANDARDEBENE
 62
     7
100
AcDb2dPolyline
 66
     1
 10
0.0
 20
0.0
 30
0.0
  0
VERTEX
  5
6AA
330
6A9
100
AcDbEntity
  8
STANDARDEBENE
 62
     7
100
AcDbVertex
100
AcDb2dVertex
 10
55.19476842695637
 20
119.7658162135481
 30
0.0
  0
VERTEX
  5
6AB
330
6A9
100
AcDbEntity
  8
STANDARDEBENE
 62
     7
100
AcDbVertex
100
AcDb2dVertex
 10
55.19476842695637
 20
119.6645689913511
 30
0.0
  0
VERTEX
  5
6AC
330
6A9
100
AcDbEntity
  8
STANDARDEBENE
 62
     7
100
AcDbVertex
100
AcDb2dVertex
 10
55.19476842695637
 20
119.3689412136473
 30
0.0
  0
VERTEX
  5
6AD
330
6A9
100
AcDbEntity
  8
STANDARDEBENE
 62
     7
100
AcDbVertex
100
AcDb2dVertex
 10
55.19476842695637
 20
119.3491856580966
 30
0.0
  0
SEQEND
  5
6AE
330
6A9
100
AcDbEntity
  8
STANDARDEBENE
 62
     7
  0
POLYLINE
  5
6AF
330
1F
100
AcDbEntity
  8
STANDARDEBENE
 62
     7
100
AcDb2dPolyline
 66
     1
 10
0.0
 20
0.0
 30
0.0
  0
VERTEX
  5
6B0
330
6AF
100
AcDbEntity
  8
STANDARDEBENE
 62
     7
100
AcDbVertex
100
AcDb2dVertex
 10
55.19476842695637
 20
118.5152189916385
 30
0.0
  0
VERTEX
  5
6B1
330
6AF
100
AcDbEntity
  8
STANDARDEBENE
 62
     7
100
AcDbVertex
100
AcDb2dVertex
 10
55.19476842695637
 20
118.3042578805802
 30
0.0
  0
VERTEX
  5
6B2
330
6AF
100
AcDbEntity
  8
STANDARDEBENE
 62
     7
100
AcDbVertex
100
AcDb2dVertex
 10
55.19476842695637
 20
117.6819578807357
 30
0.0
  0
SEQEND
  5
6B3
330
6AF
100
AcDbEntity
  8
STANDARDEBENE
 62
     7
  0
POLYLINE
  5
6B4
330
1F
100
AcDbEntity
  8
STANDARDEBENE
 62
     7
100
AcDb2dPolyline
 66
     1
 10
0.0
 20
0.0
 30
0.0
  0
VERTEX
  5
6B5
330
6B4
100
AcDbEntity
  8
STANDARDEBENE
 62
     7
100
AcDbVertex
100
AcDb2dVertex
 10
55.19476842695637
 20
116.8490495476106
 30
0.0
  0
VERTEX
  5
6B6
330
6B4
100
AcDbEntity
  8
STANDARDEBENE
 62
     7
100
AcDbVertex
100
AcDb2dVertex
 10
55.19476842695637
 20
116.2267495477662
 30
0.0
  0
VERTEX
  5
6B7
330
6B4
100
AcDbEntity
  8
STANDARDEBENE
 62
     7
100
AcDbVertex
100
AcDb2dVertex
 10
55.19476842695637
 20
116.0157884367078
 30
0.0
  0
SEQEND
  5
6B8
330
6B4
100
AcDbEntity
  8
STANDARDEBENE
 62
     7
  0
POLYLINE
  5
6B9
330
1F
100
AcDbEntity
  8
STANDARDEBENE
 62
     7
100
AcDb2dPolyline
 66
     1
 10
0.0
 20
0.0
 30
0.0
  0
VERTEX
  5
6BA
330
6B9
100
AcDbEntity
  8
STANDARDEBENE
 62
     7
100
AcDbVertex
100
AcDb2dVertex
 10
55.19476842695637
 20
115.1818217702495
 30
0.0
  0
VERTEX
  5
6BB
330
6B9
100
AcDbEntity
  8
STANDARDEBENE
 62
     7
100
AcDbVertex
100
AcDb2dVertex
 10
55.19476842695637
 20
115.162066214699
 30
0.0
  0
VERTEX
  5
6BC
330
6B9
100
AcDbEntity
  8
STANDARDEBENE
 62
     7
100
AcDbVertex
100
AcDb2dVertex
 10
55.19476842695637
 20
114.8664384369952
 30
0.0
  0
VERTEX
  5
6BD
330
6B9
100
AcDbEntity
  8
STANDARDEBENE
 62
     7
100
AcDbVertex
100
AcDb2dVertex
 10
55.19476842695637
 20
114.7651912147982
 30
0.0
  0
SEQEND
  5
6BE
330
6B9
100
AcDbEntity
  8
STANDARDEBENE
 62
     7
  0
POLYLINE
  5
6BF
330
1F
100
AcDbEntity
  8
STANDARDEBENE
 62
     7
100
AcDb2dPolyline
 66
     1
 10
0.0
 20
0.0
 30
0.0
  0
VERTEX
  5
6C0
330
6BF
100
AcDbEntity
  8
STANDARDEBENE
 62
     7
100
AcDbVertex
100
AcDb2dVertex
 10
54.32905176050623
 20
120.2653495467566
 30
0.0
  0
VERTEX
  5
6C1
330
6BF
100
AcDbEntity
  8
STANDARDEBENE
 62
     7
100
AcDbVertex
100
AcDb2dVertex
 10
54.32905176050623
 20
120.1630439912267
 30
0.0
  0
VERTEX
  5
6C2
330
6BF
100
AcDbEntity
  8
STANDARDEBENE
 62
     7
100
AcDbVertex
100
AcDb2dVertex
 10
54.32905176050623
 20
119.8635356579682
 30
0.0
  0
VERTEX
  5
6C3
330
6BF
100
AcDbEntity
  8
STANDARDEBENE
 62
     7
100
AcDbVertex
100
AcDb2dVertex
 10
54.32905176050623
 20
119.7658162135481
 30
0.0
  0
SEQEND
  5
6C4
330
6BF
100
AcDbEntity
  8
STANDARDEBENE
 62
     7
  0
POLYLINE
  5
6C5
330
1F
100
AcDbEntity
  8
STANDARDEBENE
 62
     7
100
AcDb2dPolyline
 66
     1
 10
0.0
 20
0.0
 30
0.0
  0
VERTEX
  5
6C6
330
6C5
100
AcDbEntity
  8
STANDARDEBENE
 62
     7
100
AcDbVertex
100
AcDb2dVertex
 10
54.32905176050623
 20
118.7656912137981
 30
0.0
  0
VERTEX
  5
6C7
330
6C5
100
AcDbEntity
  8
STANDARDEBENE
 62
     7
100
AcDbVertex
100
AcDb2dVertex
 10
54.32905176050623
 20
118.0417912139789
 30
0.0
  0
VERTEX
  5
6C8
330
6C5
100
AcDbEntity
  8
STANDARDEBENE
 62
     7
100
AcDbVertex
100
AcDb2dVertex
 10
54.32905176050623
 20
117.7652134362704
 30
0.0
  0
SEQEND
  5
6C9
330
6C5
100
AcDbEntity
  8
STANDARDEBENE
 62
     7
  0
POLYLINE
  5
6CA
330
1F
100
AcDbEntity
  8
STANDARDEBENE
 62
     7
100
AcDb2dPolyline
 66
     1
 10
0.0
 20
0.0
 30
0.0
  0
VERTEX
  5
6CB
330
6CA
100
AcDbEntity
  8
STANDARDEBENE
 62
     7
100
AcDbVertex
100
AcDb2dVertex
 10
54.32905176050623
 20
116.765793992076
 30
0.0
  0
VERTEX
  5
6CC
330
6CA
100
AcDbEntity
  8
STANDARDEBENE
 62
     7
100
AcDbVertex
100
AcDb2dVertex
 10
54.32905176050623
 20
116.4892162143671
 30
0.0
  0
VERTEX
  5
6CD
330
6CA
100
AcDbEntity
  8
STANDARDEBENE
 62
     7
100
AcDbVertex
100
AcDb2dVertex
 10
54.32905176050623
 20
115.7653162145482
 30
0.0
  0
SEQEND
  5
6CE
330
6CA
100
AcDbEntity
  8
STANDARDEBENE
 62
     7
  0
POLYLINE
  5
6CF
330
1F
100
AcDbEntity
  8
STANDARDEBENE
 62
     7
100
AcDb2dPolyline
 66
     1
 10
0.0
 20
0.0
 30
0.0
  0
VERTEX
  5
6D0
330
6CF
100
AcDbEntity
  8
STANDARDEBENE
 62
     7
100
AcDbVertex
100
AcDb2dVertex
 10
54.32905176050623
 20
114.7651912147982
 30
0.0
  0
VERTEX
  5
6D1
330
6CF
100
AcDbEntity
  8
STANDARDEBENE
 62
     7
100
AcDbVertex
100
AcDb2dVertex
 10
54.32905176050623
 20
114.6674717703782
 30
0.0
  0
VERTEX
  5
6D2
330
6CF
100
AcDbEntity
  8
STANDARDEBENE
 62
     7
100
AcDbVertex
100
AcDb2dVertex
 10
54.32905176050623
 20
114.3676106593422
 30
0.0
  0
VERTEX
  5
6D3
330
6CF
100
AcDbEntity
  8
STANDARDEBENE
 62
     7
100
AcDbVertex
100
AcDb2dVertex
 10
54.32905176050623
 20
114.2656578815897
 30
0.0
  0
SEQEND
  5
6D4
330
6CF
100
AcDbEntity
  8
STANDARDEBENE
 62
     7
  0
POLYLINE
  5
6D5
330
1F
100
AcDbEntity
  8
STANDARDEBENE
 62
     7
100
AcDb2dPolyline
 66
     1
 10
0.0
 20
0.0
 30
0.0
  0
VERTEX
  5
6D6
330
6D5
100
AcDbEntity
  8
STANDARDEBENE
 62
     7
100
AcDbVertex
100
AcDb2dVertex
 10
54.32905176050623
 20
120.2653495467566
 30
0.0
  0
VERTEX
  5
6D7
330
6D5
100
AcDbEntity
  8
STANDARDEBENE
 62
     7
100
AcDbVertex
100
AcDb2dVertex
 10
53.79776842730561
 20
120.2653495467566
 30
0.0
  0
SEQEND
  5
6D8
330
6D5
100
AcDbEntity
  8
STANDARDEBENE
 62
     7
  0
POLYLINE
  5
6D9
330
1F
100
AcDbEntity
  8
STANDARDEBENE
 62
     7
100
AcDb2dPolyline
 66
     1
 10
0.0
 20
0.0
 30
0.0
  0
VERTEX
  5
6DA
330
6D9
100
AcDbEntity
  8
STANDARDEBENE
 62
     7
100
AcDbVertex
100
AcDb2dVertex
 10
52.73520176090469
 20
120.2653495467566
 30
0.0
  0
VERTEX
  5
6DB
330
6D9
100
AcDbEntity
  8
STANDARDEBENE
 62
     7
100
AcDbVertex
100
AcDb2dVertex
 10
51.67298787228152
 20
120.2653495467566
 30
0.0
  0
SEQEND
  5
6DC
330
6D9
100
AcDbEntity
  8
STANDARDEBENE
 62
     7
  0
POLYLINE
  5
6DD
330
1F
100
AcDbEntity
  8
STANDARDEBENE
 62
     7
100
AcDb2dPolyline
 66
     1
 10
0.0
 20
0.0
 30
0.0
  0
VERTEX
  5
6DE
330
6DD
100
AcDbEntity
  8
STANDARDEBENE
 62
     7
100
AcDbVertex
100
AcDb2dVertex
 10
50.61042120588028
 20
120.2653495467566
 30
0.0
  0
VERTEX
  5
6DF
330
6DD
100
AcDbEntity
  8
STANDARDEBENE
 62
     7
100
AcDbVertex
100
AcDb2dVertex
 10
49.54785453947935
 20
120.2653495467566
 30
0.0
  0
SEQEND
  5
6E0
330
6DD
100
AcDbEntity
  8
STANDARDEBENE
 62
     7
  0
POLYLINE
  5
6E1
330
1F
100
AcDbEntity
  8
STANDARDEBENE
 62
     7
100
AcDb2dPolyline
 66
     1
 10
0.0
 20
0.0
 30
0.0
  0
VERTEX
  5
6E2
330
6E1
100
AcDbEntity
  8
STANDARDEBENE
 62
     7
100
AcDbVertex
100
AcDb2dVertex
 10
46.36050731805402
 20
120.2653495467566
 30
0.0
  0
VERTEX
  5
6E3
330
6E1
100
AcDbEntity
  8
STANDARDEBENE
 62
     7
100
AcDbVertex
100
AcDb2dVertex
 10
45.82922398485339
 20
120.2653495467566
 30
0.0
  0
SEQEND
  5
6E4
330
6E1
100
AcDbEntity
  8
STANDARDEBENE
 62
     7
  0
POLYLINE
  5
6E5
330
1F
100
AcDbEntity
  8
STANDARDEBENE
 62
     7
100
AcDb2dPolyline
 66
     1
 10
0.0
 20
0.0
 30
0.0
  0
VERTEX
  5
6E6
330
6E5
100
AcDbEntity
  8
STANDARDEBENE
 62
     7
100
AcDbVertex
100
AcDb2dVertex
 10
45.82922398485339
 20
114.2656578815897
 30
0.0
  0
VERTEX
  5
6E7
330
6E5
100
AcDbEntity
  8
STANDARDEBENE
 62
     7
100
AcDbVertex
100
AcDb2dVertex
 10
46.36050731805402
 20
114.2656578815897
 30
0.0
  0
SEQEND
  5
6E8
330
6E5
100
AcDbEntity
  8
STANDARDEBENE
 62
     7
  0
POLYLINE
  5
6E9
330
1F
100
AcDbEntity
  8
STANDARDEBENE
 62
     7
100
AcDb2dPolyline
 66
     1
 10
0.0
 20
0.0
 30
0.0
  0
VERTEX
  5
6EA
330
6E9
100
AcDbEntity
  8
STANDARDEBENE
 62
     7
100
AcDbVertex
100
AcDb2dVertex
 10
47.42272120667718
 20
114.2656578815897
 30
0.0
  0
VERTEX
  5
6EB
330
6E9
100
AcDbEntity
  8
STANDARDEBENE
 62
     7
100
AcDbVertex
100
AcDb2dVertex
 10
48.48528787307843
 20
114.2656578815897
 30
0.0
  0
SEQEND
  5
6EC
330
6E9
100
AcDbEntity
  8
STANDARDEBENE
 62
     7
  0
POLYLINE
  5
6ED
330
1F
100
AcDbEntity
  8
STANDARDEBENE
 62
     7
100
AcDb2dPolyline
 66
     1
 10
0.0
 20
0.0
 30
0.0
  0
VERTEX
  5
6EE
330
6ED
100
AcDbEntity
  8
STANDARDEBENE
 62
     7
100
AcDbVertex
100
AcDb2dVertex
 10
49.54785453947935
 20
114.2656578815897
 30
0.0
  0
VERTEX
  5
6EF
330
6ED
100
AcDbEntity
  8
STANDARDEBENE
 62
     7
100
AcDbVertex
100
AcDb2dVertex
 10
50.61042120588028
 20
114.2656578815897
 30
0.0
  0
SEQEND
  5
6F0
330
6ED
100
AcDbEntity
  8
STANDARDEBENE
 62
     7
  0
POLYLINE
  5
6F1
330
1F
100
AcDbEntity
  8
STANDARDEBENE
 62
     7
100
AcDb2dPolyline
 66
     1
 10
0.0
 20
0.0
 30
0.0
  0
VERTEX
  5
6F2
330
6F1
100
AcDbEntity
  8
STANDARDEBENE
 62
     7
100
AcDbVertex
100
AcDb2dVertex
 10
51.67298787228152
 20
114.2656578815897
 30
0.0
  0
VERTEX
  5
6F3
330
6F1
100
AcDbEntity
  8
STANDARDEBENE
 62
     7
100
AcDbVertex
100
AcDb2dVertex
 10
52.73520176090469
 20
114.2656578815897
 30
0.0
  0
SEQEND
  5
6F4
330
6F1
100
AcDbEntity
  8
STANDARDEBENE
 62
     7
  0
POLYLINE
  5
6F5
330
1F
100
AcDbEntity
  8
STANDARDEBENE
 62
     7
100
AcDb2dPolyline
 66
     1
 10
0.0
 20
0.0
 30
0.0
  0
VERTEX
  5
6F6
330
6F5
100
AcDbEntity
  8
STANDARDEBENE
 62
     7
100
AcDbVertex
100
AcDb2dVertex
 10
53.79776842730561
 20
114.2656578815897
 30
0.0
  0
VERTEX
  5
6F7
330
6F5
100
AcDbEntity
  8
STANDARDEBENE
 62
     7
100
AcDbVertex
100
AcDb2dVertex
 10
54.32905176050623
 20
114.2656578815897
 30
0.0
  0
SEQEND
  5
6F8
330
6F5
100
AcDbEntity
  8
STANDARDEBENE
 62
     7
  0
POLYLINE
  5
6F9
330
1F
100
AcDbEntity
  8
STANDARDEBENE
 62
     7
100
AcDb2dPolyline
 66
     1
 10
0.0
 20
0.0
 30
0.0
  0
VERTEX
  5
6FA
330
6F9
100
AcDbEntity
  8
STANDARDEBENE
 62
     7
100
AcDbVertex
100
AcDb2dVertex
 10
45.82922398485339
 20
120.2653495467566
 30
0.0
  0
VERTEX
  5
6FB
330
6F9
100
AcDbEntity
  8
STANDARDEBENE
 62
     7
100
AcDbVertex
100
AcDb2dVertex
 10
45.82922398485339
 20
120.1630439912267
 30
0.0
  0
VERTEX
  5
6FC
330
6F9
100
AcDbEntity
  8
STANDARDEBENE
 62
     7
100
AcDbVertex
100
AcDb2dVertex
 10
45.82922398485339
 20
119.8635356579682
 30
0.0
  0
VERTEX
  5
6FD
330
6F9
100
AcDbEntity
  8
STANDARDEBENE
 62
     7
100
AcDbVertex
100
AcDb2dVertex
 10
45.82922398485339
 20
119.7658162135481
 30
0.0
  0
SEQEND
  5
6FE
330
6F9
100
AcDbEntity
  8
STANDARDEBENE
 62
     7
  0
POLYLINE
  5
6FF
330
1F
100
AcDbEntity
  8
STANDARDEBENE
 62
     7
100
AcDb2dPolyline
 66
     1
 10
0.0
 20
0.0
 30
0.0
  0
VERTEX
  5
700
330
6FF
100
AcDbEntity
  8
STANDARDEBENE
 62
     7
100
AcDbVertex
100
AcDb2dVertex
 10
45.82922398485339
 20
118.7656912137981
 30
0.0
  0
VERTEX
  5
701
330
6FF
100
AcDbEntity
  8
STANDARDEBENE
 62
     7
100
AcDbVertex
100
AcDb2dVertex
 10
45.82922398485339
 20
118.0417912139789
 30
0.0
  0
VERTEX
  5
702
330
6FF
100
AcDbEntity
  8
STANDARDEBENE
 62
     7
100
AcDbVertex
100
AcDb2dVertex
 10
45.82922398485339
 20
117.7652134362704
 30
0.0
  0
SEQEND
  5
703
330
6FF
100
AcDbEntity
  8
STANDARDEBENE
 62
     7
  0
POLYLINE
  5
704
330
1F
100
AcDbEntity
  8
STANDARDEBENE
 62
     7
100
AcDb2dPolyline
 66
     1
 10
0.0
 20
0.0
 30
0.0
  0
VERTEX
  5
705
330
704
100
AcDbEntity
  8
STANDARDEBENE
 62
     7
100
AcDbVertex
100
AcDb2dVertex
 10
45.82922398485339
 20
116.765793992076
 30
0.0
  0
VERTEX
  5
706
330
704
100
AcDbEntity
  8
STANDARDEBENE
 62
     7
100
AcDbVertex
100
AcDb2dVertex
 10
45.82922398485339
 20
116.4892162143671
 30
0.0
  0
VERTEX
  5
707
330
704
100
AcDbEntity
  8
STANDARDEBENE
 62
     7
100
AcDbVertex
100
AcDb2dVertex
 10
45.82922398485339
 20
115.7653162145482
 30
0.0
  0
SEQEND
  5
708
330
704
100
AcDbEntity
  8
STANDARDEBENE
 62
     7
  0
POLYLINE
  5
709
330
1F
100
AcDbEntity
  8
STANDARDEBENE
 62
     7
100
AcDb2dPolyline
 66
     1
 10
0.0
 20
0.0
 30
0.0
  0
VERTEX
  5
70A
330
709
100
AcDbEntity
  8
STANDARDEBENE
 62
     7
100
AcDbVertex
100
AcDb2dVertex
 10
45.82922398485339
 20
114.7651912147982
 30
0.0
  0
VERTEX
  5
70B
330
709
100
AcDbEntity
  8
STANDARDEBENE
 62
     7
100
AcDbVertex
100
AcDb2dVertex
 10
45.82922398485339
 20
114.6674717703782
 30
0.0
  0
VERTEX
  5
70C
330
709
100
AcDbEntity
  8
STANDARDEBENE
 62
     7
100
AcDbVertex
100
AcDb2dVertex
 10
45.82922398485339
 20
114.3676106593422
 30
0.0
  0
VERTEX
  5
70D
330
709
100
AcDbEntity
  8
STANDARDEBENE
 62
     7
100
AcDbVertex
100
AcDb2dVertex
 10
45.82922398485339
 20
114.2656578815897
 30
0.0
  0
SEQEND
  5
70E
330
709
100
AcDbEntity
  8
STANDARDEBENE
 62
     7
  0
POLYLINE
  5
70F
330
1F
100
AcDbEntity
  8
STANDARDEBENE
 62
     7
100
AcDb2dPolyline
 66
     1
 10
0.0
 20
0.0
 30
0.0
  0
VERTEX
  5
710
330
70F
100
AcDbEntity
  8
STANDARDEBENE
 62
     7
100
AcDbVertex
100
AcDb2dVertex
 10
63.80854342480306
 20
119.7658162135481
 30
0.0
  0
VERTEX
  5
711
330
70F
100
AcDbEntity
  8
STANDARDEBENE
 62
     7
100
AcDbVertex
100
AcDb2dVertex
 10
62.79571842505624
 20
119.7658162135481
 30
0.0
  0
SEQEND
  5
712
330
70F
100
AcDbEntity
  8
STANDARDEBENE
 62
     7
  0
POLYLINE
  5
713
330
1F
100
AcDbEntity
  8
STANDARDEBENE
 62
     7
100
AcDb2dPolyline
 66
     1
 10
0.0
 20
0.0
 30
0.0
  0
VERTEX
  5
714
330
713
100
AcDbEntity
  8
STANDARDEBENE
 62
     7
100
AcDbVertex
100
AcDb2dVertex
 10
61.7821878697542
 20
119.7658162135481
 30
0.0
  0
VERTEX
  5
715
330
713
100
AcDbEntity
  8
STANDARDEBENE
 62
     7
100
AcDbVertex
100
AcDb2dVertex
 10
60.76830453667409
 20
119.7658162135481
 30
0.0
  0
SEQEND
  5
716
330
713
100
AcDbEntity
  8
STANDARDEBENE
 62
     7
  0
POLYLINE
  5
717
330
1F
100
AcDbEntity
  8
STANDARDEBENE
 62
     7
100
AcDb2dPolyline
 66
     1
 10
0.0
 20
0.0
 30
0.0
  0
VERTEX
  5
718
330
717
100
AcDbEntity
  8
STANDARDEBENE
 62
     7
100
AcDbVertex
100
AcDb2dVertex
 10
59.75547953692759
 20
119.7658162135481
 30
0.0
  0
VERTEX
  5
719
330
717
100
AcDbEntity
  8
STANDARDEBENE
 62
     7
100
AcDbVertex
100
AcDb2dVertex
 10
58.74159620384747
 20
119.7658162135481
 30
0.0
  0
SEQEND
  5
71A
330
717
100
AcDbEntity
  8
STANDARDEBENE
 62
     7
  0
POLYLINE
  5
71B
330
1F
100
AcDbEntity
  8
STANDARDEBENE
 62
     7
100
AcDb2dPolyline
 66
     1
 10
0.0
 20
0.0
 30
0.0
  0
VERTEX
  5
71C
330
71B
100
AcDbEntity
  8
STANDARDEBENE
 62
     7
100
AcDbVertex
100
AcDb2dVertex
 10
57.72877120410065
 20
119.7658162135481
 30
0.0
  0
VERTEX
  5
71D
330
71B
100
AcDbEntity
  8
STANDARDEBENE
 62
     7
100
AcDbVertex
100
AcDb2dVertex
 10
56.71524064879862
 20
119.7658162135481
 30
0.0
  0
SEQEND
  5
71E
330
71B
100
AcDbEntity
  8
STANDARDEBENE
 62
     7
  0
POLYLINE
  5
71F
330
1F
100
AcDbEntity
  8
STANDARDEBENE
 62
     7
100
AcDb2dPolyline
 66
     1
 10
0.0
 20
0.0
 30
0.0
  0
VERTEX
  5
720
330
71F
100
AcDbEntity
  8
STANDARDEBENE
 62
     7
100
AcDbVertex
100
AcDb2dVertex
 10
55.70135731571883
 20
119.7658162135481
 30
0.0
  0
VERTEX
  5
721
330
71F
100
AcDbEntity
  8
STANDARDEBENE
 62
     7
100
AcDbVertex
100
AcDb2dVertex
 10
55.19476842695637
 20
119.7658162135481
 30
0.0
  0
SEQEND
  5
722
330
71F
100
AcDbEntity
  8
STANDARDEBENE
 62
     7
  0
POLYLINE
  5
723
330
1F
100
AcDbEntity
  8
STANDARDEBENE
 62
     7
100
AcDb2dPolyline
 66
     1
 10
0.0
 20
0.0
 30
0.0
  0
VERTEX
  5
724
330
723
100
AcDbEntity
  8
STANDARDEBENE
 62
     7
100
AcDbVertex
100
AcDb2dVertex
 10
55.19476842695637
 20
114.7651912147982
 30
0.0
  0
VERTEX
  5
725
330
723
100
AcDbEntity
  8
STANDARDEBENE
 62
     7
100
AcDbVertex
100
AcDb2dVertex
 10
55.72146564904706
 20
114.7651912147982
 30
0.0
  0
SEQEND
  5
726
330
723
100
AcDbEntity
  8
STANDARDEBENE
 62
     7
  0
POLYLINE
  5
727
330
1F
100
AcDbEntity
  8
STANDARDEBENE
 62
     7
100
AcDb2dPolyline
 66
     1
 10
0.0
 20
0.0
 30
0.0
  0
VERTEX
  5
728
330
727
100
AcDbEntity
  8
STANDARDEBENE
 62
     7
100
AcDbVertex
100
AcDb2dVertex
 10
56.77415453767291
 20
114.7651912147982
 30
0.0
  0
VERTEX
  5
729
330
727
100
AcDbEntity
  8
STANDARDEBENE
 62
     7
100
AcDbVertex
100
AcDb2dVertex
 10
57.8271962040762
 20
114.7651912147982
 30
0.0
  0
SEQEND
  5
72A
330
727
100
AcDbEntity
  8
STANDARDEBENE
 62
     7
  0
POLYLINE
  5
72B
330
1F
100
AcDbEntity
  8
STANDARDEBENE
 62
     7
100
AcDb2dPolyline
 66
     1
 10
0.0
 20
0.0
 30
0.0
  0
VERTEX
  5
72C
330
72B
100
AcDbEntity
  8
STANDARDEBENE
 62
     7
100
AcDbVertex
100
AcDb2dVertex
 10
58.87988509270205
 20
114.7651912147982
 30
0.0
  0
VERTEX
  5
72D
330
72B
100
AcDbEntity
  8
STANDARDEBENE
 62
     7
100
AcDbVertex
100
AcDb2dVertex
 10
59.93257398132758
 20
114.7651912147982
 30
0.0
  0
SEQEND
  5
72E
330
72B
100
AcDbEntity
  8
STANDARDEBENE
 62
     7
  0
POLYLINE
  5
72F
330
1F
100
AcDbEntity
  8
STANDARDEBENE
 62
     7
100
AcDb2dPolyline
 66
     1
 10
0.0
 20
0.0
 30
0.0
  0
VERTEX
  5
730
330
72F
100
AcDbEntity
  8
STANDARDEBENE
 62
     7
100
AcDbVertex
100
AcDb2dVertex
 10
60.98561564773087
 20
114.7651912147982
 30
0.0
  0
VERTEX
  5
731
330
72F
100
AcDbEntity
  8
STANDARDEBENE
 62
     7
100
AcDbVertex
100
AcDb2dVertex
 10
62.03830453635672
 20
114.7651912147982
 30
0.0
  0
SEQEND
  5
732
330
72F
100
AcDbEntity
  8
STANDARDEBENE
 62
     7
  0
POLYLINE
  5
733
330
1F
100
AcDbEntity
  8
STANDARDEBENE
 62
     7
100
AcDb2dPolyline
 66
     1
 10
0.0
 20
0.0
 30
0.0
  0
VERTEX
  5
734
330
733
100
AcDbEntity
  8
STANDARDEBENE
 62
     7
100
AcDbVertex
100
AcDb2dVertex
 10
63.09099342498257
 20
114.7651912147982
 30
0.0
  0
VERTEX
  5
735
330
733
100
AcDbEntity
  8
STANDARDEBENE
 62
     7
100
AcDbVertex
100
AcDb2dVertex
 10
64.14403509138586
 20
114.7651912147982
 30
0.0
  0
SEQEND
  5
736
330
733
100
AcDbEntity
  8
STANDARDEBENE
 62
     7
  0
POLYLINE
  5
738
330
1F
100
AcDbEntity
  8
BEMA_U_00DFUNG
 62
     7
100
AcDb2dPolyline
 66
     1
 10
0.0
 20
0.0
 30
0.0
  0
VERTEX
  5
739
330
738
100
AcDbEntity
  8
BEMA_U_00DFUNG
 62
     7
100
AcDbVertex
100
AcDb2dVertex
 10
64.82912953565904
 20
139.2656078753397
 30
0.0
  0
VERTEX
  5
73A
330
738
100
AcDbEntity
  8
BEMA_U_00DFUNG
 62
     7
100
AcDbVertex
100
AcDb2dVertex
 10
64.82912953565904
 20
151.265343983451
 30
0.0
  0
SEQEND
  5
73B
330
738
100
AcDbEntity
  8
BEMA_U_00DFUNG
 62
     7
  0
POLYLINE
  5
73C
330
1F
100
AcDbEntity
  8
BEMA_U_00DFUNG
 62
     7
100
AcDb2dPolyline
 66
     1
 10
0.0
 20
0.0
 30
0.0
  0
VERTEX
  5
73D
330
73C
100
AcDbEntity
  8
BEMA_U_00DFUNG
 62
     7
100
AcDbVertex
100
AcDb2dVertex
 10
70.82882120082564
 20
139.2656078753397
 30
0.0
  0
VERTEX
  5
73E
330
73C
100
AcDbEntity
  8
BEMA_U_00DFUNG
 62
     7
100
AcDbVertex
100
AcDb2dVertex
 10
70.82882120082564
 20
151.265343983451
 30
0.0
  0
SEQEND
  5
73F
330
73C
100
AcDbEntity
  8
BEMA_U_00DFUNG
 62
     7
  0
POLYLINE
  5
740
330
1F
100
AcDbEntity
  8
BEMA_U_00DFUNG
 62
     7
100
AcDb2dPolyline
 66
     1
 10
0.0
 20
0.0
 30
0.0
  0
VERTEX
  5
741
330
740
100
AcDbEntity
  8
BEMA_U_00DFUNG
 62
     7
100
AcDbVertex
100
AcDb2dVertex
 10
81.36406617351274
 20
149.2657995395062
 30
0.0
  0
VERTEX
  5
742
330
740
100
AcDbEntity
  8
BEMA_U_00DFUNG
 62
     7
100
AcDbVertex
100
AcDb2dVertex
 10
56.07882953784658
 20
149.2657995395062
 30
0.0
  0
SEQEND
  5
743
330
740
100
AcDbEntity
  8
BEMA_U_00DFUNG
 62
     7
  0
POLYLINE
  5
744
330
1F
100
AcDbEntity
  8
BEMA_U_00DFUNG
 62
     7
100
AcDb2dPolyline
 66
     1
 10
0.0
 20
0.0
 30
0.0
  0
VERTEX
  5
745
330
744
100
AcDbEntity
  8
BEMA_U_00DFUNG
 62
     7
100
AcDbVertex
100
AcDb2dVertex
 10
64.82912953565904
 20
149.2657995395062
 30
0.0
  0
VERTEX
  5
746
330
744
100
AcDbEntity
  8
BEMA_U_00DFUNG
 62
     7
100
AcDbVertex
100
AcDb2dVertex
 10
61.32886842542314
 20
149.726527317169
 30
0.0
  0
VERTEX
  5
747
330
744
100
AcDbEntity
  8
BEMA_U_00DFUNG
 62
     7
100
AcDbVertex
100
AcDb2dVertex
 10
61.32886842542314
 20
148.8047189840664
 30
0.0
  0
VERTEX
  5
748
330
744
100
AcDbEntity
  8
BEMA_U_00DFUNG
 62
     7
100
AcDbVertex
100
AcDb2dVertex
 10
64.82912953565904
 20
149.2657995395062
 30
0.0
  0
SEQEND
  5
749
330
744
100
AcDbEntity
  8
BEMA_U_00DFUNG
 62
     7
  0
POLYLINE
  5
74A
330
1F
100
AcDbEntity
  8
BEMA_U_00DFUNG
 62
     7
100
AcDb2dPolyline
 66
     1
 10
0.0
 20
0.0
 30
0.0
  0
VERTEX
  5
74B
330
74A
100
AcDbEntity
  8
BEMA_U_00DFUNG
 62
     7
100
AcDbVertex
100
AcDb2dVertex
 10
61.32886842542314
 20
149.722999539392
 30
0.0
  0
VERTEX
  5
74C
330
74A
100
AcDbEntity
  8
BEMA_U_00DFUNG
 62
     7
100
AcDbVertex
100
AcDb2dVertex
 10
61.356032314305
 20
149.722999539392
 30
0.0
  0
SEQEND
  5
74D
330
74A
100
AcDbEntity
  8
BEMA_U_00DFUNG
 62
     7
  0
POLYLINE
  5
74E
330
1F
100
AcDbEntity
  8
BEMA_U_00DFUNG
 62
     7
100
AcDb2dPolyline
 66
     1
 10
0.0
 20
0.0
 30
0.0
  0
VERTEX
  5
74F
330
74E
100
AcDbEntity
  8
BEMA_U_00DFUNG
 62
     7
100
AcDbVertex
100
AcDb2dVertex
 10
61.32886842542314
 20
149.722999539392
 30
0.0
  0
VERTEX
  5
750
330
74E
100
AcDbEntity
  8
BEMA_U_00DFUNG
 62
     7
100
AcDbVertex
100
AcDb2dVertex
 10
61.356032314305
 20
149.722999539392
 30
0.0
  0
SEQEND
  5
751
330
74E
100
AcDbEntity
  8
BEMA_U_00DFUNG
 62
     7
  0
POLYLINE
  5
752
330
1F
100
AcDbEntity
  8
BEMA_U_00DFUNG
 62
     7
100
AcDb2dPolyline
 66
     1
 10
0.0
 20
0.0
 30
0.0
  0
VERTEX
  5
753
330
752
100
AcDbEntity
  8
BEMA_U_00DFUNG
 62
     7
100
AcDbVertex
100
AcDb2dVertex
 10
61.32886842542314
 20
149.6721995394047
 30
0.0
  0
VERTEX
  5
754
330
752
100
AcDbEntity
  8
BEMA_U_00DFUNG
 62
     7
100
AcDbVertex
100
AcDb2dVertex
 10
61.74232398087518
 20
149.6721995394047
 30
0.0
  0
SEQEND
  5
755
330
752
100
AcDbEntity
  8
BEMA_U_00DFUNG
 62
     7
  0
POLYLINE
  5
756
330
1F
100
AcDbEntity
  8
BEMA_U_00DFUNG
 62
     7
100
AcDb2dPolyline
 66
     1
 10
0.0
 20
0.0
 30
0.0
  0
VERTEX
  5
757
330
756
100
AcDbEntity
  8
BEMA_U_00DFUNG
 62
     7
100
AcDbVertex
100
AcDb2dVertex
 10
61.32886842542314
 20
149.6213995394176
 30
0.0
  0
VERTEX
  5
758
330
756
100
AcDbEntity
  8
BEMA_U_00DFUNG
 62
     7
100
AcDbVertex
100
AcDb2dVertex
 10
62.12791009188984
 20
149.6213995394176
 30
0.0
  0
SEQEND
  5
759
330
756
100
AcDbEntity
  8
BEMA_U_00DFUNG
 62
     7
  0
POLYLINE
  5
75A
330
1F
100
AcDbEntity
  8
BEMA_U_00DFUNG
 62
     7
100
AcDb2dPolyline
 66
     1
 10
0.0
 20
0.0
 30
0.0
  0
VERTEX
  5
75B
330
75A
100
AcDbEntity
  8
BEMA_U_00DFUNG
 62
     7
100
AcDbVertex
100
AcDb2dVertex
 10
61.32886842542314
 20
149.5705995394302
 30
0.0
  0
VERTEX
  5
75C
330
75A
100
AcDbEntity
  8
BEMA_U_00DFUNG
 62
     7
100
AcDbVertex
100
AcDb2dVertex
 10
62.5134962029045
 20
149.5705995394302
 30
0.0
  0
SEQEND
  5
75D
330
75A
100
AcDbEntity
  8
BEMA_U_00DFUNG
 62
     7
  0
POLYLINE
  5
75E
330
1F
100
AcDbEntity
  8
BEMA_U_00DFUNG
 62
     7
100
AcDb2dPolyline
 66
     1
 10
0.0
 20
0.0
 30
0.0
  0
VERTEX
  5
75F
330
75E
100
AcDbEntity
  8
BEMA_U_00DFUNG
 62
     7
100
AcDbVertex
100
AcDb2dVertex
 10
61.32886842542314
 20
149.5197995394432
 30
0.0
  0
VERTEX
  5
760
330
75E
100
AcDbEntity
  8
BEMA_U_00DFUNG
 62
     7
100
AcDbVertex
100
AcDb2dVertex
 10
62.89943509169692
 20
149.5197995394432
 30
0.0
  0
SEQEND
  5
761
330
75E
100
AcDbEntity
  8
BEMA_U_00DFUNG
 62
     7
  0
POLYLINE
  5
762
330
1F
100
AcDbEntity
  8
BEMA_U_00DFUNG
 62
     7
100
AcDb2dPolyline
 66
     1
 10
0.0
 20
0.0
 30
0.0
  0
VERTEX
  5
763
330
762
100
AcDbEntity
  8
BEMA_U_00DFUNG
 62
     7
100
AcDbVertex
100
AcDb2dVertex
 10
61.32886842542314
 20
149.4689995394558
 30
0.0
  0
VERTEX
  5
764
330
762
100
AcDbEntity
  8
BEMA_U_00DFUNG
 62
     7
100
AcDbVertex
100
AcDb2dVertex
 10
63.28572675826711
 20
149.4689995394558
 30
0.0
  0
SEQEND
  5
765
330
762
100
AcDbEntity
  8
BEMA_U_00DFUNG
 62
     7
  0
POLYLINE
  5
766
330
1F
100
AcDbEntity
  8
BEMA_U_00DFUNG
 62
     7
100
AcDb2dPolyline
 66
     1
 10
0.0
 20
0.0
 30
0.0
  0
VERTEX
  5
767
330
766
100
AcDbEntity
  8
BEMA_U_00DFUNG
 62
     7
100
AcDbVertex
100
AcDb2dVertex
 10
61.32886842542314
 20
149.4181995394684
 30
0.0
  0
VERTEX
  5
768
330
766
100
AcDbEntity
  8
BEMA_U_00DFUNG
 62
     7
100
AcDbVertex
100
AcDb2dVertex
 10
63.67166564705953
 20
149.4181995394684
 30
0.0
  0
SEQEND
  5
769
330
766
100
AcDbEntity
  8
BEMA_U_00DFUNG
 62
     7
  0
POLYLINE
  5
76A
330
1F
100
AcDbEntity
  8
BEMA_U_00DFUNG
 62
     7
100
AcDb2dPolyline
 66
     1
 10
0.0
 20
0.0
 30
0.0
  0
VERTEX
  5
76B
330
76A
100
AcDbEntity
  8
BEMA_U_00DFUNG
 62
     7
100
AcDbVertex
100
AcDb2dVertex
 10
61.32886842542314
 20
149.367399539481
 30
0.0
  0
VERTEX
  5
76C
330
76A
100
AcDbEntity
  8
BEMA_U_00DFUNG
 62
     7
100
AcDbVertex
100
AcDb2dVertex
 10
64.05689898029642
 20
149.367399539481
 30
0.0
  0
SEQEND
  5
76D
330
76A
100
AcDbEntity
  8
BEMA_U_00DFUNG
 62
     7
  0
POLYLINE
  5
76E
330
1F
100
AcDbEntity
  8
BEMA_U_00DFUNG
 62
     7
100
AcDb2dPolyline
 66
     1
 10
0.0
 20
0.0
 30
0.0
  0
VERTEX
  5
76F
330
76E
100
AcDbEntity
  8
BEMA_U_00DFUNG
 62
     7
100
AcDbVertex
100
AcDb2dVertex
 10
61.32886842542314
 20
149.3165995394936
 30
0.0
  0
VERTEX
  5
770
330
76E
100
AcDbEntity
  8
BEMA_U_00DFUNG
 62
     7
100
AcDbVertex
100
AcDb2dVertex
 10
64.44283786908885
 20
149.3165995394936
 30
0.0
  0
SEQEND
  5
771
330
76E
100
AcDbEntity
  8
BEMA_U_00DFUNG
 62
     7
  0
POLYLINE
  5
772
330
1F
100
AcDbEntity
  8
BEMA_U_00DFUNG
 62
     7
100
AcDb2dPolyline
 66
     1
 10
0.0
 20
0.0
 30
0.0
  0
VERTEX
  5
773
330
772
100
AcDbEntity
  8
BEMA_U_00DFUNG
 62
     7
100
AcDbVertex
100
AcDb2dVertex
 10
61.32886842542314
 20
149.2657995395062
 30
0.0
  0
VERTEX
  5
774
330
772
100
AcDbEntity
  8
BEMA_U_00DFUNG
 62
     7
100
AcDbVertex
100
AcDb2dVertex
 10
64.82912953565904
 20
149.2657995395062
 30
0.0
  0
SEQEND
  5
775
330
772
100
AcDbEntity
  8
BEMA_U_00DFUNG
 62
     7
  0
POLYLINE
  5
776
330
1F
100
AcDbEntity
  8
BEMA_U_00DFUNG
 62
     7
100
AcDb2dPolyline
 66
     1
 10
0.0
 20
0.0
 30
0.0
  0
VERTEX
  5
777
330
776
100
AcDbEntity
  8
BEMA_U_00DFUNG
 62
     7
100
AcDbVertex
100
AcDb2dVertex
 10
61.32886842542314
 20
148.808246761843
 30
0.0
  0
VERTEX
  5
778
330
776
100
AcDbEntity
  8
BEMA_U_00DFUNG
 62
     7
100
AcDbVertex
100
AcDb2dVertex
 10
61.356032314305
 20
148.808246761843
 30
0.0
  0
SEQEND
  5
779
330
776
100
AcDbEntity
  8
BEMA_U_00DFUNG
 62
     7
  0
POLYLINE
  5
77A
330
1F
100
AcDbEntity
  8
BEMA_U_00DFUNG
 62
     7
100
AcDb2dPolyline
 66
     1
 10
0.0
 20
0.0
 30
0.0
  0
VERTEX
  5
77B
330
77A
100
AcDbEntity
  8
BEMA_U_00DFUNG
 62
     7
100
AcDbVertex
100
AcDb2dVertex
 10
61.32886842542314
 20
148.808246761843
 30
0.0
  0
VERTEX
  5
77C
330
77A
100
AcDbEntity
  8
BEMA_U_00DFUNG
 62
     7
100
AcDbVertex
100
AcDb2dVertex
 10
61.356032314305
 20
148.808246761843
 30
0.0
  0
SEQEND
  5
77D
330
77A
100
AcDbEntity
  8
BEMA_U_00DFUNG
 62
     7
  0
POLYLINE
  5
77E
330
1F
100
AcDbEntity
  8
BEMA_U_00DFUNG
 62
     7
100
AcDb2dPolyline
 66
     1
 10
0.0
 20
0.0
 30
0.0
  0
VERTEX
  5
77F
330
77E
100
AcDbEntity
  8
BEMA_U_00DFUNG
 62
     7
100
AcDbVertex
100
AcDb2dVertex
 10
61.32886842542314
 20
148.8590467618304
 30
0.0
  0
VERTEX
  5
780
330
77E
100
AcDbEntity
  8
BEMA_U_00DFUNG
 62
     7
100
AcDbVertex
100
AcDb2dVertex
 10
61.74232398087518
 20
148.8590467618304
 30
0.0
  0
SEQEND
  5
781
330
77E
100
AcDbEntity
  8
BEMA_U_00DFUNG
 62
     7
  0
POLYLINE
  5
782
330
1F
100
AcDbEntity
  8
BEMA_U_00DFUNG
 62
     7
100
AcDb2dPolyline
 66
     1
 10
0.0
 20
0.0
 30
0.0
  0
VERTEX
  5
783
330
782
100
AcDbEntity
  8
BEMA_U_00DFUNG
 62
     7
100
AcDbVertex
100
AcDb2dVertex
 10
61.32886842542314
 20
148.9098467618175
 30
0.0
  0
VERTEX
  5
784
330
782
100
AcDbEntity
  8
BEMA_U_00DFUNG
 62
     7
100
AcDbVertex
100
AcDb2dVertex
 10
62.12791009188984
 20
148.9098467618175
 30
0.0
  0
SEQEND
  5
785
330
782
100
AcDbEntity
  8
BEMA_U_00DFUNG
 62
     7
  0
POLYLINE
  5
786
330
1F
100
AcDbEntity
  8
BEMA_U_00DFUNG
 62
     7
100
AcDb2dPolyline
 66
     1
 10
0.0
 20
0.0
 30
0.0
  0
VERTEX
  5
787
330
786
100
AcDbEntity
  8
BEMA_U_00DFUNG
 62
     7
100
AcDbVertex
100
AcDb2dVertex
 10
61.32886842542314
 20
148.9606467618048
 30
0.0
  0
VERTEX
  5
788
330
786
100
AcDbEntity
  8
BEMA_U_00DFUNG
 62
     7
100
AcDbVertex
100
AcDb2dVertex
 10
62.5134962029045
 20
148.9606467618048
 30
0.0
  0
SEQEND
  5
789
330
786
100
AcDbEntity
  8
BEMA_U_00DFUNG
 62
     7
  0
POLYLINE
  5
78A
330
1F
100
AcDbEntity
  8
BEMA_U_00DFUNG
 62
     7
100
AcDb2dPolyline
 66
     1
 10
0.0
 20
0.0
 30
0.0
  0
VERTEX
  5
78B
330
78A
100
AcDbEntity
  8
BEMA_U_00DFUNG
 62
     7
100
AcDbVertex
100
AcDb2dVertex
 10
61.32886842542314
 20
149.0114467617922
 30
0.0
  0
VERTEX
  5
78C
330
78A
100
AcDbEntity
  8
BEMA_U_00DFUNG
 62
     7
100
AcDbVertex
100
AcDb2dVertex
 10
62.89943509169692
 20
149.0114467617922
 30
0.0
  0
SEQEND
  5
78D
330
78A
100
AcDbEntity
  8
BEMA_U_00DFUNG
 62
     7
  0
POLYLINE
  5
78E
330
1F
100
AcDbEntity
  8
BEMA_U_00DFUNG
 62
     7
100
AcDb2dPolyline
 66
     1
 10
0.0
 20
0.0
 30
0.0
  0
VERTEX
  5
78F
330
78E
100
AcDbEntity
  8
BEMA_U_00DFUNG
 62
     7
100
AcDbVertex
100
AcDb2dVertex
 10
61.32886842542314
 20
149.0622467617796
 30
0.0
  0
VERTEX
  5
790
330
78E
100
AcDbEntity
  8
BEMA_U_00DFUNG
 62
     7
100
AcDbVertex
100
AcDb2dVertex
 10
63.28572675826711
 20
149.0622467617796
 30
0.0
  0
SEQEND
  5
791
330
78E
100
AcDbEntity
  8
BEMA_U_00DFUNG
 62
     7
  0
POLYLINE
  5
792
330
1F
100
AcDbEntity
  8
BEMA_U_00DFUNG
 62
     7
100
AcDb2dPolyline
 66
     1
 10
0.0
 20
0.0
 30
0.0
  0
VERTEX
  5
793
330
792
100
AcDbEntity
  8
BEMA_U_00DFUNG
 62
     7
100
AcDbVertex
100
AcDb2dVertex
 10
61.32886842542314
 20
149.113046761767
 30
0.0
  0
VERTEX
  5
794
330
792
100
AcDbEntity
  8
BEMA_U_00DFUNG
 62
     7
100
AcDbVertex
100
AcDb2dVertex
 10
63.67166564705953
 20
149.113046761767
 30
0.0
  0
SEQEND
  5
795
330
792
100
AcDbEntity
  8
BEMA_U_00DFUNG
 62
     7
  0
POLYLINE
  5
796
330
1F
100
AcDbEntity
  8
BEMA_U_00DFUNG
 62
     7
100
AcDb2dPolyline
 66
     1
 10
0.0
 20
0.0
 30
0.0
  0
VERTEX
  5
797
330
796
100
AcDbEntity
  8
BEMA_U_00DFUNG
 62
     7
100
AcDbVertex
100
AcDb2dVertex
 10
61.32886842542314
 20
149.1638467617544
 30
0.0
  0
VERTEX
  5
798
330
796
100
AcDbEntity
  8
BEMA_U_00DFUNG
 62
     7
100
AcDbVertex
100
AcDb2dVertex
 10
64.05689898029642
 20
149.1638467617544
 30
0.0
  0
SEQEND
  5
799
330
796
100
AcDbEntity
  8
BEMA_U_00DFUNG
 62
     7
  0
POLYLINE
  5
79A
330
1F
100
AcDbEntity
  8
BEMA_U_00DFUNG
 62
     7
100
AcDb2dPolyline
 66
     1
 10
0.0
 20
0.0
 30
0.0
  0
VERTEX
  5
79B
330
79A
100
AcDbEntity
  8
BEMA_U_00DFUNG
 62
     7
100
AcDbVertex
100
AcDb2dVertex
 10
61.32886842542314
 20
149.2146467617414
 30
0.0
  0
VERTEX
  5
79C
330
79A
100
AcDbEntity
  8
BEMA_U_00DFUNG
 62
     7
100
AcDbVertex
100
AcDb2dVertex
 10
64.44283786908885
 20
149.2146467617414
 30
0.0
  0
SEQEND
  5
79D
330
79A
100
AcDbEntity
  8
BEMA_U_00DFUNG
 62
     7
  0
POLYLINE
  5
79E
330
1F
100
AcDbEntity
  8
BEMA_U_00DFUNG
 62
     7
100
AcDb2dPolyline
 66
     1
 10
0.0
 20
0.0
 30
0.0
  0
VERTEX
  5
79F
330
79E
100
AcDbEntity
  8
BEMA_U_00DFUNG
 62
     7
100
AcDbVertex
100
AcDb2dVertex
 10
61.32886842542314
 20
149.2657995395062
 30
0.0
  0
VERTEX
  5
7A0
330
79E
100
AcDbEntity
  8
BEMA_U_00DFUNG
 62
     7
100
AcDbVertex
100
AcDb2dVertex
 10
64.82912953565904
 20
149.2657995395062
 30
0.0
  0
SEQEND
  5
7A1
330
79E
100
AcDbEntity
  8
BEMA_U_00DFUNG
 62
     7
  0
POLYLINE
  5
7A2
330
1F
100
AcDbEntity
  8
BEMA_U_00DFUNG
 62
     7
100
AcDb2dPolyline
 66
     1
 10
0.0
 20
0.0
 30
0.0
  0
VERTEX
  5
7A3
330
7A2
100
AcDbEntity
  8
BEMA_U_00DFUNG
 62
     7
100
AcDbVertex
100
AcDb2dVertex
 10
70.82882120082564
 20
149.2657995395062
 30
0.0
  0
VERTEX
  5
7A4
330
7A2
100
AcDbEntity
  8
BEMA_U_00DFUNG
 62
     7
100
AcDbVertex
100
AcDb2dVertex
 10
74.32908231106185
 20
148.8047189840664
 30
0.0
  0
VERTEX
  5
7A5
330
7A2
100
AcDbEntity
  8
BEMA_U_00DFUNG
 62
     7
100
AcDbVertex
100
AcDb2dVertex
 10
74.32908231106185
 20
149.726527317169
 30
0.0
  0
VERTEX
  5
7A6
330
7A2
100
AcDbEntity
  8
BEMA_U_00DFUNG
 62
     7
100
AcDbVertex
100
AcDb2dVertex
 10
70.82882120082564
 20
149.2657995395062
 30
0.0
  0
SEQEND
  5
7A7
330
7A2
100
AcDbEntity
  8
BEMA_U_00DFUNG
 62
     7
  0
POLYLINE
  5
7A8
330
1F
100
AcDbEntity
  8
BEMA_U_00DFUNG
 62
     7
100
AcDb2dPolyline
 66
     1
 10
0.0
 20
0.0
 30
0.0
  0
VERTEX
  5
7A9
330
7A8
100
AcDbEntity
  8
BEMA_U_00DFUNG
 62
     7
100
AcDbVertex
100
AcDb2dVertex
 10
74.32908231106185
 20
148.808246761843
 30
0.0
  0
VERTEX
  5
7AA
330
7A8
100
AcDbEntity
  8
BEMA_U_00DFUNG
 62
     7
100
AcDbVertex
100
AcDb2dVertex
 10
74.30191842217968
 20
148.808246761843
 30
0.0
  0
SEQEND
  5
7AB
330
7A8
100
AcDbEntity
  8
BEMA_U_00DFUNG
 62
     7
  0
POLYLINE
  5
7AC
330
1F
100
AcDbEntity
  8
BEMA_U_00DFUNG
 62
     7
100
AcDb2dPolyline
 66
     1
 10
0.0
 20
0.0
 30
0.0
  0
VERTEX
  5
7AD
330
7AC
100
AcDbEntity
  8
BEMA_U_00DFUNG
 62
     7
100
AcDbVertex
100
AcDb2dVertex
 10
74.32908231106185
 20
148.808246761843
 30
0.0
  0
VERTEX
  5
7AE
330
7AC
100
AcDbEntity
  8
BEMA_U_00DFUNG
 62
     7
100
AcDbVertex
100
AcDb2dVertex
 10
74.30191842217968
 20
148.808246761843
 30
0.0
  0
SEQEND
  5
7AF
330
7AC
100
AcDbEntity
  8
BEMA_U_00DFUNG
 62
     7
  0
POLYLINE
  5
7B0
330
1F
100
AcDbEntity
  8
BEMA_U_00DFUNG
 62
     7
100
AcDb2dPolyline
 66
     1
 10
0.0
 20
0.0
 30
0.0
  0
VERTEX
  5
7B1
330
7B0
100
AcDbEntity
  8
BEMA_U_00DFUNG
 62
     7
100
AcDbVertex
100
AcDb2dVertex
 10
74.32908231106185
 20
148.8590467618304
 30
0.0
  0
VERTEX
  5
7B2
330
7B0
100
AcDbEntity
  8
BEMA_U_00DFUNG
 62
     7
100
AcDbVertex
100
AcDb2dVertex
 10
73.91597953338726
 20
148.8590467618304
 30
0.0
  0
SEQEND
  5
7B3
330
7B0
100
AcDbEntity
  8
BEMA_U_00DFUNG
 62
     7
  0
POLYLINE
  5
7B4
330
1F
100
AcDbEntity
  8
BEMA_U_00DFUNG
 62
     7
100
AcDb2dPolyline
 66
     1
 10
0.0
 20
0.0
 30
0.0
  0
VERTEX
  5
7B5
330
7B4
100
AcDbEntity
  8
BEMA_U_00DFUNG
 62
     7
100
AcDbVertex
100
AcDb2dVertex
 10
74.32908231106185
 20
148.9098467618175
 30
0.0
  0
VERTEX
  5
7B6
330
7B4
100
AcDbEntity
  8
BEMA_U_00DFUNG
 62
     7
100
AcDbVertex
100
AcDb2dVertex
 10
73.5296878668174
 20
148.9098467618175
 30
0.0
  0
SEQEND
  5
7B7
330
7B4
100
AcDbEntity
  8
BEMA_U_00DFUNG
 62
     7
  0
POLYLINE
  5
7B8
330
1F
100
AcDbEntity
  8
BEMA_U_00DFUNG
 62
     7
100
AcDb2dPolyline
 66
     1
 10
0.0
 20
0.0
 30
0.0
  0
VERTEX
  5
7B9
330
7B8
100
AcDbEntity
  8
BEMA_U_00DFUNG
 62
     7
100
AcDbVertex
100
AcDb2dVertex
 10
74.32908231106185
 20
148.9606467618048
 30
0.0
  0
VERTEX
  5
7BA
330
7B8
100
AcDbEntity
  8
BEMA_U_00DFUNG
 62
     7
100
AcDbVertex
100
AcDb2dVertex
 10
73.14445453358017
 20
148.9606467618048
 30
0.0
  0
SEQEND
  5
7BB
330
7B8
100
AcDbEntity
  8
BEMA_U_00DFUNG
 62
     7
  0
POLYLINE
  5
7BC
330
1F
100
AcDbEntity
  8
BEMA_U_00DFUNG
 62
     7
100
AcDb2dPolyline
 66
     1
 10
0.0
 20
0.0
 30
0.0
  0
VERTEX
  5
7BD
330
7BC
100
AcDbEntity
  8
BEMA_U_00DFUNG
 62
     7
100
AcDbVertex
100
AcDb2dVertex
 10
74.32908231106185
 20
149.0114467617922
 30
0.0
  0
VERTEX
  5
7BE
330
7BC
100
AcDbEntity
  8
BEMA_U_00DFUNG
 62
     7
100
AcDbVertex
100
AcDb2dVertex
 10
72.75851564478775
 20
149.0114467617922
 30
0.0
  0
SEQEND
  5
7BF
330
7BC
100
AcDbEntity
  8
BEMA_U_00DFUNG
 62
     7
  0
POLYLINE
  5
7C0
330
1F
100
AcDbEntity
  8
BEMA_U_00DFUNG
 62
     7
100
AcDb2dPolyline
 66
     1
 10
0.0
 20
0.0
 30
0.0
  0
VERTEX
  5
7C1
330
7C0
100
AcDbEntity
  8
BEMA_U_00DFUNG
 62
     7
100
AcDbVertex
100
AcDb2dVertex
 10
74.32908231106185
 20
149.0622467617796
 30
0.0
  0
VERTEX
  5
7C2
330
7C0
100
AcDbEntity
  8
BEMA_U_00DFUNG
 62
     7
100
AcDbVertex
100
AcDb2dVertex
 10
72.37257675599533
 20
149.0622467617796
 30
0.0
  0
SEQEND
  5
7C3
330
7C0
100
AcDbEntity
  8
BEMA_U_00DFUNG
 62
     7
  0
POLYLINE
  5
7C4
330
1F
100
AcDbEntity
  8
BEMA_U_00DFUNG
 62
     7
100
AcDb2dPolyline
 66
     1
 10
0.0
 20
0.0
 30
0.0
  0
VERTEX
  5
7C5
330
7C4
100
AcDbEntity
  8
BEMA_U_00DFUNG
 62
     7
100
AcDbVertex
100
AcDb2dVertex
 10
74.32908231106185
 20
149.113046761767
 30
0.0
  0
VERTEX
  5
7C6
330
7C4
100
AcDbEntity
  8
BEMA_U_00DFUNG
 62
     7
100
AcDbVertex
100
AcDb2dVertex
 10
71.98628508942546
 20
149.113046761767
 30
0.0
  0
SEQEND
  5
7C7
330
7C4
100
AcDbEntity
  8
BEMA_U_00DFUNG
 62
     7
  0
POLYLINE
  5
7C8
330
1F
100
AcDbEntity
  8
BEMA_U_00DFUNG
 62
     7
100
AcDb2dPolyline
 66
     1
 10
0.0
 20
0.0
 30
0.0
  0
VERTEX
  5
7C9
330
7C8
100
AcDbEntity
  8
BEMA_U_00DFUNG
 62
     7
100
AcDbVertex
100
AcDb2dVertex
 10
74.32908231106185
 20
149.1638467617544
 30
0.0
  0
VERTEX
  5
7CA
330
7C8
100
AcDbEntity
  8
BEMA_U_00DFUNG
 62
     7
100
AcDbVertex
100
AcDb2dVertex
 10
71.60069897841049
 20
149.1638467617544
 30
0.0
  0
SEQEND
  5
7CB
330
7C8
100
AcDbEntity
  8
BEMA_U_00DFUNG
 62
     7
  0
POLYLINE
  5
7CC
330
1F
100
AcDbEntity
  8
BEMA_U_00DFUNG
 62
     7
100
AcDb2dPolyline
 66
     1
 10
0.0
 20
0.0
 30
0.0
  0
VERTEX
  5
7CD
330
7CC
100
AcDbEntity
  8
BEMA_U_00DFUNG
 62
     7
100
AcDbVertex
100
AcDb2dVertex
 10
74.32908231106185
 20
149.2146467617414
 30
0.0
  0
VERTEX
  5
7CE
330
7CC
100
AcDbEntity
  8
BEMA_U_00DFUNG
 62
     7
100
AcDbVertex
100
AcDb2dVertex
 10
71.21476008961807
 20
149.2146467617414
 30
0.0
  0
SEQEND
  5
7CF
330
7CC
100
AcDbEntity
  8
BEMA_U_00DFUNG
 62
     7
  0
POLYLINE
  5
7D0
330
1F
100
AcDbEntity
  8
BEMA_U_00DFUNG
 62
     7
100
AcDb2dPolyline
 66
     1
 10
0.0
 20
0.0
 30
0.0
  0
VERTEX
  5
7D1
330
7D0
100
AcDbEntity
  8
BEMA_U_00DFUNG
 62
     7
100
AcDbVertex
100
AcDb2dVertex
 10
74.32908231106185
 20
149.2657995395062
 30
0.0
  0
VERTEX
  5
7D2
330
7D0
100
AcDbEntity
  8
BEMA_U_00DFUNG
 62
     7
100
AcDbVertex
100
AcDb2dVertex
 10
70.82882120082564
 20
149.2657995395062
 30
0.0
  0
SEQEND
  5
7D3
330
7D0
100
AcDbEntity
  8
BEMA_U_00DFUNG
 62
     7
  0
POLYLINE
  5
7D4
330
1F
100
AcDbEntity
  8
BEMA_U_00DFUNG
 62
     7
100
AcDb2dPolyline
 66
     1
 10
0.0
 20
0.0
 30
0.0
  0
VERTEX
  5
7D5
330
7D4
100
AcDbEntity
  8
BEMA_U_00DFUNG
 62
     7
100
AcDbVertex
100
AcDb2dVertex
 10
74.32908231106185
 20
149.722999539392
 30
0.0
  0
VERTEX
  5
7D6
330
7D4
100
AcDbEntity
  8
BEMA_U_00DFUNG
 62
     7
100
AcDbVertex
100
AcDb2dVertex
 10
74.30191842217968
 20
149.722999539392
 30
0.0
  0
SEQEND
  5
7D7
330
7D4
100
AcDbEntity
  8
BEMA_U_00DFUNG
 62
     7
  0
POLYLINE
  5
7D8
330
1F
100
AcDbEntity
  8
BEMA_U_00DFUNG
 62
     7
100
AcDb2dPolyline
 66
     1
 10
0.0
 20
0.0
 30
0.0
  0
VERTEX
  5
7D9
330
7D8
100
AcDbEntity
  8
BEMA_U_00DFUNG
 62
     7
100
AcDbVertex
100
AcDb2dVertex
 10
74.32908231106185
 20
149.722999539392
 30
0.0
  0
VERTEX
  5
7DA
330
7D8
100
AcDbEntity
  8
BEMA_U_00DFUNG
 62
     7
100
AcDbVertex
100
AcDb2dVertex
 10
74.30191842217968
 20
149.722999539392
 30
0.0
  0
SEQEND
  5
7DB
330
7D8
100
AcDbEntity
  8
BEMA_U_00DFUNG
 62
     7
  0
POLYLINE
  5
7DC
330
1F
100
AcDbEntity
  8
BEMA_U_00DFUNG
 62
     7
100
AcDb2dPolyline
 66
     1
 10
0.0
 20
0.0
 30
0.0
  0
VERTEX
  5
7DD
330
7DC
100
AcDbEntity
  8
BEMA_U_00DFUNG
 62
     7
100
AcDbVertex
100
AcDb2dVertex
 10
74.32908231106185
 20
149.6721995394047
 30
0.0
  0
VERTEX
  5
7DE
330
7DC
100
AcDbEntity
  8
BEMA_U_00DFUNG
 62
     7
100
AcDbVertex
100
AcDb2dVertex
 10
73.91597953338726
 20
149.6721995394047
 30
0.0
  0
SEQEND
  5
7DF
330
7DC
100
AcDbEntity
  8
BEMA_U_00DFUNG
 62
     7
  0
POLYLINE
  5
7E0
330
1F
100
AcDbEntity
  8
BEMA_U_00DFUNG
 62
     7
100
AcDb2dPolyline
 66
     1
 10
0.0
 20
0.0
 30
0.0
  0
VERTEX
  5
7E1
330
7E0
100
AcDbEntity
  8
BEMA_U_00DFUNG
 62
     7
100
AcDbVertex
100
AcDb2dVertex
 10
74.32908231106185
 20
149.6213995394176
 30
0.0
  0
VERTEX
  5
7E2
330
7E0
100
AcDbEntity
  8
BEMA_U_00DFUNG
 62
     7
100
AcDbVertex
100
AcDb2dVertex
 10
73.5296878668174
 20
149.6213995394176
 30
0.0
  0
SEQEND
  5
7E3
330
7E0
100
AcDbEntity
  8
BEMA_U_00DFUNG
 62
     7
  0
POLYLINE
  5
7E4
330
1F
100
AcDbEntity
  8
BEMA_U_00DFUNG
 62
     7
100
AcDb2dPolyline
 66
     1
 10
0.0
 20
0.0
 30
0.0
  0
VERTEX
  5
7E5
330
7E4
100
AcDbEntity
  8
BEMA_U_00DFUNG
 62
     7
100
AcDbVertex
100
AcDb2dVertex
 10
74.32908231106185
 20
149.5705995394302
 30
0.0
  0
VERTEX
  5
7E6
330
7E4
100
AcDbEntity
  8
BEMA_U_00DFUNG
 62
     7
100
AcDbVertex
100
AcDb2dVertex
 10
73.14445453358017
 20
149.5705995394302
 30
0.0
  0
SEQEND
  5
7E7
330
7E4
100
AcDbEntity
  8
BEMA_U_00DFUNG
 62
     7
  0
POLYLINE
  5
7E8
330
1F
100
AcDbEntity
  8
BEMA_U_00DFUNG
 62
     7
100
AcDb2dPolyline
 66
     1
 10
0.0
 20
0.0
 30
0.0
  0
VERTEX
  5
7E9
330
7E8
100
AcDbEntity
  8
BEMA_U_00DFUNG
 62
     7
100
AcDbVertex
100
AcDb2dVertex
 10
74.32908231106185
 20
149.5197995394432
 30
0.0
  0
VERTEX
  5
7EA
330
7E8
100
AcDbEntity
  8
BEMA_U_00DFUNG
 62
     7
100
AcDbVertex
100
AcDb2dVertex
 10
72.75851564478775
 20
149.5197995394432
 30
0.0
  0
SEQEND
  5
7EB
330
7E8
100
AcDbEntity
  8
BEMA_U_00DFUNG
 62
     7
  0
POLYLINE
  5
7EC
330
1F
100
AcDbEntity
  8
BEMA_U_00DFUNG
 62
     7
100
AcDb2dPolyline
 66
     1
 10
0.0
 20
0.0
 30
0.0
  0
VERTEX
  5
7ED
330
7EC
100
AcDbEntity
  8
BEMA_U_00DFUNG
 62
     7
100
AcDbVertex
100
AcDb2dVertex
 10
74.32908231106185
 20
149.4689995394558
 30
0.0
  0
VERTEX
  5
7EE
330
7EC
100
AcDbEntity
  8
BEMA_U_00DFUNG
 62
     7
100
AcDbVertex
100
AcDb2dVertex
 10
72.37257675599533
 20
149.4689995394558
 30
0.0
  0
SEQEND
  5
7EF
330
7EC
100
AcDbEntity
  8
BEMA_U_00DFUNG
 62
     7
  0
POLYLINE
  5
7F0
330
1F
100
AcDbEntity
  8
BEMA_U_00DFUNG
 62
     7
100
AcDb2dPolyline
 66
     1
 10
0.0
 20
0.0
 30
0.0
  0
VERTEX
  5
7F1
330
7F0
100
AcDbEntity
  8
BEMA_U_00DFUNG
 62
     7
100
AcDbVertex
100
AcDb2dVertex
 10
74.32908231106185
 20
149.4181995394684
 30
0.0
  0
VERTEX
  5
7F2
330
7F0
100
AcDbEntity
  8
BEMA_U_00DFUNG
 62
     7
100
AcDbVertex
100
AcDb2dVertex
 10
71.98628508942546
 20
149.4181995394684
 30
0.0
  0
SEQEND
  5
7F3
330
7F0
100
AcDbEntity
  8
BEMA_U_00DFUNG
 62
     7
  0
POLYLINE
  5
7F4
330
1F
100
AcDbEntity
  8
BEMA_U_00DFUNG
 62
     7
100
AcDb2dPolyline
 66
     1
 10
0.0
 20
0.0
 30
0.0
  0
VERTEX
  5
7F5
330
7F4
100
AcDbEntity
  8
BEMA_U_00DFUNG
 62
     7
100
AcDbVertex
100
AcDb2dVertex
 10
74.32908231106185
 20
149.367399539481
 30
0.0
  0
VERTEX
  5
7F6
330
7F4
100
AcDbEntity
  8
BEMA_U_00DFUNG
 62
     7
100
AcDbVertex
100
AcDb2dVertex
 10
71.60069897841049
 20
149.367399539481
 30
0.0
  0
SEQEND
  5
7F7
330
7F4
100
AcDbEntity
  8
BEMA_U_00DFUNG
 62
     7
  0
POLYLINE
  5
7F8
330
1F
100
AcDbEntity
  8
BEMA_U_00DFUNG
 62
     7
100
AcDb2dPolyline
 66
     1
 10
0.0
 20
0.0
 30
0.0
  0
VERTEX
  5
7F9
330
7F8
100
AcDbEntity
  8
BEMA_U_00DFUNG
 62
     7
100
AcDbVertex
100
AcDb2dVertex
 10
74.32908231106185
 20
149.3165995394936
 30
0.0
  0
VERTEX
  5
7FA
330
7F8
100
AcDbEntity
  8
BEMA_U_00DFUNG
 62
     7
100
AcDbVertex
100
AcDb2dVertex
 10
71.21476008961807
 20
149.3165995394936
 30
0.0
  0
SEQEND
  5
7FB
330
7F8
100
AcDbEntity
  8
BEMA_U_00DFUNG
 62
     7
  0
POLYLINE
  5
7FC
330
1F
100
AcDbEntity
  8
BEMA_U_00DFUNG
 62
     7
100
AcDb2dPolyline
 66
     1
 10
0.0
 20
0.0
 30
0.0
  0
VERTEX
  5
7FD
330
7FC
100
AcDbEntity
  8
BEMA_U_00DFUNG
 62
     7
100
AcDbVertex
100
AcDb2dVertex
 10
74.32908231106185
 20
149.2657995395062
 30
0.0
  0
VERTEX
  5
7FE
330
7FC
100
AcDbEntity
  8
BEMA_U_00DFUNG
 62
     7
100
AcDbVertex
100
AcDb2dVertex
 10
70.82882120082564
 20
149.2657995395062
 30
0.0
  0
SEQEND
  5
7FF
330
7FC
100
AcDbEntity
  8
BEMA_U_00DFUNG
 62
     7
  0
POLYLINE
  5
800
330
1F
100
AcDbEntity
  8
BEMA_U_00DFUNG
 62
     7
100
AcDb2dPolyline
 66
     1
 10
0.0
 20
0.0
 30
0.0
  0
VERTEX
  5
801
330
800
100
AcDbEntity
  8
BEMA_U_00DFUNG
 62
     7
100
AcDbVertex
100
AcDb2dVertex
 10
41.82554898585425
 20
122.1294273240683
 30
0.0
  0
VERTEX
  5
802
330
800
100
AcDbEntity
  8
BEMA_U_00DFUNG
 62
     7
100
AcDbVertex
100
AcDb2dVertex
 10
29.24478787788856
 20
122.1294273240683
 30
0.0
  0
SEQEND
  5
803
330
800
100
AcDbEntity
  8
BEMA_U_00DFUNG
 62
     7
  0
POLYLINE
  5
804
330
1F
100
AcDbEntity
  8
BEMA_U_00DFUNG
 62
     7
100
AcDb2dPolyline
 66
     1
 10
0.0
 20
0.0
 30
0.0
  0
VERTEX
  5
805
330
804
100
AcDbEntity
  8
BEMA_U_00DFUNG
 62
     7
100
AcDbVertex
100
AcDb2dVertex
 10
41.82554898585425
 20
112.4015801042781
 30
0.0
  0
VERTEX
  5
806
330
804
100
AcDbEntity
  8
BEMA_U_00DFUNG
 62
     7
100
AcDbVertex
100
AcDb2dVertex
 10
29.24478787788856
 20
112.4015801042781
 30
0.0
  0
SEQEND
  5
807
330
804
100
AcDbEntity
  8
BEMA_U_00DFUNG
 62
     7
  0
POLYLINE
  5
808
330
1F
100
AcDbEntity
  8
BEMA_U_00DFUNG
 62
     7
100
AcDb2dPolyline
 66
     1
 10
0.0
 20
0.0
 30
0.0
  0
VERTEX
  5
809
330
808
100
AcDbEntity
  8
BEMA_U_00DFUNG
 62
     7
100
AcDbVertex
100
AcDb2dVertex
 10
31.24503787738853
 20
112.4015801042781
 30
0.0
  0
VERTEX
  5
80A
330
808
100
AcDbEntity
  8
BEMA_U_00DFUNG
 62
     7
100
AcDbVertex
100
AcDb2dVertex
 10
31.24503787738853
 20
131.2734231042051
 30
0.0
  0
SEQEND
  5
80B
330
808
100
AcDbEntity
  8
BEMA_U_00DFUNG
 62
     7
  0
POLYLINE
  5
80C
330
1F
100
AcDbEntity
  8
BEMA_U_00DFUNG
 62
     7
100
AcDb2dPolyline
 66
     1
 10
0.0
 20
0.0
 30
0.0
  0
VERTEX
  5
80D
330
80C
100
AcDbEntity
  8
BEMA_U_00DFUNG
 62
     7
100
AcDbVertex
100
AcDb2dVertex
 10
31.24503787738853
 20
122.1294273240683
 30
0.0
  0
VERTEX
  5
80E
330
80C
100
AcDbEntity
  8
BEMA_U_00DFUNG
 62
     7
100
AcDbVertex
100
AcDb2dVertex
 10
30.78395732194799
 20
118.6295189916101
 30
0.0
  0
VERTEX
  5
80F
330
80C
100
AcDbEntity
  8
BEMA_U_00DFUNG
 62
     7
100
AcDbVertex
100
AcDb2dVertex
 10
31.70576565505097
 20
118.6295189916101
 30
0.0
  0
VERTEX
  5
810
330
80C
100
AcDbEntity
  8
BEMA_U_00DFUNG
 62
     7
100
AcDbVertex
100
AcDb2dVertex
 10
31.24503787738853
 20
122.1294273240683
 30
0.0
  0
SEQEND
  5
811
330
80C
100
AcDbEntity
  8
BEMA_U_00DFUNG
 62
     7
  0
POLYLINE
  5
812
330
1F
100
AcDbEntity
  8
BEMA_U_00DFUNG
 62
     7
100
AcDb2dPolyline
 66
     1
 10
0.0
 20
0.0
 30
0.0
  0
VERTEX
  5
813
330
812
100
AcDbEntity
  8
BEMA_U_00DFUNG
 62
     7
100
AcDbVertex
100
AcDb2dVertex
 10
30.78783787750273
 20
118.6295189916101
 30
0.0
  0
VERTEX
  5
814
330
812
100
AcDbEntity
  8
BEMA_U_00DFUNG
 62
     7
100
AcDbVertex
100
AcDb2dVertex
 10
30.78783787750273
 20
118.6570356582698
 30
0.0
  0
SEQEND
  5
815
330
812
100
AcDbEntity
  8
BEMA_U_00DFUNG
 62
     7
  0
POLYLINE
  5
816
330
1F
100
AcDbEntity
  8
BEMA_U_00DFUNG
 62
     7
100
AcDb2dPolyline
 66
     1
 10
0.0
 20
0.0
 30
0.0
  0
VERTEX
  5
817
330
816
100
AcDbEntity
  8
BEMA_U_00DFUNG
 62
     7
100
AcDbVertex
100
AcDb2dVertex
 10
30.78783787750273
 20
118.6295189916101
 30
0.0
  0
VERTEX
  5
818
330
816
100
AcDbEntity
  8
BEMA_U_00DFUNG
 62
     7
100
AcDbVertex
100
AcDb2dVertex
 10
30.78783787750273
 20
118.6570356582698
 30
0.0
  0
SEQEND
  5
819
330
816
100
AcDbEntity
  8
BEMA_U_00DFUNG
 62
     7
  0
POLYLINE
  5
81A
330
1F
100
AcDbEntity
  8
BEMA_U_00DFUNG
 62
     7
100
AcDb2dPolyline
 66
     1
 10
0.0
 20
0.0
 30
0.0
  0
VERTEX
  5
81B
330
81A
100
AcDbEntity
  8
BEMA_U_00DFUNG
 62
     7
100
AcDbVertex
100
AcDb2dVertex
 10
30.83828509971235
 20
118.6295189916101
 30
0.0
  0
VERTEX
  5
81C
330
81A
100
AcDbEntity
  8
BEMA_U_00DFUNG
 62
     7
100
AcDbVertex
100
AcDb2dVertex
 10
30.83828509971235
 20
119.042268991507
 30
0.0
  0
SEQEND
  5
81D
330
81A
100
AcDbEntity
  8
BEMA_U_00DFUNG
 62
     7
  0
POLYLINE
  5
81E
330
1F
100
AcDbEntity
  8
BEMA_U_00DFUNG
 62
     7
100
AcDb2dPolyline
 66
     1
 10
0.0
 20
0.0
 30
0.0
  0
VERTEX
  5
81F
330
81E
100
AcDbEntity
  8
BEMA_U_00DFUNG
 62
     7
100
AcDbVertex
100
AcDb2dVertex
 10
30.88908509969973
 20
118.6295189916101
 30
0.0
  0
VERTEX
  5
820
330
81E
100
AcDbEntity
  8
BEMA_U_00DFUNG
 62
     7
100
AcDbVertex
100
AcDb2dVertex
 10
30.88908509969973
 20
119.4285606580768
 30
0.0
  0
SEQEND
  5
821
330
81E
100
AcDbEntity
  8
BEMA_U_00DFUNG
 62
     7
  0
POLYLINE
  5
822
330
1F
100
AcDbEntity
  8
BEMA_U_00DFUNG
 62
     7
100
AcDb2dPolyline
 66
     1
 10
0.0
 20
0.0
 30
0.0
  0
VERTEX
  5
823
330
822
100
AcDbEntity
  8
BEMA_U_00DFUNG
 62
     7
100
AcDbVertex
100
AcDb2dVertex
 10
30.93988509968679
 20
118.6295189916101
 30
0.0
  0
VERTEX
  5
824
330
822
100
AcDbEntity
  8
BEMA_U_00DFUNG
 62
     7
100
AcDbVertex
100
AcDb2dVertex
 10
30.93988509968679
 20
119.8141467690915
 30
0.0
  0
SEQEND
  5
825
330
822
100
AcDbEntity
  8
BEMA_U_00DFUNG
 62
     7
  0
POLYLINE
  5
826
330
1F
100
AcDbEntity
  8
BEMA_U_00DFUNG
 62
     7
100
AcDb2dPolyline
 66
     1
 10
0.0
 20
0.0
 30
0.0
  0
VERTEX
  5
827
330
826
100
AcDbEntity
  8
BEMA_U_00DFUNG
 62
     7
100
AcDbVertex
100
AcDb2dVertex
 10
30.99103787745194
 20
118.6295189916101
 30
0.0
  0
VERTEX
  5
828
330
826
100
AcDbEntity
  8
BEMA_U_00DFUNG
 62
     7
100
AcDbVertex
100
AcDb2dVertex
 10
30.99103787745194
 20
120.2004384356617
 30
0.0
  0
SEQEND
  5
829
330
826
100
AcDbEntity
  8
BEMA_U_00DFUNG
 62
     7
  0
POLYLINE
  5
82A
330
1F
100
AcDbEntity
  8
BEMA_U_00DFUNG
 62
     7
100
AcDb2dPolyline
 66
     1
 10
0.0
 20
0.0
 30
0.0
  0
VERTEX
  5
82B
330
82A
100
AcDbEntity
  8
BEMA_U_00DFUNG
 62
     7
100
AcDbVertex
100
AcDb2dVertex
 10
31.04183787743932
 20
118.6295189916101
 30
0.0
  0
VERTEX
  5
82C
330
82A
100
AcDbEntity
  8
BEMA_U_00DFUNG
 62
     7
100
AcDbVertex
100
AcDb2dVertex
 10
31.04183787743932
 20
120.5860245466764
 30
0.0
  0
SEQEND
  5
82D
330
82A
100
AcDbEntity
  8
BEMA_U_00DFUNG
 62
     7
  0
POLYLINE
  5
82E
330
1F
100
AcDbEntity
  8
BEMA_U_00DFUNG
 62
     7
100
AcDb2dPolyline
 66
     1
 10
0.0
 20
0.0
 30
0.0
  0
VERTEX
  5
82F
330
82E
100
AcDbEntity
  8
BEMA_U_00DFUNG
 62
     7
100
AcDbVertex
100
AcDb2dVertex
 10
31.09263787742638
 20
118.6295189916101
 30
0.0
  0
VERTEX
  5
830
330
82E
100
AcDbEntity
  8
BEMA_U_00DFUNG
 62
     7
100
AcDbVertex
100
AcDb2dVertex
 10
31.09263787742638
 20
120.9719634354688
 30
0.0
  0
SEQEND
  5
831
330
82E
100
AcDbEntity
  8
BEMA_U_00DFUNG
 62
     7
  0
POLYLINE
  5
832
330
1F
100
AcDbEntity
  8
BEMA_U_00DFUNG
 62
     7
100
AcDb2dPolyline
 66
     1
 10
0.0
 20
0.0
 30
0.0
  0
VERTEX
  5
833
330
832
100
AcDbEntity
  8
BEMA_U_00DFUNG
 62
     7
100
AcDbVertex
100
AcDb2dVertex
 10
31.143085099636
 20
118.6295189916101
 30
0.0
  0
VERTEX
  5
834
330
832
100
AcDbEntity
  8
BEMA_U_00DFUNG
 62
     7
100
AcDbVertex
100
AcDb2dVertex
 10
31.143085099636
 20
121.3575495464834
 30
0.0
  0
SEQEND
  5
835
330
832
100
AcDbEntity
  8
BEMA_U_00DFUNG
 62
     7
  0
POLYLINE
  5
836
330
1F
100
AcDbEntity
  8
BEMA_U_00DFUNG
 62
     7
100
AcDb2dPolyline
 66
     1
 10
0.0
 20
0.0
 30
0.0
  0
VERTEX
  5
837
330
836
100
AcDbEntity
  8
BEMA_U_00DFUNG
 62
     7
100
AcDbVertex
100
AcDb2dVertex
 10
31.19388509962338
 20
118.6295189916101
 30
0.0
  0
VERTEX
  5
838
330
836
100
AcDbEntity
  8
BEMA_U_00DFUNG
 62
     7
100
AcDbVertex
100
AcDb2dVertex
 10
31.19388509962338
 20
121.7438412130536
 30
0.0
  0
SEQEND
  5
839
330
836
100
AcDbEntity
  8
BEMA_U_00DFUNG
 62
     7
  0
POLYLINE
  5
83A
330
1F
100
AcDbEntity
  8
BEMA_U_00DFUNG
 62
     7
100
AcDb2dPolyline
 66
     1
 10
0.0
 20
0.0
 30
0.0
  0
VERTEX
  5
83B
330
83A
100
AcDbEntity
  8
BEMA_U_00DFUNG
 62
     7
100
AcDbVertex
100
AcDb2dVertex
 10
31.24503787738853
 20
118.6295189916101
 30
0.0
  0
VERTEX
  5
83C
330
83A
100
AcDbEntity
  8
BEMA_U_00DFUNG
 62
     7
100
AcDbVertex
100
AcDb2dVertex
 10
31.24503787738853
 20
122.1294273240683
 30
0.0
  0
SEQEND
  5
83D
330
83A
100
AcDbEntity
  8
BEMA_U_00DFUNG
 62
     7
  0
POLYLINE
  5
83E
330
1F
100
AcDbEntity
  8
BEMA_U_00DFUNG
 62
     7
100
AcDb2dPolyline
 66
     1
 10
0.0
 20
0.0
 30
0.0
  0
VERTEX
  5
83F
330
83E
100
AcDbEntity
  8
BEMA_U_00DFUNG
 62
     7
100
AcDbVertex
100
AcDb2dVertex
 10
31.70188509949624
 20
118.6295189916101
 30
0.0
  0
VERTEX
  5
840
330
83E
100
AcDbEntity
  8
BEMA_U_00DFUNG
 62
     7
100
AcDbVertex
100
AcDb2dVertex
 10
31.70188509949624
 20
118.6570356582698
 30
0.0
  0
SEQEND
  5
841
330
83E
100
AcDbEntity
  8
BEMA_U_00DFUNG
 62
     7
  0
POLYLINE
  5
842
330
1F
100
AcDbEntity
  8
BEMA_U_00DFUNG
 62
     7
100
AcDb2dPolyline
 66
     1
 10
0.0
 20
0.0
 30
0.0
  0
VERTEX
  5
843
330
842
100
AcDbEntity
  8
BEMA_U_00DFUNG
 62
     7
100
AcDbVertex
100
AcDb2dVertex
 10
31.70188509949624
 20
118.6295189916101
 30
0.0
  0
VERTEX
  5
844
330
842
100
AcDbEntity
  8
BEMA_U_00DFUNG
 62
     7
100
AcDbVertex
100
AcDb2dVertex
 10
31.70188509949624
 20
118.6570356582698
 30
0.0
  0
SEQEND
  5
845
330
842
100
AcDbEntity
  8
BEMA_U_00DFUNG
 62
     7
  0
POLYLINE
  5
846
330
1F
100
AcDbEntity
  8
BEMA_U_00DFUNG
 62
     7
100
AcDb2dPolyline
 66
     1
 10
0.0
 20
0.0
 30
0.0
  0
VERTEX
  5
847
330
846
100
AcDbEntity
  8
BEMA_U_00DFUNG
 62
     7
100
AcDbVertex
100
AcDb2dVertex
 10
31.65108509950918
 20
118.6295189916101
 30
0.0
  0
VERTEX
  5
848
330
846
100
AcDbEntity
  8
BEMA_U_00DFUNG
 62
     7
100
AcDbVertex
100
AcDb2dVertex
 10
31.65108509950918
 20
119.042268991507
 30
0.0
  0
SEQEND
  5
849
330
846
100
AcDbEntity
  8
BEMA_U_00DFUNG
 62
     7
  0
POLYLINE
  5
84A
330
1F
100
AcDbEntity
  8
BEMA_U_00DFUNG
 62
     7
100
AcDb2dPolyline
 66
     1
 10
0.0
 20
0.0
 30
0.0
  0
VERTEX
  5
84B
330
84A
100
AcDbEntity
  8
BEMA_U_00DFUNG
 62
     7
100
AcDbVertex
100
AcDb2dVertex
 10
31.60063787729956
 20
118.6295189916101
 30
0.0
  0
VERTEX
  5
84C
330
84A
100
AcDbEntity
  8
BEMA_U_00DFUNG
 62
     7
100
AcDbVertex
100
AcDb2dVertex
 10
31.60063787729956
 20
119.4285606580768
 30
0.0
  0
SEQEND
  5
84D
330
84A
100
AcDbEntity
  8
BEMA_U_00DFUNG
 62
     7
  0
POLYLINE
  5
84E
330
1F
100
AcDbEntity
  8
BEMA_U_00DFUNG
 62
     7
100
AcDb2dPolyline
 66
     1
 10
0.0
 20
0.0
 30
0.0
  0
VERTEX
  5
84F
330
84E
100
AcDbEntity
  8
BEMA_U_00DFUNG
 62
     7
100
AcDbVertex
100
AcDb2dVertex
 10
31.54983787731218
 20
118.6295189916101
 30
0.0
  0
VERTEX
  5
850
330
84E
100
AcDbEntity
  8
BEMA_U_00DFUNG
 62
     7
100
AcDbVertex
100
AcDb2dVertex
 10
31.54983787731218
 20
119.8141467690915
 30
0.0
  0
SEQEND
  5
851
330
84E
100
AcDbEntity
  8
BEMA_U_00DFUNG
 62
     7
  0
POLYLINE
  5
852
330
1F
100
AcDbEntity
  8
BEMA_U_00DFUNG
 62
     7
100
AcDb2dPolyline
 66
     1
 10
0.0
 20
0.0
 30
0.0
  0
VERTEX
  5
853
330
852
100
AcDbEntity
  8
BEMA_U_00DFUNG
 62
     7
100
AcDbVertex
100
AcDb2dVertex
 10
31.4990378773248
 20
118.6295189916101
 30
0.0
  0
VERTEX
  5
854
330
852
100
AcDbEntity
  8
BEMA_U_00DFUNG
 62
     7
100
AcDbVertex
100
AcDb2dVertex
 10
31.4990378773248
 20
120.2004384356617
 30
0.0
  0
SEQEND
  5
855
330
852
100
AcDbEntity
  8
BEMA_U_00DFUNG
 62
     7
  0
POLYLINE
  5
856
330
1F
100
AcDbEntity
  8
BEMA_U_00DFUNG
 62
     7
100
AcDb2dPolyline
 66
     1
 10
0.0
 20
0.0
 30
0.0
  0
VERTEX
  5
857
330
856
100
AcDbEntity
  8
BEMA_U_00DFUNG
 62
     7
100
AcDbVertex
100
AcDb2dVertex
 10
31.44788509955997
 20
118.6295189916101
 30
0.0
  0
VERTEX
  5
858
330
856
100
AcDbEntity
  8
BEMA_U_00DFUNG
 62
     7
100
AcDbVertex
100
AcDb2dVertex
 10
31.44788509955997
 20
120.5860245466764
 30
0.0
  0
SEQEND
  5
859
330
856
100
AcDbEntity
  8
BEMA_U_00DFUNG
 62
     7
  0
POLYLINE
  5
85A
330
1F
100
AcDbEntity
  8
BEMA_U_00DFUNG
 62
     7
100
AcDb2dPolyline
 66
     1
 10
0.0
 20
0.0
 30
0.0
  0
VERTEX
  5
85B
330
85A
100
AcDbEntity
  8
BEMA_U_00DFUNG
 62
     7
100
AcDbVertex
100
AcDb2dVertex
 10
31.39708509957259
 20
118.6295189916101
 30
0.0
  0
VERTEX
  5
85C
330
85A
100
AcDbEntity
  8
BEMA_U_00DFUNG
 62
     7
100
AcDbVertex
100
AcDb2dVertex
 10
31.39708509957259
 20
120.9719634354688
 30
0.0
  0
SEQEND
  5
85D
330
85A
100
AcDbEntity
  8
BEMA_U_00DFUNG
 62
     7
  0
POLYLINE
  5
85E
330
1F
100
AcDbEntity
  8
BEMA_U_00DFUNG
 62
     7
100
AcDb2dPolyline
 66
     1
 10
0.0
 20
0.0
 30
0.0
  0
VERTEX
  5
85F
330
85E
100
AcDbEntity
  8
BEMA_U_00DFUNG
 62
     7
100
AcDbVertex
100
AcDb2dVertex
 10
31.34663787736297
 20
118.6295189916101
 30
0.0
  0
VERTEX
  5
860
330
85E
100
AcDbEntity
  8
BEMA_U_00DFUNG
 62
     7
100
AcDbVertex
100
AcDb2dVertex
 10
31.34663787736297
 20
121.3575495464834
 30
0.0
  0
SEQEND
  5
861
330
85E
100
AcDbEntity
  8
BEMA_U_00DFUNG
 62
     7
  0
POLYLINE
  5
862
330
1F
100
AcDbEntity
  8
BEMA_U_00DFUNG
 62
     7
100
AcDb2dPolyline
 66
     1
 10
0.0
 20
0.0
 30
0.0
  0
VERTEX
  5
863
330
862
100
AcDbEntity
  8
BEMA_U_00DFUNG
 62
     7
100
AcDbVertex
100
AcDb2dVertex
 10
31.29583787737559
 20
118.6295189916101
 30
0.0
  0
VERTEX
  5
864
330
862
100
AcDbEntity
  8
BEMA_U_00DFUNG
 62
     7
100
AcDbVertex
100
AcDb2dVertex
 10
31.29583787737559
 20
121.7438412130536
 30
0.0
  0
SEQEND
  5
865
330
862
100
AcDbEntity
  8
BEMA_U_00DFUNG
 62
     7
  0
POLYLINE
  5
866
330
1F
100
AcDbEntity
  8
BEMA_U_00DFUNG
 62
     7
100
AcDb2dPolyline
 66
     1
 10
0.0
 20
0.0
 30
0.0
  0
VERTEX
  5
867
330
866
100
AcDbEntity
  8
BEMA_U_00DFUNG
 62
     7
100
AcDbVertex
100
AcDb2dVertex
 10
31.24503787738853
 20
118.6295189916101
 30
0.0
  0
VERTEX
  5
868
330
866
100
AcDbEntity
  8
BEMA_U_00DFUNG
 62
     7
100
AcDbVertex
100
AcDb2dVertex
 10
31.24503787738853
 20
122.1294273240683
 30
0.0
  0
SEQEND
  5
869
330
866
100
AcDbEntity
  8
BEMA_U_00DFUNG
 62
     7
  0
POLYLINE
  5
86A
330
1F
100
AcDbEntity
  8
BEMA_U_00DFUNG
 62
     7
100
AcDb2dPolyline
 66
     1
 10
0.0
 20
0.0
 30
0.0
  0
VERTEX
  5
86B
330
86A
100
AcDbEntity
  8
BEMA_U_00DFUNG
 62
     7
100
AcDbVertex
100
AcDb2dVertex
 10
31.24503787738853
 20
112.4015801042781
 30
0.0
  0
VERTEX
  5
86C
330
86A
100
AcDbEntity
  8
BEMA_U_00DFUNG
 62
     7
100
AcDbVertex
100
AcDb2dVertex
 10
31.70576565505097
 20
115.9011356589588
 30
0.0
  0
VERTEX
  5
86D
330
86A
100
AcDbEntity
  8
BEMA_U_00DFUNG
 62
     7
100
AcDbVertex
100
AcDb2dVertex
 10
30.78395732194799
 20
115.9011356589588
 30
0.0
  0
VERTEX
  5
86E
330
86A
100
AcDbEntity
  8
BEMA_U_00DFUNG
 62
     7
100
AcDbVertex
100
AcDb2dVertex
 10
31.24503787738853
 20
112.4015801042781
 30
0.0
  0
SEQEND
  5
86F
330
86A
100
AcDbEntity
  8
BEMA_U_00DFUNG
 62
     7
  0
POLYLINE
  5
870
330
1F
100
AcDbEntity
  8
BEMA_U_00DFUNG
 62
     7
100
AcDb2dPolyline
 66
     1
 10
0.0
 20
0.0
 30
0.0
  0
VERTEX
  5
871
330
870
100
AcDbEntity
  8
BEMA_U_00DFUNG
 62
     7
100
AcDbVertex
100
AcDb2dVertex
 10
31.70188509949624
 20
115.9011356589588
 30
0.0
  0
VERTEX
  5
872
330
870
100
AcDbEntity
  8
BEMA_U_00DFUNG
 62
     7
100
AcDbVertex
100
AcDb2dVertex
 10
31.70188509949624
 20
115.8739717700766
 30
0.0
  0
SEQEND
  5
873
330
870
100
AcDbEntity
  8
BEMA_U_00DFUNG
 62
     7
  0
POLYLINE
  5
874
330
1F
100
AcDbEntity
  8
BEMA_U_00DFUNG
 62
     7
100
AcDb2dPolyline
 66
     1
 10
0.0
 20
0.0
 30
0.0
  0
VERTEX
  5
875
330
874
100
AcDbEntity
  8
BEMA_U_00DFUNG
 62
     7
100
AcDbVertex
100
AcDb2dVertex
 10
31.70188509949624
 20
115.9011356589588
 30
0.0
  0
VERTEX
  5
876
330
874
100
AcDbEntity
  8
BEMA_U_00DFUNG
 62
     7
100
AcDbVertex
100
AcDb2dVertex
 10
31.70188509949624
 20
115.8739717700766
 30
0.0
  0
SEQEND
  5
877
330
874
100
AcDbEntity
  8
BEMA_U_00DFUNG
 62
     7
  0
POLYLINE
  5
878
330
1F
100
AcDbEntity
  8
BEMA_U_00DFUNG
 62
     7
100
AcDb2dPolyline
 66
     1
 10
0.0
 20
0.0
 30
0.0
  0
VERTEX
  5
879
330
878
100
AcDbEntity
  8
BEMA_U_00DFUNG
 62
     7
100
AcDbVertex
100
AcDb2dVertex
 10
31.65108509950918
 20
115.9011356589588
 30
0.0
  0
VERTEX
  5
87A
330
878
100
AcDbEntity
  8
BEMA_U_00DFUNG
 62
     7
100
AcDbVertex
100
AcDb2dVertex
 10
31.65108509950918
 20
115.4887384368397
 30
0.0
  0
SEQEND
  5
87B
330
878
100
AcDbEntity
  8
BEMA_U_00DFUNG
 62
     7
  0
POLYLINE
  5
87C
330
1F
100
AcDbEntity
  8
BEMA_U_00DFUNG
 62
     7
100
AcDb2dPolyline
 66
     1
 10
0.0
 20
0.0
 30
0.0
  0
VERTEX
  5
87D
330
87C
100
AcDbEntity
  8
BEMA_U_00DFUNG
 62
     7
100
AcDbVertex
100
AcDb2dVertex
 10
31.60063787729956
 20
115.9011356589588
 30
0.0
  0
VERTEX
  5
87E
330
87C
100
AcDbEntity
  8
BEMA_U_00DFUNG
 62
     7
100
AcDbVertex
100
AcDb2dVertex
 10
31.60063787729956
 20
115.1024467702695
 30
0.0
  0
SEQEND
  5
87F
330
87C
100
AcDbEntity
  8
BEMA_U_00DFUNG
 62
     7
  0
POLYLINE
  5
880
330
1F
100
AcDbEntity
  8
BEMA_U_00DFUNG
 62
     7
100
AcDb2dPolyline
 66
     1
 10
0.0
 20
0.0
 30
0.0
  0
VERTEX
  5
881
330
880
100
AcDbEntity
  8
BEMA_U_00DFUNG
 62
     7
100
AcDbVertex
100
AcDb2dVertex
 10
31.54983787731218
 20
115.9011356589588
 30
0.0
  0
VERTEX
  5
882
330
880
100
AcDbEntity
  8
BEMA_U_00DFUNG
 62
     7
100
AcDbVertex
100
AcDb2dVertex
 10
31.54983787731218
 20
114.7168606592548
 30
0.0
  0
SEQEND
  5
883
330
880
100
AcDbEntity
  8
BEMA_U_00DFUNG
 62
     7
  0
POLYLINE
  5
884
330
1F
100
AcDbEntity
  8
BEMA_U_00DFUNG
 62
     7
100
AcDb2dPolyline
 66
     1
 10
0.0
 20
0.0
 30
0.0
  0
VERTEX
  5
885
330
884
100
AcDbEntity
  8
BEMA_U_00DFUNG
 62
     7
100
AcDbVertex
100
AcDb2dVertex
 10
31.4990378773248
 20
115.9011356589588
 30
0.0
  0
VERTEX
  5
886
330
884
100
AcDbEntity
  8
BEMA_U_00DFUNG
 62
     7
100
AcDbVertex
100
AcDb2dVertex
 10
31.4990378773248
 20
114.3305689926847
 30
0.0
  0
SEQEND
  5
887
330
884
100
AcDbEntity
  8
BEMA_U_00DFUNG
 62
     7
  0
POLYLINE
  5
888
330
1F
100
AcDbEntity
  8
BEMA_U_00DFUNG
 62
     7
100
AcDb2dPolyline
 66
     1
 10
0.0
 20
0.0
 30
0.0
  0
VERTEX
  5
889
330
888
100
AcDbEntity
  8
BEMA_U_00DFUNG
 62
     7
100
AcDbVertex
100
AcDb2dVertex
 10
31.44788509955997
 20
115.9011356589588
 30
0.0
  0
VERTEX
  5
88A
330
888
100
AcDbEntity
  8
BEMA_U_00DFUNG
 62
     7
100
AcDbVertex
100
AcDb2dVertex
 10
31.44788509955997
 20
113.94498288167
 30
0.0
  0
SEQEND
  5
88B
330
888
100
AcDbEntity
  8
BEMA_U_00DFUNG
 62
     7
  0
POLYLINE
  5
88C
330
1F
100
AcDbEntity
  8
BEMA_U_00DFUNG
 62
     7
100
AcDb2dPolyline
 66
     1
 10
0.0
 20
0.0
 30
0.0
  0
VERTEX
  5
88D
330
88C
100
AcDbEntity
  8
BEMA_U_00DFUNG
 62
     7
100
AcDbVertex
100
AcDb2dVertex
 10
31.39708509957259
 20
115.9011356589588
 30
0.0
  0
VERTEX
  5
88E
330
88C
100
AcDbEntity
  8
BEMA_U_00DFUNG
 62
     7
100
AcDbVertex
100
AcDb2dVertex
 10
31.39708509957259
 20
113.5590439928776
 30
0.0
  0
SEQEND
  5
88F
330
88C
100
AcDbEntity
  8
BEMA_U_00DFUNG
 62
     7
  0
POLYLINE
  5
890
330
1F
100
AcDbEntity
  8
BEMA_U_00DFUNG
 62
     7
100
AcDb2dPolyline
 66
     1
 10
0.0
 20
0.0
 30
0.0
  0
VERTEX
  5
891
330
890
100
AcDbEntity
  8
BEMA_U_00DFUNG
 62
     7
100
AcDbVertex
100
AcDb2dVertex
 10
31.34663787736297
 20
115.9011356589588
 30
0.0
  0
VERTEX
  5
892
330
890
100
AcDbEntity
  8
BEMA_U_00DFUNG
 62
     7
100
AcDbVertex
100
AcDb2dVertex
 10
31.34663787736297
 20
113.1734578818629
 30
0.0
  0
SEQEND
  5
893
330
890
100
AcDbEntity
  8
BEMA_U_00DFUNG
 62
     7
  0
POLYLINE
  5
894
330
1F
100
AcDbEntity
  8
BEMA_U_00DFUNG
 62
     7
100
AcDb2dPolyline
 66
     1
 10
0.0
 20
0.0
 30
0.0
  0
VERTEX
  5
895
330
894
100
AcDbEntity
  8
BEMA_U_00DFUNG
 62
     7
100
AcDbVertex
100
AcDb2dVertex
 10
31.29583787737559
 20
115.9011356589588
 30
0.0
  0
VERTEX
  5
896
330
894
100
AcDbEntity
  8
BEMA_U_00DFUNG
 62
     7
100
AcDbVertex
100
AcDb2dVertex
 10
31.29583787737559
 20
112.7871662152927
 30
0.0
  0
SEQEND
  5
897
330
894
100
AcDbEntity
  8
BEMA_U_00DFUNG
 62
     7
  0
POLYLINE
  5
898
330
1F
100
AcDbEntity
  8
BEMA_U_00DFUNG
 62
     7
100
AcDb2dPolyline
 66
     1
 10
0.0
 20
0.0
 30
0.0
  0
VERTEX
  5
899
330
898
100
AcDbEntity
  8
BEMA_U_00DFUNG
 62
     7
100
AcDbVertex
100
AcDb2dVertex
 10
31.24503787738853
 20
115.9011356589588
 30
0.0
  0
VERTEX
  5
89A
330
898
100
AcDbEntity
  8
BEMA_U_00DFUNG
 62
     7
100
AcDbVertex
100
AcDb2dVertex
 10
31.24503787738853
 20
112.4015801042781
 30
0.0
  0
SEQEND
  5
89B
330
898
100
AcDbEntity
  8
BEMA_U_00DFUNG
 62
     7
  0
POLYLINE
  5
89C
330
1F
100
AcDbEntity
  8
BEMA_U_00DFUNG
 62
     7
100
AcDb2dPolyline
 66
     1
 10
0.0
 20
0.0
 30
0.0
  0
VERTEX
  5
89D
330
89C
100
AcDbEntity
  8
BEMA_U_00DFUNG
 62
     7
100
AcDbVertex
100
AcDb2dVertex
 10
30.78783787750273
 20
115.9011356589588
 30
0.0
  0
VERTEX
  5
89E
330
89C
100
AcDbEntity
  8
BEMA_U_00DFUNG
 62
     7
100
AcDbVertex
100
AcDb2dVertex
 10
30.78783787750273
 20
115.8739717700766
 30
0.0
  0
SEQEND
  5
89F
330
89C
100
AcDbEntity
  8
BEMA_U_00DFUNG
 62
     7
  0
POLYLINE
  5
8A0
330
1F
100
AcDbEntity
  8
BEMA_U_00DFUNG
 62
     7
100
AcDb2dPolyline
 66
     1
 10
0.0
 20
0.0
 30
0.0
  0
VERTEX
  5
8A1
330
8A0
100
AcDbEntity
  8
BEMA_U_00DFUNG
 62
     7
100
AcDbVertex
100
AcDb2dVertex
 10
30.78783787750273
 20
115.9011356589588
 30
0.0
  0
VERTEX
  5
8A2
330
8A0
100
AcDbEntity
  8
BEMA_U_00DFUNG
 62
     7
100
AcDbVertex
100
AcDb2dVertex
 10
30.78783787750273
 20
115.8739717700766
 30
0.0
  0
SEQEND
  5
8A3
330
8A0
100
AcDbEntity
  8
BEMA_U_00DFUNG
 62
     7
  0
POLYLINE
  5
8A4
330
1F
100
AcDbEntity
  8
BEMA_U_00DFUNG
 62
     7
100
AcDb2dPolyline
 66
     1
 10
0.0
 20
0.0
 30
0.0
  0
VERTEX
  5
8A5
330
8A4
100
AcDbEntity
  8
BEMA_U_00DFUNG
 62
     7
100
AcDbVertex
100
AcDb2dVertex
 10
30.83828509971235
 20
115.9011356589588
 30
0.0
  0
VERTEX
  5
8A6
330
8A4
100
AcDbEntity
  8
BEMA_U_00DFUNG
 62
     7
100
AcDbVertex
100
AcDb2dVertex
 10
30.83828509971235
 20
115.4887384368397
 30
0.0
  0
SEQEND
  5
8A7
330
8A4
100
AcDbEntity
  8
BEMA_U_00DFUNG
 62
     7
  0
POLYLINE
  5
8A8
330
1F
100
AcDbEntity
  8
BEMA_U_00DFUNG
 62
     7
100
AcDb2dPolyline
 66
     1
 10
0.0
 20
0.0
 30
0.0
  0
VERTEX
  5
8A9
330
8A8
100
AcDbEntity
  8
BEMA_U_00DFUNG
 62
     7
100
AcDbVertex
100
AcDb2dVertex
 10
30.88908509969973
 20
115.9011356589588
 30
0.0
  0
VERTEX
  5
8AA
330
8A8
100
AcDbEntity
  8
BEMA_U_00DFUNG
 62
     7
100
AcDbVertex
100
AcDb2dVertex
 10
30.88908509969973
 20
115.1024467702695
 30
0.0
  0
SEQEND
  5
8AB
330
8A8
100
AcDbEntity
  8
BEMA_U_00DFUNG
 62
     7
  0
POLYLINE
  5
8AC
330
1F
100
AcDbEntity
  8
BEMA_U_00DFUNG
 62
     7
100
AcDb2dPolyline
 66
     1
 10
0.0
 20
0.0
 30
0.0
  0
VERTEX
  5
8AD
330
8AC
100
AcDbEntity
  8
BEMA_U_00DFUNG
 62
     7
100
AcDbVertex
100
AcDb2dVertex
 10
30.93988509968679
 20
115.9011356589588
 30
0.0
  0
VERTEX
  5
8AE
330
8AC
100
AcDbEntity
  8
BEMA_U_00DFUNG
 62
     7
100
AcDbVertex
100
AcDb2dVertex
 10
30.93988509968679
 20
114.7168606592548
 30
0.0
  0
SEQEND
  5
8AF
330
8AC
100
AcDbEntity
  8
BEMA_U_00DFUNG
 62
     7
  0
POLYLINE
  5
8B0
330
1F
100
AcDbEntity
  8
BEMA_U_00DFUNG
 62
     7
100
AcDb2dPolyline
 66
     1
 10
0.0
 20
0.0
 30
0.0
  0
VERTEX
  5
8B1
330
8B0
100
AcDbEntity
  8
BEMA_U_00DFUNG
 62
     7
100
AcDbVertex
100
AcDb2dVertex
 10
30.99103787745194
 20
115.9011356589588
 30
0.0
  0
VERTEX
  5
8B2
330
8B0
100
AcDbEntity
  8
BEMA_U_00DFUNG
 62
     7
100
AcDbVertex
100
AcDb2dVertex
 10
30.99103787745194
 20
114.3305689926847
 30
0.0
  0
SEQEND
  5
8B3
330
8B0
100
AcDbEntity
  8
BEMA_U_00DFUNG
 62
     7
  0
POLYLINE
  5
8B4
330
1F
100
AcDbEntity
  8
BEMA_U_00DFUNG
 62
     7
100
AcDb2dPolyline
 66
     1
 10
0.0
 20
0.0
 30
0.0
  0
VERTEX
  5
8B5
330
8B4
100
AcDbEntity
  8
BEMA_U_00DFUNG
 62
     7
100
AcDbVertex
100
AcDb2dVertex
 10
31.04183787743932
 20
115.9011356589588
 30
0.0
  0
VERTEX
  5
8B6
330
8B4
100
AcDbEntity
  8
BEMA_U_00DFUNG
 62
     7
100
AcDbVertex
100
AcDb2dVertex
 10
31.04183787743932
 20
113.94498288167
 30
0.0
  0
SEQEND
  5
8B7
330
8B4
100
AcDbEntity
  8
BEMA_U_00DFUNG
 62
     7
  0
POLYLINE
  5
8B8
330
1F
100
AcDbEntity
  8
BEMA_U_00DFUNG
 62
     7
100
AcDb2dPolyline
 66
     1
 10
0.0
 20
0.0
 30
0.0
  0
VERTEX
  5
8B9
330
8B8
100
AcDbEntity
  8
BEMA_U_00DFUNG
 62
     7
100
AcDbVertex
100
AcDb2dVertex
 10
31.09263787742638
 20
115.9011356589588
 30
0.0
  0
VERTEX
  5
8BA
330
8B8
100
AcDbEntity
  8
BEMA_U_00DFUNG
 62
     7
100
AcDbVertex
100
AcDb2dVertex
 10
31.09263787742638
 20
113.5590439928776
 30
0.0
  0
SEQEND
  5
8BB
330
8B8
100
AcDbEntity
  8
BEMA_U_00DFUNG
 62
     7
  0
POLYLINE
  5
8BC
330
1F
100
AcDbEntity
  8
BEMA_U_00DFUNG
 62
     7
100
AcDb2dPolyline
 66
     1
 10
0.0
 20
0.0
 30
0.0
  0
VERTEX
  5
8BD
330
8BC
100
AcDbEntity
  8
BEMA_U_00DFUNG
 62
     7
100
AcDbVertex
100
AcDb2dVertex
 10
31.143085099636
 20
115.9011356589588
 30
0.0
  0
VERTEX
  5
8BE
330
8BC
100
AcDbEntity
  8
BEMA_U_00DFUNG
 62
     7
100
AcDbVertex
100
AcDb2dVertex
 10
31.143085099636
 20
113.1734578818629
 30
0.0
  0
SEQEND
  5
8BF
330
8BC
100
AcDbEntity
  8
BEMA_U_00DFUNG
 62
     7
  0
POLYLINE
  5
8C0
330
1F
100
AcDbEntity
  8
BEMA_U_00DFUNG
 62
     7
100
AcDb2dPolyline
 66
     1
 10
0.0
 20
0.0
 30
0.0
  0
VERTEX
  5
8C1
330
8C0
100
AcDbEntity
  8
BEMA_U_00DFUNG
 62
     7
100
AcDbVertex
100
AcDb2dVertex
 10
31.19388509962338
 20
115.9011356589588
 30
0.0
  0
VERTEX
  5
8C2
330
8C0
100
AcDbEntity
  8
BEMA_U_00DFUNG
 62
     7
100
AcDbVertex
100
AcDb2dVertex
 10
31.19388509962338
 20
112.7871662152927
 30
0.0
  0
SEQEND
  5
8C3
330
8C0
100
AcDbEntity
  8
BEMA_U_00DFUNG
 62
     7
  0
POLYLINE
  5
8C4
330
1F
100
AcDbEntity
  8
BEMA_U_00DFUNG
 62
     7
100
AcDb2dPolyline
 66
     1
 10
0.0
 20
0.0
 30
0.0
  0
VERTEX
  5
8C5
330
8C4
100
AcDbEntity
  8
BEMA_U_00DFUNG
 62
     7
100
AcDbVertex
100
AcDb2dVertex
 10
31.24503787738853
 20
115.9011356589588
 30
0.0
  0
VERTEX
  5
8C6
330
8C4
100
AcDbEntity
  8
BEMA_U_00DFUNG
 62
     7
100
AcDbVertex
100
AcDb2dVertex
 10
31.24503787738853
 20
112.4015801042781
 30
0.0
  0
SEQEND
  5
8C7
330
8C4
100
AcDbEntity
  8
BEMA_U_00DFUNG
 62
     7
  0
MTEXT
  5
8C9
330
1F
100
AcDbEntity
  8
TEXT
 62
     7
100
AcDbMText
 10
75.12960141211055
 20
150.0046654432185
 30
0.0
 40
3.447529173370601
 41
0.0
 71
     7
 72
     1
  1
\fINDEX Univers 45 Light|b0|i0|c0|p34;\W1;ø6
  0
MTEXT
  5
8CA
330
1F
100
AcDbEntity
  8
TEXT
 62
     7
100
AcDbMText
 10
30.57885061515425
 20
123.7643662197896
 30
0.0
 40
3.447529173370601
 41
0.0
 71
     7
 72
     1
  1
\fINDEX Univers 45 Light|b0|i0|c0|p34;\W1;M6
 11
4.489659216976159E-11
 21
1.0
 31
0.0
  0
ENDSEC
  0
SECTION
  2
OBJECTS
  0
DICTIONARY
  5
C
330
0
100
AcDbDictionary
  3
ACAD_GROUP
350
D
  3
ACAD_LAYOUT
350
1A
  3
ACAD_MATERIAL
350
3B
  3
ACAD_MLEADERSTYLE
350
8ED
  3
ACAD_MLINESTYLE
350
17
  3
ACAD_PLOTSETTINGS
350
19
  3
ACAD_VISUALSTYLE
350
2A
  3
ACDBHEADERROUNDTRIPXREC
350
8CB
  3
ACDBVARIABLEDICTIONARY
350
8EB
  0
DICTIONARY
  5
D
102
{ACAD_REACTORS
330
C
102
}
330
C
100
AcDbDictionary
  0
DICTIONARY
  5
1A
102
{ACAD_REACTORS
330
C
102
}
330
C
100
AcDbDictionary
  0
DICTIONARY
  5
3B
102
{ACAD_REACTORS
330
C
102
}
330
C
100
AcDbDictionary
  3
BYBLOCK
350
3D
  3
BYLAYER
350
3C
  3
GLOBAL
350
3E
  0
DICTIONARY
  5
8ED
102
{ACAD_REACTORS
330
C
102
}
330
C
100
AcDbDictionary
  0
DICTIONARY
  5
17
102
{ACAD_REACTORS
330
C
102
}
330
C
100
AcDbDictionary
  3
STANDARD
350
18
  0
DICTIONARY
  5
19
102
{ACAD_REACTORS
330
C
102
}
330
C
100
AcDbDictionary
  0
DICTIONARY
  5
2A
102
{ACAD_REACTORS
330
C
102
}
330
C
100
AcDbDictionary
  3
2DWIREFRAME
350
2F
  3
3D_HIDDEN
350
31
  3
3DWIREFRAME
350
30
  3
BASIC
350
32
  3
BRIGHTEN
350
36
  3
COLORCHANGE
350
3A
  3
CONCEPTUAL
350
34
  3
DIM
350
35
  3
FACEPATTERN
350
39
  3
FLAT
350
2B
  3
FLATWITHEDGES
350
2C
  3
GOURAUD
350
2D
  3
GOURAUDWITHEDGES
350
2E
  3
LINEPATTERN
350
38
  3
REALISTIC
350
33
  3
THICKEN
350
37
  0
DICTIONARY
  5
8CB
102
{ACAD_REACTORS
330
C
102
}
330
C
100
AcDbDictionary
  3
CEPSNTYPE
350
8D4
  3
DIMSTYLEDATA
350
8EA
  3
FINGERPRINTGUID
350
8D5
  3
HYPERLINKBASE
350
8CE
  3
INSUNITS
350
8D3
  3
LAYOUTDICT
350
8D0
  3
LWETCUNION
350
8D2
  3
PLOTSETDICT
350
8D1
  3
PSVPSCALE
350
8D7
  3
PUCSBASE
350
8DA
  3
PUCSORGBACK
350
8E0
  3
PUCSORGBOTTOM
350
8DC
  3
PUCSORGFRONT
350
8DF
  3
PUCSORGLEFT
350
8DD
  3
PUCSORGRIGHT
350
8DE
  3
PUCSORGTOP
350
8DB
  3
PUCSORTHOREF
350
8D8
  3
PUCSORTHOVIEW
350
8D9
  3
STYLESHEET
350
8CF
  3
TSTACKALIGN
350
8CC
  3
TSTACKSIZE
350
8CD
  3
UCSBASE
350
8E3
  3
UCSORGBACK
350
8E9
  3
UCSORGBOTTOM
350
8E5
  3
UCSORGFRONT
350
8E8
  3
UCSORGLEFT
350
8E6
  3
UCSORGRIGHT
350
8E7
  3
UCSORGTOP
350
8E4
  3
UCSORTHOREF
350
8E1
  3
UCSORTHOVIEW
350
8E2
  3
VERSIONGUID
350
8D6
  0
DICTIONARY
  5
8EB
102
{ACAD_REACTORS
330
C
102
}
330
C
100
AcDbDictionary
  3
DIMASSOC
350
8EE
  3
HIDETEXT
350
8EF
  0
MATERIAL
  5
3D
102
{ACAD_REACTORS
330
3B
102
}
102
{ACAD_XDICTIONARY
360
8F2
102
}
330
3B
100
AcDbMaterial
  1
ByBlock
  0
MATERIAL
  5
3C
102
{ACAD_REACTORS
330
3B
102
}
102
{ACAD_XDICTIONARY
360
8F0
102
}
330
3B
100
AcDbMaterial
  1
ByLayer
  0
MATERIAL
  5
3E
102
{ACAD_REACTORS
330
3B
102
}
102
{ACAD_XDICTIONARY
360
8F4
102
}
330
3B
100
AcDbMaterial
  1
Global
  0
MLINESTYLE
  5
18
102
{ACAD_REACTORS
330
17
102
}
330
17
100
AcDbMlineStyle
  2
Standard
 70
     0
  3

 62
   256
 51
90.0
 52
90.0
 71
     2
 49
0.5
 62
   256
  6
BYLAYER
 49
-0.5
 62
   256
  6
BYLAYER
  0
ACAD_PROXY_OBJECT
  5
2F
102
{ACAD_REACTORS
330
2A
102
}
330
2A
100
AcDbProxyObject
 90
      499
 91
      501
 93
      436
310
42CC9915DA5C99599C985B595049028333333333333E3BF0000000000000FB0107901411070040501600405405064090741402480A0340
1001
ACAD
1000
AcDbSavedByObjectVersion
1070
     0
  0
ACAD_PROXY_OBJECT
  5
31
102
{ACAD_REACTORS
330
2A
102
}
330
2A
100
AcDbProxyObject
 90
      499
 91
      501
 93
      500
310
424CD108121A5919195B90640502408333333333333E3BF0000000000000FB01079024090700405020000000000001110200405405064090740C02480A0340
1001
ACAD
1000
AcDbSavedByObjectVersion
1070
     0
  0
ACAD_PROXY_OBJECT
  5
30
102
{ACAD_REACTORS
330
2A
102
}
330
2A
100
AcDbProxyObject
 90
      499
 91
      501
 93
      436
310
42CCD915DA5C99599C985B595059028333333333333E3BF0000000000000FB0107901411070040501600405405064090741402480A0340
1001
ACAD
1000
AcDbSavedByObjectVersion
1070
     0
  0
ACAD_PROXY_OBJECT
  5
32
102
{ACAD_REACTORS
330
2A
102
}
330
2A
100
AcDbProxyObject
 90
      499
 91
      501
 93
      388
310
4150985CDA58D07406404333333333333E3BF0000000000000FB0107A41107004050150841D405064090741402480A0350
1001
ACAD
1000
AcDbSavedByObjectVersion
1070
     0
  0
ACAD_PROXY_OBJECT
  5
36
102
{ACAD_REACTORS
330
2A
102
}
330
2A
100
AcDbProxyObject
 90
      499
 91
      501
 93
      428
310
42109C9A59DA1D195B90C409028333333333333E3BF0000000000000FB010790141107004050150841D405064090741402480A029950
1001
ACAD
1000
AcDbSavedByObjectVersion
1070
     0
  0
ACAD_PROXY_OBJECT
  5
3A
102
{ACAD_REACTORS
330
2A
102
}
330
2A
100
AcDbProxyObject
 90
      499
 91
      501
 93
      452
310
42D0DBDB1BDC90DA185B99D95104090240C333333333333E3BF0000000000000FB0108901411070040501508421405064090741402480A0350
1001
ACAD
1000
AcDbSavedByObjectVersion
1070
     0
  0
ACAD_PROXY_OBJECT
  5
34
102
{ACAD_REACTORS
330
2A
102
}
330
2A
100
AcDbProxyObject
 90
      499
 91
      501
 93
      500
310
4290DBDB98D95C1D1D585B10940D028333333333333E3BF0000000000000FB0107902409070040501000000000000111010841D405064090740C02480A0340
1001
ACAD
1000
AcDbSavedByObjectVersion
1070
     0
  0
ACAD_PROXY_OBJECT
  5
35
102
{ACAD_REACTORS
330
2A
102
}
330
2A
100
AcDbProxyObject
 90
      499
 91
      501
 93
      412
310
40D11A5B50B409028333333333333E3BF0000000000000FB010790141107004050150841D405064090741402480A02677FFFFFD0
1001
ACAD
1000
AcDbSavedByObjectVersion
1070
     0
  0
ACAD_PROXY_OBJECT
  5
39
102
{ACAD_REACTORS
330
2A
102
}
330
2A
100
AcDbProxyObject
 90
      499
 91
      501
 93
      444
310
42D19858D95C185D1D195C9B90F409028333333333333E3BF0000000000000FB010790141107004050150841D405064090741402480A0350
1001
ACAD
1000
AcDbSavedByObjectVersion
1070
     0
  0
ACAD_PROXY_OBJECT
  5
2B
102
{ACAD_REACTORS
330
2A
102
}
330
2A
100
AcDbProxyObject
 90
      499
 91
      501
 93
      388
310
41119B185D240901404333333333333E3BF0000000000000F9010740A41107004050150841D405064090741402480A1B50
1001
ACAD
1000
AcDbSavedByObjectVersion
1070
     0
  0
ACAD_PROXY_OBJECT
  5
2C
102
{ACAD_REACTORS
330
2A
102
}
330
2A
100
AcDbProxyObject
 90
      499
 91
      501
 93
      476
310
43519B185D15DA5D1A115919D95CD0140901404333333333333E3BF0000000000000F9010740901411070040501600405405064090741402480A1B50
1001
ACAD
1000
AcDbSavedByObjectVersion
1070
     0
  0
ACAD_PROXY_OBJECT
  5
2D
102
{ACAD_REACTORS
330
2A
102
}
330
2A
100
AcDbProxyObject
 90
      499
 91
      501
 93
      412
310
41D1DBDD5C985D5910240902404333333333333E3BF0000000000000F9010740A411070040501641D405064090741402480A1B50
1001
ACAD
1000
AcDbSavedByObjectVersion
1070
     0
  0
ACAD_PROXY_OBJECT
  5
2E
102
{ACAD_REACTORS
330
2A
102
}
330
2A
100
AcDbProxyObject
 90
      499
 91
      501
 93
      500
310
4411DBDD5C985D5915DA5D1A115919D95CD0340902404333333333333E3BF0000000000000F9010740901411070040501600405405064090741402480A1B50
1001
ACAD
1000
AcDbSavedByObjectVersion
1070
     0
  0
ACAD_PROXY_OBJECT
  5
38
102
{ACAD_REACTORS
330
2A
102
}
330
2A
100
AcDbProxyObject
 90
      499
 91
      501
 93
      444
310
42D31A5B995C185D1D195C9B90E409028333333333333E3BF0000000000000FB010790141107004050750841D405064090741402483A0350
1001
ACAD
1000
AcDbSavedByObjectVersion
1070
     0
  0
ACAD_PROXY_OBJECT
  5
33
102
{ACAD_REACTORS
330
2A
102
}
330
2A
100
AcDbProxyObject
 90
      499
 91
      501
 93
      420
310
425499585B1A5CDD1A58D08409028333333333333E3BF0000000000000FB01079019070040501508421405064090741402480A1B40
1001
ACAD
1000
AcDbSavedByObjectVersion
1070
     0
  0
ACAD_PROXY_OBJECT
  5
37
102
{ACAD_REACTORS
330
2A
102
}
330
2A
100
AcDbProxyObject
 90
      499
 91
      501
 93
      412
310
41D51A1A58DAD95B90D409028333333333333E3BF0000000000000FB010790141107004050150C41D405064090741402480A0350
1001
ACAD
1000
AcDbSavedByObjectVersion
1070
     0
  0
XRECORD
  5
8D4
102
{ACAD_REACTORS
330
8CB
102
}
330
8CB
100
AcDbXrecord
 90
        0
  0
XRECORD
  5
8EA
102
{ACAD_REACTORS
330
8CB
102
}
330
8CB
100
AcDbXrecord
1000
DSTYLE
1002
{
1070
   340
340
11
1002
}
  0
XRECORD
  5
8D5
102
{ACAD_REACTORS
330
8CB
102
}
330
8CB
100
AcDbXrecord
  1
{A8C2C236-0A43-4ED2-B3E4-8B676556C45B}
  0
XRECORD
  5
8CE
102
{ACAD_REACTORS
330
8CB
102
}
330
8CB
100
AcDbXrecord
  1

  0
XRECORD
  5
8D3
102
{ACAD_REACTORS
330
8CB
102
}
330
8CB
100
AcDbXrecord
 90
        4
  0
XRECORD
  5
8D0
102
{ACAD_REACTORS
330
8CB
102
}
330
8CB
100
AcDbXrecord
340
1A
  0
XRECORD
  5
8D2
102
{ACAD_REACTORS
330
8CB
102
}
330
8CB
100
AcDbXrecord
 90
    10269
  0
XRECORD
  5
8D1
102
{ACAD_REACTORS
330
8CB
102
}
330
8CB
100
AcDbXrecord
340
19
  0
XRECORD
  5
8D7
102
{ACAD_REACTORS
330
8CB
102
}
330
8CB
100
AcDbXrecord
 40
0.0
  0
XRECORD
  5
8DA
102
{ACAD_REACTORS
330
8CB
102
}
330
8CB
100
AcDbXrecord
340
0
  0
XRECORD
  5
8E0
102
{ACAD_REACTORS
330
8CB
102
}
330
8CB
100
AcDbXrecord
 10
0.0
 20
0.0
 30
0.0
  0
XRECORD
  5
8DC
102
{ACAD_REACTORS
330
8CB
102
}
330
8CB
100
AcDbXrecord
 10
0.0
 20
0.0
 30
0.0
  0
XRECORD
  5
8DF
102
{ACAD_REACTORS
330
8CB
102
}
330
8CB
100
AcDbXrecord
 10
0.0
 20
0.0
 30
0.0
  0
XRECORD
  5
8DD
102
{ACAD_REACTORS
330
8CB
102
}
330
8CB
100
AcDbXrecord
 10
0.0
 20
0.0
 30
0.0
  0
XRECORD
  5
8DE
102
{ACAD_REACTORS
330
8CB
102
}
330
8CB
100
AcDbXrecord
 10
0.0
 20
0.0
 30
0.0
  0
XRECORD
  5
8DB
102
{ACAD_REACTORS
330
8CB
102
}
330
8CB
100
AcDbXrecord
 10
0.0
 20
0.0
 30
0.0
  0
XRECORD
  5
8D8
102
{ACAD_REACTORS
330
8CB
102
}
330
8CB
100
AcDbXrecord
340
0
  0
XRECORD
  5
8D9
102
{ACAD_REACTORS
330
8CB
102
}
330
8CB
100
AcDbXrecord
 70
     0
  0
XRECORD
  5
8CF
102
{ACAD_REACTORS
330
8CB
102
}
330
8CB
100
AcDbXrecord
  1

  0
XRECORD
  5
8CC
102
{ACAD_REACTORS
330
8CB
102
}
330
8CB
100
AcDbXrecord
 90
        1
  0
XRECORD
  5
8CD
102
{ACAD_REACTORS
330
8CB
102
}
330
8CB
100
AcDbXrecord
 90
       70
  0
XRECORD
  5
8E3
102
{ACAD_REACTORS
330
8CB
102
}
330
8CB
100
AcDbXrecord
340
0
  0
XRECORD
  5
8E9
102
{ACAD_REACTORS
330
8CB
102
}
330
8CB
100
AcDbXrecord
 10
0.0
 20
0.0
 30
0.0
  0
XRECORD
  5
8E5
102
{ACAD_REACTORS
330
8CB
102
}
330
8CB
100
AcDbXrecord
 10
0.0
 20
0.0
 30
0.0
  0
XRECORD
  5
8E8
102
{ACAD_REACTORS
330
8CB
102
}
330
8CB
100
AcDbXrecord
 10
0.0
 20
0.0
 30
0.0
  0
XRECORD
  5
8E6
102
{ACAD_REACTORS
330
8CB
102
}
330
8CB
100
AcDbXrecord
 10
0.0
 20
0.0
 30
0.0
  0
XRECORD
  5
8E7
102
{ACAD_REACTORS
330
8CB
102
}
330
8CB
100
AcDbXrecord
 10
0.0
 20
0.0
 30
0.0
  0
XRECORD
  5
8E4
102
{ACAD_REACTORS
330
8CB
102
}
330
8CB
100
AcDbXrecord
 10
0.0
 20
0.0
 30
0.0
  0
XRECORD
  5
8E1
102
{ACAD_REACTORS
330
8CB
102
}
330
8CB
100
AcDbXrecord
340
0
  0
XRECORD
  5
8E2
102
{ACAD_REACTORS
330
8CB
102
}
330
8CB
100
AcDbXrecord
 70
     0
  0
XRECORD
  5
8D6
102
{ACAD_REACTORS
330
8CB
102
}
330
8CB
100
AcDbXrecord
  1
{FAEB1C32-E019-11D5-929B-00C0DF256EC4}
  0
DICTIONARYVAR
  5
8EE
102
{ACAD_REACTORS
330
8EB
102
}
330
8EB
100
DictionaryVariables
280
     0
  1
2
  0
DICTIONARYVAR
  5
8EF
102
{ACAD_REACTORS
330
8EB
102
}
330
8EB
100
DictionaryVariables
280
     0
  1
1
  0
DICTIONARY
  5
8F2
330
3D
100
AcDbDictionary
280
     1
  3
ACAD_XREC_ROUNDTRIP
360
8F3
  0
DICTIONARY
  5
8F0
330
3C
100
AcDbDictionary
280
     1
  3
ACAD_XREC_ROUNDTRIP
360
8F1
  0
DICTIONARY
  5
8F4
330
3E
100
AcDbDictionary
280
     1
  3
ACAD_XREC_ROUNDTRIP
360
8F5
  0
XRECORD
  5
8F3
102
{ACAD_REACTORS
330
8F2
102
}
330
8F2
100
AcDbXrecord
102
MATERIAL
148
0.0
149
0.0
149
0.0
 93
        0
 94
      127
282
     0
 72
     1
 77
     1
171
     1
175
     1
179
     1
273
     0
  0
XRECORD
  5
8F1
102
{ACAD_REACTORS
330
8F0
102
}
330
8F0
100
AcDbXrecord
102
MATERIAL
148
0.0
149
0.0
149
0.0
 93
        0
 94
      127
282
     0
 72
     1
 77
     1
171
     1
175
     1
179
     1
273
     0
  0
XRECORD
  5
8F5
102
{ACAD_REACTORS
330
8F4
102
}
330
8F4
100
AcDbXrecord
102
MATERIAL
148
0.0
149
0.0
149
0.0
 93
        0
 94
      127
282
     0
 72
     1
 77
     1
171
     1
175
     1
179
     1
273
     0
  0
ENDSEC
  0
EOF
