  0
SECTION
  2
HEADER
  9
$ACADVER
  1
AC1014
  9
$ACADMAINTVER
 70
     9
  9
$DWGCODEPAGE
  3
ANSI_1252
  9
$INSBASE
 10
0.0
 20
0.0
 30
0.0
  9
$EXTMIN
 10
1.000000000000000E+20
 20
1.000000000000000E+20
 30
1.000000000000000E+20
  9
$EXTMAX
 10
-1.000000000000000E+20
 20
-1.000000000000000E+20
 30
-1.000000000000000E+20
  9
$LIMMIN
 10
0.0
 20
0.0
  9
$LIMMAX
 10
12.0
 20
9.0
  9
$ORTHOMODE
 70
     0
  9
$REGENMODE
 70
     1
  9
$FILLMODE
 70
     1
  9
$QTEXTMODE
 70
     0
  9
$MIRRTEXT
 70
     1
  9
$DRAGMODE
 70
     2
  9
$LTSCALE
 40
1.0
  9
$OSMODE
 70
    37
  9
$ATTMODE
 70
     1
  9
$TEXTSIZE
 40
0.2
  9
$TRACEWID
 40
0.05
  9
$TEXTSTYLE
  7
STANDARD
  9
$CLAYER
  8
0
  9
$CELTYPE
  6
BYLAYER
  9
$CECOLOR
 62
   256
  9
$CELTSCALE
 40
1.0
  9
$DELOBJ
 70
     1
  9
$DISPSILH
 70
     0
  9
$DIMSCALE
 40
1.0
  9
$DIMASZ
 40
0.18
  9
$DIMEXO
 40
0.0625
  9
$DIMDLI
 40
0.38
  9
$DIMRND
 40
0.0
  9
$DIMDLE
 40
0.0
  9
$DIMEXE
 40
0.18
  9
$DIMTP
 40
0.0
  9
$DIMTM
 40
0.0
  9
$DIMTXT
 40
0.18
  9
$DIMCEN
 40
0.09
  9
$DIMTSZ
 40
0.0
  9
$DIMTOL
 70
     0
  9
$DIMLIM
 70
     0
  9
$DIMTIH
 70
     1
  9
$DIMTOH
 70
     1
  9
$DIMSE1
 70
     0
  9
$DIMSE2
 70
     0
  9
$DIMTAD
 70
     0
  9
$DIMZIN
 70
     0
  9
$DIMBLK
  1

  9
$DIMASO
 70
     1
  9
$DIMSHO
 70
     1
  9
$DIMPOST
  1

  9
$DIMAPOST
  1

  9
$DIMALT
 70
     0
  9
$DIMALTD
 70
     2
  9
$DIMALTF
 40
25.4
  9
$DIMLFAC
 40
1.0
  9
$DIMTOFL
 70
     0
  9
$DIMTVP
 40
0.0
  9
$DIMTIX
 70
     0
  9
$DIMSOXD
 70
     0
  9
$DIMSAH
 70
     0
  9
$DIMBLK1
  1

  9
$DIMBLK2
  1

  9
$DIMSTYLE
  2
STANDARD
  9
$DIMCLRD
 70
     0
  9
$DIMCLRE
 70
     0
  9
$DIMCLRT
 70
     0
  9
$DIMTFAC
 40
1.0
  9
$DIMGAP
 40
0.09
  9
$DIMJUST
 70
     0
  9
$DIMSD1
 70
     0
  9
$DIMSD2
 70
     0
  9
$DIMTOLJ
 70
     1
  9
$DIMTZIN
 70
     0
  9
$DIMALTZ
 70
     0
  9
$DIMALTTZ
 70
     0
  9
$DIMFIT
 70
     3
  9
$DIMUPT
 70
     0
  9
$DIMUNIT
 70
     2
  9
$DIMDEC
 70
     4
  9
$DIMTDEC
 70
     4
  9
$DIMALTU
 70
     2
  9
$DIMALTTD
 70
     2
  9
$DIMTXSTY
  7
STANDARD
  9
$DIMAUNIT
 70
     0
  9
$LUNITS
 70
     2
  9
$LUPREC
 70
     4
  9
$SKETCHINC
 40
0.1
  9
$FILLETRAD
 40
0.5
  9
$AUNITS
 70
     0
  9
$AUPREC
 70
     0
  9
$MENU
  1
.
  9
$ELEVATION
 40
0.0
  9
$PELEVATION
 40
0.0
  9
$THICKNESS
 40
0.0
  9
$LIMCHECK
 70
     0
  9
$CHAMFERA
 40
0.5
  9
$CHAMFERB
 40
0.5
  9
$CHAMFERC
 40
1.0
  9
$CHAMFERD
 40
0.0
  9
$SKPOLY
 70
     0
  9
$TDCREATE
 40
2458982.60080272
  9
$TDUPDATE
 40
2458982.600802986
  9
$TDINDWG
 40
0.0000000116
  9
$TDUSRTIMER
 40
0.0000000116
  9
$USRTIMER
 70
     1
  9
$ANGBASE
 50
0.0
  9
$ANGDIR
 70
     0
  9
$PDMODE
 70
     0
  9
$PDSIZE
 40
0.0
  9
$PLINEWID
 40
0.0
  9
$COORDS
 70
     1
  9
$SPLFRAME
 70
     0
  9
$SPLINETYPE
 70
     6
  9
$SPLINESEGS
 70
     8
  9
$ATTDIA
 70
     0
  9
$ATTREQ
 70
     1
  9
$HANDLING
 70
     1
  9
$HANDSEED
  5
78A
  9
$SURFTAB1
 70
     6
  9
$SURFTAB2
 70
     6
  9
$SURFTYPE
 70
     6
  9
$SURFU
 70
     6
  9
$SURFV
 70
     6
  9
$UCSNAME
  2

  9
$UCSORG
 10
0.0
 20
0.0
 30
0.0
  9
$UCSXDIR
 10
1.0
 20
0.0
 30
0.0
  9
$UCSYDIR
 10
0.0
 20
1.0
 30
0.0
  9
$PUCSNAME
  2

  9
$PUCSORG
 10
0.0
 20
0.0
 30
0.0
  9
$PUCSXDIR
 10
1.0
 20
0.0
 30
0.0
  9
$PUCSYDIR
 10
0.0
 20
1.0
 30
0.0
  9
$USERI1
 70
     0
  9
$USERI2
 70
     0
  9
$USERI3
 70
     0
  9
$USERI4
 70
     0
  9
$USERI5
 70
     0
  9
$USERR1
 40
0.0
  9
$USERR2
 40
0.0
  9
$USERR3
 40
0.0
  9
$USERR4
 40
0.0
  9
$USERR5
 40
0.0
  9
$WORLDVIEW
 70
     1
  9
$SHADEDGE
 70
     3
  9
$SHADEDIF
 70
    70
  9
$TILEMODE
 70
     1
  9
$MAXACTVP
 70
    64
  9
$PINSBASE
 10
0.0
 20
0.0
 30
0.0
  9
$PLIMCHECK
 70
     0
  9
$PEXTMIN
 10
1.000000000000000E+20
 20
1.000000000000000E+20
 30
1.000000000000000E+20
  9
$PEXTMAX
 10
-1.000000000000000E+20
 20
-1.000000000000000E+20
 30
-1.000000000000000E+20
  9
$PLIMMIN
 10
0.0
 20
0.0
  9
$PLIMMAX
 10
12.0
 20
9.0
  9
$UNITMODE
 70
     0
  9
$VISRETAIN
 70
     1
  9
$PLINEGEN
 70
     0
  9
$PSLTSCALE
 70
     1
  9
$TREEDEPTH
 70
  3020
  9
$PICKSTYLE
 70
     1
  9
$CMLSTYLE
  2
STANDARD
  9
$CMLJUST
 70
     0
  9
$CMLSCALE
 40
1.0
  9
$PROXYGRAPHICS
 70
     1
  9
$MEASUREMENT
 70
     0
  0
ENDSEC
  0
SECTION
  2
CLASSES
  0
CLASS
  1
ACDBDICTIONARYWDFLT
  2
AcDbDictionaryWithDefault
  3
ObjectDBX Classes
 90
        0
280
     0
281
     0
  0
CLASS
  1
VISUALSTYLE
  2
AcDbVisualStyle
  3
ObjectDBX Classes
 90
     4095
280
     0
281
     0
  0
CLASS
  1
MATERIAL
  2
AcDbMaterial
  3
ObjectDBX Classes
 90
     1153
280
     0
281
     0
  0
CLASS
  1
SUN
  2
AcDbSun
  3
SCENEOE
 90
     1024
280
     0
281
     0
  0
CLASS
  1
DICTIONARYVAR
  2
AcDbDictionaryVar
  3
ObjectDBX Classes
 90
        0
280
     0
281
     0
  0
CLASS
  1
XRECORD
  2
AcDbXrecord
  3
AutoCAD 2000
 90
        0
280
     0
281
     0
  0
CLASS
  1
LWPOLYLINE
  2
AcDbPolyline
  3
AutoCAD 2000
 90
        0
280
     0
281
     1
  0
CLASS
  1
HATCH
  2
AcDbHatch
  3
AutoCAD 2000
 90
        0
280
     0
281
     1
  0
CLASS
  1
ACDBPLACEHOLDER
  2
AcDbPlaceHolder
  3
ObjectDBX Classes
 90
        0
280
     0
281
     0
  0
CLASS
  1
LAYOUT
  2
AcDbLayout
  3
ObjectDBX Classes
 90
        0
280
     0
281
     0
  0
ENDSEC
  0
SECTION
  2
TABLES
  0
TABLE
  2
VPORT
  5
8
330
0
100
AcDbSymbolTable
 70
     1
  0
VPORT
  5
29
330
8
100
AcDbSymbolTableRecord
100
AcDbViewportTableRecord
  2
*ACTIVE
 70
     0
 10
0.0
 20
0.0
 11
1.0
 21
1.0
 12
0.0
 22
0.0
 13
0.0
 23
0.0
 14
0.5
 24
0.5
 15
0.5
 25
0.5
 16
0.0
 26
0.0
 36
1.0
 17
100.0611110860992
 27
127.0194444126945
 37
0.0
 40
296.9999999257403
 41
0.7070707070707531
 42
50.0
 43
0.0
 44
0.0
 50
0.0
 51
0.0
 71
     0
 72
   100
 73
     1
 74
     3
 75
     0
 76
     0
 77
     0
 78
     0
  0
ENDTAB
  0
TABLE
  2
LTYPE
  5
5
330
0
100
AcDbSymbolTable
 70
     4
  0
LTYPE
  5
14
330
5
100
AcDbSymbolTableRecord
100
AcDbLinetypeTableRecord
  2
BYBLOCK
 70
     0
  3

 72
    65
 73
     0
 40
0.0
  0
LTYPE
  5
15
330
5
100
AcDbSymbolTableRecord
100
AcDbLinetypeTableRecord
  2
BYLAYER
 70
     0
  3

 72
    65
 73
     0
 40
0.0
  0
LTYPE
  5
16
330
5
100
AcDbSymbolTableRecord
100
AcDbLinetypeTableRecord
  2
CONTINUOUS
 70
     0
  3
Solid line
 72
    65
 73
     0
 40
0.0
  0
LTYPE
  5
44
330
5
100
AcDbSymbolTableRecord
100
AcDbLinetypeTableRecord
  2
AI-LINETYPE-1
 70
     0
  3
Adobe Illustrator Linetype No. 1
 72
    65
 73
     4
 40
5.997222220722918
 49
4.233333332275
 74
     0
 49
-0.7055555553791667
 74
     0
 49
0.3527777776895833
 74
     0
 49
-0.7055555553791667
 74
     0
  0
LTYPE
  5
49
330
5
100
AcDbSymbolTableRecord
100
AcDbLinetypeTableRecord
  2
AI-LINETYPE-2
 70
     0
  3
Adobe Illustrator Linetype No. 2
 72
    65
 73
     4
 40
5.997222220722918
 49
4.233333332275
 74
     0
 49
-0.7055555553791667
 74
     0
 49
0.3527777776895833
 74
     0
 49
-0.7055555553791667
 74
     0
  0
LTYPE
  5
50
330
5
100
AcDbSymbolTableRecord
100
AcDbLinetypeTableRecord
  2
AI-LINETYPE-3
 70
     0
  3
Adobe Illustrator Linetype No. 3
 72
    65
 73
     4
 40
5.997222220722918
 49
4.233333332275
 74
     0
 49
-0.7055555553791667
 74
     0
 49
0.3527777776895833
 74
     0
 49
-0.7055555553791667
 74
     0
  0
ENDTAB
  0
TABLE
  2
LAYER
  5
2
330
0
100
AcDbSymbolTable
 70
     5
  0
LAYER
  5
10
330
2
100
AcDbSymbolTableRecord
100
AcDbLayerTableRecord
  2
0
 70
     0
 62
     7
  6
CONTINUOUS
  0
LAYER
  5
40
330
2
100
AcDbSymbolTableRecord
100
AcDbLayerTableRecord
  2
GRAU_10_
 70
     0
 62
     7
  6
CONTINUOUS
  0
LAYER
  5
4FC
330
2
100
AcDbSymbolTableRecord
100
AcDbLayerTableRecord
  2
STANDARDEBENE
 70
     1
 62
     7
  6
CONTINUOUS
  0
LAYER
  5
502
330
2
100
AcDbSymbolTableRecord
100
AcDbLayerTableRecord
  2
BEMA_U_00DFUNG
 70
     1
 62
     7
  6
CONTINUOUS
  0
LAYER
  5
75B
330
2
100
AcDbSymbolTableRecord
100
AcDbLayerTableRecord
  2
TEXT
 70
     1
 62
     7
  6
CONTINUOUS
  0
ENDTAB
  0
TABLE
  2
STYLE
  5
3
330
0
100
AcDbSymbolTable
 70
     1
  0
STYLE
  5
11
330
3
100
AcDbSymbolTableRecord
100
AcDbTextStyleTableRecord
  2
STANDARD
 70
     0
 40
0.0
 41
1.0
 50
0.0
 71
     0
 42
0.2
  3
txt
  4

  0
ENDTAB
  0
TABLE
  2
VIEW
  5
6
330
0
100
AcDbSymbolTable
 70
     0
  0
ENDTAB
  0
TABLE
  2
UCS
  5
7
330
0
100
AcDbSymbolTable
 70
     0
  0
ENDTAB
  0
TABLE
  2
APPID
  5
9
330
0
100
AcDbSymbolTable
 70
     1
  0
APPID
  5
12
330
9
100
AcDbSymbolTableRecord
100
AcDbRegAppTableRecord
  2
ACAD
 70
     0
  0
ENDTAB
  0
TABLE
  2
DIMSTYLE
  5
A
330
0
100
AcDbSymbolTable
 70
     1
  0
DIMSTYLE
105
27
330
A
100
AcDbSymbolTableRecord
100
AcDbDimStyleTableRecord
  2
STANDARD
 70
     0
  3

  4

  5

  6

  7

 40
1.0
 41
0.18
 42
0.0625
 43
0.38
 44
0.18
 45
0.0
 46
0.0
 47
0.0
 48
0.0
140
0.18
141
0.09
142
0.0
143
25.4
144
1.0
145
0.0
146
1.0
147
0.09
 71
     0
 72
     0
 73
     1
 74
     1
 75
     0
 76
     0
 77
     0
 78
     0
170
     0
171
     2
172
     0
173
     0
174
     0
175
     0
176
     0
177
     0
178
     0
270
     2
271
     4
272
     4
273
     2
274
     2
340
11
275
     0
280
     0
281
     0
282
     0
283
     1
284
     0
285
     0
286
     0
287
     3
288
     0
  0
ENDTAB
  0
TABLE
  2
BLOCK_RECORD
  5
1
330
0
100
AcDbSymbolTable
 70
     1
  0
BLOCK_RECORD
  5
1F
330
1
100
AcDbSymbolTableRecord
100
AcDbBlockTableRecord
  2
*MODEL_SPACE
  0
BLOCK_RECORD
  5
1B
330
1
100
AcDbSymbolTableRecord
100
AcDbBlockTableRecord
  2
*PAPER_SPACE
  0
ENDTAB
  0
ENDSEC
  0
SECTION
  2
BLOCKS
  0
BLOCK
  5
20
330
1F
100
AcDbEntity
  8
0
100
AcDbBlockBegin
  2
*MODEL_SPACE
 70
     0
 10
0.0
 20
0.0
 30
0.0
  3
*MODEL_SPACE
  1

  0
ENDBLK
  5
21
330
1F
100
AcDbEntity
  8
0
100
AcDbBlockEnd
  0
BLOCK
  5
1C
330
1B
100
AcDbEntity
 67
     1
  8
0
100
AcDbBlockBegin
  2
*PAPER_SPACE
 70
     0
 10
0.0
 20
0.0
 30
0.0
  3
*PAPER_SPACE
  1

  0
ENDBLK
  5
1D
330
1B
100
AcDbEntity
 67
     1
  8
0
100
AcDbBlockEnd
  0
ENDSEC
  0
SECTION
  2
ENTITIES
  0
POLYLINE
  5
41
330
1F
100
AcDbEntity
  8
GRAU_10_
  6
AI-LINETYPE-1
 62
   250
100
AcDb2dPolyline
 66
     1
 10
0.0
 20
0.0
 30
0.0
  0
VERTEX
  5
42
330
41
100
AcDbEntity
  8
GRAU_10_
  6
AI-LINETYPE-1
 62
   250
100
AcDbVertex
100
AcDb2dVertex
 10
49.10331526550217
 20
154.3815602450925
 30
0.0
  0
VERTEX
  5
43
330
41
100
AcDbEntity
  8
GRAU_10_
  6
AI-LINETYPE-1
 62
   250
100
AcDbVertex
100
AcDb2dVertex
 10
49.10331526550217
 20
224.0964538446851
 30
0.0
  0
SEQEND
  5
45
330
41
100
AcDbEntity
  8
GRAU_10_
  6
AI-LINETYPE-1
 62
   250
  0
POLYLINE
  5
46
330
1F
100
AcDbEntity
  8
GRAU_10_
  6
AI-LINETYPE-2
 62
   250
100
AcDb2dPolyline
 66
     1
 10
0.0
 20
0.0
 30
0.0
  0
VERTEX
  5
47
330
46
100
AcDbEntity
  8
GRAU_10_
  6
AI-LINETYPE-2
 62
   250
100
AcDbVertex
100
AcDb2dVertex
 10
12.45981087158954
 20
188.0457711172681
 30
0.0
  0
VERTEX
  5
48
330
46
100
AcDbEntity
  8
GRAU_10_
  6
AI-LINETYPE-2
 62
   250
100
AcDbVertex
100
AcDb2dVertex
 10
82.71513000296193
 20
188.0457711172681
 30
0.0
  0
SEQEND
  5
4A
330
46
100
AcDbEntity
  8
GRAU_10_
  6
AI-LINETYPE-2
 62
   250
  0
POLYLINE
  5
4B
330
1F
100
AcDbEntity
  8
GRAU_10_
  6
AI-LINETYPE-3
 62
   250
100
AcDb2dPolyline
 66
     1
 10
0.0
 20
0.0
 30
0.0
  0
VERTEX
  5
4C
330
4B
100
AcDbEntity
  8
GRAU_10_
  6
AI-LINETYPE-3
 62
   250
100
AcDbVertex
100
AcDb2dVertex
 10
120.0945626177304
 20
188.0457711172681
 30
0.0
  0
VERTEX
  5
4D
330
4B
100
AcDbEntity
  8
GRAU_10_
  6
AI-LINETYPE-3
 62
   250
100
AcDbVertex
100
AcDb2dVertex
 10
120.5383458031988
 20
188.0457711172681
 30
0.0
  0
VERTEX
  5
4E
330
4B
100
AcDbEntity
  8
GRAU_10_
  6
AI-LINETYPE-3
 62
   250
100
AcDbVertex
100
AcDb2dVertex
 10
123.038481913685
 20
188.0457711172681
 30
0.0
  0
VERTEX
  5
4F
330
4B
100
AcDbEntity
  8
GRAU_10_
  6
AI-LINETYPE-3
 62
   250
100
AcDbVertex
100
AcDb2dVertex
 10
154.8619384955634
 20
188.0457711172681
 30
0.0
  0
SEQEND
  5
51
330
4B
100
AcDbEntity
  8
GRAU_10_
  6
AI-LINETYPE-3
 62
   250
  0
POLYLINE
  5
52
330
1F
100
AcDbEntity
  8
GRAU_10_
 62
     7
100
AcDb2dPolyline
 66
     1
 10
0.0
 20
0.0
 30
0.0
  0
VERTEX
  5
53
330
52
100
AcDbEntity
  8
GRAU_10_
 62
     7
100
AcDbVertex
100
AcDb2dVertex
 10
123.038481913685
 20
156.7960100139697
 30
0.0
  0
VERTEX
  5
54
330
52
100
AcDbEntity
  8
GRAU_10_
 62
     7
100
AcDbVertex
100
AcDb2dVertex
 10
146.3383957967488
 20
156.7960100139697
 30
0.0
  0
SEQEND
  5
55
330
52
100
AcDbEntity
  8
GRAU_10_
 62
     7
  0
POLYLINE
  5
56
330
1F
100
AcDbEntity
  8
GRAU_10_
 62
     7
100
AcDb2dPolyline
 66
     1
 10
0.0
 20
0.0
 30
0.0
  0
VERTEX
  5
57
330
56
100
AcDbEntity
  8
GRAU_10_
 62
     7
100
AcDbVertex
100
AcDb2dVertex
 10
146.3383957967488
 20
216.9220433322714
 30
0.0
  0
VERTEX
  5
58
330
56
100
AcDbEntity
  8
GRAU_10_
 62
     7
100
AcDbVertex
100
AcDb2dVertex
 10
146.3383957967488
 20
215.8626516658694
 30
0.0
  0
VERTEX
  5
59
330
56
100
AcDbEntity
  8
GRAU_10_
 62
     7
100
AcDbVertex
100
AcDb2dVertex
 10
146.3383957967488
 20
214.6212266661796
 30
0.0
  0
VERTEX
  5
5A
330
56
100
AcDbEntity
  8
GRAU_10_
 62
     7
100
AcDbVertex
100
AcDb2dVertex
 10
146.3383957967488
 20
213.2065877776443
 30
0.0
  0
VERTEX
  5
5B
330
56
100
AcDbEntity
  8
GRAU_10_
 62
     7
100
AcDbVertex
100
AcDb2dVertex
 10
146.3383957967488
 20
211.6272016669284
 30
0.0
  0
VERTEX
  5
5C
330
56
100
AcDbEntity
  8
GRAU_10_
 62
     7
100
AcDbVertex
100
AcDb2dVertex
 10
146.3383957967488
 20
209.8940044451394
 30
0.0
  0
VERTEX
  5
5D
330
56
100
AcDbEntity
  8
GRAU_10_
 62
     7
100
AcDbVertex
100
AcDb2dVertex
 10
146.3383957967488
 20
208.0179322233864
 30
0.0
  0
VERTEX
  5
5E
330
56
100
AcDbEntity
  8
GRAU_10_
 62
     7
100
AcDbVertex
100
AcDb2dVertex
 10
146.3383957967488
 20
206.0109794461102
 30
0.0
  0
VERTEX
  5
5F
330
56
100
AcDbEntity
  8
GRAU_10_
 62
     7
100
AcDbVertex
100
AcDb2dVertex
 10
146.3383957967488
 20
203.886904446641
 30
0.0
  0
VERTEX
  5
60
330
56
100
AcDbEntity
  8
GRAU_10_
 62
     7
100
AcDbVertex
100
AcDb2dVertex
 10
146.3383957967488
 20
201.6594655583089
 30
0.0
  0
VERTEX
  5
61
330
56
100
AcDbEntity
  8
GRAU_10_
 62
     7
100
AcDbVertex
100
AcDb2dVertex
 10
146.3383957967488
 20
199.3431266699995
 30
0.0
  0
VERTEX
  5
62
330
56
100
AcDbEntity
  8
GRAU_10_
 62
     7
100
AcDbVertex
100
AcDb2dVertex
 10
146.3383957967488
 20
196.9523516705972
 30
0.0
  0
VERTEX
  5
63
330
56
100
AcDbEntity
  8
GRAU_10_
 62
     7
100
AcDbVertex
100
AcDb2dVertex
 10
146.3383957967488
 20
194.5040738934313
 30
0.0
  0
VERTEX
  5
64
330
56
100
AcDbEntity
  8
GRAU_10_
 62
     7
100
AcDbVertex
100
AcDb2dVertex
 10
146.3383957967488
 20
192.0127572273875
 30
0.0
  0
VERTEX
  5
65
330
56
100
AcDbEntity
  8
GRAU_10_
 62
     7
100
AcDbVertex
100
AcDb2dVertex
 10
146.3383957967488
 20
189.49604056135
 30
0.0
  0
VERTEX
  5
66
330
56
100
AcDbEntity
  8
GRAU_10_
 62
     7
100
AcDbVertex
100
AcDb2dVertex
 10
146.3383957967488
 20
186.9705044508704
 30
0.0
  0
VERTEX
  5
67
330
56
100
AcDbEntity
  8
GRAU_10_
 62
     7
100
AcDbVertex
100
AcDb2dVertex
 10
146.3383957967488
 20
184.4513183403892
 30
0.0
  0
VERTEX
  5
68
330
56
100
AcDbEntity
  8
GRAU_10_
 62
     7
100
AcDbVertex
100
AcDb2dVertex
 10
146.3383957967488
 20
181.9554155632351
 30
0.0
  0
VERTEX
  5
69
330
56
100
AcDbEntity
  8
GRAU_10_
 62
     7
100
AcDbVertex
100
AcDb2dVertex
 10
146.3383957967488
 20
179.4993766749604
 30
0.0
  0
VERTEX
  5
6A
330
56
100
AcDbEntity
  8
GRAU_10_
 62
     7
100
AcDbVertex
100
AcDb2dVertex
 10
146.3383957967488
 20
177.0994294533382
 30
0.0
  0
VERTEX
  5
6B
330
56
100
AcDbEntity
  8
GRAU_10_
 62
     7
100
AcDbVertex
100
AcDb2dVertex
 10
146.3383957967488
 20
174.7707433428091
 30
0.0
  0
VERTEX
  5
6C
330
56
100
AcDbEntity
  8
GRAU_10_
 62
     7
100
AcDbVertex
100
AcDb2dVertex
 10
146.3383957967488
 20
172.5291933433697
 30
0.0
  0
VERTEX
  5
6D
330
56
100
AcDbEntity
  8
GRAU_10_
 62
     7
100
AcDbVertex
100
AcDb2dVertex
 10
146.3383957967488
 20
170.3888905661267
 30
0.0
  0
VERTEX
  5
6E
330
56
100
AcDbEntity
  8
GRAU_10_
 62
     7
100
AcDbVertex
100
AcDb2dVertex
 10
146.3383957967488
 20
168.3635933444108
 30
0.0
  0
VERTEX
  5
6F
330
56
100
AcDbEntity
  8
GRAU_10_
 62
     7
100
AcDbVertex
100
AcDb2dVertex
 10
146.3383957967488
 20
166.4674127893293
 30
0.0
  0
VERTEX
  5
70
330
56
100
AcDbEntity
  8
GRAU_10_
 62
     7
100
AcDbVertex
100
AcDb2dVertex
 10
146.3383957967488
 20
164.7119905675457
 30
0.0
  0
VERTEX
  5
71
330
56
100
AcDbEntity
  8
GRAU_10_
 62
     7
100
AcDbVertex
100
AcDb2dVertex
 10
146.3383957967488
 20
163.109321123502
 30
0.0
  0
VERTEX
  5
72
330
56
100
AcDbEntity
  8
GRAU_10_
 62
     7
100
AcDbVertex
100
AcDb2dVertex
 10
146.3383957967488
 20
161.6699877905286
 30
0.0
  0
VERTEX
  5
73
330
56
100
AcDbEntity
  8
GRAU_10_
 62
     7
100
AcDbVertex
100
AcDb2dVertex
 10
146.3383957967488
 20
160.4021044575125
 30
0.0
  0
VERTEX
  5
74
330
56
100
AcDbEntity
  8
GRAU_10_
 62
     7
100
AcDbVertex
100
AcDb2dVertex
 10
146.3383957967488
 20
159.3151961244509
 30
0.0
  0
VERTEX
  5
75
330
56
100
AcDbEntity
  8
GRAU_10_
 62
     7
100
AcDbVertex
100
AcDb2dVertex
 10
146.3383957967488
 20
158.4159655691198
 30
0.0
  0
VERTEX
  5
76
330
56
100
AcDbEntity
  8
GRAU_10_
 62
     7
100
AcDbVertex
100
AcDb2dVertex
 10
146.3383957967488
 20
157.7104100137406
 30
0.0
  0
VERTEX
  5
77
330
56
100
AcDbEntity
  8
GRAU_10_
 62
     7
100
AcDbVertex
100
AcDb2dVertex
 10
146.3383957967488
 20
157.2034683472007
 30
0.0
  0
VERTEX
  5
78
330
56
100
AcDbEntity
  8
GRAU_10_
 62
     7
100
AcDbVertex
100
AcDb2dVertex
 10
146.3383957967488
 20
156.8979627917216
 30
0.0
  0
VERTEX
  5
79
330
56
100
AcDbEntity
  8
GRAU_10_
 62
     7
100
AcDbVertex
100
AcDb2dVertex
 10
146.3383957967488
 20
156.7960100139697
 30
0.0
  0
SEQEND
  5
7A
330
56
100
AcDbEntity
  8
GRAU_10_
 62
     7
  0
POLYLINE
  5
7B
330
1F
100
AcDbEntity
  8
GRAU_10_
 62
     7
100
AcDb2dPolyline
 66
     1
 10
0.0
 20
0.0
 30
0.0
  0
VERTEX
  5
7C
330
7B
100
AcDbEntity
  8
GRAU_10_
 62
     7
100
AcDbVertex
100
AcDb2dVertex
 10
123.038481913685
 20
156.7960100139697
 30
0.0
  0
VERTEX
  5
7D
330
7B
100
AcDbEntity
  8
GRAU_10_
 62
     7
100
AcDbVertex
100
AcDb2dVertex
 10
123.038481913685
 20
156.8979627917216
 30
0.0
  0
VERTEX
  5
7E
330
7B
100
AcDbEntity
  8
GRAU_10_
 62
     7
100
AcDbVertex
100
AcDb2dVertex
 10
123.038481913685
 20
157.2034683472007
 30
0.0
  0
VERTEX
  5
7F
330
7B
100
AcDbEntity
  8
GRAU_10_
 62
     7
100
AcDbVertex
100
AcDb2dVertex
 10
123.038481913685
 20
157.7104100137406
 30
0.0
  0
VERTEX
  5
80
330
7B
100
AcDbEntity
  8
GRAU_10_
 62
     7
100
AcDbVertex
100
AcDb2dVertex
 10
123.038481913685
 20
158.4159655691198
 30
0.0
  0
VERTEX
  5
81
330
7B
100
AcDbEntity
  8
GRAU_10_
 62
     7
100
AcDbVertex
100
AcDb2dVertex
 10
123.038481913685
 20
159.3151961244509
 30
0.0
  0
VERTEX
  5
82
330
7B
100
AcDbEntity
  8
GRAU_10_
 62
     7
100
AcDbVertex
100
AcDb2dVertex
 10
123.038481913685
 20
160.4021044575125
 30
0.0
  0
VERTEX
  5
83
330
7B
100
AcDbEntity
  8
GRAU_10_
 62
     7
100
AcDbVertex
100
AcDb2dVertex
 10
123.038481913685
 20
161.6699877905286
 30
0.0
  0
VERTEX
  5
84
330
7B
100
AcDbEntity
  8
GRAU_10_
 62
     7
100
AcDbVertex
100
AcDb2dVertex
 10
123.038481913685
 20
163.109321123502
 30
0.0
  0
VERTEX
  5
85
330
7B
100
AcDbEntity
  8
GRAU_10_
 62
     7
100
AcDbVertex
100
AcDb2dVertex
 10
123.038481913685
 20
164.7119905675457
 30
0.0
  0
VERTEX
  5
86
330
7B
100
AcDbEntity
  8
GRAU_10_
 62
     7
100
AcDbVertex
100
AcDb2dVertex
 10
123.038481913685
 20
166.4674127893293
 30
0.0
  0
VERTEX
  5
87
330
7B
100
AcDbEntity
  8
GRAU_10_
 62
     7
100
AcDbVertex
100
AcDb2dVertex
 10
123.038481913685
 20
168.3635933444108
 30
0.0
  0
VERTEX
  5
88
330
7B
100
AcDbEntity
  8
GRAU_10_
 62
     7
100
AcDbVertex
100
AcDb2dVertex
 10
123.038481913685
 20
170.3888905661267
 30
0.0
  0
VERTEX
  5
89
330
7B
100
AcDbEntity
  8
GRAU_10_
 62
     7
100
AcDbVertex
100
AcDb2dVertex
 10
123.038481913685
 20
172.5291933433697
 30
0.0
  0
VERTEX
  5
8A
330
7B
100
AcDbEntity
  8
GRAU_10_
 62
     7
100
AcDbVertex
100
AcDb2dVertex
 10
123.038481913685
 20
174.7707433428091
 30
0.0
  0
VERTEX
  5
8B
330
7B
100
AcDbEntity
  8
GRAU_10_
 62
     7
100
AcDbVertex
100
AcDb2dVertex
 10
123.038481913685
 20
177.0994294533382
 30
0.0
  0
VERTEX
  5
8C
330
7B
100
AcDbEntity
  8
GRAU_10_
 62
     7
100
AcDbVertex
100
AcDb2dVertex
 10
123.038481913685
 20
179.4993766749604
 30
0.0
  0
VERTEX
  5
8D
330
7B
100
AcDbEntity
  8
GRAU_10_
 62
     7
100
AcDbVertex
100
AcDb2dVertex
 10
123.038481913685
 20
181.9554155632351
 30
0.0
  0
VERTEX
  5
8E
330
7B
100
AcDbEntity
  8
GRAU_10_
 62
     7
100
AcDbVertex
100
AcDb2dVertex
 10
123.038481913685
 20
184.4513183403892
 30
0.0
  0
VERTEX
  5
8F
330
7B
100
AcDbEntity
  8
GRAU_10_
 62
     7
100
AcDbVertex
100
AcDb2dVertex
 10
123.038481913685
 20
186.9705044508704
 30
0.0
  0
VERTEX
  5
90
330
7B
100
AcDbEntity
  8
GRAU_10_
 62
     7
100
AcDbVertex
100
AcDb2dVertex
 10
123.038481913685
 20
189.49604056135
 30
0.0
  0
VERTEX
  5
91
330
7B
100
AcDbEntity
  8
GRAU_10_
 62
     7
100
AcDbVertex
100
AcDb2dVertex
 10
123.038481913685
 20
192.0127572273875
 30
0.0
  0
VERTEX
  5
92
330
7B
100
AcDbEntity
  8
GRAU_10_
 62
     7
100
AcDbVertex
100
AcDb2dVertex
 10
123.038481913685
 20
194.5040738934313
 30
0.0
  0
VERTEX
  5
93
330
7B
100
AcDbEntity
  8
GRAU_10_
 62
     7
100
AcDbVertex
100
AcDb2dVertex
 10
123.038481913685
 20
196.9523516705972
 30
0.0
  0
VERTEX
  5
94
330
7B
100
AcDbEntity
  8
GRAU_10_
 62
     7
100
AcDbVertex
100
AcDb2dVertex
 10
123.038481913685
 20
199.3431266699995
 30
0.0
  0
VERTEX
  5
95
330
7B
100
AcDbEntity
  8
GRAU_10_
 62
     7
100
AcDbVertex
100
AcDb2dVertex
 10
123.038481913685
 20
201.6594655583089
 30
0.0
  0
VERTEX
  5
96
330
7B
100
AcDbEntity
  8
GRAU_10_
 62
     7
100
AcDbVertex
100
AcDb2dVertex
 10
123.038481913685
 20
203.886904446641
 30
0.0
  0
VERTEX
  5
97
330
7B
100
AcDbEntity
  8
GRAU_10_
 62
     7
100
AcDbVertex
100
AcDb2dVertex
 10
123.038481913685
 20
206.0109794461102
 30
0.0
  0
VERTEX
  5
98
330
7B
100
AcDbEntity
  8
GRAU_10_
 62
     7
100
AcDbVertex
100
AcDb2dVertex
 10
123.038481913685
 20
208.0179322233864
 30
0.0
  0
VERTEX
  5
99
330
7B
100
AcDbEntity
  8
GRAU_10_
 62
     7
100
AcDbVertex
100
AcDb2dVertex
 10
123.038481913685
 20
209.8940044451394
 30
0.0
  0
VERTEX
  5
9A
330
7B
100
AcDbEntity
  8
GRAU_10_
 62
     7
100
AcDbVertex
100
AcDb2dVertex
 10
123.038481913685
 20
211.6272016669284
 30
0.0
  0
VERTEX
  5
9B
330
7B
100
AcDbEntity
  8
GRAU_10_
 62
     7
100
AcDbVertex
100
AcDb2dVertex
 10
123.038481913685
 20
213.2065877776443
 30
0.0
  0
VERTEX
  5
9C
330
7B
100
AcDbEntity
  8
GRAU_10_
 62
     7
100
AcDbVertex
100
AcDb2dVertex
 10
123.038481913685
 20
214.6212266661796
 30
0.0
  0
VERTEX
  5
9D
330
7B
100
AcDbEntity
  8
GRAU_10_
 62
     7
100
AcDbVertex
100
AcDb2dVertex
 10
123.038481913685
 20
215.8626516658694
 30
0.0
  0
VERTEX
  5
9E
330
7B
100
AcDbEntity
  8
GRAU_10_
 62
     7
100
AcDbVertex
100
AcDb2dVertex
 10
123.038481913685
 20
216.9220433322714
 30
0.0
  0
SEQEND
  5
9F
330
7B
100
AcDbEntity
  8
GRAU_10_
 62
     7
  0
POLYLINE
  5
A0
330
1F
100
AcDbEntity
  8
GRAU_10_
 62
     7
100
AcDb2dPolyline
 66
     1
 10
0.0
 20
0.0
 30
0.0
  0
VERTEX
  5
A1
330
A0
100
AcDbEntity
  8
GRAU_10_
 62
     7
100
AcDbVertex
100
AcDb2dVertex
 10
148.0881735740891
 20
212.4960933333778
 30
0.0
  0
VERTEX
  5
A2
330
A0
100
AcDbEntity
  8
GRAU_10_
 62
     7
100
AcDbVertex
100
AcDb2dVertex
 10
146.3383957967488
 20
212.4960933333778
 30
0.0
  0
SEQEND
  5
A3
330
A0
100
AcDbEntity
  8
GRAU_10_
 62
     7
  0
POLYLINE
  5
A4
330
1F
100
AcDbEntity
  8
GRAU_10_
 62
     7
100
AcDb2dPolyline
 66
     1
 10
0.0
 20
0.0
 30
0.0
  0
VERTEX
  5
A5
330
A4
100
AcDbEntity
  8
GRAU_10_
 62
     7
100
AcDbVertex
100
AcDb2dVertex
 10
146.3383957967488
 20
163.5954489011585
 30
0.0
  0
VERTEX
  5
A6
330
A4
100
AcDbEntity
  8
GRAU_10_
 62
     7
100
AcDbVertex
100
AcDb2dVertex
 10
148.0881735740891
 20
163.5954489011585
 30
0.0
  0
SEQEND
  5
A7
330
A4
100
AcDbEntity
  8
GRAU_10_
 62
     7
  0
POLYLINE
  5
A8
330
1F
100
AcDbEntity
  8
GRAU_10_
 62
     7
100
AcDb2dPolyline
 66
     1
 10
0.0
 20
0.0
 30
0.0
  0
VERTEX
  5
A9
330
A8
100
AcDbEntity
  8
GRAU_10_
 62
     7
100
AcDbVertex
100
AcDb2dVertex
 10
148.0881735740891
 20
212.4960933333778
 30
0.0
  0
VERTEX
  5
AA
330
A8
100
AcDbEntity
  8
GRAU_10_
 62
     7
100
AcDbVertex
100
AcDb2dVertex
 10
148.0881735740891
 20
212.3913183334038
 30
0.0
  0
VERTEX
  5
AB
330
A8
100
AcDbEntity
  8
GRAU_10_
 62
     7
100
AcDbVertex
100
AcDb2dVertex
 10
148.0881735740891
 20
212.0791100001485
 30
0.0
  0
VERTEX
  5
AC
330
A8
100
AcDbEntity
  8
GRAU_10_
 62
     7
100
AcDbVertex
100
AcDb2dVertex
 10
148.0881735740891
 20
211.5626433336109
 30
0.0
  0
VERTEX
  5
AD
330
A8
100
AcDbEntity
  8
GRAU_10_
 62
     7
100
AcDbVertex
100
AcDb2dVertex
 10
148.0881735740891
 20
210.8443877782349
 30
0.0
  0
VERTEX
  5
AE
330
A8
100
AcDbEntity
  8
GRAU_10_
 62
     7
100
AcDbVertex
100
AcDb2dVertex
 10
148.0881735740891
 20
209.9328100006854
 30
0.0
  0
VERTEX
  5
AF
330
A8
100
AcDbEntity
  8
GRAU_10_
 62
     7
100
AcDbVertex
100
AcDb2dVertex
 10
148.0881735740891
 20
208.8332016676269
 30
0.0
  0
VERTEX
  5
B0
330
A8
100
AcDbEntity
  8
GRAU_10_
 62
     7
100
AcDbVertex
100
AcDb2dVertex
 10
148.0881735740891
 20
207.5572044457236
 30
0.0
  0
VERTEX
  5
B1
330
A8
100
AcDbEntity
  8
GRAU_10_
 62
     7
100
AcDbVertex
100
AcDb2dVertex
 10
148.0881735740891
 20
206.1143433349732
 30
0.0
  0
VERTEX
  5
B2
330
A8
100
AcDbEntity
  8
GRAU_10_
 62
     7
100
AcDbVertex
100
AcDb2dVertex
 10
148.0881735740891
 20
204.5176711131502
 30
0.0
  0
VERTEX
  5
B3
330
A8
100
AcDbEntity
  8
GRAU_10_
 62
     7
100
AcDbVertex
100
AcDb2dVertex
 10
148.0881735740891
 20
202.7798877802515
 30
0.0
  0
VERTEX
  5
B4
330
A8
100
AcDbEntity
  8
GRAU_10_
 62
     7
100
AcDbVertex
100
AcDb2dVertex
 10
148.0881735740891
 20
200.9172211140502
 30
0.0
  0
VERTEX
  5
B5
330
A8
100
AcDbEntity
  8
GRAU_10_
 62
     7
100
AcDbVertex
100
AcDb2dVertex
 10
148.0881735740891
 20
198.9441350034325
 30
0.0
  0
VERTEX
  5
B6
330
A8
100
AcDbEntity
  8
GRAU_10_
 62
     7
100
AcDbVertex
100
AcDb2dVertex
 10
148.0881735740891
 20
196.878268337282
 30
0.0
  0
VERTEX
  5
B7
330
A8
100
AcDbEntity
  8
GRAU_10_
 62
     7
100
AcDbVertex
100
AcDb2dVertex
 10
148.0881735740891
 20
194.7365544489286
 30
0.0
  0
VERTEX
  5
B8
330
A8
100
AcDbEntity
  8
GRAU_10_
 62
     7
100
AcDbVertex
100
AcDb2dVertex
 10
148.0881735740891
 20
192.5387488939226
 30
0.0
  0
VERTEX
  5
B9
330
A8
100
AcDbEntity
  8
GRAU_10_
 62
     7
100
AcDbVertex
100
AcDb2dVertex
 10
148.0881735740891
 20
190.3014322278151
 30
0.0
  0
VERTEX
  5
BA
330
A8
100
AcDbEntity
  8
GRAU_10_
 62
     7
100
AcDbVertex
100
AcDb2dVertex
 10
148.0881735740891
 20
188.0457711172681
 30
0.0
  0
VERTEX
  5
BB
330
A8
100
AcDbEntity
  8
GRAU_10_
 62
     7
100
AcDbVertex
100
AcDb2dVertex
 10
148.0881735740891
 20
185.7901100067209
 30
0.0
  0
VERTEX
  5
BC
330
A8
100
AcDbEntity
  8
GRAU_10_
 62
     7
100
AcDbVertex
100
AcDb2dVertex
 10
148.0881735740891
 20
183.5531461183914
 30
0.0
  0
VERTEX
  5
BD
330
A8
100
AcDbEntity
  8
GRAU_10_
 62
     7
100
AcDbVertex
100
AcDb2dVertex
 10
148.0881735740891
 20
181.3549877856077
 30
0.0
  0
VERTEX
  5
BE
330
A8
100
AcDbEntity
  8
GRAU_10_
 62
     7
100
AcDbVertex
100
AcDb2dVertex
 10
148.0881735740891
 20
179.213273897254
 30
0.0
  0
VERTEX
  5
BF
330
A8
100
AcDbEntity
  8
GRAU_10_
 62
     7
100
AcDbVertex
100
AcDb2dVertex
 10
148.0881735740891
 20
177.1474072311038
 30
0.0
  0
VERTEX
  5
C0
330
A8
100
AcDbEntity
  8
GRAU_10_
 62
     7
100
AcDbVertex
100
AcDb2dVertex
 10
148.0881735740891
 20
175.1746738982638
 30
0.0
  0
VERTEX
  5
C1
330
A8
100
AcDbEntity
  8
GRAU_10_
 62
     7
100
AcDbVertex
100
AcDb2dVertex
 10
148.0881735740891
 20
173.3116544542848
 30
0.0
  0
VERTEX
  5
C2
330
A8
100
AcDbEntity
  8
GRAU_10_
 62
     7
100
AcDbVertex
100
AcDb2dVertex
 10
148.0881735740891
 20
171.5738711213861
 30
0.0
  0
VERTEX
  5
C3
330
A8
100
AcDbEntity
  8
GRAU_10_
 62
     7
100
AcDbVertex
100
AcDb2dVertex
 10
148.0881735740891
 20
169.9771988995631
 30
0.0
  0
VERTEX
  5
C4
330
A8
100
AcDbEntity
  8
GRAU_10_
 62
     7
100
AcDbVertex
100
AcDb2dVertex
 10
148.0881735740891
 20
168.5343377888127
 30
0.0
  0
VERTEX
  5
C5
330
A8
100
AcDbEntity
  8
GRAU_10_
 62
     7
100
AcDbVertex
100
AcDb2dVertex
 10
148.0881735740891
 20
167.2576350113539
 30
0.0
  0
VERTEX
  5
C6
330
A8
100
AcDbEntity
  8
GRAU_10_
 62
     7
100
AcDbVertex
100
AcDb2dVertex
 10
148.0881735740891
 20
166.1587322338509
 30
0.0
  0
VERTEX
  5
C7
330
A8
100
AcDbEntity
  8
GRAU_10_
 62
     7
100
AcDbVertex
100
AcDb2dVertex
 10
148.0881735740891
 20
165.2471544563014
 30
0.0
  0
VERTEX
  5
C8
330
A8
100
AcDbEntity
  8
GRAU_10_
 62
     7
100
AcDbVertex
100
AcDb2dVertex
 10
148.0881735740891
 20
164.5288989009254
 30
0.0
  0
VERTEX
  5
C9
330
A8
100
AcDbEntity
  8
GRAU_10_
 62
     7
100
AcDbVertex
100
AcDb2dVertex
 10
148.0881735740891
 20
164.0117266788323
 30
0.0
  0
VERTEX
  5
CA
330
A8
100
AcDbEntity
  8
GRAU_10_
 62
     7
100
AcDbVertex
100
AcDb2dVertex
 10
148.0881735740891
 20
163.7002239011325
 30
0.0
  0
VERTEX
  5
CB
330
A8
100
AcDbEntity
  8
GRAU_10_
 62
     7
100
AcDbVertex
100
AcDb2dVertex
 10
148.0881735740891
 20
163.5954489011585
 30
0.0
  0
SEQEND
  5
CC
330
A8
100
AcDbEntity
  8
GRAU_10_
 62
     7
  0
POLYLINE
  5
CD
330
1F
100
AcDbEntity
  8
GRAU_10_
 62
     7
100
AcDb2dPolyline
 66
     1
 10
0.0
 20
0.0
 30
0.0
  0
VERTEX
  5
CE
330
CD
100
AcDbEntity
  8
GRAU_10_
 62
     7
100
AcDbVertex
100
AcDb2dVertex
 10
123.038481913685
 20
166.8960377892222
 30
0.0
  0
VERTEX
  5
CF
330
CD
100
AcDbEntity
  8
GRAU_10_
 62
     7
100
AcDbVertex
100
AcDb2dVertex
 10
123.1552513581003
 20
167.5698433446092
 30
0.0
  0
SEQEND
  5
D0
330
CD
100
AcDbEntity
  8
GRAU_10_
 62
     7
  0
POLYLINE
  5
D1
330
1F
100
AcDbEntity
  8
GRAU_10_
 62
     7
100
AcDb2dPolyline
 66
     1
 10
0.0
 20
0.0
 30
0.0
  0
VERTEX
  5
D2
330
D1
100
AcDbEntity
  8
GRAU_10_
 62
     7
100
AcDbVertex
100
AcDb2dVertex
 10
124.0117958023306
 20
168.6123016776819
 30
0.0
  0
VERTEX
  5
D3
330
D1
100
AcDbEntity
  8
GRAU_10_
 62
     7
100
AcDbVertex
100
AcDb2dVertex
 10
124.6503235799485
 20
168.8578350109538
 30
0.0
  0
SEQEND
  5
D4
330
D1
100
AcDbEntity
  8
GRAU_10_
 62
     7
  0
POLYLINE
  5
D5
330
1F
100
AcDbEntity
  8
GRAU_10_
 62
     7
100
AcDb2dPolyline
 66
     1
 10
0.0
 20
0.0
 30
0.0
  0
VERTEX
  5
D6
330
D5
100
AcDbEntity
  8
GRAU_10_
 62
     7
100
AcDbVertex
100
AcDb2dVertex
 10
124.6503235799485
 20
207.2337072235825
 30
0.0
  0
VERTEX
  5
D7
330
D5
100
AcDbEntity
  8
GRAU_10_
 62
     7
100
AcDbVertex
100
AcDb2dVertex
 10
124.0117958023306
 20
207.4792405568544
 30
0.0
  0
SEQEND
  5
D8
330
D5
100
AcDbEntity
  8
GRAU_10_
 62
     7
  0
POLYLINE
  5
D9
330
1F
100
AcDbEntity
  8
GRAU_10_
 62
     7
100
AcDb2dPolyline
 66
     1
 10
0.0
 20
0.0
 30
0.0
  0
VERTEX
  5
DA
330
D9
100
AcDbEntity
  8
GRAU_10_
 62
     7
100
AcDbVertex
100
AcDb2dVertex
 10
123.1552513581003
 20
208.5216988899271
 30
0.0
  0
VERTEX
  5
DB
330
D9
100
AcDbEntity
  8
GRAU_10_
 62
     7
100
AcDbVertex
100
AcDb2dVertex
 10
123.038481913685
 20
209.1955044453141
 30
0.0
  0
SEQEND
  5
DC
330
D9
100
AcDbEntity
  8
GRAU_10_
 62
     7
  0
POLYLINE
  5
DD
330
1F
100
AcDbEntity
  8
GRAU_10_
 62
     7
100
AcDb2dPolyline
 66
     1
 10
0.0
 20
0.0
 30
0.0
  0
VERTEX
  5
DE
330
DD
100
AcDbEntity
  8
GRAU_10_
 62
     7
100
AcDbVertex
100
AcDb2dVertex
 10
124.6503235799485
 20
168.8578350109538
 30
0.0
  0
VERTEX
  5
DF
330
DD
100
AcDbEntity
  8
GRAU_10_
 62
     7
100
AcDbVertex
100
AcDb2dVertex
 10
124.6503235799485
 20
168.9629627887056
 30
0.0
  0
VERTEX
  5
E0
330
DD
100
AcDbEntity
  8
GRAU_10_
 62
     7
100
AcDbVertex
100
AcDb2dVertex
 10
124.6503235799485
 20
169.2772877886269
 30
0.0
  0
VERTEX
  5
E1
330
DD
100
AcDbEntity
  8
GRAU_10_
 62
     7
100
AcDbVertex
100
AcDb2dVertex
 10
124.6503235799485
 20
169.3626600108278
 30
0.0
  0
SEQEND
  5
E2
330
DD
100
AcDbEntity
  8
GRAU_10_
 62
     7
  0
POLYLINE
  5
E3
330
1F
100
AcDbEntity
  8
GRAU_10_
 62
     7
100
AcDb2dPolyline
 66
     1
 10
0.0
 20
0.0
 30
0.0
  0
VERTEX
  5
E4
330
E3
100
AcDbEntity
  8
GRAU_10_
 62
     7
100
AcDbVertex
100
AcDb2dVertex
 10
124.6503235799485
 20
170.3726627883529
 30
0.0
  0
VERTEX
  5
E5
330
E3
100
AcDbEntity
  8
GRAU_10_
 62
     7
100
AcDbVertex
100
AcDb2dVertex
 10
124.6503235799485
 20
170.5169488994281
 30
0.0
  0
VERTEX
  5
E6
330
E3
100
AcDbEntity
  8
GRAU_10_
 62
     7
100
AcDbVertex
100
AcDb2dVertex
 10
124.6503235799485
 20
171.3823127881008
 30
0.0
  0
SEQEND
  5
E7
330
E3
100
AcDbEntity
  8
GRAU_10_
 62
     7
  0
POLYLINE
  5
E8
330
1F
100
AcDbEntity
  8
GRAU_10_
 62
     7
100
AcDb2dPolyline
 66
     1
 10
0.0
 20
0.0
 30
0.0
  0
VERTEX
  5
E9
330
E8
100
AcDbEntity
  8
GRAU_10_
 62
     7
100
AcDbVertex
100
AcDb2dVertex
 10
124.6503235799485
 20
172.3926683434036
 30
0.0
  0
VERTEX
  5
EA
330
E8
100
AcDbEntity
  8
GRAU_10_
 62
     7
100
AcDbVertex
100
AcDb2dVertex
 10
124.6503235799485
 20
172.5221377878158
 30
0.0
  0
VERTEX
  5
EB
330
E8
100
AcDbEntity
  8
GRAU_10_
 62
     7
100
AcDbVertex
100
AcDb2dVertex
 10
124.6503235799485
 20
173.4019655653735
 30
0.0
  0
SEQEND
  5
EC
330
E8
100
AcDbEntity
  8
GRAU_10_
 62
     7
  0
POLYLINE
  5
ED
330
1F
100
AcDbEntity
  8
GRAU_10_
 62
     7
100
AcDb2dPolyline
 66
     1
 10
0.0
 20
0.0
 30
0.0
  0
VERTEX
  5
EE
330
ED
100
AcDbEntity
  8
GRAU_10_
 62
     7
100
AcDbVertex
100
AcDb2dVertex
 10
124.6503235799485
 20
174.4123211206766
 30
0.0
  0
VERTEX
  5
EF
330
ED
100
AcDbEntity
  8
GRAU_10_
 62
     7
100
AcDbVertex
100
AcDb2dVertex
 10
124.6503235799485
 20
175.2067766760334
 30
0.0
  0
VERTEX
  5
F0
330
ED
100
AcDbEntity
  8
GRAU_10_
 62
     7
100
AcDbVertex
100
AcDb2dVertex
 10
124.6503235799485
 20
175.4219711204239
 30
0.0
  0
SEQEND
  5
F1
330
ED
100
AcDbEntity
  8
GRAU_10_
 62
     7
  0
POLYLINE
  5
F2
330
1F
100
AcDbEntity
  8
GRAU_10_
 62
     7
100
AcDb2dPolyline
 66
     1
 10
0.0
 20
0.0
 30
0.0
  0
VERTEX
  5
F3
330
F2
100
AcDbEntity
  8
GRAU_10_
 62
     7
100
AcDbVertex
100
AcDb2dVertex
 10
124.6503235799485
 20
176.4316211201718
 30
0.0
  0
VERTEX
  5
F4
330
F2
100
AcDbEntity
  8
GRAU_10_
 62
     7
100
AcDbVertex
100
AcDb2dVertex
 10
124.6503235799485
 20
176.7671127867543
 30
0.0
  0
VERTEX
  5
F5
330
F2
100
AcDbEntity
  8
GRAU_10_
 62
     7
100
AcDbVertex
100
AcDb2dVertex
 10
124.6503235799485
 20
177.4419766754746
 30
0.0
  0
SEQEND
  5
F6
330
F2
100
AcDbEntity
  8
GRAU_10_
 62
     7
  0
POLYLINE
  5
F7
330
1F
100
AcDbEntity
  8
GRAU_10_
 62
     7
100
AcDb2dPolyline
 66
     1
 10
0.0
 20
0.0
 30
0.0
  0
VERTEX
  5
F8
330
F7
100
AcDbEntity
  8
GRAU_10_
 62
     7
100
AcDbVertex
100
AcDb2dVertex
 10
124.6503235799485
 20
178.4516266752219
 30
0.0
  0
VERTEX
  5
F9
330
F7
100
AcDbEntity
  8
GRAU_10_
 62
     7
100
AcDbVertex
100
AcDb2dVertex
 10
124.6503235799485
 20
179.4619822305254
 30
0.0
  0
SEQEND
  5
FA
330
F7
100
AcDbEntity
  8
GRAU_10_
 62
     7
  0
POLYLINE
  5
FB
330
1F
100
AcDbEntity
  8
GRAU_10_
 62
     7
100
AcDb2dPolyline
 66
     1
 10
0.0
 20
0.0
 30
0.0
  0
VERTEX
  5
FC
330
FB
100
AcDbEntity
  8
GRAU_10_
 62
     7
100
AcDbVertex
100
AcDb2dVertex
 10
124.6503235799485
 20
180.4712794524949
 30
0.0
  0
VERTEX
  5
FD
330
FB
100
AcDbEntity
  8
GRAU_10_
 62
     7
100
AcDbVertex
100
AcDb2dVertex
 10
124.6503235799485
 20
181.4816350077981
 30
0.0
  0
SEQEND
  5
FE
330
FB
100
AcDbEntity
  8
GRAU_10_
 62
     7
  0
POLYLINE
  5
FF
330
1F
100
AcDbEntity
  8
GRAU_10_
 62
     7
100
AcDb2dPolyline
 66
     1
 10
0.0
 20
0.0
 30
0.0
  0
VERTEX
  5
100
330
FF
100
AcDbEntity
  8
GRAU_10_
 62
     7
100
AcDbVertex
100
AcDb2dVertex
 10
124.6503235799485
 20
182.4912850075457
 30
0.0
  0
VERTEX
  5
101
330
FF
100
AcDbEntity
  8
GRAU_10_
 62
     7
100
AcDbVertex
100
AcDb2dVertex
 10
124.6503235799485
 20
183.500935007293
 30
0.0
  0
SEQEND
  5
102
330
FF
100
AcDbEntity
  8
GRAU_10_
 62
     7
  0
POLYLINE
  5
103
330
1F
100
AcDbEntity
  8
GRAU_10_
 62
     7
100
AcDb2dPolyline
 66
     1
 10
0.0
 20
0.0
 30
0.0
  0
VERTEX
  5
104
330
103
100
AcDbEntity
  8
GRAU_10_
 62
     7
100
AcDbVertex
100
AcDb2dVertex
 10
124.6503235799485
 20
184.5112905625961
 30
0.0
  0
VERTEX
  5
105
330
103
100
AcDbEntity
  8
GRAU_10_
 62
     7
100
AcDbVertex
100
AcDb2dVertex
 10
124.6503235799485
 20
185.5209405623438
 30
0.0
  0
SEQEND
  5
106
330
103
100
AcDbEntity
  8
GRAU_10_
 62
     7
  0
POLYLINE
  5
107
330
1F
100
AcDbEntity
  8
GRAU_10_
 62
     7
100
AcDb2dPolyline
 66
     1
 10
0.0
 20
0.0
 30
0.0
  0
VERTEX
  5
108
330
107
100
AcDbEntity
  8
GRAU_10_
 62
     7
100
AcDbVertex
100
AcDb2dVertex
 10
124.6503235799485
 20
186.5309433398688
 30
0.0
  0
VERTEX
  5
109
330
107
100
AcDbEntity
  8
GRAU_10_
 62
     7
100
AcDbVertex
100
AcDb2dVertex
 10
124.6503235799485
 20
187.5405933396167
 30
0.0
  0
SEQEND
  5
10A
330
107
100
AcDbEntity
  8
GRAU_10_
 62
     7
  0
POLYLINE
  5
10B
330
1F
100
AcDbEntity
  8
GRAU_10_
 62
     7
100
AcDb2dPolyline
 66
     1
 10
0.0
 20
0.0
 30
0.0
  0
VERTEX
  5
10C
330
10B
100
AcDbEntity
  8
GRAU_10_
 62
     7
100
AcDbVertex
100
AcDb2dVertex
 10
124.6503235799485
 20
188.5509488949196
 30
0.0
  0
VERTEX
  5
10D
330
10B
100
AcDbEntity
  8
GRAU_10_
 62
     7
100
AcDbVertex
100
AcDb2dVertex
 10
124.6503235799485
 20
189.5602461168897
 30
0.0
  0
SEQEND
  5
10E
330
10B
100
AcDbEntity
  8
GRAU_10_
 62
     7
  0
POLYLINE
  5
10F
330
1F
100
AcDbEntity
  8
GRAU_10_
 62
     7
100
AcDb2dPolyline
 66
     1
 10
0.0
 20
0.0
 30
0.0
  0
VERTEX
  5
110
330
10F
100
AcDbEntity
  8
GRAU_10_
 62
     7
100
AcDbVertex
100
AcDb2dVertex
 10
124.6503235799485
 20
190.5706016721925
 30
0.0
  0
VERTEX
  5
111
330
10F
100
AcDbEntity
  8
GRAU_10_
 62
     7
100
AcDbVertex
100
AcDb2dVertex
 10
124.6503235799485
 20
191.5802516719398
 30
0.0
  0
SEQEND
  5
112
330
10F
100
AcDbEntity
  8
GRAU_10_
 62
     7
  0
POLYLINE
  5
113
330
1F
100
AcDbEntity
  8
GRAU_10_
 62
     7
100
AcDb2dPolyline
 66
     1
 10
0.0
 20
0.0
 30
0.0
  0
VERTEX
  5
114
330
113
100
AcDbEntity
  8
GRAU_10_
 62
     7
100
AcDbVertex
100
AcDb2dVertex
 10
124.6503235799485
 20
192.590607227243
 30
0.0
  0
VERTEX
  5
115
330
113
100
AcDbEntity
  8
GRAU_10_
 62
     7
100
AcDbVertex
100
AcDb2dVertex
 10
124.6503235799485
 20
193.6002572269906
 30
0.0
  0
SEQEND
  5
116
330
113
100
AcDbEntity
  8
GRAU_10_
 62
     7
  0
POLYLINE
  5
117
330
1F
100
AcDbEntity
  8
GRAU_10_
 62
     7
100
AcDb2dPolyline
 66
     1
 10
0.0
 20
0.0
 30
0.0
  0
VERTEX
  5
118
330
117
100
AcDbEntity
  8
GRAU_10_
 62
     7
100
AcDbVertex
100
AcDb2dVertex
 10
124.6503235799485
 20
194.6099072267382
 30
0.0
  0
VERTEX
  5
119
330
117
100
AcDbEntity
  8
GRAU_10_
 62
     7
100
AcDbVertex
100
AcDb2dVertex
 10
124.6503235799485
 20
195.6202627820414
 30
0.0
  0
SEQEND
  5
11A
330
117
100
AcDbEntity
  8
GRAU_10_
 62
     7
  0
POLYLINE
  5
11B
330
1F
100
AcDbEntity
  8
GRAU_10_
 62
     7
100
AcDb2dPolyline
 66
     1
 10
0.0
 20
0.0
 30
0.0
  0
VERTEX
  5
11C
330
11B
100
AcDbEntity
  8
GRAU_10_
 62
     7
100
AcDbVertex
100
AcDb2dVertex
 10
124.6503235799485
 20
196.6295600040109
 30
0.0
  0
VERTEX
  5
11D
330
11B
100
AcDbEntity
  8
GRAU_10_
 62
     7
100
AcDbVertex
100
AcDb2dVertex
 10
124.6503235799485
 20
197.639915559314
 30
0.0
  0
SEQEND
  5
11E
330
11B
100
AcDbEntity
  8
GRAU_10_
 62
     7
  0
POLYLINE
  5
11F
330
1F
100
AcDbEntity
  8
GRAU_10_
 62
     7
100
AcDb2dPolyline
 66
     1
 10
0.0
 20
0.0
 30
0.0
  0
VERTEX
  5
120
330
11F
100
AcDbEntity
  8
GRAU_10_
 62
     7
100
AcDbVertex
100
AcDb2dVertex
 10
124.6503235799485
 20
198.6495655590616
 30
0.0
  0
VERTEX
  5
121
330
11F
100
AcDbEntity
  8
GRAU_10_
 62
     7
100
AcDbVertex
100
AcDb2dVertex
 10
124.6503235799485
 20
199.324429447782
 30
0.0
  0
VERTEX
  5
122
330
11F
100
AcDbEntity
  8
GRAU_10_
 62
     7
100
AcDbVertex
100
AcDb2dVertex
 10
124.6503235799485
 20
199.6592155588089
 30
0.0
  0
SEQEND
  5
123
330
11F
100
AcDbEntity
  8
GRAU_10_
 62
     7
  0
POLYLINE
  5
124
330
1F
100
AcDbEntity
  8
GRAU_10_
 62
     7
100
AcDb2dPolyline
 66
     1
 10
0.0
 20
0.0
 30
0.0
  0
VERTEX
  5
125
330
124
100
AcDbEntity
  8
GRAU_10_
 62
     7
100
AcDbVertex
100
AcDb2dVertex
 10
124.6503235799485
 20
200.6695711141124
 30
0.0
  0
VERTEX
  5
126
330
124
100
AcDbEntity
  8
GRAU_10_
 62
     7
100
AcDbVertex
100
AcDb2dVertex
 10
124.6503235799485
 20
200.8847655585026
 30
0.0
  0
VERTEX
  5
127
330
124
100
AcDbEntity
  8
GRAU_10_
 62
     7
100
AcDbVertex
100
AcDb2dVertex
 10
124.6503235799485
 20
201.6792211138597
 30
0.0
  0
SEQEND
  5
128
330
124
100
AcDbEntity
  8
GRAU_10_
 62
     7
  0
POLYLINE
  5
129
330
1F
100
AcDbEntity
  8
GRAU_10_
 62
     7
100
AcDb2dPolyline
 66
     1
 10
0.0
 20
0.0
 30
0.0
  0
VERTEX
  5
12A
330
129
100
AcDbEntity
  8
GRAU_10_
 62
     7
100
AcDbVertex
100
AcDb2dVertex
 10
124.6503235799485
 20
202.6895766691625
 30
0.0
  0
VERTEX
  5
12B
330
129
100
AcDbEntity
  8
GRAU_10_
 62
     7
100
AcDbVertex
100
AcDb2dVertex
 10
124.6503235799485
 20
203.5694044467205
 30
0.0
  0
VERTEX
  5
12C
330
129
100
AcDbEntity
  8
GRAU_10_
 62
     7
100
AcDbVertex
100
AcDb2dVertex
 10
124.6503235799485
 20
203.6988738911327
 30
0.0
  0
SEQEND
  5
12D
330
129
100
AcDbEntity
  8
GRAU_10_
 62
     7
  0
POLYLINE
  5
12E
330
1F
100
AcDbEntity
  8
GRAU_10_
 62
     7
100
AcDb2dPolyline
 66
     1
 10
0.0
 20
0.0
 30
0.0
  0
VERTEX
  5
12F
330
12E
100
AcDbEntity
  8
GRAU_10_
 62
     7
100
AcDbVertex
100
AcDb2dVertex
 10
124.6503235799485
 20
204.7092294464355
 30
0.0
  0
VERTEX
  5
130
330
12E
100
AcDbEntity
  8
GRAU_10_
 62
     7
100
AcDbVertex
100
AcDb2dVertex
 10
124.6503235799485
 20
205.5745933351079
 30
0.0
  0
VERTEX
  5
131
330
12E
100
AcDbEntity
  8
GRAU_10_
 62
     7
100
AcDbVertex
100
AcDb2dVertex
 10
124.6503235799485
 20
205.7188794461831
 30
0.0
  0
SEQEND
  5
132
330
12E
100
AcDbEntity
  8
GRAU_10_
 62
     7
  0
POLYLINE
  5
133
330
1F
100
AcDbEntity
  8
GRAU_10_
 62
     7
100
AcDb2dPolyline
 66
     1
 10
0.0
 20
0.0
 30
0.0
  0
VERTEX
  5
134
330
133
100
AcDbEntity
  8
GRAU_10_
 62
     7
100
AcDbVertex
100
AcDb2dVertex
 10
124.6503235799485
 20
206.7288822237085
 30
0.0
  0
VERTEX
  5
135
330
133
100
AcDbEntity
  8
GRAU_10_
 62
     7
100
AcDbVertex
100
AcDb2dVertex
 10
124.6503235799485
 20
206.8142544459095
 30
0.0
  0
VERTEX
  5
136
330
133
100
AcDbEntity
  8
GRAU_10_
 62
     7
100
AcDbVertex
100
AcDb2dVertex
 10
124.6503235799485
 20
207.1285794458307
 30
0.0
  0
VERTEX
  5
137
330
133
100
AcDbEntity
  8
GRAU_10_
 62
     7
100
AcDbVertex
100
AcDb2dVertex
 10
124.6503235799485
 20
207.2337072235825
 30
0.0
  0
SEQEND
  5
138
330
133
100
AcDbEntity
  8
GRAU_10_
 62
     7
  0
POLYLINE
  5
139
330
1F
100
AcDbEntity
  8
GRAU_10_
 62
     7
100
AcDb2dPolyline
 66
     1
 10
0.0
 20
0.0
 30
0.0
  0
VERTEX
  5
13A
330
139
100
AcDbEntity
  8
GRAU_10_
 62
     7
100
AcDbVertex
100
AcDb2dVertex
 10
149.2678624626831
 20
208.9954794453638
 30
0.0
  0
VERTEX
  5
13B
330
139
100
AcDbEntity
  8
GRAU_10_
 62
     7
100
AcDbVertex
100
AcDb2dVertex
 10
148.0881735740891
 20
208.9954794453638
 30
0.0
  0
SEQEND
  5
13C
330
139
100
AcDbEntity
  8
GRAU_10_
 62
     7
  0
POLYLINE
  5
13D
330
1F
100
AcDbEntity
  8
GRAU_10_
 62
     7
100
AcDb2dPolyline
 66
     1
 10
0.0
 20
0.0
 30
0.0
  0
VERTEX
  5
13E
330
13D
100
AcDbEntity
  8
GRAU_10_
 62
     7
100
AcDbVertex
100
AcDb2dVertex
 10
148.0881735740891
 20
167.0960627891722
 30
0.0
  0
VERTEX
  5
13F
330
13D
100
AcDbEntity
  8
GRAU_10_
 62
     7
100
AcDbVertex
100
AcDb2dVertex
 10
149.2678624626831
 20
167.0960627891722
 30
0.0
  0
VERTEX
  5
140
330
13D
100
AcDbEntity
  8
GRAU_10_
 62
     7
100
AcDbVertex
100
AcDb2dVertex
 10
149.2678624626831
 20
167.2029544558124
 30
0.0
  0
VERTEX
  5
141
330
13D
100
AcDbEntity
  8
GRAU_10_
 62
     7
100
AcDbVertex
100
AcDb2dVertex
 10
149.2678624626831
 20
167.5246877890651
 30
0.0
  0
VERTEX
  5
142
330
13D
100
AcDbEntity
  8
GRAU_10_
 62
     7
100
AcDbVertex
100
AcDb2dVertex
 10
149.2678624626831
 20
168.0563239000435
 30
0.0
  0
VERTEX
  5
143
330
13D
100
AcDbEntity
  8
GRAU_10_
 62
     7
100
AcDbVertex
100
AcDb2dVertex
 10
149.2678624626831
 20
168.7936294554147
 30
0.0
  0
VERTEX
  5
144
330
13D
100
AcDbEntity
  8
GRAU_10_
 62
     7
100
AcDbVertex
100
AcDb2dVertex
 10
149.2678624626831
 20
169.728490566292
 30
0.0
  0
VERTEX
  5
145
330
13D
100
AcDbEntity
  8
GRAU_10_
 62
     7
100
AcDbVertex
100
AcDb2dVertex
 10
149.2678624626831
 20
170.8510294549002
 30
0.0
  0
VERTEX
  5
146
330
13D
100
AcDbEntity
  8
GRAU_10_
 62
     7
100
AcDbVertex
100
AcDb2dVertex
 10
149.2678624626831
 20
172.1499572323531
 30
0.0
  0
VERTEX
  5
147
330
13D
100
AcDbEntity
  8
GRAU_10_
 62
     7
100
AcDbVertex
100
AcDb2dVertex
 10
149.2678624626831
 20
173.6122211208766
 30
0.0
  0
VERTEX
  5
148
330
13D
100
AcDbEntity
  8
GRAU_10_
 62
     7
100
AcDbVertex
100
AcDb2dVertex
 10
149.2678624626831
 20
175.2219461204742
 30
0.0
  0
VERTEX
  5
149
330
13D
100
AcDbEntity
  8
GRAU_10_
 62
     7
100
AcDbVertex
100
AcDb2dVertex
 10
149.2678624626831
 20
176.9639627867054
 30
0.0
  0
VERTEX
  5
14A
330
13D
100
AcDbEntity
  8
GRAU_10_
 62
     7
100
AcDbVertex
100
AcDb2dVertex
 10
149.2678624626831
 20
178.8192211195749
 30
0.0
  0
VERTEX
  5
14B
330
13D
100
AcDbEntity
  8
GRAU_10_
 62
     7
100
AcDbVertex
100
AcDb2dVertex
 10
149.2678624626831
 20
180.7697294524205
 30
0.0
  0
VERTEX
  5
14C
330
13D
100
AcDbEntity
  8
GRAU_10_
 62
     7
100
AcDbVertex
100
AcDb2dVertex
 10
149.2678624626831
 20
182.7946738963586
 30
0.0
  0
VERTEX
  5
14D
330
13D
100
AcDbEntity
  8
GRAU_10_
 62
     7
100
AcDbVertex
100
AcDb2dVertex
 10
149.2678624626831
 20
184.8735933402833
 30
0.0
  0
VERTEX
  5
14E
330
13D
100
AcDbEntity
  8
GRAU_10_
 62
     7
100
AcDbVertex
100
AcDb2dVertex
 10
149.2678624626831
 20
186.9846155619776
 30
0.0
  0
VERTEX
  5
14F
330
13D
100
AcDbEntity
  8
GRAU_10_
 62
     7
100
AcDbVertex
100
AcDb2dVertex
 10
149.2678624626831
 20
189.1069266725584
 30
0.0
  0
VERTEX
  5
150
330
13D
100
AcDbEntity
  8
GRAU_10_
 62
     7
100
AcDbVertex
100
AcDb2dVertex
 10
149.2678624626831
 20
191.2179488942526
 30
0.0
  0
VERTEX
  5
151
330
13D
100
AcDbEntity
  8
GRAU_10_
 62
     7
100
AcDbVertex
100
AcDb2dVertex
 10
149.2678624626831
 20
193.2968683381773
 30
0.0
  0
VERTEX
  5
152
330
13D
100
AcDbEntity
  8
GRAU_10_
 62
     7
100
AcDbVertex
100
AcDb2dVertex
 10
149.2678624626831
 20
195.3218127821158
 30
0.0
  0
VERTEX
  5
153
330
13D
100
AcDbEntity
  8
GRAU_10_
 62
     7
100
AcDbVertex
100
AcDb2dVertex
 10
149.2678624626831
 20
197.2723211149614
 30
0.0
  0
VERTEX
  5
154
330
13D
100
AcDbEntity
  8
GRAU_10_
 62
     7
100
AcDbVertex
100
AcDb2dVertex
 10
149.2678624626831
 20
199.1275794478309
 30
0.0
  0
VERTEX
  5
155
330
13D
100
AcDbEntity
  8
GRAU_10_
 62
     7
100
AcDbVertex
100
AcDb2dVertex
 10
149.2678624626831
 20
200.8695961140621
 30
0.0
  0
VERTEX
  5
156
330
13D
100
AcDbEntity
  8
GRAU_10_
 62
     7
100
AcDbVertex
100
AcDb2dVertex
 10
149.2678624626831
 20
202.4793211136597
 30
0.0
  0
VERTEX
  5
157
330
13D
100
AcDbEntity
  8
GRAU_10_
 62
     7
100
AcDbVertex
100
AcDb2dVertex
 10
149.2678624626831
 20
203.9415850021832
 30
0.0
  0
VERTEX
  5
158
330
13D
100
AcDbEntity
  8
GRAU_10_
 62
     7
100
AcDbVertex
100
AcDb2dVertex
 10
149.2678624626831
 20
205.2405127796361
 30
0.0
  0
VERTEX
  5
159
330
13D
100
AcDbEntity
  8
GRAU_10_
 62
     7
100
AcDbVertex
100
AcDb2dVertex
 10
149.2678624626831
 20
206.3630516682443
 30
0.0
  0
VERTEX
  5
15A
330
13D
100
AcDbEntity
  8
GRAU_10_
 62
     7
100
AcDbVertex
100
AcDb2dVertex
 10
149.2678624626831
 20
207.2979127791216
 30
0.0
  0
VERTEX
  5
15B
330
13D
100
AcDbEntity
  8
GRAU_10_
 62
     7
100
AcDbVertex
100
AcDb2dVertex
 10
149.2678624626831
 20
208.0352183344929
 30
0.0
  0
VERTEX
  5
15C
330
13D
100
AcDbEntity
  8
GRAU_10_
 62
     7
100
AcDbVertex
100
AcDb2dVertex
 10
149.2678624626831
 20
208.5668544454709
 30
0.0
  0
VERTEX
  5
15D
330
13D
100
AcDbEntity
  8
GRAU_10_
 62
     7
100
AcDbVertex
100
AcDb2dVertex
 10
149.2678624626831
 20
208.8885877787239
 30
0.0
  0
VERTEX
  5
15E
330
13D
100
AcDbEntity
  8
GRAU_10_
 62
     7
100
AcDbVertex
100
AcDb2dVertex
 10
149.2678624626831
 20
208.9954794453638
 30
0.0
  0
SEQEND
  5
15F
330
13D
100
AcDbEntity
  8
GRAU_10_
 62
     7
  0
POLYLINE
  5
160
330
1F
100
AcDbEntity
  8
GRAU_10_
 62
     7
100
AcDb2dPolyline
 66
     1
 10
0.0
 20
0.0
 30
0.0
  0
VERTEX
  5
161
330
160
100
AcDbEntity
  8
GRAU_10_
 62
     7
100
AcDbVertex
100
AcDb2dVertex
 10
149.2678624626831
 20
167.0960627891722
 30
0.0
  0
VERTEX
  5
162
330
160
100
AcDbEntity
  8
GRAU_10_
 62
     7
100
AcDbVertex
100
AcDb2dVertex
 10
150.5382152401435
 20
169.2959850108444
 30
0.0
  0
SEQEND
  5
163
330
160
100
AcDbEntity
  8
GRAU_10_
 62
     7
  0
POLYLINE
  5
164
330
1F
100
AcDbEntity
  8
GRAU_10_
 62
     7
100
AcDb2dPolyline
 66
     1
 10
0.0
 20
0.0
 30
0.0
  0
VERTEX
  5
165
330
164
100
AcDbEntity
  8
GRAU_10_
 62
     7
100
AcDbVertex
100
AcDb2dVertex
 10
150.5382152401435
 20
206.7955572236919
 30
0.0
  0
VERTEX
  5
166
330
164
100
AcDbEntity
  8
GRAU_10_
 62
     7
100
AcDbVertex
100
AcDb2dVertex
 10
149.2678624626831
 20
208.9954794453638
 30
0.0
  0
SEQEND
  5
167
330
164
100
AcDbEntity
  8
GRAU_10_
 62
     7
  0
POLYLINE
  5
168
330
1F
100
AcDbEntity
  8
GRAU_10_
 62
     7
100
AcDb2dPolyline
 66
     1
 10
0.0
 20
0.0
 30
0.0
  0
VERTEX
  5
169
330
168
100
AcDbEntity
  8
GRAU_10_
 62
     7
100
AcDbVertex
100
AcDb2dVertex
 10
150.5382152401435
 20
191.5481488941703
 30
0.0
  0
VERTEX
  5
16A
330
168
100
AcDbEntity
  8
GRAU_10_
 62
     7
100
AcDbVertex
100
AcDb2dVertex
 10
150.5382152401435
 20
193.5833238936613
 30
0.0
  0
VERTEX
  5
16B
330
168
100
AcDbEntity
  8
GRAU_10_
 62
     7
100
AcDbVertex
100
AcDb2dVertex
 10
150.5382152401435
 20
195.5490016709477
 30
0.0
  0
VERTEX
  5
16C
330
168
100
AcDbEntity
  8
GRAU_10_
 62
     7
100
AcDbVertex
100
AcDb2dVertex
 10
150.5382152401435
 20
197.420487781591
 30
0.0
  0
VERTEX
  5
16D
330
168
100
AcDbEntity
  8
GRAU_10_
 62
     7
100
AcDbVertex
100
AcDb2dVertex
 10
150.5382152401435
 20
199.1752044478191
 30
0.0
  0
VERTEX
  5
16E
330
168
100
AcDbEntity
  8
GRAU_10_
 62
     7
100
AcDbVertex
100
AcDb2dVertex
 10
150.5382152401435
 20
200.7909266696373
 30
0.0
  0
VERTEX
  5
16F
330
168
100
AcDbEntity
  8
GRAU_10_
 62
     7
100
AcDbVertex
100
AcDb2dVertex
 10
150.5382152401435
 20
202.2468405581624
 30
0.0
  0
SEQEND
  5
170
330
168
100
AcDbEntity
  8
GRAU_10_
 62
     7
  0
POLYLINE
  5
171
330
1F
100
AcDbEntity
  8
GRAU_10_
 62
     7
100
AcDb2dPolyline
 66
     1
 10
0.0
 20
0.0
 30
0.0
  0
VERTEX
  5
172
330
171
100
AcDbEntity
  8
GRAU_10_
 62
     7
100
AcDbVertex
100
AcDb2dVertex
 10
150.5382152401435
 20
184.5433933403657
 30
0.0
  0
VERTEX
  5
173
330
171
100
AcDbEntity
  8
GRAU_10_
 62
     7
100
AcDbVertex
100
AcDb2dVertex
 10
150.5382152401435
 20
186.8720794508948
 30
0.0
  0
VERTEX
  5
174
330
171
100
AcDbEntity
  8
GRAU_10_
 62
     7
100
AcDbVertex
100
AcDb2dVertex
 10
150.5382152401435
 20
189.2194627836415
 30
0.0
  0
VERTEX
  5
175
330
171
100
AcDbEntity
  8
GRAU_10_
 62
     7
100
AcDbVertex
100
AcDb2dVertex
 10
150.5382152401435
 20
191.5481488941703
 30
0.0
  0
SEQEND
  5
176
330
171
100
AcDbEntity
  8
GRAU_10_
 62
     7
  0
POLYLINE
  5
177
330
1F
100
AcDbEntity
  8
GRAU_10_
 62
     7
100
AcDb2dPolyline
 66
     1
 10
0.0
 20
0.0
 30
0.0
  0
VERTEX
  5
178
330
177
100
AcDbEntity
  8
GRAU_10_
 62
     7
100
AcDbVertex
100
AcDb2dVertex
 10
150.5382152401435
 20
173.8447016763739
 30
0.0
  0
VERTEX
  5
179
330
177
100
AcDbEntity
  8
GRAU_10_
 62
     7
100
AcDbVertex
100
AcDb2dVertex
 10
150.5382152401435
 20
175.300615564899
 30
0.0
  0
VERTEX
  5
17A
330
177
100
AcDbEntity
  8
GRAU_10_
 62
     7
100
AcDbVertex
100
AcDb2dVertex
 10
150.5382152401435
 20
176.9163377867173
 30
0.0
  0
VERTEX
  5
17B
330
177
100
AcDbEntity
  8
GRAU_10_
 62
     7
100
AcDbVertex
100
AcDb2dVertex
 10
150.5382152401435
 20
178.6707016751675
 30
0.0
  0
VERTEX
  5
17C
330
177
100
AcDbEntity
  8
GRAU_10_
 62
     7
100
AcDbVertex
100
AcDb2dVertex
 10
150.5382152401435
 20
180.5425405635883
 30
0.0
  0
VERTEX
  5
17D
330
177
100
AcDbEntity
  8
GRAU_10_
 62
     7
100
AcDbVertex
100
AcDb2dVertex
 10
150.5382152401435
 20
182.5082183408747
 30
0.0
  0
VERTEX
  5
17E
330
177
100
AcDbEntity
  8
GRAU_10_
 62
     7
100
AcDbVertex
100
AcDb2dVertex
 10
150.5382152401435
 20
184.5433933403657
 30
0.0
  0
SEQEND
  5
17F
330
177
100
AcDbEntity
  8
GRAU_10_
 62
     7
  0
POLYLINE
  5
180
330
1F
100
AcDbEntity
  8
GRAU_10_
 62
     7
100
AcDb2dPolyline
 66
     1
 10
0.0
 20
0.0
 30
0.0
  0
VERTEX
  5
181
330
180
100
AcDbEntity
  8
GRAU_10_
 62
     7
100
AcDbVertex
100
AcDb2dVertex
 10
150.5382152401435
 20
170.3423238994718
 30
0.0
  0
VERTEX
  5
182
330
180
100
AcDbEntity
  8
GRAU_10_
 62
     7
100
AcDbVertex
100
AcDb2dVertex
 10
150.5382152401435
 20
171.2528433436887
 30
0.0
  0
VERTEX
  5
183
330
180
100
AcDbEntity
  8
GRAU_10_
 62
     7
100
AcDbVertex
100
AcDb2dVertex
 10
150.5382152401435
 20
172.4265350100617
 30
0.0
  0
VERTEX
  5
184
330
180
100
AcDbEntity
  8
GRAU_10_
 62
     7
100
AcDbVertex
100
AcDb2dVertex
 10
150.5382152401435
 20
173.8447016763739
 30
0.0
  0
SEQEND
  5
185
330
180
100
AcDbEntity
  8
GRAU_10_
 62
     7
  0
POLYLINE
  5
186
330
1F
100
AcDbEntity
  8
GRAU_10_
 62
     7
100
AcDb2dPolyline
 66
     1
 10
0.0
 20
0.0
 30
0.0
  0
VERTEX
  5
187
330
186
100
AcDbEntity
  8
GRAU_10_
 62
     7
100
AcDbVertex
100
AcDb2dVertex
 10
150.5382152401435
 20
169.2959850108444
 30
0.0
  0
VERTEX
  5
188
330
186
100
AcDbEntity
  8
GRAU_10_
 62
     7
100
AcDbVertex
100
AcDb2dVertex
 10
150.5382152401435
 20
169.4131072330374
 30
0.0
  0
VERTEX
  5
189
330
186
100
AcDbEntity
  8
GRAU_10_
 62
     7
100
AcDbVertex
100
AcDb2dVertex
 10
150.5382152401435
 20
169.7630627885056
 30
0.0
  0
VERTEX
  5
18A
330
186
100
AcDbEntity
  8
GRAU_10_
 62
     7
100
AcDbVertex
100
AcDb2dVertex
 10
150.5382152401435
 20
170.3423238994718
 30
0.0
  0
SEQEND
  5
18B
330
186
100
AcDbEntity
  8
GRAU_10_
 62
     7
  0
POLYLINE
  5
18C
330
1F
100
AcDbEntity
  8
GRAU_10_
 62
     7
100
AcDb2dPolyline
 66
     1
 10
0.0
 20
0.0
 30
0.0
  0
VERTEX
  5
18D
330
18C
100
AcDbEntity
  8
GRAU_10_
 62
     7
100
AcDbVertex
100
AcDb2dVertex
 10
150.5382152401435
 20
205.7492183350645
 30
0.0
  0
VERTEX
  5
18E
330
18C
100
AcDbEntity
  8
GRAU_10_
 62
     7
100
AcDbVertex
100
AcDb2dVertex
 10
150.5382152401435
 20
206.3277738904752
 30
0.0
  0
VERTEX
  5
18F
330
18C
100
AcDbEntity
  8
GRAU_10_
 62
     7
100
AcDbVertex
100
AcDb2dVertex
 10
150.5382152401435
 20
206.6784350014989
 30
0.0
  0
VERTEX
  5
190
330
18C
100
AcDbEntity
  8
GRAU_10_
 62
     7
100
AcDbVertex
100
AcDb2dVertex
 10
150.5382152401435
 20
206.7955572236919
 30
0.0
  0
SEQEND
  5
191
330
18C
100
AcDbEntity
  8
GRAU_10_
 62
     7
  0
POLYLINE
  5
192
330
1F
100
AcDbEntity
  8
GRAU_10_
 62
     7
100
AcDb2dPolyline
 66
     1
 10
0.0
 20
0.0
 30
0.0
  0
VERTEX
  5
193
330
192
100
AcDbEntity
  8
GRAU_10_
 62
     7
100
AcDbVertex
100
AcDb2dVertex
 10
150.5382152401435
 20
202.2468405581624
 30
0.0
  0
VERTEX
  5
194
330
192
100
AcDbEntity
  8
GRAU_10_
 62
     7
100
AcDbVertex
100
AcDb2dVertex
 10
150.5382152401435
 20
203.6650072244746
 30
0.0
  0
VERTEX
  5
195
330
192
100
AcDbEntity
  8
GRAU_10_
 62
     7
100
AcDbVertex
100
AcDb2dVertex
 10
150.5382152401435
 20
204.8383461130699
 30
0.0
  0
VERTEX
  5
196
330
192
100
AcDbEntity
  8
GRAU_10_
 62
     7
100
AcDbVertex
100
AcDb2dVertex
 10
150.5382152401435
 20
205.7492183350645
 30
0.0
  0
SEQEND
  5
197
330
192
100
AcDbEntity
  8
GRAU_10_
 62
     7
  0
POLYLINE
  5
198
330
1F
100
AcDbEntity
  8
GRAU_10_
 62
     7
100
AcDb2dPolyline
 66
     1
 10
0.0
 20
0.0
 30
0.0
  0
VERTEX
  5
199
330
198
100
AcDbEntity
  8
GRAU_10_
 62
     7
100
AcDbVertex
100
AcDb2dVertex
 10
132.0385485781016
 20
208.2955683344279
 30
0.0
  0
VERTEX
  5
19A
330
198
100
AcDbEntity
  8
GRAU_10_
 62
     7
100
AcDbVertex
100
AcDb2dVertex
 10
131.8850902448068
 20
208.0302794456055
 30
0.0
  0
SEQEND
  5
19B
330
198
100
AcDbEntity
  8
GRAU_10_
 62
     7
  0
POLYLINE
  5
19C
330
1F
100
AcDbEntity
  8
GRAU_10_
 62
     7
100
AcDb2dPolyline
 66
     1
 10
0.0
 20
0.0
 30
0.0
  0
VERTEX
  5
19D
330
19C
100
AcDbEntity
  8
GRAU_10_
 62
     7
100
AcDbVertex
100
AcDb2dVertex
 10
131.5781735782169
 20
207.4993488901823
 30
0.0
  0
VERTEX
  5
19E
330
19C
100
AcDbEntity
  8
GRAU_10_
 62
     7
100
AcDbVertex
100
AcDb2dVertex
 10
131.425420800477
 20
207.2337072235825
 30
0.0
  0
SEQEND
  5
19F
330
19C
100
AcDbEntity
  8
GRAU_10_
 62
     7
  0
POLYLINE
  5
1A0
330
1F
100
AcDbEntity
  8
GRAU_10_
 62
     7
100
AcDb2dPolyline
 66
     1
 10
0.0
 20
0.0
 30
0.0
  0
VERTEX
  5
1A1
330
1A0
100
AcDbEntity
  8
GRAU_10_
 62
     7
100
AcDbVertex
100
AcDb2dVertex
 10
131.425420800477
 20
168.8578350109538
 30
0.0
  0
VERTEX
  5
1A2
330
1A0
100
AcDbEntity
  8
GRAU_10_
 62
     7
100
AcDbVertex
100
AcDb2dVertex
 10
131.5781735782169
 20
168.5921933443537
 30
0.0
  0
SEQEND
  5
1A3
330
1A0
100
AcDbEntity
  8
GRAU_10_
 62
     7
  0
POLYLINE
  5
1A4
330
1F
100
AcDbEntity
  8
GRAU_10_
 62
     7
100
AcDb2dPolyline
 66
     1
 10
0.0
 20
0.0
 30
0.0
  0
VERTEX
  5
1A5
330
1A4
100
AcDbEntity
  8
GRAU_10_
 62
     7
100
AcDbVertex
100
AcDb2dVertex
 10
131.8850902448068
 20
168.0612627889308
 30
0.0
  0
VERTEX
  5
1A6
330
1A4
100
AcDbEntity
  8
GRAU_10_
 62
     7
100
AcDbVertex
100
AcDb2dVertex
 10
132.0385485781016
 20
167.7956211223307
 30
0.0
  0
VERTEX
  5
1A7
330
1A4
100
AcDbEntity
  8
GRAU_10_
 62
     7
100
AcDbVertex
100
AcDb2dVertex
 10
132.0385485781016
 20
167.8996905667491
 30
0.0
  0
VERTEX
  5
1A8
330
1A4
100
AcDbEntity
  8
GRAU_10_
 62
     7
100
AcDbVertex
100
AcDb2dVertex
 10
132.0385485781016
 20
168.2104877888937
 30
0.0
  0
VERTEX
  5
1A9
330
1A4
100
AcDbEntity
  8
GRAU_10_
 62
     7
100
AcDbVertex
100
AcDb2dVertex
 10
132.0385485781016
 20
168.3022100110931
 30
0.0
  0
SEQEND
  5
1AA
330
1A4
100
AcDbEntity
  8
GRAU_10_
 62
     7
  0
POLYLINE
  5
1AB
330
1F
100
AcDbEntity
  8
GRAU_10_
 62
     7
100
AcDb2dPolyline
 66
     1
 10
0.0
 20
0.0
 30
0.0
  0
VERTEX
  5
1AC
330
1AB
100
AcDbEntity
  8
GRAU_10_
 62
     7
100
AcDbVertex
100
AcDb2dVertex
 10
132.0385485781016
 20
169.3146822330619
 30
0.0
  0
VERTEX
  5
1AD
330
1AB
100
AcDbEntity
  8
GRAU_10_
 62
     7
100
AcDbVertex
100
AcDb2dVertex
 10
132.0385485781016
 20
169.4367433441426
 30
0.0
  0
VERTEX
  5
1AE
330
1AB
100
AcDbEntity
  8
GRAU_10_
 62
     7
100
AcDbVertex
100
AcDb2dVertex
 10
132.0385485781016
 20
170.3271544550313
 30
0.0
  0
SEQEND
  5
1AF
330
1AB
100
AcDbEntity
  8
GRAU_10_
 62
     7
  0
POLYLINE
  5
1B0
330
1F
100
AcDbEntity
  8
GRAU_10_
 62
     7
100
AcDb2dPolyline
 66
     1
 10
0.0
 20
0.0
 30
0.0
  0
VERTEX
  5
1B1
330
1B0
100
AcDbEntity
  8
GRAU_10_
 62
     7
100
AcDbVertex
100
AcDb2dVertex
 10
132.0385485781016
 20
171.339626677
 30
0.0
  0
VERTEX
  5
1B2
330
1B0
100
AcDbEntity
  8
GRAU_10_
 62
     7
100
AcDbVertex
100
AcDb2dVertex
 10
132.0385485781016
 20
171.4249988992009
 30
0.0
  0
VERTEX
  5
1B3
330
1B0
100
AcDbEntity
  8
GRAU_10_
 62
     7
100
AcDbVertex
100
AcDb2dVertex
 10
132.0385485781016
 20
172.3520988989694
 30
0.0
  0
SEQEND
  5
1B4
330
1B0
100
AcDbEntity
  8
GRAU_10_
 62
     7
  0
POLYLINE
  5
1B5
330
1F
100
AcDbEntity
  8
GRAU_10_
 62
     7
100
AcDb2dPolyline
 66
     1
 10
0.0
 20
0.0
 30
0.0
  0
VERTEX
  5
1B6
330
1B5
100
AcDbEntity
  8
GRAU_10_
 62
     7
100
AcDbVertex
100
AcDb2dVertex
 10
132.0385485781016
 20
173.3645711209385
 30
0.0
  0
VERTEX
  5
1B7
330
1B5
100
AcDbEntity
  8
GRAU_10_
 62
     7
100
AcDbVertex
100
AcDb2dVertex
 10
132.0385485781016
 20
174.0941155652006
 30
0.0
  0
VERTEX
  5
1B8
330
1B5
100
AcDbEntity
  8
GRAU_10_
 62
     7
100
AcDbVertex
100
AcDb2dVertex
 10
132.0385485781016
 20
174.3770433429075
 30
0.0
  0
SEQEND
  5
1B9
330
1B5
100
AcDbEntity
  8
GRAU_10_
 62
     7
  0
POLYLINE
  5
1BA
330
1F
100
AcDbEntity
  8
GRAU_10_
 62
     7
100
AcDb2dPolyline
 66
     1
 10
0.0
 20
0.0
 30
0.0
  0
VERTEX
  5
1BB
330
1BA
100
AcDbEntity
  8
GRAU_10_
 62
     7
100
AcDbVertex
100
AcDb2dVertex
 10
132.0385485781016
 20
175.3895155648766
 30
0.0
  0
VERTEX
  5
1BC
330
1BA
100
AcDbEntity
  8
GRAU_10_
 62
     7
100
AcDbVertex
100
AcDb2dVertex
 10
132.0385485781016
 20
175.6509238981446
 30
0.0
  0
VERTEX
  5
1BD
330
1BA
100
AcDbEntity
  8
GRAU_10_
 62
     7
100
AcDbVertex
100
AcDb2dVertex
 10
132.0385485781016
 20
176.4023405646234
 30
0.0
  0
SEQEND
  5
1BE
330
1BA
100
AcDbEntity
  8
GRAU_10_
 62
     7
  0
POLYLINE
  5
1BF
330
1F
100
AcDbEntity
  8
GRAU_10_
 62
     7
100
AcDb2dPolyline
 66
     1
 10
0.0
 20
0.0
 30
0.0
  0
VERTEX
  5
1C0
330
1BF
100
AcDbEntity
  8
GRAU_10_
 62
     7
100
AcDbVertex
100
AcDb2dVertex
 10
132.0385485781016
 20
177.4148127865925
 30
0.0
  0
VERTEX
  5
1C1
330
1BF
100
AcDbEntity
  8
GRAU_10_
 62
     7
100
AcDbVertex
100
AcDb2dVertex
 10
132.0385485781016
 20
178.4272850085615
 30
0.0
  0
SEQEND
  5
1C2
330
1BF
100
AcDbEntity
  8
GRAU_10_
 62
     7
  0
POLYLINE
  5
1C3
330
1F
100
AcDbEntity
  8
GRAU_10_
 62
     7
100
AcDb2dPolyline
 66
     1
 10
0.0
 20
0.0
 30
0.0
  0
VERTEX
  5
1C4
330
1C3
100
AcDbEntity
  8
GRAU_10_
 62
     7
100
AcDbVertex
100
AcDb2dVertex
 10
132.0385485781016
 20
179.4397572305309
 30
0.0
  0
VERTEX
  5
1C5
330
1C3
100
AcDbEntity
  8
GRAU_10_
 62
     7
100
AcDbVertex
100
AcDb2dVertex
 10
132.0385485781016
 20
180.4522294524997
 30
0.0
  0
SEQEND
  5
1C6
330
1C3
100
AcDbEntity
  8
GRAU_10_
 62
     7
  0
POLYLINE
  5
1C7
330
1F
100
AcDbEntity
  8
GRAU_10_
 62
     7
100
AcDb2dPolyline
 66
     1
 10
0.0
 20
0.0
 30
0.0
  0
VERTEX
  5
1C8
330
1C7
100
AcDbEntity
  8
GRAU_10_
 62
     7
100
AcDbVertex
100
AcDb2dVertex
 10
132.0385485781016
 20
181.4647016744691
 30
0.0
  0
VERTEX
  5
1C9
330
1C7
100
AcDbEntity
  8
GRAU_10_
 62
     7
100
AcDbVertex
100
AcDb2dVertex
 10
132.0385485781016
 20
182.4771738964378
 30
0.0
  0
SEQEND
  5
1CA
330
1C7
100
AcDbEntity
  8
GRAU_10_
 62
     7
  0
POLYLINE
  5
1CB
330
1F
100
AcDbEntity
  8
GRAU_10_
 62
     7
100
AcDb2dPolyline
 66
     1
 10
0.0
 20
0.0
 30
0.0
  0
VERTEX
  5
1CC
330
1CB
100
AcDbEntity
  8
GRAU_10_
 62
     7
100
AcDbVertex
100
AcDb2dVertex
 10
132.0385485781016
 20
183.4896461184072
 30
0.0
  0
VERTEX
  5
1CD
330
1CB
100
AcDbEntity
  8
GRAU_10_
 62
     7
100
AcDbVertex
100
AcDb2dVertex
 10
132.0385485781016
 20
184.5021183403763
 30
0.0
  0
SEQEND
  5
1CE
330
1CB
100
AcDbEntity
  8
GRAU_10_
 62
     7
  0
POLYLINE
  5
1CF
330
1F
100
AcDbEntity
  8
GRAU_10_
 62
     7
100
AcDb2dPolyline
 66
     1
 10
0.0
 20
0.0
 30
0.0
  0
VERTEX
  5
1D0
330
1CF
100
AcDbEntity
  8
GRAU_10_
 62
     7
100
AcDbVertex
100
AcDb2dVertex
 10
132.0385485781016
 20
185.5142377845676
 30
0.0
  0
VERTEX
  5
1D1
330
1CF
100
AcDbEntity
  8
GRAU_10_
 62
     7
100
AcDbVertex
100
AcDb2dVertex
 10
132.0385485781016
 20
186.5267100065369
 30
0.0
  0
SEQEND
  5
1D2
330
1CF
100
AcDbEntity
  8
GRAU_10_
 62
     7
  0
POLYLINE
  5
1D3
330
1F
100
AcDbEntity
  8
GRAU_10_
 62
     7
100
AcDb2dPolyline
 66
     1
 10
0.0
 20
0.0
 30
0.0
  0
VERTEX
  5
1D4
330
1D3
100
AcDbEntity
  8
GRAU_10_
 62
     7
100
AcDbVertex
100
AcDb2dVertex
 10
132.0385485781016
 20
187.5391822285057
 30
0.0
  0
VERTEX
  5
1D5
330
1D3
100
AcDbEntity
  8
GRAU_10_
 62
     7
100
AcDbVertex
100
AcDb2dVertex
 10
132.0385485781016
 20
188.5516544504751
 30
0.0
  0
SEQEND
  5
1D6
330
1D3
100
AcDbEntity
  8
GRAU_10_
 62
     7
  0
POLYLINE
  5
1D7
330
1F
100
AcDbEntity
  8
GRAU_10_
 62
     7
100
AcDb2dPolyline
 66
     1
 10
0.0
 20
0.0
 30
0.0
  0
VERTEX
  5
1D8
330
1D7
100
AcDbEntity
  8
GRAU_10_
 62
     7
100
AcDbVertex
100
AcDb2dVertex
 10
132.0385485781016
 20
189.5648322279993
 30
0.0
  0
VERTEX
  5
1D9
330
1D7
100
AcDbEntity
  8
GRAU_10_
 62
     7
100
AcDbVertex
100
AcDb2dVertex
 10
132.0385485781016
 20
190.576951672191
 30
0.0
  0
SEQEND
  5
1DA
330
1D7
100
AcDbEntity
  8
GRAU_10_
 62
     7
  0
POLYLINE
  5
1DB
330
1F
100
AcDbEntity
  8
GRAU_10_
 62
     7
100
AcDb2dPolyline
 66
     1
 10
0.0
 20
0.0
 30
0.0
  0
VERTEX
  5
1DC
330
1DB
100
AcDbEntity
  8
GRAU_10_
 62
     7
100
AcDbVertex
100
AcDb2dVertex
 10
132.0385485781016
 20
191.5894238941597
 30
0.0
  0
VERTEX
  5
1DD
330
1DB
100
AcDbEntity
  8
GRAU_10_
 62
     7
100
AcDbVertex
100
AcDb2dVertex
 10
132.0385485781016
 20
192.6018961161291
 30
0.0
  0
SEQEND
  5
1DE
330
1DB
100
AcDbEntity
  8
GRAU_10_
 62
     7
  0
POLYLINE
  5
1DF
330
1F
100
AcDbEntity
  8
GRAU_10_
 62
     7
100
AcDb2dPolyline
 66
     1
 10
0.0
 20
0.0
 30
0.0
  0
VERTEX
  5
1E0
330
1DF
100
AcDbEntity
  8
GRAU_10_
 62
     7
100
AcDbVertex
100
AcDb2dVertex
 10
132.0385485781016
 20
193.6143683380982
 30
0.0
  0
VERTEX
  5
1E1
330
1DF
100
AcDbEntity
  8
GRAU_10_
 62
     7
100
AcDbVertex
100
AcDb2dVertex
 10
132.0385485781016
 20
194.6268405600672
 30
0.0
  0
SEQEND
  5
1E2
330
1DF
100
AcDbEntity
  8
GRAU_10_
 62
     7
  0
POLYLINE
  5
1E3
330
1F
100
AcDbEntity
  8
GRAU_10_
 62
     7
100
AcDb2dPolyline
 66
     1
 10
0.0
 20
0.0
 30
0.0
  0
VERTEX
  5
1E4
330
1E3
100
AcDbEntity
  8
GRAU_10_
 62
     7
100
AcDbVertex
100
AcDb2dVertex
 10
132.0385485781016
 20
195.6393127820366
 30
0.0
  0
VERTEX
  5
1E5
330
1E3
100
AcDbEntity
  8
GRAU_10_
 62
     7
100
AcDbVertex
100
AcDb2dVertex
 10
132.0385485781016
 20
196.6517850040054
 30
0.0
  0
SEQEND
  5
1E6
330
1E3
100
AcDbEntity
  8
GRAU_10_
 62
     7
  0
POLYLINE
  5
1E7
330
1F
100
AcDbEntity
  8
GRAU_10_
 62
     7
100
AcDb2dPolyline
 66
     1
 10
0.0
 20
0.0
 30
0.0
  0
VERTEX
  5
1E8
330
1E7
100
AcDbEntity
  8
GRAU_10_
 62
     7
100
AcDbVertex
100
AcDb2dVertex
 10
132.0385485781016
 20
197.6642572259748
 30
0.0
  0
VERTEX
  5
1E9
330
1E7
100
AcDbEntity
  8
GRAU_10_
 62
     7
100
AcDbVertex
100
AcDb2dVertex
 10
132.0385485781016
 20
198.6767294479435
 30
0.0
  0
SEQEND
  5
1EA
330
1E7
100
AcDbEntity
  8
GRAU_10_
 62
     7
  0
POLYLINE
  5
1EB
330
1F
100
AcDbEntity
  8
GRAU_10_
 62
     7
100
AcDb2dPolyline
 66
     1
 10
0.0
 20
0.0
 30
0.0
  0
VERTEX
  5
1EC
330
1EB
100
AcDbEntity
  8
GRAU_10_
 62
     7
100
AcDbVertex
100
AcDb2dVertex
 10
132.0385485781016
 20
199.6892016699129
 30
0.0
  0
VERTEX
  5
1ED
330
1EB
100
AcDbEntity
  8
GRAU_10_
 62
     7
100
AcDbVertex
100
AcDb2dVertex
 10
132.0385485781016
 20
200.4406183363914
 30
0.0
  0
VERTEX
  5
1EE
330
1EB
100
AcDbEntity
  8
GRAU_10_
 62
     7
100
AcDbVertex
100
AcDb2dVertex
 10
132.0385485781016
 20
200.7016738918819
 30
0.0
  0
SEQEND
  5
1EF
330
1EB
100
AcDbEntity
  8
GRAU_10_
 62
     7
  0
POLYLINE
  5
1F0
330
1F
100
AcDbEntity
  8
GRAU_10_
 62
     7
100
AcDb2dPolyline
 66
     1
 10
0.0
 20
0.0
 30
0.0
  0
VERTEX
  5
1F1
330
1F0
100
AcDbEntity
  8
GRAU_10_
 62
     7
100
AcDbVertex
100
AcDb2dVertex
 10
132.0385485781016
 20
201.7144988916288
 30
0.0
  0
VERTEX
  5
1F2
330
1F0
100
AcDbEntity
  8
GRAU_10_
 62
     7
100
AcDbVertex
100
AcDb2dVertex
 10
132.0385485781016
 20
201.9974266693357
 30
0.0
  0
VERTEX
  5
1F3
330
1F0
100
AcDbEntity
  8
GRAU_10_
 62
     7
100
AcDbVertex
100
AcDb2dVertex
 10
132.0385485781016
 20
202.7269711135978
 30
0.0
  0
SEQEND
  5
1F4
330
1F0
100
AcDbEntity
  8
GRAU_10_
 62
     7
  0
POLYLINE
  5
1F5
330
1F
100
AcDbEntity
  8
GRAU_10_
 62
     7
100
AcDb2dPolyline
 66
     1
 10
0.0
 20
0.0
 30
0.0
  0
VERTEX
  5
1F6
330
1F5
100
AcDbEntity
  8
GRAU_10_
 62
     7
100
AcDbVertex
100
AcDb2dVertex
 10
132.0385485781016
 20
203.7394433355669
 30
0.0
  0
VERTEX
  5
1F7
330
1F5
100
AcDbEntity
  8
GRAU_10_
 62
     7
100
AcDbVertex
100
AcDb2dVertex
 10
132.0385485781016
 20
204.6665433353353
 30
0.0
  0
VERTEX
  5
1F8
330
1F5
100
AcDbEntity
  8
GRAU_10_
 62
     7
100
AcDbVertex
100
AcDb2dVertex
 10
132.0385485781016
 20
204.751915557536
 30
0.0
  0
SEQEND
  5
1F9
330
1F5
100
AcDbEntity
  8
GRAU_10_
 62
     7
  0
POLYLINE
  5
1FA
330
1F
100
AcDbEntity
  8
GRAU_10_
 62
     7
100
AcDb2dPolyline
 66
     1
 10
0.0
 20
0.0
 30
0.0
  0
VERTEX
  5
1FB
330
1FA
100
AcDbEntity
  8
GRAU_10_
 62
     7
100
AcDbVertex
100
AcDb2dVertex
 10
132.0385485781016
 20
205.764387779505
 30
0.0
  0
VERTEX
  5
1FC
330
1FA
100
AcDbEntity
  8
GRAU_10_
 62
     7
100
AcDbVertex
100
AcDb2dVertex
 10
132.0385485781016
 20
206.6547988903937
 30
0.0
  0
VERTEX
  5
1FD
330
1FA
100
AcDbEntity
  8
GRAU_10_
 62
     7
100
AcDbVertex
100
AcDb2dVertex
 10
132.0385485781016
 20
206.7768600014744
 30
0.0
  0
SEQEND
  5
1FE
330
1FA
100
AcDbEntity
  8
GRAU_10_
 62
     7
  0
POLYLINE
  5
1FF
330
1F
100
AcDbEntity
  8
GRAU_10_
 62
     7
100
AcDb2dPolyline
 66
     1
 10
0.0
 20
0.0
 30
0.0
  0
VERTEX
  5
200
330
1FF
100
AcDbEntity
  8
GRAU_10_
 62
     7
100
AcDbVertex
100
AcDb2dVertex
 10
132.0385485781016
 20
207.7893322234432
 30
0.0
  0
VERTEX
  5
201
330
1FF
100
AcDbEntity
  8
GRAU_10_
 62
     7
100
AcDbVertex
100
AcDb2dVertex
 10
132.0385485781016
 20
207.8810544456425
 30
0.0
  0
VERTEX
  5
202
330
1FF
100
AcDbEntity
  8
GRAU_10_
 62
     7
100
AcDbVertex
100
AcDb2dVertex
 10
132.0385485781016
 20
208.1918516677872
 30
0.0
  0
VERTEX
  5
203
330
1FF
100
AcDbEntity
  8
GRAU_10_
 62
     7
100
AcDbVertex
100
AcDb2dVertex
 10
132.0385485781016
 20
208.2955683344279
 30
0.0
  0
SEQEND
  5
204
330
1FF
100
AcDbEntity
  8
GRAU_10_
 62
     7
  0
POLYLINE
  5
205
330
1F
100
AcDbEntity
  8
GRAU_10_
 62
     7
100
AcDb2dPolyline
 66
     1
 10
0.0
 20
0.0
 30
0.0
  0
VERTEX
  5
206
330
205
100
AcDbEntity
  8
GRAU_10_
 62
     7
100
AcDbVertex
100
AcDb2dVertex
 10
131.425420800477
 20
207.2337072235825
 30
0.0
  0
VERTEX
  5
207
330
205
100
AcDbEntity
  8
GRAU_10_
 62
     7
100
AcDbVertex
100
AcDb2dVertex
 10
131.425420800477
 20
207.1285794458307
 30
0.0
  0
VERTEX
  5
208
330
205
100
AcDbEntity
  8
GRAU_10_
 62
     7
100
AcDbVertex
100
AcDb2dVertex
 10
131.425420800477
 20
206.8142544459095
 30
0.0
  0
VERTEX
  5
209
330
205
100
AcDbEntity
  8
GRAU_10_
 62
     7
100
AcDbVertex
100
AcDb2dVertex
 10
131.425420800477
 20
206.7288822237085
 30
0.0
  0
SEQEND
  5
20A
330
205
100
AcDbEntity
  8
GRAU_10_
 62
     7
  0
POLYLINE
  5
20B
330
1F
100
AcDbEntity
  8
GRAU_10_
 62
     7
100
AcDb2dPolyline
 66
     1
 10
0.0
 20
0.0
 30
0.0
  0
VERTEX
  5
20C
330
20B
100
AcDbEntity
  8
GRAU_10_
 62
     7
100
AcDbVertex
100
AcDb2dVertex
 10
131.425420800477
 20
205.7188794461831
 30
0.0
  0
VERTEX
  5
20D
330
20B
100
AcDbEntity
  8
GRAU_10_
 62
     7
100
AcDbVertex
100
AcDb2dVertex
 10
131.425420800477
 20
205.5745933351079
 30
0.0
  0
VERTEX
  5
20E
330
20B
100
AcDbEntity
  8
GRAU_10_
 62
     7
100
AcDbVertex
100
AcDb2dVertex
 10
131.425420800477
 20
204.7092294464355
 30
0.0
  0
SEQEND
  5
20F
330
20B
100
AcDbEntity
  8
GRAU_10_
 62
     7
  0
POLYLINE
  5
210
330
1F
100
AcDbEntity
  8
GRAU_10_
 62
     7
100
AcDb2dPolyline
 66
     1
 10
0.0
 20
0.0
 30
0.0
  0
VERTEX
  5
211
330
210
100
AcDbEntity
  8
GRAU_10_
 62
     7
100
AcDbVertex
100
AcDb2dVertex
 10
131.425420800477
 20
203.6988738911327
 30
0.0
  0
VERTEX
  5
212
330
210
100
AcDbEntity
  8
GRAU_10_
 62
     7
100
AcDbVertex
100
AcDb2dVertex
 10
131.425420800477
 20
203.5694044467205
 30
0.0
  0
VERTEX
  5
213
330
210
100
AcDbEntity
  8
GRAU_10_
 62
     7
100
AcDbVertex
100
AcDb2dVertex
 10
131.425420800477
 20
202.6895766691625
 30
0.0
  0
SEQEND
  5
214
330
210
100
AcDbEntity
  8
GRAU_10_
 62
     7
  0
POLYLINE
  5
215
330
1F
100
AcDbEntity
  8
GRAU_10_
 62
     7
100
AcDb2dPolyline
 66
     1
 10
0.0
 20
0.0
 30
0.0
  0
VERTEX
  5
216
330
215
100
AcDbEntity
  8
GRAU_10_
 62
     7
100
AcDbVertex
100
AcDb2dVertex
 10
131.425420800477
 20
201.6792211138597
 30
0.0
  0
VERTEX
  5
217
330
215
100
AcDbEntity
  8
GRAU_10_
 62
     7
100
AcDbVertex
100
AcDb2dVertex
 10
131.425420800477
 20
200.8847655585026
 30
0.0
  0
VERTEX
  5
218
330
215
100
AcDbEntity
  8
GRAU_10_
 62
     7
100
AcDbVertex
100
AcDb2dVertex
 10
131.425420800477
 20
200.6695711141124
 30
0.0
  0
SEQEND
  5
219
330
215
100
AcDbEntity
  8
GRAU_10_
 62
     7
  0
POLYLINE
  5
21A
330
1F
100
AcDbEntity
  8
GRAU_10_
 62
     7
100
AcDb2dPolyline
 66
     1
 10
0.0
 20
0.0
 30
0.0
  0
VERTEX
  5
21B
330
21A
100
AcDbEntity
  8
GRAU_10_
 62
     7
100
AcDbVertex
100
AcDb2dVertex
 10
131.425420800477
 20
199.6592155588089
 30
0.0
  0
VERTEX
  5
21C
330
21A
100
AcDbEntity
  8
GRAU_10_
 62
     7
100
AcDbVertex
100
AcDb2dVertex
 10
131.425420800477
 20
199.324429447782
 30
0.0
  0
VERTEX
  5
21D
330
21A
100
AcDbEntity
  8
GRAU_10_
 62
     7
100
AcDbVertex
100
AcDb2dVertex
 10
131.425420800477
 20
198.6495655590616
 30
0.0
  0
SEQEND
  5
21E
330
21A
100
AcDbEntity
  8
GRAU_10_
 62
     7
  0
POLYLINE
  5
21F
330
1F
100
AcDbEntity
  8
GRAU_10_
 62
     7
100
AcDb2dPolyline
 66
     1
 10
0.0
 20
0.0
 30
0.0
  0
VERTEX
  5
220
330
21F
100
AcDbEntity
  8
GRAU_10_
 62
     7
100
AcDbVertex
100
AcDb2dVertex
 10
131.425420800477
 20
197.639915559314
 30
0.0
  0
VERTEX
  5
221
330
21F
100
AcDbEntity
  8
GRAU_10_
 62
     7
100
AcDbVertex
100
AcDb2dVertex
 10
131.425420800477
 20
196.6295600040109
 30
0.0
  0
SEQEND
  5
222
330
21F
100
AcDbEntity
  8
GRAU_10_
 62
     7
  0
POLYLINE
  5
223
330
1F
100
AcDbEntity
  8
GRAU_10_
 62
     7
100
AcDb2dPolyline
 66
     1
 10
0.0
 20
0.0
 30
0.0
  0
VERTEX
  5
224
330
223
100
AcDbEntity
  8
GRAU_10_
 62
     7
100
AcDbVertex
100
AcDb2dVertex
 10
131.425420800477
 20
195.6202627820414
 30
0.0
  0
VERTEX
  5
225
330
223
100
AcDbEntity
  8
GRAU_10_
 62
     7
100
AcDbVertex
100
AcDb2dVertex
 10
131.425420800477
 20
194.6099072267382
 30
0.0
  0
SEQEND
  5
226
330
223
100
AcDbEntity
  8
GRAU_10_
 62
     7
  0
POLYLINE
  5
227
330
1F
100
AcDbEntity
  8
GRAU_10_
 62
     7
100
AcDb2dPolyline
 66
     1
 10
0.0
 20
0.0
 30
0.0
  0
VERTEX
  5
228
330
227
100
AcDbEntity
  8
GRAU_10_
 62
     7
100
AcDbVertex
100
AcDb2dVertex
 10
131.425420800477
 20
193.6002572269906
 30
0.0
  0
VERTEX
  5
229
330
227
100
AcDbEntity
  8
GRAU_10_
 62
     7
100
AcDbVertex
100
AcDb2dVertex
 10
131.425420800477
 20
192.590607227243
 30
0.0
  0
SEQEND
  5
22A
330
227
100
AcDbEntity
  8
GRAU_10_
 62
     7
  0
POLYLINE
  5
22B
330
1F
100
AcDbEntity
  8
GRAU_10_
 62
     7
100
AcDb2dPolyline
 66
     1
 10
0.0
 20
0.0
 30
0.0
  0
VERTEX
  5
22C
330
22B
100
AcDbEntity
  8
GRAU_10_
 62
     7
100
AcDbVertex
100
AcDb2dVertex
 10
131.425420800477
 20
191.5802516719398
 30
0.0
  0
VERTEX
  5
22D
330
22B
100
AcDbEntity
  8
GRAU_10_
 62
     7
100
AcDbVertex
100
AcDb2dVertex
 10
131.425420800477
 20
190.5706016721925
 30
0.0
  0
SEQEND
  5
22E
330
22B
100
AcDbEntity
  8
GRAU_10_
 62
     7
  0
POLYLINE
  5
22F
330
1F
100
AcDbEntity
  8
GRAU_10_
 62
     7
100
AcDb2dPolyline
 66
     1
 10
0.0
 20
0.0
 30
0.0
  0
VERTEX
  5
230
330
22F
100
AcDbEntity
  8
GRAU_10_
 62
     7
100
AcDbVertex
100
AcDb2dVertex
 10
131.425420800477
 20
189.5602461168897
 30
0.0
  0
VERTEX
  5
231
330
22F
100
AcDbEntity
  8
GRAU_10_
 62
     7
100
AcDbVertex
100
AcDb2dVertex
 10
131.425420800477
 20
188.5509488949196
 30
0.0
  0
SEQEND
  5
232
330
22F
100
AcDbEntity
  8
GRAU_10_
 62
     7
  0
POLYLINE
  5
233
330
1F
100
AcDbEntity
  8
GRAU_10_
 62
     7
100
AcDb2dPolyline
 66
     1
 10
0.0
 20
0.0
 30
0.0
  0
VERTEX
  5
234
330
233
100
AcDbEntity
  8
GRAU_10_
 62
     7
100
AcDbVertex
100
AcDb2dVertex
 10
131.425420800477
 20
187.5405933396167
 30
0.0
  0
VERTEX
  5
235
330
233
100
AcDbEntity
  8
GRAU_10_
 62
     7
100
AcDbVertex
100
AcDb2dVertex
 10
131.425420800477
 20
186.5309433398688
 30
0.0
  0
SEQEND
  5
236
330
233
100
AcDbEntity
  8
GRAU_10_
 62
     7
  0
POLYLINE
  5
237
330
1F
100
AcDbEntity
  8
GRAU_10_
 62
     7
100
AcDb2dPolyline
 66
     1
 10
0.0
 20
0.0
 30
0.0
  0
VERTEX
  5
238
330
237
100
AcDbEntity
  8
GRAU_10_
 62
     7
100
AcDbVertex
100
AcDb2dVertex
 10
131.425420800477
 20
185.5209405623438
 30
0.0
  0
VERTEX
  5
239
330
237
100
AcDbEntity
  8
GRAU_10_
 62
     7
100
AcDbVertex
100
AcDb2dVertex
 10
131.425420800477
 20
184.5112905625961
 30
0.0
  0
SEQEND
  5
23A
330
237
100
AcDbEntity
  8
GRAU_10_
 62
     7
  0
POLYLINE
  5
23B
330
1F
100
AcDbEntity
  8
GRAU_10_
 62
     7
100
AcDb2dPolyline
 66
     1
 10
0.0
 20
0.0
 30
0.0
  0
VERTEX
  5
23C
330
23B
100
AcDbEntity
  8
GRAU_10_
 62
     7
100
AcDbVertex
100
AcDb2dVertex
 10
131.425420800477
 20
183.500935007293
 30
0.0
  0
VERTEX
  5
23D
330
23B
100
AcDbEntity
  8
GRAU_10_
 62
     7
100
AcDbVertex
100
AcDb2dVertex
 10
131.425420800477
 20
182.4912850075457
 30
0.0
  0
SEQEND
  5
23E
330
23B
100
AcDbEntity
  8
GRAU_10_
 62
     7
  0
POLYLINE
  5
23F
330
1F
100
AcDbEntity
  8
GRAU_10_
 62
     7
100
AcDb2dPolyline
 66
     1
 10
0.0
 20
0.0
 30
0.0
  0
VERTEX
  5
240
330
23F
100
AcDbEntity
  8
GRAU_10_
 62
     7
100
AcDbVertex
100
AcDb2dVertex
 10
131.425420800477
 20
181.4816350077981
 30
0.0
  0
VERTEX
  5
241
330
23F
100
AcDbEntity
  8
GRAU_10_
 62
     7
100
AcDbVertex
100
AcDb2dVertex
 10
131.425420800477
 20
180.4712794524949
 30
0.0
  0
SEQEND
  5
242
330
23F
100
AcDbEntity
  8
GRAU_10_
 62
     7
  0
POLYLINE
  5
243
330
1F
100
AcDbEntity
  8
GRAU_10_
 62
     7
100
AcDb2dPolyline
 66
     1
 10
0.0
 20
0.0
 30
0.0
  0
VERTEX
  5
244
330
243
100
AcDbEntity
  8
GRAU_10_
 62
     7
100
AcDbVertex
100
AcDb2dVertex
 10
131.425420800477
 20
179.4619822305254
 30
0.0
  0
VERTEX
  5
245
330
243
100
AcDbEntity
  8
GRAU_10_
 62
     7
100
AcDbVertex
100
AcDb2dVertex
 10
131.425420800477
 20
178.4516266752219
 30
0.0
  0
SEQEND
  5
246
330
243
100
AcDbEntity
  8
GRAU_10_
 62
     7
  0
POLYLINE
  5
247
330
1F
100
AcDbEntity
  8
GRAU_10_
 62
     7
100
AcDb2dPolyline
 66
     1
 10
0.0
 20
0.0
 30
0.0
  0
VERTEX
  5
248
330
247
100
AcDbEntity
  8
GRAU_10_
 62
     7
100
AcDbVertex
100
AcDb2dVertex
 10
131.425420800477
 20
177.4419766754746
 30
0.0
  0
VERTEX
  5
249
330
247
100
AcDbEntity
  8
GRAU_10_
 62
     7
100
AcDbVertex
100
AcDb2dVertex
 10
131.425420800477
 20
176.7671127867543
 30
0.0
  0
VERTEX
  5
24A
330
247
100
AcDbEntity
  8
GRAU_10_
 62
     7
100
AcDbVertex
100
AcDb2dVertex
 10
131.425420800477
 20
176.4316211201718
 30
0.0
  0
SEQEND
  5
24B
330
247
100
AcDbEntity
  8
GRAU_10_
 62
     7
  0
POLYLINE
  5
24C
330
1F
100
AcDbEntity
  8
GRAU_10_
 62
     7
100
AcDb2dPolyline
 66
     1
 10
0.0
 20
0.0
 30
0.0
  0
VERTEX
  5
24D
330
24C
100
AcDbEntity
  8
GRAU_10_
 62
     7
100
AcDbVertex
100
AcDb2dVertex
 10
131.425420800477
 20
175.4219711204239
 30
0.0
  0
VERTEX
  5
24E
330
24C
100
AcDbEntity
  8
GRAU_10_
 62
     7
100
AcDbVertex
100
AcDb2dVertex
 10
131.425420800477
 20
175.2067766760334
 30
0.0
  0
VERTEX
  5
24F
330
24C
100
AcDbEntity
  8
GRAU_10_
 62
     7
100
AcDbVertex
100
AcDb2dVertex
 10
131.425420800477
 20
174.4123211206766
 30
0.0
  0
SEQEND
  5
250
330
24C
100
AcDbEntity
  8
GRAU_10_
 62
     7
  0
POLYLINE
  5
251
330
1F
100
AcDbEntity
  8
GRAU_10_
 62
     7
100
AcDb2dPolyline
 66
     1
 10
0.0
 20
0.0
 30
0.0
  0
VERTEX
  5
252
330
251
100
AcDbEntity
  8
GRAU_10_
 62
     7
100
AcDbVertex
100
AcDb2dVertex
 10
131.425420800477
 20
173.4019655653735
 30
0.0
  0
VERTEX
  5
253
330
251
100
AcDbEntity
  8
GRAU_10_
 62
     7
100
AcDbVertex
100
AcDb2dVertex
 10
131.425420800477
 20
172.5221377878158
 30
0.0
  0
VERTEX
  5
254
330
251
100
AcDbEntity
  8
GRAU_10_
 62
     7
100
AcDbVertex
100
AcDb2dVertex
 10
131.425420800477
 20
172.3926683434036
 30
0.0
  0
SEQEND
  5
255
330
251
100
AcDbEntity
  8
GRAU_10_
 62
     7
  0
POLYLINE
  5
256
330
1F
100
AcDbEntity
  8
GRAU_10_
 62
     7
100
AcDb2dPolyline
 66
     1
 10
0.0
 20
0.0
 30
0.0
  0
VERTEX
  5
257
330
256
100
AcDbEntity
  8
GRAU_10_
 62
     7
100
AcDbVertex
100
AcDb2dVertex
 10
131.425420800477
 20
171.3823127881008
 30
0.0
  0
VERTEX
  5
258
330
256
100
AcDbEntity
  8
GRAU_10_
 62
     7
100
AcDbVertex
100
AcDb2dVertex
 10
131.425420800477
 20
170.5169488994281
 30
0.0
  0
VERTEX
  5
259
330
256
100
AcDbEntity
  8
GRAU_10_
 62
     7
100
AcDbVertex
100
AcDb2dVertex
 10
131.425420800477
 20
170.3726627883529
 30
0.0
  0
SEQEND
  5
25A
330
256
100
AcDbEntity
  8
GRAU_10_
 62
     7
  0
POLYLINE
  5
25B
330
1F
100
AcDbEntity
  8
GRAU_10_
 62
     7
100
AcDb2dPolyline
 66
     1
 10
0.0
 20
0.0
 30
0.0
  0
VERTEX
  5
25C
330
25B
100
AcDbEntity
  8
GRAU_10_
 62
     7
100
AcDbVertex
100
AcDb2dVertex
 10
131.425420800477
 20
169.3626600108278
 30
0.0
  0
VERTEX
  5
25D
330
25B
100
AcDbEntity
  8
GRAU_10_
 62
     7
100
AcDbVertex
100
AcDb2dVertex
 10
131.425420800477
 20
169.2772877886269
 30
0.0
  0
VERTEX
  5
25E
330
25B
100
AcDbEntity
  8
GRAU_10_
 62
     7
100
AcDbVertex
100
AcDb2dVertex
 10
131.425420800477
 20
168.9629627887056
 30
0.0
  0
VERTEX
  5
25F
330
25B
100
AcDbEntity
  8
GRAU_10_
 62
     7
100
AcDbVertex
100
AcDb2dVertex
 10
131.425420800477
 20
168.8578350109538
 30
0.0
  0
SEQEND
  5
260
330
25B
100
AcDbEntity
  8
GRAU_10_
 62
     7
  0
POLYLINE
  5
261
330
1F
100
AcDbEntity
  8
GRAU_10_
 62
     7
100
AcDb2dPolyline
 66
     1
 10
0.0
 20
0.0
 30
0.0
  0
VERTEX
  5
262
330
261
100
AcDbEntity
  8
GRAU_10_
 62
     7
100
AcDbVertex
100
AcDb2dVertex
 10
136.7883485769141
 20
208.2955683344279
 30
0.0
  0
VERTEX
  5
263
330
261
100
AcDbEntity
  8
GRAU_10_
 62
     7
100
AcDbVertex
100
AcDb2dVertex
 10
136.1946235770625
 20
208.2955683344279
 30
0.0
  0
SEQEND
  5
264
330
261
100
AcDbEntity
  8
GRAU_10_
 62
     7
  0
POLYLINE
  5
265
330
1F
100
AcDbEntity
  8
GRAU_10_
 62
     7
100
AcDb2dPolyline
 66
     1
 10
0.0
 20
0.0
 30
0.0
  0
VERTEX
  5
266
330
265
100
AcDbEntity
  8
GRAU_10_
 62
     7
100
AcDbVertex
100
AcDb2dVertex
 10
135.0071735773594
 20
208.2955683344279
 30
0.0
  0
VERTEX
  5
267
330
265
100
AcDbEntity
  8
GRAU_10_
 62
     7
100
AcDbVertex
100
AcDb2dVertex
 10
133.8193707998785
 20
208.2955683344279
 30
0.0
  0
SEQEND
  5
268
330
265
100
AcDbEntity
  8
GRAU_10_
 62
     7
  0
POLYLINE
  5
269
330
1F
100
AcDbEntity
  8
GRAU_10_
 62
     7
100
AcDb2dPolyline
 66
     1
 10
0.0
 20
0.0
 30
0.0
  0
VERTEX
  5
26A
330
269
100
AcDbEntity
  8
GRAU_10_
 62
     7
100
AcDbVertex
100
AcDb2dVertex
 10
132.6319208001754
 20
208.2955683344279
 30
0.0
  0
VERTEX
  5
26B
330
269
100
AcDbEntity
  8
GRAU_10_
 62
     7
100
AcDbVertex
100
AcDb2dVertex
 10
132.0385485781016
 20
208.2955683344279
 30
0.0
  0
SEQEND
  5
26C
330
269
100
AcDbEntity
  8
GRAU_10_
 62
     7
  0
POLYLINE
  5
26D
330
1F
100
AcDbEntity
  8
GRAU_10_
 62
     7
100
AcDb2dPolyline
 66
     1
 10
0.0
 20
0.0
 30
0.0
  0
VERTEX
  5
26E
330
26D
100
AcDbEntity
  8
GRAU_10_
 62
     7
100
AcDbVertex
100
AcDb2dVertex
 10
132.0385485781016
 20
167.7956211223307
 30
0.0
  0
VERTEX
  5
26F
330
26D
100
AcDbEntity
  8
GRAU_10_
 62
     7
100
AcDbVertex
100
AcDb2dVertex
 10
132.6319208001754
 20
167.7956211223307
 30
0.0
  0
SEQEND
  5
270
330
26D
100
AcDbEntity
  8
GRAU_10_
 62
     7
  0
POLYLINE
  5
271
330
1F
100
AcDbEntity
  8
GRAU_10_
 62
     7
100
AcDb2dPolyline
 66
     1
 10
0.0
 20
0.0
 30
0.0
  0
VERTEX
  5
272
330
271
100
AcDbEntity
  8
GRAU_10_
 62
     7
100
AcDbVertex
100
AcDb2dVertex
 10
133.8193707998785
 20
167.7956211223307
 30
0.0
  0
VERTEX
  5
273
330
271
100
AcDbEntity
  8
GRAU_10_
 62
     7
100
AcDbVertex
100
AcDb2dVertex
 10
135.0071735773594
 20
167.7956211223307
 30
0.0
  0
SEQEND
  5
274
330
271
100
AcDbEntity
  8
GRAU_10_
 62
     7
  0
POLYLINE
  5
275
330
1F
100
AcDbEntity
  8
GRAU_10_
 62
     7
100
AcDb2dPolyline
 66
     1
 10
0.0
 20
0.0
 30
0.0
  0
VERTEX
  5
276
330
275
100
AcDbEntity
  8
GRAU_10_
 62
     7
100
AcDbVertex
100
AcDb2dVertex
 10
136.1946235770625
 20
167.7956211223307
 30
0.0
  0
VERTEX
  5
277
330
275
100
AcDbEntity
  8
GRAU_10_
 62
     7
100
AcDbVertex
100
AcDb2dVertex
 10
136.7883485769141
 20
167.7956211223307
 30
0.0
  0
VERTEX
  5
278
330
275
100
AcDbEntity
  8
GRAU_10_
 62
     7
100
AcDbVertex
100
AcDb2dVertex
 10
137.0885624657281
 20
167.8764072334217
 30
0.0
  0
SEQEND
  5
279
330
275
100
AcDbEntity
  8
GRAU_10_
 62
     7
  0
POLYLINE
  5
27A
330
1F
100
AcDbEntity
  8
GRAU_10_
 62
     7
100
AcDb2dPolyline
 66
     1
 10
0.0
 20
0.0
 30
0.0
  0
VERTEX
  5
27B
330
27A
100
AcDbEntity
  8
GRAU_10_
 62
     7
100
AcDbVertex
100
AcDb2dVertex
 10
137.5080152434008
 20
168.295507233317
 30
0.0
  0
VERTEX
  5
27C
330
27A
100
AcDbEntity
  8
GRAU_10_
 62
     7
100
AcDbVertex
100
AcDb2dVertex
 10
137.5880957989363
 20
168.5957211221307
 30
0.0
  0
SEQEND
  5
27D
330
27A
100
AcDbEntity
  8
GRAU_10_
 62
     7
  0
POLYLINE
  5
27E
330
1F
100
AcDbEntity
  8
GRAU_10_
 62
     7
100
AcDb2dPolyline
 66
     1
 10
0.0
 20
0.0
 30
0.0
  0
VERTEX
  5
27F
330
27E
100
AcDbEntity
  8
GRAU_10_
 62
     7
100
AcDbVertex
100
AcDb2dVertex
 10
137.5880957989363
 20
207.4958211124057
 30
0.0
  0
VERTEX
  5
280
330
27E
100
AcDbEntity
  8
GRAU_10_
 62
     7
100
AcDbVertex
100
AcDb2dVertex
 10
137.5080152434008
 20
207.7960350012194
 30
0.0
  0
SEQEND
  5
281
330
27E
100
AcDbEntity
  8
GRAU_10_
 62
     7
  0
POLYLINE
  5
282
330
1F
100
AcDbEntity
  8
GRAU_10_
 62
     7
100
AcDb2dPolyline
 66
     1
 10
0.0
 20
0.0
 30
0.0
  0
VERTEX
  5
283
330
282
100
AcDbEntity
  8
GRAU_10_
 62
     7
100
AcDbVertex
100
AcDb2dVertex
 10
137.0885624657281
 20
208.2151350011146
 30
0.0
  0
VERTEX
  5
284
330
282
100
AcDbEntity
  8
GRAU_10_
 62
     7
100
AcDbVertex
100
AcDb2dVertex
 10
136.7883485769141
 20
208.2955683344279
 30
0.0
  0
SEQEND
  5
285
330
282
100
AcDbEntity
  8
GRAU_10_
 62
     7
  0
POLYLINE
  5
286
330
1F
100
AcDbEntity
  8
GRAU_10_
 62
     7
100
AcDb2dPolyline
 66
     1
 10
0.0
 20
0.0
 30
0.0
  0
VERTEX
  5
287
330
286
100
AcDbEntity
  8
GRAU_10_
 62
     7
100
AcDbVertex
100
AcDb2dVertex
 10
137.5880957989363
 20
168.5957211221307
 30
0.0
  0
VERTEX
  5
288
330
286
100
AcDbEntity
  8
GRAU_10_
 62
     7
100
AcDbVertex
100
AcDb2dVertex
 10
137.5880957989363
 20
168.7022600109931
 30
0.0
  0
VERTEX
  5
289
330
286
100
AcDbEntity
  8
GRAU_10_
 62
     7
100
AcDbVertex
100
AcDb2dVertex
 10
137.5880957989363
 20
169.0208183442466
 30
0.0
  0
VERTEX
  5
28A
330
286
100
AcDbEntity
  8
GRAU_10_
 62
     7
100
AcDbVertex
100
AcDb2dVertex
 10
137.5880957989363
 20
169.1076016775583
 30
0.0
  0
SEQEND
  5
28B
330
286
100
AcDbEntity
  8
GRAU_10_
 62
     7
  0
POLYLINE
  5
28C
330
1F
100
AcDbEntity
  8
GRAU_10_
 62
     7
100
AcDb2dPolyline
 66
     1
 10
0.0
 20
0.0
 30
0.0
  0
VERTEX
  5
28D
330
28C
100
AcDbEntity
  8
GRAU_10_
 62
     7
100
AcDbVertex
100
AcDb2dVertex
 10
137.5880957989363
 20
170.1310100106357
 30
0.0
  0
VERTEX
  5
28E
330
28C
100
AcDbEntity
  8
GRAU_10_
 62
     7
100
AcDbVertex
100
AcDb2dVertex
 10
137.5880957989363
 20
170.2774127883768
 30
0.0
  0
VERTEX
  5
28F
330
28C
100
AcDbEntity
  8
GRAU_10_
 62
     7
100
AcDbVertex
100
AcDb2dVertex
 10
137.5880957989363
 20
171.1547711214909
 30
0.0
  0
SEQEND
  5
290
330
28C
100
AcDbEntity
  8
GRAU_10_
 62
     7
  0
POLYLINE
  5
291
330
1F
100
AcDbEntity
  8
GRAU_10_
 62
     7
100
AcDb2dPolyline
 66
     1
 10
0.0
 20
0.0
 30
0.0
  0
VERTEX
  5
292
330
291
100
AcDbEntity
  8
GRAU_10_
 62
     7
100
AcDbVertex
100
AcDb2dVertex
 10
137.5880957989363
 20
172.1788850101238
 30
0.0
  0
VERTEX
  5
293
330
291
100
AcDbEntity
  8
GRAU_10_
 62
     7
100
AcDbVertex
100
AcDb2dVertex
 10
137.5880957989363
 20
172.3101183434241
 30
0.0
  0
VERTEX
  5
294
330
291
100
AcDbEntity
  8
GRAU_10_
 62
     7
100
AcDbVertex
100
AcDb2dVertex
 10
137.5880957989363
 20
173.2022933432012
 30
0.0
  0
SEQEND
  5
295
330
291
100
AcDbEntity
  8
GRAU_10_
 62
     7
  0
POLYLINE
  5
296
330
1F
100
AcDbEntity
  8
GRAU_10_
 62
     7
100
AcDb2dPolyline
 66
     1
 10
0.0
 20
0.0
 30
0.0
  0
VERTEX
  5
297
330
296
100
AcDbEntity
  8
GRAU_10_
 62
     7
100
AcDbVertex
100
AcDb2dVertex
 10
137.5880957989363
 20
174.2260544540564
 30
0.0
  0
VERTEX
  5
298
330
296
100
AcDbEntity
  8
GRAU_10_
 62
     7
100
AcDbVertex
100
AcDb2dVertex
 10
137.5880957989363
 20
175.0314461205215
 30
0.0
  0
VERTEX
  5
299
330
296
100
AcDbEntity
  8
GRAU_10_
 62
     7
100
AcDbVertex
100
AcDb2dVertex
 10
137.5880957989363
 20
175.2494627871338
 30
0.0
  0
SEQEND
  5
29A
330
296
100
AcDbEntity
  8
GRAU_10_
 62
     7
  0
POLYLINE
  5
29B
330
1F
100
AcDbEntity
  8
GRAU_10_
 62
     7
100
AcDb2dPolyline
 66
     1
 10
0.0
 20
0.0
 30
0.0
  0
VERTEX
  5
29C
330
29B
100
AcDbEntity
  8
GRAU_10_
 62
     7
100
AcDbVertex
100
AcDb2dVertex
 10
137.5880957989363
 20
176.2735766757668
 30
0.0
  0
VERTEX
  5
29D
330
29B
100
AcDbEntity
  8
GRAU_10_
 62
     7
100
AcDbVertex
100
AcDb2dVertex
 10
137.5880957989363
 20
176.6133016756818
 30
0.0
  0
VERTEX
  5
29E
330
29B
100
AcDbEntity
  8
GRAU_10_
 62
     7
100
AcDbVertex
100
AcDb2dVertex
 10
137.5880957989363
 20
177.297337786622
 30
0.0
  0
SEQEND
  5
29F
330
29B
100
AcDbEntity
  8
GRAU_10_
 62
     7
  0
POLYLINE
  5
2A0
330
1F
100
AcDbEntity
  8
GRAU_10_
 62
     7
100
AcDb2dPolyline
 66
     1
 10
0.0
 20
0.0
 30
0.0
  0
VERTEX
  5
2A1
330
2A0
100
AcDbEntity
  8
GRAU_10_
 62
     7
100
AcDbVertex
100
AcDb2dVertex
 10
137.5880957989363
 20
178.3207461196994
 30
0.0
  0
VERTEX
  5
2A2
330
2A0
100
AcDbEntity
  8
GRAU_10_
 62
     7
100
AcDbVertex
100
AcDb2dVertex
 10
137.5880957989363
 20
179.3445072305546
 30
0.0
  0
SEQEND
  5
2A3
330
2A0
100
AcDbEntity
  8
GRAU_10_
 62
     7
  0
POLYLINE
  5
2A4
330
1F
100
AcDbEntity
  8
GRAU_10_
 62
     7
100
AcDb2dPolyline
 66
     1
 10
0.0
 20
0.0
 30
0.0
  0
VERTEX
  5
2A5
330
2A4
100
AcDbEntity
  8
GRAU_10_
 62
     7
100
AcDbVertex
100
AcDb2dVertex
 10
137.5880957989363
 20
180.367915563632
 30
0.0
  0
VERTEX
  5
2A6
330
2A4
100
AcDbEntity
  8
GRAU_10_
 62
     7
100
AcDbVertex
100
AcDb2dVertex
 10
137.5880957989363
 20
181.3920294522649
 30
0.0
  0
SEQEND
  5
2A7
330
2A4
100
AcDbEntity
  8
GRAU_10_
 62
     7
  0
POLYLINE
  5
2A8
330
1F
100
AcDbEntity
  8
GRAU_10_
 62
     7
100
AcDb2dPolyline
 66
     1
 10
0.0
 20
0.0
 30
0.0
  0
VERTEX
  5
2A9
330
2A8
100
AcDbEntity
  8
GRAU_10_
 62
     7
100
AcDbVertex
100
AcDb2dVertex
 10
137.5880957989363
 20
182.4154377853424
 30
0.0
  0
VERTEX
  5
2AA
330
2A8
100
AcDbEntity
  8
GRAU_10_
 62
     7
100
AcDbVertex
100
AcDb2dVertex
 10
137.5880957989363
 20
183.4391988961976
 30
0.0
  0
SEQEND
  5
2AB
330
2A8
100
AcDbEntity
  8
GRAU_10_
 62
     7
  0
POLYLINE
  5
2AC
330
1F
100
AcDbEntity
  8
GRAU_10_
 62
     7
100
AcDb2dPolyline
 66
     1
 10
0.0
 20
0.0
 30
0.0
  0
VERTEX
  5
2AD
330
2AC
100
AcDbEntity
  8
GRAU_10_
 62
     7
100
AcDbVertex
100
AcDb2dVertex
 10
137.5880957989363
 20
184.462607229275
 30
0.0
  0
VERTEX
  5
2AE
330
2AC
100
AcDbEntity
  8
GRAU_10_
 62
     7
100
AcDbVertex
100
AcDb2dVertex
 10
137.5880957989363
 20
185.4863683401302
 30
0.0
  0
SEQEND
  5
2AF
330
2AC
100
AcDbEntity
  8
GRAU_10_
 62
     7
  0
POLYLINE
  5
2B0
330
1F
100
AcDbEntity
  8
GRAU_10_
 62
     7
100
AcDb2dPolyline
 66
     1
 10
0.0
 20
0.0
 30
0.0
  0
VERTEX
  5
2B1
330
2B0
100
AcDbEntity
  8
GRAU_10_
 62
     7
100
AcDbVertex
100
AcDb2dVertex
 10
137.5880957989363
 20
186.5104822287631
 30
0.0
  0
VERTEX
  5
2B2
330
2B0
100
AcDbEntity
  8
GRAU_10_
 62
     7
100
AcDbVertex
100
AcDb2dVertex
 10
137.5880957989363
 20
187.5338905618406
 30
0.0
  0
SEQEND
  5
2B3
330
2B0
100
AcDbEntity
  8
GRAU_10_
 62
     7
  0
POLYLINE
  5
2B4
330
1F
100
AcDbEntity
  8
GRAU_10_
 62
     7
100
AcDb2dPolyline
 66
     1
 10
0.0
 20
0.0
 30
0.0
  0
VERTEX
  5
2B5
330
2B4
100
AcDbEntity
  8
GRAU_10_
 62
     7
100
AcDbVertex
100
AcDb2dVertex
 10
137.5880957989363
 20
188.5576516726958
 30
0.0
  0
VERTEX
  5
2B6
330
2B4
100
AcDbEntity
  8
GRAU_10_
 62
     7
100
AcDbVertex
100
AcDb2dVertex
 10
137.5880957989363
 20
189.5810600057732
 30
0.0
  0
SEQEND
  5
2B7
330
2B4
100
AcDbEntity
  8
GRAU_10_
 62
     7
  0
POLYLINE
  5
2B8
330
1F
100
AcDbEntity
  8
GRAU_10_
 62
     7
100
AcDb2dPolyline
 66
     1
 10
0.0
 20
0.0
 30
0.0
  0
VERTEX
  5
2B9
330
2B8
100
AcDbEntity
  8
GRAU_10_
 62
     7
100
AcDbVertex
100
AcDb2dVertex
 10
137.5880957989363
 20
190.6051738944061
 30
0.0
  0
VERTEX
  5
2BA
330
2B8
100
AcDbEntity
  8
GRAU_10_
 62
     7
100
AcDbVertex
100
AcDb2dVertex
 10
137.5880957989363
 20
191.6289350052613
 30
0.0
  0
SEQEND
  5
2BB
330
2B8
100
AcDbEntity
  8
GRAU_10_
 62
     7
  0
POLYLINE
  5
2BC
330
1F
100
AcDbEntity
  8
GRAU_10_
 62
     7
100
AcDb2dPolyline
 66
     1
 10
0.0
 20
0.0
 30
0.0
  0
VERTEX
  5
2BD
330
2BC
100
AcDbEntity
  8
GRAU_10_
 62
     7
100
AcDbVertex
100
AcDb2dVertex
 10
137.5880957989363
 20
192.6523433383387
 30
0.0
  0
VERTEX
  5
2BE
330
2BC
100
AcDbEntity
  8
GRAU_10_
 62
     7
100
AcDbVertex
100
AcDb2dVertex
 10
137.5880957989363
 20
193.6761044491939
 30
0.0
  0
SEQEND
  5
2BF
330
2BC
100
AcDbEntity
  8
GRAU_10_
 62
     7
  0
POLYLINE
  5
2C0
330
1F
100
AcDbEntity
  8
GRAU_10_
 62
     7
100
AcDb2dPolyline
 66
     1
 10
0.0
 20
0.0
 30
0.0
  0
VERTEX
  5
2C1
330
2C0
100
AcDbEntity
  8
GRAU_10_
 62
     7
100
AcDbVertex
100
AcDb2dVertex
 10
137.5880957989363
 20
194.6995127822713
 30
0.0
  0
VERTEX
  5
2C2
330
2C0
100
AcDbEntity
  8
GRAU_10_
 62
     7
100
AcDbVertex
100
AcDb2dVertex
 10
137.5880957989363
 20
195.7236266709043
 30
0.0
  0
SEQEND
  5
2C3
330
2C0
100
AcDbEntity
  8
GRAU_10_
 62
     7
  0
POLYLINE
  5
2C4
330
1F
100
AcDbEntity
  8
GRAU_10_
 62
     7
100
AcDb2dPolyline
 66
     1
 10
0.0
 20
0.0
 30
0.0
  0
VERTEX
  5
2C5
330
2C4
100
AcDbEntity
  8
GRAU_10_
 62
     7
100
AcDbVertex
100
AcDb2dVertex
 10
137.5880957989363
 20
196.7470350039817
 30
0.0
  0
VERTEX
  5
2C6
330
2C4
100
AcDbEntity
  8
GRAU_10_
 62
     7
100
AcDbVertex
100
AcDb2dVertex
 10
137.5880957989363
 20
197.7707961148369
 30
0.0
  0
SEQEND
  5
2C7
330
2C4
100
AcDbEntity
  8
GRAU_10_
 62
     7
  0
POLYLINE
  5
2C8
330
1F
100
AcDbEntity
  8
GRAU_10_
 62
     7
100
AcDb2dPolyline
 66
     1
 10
0.0
 20
0.0
 30
0.0
  0
VERTEX
  5
2C9
330
2C8
100
AcDbEntity
  8
GRAU_10_
 62
     7
100
AcDbVertex
100
AcDb2dVertex
 10
137.5880957989363
 20
198.7942044479143
 30
0.0
  0
VERTEX
  5
2CA
330
2C8
100
AcDbEntity
  8
GRAU_10_
 62
     7
100
AcDbVertex
100
AcDb2dVertex
 10
137.5880957989363
 20
199.4782405588545
 30
0.0
  0
VERTEX
  5
2CB
330
2C8
100
AcDbEntity
  8
GRAU_10_
 62
     7
100
AcDbVertex
100
AcDb2dVertex
 10
137.5880957989363
 20
199.8179655587695
 30
0.0
  0
SEQEND
  5
2CC
330
2C8
100
AcDbEntity
  8
GRAU_10_
 62
     7
  0
POLYLINE
  5
2CD
330
1F
100
AcDbEntity
  8
GRAU_10_
 62
     7
100
AcDb2dPolyline
 66
     1
 10
0.0
 20
0.0
 30
0.0
  0
VERTEX
  5
2CE
330
2CD
100
AcDbEntity
  8
GRAU_10_
 62
     7
100
AcDbVertex
100
AcDb2dVertex
 10
137.5880957989363
 20
200.8420794474025
 30
0.0
  0
VERTEX
  5
2CF
330
2CD
100
AcDbEntity
  8
GRAU_10_
 62
     7
100
AcDbVertex
100
AcDb2dVertex
 10
137.5880957989363
 20
201.0600961140148
 30
0.0
  0
VERTEX
  5
2D0
330
2CD
100
AcDbEntity
  8
GRAU_10_
 62
     7
100
AcDbVertex
100
AcDb2dVertex
 10
137.5880957989363
 20
201.8651350027021
 30
0.0
  0
SEQEND
  5
2D1
330
2CD
100
AcDbEntity
  8
GRAU_10_
 62
     7
  0
POLYLINE
  5
2D2
330
1F
100
AcDbEntity
  8
GRAU_10_
 62
     7
100
AcDb2dPolyline
 66
     1
 10
0.0
 20
0.0
 30
0.0
  0
VERTEX
  5
2D3
330
2D2
100
AcDbEntity
  8
GRAU_10_
 62
     7
100
AcDbVertex
100
AcDb2dVertex
 10
137.5880957989363
 20
202.8892488913351
 30
0.0
  0
VERTEX
  5
2D4
330
2D2
100
AcDbEntity
  8
GRAU_10_
 62
     7
100
AcDbVertex
100
AcDb2dVertex
 10
137.5880957989363
 20
203.7814238911122
 30
0.0
  0
VERTEX
  5
2D5
330
2D2
100
AcDbEntity
  8
GRAU_10_
 62
     7
100
AcDbVertex
100
AcDb2dVertex
 10
137.5880957989363
 20
203.9126572244125
 30
0.0
  0
SEQEND
  5
2D6
330
2D2
100
AcDbEntity
  8
GRAU_10_
 62
     7
  0
POLYLINE
  5
2D7
330
1F
100
AcDbEntity
  8
GRAU_10_
 62
     7
100
AcDb2dPolyline
 66
     1
 10
0.0
 20
0.0
 30
0.0
  0
VERTEX
  5
2D8
330
2D7
100
AcDbEntity
  8
GRAU_10_
 62
     7
100
AcDbVertex
100
AcDb2dVertex
 10
137.5880957989363
 20
204.9367711130454
 30
0.0
  0
VERTEX
  5
2D9
330
2D7
100
AcDbEntity
  8
GRAU_10_
 62
     7
100
AcDbVertex
100
AcDb2dVertex
 10
137.5880957989363
 20
205.8141294461591
 30
0.0
  0
VERTEX
  5
2DA
330
2D7
100
AcDbEntity
  8
GRAU_10_
 62
     7
100
AcDbVertex
100
AcDb2dVertex
 10
137.5880957989363
 20
205.9605322239006
 30
0.0
  0
SEQEND
  5
2DB
330
2D7
100
AcDbEntity
  8
GRAU_10_
 62
     7
  0
POLYLINE
  5
2DC
330
1F
100
AcDbEntity
  8
GRAU_10_
 62
     7
100
AcDb2dPolyline
 66
     1
 10
0.0
 20
0.0
 30
0.0
  0
VERTEX
  5
2DD
330
2DC
100
AcDbEntity
  8
GRAU_10_
 62
     7
100
AcDbVertex
100
AcDb2dVertex
 10
137.5880957989363
 20
206.983940556978
 30
0.0
  0
VERTEX
  5
2DE
330
2DC
100
AcDbEntity
  8
GRAU_10_
 62
     7
100
AcDbVertex
100
AcDb2dVertex
 10
137.5880957989363
 20
207.070371112512
 30
0.0
  0
VERTEX
  5
2DF
330
2DC
100
AcDbEntity
  8
GRAU_10_
 62
     7
100
AcDbVertex
100
AcDb2dVertex
 10
137.5880957989363
 20
207.3892822235432
 30
0.0
  0
VERTEX
  5
2E0
330
2DC
100
AcDbEntity
  8
GRAU_10_
 62
     7
100
AcDbVertex
100
AcDb2dVertex
 10
137.5880957989363
 20
207.4958211124057
 30
0.0
  0
SEQEND
  5
2E1
330
2DC
100
AcDbEntity
  8
GRAU_10_
 62
     7
  0
POLYLINE
  5
2E2
330
1F
100
AcDbEntity
  8
GRAU_10_
 62
     7
100
AcDb2dPolyline
 66
     1
 10
0.0
 20
0.0
 30
0.0
  0
VERTEX
  5
2E3
330
2E2
100
AcDbEntity
  8
GRAU_10_
 62
     7
100
AcDbVertex
100
AcDb2dVertex
 10
131.425420800477
 20
207.2337072235825
 30
0.0
  0
VERTEX
  5
2E4
330
2E2
100
AcDbEntity
  8
GRAU_10_
 62
     7
100
AcDbVertex
100
AcDb2dVertex
 10
130.8606235783961
 20
207.2337072235825
 30
0.0
  0
SEQEND
  5
2E5
330
2E2
100
AcDbEntity
  8
GRAU_10_
 62
     7
  0
POLYLINE
  5
2E6
330
1F
100
AcDbEntity
  8
GRAU_10_
 62
     7
100
AcDb2dPolyline
 66
     1
 10
0.0
 20
0.0
 30
0.0
  0
VERTEX
  5
2E7
330
2E6
100
AcDbEntity
  8
GRAU_10_
 62
     7
100
AcDbVertex
100
AcDb2dVertex
 10
129.7317346897895
 20
207.2337072235825
 30
0.0
  0
VERTEX
  5
2E8
330
2E6
100
AcDbEntity
  8
GRAU_10_
 62
     7
100
AcDbVertex
100
AcDb2dVertex
 10
128.6021402456273
 20
207.2337072235825
 30
0.0
  0
SEQEND
  5
2E9
330
2E6
100
AcDbEntity
  8
GRAU_10_
 62
     7
  0
POLYLINE
  5
2EA
330
1F
100
AcDbEntity
  8
GRAU_10_
 62
     7
100
AcDb2dPolyline
 66
     1
 10
0.0
 20
0.0
 30
0.0
  0
VERTEX
  5
2EB
330
2EA
100
AcDbEntity
  8
GRAU_10_
 62
     7
100
AcDbVertex
100
AcDb2dVertex
 10
127.472898579243
 20
207.2337072235825
 30
0.0
  0
VERTEX
  5
2EC
330
2EA
100
AcDbEntity
  8
GRAU_10_
 62
     7
100
AcDbVertex
100
AcDb2dVertex
 10
126.3440096906364
 20
207.2337072235825
 30
0.0
  0
SEQEND
  5
2ED
330
2EA
100
AcDbEntity
  8
GRAU_10_
 62
     7
  0
POLYLINE
  5
2EE
330
1F
100
AcDbEntity
  8
GRAU_10_
 62
     7
100
AcDb2dPolyline
 66
     1
 10
0.0
 20
0.0
 30
0.0
  0
VERTEX
  5
2EF
330
2EE
100
AcDbEntity
  8
GRAU_10_
 62
     7
100
AcDbVertex
100
AcDb2dVertex
 10
125.2151208020298
 20
207.2337072235825
 30
0.0
  0
VERTEX
  5
2F0
330
2EE
100
AcDbEntity
  8
GRAU_10_
 62
     7
100
AcDbVertex
100
AcDb2dVertex
 10
124.6503235799485
 20
207.2337072235825
 30
0.0
  0
SEQEND
  5
2F1
330
2EE
100
AcDbEntity
  8
GRAU_10_
 62
     7
  0
POLYLINE
  5
2F2
330
1F
100
AcDbEntity
  8
GRAU_10_
 62
     7
100
AcDb2dPolyline
 66
     1
 10
0.0
 20
0.0
 30
0.0
  0
VERTEX
  5
2F3
330
2F2
100
AcDbEntity
  8
GRAU_10_
 62
     7
100
AcDbVertex
100
AcDb2dVertex
 10
124.6503235799485
 20
168.8578350109538
 30
0.0
  0
VERTEX
  5
2F4
330
2F2
100
AcDbEntity
  8
GRAU_10_
 62
     7
100
AcDbVertex
100
AcDb2dVertex
 10
125.2151208020298
 20
168.8578350109538
 30
0.0
  0
SEQEND
  5
2F5
330
2F2
100
AcDbEntity
  8
GRAU_10_
 62
     7
  0
POLYLINE
  5
2F6
330
1F
100
AcDbEntity
  8
GRAU_10_
 62
     7
100
AcDb2dPolyline
 66
     1
 10
0.0
 20
0.0
 30
0.0
  0
VERTEX
  5
2F7
330
2F6
100
AcDbEntity
  8
GRAU_10_
 62
     7
100
AcDbVertex
100
AcDb2dVertex
 10
126.3440096906364
 20
168.8578350109538
 30
0.0
  0
VERTEX
  5
2F8
330
2F6
100
AcDbEntity
  8
GRAU_10_
 62
     7
100
AcDbVertex
100
AcDb2dVertex
 10
127.472898579243
 20
168.8578350109538
 30
0.0
  0
SEQEND
  5
2F9
330
2F6
100
AcDbEntity
  8
GRAU_10_
 62
     7
  0
POLYLINE
  5
2FA
330
1F
100
AcDbEntity
  8
GRAU_10_
 62
     7
100
AcDb2dPolyline
 66
     1
 10
0.0
 20
0.0
 30
0.0
  0
VERTEX
  5
2FB
330
2FA
100
AcDbEntity
  8
GRAU_10_
 62
     7
100
AcDbVertex
100
AcDb2dVertex
 10
128.6021402456273
 20
168.8578350109538
 30
0.0
  0
VERTEX
  5
2FC
330
2FA
100
AcDbEntity
  8
GRAU_10_
 62
     7
100
AcDbVertex
100
AcDb2dVertex
 10
129.7317346897895
 20
168.8578350109538
 30
0.0
  0
SEQEND
  5
2FD
330
2FA
100
AcDbEntity
  8
GRAU_10_
 62
     7
  0
POLYLINE
  5
2FE
330
1F
100
AcDbEntity
  8
GRAU_10_
 62
     7
100
AcDb2dPolyline
 66
     1
 10
0.0
 20
0.0
 30
0.0
  0
VERTEX
  5
2FF
330
2FE
100
AcDbEntity
  8
GRAU_10_
 62
     7
100
AcDbVertex
100
AcDb2dVertex
 10
130.8606235783961
 20
168.8578350109538
 30
0.0
  0
VERTEX
  5
300
330
2FE
100
AcDbEntity
  8
GRAU_10_
 62
     7
100
AcDbVertex
100
AcDb2dVertex
 10
131.425420800477
 20
168.8578350109538
 30
0.0
  0
SEQEND
  5
301
330
2FE
100
AcDbEntity
  8
GRAU_10_
 62
     7
  0
POLYLINE
  5
302
330
1F
100
AcDbEntity
  8
GRAU_10_
 62
     7
100
AcDb2dPolyline
 66
     1
 10
0.0
 20
0.0
 30
0.0
  0
VERTEX
  5
303
330
302
100
AcDbEntity
  8
GRAU_10_
 62
     7
100
AcDbVertex
100
AcDb2dVertex
 10
150.5382152401435
 20
184.5433933403657
 30
0.0
  0
VERTEX
  5
304
330
302
100
AcDbEntity
  8
GRAU_10_
 62
     7
100
AcDbVertex
100
AcDb2dVertex
 10
152.5384652396435
 20
184.5433933403657
 30
0.0
  0
SEQEND
  5
305
330
302
100
AcDbEntity
  8
GRAU_10_
 62
     7
  0
POLYLINE
  5
306
330
1F
100
AcDbEntity
  8
GRAU_10_
 62
     7
100
AcDb2dPolyline
 66
     1
 10
0.0
 20
0.0
 30
0.0
  0
VERTEX
  5
307
330
306
100
AcDbEntity
  8
GRAU_10_
 62
     7
100
AcDbVertex
100
AcDb2dVertex
 10
150.5382152401435
 20
191.5481488941703
 30
0.0
  0
VERTEX
  5
308
330
306
100
AcDbEntity
  8
GRAU_10_
 62
     7
100
AcDbVertex
100
AcDb2dVertex
 10
152.5384652396435
 20
191.5481488941703
 30
0.0
  0
VERTEX
  5
309
330
306
100
AcDbEntity
  8
GRAU_10_
 62
     7
100
AcDbVertex
100
AcDb2dVertex
 10
152.5384652396435
 20
189.2194627836415
 30
0.0
  0
VERTEX
  5
30A
330
306
100
AcDbEntity
  8
GRAU_10_
 62
     7
100
AcDbVertex
100
AcDb2dVertex
 10
152.5384652396435
 20
186.8720794508948
 30
0.0
  0
VERTEX
  5
30B
330
306
100
AcDbEntity
  8
GRAU_10_
 62
     7
100
AcDbVertex
100
AcDb2dVertex
 10
152.5384652396435
 20
184.5433933403657
 30
0.0
  0
SEQEND
  5
30C
330
306
100
AcDbEntity
  8
GRAU_10_
 62
     7
  0
POLYLINE
  5
30D
330
1F
100
AcDbEntity
  8
GRAU_10_
 62
     7
100
AcDb2dPolyline
 66
     1
 10
0.0
 20
0.0
 30
0.0
  0
VERTEX
  5
30E
330
30D
100
AcDbEntity
  8
GRAU_10_
 62
     7
100
AcDbVertex
100
AcDb2dVertex
 10
137.5880957989363
 20
170.3021072328153
 30
0.0
  0
VERTEX
  5
30F
330
30D
100
AcDbEntity
  8
GRAU_10_
 62
     7
100
AcDbVertex
100
AcDb2dVertex
 10
138.0474124654884
 20
170.5673961216377
 30
0.0
  0
SEQEND
  5
310
330
30D
100
AcDbEntity
  8
GRAU_10_
 62
     7
  0
POLYLINE
  5
311
330
1F
100
AcDbEntity
  8
GRAU_10_
 62
     7
100
AcDb2dPolyline
 66
     1
 10
0.0
 20
0.0
 30
0.0
  0
VERTEX
  5
312
330
311
100
AcDbEntity
  8
GRAU_10_
 62
     7
100
AcDbVertex
100
AcDb2dVertex
 10
138.9667513541473
 20
171.0976211215051
 30
0.0
  0
VERTEX
  5
313
330
311
100
AcDbEntity
  8
GRAU_10_
 62
     7
100
AcDbVertex
100
AcDb2dVertex
 10
139.8850319094734
 20
171.6281988991505
 30
0.0
  0
SEQEND
  5
314
330
311
100
AcDbEntity
  8
GRAU_10_
 62
     7
  0
POLYLINE
  5
315
330
1F
100
AcDbEntity
  8
GRAU_10_
 62
     7
100
AcDb2dPolyline
 66
     1
 10
0.0
 20
0.0
 30
0.0
  0
VERTEX
  5
316
330
315
100
AcDbEntity
  8
GRAU_10_
 62
     7
100
AcDbVertex
100
AcDb2dVertex
 10
140.8036652425771
 20
172.1587766767952
 30
0.0
  0
VERTEX
  5
317
330
315
100
AcDbEntity
  8
GRAU_10_
 62
     7
100
AcDbVertex
100
AcDb2dVertex
 10
141.7230041312361
 20
172.6893544544407
 30
0.0
  0
SEQEND
  5
318
330
315
100
AcDbEntity
  8
GRAU_10_
 62
     7
  0
POLYLINE
  5
319
330
1F
100
AcDbEntity
  8
GRAU_10_
 62
     7
100
AcDb2dPolyline
 66
     1
 10
0.0
 20
0.0
 30
0.0
  0
VERTEX
  5
31A
330
319
100
AcDbEntity
  8
GRAU_10_
 62
     7
100
AcDbVertex
100
AcDb2dVertex
 10
142.6412846865621
 20
173.219579454308
 30
0.0
  0
VERTEX
  5
31B
330
319
100
AcDbEntity
  8
GRAU_10_
 62
     7
100
AcDbVertex
100
AcDb2dVertex
 10
143.5602707974433
 20
173.7498044541753
 30
0.0
  0
SEQEND
  5
31C
330
319
100
AcDbEntity
  8
GRAU_10_
 62
     7
  0
POLYLINE
  5
31D
330
1F
100
AcDbEntity
  8
GRAU_10_
 62
     7
100
AcDb2dPolyline
 66
     1
 10
0.0
 20
0.0
 30
0.0
  0
VERTEX
  5
31E
330
31D
100
AcDbEntity
  8
GRAU_10_
 62
     7
100
AcDbVertex
100
AcDb2dVertex
 10
144.4789041305471
 20
174.2807350095982
 30
0.0
  0
VERTEX
  5
31F
330
31D
100
AcDbEntity
  8
GRAU_10_
 62
     7
100
AcDbVertex
100
AcDb2dVertex
 10
144.9385735748766
 20
174.5456711206432
 30
0.0
  0
SEQEND
  5
320
330
31D
100
AcDbEntity
  8
GRAU_10_
 62
     7
  0
POLYLINE
  5
321
330
1F
100
AcDbEntity
  8
GRAU_10_
 62
     7
100
AcDb2dPolyline
 66
     1
 10
0.0
 20
0.0
 30
0.0
  0
VERTEX
  5
322
330
321
100
AcDbEntity
  8
GRAU_10_
 62
     7
100
AcDbVertex
100
AcDb2dVertex
 10
144.9385735748766
 20
201.5458711138931
 30
0.0
  0
VERTEX
  5
323
330
321
100
AcDbEntity
  8
GRAU_10_
 62
     7
100
AcDbVertex
100
AcDb2dVertex
 10
144.4789041305471
 20
201.8108072249378
 30
0.0
  0
SEQEND
  5
324
330
321
100
AcDbEntity
  8
GRAU_10_
 62
     7
  0
POLYLINE
  5
325
330
1F
100
AcDbEntity
  8
GRAU_10_
 62
     7
100
AcDb2dPolyline
 66
     1
 10
0.0
 20
0.0
 30
0.0
  0
VERTEX
  5
326
330
325
100
AcDbEntity
  8
GRAU_10_
 62
     7
100
AcDbVertex
100
AcDb2dVertex
 10
143.5602707974433
 20
202.3417377803609
 30
0.0
  0
VERTEX
  5
327
330
325
100
AcDbEntity
  8
GRAU_10_
 62
     7
100
AcDbVertex
100
AcDb2dVertex
 10
142.6412846865621
 20
202.8716100024505
 30
0.0
  0
SEQEND
  5
328
330
325
100
AcDbEntity
  8
GRAU_10_
 62
     7
  0
POLYLINE
  5
329
330
1F
100
AcDbEntity
  8
GRAU_10_
 62
     7
100
AcDb2dPolyline
 66
     1
 10
0.0
 20
0.0
 30
0.0
  0
VERTEX
  5
32A
330
329
100
AcDbEntity
  8
GRAU_10_
 62
     7
100
AcDbVertex
100
AcDb2dVertex
 10
141.7230041312361
 20
203.4021877800956
 30
0.0
  0
VERTEX
  5
32B
330
329
100
AcDbEntity
  8
GRAU_10_
 62
     7
100
AcDbVertex
100
AcDb2dVertex
 10
140.8036652425771
 20
203.932765557741
 30
0.0
  0
SEQEND
  5
32C
330
329
100
AcDbEntity
  8
GRAU_10_
 62
     7
  0
POLYLINE
  5
32D
330
1F
100
AcDbEntity
  8
GRAU_10_
 62
     7
100
AcDb2dPolyline
 66
     1
 10
0.0
 20
0.0
 30
0.0
  0
VERTEX
  5
32E
330
32D
100
AcDbEntity
  8
GRAU_10_
 62
     7
100
AcDbVertex
100
AcDb2dVertex
 10
139.8850319094734
 20
204.4633433353858
 30
0.0
  0
VERTEX
  5
32F
330
32D
100
AcDbEntity
  8
GRAU_10_
 62
     7
100
AcDbVertex
100
AcDb2dVertex
 10
138.9667513541473
 20
204.9939211130312
 30
0.0
  0
SEQEND
  5
330
330
32D
100
AcDbEntity
  8
GRAU_10_
 62
     7
  0
POLYLINE
  5
331
330
1F
100
AcDbEntity
  8
GRAU_10_
 62
     7
100
AcDb2dPolyline
 66
     1
 10
0.0
 20
0.0
 30
0.0
  0
VERTEX
  5
332
330
331
100
AcDbEntity
  8
GRAU_10_
 62
     7
100
AcDbVertex
100
AcDb2dVertex
 10
138.0474124654884
 20
205.5237933351208
 30
0.0
  0
VERTEX
  5
333
330
331
100
AcDbEntity
  8
GRAU_10_
 62
     7
100
AcDbVertex
100
AcDb2dVertex
 10
137.5880957989363
 20
205.789435001721
 30
0.0
  0
SEQEND
  5
334
330
331
100
AcDbEntity
  8
GRAU_10_
 62
     7
  0
POLYLINE
  5
335
330
1F
100
AcDbEntity
  8
GRAU_10_
 62
     7
100
AcDb2dPolyline
 66
     1
 10
0.0
 20
0.0
 30
0.0
  0
VERTEX
  5
336
330
335
100
AcDbEntity
  8
GRAU_10_
 62
     7
100
AcDbVertex
100
AcDb2dVertex
 10
144.9385735748766
 20
174.5456711206432
 30
0.0
  0
VERTEX
  5
337
330
335
100
AcDbEntity
  8
GRAU_10_
 62
     7
100
AcDbVertex
100
AcDb2dVertex
 10
144.9385735748766
 20
174.6522100095056
 30
0.0
  0
VERTEX
  5
338
330
335
100
AcDbEntity
  8
GRAU_10_
 62
     7
100
AcDbVertex
100
AcDb2dVertex
 10
144.9385735748766
 20
174.9697100094261
 30
0.0
  0
VERTEX
  5
339
330
335
100
AcDbEntity
  8
GRAU_10_
 62
     7
100
AcDbVertex
100
AcDb2dVertex
 10
144.9385735748766
 20
175.0275655649671
 30
0.0
  0
SEQEND
  5
33A
330
335
100
AcDbEntity
  8
GRAU_10_
 62
     7
  0
POLYLINE
  5
33B
330
1F
100
AcDbEntity
  8
GRAU_10_
 62
     7
100
AcDb2dPolyline
 66
     1
 10
0.0
 20
0.0
 30
0.0
  0
VERTEX
  5
33C
330
33B
100
AcDbEntity
  8
GRAU_10_
 62
     7
100
AcDbVertex
100
AcDb2dVertex
 10
144.9385735748766
 20
175.9920600091703
 30
0.0
  0
VERTEX
  5
33D
330
33B
100
AcDbEntity
  8
GRAU_10_
 62
     7
100
AcDbVertex
100
AcDb2dVertex
 10
144.9385735748766
 20
176.2157211202255
 30
0.0
  0
VERTEX
  5
33E
330
33B
100
AcDbEntity
  8
GRAU_10_
 62
     7
100
AcDbVertex
100
AcDb2dVertex
 10
144.9385735748766
 20
176.9565544533737
 30
0.0
  0
SEQEND
  5
33F
330
33B
100
AcDbEntity
  8
GRAU_10_
 62
     7
  0
POLYLINE
  5
340
330
1F
100
AcDbEntity
  8
GRAU_10_
 62
     7
100
AcDb2dPolyline
 66
     1
 10
0.0
 20
0.0
 30
0.0
  0
VERTEX
  5
341
330
340
100
AcDbEntity
  8
GRAU_10_
 62
     7
100
AcDbVertex
100
AcDb2dVertex
 10
144.9385735748766
 20
177.9206961197994
 30
0.0
  0
VERTEX
  5
342
330
340
100
AcDbEntity
  8
GRAU_10_
 62
     7
100
AcDbVertex
100
AcDb2dVertex
 10
144.9385735748766
 20
178.2046822308396
 30
0.0
  0
VERTEX
  5
343
330
340
100
AcDbEntity
  8
GRAU_10_
 62
     7
100
AcDbVertex
100
AcDb2dVertex
 10
144.9385735748766
 20
178.8851905640029
 30
0.0
  0
SEQEND
  5
344
330
340
100
AcDbEntity
  8
GRAU_10_
 62
     7
  0
POLYLINE
  5
345
330
1F
100
AcDbEntity
  8
GRAU_10_
 62
     7
100
AcDb2dPolyline
 66
     1
 10
0.0
 20
0.0
 30
0.0
  0
VERTEX
  5
346
330
345
100
AcDbEntity
  8
GRAU_10_
 62
     7
100
AcDbVertex
100
AcDb2dVertex
 10
144.9385735748766
 20
179.8489794526508
 30
0.0
  0
VERTEX
  5
347
330
345
100
AcDbEntity
  8
GRAU_10_
 62
     7
100
AcDbVertex
100
AcDb2dVertex
 10
144.9385735748766
 20
180.8120627857432
 30
0.0
  0
VERTEX
  5
348
330
345
100
AcDbEntity
  8
GRAU_10_
 62
     7
100
AcDbVertex
100
AcDb2dVertex
 10
144.9385735748766
 20
180.8138266746317
 30
0.0
  0
SEQEND
  5
349
330
345
100
AcDbEntity
  8
GRAU_10_
 62
     7
  0
POLYLINE
  5
34A
330
1F
100
AcDbEntity
  8
GRAU_10_
 62
     7
100
AcDb2dPolyline
 66
     1
 10
0.0
 20
0.0
 30
0.0
  0
VERTEX
  5
34B
330
34A
100
AcDbEntity
  8
GRAU_10_
 62
     7
100
AcDbVertex
100
AcDb2dVertex
 10
144.9385735748766
 20
181.7776155632796
 30
0.0
  0
VERTEX
  5
34C
330
34A
100
AcDbEntity
  8
GRAU_10_
 62
     7
100
AcDbVertex
100
AcDb2dVertex
 10
144.9385735748766
 20
182.2979627853716
 30
0.0
  0
VERTEX
  5
34D
330
34A
100
AcDbEntity
  8
GRAU_10_
 62
     7
100
AcDbVertex
100
AcDb2dVertex
 10
144.9385735748766
 20
182.7421100074828
 30
0.0
  0
SEQEND
  5
34E
330
34A
100
AcDbEntity
  8
GRAU_10_
 62
     7
  0
POLYLINE
  5
34F
330
1F
100
AcDbEntity
  8
GRAU_10_
 62
     7
100
AcDb2dPolyline
 66
     1
 10
0.0
 20
0.0
 30
0.0
  0
VERTEX
  5
350
330
34F
100
AcDbEntity
  8
GRAU_10_
 62
     7
100
AcDbVertex
100
AcDb2dVertex
 10
144.9385735748766
 20
183.7062516739084
 30
0.0
  0
VERTEX
  5
351
330
34F
100
AcDbEntity
  8
GRAU_10_
 62
     7
100
AcDbVertex
100
AcDb2dVertex
 10
144.9385735748766
 20
183.8738211183111
 30
0.0
  0
VERTEX
  5
352
330
34F
100
AcDbEntity
  8
GRAU_10_
 62
     7
100
AcDbVertex
100
AcDb2dVertex
 10
144.9385735748766
 20
184.6707461181119
 30
0.0
  0
SEQEND
  5
353
330
34F
100
AcDbEntity
  8
GRAU_10_
 62
     7
  0
POLYLINE
  5
354
330
1F
100
AcDbEntity
  8
GRAU_10_
 62
     7
100
AcDb2dPolyline
 66
     1
 10
0.0
 20
0.0
 30
0.0
  0
VERTEX
  5
355
330
354
100
AcDbEntity
  8
GRAU_10_
 62
     7
100
AcDbVertex
100
AcDb2dVertex
 10
144.9385735748766
 20
185.6352405623153
 30
0.0
  0
VERTEX
  5
356
330
354
100
AcDbEntity
  8
GRAU_10_
 62
     7
100
AcDbVertex
100
AcDb2dVertex
 10
144.9385735748766
 20
186.5990294509633
 30
0.0
  0
SEQEND
  5
357
330
354
100
AcDbEntity
  8
GRAU_10_
 62
     7
  0
POLYLINE
  5
358
330
1F
100
AcDbEntity
  8
GRAU_10_
 62
     7
100
AcDb2dPolyline
 66
     1
 10
0.0
 20
0.0
 30
0.0
  0
VERTEX
  5
359
330
358
100
AcDbEntity
  8
GRAU_10_
 62
     7
100
AcDbVertex
100
AcDb2dVertex
 10
144.9385735748766
 20
187.5638766729442
 30
0.0
  0
VERTEX
  5
35A
330
358
100
AcDbEntity
  8
GRAU_10_
 62
     7
100
AcDbVertex
100
AcDb2dVertex
 10
144.9385735748766
 20
188.5276655615921
 30
0.0
  0
SEQEND
  5
35B
330
358
100
AcDbEntity
  8
GRAU_10_
 62
     7
  0
POLYLINE
  5
35C
330
1F
100
AcDbEntity
  8
GRAU_10_
 62
     7
100
AcDb2dPolyline
 66
     1
 10
0.0
 20
0.0
 30
0.0
  0
VERTEX
  5
35D
330
35C
100
AcDbEntity
  8
GRAU_10_
 62
     7
100
AcDbVertex
100
AcDb2dVertex
 10
144.9385735748766
 20
189.492512783573
 30
0.0
  0
VERTEX
  5
35E
330
35C
100
AcDbEntity
  8
GRAU_10_
 62
     7
100
AcDbVertex
100
AcDb2dVertex
 10
144.9385735748766
 20
190.4563016722209
 30
0.0
  0
SEQEND
  5
35F
330
35C
100
AcDbEntity
  8
GRAU_10_
 62
     7
  0
POLYLINE
  5
360
330
1F
100
AcDbEntity
  8
GRAU_10_
 62
     7
100
AcDb2dPolyline
 66
     1
 10
0.0
 20
0.0
 30
0.0
  0
VERTEX
  5
361
330
360
100
AcDbEntity
  8
GRAU_10_
 62
     7
100
AcDbVertex
100
AcDb2dVertex
 10
144.9385735748766
 20
191.4207961164244
 30
0.0
  0
VERTEX
  5
362
330
360
100
AcDbEntity
  8
GRAU_10_
 62
     7
100
AcDbVertex
100
AcDb2dVertex
 10
144.9385735748766
 20
192.2177211162252
 30
0.0
  0
VERTEX
  5
363
330
360
100
AcDbEntity
  8
GRAU_10_
 62
     7
100
AcDbVertex
100
AcDb2dVertex
 10
144.9385735748766
 20
192.3849377828501
 30
0.0
  0
SEQEND
  5
364
330
360
100
AcDbEntity
  8
GRAU_10_
 62
     7
  0
POLYLINE
  5
365
330
1F
100
AcDbEntity
  8
GRAU_10_
 62
     7
100
AcDb2dPolyline
 66
     1
 10
0.0
 20
0.0
 30
0.0
  0
VERTEX
  5
366
330
365
100
AcDbEntity
  8
GRAU_10_
 62
     7
100
AcDbVertex
100
AcDb2dVertex
 10
144.9385735748766
 20
193.3494322270535
 30
0.0
  0
VERTEX
  5
367
330
365
100
AcDbEntity
  8
GRAU_10_
 62
     7
100
AcDbVertex
100
AcDb2dVertex
 10
144.9385735748766
 20
193.7935794491647
 30
0.0
  0
VERTEX
  5
368
330
365
100
AcDbEntity
  8
GRAU_10_
 62
     7
100
AcDbVertex
100
AcDb2dVertex
 10
144.9385735748766
 20
194.3139266712567
 30
0.0
  0
SEQEND
  5
369
330
365
100
AcDbEntity
  8
GRAU_10_
 62
     7
  0
POLYLINE
  5
36A
330
1F
100
AcDbEntity
  8
GRAU_10_
 62
     7
100
AcDb2dPolyline
 66
     1
 10
0.0
 20
0.0
 30
0.0
  0
VERTEX
  5
36B
330
36A
100
AcDbEntity
  8
GRAU_10_
 62
     7
100
AcDbVertex
100
AcDb2dVertex
 10
144.9385735748766
 20
195.2777155599046
 30
0.0
  0
VERTEX
  5
36C
330
36A
100
AcDbEntity
  8
GRAU_10_
 62
     7
100
AcDbVertex
100
AcDb2dVertex
 10
144.9385735748766
 20
195.2794794487931
 30
0.0
  0
VERTEX
  5
36D
330
36A
100
AcDbEntity
  8
GRAU_10_
 62
     7
100
AcDbVertex
100
AcDb2dVertex
 10
144.9385735748766
 20
196.2422100041077
 30
0.0
  0
SEQEND
  5
36E
330
36A
100
AcDbEntity
  8
GRAU_10_
 62
     7
  0
POLYLINE
  5
36F
330
1F
100
AcDbEntity
  8
GRAU_10_
 62
     7
100
AcDb2dPolyline
 66
     1
 10
0.0
 20
0.0
 30
0.0
  0
VERTEX
  5
370
330
36F
100
AcDbEntity
  8
GRAU_10_
 62
     7
100
AcDbVertex
100
AcDb2dVertex
 10
144.9385735748766
 20
197.2063516705334
 30
0.0
  0
VERTEX
  5
371
330
36F
100
AcDbEntity
  8
GRAU_10_
 62
     7
100
AcDbVertex
100
AcDb2dVertex
 10
144.9385735748766
 20
197.8865072259189
 30
0.0
  0
VERTEX
  5
372
330
36F
100
AcDbEntity
  8
GRAU_10_
 62
     7
100
AcDbVertex
100
AcDb2dVertex
 10
144.9385735748766
 20
198.1708461147369
 30
0.0
  0
SEQEND
  5
373
330
36F
100
AcDbEntity
  8
GRAU_10_
 62
     7
  0
POLYLINE
  5
374
330
1F
100
AcDbEntity
  8
GRAU_10_
 62
     7
100
AcDb2dPolyline
 66
     1
 10
0.0
 20
0.0
 30
0.0
  0
VERTEX
  5
375
330
374
100
AcDbEntity
  8
GRAU_10_
 62
     7
100
AcDbVertex
100
AcDb2dVertex
 10
144.9385735748766
 20
199.1349877811626
 30
0.0
  0
VERTEX
  5
376
330
374
100
AcDbEntity
  8
GRAU_10_
 62
     7
100
AcDbVertex
100
AcDb2dVertex
 10
144.9385735748766
 20
199.8758211143108
 30
0.0
  0
VERTEX
  5
377
330
374
100
AcDbEntity
  8
GRAU_10_
 62
     7
100
AcDbVertex
100
AcDb2dVertex
 10
144.9385735748766
 20
200.099482225366
 30
0.0
  0
SEQEND
  5
378
330
374
100
AcDbEntity
  8
GRAU_10_
 62
     7
  0
POLYLINE
  5
379
330
1F
100
AcDbEntity
  8
GRAU_10_
 62
     7
100
AcDb2dPolyline
 66
     1
 10
0.0
 20
0.0
 30
0.0
  0
VERTEX
  5
37A
330
379
100
AcDbEntity
  8
GRAU_10_
 62
     7
100
AcDbVertex
100
AcDb2dVertex
 10
144.9385735748766
 20
201.063271114014
 30
0.0
  0
VERTEX
  5
37B
330
379
100
AcDbEntity
  8
GRAU_10_
 62
     7
100
AcDbVertex
100
AcDb2dVertex
 10
144.9385735748766
 20
201.1218322251102
 30
0.0
  0
VERTEX
  5
37C
330
379
100
AcDbEntity
  8
GRAU_10_
 62
     7
100
AcDbVertex
100
AcDb2dVertex
 10
144.9385735748766
 20
201.4393322250307
 30
0.0
  0
VERTEX
  5
37D
330
379
100
AcDbEntity
  8
GRAU_10_
 62
     7
100
AcDbVertex
100
AcDb2dVertex
 10
144.9385735748766
 20
201.5458711138931
 30
0.0
  0
SEQEND
  5
37E
330
379
100
AcDbEntity
  8
GRAU_10_
 62
     7
  0
POLYLINE
  5
37F
330
1F
100
AcDbEntity
  8
GRAU_10_
 62
     7
100
AcDb2dPolyline
 66
     1
 10
0.0
 20
0.0
 30
0.0
  0
VERTEX
  5
380
330
37F
100
AcDbEntity
  8
GRAU_10_
 62
     7
100
AcDbVertex
100
AcDb2dVertex
 10
149.1380402404935
 20
201.5458711138931
 30
0.0
  0
VERTEX
  5
381
330
37F
100
AcDbEntity
  8
GRAU_10_
 62
     7
100
AcDbVertex
100
AcDb2dVertex
 10
148.6131069072913
 20
201.5458711138931
 30
0.0
  0
SEQEND
  5
382
330
37F
100
AcDbEntity
  8
GRAU_10_
 62
     7
  0
POLYLINE
  5
383
330
1F
100
AcDbEntity
  8
GRAU_10_
 62
     7
100
AcDb2dPolyline
 66
     1
 10
0.0
 20
0.0
 30
0.0
  0
VERTEX
  5
384
330
383
100
AcDbEntity
  8
GRAU_10_
 62
     7
100
AcDbVertex
100
AcDb2dVertex
 10
147.5632402408872
 20
201.5458711138931
 30
0.0
  0
VERTEX
  5
385
330
383
100
AcDbEntity
  8
GRAU_10_
 62
     7
100
AcDbVertex
100
AcDb2dVertex
 10
146.5133735744828
 20
201.5458711138931
 30
0.0
  0
SEQEND
  5
386
330
383
100
AcDbEntity
  8
GRAU_10_
 62
     7
  0
POLYLINE
  5
387
330
1F
100
AcDbEntity
  8
GRAU_10_
 62
     7
100
AcDb2dPolyline
 66
     1
 10
0.0
 20
0.0
 30
0.0
  0
VERTEX
  5
388
330
387
100
AcDbEntity
  8
GRAU_10_
 62
     7
100
AcDbVertex
100
AcDb2dVertex
 10
145.4635069080788
 20
201.5458711138931
 30
0.0
  0
VERTEX
  5
389
330
387
100
AcDbEntity
  8
GRAU_10_
 62
     7
100
AcDbVertex
100
AcDb2dVertex
 10
144.9385735748766
 20
201.5458711138931
 30
0.0
  0
SEQEND
  5
38A
330
387
100
AcDbEntity
  8
GRAU_10_
 62
     7
  0
POLYLINE
  5
38B
330
1F
100
AcDbEntity
  8
GRAU_10_
 62
     7
100
AcDb2dPolyline
 66
     1
 10
0.0
 20
0.0
 30
0.0
  0
VERTEX
  5
38C
330
38B
100
AcDbEntity
  8
GRAU_10_
 62
     7
100
AcDbVertex
100
AcDb2dVertex
 10
144.9385735748766
 20
174.5456711206432
 30
0.0
  0
VERTEX
  5
38D
330
38B
100
AcDbEntity
  8
GRAU_10_
 62
     7
100
AcDbVertex
100
AcDb2dVertex
 10
145.4635069080788
 20
174.5456711206432
 30
0.0
  0
SEQEND
  5
38E
330
38B
100
AcDbEntity
  8
GRAU_10_
 62
     7
  0
POLYLINE
  5
38F
330
1F
100
AcDbEntity
  8
GRAU_10_
 62
     7
100
AcDb2dPolyline
 66
     1
 10
0.0
 20
0.0
 30
0.0
  0
VERTEX
  5
390
330
38F
100
AcDbEntity
  8
GRAU_10_
 62
     7
100
AcDbVertex
100
AcDb2dVertex
 10
146.5133735744828
 20
174.5456711206432
 30
0.0
  0
VERTEX
  5
391
330
38F
100
AcDbEntity
  8
GRAU_10_
 62
     7
100
AcDbVertex
100
AcDb2dVertex
 10
147.5632402408872
 20
174.5456711206432
 30
0.0
  0
SEQEND
  5
392
330
38F
100
AcDbEntity
  8
GRAU_10_
 62
     7
  0
POLYLINE
  5
393
330
1F
100
AcDbEntity
  8
GRAU_10_
 62
     7
100
AcDb2dPolyline
 66
     1
 10
0.0
 20
0.0
 30
0.0
  0
VERTEX
  5
394
330
393
100
AcDbEntity
  8
GRAU_10_
 62
     7
100
AcDbVertex
100
AcDb2dVertex
 10
148.6131069072913
 20
174.5456711206432
 30
0.0
  0
VERTEX
  5
395
330
393
100
AcDbEntity
  8
GRAU_10_
 62
     7
100
AcDbVertex
100
AcDb2dVertex
 10
149.1380402404935
 20
174.5456711206432
 30
0.0
  0
VERTEX
  5
396
330
393
100
AcDbEntity
  8
GRAU_10_
 62
     7
100
AcDbVertex
100
AcDb2dVertex
 10
149.279504129347
 20
174.6045850095175
 30
0.0
  0
SEQEND
  5
397
330
393
100
AcDbEntity
  8
GRAU_10_
 62
     7
  0
POLYLINE
  5
398
330
1F
100
AcDbEntity
  8
GRAU_10_
 62
     7
100
AcDb2dPolyline
 66
     1
 10
0.0
 20
0.0
 30
0.0
  0
VERTEX
  5
399
330
398
100
AcDbEntity
  8
GRAU_10_
 62
     7
100
AcDbVertex
100
AcDb2dVertex
 10
149.4798819070747
 20
174.8046100094671
 30
0.0
  0
VERTEX
  5
39A
330
398
100
AcDbEntity
  8
GRAU_10_
 62
     7
100
AcDbVertex
100
AcDb2dVertex
 10
149.5380902403935
 20
174.9457211205432
 30
0.0
  0
SEQEND
  5
39B
330
398
100
AcDbEntity
  8
GRAU_10_
 62
     7
  0
POLYLINE
  5
39C
330
1F
100
AcDbEntity
  8
GRAU_10_
 62
     7
100
AcDb2dPolyline
 66
     1
 10
0.0
 20
0.0
 30
0.0
  0
VERTEX
  5
39D
330
39C
100
AcDbEntity
  8
GRAU_10_
 62
     7
100
AcDbVertex
100
AcDb2dVertex
 10
149.5380902403935
 20
201.1458211139932
 30
0.0
  0
VERTEX
  5
39E
330
39C
100
AcDbEntity
  8
GRAU_10_
 62
     7
100
AcDbVertex
100
AcDb2dVertex
 10
149.4798819070747
 20
201.2869322250692
 30
0.0
  0
SEQEND
  5
39F
330
39C
100
AcDbEntity
  8
GRAU_10_
 62
     7
  0
POLYLINE
  5
3A0
330
1F
100
AcDbEntity
  8
GRAU_10_
 62
     7
100
AcDb2dPolyline
 66
     1
 10
0.0
 20
0.0
 30
0.0
  0
VERTEX
  5
3A1
330
3A0
100
AcDbEntity
  8
GRAU_10_
 62
     7
100
AcDbVertex
100
AcDb2dVertex
 10
149.279504129347
 20
201.4869572250188
 30
0.0
  0
VERTEX
  5
3A2
330
3A0
100
AcDbEntity
  8
GRAU_10_
 62
     7
100
AcDbVertex
100
AcDb2dVertex
 10
149.1380402404935
 20
201.5458711138931
 30
0.0
  0
SEQEND
  5
3A3
330
3A0
100
AcDbEntity
  8
GRAU_10_
 62
     7
  0
POLYLINE
  5
3A4
330
1F
100
AcDbEntity
  8
GRAU_10_
 62
     7
100
AcDb2dPolyline
 66
     1
 10
0.0
 20
0.0
 30
0.0
  0
VERTEX
  5
3A5
330
3A4
100
AcDbEntity
  8
GRAU_10_
 62
     7
100
AcDbVertex
100
AcDb2dVertex
 10
149.5380902403935
 20
174.9457211205432
 30
0.0
  0
VERTEX
  5
3A6
330
3A4
100
AcDbEntity
  8
GRAU_10_
 62
     7
100
AcDbVertex
100
AcDb2dVertex
 10
149.5380902403935
 20
175.0490850094064
 30
0.0
  0
VERTEX
  5
3A7
330
3A4
100
AcDbEntity
  8
GRAU_10_
 62
     7
100
AcDbVertex
100
AcDb2dVertex
 10
149.5380902403935
 20
175.357412787107
 30
0.0
  0
VERTEX
  5
3A8
330
3A4
100
AcDbEntity
  8
GRAU_10_
 62
     7
100
AcDbVertex
100
AcDb2dVertex
 10
149.5380902403935
 20
175.4494877870839
 30
0.0
  0
SEQEND
  5
3A9
330
3A4
100
AcDbEntity
  8
GRAU_10_
 62
     7
  0
POLYLINE
  5
3AA
330
1F
100
AcDbEntity
  8
GRAU_10_
 62
     7
100
AcDb2dPolyline
 66
     1
 10
0.0
 20
0.0
 30
0.0
  0
VERTEX
  5
3AB
330
3AA
100
AcDbEntity
  8
GRAU_10_
 62
     7
100
AcDbVertex
100
AcDb2dVertex
 10
149.5380902403935
 20
176.4570211201655
 30
0.0
  0
VERTEX
  5
3AC
330
3AA
100
AcDbEntity
  8
GRAU_10_
 62
     7
100
AcDbVertex
100
AcDb2dVertex
 10
149.5380902403935
 20
176.5663822312491
 30
0.0
  0
VERTEX
  5
3AD
330
3AA
100
AcDbEntity
  8
GRAU_10_
 62
     7
100
AcDbVertex
100
AcDb2dVertex
 10
149.5380902403935
 20
177.4472683421398
 30
0.0
  0
VERTEX
  5
3AE
330
3AA
100
AcDbEntity
  8
GRAU_10_
 62
     7
100
AcDbVertex
100
AcDb2dVertex
 10
149.5380902403935
 20
177.4652600088021
 30
0.0
  0
SEQEND
  5
3AF
330
3AA
100
AcDbEntity
  8
GRAU_10_
 62
     7
  0
POLYLINE
  5
3B0
330
1F
100
AcDbEntity
  8
GRAU_10_
 62
     7
100
AcDb2dPolyline
 66
     1
 10
0.0
 20
0.0
 30
0.0
  0
VERTEX
  5
3B1
330
3B0
100
AcDbEntity
  8
GRAU_10_
 62
     7
100
AcDbVertex
100
AcDb2dVertex
 10
149.5380902403935
 20
178.4727933418838
 30
0.0
  0
VERTEX
  5
3B2
330
3B0
100
AcDbEntity
  8
GRAU_10_
 62
     7
100
AcDbVertex
100
AcDb2dVertex
 10
149.5380902403935
 20
178.4964294529887
 30
0.0
  0
VERTEX
  5
3B3
330
3B0
100
AcDbEntity
  8
GRAU_10_
 62
     7
100
AcDbVertex
100
AcDb2dVertex
 10
149.5380902403935
 20
179.4806794527429
 30
0.0
  0
SEQEND
  5
3B4
330
3B0
100
AcDbEntity
  8
GRAU_10_
 62
     7
  0
POLYLINE
  5
3B5
330
1F
100
AcDbEntity
  8
GRAU_10_
 62
     7
100
AcDb2dPolyline
 66
     1
 10
0.0
 20
0.0
 30
0.0
  0
VERTEX
  5
3B6
330
3B5
100
AcDbEntity
  8
GRAU_10_
 62
     7
100
AcDbVertex
100
AcDb2dVertex
 10
149.5380902403935
 20
180.4882127858243
 30
0.0
  0
VERTEX
  5
3B7
330
3B5
100
AcDbEntity
  8
GRAU_10_
 62
     7
100
AcDbVertex
100
AcDb2dVertex
 10
149.5380902403935
 20
181.0261988968008
 30
0.0
  0
VERTEX
  5
3B8
330
3B5
100
AcDbEntity
  8
GRAU_10_
 62
     7
100
AcDbVertex
100
AcDb2dVertex
 10
149.5380902403935
 20
181.4957461189057
 30
0.0
  0
SEQEND
  5
3B9
330
3B5
100
AcDbEntity
  8
GRAU_10_
 62
     7
  0
POLYLINE
  5
3BA
330
1F
100
AcDbEntity
  8
GRAU_10_
 62
     7
100
AcDb2dPolyline
 66
     1
 10
0.0
 20
0.0
 30
0.0
  0
VERTEX
  5
3BB
330
3BA
100
AcDbEntity
  8
GRAU_10_
 62
     7
100
AcDbVertex
100
AcDb2dVertex
 10
149.5380902403935
 20
182.503279451987
 30
0.0
  0
VERTEX
  5
3BC
330
3BA
100
AcDbEntity
  8
GRAU_10_
 62
     7
100
AcDbVertex
100
AcDb2dVertex
 10
149.5380902403935
 20
183.5108127850684
 30
0.0
  0
SEQEND
  5
3BD
330
3BA
100
AcDbEntity
  8
GRAU_10_
 62
     7
  0
POLYLINE
  5
3BE
330
1F
100
AcDbEntity
  8
GRAU_10_
 62
     7
100
AcDb2dPolyline
 66
     1
 10
0.0
 20
0.0
 30
0.0
  0
VERTEX
  5
3BF
330
3BE
100
AcDbEntity
  8
GRAU_10_
 62
     7
100
AcDbVertex
100
AcDb2dVertex
 10
149.5380902403935
 20
184.5190516737053
 30
0.0
  0
VERTEX
  5
3C0
330
3BE
100
AcDbEntity
  8
GRAU_10_
 62
     7
100
AcDbVertex
100
AcDb2dVertex
 10
149.5380902403935
 20
185.5265850067867
 30
0.0
  0
SEQEND
  5
3C1
330
3BE
100
AcDbEntity
  8
GRAU_10_
 62
     7
  0
POLYLINE
  5
3C2
330
1F
100
AcDbEntity
  8
GRAU_10_
 62
     7
100
AcDb2dPolyline
 66
     1
 10
0.0
 20
0.0
 30
0.0
  0
VERTEX
  5
3C3
330
3C2
100
AcDbEntity
  8
GRAU_10_
 62
     7
100
AcDbVertex
100
AcDb2dVertex
 10
149.5380902403935
 20
186.5344711176458
 30
0.0
  0
VERTEX
  5
3C4
330
3C2
100
AcDbEntity
  8
GRAU_10_
 62
     7
100
AcDbVertex
100
AcDb2dVertex
 10
149.5380902403935
 20
187.2230933396962
 30
0.0
  0
VERTEX
  5
3C5
330
3C2
100
AcDbEntity
  8
GRAU_10_
 62
     7
100
AcDbVertex
100
AcDb2dVertex
 10
149.5380902403935
 20
187.5420044507271
 30
0.0
  0
SEQEND
  5
3C6
330
3C2
100
AcDbEntity
  8
GRAU_10_
 62
     7
  0
POLYLINE
  5
3C7
330
1F
100
AcDbEntity
  8
GRAU_10_
 62
     7
100
AcDb2dPolyline
 66
     1
 10
0.0
 20
0.0
 30
0.0
  0
VERTEX
  5
3C8
330
3C7
100
AcDbEntity
  8
GRAU_10_
 62
     7
100
AcDbVertex
100
AcDb2dVertex
 10
149.5380902403935
 20
188.5495377838088
 30
0.0
  0
VERTEX
  5
3C9
330
3C7
100
AcDbEntity
  8
GRAU_10_
 62
     7
100
AcDbVertex
100
AcDb2dVertex
 10
149.5380902403935
 20
188.86844889484
 30
0.0
  0
VERTEX
  5
3CA
330
3C7
100
AcDbEntity
  8
GRAU_10_
 62
     7
100
AcDbVertex
100
AcDb2dVertex
 10
149.5380902403935
 20
189.5570711168905
 30
0.0
  0
SEQEND
  5
3CB
330
3C7
100
AcDbEntity
  8
GRAU_10_
 62
     7
  0
POLYLINE
  5
3CC
330
1F
100
AcDbEntity
  8
GRAU_10_
 62
     7
100
AcDb2dPolyline
 66
     1
 10
0.0
 20
0.0
 30
0.0
  0
VERTEX
  5
3CD
330
3CC
100
AcDbEntity
  8
GRAU_10_
 62
     7
100
AcDbVertex
100
AcDb2dVertex
 10
149.5380902403935
 20
190.5649572277497
 30
0.0
  0
VERTEX
  5
3CE
330
3CC
100
AcDbEntity
  8
GRAU_10_
 62
     7
100
AcDbVertex
100
AcDb2dVertex
 10
149.5380902403935
 20
191.572490560831
 30
0.0
  0
SEQEND
  5
3CF
330
3CC
100
AcDbEntity
  8
GRAU_10_
 62
     7
  0
POLYLINE
  5
3D0
330
1F
100
AcDbEntity
  8
GRAU_10_
 62
     7
100
AcDb2dPolyline
 66
     1
 10
0.0
 20
0.0
 30
0.0
  0
VERTEX
  5
3D1
330
3D0
100
AcDbEntity
  8
GRAU_10_
 62
     7
100
AcDbVertex
100
AcDb2dVertex
 10
149.5380902403935
 20
192.5803766716901
 30
0.0
  0
VERTEX
  5
3D2
330
3D0
100
AcDbEntity
  8
GRAU_10_
 62
     7
100
AcDbVertex
100
AcDb2dVertex
 10
149.5380902403935
 20
193.5882627825493
 30
0.0
  0
SEQEND
  5
3D3
330
3D0
100
AcDbEntity
  8
GRAU_10_
 62
     7
  0
POLYLINE
  5
3D4
330
1F
100
AcDbEntity
  8
GRAU_10_
 62
     7
100
AcDb2dPolyline
 66
     1
 10
0.0
 20
0.0
 30
0.0
  0
VERTEX
  5
3D5
330
3D4
100
AcDbEntity
  8
GRAU_10_
 62
     7
100
AcDbVertex
100
AcDb2dVertex
 10
149.5380902403935
 20
194.5957961156306
 30
0.0
  0
VERTEX
  5
3D6
330
3D4
100
AcDbEntity
  8
GRAU_10_
 62
     7
100
AcDbVertex
100
AcDb2dVertex
 10
149.5380902403935
 20
195.0653433377355
 30
0.0
  0
VERTEX
  5
3D7
330
3D4
100
AcDbEntity
  8
GRAU_10_
 62
     7
100
AcDbVertex
100
AcDb2dVertex
 10
149.5380902403935
 20
195.603329448712
 30
0.0
  0
SEQEND
  5
3D8
330
3D4
100
AcDbEntity
  8
GRAU_10_
 62
     7
  0
POLYLINE
  5
3D9
330
1F
100
AcDbEntity
  8
GRAU_10_
 62
     7
100
AcDb2dPolyline
 66
     1
 10
0.0
 20
0.0
 30
0.0
  0
VERTEX
  5
3DA
330
3D9
100
AcDbEntity
  8
GRAU_10_
 62
     7
100
AcDbVertex
100
AcDb2dVertex
 10
149.5380902403935
 20
196.6108627817934
 30
0.0
  0
VERTEX
  5
3DB
330
3D9
100
AcDbEntity
  8
GRAU_10_
 62
     7
100
AcDbVertex
100
AcDb2dVertex
 10
149.5380902403935
 20
197.5951127815476
 30
0.0
  0
VERTEX
  5
3DC
330
3D9
100
AcDbEntity
  8
GRAU_10_
 62
     7
100
AcDbVertex
100
AcDb2dVertex
 10
149.5380902403935
 20
197.6187488926525
 30
0.0
  0
SEQEND
  5
3DD
330
3D9
100
AcDbEntity
  8
GRAU_10_
 62
     7
  0
POLYLINE
  5
3DE
330
1F
100
AcDbEntity
  8
GRAU_10_
 62
     7
100
AcDb2dPolyline
 66
     1
 10
0.0
 20
0.0
 30
0.0
  0
VERTEX
  5
3DF
330
3DE
100
AcDbEntity
  8
GRAU_10_
 62
     7
100
AcDbVertex
100
AcDb2dVertex
 10
149.5380902403935
 20
198.6262822257339
 30
0.0
  0
VERTEX
  5
3E0
330
3DE
100
AcDbEntity
  8
GRAU_10_
 62
     7
100
AcDbVertex
100
AcDb2dVertex
 10
149.5380902403935
 20
198.6439211146187
 30
0.0
  0
VERTEX
  5
3E1
330
3DE
100
AcDbEntity
  8
GRAU_10_
 62
     7
100
AcDbVertex
100
AcDb2dVertex
 10
149.5380902403935
 20
199.5251600032872
 30
0.0
  0
VERTEX
  5
3E2
330
3DE
100
AcDbEntity
  8
GRAU_10_
 62
     7
100
AcDbVertex
100
AcDb2dVertex
 10
149.5380902403935
 20
199.6345211143708
 30
0.0
  0
SEQEND
  5
3E3
330
3DE
100
AcDbEntity
  8
GRAU_10_
 62
     7
  0
POLYLINE
  5
3E4
330
1F
100
AcDbEntity
  8
GRAU_10_
 62
     7
100
AcDb2dPolyline
 66
     1
 10
0.0
 20
0.0
 30
0.0
  0
VERTEX
  5
3E5
330
3E4
100
AcDbEntity
  8
GRAU_10_
 62
     7
100
AcDbVertex
100
AcDb2dVertex
 10
149.5380902403935
 20
200.6420544474521
 30
0.0
  0
VERTEX
  5
3E6
330
3E4
100
AcDbEntity
  8
GRAU_10_
 62
     7
100
AcDbVertex
100
AcDb2dVertex
 10
149.5380902403935
 20
200.7341294474293
 30
0.0
  0
VERTEX
  5
3E7
330
3E4
100
AcDbEntity
  8
GRAU_10_
 62
     7
100
AcDbVertex
100
AcDb2dVertex
 10
149.5380902403935
 20
201.0424572251299
 30
0.0
  0
VERTEX
  5
3E8
330
3E4
100
AcDbEntity
  8
GRAU_10_
 62
     7
100
AcDbVertex
100
AcDb2dVertex
 10
149.5380902403935
 20
201.1458211139932
 30
0.0
  0
SEQEND
  5
3E9
330
3E4
100
AcDbEntity
  8
GRAU_10_
 62
     7
  0
POLYLINE
  5
3EA
330
1F
100
AcDbEntity
  8
GRAU_10_
 62
     7
100
AcDb2dPolyline
 66
     1
 10
0.0
 20
0.0
 30
0.0
  0
VERTEX
  5
3EB
330
3EA
100
AcDbEntity
  8
GRAU_10_
 62
     7
100
AcDbVertex
100
AcDb2dVertex
 10
150.5382152401435
 20
197.143204448327
 30
0.0
  0
VERTEX
  5
3EC
330
3EA
100
AcDbEntity
  8
GRAU_10_
 62
     7
100
AcDbVertex
100
AcDb2dVertex
 10
152.5384652396435
 20
197.143204448327
 30
0.0
  0
SEQEND
  5
3ED
330
3EA
100
AcDbEntity
  8
GRAU_10_
 62
     7
  0
POLYLINE
  5
3EE
330
1F
100
AcDbEntity
  8
GRAU_10_
 62
     7
100
AcDb2dPolyline
 66
     1
 10
0.0
 20
0.0
 30
0.0
  0
VERTEX
  5
3EF
330
3EE
100
AcDbEntity
  8
GRAU_10_
 62
     7
100
AcDbVertex
100
AcDb2dVertex
 10
150.5382152401435
 20
202.2468405581624
 30
0.0
  0
VERTEX
  5
3F0
330
3EE
100
AcDbEntity
  8
GRAU_10_
 62
     7
100
AcDbVertex
100
AcDb2dVertex
 10
152.5384652396435
 20
202.2468405581624
 30
0.0
  0
VERTEX
  5
3F1
330
3EE
100
AcDbEntity
  8
GRAU_10_
 62
     7
100
AcDbVertex
100
AcDb2dVertex
 10
152.5384652396435
 20
199.6112377810437
 30
0.0
  0
VERTEX
  5
3F2
330
3EE
100
AcDbEntity
  8
GRAU_10_
 62
     7
100
AcDbVertex
100
AcDb2dVertex
 10
152.5384652396435
 20
197.143204448327
 30
0.0
  0
SEQEND
  5
3F3
330
3EE
100
AcDbEntity
  8
GRAU_10_
 62
     7
  0
POLYLINE
  5
3F4
330
1F
100
AcDbEntity
  8
GRAU_10_
 62
     7
100
AcDb2dPolyline
 66
     1
 10
0.0
 20
0.0
 30
0.0
  0
VERTEX
  5
3F5
330
3F4
100
AcDbEntity
  8
GRAU_10_
 62
     7
100
AcDbVertex
100
AcDb2dVertex
 10
150.5382152401435
 20
205.7492183350645
 30
0.0
  0
VERTEX
  5
3F6
330
3F4
100
AcDbEntity
  8
GRAU_10_
 62
     7
100
AcDbVertex
100
AcDb2dVertex
 10
152.5384652396435
 20
205.7492183350645
 30
0.0
  0
VERTEX
  5
3F7
330
3F4
100
AcDbEntity
  8
GRAU_10_
 62
     7
100
AcDbVertex
100
AcDb2dVertex
 10
152.5384652396435
 20
204.8383461130699
 30
0.0
  0
VERTEX
  5
3F8
330
3F4
100
AcDbEntity
  8
GRAU_10_
 62
     7
100
AcDbVertex
100
AcDb2dVertex
 10
152.5384652396435
 20
203.6650072244746
 30
0.0
  0
VERTEX
  5
3F9
330
3F4
100
AcDbEntity
  8
GRAU_10_
 62
     7
100
AcDbVertex
100
AcDb2dVertex
 10
152.5384652396435
 20
202.2468405581624
 30
0.0
  0
SEQEND
  5
3FA
330
3F4
100
AcDbEntity
  8
GRAU_10_
 62
     7
  0
POLYLINE
  5
3FB
330
1F
100
AcDbEntity
  8
GRAU_10_
 62
     7
100
AcDb2dPolyline
 66
     1
 10
0.0
 20
0.0
 30
0.0
  0
VERTEX
  5
3FC
330
3FB
100
AcDbEntity
  8
GRAU_10_
 62
     7
100
AcDbVertex
100
AcDb2dVertex
 10
150.5382152401435
 20
170.3423238994718
 30
0.0
  0
VERTEX
  5
3FD
330
3FB
100
AcDbEntity
  8
GRAU_10_
 62
     7
100
AcDbVertex
100
AcDb2dVertex
 10
152.5384652396435
 20
170.3423238994718
 30
0.0
  0
SEQEND
  5
3FE
330
3FB
100
AcDbEntity
  8
GRAU_10_
 62
     7
  0
POLYLINE
  5
3FF
330
1F
100
AcDbEntity
  8
GRAU_10_
 62
     7
100
AcDb2dPolyline
 66
     1
 10
0.0
 20
0.0
 30
0.0
  0
VERTEX
  5
400
330
3FF
100
AcDbEntity
  8
GRAU_10_
 62
     7
100
AcDbVertex
100
AcDb2dVertex
 10
150.5382152401435
 20
173.8447016763739
 30
0.0
  0
VERTEX
  5
401
330
3FF
100
AcDbEntity
  8
GRAU_10_
 62
     7
100
AcDbVertex
100
AcDb2dVertex
 10
152.5384652396435
 20
173.8447016763739
 30
0.0
  0
VERTEX
  5
402
330
3FF
100
AcDbEntity
  8
GRAU_10_
 62
     7
100
AcDbVertex
100
AcDb2dVertex
 10
152.5384652396435
 20
172.4265350100617
 30
0.0
  0
VERTEX
  5
403
330
3FF
100
AcDbEntity
  8
GRAU_10_
 62
     7
100
AcDbVertex
100
AcDb2dVertex
 10
152.5384652396435
 20
171.2528433436887
 30
0.0
  0
VERTEX
  5
404
330
3FF
100
AcDbEntity
  8
GRAU_10_
 62
     7
100
AcDbVertex
100
AcDb2dVertex
 10
152.5384652396435
 20
170.3423238994718
 30
0.0
  0
SEQEND
  5
405
330
3FF
100
AcDbEntity
  8
GRAU_10_
 62
     7
  0
POLYLINE
  5
406
330
1F
100
AcDbEntity
  8
GRAU_10_
 62
     7
100
AcDb2dPolyline
 66
     1
 10
0.0
 20
0.0
 30
0.0
  0
VERTEX
  5
407
330
406
100
AcDbEntity
  8
GRAU_10_
 62
     7
100
AcDbVertex
100
AcDb2dVertex
 10
150.5382152401435
 20
178.9483377862093
 30
0.0
  0
VERTEX
  5
408
330
406
100
AcDbEntity
  8
GRAU_10_
 62
     7
100
AcDbVertex
100
AcDb2dVertex
 10
152.5384652396435
 20
178.9483377862093
 30
0.0
  0
VERTEX
  5
409
330
406
100
AcDbEntity
  8
GRAU_10_
 62
     7
100
AcDbVertex
100
AcDb2dVertex
 10
152.5384652396435
 20
176.4803044534927
 30
0.0
  0
VERTEX
  5
40A
330
406
100
AcDbEntity
  8
GRAU_10_
 62
     7
100
AcDbVertex
100
AcDb2dVertex
 10
152.5384652396435
 20
173.8447016763739
 30
0.0
  0
SEQEND
  5
40B
330
406
100
AcDbEntity
  8
GRAU_10_
 62
     7
  0
POLYLINE
  5
40C
330
1F
100
AcDbEntity
  8
GRAU_10_
 62
     7
100
AcDb2dPolyline
 66
     1
 10
0.0
 20
0.0
 30
0.0
  0
VERTEX
  5
40D
330
40C
100
AcDbEntity
  8
GRAU_10_
 62
     7
100
AcDbVertex
100
AcDb2dVertex
 10
150.5382152401435
 20
200.0455072253795
 30
0.0
  0
VERTEX
  5
40E
330
40C
100
AcDbEntity
  8
GRAU_10_
 62
     7
100
AcDbVertex
100
AcDb2dVertex
 10
150.2880957957613
 20
200.0455072253795
 30
0.0
  0
SEQEND
  5
40F
330
40C
100
AcDbEntity
  8
GRAU_10_
 62
     7
  0
POLYLINE
  5
410
330
1F
100
AcDbEntity
  8
GRAU_10_
 62
     7
100
AcDb2dPolyline
 66
     1
 10
0.0
 20
0.0
 30
0.0
  0
VERTEX
  5
411
330
410
100
AcDbEntity
  8
GRAU_10_
 62
     7
100
AcDbVertex
100
AcDb2dVertex
 10
149.7885624625531
 20
200.0455072253795
 30
0.0
  0
VERTEX
  5
412
330
410
100
AcDbEntity
  8
GRAU_10_
 62
     7
100
AcDbVertex
100
AcDb2dVertex
 10
149.5380902403935
 20
200.0455072253795
 30
0.0
  0
SEQEND
  5
413
330
410
100
AcDbEntity
  8
GRAU_10_
 62
     7
  0
POLYLINE
  5
414
330
1F
100
AcDbEntity
  8
GRAU_10_
 62
     7
100
AcDb2dPolyline
 66
     1
 10
0.0
 20
0.0
 30
0.0
  0
VERTEX
  5
415
330
414
100
AcDbEntity
  8
GRAU_10_
 62
     7
100
AcDbVertex
100
AcDb2dVertex
 10
149.5380902403935
 20
176.0460350091569
 30
0.0
  0
VERTEX
  5
416
330
414
100
AcDbEntity
  8
GRAU_10_
 62
     7
100
AcDbVertex
100
AcDb2dVertex
 10
149.7885624625531
 20
176.0460350091569
 30
0.0
  0
SEQEND
  5
417
330
414
100
AcDbEntity
  8
GRAU_10_
 62
     7
  0
POLYLINE
  5
418
330
1F
100
AcDbEntity
  8
GRAU_10_
 62
     7
100
AcDb2dPolyline
 66
     1
 10
0.0
 20
0.0
 30
0.0
  0
VERTEX
  5
419
330
418
100
AcDbEntity
  8
GRAU_10_
 62
     7
100
AcDbVertex
100
AcDb2dVertex
 10
150.2880957957613
 20
176.0460350091569
 30
0.0
  0
VERTEX
  5
41A
330
418
100
AcDbEntity
  8
GRAU_10_
 62
     7
100
AcDbVertex
100
AcDb2dVertex
 10
150.5382152401435
 20
176.0460350091569
 30
0.0
  0
SEQEND
  5
41B
330
418
100
AcDbEntity
  8
GRAU_10_
 62
     7
  0
POLYLINE
  5
41C
330
1F
100
AcDbEntity
  8
GRAU_10_
 62
     7
100
AcDb2dPolyline
 66
     1
 10
0.0
 20
0.0
 30
0.0
  0
VERTEX
  5
41D
330
41C
100
AcDbEntity
  8
GRAU_10_
 62
     7
100
AcDbVertex
100
AcDb2dVertex
 10
150.5382152401435
 20
176.7198405645439
 30
0.0
  0
VERTEX
  5
41E
330
41C
100
AcDbEntity
  8
GRAU_10_
 62
     7
100
AcDbVertex
100
AcDb2dVertex
 10
151.0384541289072
 20
176.7198405645439
 30
0.0
  0
SEQEND
  5
41F
330
41C
100
AcDbEntity
  8
GRAU_10_
 62
     7
  0
POLYLINE
  5
420
330
1F
100
AcDbEntity
  8
GRAU_10_
 62
     7
100
AcDb2dPolyline
 66
     1
 10
0.0
 20
0.0
 30
0.0
  0
VERTEX
  5
421
330
420
100
AcDbEntity
  8
GRAU_10_
 62
     7
100
AcDbVertex
100
AcDb2dVertex
 10
152.0382263508794
 20
176.7198405645439
 30
0.0
  0
VERTEX
  5
422
330
420
100
AcDbEntity
  8
GRAU_10_
 62
     7
100
AcDbVertex
100
AcDb2dVertex
 10
152.5384652396435
 20
176.7198405645439
 30
0.0
  0
SEQEND
  5
423
330
420
100
AcDbEntity
  8
GRAU_10_
 62
     7
  0
POLYLINE
  5
424
330
1F
100
AcDbEntity
  8
GRAU_10_
 62
     7
100
AcDb2dPolyline
 66
     1
 10
0.0
 20
0.0
 30
0.0
  0
VERTEX
  5
425
330
424
100
AcDbEntity
  8
GRAU_10_
 62
     7
100
AcDbVertex
100
AcDb2dVertex
 10
150.5382152401435
 20
199.3717016699924
 30
0.0
  0
VERTEX
  5
426
330
424
100
AcDbEntity
  8
GRAU_10_
 62
     7
100
AcDbVertex
100
AcDb2dVertex
 10
151.0384541289072
 20
199.3717016699924
 30
0.0
  0
SEQEND
  5
427
330
424
100
AcDbEntity
  8
GRAU_10_
 62
     7
  0
POLYLINE
  5
428
330
1F
100
AcDbEntity
  8
GRAU_10_
 62
     7
100
AcDb2dPolyline
 66
     1
 10
0.0
 20
0.0
 30
0.0
  0
VERTEX
  5
429
330
428
100
AcDbEntity
  8
GRAU_10_
 62
     7
100
AcDbVertex
100
AcDb2dVertex
 10
152.0382263508794
 20
199.3717016699924
 30
0.0
  0
VERTEX
  5
42A
330
428
100
AcDbEntity
  8
GRAU_10_
 62
     7
100
AcDbVertex
100
AcDb2dVertex
 10
152.5384652396435
 20
199.3717016699924
 30
0.0
  0
SEQEND
  5
42B
330
428
100
AcDbEntity
  8
GRAU_10_
 62
     7
  0
POLYLINE
  5
42C
330
1F
100
AcDbEntity
  8
GRAU_10_
 62
     7
100
AcDb2dPolyline
 66
     1
 10
0.0
 20
0.0
 30
0.0
  0
VERTEX
  5
42D
330
42C
100
AcDbEntity
  8
GRAU_10_
 62
     7
100
AcDbVertex
100
AcDb2dVertex
 10
150.5382152401435
 20
185.8172738956031
 30
0.0
  0
VERTEX
  5
42E
330
42C
100
AcDbEntity
  8
GRAU_10_
 62
     7
100
AcDbVertex
100
AcDb2dVertex
 10
151.0384541289072
 20
185.8172738956031
 30
0.0
  0
SEQEND
  5
42F
330
42C
100
AcDbEntity
  8
GRAU_10_
 62
     7
  0
POLYLINE
  5
430
330
1F
100
AcDbEntity
  8
GRAU_10_
 62
     7
100
AcDb2dPolyline
 66
     1
 10
0.0
 20
0.0
 30
0.0
  0
VERTEX
  5
431
330
430
100
AcDbEntity
  8
GRAU_10_
 62
     7
100
AcDbVertex
100
AcDb2dVertex
 10
152.0382263508794
 20
185.8172738956031
 30
0.0
  0
VERTEX
  5
432
330
430
100
AcDbEntity
  8
GRAU_10_
 62
     7
100
AcDbVertex
100
AcDb2dVertex
 10
152.5384652396435
 20
185.8172738956031
 30
0.0
  0
SEQEND
  5
433
330
430
100
AcDbEntity
  8
GRAU_10_
 62
     7
  0
POLYLINE
  5
434
330
1F
100
AcDbEntity
  8
GRAU_10_
 62
     7
100
AcDb2dPolyline
 66
     1
 10
0.0
 20
0.0
 30
0.0
  0
VERTEX
  5
435
330
434
100
AcDbEntity
  8
GRAU_10_
 62
     7
100
AcDbVertex
100
AcDb2dVertex
 10
150.5382152401435
 20
190.2742683389332
 30
0.0
  0
VERTEX
  5
436
330
434
100
AcDbEntity
  8
GRAU_10_
 62
     7
100
AcDbVertex
100
AcDb2dVertex
 10
151.0384541289072
 20
190.2742683389332
 30
0.0
  0
SEQEND
  5
437
330
434
100
AcDbEntity
  8
GRAU_10_
 62
     7
  0
POLYLINE
  5
438
330
1F
100
AcDbEntity
  8
GRAU_10_
 62
     7
100
AcDb2dPolyline
 66
     1
 10
0.0
 20
0.0
 30
0.0
  0
VERTEX
  5
439
330
438
100
AcDbEntity
  8
GRAU_10_
 62
     7
100
AcDbVertex
100
AcDb2dVertex
 10
152.0382263508794
 20
190.2742683389332
 30
0.0
  0
VERTEX
  5
43A
330
438
100
AcDbEntity
  8
GRAU_10_
 62
     7
100
AcDbVertex
100
AcDb2dVertex
 10
152.5384652396435
 20
190.2742683389332
 30
0.0
  0
SEQEND
  5
43B
330
438
100
AcDbEntity
  8
GRAU_10_
 62
     7
  0
POLYLINE
  5
43C
330
1F
100
AcDbEntity
  8
GRAU_10_
 62
     7
100
AcDb2dPolyline
 66
     1
 10
0.0
 20
0.0
 30
0.0
  0
VERTEX
  5
43D
330
43C
100
AcDbEntity
  8
GRAU_10_
 62
     7
100
AcDbVertex
100
AcDb2dVertex
 10
146.3383957967488
 20
221.5459016644488
 30
0.0
  0
VERTEX
  5
43E
330
43C
100
AcDbEntity
  8
GRAU_10_
 62
     7
100
AcDbVertex
100
AcDb2dVertex
 10
123.038481913685
 20
221.5459016644488
 30
0.0
  0
SEQEND
  5
43F
330
43C
100
AcDbEntity
  8
GRAU_10_
 62
     7
  0
POLYLINE
  5
440
330
1F
100
AcDbEntity
  8
GRAU_10_
 62
     7
100
AcDb2dPolyline
 66
     1
 10
0.0
 20
0.0
 30
0.0
  0
VERTEX
  5
441
330
440
100
AcDbEntity
  8
GRAU_10_
 62
     7
100
AcDbVertex
100
AcDb2dVertex
 10
123.038481913685
 20
216.9220433322714
 30
0.0
  0
VERTEX
  5
442
330
440
100
AcDbEntity
  8
GRAU_10_
 62
     7
100
AcDbVertex
100
AcDb2dVertex
 10
123.038481913685
 20
217.5249405543425
 30
0.0
  0
VERTEX
  5
443
330
440
100
AcDbEntity
  8
GRAU_10_
 62
     7
100
AcDbVertex
100
AcDb2dVertex
 10
123.038481913685
 20
218.3119877763682
 30
0.0
  0
VERTEX
  5
444
330
440
100
AcDbEntity
  8
GRAU_10_
 62
     7
100
AcDbVertex
100
AcDb2dVertex
 10
123.038481913685
 20
219.2627238872419
 30
0.0
  0
VERTEX
  5
445
330
440
100
AcDbEntity
  8
GRAU_10_
 62
     7
100
AcDbVertex
100
AcDb2dVertex
 10
123.038481913685
 20
220.3503377758584
 30
0.0
  0
VERTEX
  5
446
330
440
100
AcDbEntity
  8
GRAU_10_
 62
     7
100
AcDbVertex
100
AcDb2dVertex
 10
123.038481913685
 20
221.5459016644488
 30
0.0
  0
SEQEND
  5
447
330
440
100
AcDbEntity
  8
GRAU_10_
 62
     7
  0
POLYLINE
  5
448
330
1F
100
AcDbEntity
  8
GRAU_10_
 62
     7
100
AcDb2dPolyline
 66
     1
 10
0.0
 20
0.0
 30
0.0
  0
VERTEX
  5
449
330
448
100
AcDbEntity
  8
GRAU_10_
 62
     7
100
AcDbVertex
100
AcDb2dVertex
 10
146.3383957967488
 20
221.5459016644488
 30
0.0
  0
VERTEX
  5
44A
330
448
100
AcDbEntity
  8
GRAU_10_
 62
     7
100
AcDbVertex
100
AcDb2dVertex
 10
146.3383957967488
 20
220.3503377758584
 30
0.0
  0
VERTEX
  5
44B
330
448
100
AcDbEntity
  8
GRAU_10_
 62
     7
100
AcDbVertex
100
AcDb2dVertex
 10
146.3383957967488
 20
219.2627238872419
 30
0.0
  0
VERTEX
  5
44C
330
448
100
AcDbEntity
  8
GRAU_10_
 62
     7
100
AcDbVertex
100
AcDb2dVertex
 10
146.3383957967488
 20
218.3119877763682
 30
0.0
  0
VERTEX
  5
44D
330
448
100
AcDbEntity
  8
GRAU_10_
 62
     7
100
AcDbVertex
100
AcDb2dVertex
 10
146.3383957967488
 20
217.5249405543425
 30
0.0
  0
VERTEX
  5
44E
330
448
100
AcDbEntity
  8
GRAU_10_
 62
     7
100
AcDbVertex
100
AcDb2dVertex
 10
146.3383957967488
 20
216.9220433322714
 30
0.0
  0
SEQEND
  5
44F
330
448
100
AcDbEntity
  8
GRAU_10_
 62
     7
  0
POLYLINE
  5
450
330
1F
100
AcDbEntity
  8
GRAU_10_
 62
     7
100
AcDb2dPolyline
 66
     1
 10
0.0
 20
0.0
 30
0.0
  0
VERTEX
  5
451
330
450
100
AcDbEntity
  8
GRAU_10_
 62
     7
100
AcDbVertex
100
AcDb2dVertex
 10
136.6881596880504
 20
210.6916350004956
 30
0.0
  0
VERTEX
  5
452
330
450
100
AcDbEntity
  8
GRAU_10_
 62
     7
100
AcDbVertex
100
AcDb2dVertex
 10
136.6881596880504
 20
211.1495405559367
 30
0.0
  0
SEQEND
  5
453
330
450
100
AcDbEntity
  8
GRAU_10_
 62
     7
  0
POLYLINE
  5
454
330
1F
100
AcDbEntity
  8
GRAU_10_
 62
     7
100
AcDb2dPolyline
 66
     1
 10
0.0
 20
0.0
 30
0.0
  0
VERTEX
  5
455
330
454
100
AcDbEntity
  8
GRAU_10_
 62
     7
100
AcDbVertex
100
AcDb2dVertex
 10
136.6881596880504
 20
212.0649988890412
 30
0.0
  0
VERTEX
  5
456
330
454
100
AcDbEntity
  8
GRAU_10_
 62
     7
100
AcDbVertex
100
AcDb2dVertex
 10
136.6881596880504
 20
212.9031988888317
 30
0.0
  0
VERTEX
  5
457
330
454
100
AcDbEntity
  8
GRAU_10_
 62
     7
100
AcDbVertex
100
AcDb2dVertex
 10
136.6881596880504
 20
212.9804572221454
 30
0.0
  0
SEQEND
  5
458
330
454
100
AcDbEntity
  8
GRAU_10_
 62
     7
  0
POLYLINE
  5
459
330
1F
100
AcDbEntity
  8
GRAU_10_
 62
     7
100
AcDb2dPolyline
 66
     1
 10
0.0
 20
0.0
 30
0.0
  0
VERTEX
  5
45A
330
459
100
AcDbEntity
  8
GRAU_10_
 62
     7
100
AcDbVertex
100
AcDb2dVertex
 10
136.6881596880504
 20
213.8952099996948
 30
0.0
  0
VERTEX
  5
45B
330
459
100
AcDbEntity
  8
GRAU_10_
 62
     7
100
AcDbVertex
100
AcDb2dVertex
 10
136.6881596880504
 20
214.3531155551355
 30
0.0
  0
SEQEND
  5
45C
330
459
100
AcDbEntity
  8
GRAU_10_
 62
     7
  0
POLYLINE
  5
45D
330
1F
100
AcDbEntity
  8
GRAU_10_
 62
     7
100
AcDb2dPolyline
 66
     1
 10
0.0
 20
0.0
 30
0.0
  0
VERTEX
  5
45E
330
45D
100
AcDbEntity
  8
GRAU_10_
 62
     7
100
AcDbVertex
100
AcDb2dVertex
 10
136.6881596880504
 20
212.5454822222541
 30
0.0
  0
VERTEX
  5
45F
330
45D
100
AcDbEntity
  8
GRAU_10_
 62
     7
100
AcDbVertex
100
AcDb2dVertex
 10
136.1886263548419
 20
212.5454822222541
 30
0.0
  0
SEQEND
  5
460
330
45D
100
AcDbEntity
  8
GRAU_10_
 62
     7
  0
POLYLINE
  5
461
330
1F
100
AcDbEntity
  8
GRAU_10_
 62
     7
100
AcDb2dPolyline
 66
     1
 10
0.0
 20
0.0
 30
0.0
  0
VERTEX
  5
462
330
461
100
AcDbEntity
  8
GRAU_10_
 62
     7
100
AcDbVertex
100
AcDb2dVertex
 10
135.1881485773141
 20
212.5454822222541
 30
0.0
  0
VERTEX
  5
463
330
461
100
AcDbEntity
  8
GRAU_10_
 62
     7
100
AcDbVertex
100
AcDb2dVertex
 10
134.1880235775641
 20
212.5454822222541
 30
0.0
  0
SEQEND
  5
464
330
461
100
AcDbEntity
  8
GRAU_10_
 62
     7
  0
POLYLINE
  5
465
330
1F
100
AcDbEntity
  8
GRAU_10_
 62
     7
100
AcDb2dPolyline
 66
     1
 10
0.0
 20
0.0
 30
0.0
  0
VERTEX
  5
466
330
465
100
AcDbEntity
  8
GRAU_10_
 62
     7
100
AcDbVertex
100
AcDb2dVertex
 10
133.1882513555919
 20
212.5454822222541
 30
0.0
  0
VERTEX
  5
467
330
465
100
AcDbEntity
  8
GRAU_10_
 62
     7
100
AcDbVertex
100
AcDb2dVertex
 10
132.6880124668282
 20
212.5454822222541
 30
0.0
  0
SEQEND
  5
468
330
465
100
AcDbEntity
  8
GRAU_10_
 62
     7
  0
POLYLINE
  5
469
330
1F
100
AcDbEntity
  8
GRAU_10_
 62
     7
100
AcDb2dPolyline
 66
     1
 10
0.0
 20
0.0
 30
0.0
  0
VERTEX
  5
46A
330
469
100
AcDbEntity
  8
GRAU_10_
 62
     7
100
AcDbVertex
100
AcDb2dVertex
 10
136.6881596880504
 20
210.6916350004956
 30
0.0
  0
VERTEX
  5
46B
330
469
100
AcDbEntity
  8
GRAU_10_
 62
     7
100
AcDbVertex
100
AcDb2dVertex
 10
136.1886263548419
 20
210.6916350004956
 30
0.0
  0
SEQEND
  5
46C
330
469
100
AcDbEntity
  8
GRAU_10_
 62
     7
  0
POLYLINE
  5
46D
330
1F
100
AcDbEntity
  8
GRAU_10_
 62
     7
100
AcDb2dPolyline
 66
     1
 10
0.0
 20
0.0
 30
0.0
  0
VERTEX
  5
46E
330
46D
100
AcDbEntity
  8
GRAU_10_
 62
     7
100
AcDbVertex
100
AcDb2dVertex
 10
135.1881485773141
 20
210.6916350004956
 30
0.0
  0
VERTEX
  5
46F
330
46D
100
AcDbEntity
  8
GRAU_10_
 62
     7
100
AcDbVertex
100
AcDb2dVertex
 10
134.1880235775641
 20
210.6916350004956
 30
0.0
  0
SEQEND
  5
470
330
46D
100
AcDbEntity
  8
GRAU_10_
 62
     7
  0
POLYLINE
  5
471
330
1F
100
AcDbEntity
  8
GRAU_10_
 62
     7
100
AcDb2dPolyline
 66
     1
 10
0.0
 20
0.0
 30
0.0
  0
VERTEX
  5
472
330
471
100
AcDbEntity
  8
GRAU_10_
 62
     7
100
AcDbVertex
100
AcDb2dVertex
 10
133.1882513555919
 20
210.6916350004956
 30
0.0
  0
VERTEX
  5
473
330
471
100
AcDbEntity
  8
GRAU_10_
 62
     7
100
AcDbVertex
100
AcDb2dVertex
 10
132.6880124668282
 20
210.6916350004956
 30
0.0
  0
VERTEX
  5
474
330
471
100
AcDbEntity
  8
GRAU_10_
 62
     7
100
AcDbVertex
100
AcDb2dVertex
 10
132.6880124668282
 20
211.1495405559367
 30
0.0
  0
SEQEND
  5
475
330
471
100
AcDbEntity
  8
GRAU_10_
 62
     7
  0
POLYLINE
  5
476
330
1F
100
AcDbEntity
  8
GRAU_10_
 62
     7
100
AcDb2dPolyline
 66
     1
 10
0.0
 20
0.0
 30
0.0
  0
VERTEX
  5
477
330
476
100
AcDbEntity
  8
GRAU_10_
 62
     7
100
AcDbVertex
100
AcDb2dVertex
 10
132.6880124668282
 20
212.0649988890412
 30
0.0
  0
VERTEX
  5
478
330
476
100
AcDbEntity
  8
GRAU_10_
 62
     7
100
AcDbVertex
100
AcDb2dVertex
 10
132.6880124668282
 20
212.9031988888317
 30
0.0
  0
VERTEX
  5
479
330
476
100
AcDbEntity
  8
GRAU_10_
 62
     7
100
AcDbVertex
100
AcDb2dVertex
 10
132.6880124668282
 20
212.9804572221454
 30
0.0
  0
SEQEND
  5
47A
330
476
100
AcDbEntity
  8
GRAU_10_
 62
     7
  0
POLYLINE
  5
47B
330
1F
100
AcDbEntity
  8
GRAU_10_
 62
     7
100
AcDb2dPolyline
 66
     1
 10
0.0
 20
0.0
 30
0.0
  0
VERTEX
  5
47C
330
47B
100
AcDbEntity
  8
GRAU_10_
 62
     7
100
AcDbVertex
100
AcDb2dVertex
 10
132.6880124668282
 20
213.8952099996948
 30
0.0
  0
VERTEX
  5
47D
330
47B
100
AcDbEntity
  8
GRAU_10_
 62
     7
100
AcDbVertex
100
AcDb2dVertex
 10
132.6880124668282
 20
214.3531155551355
 30
0.0
  0
SEQEND
  5
47E
330
47B
100
AcDbEntity
  8
GRAU_10_
 62
     7
  0
POLYLINE
  5
47F
330
1F
100
AcDbEntity
  8
GRAU_10_
 62
     7
100
AcDb2dPolyline
 66
     1
 10
0.0
 20
0.0
 30
0.0
  0
VERTEX
  5
480
330
47F
100
AcDbEntity
  8
GRAU_10_
 62
     7
100
AcDbVertex
100
AcDb2dVertex
 10
130.4051874673987
 20
221.5459016644488
 30
0.0
  0
VERTEX
  5
481
330
47F
100
AcDbEntity
  8
GRAU_10_
 62
     7
100
AcDbVertex
100
AcDb2dVertex
 10
130.4051874673987
 20
221.0456627756851
 30
0.0
  0
SEQEND
  5
482
330
47F
100
AcDbEntity
  8
GRAU_10_
 62
     7
  0
POLYLINE
  5
483
330
1F
100
AcDbEntity
  8
GRAU_10_
 62
     7
100
AcDb2dPolyline
 66
     1
 10
0.0
 20
0.0
 30
0.0
  0
VERTEX
  5
484
330
483
100
AcDbEntity
  8
GRAU_10_
 62
     7
100
AcDbVertex
100
AcDb2dVertex
 10
130.4051874673987
 20
220.0455377759347
 30
0.0
  0
VERTEX
  5
485
330
483
100
AcDbEntity
  8
GRAU_10_
 62
     7
100
AcDbVertex
100
AcDb2dVertex
 10
130.4051874673987
 20
219.0457655539625
 30
0.0
  0
SEQEND
  5
486
330
483
100
AcDbEntity
  8
GRAU_10_
 62
     7
  0
POLYLINE
  5
487
330
1F
100
AcDbEntity
  8
GRAU_10_
 62
     7
100
AcDb2dPolyline
 66
     1
 10
0.0
 20
0.0
 30
0.0
  0
VERTEX
  5
488
330
487
100
AcDbEntity
  8
GRAU_10_
 62
     7
100
AcDbVertex
100
AcDb2dVertex
 10
130.4051874673987
 20
218.0456405542126
 30
0.0
  0
VERTEX
  5
489
330
487
100
AcDbEntity
  8
GRAU_10_
 62
     7
100
AcDbVertex
100
AcDb2dVertex
 10
130.4051874673987
 20
217.0458683322403
 30
0.0
  0
SEQEND
  5
48A
330
487
100
AcDbEntity
  8
GRAU_10_
 62
     7
  0
POLYLINE
  5
48B
330
1F
100
AcDbEntity
  8
GRAU_10_
 62
     7
100
AcDb2dPolyline
 66
     1
 10
0.0
 20
0.0
 30
0.0
  0
VERTEX
  5
48C
330
48B
100
AcDbEntity
  8
GRAU_10_
 62
     7
100
AcDbVertex
100
AcDb2dVertex
 10
130.4051874673987
 20
216.0457433324903
 30
0.0
  0
VERTEX
  5
48D
330
48B
100
AcDbEntity
  8
GRAU_10_
 62
     7
100
AcDbVertex
100
AcDb2dVertex
 10
130.4051874673987
 20
215.0456183327404
 30
0.0
  0
SEQEND
  5
48E
330
48B
100
AcDbEntity
  8
GRAU_10_
 62
     7
  0
POLYLINE
  5
48F
330
1F
100
AcDbEntity
  8
GRAU_10_
 62
     7
100
AcDb2dPolyline
 66
     1
 10
0.0
 20
0.0
 30
0.0
  0
VERTEX
  5
490
330
48F
100
AcDbEntity
  8
GRAU_10_
 62
     7
100
AcDbVertex
100
AcDb2dVertex
 10
130.4051874673987
 20
214.0458461107681
 30
0.0
  0
VERTEX
  5
491
330
48F
100
AcDbEntity
  8
GRAU_10_
 62
     7
100
AcDbVertex
100
AcDb2dVertex
 10
130.4051874673987
 20
213.5459599997822
 30
0.0
  0
SEQEND
  5
492
330
48F
100
AcDbEntity
  8
GRAU_10_
 62
     7
  0
POLYLINE
  5
493
330
1F
100
AcDbEntity
  8
GRAU_10_
 62
     7
100
AcDb2dPolyline
 66
     1
 10
0.0
 20
0.0
 30
0.0
  0
VERTEX
  5
494
330
493
100
AcDbEntity
  8
GRAU_10_
 62
     7
100
AcDbVertex
100
AcDb2dVertex
 10
138.9709846874795
 20
213.5459599997822
 30
0.0
  0
VERTEX
  5
495
330
493
100
AcDbEntity
  8
GRAU_10_
 62
     7
100
AcDbVertex
100
AcDb2dVertex
 10
138.9709846874795
 20
214.0458461107681
 30
0.0
  0
SEQEND
  5
496
330
493
100
AcDbEntity
  8
GRAU_10_
 62
     7
  0
POLYLINE
  5
497
330
1F
100
AcDbEntity
  8
GRAU_10_
 62
     7
100
AcDb2dPolyline
 66
     1
 10
0.0
 20
0.0
 30
0.0
  0
VERTEX
  5
498
330
497
100
AcDbEntity
  8
GRAU_10_
 62
     7
100
AcDbVertex
100
AcDb2dVertex
 10
138.9709846874795
 20
215.0456183327404
 30
0.0
  0
VERTEX
  5
499
330
497
100
AcDbEntity
  8
GRAU_10_
 62
     7
100
AcDbVertex
100
AcDb2dVertex
 10
138.9709846874795
 20
216.0457433324903
 30
0.0
  0
SEQEND
  5
49A
330
497
100
AcDbEntity
  8
GRAU_10_
 62
     7
  0
POLYLINE
  5
49B
330
1F
100
AcDbEntity
  8
GRAU_10_
 62
     7
100
AcDb2dPolyline
 66
     1
 10
0.0
 20
0.0
 30
0.0
  0
VERTEX
  5
49C
330
49B
100
AcDbEntity
  8
GRAU_10_
 62
     7
100
AcDbVertex
100
AcDb2dVertex
 10
138.9709846874795
 20
217.0458683322403
 30
0.0
  0
VERTEX
  5
49D
330
49B
100
AcDbEntity
  8
GRAU_10_
 62
     7
100
AcDbVertex
100
AcDb2dVertex
 10
138.9709846874795
 20
218.0456405542126
 30
0.0
  0
SEQEND
  5
49E
330
49B
100
AcDbEntity
  8
GRAU_10_
 62
     7
  0
POLYLINE
  5
49F
330
1F
100
AcDbEntity
  8
GRAU_10_
 62
     7
100
AcDb2dPolyline
 66
     1
 10
0.0
 20
0.0
 30
0.0
  0
VERTEX
  5
4A0
330
49F
100
AcDbEntity
  8
GRAU_10_
 62
     7
100
AcDbVertex
100
AcDb2dVertex
 10
138.9709846874795
 20
219.0457655539625
 30
0.0
  0
VERTEX
  5
4A1
330
49F
100
AcDbEntity
  8
GRAU_10_
 62
     7
100
AcDbVertex
100
AcDb2dVertex
 10
138.9709846874795
 20
220.0455377759347
 30
0.0
  0
SEQEND
  5
4A2
330
49F
100
AcDbEntity
  8
GRAU_10_
 62
     7
  0
POLYLINE
  5
4A3
330
1F
100
AcDbEntity
  8
GRAU_10_
 62
     7
100
AcDb2dPolyline
 66
     1
 10
0.0
 20
0.0
 30
0.0
  0
VERTEX
  5
4A4
330
4A3
100
AcDbEntity
  8
GRAU_10_
 62
     7
100
AcDbVertex
100
AcDb2dVertex
 10
138.9709846874795
 20
221.0456627756851
 30
0.0
  0
VERTEX
  5
4A5
330
4A3
100
AcDbEntity
  8
GRAU_10_
 62
     7
100
AcDbVertex
100
AcDb2dVertex
 10
138.9709846874795
 20
221.5459016644488
 30
0.0
  0
SEQEND
  5
4A6
330
4A3
100
AcDbEntity
  8
GRAU_10_
 62
     7
  0
POLYLINE
  5
4A7
330
1F
100
AcDbEntity
  8
GRAU_10_
 62
     7
100
AcDb2dPolyline
 66
     1
 10
0.0
 20
0.0
 30
0.0
  0
VERTEX
  5
4A8
330
4A7
100
AcDbEntity
  8
GRAU_10_
 62
     7
100
AcDbVertex
100
AcDb2dVertex
 10
130.4051874673987
 20
213.5459599997822
 30
0.0
  0
VERTEX
  5
4A9
330
4A7
100
AcDbEntity
  8
GRAU_10_
 62
     7
100
AcDbVertex
100
AcDb2dVertex
 10
130.5621735784708
 20
213.5459599997822
 30
0.0
  0
VERTEX
  5
4AA
330
4A7
100
AcDbEntity
  8
GRAU_10_
 62
     7
100
AcDbVertex
100
AcDb2dVertex
 10
130.9759819117006
 20
213.5459599997822
 30
0.0
  0
SEQEND
  5
4AB
330
4A7
100
AcDbEntity
  8
GRAU_10_
 62
     7
  0
POLYLINE
  5
4AC
330
1F
100
AcDbEntity
  8
GRAU_10_
 62
     7
100
AcDb2dPolyline
 66
     1
 10
0.0
 20
0.0
 30
0.0
  0
VERTEX
  5
4AD
330
4AC
100
AcDbEntity
  8
GRAU_10_
 62
     7
100
AcDbVertex
100
AcDb2dVertex
 10
132.1179235780818
 20
213.5459599997822
 30
0.0
  0
VERTEX
  5
4AE
330
4AC
100
AcDbEntity
  8
GRAU_10_
 62
     7
100
AcDbVertex
100
AcDb2dVertex
 10
132.6880124668282
 20
213.5459599997822
 30
0.0
  0
SEQEND
  5
4AF
330
4AC
100
AcDbEntity
  8
GRAU_10_
 62
     7
  0
POLYLINE
  5
4B0
330
1F
100
AcDbEntity
  8
GRAU_10_
 62
     7
100
AcDb2dPolyline
 66
     1
 10
0.0
 20
0.0
 30
0.0
  0
VERTEX
  5
4B1
330
4B0
100
AcDbEntity
  8
GRAU_10_
 62
     7
100
AcDbVertex
100
AcDb2dVertex
 10
136.6881596880504
 20
213.5459599997822
 30
0.0
  0
VERTEX
  5
4B2
330
4B0
100
AcDbEntity
  8
GRAU_10_
 62
     7
100
AcDbVertex
100
AcDb2dVertex
 10
137.2589541323519
 20
213.5459599997822
 30
0.0
  0
SEQEND
  5
4B3
330
4B0
100
AcDbEntity
  8
GRAU_10_
 62
     7
  0
POLYLINE
  5
4B4
330
1F
100
AcDbEntity
  8
GRAU_10_
 62
     7
100
AcDb2dPolyline
 66
     1
 10
0.0
 20
0.0
 30
0.0
  0
VERTEX
  5
4B5
330
4B4
100
AcDbEntity
  8
GRAU_10_
 62
     7
100
AcDbVertex
100
AcDb2dVertex
 10
138.4008957987332
 20
213.5459599997822
 30
0.0
  0
VERTEX
  5
4B6
330
4B4
100
AcDbEntity
  8
GRAU_10_
 62
     7
100
AcDbVertex
100
AcDb2dVertex
 10
138.8150569097407
 20
213.5459599997822
 30
0.0
  0
VERTEX
  5
4B7
330
4B4
100
AcDbEntity
  8
GRAU_10_
 62
     7
100
AcDbVertex
100
AcDb2dVertex
 10
138.9709846874795
 20
213.5459599997822
 30
0.0
  0
SEQEND
  5
4B8
330
4B4
100
AcDbEntity
  8
GRAU_10_
 62
     7
  0
POLYLINE
  5
4B9
330
1F
100
AcDbEntity
  8
GRAU_10_
 62
     7
100
AcDb2dPolyline
 66
     1
 10
0.0
 20
0.0
 30
0.0
  0
VERTEX
  5
4BA
330
4B9
100
AcDbEntity
  8
GRAU_10_
 62
     7
100
AcDbVertex
100
AcDb2dVertex
 10
136.6881596880504
 20
214.3531155551355
 30
0.0
  0
VERTEX
  5
4BB
330
4B9
100
AcDbEntity
  8
GRAU_10_
 62
     7
100
AcDbVertex
100
AcDb2dVertex
 10
136.4549735769976
 20
214.3157211107005
 30
0.0
  0
VERTEX
  5
4BC
330
4B9
100
AcDbEntity
  8
GRAU_10_
 62
     7
100
AcDbVertex
100
AcDb2dVertex
 10
136.2164957992792
 20
214.2822072218202
 30
0.0
  0
VERTEX
  5
4BD
330
4B9
100
AcDbEntity
  8
GRAU_10_
 62
     7
100
AcDbVertex
100
AcDb2dVertex
 10
136.1910957992856
 20
214.2797377773765
 30
0.0
  0
SEQEND
  5
4BE
330
4B9
100
AcDbEntity
  8
GRAU_10_
 62
     7
  0
POLYLINE
  5
4BF
330
1F
100
AcDbEntity
  8
GRAU_10_
 62
     7
100
AcDb2dPolyline
 66
     1
 10
0.0
 20
0.0
 30
0.0
  0
VERTEX
  5
4C0
330
4BF
100
AcDbEntity
  8
GRAU_10_
 62
     7
100
AcDbVertex
100
AcDb2dVertex
 10
135.1906180217581
 20
214.19365999962
 30
0.0
  0
VERTEX
  5
4C1
330
4BF
100
AcDbEntity
  8
GRAU_10_
 62
     7
100
AcDbVertex
100
AcDb2dVertex
 10
134.9479069107077
 20
214.1851933329557
 30
0.0
  0
VERTEX
  5
4C2
330
4BF
100
AcDbEntity
  8
GRAU_10_
 62
     7
100
AcDbVertex
100
AcDb2dVertex
 10
134.6886152441056
 20
214.1823711107339
 30
0.0
  0
VERTEX
  5
4C3
330
4BF
100
AcDbEntity
  8
GRAU_10_
 62
     7
100
AcDbVertex
100
AcDb2dVertex
 10
134.4282652441709
 20
214.1851933329557
 30
0.0
  0
VERTEX
  5
4C4
330
4BF
100
AcDbEntity
  8
GRAU_10_
 62
     7
100
AcDbVertex
100
AcDb2dVertex
 10
134.186259688676
 20
214.19365999962
 30
0.0
  0
SEQEND
  5
4C5
330
4BF
100
AcDbEntity
  8
GRAU_10_
 62
     7
  0
POLYLINE
  5
4C6
330
1F
100
AcDbEntity
  8
GRAU_10_
 62
     7
100
AcDb2dPolyline
 66
     1
 10
0.0
 20
0.0
 30
0.0
  0
VERTEX
  5
4C7
330
4C6
100
AcDbEntity
  8
GRAU_10_
 62
     7
100
AcDbVertex
100
AcDb2dVertex
 10
133.1850763555927
 20
214.2797377773765
 30
0.0
  0
VERTEX
  5
4C8
330
4C6
100
AcDbEntity
  8
GRAU_10_
 62
     7
100
AcDbVertex
100
AcDb2dVertex
 10
133.1603819111546
 20
214.2822072218202
 30
0.0
  0
VERTEX
  5
4C9
330
4C6
100
AcDbEntity
  8
GRAU_10_
 62
     7
100
AcDbVertex
100
AcDb2dVertex
 10
132.9219041334362
 20
214.3157211107005
 30
0.0
  0
VERTEX
  5
4CA
330
4C6
100
AcDbEntity
  8
GRAU_10_
 62
     7
100
AcDbVertex
100
AcDb2dVertex
 10
132.6880124668282
 20
214.3531155551355
 30
0.0
  0
SEQEND
  5
4CB
330
4C6
100
AcDbEntity
  8
GRAU_10_
 62
     7
  0
SPLINE
  5
4CC
330
1F
100
AcDbEntity
  8
GRAU_10_
 62
     7
100
AcDbSpline
210
0.0
220
0.0
230
1.0
 70
     8
 71
     3
 72
     8
 73
     4
 74
     0
 42
0.0000000001
 43
0.0000000001
 12
1.0
 22
0.0
 32
0.0
 13
1.0
 23
0.0
 33
0.0
 40
0.0
 40
0.0
 40
0.0
 40
0.0
 40
1.0
 40
1.0
 40
1.0
 40
1.0
 10
56.92898470799019
 20
197.143204448327
 30
0.0
 10
55.73412637495567
 20
198.1711988925146
 30
0.0
 10
54.39462915306816
 20
198.9222627812154
 30
0.0
 10
53.06924304228853
 20
199.3717016699924
 30
0.0
  0
SPLINE
  5
4CD
330
1F
100
AcDbEntity
  8
GRAU_10_
 62
     7
100
AcDbSpline
210
0.0
220
0.0
230
1.0
 70
     8
 71
     3
 72
     8
 73
     4
 74
     0
 42
0.0000000001
 43
0.0000000001
 12
1.0
 22
0.0
 32
0.0
 13
1.0
 23
0.0
 33
0.0
 40
0.0
 40
0.0
 40
0.0
 40
0.0
 40
1.0
 40
1.0
 40
1.0
 40
1.0
 10
61.34646804021913
 20
202.2468405581624
 30
0.0
 10
59.47004304068809
 20
203.8646794466466
 30
0.0
 10
57.36537081899223
 20
205.0450738907961
 30
0.0
 10
55.28045415284685
 20
205.7492183350645
 30
0.0
  0
SPLINE
  5
4CE
330
1F
100
AcDbEntity
  8
GRAU_10_
 62
     7
100
AcDbSpline
210
0.0
220
0.0
230
1.0
 70
     8
 71
     3
 72
     8
 73
     4
 74
     0
 42
0.0000000001
 43
0.0000000001
 12
1.0
 22
0.0
 32
0.0
 13
1.0
 23
0.0
 33
0.0
 40
0.0
 40
0.0
 40
0.0
 40
0.0
 40
1.0
 40
1.0
 40
1.0
 40
1.0
 10
56.92898470799019
 20
197.143204448327
 30
0.0
 10
58.61526248534631
 20
198.8157238923533
 30
0.0
 10
60.13961526274297
 20
200.5909016696876
 30
0.0
 10
61.34646804021913
 20
202.2468405581624
 30
0.0
  0
SPLINE
  5
4CF
330
1F
100
AcDbEntity
  8
GRAU_10_
 62
     7
100
AcDbSpline
210
0.0
220
0.0
230
1.0
 70
     8
 71
     3
 72
     8
 73
     4
 74
     0
 42
0.0000000001
 43
0.0000000001
 12
1.0
 22
0.0
 32
0.0
 13
1.0
 23
0.0
 33
0.0
 40
0.0
 40
0.0
 40
0.0
 40
0.0
 40
1.0
 40
1.0
 40
1.0
 40
1.0
 10
55.28045415284685
 20
205.7492183350645
 30
0.0
 10
54.3339513753057
 20
203.5701100022761
 30
0.0
 10
53.57583193105066
 20
201.3567822250515
 30
0.0
 10
53.06924304228853
 20
199.3717016699924
 30
0.0
  0
SPLINE
  5
4D0
330
1F
100
AcDbEntity
  8
GRAU_10_
 62
     7
100
AcDbSpline
210
0.0
220
0.0
230
1.0
 70
     8
 71
     3
 72
     8
 73
     4
 74
     0
 42
0.0000000001
 43
0.0000000001
 12
1.0
 22
0.0
 32
0.0
 13
1.0
 23
0.0
 33
0.0
 40
0.0
 40
0.0
 40
0.0
 40
0.0
 40
1.0
 40
1.0
 40
1.0
 40
1.0
 10
61.1034041513909
 20
188.0457711172681
 30
0.0
 10
61.1034041513909
 20
188.8338766726265
 30
0.0
 10
61.02755692918759
 20
189.6043433391009
 30
0.0
 10
60.89491248477655
 20
190.2742683389332
 30
0.0
  0
SPLINE
  5
4D1
330
1F
100
AcDbEntity
  8
GRAU_10_
 62
     7
100
AcDbSpline
210
0.0
220
0.0
230
1.0
 70
     8
 71
     3
 72
     8
 73
     4
 74
     0
 42
0.0000000001
 43
0.0000000001
 12
1.0
 22
0.0
 32
0.0
 13
1.0
 23
0.0
 33
0.0
 40
0.0
 40
0.0
 40
0.0
 40
0.0
 40
1.0
 40
1.0
 40
1.0
 40
1.0
 10
60.89491248477655
 20
185.8172738956031
 30
0.0
 10
61.04060970696219
 20
186.5919738954094
 30
0.0
 10
61.10940137361156
 20
187.3624405618831
 30
0.0
 10
61.1034041513909
 20
188.0457711172681
 30
0.0
  0
SPLINE
  5
4D2
330
1F
100
AcDbEntity
  8
GRAU_10_
 62
     7
100
AcDbSpline
210
0.0
220
0.0
230
1.0
 70
     8
 71
     3
 72
     8
 73
     4
 74
     0
 42
0.0000000001
 43
0.0000000001
 12
1.0
 22
0.0
 32
0.0
 13
1.0
 23
0.0
 33
0.0
 40
0.0
 40
0.0
 40
0.0
 40
0.0
 40
1.0
 40
1.0
 40
1.0
 40
1.0
 10
60.89491248477655
 20
185.8172738956031
 30
0.0
 10
63.18655692864812
 20
185.1932100068701
 30
0.0
 10
65.48596248362851
 20
184.760351673645
 30
0.0
 10
67.52325414978606
 20
184.5433933403657
 30
0.0
  0
SPLINE
  5
4D3
330
1F
100
AcDbEntity
  8
GRAU_10_
 62
     7
100
AcDbSpline
210
0.0
220
0.0
230
1.0
 70
     8
 71
     3
 72
     8
 73
     4
 74
     0
 42
0.0000000001
 43
0.0000000001
 12
1.0
 22
0.0
 32
0.0
 13
1.0
 23
0.0
 33
0.0
 40
0.0
 40
0.0
 40
0.0
 40
0.0
 40
1.0
 40
1.0
 40
1.0
 40
1.0
 10
67.52325414978606
 20
191.5481488941703
 30
0.0
 10
65.16317081704256
 20
191.2782738942377
 30
0.0
 10
62.86729303983882
 20
190.827776672128
 30
0.0
 10
60.89491248477655
 20
190.2742683389332
 30
0.0
  0
SPLINE
  5
4D4
330
1F
100
AcDbEntity
  8
GRAU_10_
 62
     7
100
AcDbSpline
210
0.0
220
0.0
230
1.0
 70
     8
 71
     3
 72
     8
 73
     4
 74
     0
 42
0.0000000001
 43
0.0000000001
 12
1.0
 22
0.0
 32
0.0
 13
1.0
 23
0.0
 33
0.0
 40
0.0
 40
0.0
 40
0.0
 40
0.0
 40
1.0
 40
1.0
 40
1.0
 40
1.0
 10
67.85310137192563
 20
188.0457711172681
 30
0.0
 10
67.85310137192563
 20
189.2843738947361
 30
0.0
 10
67.73350970528888
 20
190.4947544499892
 30
0.0
 10
67.52325414978606
 20
191.5481488941703
 30
0.0
  0
SPLINE
  5
4D5
330
1F
100
AcDbEntity
  8
GRAU_10_
 62
     7
100
AcDbSpline
210
0.0
220
0.0
230
1.0
 70
     8
 71
     3
 72
     8
 73
     4
 74
     0
 42
0.0000000001
 43
0.0000000001
 12
1.0
 22
0.0
 32
0.0
 13
1.0
 23
0.0
 33
0.0
 40
0.0
 40
0.0
 40
0.0
 40
0.0
 40
1.0
 40
1.0
 40
1.0
 40
1.0
 10
67.52325414978606
 20
184.5433933403657
 30
0.0
 10
67.7546763719504
 20
185.7601238956173
 30
0.0
 10
67.86262637192327
 20
186.9722683397586
 30
0.0
 10
67.85310137192563
 20
188.0457711172681
 30
0.0
  0
SPLINE
  5
4D6
330
1F
100
AcDbEntity
  8
GRAU_10_
 62
     7
100
AcDbSpline
210
0.0
220
0.0
230
1.0
 70
     8
 71
     3
 72
     8
 73
     4
 74
     0
 42
0.0000000001
 43
0.0000000001
 12
1.0
 22
0.0
 32
0.0
 13
1.0
 23
0.0
 33
0.0
 40
0.0
 40
0.0
 40
0.0
 40
0.0
 40
1.0
 40
1.0
 40
1.0
 40
1.0
 10
53.06924304228853
 20
176.7198405645439
 30
0.0
 10
54.55655415302761
 20
177.2408933421917
 30
0.0
 10
55.87700137491986
 20
178.0254711197734
 30
0.0
 10
56.92898470799019
 20
178.9483377862093
 30
0.0
  0
SPLINE
  5
4D7
330
1F
100
AcDbEntity
  8
GRAU_10_
 62
     7
100
AcDbSpline
210
0.0
220
0.0
230
1.0
 70
     8
 71
     3
 72
     8
 73
     4
 74
     0
 42
0.0000000001
 43
0.0000000001
 12
1.0
 22
0.0
 32
0.0
 13
1.0
 23
0.0
 33
0.0
 40
0.0
 40
0.0
 40
0.0
 40
0.0
 40
1.0
 40
1.0
 40
1.0
 40
1.0
 10
53.06924304228853
 20
176.7198405645439
 30
0.0
 10
53.67460970880366
 20
174.4232572317846
 30
0.0
 10
54.44930970860995
 20
172.2152211212255
 30
0.0
 10
55.28045415284685
 20
170.3423238994718
 30
0.0
  0
SPLINE
  5
4D8
330
1F
100
AcDbEntity
  8
GRAU_10_
 62
     7
100
AcDbSpline
210
0.0
220
0.0
230
1.0
 70
     8
 71
     3
 72
     8
 73
     4
 74
     0
 42
0.0000000001
 43
0.0000000001
 12
1.0
 22
0.0
 32
0.0
 13
1.0
 23
0.0
 33
0.0
 40
0.0
 40
0.0
 40
0.0
 40
0.0
 40
1.0
 40
1.0
 40
1.0
 40
1.0
 10
61.34646804021913
 20
173.8447016763739
 30
0.0
 10
59.93253470723935
 20
175.75393500923
 30
0.0
 10
58.39477637429032
 20
177.5167655643447
 30
0.0
 10
56.92898470799019
 20
178.9483377862093
 30
0.0
  0
SPLINE
  5
4D9
330
1F
100
AcDbEntity
  8
GRAU_10_
 62
     7
100
AcDbSpline
210
0.0
220
0.0
230
1.0
 70
     8
 71
     3
 72
     8
 73
     4
 74
     0
 42
0.0000000001
 43
0.0000000001
 12
1.0
 22
0.0
 32
0.0
 13
1.0
 23
0.0
 33
0.0
 40
0.0
 40
0.0
 40
0.0
 40
0.0
 40
1.0
 40
1.0
 40
1.0
 40
1.0
 10
55.28045415284685
 20
170.3423238994718
 30
0.0
 10
57.6193708189285
 20
171.1582988992678
 30
0.0
 10
59.69405692952105
 20
172.3912572322929
 30
0.0
 10
61.34646804021913
 20
173.8447016763739
 30
0.0
  0
SPLINE
  5
4DA
330
1F
100
AcDbEntity
  8
GRAU_10_
 62
     7
100
AcDbSpline
210
0.0
220
0.0
230
1.0
 70
     8
 71
     3
 72
     8
 73
     4
 74
     0
 42
0.0000000001
 43
0.0000000001
 12
1.0
 22
0.0
 32
0.0
 13
1.0
 23
0.0
 33
0.0
 40
0.0
 40
0.0
 40
0.0
 40
0.0
 40
1.0
 40
1.0
 40
1.0
 40
1.0
 10
41.2779986007919
 20
178.9483377862093
 30
0.0
 10
42.47285693382642
 20
177.9203433420217
 30
0.0
 10
43.81164860015841
 20
177.1692794533206
 30
0.0
 10
45.13774026649357
 20
176.7198405645439
 30
0.0
  0
SPLINE
  5
4DB
330
1F
100
AcDbEntity
  8
GRAU_10_
 62
     7
100
AcDbSpline
210
0.0
220
0.0
230
1.0
 70
     8
 71
     3
 72
     8
 73
     4
 74
     0
 42
0.0000000001
 43
0.0000000001
 12
1.0
 22
0.0
 32
0.0
 13
1.0
 23
0.0
 33
0.0
 40
0.0
 40
0.0
 40
0.0
 40
0.0
 40
1.0
 40
1.0
 40
1.0
 40
1.0
 10
41.2779986007919
 20
178.9483377862093
 30
0.0
 10
39.59101526788026
 20
177.2754655644053
 30
0.0
 10
38.0666624904836
 20
175.5006405648487
 30
0.0
 10
36.86051526856296
 20
173.8447016763739
 30
0.0
  0
SPLINE
  5
4DC
330
1F
100
AcDbEntity
  8
GRAU_10_
 62
     7
100
AcDbSpline
210
0.0
220
0.0
230
1.0
 70
     8
 71
     3
 72
     8
 73
     4
 74
     0
 42
0.0000000001
 43
0.0000000001
 12
1.0
 22
0.0
 32
0.0
 13
1.0
 23
0.0
 33
0.0
 40
0.0
 40
0.0
 40
0.0
 40
0.0
 40
1.0
 40
1.0
 40
1.0
 40
1.0
 10
42.92652915593525
 20
170.3423238994718
 30
0.0
 10
43.87232637792087
 20
172.5214322322602
 30
0.0
 10
44.63044582217591
 20
174.7347600094848
 30
0.0
 10
45.13774026649357
 20
176.7198405645439
 30
0.0
  0
SPLINE
  5
4DD
330
1F
100
AcDbEntity
  8
GRAU_10_
 62
     7
100
AcDbSpline
210
0.0
220
0.0
230
1.0
 70
     8
 71
     3
 72
     8
 73
     4
 74
     0
 42
0.0000000001
 43
0.0000000001
 12
1.0
 22
0.0
 32
0.0
 13
1.0
 23
0.0
 33
0.0
 40
0.0
 40
0.0
 40
0.0
 40
0.0
 40
1.0
 40
1.0
 40
1.0
 40
1.0
 10
36.86051526856296
 20
173.8447016763739
 30
0.0
 10
38.73623471253816
 20
172.2268627878897
 30
0.0
 10
40.84161248978986
 20
171.0464683437399
 30
0.0
 10
42.92652915593525
 20
170.3423238994718
 30
0.0
  0
SPLINE
  5
4DE
330
1F
100
AcDbEntity
  8
GRAU_10_
 62
     7
100
AcDbSpline
210
0.0
220
0.0
230
1.0
 70
     8
 71
     3
 72
     8
 73
     4
 74
     0
 42
0.0000000001
 43
0.0000000001
 12
1.0
 22
0.0
 32
0.0
 13
1.0
 23
0.0
 33
0.0
 40
0.0
 40
0.0
 40
0.0
 40
0.0
 40
1.0
 40
1.0
 40
1.0
 40
1.0
 10
37.31207082400554
 20
190.2742683389332
 30
0.0
 10
37.01961804630065
 20
188.7255738948762
 30
0.0
 10
37.03866804629592
 20
187.1899322285931
 30
0.0
 10
37.31207082400554
 20
185.8172738956031
 30
0.0
  0
SPLINE
  5
4DF
330
1F
100
AcDbEntity
  8
GRAU_10_
 62
     7
100
AcDbSpline
210
0.0
220
0.0
230
1.0
 70
     8
 71
     3
 72
     8
 73
     4
 74
     0
 42
0.0000000001
 43
0.0000000001
 12
1.0
 22
0.0
 32
0.0
 13
1.0
 23
0.0
 33
0.0
 40
0.0
 40
0.0
 40
0.0
 40
0.0
 40
1.0
 40
1.0
 40
1.0
 40
1.0
 10
37.31207082400554
 20
190.2742683389332
 30
0.0
 10
35.01972082457845
 20
190.8983322276662
 30
0.0
 10
32.72102082515326
 20
191.3311905608909
 30
0.0
 10
30.68302360344052
 20
191.5481488941703
 30
0.0
  0
SPLINE
  5
4E0
330
1F
100
AcDbEntity
  8
GRAU_10_
 62
     7
100
AcDbSpline
210
0.0
220
0.0
230
1.0
 70
     8
 71
     3
 72
     8
 73
     4
 74
     0
 42
0.0000000001
 43
0.0000000001
 12
1.0
 22
0.0
 32
0.0
 13
1.0
 23
0.0
 33
0.0
 40
0.0
 40
0.0
 40
0.0
 40
0.0
 40
1.0
 40
1.0
 40
1.0
 40
1.0
 10
30.68302360344052
 20
184.5433933403657
 30
0.0
 10
33.04345971396145
 20
184.8132683402987
 30
0.0
 10
35.33898471338775
 20
185.2637655624083
 30
0.0
 10
37.31207082400554
 20
185.8172738956031
 30
0.0
  0
SPLINE
  5
4E1
330
1F
100
AcDbEntity
  8
GRAU_10_
 62
     7
100
AcDbSpline
210
0.0
220
0.0
230
1.0
 70
     8
 71
     3
 72
     8
 73
     4
 74
     0
 42
0.0000000001
 43
0.0000000001
 12
1.0
 22
0.0
 32
0.0
 13
1.0
 23
0.0
 33
0.0
 40
0.0
 40
0.0
 40
0.0
 40
0.0
 40
1.0
 40
1.0
 40
1.0
 40
1.0
 10
30.68302360344052
 20
191.5481488941703
 30
0.0
 10
30.22088471466703
 20
189.1143350058897
 30
0.0
 10
30.25051804799321
 20
186.7009822287152
 30
0.0
 10
30.68302360344052
 20
184.5433933403657
 30
0.0
  0
SPLINE
  5
4E2
330
1F
100
AcDbEntity
  8
GRAU_10_
 62
     7
100
AcDbSpline
210
0.0
220
0.0
230
1.0
 70
     8
 71
     3
 72
     8
 73
     4
 74
     0
 42
0.0000000001
 43
0.0000000001
 12
1.0
 22
0.0
 32
0.0
 13
1.0
 23
0.0
 33
0.0
 40
0.0
 40
0.0
 40
0.0
 40
0.0
 40
1.0
 40
1.0
 40
1.0
 40
1.0
 10
45.13774026649357
 20
199.3717016699924
 30
0.0
 10
43.64972360019895
 20
198.8506488923446
 30
0.0
 10
42.32998193386223
 20
198.0660711147629
 30
0.0
 10
41.2779986007919
 20
197.143204448327
 30
0.0
  0
SPLINE
  5
4E3
330
1F
100
AcDbEntity
  8
GRAU_10_
 62
     7
100
AcDbSpline
210
0.0
220
0.0
230
1.0
 70
     8
 71
     3
 72
     8
 73
     4
 74
     0
 42
0.0000000001
 43
0.0000000001
 12
1.0
 22
0.0
 32
0.0
 13
1.0
 23
0.0
 33
0.0
 40
0.0
 40
0.0
 40
0.0
 40
0.0
 40
1.0
 40
1.0
 40
1.0
 40
1.0
 10
45.13774026649357
 20
199.3717016699924
 30
0.0
 10
44.53166804442291
 20
201.6682850027513
 30
0.0
 10
43.75732082239406
 20
203.8763211133104
 30
0.0
 10
42.92652915593525
 20
205.7492183350645
 30
0.0
  0
SPLINE
  5
4E4
330
1F
100
AcDbEntity
  8
GRAU_10_
 62
     7
100
AcDbSpline
210
0.0
220
0.0
230
1.0
 70
     8
 71
     3
 72
     8
 73
     4
 74
     0
 42
0.0000000001
 43
0.0000000001
 12
1.0
 22
0.0
 32
0.0
 13
1.0
 23
0.0
 33
0.0
 40
0.0
 40
0.0
 40
0.0
 40
0.0
 40
1.0
 40
1.0
 40
1.0
 40
1.0
 10
36.86051526856296
 20
202.2468405581624
 30
0.0
 10
38.27409582376499
 20
200.3376072253062
 30
0.0
 10
39.81150137893625
 20
198.5747766701916
 30
0.0
 10
41.2779986007919
 20
197.143204448327
 30
0.0
  0
SPLINE
  5
4E5
330
1F
100
AcDbEntity
  8
GRAU_10_
 62
     7
100
AcDbSpline
210
0.0
220
0.0
230
1.0
 70
     8
 71
     3
 72
     8
 73
     4
 74
     0
 42
0.0000000001
 43
0.0000000001
 12
1.0
 22
0.0
 32
0.0
 13
1.0
 23
0.0
 33
0.0
 40
0.0
 40
0.0
 40
0.0
 40
0.0
 40
1.0
 40
1.0
 40
1.0
 40
1.0
 10
42.92652915593525
 20
205.7492183350645
 30
0.0
 10
40.58761248985327
 20
204.9332433352685
 30
0.0
 10
38.51292637926072
 20
203.7002850022434
 30
0.0
 10
36.86051526856296
 20
202.2468405581624
 30
0.0
  0
SPLINE
  5
4E6
330
1F
100
AcDbEntity
  8
GRAU_10_
 62
     7
100
AcDbSpline
210
0.0
220
0.0
230
1.0
 70
     8
 71
     3
 72
     8
 73
     4
 74
     0
 42
0.0000000001
 43
0.0000000001
 12
1.0
 22
0.0
 32
0.0
 13
1.0
 23
0.0
 33
0.0
 40
0.0
 40
0.0
 40
0.0
 40
0.0
 40
1.0
 40
1.0
 40
1.0
 40
1.0
 10
42.92652915593525
 20
170.3423238994718
 30
0.0
 10
47.10553471044589
 20
168.883940566503
 30
0.0
 10
51.45175693158178
 20
168.9922433442537
 30
0.0
 10
55.28045415284685
 20
170.3423238994718
 30
0.0
  0
SPLINE
  5
4E7
330
1F
100
AcDbEntity
  8
GRAU_10_
 62
     7
100
AcDbSpline
210
0.0
220
0.0
230
1.0
 70
     8
 71
     3
 72
     8
 73
     4
 74
     0
 42
0.0000000001
 43
0.0000000001
 12
1.0
 22
0.0
 32
0.0
 13
1.0
 23
0.0
 33
0.0
 40
0.0
 40
0.0
 40
0.0
 40
0.0
 40
1.0
 40
1.0
 40
1.0
 40
1.0
 10
45.13774026649357
 20
176.7198405645439
 30
0.0
 10
47.81990971026749
 20
175.7810988981119
 30
0.0
 10
50.61108748734725
 20
175.8505961203168
 30
0.0
 10
53.06924304228853
 20
176.7198405645439
 30
0.0
  0
SPLINE
  5
4E8
330
1F
100
AcDbEntity
  8
GRAU_10_
 62
     7
100
AcDbSpline
210
0.0
220
0.0
230
1.0
 70
     8
 71
     3
 72
     8
 73
     4
 74
     0
 42
0.0000000001
 43
0.0000000001
 12
1.0
 22
0.0
 32
0.0
 13
1.0
 23
0.0
 33
0.0
 40
0.0
 40
0.0
 40
0.0
 40
0.0
 40
1.0
 40
1.0
 40
1.0
 40
1.0
 10
67.52325414978606
 20
191.5481488941703
 30
0.0
 10
66.69634303888165
 20
195.8964877819721
 30
0.0
 10
64.429745817226
 20
199.6059461143779
 30
0.0
 10
61.34646804021913
 20
202.2468405581624
 30
0.0
  0
SPLINE
  5
4E9
330
1F
100
AcDbEntity
  8
GRAU_10_
 62
     7
100
AcDbSpline
210
0.0
220
0.0
230
1.0
 70
     8
 71
     3
 72
     8
 73
     4
 74
     0
 42
0.0000000001
 43
0.0000000001
 12
1.0
 22
0.0
 32
0.0
 13
1.0
 23
0.0
 33
0.0
 40
0.0
 40
0.0
 40
0.0
 40
0.0
 40
1.0
 40
1.0
 40
1.0
 40
1.0
 10
55.28045415284685
 20
205.7492183350645
 30
0.0
 10
51.10144859833589
 20
207.2076016680332
 30
0.0
 10
46.75522637720032
 20
207.0992988902823
 30
0.0
 10
42.92652915593525
 20
205.7492183350645
 30
0.0
  0
SPLINE
  5
4EA
330
1F
100
AcDbEntity
  8
GRAU_10_
 62
     7
100
AcDbSpline
210
0.0
220
0.0
230
1.0
 70
     8
 71
     3
 72
     8
 73
     4
 74
     0
 42
0.0000000001
 43
0.0000000001
 12
1.0
 22
0.0
 32
0.0
 13
1.0
 23
0.0
 33
0.0
 40
0.0
 40
0.0
 40
0.0
 40
0.0
 40
1.0
 40
1.0
 40
1.0
 40
1.0
 10
36.86051526856296
 20
202.2468405581624
 30
0.0
 10
33.50771526940088
 20
199.356885003329
 30
0.0
 10
31.42809026992095
 20
195.5387711153948
 30
0.0
 10
30.68302360344052
 20
191.5481488941703
 30
0.0
  0
SPLINE
  5
4EB
330
1F
100
AcDbEntity
  8
GRAU_10_
 62
     7
100
AcDbSpline
210
0.0
220
0.0
230
1.0
 70
     8
 71
     3
 72
     8
 73
     4
 74
     0
 42
0.0000000001
 43
0.0000000001
 12
1.0
 22
0.0
 32
0.0
 13
1.0
 23
0.0
 33
0.0
 40
0.0
 40
0.0
 40
0.0
 40
0.0
 40
1.0
 40
1.0
 40
1.0
 40
1.0
 10
30.68302360344052
 20
184.5433933403657
 30
0.0
 10
31.51028749212268
 20
180.1950544525642
 30
0.0
 10
33.77653193600056
 20
176.4855961201581
 30
0.0
 10
36.86051526856296
 20
173.8447016763739
 30
0.0
  0
SPLINE
  5
4EC
330
1F
100
AcDbEntity
  8
GRAU_10_
 62
     7
100
AcDbSpline
210
0.0
220
0.0
230
1.0
 70
     8
 71
     3
 72
     8
 73
     4
 74
     0
 42
0.0000000001
 43
0.0000000001
 12
1.0
 22
0.0
 32
0.0
 13
1.0
 23
0.0
 33
0.0
 40
0.0
 40
0.0
 40
0.0
 40
0.0
 40
1.0
 40
1.0
 40
1.0
 40
1.0
 10
61.34646804021913
 20
173.8447016763739
 30
0.0
 10
64.69856248382537
 20
176.7350100089844
 30
0.0
 10
66.77854026108338
 20
180.5527711191411
 30
0.0
 10
67.52325414978606
 20
184.5433933403657
 30
0.0
  0
SPLINE
  5
4ED
330
1F
100
AcDbEntity
  8
GRAU_10_
 62
     7
100
AcDbSpline
210
0.0
220
0.0
230
1.0
 70
    11
 71
     3
 72
    17
 73
    13
 74
     0
 42
0.0000000001
 43
0.0000000001
 12
1.0
 22
0.0
 32
0.0
 13
1.0
 23
0.0
 33
0.0
 40
0.0
 40
0.0
 40
0.0
 40
0.0
 40
1.0
 40
1.0
 40
1.0
 40
2.0
 40
2.0
 40
2.0
 40
3.0
 40
3.0
 40
3.0
 40
4.0
 40
4.0
 40
4.0
 40
4.0
 10
70.05302359359816
 20
188.0457711172681
 30
0.0
 10
70.05302359359816
 20
199.616176669931
 30
0.0
 10
60.67336804038728
 20
208.9954794453638
 30
0.0
 10
49.10331526550217
 20
208.9954794453638
 30
0.0
 10
37.53290971283929
 20
208.9954794453638
 30
0.0
 10
28.15325415962842
 20
199.616176669931
 30
0.0
 10
28.15325415962842
 20
188.0457711172681
 30
0.0
 10
28.15325415962842
 20
176.4753655646053
 30
0.0
 10
37.53290971283929
 20
167.0960627891722
 30
0.0
 10
49.10331526550217
 20
167.0960627891722
 30
0.0
 10
60.67336804038728
 20
167.0960627891722
 30
0.0
 10
70.05302359359816
 20
176.4753655646053
 30
0.0
 10
70.05302359359816
 20
188.0457711172681
 30
0.0
  0
SPLINE
  5
4EE
330
1F
100
AcDbEntity
  8
GRAU_10_
 62
     7
100
AcDbSpline
210
0.0
220
0.0
230
1.0
 70
     8
 71
     3
 72
     8
 73
     4
 74
     0
 42
0.0000000001
 43
0.0000000001
 12
1.0
 22
0.0
 32
0.0
 13
1.0
 23
0.0
 33
0.0
 40
0.0
 40
0.0
 40
0.0
 40
0.0
 40
1.0
 40
1.0
 40
1.0
 40
1.0
 10
60.89491248477655
 20
190.2742683389332
 30
0.0
 10
60.36680415157515
 20
193.0665044493463
 30
0.0
 10
58.91124304082785
 20
195.4491655598617
 30
0.0
 10
56.92898470799019
 20
197.143204448327
 30
0.0
  0
SPLINE
  5
4EF
330
1F
100
AcDbEntity
  8
GRAU_10_
 62
     7
100
AcDbSpline
210
0.0
220
0.0
230
1.0
 70
     8
 71
     3
 72
     8
 73
     4
 74
     0
 42
0.0000000001
 43
0.0000000001
 12
1.0
 22
0.0
 32
0.0
 13
1.0
 23
0.0
 33
0.0
 40
0.0
 40
0.0
 40
0.0
 40
0.0
 40
1.0
 40
1.0
 40
1.0
 40
1.0
 10
53.06924304228853
 20
199.3717016699924
 30
0.0
 10
50.3870735985146
 20
200.3104433364244
 30
0.0
 10
47.595190265879
 20
200.2409461142195
 30
0.0
 10
45.13774026649357
 20
199.3717016699924
 30
0.0
  0
SPLINE
  5
4F0
330
1F
100
AcDbEntity
  8
GRAU_10_
 62
     7
100
AcDbSpline
210
0.0
220
0.0
230
1.0
 70
     8
 71
     3
 72
     8
 73
     4
 74
     0
 42
0.0000000001
 43
0.0000000001
 12
1.0
 22
0.0
 32
0.0
 13
1.0
 23
0.0
 33
0.0
 40
0.0
 40
0.0
 40
0.0
 40
0.0
 40
1.0
 40
1.0
 40
1.0
 40
1.0
 10
41.2779986007919
 20
197.143204448327
 30
0.0
 10
39.12287915688611
 20
195.2897100043463
 30
0.0
 10
37.78796804610884
 20
192.8375516716256
 30
0.0
 10
37.31207082400554
 20
190.2742683389332
 30
0.0
  0
SPLINE
  5
4F1
330
1F
100
AcDbEntity
  8
GRAU_10_
 62
     7
100
AcDbSpline
210
0.0
220
0.0
230
1.0
 70
     8
 71
     3
 72
     8
 73
     4
 74
     0
 42
0.0000000001
 43
0.0000000001
 12
1.0
 22
0.0
 32
0.0
 13
1.0
 23
0.0
 33
0.0
 40
0.0
 40
0.0
 40
0.0
 40
0.0
 40
1.0
 40
1.0
 40
1.0
 40
1.0
 10
37.31207082400554
 20
185.8172738956031
 30
0.0
 10
37.83947360165143
 20
183.02503778519
 30
0.0
 10
39.29574026795392
 20
180.6423766746746
 30
0.0
 10
41.2779986007919
 20
178.9483377862093
 30
0.0
  0
SPLINE
  5
4F2
330
1F
100
AcDbEntity
  8
GRAU_10_
 62
     7
100
AcDbSpline
210
0.0
220
0.0
230
1.0
 70
     8
 71
     3
 72
     8
 73
     4
 74
     0
 42
0.0000000001
 43
0.0000000001
 12
1.0
 22
0.0
 32
0.0
 13
1.0
 23
0.0
 33
0.0
 40
0.0
 40
0.0
 40
0.0
 40
0.0
 40
1.0
 40
1.0
 40
1.0
 40
1.0
 10
56.92898470799019
 20
178.9483377862093
 30
0.0
 10
59.08339859634047
 20
180.8018322301901
 30
0.0
 10
60.41901526267325
 20
183.2539905629107
 30
0.0
 10
60.89491248477655
 20
185.8172738956031
 30
0.0
  0
SPLINE
  5
4F3
330
1F
100
AcDbEntity
  8
GRAU_10_
 62
     7
100
AcDbSpline
210
0.0
220
0.0
230
1.0
 70
    11
 71
     3
 72
    17
 73
    13
 74
     0
 42
0.0000000001
 43
0.0000000001
 12
1.0
 22
0.0
 32
0.0
 13
1.0
 23
0.0
 33
0.0
 40
0.0
 40
0.0
 40
0.0
 40
0.0
 40
1.0
 40
1.0
 40
1.0
 40
2.0
 40
2.0
 40
2.0
 40
3.0
 40
3.0
 40
3.0
 40
4.0
 40
4.0
 40
4.0
 40
4.0
 10
73.5536374816118
 20
188.0457711172681
 30
0.0
 10
73.5536374816118
 20
201.5486933361146
 30
0.0
 10
62.60659026212637
 20
212.4960933333778
 30
0.0
 10
49.10331526550217
 20
212.4960933333778
 30
0.0
 10
35.60039304665573
 20
212.4960933333778
 30
0.0
 10
24.65334582717029
 20
201.5486933361146
 30
0.0
 10
24.65334582717029
 20
188.0457711172681
 30
0.0
 10
24.65334582717029
 20
174.542496120644
 30
0.0
 10
35.60039304665573
 20
163.5954489011585
 30
0.0
 10
49.10331526550217
 20
163.5954489011585
 30
0.0
 10
62.60659026212637
 20
163.5954489011585
 30
0.0
 10
73.5536374816118
 20
174.542496120644
 30
0.0
 10
73.5536374816118
 20
188.0457711172681
 30
0.0
  0
SPLINE
  5
4F4
330
1F
100
AcDbEntity
  8
GRAU_10_
 62
     7
100
AcDbSpline
210
0.0
220
0.0
230
1.0
 70
     8
 71
     3
 72
     8
 73
     4
 74
     0
 42
0.0000000001
 43
0.0000000001
 12
1.0
 22
0.0
 32
0.0
 13
1.0
 23
0.0
 33
0.0
 40
0.0
 40
0.0
 40
0.0
 40
0.0
 40
1.0
 40
1.0
 40
1.0
 40
1.0
 10
56.60337081918279
 20
221.5459016644488
 30
0.0
 10
57.40629304120422
 20
219.3685572205485
 30
0.0
 10
59.05694026301381
 20
217.7489544431755
 30
0.0
 10
61.05084026251535
 20
216.9220433322714
 30
0.0
  0
SPLINE
  5
4F5
330
1F
100
AcDbEntity
  8
GRAU_10_
 62
     7
100
AcDbSpline
210
0.0
220
0.0
230
1.0
 70
     8
 71
     3
 72
     8
 73
     4
 74
     0
 42
0.0000000001
 43
0.0000000001
 12
1.0
 22
0.0
 32
0.0
 13
1.0
 23
0.0
 33
0.0
 40
0.0
 40
0.0
 40
0.0
 40
0.0
 40
1.0
 40
1.0
 40
1.0
 40
1.0
 10
37.15614304626674
 20
216.9220433322714
 30
0.0
 10
39.30067915684162
 20
217.8092794431605
 30
0.0
 10
40.85431248978671
 20
219.5213099982881
 30
0.0
 10
41.60361248959931
 20
221.5459016644488
 30
0.0
  0
POLYLINE
  5
4F6
330
1F
100
AcDbEntity
  8
GRAU_10_
 62
     7
100
AcDb2dPolyline
 66
     1
 10
0.0
 20
0.0
 30
0.0
  0
VERTEX
  5
4F7
330
4F6
100
AcDbEntity
  8
GRAU_10_
 62
     7
100
AcDbVertex
100
AcDb2dVertex
 10
56.60337081918279
 20
221.5459016644488
 30
0.0
  0
VERTEX
  5
4F8
330
4F6
100
AcDbEntity
  8
GRAU_10_
 62
     7
100
AcDbVertex
100
AcDb2dVertex
 10
41.60361248959931
 20
221.5459016644488
 30
0.0
  0
SEQEND
  5
4F9
330
4F6
100
AcDbEntity
  8
GRAU_10_
 62
     7
  0
SPLINE
  5
4FA
330
1F
100
AcDbEntity
  8
GRAU_10_
 62
     7
100
AcDbSpline
210
0.0
220
0.0
230
1.0
 70
     8
 71
     3
 72
     8
 73
     4
 74
     0
 42
0.0000000001
 43
0.0000000001
 12
1.0
 22
0.0
 32
0.0
 13
1.0
 23
0.0
 33
0.0
 40
0.0
 40
0.0
 40
0.0
 40
0.0
 40
1.0
 40
1.0
 40
1.0
 40
1.0
 10
80.35307636880064
 20
188.0457711172681
 30
0.0
 10
80.35307636880064
 20
200.9944794473643
 30
0.0
 10
72.47766525965851
 20
212.1030988890317
 30
0.0
 10
61.05084026251535
 20
216.9220433322714
 30
0.0
  0
SPLINE
  5
4FB
330
1F
100
AcDbEntity
  8
GRAU_10_
 62
     7
100
AcDbSpline
210
0.0
220
0.0
230
1.0
 70
     8
 71
     3
 72
    14
 73
    10
 74
     0
 42
0.0000000001
 43
0.0000000001
 12
1.0
 22
0.0
 32
0.0
 13
1.0
 23
0.0
 33
0.0
 40
0.0
 40
0.0
 40
0.0
 40
0.0
 40
1.0
 40
1.0
 40
1.0
 40
2.0
 40
2.0
 40
2.0
 40
3.0
 40
3.0
 40
3.0
 40
3.0
 10
37.15614304626674
 20
216.9220433322714
 30
0.0
 10
25.19168471592453
 20
211.9715127779534
 30
0.0
 10
17.93716249551584
 20
200.4473211141676
 30
0.0
 10
17.85320138442561
 20
188.0457711172681
 30
0.0
 10
17.85320138442561
 20
170.7868238993607
 30
0.0
 10
31.84436804759476
 20
156.7960100139697
 30
0.0
 10
49.10331526550217
 20
156.7960100139697
 30
0.0
 10
66.36226248340958
 20
156.7960100139697
 30
0.0
 10
80.35307636880064
 20
170.7868238993607
 30
0.0
 10
80.35307636880064
 20
188.0457711172681
 30
0.0
  0
SPLINE
  5
4FD
330
1F
100
AcDbEntity
  8
STANDARDEBENE
 62
     2
100
AcDbSpline
210
0.0
220
0.0
230
1.0
 70
    11
 71
     3
 72
    17
 73
    13
 74
     0
 42
0.0000000001
 43
0.0000000001
 12
1.0
 22
0.0
 32
0.0
 13
1.0
 23
0.0
 33
0.0
 40
0.0
 40
0.0
 40
0.0
 40
0.0
 40
1.0
 40
1.0
 40
1.0
 40
2.0
 40
2.0
 40
2.0
 40
3.0
 40
3.0
 40
3.0
 40
4.0
 40
4.0
 40
4.0
 40
4.0
 10
47.06814026601088
 20
235.2209794388075
 30
0.0
 10
47.06814026601088
 20
236.1875905496769
 30
0.0
 10
46.28462082176247
 20
236.9704044383704
 30
0.0
 10
45.31800971089277
 20
236.9704044383704
 30
0.0
 10
44.35104582224563
 20
236.9704044383704
 30
0.0
 10
43.56752637799723
 20
236.1875905496769
 30
0.0
 10
43.56752637799723
 20
235.2209794388075
 30
0.0
 10
43.56752637799723
 20
234.2543683279381
 30
0.0
 10
44.35104582224563
 20
233.4708488836897
 30
0.0
 10
45.31800971089277
 20
233.4708488836897
 30
0.0
 10
46.28462082176247
 20
233.4708488836897
 30
0.0
 10
47.06814026601088
 20
234.2543683279381
 30
0.0
 10
47.06814026601088
 20
235.2209794388075
 30
0.0
  0
POLYLINE
  5
4FE
330
1F
100
AcDbEntity
  8
STANDARDEBENE
 62
     2
100
AcDb2dPolyline
 66
     1
 10
0.0
 20
0.0
 30
0.0
  0
VERTEX
  5
4FF
330
4FE
100
AcDbEntity
  8
STANDARDEBENE
 62
     2
100
AcDbVertex
100
AcDb2dVertex
 10
43.80212360016078
 20
232.5472766616982
 30
0.0
  0
VERTEX
  5
500
330
4FE
100
AcDbEntity
  8
STANDARDEBENE
 62
     2
100
AcDbVertex
100
AcDb2dVertex
 10
46.77815693275
 20
237.8385905492642
 30
0.0
  0
SEQEND
  5
501
330
4FE
100
AcDbEntity
  8
STANDARDEBENE
 62
     2
  0
POLYLINE
  5
503
330
1F
100
AcDbEntity
  8
BEMA_U_00DFUNG
 62
     7
100
AcDb2dPolyline
 66
     1
 10
0.0
 20
0.0
 30
0.0
  0
VERTEX
  5
504
330
503
100
AcDbEntity
  8
BEMA_U_00DFUNG
 62
     7
100
AcDbVertex
100
AcDb2dVertex
 10
17.85320138442561
 20
188.0457711172681
 30
0.0
  0
VERTEX
  5
505
330
503
100
AcDbEntity
  8
BEMA_U_00DFUNG
 62
     7
100
AcDbVertex
100
AcDb2dVertex
 10
17.85320138442561
 20
233.5456377725597
 30
0.0
  0
SEQEND
  5
506
330
503
100
AcDbEntity
  8
BEMA_U_00DFUNG
 62
     7
  0
POLYLINE
  5
507
330
1F
100
AcDbEntity
  8
BEMA_U_00DFUNG
 62
     7
100
AcDb2dPolyline
 66
     1
 10
0.0
 20
0.0
 30
0.0
  0
VERTEX
  5
508
330
507
100
AcDbEntity
  8
BEMA_U_00DFUNG
 62
     7
100
AcDbVertex
100
AcDb2dVertex
 10
80.35307636880064
 20
188.0457711172681
 30
0.0
  0
VERTEX
  5
509
330
507
100
AcDbEntity
  8
BEMA_U_00DFUNG
 62
     7
100
AcDbVertex
100
AcDb2dVertex
 10
80.35307636880064
 20
233.5456377725597
 30
0.0
  0
SEQEND
  5
50A
330
507
100
AcDbEntity
  8
BEMA_U_00DFUNG
 62
     7
  0
POLYLINE
  5
50B
330
1F
100
AcDbEntity
  8
BEMA_U_00DFUNG
 62
     7
100
AcDb2dPolyline
 66
     1
 10
0.0
 20
0.0
 30
0.0
  0
VERTEX
  5
50C
330
50B
100
AcDbEntity
  8
BEMA_U_00DFUNG
 62
     7
100
AcDbVertex
100
AcDb2dVertex
 10
17.85320138442561
 20
231.5460933286153
 30
0.0
  0
VERTEX
  5
50D
330
50B
100
AcDbEntity
  8
BEMA_U_00DFUNG
 62
     7
100
AcDbVertex
100
AcDb2dVertex
 10
80.35307636880064
 20
231.5460933286153
 30
0.0
  0
SEQEND
  5
50E
330
50B
100
AcDbEntity
  8
BEMA_U_00DFUNG
 62
     7
  0
POLYLINE
  5
50F
330
1F
100
AcDbEntity
  8
BEMA_U_00DFUNG
 62
     7
100
AcDb2dPolyline
 66
     1
 10
0.0
 20
0.0
 30
0.0
  0
VERTEX
  5
510
330
50F
100
AcDbEntity
  8
BEMA_U_00DFUNG
 62
     7
100
AcDbVertex
100
AcDb2dVertex
 10
17.85320138442561
 20
231.5460933286153
 30
0.0
  0
VERTEX
  5
511
330
50F
100
AcDbEntity
  8
BEMA_U_00DFUNG
 62
     7
100
AcDbVertex
100
AcDb2dVertex
 10
21.35310971688407
 20
231.0846599953973
 30
0.0
  0
VERTEX
  5
512
330
50F
100
AcDbEntity
  8
BEMA_U_00DFUNG
 62
     7
100
AcDbVertex
100
AcDb2dVertex
 10
21.35310971688407
 20
232.0068211062781
 30
0.0
  0
VERTEX
  5
513
330
50F
100
AcDbEntity
  8
BEMA_U_00DFUNG
 62
     7
100
AcDbVertex
100
AcDb2dVertex
 10
17.85320138442561
 20
231.5460933286153
 30
0.0
  0
SEQEND
  5
514
330
50F
100
AcDbEntity
  8
BEMA_U_00DFUNG
 62
     7
  0
POLYLINE
  5
515
330
1F
100
AcDbEntity
  8
BEMA_U_00DFUNG
 62
     7
100
AcDb2dPolyline
 66
     1
 10
0.0
 20
0.0
 30
0.0
  0
VERTEX
  5
516
330
515
100
AcDbEntity
  8
BEMA_U_00DFUNG
 62
     7
100
AcDbVertex
100
AcDb2dVertex
 10
21.35310971688407
 20
231.0885405509517
 30
0.0
  0
VERTEX
  5
517
330
515
100
AcDbEntity
  8
BEMA_U_00DFUNG
 62
     7
100
AcDbVertex
100
AcDb2dVertex
 10
21.32594582800189
 20
231.0885405509517
 30
0.0
  0
SEQEND
  5
518
330
515
100
AcDbEntity
  8
BEMA_U_00DFUNG
 62
     7
  0
POLYLINE
  5
519
330
1F
100
AcDbEntity
  8
BEMA_U_00DFUNG
 62
     7
100
AcDb2dPolyline
 66
     1
 10
0.0
 20
0.0
 30
0.0
  0
VERTEX
  5
51A
330
519
100
AcDbEntity
  8
BEMA_U_00DFUNG
 62
     7
100
AcDbVertex
100
AcDb2dVertex
 10
21.35310971688407
 20
231.0885405509517
 30
0.0
  0
VERTEX
  5
51B
330
519
100
AcDbEntity
  8
BEMA_U_00DFUNG
 62
     7
100
AcDbVertex
100
AcDb2dVertex
 10
21.32594582800189
 20
231.0885405509517
 30
0.0
  0
SEQEND
  5
51C
330
519
100
AcDbEntity
  8
BEMA_U_00DFUNG
 62
     7
  0
POLYLINE
  5
51D
330
1F
100
AcDbEntity
  8
BEMA_U_00DFUNG
 62
     7
100
AcDb2dPolyline
 66
     1
 10
0.0
 20
0.0
 30
0.0
  0
VERTEX
  5
51E
330
51D
100
AcDbEntity
  8
BEMA_U_00DFUNG
 62
     7
100
AcDbVertex
100
AcDb2dVertex
 10
21.35310971688407
 20
231.1393405509391
 30
0.0
  0
VERTEX
  5
51F
330
51D
100
AcDbEntity
  8
BEMA_U_00DFUNG
 62
     7
100
AcDbVertex
100
AcDb2dVertex
 10
20.94000693920947
 20
231.1393405509391
 30
0.0
  0
SEQEND
  5
520
330
51D
100
AcDbEntity
  8
BEMA_U_00DFUNG
 62
     7
  0
POLYLINE
  5
521
330
1F
100
AcDbEntity
  8
BEMA_U_00DFUNG
 62
     7
100
AcDb2dPolyline
 66
     1
 10
0.0
 20
0.0
 30
0.0
  0
VERTEX
  5
522
330
521
100
AcDbEntity
  8
BEMA_U_00DFUNG
 62
     7
100
AcDbVertex
100
AcDb2dVertex
 10
21.35310971688407
 20
231.1897877731487
 30
0.0
  0
VERTEX
  5
523
330
521
100
AcDbEntity
  8
BEMA_U_00DFUNG
 62
     7
100
AcDbVertex
100
AcDb2dVertex
 10
20.55442082819481
 20
231.1897877731487
 30
0.0
  0
SEQEND
  5
524
330
521
100
AcDbEntity
  8
BEMA_U_00DFUNG
 62
     7
  0
POLYLINE
  5
525
330
1F
100
AcDbEntity
  8
BEMA_U_00DFUNG
 62
     7
100
AcDb2dPolyline
 66
     1
 10
0.0
 20
0.0
 30
0.0
  0
VERTEX
  5
526
330
525
100
AcDbEntity
  8
BEMA_U_00DFUNG
 62
     7
100
AcDbVertex
100
AcDb2dVertex
 10
21.35310971688407
 20
231.2409405509139
 30
0.0
  0
VERTEX
  5
527
330
525
100
AcDbEntity
  8
BEMA_U_00DFUNG
 62
     7
100
AcDbVertex
100
AcDb2dVertex
 10
20.16848193940239
 20
231.2409405509139
 30
0.0
  0
SEQEND
  5
528
330
525
100
AcDbEntity
  8
BEMA_U_00DFUNG
 62
     7
  0
POLYLINE
  5
529
330
1F
100
AcDbEntity
  8
BEMA_U_00DFUNG
 62
     7
100
AcDb2dPolyline
 66
     1
 10
0.0
 20
0.0
 30
0.0
  0
VERTEX
  5
52A
330
529
100
AcDbEntity
  8
BEMA_U_00DFUNG
 62
     7
100
AcDbVertex
100
AcDb2dVertex
 10
21.35310971688407
 20
231.2917405509013
 30
0.0
  0
VERTEX
  5
52B
330
529
100
AcDbEntity
  8
BEMA_U_00DFUNG
 62
     7
100
AcDbVertex
100
AcDb2dVertex
 10
19.78289582838773
 20
231.2917405509013
 30
0.0
  0
SEQEND
  5
52C
330
529
100
AcDbEntity
  8
BEMA_U_00DFUNG
 62
     7
  0
POLYLINE
  5
52D
330
1F
100
AcDbEntity
  8
BEMA_U_00DFUNG
 62
     7
100
AcDb2dPolyline
 66
     1
 10
0.0
 20
0.0
 30
0.0
  0
VERTEX
  5
52E
330
52D
100
AcDbEntity
  8
BEMA_U_00DFUNG
 62
     7
100
AcDbVertex
100
AcDb2dVertex
 10
21.35310971688407
 20
231.3425405508883
 30
0.0
  0
VERTEX
  5
52F
330
52D
100
AcDbEntity
  8
BEMA_U_00DFUNG
 62
     7
100
AcDbVertex
100
AcDb2dVertex
 10
19.39660416181754
 20
231.3425405508883
 30
0.0
  0
SEQEND
  5
530
330
52D
100
AcDbEntity
  8
BEMA_U_00DFUNG
 62
     7
  0
POLYLINE
  5
531
330
1F
100
AcDbEntity
  8
BEMA_U_00DFUNG
 62
     7
100
AcDb2dPolyline
 66
     1
 10
0.0
 20
0.0
 30
0.0
  0
VERTEX
  5
532
330
531
100
AcDbEntity
  8
BEMA_U_00DFUNG
 62
     7
100
AcDbVertex
100
AcDb2dVertex
 10
21.35310971688407
 20
231.3933405508757
 30
0.0
  0
VERTEX
  5
533
330
531
100
AcDbEntity
  8
BEMA_U_00DFUNG
 62
     7
100
AcDbVertex
100
AcDb2dVertex
 10
19.01101805080288
 20
231.3933405508757
 30
0.0
  0
SEQEND
  5
534
330
531
100
AcDbEntity
  8
BEMA_U_00DFUNG
 62
     7
  0
POLYLINE
  5
535
330
1F
100
AcDbEntity
  8
BEMA_U_00DFUNG
 62
     7
100
AcDb2dPolyline
 66
     1
 10
0.0
 20
0.0
 30
0.0
  0
VERTEX
  5
536
330
535
100
AcDbEntity
  8
BEMA_U_00DFUNG
 62
     7
100
AcDbVertex
100
AcDb2dVertex
 10
21.35310971688407
 20
231.4441405508628
 30
0.0
  0
VERTEX
  5
537
330
535
100
AcDbEntity
  8
BEMA_U_00DFUNG
 62
     7
100
AcDbVertex
100
AcDb2dVertex
 10
18.6247263842327
 20
231.4441405508628
 30
0.0
  0
SEQEND
  5
538
330
535
100
AcDbEntity
  8
BEMA_U_00DFUNG
 62
     7
  0
POLYLINE
  5
539
330
1F
100
AcDbEntity
  8
BEMA_U_00DFUNG
 62
     7
100
AcDb2dPolyline
 66
     1
 10
0.0
 20
0.0
 30
0.0
  0
VERTEX
  5
53A
330
539
100
AcDbEntity
  8
BEMA_U_00DFUNG
 62
     7
100
AcDbVertex
100
AcDb2dVertex
 10
21.35310971688407
 20
231.4952933286279
 30
0.0
  0
VERTEX
  5
53B
330
539
100
AcDbEntity
  8
BEMA_U_00DFUNG
 62
     7
100
AcDbVertex
100
AcDb2dVertex
 10
18.2394930509958
 20
231.4952933286279
 30
0.0
  0
SEQEND
  5
53C
330
539
100
AcDbEntity
  8
BEMA_U_00DFUNG
 62
     7
  0
POLYLINE
  5
53D
330
1F
100
AcDbEntity
  8
BEMA_U_00DFUNG
 62
     7
100
AcDb2dPolyline
 66
     1
 10
0.0
 20
0.0
 30
0.0
  0
VERTEX
  5
53E
330
53D
100
AcDbEntity
  8
BEMA_U_00DFUNG
 62
     7
100
AcDbVertex
100
AcDb2dVertex
 10
21.35310971688407
 20
231.5460933286153
 30
0.0
  0
VERTEX
  5
53F
330
53D
100
AcDbEntity
  8
BEMA_U_00DFUNG
 62
     7
100
AcDbVertex
100
AcDb2dVertex
 10
17.85320138442561
 20
231.5460933286153
 30
0.0
  0
SEQEND
  5
540
330
53D
100
AcDbEntity
  8
BEMA_U_00DFUNG
 62
     7
  0
POLYLINE
  5
541
330
1F
100
AcDbEntity
  8
BEMA_U_00DFUNG
 62
     7
100
AcDb2dPolyline
 66
     1
 10
0.0
 20
0.0
 30
0.0
  0
VERTEX
  5
542
330
541
100
AcDbEntity
  8
BEMA_U_00DFUNG
 62
     7
100
AcDbVertex
100
AcDb2dVertex
 10
21.35310971688407
 20
232.0032933285011
 30
0.0
  0
VERTEX
  5
543
330
541
100
AcDbEntity
  8
BEMA_U_00DFUNG
 62
     7
100
AcDbVertex
100
AcDb2dVertex
 10
21.32594582800189
 20
232.0032933285011
 30
0.0
  0
SEQEND
  5
544
330
541
100
AcDbEntity
  8
BEMA_U_00DFUNG
 62
     7
  0
POLYLINE
  5
545
330
1F
100
AcDbEntity
  8
BEMA_U_00DFUNG
 62
     7
100
AcDb2dPolyline
 66
     1
 10
0.0
 20
0.0
 30
0.0
  0
VERTEX
  5
546
330
545
100
AcDbEntity
  8
BEMA_U_00DFUNG
 62
     7
100
AcDbVertex
100
AcDb2dVertex
 10
21.35310971688407
 20
232.0032933285011
 30
0.0
  0
VERTEX
  5
547
330
545
100
AcDbEntity
  8
BEMA_U_00DFUNG
 62
     7
100
AcDbVertex
100
AcDb2dVertex
 10
21.32594582800189
 20
232.0032933285011
 30
0.0
  0
SEQEND
  5
548
330
545
100
AcDbEntity
  8
BEMA_U_00DFUNG
 62
     7
  0
POLYLINE
  5
549
330
1F
100
AcDbEntity
  8
BEMA_U_00DFUNG
 62
     7
100
AcDb2dPolyline
 66
     1
 10
0.0
 20
0.0
 30
0.0
  0
VERTEX
  5
54A
330
549
100
AcDbEntity
  8
BEMA_U_00DFUNG
 62
     7
100
AcDbVertex
100
AcDb2dVertex
 10
21.35310971688407
 20
231.9524933285137
 30
0.0
  0
VERTEX
  5
54B
330
549
100
AcDbEntity
  8
BEMA_U_00DFUNG
 62
     7
100
AcDbVertex
100
AcDb2dVertex
 10
20.94000693920947
 20
231.9524933285137
 30
0.0
  0
SEQEND
  5
54C
330
549
100
AcDbEntity
  8
BEMA_U_00DFUNG
 62
     7
  0
POLYLINE
  5
54D
330
1F
100
AcDbEntity
  8
BEMA_U_00DFUNG
 62
     7
100
AcDb2dPolyline
 66
     1
 10
0.0
 20
0.0
 30
0.0
  0
VERTEX
  5
54E
330
54D
100
AcDbEntity
  8
BEMA_U_00DFUNG
 62
     7
100
AcDbVertex
100
AcDb2dVertex
 10
21.35310971688407
 20
231.9016933285263
 30
0.0
  0
VERTEX
  5
54F
330
54D
100
AcDbEntity
  8
BEMA_U_00DFUNG
 62
     7
100
AcDbVertex
100
AcDb2dVertex
 10
20.55442082819481
 20
231.9016933285263
 30
0.0
  0
SEQEND
  5
550
330
54D
100
AcDbEntity
  8
BEMA_U_00DFUNG
 62
     7
  0
POLYLINE
  5
551
330
1F
100
AcDbEntity
  8
BEMA_U_00DFUNG
 62
     7
100
AcDb2dPolyline
 66
     1
 10
0.0
 20
0.0
 30
0.0
  0
VERTEX
  5
552
330
551
100
AcDbEntity
  8
BEMA_U_00DFUNG
 62
     7
100
AcDbVertex
100
AcDb2dVertex
 10
21.35310971688407
 20
231.8501877729834
 30
0.0
  0
VERTEX
  5
553
330
551
100
AcDbEntity
  8
BEMA_U_00DFUNG
 62
     7
100
AcDbVertex
100
AcDb2dVertex
 10
20.16848193940239
 20
231.8501877729834
 30
0.0
  0
SEQEND
  5
554
330
551
100
AcDbEntity
  8
BEMA_U_00DFUNG
 62
     7
  0
POLYLINE
  5
555
330
1F
100
AcDbEntity
  8
BEMA_U_00DFUNG
 62
     7
100
AcDb2dPolyline
 66
     1
 10
0.0
 20
0.0
 30
0.0
  0
VERTEX
  5
556
330
555
100
AcDbEntity
  8
BEMA_U_00DFUNG
 62
     7
100
AcDbVertex
100
AcDb2dVertex
 10
21.35310971688407
 20
231.8000933285516
 30
0.0
  0
VERTEX
  5
557
330
555
100
AcDbEntity
  8
BEMA_U_00DFUNG
 62
     7
100
AcDbVertex
100
AcDb2dVertex
 10
19.78289582838773
 20
231.8000933285516
 30
0.0
  0
SEQEND
  5
558
330
555
100
AcDbEntity
  8
BEMA_U_00DFUNG
 62
     7
  0
POLYLINE
  5
559
330
1F
100
AcDbEntity
  8
BEMA_U_00DFUNG
 62
     7
100
AcDb2dPolyline
 66
     1
 10
0.0
 20
0.0
 30
0.0
  0
VERTEX
  5
55A
330
559
100
AcDbEntity
  8
BEMA_U_00DFUNG
 62
     7
100
AcDbVertex
100
AcDb2dVertex
 10
21.35310971688407
 20
231.7492933285645
 30
0.0
  0
VERTEX
  5
55B
330
559
100
AcDbEntity
  8
BEMA_U_00DFUNG
 62
     7
100
AcDbVertex
100
AcDb2dVertex
 10
19.39660416181754
 20
231.7492933285645
 30
0.0
  0
SEQEND
  5
55C
330
559
100
AcDbEntity
  8
BEMA_U_00DFUNG
 62
     7
  0
POLYLINE
  5
55D
330
1F
100
AcDbEntity
  8
BEMA_U_00DFUNG
 62
     7
100
AcDb2dPolyline
 66
     1
 10
0.0
 20
0.0
 30
0.0
  0
VERTEX
  5
55E
330
55D
100
AcDbEntity
  8
BEMA_U_00DFUNG
 62
     7
100
AcDbVertex
100
AcDb2dVertex
 10
21.35310971688407
 20
231.6981405507997
 30
0.0
  0
VERTEX
  5
55F
330
55D
100
AcDbEntity
  8
BEMA_U_00DFUNG
 62
     7
100
AcDbVertex
100
AcDb2dVertex
 10
19.01101805080288
 20
231.6981405507997
 30
0.0
  0
SEQEND
  5
560
330
55D
100
AcDbEntity
  8
BEMA_U_00DFUNG
 62
     7
  0
POLYLINE
  5
561
330
1F
100
AcDbEntity
  8
BEMA_U_00DFUNG
 62
     7
100
AcDb2dPolyline
 66
     1
 10
0.0
 20
0.0
 30
0.0
  0
VERTEX
  5
562
330
561
100
AcDbEntity
  8
BEMA_U_00DFUNG
 62
     7
100
AcDbVertex
100
AcDb2dVertex
 10
21.35310971688407
 20
231.6476933285901
 30
0.0
  0
VERTEX
  5
563
330
561
100
AcDbEntity
  8
BEMA_U_00DFUNG
 62
     7
100
AcDbVertex
100
AcDb2dVertex
 10
18.6247263842327
 20
231.6476933285901
 30
0.0
  0
SEQEND
  5
564
330
561
100
AcDbEntity
  8
BEMA_U_00DFUNG
 62
     7
  0
POLYLINE
  5
565
330
1F
100
AcDbEntity
  8
BEMA_U_00DFUNG
 62
     7
100
AcDb2dPolyline
 66
     1
 10
0.0
 20
0.0
 30
0.0
  0
VERTEX
  5
566
330
565
100
AcDbEntity
  8
BEMA_U_00DFUNG
 62
     7
100
AcDbVertex
100
AcDb2dVertex
 10
21.35310971688407
 20
231.5968933286027
 30
0.0
  0
VERTEX
  5
567
330
565
100
AcDbEntity
  8
BEMA_U_00DFUNG
 62
     7
100
AcDbVertex
100
AcDb2dVertex
 10
18.2394930509958
 20
231.5968933286027
 30
0.0
  0
SEQEND
  5
568
330
565
100
AcDbEntity
  8
BEMA_U_00DFUNG
 62
     7
  0
POLYLINE
  5
569
330
1F
100
AcDbEntity
  8
BEMA_U_00DFUNG
 62
     7
100
AcDb2dPolyline
 66
     1
 10
0.0
 20
0.0
 30
0.0
  0
VERTEX
  5
56A
330
569
100
AcDbEntity
  8
BEMA_U_00DFUNG
 62
     7
100
AcDbVertex
100
AcDb2dVertex
 10
21.35310971688407
 20
231.5460933286153
 30
0.0
  0
VERTEX
  5
56B
330
569
100
AcDbEntity
  8
BEMA_U_00DFUNG
 62
     7
100
AcDbVertex
100
AcDb2dVertex
 10
17.85320138442561
 20
231.5460933286153
 30
0.0
  0
SEQEND
  5
56C
330
569
100
AcDbEntity
  8
BEMA_U_00DFUNG
 62
     7
  0
POLYLINE
  5
56D
330
1F
100
AcDbEntity
  8
BEMA_U_00DFUNG
 62
     7
100
AcDb2dPolyline
 66
     1
 10
0.0
 20
0.0
 30
0.0
  0
VERTEX
  5
56E
330
56D
100
AcDbEntity
  8
BEMA_U_00DFUNG
 62
     7
100
AcDbVertex
100
AcDb2dVertex
 10
80.35307636880064
 20
231.5460933286153
 30
0.0
  0
VERTEX
  5
56F
330
56D
100
AcDbEntity
  8
BEMA_U_00DFUNG
 62
     7
100
AcDbVertex
100
AcDb2dVertex
 10
76.85316803634251
 20
232.0068211062781
 30
0.0
  0
VERTEX
  5
570
330
56D
100
AcDbEntity
  8
BEMA_U_00DFUNG
 62
     7
100
AcDbVertex
100
AcDb2dVertex
 10
76.85316803634251
 20
231.0846599953973
 30
0.0
  0
VERTEX
  5
571
330
56D
100
AcDbEntity
  8
BEMA_U_00DFUNG
 62
     7
100
AcDbVertex
100
AcDb2dVertex
 10
80.35307636880064
 20
231.5460933286153
 30
0.0
  0
SEQEND
  5
572
330
56D
100
AcDbEntity
  8
BEMA_U_00DFUNG
 62
     7
  0
POLYLINE
  5
573
330
1F
100
AcDbEntity
  8
BEMA_U_00DFUNG
 62
     7
100
AcDb2dPolyline
 66
     1
 10
0.0
 20
0.0
 30
0.0
  0
VERTEX
  5
574
330
573
100
AcDbEntity
  8
BEMA_U_00DFUNG
 62
     7
100
AcDbVertex
100
AcDb2dVertex
 10
76.85316803634251
 20
232.0032933285011
 30
0.0
  0
VERTEX
  5
575
330
573
100
AcDbEntity
  8
BEMA_U_00DFUNG
 62
     7
100
AcDbVertex
100
AcDb2dVertex
 10
76.88033192522435
 20
232.0032933285011
 30
0.0
  0
SEQEND
  5
576
330
573
100
AcDbEntity
  8
BEMA_U_00DFUNG
 62
     7
  0
POLYLINE
  5
577
330
1F
100
AcDbEntity
  8
BEMA_U_00DFUNG
 62
     7
100
AcDb2dPolyline
 66
     1
 10
0.0
 20
0.0
 30
0.0
  0
VERTEX
  5
578
330
577
100
AcDbEntity
  8
BEMA_U_00DFUNG
 62
     7
100
AcDbVertex
100
AcDb2dVertex
 10
76.85316803634251
 20
232.0032933285011
 30
0.0
  0
VERTEX
  5
579
330
577
100
AcDbEntity
  8
BEMA_U_00DFUNG
 62
     7
100
AcDbVertex
100
AcDb2dVertex
 10
76.88033192522435
 20
232.0032933285011
 30
0.0
  0
SEQEND
  5
57A
330
577
100
AcDbEntity
  8
BEMA_U_00DFUNG
 62
     7
  0
POLYLINE
  5
57B
330
1F
100
AcDbEntity
  8
BEMA_U_00DFUNG
 62
     7
100
AcDb2dPolyline
 66
     1
 10
0.0
 20
0.0
 30
0.0
  0
VERTEX
  5
57C
330
57B
100
AcDbEntity
  8
BEMA_U_00DFUNG
 62
     7
100
AcDbVertex
100
AcDb2dVertex
 10
76.85316803634251
 20
231.9524933285137
 30
0.0
  0
VERTEX
  5
57D
330
57B
100
AcDbEntity
  8
BEMA_U_00DFUNG
 62
     7
100
AcDbVertex
100
AcDb2dVertex
 10
77.26627081401678
 20
231.9524933285137
 30
0.0
  0
SEQEND
  5
57E
330
57B
100
AcDbEntity
  8
BEMA_U_00DFUNG
 62
     7
  0
POLYLINE
  5
57F
330
1F
100
AcDbEntity
  8
BEMA_U_00DFUNG
 62
     7
100
AcDb2dPolyline
 66
     1
 10
0.0
 20
0.0
 30
0.0
  0
VERTEX
  5
580
330
57F
100
AcDbEntity
  8
BEMA_U_00DFUNG
 62
     7
100
AcDbVertex
100
AcDb2dVertex
 10
76.85316803634251
 20
231.9016933285263
 30
0.0
  0
VERTEX
  5
581
330
57F
100
AcDbEntity
  8
BEMA_U_00DFUNG
 62
     7
100
AcDbVertex
100
AcDb2dVertex
 10
77.6522097028092
 20
231.9016933285263
 30
0.0
  0
SEQEND
  5
582
330
57F
100
AcDbEntity
  8
BEMA_U_00DFUNG
 62
     7
  0
POLYLINE
  5
583
330
1F
100
AcDbEntity
  8
BEMA_U_00DFUNG
 62
     7
100
AcDb2dPolyline
 66
     1
 10
0.0
 20
0.0
 30
0.0
  0
VERTEX
  5
584
330
583
100
AcDbEntity
  8
BEMA_U_00DFUNG
 62
     7
100
AcDbVertex
100
AcDb2dVertex
 10
76.85316803634251
 20
231.8501877729834
 30
0.0
  0
VERTEX
  5
585
330
583
100
AcDbEntity
  8
BEMA_U_00DFUNG
 62
     7
100
AcDbVertex
100
AcDb2dVertex
 10
78.03814859160163
 20
231.8501877729834
 30
0.0
  0
SEQEND
  5
586
330
583
100
AcDbEntity
  8
BEMA_U_00DFUNG
 62
     7
  0
POLYLINE
  5
587
330
1F
100
AcDbEntity
  8
BEMA_U_00DFUNG
 62
     7
100
AcDb2dPolyline
 66
     1
 10
0.0
 20
0.0
 30
0.0
  0
VERTEX
  5
588
330
587
100
AcDbEntity
  8
BEMA_U_00DFUNG
 62
     7
100
AcDbVertex
100
AcDb2dVertex
 10
76.85316803634251
 20
231.8000933285516
 30
0.0
  0
VERTEX
  5
589
330
587
100
AcDbEntity
  8
BEMA_U_00DFUNG
 62
     7
100
AcDbVertex
100
AcDb2dVertex
 10
78.42373470261629
 20
231.8000933285516
 30
0.0
  0
SEQEND
  5
58A
330
587
100
AcDbEntity
  8
BEMA_U_00DFUNG
 62
     7
  0
POLYLINE
  5
58B
330
1F
100
AcDbEntity
  8
BEMA_U_00DFUNG
 62
     7
100
AcDb2dPolyline
 66
     1
 10
0.0
 20
0.0
 30
0.0
  0
VERTEX
  5
58C
330
58B
100
AcDbEntity
  8
BEMA_U_00DFUNG
 62
     7
100
AcDbVertex
100
AcDb2dVertex
 10
76.85316803634251
 20
231.7492933285645
 30
0.0
  0
VERTEX
  5
58D
330
58B
100
AcDbEntity
  8
BEMA_U_00DFUNG
 62
     7
100
AcDbVertex
100
AcDb2dVertex
 10
78.80967359140871
 20
231.7492933285645
 30
0.0
  0
SEQEND
  5
58E
330
58B
100
AcDbEntity
  8
BEMA_U_00DFUNG
 62
     7
  0
POLYLINE
  5
58F
330
1F
100
AcDbEntity
  8
BEMA_U_00DFUNG
 62
     7
100
AcDb2dPolyline
 66
     1
 10
0.0
 20
0.0
 30
0.0
  0
VERTEX
  5
590
330
58F
100
AcDbEntity
  8
BEMA_U_00DFUNG
 62
     7
100
AcDbVertex
100
AcDb2dVertex
 10
76.85316803634251
 20
231.6981405507997
 30
0.0
  0
VERTEX
  5
591
330
58F
100
AcDbEntity
  8
BEMA_U_00DFUNG
 62
     7
100
AcDbVertex
100
AcDb2dVertex
 10
79.19561248020113
 20
231.6981405507997
 30
0.0
  0
SEQEND
  5
592
330
58F
100
AcDbEntity
  8
BEMA_U_00DFUNG
 62
     7
  0
POLYLINE
  5
593
330
1F
100
AcDbEntity
  8
BEMA_U_00DFUNG
 62
     7
100
AcDb2dPolyline
 66
     1
 10
0.0
 20
0.0
 30
0.0
  0
VERTEX
  5
594
330
593
100
AcDbEntity
  8
BEMA_U_00DFUNG
 62
     7
100
AcDbVertex
100
AcDb2dVertex
 10
76.85316803634251
 20
231.6476933285901
 30
0.0
  0
VERTEX
  5
595
330
593
100
AcDbEntity
  8
BEMA_U_00DFUNG
 62
     7
100
AcDbVertex
100
AcDb2dVertex
 10
79.58155136899356
 20
231.6476933285901
 30
0.0
  0
SEQEND
  5
596
330
593
100
AcDbEntity
  8
BEMA_U_00DFUNG
 62
     7
  0
POLYLINE
  5
597
330
1F
100
AcDbEntity
  8
BEMA_U_00DFUNG
 62
     7
100
AcDb2dPolyline
 66
     1
 10
0.0
 20
0.0
 30
0.0
  0
VERTEX
  5
598
330
597
100
AcDbEntity
  8
BEMA_U_00DFUNG
 62
     7
100
AcDbVertex
100
AcDb2dVertex
 10
76.85316803634251
 20
231.5968933286027
 30
0.0
  0
VERTEX
  5
599
330
597
100
AcDbEntity
  8
BEMA_U_00DFUNG
 62
     7
100
AcDbVertex
100
AcDb2dVertex
 10
79.96713748000822
 20
231.5968933286027
 30
0.0
  0
SEQEND
  5
59A
330
597
100
AcDbEntity
  8
BEMA_U_00DFUNG
 62
     7
  0
POLYLINE
  5
59B
330
1F
100
AcDbEntity
  8
BEMA_U_00DFUNG
 62
     7
100
AcDb2dPolyline
 66
     1
 10
0.0
 20
0.0
 30
0.0
  0
VERTEX
  5
59C
330
59B
100
AcDbEntity
  8
BEMA_U_00DFUNG
 62
     7
100
AcDbVertex
100
AcDb2dVertex
 10
76.85316803634251
 20
231.5460933286153
 30
0.0
  0
VERTEX
  5
59D
330
59B
100
AcDbEntity
  8
BEMA_U_00DFUNG
 62
     7
100
AcDbVertex
100
AcDb2dVertex
 10
80.35307636880064
 20
231.5460933286153
 30
0.0
  0
SEQEND
  5
59E
330
59B
100
AcDbEntity
  8
BEMA_U_00DFUNG
 62
     7
  0
POLYLINE
  5
59F
330
1F
100
AcDbEntity
  8
BEMA_U_00DFUNG
 62
     7
100
AcDb2dPolyline
 66
     1
 10
0.0
 20
0.0
 30
0.0
  0
VERTEX
  5
5A0
330
59F
100
AcDbEntity
  8
BEMA_U_00DFUNG
 62
     7
100
AcDbVertex
100
AcDb2dVertex
 10
76.85316803634251
 20
231.0885405509517
 30
0.0
  0
VERTEX
  5
5A1
330
59F
100
AcDbEntity
  8
BEMA_U_00DFUNG
 62
     7
100
AcDbVertex
100
AcDb2dVertex
 10
76.88033192522435
 20
231.0885405509517
 30
0.0
  0
SEQEND
  5
5A2
330
59F
100
AcDbEntity
  8
BEMA_U_00DFUNG
 62
     7
  0
POLYLINE
  5
5A3
330
1F
100
AcDbEntity
  8
BEMA_U_00DFUNG
 62
     7
100
AcDb2dPolyline
 66
     1
 10
0.0
 20
0.0
 30
0.0
  0
VERTEX
  5
5A4
330
5A3
100
AcDbEntity
  8
BEMA_U_00DFUNG
 62
     7
100
AcDbVertex
100
AcDb2dVertex
 10
76.85316803634251
 20
231.0885405509517
 30
0.0
  0
VERTEX
  5
5A5
330
5A3
100
AcDbEntity
  8
BEMA_U_00DFUNG
 62
     7
100
AcDbVertex
100
AcDb2dVertex
 10
76.88033192522435
 20
231.0885405509517
 30
0.0
  0
SEQEND
  5
5A6
330
5A3
100
AcDbEntity
  8
BEMA_U_00DFUNG
 62
     7
  0
POLYLINE
  5
5A7
330
1F
100
AcDbEntity
  8
BEMA_U_00DFUNG
 62
     7
100
AcDb2dPolyline
 66
     1
 10
0.0
 20
0.0
 30
0.0
  0
VERTEX
  5
5A8
330
5A7
100
AcDbEntity
  8
BEMA_U_00DFUNG
 62
     7
100
AcDbVertex
100
AcDb2dVertex
 10
76.85316803634251
 20
231.1393405509391
 30
0.0
  0
VERTEX
  5
5A9
330
5A7
100
AcDbEntity
  8
BEMA_U_00DFUNG
 62
     7
100
AcDbVertex
100
AcDb2dVertex
 10
77.26627081401678
 20
231.1393405509391
 30
0.0
  0
SEQEND
  5
5AA
330
5A7
100
AcDbEntity
  8
BEMA_U_00DFUNG
 62
     7
  0
POLYLINE
  5
5AB
330
1F
100
AcDbEntity
  8
BEMA_U_00DFUNG
 62
     7
100
AcDb2dPolyline
 66
     1
 10
0.0
 20
0.0
 30
0.0
  0
VERTEX
  5
5AC
330
5AB
100
AcDbEntity
  8
BEMA_U_00DFUNG
 62
     7
100
AcDbVertex
100
AcDb2dVertex
 10
76.85316803634251
 20
231.1897877731487
 30
0.0
  0
VERTEX
  5
5AD
330
5AB
100
AcDbEntity
  8
BEMA_U_00DFUNG
 62
     7
100
AcDbVertex
100
AcDb2dVertex
 10
77.6522097028092
 20
231.1897877731487
 30
0.0
  0
SEQEND
  5
5AE
330
5AB
100
AcDbEntity
  8
BEMA_U_00DFUNG
 62
     7
  0
POLYLINE
  5
5AF
330
1F
100
AcDbEntity
  8
BEMA_U_00DFUNG
 62
     7
100
AcDb2dPolyline
 66
     1
 10
0.0
 20
0.0
 30
0.0
  0
VERTEX
  5
5B0
330
5AF
100
AcDbEntity
  8
BEMA_U_00DFUNG
 62
     7
100
AcDbVertex
100
AcDb2dVertex
 10
76.85316803634251
 20
231.2409405509139
 30
0.0
  0
VERTEX
  5
5B1
330
5AF
100
AcDbEntity
  8
BEMA_U_00DFUNG
 62
     7
100
AcDbVertex
100
AcDb2dVertex
 10
78.03814859160163
 20
231.2409405509139
 30
0.0
  0
SEQEND
  5
5B2
330
5AF
100
AcDbEntity
  8
BEMA_U_00DFUNG
 62
     7
  0
POLYLINE
  5
5B3
330
1F
100
AcDbEntity
  8
BEMA_U_00DFUNG
 62
     7
100
AcDb2dPolyline
 66
     1
 10
0.0
 20
0.0
 30
0.0
  0
VERTEX
  5
5B4
330
5B3
100
AcDbEntity
  8
BEMA_U_00DFUNG
 62
     7
100
AcDbVertex
100
AcDb2dVertex
 10
76.85316803634251
 20
231.2917405509013
 30
0.0
  0
VERTEX
  5
5B5
330
5B3
100
AcDbEntity
  8
BEMA_U_00DFUNG
 62
     7
100
AcDbVertex
100
AcDb2dVertex
 10
78.42373470261629
 20
231.2917405509013
 30
0.0
  0
SEQEND
  5
5B6
330
5B3
100
AcDbEntity
  8
BEMA_U_00DFUNG
 62
     7
  0
POLYLINE
  5
5B7
330
1F
100
AcDbEntity
  8
BEMA_U_00DFUNG
 62
     7
100
AcDb2dPolyline
 66
     1
 10
0.0
 20
0.0
 30
0.0
  0
VERTEX
  5
5B8
330
5B7
100
AcDbEntity
  8
BEMA_U_00DFUNG
 62
     7
100
AcDbVertex
100
AcDb2dVertex
 10
76.85316803634251
 20
231.3425405508883
 30
0.0
  0
VERTEX
  5
5B9
330
5B7
100
AcDbEntity
  8
BEMA_U_00DFUNG
 62
     7
100
AcDbVertex
100
AcDb2dVertex
 10
78.80967359140871
 20
231.3425405508883
 30
0.0
  0
SEQEND
  5
5BA
330
5B7
100
AcDbEntity
  8
BEMA_U_00DFUNG
 62
     7
  0
POLYLINE
  5
5BB
330
1F
100
AcDbEntity
  8
BEMA_U_00DFUNG
 62
     7
100
AcDb2dPolyline
 66
     1
 10
0.0
 20
0.0
 30
0.0
  0
VERTEX
  5
5BC
330
5BB
100
AcDbEntity
  8
BEMA_U_00DFUNG
 62
     7
100
AcDbVertex
100
AcDb2dVertex
 10
76.85316803634251
 20
231.3933405508757
 30
0.0
  0
VERTEX
  5
5BD
330
5BB
100
AcDbEntity
  8
BEMA_U_00DFUNG
 62
     7
100
AcDbVertex
100
AcDb2dVertex
 10
79.19561248020113
 20
231.3933405508757
 30
0.0
  0
SEQEND
  5
5BE
330
5BB
100
AcDbEntity
  8
BEMA_U_00DFUNG
 62
     7
  0
POLYLINE
  5
5BF
330
1F
100
AcDbEntity
  8
BEMA_U_00DFUNG
 62
     7
100
AcDb2dPolyline
 66
     1
 10
0.0
 20
0.0
 30
0.0
  0
VERTEX
  5
5C0
330
5BF
100
AcDbEntity
  8
BEMA_U_00DFUNG
 62
     7
100
AcDbVertex
100
AcDb2dVertex
 10
76.85316803634251
 20
231.4441405508628
 30
0.0
  0
VERTEX
  5
5C1
330
5BF
100
AcDbEntity
  8
BEMA_U_00DFUNG
 62
     7
100
AcDbVertex
100
AcDb2dVertex
 10
79.58155136899356
 20
231.4441405508628
 30
0.0
  0
SEQEND
  5
5C2
330
5BF
100
AcDbEntity
  8
BEMA_U_00DFUNG
 62
     7
  0
POLYLINE
  5
5C3
330
1F
100
AcDbEntity
  8
BEMA_U_00DFUNG
 62
     7
100
AcDb2dPolyline
 66
     1
 10
0.0
 20
0.0
 30
0.0
  0
VERTEX
  5
5C4
330
5C3
100
AcDbEntity
  8
BEMA_U_00DFUNG
 62
     7
100
AcDbVertex
100
AcDb2dVertex
 10
76.85316803634251
 20
231.4952933286279
 30
0.0
  0
VERTEX
  5
5C5
330
5C3
100
AcDbEntity
  8
BEMA_U_00DFUNG
 62
     7
100
AcDbVertex
100
AcDb2dVertex
 10
79.96713748000822
 20
231.4952933286279
 30
0.0
  0
SEQEND
  5
5C6
330
5C3
100
AcDbEntity
  8
BEMA_U_00DFUNG
 62
     7
  0
POLYLINE
  5
5C7
330
1F
100
AcDbEntity
  8
BEMA_U_00DFUNG
 62
     7
100
AcDb2dPolyline
 66
     1
 10
0.0
 20
0.0
 30
0.0
  0
VERTEX
  5
5C8
330
5C7
100
AcDbEntity
  8
BEMA_U_00DFUNG
 62
     7
100
AcDbVertex
100
AcDb2dVertex
 10
76.85316803634251
 20
231.5460933286153
 30
0.0
  0
VERTEX
  5
5C9
330
5C7
100
AcDbEntity
  8
BEMA_U_00DFUNG
 62
     7
100
AcDbVertex
100
AcDb2dVertex
 10
80.35307636880064
 20
231.5460933286153
 30
0.0
  0
SEQEND
  5
5CA
330
5C7
100
AcDbEntity
  8
BEMA_U_00DFUNG
 62
     7
  0
POLYLINE
  5
5CB
330
1F
100
AcDbEntity
  8
BEMA_U_00DFUNG
 62
     7
100
AcDb2dPolyline
 66
     1
 10
0.0
 20
0.0
 30
0.0
  0
VERTEX
  5
5CC
330
5CB
100
AcDbEntity
  8
BEMA_U_00DFUNG
 62
     7
100
AcDbVertex
100
AcDb2dVertex
 10
152.5384652396435
 20
205.7492183350645
 30
0.0
  0
VERTEX
  5
5CD
330
5CB
100
AcDbEntity
  8
BEMA_U_00DFUNG
 62
     7
100
AcDbVertex
100
AcDb2dVertex
 10
152.5384652396435
 20
233.5456377725597
 30
0.0
  0
SEQEND
  5
5CE
330
5CB
100
AcDbEntity
  8
BEMA_U_00DFUNG
 62
     7
  0
POLYLINE
  5
5CF
330
1F
100
AcDbEntity
  8
BEMA_U_00DFUNG
 62
     7
100
AcDb2dPolyline
 66
     1
 10
0.0
 20
0.0
 30
0.0
  0
VERTEX
  5
5D0
330
5CF
100
AcDbEntity
  8
BEMA_U_00DFUNG
 62
     7
100
AcDbVertex
100
AcDb2dVertex
 10
123.038481913685
 20
221.5459016644488
 30
0.0
  0
VERTEX
  5
5D1
330
5CF
100
AcDbEntity
  8
BEMA_U_00DFUNG
 62
     7
100
AcDbVertex
100
AcDb2dVertex
 10
123.038481913685
 20
233.5456377725597
 30
0.0
  0
SEQEND
  5
5D2
330
5CF
100
AcDbEntity
  8
BEMA_U_00DFUNG
 62
     7
  0
POLYLINE
  5
5D3
330
1F
100
AcDbEntity
  8
BEMA_U_00DFUNG
 62
     7
100
AcDb2dPolyline
 66
     1
 10
0.0
 20
0.0
 30
0.0
  0
VERTEX
  5
5D4
330
5D3
100
AcDbEntity
  8
BEMA_U_00DFUNG
 62
     7
100
AcDbVertex
100
AcDb2dVertex
 10
152.5384652396435
 20
231.5460933286153
 30
0.0
  0
VERTEX
  5
5D5
330
5D3
100
AcDbEntity
  8
BEMA_U_00DFUNG
 62
     7
100
AcDbVertex
100
AcDb2dVertex
 10
123.038481913685
 20
231.5460933286153
 30
0.0
  0
SEQEND
  5
5D6
330
5D3
100
AcDbEntity
  8
BEMA_U_00DFUNG
 62
     7
  0
POLYLINE
  5
5D7
330
1F
100
AcDbEntity
  8
BEMA_U_00DFUNG
 62
     7
100
AcDb2dPolyline
 66
     1
 10
0.0
 20
0.0
 30
0.0
  0
VERTEX
  5
5D8
330
5D7
100
AcDbEntity
  8
BEMA_U_00DFUNG
 62
     7
100
AcDbVertex
100
AcDb2dVertex
 10
152.5384652396435
 20
231.5460933286153
 30
0.0
  0
VERTEX
  5
5D9
330
5D7
100
AcDbEntity
  8
BEMA_U_00DFUNG
 62
     7
100
AcDbVertex
100
AcDb2dVertex
 10
149.038556907185
 20
232.0068211062781
 30
0.0
  0
VERTEX
  5
5DA
330
5D7
100
AcDbEntity
  8
BEMA_U_00DFUNG
 62
     7
100
AcDbVertex
100
AcDb2dVertex
 10
149.038556907185
 20
231.0846599953973
 30
0.0
  0
VERTEX
  5
5DB
330
5D7
100
AcDbEntity
  8
BEMA_U_00DFUNG
 62
     7
100
AcDbVertex
100
AcDb2dVertex
 10
152.5384652396435
 20
231.5460933286153
 30
0.0
  0
SEQEND
  5
5DC
330
5D7
100
AcDbEntity
  8
BEMA_U_00DFUNG
 62
     7
  0
POLYLINE
  5
5DD
330
1F
100
AcDbEntity
  8
BEMA_U_00DFUNG
 62
     7
100
AcDb2dPolyline
 66
     1
 10
0.0
 20
0.0
 30
0.0
  0
VERTEX
  5
5DE
330
5DD
100
AcDbEntity
  8
BEMA_U_00DFUNG
 62
     7
100
AcDbVertex
100
AcDb2dVertex
 10
149.038556907185
 20
232.0032933285011
 30
0.0
  0
VERTEX
  5
5DF
330
5DD
100
AcDbEntity
  8
BEMA_U_00DFUNG
 62
     7
100
AcDbVertex
100
AcDb2dVertex
 10
149.0657207960672
 20
232.0032933285011
 30
0.0
  0
SEQEND
  5
5E0
330
5DD
100
AcDbEntity
  8
BEMA_U_00DFUNG
 62
     7
  0
POLYLINE
  5
5E1
330
1F
100
AcDbEntity
  8
BEMA_U_00DFUNG
 62
     7
100
AcDb2dPolyline
 66
     1
 10
0.0
 20
0.0
 30
0.0
  0
VERTEX
  5
5E2
330
5E1
100
AcDbEntity
  8
BEMA_U_00DFUNG
 62
     7
100
AcDbVertex
100
AcDb2dVertex
 10
149.038556907185
 20
232.0032933285011
 30
0.0
  0
VERTEX
  5
5E3
330
5E1
100
AcDbEntity
  8
BEMA_U_00DFUNG
 62
     7
100
AcDbVertex
100
AcDb2dVertex
 10
149.0657207960672
 20
232.0032933285011
 30
0.0
  0
SEQEND
  5
5E4
330
5E1
100
AcDbEntity
  8
BEMA_U_00DFUNG
 62
     7
  0
POLYLINE
  5
5E5
330
1F
100
AcDbEntity
  8
BEMA_U_00DFUNG
 62
     7
100
AcDb2dPolyline
 66
     1
 10
0.0
 20
0.0
 30
0.0
  0
VERTEX
  5
5E6
330
5E5
100
AcDbEntity
  8
BEMA_U_00DFUNG
 62
     7
100
AcDbVertex
100
AcDb2dVertex
 10
149.038556907185
 20
231.9524933285137
 30
0.0
  0
VERTEX
  5
5E7
330
5E5
100
AcDbEntity
  8
BEMA_U_00DFUNG
 62
     7
100
AcDbVertex
100
AcDb2dVertex
 10
149.4516596848596
 20
231.9524933285137
 30
0.0
  0
SEQEND
  5
5E8
330
5E5
100
AcDbEntity
  8
BEMA_U_00DFUNG
 62
     7
  0
POLYLINE
  5
5E9
330
1F
100
AcDbEntity
  8
BEMA_U_00DFUNG
 62
     7
100
AcDb2dPolyline
 66
     1
 10
0.0
 20
0.0
 30
0.0
  0
VERTEX
  5
5EA
330
5E9
100
AcDbEntity
  8
BEMA_U_00DFUNG
 62
     7
100
AcDbVertex
100
AcDb2dVertex
 10
149.038556907185
 20
231.9016933285263
 30
0.0
  0
VERTEX
  5
5EB
330
5E9
100
AcDbEntity
  8
BEMA_U_00DFUNG
 62
     7
100
AcDbVertex
100
AcDb2dVertex
 10
149.837598573652
 20
231.9016933285263
 30
0.0
  0
SEQEND
  5
5EC
330
5E9
100
AcDbEntity
  8
BEMA_U_00DFUNG
 62
     7
  0
POLYLINE
  5
5ED
330
1F
100
AcDbEntity
  8
BEMA_U_00DFUNG
 62
     7
100
AcDb2dPolyline
 66
     1
 10
0.0
 20
0.0
 30
0.0
  0
VERTEX
  5
5EE
330
5ED
100
AcDbEntity
  8
BEMA_U_00DFUNG
 62
     7
100
AcDbVertex
100
AcDb2dVertex
 10
149.038556907185
 20
231.8501877729834
 30
0.0
  0
VERTEX
  5
5EF
330
5ED
100
AcDbEntity
  8
BEMA_U_00DFUNG
 62
     7
100
AcDbVertex
100
AcDb2dVertex
 10
150.2228319068889
 20
231.8501877729834
 30
0.0
  0
SEQEND
  5
5F0
330
5ED
100
AcDbEntity
  8
BEMA_U_00DFUNG
 62
     7
  0
POLYLINE
  5
5F1
330
1F
100
AcDbEntity
  8
BEMA_U_00DFUNG
 62
     7
100
AcDb2dPolyline
 66
     1
 10
0.0
 20
0.0
 30
0.0
  0
VERTEX
  5
5F2
330
5F1
100
AcDbEntity
  8
BEMA_U_00DFUNG
 62
     7
100
AcDbVertex
100
AcDb2dVertex
 10
149.038556907185
 20
231.8000933285516
 30
0.0
  0
VERTEX
  5
5F3
330
5F1
100
AcDbEntity
  8
BEMA_U_00DFUNG
 62
     7
100
AcDbVertex
100
AcDb2dVertex
 10
150.6091235734591
 20
231.8000933285516
 30
0.0
  0
SEQEND
  5
5F4
330
5F1
100
AcDbEntity
  8
BEMA_U_00DFUNG
 62
     7
  0
POLYLINE
  5
5F5
330
1F
100
AcDbEntity
  8
BEMA_U_00DFUNG
 62
     7
100
AcDb2dPolyline
 66
     1
 10
0.0
 20
0.0
 30
0.0
  0
VERTEX
  5
5F6
330
5F5
100
AcDbEntity
  8
BEMA_U_00DFUNG
 62
     7
100
AcDbVertex
100
AcDb2dVertex
 10
149.038556907185
 20
231.7492933285645
 30
0.0
  0
VERTEX
  5
5F7
330
5F5
100
AcDbEntity
  8
BEMA_U_00DFUNG
 62
     7
100
AcDbVertex
100
AcDb2dVertex
 10
150.9950624622515
 20
231.7492933285645
 30
0.0
  0
SEQEND
  5
5F8
330
5F5
100
AcDbEntity
  8
BEMA_U_00DFUNG
 62
     7
  0
POLYLINE
  5
5F9
330
1F
100
AcDbEntity
  8
BEMA_U_00DFUNG
 62
     7
100
AcDb2dPolyline
 66
     1
 10
0.0
 20
0.0
 30
0.0
  0
VERTEX
  5
5FA
330
5F9
100
AcDbEntity
  8
BEMA_U_00DFUNG
 62
     7
100
AcDbVertex
100
AcDb2dVertex
 10
149.038556907185
 20
231.6981405507997
 30
0.0
  0
VERTEX
  5
5FB
330
5F9
100
AcDbEntity
  8
BEMA_U_00DFUNG
 62
     7
100
AcDbVertex
100
AcDb2dVertex
 10
151.3810013510439
 20
231.6981405507997
 30
0.0
  0
SEQEND
  5
5FC
330
5F9
100
AcDbEntity
  8
BEMA_U_00DFUNG
 62
     7
  0
POLYLINE
  5
5FD
330
1F
100
AcDbEntity
  8
BEMA_U_00DFUNG
 62
     7
100
AcDb2dPolyline
 66
     1
 10
0.0
 20
0.0
 30
0.0
  0
VERTEX
  5
5FE
330
5FD
100
AcDbEntity
  8
BEMA_U_00DFUNG
 62
     7
100
AcDbVertex
100
AcDb2dVertex
 10
149.038556907185
 20
231.6476933285901
 30
0.0
  0
VERTEX
  5
5FF
330
5FD
100
AcDbEntity
  8
BEMA_U_00DFUNG
 62
     7
100
AcDbVertex
100
AcDb2dVertex
 10
151.7669402398361
 20
231.6476933285901
 30
0.0
  0
SEQEND
  5
600
330
5FD
100
AcDbEntity
  8
BEMA_U_00DFUNG
 62
     7
  0
POLYLINE
  5
601
330
1F
100
AcDbEntity
  8
BEMA_U_00DFUNG
 62
     7
100
AcDb2dPolyline
 66
     1
 10
0.0
 20
0.0
 30
0.0
  0
VERTEX
  5
602
330
601
100
AcDbEntity
  8
BEMA_U_00DFUNG
 62
     7
100
AcDbVertex
100
AcDb2dVertex
 10
149.038556907185
 20
231.5968933286027
 30
0.0
  0
VERTEX
  5
603
330
601
100
AcDbEntity
  8
BEMA_U_00DFUNG
 62
     7
100
AcDbVertex
100
AcDb2dVertex
 10
152.152526350851
 20
231.5968933286027
 30
0.0
  0
SEQEND
  5
604
330
601
100
AcDbEntity
  8
BEMA_U_00DFUNG
 62
     7
  0
POLYLINE
  5
605
330
1F
100
AcDbEntity
  8
BEMA_U_00DFUNG
 62
     7
100
AcDb2dPolyline
 66
     1
 10
0.0
 20
0.0
 30
0.0
  0
VERTEX
  5
606
330
605
100
AcDbEntity
  8
BEMA_U_00DFUNG
 62
     7
100
AcDbVertex
100
AcDb2dVertex
 10
149.038556907185
 20
231.5460933286153
 30
0.0
  0
VERTEX
  5
607
330
605
100
AcDbEntity
  8
BEMA_U_00DFUNG
 62
     7
100
AcDbVertex
100
AcDb2dVertex
 10
152.5384652396435
 20
231.5460933286153
 30
0.0
  0
SEQEND
  5
608
330
605
100
AcDbEntity
  8
BEMA_U_00DFUNG
 62
     7
  0
POLYLINE
  5
609
330
1F
100
AcDbEntity
  8
BEMA_U_00DFUNG
 62
     7
100
AcDb2dPolyline
 66
     1
 10
0.0
 20
0.0
 30
0.0
  0
VERTEX
  5
60A
330
609
100
AcDbEntity
  8
BEMA_U_00DFUNG
 62
     7
100
AcDbVertex
100
AcDb2dVertex
 10
149.038556907185
 20
231.0885405509517
 30
0.0
  0
VERTEX
  5
60B
330
609
100
AcDbEntity
  8
BEMA_U_00DFUNG
 62
     7
100
AcDbVertex
100
AcDb2dVertex
 10
149.0657207960672
 20
231.0885405509517
 30
0.0
  0
SEQEND
  5
60C
330
609
100
AcDbEntity
  8
BEMA_U_00DFUNG
 62
     7
  0
POLYLINE
  5
60D
330
1F
100
AcDbEntity
  8
BEMA_U_00DFUNG
 62
     7
100
AcDb2dPolyline
 66
     1
 10
0.0
 20
0.0
 30
0.0
  0
VERTEX
  5
60E
330
60D
100
AcDbEntity
  8
BEMA_U_00DFUNG
 62
     7
100
AcDbVertex
100
AcDb2dVertex
 10
149.038556907185
 20
231.0885405509517
 30
0.0
  0
VERTEX
  5
60F
330
60D
100
AcDbEntity
  8
BEMA_U_00DFUNG
 62
     7
100
AcDbVertex
100
AcDb2dVertex
 10
149.0657207960672
 20
231.0885405509517
 30
0.0
  0
SEQEND
  5
610
330
60D
100
AcDbEntity
  8
BEMA_U_00DFUNG
 62
     7
  0
POLYLINE
  5
611
330
1F
100
AcDbEntity
  8
BEMA_U_00DFUNG
 62
     7
100
AcDb2dPolyline
 66
     1
 10
0.0
 20
0.0
 30
0.0
  0
VERTEX
  5
612
330
611
100
AcDbEntity
  8
BEMA_U_00DFUNG
 62
     7
100
AcDbVertex
100
AcDb2dVertex
 10
149.038556907185
 20
231.1393405509391
 30
0.0
  0
VERTEX
  5
613
330
611
100
AcDbEntity
  8
BEMA_U_00DFUNG
 62
     7
100
AcDbVertex
100
AcDb2dVertex
 10
149.4516596848596
 20
231.1393405509391
 30
0.0
  0
SEQEND
  5
614
330
611
100
AcDbEntity
  8
BEMA_U_00DFUNG
 62
     7
  0
POLYLINE
  5
615
330
1F
100
AcDbEntity
  8
BEMA_U_00DFUNG
 62
     7
100
AcDb2dPolyline
 66
     1
 10
0.0
 20
0.0
 30
0.0
  0
VERTEX
  5
616
330
615
100
AcDbEntity
  8
BEMA_U_00DFUNG
 62
     7
100
AcDbVertex
100
AcDb2dVertex
 10
149.038556907185
 20
231.1897877731487
 30
0.0
  0
VERTEX
  5
617
330
615
100
AcDbEntity
  8
BEMA_U_00DFUNG
 62
     7
100
AcDbVertex
100
AcDb2dVertex
 10
149.837598573652
 20
231.1897877731487
 30
0.0
  0
SEQEND
  5
618
330
615
100
AcDbEntity
  8
BEMA_U_00DFUNG
 62
     7
  0
POLYLINE
  5
619
330
1F
100
AcDbEntity
  8
BEMA_U_00DFUNG
 62
     7
100
AcDb2dPolyline
 66
     1
 10
0.0
 20
0.0
 30
0.0
  0
VERTEX
  5
61A
330
619
100
AcDbEntity
  8
BEMA_U_00DFUNG
 62
     7
100
AcDbVertex
100
AcDb2dVertex
 10
149.038556907185
 20
231.2409405509139
 30
0.0
  0
VERTEX
  5
61B
330
619
100
AcDbEntity
  8
BEMA_U_00DFUNG
 62
     7
100
AcDbVertex
100
AcDb2dVertex
 10
150.2228319068889
 20
231.2409405509139
 30
0.0
  0
SEQEND
  5
61C
330
619
100
AcDbEntity
  8
BEMA_U_00DFUNG
 62
     7
  0
POLYLINE
  5
61D
330
1F
100
AcDbEntity
  8
BEMA_U_00DFUNG
 62
     7
100
AcDb2dPolyline
 66
     1
 10
0.0
 20
0.0
 30
0.0
  0
VERTEX
  5
61E
330
61D
100
AcDbEntity
  8
BEMA_U_00DFUNG
 62
     7
100
AcDbVertex
100
AcDb2dVertex
 10
149.038556907185
 20
231.2917405509013
 30
0.0
  0
VERTEX
  5
61F
330
61D
100
AcDbEntity
  8
BEMA_U_00DFUNG
 62
     7
100
AcDbVertex
100
AcDb2dVertex
 10
150.6091235734591
 20
231.2917405509013
 30
0.0
  0
SEQEND
  5
620
330
61D
100
AcDbEntity
  8
BEMA_U_00DFUNG
 62
     7
  0
POLYLINE
  5
621
330
1F
100
AcDbEntity
  8
BEMA_U_00DFUNG
 62
     7
100
AcDb2dPolyline
 66
     1
 10
0.0
 20
0.0
 30
0.0
  0
VERTEX
  5
622
330
621
100
AcDbEntity
  8
BEMA_U_00DFUNG
 62
     7
100
AcDbVertex
100
AcDb2dVertex
 10
149.038556907185
 20
231.3425405508883
 30
0.0
  0
VERTEX
  5
623
330
621
100
AcDbEntity
  8
BEMA_U_00DFUNG
 62
     7
100
AcDbVertex
100
AcDb2dVertex
 10
150.9950624622515
 20
231.3425405508883
 30
0.0
  0
SEQEND
  5
624
330
621
100
AcDbEntity
  8
BEMA_U_00DFUNG
 62
     7
  0
POLYLINE
  5
625
330
1F
100
AcDbEntity
  8
BEMA_U_00DFUNG
 62
     7
100
AcDb2dPolyline
 66
     1
 10
0.0
 20
0.0
 30
0.0
  0
VERTEX
  5
626
330
625
100
AcDbEntity
  8
BEMA_U_00DFUNG
 62
     7
100
AcDbVertex
100
AcDb2dVertex
 10
149.038556907185
 20
231.3933405508757
 30
0.0
  0
VERTEX
  5
627
330
625
100
AcDbEntity
  8
BEMA_U_00DFUNG
 62
     7
100
AcDbVertex
100
AcDb2dVertex
 10
151.3810013510439
 20
231.3933405508757
 30
0.0
  0
SEQEND
  5
628
330
625
100
AcDbEntity
  8
BEMA_U_00DFUNG
 62
     7
  0
POLYLINE
  5
629
330
1F
100
AcDbEntity
  8
BEMA_U_00DFUNG
 62
     7
100
AcDb2dPolyline
 66
     1
 10
0.0
 20
0.0
 30
0.0
  0
VERTEX
  5
62A
330
629
100
AcDbEntity
  8
BEMA_U_00DFUNG
 62
     7
100
AcDbVertex
100
AcDb2dVertex
 10
149.038556907185
 20
231.4441405508628
 30
0.0
  0
VERTEX
  5
62B
330
629
100
AcDbEntity
  8
BEMA_U_00DFUNG
 62
     7
100
AcDbVertex
100
AcDb2dVertex
 10
151.7669402398361
 20
231.4441405508628
 30
0.0
  0
SEQEND
  5
62C
330
629
100
AcDbEntity
  8
BEMA_U_00DFUNG
 62
     7
  0
POLYLINE
  5
62D
330
1F
100
AcDbEntity
  8
BEMA_U_00DFUNG
 62
     7
100
AcDb2dPolyline
 66
     1
 10
0.0
 20
0.0
 30
0.0
  0
VERTEX
  5
62E
330
62D
100
AcDbEntity
  8
BEMA_U_00DFUNG
 62
     7
100
AcDbVertex
100
AcDb2dVertex
 10
149.038556907185
 20
231.4952933286279
 30
0.0
  0
VERTEX
  5
62F
330
62D
100
AcDbEntity
  8
BEMA_U_00DFUNG
 62
     7
100
AcDbVertex
100
AcDb2dVertex
 10
152.152526350851
 20
231.4952933286279
 30
0.0
  0
SEQEND
  5
630
330
62D
100
AcDbEntity
  8
BEMA_U_00DFUNG
 62
     7
  0
POLYLINE
  5
631
330
1F
100
AcDbEntity
  8
BEMA_U_00DFUNG
 62
     7
100
AcDb2dPolyline
 66
     1
 10
0.0
 20
0.0
 30
0.0
  0
VERTEX
  5
632
330
631
100
AcDbEntity
  8
BEMA_U_00DFUNG
 62
     7
100
AcDbVertex
100
AcDb2dVertex
 10
149.038556907185
 20
231.5460933286153
 30
0.0
  0
VERTEX
  5
633
330
631
100
AcDbEntity
  8
BEMA_U_00DFUNG
 62
     7
100
AcDbVertex
100
AcDb2dVertex
 10
152.5384652396435
 20
231.5460933286153
 30
0.0
  0
SEQEND
  5
634
330
631
100
AcDbEntity
  8
BEMA_U_00DFUNG
 62
     7
  0
POLYLINE
  5
635
330
1F
100
AcDbEntity
  8
BEMA_U_00DFUNG
 62
     7
100
AcDb2dPolyline
 66
     1
 10
0.0
 20
0.0
 30
0.0
  0
VERTEX
  5
636
330
635
100
AcDbEntity
  8
BEMA_U_00DFUNG
 62
     7
100
AcDbVertex
100
AcDb2dVertex
 10
123.038481913685
 20
231.5460933286153
 30
0.0
  0
VERTEX
  5
637
330
635
100
AcDbEntity
  8
BEMA_U_00DFUNG
 62
     7
100
AcDbVertex
100
AcDb2dVertex
 10
126.5380374683657
 20
231.0846599953973
 30
0.0
  0
VERTEX
  5
638
330
635
100
AcDbEntity
  8
BEMA_U_00DFUNG
 62
     7
100
AcDbVertex
100
AcDb2dVertex
 10
126.5380374683657
 20
232.0068211062781
 30
0.0
  0
VERTEX
  5
639
330
635
100
AcDbEntity
  8
BEMA_U_00DFUNG
 62
     7
100
AcDbVertex
100
AcDb2dVertex
 10
123.038481913685
 20
231.5460933286153
 30
0.0
  0
SEQEND
  5
63A
330
635
100
AcDbEntity
  8
BEMA_U_00DFUNG
 62
     7
  0
POLYLINE
  5
63B
330
1F
100
AcDbEntity
  8
BEMA_U_00DFUNG
 62
     7
100
AcDb2dPolyline
 66
     1
 10
0.0
 20
0.0
 30
0.0
  0
VERTEX
  5
63C
330
63B
100
AcDbEntity
  8
BEMA_U_00DFUNG
 62
     7
100
AcDbVertex
100
AcDb2dVertex
 10
126.5380374683657
 20
231.0885405509517
 30
0.0
  0
VERTEX
  5
63D
330
63B
100
AcDbEntity
  8
BEMA_U_00DFUNG
 62
     7
100
AcDbVertex
100
AcDb2dVertex
 10
126.5108735794835
 20
231.0885405509517
 30
0.0
  0
SEQEND
  5
63E
330
63B
100
AcDbEntity
  8
BEMA_U_00DFUNG
 62
     7
  0
POLYLINE
  5
63F
330
1F
100
AcDbEntity
  8
BEMA_U_00DFUNG
 62
     7
100
AcDb2dPolyline
 66
     1
 10
0.0
 20
0.0
 30
0.0
  0
VERTEX
  5
640
330
63F
100
AcDbEntity
  8
BEMA_U_00DFUNG
 62
     7
100
AcDbVertex
100
AcDb2dVertex
 10
126.5380374683657
 20
231.0885405509517
 30
0.0
  0
VERTEX
  5
641
330
63F
100
AcDbEntity
  8
BEMA_U_00DFUNG
 62
     7
100
AcDbVertex
100
AcDb2dVertex
 10
126.5108735794835
 20
231.0885405509517
 30
0.0
  0
SEQEND
  5
642
330
63F
100
AcDbEntity
  8
BEMA_U_00DFUNG
 62
     7
  0
POLYLINE
  5
643
330
1F
100
AcDbEntity
  8
BEMA_U_00DFUNG
 62
     7
100
AcDb2dPolyline
 66
     1
 10
0.0
 20
0.0
 30
0.0
  0
VERTEX
  5
644
330
643
100
AcDbEntity
  8
BEMA_U_00DFUNG
 62
     7
100
AcDbVertex
100
AcDb2dVertex
 10
126.5380374683657
 20
231.1393405509391
 30
0.0
  0
VERTEX
  5
645
330
643
100
AcDbEntity
  8
BEMA_U_00DFUNG
 62
     7
100
AcDbVertex
100
AcDb2dVertex
 10
126.1252874684689
 20
231.1393405509391
 30
0.0
  0
SEQEND
  5
646
330
643
100
AcDbEntity
  8
BEMA_U_00DFUNG
 62
     7
  0
POLYLINE
  5
647
330
1F
100
AcDbEntity
  8
BEMA_U_00DFUNG
 62
     7
100
AcDb2dPolyline
 66
     1
 10
0.0
 20
0.0
 30
0.0
  0
VERTEX
  5
648
330
647
100
AcDbEntity
  8
BEMA_U_00DFUNG
 62
     7
100
AcDbVertex
100
AcDb2dVertex
 10
126.5380374683657
 20
231.1897877731487
 30
0.0
  0
VERTEX
  5
649
330
647
100
AcDbEntity
  8
BEMA_U_00DFUNG
 62
     7
100
AcDbVertex
100
AcDb2dVertex
 10
125.7393485796764
 20
231.1897877731487
 30
0.0
  0
SEQEND
  5
64A
330
647
100
AcDbEntity
  8
BEMA_U_00DFUNG
 62
     7
  0
POLYLINE
  5
64B
330
1F
100
AcDbEntity
  8
BEMA_U_00DFUNG
 62
     7
100
AcDb2dPolyline
 66
     1
 10
0.0
 20
0.0
 30
0.0
  0
VERTEX
  5
64C
330
64B
100
AcDbEntity
  8
BEMA_U_00DFUNG
 62
     7
100
AcDbVertex
100
AcDb2dVertex
 10
126.5380374683657
 20
231.2409405509139
 30
0.0
  0
VERTEX
  5
64D
330
64B
100
AcDbEntity
  8
BEMA_U_00DFUNG
 62
     7
100
AcDbVertex
100
AcDb2dVertex
 10
125.353409690884
 20
231.2409405509139
 30
0.0
  0
SEQEND
  5
64E
330
64B
100
AcDbEntity
  8
BEMA_U_00DFUNG
 62
     7
  0
POLYLINE
  5
64F
330
1F
100
AcDbEntity
  8
BEMA_U_00DFUNG
 62
     7
100
AcDb2dPolyline
 66
     1
 10
0.0
 20
0.0
 30
0.0
  0
VERTEX
  5
650
330
64F
100
AcDbEntity
  8
BEMA_U_00DFUNG
 62
     7
100
AcDbVertex
100
AcDb2dVertex
 10
126.5380374683657
 20
231.2917405509013
 30
0.0
  0
VERTEX
  5
651
330
64F
100
AcDbEntity
  8
BEMA_U_00DFUNG
 62
     7
100
AcDbVertex
100
AcDb2dVertex
 10
124.9674708020916
 20
231.2917405509013
 30
0.0
  0
SEQEND
  5
652
330
64F
100
AcDbEntity
  8
BEMA_U_00DFUNG
 62
     7
  0
POLYLINE
  5
653
330
1F
100
AcDbEntity
  8
BEMA_U_00DFUNG
 62
     7
100
AcDb2dPolyline
 66
     1
 10
0.0
 20
0.0
 30
0.0
  0
VERTEX
  5
654
330
653
100
AcDbEntity
  8
BEMA_U_00DFUNG
 62
     7
100
AcDbVertex
100
AcDb2dVertex
 10
126.5380374683657
 20
231.3425405508883
 30
0.0
  0
VERTEX
  5
655
330
653
100
AcDbEntity
  8
BEMA_U_00DFUNG
 62
     7
100
AcDbVertex
100
AcDb2dVertex
 10
124.581884691077
 20
231.3425405508883
 30
0.0
  0
SEQEND
  5
656
330
653
100
AcDbEntity
  8
BEMA_U_00DFUNG
 62
     7
  0
POLYLINE
  5
657
330
1F
100
AcDbEntity
  8
BEMA_U_00DFUNG
 62
     7
100
AcDb2dPolyline
 66
     1
 10
0.0
 20
0.0
 30
0.0
  0
VERTEX
  5
658
330
657
100
AcDbEntity
  8
BEMA_U_00DFUNG
 62
     7
100
AcDbVertex
100
AcDb2dVertex
 10
126.5380374683657
 20
231.3933405508757
 30
0.0
  0
VERTEX
  5
659
330
657
100
AcDbEntity
  8
BEMA_U_00DFUNG
 62
     7
100
AcDbVertex
100
AcDb2dVertex
 10
124.1959458022845
 20
231.3933405508757
 30
0.0
  0
SEQEND
  5
65A
330
657
100
AcDbEntity
  8
BEMA_U_00DFUNG
 62
     7
  0
POLYLINE
  5
65B
330
1F
100
AcDbEntity
  8
BEMA_U_00DFUNG
 62
     7
100
AcDb2dPolyline
 66
     1
 10
0.0
 20
0.0
 30
0.0
  0
VERTEX
  5
65C
330
65B
100
AcDbEntity
  8
BEMA_U_00DFUNG
 62
     7
100
AcDbVertex
100
AcDb2dVertex
 10
126.5380374683657
 20
231.4441405508628
 30
0.0
  0
VERTEX
  5
65D
330
65B
100
AcDbEntity
  8
BEMA_U_00DFUNG
 62
     7
100
AcDbVertex
100
AcDb2dVertex
 10
123.8100069134921
 20
231.4441405508628
 30
0.0
  0
SEQEND
  5
65E
330
65B
100
AcDbEntity
  8
BEMA_U_00DFUNG
 62
     7
  0
POLYLINE
  5
65F
330
1F
100
AcDbEntity
  8
BEMA_U_00DFUNG
 62
     7
100
AcDb2dPolyline
 66
     1
 10
0.0
 20
0.0
 30
0.0
  0
VERTEX
  5
660
330
65F
100
AcDbEntity
  8
BEMA_U_00DFUNG
 62
     7
100
AcDbVertex
100
AcDb2dVertex
 10
126.5380374683657
 20
231.4952933286279
 30
0.0
  0
VERTEX
  5
661
330
65F
100
AcDbEntity
  8
BEMA_U_00DFUNG
 62
     7
100
AcDbVertex
100
AcDb2dVertex
 10
123.4240680246997
 20
231.4952933286279
 30
0.0
  0
SEQEND
  5
662
330
65F
100
AcDbEntity
  8
BEMA_U_00DFUNG
 62
     7
  0
POLYLINE
  5
663
330
1F
100
AcDbEntity
  8
BEMA_U_00DFUNG
 62
     7
100
AcDb2dPolyline
 66
     1
 10
0.0
 20
0.0
 30
0.0
  0
VERTEX
  5
664
330
663
100
AcDbEntity
  8
BEMA_U_00DFUNG
 62
     7
100
AcDbVertex
100
AcDb2dVertex
 10
126.5380374683657
 20
231.5460933286153
 30
0.0
  0
VERTEX
  5
665
330
663
100
AcDbEntity
  8
BEMA_U_00DFUNG
 62
     7
100
AcDbVertex
100
AcDb2dVertex
 10
123.038481913685
 20
231.5460933286153
 30
0.0
  0
SEQEND
  5
666
330
663
100
AcDbEntity
  8
BEMA_U_00DFUNG
 62
     7
  0
POLYLINE
  5
667
330
1F
100
AcDbEntity
  8
BEMA_U_00DFUNG
 62
     7
100
AcDb2dPolyline
 66
     1
 10
0.0
 20
0.0
 30
0.0
  0
VERTEX
  5
668
330
667
100
AcDbEntity
  8
BEMA_U_00DFUNG
 62
     7
100
AcDbVertex
100
AcDb2dVertex
 10
126.5380374683657
 20
232.0032933285011
 30
0.0
  0
VERTEX
  5
669
330
667
100
AcDbEntity
  8
BEMA_U_00DFUNG
 62
     7
100
AcDbVertex
100
AcDb2dVertex
 10
126.5108735794835
 20
232.0032933285011
 30
0.0
  0
SEQEND
  5
66A
330
667
100
AcDbEntity
  8
BEMA_U_00DFUNG
 62
     7
  0
POLYLINE
  5
66B
330
1F
100
AcDbEntity
  8
BEMA_U_00DFUNG
 62
     7
100
AcDb2dPolyline
 66
     1
 10
0.0
 20
0.0
 30
0.0
  0
VERTEX
  5
66C
330
66B
100
AcDbEntity
  8
BEMA_U_00DFUNG
 62
     7
100
AcDbVertex
100
AcDb2dVertex
 10
126.5380374683657
 20
232.0032933285011
 30
0.0
  0
VERTEX
  5
66D
330
66B
100
AcDbEntity
  8
BEMA_U_00DFUNG
 62
     7
100
AcDbVertex
100
AcDb2dVertex
 10
126.5108735794835
 20
232.0032933285011
 30
0.0
  0
SEQEND
  5
66E
330
66B
100
AcDbEntity
  8
BEMA_U_00DFUNG
 62
     7
  0
POLYLINE
  5
66F
330
1F
100
AcDbEntity
  8
BEMA_U_00DFUNG
 62
     7
100
AcDb2dPolyline
 66
     1
 10
0.0
 20
0.0
 30
0.0
  0
VERTEX
  5
670
330
66F
100
AcDbEntity
  8
BEMA_U_00DFUNG
 62
     7
100
AcDbVertex
100
AcDb2dVertex
 10
126.5380374683657
 20
231.9524933285137
 30
0.0
  0
VERTEX
  5
671
330
66F
100
AcDbEntity
  8
BEMA_U_00DFUNG
 62
     7
100
AcDbVertex
100
AcDb2dVertex
 10
126.1252874684689
 20
231.9524933285137
 30
0.0
  0
SEQEND
  5
672
330
66F
100
AcDbEntity
  8
BEMA_U_00DFUNG
 62
     7
  0
POLYLINE
  5
673
330
1F
100
AcDbEntity
  8
BEMA_U_00DFUNG
 62
     7
100
AcDb2dPolyline
 66
     1
 10
0.0
 20
0.0
 30
0.0
  0
VERTEX
  5
674
330
673
100
AcDbEntity
  8
BEMA_U_00DFUNG
 62
     7
100
AcDbVertex
100
AcDb2dVertex
 10
126.5380374683657
 20
231.9016933285263
 30
0.0
  0
VERTEX
  5
675
330
673
100
AcDbEntity
  8
BEMA_U_00DFUNG
 62
     7
100
AcDbVertex
100
AcDb2dVertex
 10
125.7393485796764
 20
231.9016933285263
 30
0.0
  0
SEQEND
  5
676
330
673
100
AcDbEntity
  8
BEMA_U_00DFUNG
 62
     7
  0
POLYLINE
  5
677
330
1F
100
AcDbEntity
  8
BEMA_U_00DFUNG
 62
     7
100
AcDb2dPolyline
 66
     1
 10
0.0
 20
0.0
 30
0.0
  0
VERTEX
  5
678
330
677
100
AcDbEntity
  8
BEMA_U_00DFUNG
 62
     7
100
AcDbVertex
100
AcDb2dVertex
 10
126.5380374683657
 20
231.8501877729834
 30
0.0
  0
VERTEX
  5
679
330
677
100
AcDbEntity
  8
BEMA_U_00DFUNG
 62
     7
100
AcDbVertex
100
AcDb2dVertex
 10
125.353409690884
 20
231.8501877729834
 30
0.0
  0
SEQEND
  5
67A
330
677
100
AcDbEntity
  8
BEMA_U_00DFUNG
 62
     7
  0
POLYLINE
  5
67B
330
1F
100
AcDbEntity
  8
BEMA_U_00DFUNG
 62
     7
100
AcDb2dPolyline
 66
     1
 10
0.0
 20
0.0
 30
0.0
  0
VERTEX
  5
67C
330
67B
100
AcDbEntity
  8
BEMA_U_00DFUNG
 62
     7
100
AcDbVertex
100
AcDb2dVertex
 10
126.5380374683657
 20
231.8000933285516
 30
0.0
  0
VERTEX
  5
67D
330
67B
100
AcDbEntity
  8
BEMA_U_00DFUNG
 62
     7
100
AcDbVertex
100
AcDb2dVertex
 10
124.9674708020916
 20
231.8000933285516
 30
0.0
  0
SEQEND
  5
67E
330
67B
100
AcDbEntity
  8
BEMA_U_00DFUNG
 62
     7
  0
POLYLINE
  5
67F
330
1F
100
AcDbEntity
  8
BEMA_U_00DFUNG
 62
     7
100
AcDb2dPolyline
 66
     1
 10
0.0
 20
0.0
 30
0.0
  0
VERTEX
  5
680
330
67F
100
AcDbEntity
  8
BEMA_U_00DFUNG
 62
     7
100
AcDbVertex
100
AcDb2dVertex
 10
126.5380374683657
 20
231.7492933285645
 30
0.0
  0
VERTEX
  5
681
330
67F
100
AcDbEntity
  8
BEMA_U_00DFUNG
 62
     7
100
AcDbVertex
100
AcDb2dVertex
 10
124.581884691077
 20
231.7492933285645
 30
0.0
  0
SEQEND
  5
682
330
67F
100
AcDbEntity
  8
BEMA_U_00DFUNG
 62
     7
  0
POLYLINE
  5
683
330
1F
100
AcDbEntity
  8
BEMA_U_00DFUNG
 62
     7
100
AcDb2dPolyline
 66
     1
 10
0.0
 20
0.0
 30
0.0
  0
VERTEX
  5
684
330
683
100
AcDbEntity
  8
BEMA_U_00DFUNG
 62
     7
100
AcDbVertex
100
AcDb2dVertex
 10
126.5380374683657
 20
231.6981405507997
 30
0.0
  0
VERTEX
  5
685
330
683
100
AcDbEntity
  8
BEMA_U_00DFUNG
 62
     7
100
AcDbVertex
100
AcDb2dVertex
 10
124.1959458022845
 20
231.6981405507997
 30
0.0
  0
SEQEND
  5
686
330
683
100
AcDbEntity
  8
BEMA_U_00DFUNG
 62
     7
  0
POLYLINE
  5
687
330
1F
100
AcDbEntity
  8
BEMA_U_00DFUNG
 62
     7
100
AcDb2dPolyline
 66
     1
 10
0.0
 20
0.0
 30
0.0
  0
VERTEX
  5
688
330
687
100
AcDbEntity
  8
BEMA_U_00DFUNG
 62
     7
100
AcDbVertex
100
AcDb2dVertex
 10
126.5380374683657
 20
231.6476933285901
 30
0.0
  0
VERTEX
  5
689
330
687
100
AcDbEntity
  8
BEMA_U_00DFUNG
 62
     7
100
AcDbVertex
100
AcDb2dVertex
 10
123.8100069134921
 20
231.6476933285901
 30
0.0
  0
SEQEND
  5
68A
330
687
100
AcDbEntity
  8
BEMA_U_00DFUNG
 62
     7
  0
POLYLINE
  5
68B
330
1F
100
AcDbEntity
  8
BEMA_U_00DFUNG
 62
     7
100
AcDb2dPolyline
 66
     1
 10
0.0
 20
0.0
 30
0.0
  0
VERTEX
  5
68C
330
68B
100
AcDbEntity
  8
BEMA_U_00DFUNG
 62
     7
100
AcDbVertex
100
AcDb2dVertex
 10
126.5380374683657
 20
231.5968933286027
 30
0.0
  0
VERTEX
  5
68D
330
68B
100
AcDbEntity
  8
BEMA_U_00DFUNG
 62
     7
100
AcDbVertex
100
AcDb2dVertex
 10
123.4240680246997
 20
231.5968933286027
 30
0.0
  0
SEQEND
  5
68E
330
68B
100
AcDbEntity
  8
BEMA_U_00DFUNG
 62
     7
  0
POLYLINE
  5
68F
330
1F
100
AcDbEntity
  8
BEMA_U_00DFUNG
 62
     7
100
AcDb2dPolyline
 66
     1
 10
0.0
 20
0.0
 30
0.0
  0
VERTEX
  5
690
330
68F
100
AcDbEntity
  8
BEMA_U_00DFUNG
 62
     7
100
AcDbVertex
100
AcDb2dVertex
 10
126.5380374683657
 20
231.5460933286153
 30
0.0
  0
VERTEX
  5
691
330
68F
100
AcDbEntity
  8
BEMA_U_00DFUNG
 62
     7
100
AcDbVertex
100
AcDb2dVertex
 10
123.038481913685
 20
231.5460933286153
 30
0.0
  0
SEQEND
  5
692
330
68F
100
AcDbEntity
  8
BEMA_U_00DFUNG
 62
     7
  0
POLYLINE
  5
693
330
1F
100
AcDbEntity
  8
BEMA_U_00DFUNG
 62
     7
100
AcDb2dPolyline
 66
     1
 10
0.0
 20
0.0
 30
0.0
  0
VERTEX
  5
694
330
693
100
AcDbEntity
  8
BEMA_U_00DFUNG
 62
     7
100
AcDbVertex
100
AcDb2dVertex
 10
124.6503235799485
 20
207.2337072235825
 30
0.0
  0
VERTEX
  5
695
330
693
100
AcDbEntity
  8
BEMA_U_00DFUNG
 62
     7
100
AcDbVertex
100
AcDb2dVertex
 10
111.0380402500185
 20
207.2337072235825
 30
0.0
  0
SEQEND
  5
696
330
693
100
AcDbEntity
  8
BEMA_U_00DFUNG
 62
     7
  0
POLYLINE
  5
697
330
1F
100
AcDbEntity
  8
BEMA_U_00DFUNG
 62
     7
100
AcDb2dPolyline
 66
     1
 10
0.0
 20
0.0
 30
0.0
  0
VERTEX
  5
698
330
697
100
AcDbEntity
  8
BEMA_U_00DFUNG
 62
     7
100
AcDbVertex
100
AcDb2dVertex
 10
124.6503235799485
 20
168.8578350109538
 30
0.0
  0
VERTEX
  5
699
330
697
100
AcDbEntity
  8
BEMA_U_00DFUNG
 62
     7
100
AcDbVertex
100
AcDb2dVertex
 10
111.0380402500185
 20
168.8578350109538
 30
0.0
  0
SEQEND
  5
69A
330
697
100
AcDbEntity
  8
BEMA_U_00DFUNG
 62
     7
  0
POLYLINE
  5
69B
330
1F
100
AcDbEntity
  8
BEMA_U_00DFUNG
 62
     7
100
AcDb2dPolyline
 66
     1
 10
0.0
 20
0.0
 30
0.0
  0
VERTEX
  5
69C
330
69B
100
AcDbEntity
  8
BEMA_U_00DFUNG
 62
     7
100
AcDbVertex
100
AcDb2dVertex
 10
113.0382902495185
 20
207.2337072235825
 30
0.0
  0
VERTEX
  5
69D
330
69B
100
AcDbEntity
  8
BEMA_U_00DFUNG
 62
     7
100
AcDbVertex
100
AcDb2dVertex
 10
113.0382902495185
 20
168.8578350109538
 30
0.0
  0
SEQEND
  5
69E
330
69B
100
AcDbEntity
  8
BEMA_U_00DFUNG
 62
     7
  0
POLYLINE
  5
69F
330
1F
100
AcDbEntity
  8
BEMA_U_00DFUNG
 62
     7
100
AcDb2dPolyline
 66
     1
 10
0.0
 20
0.0
 30
0.0
  0
VERTEX
  5
6A0
330
69F
100
AcDbEntity
  8
BEMA_U_00DFUNG
 62
     7
100
AcDbVertex
100
AcDb2dVertex
 10
113.0382902495185
 20
207.2337072235825
 30
0.0
  0
VERTEX
  5
6A1
330
69F
100
AcDbEntity
  8
BEMA_U_00DFUNG
 62
     7
100
AcDbVertex
100
AcDb2dVertex
 10
112.577209694078
 20
203.733798891124
 30
0.0
  0
VERTEX
  5
6A2
330
69F
100
AcDbEntity
  8
BEMA_U_00DFUNG
 62
     7
100
AcDbVertex
100
AcDb2dVertex
 10
113.4990180271809
 20
203.733798891124
 30
0.0
  0
VERTEX
  5
6A3
330
69F
100
AcDbEntity
  8
BEMA_U_00DFUNG
 62
     7
100
AcDbVertex
100
AcDb2dVertex
 10
113.0382902495185
 20
207.2337072235825
 30
0.0
  0
SEQEND
  5
6A4
330
69F
100
AcDbEntity
  8
BEMA_U_00DFUNG
 62
     7
  0
POLYLINE
  5
6A5
330
1F
100
AcDbEntity
  8
BEMA_U_00DFUNG
 62
     7
100
AcDb2dPolyline
 66
     1
 10
0.0
 20
0.0
 30
0.0
  0
VERTEX
  5
6A6
330
6A5
100
AcDbEntity
  8
BEMA_U_00DFUNG
 62
     7
100
AcDbVertex
100
AcDb2dVertex
 10
112.5814430274105
 20
203.733798891124
 30
0.0
  0
VERTEX
  5
6A7
330
6A5
100
AcDbEntity
  8
BEMA_U_00DFUNG
 62
     7
100
AcDbVertex
100
AcDb2dVertex
 10
112.5814430274105
 20
203.7613155577836
 30
0.0
  0
SEQEND
  5
6A8
330
6A5
100
AcDbEntity
  8
BEMA_U_00DFUNG
 62
     7
  0
POLYLINE
  5
6A9
330
1F
100
AcDbEntity
  8
BEMA_U_00DFUNG
 62
     7
100
AcDb2dPolyline
 66
     1
 10
0.0
 20
0.0
 30
0.0
  0
VERTEX
  5
6AA
330
6A9
100
AcDbEntity
  8
BEMA_U_00DFUNG
 62
     7
100
AcDbVertex
100
AcDb2dVertex
 10
112.5814430274105
 20
203.733798891124
 30
0.0
  0
VERTEX
  5
6AB
330
6A9
100
AcDbEntity
  8
BEMA_U_00DFUNG
 62
     7
100
AcDbVertex
100
AcDb2dVertex
 10
112.5814430274105
 20
203.7613155577836
 30
0.0
  0
SEQEND
  5
6AC
330
6A9
100
AcDbEntity
  8
BEMA_U_00DFUNG
 62
     7
  0
POLYLINE
  5
6AD
330
1F
100
AcDbEntity
  8
BEMA_U_00DFUNG
 62
     7
100
AcDb2dPolyline
 66
     1
 10
0.0
 20
0.0
 30
0.0
  0
VERTEX
  5
6AE
330
6AD
100
AcDbEntity
  8
BEMA_U_00DFUNG
 62
     7
100
AcDbVertex
100
AcDb2dVertex
 10
112.6322430273975
 20
203.733798891124
 30
0.0
  0
VERTEX
  5
6AF
330
6AD
100
AcDbEntity
  8
BEMA_U_00DFUNG
 62
     7
100
AcDbVertex
100
AcDb2dVertex
 10
112.6322430273975
 20
204.1465488910208
 30
0.0
  0
SEQEND
  5
6B0
330
6AD
100
AcDbEntity
  8
BEMA_U_00DFUNG
 62
     7
  0
POLYLINE
  5
6B1
330
1F
100
AcDbEntity
  8
BEMA_U_00DFUNG
 62
     7
100
AcDb2dPolyline
 66
     1
 10
0.0
 20
0.0
 30
0.0
  0
VERTEX
  5
6B2
330
6B1
100
AcDbEntity
  8
BEMA_U_00DFUNG
 62
     7
100
AcDbVertex
100
AcDb2dVertex
 10
112.6830430273849
 20
203.733798891124
 30
0.0
  0
VERTEX
  5
6B3
330
6B1
100
AcDbEntity
  8
BEMA_U_00DFUNG
 62
     7
100
AcDbVertex
100
AcDb2dVertex
 10
112.6830430273849
 20
204.5328405575907
 30
0.0
  0
SEQEND
  5
6B4
330
6B1
100
AcDbEntity
  8
BEMA_U_00DFUNG
 62
     7
  0
POLYLINE
  5
6B5
330
1F
100
AcDbEntity
  8
BEMA_U_00DFUNG
 62
     7
100
AcDb2dPolyline
 66
     1
 10
0.0
 20
0.0
 30
0.0
  0
VERTEX
  5
6B6
330
6B5
100
AcDbEntity
  8
BEMA_U_00DFUNG
 62
     7
100
AcDbVertex
100
AcDb2dVertex
 10
112.7338430273723
 20
203.733798891124
 30
0.0
  0
VERTEX
  5
6B7
330
6B5
100
AcDbEntity
  8
BEMA_U_00DFUNG
 62
     7
100
AcDbVertex
100
AcDb2dVertex
 10
112.7338430273723
 20
204.9184266686057
 30
0.0
  0
SEQEND
  5
6B8
330
6B5
100
AcDbEntity
  8
BEMA_U_00DFUNG
 62
     7
  0
POLYLINE
  5
6B9
330
1F
100
AcDbEntity
  8
BEMA_U_00DFUNG
 62
     7
100
AcDb2dPolyline
 66
     1
 10
0.0
 20
0.0
 30
0.0
  0
VERTEX
  5
6BA
330
6B9
100
AcDbEntity
  8
BEMA_U_00DFUNG
 62
     7
100
AcDbVertex
100
AcDb2dVertex
 10
112.7842902495819
 20
203.733798891124
 30
0.0
  0
VERTEX
  5
6BB
330
6B9
100
AcDbEntity
  8
BEMA_U_00DFUNG
 62
     7
100
AcDbVertex
100
AcDb2dVertex
 10
112.7842902495819
 20
205.3047183351756
 30
0.0
  0
SEQEND
  5
6BC
330
6B9
100
AcDbEntity
  8
BEMA_U_00DFUNG
 62
     7
  0
POLYLINE
  5
6BD
330
1F
100
AcDbEntity
  8
BEMA_U_00DFUNG
 62
     7
100
AcDb2dPolyline
 66
     1
 10
0.0
 20
0.0
 30
0.0
  0
VERTEX
  5
6BE
330
6BD
100
AcDbEntity
  8
BEMA_U_00DFUNG
 62
     7
100
AcDbVertex
100
AcDb2dVertex
 10
112.8350902495693
 20
203.733798891124
 30
0.0
  0
VERTEX
  5
6BF
330
6BD
100
AcDbEntity
  8
BEMA_U_00DFUNG
 62
     7
100
AcDbVertex
100
AcDb2dVertex
 10
112.8350902495693
 20
205.6899516684128
 30
0.0
  0
SEQEND
  5
6C0
330
6BD
100
AcDbEntity
  8
BEMA_U_00DFUNG
 62
     7
  0
POLYLINE
  5
6C1
330
1F
100
AcDbEntity
  8
BEMA_U_00DFUNG
 62
     7
100
AcDb2dPolyline
 66
     1
 10
0.0
 20
0.0
 30
0.0
  0
VERTEX
  5
6C2
330
6C1
100
AcDbEntity
  8
BEMA_U_00DFUNG
 62
     7
100
AcDbVertex
100
AcDb2dVertex
 10
112.8858902495563
 20
203.733798891124
 30
0.0
  0
VERTEX
  5
6C3
330
6C1
100
AcDbEntity
  8
BEMA_U_00DFUNG
 62
     7
100
AcDbVertex
100
AcDb2dVertex
 10
112.8858902495563
 20
206.0762433349826
 30
0.0
  0
SEQEND
  5
6C4
330
6C1
100
AcDbEntity
  8
BEMA_U_00DFUNG
 62
     7
  0
POLYLINE
  5
6C5
330
1F
100
AcDbEntity
  8
BEMA_U_00DFUNG
 62
     7
100
AcDb2dPolyline
 66
     1
 10
0.0
 20
0.0
 30
0.0
  0
VERTEX
  5
6C6
330
6C5
100
AcDbEntity
  8
BEMA_U_00DFUNG
 62
     7
100
AcDbVertex
100
AcDb2dVertex
 10
112.9366902495437
 20
203.733798891124
 30
0.0
  0
VERTEX
  5
6C7
330
6C5
100
AcDbEntity
  8
BEMA_U_00DFUNG
 62
     7
100
AcDbVertex
100
AcDb2dVertex
 10
112.9366902495437
 20
206.4618294459976
 30
0.0
  0
SEQEND
  5
6C8
330
6C5
100
AcDbEntity
  8
BEMA_U_00DFUNG
 62
     7
  0
POLYLINE
  5
6C9
330
1F
100
AcDbEntity
  8
BEMA_U_00DFUNG
 62
     7
100
AcDb2dPolyline
 66
     1
 10
0.0
 20
0.0
 30
0.0
  0
VERTEX
  5
6CA
330
6C9
100
AcDbEntity
  8
BEMA_U_00DFUNG
 62
     7
100
AcDbVertex
100
AcDb2dVertex
 10
112.9874902495311
 20
203.733798891124
 30
0.0
  0
VERTEX
  5
6CB
330
6C9
100
AcDbEntity
  8
BEMA_U_00DFUNG
 62
     7
100
AcDbVertex
100
AcDb2dVertex
 10
112.9874902495311
 20
206.8481211125675
 30
0.0
  0
SEQEND
  5
6CC
330
6C9
100
AcDbEntity
  8
BEMA_U_00DFUNG
 62
     7
  0
POLYLINE
  5
6CD
330
1F
100
AcDbEntity
  8
BEMA_U_00DFUNG
 62
     7
100
AcDb2dPolyline
 66
     1
 10
0.0
 20
0.0
 30
0.0
  0
VERTEX
  5
6CE
330
6CD
100
AcDbEntity
  8
BEMA_U_00DFUNG
 62
     7
100
AcDbVertex
100
AcDb2dVertex
 10
113.0382902495185
 20
203.733798891124
 30
0.0
  0
VERTEX
  5
6CF
330
6CD
100
AcDbEntity
  8
BEMA_U_00DFUNG
 62
     7
100
AcDbVertex
100
AcDb2dVertex
 10
113.0382902495185
 20
207.2337072235825
 30
0.0
  0
SEQEND
  5
6D0
330
6CD
100
AcDbEntity
  8
BEMA_U_00DFUNG
 62
     7
  0
POLYLINE
  5
6D1
330
1F
100
AcDbEntity
  8
BEMA_U_00DFUNG
 62
     7
100
AcDb2dPolyline
 66
     1
 10
0.0
 20
0.0
 30
0.0
  0
VERTEX
  5
6D2
330
6D1
100
AcDbEntity
  8
BEMA_U_00DFUNG
 62
     7
100
AcDbVertex
100
AcDb2dVertex
 10
113.495490249404
 20
203.733798891124
 30
0.0
  0
VERTEX
  5
6D3
330
6D1
100
AcDbEntity
  8
BEMA_U_00DFUNG
 62
     7
100
AcDbVertex
100
AcDb2dVertex
 10
113.495490249404
 20
203.7613155577836
 30
0.0
  0
SEQEND
  5
6D4
330
6D1
100
AcDbEntity
  8
BEMA_U_00DFUNG
 62
     7
  0
POLYLINE
  5
6D5
330
1F
100
AcDbEntity
  8
BEMA_U_00DFUNG
 62
     7
100
AcDb2dPolyline
 66
     1
 10
0.0
 20
0.0
 30
0.0
  0
VERTEX
  5
6D6
330
6D5
100
AcDbEntity
  8
BEMA_U_00DFUNG
 62
     7
100
AcDbVertex
100
AcDb2dVertex
 10
113.495490249404
 20
203.733798891124
 30
0.0
  0
VERTEX
  5
6D7
330
6D5
100
AcDbEntity
  8
BEMA_U_00DFUNG
 62
     7
100
AcDbVertex
100
AcDb2dVertex
 10
113.495490249404
 20
203.7613155577836
 30
0.0
  0
SEQEND
  5
6D8
330
6D5
100
AcDbEntity
  8
BEMA_U_00DFUNG
 62
     7
  0
POLYLINE
  5
6D9
330
1F
100
AcDbEntity
  8
BEMA_U_00DFUNG
 62
     7
100
AcDb2dPolyline
 66
     1
 10
0.0
 20
0.0
 30
0.0
  0
VERTEX
  5
6DA
330
6D9
100
AcDbEntity
  8
BEMA_U_00DFUNG
 62
     7
100
AcDbVertex
100
AcDb2dVertex
 10
113.4446902494169
 20
203.733798891124
 30
0.0
  0
VERTEX
  5
6DB
330
6D9
100
AcDbEntity
  8
BEMA_U_00DFUNG
 62
     7
100
AcDbVertex
100
AcDb2dVertex
 10
113.4446902494169
 20
204.1465488910208
 30
0.0
  0
SEQEND
  5
6DC
330
6D9
100
AcDbEntity
  8
BEMA_U_00DFUNG
 62
     7
  0
POLYLINE
  5
6DD
330
1F
100
AcDbEntity
  8
BEMA_U_00DFUNG
 62
     7
100
AcDb2dPolyline
 66
     1
 10
0.0
 20
0.0
 30
0.0
  0
VERTEX
  5
6DE
330
6DD
100
AcDbEntity
  8
BEMA_U_00DFUNG
 62
     7
100
AcDbVertex
100
AcDb2dVertex
 10
113.3938902494295
 20
203.733798891124
 30
0.0
  0
VERTEX
  5
6DF
330
6DD
100
AcDbEntity
  8
BEMA_U_00DFUNG
 62
     7
100
AcDbVertex
100
AcDb2dVertex
 10
113.3938902494295
 20
204.5328405575907
 30
0.0
  0
SEQEND
  5
6E0
330
6DD
100
AcDbEntity
  8
BEMA_U_00DFUNG
 62
     7
  0
POLYLINE
  5
6E1
330
1F
100
AcDbEntity
  8
BEMA_U_00DFUNG
 62
     7
100
AcDb2dPolyline
 66
     1
 10
0.0
 20
0.0
 30
0.0
  0
VERTEX
  5
6E2
330
6E1
100
AcDbEntity
  8
BEMA_U_00DFUNG
 62
     7
100
AcDbVertex
100
AcDb2dVertex
 10
113.3430902494421
 20
203.733798891124
 30
0.0
  0
VERTEX
  5
6E3
330
6E1
100
AcDbEntity
  8
BEMA_U_00DFUNG
 62
     7
100
AcDbVertex
100
AcDb2dVertex
 10
113.3430902494421
 20
204.9184266686057
 30
0.0
  0
SEQEND
  5
6E4
330
6E1
100
AcDbEntity
  8
BEMA_U_00DFUNG
 62
     7
  0
POLYLINE
  5
6E5
330
1F
100
AcDbEntity
  8
BEMA_U_00DFUNG
 62
     7
100
AcDb2dPolyline
 66
     1
 10
0.0
 20
0.0
 30
0.0
  0
VERTEX
  5
6E6
330
6E5
100
AcDbEntity
  8
BEMA_U_00DFUNG
 62
     7
100
AcDbVertex
100
AcDb2dVertex
 10
113.2926430272325
 20
203.733798891124
 30
0.0
  0
VERTEX
  5
6E7
330
6E5
100
AcDbEntity
  8
BEMA_U_00DFUNG
 62
     7
100
AcDbVertex
100
AcDb2dVertex
 10
113.2926430272325
 20
205.3047183351756
 30
0.0
  0
SEQEND
  5
6E8
330
6E5
100
AcDbEntity
  8
BEMA_U_00DFUNG
 62
     7
  0
POLYLINE
  5
6E9
330
1F
100
AcDbEntity
  8
BEMA_U_00DFUNG
 62
     7
100
AcDb2dPolyline
 66
     1
 10
0.0
 20
0.0
 30
0.0
  0
VERTEX
  5
6EA
330
6E9
100
AcDbEntity
  8
BEMA_U_00DFUNG
 62
     7
100
AcDbVertex
100
AcDb2dVertex
 10
113.2418430272451
 20
203.733798891124
 30
0.0
  0
VERTEX
  5
6EB
330
6E9
100
AcDbEntity
  8
BEMA_U_00DFUNG
 62
     7
100
AcDbVertex
100
AcDb2dVertex
 10
113.2418430272451
 20
205.6899516684128
 30
0.0
  0
SEQEND
  5
6EC
330
6E9
100
AcDbEntity
  8
BEMA_U_00DFUNG
 62
     7
  0
POLYLINE
  5
6ED
330
1F
100
AcDbEntity
  8
BEMA_U_00DFUNG
 62
     7
100
AcDb2dPolyline
 66
     1
 10
0.0
 20
0.0
 30
0.0
  0
VERTEX
  5
6EE
330
6ED
100
AcDbEntity
  8
BEMA_U_00DFUNG
 62
     7
100
AcDbVertex
100
AcDb2dVertex
 10
113.1910430272581
 20
203.733798891124
 30
0.0
  0
VERTEX
  5
6EF
330
6ED
100
AcDbEntity
  8
BEMA_U_00DFUNG
 62
     7
100
AcDbVertex
100
AcDb2dVertex
 10
113.1910430272581
 20
206.0762433349826
 30
0.0
  0
SEQEND
  5
6F0
330
6ED
100
AcDbEntity
  8
BEMA_U_00DFUNG
 62
     7
  0
POLYLINE
  5
6F1
330
1F
100
AcDbEntity
  8
BEMA_U_00DFUNG
 62
     7
100
AcDb2dPolyline
 66
     1
 10
0.0
 20
0.0
 30
0.0
  0
VERTEX
  5
6F2
330
6F1
100
AcDbEntity
  8
BEMA_U_00DFUNG
 62
     7
100
AcDbVertex
100
AcDb2dVertex
 10
113.1402430272707
 20
203.733798891124
 30
0.0
  0
VERTEX
  5
6F3
330
6F1
100
AcDbEntity
  8
BEMA_U_00DFUNG
 62
     7
100
AcDbVertex
100
AcDb2dVertex
 10
113.1402430272707
 20
206.4618294459976
 30
0.0
  0
SEQEND
  5
6F4
330
6F1
100
AcDbEntity
  8
BEMA_U_00DFUNG
 62
     7
  0
POLYLINE
  5
6F5
330
1F
100
AcDbEntity
  8
BEMA_U_00DFUNG
 62
     7
100
AcDb2dPolyline
 66
     1
 10
0.0
 20
0.0
 30
0.0
  0
VERTEX
  5
6F6
330
6F5
100
AcDbEntity
  8
BEMA_U_00DFUNG
 62
     7
100
AcDbVertex
100
AcDb2dVertex
 10
113.0894430272833
 20
203.733798891124
 30
0.0
  0
VERTEX
  5
6F7
330
6F5
100
AcDbEntity
  8
BEMA_U_00DFUNG
 62
     7
100
AcDbVertex
100
AcDb2dVertex
 10
113.0894430272833
 20
206.8481211125675
 30
0.0
  0
SEQEND
  5
6F8
330
6F5
100
AcDbEntity
  8
BEMA_U_00DFUNG
 62
     7
  0
POLYLINE
  5
6F9
330
1F
100
AcDbEntity
  8
BEMA_U_00DFUNG
 62
     7
100
AcDb2dPolyline
 66
     1
 10
0.0
 20
0.0
 30
0.0
  0
VERTEX
  5
6FA
330
6F9
100
AcDbEntity
  8
BEMA_U_00DFUNG
 62
     7
100
AcDbVertex
100
AcDb2dVertex
 10
113.0382902495185
 20
203.733798891124
 30
0.0
  0
VERTEX
  5
6FB
330
6F9
100
AcDbEntity
  8
BEMA_U_00DFUNG
 62
     7
100
AcDbVertex
100
AcDb2dVertex
 10
113.0382902495185
 20
207.2337072235825
 30
0.0
  0
SEQEND
  5
6FC
330
6F9
100
AcDbEntity
  8
BEMA_U_00DFUNG
 62
     7
  0
POLYLINE
  5
6FD
330
1F
100
AcDbEntity
  8
BEMA_U_00DFUNG
 62
     7
100
AcDb2dPolyline
 66
     1
 10
0.0
 20
0.0
 30
0.0
  0
VERTEX
  5
6FE
330
6FD
100
AcDbEntity
  8
BEMA_U_00DFUNG
 62
     7
100
AcDbVertex
100
AcDb2dVertex
 10
113.0382902495185
 20
168.8578350109538
 30
0.0
  0
VERTEX
  5
6FF
330
6FD
100
AcDbEntity
  8
BEMA_U_00DFUNG
 62
     7
100
AcDbVertex
100
AcDb2dVertex
 10
113.4990180271809
 20
172.3577433434123
 30
0.0
  0
VERTEX
  5
700
330
6FD
100
AcDbEntity
  8
BEMA_U_00DFUNG
 62
     7
100
AcDbVertex
100
AcDb2dVertex
 10
112.577209694078
 20
172.3577433434123
 30
0.0
  0
VERTEX
  5
701
330
6FD
100
AcDbEntity
  8
BEMA_U_00DFUNG
 62
     7
100
AcDbVertex
100
AcDb2dVertex
 10
113.0382902495185
 20
168.8578350109538
 30
0.0
  0
SEQEND
  5
702
330
6FD
100
AcDbEntity
  8
BEMA_U_00DFUNG
 62
     7
  0
POLYLINE
  5
703
330
1F
100
AcDbEntity
  8
BEMA_U_00DFUNG
 62
     7
100
AcDb2dPolyline
 66
     1
 10
0.0
 20
0.0
 30
0.0
  0
VERTEX
  5
704
330
703
100
AcDbEntity
  8
BEMA_U_00DFUNG
 62
     7
100
AcDbVertex
100
AcDb2dVertex
 10
113.495490249404
 20
172.3577433434123
 30
0.0
  0
VERTEX
  5
705
330
703
100
AcDbEntity
  8
BEMA_U_00DFUNG
 62
     7
100
AcDbVertex
100
AcDb2dVertex
 10
113.495490249404
 20
172.3302266767527
 30
0.0
  0
SEQEND
  5
706
330
703
100
AcDbEntity
  8
BEMA_U_00DFUNG
 62
     7
  0
POLYLINE
  5
707
330
1F
100
AcDbEntity
  8
BEMA_U_00DFUNG
 62
     7
100
AcDb2dPolyline
 66
     1
 10
0.0
 20
0.0
 30
0.0
  0
VERTEX
  5
708
330
707
100
AcDbEntity
  8
BEMA_U_00DFUNG
 62
     7
100
AcDbVertex
100
AcDb2dVertex
 10
113.495490249404
 20
172.3577433434123
 30
0.0
  0
VERTEX
  5
709
330
707
100
AcDbEntity
  8
BEMA_U_00DFUNG
 62
     7
100
AcDbVertex
100
AcDb2dVertex
 10
113.495490249404
 20
172.3302266767527
 30
0.0
  0
SEQEND
  5
70A
330
707
100
AcDbEntity
  8
BEMA_U_00DFUNG
 62
     7
  0
POLYLINE
  5
70B
330
1F
100
AcDbEntity
  8
BEMA_U_00DFUNG
 62
     7
100
AcDb2dPolyline
 66
     1
 10
0.0
 20
0.0
 30
0.0
  0
VERTEX
  5
70C
330
70B
100
AcDbEntity
  8
BEMA_U_00DFUNG
 62
     7
100
AcDbVertex
100
AcDb2dVertex
 10
113.4446902494169
 20
172.3577433434123
 30
0.0
  0
VERTEX
  5
70D
330
70B
100
AcDbEntity
  8
BEMA_U_00DFUNG
 62
     7
100
AcDbVertex
100
AcDb2dVertex
 10
113.4446902494169
 20
171.9449933435154
 30
0.0
  0
SEQEND
  5
70E
330
70B
100
AcDbEntity
  8
BEMA_U_00DFUNG
 62
     7
  0
POLYLINE
  5
70F
330
1F
100
AcDbEntity
  8
BEMA_U_00DFUNG
 62
     7
100
AcDb2dPolyline
 66
     1
 10
0.0
 20
0.0
 30
0.0
  0
VERTEX
  5
710
330
70F
100
AcDbEntity
  8
BEMA_U_00DFUNG
 62
     7
100
AcDbVertex
100
AcDb2dVertex
 10
113.3938902494295
 20
172.3577433434123
 30
0.0
  0
VERTEX
  5
711
330
70F
100
AcDbEntity
  8
BEMA_U_00DFUNG
 62
     7
100
AcDbVertex
100
AcDb2dVertex
 10
113.3938902494295
 20
171.5587016769456
 30
0.0
  0
SEQEND
  5
712
330
70F
100
AcDbEntity
  8
BEMA_U_00DFUNG
 62
     7
  0
POLYLINE
  5
713
330
1F
100
AcDbEntity
  8
BEMA_U_00DFUNG
 62
     7
100
AcDb2dPolyline
 66
     1
 10
0.0
 20
0.0
 30
0.0
  0
VERTEX
  5
714
330
713
100
AcDbEntity
  8
BEMA_U_00DFUNG
 62
     7
100
AcDbVertex
100
AcDb2dVertex
 10
113.3430902494421
 20
172.3577433434123
 30
0.0
  0
VERTEX
  5
715
330
713
100
AcDbEntity
  8
BEMA_U_00DFUNG
 62
     7
100
AcDbVertex
100
AcDb2dVertex
 10
113.3430902494421
 20
171.1731155659306
 30
0.0
  0
SEQEND
  5
716
330
713
100
AcDbEntity
  8
BEMA_U_00DFUNG
 62
     7
  0
POLYLINE
  5
717
330
1F
100
AcDbEntity
  8
BEMA_U_00DFUNG
 62
     7
100
AcDb2dPolyline
 66
     1
 10
0.0
 20
0.0
 30
0.0
  0
VERTEX
  5
718
330
717
100
AcDbEntity
  8
BEMA_U_00DFUNG
 62
     7
100
AcDbVertex
100
AcDb2dVertex
 10
113.2926430272325
 20
172.3577433434123
 30
0.0
  0
VERTEX
  5
719
330
717
100
AcDbEntity
  8
BEMA_U_00DFUNG
 62
     7
100
AcDbVertex
100
AcDb2dVertex
 10
113.2926430272325
 20
170.7868238993607
 30
0.0
  0
SEQEND
  5
71A
330
717
100
AcDbEntity
  8
BEMA_U_00DFUNG
 62
     7
  0
POLYLINE
  5
71B
330
1F
100
AcDbEntity
  8
BEMA_U_00DFUNG
 62
     7
100
AcDb2dPolyline
 66
     1
 10
0.0
 20
0.0
 30
0.0
  0
VERTEX
  5
71C
330
71B
100
AcDbEntity
  8
BEMA_U_00DFUNG
 62
     7
100
AcDbVertex
100
AcDb2dVertex
 10
113.2418430272451
 20
172.3577433434123
 30
0.0
  0
VERTEX
  5
71D
330
71B
100
AcDbEntity
  8
BEMA_U_00DFUNG
 62
     7
100
AcDbVertex
100
AcDb2dVertex
 10
113.2418430272451
 20
170.4012377883458
 30
0.0
  0
SEQEND
  5
71E
330
71B
100
AcDbEntity
  8
BEMA_U_00DFUNG
 62
     7
  0
POLYLINE
  5
71F
330
1F
100
AcDbEntity
  8
BEMA_U_00DFUNG
 62
     7
100
AcDb2dPolyline
 66
     1
 10
0.0
 20
0.0
 30
0.0
  0
VERTEX
  5
720
330
71F
100
AcDbEntity
  8
BEMA_U_00DFUNG
 62
     7
100
AcDbVertex
100
AcDb2dVertex
 10
113.1910430272581
 20
172.3577433434123
 30
0.0
  0
VERTEX
  5
721
330
71F
100
AcDbEntity
  8
BEMA_U_00DFUNG
 62
     7
100
AcDbVertex
100
AcDb2dVertex
 10
113.1910430272581
 20
170.0152988995537
 30
0.0
  0
SEQEND
  5
722
330
71F
100
AcDbEntity
  8
BEMA_U_00DFUNG
 62
     7
  0
POLYLINE
  5
723
330
1F
100
AcDbEntity
  8
BEMA_U_00DFUNG
 62
     7
100
AcDb2dPolyline
 66
     1
 10
0.0
 20
0.0
 30
0.0
  0
VERTEX
  5
724
330
723
100
AcDbEntity
  8
BEMA_U_00DFUNG
 62
     7
100
AcDbVertex
100
AcDb2dVertex
 10
113.1402430272707
 20
172.3577433434123
 30
0.0
  0
VERTEX
  5
725
330
723
100
AcDbEntity
  8
BEMA_U_00DFUNG
 62
     7
100
AcDbVertex
100
AcDb2dVertex
 10
113.1402430272707
 20
169.6297127885387
 30
0.0
  0
SEQEND
  5
726
330
723
100
AcDbEntity
  8
BEMA_U_00DFUNG
 62
     7
  0
POLYLINE
  5
727
330
1F
100
AcDbEntity
  8
BEMA_U_00DFUNG
 62
     7
100
AcDb2dPolyline
 66
     1
 10
0.0
 20
0.0
 30
0.0
  0
VERTEX
  5
728
330
727
100
AcDbEntity
  8
BEMA_U_00DFUNG
 62
     7
100
AcDbVertex
100
AcDb2dVertex
 10
113.0894430272833
 20
172.3577433434123
 30
0.0
  0
VERTEX
  5
729
330
727
100
AcDbEntity
  8
BEMA_U_00DFUNG
 62
     7
100
AcDbVertex
100
AcDb2dVertex
 10
113.0894430272833
 20
169.2434211219688
 30
0.0
  0
SEQEND
  5
72A
330
727
100
AcDbEntity
  8
BEMA_U_00DFUNG
 62
     7
  0
POLYLINE
  5
72B
330
1F
100
AcDbEntity
  8
BEMA_U_00DFUNG
 62
     7
100
AcDb2dPolyline
 66
     1
 10
0.0
 20
0.0
 30
0.0
  0
VERTEX
  5
72C
330
72B
100
AcDbEntity
  8
BEMA_U_00DFUNG
 62
     7
100
AcDbVertex
100
AcDb2dVertex
 10
113.0382902495185
 20
172.3577433434123
 30
0.0
  0
VERTEX
  5
72D
330
72B
100
AcDbEntity
  8
BEMA_U_00DFUNG
 62
     7
100
AcDbVertex
100
AcDb2dVertex
 10
113.0382902495185
 20
168.8578350109538
 30
0.0
  0
SEQEND
  5
72E
330
72B
100
AcDbEntity
  8
BEMA_U_00DFUNG
 62
     7
  0
POLYLINE
  5
72F
330
1F
100
AcDbEntity
  8
BEMA_U_00DFUNG
 62
     7
100
AcDb2dPolyline
 66
     1
 10
0.0
 20
0.0
 30
0.0
  0
VERTEX
  5
730
330
72F
100
AcDbEntity
  8
BEMA_U_00DFUNG
 62
     7
100
AcDbVertex
100
AcDb2dVertex
 10
112.5814430274105
 20
172.3577433434123
 30
0.0
  0
VERTEX
  5
731
330
72F
100
AcDbEntity
  8
BEMA_U_00DFUNG
 62
     7
100
AcDbVertex
100
AcDb2dVertex
 10
112.5814430274105
 20
172.3302266767527
 30
0.0
  0
SEQEND
  5
732
330
72F
100
AcDbEntity
  8
BEMA_U_00DFUNG
 62
     7
  0
POLYLINE
  5
733
330
1F
100
AcDbEntity
  8
BEMA_U_00DFUNG
 62
     7
100
AcDb2dPolyline
 66
     1
 10
0.0
 20
0.0
 30
0.0
  0
VERTEX
  5
734
330
733
100
AcDbEntity
  8
BEMA_U_00DFUNG
 62
     7
100
AcDbVertex
100
AcDb2dVertex
 10
112.5814430274105
 20
172.3577433434123
 30
0.0
  0
VERTEX
  5
735
330
733
100
AcDbEntity
  8
BEMA_U_00DFUNG
 62
     7
100
AcDbVertex
100
AcDb2dVertex
 10
112.5814430274105
 20
172.3302266767527
 30
0.0
  0
SEQEND
  5
736
330
733
100
AcDbEntity
  8
BEMA_U_00DFUNG
 62
     7
  0
POLYLINE
  5
737
330
1F
100
AcDbEntity
  8
BEMA_U_00DFUNG
 62
     7
100
AcDb2dPolyline
 66
     1
 10
0.0
 20
0.0
 30
0.0
  0
VERTEX
  5
738
330
737
100
AcDbEntity
  8
BEMA_U_00DFUNG
 62
     7
100
AcDbVertex
100
AcDb2dVertex
 10
112.6322430273975
 20
172.3577433434123
 30
0.0
  0
VERTEX
  5
739
330
737
100
AcDbEntity
  8
BEMA_U_00DFUNG
 62
     7
100
AcDbVertex
100
AcDb2dVertex
 10
112.6322430273975
 20
171.9449933435154
 30
0.0
  0
SEQEND
  5
73A
330
737
100
AcDbEntity
  8
BEMA_U_00DFUNG
 62
     7
  0
POLYLINE
  5
73B
330
1F
100
AcDbEntity
  8
BEMA_U_00DFUNG
 62
     7
100
AcDb2dPolyline
 66
     1
 10
0.0
 20
0.0
 30
0.0
  0
VERTEX
  5
73C
330
73B
100
AcDbEntity
  8
BEMA_U_00DFUNG
 62
     7
100
AcDbVertex
100
AcDb2dVertex
 10
112.6830430273849
 20
172.3577433434123
 30
0.0
  0
VERTEX
  5
73D
330
73B
100
AcDbEntity
  8
BEMA_U_00DFUNG
 62
     7
100
AcDbVertex
100
AcDb2dVertex
 10
112.6830430273849
 20
171.5587016769456
 30
0.0
  0
SEQEND
  5
73E
330
73B
100
AcDbEntity
  8
BEMA_U_00DFUNG
 62
     7
  0
POLYLINE
  5
73F
330
1F
100
AcDbEntity
  8
BEMA_U_00DFUNG
 62
     7
100
AcDb2dPolyline
 66
     1
 10
0.0
 20
0.0
 30
0.0
  0
VERTEX
  5
740
330
73F
100
AcDbEntity
  8
BEMA_U_00DFUNG
 62
     7
100
AcDbVertex
100
AcDb2dVertex
 10
112.7338430273723
 20
172.3577433434123
 30
0.0
  0
VERTEX
  5
741
330
73F
100
AcDbEntity
  8
BEMA_U_00DFUNG
 62
     7
100
AcDbVertex
100
AcDb2dVertex
 10
112.7338430273723
 20
171.1731155659306
 30
0.0
  0
SEQEND
  5
742
330
73F
100
AcDbEntity
  8
BEMA_U_00DFUNG
 62
     7
  0
POLYLINE
  5
743
330
1F
100
AcDbEntity
  8
BEMA_U_00DFUNG
 62
     7
100
AcDb2dPolyline
 66
     1
 10
0.0
 20
0.0
 30
0.0
  0
VERTEX
  5
744
330
743
100
AcDbEntity
  8
BEMA_U_00DFUNG
 62
     7
100
AcDbVertex
100
AcDb2dVertex
 10
112.7842902495819
 20
172.3577433434123
 30
0.0
  0
VERTEX
  5
745
330
743
100
AcDbEntity
  8
BEMA_U_00DFUNG
 62
     7
100
AcDbVertex
100
AcDb2dVertex
 10
112.7842902495819
 20
170.7868238993607
 30
0.0
  0
SEQEND
  5
746
330
743
100
AcDbEntity
  8
BEMA_U_00DFUNG
 62
     7
  0
POLYLINE
  5
747
330
1F
100
AcDbEntity
  8
BEMA_U_00DFUNG
 62
     7
100
AcDb2dPolyline
 66
     1
 10
0.0
 20
0.0
 30
0.0
  0
VERTEX
  5
748
330
747
100
AcDbEntity
  8
BEMA_U_00DFUNG
 62
     7
100
AcDbVertex
100
AcDb2dVertex
 10
112.8350902495693
 20
172.3577433434123
 30
0.0
  0
VERTEX
  5
749
330
747
100
AcDbEntity
  8
BEMA_U_00DFUNG
 62
     7
100
AcDbVertex
100
AcDb2dVertex
 10
112.8350902495693
 20
170.4012377883458
 30
0.0
  0
SEQEND
  5
74A
330
747
100
AcDbEntity
  8
BEMA_U_00DFUNG
 62
     7
  0
POLYLINE
  5
74B
330
1F
100
AcDbEntity
  8
BEMA_U_00DFUNG
 62
     7
100
AcDb2dPolyline
 66
     1
 10
0.0
 20
0.0
 30
0.0
  0
VERTEX
  5
74C
330
74B
100
AcDbEntity
  8
BEMA_U_00DFUNG
 62
     7
100
AcDbVertex
100
AcDb2dVertex
 10
112.8858902495563
 20
172.3577433434123
 30
0.0
  0
VERTEX
  5
74D
330
74B
100
AcDbEntity
  8
BEMA_U_00DFUNG
 62
     7
100
AcDbVertex
100
AcDb2dVertex
 10
112.8858902495563
 20
170.0152988995537
 30
0.0
  0
SEQEND
  5
74E
330
74B
100
AcDbEntity
  8
BEMA_U_00DFUNG
 62
     7
  0
POLYLINE
  5
74F
330
1F
100
AcDbEntity
  8
BEMA_U_00DFUNG
 62
     7
100
AcDb2dPolyline
 66
     1
 10
0.0
 20
0.0
 30
0.0
  0
VERTEX
  5
750
330
74F
100
AcDbEntity
  8
BEMA_U_00DFUNG
 62
     7
100
AcDbVertex
100
AcDb2dVertex
 10
112.9366902495437
 20
172.3577433434123
 30
0.0
  0
VERTEX
  5
751
330
74F
100
AcDbEntity
  8
BEMA_U_00DFUNG
 62
     7
100
AcDbVertex
100
AcDb2dVertex
 10
112.9366902495437
 20
169.6297127885387
 30
0.0
  0
SEQEND
  5
752
330
74F
100
AcDbEntity
  8
BEMA_U_00DFUNG
 62
     7
  0
POLYLINE
  5
753
330
1F
100
AcDbEntity
  8
BEMA_U_00DFUNG
 62
     7
100
AcDb2dPolyline
 66
     1
 10
0.0
 20
0.0
 30
0.0
  0
VERTEX
  5
754
330
753
100
AcDbEntity
  8
BEMA_U_00DFUNG
 62
     7
100
AcDbVertex
100
AcDb2dVertex
 10
112.9874902495311
 20
172.3577433434123
 30
0.0
  0
VERTEX
  5
755
330
753
100
AcDbEntity
  8
BEMA_U_00DFUNG
 62
     7
100
AcDbVertex
100
AcDb2dVertex
 10
112.9874902495311
 20
169.2434211219688
 30
0.0
  0
SEQEND
  5
756
330
753
100
AcDbEntity
  8
BEMA_U_00DFUNG
 62
     7
  0
POLYLINE
  5
757
330
1F
100
AcDbEntity
  8
BEMA_U_00DFUNG
 62
     7
100
AcDb2dPolyline
 66
     1
 10
0.0
 20
0.0
 30
0.0
  0
VERTEX
  5
758
330
757
100
AcDbEntity
  8
BEMA_U_00DFUNG
 62
     7
100
AcDbVertex
100
AcDb2dVertex
 10
113.0382902495185
 20
172.3577433434123
 30
0.0
  0
VERTEX
  5
759
330
757
100
AcDbEntity
  8
BEMA_U_00DFUNG
 62
     7
100
AcDbVertex
100
AcDb2dVertex
 10
113.0382902495185
 20
168.8578350109538
 30
0.0
  0
SEQEND
  5
75A
330
757
100
AcDbEntity
  8
BEMA_U_00DFUNG
 62
     7
  0
MTEXT
  5
75C
330
1F
100
AcDbEntity
  8
TEXT
 62
     7
100
AcDbMText
 10
49.69291855311496
 20
234.1764037500497
 30
0.0
 40
3.447529173370601
 41
0.0
 71
     7
 72
     1
  1
\fINDEX Univers 45 Light|b0|i0|c0|p34;\W1;62,5
  0
MTEXT
  5
75D
330
1F
100
AcDbEntity
  8
TEXT
 62
     7
100
AcDbMText
 10
134.4403726877441
 20
233.3015217515705
 30
0.0
 40
3.447529173370601
 41
0.0
 71
     7
 72
     1
  1
\fINDEX Univers 45 Light|b0|i0|c0|p34;\W1;29,5
  0
MTEXT
  5
75E
330
1F
100
AcDbEntity
  8
TEXT
 62
     7
100
AcDbMText
 10
111.2829576002175
 20
183.5834540014132
 30
0.0
 40
3.447529173370601
 41
0.0
 71
     7
 72
     1
  1
\fINDEX Univers 45 Light|b0|i0|c0|p34;\W1;40X1.5
 11
6.123233995736766E-17
 21
1.0
 31
0.0
  0
ENDSEC
  0
SECTION
  2
OBJECTS
  0
DICTIONARY
  5
C
330
0
100
AcDbDictionary
  3
ACAD_GROUP
350
D
  3
ACAD_LAYOUT
350
1A
  3
ACAD_MATERIAL
350
3B
  3
ACAD_MLEADERSTYLE
350
781
  3
ACAD_MLINESTYLE
350
17
  3
ACAD_PLOTSETTINGS
350
19
  3
ACAD_VISUALSTYLE
350
2A
  3
ACDBHEADERROUNDTRIPXREC
350
75F
  3
ACDBVARIABLEDICTIONARY
350
77F
  0
DICTIONARY
  5
D
102
{ACAD_REACTORS
330
C
102
}
330
C
100
AcDbDictionary
  0
DICTIONARY
  5
1A
102
{ACAD_REACTORS
330
C
102
}
330
C
100
AcDbDictionary
  0
DICTIONARY
  5
3B
102
{ACAD_REACTORS
330
C
102
}
330
C
100
AcDbDictionary
  3
BYBLOCK
350
3D
  3
BYLAYER
350
3C
  3
GLOBAL
350
3E
  0
DICTIONARY
  5
781
102
{ACAD_REACTORS
330
C
102
}
330
C
100
AcDbDictionary
  0
DICTIONARY
  5
17
102
{ACAD_REACTORS
330
C
102
}
330
C
100
AcDbDictionary
  3
STANDARD
350
18
  0
DICTIONARY
  5
19
102
{ACAD_REACTORS
330
C
102
}
330
C
100
AcDbDictionary
  0
DICTIONARY
  5
2A
102
{ACAD_REACTORS
330
C
102
}
330
C
100
AcDbDictionary
  3
2DWIREFRAME
350
2F
  3
3D_HIDDEN
350
31
  3
3DWIREFRAME
350
30
  3
BASIC
350
32
  3
BRIGHTEN
350
36
  3
COLORCHANGE
350
3A
  3
CONCEPTUAL
350
34
  3
DIM
350
35
  3
FACEPATTERN
350
39
  3
FLAT
350
2B
  3
FLATWITHEDGES
350
2C
  3
GOURAUD
350
2D
  3
GOURAUDWITHEDGES
350
2E
  3
LINEPATTERN
350
38
  3
REALISTIC
350
33
  3
THICKEN
350
37
  0
DICTIONARY
  5
75F
102
{ACAD_REACTORS
330
C
102
}
330
C
100
AcDbDictionary
  3
CEPSNTYPE
350
768
  3
DIMSTYLEDATA
350
77E
  3
FINGERPRINTGUID
350
769
  3
HYPERLINKBASE
350
762
  3
INSUNITS
350
767
  3
LAYOUTDICT
350
764
  3
LWETCUNION
350
766
  3
PLOTSETDICT
350
765
  3
PSVPSCALE
350
76B
  3
PUCSBASE
350
76E
  3
PUCSORGBACK
350
774
  3
PUCSORGBOTTOM
350
770
  3
PUCSORGFRONT
350
773
  3
PUCSORGLEFT
350
771
  3
PUCSORGRIGHT
350
772
  3
PUCSORGTOP
350
76F
  3
PUCSORTHOREF
350
76C
  3
PUCSORTHOVIEW
350
76D
  3
STYLESHEET
350
763
  3
TSTACKALIGN
350
760
  3
TSTACKSIZE
350
761
  3
UCSBASE
350
777
  3
UCSORGBACK
350
77D
  3
UCSORGBOTTOM
350
779
  3
UCSORGFRONT
350
77C
  3
UCSORGLEFT
350
77A
  3
UCSORGRIGHT
350
77B
  3
UCSORGTOP
350
778
  3
UCSORTHOREF
350
775
  3
UCSORTHOVIEW
350
776
  3
VERSIONGUID
350
76A
  0
DICTIONARY
  5
77F
102
{ACAD_REACTORS
330
C
102
}
330
C
100
AcDbDictionary
  3
DIMASSOC
350
782
  3
HIDETEXT
350
783
  0
MATERIAL
  5
3D
102
{ACAD_REACTORS
330
3B
102
}
102
{ACAD_XDICTIONARY
360
786
102
}
330
3B
100
AcDbMaterial
  1
ByBlock
  0
MATERIAL
  5
3C
102
{ACAD_REACTORS
330
3B
102
}
102
{ACAD_XDICTIONARY
360
784
102
}
330
3B
100
AcDbMaterial
  1
ByLayer
  0
MATERIAL
  5
3E
102
{ACAD_REACTORS
330
3B
102
}
102
{ACAD_XDICTIONARY
360
788
102
}
330
3B
100
AcDbMaterial
  1
Global
  0
MLINESTYLE
  5
18
102
{ACAD_REACTORS
330
17
102
}
330
17
100
AcDbMlineStyle
  2
Standard
 70
     0
  3

 62
   256
 51
90.0
 52
90.0
 71
     2
 49
0.5
 62
   256
  6
BYLAYER
 49
-0.5
 62
   256
  6
BYLAYER
  0
ACAD_PROXY_OBJECT
  5
2F
102
{ACAD_REACTORS
330
2A
102
}
330
2A
100
AcDbProxyObject
 90
      499
 91
      501
 93
      436
310
42CC9915DA5C99599C985B595049028333333333333E3BF0000000000000FB0107901411070040501600405405064090741402480A0340
1001
ACAD
1000
AcDbSavedByObjectVersion
1070
     0
  0
ACAD_PROXY_OBJECT
  5
31
102
{ACAD_REACTORS
330
2A
102
}
330
2A
100
AcDbProxyObject
 90
      499
 91
      501
 93
      500
310
424CD108121A5919195B90640502408333333333333E3BF0000000000000FB01079024090700405020000000000001110200405405064090740C02480A0340
1001
ACAD
1000
AcDbSavedByObjectVersion
1070
     0
  0
ACAD_PROXY_OBJECT
  5
30
102
{ACAD_REACTORS
330
2A
102
}
330
2A
100
AcDbProxyObject
 90
      499
 91
      501
 93
      436
310
42CCD915DA5C99599C985B595059028333333333333E3BF0000000000000FB0107901411070040501600405405064090741402480A0340
1001
ACAD
1000
AcDbSavedByObjectVersion
1070
     0
  0
ACAD_PROXY_OBJECT
  5
32
102
{ACAD_REACTORS
330
2A
102
}
330
2A
100
AcDbProxyObject
 90
      499
 91
      501
 93
      388
310
4150985CDA58D07406404333333333333E3BF0000000000000FB0107A41107004050150841D405064090741402480A0350
1001
ACAD
1000
AcDbSavedByObjectVersion
1070
     0
  0
ACAD_PROXY_OBJECT
  5
36
102
{ACAD_REACTORS
330
2A
102
}
330
2A
100
AcDbProxyObject
 90
      499
 91
      501
 93
      428
310
42109C9A59DA1D195B90C409028333333333333E3BF0000000000000FB010790141107004050150841D405064090741402480A029950
1001
ACAD
1000
AcDbSavedByObjectVersion
1070
     0
  0
ACAD_PROXY_OBJECT
  5
3A
102
{ACAD_REACTORS
330
2A
102
}
330
2A
100
AcDbProxyObject
 90
      499
 91
      501
 93
      452
310
42D0DBDB1BDC90DA185B99D95104090240C333333333333E3BF0000000000000FB0108901411070040501508421405064090741402480A0350
1001
ACAD
1000
AcDbSavedByObjectVersion
1070
     0
  0
ACAD_PROXY_OBJECT
  5
34
102
{ACAD_REACTORS
330
2A
102
}
330
2A
100
AcDbProxyObject
 90
      499
 91
      501
 93
      500
310
4290DBDB98D95C1D1D585B10940D028333333333333E3BF0000000000000FB0107902409070040501000000000000111010841D405064090740C02480A0340
1001
ACAD
1000
AcDbSavedByObjectVersion
1070
     0
  0
ACAD_PROXY_OBJECT
  5
35
102
{ACAD_REACTORS
330
2A
102
}
330
2A
100
AcDbProxyObject
 90
      499
 91
      501
 93
      412
310
40D11A5B50B409028333333333333E3BF0000000000000FB010790141107004050150841D405064090741402480A02677FFFFFD0
1001
ACAD
1000
AcDbSavedByObjectVersion
1070
     0
  0
ACAD_PROXY_OBJECT
  5
39
102
{ACAD_REACTORS
330
2A
102
}
330
2A
100
AcDbProxyObject
 90
      499
 91
      501
 93
      444
310
42D19858D95C185D1D195C9B90F409028333333333333E3BF0000000000000FB010790141107004050150841D405064090741402480A0350
1001
ACAD
1000
AcDbSavedByObjectVersion
1070
     0
  0
ACAD_PROXY_OBJECT
  5
2B
102
{ACAD_REACTORS
330
2A
102
}
330
2A
100
AcDbProxyObject
 90
      499
 91
      501
 93
      388
310
41119B185D240901404333333333333E3BF0000000000000F9010740A41107004050150841D405064090741402480A1B50
1001
ACAD
1000
AcDbSavedByObjectVersion
1070
     0
  0
ACAD_PROXY_OBJECT
  5
2C
102
{ACAD_REACTORS
330
2A
102
}
330
2A
100
AcDbProxyObject
 90
      499
 91
      501
 93
      476
310
43519B185D15DA5D1A115919D95CD0140901404333333333333E3BF0000000000000F9010740901411070040501600405405064090741402480A1B50
1001
ACAD
1000
AcDbSavedByObjectVersion
1070
     0
  0
ACAD_PROXY_OBJECT
  5
2D
102
{ACAD_REACTORS
330
2A
102
}
330
2A
100
AcDbProxyObject
 90
      499
 91
      501
 93
      412
310
41D1DBDD5C985D5910240902404333333333333E3BF0000000000000F9010740A411070040501641D405064090741402480A1B50
1001
ACAD
1000
AcDbSavedByObjectVersion
1070
     0
  0
ACAD_PROXY_OBJECT
  5
2E
102
{ACAD_REACTORS
330
2A
102
}
330
2A
100
AcDbProxyObject
 90
      499
 91
      501
 93
      500
310
4411DBDD5C985D5915DA5D1A115919D95CD0340902404333333333333E3BF0000000000000F9010740901411070040501600405405064090741402480A1B50
1001
ACAD
1000
AcDbSavedByObjectVersion
1070
     0
  0
ACAD_PROXY_OBJECT
  5
38
102
{ACAD_REACTORS
330
2A
102
}
330
2A
100
AcDbProxyObject
 90
      499
 91
      501
 93
      444
310
42D31A5B995C185D1D195C9B90E409028333333333333E3BF0000000000000FB010790141107004050750841D405064090741402483A0350
1001
ACAD
1000
AcDbSavedByObjectVersion
1070
     0
  0
ACAD_PROXY_OBJECT
  5
33
102
{ACAD_REACTORS
330
2A
102
}
330
2A
100
AcDbProxyObject
 90
      499
 91
      501
 93
      420
310
425499585B1A5CDD1A58D08409028333333333333E3BF0000000000000FB01079019070040501508421405064090741402480A1B40
1001
ACAD
1000
AcDbSavedByObjectVersion
1070
     0
  0
ACAD_PROXY_OBJECT
  5
37
102
{ACAD_REACTORS
330
2A
102
}
330
2A
100
AcDbProxyObject
 90
      499
 91
      501
 93
      412
310
41D51A1A58DAD95B90D409028333333333333E3BF0000000000000FB010790141107004050150C41D405064090741402480A0350
1001
ACAD
1000
AcDbSavedByObjectVersion
1070
     0
  0
XRECORD
  5
768
102
{ACAD_REACTORS
330
75F
102
}
330
75F
100
AcDbXrecord
 90
        0
  0
XRECORD
  5
77E
102
{ACAD_REACTORS
330
75F
102
}
330
75F
100
AcDbXrecord
1000
DSTYLE
1002
{
1070
   340
340
11
1002
}
  0
XRECORD
  5
769
102
{ACAD_REACTORS
330
75F
102
}
330
75F
100
AcDbXrecord
  1
{DE2A5AA6-E22C-4FCE-BBC3-9E3F4CD8F00C}
  0
XRECORD
  5
762
102
{ACAD_REACTORS
330
75F
102
}
330
75F
100
AcDbXrecord
  1

  0
XRECORD
  5
767
102
{ACAD_REACTORS
330
75F
102
}
330
75F
100
AcDbXrecord
 90
        4
  0
XRECORD
  5
764
102
{ACAD_REACTORS
330
75F
102
}
330
75F
100
AcDbXrecord
340
1A
  0
XRECORD
  5
766
102
{ACAD_REACTORS
330
75F
102
}
330
75F
100
AcDbXrecord
 90
    10269
  0
XRECORD
  5
765
102
{ACAD_REACTORS
330
75F
102
}
330
75F
100
AcDbXrecord
340
19
  0
XRECORD
  5
76B
102
{ACAD_REACTORS
330
75F
102
}
330
75F
100
AcDbXrecord
 40
0.0
  0
XRECORD
  5
76E
102
{ACAD_REACTORS
330
75F
102
}
330
75F
100
AcDbXrecord
340
0
  0
XRECORD
  5
774
102
{ACAD_REACTORS
330
75F
102
}
330
75F
100
AcDbXrecord
 10
0.0
 20
0.0
 30
0.0
  0
XRECORD
  5
770
102
{ACAD_REACTORS
330
75F
102
}
330
75F
100
AcDbXrecord
 10
0.0
 20
0.0
 30
0.0
  0
XRECORD
  5
773
102
{ACAD_REACTORS
330
75F
102
}
330
75F
100
AcDbXrecord
 10
0.0
 20
0.0
 30
0.0
  0
XRECORD
  5
771
102
{ACAD_REACTORS
330
75F
102
}
330
75F
100
AcDbXrecord
 10
0.0
 20
0.0
 30
0.0
  0
XRECORD
  5
772
102
{ACAD_REACTORS
330
75F
102
}
330
75F
100
AcDbXrecord
 10
0.0
 20
0.0
 30
0.0
  0
XRECORD
  5
76F
102
{ACAD_REACTORS
330
75F
102
}
330
75F
100
AcDbXrecord
 10
0.0
 20
0.0
 30
0.0
  0
XRECORD
  5
76C
102
{ACAD_REACTORS
330
75F
102
}
330
75F
100
AcDbXrecord
340
0
  0
XRECORD
  5
76D
102
{ACAD_REACTORS
330
75F
102
}
330
75F
100
AcDbXrecord
 70
     0
  0
XRECORD
  5
763
102
{ACAD_REACTORS
330
75F
102
}
330
75F
100
AcDbXrecord
  1

  0
XRECORD
  5
760
102
{ACAD_REACTORS
330
75F
102
}
330
75F
100
AcDbXrecord
 90
        1
  0
XRECORD
  5
761
102
{ACAD_REACTORS
330
75F
102
}
330
75F
100
AcDbXrecord
 90
       70
  0
XRECORD
  5
777
102
{ACAD_REACTORS
330
75F
102
}
330
75F
100
AcDbXrecord
340
0
  0
XRECORD
  5
77D
102
{ACAD_REACTORS
330
75F
102
}
330
75F
100
AcDbXrecord
 10
0.0
 20
0.0
 30
0.0
  0
XRECORD
  5
779
102
{ACAD_REACTORS
330
75F
102
}
330
75F
100
AcDbXrecord
 10
0.0
 20
0.0
 30
0.0
  0
XRECORD
  5
77C
102
{ACAD_REACTORS
330
75F
102
}
330
75F
100
AcDbXrecord
 10
0.0
 20
0.0
 30
0.0
  0
XRECORD
  5
77A
102
{ACAD_REACTORS
330
75F
102
}
330
75F
100
AcDbXrecord
 10
0.0
 20
0.0
 30
0.0
  0
XRECORD
  5
77B
102
{ACAD_REACTORS
330
75F
102
}
330
75F
100
AcDbXrecord
 10
0.0
 20
0.0
 30
0.0
  0
XRECORD
  5
778
102
{ACAD_REACTORS
330
75F
102
}
330
75F
100
AcDbXrecord
 10
0.0
 20
0.0
 30
0.0
  0
XRECORD
  5
775
102
{ACAD_REACTORS
330
75F
102
}
330
75F
100
AcDbXrecord
340
0
  0
XRECORD
  5
776
102
{ACAD_REACTORS
330
75F
102
}
330
75F
100
AcDbXrecord
 70
     0
  0
XRECORD
  5
76A
102
{ACAD_REACTORS
330
75F
102
}
330
75F
100
AcDbXrecord
  1
{FAEB1C32-E019-11D5-929B-00C0DF256EC4}
  0
DICTIONARYVAR
  5
782
102
{ACAD_REACTORS
330
77F
102
}
330
77F
100
DictionaryVariables
280
     0
  1
2
  0
DICTIONARYVAR
  5
783
102
{ACAD_REACTORS
330
77F
102
}
330
77F
100
DictionaryVariables
280
     0
  1
1
  0
DICTIONARY
  5
786
330
3D
100
AcDbDictionary
280
     1
  3
ACAD_XREC_ROUNDTRIP
360
787
  0
DICTIONARY
  5
784
330
3C
100
AcDbDictionary
280
     1
  3
ACAD_XREC_ROUNDTRIP
360
785
  0
DICTIONARY
  5
788
330
3E
100
AcDbDictionary
280
     1
  3
ACAD_XREC_ROUNDTRIP
360
789
  0
XRECORD
  5
787
102
{ACAD_REACTORS
330
786
102
}
330
786
100
AcDbXrecord
102
MATERIAL
148
0.0
149
0.0
149
0.0
 93
        0
 94
      127
282
     0
 72
     1
 77
     1
171
     1
175
     1
179
     1
273
     0
  0
XRECORD
  5
785
102
{ACAD_REACTORS
330
784
102
}
330
784
100
AcDbXrecord
102
MATERIAL
148
0.0
149
0.0
149
0.0
 93
        0
 94
      127
282
     0
 72
     1
 77
     1
171
     1
175
     1
179
     1
273
     0
  0
XRECORD
  5
789
102
{ACAD_REACTORS
330
788
102
}
330
788
100
AcDbXrecord
102
MATERIAL
148
0.0
149
0.0
149
0.0
 93
        0
 94
      127
282
     0
 72
     1
 77
     1
171
     1
175
     1
179
     1
273
     0
  0
ENDSEC
  0
EOF
