  0
SECTION
  2
HEADER
  9
$ACADVER
  1
AC1014
  9
$ACADMAINTVER
 70
     9
  9
$DWGCODEPAGE
  3
ANSI_1252
  9
$INSBASE
 10
0.0
 20
0.0
 30
0.0
  9
$EXTMIN
 10
1.000000000000000E+20
 20
1.000000000000000E+20
 30
1.000000000000000E+20
  9
$EXTMAX
 10
-1.000000000000000E+20
 20
-1.000000000000000E+20
 30
-1.000000000000000E+20
  9
$LIMMIN
 10
0.0
 20
0.0
  9
$LIMMAX
 10
12.0
 20
9.0
  9
$ORTHOMODE
 70
     0
  9
$REGENMODE
 70
     1
  9
$FILLMODE
 70
     1
  9
$QTEXTMODE
 70
     0
  9
$MIRRTEXT
 70
     1
  9
$DRAGMODE
 70
     2
  9
$LTSCALE
 40
1.0
  9
$OSMODE
 70
    37
  9
$ATTMODE
 70
     1
  9
$TEXTSIZE
 40
0.2
  9
$TRACEWID
 40
0.05
  9
$TEXTSTYLE
  7
STANDARD
  9
$CLAYER
  8
0
  9
$CELTYPE
  6
BYLAYER
  9
$CECOLOR
 62
   256
  9
$CELTSCALE
 40
1.0
  9
$DELOBJ
 70
     1
  9
$DISPSILH
 70
     0
  9
$DIMSCALE
 40
1.0
  9
$DIMASZ
 40
0.18
  9
$DIMEXO
 40
0.0625
  9
$DIMDLI
 40
0.38
  9
$DIMRND
 40
0.0
  9
$DIMDLE
 40
0.0
  9
$DIMEXE
 40
0.18
  9
$DIMTP
 40
0.0
  9
$DIMTM
 40
0.0
  9
$DIMTXT
 40
0.18
  9
$DIMCEN
 40
0.09
  9
$DIMTSZ
 40
0.0
  9
$DIMTOL
 70
     0
  9
$DIMLIM
 70
     0
  9
$DIMTIH
 70
     1
  9
$DIMTOH
 70
     1
  9
$DIMSE1
 70
     0
  9
$DIMSE2
 70
     0
  9
$DIMTAD
 70
     0
  9
$DIMZIN
 70
     0
  9
$DIMBLK
  1

  9
$DIMASO
 70
     1
  9
$DIMSHO
 70
     1
  9
$DIMPOST
  1

  9
$DIMAPOST
  1

  9
$DIMALT
 70
     0
  9
$DIMALTD
 70
     2
  9
$DIMALTF
 40
25.4
  9
$DIMLFAC
 40
1.0
  9
$DIMTOFL
 70
     0
  9
$DIMTVP
 40
0.0
  9
$DIMTIX
 70
     0
  9
$DIMSOXD
 70
     0
  9
$DIMSAH
 70
     0
  9
$DIMBLK1
  1

  9
$DIMBLK2
  1

  9
$DIMSTYLE
  2
STANDARD
  9
$DIMCLRD
 70
     0
  9
$DIMCLRE
 70
     0
  9
$DIMCLRT
 70
     0
  9
$DIMTFAC
 40
1.0
  9
$DIMGAP
 40
0.09
  9
$DIMJUST
 70
     0
  9
$DIMSD1
 70
     0
  9
$DIMSD2
 70
     0
  9
$DIMTOLJ
 70
     1
  9
$DIMTZIN
 70
     0
  9
$DIMALTZ
 70
     0
  9
$DIMALTTZ
 70
     0
  9
$DIMFIT
 70
     3
  9
$DIMUPT
 70
     0
  9
$DIMUNIT
 70
     2
  9
$DIMDEC
 70
     4
  9
$DIMTDEC
 70
     4
  9
$DIMALTU
 70
     2
  9
$DIMALTTD
 70
     2
  9
$DIMTXSTY
  7
STANDARD
  9
$DIMAUNIT
 70
     0
  9
$LUNITS
 70
     2
  9
$LUPREC
 70
     4
  9
$SKETCHINC
 40
0.1
  9
$FILLETRAD
 40
0.5
  9
$AUNITS
 70
     0
  9
$AUPREC
 70
     0
  9
$MENU
  1
.
  9
$ELEVATION
 40
0.0
  9
$PELEVATION
 40
0.0
  9
$THICKNESS
 40
0.0
  9
$LIMCHECK
 70
     0
  9
$CHAMFERA
 40
0.5
  9
$CHAMFERB
 40
0.5
  9
$CHAMFERC
 40
1.0
  9
$CHAMFERD
 40
0.0
  9
$SKPOLY
 70
     0
  9
$TDCREATE
 40
2458982.588560972
  9
$TDUPDATE
 40
2458982.588561238
  9
$TDINDWG
 40
0.0000000116
  9
$TDUSRTIMER
 40
0.0000000116
  9
$USRTIMER
 70
     1
  9
$ANGBASE
 50
0.0
  9
$ANGDIR
 70
     0
  9
$PDMODE
 70
     0
  9
$PDSIZE
 40
0.0
  9
$PLINEWID
 40
0.0
  9
$COORDS
 70
     1
  9
$SPLFRAME
 70
     0
  9
$SPLINETYPE
 70
     6
  9
$SPLINESEGS
 70
     8
  9
$ATTDIA
 70
     0
  9
$ATTREQ
 70
     1
  9
$HANDLING
 70
     1
  9
$HANDSEED
  5
6D9
  9
$SURFTAB1
 70
     6
  9
$SURFTAB2
 70
     6
  9
$SURFTYPE
 70
     6
  9
$SURFU
 70
     6
  9
$SURFV
 70
     6
  9
$UCSNAME
  2

  9
$UCSORG
 10
0.0
 20
0.0
 30
0.0
  9
$UCSXDIR
 10
1.0
 20
0.0
 30
0.0
  9
$UCSYDIR
 10
0.0
 20
1.0
 30
0.0
  9
$PUCSNAME
  2

  9
$PUCSORG
 10
0.0
 20
0.0
 30
0.0
  9
$PUCSXDIR
 10
1.0
 20
0.0
 30
0.0
  9
$PUCSYDIR
 10
0.0
 20
1.0
 30
0.0
  9
$USERI1
 70
     0
  9
$USERI2
 70
     0
  9
$USERI3
 70
     0
  9
$USERI4
 70
     0
  9
$USERI5
 70
     0
  9
$USERR1
 40
0.0
  9
$USERR2
 40
0.0
  9
$USERR3
 40
0.0
  9
$USERR4
 40
0.0
  9
$USERR5
 40
0.0
  9
$WORLDVIEW
 70
     1
  9
$SHADEDGE
 70
     3
  9
$SHADEDIF
 70
    70
  9
$TILEMODE
 70
     1
  9
$MAXACTVP
 70
    64
  9
$PINSBASE
 10
0.0
 20
0.0
 30
0.0
  9
$PLIMCHECK
 70
     0
  9
$PEXTMIN
 10
1.000000000000000E+20
 20
1.000000000000000E+20
 30
1.000000000000000E+20
  9
$PEXTMAX
 10
-1.000000000000000E+20
 20
-1.000000000000000E+20
 30
-1.000000000000000E+20
  9
$PLIMMIN
 10
0.0
 20
0.0
  9
$PLIMMAX
 10
12.0
 20
9.0
  9
$UNITMODE
 70
     0
  9
$VISRETAIN
 70
     1
  9
$PLINEGEN
 70
     0
  9
$PSLTSCALE
 70
     1
  9
$TREEDEPTH
 70
  3020
  9
$PICKSTYLE
 70
     1
  9
$CMLSTYLE
  2
STANDARD
  9
$CMLJUST
 70
     0
  9
$CMLSCALE
 40
1.0
  9
$PROXYGRAPHICS
 70
     1
  9
$MEASUREMENT
 70
     0
  0
ENDSEC
  0
SECTION
  2
CLASSES
  0
CLASS
  1
ACDBDICTIONARYWDFLT
  2
AcDbDictionaryWithDefault
  3
ObjectDBX Classes
 90
        0
280
     0
281
     0
  0
CLASS
  1
VISUALSTYLE
  2
AcDbVisualStyle
  3
ObjectDBX Classes
 90
     4095
280
     0
281
     0
  0
CLASS
  1
MATERIAL
  2
AcDbMaterial
  3
ObjectDBX Classes
 90
     1153
280
     0
281
     0
  0
CLASS
  1
SUN
  2
AcDbSun
  3
SCENEOE
 90
     1024
280
     0
281
     0
  0
CLASS
  1
DICTIONARYVAR
  2
AcDbDictionaryVar
  3
ObjectDBX Classes
 90
        0
280
     0
281
     0
  0
CLASS
  1
XRECORD
  2
AcDbXrecord
  3
AutoCAD 2000
 90
        0
280
     0
281
     0
  0
CLASS
  1
LWPOLYLINE
  2
AcDbPolyline
  3
AutoCAD 2000
 90
        0
280
     0
281
     1
  0
CLASS
  1
HATCH
  2
AcDbHatch
  3
AutoCAD 2000
 90
        0
280
     0
281
     1
  0
CLASS
  1
ACDBPLACEHOLDER
  2
AcDbPlaceHolder
  3
ObjectDBX Classes
 90
        0
280
     0
281
     0
  0
CLASS
  1
LAYOUT
  2
AcDbLayout
  3
ObjectDBX Classes
 90
        0
280
     0
281
     0
  0
ENDSEC
  0
SECTION
  2
TABLES
  0
TABLE
  2
VPORT
  5
8
330
0
100
AcDbSymbolTable
 70
     1
  0
VPORT
  5
29
330
8
100
AcDbSymbolTableRecord
100
AcDbViewportTableRecord
  2
*ACTIVE
 70
     0
 10
0.0
 20
0.0
 11
1.0
 21
1.0
 12
0.0
 22
0.0
 13
0.0
 23
0.0
 14
0.5
 24
0.5
 15
0.5
 25
0.5
 16
0.0
 26
0.0
 36
1.0
 17
100.0611110860992
 27
127.0194444126945
 37
0.0
 40
296.9999999257403
 41
0.7070707070707531
 42
50.0
 43
0.0
 44
0.0
 50
0.0
 51
0.0
 71
     0
 72
   100
 73
     1
 74
     3
 75
     0
 76
     0
 77
     0
 78
     0
  0
ENDTAB
  0
TABLE
  2
LTYPE
  5
5
330
0
100
AcDbSymbolTable
 70
     4
  0
LTYPE
  5
14
330
5
100
AcDbSymbolTableRecord
100
AcDbLinetypeTableRecord
  2
BYBLOCK
 70
     0
  3

 72
    65
 73
     0
 40
0.0
  0
LTYPE
  5
15
330
5
100
AcDbSymbolTableRecord
100
AcDbLinetypeTableRecord
  2
BYLAYER
 70
     0
  3

 72
    65
 73
     0
 40
0.0
  0
LTYPE
  5
16
330
5
100
AcDbSymbolTableRecord
100
AcDbLinetypeTableRecord
  2
CONTINUOUS
 70
     0
  3
Solid line
 72
    65
 73
     0
 40
0.0
  0
LTYPE
  5
417
330
5
100
AcDbSymbolTableRecord
100
AcDbLinetypeTableRecord
  2
AI-LINETYPE-1
 70
     0
  3
Adobe Illustrator Linetype No. 1
 72
    65
 73
     4
 40
5.997222220722918
 49
4.233333332275
 74
     0
 49
-0.7055555553791667
 74
     0
 49
0.3527777776895833
 74
     0
 49
-0.7055555553791667
 74
     0
  0
LTYPE
  5
41C
330
5
100
AcDbSymbolTableRecord
100
AcDbLinetypeTableRecord
  2
AI-LINETYPE-2
 70
     0
  3
Adobe Illustrator Linetype No. 2
 72
    65
 73
     4
 40
5.997222220722918
 49
4.233333332275
 74
     0
 49
-0.7055555553791667
 74
     0
 49
0.3527777776895833
 74
     0
 49
-0.7055555553791667
 74
     0
  0
LTYPE
  5
421
330
5
100
AcDbSymbolTableRecord
100
AcDbLinetypeTableRecord
  2
AI-LINETYPE-3
 70
     0
  3
Adobe Illustrator Linetype No. 3
 72
    65
 73
     4
 40
5.997222220722918
 49
4.233333332275
 74
     0
 49
-0.7055555553791667
 74
     0
 49
0.3527777776895833
 74
     0
 49
-0.7055555553791667
 74
     0
  0
ENDTAB
  0
TABLE
  2
LAYER
  5
2
330
0
100
AcDbSymbolTable
 70
     5
  0
LAYER
  5
10
330
2
100
AcDbSymbolTableRecord
100
AcDbLayerTableRecord
  2
0
 70
     0
 62
     7
  6
CONTINUOUS
  0
LAYER
  5
40
330
2
100
AcDbSymbolTableRecord
100
AcDbLayerTableRecord
  2
GRAU_10_
 70
     0
 62
     7
  6
CONTINUOUS
  0
LAYER
  5
423
330
2
100
AcDbSymbolTableRecord
100
AcDbLayerTableRecord
  2
STANDARDEBENE
 70
     0
 62
     7
  6
CONTINUOUS
  0
LAYER
  5
451
330
2
100
AcDbSymbolTableRecord
100
AcDbLayerTableRecord
  2
BEMA_U_00DFUNG
 70
     1
 62
     7
  6
CONTINUOUS
  0
LAYER
  5
6AA
330
2
100
AcDbSymbolTableRecord
100
AcDbLayerTableRecord
  2
TEXT
 70
     1
 62
     7
  6
CONTINUOUS
  0
ENDTAB
  0
TABLE
  2
STYLE
  5
3
330
0
100
AcDbSymbolTable
 70
     1
  0
STYLE
  5
11
330
3
100
AcDbSymbolTableRecord
100
AcDbTextStyleTableRecord
  2
STANDARD
 70
     0
 40
0.0
 41
1.0
 50
0.0
 71
     0
 42
0.2
  3
txt
  4

  0
ENDTAB
  0
TABLE
  2
VIEW
  5
6
330
0
100
AcDbSymbolTable
 70
     0
  0
ENDTAB
  0
TABLE
  2
UCS
  5
7
330
0
100
AcDbSymbolTable
 70
     0
  0
ENDTAB
  0
TABLE
  2
APPID
  5
9
330
0
100
AcDbSymbolTable
 70
     1
  0
APPID
  5
12
330
9
100
AcDbSymbolTableRecord
100
AcDbRegAppTableRecord
  2
ACAD
 70
     0
  0
ENDTAB
  0
TABLE
  2
DIMSTYLE
  5
A
330
0
100
AcDbSymbolTable
 70
     1
  0
DIMSTYLE
105
27
330
A
100
AcDbSymbolTableRecord
100
AcDbDimStyleTableRecord
  2
STANDARD
 70
     0
  3

  4

  5

  6

  7

 40
1.0
 41
0.18
 42
0.0625
 43
0.38
 44
0.18
 45
0.0
 46
0.0
 47
0.0
 48
0.0
140
0.18
141
0.09
142
0.0
143
25.4
144
1.0
145
0.0
146
1.0
147
0.09
 71
     0
 72
     0
 73
     1
 74
     1
 75
     0
 76
     0
 77
     0
 78
     0
170
     0
171
     2
172
     0
173
     0
174
     0
175
     0
176
     0
177
     0
178
     0
270
     2
271
     4
272
     4
273
     2
274
     2
340
11
275
     0
280
     0
281
     0
282
     0
283
     1
284
     0
285
     0
286
     0
287
     3
288
     0
  0
ENDTAB
  0
TABLE
  2
BLOCK_RECORD
  5
1
330
0
100
AcDbSymbolTable
 70
     1
  0
BLOCK_RECORD
  5
1F
330
1
100
AcDbSymbolTableRecord
100
AcDbBlockTableRecord
  2
*MODEL_SPACE
  0
BLOCK_RECORD
  5
1B
330
1
100
AcDbSymbolTableRecord
100
AcDbBlockTableRecord
  2
*PAPER_SPACE
  0
ENDTAB
  0
ENDSEC
  0
SECTION
  2
BLOCKS
  0
BLOCK
  5
20
330
1F
100
AcDbEntity
  8
0
100
AcDbBlockBegin
  2
*MODEL_SPACE
 70
     0
 10
0.0
 20
0.0
 30
0.0
  3
*MODEL_SPACE
  1

  0
ENDBLK
  5
21
330
1F
100
AcDbEntity
  8
0
100
AcDbBlockEnd
  0
BLOCK
  5
1C
330
1B
100
AcDbEntity
 67
     1
  8
0
100
AcDbBlockBegin
  2
*PAPER_SPACE
 70
     0
 10
0.0
 20
0.0
 30
0.0
  3
*PAPER_SPACE
  1

  0
ENDBLK
  5
1D
330
1B
100
AcDbEntity
 67
     1
  8
0
100
AcDbBlockEnd
  0
ENDSEC
  0
SECTION
  2
ENTITIES
  0
POLYLINE
  5
41
330
1F
100
AcDbEntity
  8
GRAU_10_
 62
     7
100
AcDb2dPolyline
 66
     1
 10
0.0
 20
0.0
 30
0.0
  0
VERTEX
  5
42
330
41
100
AcDbEntity
  8
GRAU_10_
 62
     7
100
AcDbVertex
100
AcDb2dVertex
 10
127.0300236089047
 20
122.8279307689892
 30
0.0
  0
VERTEX
  5
43
330
41
100
AcDbEntity
  8
GRAU_10_
 62
     7
100
AcDbVertex
100
AcDb2dVertex
 10
148.0301791592103
 20
122.8279307689892
 30
0.0
  0
SEQEND
  5
44
330
41
100
AcDbEntity
  8
GRAU_10_
 62
     7
  0
POLYLINE
  5
45
330
1F
100
AcDbEntity
  8
GRAU_10_
 62
     7
100
AcDb2dPolyline
 66
     1
 10
0.0
 20
0.0
 30
0.0
  0
VERTEX
  5
46
330
45
100
AcDbEntity
  8
GRAU_10_
 62
     7
100
AcDbVertex
100
AcDb2dVertex
 10
148.0301791592103
 20
159.4840113153808
 30
0.0
  0
VERTEX
  5
47
330
45
100
AcDbEntity
  8
GRAU_10_
 62
     7
100
AcDbVertex
100
AcDb2dVertex
 10
148.0301791592103
 20
158.2676335379074
 30
0.0
  0
VERTEX
  5
48
330
45
100
AcDbEntity
  8
GRAU_10_
 62
     7
100
AcDbVertex
100
AcDb2dVertex
 10
148.0301791592103
 20
156.8896835382515
 30
0.0
  0
VERTEX
  5
49
330
45
100
AcDbEntity
  8
GRAU_10_
 62
     7
100
AcDbVertex
100
AcDb2dVertex
 10
148.0301791592103
 20
155.3660363164104
 30
0.0
  0
VERTEX
  5
4A
330
45
100
AcDbEntity
  8
GRAU_10_
 62
     7
100
AcDbVertex
100
AcDb2dVertex
 10
148.0301791592103
 20
153.7108029834905
 30
0.0
  0
VERTEX
  5
4B
330
45
100
AcDbEntity
  8
GRAU_10_
 62
     7
100
AcDbVertex
100
AcDb2dVertex
 10
148.0301791592103
 20
151.9419752061553
 30
0.0
  0
VERTEX
  5
4C
330
45
100
AcDbEntity
  8
GRAU_10_
 62
     7
100
AcDbVertex
100
AcDb2dVertex
 10
148.0301791592103
 20
150.0778974288436
 30
0.0
  0
VERTEX
  5
4D
330
45
100
AcDbEntity
  8
GRAU_10_
 62
     7
100
AcDbVertex
100
AcDb2dVertex
 10
148.0301791592103
 20
148.1390307626613
 30
0.0
  0
VERTEX
  5
4E
330
45
100
AcDbEntity
  8
GRAU_10_
 62
     7
100
AcDbVertex
100
AcDb2dVertex
 10
148.0301791592103
 20
146.1437196520494
 30
0.0
  0
VERTEX
  5
4F
330
45
100
AcDbEntity
  8
GRAU_10_
 62
     7
100
AcDbVertex
100
AcDb2dVertex
 10
148.0301791592103
 20
144.1145418747788
 30
0.0
  0
VERTEX
  5
50
330
45
100
AcDbEntity
  8
GRAU_10_
 62
     7
100
AcDbVertex
100
AcDb2dVertex
 10
148.0301791592103
 20
142.0712529864009
 30
0.0
  0
VERTEX
  5
51
330
45
100
AcDbEntity
  8
GRAU_10_
 62
     7
100
AcDbVertex
100
AcDb2dVertex
 10
148.0301791592103
 20
140.0367835424651
 30
0.0
  0
VERTEX
  5
52
330
45
100
AcDbEntity
  8
GRAU_10_
 62
     7
100
AcDbVertex
100
AcDb2dVertex
 10
148.0301791592103
 20
138.0308890985219
 30
0.0
  0
VERTEX
  5
53
330
45
100
AcDbEntity
  8
GRAU_10_
 62
     7
100
AcDbVertex
100
AcDb2dVertex
 10
148.0301791592103
 20
136.0750890990106
 30
0.0
  0
VERTEX
  5
54
330
45
100
AcDbEntity
  8
GRAU_10_
 62
     7
100
AcDbVertex
100
AcDb2dVertex
 10
148.0301791592103
 20
134.18949187726
 30
0.0
  0
VERTEX
  5
55
330
45
100
AcDbEntity
  8
GRAU_10_
 62
     7
100
AcDbVertex
100
AcDb2dVertex
 10
148.0301791592103
 20
132.3945585443755
 30
0.0
  0
VERTEX
  5
56
330
45
100
AcDbEntity
  8
GRAU_10_
 62
     7
100
AcDbVertex
100
AcDb2dVertex
 10
148.0301791592103
 20
130.7079279892413
 30
0.0
  0
VERTEX
  5
57
330
45
100
AcDbEntity
  8
GRAU_10_
 62
     7
100
AcDbVertex
100
AcDb2dVertex
 10
148.0301791592103
 20
129.1482974340759
 30
0.0
  0
VERTEX
  5
58
330
45
100
AcDbEntity
  8
GRAU_10_
 62
     7
100
AcDbVertex
100
AcDb2dVertex
 10
148.0301791592103
 20
127.7308363233191
 30
0.0
  0
VERTEX
  5
59
330
45
100
AcDbEntity
  8
GRAU_10_
 62
     7
100
AcDbVertex
100
AcDb2dVertex
 10
148.0301791592103
 20
126.4717724347448
 30
0.0
  0
VERTEX
  5
5A
330
45
100
AcDbEntity
  8
GRAU_10_
 62
     7
100
AcDbVertex
100
AcDb2dVertex
 10
148.0301791592103
 20
125.3823946572395
 30
0.0
  0
VERTEX
  5
5B
330
45
100
AcDbEntity
  8
GRAU_10_
 62
     7
100
AcDbVertex
100
AcDb2dVertex
 10
148.0301791592103
 20
124.4761085463551
 30
0.0
  0
VERTEX
  5
5C
330
45
100
AcDbEntity
  8
GRAU_10_
 62
     7
100
AcDbVertex
100
AcDb2dVertex
 10
148.0301791592103
 20
123.7603224354228
 30
0.0
  0
VERTEX
  5
5D
330
45
100
AcDbEntity
  8
GRAU_10_
 62
     7
100
AcDbVertex
100
AcDb2dVertex
 10
148.0301791592103
 20
123.2445613244408
 30
0.0
  0
VERTEX
  5
5E
330
45
100
AcDbEntity
  8
GRAU_10_
 62
     7
100
AcDbVertex
100
AcDb2dVertex
 10
148.0301791592103
 20
122.9323529911854
 30
0.0
  0
VERTEX
  5
5F
330
45
100
AcDbEntity
  8
GRAU_10_
 62
     7
100
AcDbVertex
100
AcDb2dVertex
 10
148.0301791592103
 20
122.8279307689892
 30
0.0
  0
SEQEND
  5
60
330
45
100
AcDbEntity
  8
GRAU_10_
 62
     7
  0
POLYLINE
  5
61
330
1F
100
AcDbEntity
  8
GRAU_10_
 62
     7
100
AcDb2dPolyline
 66
     1
 10
0.0
 20
0.0
 30
0.0
  0
VERTEX
  5
62
330
61
100
AcDbEntity
  8
GRAU_10_
 62
     7
100
AcDbVertex
100
AcDb2dVertex
 10
127.0300236089047
 20
122.8279307689892
 30
0.0
  0
VERTEX
  5
63
330
61
100
AcDbEntity
  8
GRAU_10_
 62
     7
100
AcDbVertex
100
AcDb2dVertex
 10
127.0300236089047
 20
122.9323529911854
 30
0.0
  0
VERTEX
  5
64
330
61
100
AcDbEntity
  8
GRAU_10_
 62
     7
100
AcDbVertex
100
AcDb2dVertex
 10
127.0300236089047
 20
123.2445613244408
 30
0.0
  0
VERTEX
  5
65
330
61
100
AcDbEntity
  8
GRAU_10_
 62
     7
100
AcDbVertex
100
AcDb2dVertex
 10
127.0300236089047
 20
123.7603224354228
 30
0.0
  0
VERTEX
  5
66
330
61
100
AcDbEntity
  8
GRAU_10_
 62
     7
100
AcDbVertex
100
AcDb2dVertex
 10
127.0300236089047
 20
124.4761085463551
 30
0.0
  0
VERTEX
  5
67
330
61
100
AcDbEntity
  8
GRAU_10_
 62
     7
100
AcDbVertex
100
AcDb2dVertex
 10
127.0300236089047
 20
125.3823946572395
 30
0.0
  0
VERTEX
  5
68
330
61
100
AcDbEntity
  8
GRAU_10_
 62
     7
100
AcDbVertex
100
AcDb2dVertex
 10
127.0300236089047
 20
126.4717724347448
 30
0.0
  0
VERTEX
  5
69
330
61
100
AcDbEntity
  8
GRAU_10_
 62
     7
100
AcDbVertex
100
AcDb2dVertex
 10
127.0300236089047
 20
127.7308363233191
 30
0.0
  0
VERTEX
  5
6A
330
61
100
AcDbEntity
  8
GRAU_10_
 62
     7
100
AcDbVertex
100
AcDb2dVertex
 10
127.0300236089047
 20
129.1482974340759
 30
0.0
  0
VERTEX
  5
6B
330
61
100
AcDbEntity
  8
GRAU_10_
 62
     7
100
AcDbVertex
100
AcDb2dVertex
 10
127.0300236089047
 20
130.7079279892413
 30
0.0
  0
VERTEX
  5
6C
330
61
100
AcDbEntity
  8
GRAU_10_
 62
     7
100
AcDbVertex
100
AcDb2dVertex
 10
127.0300236089047
 20
132.3945585443755
 30
0.0
  0
VERTEX
  5
6D
330
61
100
AcDbEntity
  8
GRAU_10_
 62
     7
100
AcDbVertex
100
AcDb2dVertex
 10
127.0300236089047
 20
134.18949187726
 30
0.0
  0
VERTEX
  5
6E
330
61
100
AcDbEntity
  8
GRAU_10_
 62
     7
100
AcDbVertex
100
AcDb2dVertex
 10
127.0300236089047
 20
136.0750890990106
 30
0.0
  0
VERTEX
  5
6F
330
61
100
AcDbEntity
  8
GRAU_10_
 62
     7
100
AcDbVertex
100
AcDb2dVertex
 10
127.0300236089047
 20
138.0308890985219
 30
0.0
  0
VERTEX
  5
70
330
61
100
AcDbEntity
  8
GRAU_10_
 62
     7
100
AcDbVertex
100
AcDb2dVertex
 10
127.0300236089047
 20
140.0367835424651
 30
0.0
  0
VERTEX
  5
71
330
61
100
AcDbEntity
  8
GRAU_10_
 62
     7
100
AcDbVertex
100
AcDb2dVertex
 10
127.0300236089047
 20
142.0712529864009
 30
0.0
  0
VERTEX
  5
72
330
61
100
AcDbEntity
  8
GRAU_10_
 62
     7
100
AcDbVertex
100
AcDb2dVertex
 10
127.0300236089047
 20
144.1145418747788
 30
0.0
  0
VERTEX
  5
73
330
61
100
AcDbEntity
  8
GRAU_10_
 62
     7
100
AcDbVertex
100
AcDb2dVertex
 10
127.0300236089047
 20
146.1437196520494
 30
0.0
  0
VERTEX
  5
74
330
61
100
AcDbEntity
  8
GRAU_10_
 62
     7
100
AcDbVertex
100
AcDb2dVertex
 10
127.0300236089047
 20
148.1390307626613
 30
0.0
  0
VERTEX
  5
75
330
61
100
AcDbEntity
  8
GRAU_10_
 62
     7
100
AcDbVertex
100
AcDb2dVertex
 10
127.0300236089047
 20
150.0778974288436
 30
0.0
  0
VERTEX
  5
76
330
61
100
AcDbEntity
  8
GRAU_10_
 62
     7
100
AcDbVertex
100
AcDb2dVertex
 10
127.0300236089047
 20
151.9419752061553
 30
0.0
  0
VERTEX
  5
77
330
61
100
AcDbEntity
  8
GRAU_10_
 62
     7
100
AcDbVertex
100
AcDb2dVertex
 10
127.0300236089047
 20
153.7108029834905
 30
0.0
  0
VERTEX
  5
78
330
61
100
AcDbEntity
  8
GRAU_10_
 62
     7
100
AcDbVertex
100
AcDb2dVertex
 10
127.0300236089047
 20
155.3660363164104
 30
0.0
  0
VERTEX
  5
79
330
61
100
AcDbEntity
  8
GRAU_10_
 62
     7
100
AcDbVertex
100
AcDb2dVertex
 10
127.0300236089047
 20
156.8896835382515
 30
0.0
  0
VERTEX
  5
7A
330
61
100
AcDbEntity
  8
GRAU_10_
 62
     7
100
AcDbVertex
100
AcDb2dVertex
 10
127.0300236089047
 20
158.2676335379074
 30
0.0
  0
VERTEX
  5
7B
330
61
100
AcDbEntity
  8
GRAU_10_
 62
     7
100
AcDbVertex
100
AcDb2dVertex
 10
127.0300236089047
 20
159.4840113153808
 30
0.0
  0
SEQEND
  5
7C
330
61
100
AcDbEntity
  8
GRAU_10_
 62
     7
  0
POLYLINE
  5
7D
330
1F
100
AcDbEntity
  8
GRAU_10_
 62
     7
100
AcDb2dPolyline
 66
     1
 10
0.0
 20
0.0
 30
0.0
  0
VERTEX
  5
7E
330
7D
100
AcDbEntity
  8
GRAU_10_
 62
     7
100
AcDbVertex
100
AcDb2dVertex
 10
148.0301791592103
 20
125.7277641015974
 30
0.0
  0
VERTEX
  5
7F
330
7D
100
AcDbEntity
  8
GRAU_10_
 62
     7
100
AcDbVertex
100
AcDb2dVertex
 10
149.5298374921685
 20
125.7277641015974
 30
0.0
  0
SEQEND
  5
80
330
7D
100
AcDbEntity
  8
GRAU_10_
 62
     7
  0
POLYLINE
  5
81
330
1F
100
AcDbEntity
  8
GRAU_10_
 62
     7
100
AcDb2dPolyline
 66
     1
 10
0.0
 20
0.0
 30
0.0
  0
VERTEX
  5
82
330
81
100
AcDbEntity
  8
GRAU_10_
 62
     7
100
AcDbVertex
100
AcDb2dVertex
 10
149.5298374921685
 20
159.928158537492
 30
0.0
  0
VERTEX
  5
83
330
81
100
AcDbEntity
  8
GRAU_10_
 62
     7
100
AcDbVertex
100
AcDb2dVertex
 10
148.0301791592103
 20
159.928158537492
 30
0.0
  0
SEQEND
  5
84
330
81
100
AcDbEntity
  8
GRAU_10_
 62
     7
  0
POLYLINE
  5
85
330
1F
100
AcDbEntity
  8
GRAU_10_
 62
     7
100
AcDb2dPolyline
 66
     1
 10
0.0
 20
0.0
 30
0.0
  0
VERTEX
  5
86
330
85
100
AcDbEntity
  8
GRAU_10_
 62
     7
100
AcDbVertex
100
AcDb2dVertex
 10
149.5298374921685
 20
125.7277641015974
 30
0.0
  0
VERTEX
  5
87
330
85
100
AcDbEntity
  8
GRAU_10_
 62
     7
100
AcDbVertex
100
AcDb2dVertex
 10
149.5298374921685
 20
125.8357141015706
 30
0.0
  0
VERTEX
  5
88
330
85
100
AcDbEntity
  8
GRAU_10_
 62
     7
100
AcDbVertex
100
AcDb2dVertex
 10
149.5298374921685
 20
126.156741879268
 30
0.0
  0
VERTEX
  5
89
330
85
100
AcDbEntity
  8
GRAU_10_
 62
     7
100
AcDbVertex
100
AcDb2dVertex
 10
149.5298374921685
 20
126.6876724346912
 30
0.0
  0
VERTEX
  5
8A
330
85
100
AcDbEntity
  8
GRAU_10_
 62
     7
100
AcDbVertex
100
AcDb2dVertex
 10
149.5298374921685
 20
127.4210974345078
 30
0.0
  0
VERTEX
  5
8B
330
85
100
AcDbEntity
  8
GRAU_10_
 62
     7
100
AcDbVertex
100
AcDb2dVertex
 10
149.5298374921685
 20
128.3492557676088
 30
0.0
  0
VERTEX
  5
8C
330
85
100
AcDbEntity
  8
GRAU_10_
 62
     7
100
AcDbVertex
100
AcDb2dVertex
 10
149.5298374921685
 20
129.4587418784427
 30
0.0
  0
VERTEX
  5
8D
330
85
100
AcDbEntity
  8
GRAU_10_
 62
     7
100
AcDbVertex
100
AcDb2dVertex
 10
149.5298374921685
 20
130.7361502114564
 30
0.0
  0
VERTEX
  5
8E
330
85
100
AcDbEntity
  8
GRAU_10_
 62
     7
100
AcDbVertex
100
AcDb2dVertex
 10
149.5298374921685
 20
132.1659585444326
 30
0.0
  0
VERTEX
  5
8F
330
85
100
AcDbEntity
  8
GRAU_10_
 62
     7
100
AcDbVertex
100
AcDb2dVertex
 10
149.5298374921685
 20
133.7301752107083
 30
0.0
  0
VERTEX
  5
90
330
85
100
AcDbEntity
  8
GRAU_10_
 62
     7
100
AcDbVertex
100
AcDb2dVertex
 10
149.5298374921685
 20
135.4086918769552
 30
0.0
  0
VERTEX
  5
91
330
85
100
AcDbEntity
  8
GRAU_10_
 62
     7
100
AcDbVertex
100
AcDb2dVertex
 10
149.5298374921685
 20
137.1799890987346
 30
0.0
  0
VERTEX
  5
92
330
85
100
AcDbEntity
  8
GRAU_10_
 62
     7
100
AcDbVertex
100
AcDb2dVertex
 10
149.5298374921685
 20
139.022900209385
 30
0.0
  0
VERTEX
  5
93
330
85
100
AcDbEntity
  8
GRAU_10_
 62
     7
100
AcDbVertex
100
AcDb2dVertex
 10
149.5298374921685
 20
140.9130835422455
 30
0.0
  0
VERTEX
  5
94
330
85
100
AcDbEntity
  8
GRAU_10_
 62
     7
100
AcDbVertex
100
AcDb2dVertex
 10
149.5298374921685
 20
142.8276085417671
 30
0.0
  0
VERTEX
  5
95
330
85
100
AcDbEntity
  8
GRAU_10_
 62
     7
100
AcDbVertex
100
AcDb2dVertex
 10
149.5298374921685
 20
144.7424863190664
 30
0.0
  0
VERTEX
  5
96
330
85
100
AcDbEntity
  8
GRAU_10_
 62
     7
100
AcDbVertex
100
AcDb2dVertex
 10
149.5298374921685
 20
146.6333752074821
 30
0.0
  0
VERTEX
  5
97
330
85
100
AcDbEntity
  8
GRAU_10_
 62
     7
100
AcDbVertex
100
AcDb2dVertex
 10
149.5298374921685
 20
148.4755807625774
 30
0.0
  0
VERTEX
  5
98
330
85
100
AcDbEntity
  8
GRAU_10_
 62
     7
100
AcDbVertex
100
AcDb2dVertex
 10
149.5298374921685
 20
150.2475835399122
 30
0.0
  0
VERTEX
  5
99
330
85
100
AcDbEntity
  8
GRAU_10_
 62
     7
100
AcDbVertex
100
AcDb2dVertex
 10
149.5298374921685
 20
151.9253946506037
 30
0.0
  0
VERTEX
  5
9A
330
85
100
AcDbEntity
  8
GRAU_10_
 62
     7
100
AcDbVertex
100
AcDb2dVertex
 10
149.5298374921685
 20
153.4892585391019
 30
0.0
  0
VERTEX
  5
9B
330
85
100
AcDbEntity
  8
GRAU_10_
 62
     7
100
AcDbVertex
100
AcDb2dVertex
 10
149.5298374921685
 20
154.9197724276329
 30
0.0
  0
VERTEX
  5
9C
330
85
100
AcDbEntity
  8
GRAU_10_
 62
     7
100
AcDbVertex
100
AcDb2dVertex
 10
149.5298374921685
 20
156.197180760647
 30
0.0
  0
VERTEX
  5
9D
330
85
100
AcDbEntity
  8
GRAU_10_
 62
     7
100
AcDbVertex
100
AcDb2dVertex
 10
149.5298374921685
 20
157.3066668714809
 30
0.0
  0
VERTEX
  5
9E
330
85
100
AcDbEntity
  8
GRAU_10_
 62
     7
100
AcDbVertex
100
AcDb2dVertex
 10
149.5298374921685
 20
158.2344724268042
 30
0.0
  0
VERTEX
  5
9F
330
85
100
AcDbEntity
  8
GRAU_10_
 62
     7
100
AcDbVertex
100
AcDb2dVertex
 10
149.5298374921685
 20
158.9686029821763
 30
0.0
  0
VERTEX
  5
A0
330
85
100
AcDbEntity
  8
GRAU_10_
 62
     7
100
AcDbVertex
100
AcDb2dVertex
 10
149.5298374921685
 20
159.4995335375991
 30
0.0
  0
VERTEX
  5
A1
330
85
100
AcDbEntity
  8
GRAU_10_
 62
     7
100
AcDbVertex
100
AcDb2dVertex
 10
149.5298374921685
 20
159.8202085375191
 30
0.0
  0
VERTEX
  5
A2
330
85
100
AcDbEntity
  8
GRAU_10_
 62
     7
100
AcDbVertex
100
AcDb2dVertex
 10
149.5298374921685
 20
159.928158537492
 30
0.0
  0
SEQEND
  5
A3
330
85
100
AcDbEntity
  8
GRAU_10_
 62
     7
  0
POLYLINE
  5
A4
330
1F
100
AcDbEntity
  8
GRAU_10_
 62
     7
100
AcDb2dPolyline
 66
     1
 10
0.0
 20
0.0
 30
0.0
  0
VERTEX
  5
A5
330
A4
100
AcDbEntity
  8
GRAU_10_
 62
     7
100
AcDbVertex
100
AcDb2dVertex
 10
150.4812791585974
 20
128.8777168785877
 30
0.0
  0
VERTEX
  5
A6
330
A4
100
AcDbEntity
  8
GRAU_10_
 62
     7
100
AcDbVertex
100
AcDb2dVertex
 10
151.0298486029048
 20
129.8277474339061
 30
0.0
  0
SEQEND
  5
A7
330
A4
100
AcDbEntity
  8
GRAU_10_
 62
     7
  0
POLYLINE
  5
A8
330
1F
100
AcDbEntity
  8
GRAU_10_
 62
     7
100
AcDb2dPolyline
 66
     1
 10
0.0
 20
0.0
 30
0.0
  0
VERTEX
  5
A9
330
A8
100
AcDbEntity
  8
GRAU_10_
 62
     7
100
AcDbVertex
100
AcDb2dVertex
 10
151.0298486029048
 20
155.8278224274058
 30
0.0
  0
VERTEX
  5
AA
330
A8
100
AcDbEntity
  8
GRAU_10_
 62
     7
100
AcDbVertex
100
AcDb2dVertex
 10
150.4812791585974
 20
156.7778529827243
 30
0.0
  0
SEQEND
  5
AB
330
A8
100
AcDbEntity
  8
GRAU_10_
 62
     7
  0
POLYLINE
  5
AC
330
1F
100
AcDbEntity
  8
GRAU_10_
 62
     7
100
AcDb2dPolyline
 66
     1
 10
0.0
 20
0.0
 30
0.0
  0
VERTEX
  5
AD
330
AC
100
AcDbEntity
  8
GRAU_10_
 62
     7
100
AcDbVertex
100
AcDb2dVertex
 10
151.0298486029048
 20
129.8277474339061
 30
0.0
  0
VERTEX
  5
AE
330
AC
100
AcDbEntity
  8
GRAU_10_
 62
     7
100
AcDbVertex
100
AcDb2dVertex
 10
151.0298486029048
 20
129.9392252116557
 30
0.0
  0
VERTEX
  5
AF
330
AC
100
AcDbEntity
  8
GRAU_10_
 62
     7
100
AcDbVertex
100
AcDb2dVertex
 10
151.0298486029048
 20
130.2711891004618
 30
0.0
  0
VERTEX
  5
B0
330
AC
100
AcDbEntity
  8
GRAU_10_
 62
     7
100
AcDbVertex
100
AcDb2dVertex
 10
151.0298486029048
 20
130.817641878103
 30
0.0
  0
VERTEX
  5
B1
330
AC
100
AcDbEntity
  8
GRAU_10_
 62
     7
100
AcDbVertex
100
AcDb2dVertex
 10
151.0298486029048
 20
131.5694113223596
 30
0.0
  0
VERTEX
  5
B2
330
AC
100
AcDbEntity
  8
GRAU_10_
 62
     7
100
AcDbVertex
100
AcDb2dVertex
 10
151.0298486029048
 20
132.5141502110122
 30
0.0
  0
VERTEX
  5
B3
330
AC
100
AcDbEntity
  8
GRAU_10_
 62
     7
100
AcDbVertex
100
AcDb2dVertex
 10
151.0298486029048
 20
133.6352779885097
 30
0.0
  0
VERTEX
  5
B4
330
AC
100
AcDbEntity
  8
GRAU_10_
 62
     7
100
AcDbVertex
100
AcDb2dVertex
 10
151.0298486029048
 20
134.9137446548567
 30
0.0
  0
VERTEX
  5
B5
330
AC
100
AcDbEntity
  8
GRAU_10_
 62
     7
100
AcDbVertex
100
AcDb2dVertex
 10
151.0298486029048
 20
136.3280307656142
 30
0.0
  0
VERTEX
  5
B6
330
AC
100
AcDbEntity
  8
GRAU_10_
 62
     7
100
AcDbVertex
100
AcDb2dVertex
 10
151.0298486029048
 20
137.8527363207886
 30
0.0
  0
VERTEX
  5
B7
330
AC
100
AcDbEntity
  8
GRAU_10_
 62
     7
100
AcDbVertex
100
AcDb2dVertex
 10
151.0298486029048
 20
139.4635196537195
 30
0.0
  0
VERTEX
  5
B8
330
AC
100
AcDbEntity
  8
GRAU_10_
 62
     7
100
AcDbVertex
100
AcDb2dVertex
 10
151.0298486029048
 20
141.1314529866356
 30
0.0
  0
VERTEX
  5
B9
330
AC
100
AcDbEntity
  8
GRAU_10_
 62
     7
100
AcDbVertex
100
AcDb2dVertex
 10
151.0298486029048
 20
142.8276085417671
 30
0.0
  0
VERTEX
  5
BA
330
AC
100
AcDbEntity
  8
GRAU_10_
 62
     7
100
AcDbVertex
100
AcDb2dVertex
 10
151.0298486029048
 20
144.5248224302319
 30
0.0
  0
VERTEX
  5
BB
330
AC
100
AcDbEntity
  8
GRAU_10_
 62
     7
100
AcDbVertex
100
AcDb2dVertex
 10
151.0298486029048
 20
146.1924029853702
 30
0.0
  0
VERTEX
  5
BC
330
AC
100
AcDbEntity
  8
GRAU_10_
 62
     7
100
AcDbVertex
100
AcDb2dVertex
 10
151.0298486029048
 20
147.8024807627455
 30
0.0
  0
VERTEX
  5
BD
330
AC
100
AcDbEntity
  8
GRAU_10_
 62
     7
100
AcDbVertex
100
AcDb2dVertex
 10
151.0298486029048
 20
149.3282446512532
 30
0.0
  0
VERTEX
  5
BE
330
AC
100
AcDbEntity
  8
GRAU_10_
 62
     7
100
AcDbVertex
100
AcDb2dVertex
 10
151.0298486029048
 20
150.742177984233
 30
0.0
  0
VERTEX
  5
BF
330
AC
100
AcDbEntity
  8
GRAU_10_
 62
     7
100
AcDbVertex
100
AcDb2dVertex
 10
151.0298486029048
 20
152.0202918728023
 30
0.0
  0
VERTEX
  5
C0
330
AC
100
AcDbEntity
  8
GRAU_10_
 62
     7
100
AcDbVertex
100
AcDb2dVertex
 10
151.0298486029048
 20
153.1414196502997
 30
0.0
  0
VERTEX
  5
C1
330
AC
100
AcDbEntity
  8
GRAU_10_
 62
     7
100
AcDbVertex
100
AcDb2dVertex
 10
151.0298486029048
 20
154.0861585389524
 30
0.0
  0
VERTEX
  5
C2
330
AC
100
AcDbEntity
  8
GRAU_10_
 62
     7
100
AcDbVertex
100
AcDb2dVertex
 10
151.0298486029048
 20
154.8386335387642
 30
0.0
  0
VERTEX
  5
C3
330
AC
100
AcDbEntity
  8
GRAU_10_
 62
     7
100
AcDbVertex
100
AcDb2dVertex
 10
151.0298486029048
 20
155.3847335386279
 30
0.0
  0
VERTEX
  5
C4
330
AC
100
AcDbEntity
  8
GRAU_10_
 62
     7
100
AcDbVertex
100
AcDb2dVertex
 10
151.0298486029048
 20
155.7170502052115
 30
0.0
  0
VERTEX
  5
C5
330
AC
100
AcDbEntity
  8
GRAU_10_
 62
     7
100
AcDbVertex
100
AcDb2dVertex
 10
151.0298486029048
 20
155.8278224274058
 30
0.0
  0
SEQEND
  5
C6
330
AC
100
AcDbEntity
  8
GRAU_10_
 62
     7
  0
POLYLINE
  5
C7
330
1F
100
AcDbEntity
  8
GRAU_10_
 62
     7
100
AcDb2dPolyline
 66
     1
 10
0.0
 20
0.0
 30
0.0
  0
VERTEX
  5
C8
330
C7
100
AcDbEntity
  8
GRAU_10_
 62
     7
100
AcDbVertex
100
AcDb2dVertex
 10
150.4812791585974
 20
128.8777168785877
 30
0.0
  0
VERTEX
  5
C9
330
C7
100
AcDbEntity
  8
GRAU_10_
 62
     7
100
AcDbVertex
100
AcDb2dVertex
 10
150.4812791585974
 20
128.9793168785625
 30
0.0
  0
VERTEX
  5
CA
330
C7
100
AcDbEntity
  8
GRAU_10_
 62
     7
100
AcDbVertex
100
AcDb2dVertex
 10
150.4812791585974
 20
129.2830585451535
 30
0.0
  0
VERTEX
  5
CB
330
C7
100
AcDbEntity
  8
GRAU_10_
 62
     7
100
AcDbVertex
100
AcDb2dVertex
 10
150.4812791585974
 20
129.7847085450279
 30
0.0
  0
VERTEX
  5
CC
330
C7
100
AcDbEntity
  8
GRAU_10_
 62
     7
100
AcDbVertex
100
AcDb2dVertex
 10
150.4812791585974
 20
130.4761529892995
 30
0.0
  0
VERTEX
  5
CD
330
C7
100
AcDbEntity
  8
GRAU_10_
 62
     7
100
AcDbVertex
100
AcDb2dVertex
 10
150.4812791585974
 20
131.3471613224148
 30
0.0
  0
VERTEX
  5
CE
330
C7
100
AcDbEntity
  8
GRAU_10_
 62
     7
100
AcDbVertex
100
AcDb2dVertex
 10
150.4812791585974
 20
132.3864446554886
 30
0.0
  0
VERTEX
  5
CF
330
C7
100
AcDbEntity
  8
GRAU_10_
 62
     7
100
AcDbVertex
100
AcDb2dVertex
 10
150.4812791585974
 20
133.5770696551909
 30
0.0
  0
VERTEX
  5
D0
330
C7
100
AcDbEntity
  8
GRAU_10_
 62
     7
100
AcDbVertex
100
AcDb2dVertex
 10
150.4812791585974
 20
134.9035140993035
 30
0.0
  0
VERTEX
  5
D1
330
C7
100
AcDbEntity
  8
GRAU_10_
 62
     7
100
AcDbVertex
100
AcDb2dVertex
 10
150.4812791585974
 20
136.3449640989436
 30
0.0
  0
VERTEX
  5
D2
330
C7
100
AcDbEntity
  8
GRAU_10_
 62
     7
100
AcDbVertex
100
AcDb2dVertex
 10
150.4812791585974
 20
137.8813113207815
 30
0.0
  0
VERTEX
  5
D3
330
C7
100
AcDbEntity
  8
GRAU_10_
 62
     7
100
AcDbVertex
100
AcDb2dVertex
 10
150.4812791585974
 20
139.4896252092681
 30
0.0
  0
VERTEX
  5
D4
330
C7
100
AcDbEntity
  8
GRAU_10_
 62
     7
100
AcDbVertex
100
AcDb2dVertex
 10
150.4812791585974
 20
141.1466224310761
 30
0.0
  0
VERTEX
  5
D5
330
C7
100
AcDbEntity
  8
GRAU_10_
 62
     7
100
AcDbVertex
100
AcDb2dVertex
 10
150.4812791585974
 20
142.8276085417671
 30
0.0
  0
VERTEX
  5
D6
330
C7
100
AcDbEntity
  8
GRAU_10_
 62
     7
100
AcDbVertex
100
AcDb2dVertex
 10
150.4812791585974
 20
144.509652985791
 30
0.0
  0
VERTEX
  5
D7
330
C7
100
AcDbEntity
  8
GRAU_10_
 62
     7
100
AcDbVertex
100
AcDb2dVertex
 10
150.4812791585974
 20
146.166650207599
 30
0.0
  0
VERTEX
  5
D8
330
C7
100
AcDbEntity
  8
GRAU_10_
 62
     7
100
AcDbVertex
100
AcDb2dVertex
 10
150.4812791585974
 20
147.7746113183082
 30
0.0
  0
VERTEX
  5
D9
330
C7
100
AcDbEntity
  8
GRAU_10_
 62
     7
100
AcDbVertex
100
AcDb2dVertex
 10
150.4812791585974
 20
149.3109585401461
 30
0.0
  0
VERTEX
  5
DA
330
C7
100
AcDbEntity
  8
GRAU_10_
 62
     7
100
AcDbVertex
100
AcDb2dVertex
 10
150.4812791585974
 20
150.7527613175636
 30
0.0
  0
VERTEX
  5
DB
330
C7
100
AcDbEntity
  8
GRAU_10_
 62
     7
100
AcDbVertex
100
AcDb2dVertex
 10
150.4812791585974
 20
152.0781474283436
 30
0.0
  0
VERTEX
  5
DC
330
C7
100
AcDbEntity
  8
GRAU_10_
 62
     7
100
AcDbVertex
100
AcDb2dVertex
 10
150.4812791585974
 20
153.2698307613786
 30
0.0
  0
VERTEX
  5
DD
330
C7
100
AcDbEntity
  8
GRAU_10_
 62
     7
100
AcDbVertex
100
AcDb2dVertex
 10
150.4812791585974
 20
154.3084085388972
 30
0.0
  0
VERTEX
  5
DE
330
C7
100
AcDbEntity
  8
GRAU_10_
 62
     7
100
AcDbVertex
100
AcDb2dVertex
 10
150.4812791585974
 20
155.1797696497902
 30
0.0
  0
VERTEX
  5
DF
330
C7
100
AcDbEntity
  8
GRAU_10_
 62
     7
100
AcDbVertex
100
AcDb2dVertex
 10
150.4812791585974
 20
155.8715668718392
 30
0.0
  0
VERTEX
  5
E0
330
C7
100
AcDbEntity
  8
GRAU_10_
 62
     7
100
AcDbVertex
100
AcDb2dVertex
 10
150.4812791585974
 20
156.3725113161585
 30
0.0
  0
VERTEX
  5
E1
330
C7
100
AcDbEntity
  8
GRAU_10_
 62
     7
100
AcDbVertex
100
AcDb2dVertex
 10
150.4812791585974
 20
156.6759002049717
 30
0.0
  0
VERTEX
  5
E2
330
C7
100
AcDbEntity
  8
GRAU_10_
 62
     7
100
AcDbVertex
100
AcDb2dVertex
 10
150.4812791585974
 20
156.7778529827243
 30
0.0
  0
VERTEX
  5
E3
330
C7
100
AcDbEntity
  8
GRAU_10_
 62
     7
100
AcDbVertex
100
AcDb2dVertex
 10
149.5298374921685
 20
156.7778529827243
 30
0.0
  0
SEQEND
  5
E4
330
C7
100
AcDbEntity
  8
GRAU_10_
 62
     7
  0
POLYLINE
  5
E5
330
1F
100
AcDbEntity
  8
GRAU_10_
 62
     7
100
AcDb2dPolyline
 66
     1
 10
0.0
 20
0.0
 30
0.0
  0
VERTEX
  5
E6
330
E5
100
AcDbEntity
  8
GRAU_10_
 62
     7
100
AcDbVertex
100
AcDb2dVertex
 10
149.5298374921685
 20
128.8777168785877
 30
0.0
  0
VERTEX
  5
E7
330
E5
100
AcDbEntity
  8
GRAU_10_
 62
     7
100
AcDbVertex
100
AcDb2dVertex
 10
150.4812791585974
 20
128.8777168785877
 30
0.0
  0
SEQEND
  5
E8
330
E5
100
AcDbEntity
  8
GRAU_10_
 62
     7
  0
POLYLINE
  5
E9
330
1F
100
AcDbEntity
  8
GRAU_10_
 62
     7
100
AcDb2dPolyline
 66
     1
 10
0.0
 20
0.0
 30
0.0
  0
VERTEX
  5
EA
330
E9
100
AcDbEntity
  8
GRAU_10_
 62
     7
100
AcDbVertex
100
AcDb2dVertex
 10
127.0300236089047
 20
129.1779307674017
 30
0.0
  0
VERTEX
  5
EB
330
E9
100
AcDbEntity
  8
GRAU_10_
 62
     7
100
AcDbVertex
100
AcDb2dVertex
 10
127.14679305332
 20
129.8524418783443
 30
0.0
  0
SEQEND
  5
EC
330
E9
100
AcDbEntity
  8
GRAU_10_
 62
     7
  0
POLYLINE
  5
ED
330
1F
100
AcDbEntity
  8
GRAU_10_
 62
     7
100
AcDb2dPolyline
 66
     1
 10
0.0
 20
0.0
 30
0.0
  0
VERTEX
  5
EE
330
ED
100
AcDbEntity
  8
GRAU_10_
 62
     7
100
AcDbVertex
100
AcDb2dVertex
 10
128.0033374975503
 20
130.8941946558615
 30
0.0
  0
VERTEX
  5
EF
330
ED
100
AcDbEntity
  8
GRAU_10_
 62
     7
100
AcDbVertex
100
AcDb2dVertex
 10
128.6418652751683
 20
131.1397279891334
 30
0.0
  0
SEQEND
  5
F0
330
ED
100
AcDbEntity
  8
GRAU_10_
 62
     7
  0
POLYLINE
  5
F1
330
1F
100
AcDbEntity
  8
GRAU_10_
 62
     7
100
AcDb2dPolyline
 66
     1
 10
0.0
 20
0.0
 30
0.0
  0
VERTEX
  5
F2
330
F1
100
AcDbEntity
  8
GRAU_10_
 62
     7
100
AcDbVertex
100
AcDb2dVertex
 10
128.6418652751683
 20
154.5161946499563
 30
0.0
  0
VERTEX
  5
F3
330
F1
100
AcDbEntity
  8
GRAU_10_
 62
     7
100
AcDbVertex
100
AcDb2dVertex
 10
128.0033374975503
 20
154.7613752054505
 30
0.0
  0
SEQEND
  5
F4
330
F1
100
AcDbEntity
  8
GRAU_10_
 62
     7
  0
POLYLINE
  5
F5
330
1F
100
AcDbEntity
  8
GRAU_10_
 62
     7
100
AcDb2dPolyline
 66
     1
 10
0.0
 20
0.0
 30
0.0
  0
VERTEX
  5
F6
330
F5
100
AcDbEntity
  8
GRAU_10_
 62
     7
100
AcDbVertex
100
AcDb2dVertex
 10
127.14679305332
 20
155.8038335385232
 30
0.0
  0
VERTEX
  5
F7
330
F5
100
AcDbEntity
  8
GRAU_10_
 62
     7
100
AcDbVertex
100
AcDb2dVertex
 10
127.0300236089047
 20
156.4776390939102
 30
0.0
  0
SEQEND
  5
F8
330
F5
100
AcDbEntity
  8
GRAU_10_
 62
     7
  0
POLYLINE
  5
F9
330
1F
100
AcDbEntity
  8
GRAU_10_
 62
     7
100
AcDb2dPolyline
 66
     1
 10
0.0
 20
0.0
 30
0.0
  0
VERTEX
  5
FA
330
F9
100
AcDbEntity
  8
GRAU_10_
 62
     7
100
AcDbVertex
100
AcDb2dVertex
 10
128.6418652751683
 20
131.1397279891334
 30
0.0
  0
VERTEX
  5
FB
330
F9
100
AcDbEntity
  8
GRAU_10_
 62
     7
100
AcDbVertex
100
AcDb2dVertex
 10
128.6418652751683
 20
131.2487363224399
 30
0.0
  0
VERTEX
  5
FC
330
F9
100
AcDbEntity
  8
GRAU_10_
 62
     7
100
AcDbVertex
100
AcDb2dVertex
 10
128.6418652751683
 20
131.5736446556917
 30
0.0
  0
VERTEX
  5
FD
330
F9
100
AcDbEntity
  8
GRAU_10_
 62
     7
100
AcDbVertex
100
AcDb2dVertex
 10
128.6418652751683
 20
131.6269141001228
 30
0.0
  0
SEQEND
  5
FE
330
F9
100
AcDbEntity
  8
GRAU_10_
 62
     7
  0
POLYLINE
  5
FF
330
1F
100
AcDbEntity
  8
GRAU_10_
 62
     7
100
AcDb2dPolyline
 66
     1
 10
0.0
 20
0.0
 30
0.0
  0
VERTEX
  5
100
330
FF
100
AcDbEntity
  8
GRAU_10_
 62
     7
100
AcDbVertex
100
AcDb2dVertex
 10
128.6418652751683
 20
132.6012863221013
 30
0.0
  0
VERTEX
  5
101
330
FF
100
AcDbEntity
  8
GRAU_10_
 62
     7
100
AcDbVertex
100
AcDb2dVertex
 10
128.6418652751683
 20
132.8411752109304
 30
0.0
  0
VERTEX
  5
102
330
FF
100
AcDbEntity
  8
GRAU_10_
 62
     7
100
AcDbVertex
100
AcDb2dVertex
 10
128.6418652751683
 20
133.5749529885247
 30
0.0
  0
SEQEND
  5
103
330
FF
100
AcDbEntity
  8
GRAU_10_
 62
     7
  0
POLYLINE
  5
104
330
1F
100
AcDbEntity
  8
GRAU_10_
 62
     7
100
AcDb2dPolyline
 66
     1
 10
0.0
 20
0.0
 30
0.0
  0
VERTEX
  5
105
330
104
100
AcDbEntity
  8
GRAU_10_
 62
     7
100
AcDbVertex
100
AcDb2dVertex
 10
128.6418652751683
 20
134.5489724327258
 30
0.0
  0
VERTEX
  5
106
330
104
100
AcDbEntity
  8
GRAU_10_
 62
     7
100
AcDbVertex
100
AcDb2dVertex
 10
128.6418652751683
 20
134.8502446548725
 30
0.0
  0
VERTEX
  5
107
330
104
100
AcDbEntity
  8
GRAU_10_
 62
     7
100
AcDbVertex
100
AcDb2dVertex
 10
128.6418652751683
 20
135.5226390991491
 30
0.0
  0
SEQEND
  5
108
330
104
100
AcDbEntity
  8
GRAU_10_
 62
     7
  0
POLYLINE
  5
109
330
1F
100
AcDbEntity
  8
GRAU_10_
 62
     7
100
AcDb2dPolyline
 66
     1
 10
0.0
 20
0.0
 30
0.0
  0
VERTEX
  5
10A
330
109
100
AcDbEntity
  8
GRAU_10_
 62
     7
100
AcDbVertex
100
AcDb2dVertex
 10
128.6418652751683
 20
136.4966585433499
 30
0.0
  0
VERTEX
  5
10B
330
109
100
AcDbEntity
  8
GRAU_10_
 62
     7
100
AcDbVertex
100
AcDb2dVertex
 10
128.6418652751683
 20
137.4509224320002
 30
0.0
  0
VERTEX
  5
10C
330
109
100
AcDbEntity
  8
GRAU_10_
 62
     7
100
AcDbVertex
100
AcDb2dVertex
 10
128.6418652751683
 20
137.4710307653284
 30
0.0
  0
SEQEND
  5
10D
330
109
100
AcDbEntity
  8
GRAU_10_
 62
     7
  0
POLYLINE
  5
10E
330
1F
100
AcDbEntity
  8
GRAU_10_
 62
     7
100
AcDb2dPolyline
 66
     1
 10
0.0
 20
0.0
 30
0.0
  0
VERTEX
  5
10F
330
10E
100
AcDbEntity
  8
GRAU_10_
 62
     7
100
AcDbVertex
100
AcDb2dVertex
 10
128.6418652751683
 20
138.4446974317517
 30
0.0
  0
VERTEX
  5
110
330
10E
100
AcDbEntity
  8
GRAU_10_
 62
     7
100
AcDbVertex
100
AcDb2dVertex
 10
128.6418652751683
 20
138.9138918760788
 30
0.0
  0
VERTEX
  5
111
330
10E
100
AcDbEntity
  8
GRAU_10_
 62
     7
100
AcDbVertex
100
AcDb2dVertex
 10
128.6418652751683
 20
139.4187168759528
 30
0.0
  0
SEQEND
  5
112
330
10E
100
AcDbEntity
  8
GRAU_10_
 62
     7
  0
POLYLINE
  5
113
330
1F
100
AcDbEntity
  8
GRAU_10_
 62
     7
100
AcDb2dPolyline
 66
     1
 10
0.0
 20
0.0
 30
0.0
  0
VERTEX
  5
114
330
113
100
AcDbEntity
  8
GRAU_10_
 62
     7
100
AcDbVertex
100
AcDb2dVertex
 10
128.6418652751683
 20
140.3930890979313
 30
0.0
  0
VERTEX
  5
115
330
113
100
AcDbEntity
  8
GRAU_10_
 62
     7
100
AcDbVertex
100
AcDb2dVertex
 10
128.6418652751683
 20
140.4498863201394
 30
0.0
  0
VERTEX
  5
116
330
113
100
AcDbEntity
  8
GRAU_10_
 62
     7
100
AcDbVertex
100
AcDb2dVertex
 10
128.6418652751683
 20
141.3671085421321
 30
0.0
  0
SEQEND
  5
117
330
113
100
AcDbEntity
  8
GRAU_10_
 62
     7
  0
POLYLINE
  5
118
330
1F
100
AcDbEntity
  8
GRAU_10_
 62
     7
100
AcDb2dPolyline
 66
     1
 10
0.0
 20
0.0
 30
0.0
  0
VERTEX
  5
119
330
118
100
AcDbEntity
  8
GRAU_10_
 62
     7
100
AcDbVertex
100
AcDb2dVertex
 10
128.6418652751683
 20
142.3407752085554
 30
0.0
  0
VERTEX
  5
11A
330
118
100
AcDbEntity
  8
GRAU_10_
 62
     7
100
AcDbVertex
100
AcDb2dVertex
 10
128.6418652751683
 20
143.3151474305343
 30
0.0
  0
SEQEND
  5
11B
330
118
100
AcDbEntity
  8
GRAU_10_
 62
     7
  0
POLYLINE
  5
11C
330
1F
100
AcDbEntity
  8
GRAU_10_
 62
     7
100
AcDb2dPolyline
 66
     1
 10
0.0
 20
0.0
 30
0.0
  0
VERTEX
  5
11D
330
11C
100
AcDbEntity
  8
GRAU_10_
 62
     7
100
AcDbVertex
100
AcDb2dVertex
 10
128.6418652751683
 20
144.289166874735
 30
0.0
  0
VERTEX
  5
11E
330
11C
100
AcDbEntity
  8
GRAU_10_
 62
     7
100
AcDbVertex
100
AcDb2dVertex
 10
128.6418652751683
 20
145.2056835411726
 30
0.0
  0
VERTEX
  5
11F
330
11C
100
AcDbEntity
  8
GRAU_10_
 62
     7
100
AcDbVertex
100
AcDb2dVertex
 10
128.6418652751683
 20
145.2628335411584
 30
0.0
  0
SEQEND
  5
120
330
11C
100
AcDbEntity
  8
GRAU_10_
 62
     7
  0
POLYLINE
  5
121
330
1F
100
AcDbEntity
  8
GRAU_10_
 62
     7
100
AcDb2dPolyline
 66
     1
 10
0.0
 20
0.0
 30
0.0
  0
VERTEX
  5
122
330
121
100
AcDbEntity
  8
GRAU_10_
 62
     7
100
AcDbVertex
100
AcDb2dVertex
 10
128.6418652751683
 20
146.2368529853591
 30
0.0
  0
VERTEX
  5
123
330
121
100
AcDbEntity
  8
GRAU_10_
 62
     7
100
AcDbVertex
100
AcDb2dVertex
 10
128.6418652751683
 20
146.7416779852331
 30
0.0
  0
VERTEX
  5
124
330
121
100
AcDbEntity
  8
GRAU_10_
 62
     7
100
AcDbVertex
100
AcDb2dVertex
 10
128.6418652751683
 20
147.211225207338
 30
0.0
  0
SEQEND
  5
125
330
121
100
AcDbEntity
  8
GRAU_10_
 62
     7
  0
POLYLINE
  5
126
330
1F
100
AcDbEntity
  8
GRAU_10_
 62
     7
100
AcDb2dPolyline
 66
     1
 10
0.0
 20
0.0
 30
0.0
  0
VERTEX
  5
127
330
126
100
AcDbEntity
  8
GRAU_10_
 62
     7
100
AcDbVertex
100
AcDb2dVertex
 10
128.6418652751683
 20
148.1852446515391
 30
0.0
  0
VERTEX
  5
128
330
126
100
AcDbEntity
  8
GRAU_10_
 62
     7
100
AcDbVertex
100
AcDb2dVertex
 10
128.6418652751683
 20
148.205352984867
 30
0.0
  0
VERTEX
  5
129
330
126
100
AcDbEntity
  8
GRAU_10_
 62
     7
100
AcDbVertex
100
AcDb2dVertex
 10
128.6418652751683
 20
149.1589113179621
 30
0.0
  0
SEQEND
  5
12A
330
126
100
AcDbEntity
  8
GRAU_10_
 62
     7
  0
POLYLINE
  5
12B
330
1F
100
AcDbEntity
  8
GRAU_10_
 62
     7
100
AcDb2dPolyline
 66
     1
 10
0.0
 20
0.0
 30
0.0
  0
VERTEX
  5
12C
330
12B
100
AcDbEntity
  8
GRAU_10_
 62
     7
100
AcDbVertex
100
AcDb2dVertex
 10
128.6418652751683
 20
150.1325779843851
 30
0.0
  0
VERTEX
  5
12D
330
12B
100
AcDbEntity
  8
GRAU_10_
 62
     7
100
AcDbVertex
100
AcDb2dVertex
 10
128.6418652751683
 20
150.8056779842173
 30
0.0
  0
VERTEX
  5
12E
330
12B
100
AcDbEntity
  8
GRAU_10_
 62
     7
100
AcDbVertex
100
AcDb2dVertex
 10
128.6418652751683
 20
151.1069502063639
 30
0.0
  0
SEQEND
  5
12F
330
12B
100
AcDbEntity
  8
GRAU_10_
 62
     7
  0
POLYLINE
  5
130
330
1F
100
AcDbEntity
  8
GRAU_10_
 62
     7
100
AcDb2dPolyline
 66
     1
 10
0.0
 20
0.0
 30
0.0
  0
VERTEX
  5
131
330
130
100
AcDbEntity
  8
GRAU_10_
 62
     7
100
AcDbVertex
100
AcDb2dVertex
 10
128.6418652751683
 20
152.080969650565
 30
0.0
  0
VERTEX
  5
132
330
130
100
AcDbEntity
  8
GRAU_10_
 62
     7
100
AcDbVertex
100
AcDb2dVertex
 10
128.6418652751683
 20
152.8140418726038
 30
0.0
  0
VERTEX
  5
133
330
130
100
AcDbEntity
  8
GRAU_10_
 62
     7
100
AcDbVertex
100
AcDb2dVertex
 10
128.6418652751683
 20
153.0546363169884
 30
0.0
  0
SEQEND
  5
134
330
130
100
AcDbEntity
  8
GRAU_10_
 62
     7
  0
POLYLINE
  5
135
330
1F
100
AcDbEntity
  8
GRAU_10_
 62
     7
100
AcDb2dPolyline
 66
     1
 10
0.0
 20
0.0
 30
0.0
  0
VERTEX
  5
136
330
135
100
AcDbEntity
  8
GRAU_10_
 62
     7
100
AcDbVertex
100
AcDb2dVertex
 10
128.6418652751683
 20
154.0286557611891
 30
0.0
  0
VERTEX
  5
137
330
135
100
AcDbEntity
  8
GRAU_10_
 62
     7
100
AcDbVertex
100
AcDb2dVertex
 10
128.6418652751683
 20
154.0822779833979
 30
0.0
  0
VERTEX
  5
138
330
135
100
AcDbEntity
  8
GRAU_10_
 62
     7
100
AcDbVertex
100
AcDb2dVertex
 10
128.6418652751683
 20
154.4068335388721
 30
0.0
  0
VERTEX
  5
139
330
135
100
AcDbEntity
  8
GRAU_10_
 62
     7
100
AcDbVertex
100
AcDb2dVertex
 10
128.6418652751683
 20
154.5161946499563
 30
0.0
  0
SEQEND
  5
13A
330
135
100
AcDbEntity
  8
GRAU_10_
 62
     7
  0
POLYLINE
  5
13B
330
1F
100
AcDbEntity
  8
GRAU_10_
 62
     7
100
AcDb2dPolyline
 66
     1
 10
0.0
 20
0.0
 30
0.0
  0
VERTEX
  5
13C
330
13B
100
AcDbEntity
  8
GRAU_10_
 62
     7
100
AcDbVertex
100
AcDb2dVertex
 10
138.7799930504116
 20
130.0782196560654
 30
0.0
  0
VERTEX
  5
13D
330
13B
100
AcDbEntity
  8
GRAU_10_
 62
     7
100
AcDbVertex
100
AcDb2dVertex
 10
139.0802069392253
 20
130.1583002116012
 30
0.0
  0
SEQEND
  5
13E
330
13B
100
AcDbEntity
  8
GRAU_10_
 62
     7
  0
POLYLINE
  5
13F
330
1F
100
AcDbEntity
  8
GRAU_10_
 62
     7
100
AcDb2dPolyline
 66
     1
 10
0.0
 20
0.0
 30
0.0
  0
VERTEX
  5
140
330
13F
100
AcDbEntity
  8
GRAU_10_
 62
     7
100
AcDbVertex
100
AcDb2dVertex
 10
139.4993069391206
 20
130.5781057670517
 30
0.0
  0
VERTEX
  5
141
330
13F
100
AcDbEntity
  8
GRAU_10_
 62
     7
100
AcDbVertex
100
AcDb2dVertex
 10
139.5797402724338
 20
130.8776141003102
 30
0.0
  0
SEQEND
  5
142
330
13F
100
AcDbEntity
  8
GRAU_10_
 62
     7
  0
POLYLINE
  5
143
330
1F
100
AcDbEntity
  8
GRAU_10_
 62
     7
100
AcDb2dPolyline
 66
     1
 10
0.0
 20
0.0
 30
0.0
  0
VERTEX
  5
144
330
143
100
AcDbEntity
  8
GRAU_10_
 62
     7
100
AcDbVertex
100
AcDb2dVertex
 10
139.5797402724338
 20
154.7776029832243
 30
0.0
  0
VERTEX
  5
145
330
143
100
AcDbEntity
  8
GRAU_10_
 62
     7
100
AcDbVertex
100
AcDb2dVertex
 10
139.4993069391206
 20
155.0778168720377
 30
0.0
  0
SEQEND
  5
146
330
143
100
AcDbEntity
  8
GRAU_10_
 62
     7
  0
POLYLINE
  5
147
330
1F
100
AcDbEntity
  8
GRAU_10_
 62
     7
100
AcDb2dPolyline
 66
     1
 10
0.0
 20
0.0
 30
0.0
  0
VERTEX
  5
148
330
147
100
AcDbEntity
  8
GRAU_10_
 62
     7
100
AcDbVertex
100
AcDb2dVertex
 10
139.0802069392253
 20
155.4972696497107
 30
0.0
  0
VERTEX
  5
149
330
147
100
AcDbEntity
  8
GRAU_10_
 62
     7
100
AcDbVertex
100
AcDb2dVertex
 10
138.7799930504116
 20
155.5780557608017
 30
0.0
  0
SEQEND
  5
14A
330
147
100
AcDbEntity
  8
GRAU_10_
 62
     7
  0
POLYLINE
  5
14B
330
1F
100
AcDbEntity
  8
GRAU_10_
 62
     7
100
AcDb2dPolyline
 66
     1
 10
0.0
 20
0.0
 30
0.0
  0
VERTEX
  5
14C
330
14B
100
AcDbEntity
  8
GRAU_10_
 62
     7
100
AcDbVertex
100
AcDb2dVertex
 10
139.5797402724338
 20
130.8776141003102
 30
0.0
  0
VERTEX
  5
14D
330
14B
100
AcDbEntity
  8
GRAU_10_
 62
     7
100
AcDbVertex
100
AcDb2dVertex
 10
139.5797402724338
 20
130.980272433618
 30
0.0
  0
VERTEX
  5
14E
330
14B
100
AcDbEntity
  8
GRAU_10_
 62
     7
100
AcDbVertex
100
AcDb2dVertex
 10
139.5797402724338
 20
131.2854252113194
 30
0.0
  0
VERTEX
  5
14F
330
14B
100
AcDbEntity
  8
GRAU_10_
 62
     7
100
AcDbVertex
100
AcDb2dVertex
 10
139.5797402724338
 20
131.3757363224077
 30
0.0
  0
SEQEND
  5
150
330
14B
100
AcDbEntity
  8
GRAU_10_
 62
     7
  0
POLYLINE
  5
151
330
1F
100
AcDbEntity
  8
GRAU_10_
 62
     7
100
AcDb2dPolyline
 66
     1
 10
0.0
 20
0.0
 30
0.0
  0
VERTEX
  5
152
330
151
100
AcDbEntity
  8
GRAU_10_
 62
     7
100
AcDbVertex
100
AcDb2dVertex
 10
139.5797402724338
 20
132.3716279888255
 30
0.0
  0
VERTEX
  5
153
330
151
100
AcDbEntity
  8
GRAU_10_
 62
     7
100
AcDbVertex
100
AcDb2dVertex
 10
139.5797402724338
 20
132.4792252110209
 30
0.0
  0
VERTEX
  5
154
330
151
100
AcDbEntity
  8
GRAU_10_
 62
     7
100
AcDbVertex
100
AcDb2dVertex
 10
139.5797402724338
 20
133.3470585441373
 30
0.0
  0
VERTEX
  5
155
330
151
100
AcDbEntity
  8
GRAU_10_
 62
     7
100
AcDbVertex
100
AcDb2dVertex
 10
139.5797402724338
 20
133.3678724330211
 30
0.0
  0
SEQEND
  5
156
330
151
100
AcDbEntity
  8
GRAU_10_
 62
     7
  0
POLYLINE
  5
157
330
1F
100
AcDbEntity
  8
GRAU_10_
 62
     7
100
AcDb2dPolyline
 66
     1
 10
0.0
 20
0.0
 30
0.0
  0
VERTEX
  5
158
330
157
100
AcDbEntity
  8
GRAU_10_
 62
     7
100
AcDbVertex
100
AcDb2dVertex
 10
139.5797402724338
 20
134.3634113216611
 30
0.0
  0
VERTEX
  5
159
330
157
100
AcDbEntity
  8
GRAU_10_
 62
     7
100
AcDbVertex
100
AcDb2dVertex
 10
139.5797402724338
 20
134.3778752105461
 30
0.0
  0
VERTEX
  5
15A
330
157
100
AcDbEntity
  8
GRAU_10_
 62
     7
100
AcDbVertex
100
AcDb2dVertex
 10
139.5797402724338
 20
135.3593029880789
 30
0.0
  0
SEQEND
  5
15B
330
157
100
AcDbEntity
  8
GRAU_10_
 62
     7
  0
POLYLINE
  5
15C
330
1F
100
AcDbEntity
  8
GRAU_10_
 62
     7
100
AcDb2dPolyline
 66
     1
 10
0.0
 20
0.0
 30
0.0
  0
VERTEX
  5
15D
330
15C
100
AcDbEntity
  8
GRAU_10_
 62
     7
100
AcDbVertex
100
AcDb2dVertex
 10
139.5797402724338
 20
136.3551946544964
 30
0.0
  0
VERTEX
  5
15E
330
15C
100
AcDbEntity
  8
GRAU_10_
 62
     7
100
AcDbVertex
100
AcDb2dVertex
 10
139.5797402724338
 20
136.8526113210387
 30
0.0
  0
VERTEX
  5
15F
330
15C
100
AcDbEntity
  8
GRAU_10_
 62
     7
100
AcDbVertex
100
AcDb2dVertex
 10
139.5797402724338
 20
137.3507335431361
 30
0.0
  0
SEQEND
  5
160
330
15C
100
AcDbEntity
  8
GRAU_10_
 62
     7
  0
POLYLINE
  5
161
330
1F
100
AcDbEntity
  8
GRAU_10_
 62
     7
100
AcDb2dPolyline
 66
     1
 10
0.0
 20
0.0
 30
0.0
  0
VERTEX
  5
162
330
161
100
AcDbEntity
  8
GRAU_10_
 62
     7
100
AcDbVertex
100
AcDb2dVertex
 10
139.5797402724338
 20
138.3466252095539
 30
0.0
  0
VERTEX
  5
163
330
161
100
AcDbEntity
  8
GRAU_10_
 62
     7
100
AcDbVertex
100
AcDb2dVertex
 10
139.5797402724338
 20
139.342164098194
 30
0.0
  0
SEQEND
  5
164
330
161
100
AcDbEntity
  8
GRAU_10_
 62
     7
  0
POLYLINE
  5
165
330
1F
100
AcDbEntity
  8
GRAU_10_
 62
     7
100
AcDb2dPolyline
 66
     1
 10
0.0
 20
0.0
 30
0.0
  0
VERTEX
  5
166
330
165
100
AcDbEntity
  8
GRAU_10_
 62
     7
100
AcDbVertex
100
AcDb2dVertex
 10
139.5797402724338
 20
140.3380557646118
 30
0.0
  0
VERTEX
  5
167
330
165
100
AcDbEntity
  8
GRAU_10_
 62
     7
100
AcDbVertex
100
AcDb2dVertex
 10
139.5797402724338
 20
141.2683307643794
 30
0.0
  0
VERTEX
  5
168
330
165
100
AcDbEntity
  8
GRAU_10_
 62
     7
100
AcDbVertex
100
AcDb2dVertex
 10
139.5797402724338
 20
141.3343002088073
 30
0.0
  0
SEQEND
  5
169
330
165
100
AcDbEntity
  8
GRAU_10_
 62
     7
  0
POLYLINE
  5
16A
330
1F
100
AcDbEntity
  8
GRAU_10_
 62
     7
100
AcDb2dPolyline
 66
     1
 10
0.0
 20
0.0
 30
0.0
  0
VERTEX
  5
16B
330
16A
100
AcDbEntity
  8
GRAU_10_
 62
     7
100
AcDbVertex
100
AcDb2dVertex
 10
139.5797402724338
 20
142.3301918752248
 30
0.0
  0
VERTEX
  5
16C
330
16A
100
AcDbEntity
  8
GRAU_10_
 62
     7
100
AcDbVertex
100
AcDb2dVertex
 10
139.5797402724338
 20
142.8276085417671
 30
0.0
  0
VERTEX
  5
16D
330
16A
100
AcDbEntity
  8
GRAU_10_
 62
     7
100
AcDbVertex
100
AcDb2dVertex
 10
139.5797402724338
 20
143.3260835416423
 30
0.0
  0
SEQEND
  5
16E
330
16A
100
AcDbEntity
  8
GRAU_10_
 62
     7
  0
POLYLINE
  5
16F
330
1F
100
AcDbEntity
  8
GRAU_10_
 62
     7
100
AcDb2dPolyline
 66
     1
 10
0.0
 20
0.0
 30
0.0
  0
VERTEX
  5
170
330
16F
100
AcDbEntity
  8
GRAU_10_
 62
     7
100
AcDbVertex
100
AcDb2dVertex
 10
139.5797402724338
 20
144.3216224302824
 30
0.0
  0
VERTEX
  5
171
330
16F
100
AcDbEntity
  8
GRAU_10_
 62
     7
100
AcDbVertex
100
AcDb2dVertex
 10
139.5797402724338
 20
144.3875918747103
 30
0.0
  0
VERTEX
  5
172
330
16F
100
AcDbEntity
  8
GRAU_10_
 62
     7
100
AcDbVertex
100
AcDb2dVertex
 10
139.5797402724338
 20
145.3175140967002
 30
0.0
  0
SEQEND
  5
173
330
16F
100
AcDbEntity
  8
GRAU_10_
 62
     7
  0
POLYLINE
  5
174
330
1F
100
AcDbEntity
  8
GRAU_10_
 62
     7
100
AcDb2dPolyline
 66
     1
 10
0.0
 20
0.0
 30
0.0
  0
VERTEX
  5
175
330
174
100
AcDbEntity
  8
GRAU_10_
 62
     7
100
AcDbVertex
100
AcDb2dVertex
 10
139.5797402724338
 20
146.3130529853402
 30
0.0
  0
VERTEX
  5
176
330
174
100
AcDbEntity
  8
GRAU_10_
 62
     7
100
AcDbVertex
100
AcDb2dVertex
 10
139.5797402724338
 20
147.308944651758
 30
0.0
  0
SEQEND
  5
177
330
174
100
AcDbEntity
  8
GRAU_10_
 62
     7
  0
POLYLINE
  5
178
330
1F
100
AcDbEntity
  8
GRAU_10_
 62
     7
100
AcDb2dPolyline
 66
     1
 10
0.0
 20
0.0
 30
0.0
  0
VERTEX
  5
179
330
178
100
AcDbEntity
  8
GRAU_10_
 62
     7
100
AcDbVertex
100
AcDb2dVertex
 10
139.5797402724338
 20
148.3051890959533
 30
0.0
  0
VERTEX
  5
17A
330
178
100
AcDbEntity
  8
GRAU_10_
 62
     7
100
AcDbVertex
100
AcDb2dVertex
 10
139.5797402724338
 20
148.8026057624959
 30
0.0
  0
VERTEX
  5
17B
330
178
100
AcDbEntity
  8
GRAU_10_
 62
     7
100
AcDbVertex
100
AcDb2dVertex
 10
139.5797402724338
 20
149.3010807623708
 30
0.0
  0
SEQEND
  5
17C
330
178
100
AcDbEntity
  8
GRAU_10_
 62
     7
  0
POLYLINE
  5
17D
330
1F
100
AcDbEntity
  8
GRAU_10_
 62
     7
100
AcDb2dPolyline
 66
     1
 10
0.0
 20
0.0
 30
0.0
  0
VERTEX
  5
17E
330
17D
100
AcDbEntity
  8
GRAU_10_
 62
     7
100
AcDbVertex
100
AcDb2dVertex
 10
139.5797402724338
 20
150.2966196510108
 30
0.0
  0
VERTEX
  5
17F
330
17D
100
AcDbEntity
  8
GRAU_10_
 62
     7
100
AcDbVertex
100
AcDb2dVertex
 10
139.5797402724338
 20
151.2776946507658
 30
0.0
  0
VERTEX
  5
180
330
17D
100
AcDbEntity
  8
GRAU_10_
 62
     7
100
AcDbVertex
100
AcDb2dVertex
 10
139.5797402724338
 20
151.2921585396508
 30
0.0
  0
SEQEND
  5
181
330
17D
100
AcDbEntity
  8
GRAU_10_
 62
     7
  0
POLYLINE
  5
182
330
1F
100
AcDbEntity
  8
GRAU_10_
 62
     7
100
AcDb2dPolyline
 66
     1
 10
0.0
 20
0.0
 30
0.0
  0
VERTEX
  5
183
330
182
100
AcDbEntity
  8
GRAU_10_
 62
     7
100
AcDbVertex
100
AcDb2dVertex
 10
139.5797402724338
 20
152.2880502060686
 30
0.0
  0
VERTEX
  5
184
330
182
100
AcDbEntity
  8
GRAU_10_
 62
     7
100
AcDbVertex
100
AcDb2dVertex
 10
139.5797402724338
 20
152.3085113171746
 30
0.0
  0
VERTEX
  5
185
330
182
100
AcDbEntity
  8
GRAU_10_
 62
     7
100
AcDbVertex
100
AcDb2dVertex
 10
139.5797402724338
 20
153.1766974280688
 30
0.0
  0
VERTEX
  5
186
330
182
100
AcDbEntity
  8
GRAU_10_
 62
     7
100
AcDbVertex
100
AcDb2dVertex
 10
139.5797402724338
 20
153.2839418724865
 30
0.0
  0
SEQEND
  5
187
330
182
100
AcDbEntity
  8
GRAU_10_
 62
     7
  0
POLYLINE
  5
188
330
1F
100
AcDbEntity
  8
GRAU_10_
 62
     7
100
AcDb2dPolyline
 66
     1
 10
0.0
 20
0.0
 30
0.0
  0
VERTEX
  5
189
330
188
100
AcDbEntity
  8
GRAU_10_
 62
     7
100
AcDbVertex
100
AcDb2dVertex
 10
139.5797402724338
 20
154.280186316682
 30
0.0
  0
VERTEX
  5
18A
330
188
100
AcDbEntity
  8
GRAU_10_
 62
     7
100
AcDbVertex
100
AcDb2dVertex
 10
139.5797402724338
 20
154.3704974277703
 30
0.0
  0
VERTEX
  5
18B
330
188
100
AcDbEntity
  8
GRAU_10_
 62
     7
100
AcDbVertex
100
AcDb2dVertex
 10
139.5797402724338
 20
154.6760029832495
 30
0.0
  0
VERTEX
  5
18C
330
188
100
AcDbEntity
  8
GRAU_10_
 62
     7
100
AcDbVertex
100
AcDb2dVertex
 10
139.5797402724338
 20
154.7776029832243
 30
0.0
  0
SEQEND
  5
18D
330
188
100
AcDbEntity
  8
GRAU_10_
 62
     7
  0
POLYLINE
  5
18E
330
1F
100
AcDbEntity
  8
GRAU_10_
 62
     7
100
AcDb2dPolyline
 66
     1
 10
0.0
 20
0.0
 30
0.0
  0
VERTEX
  5
18F
330
18E
100
AcDbEntity
  8
GRAU_10_
 62
     7
100
AcDbVertex
100
AcDb2dVertex
 10
138.7799930504116
 20
155.5780557608017
 30
0.0
  0
VERTEX
  5
190
330
18E
100
AcDbEntity
  8
GRAU_10_
 62
     7
100
AcDbVertex
100
AcDb2dVertex
 10
138.3799430505116
 20
155.5780557608017
 30
0.0
  0
SEQEND
  5
191
330
18E
100
AcDbEntity
  8
GRAU_10_
 62
     7
  0
POLYLINE
  5
192
330
1F
100
AcDbEntity
  8
GRAU_10_
 62
     7
100
AcDb2dPolyline
 66
     1
 10
0.0
 20
0.0
 30
0.0
  0
VERTEX
  5
193
330
192
100
AcDbEntity
  8
GRAU_10_
 62
     7
100
AcDbVertex
100
AcDb2dVertex
 10
137.5801958284894
 20
155.5780557608017
 30
0.0
  0
VERTEX
  5
194
330
192
100
AcDbEntity
  8
GRAU_10_
 62
     7
100
AcDbVertex
100
AcDb2dVertex
 10
136.7797430509117
 20
155.5780557608017
 30
0.0
  0
SEQEND
  5
195
330
192
100
AcDbEntity
  8
GRAU_10_
 62
     7
  0
POLYLINE
  5
196
330
1F
100
AcDbEntity
  8
GRAU_10_
 62
     7
100
AcDb2dPolyline
 66
     1
 10
0.0
 20
0.0
 30
0.0
  0
VERTEX
  5
197
330
196
100
AcDbEntity
  8
GRAU_10_
 62
     7
100
AcDbVertex
100
AcDb2dVertex
 10
135.9799958288894
 20
155.5780557608017
 30
0.0
  0
VERTEX
  5
198
330
196
100
AcDbEntity
  8
GRAU_10_
 62
     7
100
AcDbVertex
100
AcDb2dVertex
 10
135.5802986067672
 20
155.5780557608017
 30
0.0
  0
SEQEND
  5
199
330
196
100
AcDbEntity
  8
GRAU_10_
 62
     7
  0
POLYLINE
  5
19A
330
1F
100
AcDbEntity
  8
GRAU_10_
 62
     7
100
AcDb2dPolyline
 66
     1
 10
0.0
 20
0.0
 30
0.0
  0
VERTEX
  5
19B
330
19A
100
AcDbEntity
  8
GRAU_10_
 62
     7
100
AcDbVertex
100
AcDb2dVertex
 10
135.5802986067672
 20
130.0782196560654
 30
0.0
  0
VERTEX
  5
19C
330
19A
100
AcDbEntity
  8
GRAU_10_
 62
     7
100
AcDbVertex
100
AcDb2dVertex
 10
135.9799958288894
 20
130.0782196560654
 30
0.0
  0
SEQEND
  5
19D
330
19A
100
AcDbEntity
  8
GRAU_10_
 62
     7
  0
POLYLINE
  5
19E
330
1F
100
AcDbEntity
  8
GRAU_10_
 62
     7
100
AcDb2dPolyline
 66
     1
 10
0.0
 20
0.0
 30
0.0
  0
VERTEX
  5
19F
330
19E
100
AcDbEntity
  8
GRAU_10_
 62
     7
100
AcDbVertex
100
AcDb2dVertex
 10
136.7797430509117
 20
130.0782196560654
 30
0.0
  0
VERTEX
  5
1A0
330
19E
100
AcDbEntity
  8
GRAU_10_
 62
     7
100
AcDbVertex
100
AcDb2dVertex
 10
137.5801958284894
 20
130.0782196560654
 30
0.0
  0
SEQEND
  5
1A1
330
19E
100
AcDbEntity
  8
GRAU_10_
 62
     7
  0
POLYLINE
  5
1A2
330
1F
100
AcDbEntity
  8
GRAU_10_
 62
     7
100
AcDb2dPolyline
 66
     1
 10
0.0
 20
0.0
 30
0.0
  0
VERTEX
  5
1A3
330
1A2
100
AcDbEntity
  8
GRAU_10_
 62
     7
100
AcDbVertex
100
AcDb2dVertex
 10
138.3799430505116
 20
130.0782196560654
 30
0.0
  0
VERTEX
  5
1A4
330
1A2
100
AcDbEntity
  8
GRAU_10_
 62
     7
100
AcDbVertex
100
AcDb2dVertex
 10
138.7799930504116
 20
130.0782196560654
 30
0.0
  0
SEQEND
  5
1A5
330
1A2
100
AcDbEntity
  8
GRAU_10_
 62
     7
  0
POLYLINE
  5
1A6
330
1F
100
AcDbEntity
  8
GRAU_10_
 62
     7
100
AcDb2dPolyline
 66
     1
 10
0.0
 20
0.0
 30
0.0
  0
VERTEX
  5
1A7
330
1A6
100
AcDbEntity
  8
GRAU_10_
 62
     7
100
AcDbVertex
100
AcDb2dVertex
 10
135.5802986067672
 20
130.0782196560654
 30
0.0
  0
VERTEX
  5
1A8
330
1A6
100
AcDbEntity
  8
GRAU_10_
 62
     7
100
AcDbVertex
100
AcDb2dVertex
 10
135.5802986067672
 20
130.1868752115942
 30
0.0
  0
VERTEX
  5
1A9
330
1A6
100
AcDbEntity
  8
GRAU_10_
 62
     7
100
AcDbVertex
100
AcDb2dVertex
 10
135.5802986067672
 20
130.5124891004012
 30
0.0
  0
VERTEX
  5
1AA
330
1A6
100
AcDbEntity
  8
GRAU_10_
 62
     7
100
AcDbVertex
100
AcDb2dVertex
 10
135.5802986067672
 20
130.5682279892766
 30
0.0
  0
SEQEND
  5
1AB
330
1A6
100
AcDbEntity
  8
GRAU_10_
 62
     7
  0
POLYLINE
  5
1AC
330
1F
100
AcDbEntity
  8
GRAU_10_
 62
     7
100
AcDb2dPolyline
 66
     1
 10
0.0
 20
0.0
 30
0.0
  0
VERTEX
  5
1AD
330
1AC
100
AcDbEntity
  8
GRAU_10_
 62
     7
100
AcDbVertex
100
AcDb2dVertex
 10
135.5802986067672
 20
131.5489502112533
 30
0.0
  0
VERTEX
  5
1AE
330
1AC
100
AcDbEntity
  8
GRAU_10_
 62
     7
100
AcDbVertex
100
AcDb2dVertex
 10
135.5802986067672
 20
131.7860168778608
 30
0.0
  0
VERTEX
  5
1AF
330
1AC
100
AcDbEntity
  8
GRAU_10_
 62
     7
100
AcDbVertex
100
AcDb2dVertex
 10
135.5802986067672
 20
132.5300252110083
 30
0.0
  0
SEQEND
  5
1B0
330
1AC
100
AcDbEntity
  8
GRAU_10_
 62
     7
  0
POLYLINE
  5
1B1
330
1F
100
AcDbEntity
  8
GRAU_10_
 62
     7
100
AcDb2dPolyline
 66
     1
 10
0.0
 20
0.0
 30
0.0
  0
VERTEX
  5
1B2
330
1B1
100
AcDbEntity
  8
GRAU_10_
 62
     7
100
AcDbVertex
100
AcDb2dVertex
 10
135.5802986067672
 20
133.5107474329853
 30
0.0
  0
VERTEX
  5
1B3
330
1B1
100
AcDbEntity
  8
GRAU_10_
 62
     7
100
AcDbVertex
100
AcDb2dVertex
 10
135.5802986067672
 20
133.81237243291
 30
0.0
  0
VERTEX
  5
1B4
330
1B1
100
AcDbEntity
  8
GRAU_10_
 62
     7
100
AcDbVertex
100
AcDb2dVertex
 10
135.5802986067672
 20
134.4911168771844
 30
0.0
  0
SEQEND
  5
1B5
330
1B1
100
AcDbEntity
  8
GRAU_10_
 62
     7
  0
POLYLINE
  5
1B6
330
1F
100
AcDbEntity
  8
GRAU_10_
 62
     7
100
AcDb2dPolyline
 66
     1
 10
0.0
 20
0.0
 30
0.0
  0
VERTEX
  5
1B7
330
1B6
100
AcDbEntity
  8
GRAU_10_
 62
     7
100
AcDbVertex
100
AcDb2dVertex
 10
135.5802986067672
 20
135.4718390991617
 30
0.0
  0
VERTEX
  5
1B8
330
1B6
100
AcDbEntity
  8
GRAU_10_
 62
     7
100
AcDbVertex
100
AcDb2dVertex
 10
135.5802986067672
 20
136.4532668766939
 30
0.0
  0
SEQEND
  5
1B9
330
1B6
100
AcDbEntity
  8
GRAU_10_
 62
     7
  0
POLYLINE
  5
1BA
330
1F
100
AcDbEntity
  8
GRAU_10_
 62
     7
100
AcDb2dPolyline
 66
     1
 10
0.0
 20
0.0
 30
0.0
  0
VERTEX
  5
1BB
330
1BA
100
AcDbEntity
  8
GRAU_10_
 62
     7
100
AcDbVertex
100
AcDb2dVertex
 10
135.5802986067672
 20
137.4339890986711
 30
0.0
  0
VERTEX
  5
1BC
330
1BA
100
AcDbEntity
  8
GRAU_10_
 62
     7
100
AcDbVertex
100
AcDb2dVertex
 10
135.5802986067672
 20
137.9490446540979
 30
0.0
  0
VERTEX
  5
1BD
330
1BA
100
AcDbEntity
  8
GRAU_10_
 62
     7
100
AcDbVertex
100
AcDb2dVertex
 10
135.5802986067672
 20
138.4143585428706
 30
0.0
  0
SEQEND
  5
1BE
330
1BA
100
AcDbEntity
  8
GRAU_10_
 62
     7
  0
POLYLINE
  5
1BF
330
1F
100
AcDbEntity
  8
GRAU_10_
 62
     7
100
AcDb2dPolyline
 66
     1
 10
0.0
 20
0.0
 30
0.0
  0
VERTEX
  5
1C0
330
1BF
100
AcDbEntity
  8
GRAU_10_
 62
     7
100
AcDbVertex
100
AcDb2dVertex
 10
135.5802986067672
 20
139.3950807648473
 30
0.0
  0
VERTEX
  5
1C1
330
1BF
100
AcDbEntity
  8
GRAU_10_
 62
     7
100
AcDbVertex
100
AcDb2dVertex
 10
135.5802986067672
 20
139.5280779870364
 30
0.0
  0
VERTEX
  5
1C2
330
1BF
100
AcDbEntity
  8
GRAU_10_
 62
     7
100
AcDbVertex
100
AcDb2dVertex
 10
135.5802986067672
 20
140.3761557646023
 30
0.0
  0
SEQEND
  5
1C3
330
1BF
100
AcDbEntity
  8
GRAU_10_
 62
     7
  0
POLYLINE
  5
1C4
330
1F
100
AcDbEntity
  8
GRAU_10_
 62
     7
100
AcDb2dPolyline
 66
     1
 10
0.0
 20
0.0
 30
0.0
  0
VERTEX
  5
1C5
330
1C4
100
AcDbEntity
  8
GRAU_10_
 62
     7
100
AcDbVertex
100
AcDb2dVertex
 10
135.5802986067672
 20
141.3568779865793
 30
0.0
  0
VERTEX
  5
1C6
330
1C4
100
AcDbEntity
  8
GRAU_10_
 62
     7
100
AcDbVertex
100
AcDb2dVertex
 10
135.5802986067672
 20
142.3372474307785
 30
0.0
  0
SEQEND
  5
1C7
330
1C4
100
AcDbEntity
  8
GRAU_10_
 62
     7
  0
POLYLINE
  5
1C8
330
1F
100
AcDbEntity
  8
GRAU_10_
 62
     7
100
AcDb2dPolyline
 66
     1
 10
0.0
 20
0.0
 30
0.0
  0
VERTEX
  5
1C9
330
1C8
100
AcDbEntity
  8
GRAU_10_
 62
     7
100
AcDbVertex
100
AcDb2dVertex
 10
135.5802986067672
 20
143.3186752083112
 30
0.0
  0
VERTEX
  5
1CA
330
1C8
100
AcDbEntity
  8
GRAU_10_
 62
     7
100
AcDbVertex
100
AcDb2dVertex
 10
135.5802986067672
 20
144.2993974302879
 30
0.0
  0
SEQEND
  5
1CB
330
1C8
100
AcDbEntity
  8
GRAU_10_
 62
     7
  0
POLYLINE
  5
1CC
330
1F
100
AcDbEntity
  8
GRAU_10_
 62
     7
100
AcDb2dPolyline
 66
     1
 10
0.0
 20
0.0
 30
0.0
  0
VERTEX
  5
1CD
330
1CC
100
AcDbEntity
  8
GRAU_10_
 62
     7
100
AcDbVertex
100
AcDb2dVertex
 10
135.5802986067672
 20
145.2797668744874
 30
0.0
  0
VERTEX
  5
1CE
330
1CC
100
AcDbEntity
  8
GRAU_10_
 62
     7
100
AcDbVertex
100
AcDb2dVertex
 10
135.5802986067672
 20
146.1278446520533
 30
0.0
  0
VERTEX
  5
1CF
330
1CC
100
AcDbEntity
  8
GRAU_10_
 62
     7
100
AcDbVertex
100
AcDb2dVertex
 10
135.5802986067672
 20
146.2604890964647
 30
0.0
  0
SEQEND
  5
1D0
330
1CC
100
AcDbEntity
  8
GRAU_10_
 62
     7
  0
POLYLINE
  5
1D1
330
1F
100
AcDbEntity
  8
GRAU_10_
 62
     7
100
AcDb2dPolyline
 66
     1
 10
0.0
 20
0.0
 30
0.0
  0
VERTEX
  5
1D2
330
1D1
100
AcDbEntity
  8
GRAU_10_
 62
     7
100
AcDbVertex
100
AcDb2dVertex
 10
135.5802986067672
 20
147.2415640962191
 30
0.0
  0
VERTEX
  5
1D3
330
1D1
100
AcDbEntity
  8
GRAU_10_
 62
     7
100
AcDbVertex
100
AcDb2dVertex
 10
135.5802986067672
 20
147.7068779849918
 30
0.0
  0
VERTEX
  5
1D4
330
1D1
100
AcDbEntity
  8
GRAU_10_
 62
     7
100
AcDbVertex
100
AcDb2dVertex
 10
135.5802986067672
 20
148.2222863181963
 30
0.0
  0
SEQEND
  5
1D5
330
1D1
100
AcDbEntity
  8
GRAU_10_
 62
     7
  0
POLYLINE
  5
1D6
330
1F
100
AcDbEntity
  8
GRAU_10_
 62
     7
100
AcDb2dPolyline
 66
     1
 10
0.0
 20
0.0
 30
0.0
  0
VERTEX
  5
1D7
330
1D6
100
AcDbEntity
  8
GRAU_10_
 62
     7
100
AcDbVertex
100
AcDb2dVertex
 10
135.5802986067672
 20
149.2026557623958
 30
0.0
  0
VERTEX
  5
1D8
330
1D6
100
AcDbEntity
  8
GRAU_10_
 62
     7
100
AcDbVertex
100
AcDb2dVertex
 10
135.5802986067672
 20
150.1833779843725
 30
0.0
  0
SEQEND
  5
1D9
330
1D6
100
AcDbEntity
  8
GRAU_10_
 62
     7
  0
POLYLINE
  5
1DA
330
1F
100
AcDbEntity
  8
GRAU_10_
 62
     7
100
AcDb2dPolyline
 66
     1
 10
0.0
 20
0.0
 30
0.0
  0
VERTEX
  5
1DB
330
1DA
100
AcDbEntity
  8
GRAU_10_
 62
     7
100
AcDbVertex
100
AcDb2dVertex
 10
135.5802986067672
 20
151.1648057619053
 30
0.0
  0
VERTEX
  5
1DC
330
1DA
100
AcDbEntity
  8
GRAU_10_
 62
     7
100
AcDbVertex
100
AcDb2dVertex
 10
135.5802986067672
 20
151.8435502061797
 30
0.0
  0
VERTEX
  5
1DD
330
1DA
100
AcDbEntity
  8
GRAU_10_
 62
     7
100
AcDbVertex
100
AcDb2dVertex
 10
135.5802986067672
 20
152.1455279838819
 30
0.0
  0
SEQEND
  5
1DE
330
1DA
100
AcDbEntity
  8
GRAU_10_
 62
     7
  0
POLYLINE
  5
1DF
330
1F
100
AcDbEntity
  8
GRAU_10_
 62
     7
100
AcDb2dPolyline
 66
     1
 10
0.0
 20
0.0
 30
0.0
  0
VERTEX
  5
1E0
330
1DF
100
AcDbEntity
  8
GRAU_10_
 62
     7
100
AcDbVertex
100
AcDb2dVertex
 10
135.5802986067672
 20
153.1258974280814
 30
0.0
  0
VERTEX
  5
1E1
330
1DF
100
AcDbEntity
  8
GRAU_10_
 62
     7
100
AcDbVertex
100
AcDb2dVertex
 10
135.5802986067672
 20
153.8699057612289
 30
0.0
  0
VERTEX
  5
1E2
330
1DF
100
AcDbEntity
  8
GRAU_10_
 62
     7
100
AcDbVertex
100
AcDb2dVertex
 10
135.5802986067672
 20
154.1066196500587
 30
0.0
  0
SEQEND
  5
1E3
330
1DF
100
AcDbEntity
  8
GRAU_10_
 62
     7
  0
POLYLINE
  5
1E4
330
1F
100
AcDbEntity
  8
GRAU_10_
 62
     7
100
AcDb2dPolyline
 66
     1
 10
0.0
 20
0.0
 30
0.0
  0
VERTEX
  5
1E5
330
1E4
100
AcDbEntity
  8
GRAU_10_
 62
     7
100
AcDbVertex
100
AcDb2dVertex
 10
135.5802986067672
 20
155.0876946498131
 30
0.0
  0
VERTEX
  5
1E6
330
1E4
100
AcDbEntity
  8
GRAU_10_
 62
     7
100
AcDbVertex
100
AcDb2dVertex
 10
135.5802986067672
 20
155.1437863164659
 30
0.0
  0
VERTEX
  5
1E7
330
1E4
100
AcDbEntity
  8
GRAU_10_
 62
     7
100
AcDbVertex
100
AcDb2dVertex
 10
135.5802986067672
 20
155.4690474274956
 30
0.0
  0
VERTEX
  5
1E8
330
1E4
100
AcDbEntity
  8
GRAU_10_
 62
     7
100
AcDbVertex
100
AcDb2dVertex
 10
135.5802986067672
 20
155.5780557608017
 30
0.0
  0
VERTEX
  5
1E9
330
1E4
100
AcDbEntity
  8
GRAU_10_
 62
     7
100
AcDbVertex
100
AcDb2dVertex
 10
135.4268402734721
 20
155.3124140942016
 30
0.0
  0
SEQEND
  5
1EA
330
1E4
100
AcDbEntity
  8
GRAU_10_
 62
     7
  0
POLYLINE
  5
1EB
330
1F
100
AcDbEntity
  8
GRAU_10_
 62
     7
100
AcDb2dPolyline
 66
     1
 10
0.0
 20
0.0
 30
0.0
  0
VERTEX
  5
1EC
330
1EB
100
AcDbEntity
  8
GRAU_10_
 62
     7
100
AcDbVertex
100
AcDb2dVertex
 10
135.1199236068822
 20
154.781130761001
 30
0.0
  0
VERTEX
  5
1ED
330
1EB
100
AcDbEntity
  8
GRAU_10_
 62
     7
100
AcDbVertex
100
AcDb2dVertex
 10
134.9664652735874
 20
154.5161946499563
 30
0.0
  0
SEQEND
  5
1EE
330
1EB
100
AcDbEntity
  8
GRAU_10_
 62
     7
  0
POLYLINE
  5
1EF
330
1F
100
AcDbEntity
  8
GRAU_10_
 62
     7
100
AcDb2dPolyline
 66
     1
 10
0.0
 20
0.0
 30
0.0
  0
VERTEX
  5
1F0
330
1EF
100
AcDbEntity
  8
GRAU_10_
 62
     7
100
AcDbVertex
100
AcDb2dVertex
 10
134.9664652735874
 20
131.1397279891334
 30
0.0
  0
VERTEX
  5
1F1
330
1EF
100
AcDbEntity
  8
GRAU_10_
 62
     7
100
AcDbVertex
100
AcDb2dVertex
 10
135.1199236068822
 20
130.8740863225332
 30
0.0
  0
SEQEND
  5
1F2
330
1EF
100
AcDbEntity
  8
GRAU_10_
 62
     7
  0
POLYLINE
  5
1F3
330
1F
100
AcDbEntity
  8
GRAU_10_
 62
     7
100
AcDb2dPolyline
 66
     1
 10
0.0
 20
0.0
 30
0.0
  0
VERTEX
  5
1F4
330
1F3
100
AcDbEntity
  8
GRAU_10_
 62
     7
100
AcDbVertex
100
AcDb2dVertex
 10
135.4268402734721
 20
130.3431557671104
 30
0.0
  0
VERTEX
  5
1F5
330
1F3
100
AcDbEntity
  8
GRAU_10_
 62
     7
100
AcDbVertex
100
AcDb2dVertex
 10
135.5802986067672
 20
130.0782196560654
 30
0.0
  0
SEQEND
  5
1F6
330
1F3
100
AcDbEntity
  8
GRAU_10_
 62
     7
  0
POLYLINE
  5
1F7
330
1F
100
AcDbEntity
  8
GRAU_10_
 62
     7
100
AcDb2dPolyline
 66
     1
 10
0.0
 20
0.0
 30
0.0
  0
VERTEX
  5
1F8
330
1F7
100
AcDbEntity
  8
GRAU_10_
 62
     7
100
AcDbVertex
100
AcDb2dVertex
 10
134.9664652735874
 20
154.5161946499563
 30
0.0
  0
VERTEX
  5
1F9
330
1F7
100
AcDbEntity
  8
GRAU_10_
 62
     7
100
AcDbVertex
100
AcDb2dVertex
 10
134.9664652735874
 20
154.4068335388721
 30
0.0
  0
VERTEX
  5
1FA
330
1F7
100
AcDbEntity
  8
GRAU_10_
 62
     7
100
AcDbVertex
100
AcDb2dVertex
 10
134.9664652735874
 20
154.0822779833979
 30
0.0
  0
VERTEX
  5
1FB
330
1F7
100
AcDbEntity
  8
GRAU_10_
 62
     7
100
AcDbVertex
100
AcDb2dVertex
 10
134.9664652735874
 20
154.0286557611891
 30
0.0
  0
SEQEND
  5
1FC
330
1F7
100
AcDbEntity
  8
GRAU_10_
 62
     7
  0
POLYLINE
  5
1FD
330
1F
100
AcDbEntity
  8
GRAU_10_
 62
     7
100
AcDb2dPolyline
 66
     1
 10
0.0
 20
0.0
 30
0.0
  0
VERTEX
  5
1FE
330
1FD
100
AcDbEntity
  8
GRAU_10_
 62
     7
100
AcDbVertex
100
AcDb2dVertex
 10
134.9664652735874
 20
153.0546363169884
 30
0.0
  0
VERTEX
  5
1FF
330
1FD
100
AcDbEntity
  8
GRAU_10_
 62
     7
100
AcDbVertex
100
AcDb2dVertex
 10
134.9664652735874
 20
152.8140418726038
 30
0.0
  0
VERTEX
  5
200
330
1FD
100
AcDbEntity
  8
GRAU_10_
 62
     7
100
AcDbVertex
100
AcDb2dVertex
 10
134.9664652735874
 20
152.080969650565
 30
0.0
  0
SEQEND
  5
201
330
1FD
100
AcDbEntity
  8
GRAU_10_
 62
     7
  0
POLYLINE
  5
202
330
1F
100
AcDbEntity
  8
GRAU_10_
 62
     7
100
AcDb2dPolyline
 66
     1
 10
0.0
 20
0.0
 30
0.0
  0
VERTEX
  5
203
330
202
100
AcDbEntity
  8
GRAU_10_
 62
     7
100
AcDbVertex
100
AcDb2dVertex
 10
134.9664652735874
 20
151.1069502063639
 30
0.0
  0
VERTEX
  5
204
330
202
100
AcDbEntity
  8
GRAU_10_
 62
     7
100
AcDbVertex
100
AcDb2dVertex
 10
134.9664652735874
 20
150.8056779842173
 30
0.0
  0
VERTEX
  5
205
330
202
100
AcDbEntity
  8
GRAU_10_
 62
     7
100
AcDbVertex
100
AcDb2dVertex
 10
134.9664652735874
 20
150.1325779843851
 30
0.0
  0
SEQEND
  5
206
330
202
100
AcDbEntity
  8
GRAU_10_
 62
     7
  0
POLYLINE
  5
207
330
1F
100
AcDbEntity
  8
GRAU_10_
 62
     7
100
AcDb2dPolyline
 66
     1
 10
0.0
 20
0.0
 30
0.0
  0
VERTEX
  5
208
330
207
100
AcDbEntity
  8
GRAU_10_
 62
     7
100
AcDbVertex
100
AcDb2dVertex
 10
134.9664652735874
 20
149.1589113179621
 30
0.0
  0
VERTEX
  5
209
330
207
100
AcDbEntity
  8
GRAU_10_
 62
     7
100
AcDbVertex
100
AcDb2dVertex
 10
134.9664652735874
 20
148.205352984867
 30
0.0
  0
VERTEX
  5
20A
330
207
100
AcDbEntity
  8
GRAU_10_
 62
     7
100
AcDbVertex
100
AcDb2dVertex
 10
134.9664652735874
 20
148.1852446515391
 30
0.0
  0
SEQEND
  5
20B
330
207
100
AcDbEntity
  8
GRAU_10_
 62
     7
  0
POLYLINE
  5
20C
330
1F
100
AcDbEntity
  8
GRAU_10_
 62
     7
100
AcDb2dPolyline
 66
     1
 10
0.0
 20
0.0
 30
0.0
  0
VERTEX
  5
20D
330
20C
100
AcDbEntity
  8
GRAU_10_
 62
     7
100
AcDbVertex
100
AcDb2dVertex
 10
134.9664652735874
 20
147.211225207338
 30
0.0
  0
VERTEX
  5
20E
330
20C
100
AcDbEntity
  8
GRAU_10_
 62
     7
100
AcDbVertex
100
AcDb2dVertex
 10
134.9664652735874
 20
146.7416779852331
 30
0.0
  0
VERTEX
  5
20F
330
20C
100
AcDbEntity
  8
GRAU_10_
 62
     7
100
AcDbVertex
100
AcDb2dVertex
 10
134.9664652735874
 20
146.2368529853591
 30
0.0
  0
SEQEND
  5
210
330
20C
100
AcDbEntity
  8
GRAU_10_
 62
     7
  0
POLYLINE
  5
211
330
1F
100
AcDbEntity
  8
GRAU_10_
 62
     7
100
AcDb2dPolyline
 66
     1
 10
0.0
 20
0.0
 30
0.0
  0
VERTEX
  5
212
330
211
100
AcDbEntity
  8
GRAU_10_
 62
     7
100
AcDbVertex
100
AcDb2dVertex
 10
134.9664652735874
 20
145.2628335411584
 30
0.0
  0
VERTEX
  5
213
330
211
100
AcDbEntity
  8
GRAU_10_
 62
     7
100
AcDbVertex
100
AcDb2dVertex
 10
134.9664652735874
 20
145.2056835411726
 30
0.0
  0
VERTEX
  5
214
330
211
100
AcDbEntity
  8
GRAU_10_
 62
     7
100
AcDbVertex
100
AcDb2dVertex
 10
134.9664652735874
 20
144.289166874735
 30
0.0
  0
SEQEND
  5
215
330
211
100
AcDbEntity
  8
GRAU_10_
 62
     7
  0
POLYLINE
  5
216
330
1F
100
AcDbEntity
  8
GRAU_10_
 62
     7
100
AcDb2dPolyline
 66
     1
 10
0.0
 20
0.0
 30
0.0
  0
VERTEX
  5
217
330
216
100
AcDbEntity
  8
GRAU_10_
 62
     7
100
AcDbVertex
100
AcDb2dVertex
 10
134.9664652735874
 20
143.3151474305343
 30
0.0
  0
VERTEX
  5
218
330
216
100
AcDbEntity
  8
GRAU_10_
 62
     7
100
AcDbVertex
100
AcDb2dVertex
 10
134.9664652735874
 20
142.3407752085554
 30
0.0
  0
SEQEND
  5
219
330
216
100
AcDbEntity
  8
GRAU_10_
 62
     7
  0
POLYLINE
  5
21A
330
1F
100
AcDbEntity
  8
GRAU_10_
 62
     7
100
AcDb2dPolyline
 66
     1
 10
0.0
 20
0.0
 30
0.0
  0
VERTEX
  5
21B
330
21A
100
AcDbEntity
  8
GRAU_10_
 62
     7
100
AcDbVertex
100
AcDb2dVertex
 10
134.9664652735874
 20
141.3671085421321
 30
0.0
  0
VERTEX
  5
21C
330
21A
100
AcDbEntity
  8
GRAU_10_
 62
     7
100
AcDbVertex
100
AcDb2dVertex
 10
134.9664652735874
 20
140.4498863201394
 30
0.0
  0
VERTEX
  5
21D
330
21A
100
AcDbEntity
  8
GRAU_10_
 62
     7
100
AcDbVertex
100
AcDb2dVertex
 10
134.9664652735874
 20
140.3930890979313
 30
0.0
  0
SEQEND
  5
21E
330
21A
100
AcDbEntity
  8
GRAU_10_
 62
     7
  0
POLYLINE
  5
21F
330
1F
100
AcDbEntity
  8
GRAU_10_
 62
     7
100
AcDb2dPolyline
 66
     1
 10
0.0
 20
0.0
 30
0.0
  0
VERTEX
  5
220
330
21F
100
AcDbEntity
  8
GRAU_10_
 62
     7
100
AcDbVertex
100
AcDb2dVertex
 10
134.9664652735874
 20
139.4187168759528
 30
0.0
  0
VERTEX
  5
221
330
21F
100
AcDbEntity
  8
GRAU_10_
 62
     7
100
AcDbVertex
100
AcDb2dVertex
 10
134.9664652735874
 20
138.9138918760788
 30
0.0
  0
VERTEX
  5
222
330
21F
100
AcDbEntity
  8
GRAU_10_
 62
     7
100
AcDbVertex
100
AcDb2dVertex
 10
134.9664652735874
 20
138.4446974317517
 30
0.0
  0
SEQEND
  5
223
330
21F
100
AcDbEntity
  8
GRAU_10_
 62
     7
  0
POLYLINE
  5
224
330
1F
100
AcDbEntity
  8
GRAU_10_
 62
     7
100
AcDb2dPolyline
 66
     1
 10
0.0
 20
0.0
 30
0.0
  0
VERTEX
  5
225
330
224
100
AcDbEntity
  8
GRAU_10_
 62
     7
100
AcDbVertex
100
AcDb2dVertex
 10
134.9664652735874
 20
137.4710307653284
 30
0.0
  0
VERTEX
  5
226
330
224
100
AcDbEntity
  8
GRAU_10_
 62
     7
100
AcDbVertex
100
AcDb2dVertex
 10
134.9664652735874
 20
137.4509224320002
 30
0.0
  0
VERTEX
  5
227
330
224
100
AcDbEntity
  8
GRAU_10_
 62
     7
100
AcDbVertex
100
AcDb2dVertex
 10
134.9664652735874
 20
136.4966585433499
 30
0.0
  0
SEQEND
  5
228
330
224
100
AcDbEntity
  8
GRAU_10_
 62
     7
  0
POLYLINE
  5
229
330
1F
100
AcDbEntity
  8
GRAU_10_
 62
     7
100
AcDb2dPolyline
 66
     1
 10
0.0
 20
0.0
 30
0.0
  0
VERTEX
  5
22A
330
229
100
AcDbEntity
  8
GRAU_10_
 62
     7
100
AcDbVertex
100
AcDb2dVertex
 10
134.9664652735874
 20
135.5226390991491
 30
0.0
  0
VERTEX
  5
22B
330
229
100
AcDbEntity
  8
GRAU_10_
 62
     7
100
AcDbVertex
100
AcDb2dVertex
 10
134.9664652735874
 20
134.8502446548725
 30
0.0
  0
VERTEX
  5
22C
330
229
100
AcDbEntity
  8
GRAU_10_
 62
     7
100
AcDbVertex
100
AcDb2dVertex
 10
134.9664652735874
 20
134.5489724327258
 30
0.0
  0
SEQEND
  5
22D
330
229
100
AcDbEntity
  8
GRAU_10_
 62
     7
  0
POLYLINE
  5
22E
330
1F
100
AcDbEntity
  8
GRAU_10_
 62
     7
100
AcDb2dPolyline
 66
     1
 10
0.0
 20
0.0
 30
0.0
  0
VERTEX
  5
22F
330
22E
100
AcDbEntity
  8
GRAU_10_
 62
     7
100
AcDbVertex
100
AcDb2dVertex
 10
134.9664652735874
 20
133.5749529885247
 30
0.0
  0
VERTEX
  5
230
330
22E
100
AcDbEntity
  8
GRAU_10_
 62
     7
100
AcDbVertex
100
AcDb2dVertex
 10
134.9664652735874
 20
132.8411752109304
 30
0.0
  0
VERTEX
  5
231
330
22E
100
AcDbEntity
  8
GRAU_10_
 62
     7
100
AcDbVertex
100
AcDb2dVertex
 10
134.9664652735874
 20
132.6012863221013
 30
0.0
  0
SEQEND
  5
232
330
22E
100
AcDbEntity
  8
GRAU_10_
 62
     7
  0
POLYLINE
  5
233
330
1F
100
AcDbEntity
  8
GRAU_10_
 62
     7
100
AcDb2dPolyline
 66
     1
 10
0.0
 20
0.0
 30
0.0
  0
VERTEX
  5
234
330
233
100
AcDbEntity
  8
GRAU_10_
 62
     7
100
AcDbVertex
100
AcDb2dVertex
 10
134.9664652735874
 20
131.6269141001228
 30
0.0
  0
VERTEX
  5
235
330
233
100
AcDbEntity
  8
GRAU_10_
 62
     7
100
AcDbVertex
100
AcDb2dVertex
 10
134.9664652735874
 20
131.5736446556917
 30
0.0
  0
VERTEX
  5
236
330
233
100
AcDbEntity
  8
GRAU_10_
 62
     7
100
AcDbVertex
100
AcDb2dVertex
 10
134.9664652735874
 20
131.2487363224399
 30
0.0
  0
VERTEX
  5
237
330
233
100
AcDbEntity
  8
GRAU_10_
 62
     7
100
AcDbVertex
100
AcDb2dVertex
 10
134.9664652735874
 20
131.1397279891334
 30
0.0
  0
SEQEND
  5
238
330
233
100
AcDbEntity
  8
GRAU_10_
 62
     7
  0
POLYLINE
  5
239
330
1F
100
AcDbEntity
  8
GRAU_10_
 62
     7
100
AcDb2dPolyline
 66
     1
 10
0.0
 20
0.0
 30
0.0
  0
VERTEX
  5
23A
330
239
100
AcDbEntity
  8
GRAU_10_
 62
     7
100
AcDbVertex
100
AcDb2dVertex
 10
151.0298486029048
 20
151.7486529839811
 30
0.0
  0
VERTEX
  5
23B
330
239
100
AcDbEntity
  8
GRAU_10_
 62
     7
100
AcDbVertex
100
AcDb2dVertex
 10
153.0300986024047
 20
151.7486529839811
 30
0.0
  0
SEQEND
  5
23C
330
239
100
AcDbEntity
  8
GRAU_10_
 62
     7
  0
POLYLINE
  5
23D
330
1F
100
AcDbEntity
  8
GRAU_10_
 62
     7
100
AcDb2dPolyline
 66
     1
 10
0.0
 20
0.0
 30
0.0
  0
VERTEX
  5
23E
330
23D
100
AcDbEntity
  8
GRAU_10_
 62
     7
100
AcDbVertex
100
AcDb2dVertex
 10
153.0300986024047
 20
146.5501196519478
 30
0.0
  0
VERTEX
  5
23F
330
23D
100
AcDbEntity
  8
GRAU_10_
 62
     7
100
AcDbVertex
100
AcDb2dVertex
 10
153.0300986024047
 20
148.4343057625877
 30
0.0
  0
VERTEX
  5
240
330
23D
100
AcDbEntity
  8
GRAU_10_
 62
     7
100
AcDbVertex
100
AcDb2dVertex
 10
153.0300986024047
 20
150.1816140954843
 30
0.0
  0
VERTEX
  5
241
330
23D
100
AcDbEntity
  8
GRAU_10_
 62
     7
100
AcDbVertex
100
AcDb2dVertex
 10
153.0300986024047
 20
151.7486529839811
 30
0.0
  0
SEQEND
  5
242
330
23D
100
AcDbEntity
  8
GRAU_10_
 62
     7
  0
POLYLINE
  5
243
330
1F
100
AcDbEntity
  8
GRAU_10_
 62
     7
100
AcDb2dPolyline
 66
     1
 10
0.0
 20
0.0
 30
0.0
  0
VERTEX
  5
244
330
243
100
AcDbEntity
  8
GRAU_10_
 62
     7
100
AcDbVertex
100
AcDb2dVertex
 10
151.0298486029048
 20
146.5501196519478
 30
0.0
  0
VERTEX
  5
245
330
243
100
AcDbEntity
  8
GRAU_10_
 62
     7
100
AcDbVertex
100
AcDb2dVertex
 10
153.0300986024047
 20
146.5501196519478
 30
0.0
  0
SEQEND
  5
246
330
243
100
AcDbEntity
  8
GRAU_10_
 62
     7
  0
POLYLINE
  5
247
330
1F
100
AcDbEntity
  8
GRAU_10_
 62
     7
100
AcDb2dPolyline
 66
     1
 10
0.0
 20
0.0
 30
0.0
  0
VERTEX
  5
248
330
247
100
AcDbEntity
  8
GRAU_10_
 62
     7
100
AcDbVertex
100
AcDb2dVertex
 10
151.0298486029048
 20
144.7760002079467
 30
0.0
  0
VERTEX
  5
249
330
247
100
AcDbEntity
  8
GRAU_10_
 62
     7
100
AcDbVertex
100
AcDb2dVertex
 10
153.0300986024047
 20
144.7760002079467
 30
0.0
  0
SEQEND
  5
24A
330
247
100
AcDbEntity
  8
GRAU_10_
 62
     7
  0
POLYLINE
  5
24B
330
1F
100
AcDbEntity
  8
GRAU_10_
 62
     7
100
AcDb2dPolyline
 66
     1
 10
0.0
 20
0.0
 30
0.0
  0
VERTEX
  5
24C
330
24B
100
AcDbEntity
  8
GRAU_10_
 62
     7
100
AcDbVertex
100
AcDb2dVertex
 10
153.0300986024047
 20
146.5501196519478
 30
0.0
  0
VERTEX
  5
24D
330
24B
100
AcDbEntity
  8
GRAU_10_
 62
     7
100
AcDbVertex
100
AcDb2dVertex
 10
153.0300986024047
 20
145.5309446522022
 30
0.0
  0
VERTEX
  5
24E
330
24B
100
AcDbEntity
  8
GRAU_10_
 62
     7
100
AcDbVertex
100
AcDb2dVertex
 10
153.0300986024047
 20
144.7760002079467
 30
0.0
  0
SEQEND
  5
24F
330
24B
100
AcDbEntity
  8
GRAU_10_
 62
     7
  0
POLYLINE
  5
250
330
1F
100
AcDbEntity
  8
GRAU_10_
 62
     7
100
AcDb2dPolyline
 66
     1
 10
0.0
 20
0.0
 30
0.0
  0
VERTEX
  5
251
330
250
100
AcDbEntity
  8
GRAU_10_
 62
     7
100
AcDbVertex
100
AcDb2dVertex
 10
134.9664652735874
 20
154.5161946499563
 30
0.0
  0
VERTEX
  5
252
330
250
100
AcDbEntity
  8
GRAU_10_
 62
     7
100
AcDbVertex
100
AcDb2dVertex
 10
134.4397680514967
 20
154.5161946499563
 30
0.0
  0
SEQEND
  5
253
330
250
100
AcDbEntity
  8
GRAU_10_
 62
     7
  0
POLYLINE
  5
254
330
1F
100
AcDbEntity
  8
GRAU_10_
 62
     7
100
AcDb2dPolyline
 66
     1
 10
0.0
 20
0.0
 30
0.0
  0
VERTEX
  5
255
330
254
100
AcDbEntity
  8
GRAU_10_
 62
     7
100
AcDbVertex
100
AcDb2dVertex
 10
133.3856680517601
 20
154.5161946499563
 30
0.0
  0
VERTEX
  5
256
330
254
100
AcDbEntity
  8
GRAU_10_
 62
     7
100
AcDbVertex
100
AcDb2dVertex
 10
132.3315680520239
 20
154.5161946499563
 30
0.0
  0
SEQEND
  5
257
330
254
100
AcDbEntity
  8
GRAU_10_
 62
     7
  0
POLYLINE
  5
258
330
1F
100
AcDbEntity
  8
GRAU_10_
 62
     7
100
AcDb2dPolyline
 66
     1
 10
0.0
 20
0.0
 30
0.0
  0
VERTEX
  5
259
330
258
100
AcDbEntity
  8
GRAU_10_
 62
     7
100
AcDbVertex
100
AcDb2dVertex
 10
131.2774680522873
 20
154.5161946499563
 30
0.0
  0
VERTEX
  5
25A
330
258
100
AcDbEntity
  8
GRAU_10_
 62
     7
100
AcDbVertex
100
AcDb2dVertex
 10
130.2233680525507
 20
154.5161946499563
 30
0.0
  0
SEQEND
  5
25B
330
258
100
AcDbEntity
  8
GRAU_10_
 62
     7
  0
POLYLINE
  5
25C
330
1F
100
AcDbEntity
  8
GRAU_10_
 62
     7
100
AcDb2dPolyline
 66
     1
 10
0.0
 20
0.0
 30
0.0
  0
VERTEX
  5
25D
330
25C
100
AcDbEntity
  8
GRAU_10_
 62
     7
100
AcDbVertex
100
AcDb2dVertex
 10
129.1692680528145
 20
154.5161946499563
 30
0.0
  0
VERTEX
  5
25E
330
25C
100
AcDbEntity
  8
GRAU_10_
 62
     7
100
AcDbVertex
100
AcDb2dVertex
 10
128.6418652751683
 20
154.5161946499563
 30
0.0
  0
SEQEND
  5
25F
330
25C
100
AcDbEntity
  8
GRAU_10_
 62
     7
  0
POLYLINE
  5
260
330
1F
100
AcDbEntity
  8
GRAU_10_
 62
     7
100
AcDb2dPolyline
 66
     1
 10
0.0
 20
0.0
 30
0.0
  0
VERTEX
  5
261
330
260
100
AcDbEntity
  8
GRAU_10_
 62
     7
100
AcDbVertex
100
AcDb2dVertex
 10
128.6418652751683
 20
131.1397279891334
 30
0.0
  0
VERTEX
  5
262
330
260
100
AcDbEntity
  8
GRAU_10_
 62
     7
100
AcDbVertex
100
AcDb2dVertex
 10
129.1692680528145
 20
131.1397279891334
 30
0.0
  0
SEQEND
  5
263
330
260
100
AcDbEntity
  8
GRAU_10_
 62
     7
  0
POLYLINE
  5
264
330
1F
100
AcDbEntity
  8
GRAU_10_
 62
     7
100
AcDb2dPolyline
 66
     1
 10
0.0
 20
0.0
 30
0.0
  0
VERTEX
  5
265
330
264
100
AcDbEntity
  8
GRAU_10_
 62
     7
100
AcDbVertex
100
AcDb2dVertex
 10
130.2233680525507
 20
131.1397279891334
 30
0.0
  0
VERTEX
  5
266
330
264
100
AcDbEntity
  8
GRAU_10_
 62
     7
100
AcDbVertex
100
AcDb2dVertex
 10
131.2774680522873
 20
131.1397279891334
 30
0.0
  0
SEQEND
  5
267
330
264
100
AcDbEntity
  8
GRAU_10_
 62
     7
  0
POLYLINE
  5
268
330
1F
100
AcDbEntity
  8
GRAU_10_
 62
     7
100
AcDb2dPolyline
 66
     1
 10
0.0
 20
0.0
 30
0.0
  0
VERTEX
  5
269
330
268
100
AcDbEntity
  8
GRAU_10_
 62
     7
100
AcDbVertex
100
AcDb2dVertex
 10
132.3315680520239
 20
131.1397279891334
 30
0.0
  0
VERTEX
  5
26A
330
268
100
AcDbEntity
  8
GRAU_10_
 62
     7
100
AcDbVertex
100
AcDb2dVertex
 10
133.3856680517601
 20
131.1397279891334
 30
0.0
  0
SEQEND
  5
26B
330
268
100
AcDbEntity
  8
GRAU_10_
 62
     7
  0
POLYLINE
  5
26C
330
1F
100
AcDbEntity
  8
GRAU_10_
 62
     7
100
AcDb2dPolyline
 66
     1
 10
0.0
 20
0.0
 30
0.0
  0
VERTEX
  5
26D
330
26C
100
AcDbEntity
  8
GRAU_10_
 62
     7
100
AcDbVertex
100
AcDb2dVertex
 10
134.4397680514967
 20
131.1397279891334
 30
0.0
  0
VERTEX
  5
26E
330
26C
100
AcDbEntity
  8
GRAU_10_
 62
     7
100
AcDbVertex
100
AcDb2dVertex
 10
134.9664652735874
 20
131.1397279891334
 30
0.0
  0
SEQEND
  5
26F
330
26C
100
AcDbEntity
  8
GRAU_10_
 62
     7
  0
POLYLINE
  5
270
330
1F
100
AcDbEntity
  8
GRAU_10_
 62
     7
100
AcDb2dPolyline
 66
     1
 10
0.0
 20
0.0
 30
0.0
  0
VERTEX
  5
271
330
270
100
AcDbEntity
  8
GRAU_10_
 62
     7
100
AcDbVertex
100
AcDb2dVertex
 10
139.5797402724338
 20
131.3979613224022
 30
0.0
  0
VERTEX
  5
272
330
270
100
AcDbEntity
  8
GRAU_10_
 62
     7
100
AcDbVertex
100
AcDb2dVertex
 10
140.0750402723102
 20
131.6840641001086
 30
0.0
  0
SEQEND
  5
273
330
270
100
AcDbEntity
  8
GRAU_10_
 62
     7
  0
POLYLINE
  5
274
330
1F
100
AcDbEntity
  8
GRAU_10_
 62
     7
100
AcDb2dPolyline
 66
     1
 10
0.0
 20
0.0
 30
0.0
  0
VERTEX
  5
275
330
274
100
AcDbEntity
  8
GRAU_10_
 62
     7
100
AcDbVertex
100
AcDb2dVertex
 10
141.0652874942848
 20
132.2555640999657
 30
0.0
  0
VERTEX
  5
276
330
274
100
AcDbEntity
  8
GRAU_10_
 62
     7
100
AcDbVertex
100
AcDb2dVertex
 10
142.0551819384819
 20
132.8274168776006
 30
0.0
  0
SEQEND
  5
277
330
274
100
AcDbEntity
  8
GRAU_10_
 62
     7
  0
POLYLINE
  5
278
330
1F
100
AcDbEntity
  8
GRAU_10_
 62
     7
100
AcDb2dPolyline
 66
     1
 10
0.0
 20
0.0
 30
0.0
  0
VERTEX
  5
279
330
278
100
AcDbEntity
  8
GRAU_10_
 62
     7
100
AcDbVertex
100
AcDb2dVertex
 10
143.0454291604565
 20
133.3989168774577
 30
0.0
  0
VERTEX
  5
27A
330
278
100
AcDbEntity
  8
GRAU_10_
 62
     7
100
AcDbVertex
100
AcDb2dVertex
 10
144.0353236046533
 20
133.9704168773147
 30
0.0
  0
SEQEND
  5
27B
330
278
100
AcDbEntity
  8
GRAU_10_
 62
     7
  0
POLYLINE
  5
27C
330
1F
100
AcDbEntity
  8
GRAU_10_
 62
     7
100
AcDb2dPolyline
 66
     1
 10
0.0
 20
0.0
 30
0.0
  0
VERTEX
  5
27D
330
27C
100
AcDbEntity
  8
GRAU_10_
 62
     7
100
AcDbVertex
100
AcDb2dVertex
 10
145.0259236044057
 20
134.5422696549496
 30
0.0
  0
VERTEX
  5
27E
330
27C
100
AcDbEntity
  8
GRAU_10_
 62
     7
100
AcDbVertex
100
AcDb2dVertex
 10
145.5208708265043
 20
134.8276668771002
 30
0.0
  0
SEQEND
  5
27F
330
27C
100
AcDbEntity
  8
GRAU_10_
 62
     7
  0
POLYLINE
  5
280
330
1F
100
AcDbEntity
  8
GRAU_10_
 62
     7
100
AcDb2dPolyline
 66
     1
 10
0.0
 20
0.0
 30
0.0
  0
VERTEX
  5
281
330
280
100
AcDbEntity
  8
GRAU_10_
 62
     7
100
AcDbVertex
100
AcDb2dVertex
 10
145.5208708265043
 20
150.8279029842117
 30
0.0
  0
VERTEX
  5
282
330
280
100
AcDbEntity
  8
GRAU_10_
 62
     7
100
AcDbVertex
100
AcDb2dVertex
 10
145.0259236044057
 20
151.1140057619179
 30
0.0
  0
SEQEND
  5
283
330
280
100
AcDbEntity
  8
GRAU_10_
 62
     7
  0
POLYLINE
  5
284
330
1F
100
AcDbEntity
  8
GRAU_10_
 62
     7
100
AcDb2dPolyline
 66
     1
 10
0.0
 20
0.0
 30
0.0
  0
VERTEX
  5
285
330
284
100
AcDbEntity
  8
GRAU_10_
 62
     7
100
AcDbVertex
100
AcDb2dVertex
 10
144.0353236046533
 20
151.6855057617747
 30
0.0
  0
VERTEX
  5
286
330
284
100
AcDbEntity
  8
GRAU_10_
 62
     7
100
AcDbVertex
100
AcDb2dVertex
 10
143.0454291604565
 20
152.2573585394098
 30
0.0
  0
SEQEND
  5
287
330
284
100
AcDbEntity
  8
GRAU_10_
 62
     7
  0
POLYLINE
  5
288
330
1F
100
AcDbEntity
  8
GRAU_10_
 62
     7
100
AcDb2dPolyline
 66
     1
 10
0.0
 20
0.0
 30
0.0
  0
VERTEX
  5
289
330
288
100
AcDbEntity
  8
GRAU_10_
 62
     7
100
AcDbVertex
100
AcDb2dVertex
 10
142.0551819384819
 20
152.8288585392666
 30
0.0
  0
VERTEX
  5
28A
330
288
100
AcDbEntity
  8
GRAU_10_
 62
     7
100
AcDbVertex
100
AcDb2dVertex
 10
141.0652874942848
 20
153.400358539124
 30
0.0
  0
SEQEND
  5
28B
330
288
100
AcDbEntity
  8
GRAU_10_
 62
     7
  0
POLYLINE
  5
28C
330
1F
100
AcDbEntity
  8
GRAU_10_
 62
     7
100
AcDb2dPolyline
 66
     1
 10
0.0
 20
0.0
 30
0.0
  0
VERTEX
  5
28D
330
28C
100
AcDbEntity
  8
GRAU_10_
 62
     7
100
AcDbVertex
100
AcDb2dVertex
 10
140.0750402723102
 20
153.9722113167585
 30
0.0
  0
VERTEX
  5
28E
330
28C
100
AcDbEntity
  8
GRAU_10_
 62
     7
100
AcDbVertex
100
AcDb2dVertex
 10
139.5797402724338
 20
154.2576085389098
 30
0.0
  0
SEQEND
  5
28F
330
28C
100
AcDbEntity
  8
GRAU_10_
 62
     7
  0
POLYLINE
  5
290
330
1F
100
AcDbEntity
  8
GRAU_10_
 62
     7
100
AcDb2dPolyline
 66
     1
 10
0.0
 20
0.0
 30
0.0
  0
VERTEX
  5
291
330
290
100
AcDbEntity
  8
GRAU_10_
 62
     7
100
AcDbVertex
100
AcDb2dVertex
 10
145.5208708265043
 20
134.8276668771002
 30
0.0
  0
VERTEX
  5
292
330
290
100
AcDbEntity
  8
GRAU_10_
 62
     7
100
AcDbVertex
100
AcDb2dVertex
 10
145.5208708265043
 20
134.9373807659619
 30
0.0
  0
VERTEX
  5
293
330
290
100
AcDbEntity
  8
GRAU_10_
 62
     7
100
AcDbVertex
100
AcDb2dVertex
 10
145.5208708265043
 20
135.2612307658811
 30
0.0
  0
VERTEX
  5
294
330
290
100
AcDbEntity
  8
GRAU_10_
 62
     7
100
AcDbVertex
100
AcDb2dVertex
 10
145.5208708265043
 20
135.3279057658642
 30
0.0
  0
SEQEND
  5
295
330
290
100
AcDbEntity
  8
GRAU_10_
 62
     7
  0
POLYLINE
  5
296
330
1F
100
AcDbEntity
  8
GRAU_10_
 62
     7
100
AcDb2dPolyline
 66
     1
 10
0.0
 20
0.0
 30
0.0
  0
VERTEX
  5
297
330
296
100
AcDbEntity
  8
GRAU_10_
 62
     7
100
AcDbVertex
100
AcDb2dVertex
 10
145.5208708265043
 20
136.3280307656142
 30
0.0
  0
VERTEX
  5
298
330
296
100
AcDbEntity
  8
GRAU_10_
 62
     7
100
AcDbVertex
100
AcDb2dVertex
 10
145.5208708265043
 20
136.5146502100122
 30
0.0
  0
VERTEX
  5
299
330
296
100
AcDbEntity
  8
GRAU_10_
 62
     7
100
AcDbVertex
100
AcDb2dVertex
 10
145.5208708265043
 20
137.3281557653642
 30
0.0
  0
SEQEND
  5
29A
330
296
100
AcDbEntity
  8
GRAU_10_
 62
     7
  0
POLYLINE
  5
29B
330
1F
100
AcDbEntity
  8
GRAU_10_
 62
     7
100
AcDb2dPolyline
 66
     1
 10
0.0
 20
0.0
 30
0.0
  0
VERTEX
  5
29C
330
29B
100
AcDbEntity
  8
GRAU_10_
 62
     7
100
AcDbVertex
100
AcDb2dVertex
 10
145.5208708265043
 20
138.3275752095587
 30
0.0
  0
VERTEX
  5
29D
330
29B
100
AcDbEntity
  8
GRAU_10_
 62
     7
100
AcDbVertex
100
AcDb2dVertex
 10
145.5208708265043
 20
138.4521057650834
 30
0.0
  0
VERTEX
  5
29E
330
29B
100
AcDbEntity
  8
GRAU_10_
 62
     7
100
AcDbVertex
100
AcDb2dVertex
 10
145.5208708265043
 20
139.3280529870867
 30
0.0
  0
SEQEND
  5
29F
330
29B
100
AcDbEntity
  8
GRAU_10_
 62
     7
  0
POLYLINE
  5
2A0
330
1F
100
AcDbEntity
  8
GRAU_10_
 62
     7
100
AcDb2dPolyline
 66
     1
 10
0.0
 20
0.0
 30
0.0
  0
VERTEX
  5
2A1
330
2A0
100
AcDbEntity
  8
GRAU_10_
 62
     7
100
AcDbVertex
100
AcDb2dVertex
 10
145.5208708265043
 20
140.3278252090586
 30
0.0
  0
VERTEX
  5
2A2
330
2A0
100
AcDbEntity
  8
GRAU_10_
 62
     7
100
AcDbVertex
100
AcDb2dVertex
 10
145.5208708265043
 20
140.8644002089247
 30
0.0
  0
VERTEX
  5
2A3
330
2A0
100
AcDbEntity
  8
GRAU_10_
 62
     7
100
AcDbVertex
100
AcDb2dVertex
 10
145.5208708265043
 20
141.3279502088089
 30
0.0
  0
SEQEND
  5
2A4
330
2A0
100
AcDbEntity
  8
GRAU_10_
 62
     7
  0
POLYLINE
  5
2A5
330
1F
100
AcDbEntity
  8
GRAU_10_
 62
     7
100
AcDb2dPolyline
 66
     1
 10
0.0
 20
0.0
 30
0.0
  0
VERTEX
  5
2A6
330
2A5
100
AcDbEntity
  8
GRAU_10_
 62
     7
100
AcDbVertex
100
AcDb2dVertex
 10
145.5208708265043
 20
142.3280752085586
 30
0.0
  0
VERTEX
  5
2A7
330
2A5
100
AcDbEntity
  8
GRAU_10_
 62
     7
100
AcDbVertex
100
AcDb2dVertex
 10
145.5208708265043
 20
143.3278474305311
 30
0.0
  0
SEQEND
  5
2A8
330
2A5
100
AcDbEntity
  8
GRAU_10_
 62
     7
  0
POLYLINE
  5
2A9
330
1F
100
AcDbEntity
  8
GRAU_10_
 62
     7
100
AcDb2dPolyline
 66
     1
 10
0.0
 20
0.0
 30
0.0
  0
VERTEX
  5
2AA
330
2A9
100
AcDbEntity
  8
GRAU_10_
 62
     7
100
AcDbVertex
100
AcDb2dVertex
 10
145.5208708265043
 20
144.3279724302808
 30
0.0
  0
VERTEX
  5
2AB
330
2A9
100
AcDbEntity
  8
GRAU_10_
 62
     7
100
AcDbVertex
100
AcDb2dVertex
 10
145.5208708265043
 20
144.791522430165
 30
0.0
  0
VERTEX
  5
2AC
330
2A9
100
AcDbEntity
  8
GRAU_10_
 62
     7
100
AcDbVertex
100
AcDb2dVertex
 10
145.5208708265043
 20
145.3277446522533
 30
0.0
  0
SEQEND
  5
2AD
330
2A9
100
AcDbEntity
  8
GRAU_10_
 62
     7
  0
POLYLINE
  5
2AE
330
1F
100
AcDbEntity
  8
GRAU_10_
 62
     7
100
AcDb2dPolyline
 66
     1
 10
0.0
 20
0.0
 30
0.0
  0
VERTEX
  5
2AF
330
2AE
100
AcDbEntity
  8
GRAU_10_
 62
     7
100
AcDbVertex
100
AcDb2dVertex
 10
145.5208708265043
 20
146.327869652003
 30
0.0
  0
VERTEX
  5
2B0
330
2AE
100
AcDbEntity
  8
GRAU_10_
 62
     7
100
AcDbVertex
100
AcDb2dVertex
 10
145.5208708265043
 20
147.2034640962285
 30
0.0
  0
VERTEX
  5
2B1
330
2AE
100
AcDbEntity
  8
GRAU_10_
 62
     7
100
AcDbVertex
100
AcDb2dVertex
 10
145.5208708265043
 20
147.3279946517533
 30
0.0
  0
SEQEND
  5
2B2
330
2AE
100
AcDbEntity
  8
GRAU_10_
 62
     7
  0
POLYLINE
  5
2B3
330
1F
100
AcDbEntity
  8
GRAU_10_
 62
     7
100
AcDb2dPolyline
 66
     1
 10
0.0
 20
0.0
 30
0.0
  0
VERTEX
  5
2B4
330
2B3
100
AcDbEntity
  8
GRAU_10_
 62
     7
100
AcDbVertex
100
AcDb2dVertex
 10
145.5208708265043
 20
148.3277668737252
 30
0.0
  0
VERTEX
  5
2B5
330
2B3
100
AcDbEntity
  8
GRAU_10_
 62
     7
100
AcDbVertex
100
AcDb2dVertex
 10
145.5208708265043
 20
149.1412724290775
 30
0.0
  0
VERTEX
  5
2B6
330
2B3
100
AcDbEntity
  8
GRAU_10_
 62
     7
100
AcDbVertex
100
AcDb2dVertex
 10
145.5208708265043
 20
149.3282446512532
 30
0.0
  0
SEQEND
  5
2B7
330
2B3
100
AcDbEntity
  8
GRAU_10_
 62
     7
  0
POLYLINE
  5
2B8
330
1F
100
AcDbEntity
  8
GRAU_10_
 62
     7
100
AcDb2dPolyline
 66
     1
 10
0.0
 20
0.0
 30
0.0
  0
VERTEX
  5
2B9
330
2B8
100
AcDbEntity
  8
GRAU_10_
 62
     7
100
AcDbVertex
100
AcDb2dVertex
 10
145.5208708265043
 20
150.3276640954477
 30
0.0
  0
VERTEX
  5
2BA
330
2B8
100
AcDbEntity
  8
GRAU_10_
 62
     7
100
AcDbVertex
100
AcDb2dVertex
 10
145.5208708265043
 20
150.3946918732086
 30
0.0
  0
VERTEX
  5
2BB
330
2B8
100
AcDbEntity
  8
GRAU_10_
 62
     7
100
AcDbVertex
100
AcDb2dVertex
 10
145.5208708265043
 20
150.7188946509053
 30
0.0
  0
VERTEX
  5
2BC
330
2B8
100
AcDbEntity
  8
GRAU_10_
 62
     7
100
AcDbVertex
100
AcDb2dVertex
 10
145.5208708265043
 20
150.8279029842117
 30
0.0
  0
SEQEND
  5
2BD
330
2B8
100
AcDbEntity
  8
GRAU_10_
 62
     7
  0
POLYLINE
  5
2BE
330
1F
100
AcDbEntity
  8
GRAU_10_
 62
     7
100
AcDb2dPolyline
 66
     1
 10
0.0
 20
0.0
 30
0.0
  0
VERTEX
  5
2BF
330
2BE
100
AcDbEntity
  8
GRAU_10_
 62
     7
100
AcDbVertex
100
AcDb2dVertex
 10
139.2802319391756
 20
158.3276057601146
 30
0.0
  0
VERTEX
  5
2C0
330
2BE
100
AcDbEntity
  8
GRAU_10_
 62
     7
100
AcDbVertex
100
AcDb2dVertex
 10
138.8427874948403
 20
158.3276057601146
 30
0.0
  0
SEQEND
  5
2C1
330
2BE
100
AcDbEntity
  8
GRAU_10_
 62
     7
  0
POLYLINE
  5
2C2
330
1F
100
AcDbEntity
  8
GRAU_10_
 62
     7
100
AcDb2dPolyline
 66
     1
 10
0.0
 20
0.0
 30
0.0
  0
VERTEX
  5
2C3
330
2C2
100
AcDbEntity
  8
GRAU_10_
 62
     7
100
AcDbVertex
100
AcDb2dVertex
 10
137.9675458283926
 20
158.3276057601146
 30
0.0
  0
VERTEX
  5
2C4
330
2C2
100
AcDbEntity
  8
GRAU_10_
 62
     7
100
AcDbVertex
100
AcDb2dVertex
 10
137.0926569397222
 20
158.3276057601146
 30
0.0
  0
SEQEND
  5
2C5
330
2C2
100
AcDbEntity
  8
GRAU_10_
 62
     7
  0
POLYLINE
  5
2C6
330
1F
100
AcDbEntity
  8
GRAU_10_
 62
     7
100
AcDb2dPolyline
 66
     1
 10
0.0
 20
0.0
 30
0.0
  0
VERTEX
  5
2C7
330
2C6
100
AcDbEntity
  8
GRAU_10_
 62
     7
100
AcDbVertex
100
AcDb2dVertex
 10
136.2174152732744
 20
158.3276057601146
 30
0.0
  0
VERTEX
  5
2C8
330
2C6
100
AcDbEntity
  8
GRAU_10_
 62
     7
100
AcDbVertex
100
AcDb2dVertex
 10
135.7799708289394
 20
158.3276057601146
 30
0.0
  0
SEQEND
  5
2C9
330
2C6
100
AcDbEntity
  8
GRAU_10_
 62
     7
  0
POLYLINE
  5
2CA
330
1F
100
AcDbEntity
  8
GRAU_10_
 62
     7
100
AcDb2dPolyline
 66
     1
 10
0.0
 20
0.0
 30
0.0
  0
VERTEX
  5
2CB
330
2CA
100
AcDbEntity
  8
GRAU_10_
 62
     7
100
AcDbVertex
100
AcDb2dVertex
 10
139.2802319391756
 20
153.4409279835582
 30
0.0
  0
VERTEX
  5
2CC
330
2CA
100
AcDbEntity
  8
GRAU_10_
 62
     7
100
AcDbVertex
100
AcDb2dVertex
 10
138.8427874948403
 20
153.4409279835582
 30
0.0
  0
SEQEND
  5
2CD
330
2CA
100
AcDbEntity
  8
GRAU_10_
 62
     7
  0
POLYLINE
  5
2CE
330
1F
100
AcDbEntity
  8
GRAU_10_
 62
     7
100
AcDb2dPolyline
 66
     1
 10
0.0
 20
0.0
 30
0.0
  0
VERTEX
  5
2CF
330
2CE
100
AcDbEntity
  8
GRAU_10_
 62
     7
100
AcDbVertex
100
AcDb2dVertex
 10
137.9675458283926
 20
153.4409279835582
 30
0.0
  0
VERTEX
  5
2D0
330
2CE
100
AcDbEntity
  8
GRAU_10_
 62
     7
100
AcDbVertex
100
AcDb2dVertex
 10
137.0926569397222
 20
153.4409279835582
 30
0.0
  0
SEQEND
  5
2D1
330
2CE
100
AcDbEntity
  8
GRAU_10_
 62
     7
  0
POLYLINE
  5
2D2
330
1F
100
AcDbEntity
  8
GRAU_10_
 62
     7
100
AcDb2dPolyline
 66
     1
 10
0.0
 20
0.0
 30
0.0
  0
VERTEX
  5
2D3
330
2D2
100
AcDbEntity
  8
GRAU_10_
 62
     7
100
AcDbVertex
100
AcDb2dVertex
 10
136.2174152732744
 20
153.4409279835582
 30
0.0
  0
VERTEX
  5
2D4
330
2D2
100
AcDbEntity
  8
GRAU_10_
 62
     7
100
AcDbVertex
100
AcDb2dVertex
 10
135.7799708289394
 20
153.4409279835582
 30
0.0
  0
VERTEX
  5
2D5
330
2D2
100
AcDbEntity
  8
GRAU_10_
 62
     7
100
AcDbVertex
100
AcDb2dVertex
 10
135.7799708289394
 20
153.9954946500863
 30
0.0
  0
SEQEND
  5
2D6
330
2D2
100
AcDbEntity
  8
GRAU_10_
 62
     7
  0
POLYLINE
  5
2D7
330
1F
100
AcDbEntity
  8
GRAU_10_
 62
     7
100
AcDb2dPolyline
 66
     1
 10
0.0
 20
0.0
 30
0.0
  0
VERTEX
  5
2D8
330
2D7
100
AcDbEntity
  8
GRAU_10_
 62
     7
100
AcDbVertex
100
AcDb2dVertex
 10
135.7799708289394
 20
155.1046279831424
 30
0.0
  0
VERTEX
  5
2D9
330
2D7
100
AcDbEntity
  8
GRAU_10_
 62
     7
100
AcDbVertex
100
AcDb2dVertex
 10
135.7799708289394
 20
156.2137613161985
 30
0.0
  0
SEQEND
  5
2DA
330
2D7
100
AcDbEntity
  8
GRAU_10_
 62
     7
  0
POLYLINE
  5
2DB
330
1F
100
AcDbEntity
  8
GRAU_10_
 62
     7
100
AcDb2dPolyline
 66
     1
 10
0.0
 20
0.0
 30
0.0
  0
VERTEX
  5
2DC
330
2DB
100
AcDbEntity
  8
GRAU_10_
 62
     7
100
AcDbVertex
100
AcDb2dVertex
 10
135.7799708289394
 20
157.3228946492547
 30
0.0
  0
VERTEX
  5
2DD
330
2DB
100
AcDbEntity
  8
GRAU_10_
 62
     7
100
AcDbVertex
100
AcDb2dVertex
 10
135.7799708289394
 20
157.5409113158663
 30
0.0
  0
VERTEX
  5
2DE
330
2DB
100
AcDbEntity
  8
GRAU_10_
 62
     7
100
AcDbVertex
100
AcDb2dVertex
 10
135.7799708289394
 20
158.4320279823105
 30
0.0
  0
SEQEND
  5
2DF
330
2DB
100
AcDbEntity
  8
GRAU_10_
 62
     7
  0
POLYLINE
  5
2E0
330
1F
100
AcDbEntity
  8
GRAU_10_
 62
     7
100
AcDb2dPolyline
 66
     1
 10
0.0
 20
0.0
 30
0.0
  0
VERTEX
  5
2E1
330
2E0
100
AcDbEntity
  8
GRAU_10_
 62
     7
100
AcDbVertex
100
AcDb2dVertex
 10
135.7799708289394
 20
159.5408085375889
 30
0.0
  0
VERTEX
  5
2E2
330
2E0
100
AcDbEntity
  8
GRAU_10_
 62
     7
100
AcDbVertex
100
AcDb2dVertex
 10
135.7799708289394
 20
160.0953752041166
 30
0.0
  0
SEQEND
  5
2E3
330
2E0
100
AcDbEntity
  8
GRAU_10_
 62
     7
  0
POLYLINE
  5
2E4
330
1F
100
AcDbEntity
  8
GRAU_10_
 62
     7
100
AcDb2dPolyline
 66
     1
 10
0.0
 20
0.0
 30
0.0
  0
VERTEX
  5
2E5
330
2E4
100
AcDbEntity
  8
GRAU_10_
 62
     7
100
AcDbVertex
100
AcDb2dVertex
 10
139.2802319391756
 20
153.4409279835582
 30
0.0
  0
VERTEX
  5
2E6
330
2E4
100
AcDbEntity
  8
GRAU_10_
 62
     7
100
AcDbVertex
100
AcDb2dVertex
 10
139.2802319391756
 20
153.9954946500863
 30
0.0
  0
SEQEND
  5
2E7
330
2E4
100
AcDbEntity
  8
GRAU_10_
 62
     7
  0
POLYLINE
  5
2E8
330
1F
100
AcDbEntity
  8
GRAU_10_
 62
     7
100
AcDb2dPolyline
 66
     1
 10
0.0
 20
0.0
 30
0.0
  0
VERTEX
  5
2E9
330
2E8
100
AcDbEntity
  8
GRAU_10_
 62
     7
100
AcDbVertex
100
AcDb2dVertex
 10
139.2802319391756
 20
155.1046279831424
 30
0.0
  0
VERTEX
  5
2EA
330
2E8
100
AcDbEntity
  8
GRAU_10_
 62
     7
100
AcDbVertex
100
AcDb2dVertex
 10
139.2802319391756
 20
156.2137613161985
 30
0.0
  0
SEQEND
  5
2EB
330
2E8
100
AcDbEntity
  8
GRAU_10_
 62
     7
  0
POLYLINE
  5
2EC
330
1F
100
AcDbEntity
  8
GRAU_10_
 62
     7
100
AcDb2dPolyline
 66
     1
 10
0.0
 20
0.0
 30
0.0
  0
VERTEX
  5
2ED
330
2EC
100
AcDbEntity
  8
GRAU_10_
 62
     7
100
AcDbVertex
100
AcDb2dVertex
 10
139.2802319391756
 20
157.3228946492547
 30
0.0
  0
VERTEX
  5
2EE
330
2EC
100
AcDbEntity
  8
GRAU_10_
 62
     7
100
AcDbVertex
100
AcDb2dVertex
 10
139.2802319391756
 20
157.5409113158663
 30
0.0
  0
VERTEX
  5
2EF
330
2EC
100
AcDbEntity
  8
GRAU_10_
 62
     7
100
AcDbVertex
100
AcDb2dVertex
 10
139.2802319391756
 20
158.4320279823105
 30
0.0
  0
SEQEND
  5
2F0
330
2EC
100
AcDbEntity
  8
GRAU_10_
 62
     7
  0
POLYLINE
  5
2F1
330
1F
100
AcDbEntity
  8
GRAU_10_
 62
     7
100
AcDb2dPolyline
 66
     1
 10
0.0
 20
0.0
 30
0.0
  0
VERTEX
  5
2F2
330
2F1
100
AcDbEntity
  8
GRAU_10_
 62
     7
100
AcDbVertex
100
AcDb2dVertex
 10
139.2802319391756
 20
159.5408085375889
 30
0.0
  0
VERTEX
  5
2F3
330
2F1
100
AcDbEntity
  8
GRAU_10_
 62
     7
100
AcDbVertex
100
AcDb2dVertex
 10
139.2802319391756
 20
160.0953752041166
 30
0.0
  0
SEQEND
  5
2F4
330
2F1
100
AcDbEntity
  8
GRAU_10_
 62
     7
  0
POLYLINE
  5
2F5
330
1F
100
AcDbEntity
  8
GRAU_10_
 62
     7
100
AcDb2dPolyline
 66
     1
 10
0.0
 20
0.0
 30
0.0
  0
VERTEX
  5
2F6
330
2F5
100
AcDbEntity
  8
GRAU_10_
 62
     7
100
AcDbVertex
100
AcDb2dVertex
 10
148.0301791592103
 20
166.1462196470484
 30
0.0
  0
VERTEX
  5
2F7
330
2F5
100
AcDbEntity
  8
GRAU_10_
 62
     7
100
AcDbVertex
100
AcDb2dVertex
 10
148.0301791592103
 20
164.8402363140418
 30
0.0
  0
VERTEX
  5
2F8
330
2F5
100
AcDbEntity
  8
GRAU_10_
 62
     7
100
AcDbVertex
100
AcDb2dVertex
 10
148.0301791592103
 20
163.568472425471
 30
0.0
  0
VERTEX
  5
2F9
330
2F5
100
AcDbEntity
  8
GRAU_10_
 62
     7
100
AcDbVertex
100
AcDb2dVertex
 10
148.0301791592103
 20
162.3669113146599
 30
0.0
  0
VERTEX
  5
2FA
330
2F5
100
AcDbEntity
  8
GRAU_10_
 62
     7
100
AcDbVertex
100
AcDb2dVertex
 10
148.0301791592103
 20
161.2662446482688
 30
0.0
  0
VERTEX
  5
2FB
330
2F5
100
AcDbEntity
  8
GRAU_10_
 62
     7
100
AcDbVertex
100
AcDb2dVertex
 10
148.0301791592103
 20
160.2964585373999
 30
0.0
  0
VERTEX
  5
2FC
330
2F5
100
AcDbEntity
  8
GRAU_10_
 62
     7
100
AcDbVertex
100
AcDb2dVertex
 10
148.0301791592103
 20
159.4840113153808
 30
0.0
  0
SEQEND
  5
2FD
330
2F5
100
AcDbEntity
  8
GRAU_10_
 62
     7
  0
POLYLINE
  5
2FE
330
1F
100
AcDbEntity
  8
GRAU_10_
 62
     7
100
AcDb2dPolyline
 66
     1
 10
0.0
 20
0.0
 30
0.0
  0
VERTEX
  5
2FF
330
2FE
100
AcDbEntity
  8
GRAU_10_
 62
     7
100
AcDbVertex
100
AcDb2dVertex
 10
127.0300236089047
 20
159.4840113153808
 30
0.0
  0
VERTEX
  5
300
330
2FE
100
AcDbEntity
  8
GRAU_10_
 62
     7
100
AcDbVertex
100
AcDb2dVertex
 10
127.0300236089047
 20
160.2964585373999
 30
0.0
  0
VERTEX
  5
301
330
2FE
100
AcDbEntity
  8
GRAU_10_
 62
     7
100
AcDbVertex
100
AcDb2dVertex
 10
127.0300236089047
 20
161.2662446482688
 30
0.0
  0
VERTEX
  5
302
330
2FE
100
AcDbEntity
  8
GRAU_10_
 62
     7
100
AcDbVertex
100
AcDb2dVertex
 10
127.0300236089047
 20
162.3669113146599
 30
0.0
  0
VERTEX
  5
303
330
2FE
100
AcDbEntity
  8
GRAU_10_
 62
     7
100
AcDbVertex
100
AcDb2dVertex
 10
127.0300236089047
 20
163.568472425471
 30
0.0
  0
VERTEX
  5
304
330
2FE
100
AcDbEntity
  8
GRAU_10_
 62
     7
100
AcDbVertex
100
AcDb2dVertex
 10
127.0300236089047
 20
164.8402363140418
 30
0.0
  0
VERTEX
  5
305
330
2FE
100
AcDbEntity
  8
GRAU_10_
 62
     7
100
AcDbVertex
100
AcDb2dVertex
 10
127.0300236089047
 20
166.1462196470484
 30
0.0
  0
SEQEND
  5
306
330
2FE
100
AcDbEntity
  8
GRAU_10_
 62
     7
  0
POLYLINE
  5
307
330
1F
100
AcDbEntity
  8
GRAU_10_
 62
     7
100
AcDb2dPolyline
 66
     1
 10
0.0
 20
0.0
 30
0.0
  0
VERTEX
  5
308
330
307
100
AcDbEntity
  8
GRAU_10_
 62
     7
100
AcDbVertex
100
AcDb2dVertex
 10
149.6296736032548
 20
134.8276668771002
 30
0.0
  0
VERTEX
  5
309
330
307
100
AcDbEntity
  8
GRAU_10_
 62
     7
100
AcDbVertex
100
AcDb2dVertex
 10
149.771490269886
 20
134.8865807659748
 30
0.0
  0
SEQEND
  5
30A
330
307
100
AcDbEntity
  8
GRAU_10_
 62
     7
  0
POLYLINE
  5
30B
330
1F
100
AcDbEntity
  8
GRAU_10_
 62
     7
100
AcDb2dPolyline
 66
     1
 10
0.0
 20
0.0
 30
0.0
  0
VERTEX
  5
30C
330
30B
100
AcDbEntity
  8
GRAU_10_
 62
     7
100
AcDbVertex
100
AcDb2dVertex
 10
149.971515269836
 20
135.0866057659245
 30
0.0
  0
VERTEX
  5
30D
330
30B
100
AcDbEntity
  8
GRAU_10_
 62
     7
100
AcDbVertex
100
AcDb2dVertex
 10
150.0300763809325
 20
135.2277168770002
 30
0.0
  0
SEQEND
  5
30E
330
30B
100
AcDbEntity
  8
GRAU_10_
 62
     7
  0
POLYLINE
  5
30F
330
1F
100
AcDbEntity
  8
GRAU_10_
 62
     7
100
AcDb2dPolyline
 66
     1
 10
0.0
 20
0.0
 30
0.0
  0
VERTEX
  5
310
330
30F
100
AcDbEntity
  8
GRAU_10_
 62
     7
100
AcDbVertex
100
AcDb2dVertex
 10
150.0300763809325
 20
150.4278529843118
 30
0.0
  0
VERTEX
  5
311
330
30F
100
AcDbEntity
  8
GRAU_10_
 62
     7
100
AcDbVertex
100
AcDb2dVertex
 10
149.971515269836
 20
150.569669650943
 30
0.0
  0
SEQEND
  5
312
330
30F
100
AcDbEntity
  8
GRAU_10_
 62
     7
  0
POLYLINE
  5
313
330
1F
100
AcDbEntity
  8
GRAU_10_
 62
     7
100
AcDb2dPolyline
 66
     1
 10
0.0
 20
0.0
 30
0.0
  0
VERTEX
  5
314
330
313
100
AcDbEntity
  8
GRAU_10_
 62
     7
100
AcDbVertex
100
AcDb2dVertex
 10
149.771490269886
 20
150.7696946508927
 30
0.0
  0
VERTEX
  5
315
330
313
100
AcDbEntity
  8
GRAU_10_
 62
     7
100
AcDbVertex
100
AcDb2dVertex
 10
149.6296736032548
 20
150.8279029842117
 30
0.0
  0
SEQEND
  5
316
330
313
100
AcDbEntity
  8
GRAU_10_
 62
     7
  0
POLYLINE
  5
317
330
1F
100
AcDbEntity
  8
GRAU_10_
 62
     7
100
AcDb2dPolyline
 66
     1
 10
0.0
 20
0.0
 30
0.0
  0
VERTEX
  5
318
330
317
100
AcDbEntity
  8
GRAU_10_
 62
     7
100
AcDbVertex
100
AcDb2dVertex
 10
150.0300763809325
 20
135.2277168770002
 30
0.0
  0
VERTEX
  5
319
330
317
100
AcDbEntity
  8
GRAU_10_
 62
     7
100
AcDbVertex
100
AcDb2dVertex
 10
150.0300763809325
 20
135.3314335436412
 30
0.0
  0
VERTEX
  5
31A
330
317
100
AcDbEntity
  8
GRAU_10_
 62
     7
100
AcDbVertex
100
AcDb2dVertex
 10
150.0300763809325
 20
135.6394085435644
 30
0.0
  0
VERTEX
  5
31B
330
317
100
AcDbEntity
  8
GRAU_10_
 62
     7
100
AcDbVertex
100
AcDb2dVertex
 10
150.0300763809325
 20
135.7029085435483
 30
0.0
  0
SEQEND
  5
31C
330
317
100
AcDbEntity
  8
GRAU_10_
 62
     7
  0
POLYLINE
  5
31D
330
1F
100
AcDbEntity
  8
GRAU_10_
 62
     7
100
AcDb2dPolyline
 66
     1
 10
0.0
 20
0.0
 30
0.0
  0
VERTEX
  5
31E
330
31D
100
AcDbEntity
  8
GRAU_10_
 62
     7
100
AcDbVertex
100
AcDb2dVertex
 10
150.0300763809325
 20
136.6525863210886
 30
0.0
  0
VERTEX
  5
31F
330
31D
100
AcDbEntity
  8
GRAU_10_
 62
     7
100
AcDbVertex
100
AcDb2dVertex
 10
150.0300763809325
 20
136.8303863210442
 30
0.0
  0
VERTEX
  5
320
330
31D
100
AcDbEntity
  8
GRAU_10_
 62
     7
100
AcDbVertex
100
AcDb2dVertex
 10
150.0300763809325
 20
137.6029696541842
 30
0.0
  0
SEQEND
  5
321
330
31D
100
AcDbEntity
  8
GRAU_10_
 62
     7
  0
POLYLINE
  5
322
330
1F
100
AcDbEntity
  8
GRAU_10_
 62
     7
100
AcDb2dPolyline
 66
     1
 10
0.0
 20
0.0
 30
0.0
  0
VERTEX
  5
323
330
322
100
AcDbEntity
  8
GRAU_10_
 62
     7
100
AcDbVertex
100
AcDb2dVertex
 10
150.0300763809325
 20
138.5530002095027
 30
0.0
  0
VERTEX
  5
324
330
322
100
AcDbEntity
  8
GRAU_10_
 62
     7
100
AcDbVertex
100
AcDb2dVertex
 10
150.0300763809325
 20
138.6708279872506
 30
0.0
  0
VERTEX
  5
325
330
322
100
AcDbEntity
  8
GRAU_10_
 62
     7
100
AcDbVertex
100
AcDb2dVertex
 10
150.0300763809325
 20
139.5030307648205
 30
0.0
  0
SEQEND
  5
326
330
322
100
AcDbEntity
  8
GRAU_10_
 62
     7
  0
POLYLINE
  5
327
330
1F
100
AcDbEntity
  8
GRAU_10_
 62
     7
100
AcDb2dPolyline
 66
     1
 10
0.0
 20
0.0
 30
0.0
  0
VERTEX
  5
328
330
327
100
AcDbEntity
  8
GRAU_10_
 62
     7
100
AcDbVertex
100
AcDb2dVertex
 10
150.0300763809325
 20
140.4527085423608
 30
0.0
  0
VERTEX
  5
329
330
327
100
AcDbEntity
  8
GRAU_10_
 62
     7
100
AcDbVertex
100
AcDb2dVertex
 10
150.0300763809325
 20
140.9621196533447
 30
0.0
  0
VERTEX
  5
32A
330
327
100
AcDbEntity
  8
GRAU_10_
 62
     7
100
AcDbVertex
100
AcDb2dVertex
 10
150.0300763809325
 20
141.402739097679
 30
0.0
  0
SEQEND
  5
32B
330
327
100
AcDbEntity
  8
GRAU_10_
 62
     7
  0
POLYLINE
  5
32C
330
1F
100
AcDbEntity
  8
GRAU_10_
 62
     7
100
AcDb2dPolyline
 66
     1
 10
0.0
 20
0.0
 30
0.0
  0
VERTEX
  5
32D
330
32C
100
AcDbEntity
  8
GRAU_10_
 62
     7
100
AcDbVertex
100
AcDb2dVertex
 10
150.0300763809325
 20
142.3527696529968
 30
0.0
  0
VERTEX
  5
32E
330
32C
100
AcDbEntity
  8
GRAU_10_
 62
     7
100
AcDbVertex
100
AcDb2dVertex
 10
150.0300763809325
 20
143.3028002083152
 30
0.0
  0
SEQEND
  5
32F
330
32C
100
AcDbEntity
  8
GRAU_10_
 62
     7
  0
POLYLINE
  5
330
330
1F
100
AcDbEntity
  8
GRAU_10_
 62
     7
100
AcDb2dPolyline
 66
     1
 10
0.0
 20
0.0
 30
0.0
  0
VERTEX
  5
331
330
330
100
AcDbEntity
  8
GRAU_10_
 62
     7
100
AcDbVertex
100
AcDb2dVertex
 10
150.0300763809325
 20
144.2531835414107
 30
0.0
  0
VERTEX
  5
332
330
330
100
AcDbEntity
  8
GRAU_10_
 62
     7
100
AcDbVertex
100
AcDb2dVertex
 10
150.0300763809325
 20
144.6934502079672
 30
0.0
  0
VERTEX
  5
333
330
330
100
AcDbEntity
  8
GRAU_10_
 62
     7
100
AcDbVertex
100
AcDb2dVertex
 10
150.0300763809325
 20
145.2032140967285
 30
0.0
  0
SEQEND
  5
334
330
330
100
AcDbEntity
  8
GRAU_10_
 62
     7
  0
POLYLINE
  5
335
330
1F
100
AcDbEntity
  8
GRAU_10_
 62
     7
100
AcDb2dPolyline
 66
     1
 10
0.0
 20
0.0
 30
0.0
  0
VERTEX
  5
336
330
335
100
AcDbEntity
  8
GRAU_10_
 62
     7
100
AcDbVertex
100
AcDb2dVertex
 10
150.0300763809325
 20
146.153244652047
 30
0.0
  0
VERTEX
  5
337
330
335
100
AcDbEntity
  8
GRAU_10_
 62
     7
100
AcDbVertex
100
AcDb2dVertex
 10
150.0300763809325
 20
146.9847418740613
 30
0.0
  0
VERTEX
  5
338
330
335
100
AcDbEntity
  8
GRAU_10_
 62
     7
100
AcDbVertex
100
AcDb2dVertex
 10
150.0300763809325
 20
147.102922429587
 30
0.0
  0
SEQEND
  5
339
330
335
100
AcDbEntity
  8
GRAU_10_
 62
     7
  0
POLYLINE
  5
33A
330
1F
100
AcDbEntity
  8
GRAU_10_
 62
     7
100
AcDb2dPolyline
 66
     1
 10
0.0
 20
0.0
 30
0.0
  0
VERTEX
  5
33B
330
33A
100
AcDbEntity
  8
GRAU_10_
 62
     7
100
AcDbVertex
100
AcDb2dVertex
 10
150.0300763809325
 20
148.0529529849055
 30
0.0
  0
VERTEX
  5
33C
330
33A
100
AcDbEntity
  8
GRAU_10_
 62
     7
100
AcDbVertex
100
AcDb2dVertex
 10
150.0300763809325
 20
148.8251835402678
 30
0.0
  0
VERTEX
  5
33D
330
33A
100
AcDbEntity
  8
GRAU_10_
 62
     7
100
AcDbVertex
100
AcDb2dVertex
 10
150.0300763809325
 20
149.0026307624455
 30
0.0
  0
SEQEND
  5
33E
330
33A
100
AcDbEntity
  8
GRAU_10_
 62
     7
  0
POLYLINE
  5
33F
330
1F
100
AcDbEntity
  8
GRAU_10_
 62
     7
100
AcDb2dPolyline
 66
     1
 10
0.0
 20
0.0
 30
0.0
  0
VERTEX
  5
340
330
33F
100
AcDbEntity
  8
GRAU_10_
 62
     7
100
AcDbVertex
100
AcDb2dVertex
 10
150.0300763809325
 20
149.9526613177636
 30
0.0
  0
VERTEX
  5
341
330
33F
100
AcDbEntity
  8
GRAU_10_
 62
     7
100
AcDbVertex
100
AcDb2dVertex
 10
150.0300763809325
 20
150.0158085399701
 30
0.0
  0
VERTEX
  5
342
330
33F
100
AcDbEntity
  8
GRAU_10_
 62
     7
100
AcDbVertex
100
AcDb2dVertex
 10
150.0300763809325
 20
150.3241363176707
 30
0.0
  0
VERTEX
  5
343
330
33F
100
AcDbEntity
  8
GRAU_10_
 62
     7
100
AcDbVertex
100
AcDb2dVertex
 10
150.0300763809325
 20
150.4278529843118
 30
0.0
  0
SEQEND
  5
344
330
33F
100
AcDbEntity
  8
GRAU_10_
 62
     7
  0
POLYLINE
  5
345
330
1F
100
AcDbEntity
  8
GRAU_10_
 62
     7
100
AcDb2dPolyline
 66
     1
 10
0.0
 20
0.0
 30
0.0
  0
VERTEX
  5
346
330
345
100
AcDbEntity
  8
GRAU_10_
 62
     7
100
AcDbVertex
100
AcDb2dVertex
 10
149.6296736032548
 20
150.8279029842117
 30
0.0
  0
VERTEX
  5
347
330
345
100
AcDbEntity
  8
GRAU_10_
 62
     7
100
AcDbVertex
100
AcDb2dVertex
 10
149.1160291589387
 20
150.8279029842117
 30
0.0
  0
SEQEND
  5
348
330
345
100
AcDbEntity
  8
GRAU_10_
 62
     7
  0
POLYLINE
  5
349
330
1F
100
AcDbEntity
  8
GRAU_10_
 62
     7
100
AcDb2dPolyline
 66
     1
 10
0.0
 20
0.0
 30
0.0
  0
VERTEX
  5
34A
330
349
100
AcDbEntity
  8
GRAU_10_
 62
     7
100
AcDbVertex
100
AcDb2dVertex
 10
148.0887402703065
 20
150.8279029842117
 30
0.0
  0
VERTEX
  5
34B
330
349
100
AcDbEntity
  8
GRAU_10_
 62
     7
100
AcDbVertex
100
AcDb2dVertex
 10
147.0618041594522
 20
150.8279029842117
 30
0.0
  0
SEQEND
  5
34C
330
349
100
AcDbEntity
  8
GRAU_10_
 62
     7
  0
POLYLINE
  5
34D
330
1F
100
AcDbEntity
  8
GRAU_10_
 62
     7
100
AcDb2dPolyline
 66
     1
 10
0.0
 20
0.0
 30
0.0
  0
VERTEX
  5
34E
330
34D
100
AcDbEntity
  8
GRAU_10_
 62
     7
100
AcDbVertex
100
AcDb2dVertex
 10
146.0341624930425
 20
150.8279029842117
 30
0.0
  0
VERTEX
  5
34F
330
34D
100
AcDbEntity
  8
GRAU_10_
 62
     7
100
AcDbVertex
100
AcDb2dVertex
 10
145.5208708265043
 20
150.8279029842117
 30
0.0
  0
SEQEND
  5
350
330
34D
100
AcDbEntity
  8
GRAU_10_
 62
     7
  0
POLYLINE
  5
351
330
1F
100
AcDbEntity
  8
GRAU_10_
 62
     7
100
AcDb2dPolyline
 66
     1
 10
0.0
 20
0.0
 30
0.0
  0
VERTEX
  5
352
330
351
100
AcDbEntity
  8
GRAU_10_
 62
     7
100
AcDbVertex
100
AcDb2dVertex
 10
145.5208708265043
 20
134.8276668771002
 30
0.0
  0
VERTEX
  5
353
330
351
100
AcDbEntity
  8
GRAU_10_
 62
     7
100
AcDbVertex
100
AcDb2dVertex
 10
146.0341624930425
 20
134.8276668771002
 30
0.0
  0
SEQEND
  5
354
330
351
100
AcDbEntity
  8
GRAU_10_
 62
     7
  0
POLYLINE
  5
355
330
1F
100
AcDbEntity
  8
GRAU_10_
 62
     7
100
AcDb2dPolyline
 66
     1
 10
0.0
 20
0.0
 30
0.0
  0
VERTEX
  5
356
330
355
100
AcDbEntity
  8
GRAU_10_
 62
     7
100
AcDbVertex
100
AcDb2dVertex
 10
147.0618041594522
 20
134.8276668771002
 30
0.0
  0
VERTEX
  5
357
330
355
100
AcDbEntity
  8
GRAU_10_
 62
     7
100
AcDbVertex
100
AcDb2dVertex
 10
148.0887402703065
 20
134.8276668771002
 30
0.0
  0
SEQEND
  5
358
330
355
100
AcDbEntity
  8
GRAU_10_
 62
     7
  0
POLYLINE
  5
359
330
1F
100
AcDbEntity
  8
GRAU_10_
 62
     7
100
AcDb2dPolyline
 66
     1
 10
0.0
 20
0.0
 30
0.0
  0
VERTEX
  5
35A
330
359
100
AcDbEntity
  8
GRAU_10_
 62
     7
100
AcDbVertex
100
AcDb2dVertex
 10
149.1160291589387
 20
134.8276668771002
 30
0.0
  0
VERTEX
  5
35B
330
359
100
AcDbEntity
  8
GRAU_10_
 62
     7
100
AcDbVertex
100
AcDb2dVertex
 10
149.6296736032548
 20
134.8276668771002
 30
0.0
  0
SEQEND
  5
35C
330
359
100
AcDbEntity
  8
GRAU_10_
 62
     7
  0
POLYLINE
  5
35D
330
1F
100
AcDbEntity
  8
GRAU_10_
 62
     7
100
AcDb2dPolyline
 66
     1
 10
0.0
 20
0.0
 30
0.0
  0
VERTEX
  5
35E
330
35D
100
AcDbEntity
  8
GRAU_10_
 62
     7
100
AcDbVertex
100
AcDb2dVertex
 10
148.0301791592103
 20
167.3280252023086
 30
0.0
  0
VERTEX
  5
35F
330
35D
100
AcDbEntity
  8
GRAU_10_
 62
     7
100
AcDbVertex
100
AcDb2dVertex
 10
127.0300236089047
 20
167.3280252023086
 30
0.0
  0
SEQEND
  5
360
330
35D
100
AcDbEntity
  8
GRAU_10_
 62
     7
  0
POLYLINE
  5
361
330
1F
100
AcDbEntity
  8
GRAU_10_
 62
     7
100
AcDb2dPolyline
 66
     1
 10
0.0
 20
0.0
 30
0.0
  0
VERTEX
  5
362
330
361
100
AcDbEntity
  8
GRAU_10_
 62
     7
100
AcDbVertex
100
AcDb2dVertex
 10
148.0301791592103
 20
167.3280252023086
 30
0.0
  0
VERTEX
  5
363
330
361
100
AcDbEntity
  8
GRAU_10_
 62
     7
100
AcDbVertex
100
AcDb2dVertex
 10
148.0301791592103
 20
166.1462196470484
 30
0.0
  0
SEQEND
  5
364
330
361
100
AcDbEntity
  8
GRAU_10_
 62
     7
  0
POLYLINE
  5
365
330
1F
100
AcDbEntity
  8
GRAU_10_
 62
     7
100
AcDb2dPolyline
 66
     1
 10
0.0
 20
0.0
 30
0.0
  0
VERTEX
  5
366
330
365
100
AcDbEntity
  8
GRAU_10_
 62
     7
100
AcDbVertex
100
AcDb2dVertex
 10
127.0300236089047
 20
166.1462196470484
 30
0.0
  0
VERTEX
  5
367
330
365
100
AcDbEntity
  8
GRAU_10_
 62
     7
100
AcDbVertex
100
AcDb2dVertex
 10
127.0300236089047
 20
167.3280252023086
 30
0.0
  0
SEQEND
  5
368
330
365
100
AcDbEntity
  8
GRAU_10_
 62
     7
  0
POLYLINE
  5
369
330
1F
100
AcDbEntity
  8
GRAU_10_
 62
     7
100
AcDb2dPolyline
 66
     1
 10
0.0
 20
0.0
 30
0.0
  0
VERTEX
  5
36A
330
369
100
AcDbEntity
  8
GRAU_10_
 62
     7
100
AcDbVertex
100
AcDb2dVertex
 10
151.0298486029048
 20
149.8281307622392
 30
0.0
  0
VERTEX
  5
36B
330
369
100
AcDbEntity
  8
GRAU_10_
 62
     7
100
AcDbVertex
100
AcDb2dVertex
 10
150.7797291585229
 20
149.8281307622392
 30
0.0
  0
SEQEND
  5
36C
330
369
100
AcDbEntity
  8
GRAU_10_
 62
     7
  0
POLYLINE
  5
36D
330
1F
100
AcDbEntity
  8
GRAU_10_
 62
     7
100
AcDb2dPolyline
 66
     1
 10
0.0
 20
0.0
 30
0.0
  0
VERTEX
  5
36E
330
36D
100
AcDbEntity
  8
GRAU_10_
 62
     7
100
AcDbVertex
100
AcDb2dVertex
 10
150.2801958253144
 20
149.8281307622392
 30
0.0
  0
VERTEX
  5
36F
330
36D
100
AcDbEntity
  8
GRAU_10_
 62
     7
100
AcDbVertex
100
AcDb2dVertex
 10
150.0300763809325
 20
149.8281307622392
 30
0.0
  0
SEQEND
  5
370
330
36D
100
AcDbEntity
  8
GRAU_10_
 62
     7
  0
POLYLINE
  5
371
330
1F
100
AcDbEntity
  8
GRAU_10_
 62
     7
100
AcDb2dPolyline
 66
     1
 10
0.0
 20
0.0
 30
0.0
  0
VERTEX
  5
372
330
371
100
AcDbEntity
  8
GRAU_10_
 62
     7
100
AcDbVertex
100
AcDb2dVertex
 10
150.0300763809325
 20
135.8277918768505
 30
0.0
  0
VERTEX
  5
373
330
371
100
AcDbEntity
  8
GRAU_10_
 62
     7
100
AcDbVertex
100
AcDb2dVertex
 10
150.4047263808388
 20
135.8277918768505
 30
0.0
  0
SEQEND
  5
374
330
371
100
AcDbEntity
  8
GRAU_10_
 62
     7
  0
POLYLINE
  5
375
330
1F
100
AcDbEntity
  8
GRAU_10_
 62
     7
100
AcDb2dPolyline
 66
     1
 10
0.0
 20
0.0
 30
0.0
  0
VERTEX
  5
376
330
375
100
AcDbEntity
  8
GRAU_10_
 62
     7
100
AcDbVertex
100
AcDb2dVertex
 10
151.1550847139844
 20
135.8277918768505
 30
0.0
  0
VERTEX
  5
377
330
375
100
AcDbEntity
  8
GRAU_10_
 62
     7
100
AcDbVertex
100
AcDb2dVertex
 10
151.9050902693525
 20
135.8277918768505
 30
0.0
  0
SEQEND
  5
378
330
375
100
AcDbEntity
  8
GRAU_10_
 62
     7
  0
POLYLINE
  5
379
330
1F
100
AcDbEntity
  8
GRAU_10_
 62
     7
100
AcDb2dPolyline
 66
     1
 10
0.0
 20
0.0
 30
0.0
  0
VERTEX
  5
37A
330
379
100
AcDbEntity
  8
GRAU_10_
 62
     7
100
AcDbVertex
100
AcDb2dVertex
 10
152.6547430469429
 20
135.8277918768505
 30
0.0
  0
VERTEX
  5
37B
330
379
100
AcDbEntity
  8
GRAU_10_
 62
     7
100
AcDbVertex
100
AcDb2dVertex
 10
153.0300986024047
 20
135.8277918768505
 30
0.0
  0
SEQEND
  5
37C
330
379
100
AcDbEntity
  8
GRAU_10_
 62
     7
  0
POLYLINE
  5
37D
330
1F
100
AcDbEntity
  8
GRAU_10_
 62
     7
100
AcDb2dPolyline
 66
     1
 10
0.0
 20
0.0
 30
0.0
  0
VERTEX
  5
37E
330
37D
100
AcDbEntity
  8
GRAU_10_
 62
     7
100
AcDbVertex
100
AcDb2dVertex
 10
151.0298486029048
 20
136.0313446545771
 30
0.0
  0
VERTEX
  5
37F
330
37D
100
AcDbEntity
  8
GRAU_10_
 62
     7
100
AcDbVertex
100
AcDb2dVertex
 10
153.0300986024047
 20
136.0313446545771
 30
0.0
  0
SEQEND
  5
380
330
37D
100
AcDbEntity
  8
GRAU_10_
 62
     7
  0
POLYLINE
  5
381
330
1F
100
AcDbEntity
  8
GRAU_10_
 62
     7
100
AcDb2dPolyline
 66
     1
 10
0.0
 20
0.0
 30
0.0
  0
VERTEX
  5
382
330
381
100
AcDbEntity
  8
GRAU_10_
 62
     7
100
AcDbVertex
100
AcDb2dVertex
 10
151.0298486029048
 20
147.6761863183326
 30
0.0
  0
VERTEX
  5
383
330
381
100
AcDbEntity
  8
GRAU_10_
 62
     7
100
AcDbVertex
100
AcDb2dVertex
 10
151.5300874916685
 20
147.6761863183326
 30
0.0
  0
SEQEND
  5
384
330
381
100
AcDbEntity
  8
GRAU_10_
 62
     7
  0
POLYLINE
  5
385
330
1F
100
AcDbEntity
  8
GRAU_10_
 62
     7
100
AcDb2dPolyline
 66
     1
 10
0.0
 20
0.0
 30
0.0
  0
VERTEX
  5
386
330
385
100
AcDbEntity
  8
GRAU_10_
 62
     7
100
AcDbVertex
100
AcDb2dVertex
 10
152.5298597136407
 20
147.6761863183326
 30
0.0
  0
VERTEX
  5
387
330
385
100
AcDbEntity
  8
GRAU_10_
 62
     7
100
AcDbVertex
100
AcDb2dVertex
 10
153.0300986024047
 20
147.6761863183326
 30
0.0
  0
SEQEND
  5
388
330
385
100
AcDbEntity
  8
GRAU_10_
 62
     7
  0
POLYLINE
  5
389
330
1F
100
AcDbEntity
  8
GRAU_10_
 62
     7
100
AcDb2dPolyline
 66
     1
 10
0.0
 20
0.0
 30
0.0
  0
VERTEX
  5
38A
330
389
100
AcDbEntity
  8
GRAU_10_
 62
     7
100
AcDbVertex
100
AcDb2dVertex
 10
133.2466736073507
 20
167.3280252023086
 30
0.0
  0
VERTEX
  5
38B
330
389
100
AcDbEntity
  8
GRAU_10_
 62
     7
100
AcDbVertex
100
AcDb2dVertex
 10
133.2466736073507
 20
166.8281390913226
 30
0.0
  0
SEQEND
  5
38C
330
389
100
AcDbEntity
  8
GRAU_10_
 62
     7
  0
POLYLINE
  5
38D
330
1F
100
AcDbEntity
  8
GRAU_10_
 62
     7
100
AcDb2dPolyline
 66
     1
 10
0.0
 20
0.0
 30
0.0
  0
VERTEX
  5
38E
330
38D
100
AcDbEntity
  8
GRAU_10_
 62
     7
100
AcDbVertex
100
AcDb2dVertex
 10
133.2466736073507
 20
165.8276613137949
 30
0.0
  0
VERTEX
  5
38F
330
38D
100
AcDbEntity
  8
GRAU_10_
 62
     7
100
AcDbVertex
100
AcDb2dVertex
 10
133.2466736073507
 20
164.8282418696004
 30
0.0
  0
SEQEND
  5
390
330
38D
100
AcDbEntity
  8
GRAU_10_
 62
     7
  0
POLYLINE
  5
391
330
1F
100
AcDbEntity
  8
GRAU_10_
 62
     7
100
AcDb2dPolyline
 66
     1
 10
0.0
 20
0.0
 30
0.0
  0
VERTEX
  5
392
330
391
100
AcDbEntity
  8
GRAU_10_
 62
     7
100
AcDbVertex
100
AcDb2dVertex
 10
133.2466736073507
 20
163.8277640920727
 30
0.0
  0
VERTEX
  5
393
330
391
100
AcDbEntity
  8
GRAU_10_
 62
     7
100
AcDbVertex
100
AcDb2dVertex
 10
133.2466736073507
 20
162.8276390923227
 30
0.0
  0
SEQEND
  5
394
330
391
100
AcDbEntity
  8
GRAU_10_
 62
     7
  0
POLYLINE
  5
395
330
1F
100
AcDbEntity
  8
GRAU_10_
 62
     7
100
AcDb2dPolyline
 66
     1
 10
0.0
 20
0.0
 30
0.0
  0
VERTEX
  5
396
330
395
100
AcDbEntity
  8
GRAU_10_
 62
     7
100
AcDbVertex
100
AcDb2dVertex
 10
133.2466736073507
 20
161.8282196481279
 30
0.0
  0
VERTEX
  5
397
330
395
100
AcDbEntity
  8
GRAU_10_
 62
     7
100
AcDbVertex
100
AcDb2dVertex
 10
133.2466736073507
 20
160.8277418706005
 30
0.0
  0
SEQEND
  5
398
330
395
100
AcDbEntity
  8
GRAU_10_
 62
     7
  0
POLYLINE
  5
399
330
1F
100
AcDbEntity
  8
GRAU_10_
 62
     7
100
AcDb2dPolyline
 66
     1
 10
0.0
 20
0.0
 30
0.0
  0
VERTEX
  5
39A
330
399
100
AcDbEntity
  8
GRAU_10_
 62
     7
100
AcDbVertex
100
AcDb2dVertex
 10
133.2466736073507
 20
159.827969648628
 30
0.0
  0
VERTEX
  5
39B
330
399
100
AcDbEntity
  8
GRAU_10_
 62
     7
100
AcDbVertex
100
AcDb2dVertex
 10
133.2466736073507
 20
159.328083537642
 30
0.0
  0
SEQEND
  5
39C
330
399
100
AcDbEntity
  8
GRAU_10_
 62
     7
  0
POLYLINE
  5
39D
330
1F
100
AcDbEntity
  8
GRAU_10_
 62
     7
100
AcDb2dPolyline
 66
     1
 10
0.0
 20
0.0
 30
0.0
  0
VERTEX
  5
39E
330
39D
100
AcDbEntity
  8
GRAU_10_
 62
     7
100
AcDbVertex
100
AcDb2dVertex
 10
141.8128236052089
 20
159.328083537642
 30
0.0
  0
VERTEX
  5
39F
330
39D
100
AcDbEntity
  8
GRAU_10_
 62
     7
100
AcDbVertex
100
AcDb2dVertex
 10
141.8128236052089
 20
159.827969648628
 30
0.0
  0
SEQEND
  5
3A0
330
39D
100
AcDbEntity
  8
GRAU_10_
 62
     7
  0
POLYLINE
  5
3A1
330
1F
100
AcDbEntity
  8
GRAU_10_
 62
     7
100
AcDb2dPolyline
 66
     1
 10
0.0
 20
0.0
 30
0.0
  0
VERTEX
  5
3A2
330
3A1
100
AcDbEntity
  8
GRAU_10_
 62
     7
100
AcDbVertex
100
AcDb2dVertex
 10
141.8128236052089
 20
160.8277418706005
 30
0.0
  0
VERTEX
  5
3A3
330
3A1
100
AcDbEntity
  8
GRAU_10_
 62
     7
100
AcDbVertex
100
AcDb2dVertex
 10
141.8128236052089
 20
161.8282196481279
 30
0.0
  0
SEQEND
  5
3A4
330
3A1
100
AcDbEntity
  8
GRAU_10_
 62
     7
  0
POLYLINE
  5
3A5
330
1F
100
AcDbEntity
  8
GRAU_10_
 62
     7
100
AcDb2dPolyline
 66
     1
 10
0.0
 20
0.0
 30
0.0
  0
VERTEX
  5
3A6
330
3A5
100
AcDbEntity
  8
GRAU_10_
 62
     7
100
AcDbVertex
100
AcDb2dVertex
 10
141.8128236052089
 20
162.8276390923227
 30
0.0
  0
VERTEX
  5
3A7
330
3A5
100
AcDbEntity
  8
GRAU_10_
 62
     7
100
AcDbVertex
100
AcDb2dVertex
 10
141.8128236052089
 20
163.8277640920727
 30
0.0
  0
SEQEND
  5
3A8
330
3A5
100
AcDbEntity
  8
GRAU_10_
 62
     7
  0
POLYLINE
  5
3A9
330
1F
100
AcDbEntity
  8
GRAU_10_
 62
     7
100
AcDb2dPolyline
 66
     1
 10
0.0
 20
0.0
 30
0.0
  0
VERTEX
  5
3AA
330
3A9
100
AcDbEntity
  8
GRAU_10_
 62
     7
100
AcDbVertex
100
AcDb2dVertex
 10
141.8128236052089
 20
164.8282418696004
 30
0.0
  0
VERTEX
  5
3AB
330
3A9
100
AcDbEntity
  8
GRAU_10_
 62
     7
100
AcDbVertex
100
AcDb2dVertex
 10
141.8128236052089
 20
165.8276613137949
 30
0.0
  0
SEQEND
  5
3AC
330
3A9
100
AcDbEntity
  8
GRAU_10_
 62
     7
  0
POLYLINE
  5
3AD
330
1F
100
AcDbEntity
  8
GRAU_10_
 62
     7
100
AcDb2dPolyline
 66
     1
 10
0.0
 20
0.0
 30
0.0
  0
VERTEX
  5
3AE
330
3AD
100
AcDbEntity
  8
GRAU_10_
 62
     7
100
AcDbVertex
100
AcDb2dVertex
 10
141.8128236052089
 20
166.8281390913226
 30
0.0
  0
VERTEX
  5
3AF
330
3AD
100
AcDbEntity
  8
GRAU_10_
 62
     7
100
AcDbVertex
100
AcDb2dVertex
 10
141.8128236052089
 20
167.3280252023086
 30
0.0
  0
SEQEND
  5
3B0
330
3AD
100
AcDbEntity
  8
GRAU_10_
 62
     7
  0
POLYLINE
  5
3B1
330
1F
100
AcDbEntity
  8
GRAU_10_
 62
     7
100
AcDb2dPolyline
 66
     1
 10
0.0
 20
0.0
 30
0.0
  0
VERTEX
  5
3B2
330
3B1
100
AcDbEntity
  8
GRAU_10_
 62
     7
100
AcDbVertex
100
AcDb2dVertex
 10
139.2802319391756
 20
159.328083537642
 30
0.0
  0
VERTEX
  5
3B3
330
3B1
100
AcDbEntity
  8
GRAU_10_
 62
     7
100
AcDbVertex
100
AcDb2dVertex
 10
139.9131152723507
 20
159.328083537642
 30
0.0
  0
SEQEND
  5
3B4
330
3B1
100
AcDbEntity
  8
GRAU_10_
 62
     7
  0
POLYLINE
  5
3B5
330
1F
100
AcDbEntity
  8
GRAU_10_
 62
     7
100
AcDb2dPolyline
 66
     1
 10
0.0
 20
0.0
 30
0.0
  0
VERTEX
  5
3B6
330
3B5
100
AcDbEntity
  8
GRAU_10_
 62
     7
100
AcDbVertex
100
AcDb2dVertex
 10
141.1799402720338
 20
159.328083537642
 30
0.0
  0
VERTEX
  5
3B7
330
3B5
100
AcDbEntity
  8
GRAU_10_
 62
     7
100
AcDbVertex
100
AcDb2dVertex
 10
141.3676180497647
 20
159.328083537642
 30
0.0
  0
VERTEX
  5
3B8
330
3B5
100
AcDbEntity
  8
GRAU_10_
 62
     7
100
AcDbVertex
100
AcDb2dVertex
 10
141.6999347163483
 20
159.328083537642
 30
0.0
  0
VERTEX
  5
3B9
330
3B5
100
AcDbEntity
  8
GRAU_10_
 62
     7
100
AcDbVertex
100
AcDb2dVertex
 10
141.8128236052089
 20
159.328083537642
 30
0.0
  0
SEQEND
  5
3BA
330
3B5
100
AcDbEntity
  8
GRAU_10_
 62
     7
  0
POLYLINE
  5
3BB
330
1F
100
AcDbEntity
  8
GRAU_10_
 62
     7
100
AcDb2dPolyline
 66
     1
 10
0.0
 20
0.0
 30
0.0
  0
VERTEX
  5
3BC
330
3BB
100
AcDbEntity
  8
GRAU_10_
 62
     7
100
AcDbVertex
100
AcDb2dVertex
 10
133.2466736073507
 20
159.328083537642
 30
0.0
  0
VERTEX
  5
3BD
330
3BB
100
AcDbEntity
  8
GRAU_10_
 62
     7
100
AcDbVertex
100
AcDb2dVertex
 10
133.3595624962113
 20
159.328083537642
 30
0.0
  0
VERTEX
  5
3BE
330
3BB
100
AcDbEntity
  8
GRAU_10_
 62
     7
100
AcDbVertex
100
AcDb2dVertex
 10
133.6918791627948
 20
159.328083537642
 30
0.0
  0
VERTEX
  5
3BF
330
3BB
100
AcDbEntity
  8
GRAU_10_
 62
     7
100
AcDbVertex
100
AcDb2dVertex
 10
133.8802624960809
 20
159.328083537642
 30
0.0
  0
SEQEND
  5
3C0
330
3BB
100
AcDbEntity
  8
GRAU_10_
 62
     7
  0
POLYLINE
  5
3C1
330
1F
100
AcDbEntity
  8
GRAU_10_
 62
     7
100
AcDb2dPolyline
 66
     1
 10
0.0
 20
0.0
 30
0.0
  0
VERTEX
  5
3C2
330
3C1
100
AcDbEntity
  8
GRAU_10_
 62
     7
100
AcDbVertex
100
AcDb2dVertex
 10
135.1463819402088
 20
159.328083537642
 30
0.0
  0
VERTEX
  5
3C3
330
3C1
100
AcDbEntity
  8
GRAU_10_
 62
     7
100
AcDbVertex
100
AcDb2dVertex
 10
135.7799708289394
 20
159.328083537642
 30
0.0
  0
SEQEND
  5
3C4
330
3C1
100
AcDbEntity
  8
GRAU_10_
 62
     7
  0
POLYLINE
  5
3C5
330
1F
100
AcDbEntity
  8
GRAU_10_
 62
     7
100
AcDb2dPolyline
 66
     1
 10
0.0
 20
0.0
 30
0.0
  0
VERTEX
  5
3C6
330
3C5
100
AcDbEntity
  8
GRAU_10_
 62
     7
100
AcDbVertex
100
AcDb2dVertex
 10
139.2802319391756
 20
160.0953752041166
 30
0.0
  0
VERTEX
  5
3C7
330
3C5
100
AcDbEntity
  8
GRAU_10_
 62
     7
100
AcDbVertex
100
AcDb2dVertex
 10
139.0724458281162
 20
160.0664474263463
 30
0.0
  0
VERTEX
  5
3C8
330
3C5
100
AcDbEntity
  8
GRAU_10_
 62
     7
100
AcDbVertex
100
AcDb2dVertex
 10
138.8607791615026
 20
160.0406946485751
 30
0.0
  0
VERTEX
  5
3C9
330
3C5
100
AcDbEntity
  8
GRAU_10_
 62
     7
100
AcDbVertex
100
AcDb2dVertex
 10
138.8445513837288
 20
160.0389307596863
 30
0.0
  0
SEQEND
  5
3CA
330
3C5
100
AcDbEntity
  8
GRAU_10_
 62
     7
  0
POLYLINE
  5
3CB
330
1F
100
AcDbEntity
  8
GRAU_10_
 62
     7
100
AcDb2dPolyline
 66
     1
 10
0.0
 20
0.0
 30
0.0
  0
VERTEX
  5
3CC
330
3CB
100
AcDbEntity
  8
GRAU_10_
 62
     7
100
AcDbVertex
100
AcDb2dVertex
 10
137.969309717281
 20
159.9729613152584
 30
0.0
  0
VERTEX
  5
3CD
330
3CB
100
AcDbEntity
  8
GRAU_10_
 62
     7
100
AcDbVertex
100
AcDb2dVertex
 10
137.9262708284028
 20
159.9711974263703
 30
0.0
  0
VERTEX
  5
3CE
330
3CB
100
AcDbEntity
  8
GRAU_10_
 62
     7
100
AcDbVertex
100
AcDb2dVertex
 10
137.8701791617503
 20
159.9694335374815
 30
0.0
  0
VERTEX
  5
3CF
330
3CB
100
AcDbEntity
  8
GRAU_10_
 62
     7
100
AcDbVertex
100
AcDb2dVertex
 10
137.8133819395422
 20
159.968022426371
 30
0.0
  0
VERTEX
  5
3D0
330
3CB
100
AcDbEntity
  8
GRAU_10_
 62
     7
100
AcDbVertex
100
AcDb2dVertex
 10
137.7565847173342
 20
159.9673168708155
 30
0.0
  0
VERTEX
  5
3D1
330
3CB
100
AcDbEntity
  8
GRAU_10_
 62
     7
100
AcDbVertex
100
AcDb2dVertex
 10
137.6436958284736
 20
159.9655529819273
 30
0.0
  0
VERTEX
  5
3D2
330
3CB
100
AcDbEntity
  8
GRAU_10_
 62
     7
100
AcDbVertex
100
AcDb2dVertex
 10
137.5311597173905
 20
159.9644946485941
 30
0.0
  0
VERTEX
  5
3D3
330
3CB
100
AcDbEntity
  8
GRAU_10_
 62
     7
100
AcDbVertex
100
AcDb2dVertex
 10
137.3064402730024
 20
159.9669640930377
 30
0.0
  0
VERTEX
  5
3D4
330
3CB
100
AcDbEntity
  8
GRAU_10_
 62
     7
100
AcDbVertex
100
AcDb2dVertex
 10
137.090893050834
 20
159.9729613152584
 30
0.0
  0
SEQEND
  5
3D5
330
3CB
100
AcDbEntity
  8
GRAU_10_
 62
     7
  0
POLYLINE
  5
3D6
330
1F
100
AcDbEntity
  8
GRAU_10_
 62
     7
100
AcDb2dPolyline
 66
     1
 10
0.0
 20
0.0
 30
0.0
  0
VERTEX
  5
3D7
330
3D6
100
AcDbEntity
  8
GRAU_10_
 62
     7
100
AcDbVertex
100
AcDb2dVertex
 10
136.2156513843859
 20
160.0389307596863
 30
0.0
  0
VERTEX
  5
3D8
330
3D6
100
AcDbEntity
  8
GRAU_10_
 62
     7
100
AcDbVertex
100
AcDb2dVertex
 10
136.2004819399454
 20
160.0406946485751
 30
0.0
  0
VERTEX
  5
3D9
330
3D6
100
AcDbEntity
  8
GRAU_10_
 62
     7
100
AcDbVertex
100
AcDb2dVertex
 10
135.9884624955541
 20
160.0664474263463
 30
0.0
  0
VERTEX
  5
3DA
330
3D6
100
AcDbEntity
  8
GRAU_10_
 62
     7
100
AcDbVertex
100
AcDb2dVertex
 10
135.7799708289394
 20
160.0953752041166
 30
0.0
  0
SEQEND
  5
3DB
330
3D6
100
AcDbEntity
  8
GRAU_10_
 62
     7
  0
POLYLINE
  5
3DC
330
1F
100
AcDbEntity
  8
GRAU_10_
 62
     7
100
AcDb2dPolyline
 66
     1
 10
0.0
 20
0.0
 30
0.0
  0
VERTEX
  5
3DD
330
3DC
100
AcDbEntity
  8
GRAU_10_
 62
     7
100
AcDbVertex
100
AcDb2dVertex
 10
151.0298486029048
 20
129.8277474339061
 30
0.0
  0
VERTEX
  5
3DE
330
3DC
100
AcDbEntity
  8
GRAU_10_
 62
     7
100
AcDbVertex
100
AcDb2dVertex
 10
153.0300986024047
 20
129.8277474339061
 30
0.0
  0
SEQEND
  5
3DF
330
3DC
100
AcDbEntity
  8
GRAU_10_
 62
     7
  0
POLYLINE
  5
3E0
330
1F
100
AcDbEntity
  8
GRAU_10_
 62
     7
100
AcDb2dPolyline
 66
     1
 10
0.0
 20
0.0
 30
0.0
  0
VERTEX
  5
3E1
330
3E0
100
AcDbEntity
  8
GRAU_10_
 62
     7
100
AcDbVertex
100
AcDb2dVertex
 10
151.0298486029048
 20
130.1851113227053
 30
0.0
  0
VERTEX
  5
3E2
330
3E0
100
AcDbEntity
  8
GRAU_10_
 62
     7
100
AcDbVertex
100
AcDb2dVertex
 10
153.0300986024047
 20
130.1851113227053
 30
0.0
  0
SEQEND
  5
3E3
330
3E0
100
AcDbEntity
  8
GRAU_10_
 62
     7
  0
POLYLINE
  5
3E4
330
1F
100
AcDbEntity
  8
GRAU_10_
 62
     7
100
AcDb2dPolyline
 66
     1
 10
0.0
 20
0.0
 30
0.0
  0
VERTEX
  5
3E5
330
3E4
100
AcDbEntity
  8
GRAU_10_
 62
     7
100
AcDbVertex
100
AcDb2dVertex
 10
153.0300986024047
 20
129.8277474339061
 30
0.0
  0
VERTEX
  5
3E6
330
3E4
100
AcDbEntity
  8
GRAU_10_
 62
     7
100
AcDbVertex
100
AcDb2dVertex
 10
153.0300986024047
 20
129.9173529894389
 30
0.0
  0
VERTEX
  5
3E7
330
3E4
100
AcDbEntity
  8
GRAU_10_
 62
     7
100
AcDbVertex
100
AcDb2dVertex
 10
153.0300986024047
 20
130.1851113227053
 30
0.0
  0
SEQEND
  5
3E8
330
3E4
100
AcDbEntity
  8
GRAU_10_
 62
     7
  0
POLYLINE
  5
3E9
330
1F
100
AcDbEntity
  8
GRAU_10_
 62
     7
100
AcDb2dPolyline
 66
     1
 10
0.0
 20
0.0
 30
0.0
  0
VERTEX
  5
3EA
330
3E9
100
AcDbEntity
  8
GRAU_10_
 62
     7
100
AcDbVertex
100
AcDb2dVertex
 10
153.0300986024047
 20
136.0313446545771
 30
0.0
  0
VERTEX
  5
3EB
330
3E9
100
AcDbEntity
  8
GRAU_10_
 62
     7
100
AcDbVertex
100
AcDb2dVertex
 10
153.0300986024047
 20
133.1389196553004
 30
0.0
  0
VERTEX
  5
3EC
330
3E9
100
AcDbEntity
  8
GRAU_10_
 62
     7
100
AcDbVertex
100
AcDb2dVertex
 10
153.0300986024047
 20
130.1851113227053
 30
0.0
  0
SEQEND
  5
3ED
330
3E9
100
AcDbEntity
  8
GRAU_10_
 62
     7
  0
SPLINE
  5
3EE
330
1F
100
AcDbEntity
  8
GRAU_10_
 62
     7
100
AcDbSpline
210
0.0
220
0.0
230
1.0
 70
     8
 71
     3
 72
     8
 73
     4
 74
     0
 42
0.0000000001
 43
0.0000000001
 12
1.0
 22
0.0
 32
0.0
 13
1.0
 23
0.0
 33
0.0
 40
0.0
 40
0.0
 40
0.0
 40
0.0
 40
1.0
 40
1.0
 40
1.0
 40
1.0
 10
68.66219720505661
 20
144.7760002079467
 30
0.0
 10
68.33093887180631
 20
145.9179418743279
 30
0.0
 10
67.73474442751073
 20
146.9113640963017
 30
0.0
 10
66.98720831658662
 20
147.6761863183326
 30
0.0
  0
SPLINE
  5
3EF
330
1F
100
AcDbEntity
  8
GRAU_10_
 62
     7
100
AcDbSpline
210
0.0
220
0.0
230
1.0
 70
     8
 71
     3
 72
     8
 73
     4
 74
     0
 42
0.0000000001
 43
0.0000000001
 12
1.0
 22
0.0
 32
0.0
 13
1.0
 23
0.0
 33
0.0
 40
0.0
 40
0.0
 40
0.0
 40
0.0
 40
1.0
 40
1.0
 40
1.0
 40
1.0
 10
71.38669998215325
 20
151.7486529839811
 30
0.0
 10
69.71276942701621
 20
150.4641890954135
 30
0.0
 10
68.19723609406167
 20
149.0481390957678
 30
0.0
 10
66.98720831658662
 20
147.6761863183326
 30
0.0
  0
SPLINE
  5
3F0
330
1F
100
AcDbEntity
  8
GRAU_10_
 62
     7
100
AcDbSpline
210
0.0
220
0.0
230
1.0
 70
     8
 71
     3
 72
     8
 73
     4
 74
     0
 42
0.0000000001
 43
0.0000000001
 12
1.0
 22
0.0
 32
0.0
 13
1.0
 23
0.0
 33
0.0
 40
0.0
 40
0.0
 40
0.0
 40
0.0
 40
1.0
 40
1.0
 40
1.0
 40
1.0
 10
68.66219720505661
 20
144.7760002079467
 30
0.0
 10
70.72700553787377
 20
145.212033541171
 30
0.0
 10
72.70503053737924
 20
145.835039096571
 30
0.0
 10
74.38883887029168
 20
146.5501196519478
 30
0.0
  0
SPLINE
  5
3F1
330
1F
100
AcDbEntity
  8
GRAU_10_
 62
     7
100
AcDbSpline
210
0.0
220
0.0
230
1.0
 70
     8
 71
     3
 72
     8
 73
     4
 74
     0
 42
0.0000000001
 43
0.0000000001
 12
1.0
 22
0.0
 32
0.0
 13
1.0
 23
0.0
 33
0.0
 40
0.0
 40
0.0
 40
0.0
 40
0.0
 40
1.0
 40
1.0
 40
1.0
 40
1.0
 10
74.38883887029168
 20
146.5501196519478
 30
0.0
 10
73.78594164822024
 20
148.5937613181034
 30
0.0
 10
72.7177305373761
 20
150.3731724287696
 30
0.0
 10
71.38669998215325
 20
151.7486529839811
 30
0.0
  0
SPLINE
  5
3F2
330
1F
100
AcDbEntity
  8
GRAU_10_
 62
     7
100
AcDbSpline
210
0.0
220
0.0
230
1.0
 70
     8
 71
     3
 72
     8
 73
     4
 74
     0
 42
0.0000000001
 43
0.0000000001
 12
1.0
 22
0.0
 32
0.0
 13
1.0
 23
0.0
 33
0.0
 40
0.0
 40
0.0
 40
0.0
 40
0.0
 40
1.0
 40
1.0
 40
1.0
 40
1.0
 10
49.48872498762795
 20
146.5501196519478
 30
0.0
 10
51.43888054269573
 20
145.7426113188161
 30
0.0
 10
53.42219720886667
 20
145.1386557634117
 30
0.0
 10
55.21536665286269
 20
144.7760002079467
 30
0.0
  0
SPLINE
  5
3F3
330
1F
100
AcDbEntity
  8
GRAU_10_
 62
     7
100
AcDbSpline
210
0.0
220
0.0
230
1.0
 70
     8
 71
     3
 72
     8
 73
     4
 74
     0
 42
0.0000000001
 43
0.0000000001
 12
1.0
 22
0.0
 32
0.0
 13
1.0
 23
0.0
 33
0.0
 40
0.0
 40
0.0
 40
0.0
 40
0.0
 40
1.0
 40
1.0
 40
1.0
 40
1.0
 10
56.88964998577749
 20
147.6761863183326
 30
0.0
 10
55.47959720835244
 20
149.246752984607
 30
0.0
 10
53.95101109762329
 20
150.64798631759
 30
0.0
 10
52.4898055424331
 20
151.7486529839811
 30
0.0
  0
SPLINE
  5
3F4
330
1F
100
AcDbEntity
  8
GRAU_10_
 62
     7
100
AcDbSpline
210
0.0
220
0.0
230
1.0
 70
     8
 71
     3
 72
     8
 73
     4
 74
     0
 42
0.0000000001
 43
0.0000000001
 12
1.0
 22
0.0
 32
0.0
 13
1.0
 23
0.0
 33
0.0
 40
0.0
 40
0.0
 40
0.0
 40
0.0
 40
1.0
 40
1.0
 40
1.0
 40
1.0
 10
52.4898055424331
 20
151.7486529839811
 30
0.0
 10
51.02189720946672
 20
150.2052502065892
 30
0.0
 10
50.01436387638535
 20
148.3905613181542
 30
0.0
 10
49.48872498762795
 20
146.5501196519478
 30
0.0
  0
SPLINE
  5
3F5
330
1F
100
AcDbEntity
  8
GRAU_10_
 62
     7
100
AcDbSpline
210
0.0
220
0.0
230
1.0
 70
     8
 71
     3
 72
     8
 73
     4
 74
     0
 42
0.0000000001
 43
0.0000000001
 12
1.0
 22
0.0
 32
0.0
 13
1.0
 23
0.0
 33
0.0
 40
0.0
 40
0.0
 40
0.0
 40
0.0
 40
1.0
 40
1.0
 40
1.0
 40
1.0
 10
56.88964998577749
 20
147.6761863183326
 30
0.0
 10
56.0659138748723
 20
146.8185835407694
 30
0.0
 10
55.50429165279061
 20
145.8057585410226
 30
0.0
 10
55.21536665286269
 20
144.7760002079467
 30
0.0
  0
SPLINE
  5
3F6
330
1F
100
AcDbEntity
  8
GRAU_10_
 62
     7
100
AcDbSpline
210
0.0
220
0.0
230
1.0
 70
     8
 71
     3
 72
     8
 73
     4
 74
     0
 42
0.0000000001
 43
0.0000000001
 12
1.0
 22
0.0
 32
0.0
 13
1.0
 23
0.0
 33
0.0
 40
0.0
 40
0.0
 40
0.0
 40
0.0
 40
1.0
 40
1.0
 40
1.0
 40
1.0
 10
64.940038872654
 20
130.1851113227053
 30
0.0
 10
64.66451942827845
 20
132.2777890999602
 30
0.0
 10
64.19603053950654
 20
134.2977946550109
 30
0.0
 10
63.61288887298556
 20
136.0313446545771
 30
0.0
  0
SPLINE
  5
3F7
330
1F
100
AcDbEntity
  8
GRAU_10_
 62
     7
100
AcDbSpline
210
0.0
220
0.0
230
1.0
 70
     8
 71
     3
 72
     8
 73
     4
 74
     0
 42
0.0000000001
 43
0.0000000001
 12
1.0
 22
0.0
 32
0.0
 13
1.0
 23
0.0
 33
0.0
 40
0.0
 40
0.0
 40
0.0
 40
0.0
 40
1.0
 40
1.0
 40
1.0
 40
1.0
 10
58.9368194297101
 20
130.1851113227053
 30
0.0
 10
61.00833054030344
 20
129.6852252117194
 30
0.0
 10
63.08336942867375
 20
129.7201502117107
 30
0.0
 10
64.940038872654
 20
130.1851113227053
 30
0.0
  0
SPLINE
  5
3F8
330
1F
100
AcDbEntity
  8
GRAU_10_
 62
     7
100
AcDbSpline
210
0.0
220
0.0
230
1.0
 70
     8
 71
     3
 72
     8
 73
     4
 74
     0
 42
0.0000000001
 43
0.0000000001
 12
1.0
 22
0.0
 32
0.0
 13
1.0
 23
0.0
 33
0.0
 40
0.0
 40
0.0
 40
0.0
 40
0.0
 40
1.0
 40
1.0
 40
1.0
 40
1.0
 10
60.26396942937853
 20
136.0313446545771
 30
0.0
 10
59.60886109620899
 20
134.0247446550788
 30
0.0
 10
59.16012776298786
 20
132.0001529889184
 30
0.0
 10
58.9368194297101
 20
130.1851113227053
 30
0.0
  0
SPLINE
  5
3F9
330
1F
100
AcDbEntity
  8
GRAU_10_
 62
     7
100
AcDbSpline
210
0.0
220
0.0
230
1.0
 70
     8
 71
     3
 72
     8
 73
     4
 74
     0
 42
0.0000000001
 43
0.0000000001
 12
1.0
 22
0.0
 32
0.0
 13
1.0
 23
0.0
 33
0.0
 40
0.0
 40
0.0
 40
0.0
 40
0.0
 40
1.0
 40
1.0
 40
1.0
 40
1.0
 10
60.26396942937853
 20
136.0313446545771
 30
0.0
 10
61.41825831797883
 20
135.7466529879821
 30
0.0
 10
62.5767805399113
 20
135.76676132131
 30
0.0
 10
63.61288887298556
 20
136.0313446545771
 30
0.0
  0
SPLINE
  5
3FA
330
1F
100
AcDbEntity
  8
GRAU_10_
 62
     7
100
AcDbSpline
210
0.0
220
0.0
230
1.0
 70
     8
 71
     3
 72
    11
 73
     7
 74
     0
 42
0.0000000001
 43
0.0000000001
 12
1.0
 22
0.0
 32
0.0
 13
1.0
 23
0.0
 33
0.0
 40
0.0
 40
0.0
 40
0.0
 40
0.0
 40
1.0
 40
1.0
 40
1.0
 40
2.0
 40
2.0
 40
2.0
 40
2.0
 10
73.19680275947862
 20
149.3282446512532
 30
0.0
 10
70.80391109341004
 20
153.4733835391059
 30
0.0
 10
66.47250553893757
 20
155.8017168718569
 30
0.0
 10
61.93860554007077
 20
155.8278224274058
 30
0.0
 10
57.15211665237875
 20
155.8278224274058
 30
0.0
 10
52.96993609786858
 20
153.2409029836082
 30
0.0
 10
50.68005554288549
 20
149.3282446512532
 30
0.0
  0
SPLINE
  5
3FB
330
1F
100
AcDbEntity
  8
GRAU_10_
 62
     7
100
AcDbSpline
210
0.0
220
0.0
230
1.0
 70
     8
 71
     3
 72
    11
 73
     7
 74
     0
 42
0.0000000001
 43
0.0000000001
 12
1.0
 22
0.0
 32
0.0
 13
1.0
 23
0.0
 33
0.0
 40
0.0
 40
0.0
 40
0.0
 40
0.0
 40
1.0
 40
1.0
 40
1.0
 40
2.0
 40
2.0
 40
2.0
 40
2.0
 10
66.98720831658662
 20
147.6761863183326
 30
0.0
 10
65.61384442804105
 20
149.1063474290862
 30
0.0
 10
63.77939998405528
 20
149.8270724289059
 30
0.0
 10
61.93860554007077
 20
149.8281307622392
 30
0.0
 10
59.95599442945535
 20
149.8281307622392
 30
0.0
 10
58.16564720768078
 20
149.0036890957788
 30
0.0
 10
56.88964998577749
 20
147.6761863183326
 30
0.0
  0
SPLINE
  5
3FC
330
1F
100
AcDbEntity
  8
GRAU_10_
 62
     7
100
AcDbSpline
210
0.0
220
0.0
230
1.0
 70
     8
 71
     3
 72
    11
 73
     7
 74
     0
 42
0.0000000001
 43
0.0000000001
 12
1.0
 22
0.0
 32
0.0
 13
1.0
 23
0.0
 33
0.0
 40
0.0
 40
0.0
 40
0.0
 40
0.0
 40
1.0
 40
1.0
 40
1.0
 40
2.0
 40
2.0
 40
2.0
 40
2.0
 10
50.68005554288549
 20
149.3282446512532
 30
0.0
 10
49.48343332096249
 20
147.255675207327
 30
0.0
 10
48.922516654436
 20
144.9901363190043
 30
0.0
 10
48.93874443220982
 20
142.8276085417671
 30
0.0
 10
48.93874443220982
 20
135.6482279880065
 30
0.0
 10
54.75922498631018
 20
129.8277474339061
 30
0.0
 10
61.93860554007077
 20
129.8277474339061
 30
0.0
  0
SPLINE
  5
3FD
330
1F
100
AcDbEntity
  8
GRAU_10_
 62
     7
100
AcDbSpline
210
0.0
220
0.0
230
1.0
 70
     8
 71
     3
 72
    11
 73
     7
 74
     0
 42
0.0000000001
 43
0.0000000001
 12
1.0
 22
0.0
 32
0.0
 13
1.0
 23
0.0
 33
0.0
 40
0.0
 40
0.0
 40
0.0
 40
0.0
 40
1.0
 40
1.0
 40
1.0
 40
2.0
 40
2.0
 40
2.0
 40
2.0
 10
55.21536665286269
 20
144.7760002079467
 30
0.0
 10
55.02204443068888
 20
144.109602985891
 30
0.0
 10
54.932086097378
 20
143.4375613193925
 30
0.0
 10
54.93843609737642
 20
142.8276085417671
 30
0.0
 10
54.93843609737642
 20
139.5563002092515
 30
0.0
 10
57.18280831903758
 20
136.8092196543826
 30
0.0
 10
60.26396942937853
 20
136.0313446545771
 30
0.0
  0
SPLINE
  5
3FE
330
1F
100
AcDbEntity
  8
GRAU_10_
 62
     7
100
AcDbSpline
210
0.0
220
0.0
230
1.0
 70
     8
 71
     3
 72
     8
 73
     4
 74
     0
 42
0.0000000001
 43
0.0000000001
 12
1.0
 22
0.0
 32
0.0
 13
1.0
 23
0.0
 33
0.0
 40
0.0
 40
0.0
 40
0.0
 40
0.0
 40
1.0
 40
1.0
 40
1.0
 40
1.0
 10
74.93881942570981
 20
142.8276085417671
 30
0.0
 10
74.93881942570981
 20
145.2208529856134
 30
0.0
 10
74.2921777592046
 20
147.4631085406083
 30
0.0
 10
73.19680275947862
 20
149.3282446512532
 30
0.0
  0
SPLINE
  5
3FF
330
1F
100
AcDbEntity
  8
GRAU_10_
 62
     7
100
AcDbSpline
210
0.0
220
0.0
230
1.0
 70
     8
 71
     3
 72
     8
 73
     4
 74
     0
 42
0.0000000001
 43
0.0000000001
 12
1.0
 22
0.0
 32
0.0
 13
1.0
 23
0.0
 33
0.0
 40
0.0
 40
0.0
 40
0.0
 40
0.0
 40
1.0
 40
1.0
 40
1.0
 40
1.0
 10
61.93860554007077
 20
129.8277474339061
 30
0.0
 10
69.11833887160944
 20
129.8277474339061
 30
0.0
 10
74.93881942570981
 20
135.6482279880065
 30
0.0
 10
74.93881942570981
 20
142.8276085417671
 30
0.0
  0
SPLINE
  5
400
330
1F
100
AcDbEntity
  8
GRAU_10_
 62
     7
100
AcDbSpline
210
0.0
220
0.0
230
1.0
 70
     8
 71
     3
 72
     8
 73
     4
 74
     0
 42
0.0000000001
 43
0.0000000001
 12
1.0
 22
0.0
 32
0.0
 13
1.0
 23
0.0
 33
0.0
 40
0.0
 40
0.0
 40
0.0
 40
0.0
 40
1.0
 40
1.0
 40
1.0
 40
1.0
 10
68.93842220498767
 20
142.8276085417671
 30
0.0
 10
68.93842220498767
 20
143.5222279860379
 30
0.0
 10
68.83717498279067
 20
144.192505763648
 30
0.0
 10
68.66219720505661
 20
144.7760002079467
 30
0.0
  0
SPLINE
  5
401
330
1F
100
AcDbEntity
  8
GRAU_10_
 62
     7
100
AcDbSpline
210
0.0
220
0.0
230
1.0
 70
     8
 71
     3
 72
     8
 73
     4
 74
     0
 42
0.0000000001
 43
0.0000000001
 12
1.0
 22
0.0
 32
0.0
 13
1.0
 23
0.0
 33
0.0
 40
0.0
 40
0.0
 40
0.0
 40
0.0
 40
1.0
 40
1.0
 40
1.0
 40
1.0
 10
63.61288887298556
 20
136.0313446545771
 30
0.0
 10
66.7896527610803
 20
136.8134529877152
 30
0.0
 10
68.92043053832538
 20
139.6501390981168
 30
0.0
 10
68.93842220498767
 20
142.8276085417671
 30
0.0
  0
SPLINE
  5
402
330
1F
100
AcDbEntity
  8
GRAU_10_
 62
     7
100
AcDbSpline
210
0.0
220
0.0
230
1.0
 70
    11
 71
     3
 72
    17
 73
    13
 74
     0
 42
0.0000000001
 43
0.0000000001
 12
1.0
 22
0.0
 32
0.0
 13
1.0
 23
0.0
 33
0.0
 40
0.0
 40
0.0
 40
0.0
 40
0.0
 40
1.0
 40
1.0
 40
1.0
 40
2.0
 40
2.0
 40
2.0
 40
3.0
 40
3.0
 40
3.0
 40
4.0
 40
4.0
 40
4.0
 40
4.0
 10
75.88849720325017
 20
142.8276085417671
 30
0.0
 10
75.88849720325017
 20
150.5322752065076
 30
0.0
 10
69.64291942703356
 20
156.7778529827243
 30
0.0
 10
61.93860554007077
 20
156.7778529827243
 30
0.0
 10
54.23464443088574
 20
156.7778529827243
 30
0.0
 10
47.98836109911393
 20
150.5322752065076
 30
0.0
 10
47.98836109911393
 20
142.8276085417671
 30
0.0
 10
47.98836109911393
 20
135.1240002103595
 30
0.0
 10
54.23464443088574
 20
128.8777168785877
 30
0.0
 10
61.93860554007077
 20
128.8777168785877
 30
0.0
 10
69.64291942703356
 20
128.8777168785877
 30
0.0
 10
75.88849720325017
 20
135.1240002103595
 30
0.0
 10
75.88849720325017
 20
142.8276085417671
 30
0.0
  0
SPLINE
  5
403
330
1F
100
AcDbEntity
  8
GRAU_10_
 62
     7
100
AcDbSpline
210
0.0
220
0.0
230
1.0
 70
    11
 71
     3
 72
    17
 73
    13
 74
     0
 42
0.0000000001
 43
0.0000000001
 12
1.0
 22
0.0
 32
0.0
 13
1.0
 23
0.0
 33
0.0
 40
0.0
 40
0.0
 40
0.0
 40
0.0
 40
1.0
 40
1.0
 40
1.0
 40
2.0
 40
2.0
 40
2.0
 40
3.0
 40
3.0
 40
3.0
 40
4.0
 40
4.0
 40
4.0
 40
4.0
 10
79.03844998024049
 20
142.8276085417671
 30
0.0
 10
79.03844998024049
 20
152.2721752060726
 30
0.0
 10
71.38246664882107
 20
159.928158537492
 30
0.0
 10
61.93860554007077
 20
159.928158537492
 30
0.0
 10
52.49439165354303
 20
159.928158537492
 30
0.0
 10
44.83840832212361
 20
152.2721752060726
 30
0.0
 10
44.83840832212361
 20
142.8276085417671
 30
0.0
 10
44.83840832212361
 20
133.3837474330171
 30
0.0
 10
52.49439165354303
 20
125.7277641015974
 30
0.0
 10
61.93860554007077
 20
125.7277641015974
 30
0.0
 10
71.38246664882107
 20
125.7277641015974
 30
0.0
 10
79.03844998024049
 20
133.3837474330171
 30
0.0
 10
79.03844998024049
 20
142.8276085417671
 30
0.0
  0
SPLINE
  5
404
330
1F
100
AcDbEntity
  8
GRAU_10_
 62
     7
100
AcDbSpline
210
0.0
220
0.0
230
1.0
 70
     8
 71
     3
 72
     8
 73
     4
 74
     0
 42
0.0000000001
 43
0.0000000001
 12
1.0
 22
0.0
 32
0.0
 13
1.0
 23
0.0
 33
0.0
 40
0.0
 40
0.0
 40
0.0
 40
0.0
 40
1.0
 40
1.0
 40
1.0
 40
1.0
 10
69.43830831597363
 20
166.1462196470484
 30
0.0
 10
69.43830831597363
 20
163.378325203296
 30
0.0
 10
70.84448053784459
 20
160.9381613150174
 30
0.0
 10
73.00983053730322
 20
159.4840113153808
 30
0.0
  0
SPLINE
  5
405
330
1F
100
AcDbEntity
  8
GRAU_10_
 62
     7
100
AcDbSpline
210
0.0
220
0.0
230
1.0
 70
     8
 71
     3
 72
     8
 73
     4
 74
     0
 42
0.0000000001
 43
0.0000000001
 12
1.0
 22
0.0
 32
0.0
 13
1.0
 23
0.0
 33
0.0
 40
0.0
 40
0.0
 40
0.0
 40
0.0
 40
1.0
 40
1.0
 40
1.0
 40
1.0
 10
81.93863609062639
 20
142.8276085417671
 30
0.0
 10
81.93863609062639
 20
149.7484029844811
 30
0.0
 10
78.42355831372741
 20
155.8479307607344
 30
0.0
 10
73.00983053730322
 20
159.4840113153808
 30
0.0
  0
SPLINE
  5
406
330
1F
100
AcDbEntity
  8
GRAU_10_
 62
     7
100
AcDbSpline
210
0.0
220
0.0
230
1.0
 70
     8
 71
     3
 72
    14
 73
    10
 74
     0
 42
0.0000000001
 43
0.0000000001
 12
1.0
 22
0.0
 32
0.0
 13
1.0
 23
0.0
 33
0.0
 40
0.0
 40
0.0
 40
0.0
 40
0.0
 40
1.0
 40
1.0
 40
1.0
 40
2.0
 40
2.0
 40
2.0
 40
3.0
 40
3.0
 40
3.0
 40
3.0
 10
50.86702776506088
 20
159.4840113153808
 30
0.0
 10
45.10404998872409
 20
155.6528446496721
 30
0.0
 10
41.96961943395206
 20
149.3490585401367
 30
0.0
 10
41.93822221173771
 20
142.8276085417671
 30
0.0
 10
41.93822221173771
 20
131.7824891000839
 30
0.0
 10
50.8931333206101
 20
122.8279307689892
 30
0.0
 10
61.93860554007077
 20
122.8279307689892
 30
0.0
 10
72.98407775953177
 20
122.8279307689892
 30
0.0
 10
81.93863609062639
 20
131.7824891000839
 30
0.0
 10
81.93863609062639
 20
142.8276085417671
 30
0.0
  0
SPLINE
  5
407
330
1F
100
AcDbEntity
  8
GRAU_10_
 62
     7
100
AcDbSpline
210
0.0
220
0.0
230
1.0
 70
     8
 71
     3
 72
     8
 73
     4
 74
     0
 42
0.0000000001
 43
0.0000000001
 12
1.0
 22
0.0
 32
0.0
 13
1.0
 23
0.0
 33
0.0
 40
0.0
 40
0.0
 40
0.0
 40
0.0
 40
1.0
 40
1.0
 40
1.0
 40
1.0
 10
50.86702776506088
 20
159.4840113153808
 30
0.0
 10
53.17243054226258
 20
161.0161252038866
 30
0.0
 10
54.42584998639363
 20
163.5377807588118
 30
0.0
 10
54.43854998639047
 20
166.1462196470484
 30
0.0
  0
POLYLINE
  5
408
330
1F
100
AcDbEntity
  8
GRAU_10_
 62
     7
100
AcDb2dPolyline
 66
     1
 10
0.0
 20
0.0
 30
0.0
  0
VERTEX
  5
409
330
408
100
AcDbEntity
  8
GRAU_10_
 62
     7
100
AcDbVertex
100
AcDb2dVertex
 10
54.43854998639047
 20
167.3280252023086
 30
0.0
  0
VERTEX
  5
40A
330
408
100
AcDbEntity
  8
GRAU_10_
 62
     7
100
AcDbVertex
100
AcDb2dVertex
 10
54.43854998639047
 20
166.1462196470484
 30
0.0
  0
SEQEND
  5
40B
330
408
100
AcDbEntity
  8
GRAU_10_
 62
     7
  0
POLYLINE
  5
40C
330
1F
100
AcDbEntity
  8
GRAU_10_
 62
     7
100
AcDb2dPolyline
 66
     1
 10
0.0
 20
0.0
 30
0.0
  0
VERTEX
  5
40D
330
40C
100
AcDbEntity
  8
GRAU_10_
 62
     7
100
AcDbVertex
100
AcDb2dVertex
 10
69.43830831597363
 20
167.3280252023086
 30
0.0
  0
VERTEX
  5
40E
330
40C
100
AcDbEntity
  8
GRAU_10_
 62
     7
100
AcDbVertex
100
AcDb2dVertex
 10
54.43854998639047
 20
167.3280252023086
 30
0.0
  0
SEQEND
  5
40F
330
40C
100
AcDbEntity
  8
GRAU_10_
 62
     7
  0
POLYLINE
  5
410
330
1F
100
AcDbEntity
  8
GRAU_10_
 62
     7
100
AcDb2dPolyline
 66
     1
 10
0.0
 20
0.0
 30
0.0
  0
VERTEX
  5
411
330
410
100
AcDbEntity
  8
GRAU_10_
 62
     7
100
AcDbVertex
100
AcDb2dVertex
 10
69.43830831597363
 20
166.1462196470484
 30
0.0
  0
VERTEX
  5
412
330
410
100
AcDbEntity
  8
GRAU_10_
 62
     7
100
AcDbVertex
100
AcDb2dVertex
 10
69.43830831597363
 20
167.3280252023086
 30
0.0
  0
SEQEND
  5
413
330
410
100
AcDbEntity
  8
GRAU_10_
 62
     7
  0
POLYLINE
  5
414
330
1F
100
AcDbEntity
  8
GRAU_10_
  6
AI-LINETYPE-1
 62
   250
100
AcDb2dPolyline
 66
     1
 10
0.0
 20
0.0
 30
0.0
  0
VERTEX
  5
415
330
414
100
AcDbEntity
  8
GRAU_10_
  6
AI-LINETYPE-1
 62
   250
100
AcDbVertex
100
AcDb2dVertex
 10
61.93860554007077
 20
119.3744351169747
 30
0.0
  0
VERTEX
  5
416
330
414
100
AcDbEntity
  8
GRAU_10_
  6
AI-LINETYPE-1
 62
   250
100
AcDbVertex
100
AcDb2dVertex
 10
61.93860554007077
 20
169.5484830640458
 30
0.0
  0
SEQEND
  5
418
330
414
100
AcDbEntity
  8
GRAU_10_
  6
AI-LINETYPE-1
 62
   250
  0
POLYLINE
  5
419
330
1F
100
AcDbEntity
  8
GRAU_10_
  6
AI-LINETYPE-2
 62
   250
100
AcDb2dPolyline
 66
     1
 10
0.0
 20
0.0
 30
0.0
  0
VERTEX
  5
41A
330
419
100
AcDbEntity
  8
GRAU_10_
  6
AI-LINETYPE-2
 62
   250
100
AcDbVertex
100
AcDb2dVertex
 10
39.7383877981513
 20
142.8276085417671
 30
0.0
  0
VERTEX
  5
41B
330
419
100
AcDbEntity
  8
GRAU_10_
  6
AI-LINETYPE-2
 62
   250
100
AcDbVertex
100
AcDb2dVertex
 10
83.99838446628993
 20
142.8276085417671
 30
0.0
  0
SEQEND
  5
41D
330
419
100
AcDbEntity
  8
GRAU_10_
  6
AI-LINETYPE-2
 62
   250
  0
POLYLINE
  5
41E
330
1F
100
AcDbEntity
  8
GRAU_10_
  6
AI-LINETYPE-3
 62
   250
100
AcDb2dPolyline
 66
     1
 10
0.0
 20
0.0
 30
0.0
  0
VERTEX
  5
41F
330
41E
100
AcDbEntity
  8
GRAU_10_
  6
AI-LINETYPE-3
 62
   250
100
AcDbVertex
100
AcDb2dVertex
 10
124.5429833206325
 20
142.8276085417671
 30
0.0
  0
VERTEX
  5
420
330
41E
100
AcDbEntity
  8
GRAU_10_
  6
AI-LINETYPE-3
 62
   250
100
AcDbVertex
100
AcDb2dVertex
 10
156.5706364165052
 20
142.8276085417671
 30
0.0
  0
SEQEND
  5
422
330
41E
100
AcDbEntity
  8
GRAU_10_
  6
AI-LINETYPE-3
 62
   250
  0
POLYLINE
  5
424
330
1F
100
AcDbEntity
  8
STANDARDEBENE
 62
   155
100
AcDb2dPolyline
 66
     1
 10
0.0
 20
0.0
 30
0.0
  0
VERTEX
  5
425
330
424
100
AcDbEntity
  8
STANDARDEBENE
 62
   155
100
AcDbVertex
100
AcDb2dVertex
 10
127.0300236089047
 20
161.3685502037984
 30
0.0
  0
VERTEX
  5
426
330
424
100
AcDbEntity
  8
STANDARDEBENE
 62
   155
100
AcDbVertex
100
AcDb2dVertex
 10
148.0301791592103
 20
161.3685502037984
 30
0.0
  0
VERTEX
  5
427
330
424
100
AcDbEntity
  8
STANDARDEBENE
 62
   155
100
AcDbVertex
100
AcDb2dVertex
 10
147.5052458260081
 20
161.3685502037984
 30
0.0
  0
SEQEND
  5
428
330
424
100
AcDbEntity
  8
STANDARDEBENE
 62
   155
  0
POLYLINE
  5
429
330
1F
100
AcDbEntity
  8
STANDARDEBENE
 62
   155
100
AcDb2dPolyline
 66
     1
 10
0.0
 20
0.0
 30
0.0
  0
VERTEX
  5
42A
330
429
100
AcDbEntity
  8
STANDARDEBENE
 62
   155
100
AcDbVertex
100
AcDb2dVertex
 10
146.4546736040485
 20
161.3685502037984
 30
0.0
  0
VERTEX
  5
42B
330
429
100
AcDbEntity
  8
STANDARDEBENE
 62
   155
100
AcDbVertex
100
AcDb2dVertex
 10
145.4048069376445
 20
161.3685502037984
 30
0.0
  0
SEQEND
  5
42C
330
429
100
AcDbEntity
  8
STANDARDEBENE
 62
   155
  0
POLYLINE
  5
42D
330
1F
100
AcDbEntity
  8
STANDARDEBENE
 62
   155
100
AcDb2dPolyline
 66
     1
 10
0.0
 20
0.0
 30
0.0
  0
VERTEX
  5
42E
330
42D
100
AcDbEntity
  8
STANDARDEBENE
 62
   155
100
AcDbVertex
100
AcDb2dVertex
 10
144.3549402712401
 20
161.3685502037984
 30
0.0
  0
VERTEX
  5
42F
330
42D
100
AcDbEntity
  8
STANDARDEBENE
 62
   155
100
AcDbVertex
100
AcDb2dVertex
 10
143.305073604836
 20
161.3685502037984
 30
0.0
  0
SEQEND
  5
430
330
42D
100
AcDbEntity
  8
STANDARDEBENE
 62
   155
  0
POLYLINE
  5
431
330
1F
100
AcDbEntity
  8
STANDARDEBENE
 62
   155
100
AcDb2dPolyline
 66
     1
 10
0.0
 20
0.0
 30
0.0
  0
VERTEX
  5
432
330
431
100
AcDbEntity
  8
STANDARDEBENE
 62
   155
100
AcDbVertex
100
AcDb2dVertex
 10
142.2552069384316
 20
161.3685502037984
 30
0.0
  0
VERTEX
  5
433
330
431
100
AcDbEntity
  8
STANDARDEBENE
 62
   155
100
AcDbVertex
100
AcDb2dVertex
 10
141.2046347164723
 20
161.3685502037984
 30
0.0
  0
SEQEND
  5
434
330
431
100
AcDbEntity
  8
STANDARDEBENE
 62
   155
  0
POLYLINE
  5
435
330
1F
100
AcDbEntity
  8
STANDARDEBENE
 62
   155
100
AcDb2dPolyline
 66
     1
 10
0.0
 20
0.0
 30
0.0
  0
VERTEX
  5
436
330
435
100
AcDbEntity
  8
STANDARDEBENE
 62
   155
100
AcDbVertex
100
AcDb2dVertex
 10
140.1547680500679
 20
161.3685502037984
 30
0.0
  0
VERTEX
  5
437
330
435
100
AcDbEntity
  8
STANDARDEBENE
 62
   155
100
AcDbVertex
100
AcDb2dVertex
 10
139.1049013836638
 20
161.3685502037984
 30
0.0
  0
SEQEND
  5
438
330
435
100
AcDbEntity
  8
STANDARDEBENE
 62
   155
  0
POLYLINE
  5
439
330
1F
100
AcDbEntity
  8
STANDARDEBENE
 62
   155
100
AcDb2dPolyline
 66
     1
 10
0.0
 20
0.0
 30
0.0
  0
VERTEX
  5
43A
330
439
100
AcDbEntity
  8
STANDARDEBENE
 62
   155
100
AcDbVertex
100
AcDb2dVertex
 10
138.0550347172594
 20
161.3685502037984
 30
0.0
  0
VERTEX
  5
43B
330
439
100
AcDbEntity
  8
STANDARDEBENE
 62
   155
100
AcDbVertex
100
AcDb2dVertex
 10
137.0051680508553
 20
161.3685502037984
 30
0.0
  0
SEQEND
  5
43C
330
439
100
AcDbEntity
  8
STANDARDEBENE
 62
   155
  0
POLYLINE
  5
43D
330
1F
100
AcDbEntity
  8
STANDARDEBENE
 62
   155
100
AcDb2dPolyline
 66
     1
 10
0.0
 20
0.0
 30
0.0
  0
VERTEX
  5
43E
330
43D
100
AcDbEntity
  8
STANDARDEBENE
 62
   155
100
AcDbVertex
100
AcDb2dVertex
 10
135.9545958288957
 20
161.3685502037984
 30
0.0
  0
VERTEX
  5
43F
330
43D
100
AcDbEntity
  8
STANDARDEBENE
 62
   155
100
AcDbVertex
100
AcDb2dVertex
 10
134.9047291624917
 20
161.3685502037984
 30
0.0
  0
SEQEND
  5
440
330
43D
100
AcDbEntity
  8
STANDARDEBENE
 62
   155
  0
POLYLINE
  5
441
330
1F
100
AcDbEntity
  8
STANDARDEBENE
 62
   155
100
AcDb2dPolyline
 66
     1
 10
0.0
 20
0.0
 30
0.0
  0
VERTEX
  5
442
330
441
100
AcDbEntity
  8
STANDARDEBENE
 62
   155
100
AcDbVertex
100
AcDb2dVertex
 10
133.8548624960873
 20
161.3685502037984
 30
0.0
  0
VERTEX
  5
443
330
441
100
AcDbEntity
  8
STANDARDEBENE
 62
   155
100
AcDbVertex
100
AcDb2dVertex
 10
132.8049958296832
 20
161.3685502037984
 30
0.0
  0
SEQEND
  5
444
330
441
100
AcDbEntity
  8
STANDARDEBENE
 62
   155
  0
POLYLINE
  5
445
330
1F
100
AcDbEntity
  8
STANDARDEBENE
 62
   155
100
AcDb2dPolyline
 66
     1
 10
0.0
 20
0.0
 30
0.0
  0
VERTEX
  5
446
330
445
100
AcDbEntity
  8
STANDARDEBENE
 62
   155
100
AcDbVertex
100
AcDb2dVertex
 10
131.7551291632791
 20
161.3685502037984
 30
0.0
  0
VERTEX
  5
447
330
445
100
AcDbEntity
  8
STANDARDEBENE
 62
   155
100
AcDbVertex
100
AcDb2dVertex
 10
130.7052624968747
 20
161.3685502037984
 30
0.0
  0
SEQEND
  5
448
330
445
100
AcDbEntity
  8
STANDARDEBENE
 62
   155
  0
POLYLINE
  5
449
330
1F
100
AcDbEntity
  8
STANDARDEBENE
 62
   155
100
AcDb2dPolyline
 66
     1
 10
0.0
 20
0.0
 30
0.0
  0
VERTEX
  5
44A
330
449
100
AcDbEntity
  8
STANDARDEBENE
 62
   155
100
AcDbVertex
100
AcDb2dVertex
 10
129.6546902749151
 20
161.3685502037984
 30
0.0
  0
VERTEX
  5
44B
330
449
100
AcDbEntity
  8
STANDARDEBENE
 62
   155
100
AcDbVertex
100
AcDb2dVertex
 10
128.604823608511
 20
161.3685502037984
 30
0.0
  0
SEQEND
  5
44C
330
449
100
AcDbEntity
  8
STANDARDEBENE
 62
   155
  0
POLYLINE
  5
44D
330
1F
100
AcDbEntity
  8
STANDARDEBENE
 62
   155
100
AcDb2dPolyline
 66
     1
 10
0.0
 20
0.0
 30
0.0
  0
VERTEX
  5
44E
330
44D
100
AcDbEntity
  8
STANDARDEBENE
 62
   155
100
AcDbVertex
100
AcDb2dVertex
 10
127.5549569421069
 20
161.3685502037984
 30
0.0
  0
VERTEX
  5
44F
330
44D
100
AcDbEntity
  8
STANDARDEBENE
 62
   155
100
AcDbVertex
100
AcDb2dVertex
 10
127.0300236089047
 20
161.3685502037984
 30
0.0
  0
SEQEND
  5
450
330
44D
100
AcDbEntity
  8
STANDARDEBENE
 62
   155
  0
POLYLINE
  5
452
330
1F
100
AcDbEntity
  8
BEMA_U_00DFUNG
 62
     7
100
AcDb2dPolyline
 66
     1
 10
0.0
 20
0.0
 30
0.0
  0
VERTEX
  5
453
330
452
100
AcDbEntity
  8
BEMA_U_00DFUNG
 62
     7
100
AcDbVertex
100
AcDb2dVertex
 10
41.93822221173771
 20
142.8276085417671
 30
0.0
  0
VERTEX
  5
454
330
452
100
AcDbEntity
  8
BEMA_U_00DFUNG
 62
     7
100
AcDbVertex
100
AcDb2dVertex
 10
41.93822221173771
 20
179.3281140881973
 30
0.0
  0
SEQEND
  5
455
330
452
100
AcDbEntity
  8
BEMA_U_00DFUNG
 62
     7
  0
POLYLINE
  5
456
330
1F
100
AcDbEntity
  8
BEMA_U_00DFUNG
 62
     7
100
AcDb2dPolyline
 66
     1
 10
0.0
 20
0.0
 30
0.0
  0
VERTEX
  5
457
330
456
100
AcDbEntity
  8
BEMA_U_00DFUNG
 62
     7
100
AcDbVertex
100
AcDb2dVertex
 10
81.93863609062639
 20
142.8276085417671
 30
0.0
  0
VERTEX
  5
458
330
456
100
AcDbEntity
  8
BEMA_U_00DFUNG
 62
     7
100
AcDbVertex
100
AcDb2dVertex
 10
81.93863609062639
 20
179.3281140881973
 30
0.0
  0
SEQEND
  5
459
330
456
100
AcDbEntity
  8
BEMA_U_00DFUNG
 62
     7
  0
POLYLINE
  5
45A
330
1F
100
AcDbEntity
  8
BEMA_U_00DFUNG
 62
     7
100
AcDb2dPolyline
 66
     1
 10
0.0
 20
0.0
 30
0.0
  0
VERTEX
  5
45B
330
45A
100
AcDbEntity
  8
BEMA_U_00DFUNG
 62
     7
100
AcDbVertex
100
AcDb2dVertex
 10
41.93822221173771
 20
177.3282168664751
 30
0.0
  0
VERTEX
  5
45C
330
45A
100
AcDbEntity
  8
BEMA_U_00DFUNG
 62
     7
100
AcDbVertex
100
AcDb2dVertex
 10
81.93863609062639
 20
177.3282168664751
 30
0.0
  0
SEQEND
  5
45D
330
45A
100
AcDbEntity
  8
BEMA_U_00DFUNG
 62
     7
  0
POLYLINE
  5
45E
330
1F
100
AcDbEntity
  8
BEMA_U_00DFUNG
 62
     7
100
AcDb2dPolyline
 66
     1
 10
0.0
 20
0.0
 30
0.0
  0
VERTEX
  5
45F
330
45E
100
AcDbEntity
  8
BEMA_U_00DFUNG
 62
     7
100
AcDbVertex
100
AcDb2dVertex
 10
41.93822221173771
 20
177.3282168664751
 30
0.0
  0
VERTEX
  5
460
330
45E
100
AcDbEntity
  8
BEMA_U_00DFUNG
 62
     7
100
AcDbVertex
100
AcDb2dVertex
 10
45.4384833219736
 20
176.8671363110352
 30
0.0
  0
VERTEX
  5
461
330
45E
100
AcDbEntity
  8
BEMA_U_00DFUNG
 62
     7
100
AcDbVertex
100
AcDb2dVertex
 10
45.4384833219736
 20
177.7885918663601
 30
0.0
  0
VERTEX
  5
462
330
45E
100
AcDbEntity
  8
BEMA_U_00DFUNG
 62
     7
100
AcDbVertex
100
AcDb2dVertex
 10
41.93822221173771
 20
177.3282168664751
 30
0.0
  0
SEQEND
  5
463
330
45E
100
AcDbEntity
  8
BEMA_U_00DFUNG
 62
     7
  0
POLYLINE
  5
464
330
1F
100
AcDbEntity
  8
BEMA_U_00DFUNG
 62
     7
100
AcDb2dPolyline
 66
     1
 10
0.0
 20
0.0
 30
0.0
  0
VERTEX
  5
465
330
464
100
AcDbEntity
  8
BEMA_U_00DFUNG
 62
     7
100
AcDbVertex
100
AcDb2dVertex
 10
45.4384833219736
 20
176.8706640888119
 30
0.0
  0
VERTEX
  5
466
330
464
100
AcDbEntity
  8
BEMA_U_00DFUNG
 62
     7
100
AcDbVertex
100
AcDb2dVertex
 10
45.41131943309175
 20
176.8706640888119
 30
0.0
  0
SEQEND
  5
467
330
464
100
AcDbEntity
  8
BEMA_U_00DFUNG
 62
     7
  0
POLYLINE
  5
468
330
1F
100
AcDbEntity
  8
BEMA_U_00DFUNG
 62
     7
100
AcDb2dPolyline
 66
     1
 10
0.0
 20
0.0
 30
0.0
  0
VERTEX
  5
469
330
468
100
AcDbEntity
  8
BEMA_U_00DFUNG
 62
     7
100
AcDbVertex
100
AcDb2dVertex
 10
45.4384833219736
 20
176.8706640888119
 30
0.0
  0
VERTEX
  5
46A
330
468
100
AcDbEntity
  8
BEMA_U_00DFUNG
 62
     7
100
AcDbVertex
100
AcDb2dVertex
 10
45.41131943309175
 20
176.8706640888119
 30
0.0
  0
SEQEND
  5
46B
330
468
100
AcDbEntity
  8
BEMA_U_00DFUNG
 62
     7
  0
POLYLINE
  5
46C
330
1F
100
AcDbEntity
  8
BEMA_U_00DFUNG
 62
     7
100
AcDb2dPolyline
 66
     1
 10
0.0
 20
0.0
 30
0.0
  0
VERTEX
  5
46D
330
46C
100
AcDbEntity
  8
BEMA_U_00DFUNG
 62
     7
100
AcDbVertex
100
AcDb2dVertex
 10
45.4384833219736
 20
176.9214640887993
 30
0.0
  0
VERTEX
  5
46E
330
46C
100
AcDbEntity
  8
BEMA_U_00DFUNG
 62
     7
100
AcDbVertex
100
AcDb2dVertex
 10
45.02538054429932
 20
176.9214640887993
 30
0.0
  0
SEQEND
  5
46F
330
46C
100
AcDbEntity
  8
BEMA_U_00DFUNG
 62
     7
  0
POLYLINE
  5
470
330
1F
100
AcDbEntity
  8
BEMA_U_00DFUNG
 62
     7
100
AcDb2dPolyline
 66
     1
 10
0.0
 20
0.0
 30
0.0
  0
VERTEX
  5
471
330
470
100
AcDbEntity
  8
BEMA_U_00DFUNG
 62
     7
100
AcDbVertex
100
AcDb2dVertex
 10
45.4384833219736
 20
176.9722640887863
 30
0.0
  0
VERTEX
  5
472
330
470
100
AcDbEntity
  8
BEMA_U_00DFUNG
 62
     7
100
AcDbVertex
100
AcDb2dVertex
 10
44.63979443328434
 20
176.9722640887863
 30
0.0
  0
SEQEND
  5
473
330
470
100
AcDbEntity
  8
BEMA_U_00DFUNG
 62
     7
  0
POLYLINE
  5
474
330
1F
100
AcDbEntity
  8
BEMA_U_00DFUNG
 62
     7
100
AcDb2dPolyline
 66
     1
 10
0.0
 20
0.0
 30
0.0
  0
VERTEX
  5
475
330
474
100
AcDbEntity
  8
BEMA_U_00DFUNG
 62
     7
100
AcDbVertex
100
AcDb2dVertex
 10
45.4384833219736
 20
177.0230640887737
 30
0.0
  0
VERTEX
  5
476
330
474
100
AcDbEntity
  8
BEMA_U_00DFUNG
 62
     7
100
AcDbVertex
100
AcDb2dVertex
 10
44.25385554449224
 20
177.0230640887737
 30
0.0
  0
SEQEND
  5
477
330
474
100
AcDbEntity
  8
BEMA_U_00DFUNG
 62
     7
  0
POLYLINE
  5
478
330
1F
100
AcDbEntity
  8
BEMA_U_00DFUNG
 62
     7
100
AcDb2dPolyline
 66
     1
 10
0.0
 20
0.0
 30
0.0
  0
VERTEX
  5
479
330
478
100
AcDbEntity
  8
BEMA_U_00DFUNG
 62
     7
100
AcDbVertex
100
AcDb2dVertex
 10
45.4384833219736
 20
177.0738640887611
 30
0.0
  0
VERTEX
  5
47A
330
478
100
AcDbEntity
  8
BEMA_U_00DFUNG
 62
     7
100
AcDbVertex
100
AcDb2dVertex
 10
43.86756387792206
 20
177.0738640887611
 30
0.0
  0
SEQEND
  5
47B
330
478
100
AcDbEntity
  8
BEMA_U_00DFUNG
 62
     7
  0
POLYLINE
  5
47C
330
1F
100
AcDbEntity
  8
BEMA_U_00DFUNG
 62
     7
100
AcDb2dPolyline
 66
     1
 10
0.0
 20
0.0
 30
0.0
  0
VERTEX
  5
47D
330
47C
100
AcDbEntity
  8
BEMA_U_00DFUNG
 62
     7
100
AcDbVertex
100
AcDb2dVertex
 10
45.4384833219736
 20
177.1246640887485
 30
0.0
  0
VERTEX
  5
47E
330
47C
100
AcDbEntity
  8
BEMA_U_00DFUNG
 62
     7
100
AcDbVertex
100
AcDb2dVertex
 10
43.4819777669074
 20
177.1246640887485
 30
0.0
  0
SEQEND
  5
47F
330
47C
100
AcDbEntity
  8
BEMA_U_00DFUNG
 62
     7
  0
POLYLINE
  5
480
330
1F
100
AcDbEntity
  8
BEMA_U_00DFUNG
 62
     7
100
AcDb2dPolyline
 66
     1
 10
0.0
 20
0.0
 30
0.0
  0
VERTEX
  5
481
330
480
100
AcDbEntity
  8
BEMA_U_00DFUNG
 62
     7
100
AcDbVertex
100
AcDb2dVertex
 10
45.4384833219736
 20
177.1758168665136
 30
0.0
  0
VERTEX
  5
482
330
480
100
AcDbEntity
  8
BEMA_U_00DFUNG
 62
     7
100
AcDbVertex
100
AcDb2dVertex
 10
43.09639165589241
 20
177.1758168665136
 30
0.0
  0
SEQEND
  5
483
330
480
100
AcDbEntity
  8
BEMA_U_00DFUNG
 62
     7
  0
POLYLINE
  5
484
330
1F
100
AcDbEntity
  8
BEMA_U_00DFUNG
 62
     7
100
AcDb2dPolyline
 66
     1
 10
0.0
 20
0.0
 30
0.0
  0
VERTEX
  5
485
330
484
100
AcDbEntity
  8
BEMA_U_00DFUNG
 62
     7
100
AcDbVertex
100
AcDb2dVertex
 10
45.4384833219736
 20
177.2266168665007
 30
0.0
  0
VERTEX
  5
486
330
484
100
AcDbEntity
  8
BEMA_U_00DFUNG
 62
     7
100
AcDbVertex
100
AcDb2dVertex
 10
42.71045276710031
 20
177.2266168665007
 30
0.0
  0
SEQEND
  5
487
330
484
100
AcDbEntity
  8
BEMA_U_00DFUNG
 62
     7
  0
POLYLINE
  5
488
330
1F
100
AcDbEntity
  8
BEMA_U_00DFUNG
 62
     7
100
AcDb2dPolyline
 66
     1
 10
0.0
 20
0.0
 30
0.0
  0
VERTEX
  5
489
330
488
100
AcDbEntity
  8
BEMA_U_00DFUNG
 62
     7
100
AcDbVertex
100
AcDb2dVertex
 10
45.4384833219736
 20
177.2774168664881
 30
0.0
  0
VERTEX
  5
48A
330
488
100
AcDbEntity
  8
BEMA_U_00DFUNG
 62
     7
100
AcDbVertex
100
AcDb2dVertex
 10
42.32416110053013
 20
177.2774168664881
 30
0.0
  0
SEQEND
  5
48B
330
488
100
AcDbEntity
  8
BEMA_U_00DFUNG
 62
     7
  0
POLYLINE
  5
48C
330
1F
100
AcDbEntity
  8
BEMA_U_00DFUNG
 62
     7
100
AcDb2dPolyline
 66
     1
 10
0.0
 20
0.0
 30
0.0
  0
VERTEX
  5
48D
330
48C
100
AcDbEntity
  8
BEMA_U_00DFUNG
 62
     7
100
AcDbVertex
100
AcDb2dVertex
 10
45.4384833219736
 20
177.3282168664751
 30
0.0
  0
VERTEX
  5
48E
330
48C
100
AcDbEntity
  8
BEMA_U_00DFUNG
 62
     7
100
AcDbVertex
100
AcDb2dVertex
 10
41.93822221173771
 20
177.3282168664751
 30
0.0
  0
SEQEND
  5
48F
330
48C
100
AcDbEntity
  8
BEMA_U_00DFUNG
 62
     7
  0
POLYLINE
  5
490
330
1F
100
AcDbEntity
  8
BEMA_U_00DFUNG
 62
     7
100
AcDb2dPolyline
 66
     1
 10
0.0
 20
0.0
 30
0.0
  0
VERTEX
  5
491
330
490
100
AcDbEntity
  8
BEMA_U_00DFUNG
 62
     7
100
AcDbVertex
100
AcDb2dVertex
 10
45.4384833219736
 20
177.7850640885832
 30
0.0
  0
VERTEX
  5
492
330
490
100
AcDbEntity
  8
BEMA_U_00DFUNG
 62
     7
100
AcDbVertex
100
AcDb2dVertex
 10
45.41131943309175
 20
177.7850640885832
 30
0.0
  0
SEQEND
  5
493
330
490
100
AcDbEntity
  8
BEMA_U_00DFUNG
 62
     7
  0
POLYLINE
  5
494
330
1F
100
AcDbEntity
  8
BEMA_U_00DFUNG
 62
     7
100
AcDb2dPolyline
 66
     1
 10
0.0
 20
0.0
 30
0.0
  0
VERTEX
  5
495
330
494
100
AcDbEntity
  8
BEMA_U_00DFUNG
 62
     7
100
AcDbVertex
100
AcDb2dVertex
 10
45.4384833219736
 20
177.7850640885832
 30
0.0
  0
VERTEX
  5
496
330
494
100
AcDbEntity
  8
BEMA_U_00DFUNG
 62
     7
100
AcDbVertex
100
AcDb2dVertex
 10
45.41131943309175
 20
177.7850640885832
 30
0.0
  0
SEQEND
  5
497
330
494
100
AcDbEntity
  8
BEMA_U_00DFUNG
 62
     7
  0
POLYLINE
  5
498
330
1F
100
AcDbEntity
  8
BEMA_U_00DFUNG
 62
     7
100
AcDb2dPolyline
 66
     1
 10
0.0
 20
0.0
 30
0.0
  0
VERTEX
  5
499
330
498
100
AcDbEntity
  8
BEMA_U_00DFUNG
 62
     7
100
AcDbVertex
100
AcDb2dVertex
 10
45.4384833219736
 20
177.7342640885958
 30
0.0
  0
VERTEX
  5
49A
330
498
100
AcDbEntity
  8
BEMA_U_00DFUNG
 62
     7
100
AcDbVertex
100
AcDb2dVertex
 10
45.02538054429932
 20
177.7342640885958
 30
0.0
  0
SEQEND
  5
49B
330
498
100
AcDbEntity
  8
BEMA_U_00DFUNG
 62
     7
  0
POLYLINE
  5
49C
330
1F
100
AcDbEntity
  8
BEMA_U_00DFUNG
 62
     7
100
AcDb2dPolyline
 66
     1
 10
0.0
 20
0.0
 30
0.0
  0
VERTEX
  5
49D
330
49C
100
AcDbEntity
  8
BEMA_U_00DFUNG
 62
     7
100
AcDbVertex
100
AcDb2dVertex
 10
45.4384833219736
 20
177.6834640886087
 30
0.0
  0
VERTEX
  5
49E
330
49C
100
AcDbEntity
  8
BEMA_U_00DFUNG
 62
     7
100
AcDbVertex
100
AcDb2dVertex
 10
44.63979443328434
 20
177.6834640886087
 30
0.0
  0
SEQEND
  5
49F
330
49C
100
AcDbEntity
  8
BEMA_U_00DFUNG
 62
     7
  0
POLYLINE
  5
4A0
330
1F
100
AcDbEntity
  8
BEMA_U_00DFUNG
 62
     7
100
AcDb2dPolyline
 66
     1
 10
0.0
 20
0.0
 30
0.0
  0
VERTEX
  5
4A1
330
4A0
100
AcDbEntity
  8
BEMA_U_00DFUNG
 62
     7
100
AcDbVertex
100
AcDb2dVertex
 10
45.4384833219736
 20
177.6330168663991
 30
0.0
  0
VERTEX
  5
4A2
330
4A0
100
AcDbEntity
  8
BEMA_U_00DFUNG
 62
     7
100
AcDbVertex
100
AcDb2dVertex
 10
44.25385554449224
 20
177.6330168663991
 30
0.0
  0
SEQEND
  5
4A3
330
4A0
100
AcDbEntity
  8
BEMA_U_00DFUNG
 62
     7
  0
POLYLINE
  5
4A4
330
1F
100
AcDbEntity
  8
BEMA_U_00DFUNG
 62
     7
100
AcDb2dPolyline
 66
     1
 10
0.0
 20
0.0
 30
0.0
  0
VERTEX
  5
4A5
330
4A4
100
AcDbEntity
  8
BEMA_U_00DFUNG
 62
     7
100
AcDbVertex
100
AcDb2dVertex
 10
45.4384833219736
 20
177.582216866412
 30
0.0
  0
VERTEX
  5
4A6
330
4A4
100
AcDbEntity
  8
BEMA_U_00DFUNG
 62
     7
100
AcDbVertex
100
AcDb2dVertex
 10
43.86756387792206
 20
177.582216866412
 30
0.0
  0
SEQEND
  5
4A7
330
4A4
100
AcDbEntity
  8
BEMA_U_00DFUNG
 62
     7
  0
POLYLINE
  5
4A8
330
1F
100
AcDbEntity
  8
BEMA_U_00DFUNG
 62
     7
100
AcDb2dPolyline
 66
     1
 10
0.0
 20
0.0
 30
0.0
  0
VERTEX
  5
4A9
330
4A8
100
AcDbEntity
  8
BEMA_U_00DFUNG
 62
     7
100
AcDbVertex
100
AcDb2dVertex
 10
45.4384833219736
 20
177.5314168664246
 30
0.0
  0
VERTEX
  5
4AA
330
4A8
100
AcDbEntity
  8
BEMA_U_00DFUNG
 62
     7
100
AcDbVertex
100
AcDb2dVertex
 10
43.4819777669074
 20
177.5314168664246
 30
0.0
  0
SEQEND
  5
4AB
330
4A8
100
AcDbEntity
  8
BEMA_U_00DFUNG
 62
     7
  0
POLYLINE
  5
4AC
330
1F
100
AcDbEntity
  8
BEMA_U_00DFUNG
 62
     7
100
AcDb2dPolyline
 66
     1
 10
0.0
 20
0.0
 30
0.0
  0
VERTEX
  5
4AD
330
4AC
100
AcDbEntity
  8
BEMA_U_00DFUNG
 62
     7
100
AcDbVertex
100
AcDb2dVertex
 10
45.4384833219736
 20
177.4806168664373
 30
0.0
  0
VERTEX
  5
4AE
330
4AC
100
AcDbEntity
  8
BEMA_U_00DFUNG
 62
     7
100
AcDbVertex
100
AcDb2dVertex
 10
43.09639165589241
 20
177.4806168664373
 30
0.0
  0
SEQEND
  5
4AF
330
4AC
100
AcDbEntity
  8
BEMA_U_00DFUNG
 62
     7
  0
POLYLINE
  5
4B0
330
1F
100
AcDbEntity
  8
BEMA_U_00DFUNG
 62
     7
100
AcDb2dPolyline
 66
     1
 10
0.0
 20
0.0
 30
0.0
  0
VERTEX
  5
4B1
330
4B0
100
AcDbEntity
  8
BEMA_U_00DFUNG
 62
     7
100
AcDbVertex
100
AcDb2dVertex
 10
45.4384833219736
 20
177.4298168664499
 30
0.0
  0
VERTEX
  5
4B2
330
4B0
100
AcDbEntity
  8
BEMA_U_00DFUNG
 62
     7
100
AcDbVertex
100
AcDb2dVertex
 10
42.71045276710031
 20
177.4298168664499
 30
0.0
  0
SEQEND
  5
4B3
330
4B0
100
AcDbEntity
  8
BEMA_U_00DFUNG
 62
     7
  0
POLYLINE
  5
4B4
330
1F
100
AcDbEntity
  8
BEMA_U_00DFUNG
 62
     7
100
AcDb2dPolyline
 66
     1
 10
0.0
 20
0.0
 30
0.0
  0
VERTEX
  5
4B5
330
4B4
100
AcDbEntity
  8
BEMA_U_00DFUNG
 62
     7
100
AcDbVertex
100
AcDb2dVertex
 10
45.4384833219736
 20
177.3790168664625
 30
0.0
  0
VERTEX
  5
4B6
330
4B4
100
AcDbEntity
  8
BEMA_U_00DFUNG
 62
     7
100
AcDbVertex
100
AcDb2dVertex
 10
42.32416110053013
 20
177.3790168664625
 30
0.0
  0
SEQEND
  5
4B7
330
4B4
100
AcDbEntity
  8
BEMA_U_00DFUNG
 62
     7
  0
POLYLINE
  5
4B8
330
1F
100
AcDbEntity
  8
BEMA_U_00DFUNG
 62
     7
100
AcDb2dPolyline
 66
     1
 10
0.0
 20
0.0
 30
0.0
  0
VERTEX
  5
4B9
330
4B8
100
AcDbEntity
  8
BEMA_U_00DFUNG
 62
     7
100
AcDbVertex
100
AcDb2dVertex
 10
45.4384833219736
 20
177.3282168664751
 30
0.0
  0
VERTEX
  5
4BA
330
4B8
100
AcDbEntity
  8
BEMA_U_00DFUNG
 62
     7
100
AcDbVertex
100
AcDb2dVertex
 10
41.93822221173771
 20
177.3282168664751
 30
0.0
  0
SEQEND
  5
4BB
330
4B8
100
AcDbEntity
  8
BEMA_U_00DFUNG
 62
     7
  0
POLYLINE
  5
4BC
330
1F
100
AcDbEntity
  8
BEMA_U_00DFUNG
 62
     7
100
AcDb2dPolyline
 66
     1
 10
0.0
 20
0.0
 30
0.0
  0
VERTEX
  5
4BD
330
4BC
100
AcDbEntity
  8
BEMA_U_00DFUNG
 62
     7
100
AcDbVertex
100
AcDb2dVertex
 10
81.93863609062639
 20
177.3282168664751
 30
0.0
  0
VERTEX
  5
4BE
330
4BC
100
AcDbEntity
  8
BEMA_U_00DFUNG
 62
     7
100
AcDbVertex
100
AcDb2dVertex
 10
78.43872775816826
 20
177.7885918663601
 30
0.0
  0
VERTEX
  5
4BF
330
4BC
100
AcDbEntity
  8
BEMA_U_00DFUNG
 62
     7
100
AcDbVertex
100
AcDb2dVertex
 10
78.43872775816826
 20
176.8671363110352
 30
0.0
  0
VERTEX
  5
4C0
330
4BC
100
AcDbEntity
  8
BEMA_U_00DFUNG
 62
     7
100
AcDbVertex
100
AcDb2dVertex
 10
81.93863609062639
 20
177.3282168664751
 30
0.0
  0
SEQEND
  5
4C1
330
4BC
100
AcDbEntity
  8
BEMA_U_00DFUNG
 62
     7
  0
POLYLINE
  5
4C2
330
1F
100
AcDbEntity
  8
BEMA_U_00DFUNG
 62
     7
100
AcDb2dPolyline
 66
     1
 10
0.0
 20
0.0
 30
0.0
  0
VERTEX
  5
4C3
330
4C2
100
AcDbEntity
  8
BEMA_U_00DFUNG
 62
     7
100
AcDbVertex
100
AcDb2dVertex
 10
78.43872775816826
 20
177.7850640885832
 30
0.0
  0
VERTEX
  5
4C4
330
4C2
100
AcDbEntity
  8
BEMA_U_00DFUNG
 62
     7
100
AcDbVertex
100
AcDb2dVertex
 10
78.46589164705011
 20
177.7850640885832
 30
0.0
  0
SEQEND
  5
4C5
330
4C2
100
AcDbEntity
  8
BEMA_U_00DFUNG
 62
     7
  0
POLYLINE
  5
4C6
330
1F
100
AcDbEntity
  8
BEMA_U_00DFUNG
 62
     7
100
AcDb2dPolyline
 66
     1
 10
0.0
 20
0.0
 30
0.0
  0
VERTEX
  5
4C7
330
4C6
100
AcDbEntity
  8
BEMA_U_00DFUNG
 62
     7
100
AcDbVertex
100
AcDb2dVertex
 10
78.43872775816826
 20
177.7850640885832
 30
0.0
  0
VERTEX
  5
4C8
330
4C6
100
AcDbEntity
  8
BEMA_U_00DFUNG
 62
     7
100
AcDbVertex
100
AcDb2dVertex
 10
78.46589164705011
 20
177.7850640885832
 30
0.0
  0
SEQEND
  5
4C9
330
4C6
100
AcDbEntity
  8
BEMA_U_00DFUNG
 62
     7
  0
POLYLINE
  5
4CA
330
1F
100
AcDbEntity
  8
BEMA_U_00DFUNG
 62
     7
100
AcDb2dPolyline
 66
     1
 10
0.0
 20
0.0
 30
0.0
  0
VERTEX
  5
4CB
330
4CA
100
AcDbEntity
  8
BEMA_U_00DFUNG
 62
     7
100
AcDbVertex
100
AcDb2dVertex
 10
78.43872775816826
 20
177.7342640885958
 30
0.0
  0
VERTEX
  5
4CC
330
4CA
100
AcDbEntity
  8
BEMA_U_00DFUNG
 62
     7
100
AcDbVertex
100
AcDb2dVertex
 10
78.85183053584254
 20
177.7342640885958
 30
0.0
  0
SEQEND
  5
4CD
330
4CA
100
AcDbEntity
  8
BEMA_U_00DFUNG
 62
     7
  0
POLYLINE
  5
4CE
330
1F
100
AcDbEntity
  8
BEMA_U_00DFUNG
 62
     7
100
AcDb2dPolyline
 66
     1
 10
0.0
 20
0.0
 30
0.0
  0
VERTEX
  5
4CF
330
4CE
100
AcDbEntity
  8
BEMA_U_00DFUNG
 62
     7
100
AcDbVertex
100
AcDb2dVertex
 10
78.43872775816826
 20
177.6834640886087
 30
0.0
  0
VERTEX
  5
4D0
330
4CE
100
AcDbEntity
  8
BEMA_U_00DFUNG
 62
     7
100
AcDbVertex
100
AcDb2dVertex
 10
79.23776942463496
 20
177.6834640886087
 30
0.0
  0
SEQEND
  5
4D1
330
4CE
100
AcDbEntity
  8
BEMA_U_00DFUNG
 62
     7
  0
POLYLINE
  5
4D2
330
1F
100
AcDbEntity
  8
BEMA_U_00DFUNG
 62
     7
100
AcDb2dPolyline
 66
     1
 10
0.0
 20
0.0
 30
0.0
  0
VERTEX
  5
4D3
330
4D2
100
AcDbEntity
  8
BEMA_U_00DFUNG
 62
     7
100
AcDbVertex
100
AcDb2dVertex
 10
78.43872775816826
 20
177.6330168663991
 30
0.0
  0
VERTEX
  5
4D4
330
4D2
100
AcDbEntity
  8
BEMA_U_00DFUNG
 62
     7
100
AcDbVertex
100
AcDb2dVertex
 10
79.62370831342739
 20
177.6330168663991
 30
0.0
  0
SEQEND
  5
4D5
330
4D2
100
AcDbEntity
  8
BEMA_U_00DFUNG
 62
     7
  0
POLYLINE
  5
4D6
330
1F
100
AcDbEntity
  8
BEMA_U_00DFUNG
 62
     7
100
AcDb2dPolyline
 66
     1
 10
0.0
 20
0.0
 30
0.0
  0
VERTEX
  5
4D7
330
4D6
100
AcDbEntity
  8
BEMA_U_00DFUNG
 62
     7
100
AcDbVertex
100
AcDb2dVertex
 10
78.43872775816826
 20
177.582216866412
 30
0.0
  0
VERTEX
  5
4D8
330
4D6
100
AcDbEntity
  8
BEMA_U_00DFUNG
 62
     7
100
AcDbVertex
100
AcDb2dVertex
 10
80.00929442444205
 20
177.582216866412
 30
0.0
  0
SEQEND
  5
4D9
330
4D6
100
AcDbEntity
  8
BEMA_U_00DFUNG
 62
     7
  0
POLYLINE
  5
4DA
330
1F
100
AcDbEntity
  8
BEMA_U_00DFUNG
 62
     7
100
AcDb2dPolyline
 66
     1
 10
0.0
 20
0.0
 30
0.0
  0
VERTEX
  5
4DB
330
4DA
100
AcDbEntity
  8
BEMA_U_00DFUNG
 62
     7
100
AcDbVertex
100
AcDb2dVertex
 10
78.43872775816826
 20
177.5314168664246
 30
0.0
  0
VERTEX
  5
4DC
330
4DA
100
AcDbEntity
  8
BEMA_U_00DFUNG
 62
     7
100
AcDbVertex
100
AcDb2dVertex
 10
80.39523331323447
 20
177.5314168664246
 30
0.0
  0
SEQEND
  5
4DD
330
4DA
100
AcDbEntity
  8
BEMA_U_00DFUNG
 62
     7
  0
POLYLINE
  5
4DE
330
1F
100
AcDbEntity
  8
BEMA_U_00DFUNG
 62
     7
100
AcDb2dPolyline
 66
     1
 10
0.0
 20
0.0
 30
0.0
  0
VERTEX
  5
4DF
330
4DE
100
AcDbEntity
  8
BEMA_U_00DFUNG
 62
     7
100
AcDbVertex
100
AcDb2dVertex
 10
78.43872775816826
 20
177.4806168664373
 30
0.0
  0
VERTEX
  5
4E0
330
4DE
100
AcDbEntity
  8
BEMA_U_00DFUNG
 62
     7
100
AcDbVertex
100
AcDb2dVertex
 10
80.7811722020269
 20
177.4806168664373
 30
0.0
  0
SEQEND
  5
4E1
330
4DE
100
AcDbEntity
  8
BEMA_U_00DFUNG
 62
     7
  0
POLYLINE
  5
4E2
330
1F
100
AcDbEntity
  8
BEMA_U_00DFUNG
 62
     7
100
AcDb2dPolyline
 66
     1
 10
0.0
 20
0.0
 30
0.0
  0
VERTEX
  5
4E3
330
4E2
100
AcDbEntity
  8
BEMA_U_00DFUNG
 62
     7
100
AcDbVertex
100
AcDb2dVertex
 10
78.43872775816826
 20
177.4298168664499
 30
0.0
  0
VERTEX
  5
4E4
330
4E2
100
AcDbEntity
  8
BEMA_U_00DFUNG
 62
     7
100
AcDbVertex
100
AcDb2dVertex
 10
81.1671110908193
 20
177.4298168664499
 30
0.0
  0
SEQEND
  5
4E5
330
4E2
100
AcDbEntity
  8
BEMA_U_00DFUNG
 62
     7
  0
POLYLINE
  5
4E6
330
1F
100
AcDbEntity
  8
BEMA_U_00DFUNG
 62
     7
100
AcDb2dPolyline
 66
     1
 10
0.0
 20
0.0
 30
0.0
  0
VERTEX
  5
4E7
330
4E6
100
AcDbEntity
  8
BEMA_U_00DFUNG
 62
     7
100
AcDbVertex
100
AcDb2dVertex
 10
78.43872775816826
 20
177.3790168664625
 30
0.0
  0
VERTEX
  5
4E8
330
4E6
100
AcDbEntity
  8
BEMA_U_00DFUNG
 62
     7
100
AcDbVertex
100
AcDb2dVertex
 10
81.55269720183398
 20
177.3790168664625
 30
0.0
  0
SEQEND
  5
4E9
330
4E6
100
AcDbEntity
  8
BEMA_U_00DFUNG
 62
     7
  0
POLYLINE
  5
4EA
330
1F
100
AcDbEntity
  8
BEMA_U_00DFUNG
 62
     7
100
AcDb2dPolyline
 66
     1
 10
0.0
 20
0.0
 30
0.0
  0
VERTEX
  5
4EB
330
4EA
100
AcDbEntity
  8
BEMA_U_00DFUNG
 62
     7
100
AcDbVertex
100
AcDb2dVertex
 10
78.43872775816826
 20
177.3282168664751
 30
0.0
  0
VERTEX
  5
4EC
330
4EA
100
AcDbEntity
  8
BEMA_U_00DFUNG
 62
     7
100
AcDbVertex
100
AcDb2dVertex
 10
81.93863609062639
 20
177.3282168664751
 30
0.0
  0
SEQEND
  5
4ED
330
4EA
100
AcDbEntity
  8
BEMA_U_00DFUNG
 62
     7
  0
POLYLINE
  5
4EE
330
1F
100
AcDbEntity
  8
BEMA_U_00DFUNG
 62
     7
100
AcDb2dPolyline
 66
     1
 10
0.0
 20
0.0
 30
0.0
  0
VERTEX
  5
4EF
330
4EE
100
AcDbEntity
  8
BEMA_U_00DFUNG
 62
     7
100
AcDbVertex
100
AcDb2dVertex
 10
78.43872775816826
 20
176.8706640888119
 30
0.0
  0
VERTEX
  5
4F0
330
4EE
100
AcDbEntity
  8
BEMA_U_00DFUNG
 62
     7
100
AcDbVertex
100
AcDb2dVertex
 10
78.46589164705011
 20
176.8706640888119
 30
0.0
  0
SEQEND
  5
4F1
330
4EE
100
AcDbEntity
  8
BEMA_U_00DFUNG
 62
     7
  0
POLYLINE
  5
4F2
330
1F
100
AcDbEntity
  8
BEMA_U_00DFUNG
 62
     7
100
AcDb2dPolyline
 66
     1
 10
0.0
 20
0.0
 30
0.0
  0
VERTEX
  5
4F3
330
4F2
100
AcDbEntity
  8
BEMA_U_00DFUNG
 62
     7
100
AcDbVertex
100
AcDb2dVertex
 10
78.43872775816826
 20
176.8706640888119
 30
0.0
  0
VERTEX
  5
4F4
330
4F2
100
AcDbEntity
  8
BEMA_U_00DFUNG
 62
     7
100
AcDbVertex
100
AcDb2dVertex
 10
78.46589164705011
 20
176.8706640888119
 30
0.0
  0
SEQEND
  5
4F5
330
4F2
100
AcDbEntity
  8
BEMA_U_00DFUNG
 62
     7
  0
POLYLINE
  5
4F6
330
1F
100
AcDbEntity
  8
BEMA_U_00DFUNG
 62
     7
100
AcDb2dPolyline
 66
     1
 10
0.0
 20
0.0
 30
0.0
  0
VERTEX
  5
4F7
330
4F6
100
AcDbEntity
  8
BEMA_U_00DFUNG
 62
     7
100
AcDbVertex
100
AcDb2dVertex
 10
78.43872775816826
 20
176.9214640887993
 30
0.0
  0
VERTEX
  5
4F8
330
4F6
100
AcDbEntity
  8
BEMA_U_00DFUNG
 62
     7
100
AcDbVertex
100
AcDb2dVertex
 10
78.85183053584254
 20
176.9214640887993
 30
0.0
  0
SEQEND
  5
4F9
330
4F6
100
AcDbEntity
  8
BEMA_U_00DFUNG
 62
     7
  0
POLYLINE
  5
4FA
330
1F
100
AcDbEntity
  8
BEMA_U_00DFUNG
 62
     7
100
AcDb2dPolyline
 66
     1
 10
0.0
 20
0.0
 30
0.0
  0
VERTEX
  5
4FB
330
4FA
100
AcDbEntity
  8
BEMA_U_00DFUNG
 62
     7
100
AcDbVertex
100
AcDb2dVertex
 10
78.43872775816826
 20
176.9722640887863
 30
0.0
  0
VERTEX
  5
4FC
330
4FA
100
AcDbEntity
  8
BEMA_U_00DFUNG
 62
     7
100
AcDbVertex
100
AcDb2dVertex
 10
79.23776942463496
 20
176.9722640887863
 30
0.0
  0
SEQEND
  5
4FD
330
4FA
100
AcDbEntity
  8
BEMA_U_00DFUNG
 62
     7
  0
POLYLINE
  5
4FE
330
1F
100
AcDbEntity
  8
BEMA_U_00DFUNG
 62
     7
100
AcDb2dPolyline
 66
     1
 10
0.0
 20
0.0
 30
0.0
  0
VERTEX
  5
4FF
330
4FE
100
AcDbEntity
  8
BEMA_U_00DFUNG
 62
     7
100
AcDbVertex
100
AcDb2dVertex
 10
78.43872775816826
 20
177.0230640887737
 30
0.0
  0
VERTEX
  5
500
330
4FE
100
AcDbEntity
  8
BEMA_U_00DFUNG
 62
     7
100
AcDbVertex
100
AcDb2dVertex
 10
79.62370831342739
 20
177.0230640887737
 30
0.0
  0
SEQEND
  5
501
330
4FE
100
AcDbEntity
  8
BEMA_U_00DFUNG
 62
     7
  0
POLYLINE
  5
502
330
1F
100
AcDbEntity
  8
BEMA_U_00DFUNG
 62
     7
100
AcDb2dPolyline
 66
     1
 10
0.0
 20
0.0
 30
0.0
  0
VERTEX
  5
503
330
502
100
AcDbEntity
  8
BEMA_U_00DFUNG
 62
     7
100
AcDbVertex
100
AcDb2dVertex
 10
78.43872775816826
 20
177.0738640887611
 30
0.0
  0
VERTEX
  5
504
330
502
100
AcDbEntity
  8
BEMA_U_00DFUNG
 62
     7
100
AcDbVertex
100
AcDb2dVertex
 10
80.00929442444205
 20
177.0738640887611
 30
0.0
  0
SEQEND
  5
505
330
502
100
AcDbEntity
  8
BEMA_U_00DFUNG
 62
     7
  0
POLYLINE
  5
506
330
1F
100
AcDbEntity
  8
BEMA_U_00DFUNG
 62
     7
100
AcDb2dPolyline
 66
     1
 10
0.0
 20
0.0
 30
0.0
  0
VERTEX
  5
507
330
506
100
AcDbEntity
  8
BEMA_U_00DFUNG
 62
     7
100
AcDbVertex
100
AcDb2dVertex
 10
78.43872775816826
 20
177.1246640887485
 30
0.0
  0
VERTEX
  5
508
330
506
100
AcDbEntity
  8
BEMA_U_00DFUNG
 62
     7
100
AcDbVertex
100
AcDb2dVertex
 10
80.39523331323447
 20
177.1246640887485
 30
0.0
  0
SEQEND
  5
509
330
506
100
AcDbEntity
  8
BEMA_U_00DFUNG
 62
     7
  0
POLYLINE
  5
50A
330
1F
100
AcDbEntity
  8
BEMA_U_00DFUNG
 62
     7
100
AcDb2dPolyline
 66
     1
 10
0.0
 20
0.0
 30
0.0
  0
VERTEX
  5
50B
330
50A
100
AcDbEntity
  8
BEMA_U_00DFUNG
 62
     7
100
AcDbVertex
100
AcDb2dVertex
 10
78.43872775816826
 20
177.1758168665136
 30
0.0
  0
VERTEX
  5
50C
330
50A
100
AcDbEntity
  8
BEMA_U_00DFUNG
 62
     7
100
AcDbVertex
100
AcDb2dVertex
 10
80.7811722020269
 20
177.1758168665136
 30
0.0
  0
SEQEND
  5
50D
330
50A
100
AcDbEntity
  8
BEMA_U_00DFUNG
 62
     7
  0
POLYLINE
  5
50E
330
1F
100
AcDbEntity
  8
BEMA_U_00DFUNG
 62
     7
100
AcDb2dPolyline
 66
     1
 10
0.0
 20
0.0
 30
0.0
  0
VERTEX
  5
50F
330
50E
100
AcDbEntity
  8
BEMA_U_00DFUNG
 62
     7
100
AcDbVertex
100
AcDb2dVertex
 10
78.43872775816826
 20
177.2266168665007
 30
0.0
  0
VERTEX
  5
510
330
50E
100
AcDbEntity
  8
BEMA_U_00DFUNG
 62
     7
100
AcDbVertex
100
AcDb2dVertex
 10
81.1671110908193
 20
177.2266168665007
 30
0.0
  0
SEQEND
  5
511
330
50E
100
AcDbEntity
  8
BEMA_U_00DFUNG
 62
     7
  0
POLYLINE
  5
512
330
1F
100
AcDbEntity
  8
BEMA_U_00DFUNG
 62
     7
100
AcDb2dPolyline
 66
     1
 10
0.0
 20
0.0
 30
0.0
  0
VERTEX
  5
513
330
512
100
AcDbEntity
  8
BEMA_U_00DFUNG
 62
     7
100
AcDbVertex
100
AcDb2dVertex
 10
78.43872775816826
 20
177.2774168664881
 30
0.0
  0
VERTEX
  5
514
330
512
100
AcDbEntity
  8
BEMA_U_00DFUNG
 62
     7
100
AcDbVertex
100
AcDb2dVertex
 10
81.55269720183398
 20
177.2774168664881
 30
0.0
  0
SEQEND
  5
515
330
512
100
AcDbEntity
  8
BEMA_U_00DFUNG
 62
     7
  0
POLYLINE
  5
516
330
1F
100
AcDbEntity
  8
BEMA_U_00DFUNG
 62
     7
100
AcDb2dPolyline
 66
     1
 10
0.0
 20
0.0
 30
0.0
  0
VERTEX
  5
517
330
516
100
AcDbEntity
  8
BEMA_U_00DFUNG
 62
     7
100
AcDbVertex
100
AcDb2dVertex
 10
78.43872775816826
 20
177.3282168664751
 30
0.0
  0
VERTEX
  5
518
330
516
100
AcDbEntity
  8
BEMA_U_00DFUNG
 62
     7
100
AcDbVertex
100
AcDb2dVertex
 10
81.93863609062639
 20
177.3282168664751
 30
0.0
  0
SEQEND
  5
519
330
516
100
AcDbEntity
  8
BEMA_U_00DFUNG
 62
     7
  0
POLYLINE
  5
51A
330
1F
100
AcDbEntity
  8
BEMA_U_00DFUNG
 62
     7
100
AcDb2dPolyline
 66
     1
 10
0.0
 20
0.0
 30
0.0
  0
VERTEX
  5
51B
330
51A
100
AcDbEntity
  8
BEMA_U_00DFUNG
 62
     7
100
AcDbVertex
100
AcDb2dVertex
 10
128.6418652751683
 20
154.5161946499563
 30
0.0
  0
VERTEX
  5
51C
330
51A
100
AcDbEntity
  8
BEMA_U_00DFUNG
 62
     7
100
AcDbVertex
100
AcDb2dVertex
 10
115.0302875007934
 20
154.5161946499563
 30
0.0
  0
SEQEND
  5
51D
330
51A
100
AcDbEntity
  8
BEMA_U_00DFUNG
 62
     7
  0
POLYLINE
  5
51E
330
1F
100
AcDbEntity
  8
BEMA_U_00DFUNG
 62
     7
100
AcDb2dPolyline
 66
     1
 10
0.0
 20
0.0
 30
0.0
  0
VERTEX
  5
51F
330
51E
100
AcDbEntity
  8
BEMA_U_00DFUNG
 62
     7
100
AcDbVertex
100
AcDb2dVertex
 10
128.6418652751683
 20
131.1397279891334
 30
0.0
  0
VERTEX
  5
520
330
51E
100
AcDbEntity
  8
BEMA_U_00DFUNG
 62
     7
100
AcDbVertex
100
AcDb2dVertex
 10
115.0302875007934
 20
131.1397279891334
 30
0.0
  0
SEQEND
  5
521
330
51E
100
AcDbEntity
  8
BEMA_U_00DFUNG
 62
     7
  0
POLYLINE
  5
522
330
1F
100
AcDbEntity
  8
BEMA_U_00DFUNG
 62
     7
100
AcDb2dPolyline
 66
     1
 10
0.0
 20
0.0
 30
0.0
  0
VERTEX
  5
523
330
522
100
AcDbEntity
  8
BEMA_U_00DFUNG
 62
     7
100
AcDbVertex
100
AcDb2dVertex
 10
117.0298319447382
 20
154.5161946499563
 30
0.0
  0
VERTEX
  5
524
330
522
100
AcDbEntity
  8
BEMA_U_00DFUNG
 62
     7
100
AcDbVertex
100
AcDb2dVertex
 10
117.0298319447382
 20
131.1397279891334
 30
0.0
  0
SEQEND
  5
525
330
522
100
AcDbEntity
  8
BEMA_U_00DFUNG
 62
     7
  0
POLYLINE
  5
526
330
1F
100
AcDbEntity
  8
BEMA_U_00DFUNG
 62
     7
100
AcDb2dPolyline
 66
     1
 10
0.0
 20
0.0
 30
0.0
  0
VERTEX
  5
527
330
526
100
AcDbEntity
  8
BEMA_U_00DFUNG
 62
     7
100
AcDbVertex
100
AcDb2dVertex
 10
117.0298319447382
 20
154.5161946499563
 30
0.0
  0
VERTEX
  5
528
330
526
100
AcDbEntity
  8
BEMA_U_00DFUNG
 62
     7
100
AcDbVertex
100
AcDb2dVertex
 10
116.5694569448532
 20
151.0159335397201
 30
0.0
  0
VERTEX
  5
529
330
526
100
AcDbEntity
  8
BEMA_U_00DFUNG
 62
     7
100
AcDbVertex
100
AcDb2dVertex
 10
117.4905597224007
 20
151.0159335397201
 30
0.0
  0
VERTEX
  5
52A
330
526
100
AcDbEntity
  8
BEMA_U_00DFUNG
 62
     7
100
AcDbVertex
100
AcDb2dVertex
 10
117.0298319447382
 20
154.5161946499563
 30
0.0
  0
SEQEND
  5
52B
330
526
100
AcDbEntity
  8
BEMA_U_00DFUNG
 62
     7
  0
POLYLINE
  5
52C
330
1F
100
AcDbEntity
  8
BEMA_U_00DFUNG
 62
     7
100
AcDb2dPolyline
 66
     1
 10
0.0
 20
0.0
 30
0.0
  0
VERTEX
  5
52D
330
52C
100
AcDbEntity
  8
BEMA_U_00DFUNG
 62
     7
100
AcDbVertex
100
AcDb2dVertex
 10
116.5729847226302
 20
151.0159335397201
 30
0.0
  0
VERTEX
  5
52E
330
52C
100
AcDbEntity
  8
BEMA_U_00DFUNG
 62
     7
100
AcDbVertex
100
AcDb2dVertex
 10
116.5729847226302
 20
151.043097428602
 30
0.0
  0
SEQEND
  5
52F
330
52C
100
AcDbEntity
  8
BEMA_U_00DFUNG
 62
     7
  0
POLYLINE
  5
530
330
1F
100
AcDbEntity
  8
BEMA_U_00DFUNG
 62
     7
100
AcDb2dPolyline
 66
     1
 10
0.0
 20
0.0
 30
0.0
  0
VERTEX
  5
531
330
530
100
AcDbEntity
  8
BEMA_U_00DFUNG
 62
     7
100
AcDbVertex
100
AcDb2dVertex
 10
116.5729847226302
 20
151.0159335397201
 30
0.0
  0
VERTEX
  5
532
330
530
100
AcDbEntity
  8
BEMA_U_00DFUNG
 62
     7
100
AcDbVertex
100
AcDb2dVertex
 10
116.5729847226302
 20
151.043097428602
 30
0.0
  0
SEQEND
  5
533
330
530
100
AcDbEntity
  8
BEMA_U_00DFUNG
 62
     7
  0
POLYLINE
  5
534
330
1F
100
AcDbEntity
  8
BEMA_U_00DFUNG
 62
     7
100
AcDb2dPolyline
 66
     1
 10
0.0
 20
0.0
 30
0.0
  0
VERTEX
  5
535
330
534
100
AcDbEntity
  8
BEMA_U_00DFUNG
 62
     7
100
AcDbVertex
100
AcDb2dVertex
 10
116.6237847226172
 20
151.0159335397201
 30
0.0
  0
VERTEX
  5
536
330
534
100
AcDbEntity
  8
BEMA_U_00DFUNG
 62
     7
100
AcDbVertex
100
AcDb2dVertex
 10
116.6237847226172
 20
151.4290363173947
 30
0.0
  0
SEQEND
  5
537
330
534
100
AcDbEntity
  8
BEMA_U_00DFUNG
 62
     7
  0
POLYLINE
  5
538
330
1F
100
AcDbEntity
  8
BEMA_U_00DFUNG
 62
     7
100
AcDb2dPolyline
 66
     1
 10
0.0
 20
0.0
 30
0.0
  0
VERTEX
  5
539
330
538
100
AcDbEntity
  8
BEMA_U_00DFUNG
 62
     7
100
AcDbVertex
100
AcDb2dVertex
 10
116.6745847226046
 20
151.0159335397201
 30
0.0
  0
VERTEX
  5
53A
330
538
100
AcDbEntity
  8
BEMA_U_00DFUNG
 62
     7
100
AcDbVertex
100
AcDb2dVertex
 10
116.6745847226046
 20
151.814622428409
 30
0.0
  0
SEQEND
  5
53B
330
538
100
AcDbEntity
  8
BEMA_U_00DFUNG
 62
     7
  0
POLYLINE
  5
53C
330
1F
100
AcDbEntity
  8
BEMA_U_00DFUNG
 62
     7
100
AcDb2dPolyline
 66
     1
 10
0.0
 20
0.0
 30
0.0
  0
VERTEX
  5
53D
330
53C
100
AcDbEntity
  8
BEMA_U_00DFUNG
 62
     7
100
AcDbVertex
100
AcDb2dVertex
 10
116.725384722592
 20
151.0159335397201
 30
0.0
  0
VERTEX
  5
53E
330
53C
100
AcDbEntity
  8
BEMA_U_00DFUNG
 62
     7
100
AcDbVertex
100
AcDb2dVertex
 10
116.725384722592
 20
152.2009140949795
 30
0.0
  0
SEQEND
  5
53F
330
53C
100
AcDbEntity
  8
BEMA_U_00DFUNG
 62
     7
  0
POLYLINE
  5
540
330
1F
100
AcDbEntity
  8
BEMA_U_00DFUNG
 62
     7
100
AcDb2dPolyline
 66
     1
 10
0.0
 20
0.0
 30
0.0
  0
VERTEX
  5
541
330
540
100
AcDbEntity
  8
BEMA_U_00DFUNG
 62
     7
100
AcDbVertex
100
AcDb2dVertex
 10
116.7758319448016
 20
151.0159335397201
 30
0.0
  0
VERTEX
  5
542
330
540
100
AcDbEntity
  8
BEMA_U_00DFUNG
 62
     7
100
AcDbVertex
100
AcDb2dVertex
 10
116.7758319448016
 20
152.5865002059939
 30
0.0
  0
SEQEND
  5
543
330
540
100
AcDbEntity
  8
BEMA_U_00DFUNG
 62
     7
  0
POLYLINE
  5
544
330
1F
100
AcDbEntity
  8
BEMA_U_00DFUNG
 62
     7
100
AcDb2dPolyline
 66
     1
 10
0.0
 20
0.0
 30
0.0
  0
VERTEX
  5
545
330
544
100
AcDbEntity
  8
BEMA_U_00DFUNG
 62
     7
100
AcDbVertex
100
AcDb2dVertex
 10
116.826631944789
 20
151.0159335397201
 30
0.0
  0
VERTEX
  5
546
330
544
100
AcDbEntity
  8
BEMA_U_00DFUNG
 62
     7
100
AcDbVertex
100
AcDb2dVertex
 10
116.826631944789
 20
152.9727918725644
 30
0.0
  0
SEQEND
  5
547
330
544
100
AcDbEntity
  8
BEMA_U_00DFUNG
 62
     7
  0
POLYLINE
  5
548
330
1F
100
AcDbEntity
  8
BEMA_U_00DFUNG
 62
     7
100
AcDb2dPolyline
 66
     1
 10
0.0
 20
0.0
 30
0.0
  0
VERTEX
  5
549
330
548
100
AcDbEntity
  8
BEMA_U_00DFUNG
 62
     7
100
AcDbVertex
100
AcDb2dVertex
 10
116.8774319447761
 20
151.0159335397201
 30
0.0
  0
VERTEX
  5
54A
330
548
100
AcDbEntity
  8
BEMA_U_00DFUNG
 62
     7
100
AcDbVertex
100
AcDb2dVertex
 10
116.8774319447761
 20
153.358025205801
 30
0.0
  0
SEQEND
  5
54B
330
548
100
AcDbEntity
  8
BEMA_U_00DFUNG
 62
     7
  0
POLYLINE
  5
54C
330
1F
100
AcDbEntity
  8
BEMA_U_00DFUNG
 62
     7
100
AcDb2dPolyline
 66
     1
 10
0.0
 20
0.0
 30
0.0
  0
VERTEX
  5
54D
330
54C
100
AcDbEntity
  8
BEMA_U_00DFUNG
 62
     7
100
AcDbVertex
100
AcDb2dVertex
 10
116.9282319447634
 20
151.0159335397201
 30
0.0
  0
VERTEX
  5
54E
330
54C
100
AcDbEntity
  8
BEMA_U_00DFUNG
 62
     7
100
AcDbVertex
100
AcDb2dVertex
 10
116.9282319447634
 20
153.7443168723715
 30
0.0
  0
SEQEND
  5
54F
330
54C
100
AcDbEntity
  8
BEMA_U_00DFUNG
 62
     7
  0
POLYLINE
  5
550
330
1F
100
AcDbEntity
  8
BEMA_U_00DFUNG
 62
     7
100
AcDb2dPolyline
 66
     1
 10
0.0
 20
0.0
 30
0.0
  0
VERTEX
  5
551
330
550
100
AcDbEntity
  8
BEMA_U_00DFUNG
 62
     7
100
AcDbVertex
100
AcDb2dVertex
 10
116.9790319447508
 20
151.0159335397201
 30
0.0
  0
VERTEX
  5
552
330
550
100
AcDbEntity
  8
BEMA_U_00DFUNG
 62
     7
100
AcDbVertex
100
AcDb2dVertex
 10
116.9790319447508
 20
154.1299029833858
 30
0.0
  0
SEQEND
  5
553
330
550
100
AcDbEntity
  8
BEMA_U_00DFUNG
 62
     7
  0
POLYLINE
  5
554
330
1F
100
AcDbEntity
  8
BEMA_U_00DFUNG
 62
     7
100
AcDb2dPolyline
 66
     1
 10
0.0
 20
0.0
 30
0.0
  0
VERTEX
  5
555
330
554
100
AcDbEntity
  8
BEMA_U_00DFUNG
 62
     7
100
AcDbVertex
100
AcDb2dVertex
 10
117.0298319447382
 20
151.0159335397201
 30
0.0
  0
VERTEX
  5
556
330
554
100
AcDbEntity
  8
BEMA_U_00DFUNG
 62
     7
100
AcDbVertex
100
AcDb2dVertex
 10
117.0298319447382
 20
154.5161946499563
 30
0.0
  0
SEQEND
  5
557
330
554
100
AcDbEntity
  8
BEMA_U_00DFUNG
 62
     7
  0
POLYLINE
  5
558
330
1F
100
AcDbEntity
  8
BEMA_U_00DFUNG
 62
     7
100
AcDb2dPolyline
 66
     1
 10
0.0
 20
0.0
 30
0.0
  0
VERTEX
  5
559
330
558
100
AcDbEntity
  8
BEMA_U_00DFUNG
 62
     7
100
AcDbVertex
100
AcDb2dVertex
 10
117.4870319446237
 20
151.0159335397201
 30
0.0
  0
VERTEX
  5
55A
330
558
100
AcDbEntity
  8
BEMA_U_00DFUNG
 62
     7
100
AcDbVertex
100
AcDb2dVertex
 10
117.4870319446237
 20
151.043097428602
 30
0.0
  0
SEQEND
  5
55B
330
558
100
AcDbEntity
  8
BEMA_U_00DFUNG
 62
     7
  0
POLYLINE
  5
55C
330
1F
100
AcDbEntity
  8
BEMA_U_00DFUNG
 62
     7
100
AcDb2dPolyline
 66
     1
 10
0.0
 20
0.0
 30
0.0
  0
VERTEX
  5
55D
330
55C
100
AcDbEntity
  8
BEMA_U_00DFUNG
 62
     7
100
AcDbVertex
100
AcDb2dVertex
 10
117.4870319446237
 20
151.0159335397201
 30
0.0
  0
VERTEX
  5
55E
330
55C
100
AcDbEntity
  8
BEMA_U_00DFUNG
 62
     7
100
AcDbVertex
100
AcDb2dVertex
 10
117.4870319446237
 20
151.043097428602
 30
0.0
  0
SEQEND
  5
55F
330
55C
100
AcDbEntity
  8
BEMA_U_00DFUNG
 62
     7
  0
POLYLINE
  5
560
330
1F
100
AcDbEntity
  8
BEMA_U_00DFUNG
 62
     7
100
AcDb2dPolyline
 66
     1
 10
0.0
 20
0.0
 30
0.0
  0
VERTEX
  5
561
330
560
100
AcDbEntity
  8
BEMA_U_00DFUNG
 62
     7
100
AcDbVertex
100
AcDb2dVertex
 10
117.4362319446366
 20
151.0159335397201
 30
0.0
  0
VERTEX
  5
562
330
560
100
AcDbEntity
  8
BEMA_U_00DFUNG
 62
     7
100
AcDbVertex
100
AcDb2dVertex
 10
117.4362319446366
 20
151.4290363173947
 30
0.0
  0
SEQEND
  5
563
330
560
100
AcDbEntity
  8
BEMA_U_00DFUNG
 62
     7
  0
POLYLINE
  5
564
330
1F
100
AcDbEntity
  8
BEMA_U_00DFUNG
 62
     7
100
AcDb2dPolyline
 66
     1
 10
0.0
 20
0.0
 30
0.0
  0
VERTEX
  5
565
330
564
100
AcDbEntity
  8
BEMA_U_00DFUNG
 62
     7
100
AcDbVertex
100
AcDb2dVertex
 10
117.3854319446492
 20
151.0159335397201
 30
0.0
  0
VERTEX
  5
566
330
564
100
AcDbEntity
  8
BEMA_U_00DFUNG
 62
     7
100
AcDbVertex
100
AcDb2dVertex
 10
117.3854319446492
 20
151.814622428409
 30
0.0
  0
SEQEND
  5
567
330
564
100
AcDbEntity
  8
BEMA_U_00DFUNG
 62
     7
  0
POLYLINE
  5
568
330
1F
100
AcDbEntity
  8
BEMA_U_00DFUNG
 62
     7
100
AcDb2dPolyline
 66
     1
 10
0.0
 20
0.0
 30
0.0
  0
VERTEX
  5
569
330
568
100
AcDbEntity
  8
BEMA_U_00DFUNG
 62
     7
100
AcDbVertex
100
AcDb2dVertex
 10
117.3346319446619
 20
151.0159335397201
 30
0.0
  0
VERTEX
  5
56A
330
568
100
AcDbEntity
  8
BEMA_U_00DFUNG
 62
     7
100
AcDbVertex
100
AcDb2dVertex
 10
117.3346319446619
 20
152.2009140949795
 30
0.0
  0
SEQEND
  5
56B
330
568
100
AcDbEntity
  8
BEMA_U_00DFUNG
 62
     7
  0
POLYLINE
  5
56C
330
1F
100
AcDbEntity
  8
BEMA_U_00DFUNG
 62
     7
100
AcDb2dPolyline
 66
     1
 10
0.0
 20
0.0
 30
0.0
  0
VERTEX
  5
56D
330
56C
100
AcDbEntity
  8
BEMA_U_00DFUNG
 62
     7
100
AcDbVertex
100
AcDb2dVertex
 10
117.2841847224522
 20
151.0159335397201
 30
0.0
  0
VERTEX
  5
56E
330
56C
100
AcDbEntity
  8
BEMA_U_00DFUNG
 62
     7
100
AcDbVertex
100
AcDb2dVertex
 10
117.2841847224522
 20
152.5865002059939
 30
0.0
  0
SEQEND
  5
56F
330
56C
100
AcDbEntity
  8
BEMA_U_00DFUNG
 62
     7
  0
POLYLINE
  5
570
330
1F
100
AcDbEntity
  8
BEMA_U_00DFUNG
 62
     7
100
AcDb2dPolyline
 66
     1
 10
0.0
 20
0.0
 30
0.0
  0
VERTEX
  5
571
330
570
100
AcDbEntity
  8
BEMA_U_00DFUNG
 62
     7
100
AcDbVertex
100
AcDb2dVertex
 10
117.2333847224649
 20
151.0159335397201
 30
0.0
  0
VERTEX
  5
572
330
570
100
AcDbEntity
  8
BEMA_U_00DFUNG
 62
     7
100
AcDbVertex
100
AcDb2dVertex
 10
117.2333847224649
 20
152.9727918725644
 30
0.0
  0
SEQEND
  5
573
330
570
100
AcDbEntity
  8
BEMA_U_00DFUNG
 62
     7
  0
POLYLINE
  5
574
330
1F
100
AcDbEntity
  8
BEMA_U_00DFUNG
 62
     7
100
AcDb2dPolyline
 66
     1
 10
0.0
 20
0.0
 30
0.0
  0
VERTEX
  5
575
330
574
100
AcDbEntity
  8
BEMA_U_00DFUNG
 62
     7
100
AcDbVertex
100
AcDb2dVertex
 10
117.1825847224778
 20
151.0159335397201
 30
0.0
  0
VERTEX
  5
576
330
574
100
AcDbEntity
  8
BEMA_U_00DFUNG
 62
     7
100
AcDbVertex
100
AcDb2dVertex
 10
117.1825847224778
 20
153.358025205801
 30
0.0
  0
SEQEND
  5
577
330
574
100
AcDbEntity
  8
BEMA_U_00DFUNG
 62
     7
  0
POLYLINE
  5
578
330
1F
100
AcDbEntity
  8
BEMA_U_00DFUNG
 62
     7
100
AcDb2dPolyline
 66
     1
 10
0.0
 20
0.0
 30
0.0
  0
VERTEX
  5
579
330
578
100
AcDbEntity
  8
BEMA_U_00DFUNG
 62
     7
100
AcDbVertex
100
AcDb2dVertex
 10
117.1317847224904
 20
151.0159335397201
 30
0.0
  0
VERTEX
  5
57A
330
578
100
AcDbEntity
  8
BEMA_U_00DFUNG
 62
     7
100
AcDbVertex
100
AcDb2dVertex
 10
117.1317847224904
 20
153.7443168723715
 30
0.0
  0
SEQEND
  5
57B
330
578
100
AcDbEntity
  8
BEMA_U_00DFUNG
 62
     7
  0
POLYLINE
  5
57C
330
1F
100
AcDbEntity
  8
BEMA_U_00DFUNG
 62
     7
100
AcDb2dPolyline
 66
     1
 10
0.0
 20
0.0
 30
0.0
  0
VERTEX
  5
57D
330
57C
100
AcDbEntity
  8
BEMA_U_00DFUNG
 62
     7
100
AcDbVertex
100
AcDb2dVertex
 10
117.080984722503
 20
151.0159335397201
 30
0.0
  0
VERTEX
  5
57E
330
57C
100
AcDbEntity
  8
BEMA_U_00DFUNG
 62
     7
100
AcDbVertex
100
AcDb2dVertex
 10
117.080984722503
 20
154.1299029833858
 30
0.0
  0
SEQEND
  5
57F
330
57C
100
AcDbEntity
  8
BEMA_U_00DFUNG
 62
     7
  0
POLYLINE
  5
580
330
1F
100
AcDbEntity
  8
BEMA_U_00DFUNG
 62
     7
100
AcDb2dPolyline
 66
     1
 10
0.0
 20
0.0
 30
0.0
  0
VERTEX
  5
581
330
580
100
AcDbEntity
  8
BEMA_U_00DFUNG
 62
     7
100
AcDbVertex
100
AcDb2dVertex
 10
117.0298319447382
 20
151.0159335397201
 30
0.0
  0
VERTEX
  5
582
330
580
100
AcDbEntity
  8
BEMA_U_00DFUNG
 62
     7
100
AcDbVertex
100
AcDb2dVertex
 10
117.0298319447382
 20
154.5161946499563
 30
0.0
  0
SEQEND
  5
583
330
580
100
AcDbEntity
  8
BEMA_U_00DFUNG
 62
     7
  0
POLYLINE
  5
584
330
1F
100
AcDbEntity
  8
BEMA_U_00DFUNG
 62
     7
100
AcDb2dPolyline
 66
     1
 10
0.0
 20
0.0
 30
0.0
  0
VERTEX
  5
585
330
584
100
AcDbEntity
  8
BEMA_U_00DFUNG
 62
     7
100
AcDbVertex
100
AcDb2dVertex
 10
117.0298319447382
 20
131.1397279891334
 30
0.0
  0
VERTEX
  5
586
330
584
100
AcDbEntity
  8
BEMA_U_00DFUNG
 62
     7
100
AcDbVertex
100
AcDb2dVertex
 10
117.4905597224007
 20
134.6399890993696
 30
0.0
  0
VERTEX
  5
587
330
584
100
AcDbEntity
  8
BEMA_U_00DFUNG
 62
     7
100
AcDbVertex
100
AcDb2dVertex
 10
116.5694569448532
 20
134.6399890993696
 30
0.0
  0
VERTEX
  5
588
330
584
100
AcDbEntity
  8
BEMA_U_00DFUNG
 62
     7
100
AcDbVertex
100
AcDb2dVertex
 10
117.0298319447382
 20
131.1397279891334
 30
0.0
  0
SEQEND
  5
589
330
584
100
AcDbEntity
  8
BEMA_U_00DFUNG
 62
     7
  0
POLYLINE
  5
58A
330
1F
100
AcDbEntity
  8
BEMA_U_00DFUNG
 62
     7
100
AcDb2dPolyline
 66
     1
 10
0.0
 20
0.0
 30
0.0
  0
VERTEX
  5
58B
330
58A
100
AcDbEntity
  8
BEMA_U_00DFUNG
 62
     7
100
AcDbVertex
100
AcDb2dVertex
 10
117.4870319446237
 20
134.6399890993696
 30
0.0
  0
VERTEX
  5
58C
330
58A
100
AcDbEntity
  8
BEMA_U_00DFUNG
 62
     7
100
AcDbVertex
100
AcDb2dVertex
 10
117.4870319446237
 20
134.6128252104878
 30
0.0
  0
SEQEND
  5
58D
330
58A
100
AcDbEntity
  8
BEMA_U_00DFUNG
 62
     7
  0
POLYLINE
  5
58E
330
1F
100
AcDbEntity
  8
BEMA_U_00DFUNG
 62
     7
100
AcDb2dPolyline
 66
     1
 10
0.0
 20
0.0
 30
0.0
  0
VERTEX
  5
58F
330
58E
100
AcDbEntity
  8
BEMA_U_00DFUNG
 62
     7
100
AcDbVertex
100
AcDb2dVertex
 10
117.4870319446237
 20
134.6399890993696
 30
0.0
  0
VERTEX
  5
590
330
58E
100
AcDbEntity
  8
BEMA_U_00DFUNG
 62
     7
100
AcDbVertex
100
AcDb2dVertex
 10
117.4870319446237
 20
134.6128252104878
 30
0.0
  0
SEQEND
  5
591
330
58E
100
AcDbEntity
  8
BEMA_U_00DFUNG
 62
     7
  0
POLYLINE
  5
592
330
1F
100
AcDbEntity
  8
BEMA_U_00DFUNG
 62
     7
100
AcDb2dPolyline
 66
     1
 10
0.0
 20
0.0
 30
0.0
  0
VERTEX
  5
593
330
592
100
AcDbEntity
  8
BEMA_U_00DFUNG
 62
     7
100
AcDbVertex
100
AcDb2dVertex
 10
117.4362319446366
 20
134.6399890993696
 30
0.0
  0
VERTEX
  5
594
330
592
100
AcDbEntity
  8
BEMA_U_00DFUNG
 62
     7
100
AcDbVertex
100
AcDb2dVertex
 10
117.4362319446366
 20
134.2265335439172
 30
0.0
  0
SEQEND
  5
595
330
592
100
AcDbEntity
  8
BEMA_U_00DFUNG
 62
     7
  0
POLYLINE
  5
596
330
1F
100
AcDbEntity
  8
BEMA_U_00DFUNG
 62
     7
100
AcDb2dPolyline
 66
     1
 10
0.0
 20
0.0
 30
0.0
  0
VERTEX
  5
597
330
596
100
AcDbEntity
  8
BEMA_U_00DFUNG
 62
     7
100
AcDbVertex
100
AcDb2dVertex
 10
117.3854319446492
 20
134.6399890993696
 30
0.0
  0
VERTEX
  5
598
330
596
100
AcDbEntity
  8
BEMA_U_00DFUNG
 62
     7
100
AcDbVertex
100
AcDb2dVertex
 10
117.3854319446492
 20
133.8413002106803
 30
0.0
  0
SEQEND
  5
599
330
596
100
AcDbEntity
  8
BEMA_U_00DFUNG
 62
     7
  0
POLYLINE
  5
59A
330
1F
100
AcDbEntity
  8
BEMA_U_00DFUNG
 62
     7
100
AcDb2dPolyline
 66
     1
 10
0.0
 20
0.0
 30
0.0
  0
VERTEX
  5
59B
330
59A
100
AcDbEntity
  8
BEMA_U_00DFUNG
 62
     7
100
AcDbVertex
100
AcDb2dVertex
 10
117.3346319446619
 20
134.6399890993696
 30
0.0
  0
VERTEX
  5
59C
330
59A
100
AcDbEntity
  8
BEMA_U_00DFUNG
 62
     7
100
AcDbVertex
100
AcDb2dVertex
 10
117.3346319446619
 20
133.4550085441102
 30
0.0
  0
SEQEND
  5
59D
330
59A
100
AcDbEntity
  8
BEMA_U_00DFUNG
 62
     7
  0
POLYLINE
  5
59E
330
1F
100
AcDbEntity
  8
BEMA_U_00DFUNG
 62
     7
100
AcDb2dPolyline
 66
     1
 10
0.0
 20
0.0
 30
0.0
  0
VERTEX
  5
59F
330
59E
100
AcDbEntity
  8
BEMA_U_00DFUNG
 62
     7
100
AcDbVertex
100
AcDb2dVertex
 10
117.2841847224522
 20
134.6399890993696
 30
0.0
  0
VERTEX
  5
5A0
330
59E
100
AcDbEntity
  8
BEMA_U_00DFUNG
 62
     7
100
AcDbVertex
100
AcDb2dVertex
 10
117.2841847224522
 20
133.0694224330958
 30
0.0
  0
SEQEND
  5
5A1
330
59E
100
AcDbEntity
  8
BEMA_U_00DFUNG
 62
     7
  0
POLYLINE
  5
5A2
330
1F
100
AcDbEntity
  8
BEMA_U_00DFUNG
 62
     7
100
AcDb2dPolyline
 66
     1
 10
0.0
 20
0.0
 30
0.0
  0
VERTEX
  5
5A3
330
5A2
100
AcDbEntity
  8
BEMA_U_00DFUNG
 62
     7
100
AcDbVertex
100
AcDb2dVertex
 10
117.2333847224649
 20
134.6399890993696
 30
0.0
  0
VERTEX
  5
5A4
330
5A2
100
AcDbEntity
  8
BEMA_U_00DFUNG
 62
     7
100
AcDbVertex
100
AcDb2dVertex
 10
117.2333847224649
 20
132.6831307665253
 30
0.0
  0
SEQEND
  5
5A5
330
5A2
100
AcDbEntity
  8
BEMA_U_00DFUNG
 62
     7
  0
POLYLINE
  5
5A6
330
1F
100
AcDbEntity
  8
BEMA_U_00DFUNG
 62
     7
100
AcDb2dPolyline
 66
     1
 10
0.0
 20
0.0
 30
0.0
  0
VERTEX
  5
5A7
330
5A6
100
AcDbEntity
  8
BEMA_U_00DFUNG
 62
     7
100
AcDbVertex
100
AcDb2dVertex
 10
117.1825847224778
 20
134.6399890993696
 30
0.0
  0
VERTEX
  5
5A8
330
5A6
100
AcDbEntity
  8
BEMA_U_00DFUNG
 62
     7
100
AcDbVertex
100
AcDb2dVertex
 10
117.1825847224778
 20
132.2971918777332
 30
0.0
  0
SEQEND
  5
5A9
330
5A6
100
AcDbEntity
  8
BEMA_U_00DFUNG
 62
     7
  0
POLYLINE
  5
5AA
330
1F
100
AcDbEntity
  8
BEMA_U_00DFUNG
 62
     7
100
AcDb2dPolyline
 66
     1
 10
0.0
 20
0.0
 30
0.0
  0
VERTEX
  5
5AB
330
5AA
100
AcDbEntity
  8
BEMA_U_00DFUNG
 62
     7
100
AcDbVertex
100
AcDb2dVertex
 10
117.1317847224904
 20
134.6399890993696
 30
0.0
  0
VERTEX
  5
5AC
330
5AA
100
AcDbEntity
  8
BEMA_U_00DFUNG
 62
     7
100
AcDbVertex
100
AcDb2dVertex
 10
117.1317847224904
 20
131.9116057667183
 30
0.0
  0
SEQEND
  5
5AD
330
5AA
100
AcDbEntity
  8
BEMA_U_00DFUNG
 62
     7
  0
POLYLINE
  5
5AE
330
1F
100
AcDbEntity
  8
BEMA_U_00DFUNG
 62
     7
100
AcDb2dPolyline
 66
     1
 10
0.0
 20
0.0
 30
0.0
  0
VERTEX
  5
5AF
330
5AE
100
AcDbEntity
  8
BEMA_U_00DFUNG
 62
     7
100
AcDbVertex
100
AcDb2dVertex
 10
117.080984722503
 20
134.6399890993696
 30
0.0
  0
VERTEX
  5
5B0
330
5AE
100
AcDbEntity
  8
BEMA_U_00DFUNG
 62
     7
100
AcDbVertex
100
AcDb2dVertex
 10
117.080984722503
 20
131.5260196557039
 30
0.0
  0
SEQEND
  5
5B1
330
5AE
100
AcDbEntity
  8
BEMA_U_00DFUNG
 62
     7
  0
POLYLINE
  5
5B2
330
1F
100
AcDbEntity
  8
BEMA_U_00DFUNG
 62
     7
100
AcDb2dPolyline
 66
     1
 10
0.0
 20
0.0
 30
0.0
  0
VERTEX
  5
5B3
330
5B2
100
AcDbEntity
  8
BEMA_U_00DFUNG
 62
     7
100
AcDbVertex
100
AcDb2dVertex
 10
117.0298319447382
 20
134.6399890993696
 30
0.0
  0
VERTEX
  5
5B4
330
5B2
100
AcDbEntity
  8
BEMA_U_00DFUNG
 62
     7
100
AcDbVertex
100
AcDb2dVertex
 10
117.0298319447382
 20
131.1397279891334
 30
0.0
  0
SEQEND
  5
5B5
330
5B2
100
AcDbEntity
  8
BEMA_U_00DFUNG
 62
     7
  0
POLYLINE
  5
5B6
330
1F
100
AcDbEntity
  8
BEMA_U_00DFUNG
 62
     7
100
AcDb2dPolyline
 66
     1
 10
0.0
 20
0.0
 30
0.0
  0
VERTEX
  5
5B7
330
5B6
100
AcDbEntity
  8
BEMA_U_00DFUNG
 62
     7
100
AcDbVertex
100
AcDb2dVertex
 10
116.5729847226302
 20
134.6399890993696
 30
0.0
  0
VERTEX
  5
5B8
330
5B6
100
AcDbEntity
  8
BEMA_U_00DFUNG
 62
     7
100
AcDbVertex
100
AcDb2dVertex
 10
116.5729847226302
 20
134.6128252104878
 30
0.0
  0
SEQEND
  5
5B9
330
5B6
100
AcDbEntity
  8
BEMA_U_00DFUNG
 62
     7
  0
POLYLINE
  5
5BA
330
1F
100
AcDbEntity
  8
BEMA_U_00DFUNG
 62
     7
100
AcDb2dPolyline
 66
     1
 10
0.0
 20
0.0
 30
0.0
  0
VERTEX
  5
5BB
330
5BA
100
AcDbEntity
  8
BEMA_U_00DFUNG
 62
     7
100
AcDbVertex
100
AcDb2dVertex
 10
116.5729847226302
 20
134.6399890993696
 30
0.0
  0
VERTEX
  5
5BC
330
5BA
100
AcDbEntity
  8
BEMA_U_00DFUNG
 62
     7
100
AcDbVertex
100
AcDb2dVertex
 10
116.5729847226302
 20
134.6128252104878
 30
0.0
  0
SEQEND
  5
5BD
330
5BA
100
AcDbEntity
  8
BEMA_U_00DFUNG
 62
     7
  0
POLYLINE
  5
5BE
330
1F
100
AcDbEntity
  8
BEMA_U_00DFUNG
 62
     7
100
AcDb2dPolyline
 66
     1
 10
0.0
 20
0.0
 30
0.0
  0
VERTEX
  5
5BF
330
5BE
100
AcDbEntity
  8
BEMA_U_00DFUNG
 62
     7
100
AcDbVertex
100
AcDb2dVertex
 10
116.6237847226172
 20
134.6399890993696
 30
0.0
  0
VERTEX
  5
5C0
330
5BE
100
AcDbEntity
  8
BEMA_U_00DFUNG
 62
     7
100
AcDbVertex
100
AcDb2dVertex
 10
116.6237847226172
 20
134.2265335439172
 30
0.0
  0
SEQEND
  5
5C1
330
5BE
100
AcDbEntity
  8
BEMA_U_00DFUNG
 62
     7
  0
POLYLINE
  5
5C2
330
1F
100
AcDbEntity
  8
BEMA_U_00DFUNG
 62
     7
100
AcDb2dPolyline
 66
     1
 10
0.0
 20
0.0
 30
0.0
  0
VERTEX
  5
5C3
330
5C2
100
AcDbEntity
  8
BEMA_U_00DFUNG
 62
     7
100
AcDbVertex
100
AcDb2dVertex
 10
116.6745847226046
 20
134.6399890993696
 30
0.0
  0
VERTEX
  5
5C4
330
5C2
100
AcDbEntity
  8
BEMA_U_00DFUNG
 62
     7
100
AcDbVertex
100
AcDb2dVertex
 10
116.6745847226046
 20
133.8413002106803
 30
0.0
  0
SEQEND
  5
5C5
330
5C2
100
AcDbEntity
  8
BEMA_U_00DFUNG
 62
     7
  0
POLYLINE
  5
5C6
330
1F
100
AcDbEntity
  8
BEMA_U_00DFUNG
 62
     7
100
AcDb2dPolyline
 66
     1
 10
0.0
 20
0.0
 30
0.0
  0
VERTEX
  5
5C7
330
5C6
100
AcDbEntity
  8
BEMA_U_00DFUNG
 62
     7
100
AcDbVertex
100
AcDb2dVertex
 10
116.725384722592
 20
134.6399890993696
 30
0.0
  0
VERTEX
  5
5C8
330
5C6
100
AcDbEntity
  8
BEMA_U_00DFUNG
 62
     7
100
AcDbVertex
100
AcDb2dVertex
 10
116.725384722592
 20
133.4550085441102
 30
0.0
  0
SEQEND
  5
5C9
330
5C6
100
AcDbEntity
  8
BEMA_U_00DFUNG
 62
     7
  0
POLYLINE
  5
5CA
330
1F
100
AcDbEntity
  8
BEMA_U_00DFUNG
 62
     7
100
AcDb2dPolyline
 66
     1
 10
0.0
 20
0.0
 30
0.0
  0
VERTEX
  5
5CB
330
5CA
100
AcDbEntity
  8
BEMA_U_00DFUNG
 62
     7
100
AcDbVertex
100
AcDb2dVertex
 10
116.7758319448016
 20
134.6399890993696
 30
0.0
  0
VERTEX
  5
5CC
330
5CA
100
AcDbEntity
  8
BEMA_U_00DFUNG
 62
     7
100
AcDbVertex
100
AcDb2dVertex
 10
116.7758319448016
 20
133.0694224330958
 30
0.0
  0
SEQEND
  5
5CD
330
5CA
100
AcDbEntity
  8
BEMA_U_00DFUNG
 62
     7
  0
POLYLINE
  5
5CE
330
1F
100
AcDbEntity
  8
BEMA_U_00DFUNG
 62
     7
100
AcDb2dPolyline
 66
     1
 10
0.0
 20
0.0
 30
0.0
  0
VERTEX
  5
5CF
330
5CE
100
AcDbEntity
  8
BEMA_U_00DFUNG
 62
     7
100
AcDbVertex
100
AcDb2dVertex
 10
116.826631944789
 20
134.6399890993696
 30
0.0
  0
VERTEX
  5
5D0
330
5CE
100
AcDbEntity
  8
BEMA_U_00DFUNG
 62
     7
100
AcDbVertex
100
AcDb2dVertex
 10
116.826631944789
 20
132.6831307665253
 30
0.0
  0
SEQEND
  5
5D1
330
5CE
100
AcDbEntity
  8
BEMA_U_00DFUNG
 62
     7
  0
POLYLINE
  5
5D2
330
1F
100
AcDbEntity
  8
BEMA_U_00DFUNG
 62
     7
100
AcDb2dPolyline
 66
     1
 10
0.0
 20
0.0
 30
0.0
  0
VERTEX
  5
5D3
330
5D2
100
AcDbEntity
  8
BEMA_U_00DFUNG
 62
     7
100
AcDbVertex
100
AcDb2dVertex
 10
116.8774319447761
 20
134.6399890993696
 30
0.0
  0
VERTEX
  5
5D4
330
5D2
100
AcDbEntity
  8
BEMA_U_00DFUNG
 62
     7
100
AcDbVertex
100
AcDb2dVertex
 10
116.8774319447761
 20
132.2971918777332
 30
0.0
  0
SEQEND
  5
5D5
330
5D2
100
AcDbEntity
  8
BEMA_U_00DFUNG
 62
     7
  0
POLYLINE
  5
5D6
330
1F
100
AcDbEntity
  8
BEMA_U_00DFUNG
 62
     7
100
AcDb2dPolyline
 66
     1
 10
0.0
 20
0.0
 30
0.0
  0
VERTEX
  5
5D7
330
5D6
100
AcDbEntity
  8
BEMA_U_00DFUNG
 62
     7
100
AcDbVertex
100
AcDb2dVertex
 10
116.9282319447634
 20
134.6399890993696
 30
0.0
  0
VERTEX
  5
5D8
330
5D6
100
AcDbEntity
  8
BEMA_U_00DFUNG
 62
     7
100
AcDbVertex
100
AcDb2dVertex
 10
116.9282319447634
 20
131.9116057667183
 30
0.0
  0
SEQEND
  5
5D9
330
5D6
100
AcDbEntity
  8
BEMA_U_00DFUNG
 62
     7
  0
POLYLINE
  5
5DA
330
1F
100
AcDbEntity
  8
BEMA_U_00DFUNG
 62
     7
100
AcDb2dPolyline
 66
     1
 10
0.0
 20
0.0
 30
0.0
  0
VERTEX
  5
5DB
330
5DA
100
AcDbEntity
  8
BEMA_U_00DFUNG
 62
     7
100
AcDbVertex
100
AcDb2dVertex
 10
116.9790319447508
 20
134.6399890993696
 30
0.0
  0
VERTEX
  5
5DC
330
5DA
100
AcDbEntity
  8
BEMA_U_00DFUNG
 62
     7
100
AcDbVertex
100
AcDb2dVertex
 10
116.9790319447508
 20
131.5260196557039
 30
0.0
  0
SEQEND
  5
5DD
330
5DA
100
AcDbEntity
  8
BEMA_U_00DFUNG
 62
     7
  0
POLYLINE
  5
5DE
330
1F
100
AcDbEntity
  8
BEMA_U_00DFUNG
 62
     7
100
AcDb2dPolyline
 66
     1
 10
0.0
 20
0.0
 30
0.0
  0
VERTEX
  5
5DF
330
5DE
100
AcDbEntity
  8
BEMA_U_00DFUNG
 62
     7
100
AcDbVertex
100
AcDb2dVertex
 10
117.0298319447382
 20
134.6399890993696
 30
0.0
  0
VERTEX
  5
5E0
330
5DE
100
AcDbEntity
  8
BEMA_U_00DFUNG
 62
     7
100
AcDbVertex
100
AcDb2dVertex
 10
117.0298319447382
 20
131.1397279891334
 30
0.0
  0
SEQEND
  5
5E1
330
5DE
100
AcDbEntity
  8
BEMA_U_00DFUNG
 62
     7
  0
POLYLINE
  5
5E2
330
1F
100
AcDbEntity
  8
BEMA_U_00DFUNG
 62
     7
100
AcDb2dPolyline
 66
     1
 10
0.0
 20
0.0
 30
0.0
  0
VERTEX
  5
5E3
330
5E2
100
AcDbEntity
  8
BEMA_U_00DFUNG
 62
     7
100
AcDbVertex
100
AcDb2dVertex
 10
153.0300986024047
 20
151.7486529839811
 30
0.0
  0
VERTEX
  5
5E4
330
5E2
100
AcDbEntity
  8
BEMA_U_00DFUNG
 62
     7
100
AcDbVertex
100
AcDb2dVertex
 10
153.0300986024047
 20
179.3281140881973
 30
0.0
  0
SEQEND
  5
5E5
330
5E2
100
AcDbEntity
  8
BEMA_U_00DFUNG
 62
     7
  0
POLYLINE
  5
5E6
330
1F
100
AcDbEntity
  8
BEMA_U_00DFUNG
 62
     7
100
AcDb2dPolyline
 66
     1
 10
0.0
 20
0.0
 30
0.0
  0
VERTEX
  5
5E7
330
5E6
100
AcDbEntity
  8
BEMA_U_00DFUNG
 62
     7
100
AcDbVertex
100
AcDb2dVertex
 10
127.0300236089047
 20
167.3280252023086
 30
0.0
  0
VERTEX
  5
5E8
330
5E6
100
AcDbEntity
  8
BEMA_U_00DFUNG
 62
     7
100
AcDbVertex
100
AcDb2dVertex
 10
127.0300236089047
 20
179.3281140881973
 30
0.0
  0
SEQEND
  5
5E9
330
5E6
100
AcDbEntity
  8
BEMA_U_00DFUNG
 62
     7
  0
POLYLINE
  5
5EA
330
1F
100
AcDbEntity
  8
BEMA_U_00DFUNG
 62
     7
100
AcDb2dPolyline
 66
     1
 10
0.0
 20
0.0
 30
0.0
  0
VERTEX
  5
5EB
330
5EA
100
AcDbEntity
  8
BEMA_U_00DFUNG
 62
     7
100
AcDbVertex
100
AcDb2dVertex
 10
153.0300986024047
 20
177.3282168664751
 30
0.0
  0
VERTEX
  5
5EC
330
5EA
100
AcDbEntity
  8
BEMA_U_00DFUNG
 62
     7
100
AcDbVertex
100
AcDb2dVertex
 10
127.0300236089047
 20
177.3282168664751
 30
0.0
  0
SEQEND
  5
5ED
330
5EA
100
AcDbEntity
  8
BEMA_U_00DFUNG
 62
     7
  0
POLYLINE
  5
5EE
330
1F
100
AcDbEntity
  8
BEMA_U_00DFUNG
 62
     7
100
AcDb2dPolyline
 66
     1
 10
0.0
 20
0.0
 30
0.0
  0
VERTEX
  5
5EF
330
5EE
100
AcDbEntity
  8
BEMA_U_00DFUNG
 62
     7
100
AcDbVertex
100
AcDb2dVertex
 10
153.0300986024047
 20
177.3282168664751
 30
0.0
  0
VERTEX
  5
5F0
330
5EE
100
AcDbEntity
  8
BEMA_U_00DFUNG
 62
     7
100
AcDbVertex
100
AcDb2dVertex
 10
149.5298374921685
 20
177.7885918663601
 30
0.0
  0
VERTEX
  5
5F1
330
5EE
100
AcDbEntity
  8
BEMA_U_00DFUNG
 62
     7
100
AcDbVertex
100
AcDb2dVertex
 10
149.5298374921685
 20
176.8671363110352
 30
0.0
  0
VERTEX
  5
5F2
330
5EE
100
AcDbEntity
  8
BEMA_U_00DFUNG
 62
     7
100
AcDbVertex
100
AcDb2dVertex
 10
153.0300986024047
 20
177.3282168664751
 30
0.0
  0
SEQEND
  5
5F3
330
5EE
100
AcDbEntity
  8
BEMA_U_00DFUNG
 62
     7
  0
POLYLINE
  5
5F4
330
1F
100
AcDbEntity
  8
BEMA_U_00DFUNG
 62
     7
100
AcDb2dPolyline
 66
     1
 10
0.0
 20
0.0
 30
0.0
  0
VERTEX
  5
5F5
330
5F4
100
AcDbEntity
  8
BEMA_U_00DFUNG
 62
     7
100
AcDbVertex
100
AcDb2dVertex
 10
149.5298374921685
 20
177.7850640885832
 30
0.0
  0
VERTEX
  5
5F6
330
5F4
100
AcDbEntity
  8
BEMA_U_00DFUNG
 62
     7
100
AcDbVertex
100
AcDb2dVertex
 10
149.5570013810507
 20
177.7850640885832
 30
0.0
  0
SEQEND
  5
5F7
330
5F4
100
AcDbEntity
  8
BEMA_U_00DFUNG
 62
     7
  0
POLYLINE
  5
5F8
330
1F
100
AcDbEntity
  8
BEMA_U_00DFUNG
 62
     7
100
AcDb2dPolyline
 66
     1
 10
0.0
 20
0.0
 30
0.0
  0
VERTEX
  5
5F9
330
5F8
100
AcDbEntity
  8
BEMA_U_00DFUNG
 62
     7
100
AcDbVertex
100
AcDb2dVertex
 10
149.5298374921685
 20
177.7850640885832
 30
0.0
  0
VERTEX
  5
5FA
330
5F8
100
AcDbEntity
  8
BEMA_U_00DFUNG
 62
     7
100
AcDbVertex
100
AcDb2dVertex
 10
149.5570013810507
 20
177.7850640885832
 30
0.0
  0
SEQEND
  5
5FB
330
5F8
100
AcDbEntity
  8
BEMA_U_00DFUNG
 62
     7
  0
POLYLINE
  5
5FC
330
1F
100
AcDbEntity
  8
BEMA_U_00DFUNG
 62
     7
100
AcDb2dPolyline
 66
     1
 10
0.0
 20
0.0
 30
0.0
  0
VERTEX
  5
5FD
330
5FC
100
AcDbEntity
  8
BEMA_U_00DFUNG
 62
     7
100
AcDbVertex
100
AcDb2dVertex
 10
149.5298374921685
 20
177.7342640885958
 30
0.0
  0
VERTEX
  5
5FE
330
5FC
100
AcDbEntity
  8
BEMA_U_00DFUNG
 62
     7
100
AcDbVertex
100
AcDb2dVertex
 10
149.9432930476209
 20
177.7342640885958
 30
0.0
  0
SEQEND
  5
5FF
330
5FC
100
AcDbEntity
  8
BEMA_U_00DFUNG
 62
     7
  0
POLYLINE
  5
600
330
1F
100
AcDbEntity
  8
BEMA_U_00DFUNG
 62
     7
100
AcDb2dPolyline
 66
     1
 10
0.0
 20
0.0
 30
0.0
  0
VERTEX
  5
601
330
600
100
AcDbEntity
  8
BEMA_U_00DFUNG
 62
     7
100
AcDbVertex
100
AcDb2dVertex
 10
149.5298374921685
 20
177.6834640886087
 30
0.0
  0
VERTEX
  5
602
330
600
100
AcDbEntity
  8
BEMA_U_00DFUNG
 62
     7
100
AcDbVertex
100
AcDb2dVertex
 10
150.3292319364133
 20
177.6834640886087
 30
0.0
  0
SEQEND
  5
603
330
600
100
AcDbEntity
  8
BEMA_U_00DFUNG
 62
     7
  0
POLYLINE
  5
604
330
1F
100
AcDbEntity
  8
BEMA_U_00DFUNG
 62
     7
100
AcDb2dPolyline
 66
     1
 10
0.0
 20
0.0
 30
0.0
  0
VERTEX
  5
605
330
604
100
AcDbEntity
  8
BEMA_U_00DFUNG
 62
     7
100
AcDbVertex
100
AcDb2dVertex
 10
149.5298374921685
 20
177.6330168663991
 30
0.0
  0
VERTEX
  5
606
330
604
100
AcDbEntity
  8
BEMA_U_00DFUNG
 62
     7
100
AcDbVertex
100
AcDb2dVertex
 10
150.7144652696502
 20
177.6330168663991
 30
0.0
  0
SEQEND
  5
607
330
604
100
AcDbEntity
  8
BEMA_U_00DFUNG
 62
     7
  0
POLYLINE
  5
608
330
1F
100
AcDbEntity
  8
BEMA_U_00DFUNG
 62
     7
100
AcDb2dPolyline
 66
     1
 10
0.0
 20
0.0
 30
0.0
  0
VERTEX
  5
609
330
608
100
AcDbEntity
  8
BEMA_U_00DFUNG
 62
     7
100
AcDbVertex
100
AcDb2dVertex
 10
149.5298374921685
 20
177.582216866412
 30
0.0
  0
VERTEX
  5
60A
330
608
100
AcDbEntity
  8
BEMA_U_00DFUNG
 62
     7
100
AcDbVertex
100
AcDb2dVertex
 10
151.1004041584426
 20
177.582216866412
 30
0.0
  0
SEQEND
  5
60B
330
608
100
AcDbEntity
  8
BEMA_U_00DFUNG
 62
     7
  0
POLYLINE
  5
60C
330
1F
100
AcDbEntity
  8
BEMA_U_00DFUNG
 62
     7
100
AcDb2dPolyline
 66
     1
 10
0.0
 20
0.0
 30
0.0
  0
VERTEX
  5
60D
330
60C
100
AcDbEntity
  8
BEMA_U_00DFUNG
 62
     7
100
AcDbVertex
100
AcDb2dVertex
 10
149.5298374921685
 20
177.5314168664246
 30
0.0
  0
VERTEX
  5
60E
330
60C
100
AcDbEntity
  8
BEMA_U_00DFUNG
 62
     7
100
AcDbVertex
100
AcDb2dVertex
 10
151.4866958250128
 20
177.5314168664246
 30
0.0
  0
SEQEND
  5
60F
330
60C
100
AcDbEntity
  8
BEMA_U_00DFUNG
 62
     7
  0
POLYLINE
  5
610
330
1F
100
AcDbEntity
  8
BEMA_U_00DFUNG
 62
     7
100
AcDb2dPolyline
 66
     1
 10
0.0
 20
0.0
 30
0.0
  0
VERTEX
  5
611
330
610
100
AcDbEntity
  8
BEMA_U_00DFUNG
 62
     7
100
AcDbVertex
100
AcDb2dVertex
 10
149.5298374921685
 20
177.4806168664373
 30
0.0
  0
VERTEX
  5
612
330
610
100
AcDbEntity
  8
BEMA_U_00DFUNG
 62
     7
100
AcDbVertex
100
AcDb2dVertex
 10
151.8726347138052
 20
177.4806168664373
 30
0.0
  0
SEQEND
  5
613
330
610
100
AcDbEntity
  8
BEMA_U_00DFUNG
 62
     7
  0
POLYLINE
  5
614
330
1F
100
AcDbEntity
  8
BEMA_U_00DFUNG
 62
     7
100
AcDb2dPolyline
 66
     1
 10
0.0
 20
0.0
 30
0.0
  0
VERTEX
  5
615
330
614
100
AcDbEntity
  8
BEMA_U_00DFUNG
 62
     7
100
AcDbVertex
100
AcDb2dVertex
 10
149.5298374921685
 20
177.4298168664499
 30
0.0
  0
VERTEX
  5
616
330
614
100
AcDbEntity
  8
BEMA_U_00DFUNG
 62
     7
100
AcDbVertex
100
AcDb2dVertex
 10
152.2585736025976
 20
177.4298168664499
 30
0.0
  0
SEQEND
  5
617
330
614
100
AcDbEntity
  8
BEMA_U_00DFUNG
 62
     7
  0
POLYLINE
  5
618
330
1F
100
AcDbEntity
  8
BEMA_U_00DFUNG
 62
     7
100
AcDb2dPolyline
 66
     1
 10
0.0
 20
0.0
 30
0.0
  0
VERTEX
  5
619
330
618
100
AcDbEntity
  8
BEMA_U_00DFUNG
 62
     7
100
AcDbVertex
100
AcDb2dVertex
 10
149.5298374921685
 20
177.3790168664625
 30
0.0
  0
VERTEX
  5
61A
330
618
100
AcDbEntity
  8
BEMA_U_00DFUNG
 62
     7
100
AcDbVertex
100
AcDb2dVertex
 10
152.6438069358345
 20
177.3790168664625
 30
0.0
  0
SEQEND
  5
61B
330
618
100
AcDbEntity
  8
BEMA_U_00DFUNG
 62
     7
  0
POLYLINE
  5
61C
330
1F
100
AcDbEntity
  8
BEMA_U_00DFUNG
 62
     7
100
AcDb2dPolyline
 66
     1
 10
0.0
 20
0.0
 30
0.0
  0
VERTEX
  5
61D
330
61C
100
AcDbEntity
  8
BEMA_U_00DFUNG
 62
     7
100
AcDbVertex
100
AcDb2dVertex
 10
149.5298374921685
 20
177.3282168664751
 30
0.0
  0
VERTEX
  5
61E
330
61C
100
AcDbEntity
  8
BEMA_U_00DFUNG
 62
     7
100
AcDbVertex
100
AcDb2dVertex
 10
153.0300986024047
 20
177.3282168664751
 30
0.0
  0
SEQEND
  5
61F
330
61C
100
AcDbEntity
  8
BEMA_U_00DFUNG
 62
     7
  0
POLYLINE
  5
620
330
1F
100
AcDbEntity
  8
BEMA_U_00DFUNG
 62
     7
100
AcDb2dPolyline
 66
     1
 10
0.0
 20
0.0
 30
0.0
  0
VERTEX
  5
621
330
620
100
AcDbEntity
  8
BEMA_U_00DFUNG
 62
     7
100
AcDbVertex
100
AcDb2dVertex
 10
149.5298374921685
 20
176.8706640888119
 30
0.0
  0
VERTEX
  5
622
330
620
100
AcDbEntity
  8
BEMA_U_00DFUNG
 62
     7
100
AcDbVertex
100
AcDb2dVertex
 10
149.5570013810507
 20
176.8706640888119
 30
0.0
  0
SEQEND
  5
623
330
620
100
AcDbEntity
  8
BEMA_U_00DFUNG
 62
     7
  0
POLYLINE
  5
624
330
1F
100
AcDbEntity
  8
BEMA_U_00DFUNG
 62
     7
100
AcDb2dPolyline
 66
     1
 10
0.0
 20
0.0
 30
0.0
  0
VERTEX
  5
625
330
624
100
AcDbEntity
  8
BEMA_U_00DFUNG
 62
     7
100
AcDbVertex
100
AcDb2dVertex
 10
149.5298374921685
 20
176.8706640888119
 30
0.0
  0
VERTEX
  5
626
330
624
100
AcDbEntity
  8
BEMA_U_00DFUNG
 62
     7
100
AcDbVertex
100
AcDb2dVertex
 10
149.5570013810507
 20
176.8706640888119
 30
0.0
  0
SEQEND
  5
627
330
624
100
AcDbEntity
  8
BEMA_U_00DFUNG
 62
     7
  0
POLYLINE
  5
628
330
1F
100
AcDbEntity
  8
BEMA_U_00DFUNG
 62
     7
100
AcDb2dPolyline
 66
     1
 10
0.0
 20
0.0
 30
0.0
  0
VERTEX
  5
629
330
628
100
AcDbEntity
  8
BEMA_U_00DFUNG
 62
     7
100
AcDbVertex
100
AcDb2dVertex
 10
149.5298374921685
 20
176.9214640887993
 30
0.0
  0
VERTEX
  5
62A
330
628
100
AcDbEntity
  8
BEMA_U_00DFUNG
 62
     7
100
AcDbVertex
100
AcDb2dVertex
 10
149.9432930476209
 20
176.9214640887993
 30
0.0
  0
SEQEND
  5
62B
330
628
100
AcDbEntity
  8
BEMA_U_00DFUNG
 62
     7
  0
POLYLINE
  5
62C
330
1F
100
AcDbEntity
  8
BEMA_U_00DFUNG
 62
     7
100
AcDb2dPolyline
 66
     1
 10
0.0
 20
0.0
 30
0.0
  0
VERTEX
  5
62D
330
62C
100
AcDbEntity
  8
BEMA_U_00DFUNG
 62
     7
100
AcDbVertex
100
AcDb2dVertex
 10
149.5298374921685
 20
176.9722640887863
 30
0.0
  0
VERTEX
  5
62E
330
62C
100
AcDbEntity
  8
BEMA_U_00DFUNG
 62
     7
100
AcDbVertex
100
AcDb2dVertex
 10
150.3292319364133
 20
176.9722640887863
 30
0.0
  0
SEQEND
  5
62F
330
62C
100
AcDbEntity
  8
BEMA_U_00DFUNG
 62
     7
  0
POLYLINE
  5
630
330
1F
100
AcDbEntity
  8
BEMA_U_00DFUNG
 62
     7
100
AcDb2dPolyline
 66
     1
 10
0.0
 20
0.0
 30
0.0
  0
VERTEX
  5
631
330
630
100
AcDbEntity
  8
BEMA_U_00DFUNG
 62
     7
100
AcDbVertex
100
AcDb2dVertex
 10
149.5298374921685
 20
177.0230640887737
 30
0.0
  0
VERTEX
  5
632
330
630
100
AcDbEntity
  8
BEMA_U_00DFUNG
 62
     7
100
AcDbVertex
100
AcDb2dVertex
 10
150.7144652696502
 20
177.0230640887737
 30
0.0
  0
SEQEND
  5
633
330
630
100
AcDbEntity
  8
BEMA_U_00DFUNG
 62
     7
  0
POLYLINE
  5
634
330
1F
100
AcDbEntity
  8
BEMA_U_00DFUNG
 62
     7
100
AcDb2dPolyline
 66
     1
 10
0.0
 20
0.0
 30
0.0
  0
VERTEX
  5
635
330
634
100
AcDbEntity
  8
BEMA_U_00DFUNG
 62
     7
100
AcDbVertex
100
AcDb2dVertex
 10
149.5298374921685
 20
177.0738640887611
 30
0.0
  0
VERTEX
  5
636
330
634
100
AcDbEntity
  8
BEMA_U_00DFUNG
 62
     7
100
AcDbVertex
100
AcDb2dVertex
 10
151.1004041584426
 20
177.0738640887611
 30
0.0
  0
SEQEND
  5
637
330
634
100
AcDbEntity
  8
BEMA_U_00DFUNG
 62
     7
  0
POLYLINE
  5
638
330
1F
100
AcDbEntity
  8
BEMA_U_00DFUNG
 62
     7
100
AcDb2dPolyline
 66
     1
 10
0.0
 20
0.0
 30
0.0
  0
VERTEX
  5
639
330
638
100
AcDbEntity
  8
BEMA_U_00DFUNG
 62
     7
100
AcDbVertex
100
AcDb2dVertex
 10
149.5298374921685
 20
177.1246640887485
 30
0.0
  0
VERTEX
  5
63A
330
638
100
AcDbEntity
  8
BEMA_U_00DFUNG
 62
     7
100
AcDbVertex
100
AcDb2dVertex
 10
151.4866958250128
 20
177.1246640887485
 30
0.0
  0
SEQEND
  5
63B
330
638
100
AcDbEntity
  8
BEMA_U_00DFUNG
 62
     7
  0
POLYLINE
  5
63C
330
1F
100
AcDbEntity
  8
BEMA_U_00DFUNG
 62
     7
100
AcDb2dPolyline
 66
     1
 10
0.0
 20
0.0
 30
0.0
  0
VERTEX
  5
63D
330
63C
100
AcDbEntity
  8
BEMA_U_00DFUNG
 62
     7
100
AcDbVertex
100
AcDb2dVertex
 10
149.5298374921685
 20
177.1758168665136
 30
0.0
  0
VERTEX
  5
63E
330
63C
100
AcDbEntity
  8
BEMA_U_00DFUNG
 62
     7
100
AcDbVertex
100
AcDb2dVertex
 10
151.8726347138052
 20
177.1758168665136
 30
0.0
  0
SEQEND
  5
63F
330
63C
100
AcDbEntity
  8
BEMA_U_00DFUNG
 62
     7
  0
POLYLINE
  5
640
330
1F
100
AcDbEntity
  8
BEMA_U_00DFUNG
 62
     7
100
AcDb2dPolyline
 66
     1
 10
0.0
 20
0.0
 30
0.0
  0
VERTEX
  5
641
330
640
100
AcDbEntity
  8
BEMA_U_00DFUNG
 62
     7
100
AcDbVertex
100
AcDb2dVertex
 10
149.5298374921685
 20
177.2266168665007
 30
0.0
  0
VERTEX
  5
642
330
640
100
AcDbEntity
  8
BEMA_U_00DFUNG
 62
     7
100
AcDbVertex
100
AcDb2dVertex
 10
152.2585736025976
 20
177.2266168665007
 30
0.0
  0
SEQEND
  5
643
330
640
100
AcDbEntity
  8
BEMA_U_00DFUNG
 62
     7
  0
POLYLINE
  5
644
330
1F
100
AcDbEntity
  8
BEMA_U_00DFUNG
 62
     7
100
AcDb2dPolyline
 66
     1
 10
0.0
 20
0.0
 30
0.0
  0
VERTEX
  5
645
330
644
100
AcDbEntity
  8
BEMA_U_00DFUNG
 62
     7
100
AcDbVertex
100
AcDb2dVertex
 10
149.5298374921685
 20
177.2774168664881
 30
0.0
  0
VERTEX
  5
646
330
644
100
AcDbEntity
  8
BEMA_U_00DFUNG
 62
     7
100
AcDbVertex
100
AcDb2dVertex
 10
152.6438069358345
 20
177.2774168664881
 30
0.0
  0
SEQEND
  5
647
330
644
100
AcDbEntity
  8
BEMA_U_00DFUNG
 62
     7
  0
POLYLINE
  5
648
330
1F
100
AcDbEntity
  8
BEMA_U_00DFUNG
 62
     7
100
AcDb2dPolyline
 66
     1
 10
0.0
 20
0.0
 30
0.0
  0
VERTEX
  5
649
330
648
100
AcDbEntity
  8
BEMA_U_00DFUNG
 62
     7
100
AcDbVertex
100
AcDb2dVertex
 10
149.5298374921685
 20
177.3282168664751
 30
0.0
  0
VERTEX
  5
64A
330
648
100
AcDbEntity
  8
BEMA_U_00DFUNG
 62
     7
100
AcDbVertex
100
AcDb2dVertex
 10
153.0300986024047
 20
177.3282168664751
 30
0.0
  0
SEQEND
  5
64B
330
648
100
AcDbEntity
  8
BEMA_U_00DFUNG
 62
     7
  0
POLYLINE
  5
64C
330
1F
100
AcDbEntity
  8
BEMA_U_00DFUNG
 62
     7
100
AcDb2dPolyline
 66
     1
 10
0.0
 20
0.0
 30
0.0
  0
VERTEX
  5
64D
330
64C
100
AcDbEntity
  8
BEMA_U_00DFUNG
 62
     7
100
AcDbVertex
100
AcDb2dVertex
 10
127.0300236089047
 20
177.3282168664751
 30
0.0
  0
VERTEX
  5
64E
330
64C
100
AcDbEntity
  8
BEMA_U_00DFUNG
 62
     7
100
AcDbVertex
100
AcDb2dVertex
 10
130.5302847191406
 20
176.8671363110352
 30
0.0
  0
VERTEX
  5
64F
330
64C
100
AcDbEntity
  8
BEMA_U_00DFUNG
 62
     7
100
AcDbVertex
100
AcDb2dVertex
 10
130.5302847191406
 20
177.7885918663601
 30
0.0
  0
VERTEX
  5
650
330
64C
100
AcDbEntity
  8
BEMA_U_00DFUNG
 62
     7
100
AcDbVertex
100
AcDb2dVertex
 10
127.0300236089047
 20
177.3282168664751
 30
0.0
  0
SEQEND
  5
651
330
64C
100
AcDbEntity
  8
BEMA_U_00DFUNG
 62
     7
  0
POLYLINE
  5
652
330
1F
100
AcDbEntity
  8
BEMA_U_00DFUNG
 62
     7
100
AcDb2dPolyline
 66
     1
 10
0.0
 20
0.0
 30
0.0
  0
VERTEX
  5
653
330
652
100
AcDbEntity
  8
BEMA_U_00DFUNG
 62
     7
100
AcDbVertex
100
AcDb2dVertex
 10
130.5302847191406
 20
176.8706640888119
 30
0.0
  0
VERTEX
  5
654
330
652
100
AcDbEntity
  8
BEMA_U_00DFUNG
 62
     7
100
AcDbVertex
100
AcDb2dVertex
 10
130.5024152747033
 20
176.8706640888119
 30
0.0
  0
SEQEND
  5
655
330
652
100
AcDbEntity
  8
BEMA_U_00DFUNG
 62
     7
  0
POLYLINE
  5
656
330
1F
100
AcDbEntity
  8
BEMA_U_00DFUNG
 62
     7
100
AcDb2dPolyline
 66
     1
 10
0.0
 20
0.0
 30
0.0
  0
VERTEX
  5
657
330
656
100
AcDbEntity
  8
BEMA_U_00DFUNG
 62
     7
100
AcDbVertex
100
AcDb2dVertex
 10
130.5302847191406
 20
176.8706640888119
 30
0.0
  0
VERTEX
  5
658
330
656
100
AcDbEntity
  8
BEMA_U_00DFUNG
 62
     7
100
AcDbVertex
100
AcDb2dVertex
 10
130.5024152747033
 20
176.8706640888119
 30
0.0
  0
SEQEND
  5
659
330
656
100
AcDbEntity
  8
BEMA_U_00DFUNG
 62
     7
  0
POLYLINE
  5
65A
330
1F
100
AcDbEntity
  8
BEMA_U_00DFUNG
 62
     7
100
AcDb2dPolyline
 66
     1
 10
0.0
 20
0.0
 30
0.0
  0
VERTEX
  5
65B
330
65A
100
AcDbEntity
  8
BEMA_U_00DFUNG
 62
     7
100
AcDbVertex
100
AcDb2dVertex
 10
130.5302847191406
 20
176.9214640887993
 30
0.0
  0
VERTEX
  5
65C
330
65A
100
AcDbEntity
  8
BEMA_U_00DFUNG
 62
     7
100
AcDbVertex
100
AcDb2dVertex
 10
130.1168291636886
 20
176.9214640887993
 30
0.0
  0
SEQEND
  5
65D
330
65A
100
AcDbEntity
  8
BEMA_U_00DFUNG
 62
     7
  0
POLYLINE
  5
65E
330
1F
100
AcDbEntity
  8
BEMA_U_00DFUNG
 62
     7
100
AcDb2dPolyline
 66
     1
 10
0.0
 20
0.0
 30
0.0
  0
VERTEX
  5
65F
330
65E
100
AcDbEntity
  8
BEMA_U_00DFUNG
 62
     7
100
AcDbVertex
100
AcDb2dVertex
 10
130.5302847191406
 20
176.9722640887863
 30
0.0
  0
VERTEX
  5
660
330
65E
100
AcDbEntity
  8
BEMA_U_00DFUNG
 62
     7
100
AcDbVertex
100
AcDb2dVertex
 10
129.7308902748962
 20
176.9722640887863
 30
0.0
  0
SEQEND
  5
661
330
65E
100
AcDbEntity
  8
BEMA_U_00DFUNG
 62
     7
  0
POLYLINE
  5
662
330
1F
100
AcDbEntity
  8
BEMA_U_00DFUNG
 62
     7
100
AcDb2dPolyline
 66
     1
 10
0.0
 20
0.0
 30
0.0
  0
VERTEX
  5
663
330
662
100
AcDbEntity
  8
BEMA_U_00DFUNG
 62
     7
100
AcDbVertex
100
AcDb2dVertex
 10
130.5302847191406
 20
177.0230640887737
 30
0.0
  0
VERTEX
  5
664
330
662
100
AcDbEntity
  8
BEMA_U_00DFUNG
 62
     7
100
AcDbVertex
100
AcDb2dVertex
 10
129.3449513861038
 20
177.0230640887737
 30
0.0
  0
SEQEND
  5
665
330
662
100
AcDbEntity
  8
BEMA_U_00DFUNG
 62
     7
  0
POLYLINE
  5
666
330
1F
100
AcDbEntity
  8
BEMA_U_00DFUNG
 62
     7
100
AcDb2dPolyline
 66
     1
 10
0.0
 20
0.0
 30
0.0
  0
VERTEX
  5
667
330
666
100
AcDbEntity
  8
BEMA_U_00DFUNG
 62
     7
100
AcDbVertex
100
AcDb2dVertex
 10
130.5302847191406
 20
177.0738640887611
 30
0.0
  0
VERTEX
  5
668
330
666
100
AcDbEntity
  8
BEMA_U_00DFUNG
 62
     7
100
AcDbVertex
100
AcDb2dVertex
 10
128.9590124973113
 20
177.0738640887611
 30
0.0
  0
SEQEND
  5
669
330
666
100
AcDbEntity
  8
BEMA_U_00DFUNG
 62
     7
  0
POLYLINE
  5
66A
330
1F
100
AcDbEntity
  8
BEMA_U_00DFUNG
 62
     7
100
AcDb2dPolyline
 66
     1
 10
0.0
 20
0.0
 30
0.0
  0
VERTEX
  5
66B
330
66A
100
AcDbEntity
  8
BEMA_U_00DFUNG
 62
     7
100
AcDbVertex
100
AcDb2dVertex
 10
130.5302847191406
 20
177.1246640887485
 30
0.0
  0
VERTEX
  5
66C
330
66A
100
AcDbEntity
  8
BEMA_U_00DFUNG
 62
     7
100
AcDbVertex
100
AcDb2dVertex
 10
128.5734263862967
 20
177.1246640887485
 30
0.0
  0
SEQEND
  5
66D
330
66A
100
AcDbEntity
  8
BEMA_U_00DFUNG
 62
     7
  0
POLYLINE
  5
66E
330
1F
100
AcDbEntity
  8
BEMA_U_00DFUNG
 62
     7
100
AcDb2dPolyline
 66
     1
 10
0.0
 20
0.0
 30
0.0
  0
VERTEX
  5
66F
330
66E
100
AcDbEntity
  8
BEMA_U_00DFUNG
 62
     7
100
AcDbVertex
100
AcDb2dVertex
 10
130.5302847191406
 20
177.1758168665136
 30
0.0
  0
VERTEX
  5
670
330
66E
100
AcDbEntity
  8
BEMA_U_00DFUNG
 62
     7
100
AcDbVertex
100
AcDb2dVertex
 10
128.1874874975042
 20
177.1758168665136
 30
0.0
  0
SEQEND
  5
671
330
66E
100
AcDbEntity
  8
BEMA_U_00DFUNG
 62
     7
  0
POLYLINE
  5
672
330
1F
100
AcDbEntity
  8
BEMA_U_00DFUNG
 62
     7
100
AcDb2dPolyline
 66
     1
 10
0.0
 20
0.0
 30
0.0
  0
VERTEX
  5
673
330
672
100
AcDbEntity
  8
BEMA_U_00DFUNG
 62
     7
100
AcDbVertex
100
AcDb2dVertex
 10
130.5302847191406
 20
177.2266168665007
 30
0.0
  0
VERTEX
  5
674
330
672
100
AcDbEntity
  8
BEMA_U_00DFUNG
 62
     7
100
AcDbVertex
100
AcDb2dVertex
 10
127.8015486087118
 20
177.2266168665007
 30
0.0
  0
SEQEND
  5
675
330
672
100
AcDbEntity
  8
BEMA_U_00DFUNG
 62
     7
  0
POLYLINE
  5
676
330
1F
100
AcDbEntity
  8
BEMA_U_00DFUNG
 62
     7
100
AcDb2dPolyline
 66
     1
 10
0.0
 20
0.0
 30
0.0
  0
VERTEX
  5
677
330
676
100
AcDbEntity
  8
BEMA_U_00DFUNG
 62
     7
100
AcDbVertex
100
AcDb2dVertex
 10
130.5302847191406
 20
177.2774168664881
 30
0.0
  0
VERTEX
  5
678
330
676
100
AcDbEntity
  8
BEMA_U_00DFUNG
 62
     7
100
AcDbVertex
100
AcDb2dVertex
 10
127.4156097199194
 20
177.2774168664881
 30
0.0
  0
SEQEND
  5
679
330
676
100
AcDbEntity
  8
BEMA_U_00DFUNG
 62
     7
  0
POLYLINE
  5
67A
330
1F
100
AcDbEntity
  8
BEMA_U_00DFUNG
 62
     7
100
AcDb2dPolyline
 66
     1
 10
0.0
 20
0.0
 30
0.0
  0
VERTEX
  5
67B
330
67A
100
AcDbEntity
  8
BEMA_U_00DFUNG
 62
     7
100
AcDbVertex
100
AcDb2dVertex
 10
130.5302847191406
 20
177.3282168664751
 30
0.0
  0
VERTEX
  5
67C
330
67A
100
AcDbEntity
  8
BEMA_U_00DFUNG
 62
     7
100
AcDbVertex
100
AcDb2dVertex
 10
127.0300236089047
 20
177.3282168664751
 30
0.0
  0
SEQEND
  5
67D
330
67A
100
AcDbEntity
  8
BEMA_U_00DFUNG
 62
     7
  0
POLYLINE
  5
67E
330
1F
100
AcDbEntity
  8
BEMA_U_00DFUNG
 62
     7
100
AcDb2dPolyline
 66
     1
 10
0.0
 20
0.0
 30
0.0
  0
VERTEX
  5
67F
330
67E
100
AcDbEntity
  8
BEMA_U_00DFUNG
 62
     7
100
AcDbVertex
100
AcDb2dVertex
 10
130.5302847191406
 20
177.7850640885832
 30
0.0
  0
VERTEX
  5
680
330
67E
100
AcDbEntity
  8
BEMA_U_00DFUNG
 62
     7
100
AcDbVertex
100
AcDb2dVertex
 10
130.5024152747033
 20
177.7850640885832
 30
0.0
  0
SEQEND
  5
681
330
67E
100
AcDbEntity
  8
BEMA_U_00DFUNG
 62
     7
  0
POLYLINE
  5
682
330
1F
100
AcDbEntity
  8
BEMA_U_00DFUNG
 62
     7
100
AcDb2dPolyline
 66
     1
 10
0.0
 20
0.0
 30
0.0
  0
VERTEX
  5
683
330
682
100
AcDbEntity
  8
BEMA_U_00DFUNG
 62
     7
100
AcDbVertex
100
AcDb2dVertex
 10
130.5302847191406
 20
177.7850640885832
 30
0.0
  0
VERTEX
  5
684
330
682
100
AcDbEntity
  8
BEMA_U_00DFUNG
 62
     7
100
AcDbVertex
100
AcDb2dVertex
 10
130.5024152747033
 20
177.7850640885832
 30
0.0
  0
SEQEND
  5
685
330
682
100
AcDbEntity
  8
BEMA_U_00DFUNG
 62
     7
  0
POLYLINE
  5
686
330
1F
100
AcDbEntity
  8
BEMA_U_00DFUNG
 62
     7
100
AcDb2dPolyline
 66
     1
 10
0.0
 20
0.0
 30
0.0
  0
VERTEX
  5
687
330
686
100
AcDbEntity
  8
BEMA_U_00DFUNG
 62
     7
100
AcDbVertex
100
AcDb2dVertex
 10
130.5302847191406
 20
177.7342640885958
 30
0.0
  0
VERTEX
  5
688
330
686
100
AcDbEntity
  8
BEMA_U_00DFUNG
 62
     7
100
AcDbVertex
100
AcDb2dVertex
 10
130.1168291636886
 20
177.7342640885958
 30
0.0
  0
SEQEND
  5
689
330
686
100
AcDbEntity
  8
BEMA_U_00DFUNG
 62
     7
  0
POLYLINE
  5
68A
330
1F
100
AcDbEntity
  8
BEMA_U_00DFUNG
 62
     7
100
AcDb2dPolyline
 66
     1
 10
0.0
 20
0.0
 30
0.0
  0
VERTEX
  5
68B
330
68A
100
AcDbEntity
  8
BEMA_U_00DFUNG
 62
     7
100
AcDbVertex
100
AcDb2dVertex
 10
130.5302847191406
 20
177.6834640886087
 30
0.0
  0
VERTEX
  5
68C
330
68A
100
AcDbEntity
  8
BEMA_U_00DFUNG
 62
     7
100
AcDbVertex
100
AcDb2dVertex
 10
129.7308902748962
 20
177.6834640886087
 30
0.0
  0
SEQEND
  5
68D
330
68A
100
AcDbEntity
  8
BEMA_U_00DFUNG
 62
     7
  0
POLYLINE
  5
68E
330
1F
100
AcDbEntity
  8
BEMA_U_00DFUNG
 62
     7
100
AcDb2dPolyline
 66
     1
 10
0.0
 20
0.0
 30
0.0
  0
VERTEX
  5
68F
330
68E
100
AcDbEntity
  8
BEMA_U_00DFUNG
 62
     7
100
AcDbVertex
100
AcDb2dVertex
 10
130.5302847191406
 20
177.6330168663991
 30
0.0
  0
VERTEX
  5
690
330
68E
100
AcDbEntity
  8
BEMA_U_00DFUNG
 62
     7
100
AcDbVertex
100
AcDb2dVertex
 10
129.3449513861038
 20
177.6330168663991
 30
0.0
  0
SEQEND
  5
691
330
68E
100
AcDbEntity
  8
BEMA_U_00DFUNG
 62
     7
  0
POLYLINE
  5
692
330
1F
100
AcDbEntity
  8
BEMA_U_00DFUNG
 62
     7
100
AcDb2dPolyline
 66
     1
 10
0.0
 20
0.0
 30
0.0
  0
VERTEX
  5
693
330
692
100
AcDbEntity
  8
BEMA_U_00DFUNG
 62
     7
100
AcDbVertex
100
AcDb2dVertex
 10
130.5302847191406
 20
177.582216866412
 30
0.0
  0
VERTEX
  5
694
330
692
100
AcDbEntity
  8
BEMA_U_00DFUNG
 62
     7
100
AcDbVertex
100
AcDb2dVertex
 10
128.9590124973113
 20
177.582216866412
 30
0.0
  0
SEQEND
  5
695
330
692
100
AcDbEntity
  8
BEMA_U_00DFUNG
 62
     7
  0
POLYLINE
  5
696
330
1F
100
AcDbEntity
  8
BEMA_U_00DFUNG
 62
     7
100
AcDb2dPolyline
 66
     1
 10
0.0
 20
0.0
 30
0.0
  0
VERTEX
  5
697
330
696
100
AcDbEntity
  8
BEMA_U_00DFUNG
 62
     7
100
AcDbVertex
100
AcDb2dVertex
 10
130.5302847191406
 20
177.5314168664246
 30
0.0
  0
VERTEX
  5
698
330
696
100
AcDbEntity
  8
BEMA_U_00DFUNG
 62
     7
100
AcDbVertex
100
AcDb2dVertex
 10
128.5734263862967
 20
177.5314168664246
 30
0.0
  0
SEQEND
  5
699
330
696
100
AcDbEntity
  8
BEMA_U_00DFUNG
 62
     7
  0
POLYLINE
  5
69A
330
1F
100
AcDbEntity
  8
BEMA_U_00DFUNG
 62
     7
100
AcDb2dPolyline
 66
     1
 10
0.0
 20
0.0
 30
0.0
  0
VERTEX
  5
69B
330
69A
100
AcDbEntity
  8
BEMA_U_00DFUNG
 62
     7
100
AcDbVertex
100
AcDb2dVertex
 10
130.5302847191406
 20
177.4806168664373
 30
0.0
  0
VERTEX
  5
69C
330
69A
100
AcDbEntity
  8
BEMA_U_00DFUNG
 62
     7
100
AcDbVertex
100
AcDb2dVertex
 10
128.1874874975042
 20
177.4806168664373
 30
0.0
  0
SEQEND
  5
69D
330
69A
100
AcDbEntity
  8
BEMA_U_00DFUNG
 62
     7
  0
POLYLINE
  5
69E
330
1F
100
AcDbEntity
  8
BEMA_U_00DFUNG
 62
     7
100
AcDb2dPolyline
 66
     1
 10
0.0
 20
0.0
 30
0.0
  0
VERTEX
  5
69F
330
69E
100
AcDbEntity
  8
BEMA_U_00DFUNG
 62
     7
100
AcDbVertex
100
AcDb2dVertex
 10
130.5302847191406
 20
177.4298168664499
 30
0.0
  0
VERTEX
  5
6A0
330
69E
100
AcDbEntity
  8
BEMA_U_00DFUNG
 62
     7
100
AcDbVertex
100
AcDb2dVertex
 10
127.8015486087118
 20
177.4298168664499
 30
0.0
  0
SEQEND
  5
6A1
330
69E
100
AcDbEntity
  8
BEMA_U_00DFUNG
 62
     7
  0
POLYLINE
  5
6A2
330
1F
100
AcDbEntity
  8
BEMA_U_00DFUNG
 62
     7
100
AcDb2dPolyline
 66
     1
 10
0.0
 20
0.0
 30
0.0
  0
VERTEX
  5
6A3
330
6A2
100
AcDbEntity
  8
BEMA_U_00DFUNG
 62
     7
100
AcDbVertex
100
AcDb2dVertex
 10
130.5302847191406
 20
177.3790168664625
 30
0.0
  0
VERTEX
  5
6A4
330
6A2
100
AcDbEntity
  8
BEMA_U_00DFUNG
 62
     7
100
AcDbVertex
100
AcDb2dVertex
 10
127.4156097199194
 20
177.3790168664625
 30
0.0
  0
SEQEND
  5
6A5
330
6A2
100
AcDbEntity
  8
BEMA_U_00DFUNG
 62
     7
  0
POLYLINE
  5
6A6
330
1F
100
AcDbEntity
  8
BEMA_U_00DFUNG
 62
     7
100
AcDb2dPolyline
 66
     1
 10
0.0
 20
0.0
 30
0.0
  0
VERTEX
  5
6A7
330
6A6
100
AcDbEntity
  8
BEMA_U_00DFUNG
 62
     7
100
AcDbVertex
100
AcDb2dVertex
 10
130.5302847191406
 20
177.3282168664751
 30
0.0
  0
VERTEX
  5
6A8
330
6A6
100
AcDbEntity
  8
BEMA_U_00DFUNG
 62
     7
100
AcDbVertex
100
AcDb2dVertex
 10
127.0300236089047
 20
177.3282168664751
 30
0.0
  0
SEQEND
  5
6A9
330
6A6
100
AcDbEntity
  8
BEMA_U_00DFUNG
 62
     7
  0
MTEXT
  5
6AB
330
1F
100
AcDbEntity
  8
TEXT
 62
     7
100
AcDbMText
 10
57.04527042870133
 20
178.1030423633048
 30
0.0
 40
3.447529173370601
 41
0.0
 71
     7
 72
     1
  1
\fINDEX Univers 45 Light|b0|i0|c0|p34;\W1;ø40
  0
MTEXT
  5
6AC
330
1F
100
AcDbEntity
  8
TEXT
 62
     7
100
AcDbMText
 10
116.2020990928909
 20
132.9761243434768
 30
0.0
 40
3.447529173370601
 41
0.0
 71
     7
 72
     1
  1
\fINDEX Univers 45 Light|b0|i0|c0|p34;\W1;M25x1,5
 11
6.123233995736766E-17
 21
1.0
 31
0.0
  0
MTEXT
  5
6AD
330
1F
100
AcDbEntity
  8
TEXT
 62
     7
100
AcDbMText
 10
137.0826465369947
 20
178.0012779771002
 30
0.0
 40
3.447529173370601
 41
0.0
 71
     7
 72
     1
  1
\fINDEX Univers 45 Light|b0|i0|c0|p34;\W1;26
  0
ENDSEC
  0
SECTION
  2
OBJECTS
  0
DICTIONARY
  5
C
330
0
100
AcDbDictionary
  3
ACAD_GROUP
350
D
  3
ACAD_LAYOUT
350
1A
  3
ACAD_MATERIAL
350
3B
  3
ACAD_MLEADERSTYLE
350
6D0
  3
ACAD_MLINESTYLE
350
17
  3
ACAD_PLOTSETTINGS
350
19
  3
ACAD_VISUALSTYLE
350
2A
  3
ACDBHEADERROUNDTRIPXREC
350
6AE
  3
ACDBVARIABLEDICTIONARY
350
6CE
  0
DICTIONARY
  5
D
102
{ACAD_REACTORS
330
C
102
}
330
C
100
AcDbDictionary
  0
DICTIONARY
  5
1A
102
{ACAD_REACTORS
330
C
102
}
330
C
100
AcDbDictionary
  0
DICTIONARY
  5
3B
102
{ACAD_REACTORS
330
C
102
}
330
C
100
AcDbDictionary
  3
BYBLOCK
350
3D
  3
BYLAYER
350
3C
  3
GLOBAL
350
3E
  0
DICTIONARY
  5
6D0
102
{ACAD_REACTORS
330
C
102
}
330
C
100
AcDbDictionary
  0
DICTIONARY
  5
17
102
{ACAD_REACTORS
330
C
102
}
330
C
100
AcDbDictionary
  3
STANDARD
350
18
  0
DICTIONARY
  5
19
102
{ACAD_REACTORS
330
C
102
}
330
C
100
AcDbDictionary
  0
DICTIONARY
  5
2A
102
{ACAD_REACTORS
330
C
102
}
330
C
100
AcDbDictionary
  3
2DWIREFRAME
350
2F
  3
3D_HIDDEN
350
31
  3
3DWIREFRAME
350
30
  3
BASIC
350
32
  3
BRIGHTEN
350
36
  3
COLORCHANGE
350
3A
  3
CONCEPTUAL
350
34
  3
DIM
350
35
  3
FACEPATTERN
350
39
  3
FLAT
350
2B
  3
FLATWITHEDGES
350
2C
  3
GOURAUD
350
2D
  3
GOURAUDWITHEDGES
350
2E
  3
LINEPATTERN
350
38
  3
REALISTIC
350
33
  3
THICKEN
350
37
  0
DICTIONARY
  5
6AE
102
{ACAD_REACTORS
330
C
102
}
330
C
100
AcDbDictionary
  3
CEPSNTYPE
350
6B7
  3
DIMSTYLEDATA
350
6CD
  3
FINGERPRINTGUID
350
6B8
  3
HYPERLINKBASE
350
6B1
  3
INSUNITS
350
6B6
  3
LAYOUTDICT
350
6B3
  3
LWETCUNION
350
6B5
  3
PLOTSETDICT
350
6B4
  3
PSVPSCALE
350
6BA
  3
PUCSBASE
350
6BD
  3
PUCSORGBACK
350
6C3
  3
PUCSORGBOTTOM
350
6BF
  3
PUCSORGFRONT
350
6C2
  3
PUCSORGLEFT
350
6C0
  3
PUCSORGRIGHT
350
6C1
  3
PUCSORGTOP
350
6BE
  3
PUCSORTHOREF
350
6BB
  3
PUCSORTHOVIEW
350
6BC
  3
STYLESHEET
350
6B2
  3
TSTACKALIGN
350
6AF
  3
TSTACKSIZE
350
6B0
  3
UCSBASE
350
6C6
  3
UCSORGBACK
350
6CC
  3
UCSORGBOTTOM
350
6C8
  3
UCSORGFRONT
350
6CB
  3
UCSORGLEFT
350
6C9
  3
UCSORGRIGHT
350
6CA
  3
UCSORGTOP
350
6C7
  3
UCSORTHOREF
350
6C4
  3
UCSORTHOVIEW
350
6C5
  3
VERSIONGUID
350
6B9
  0
DICTIONARY
  5
6CE
102
{ACAD_REACTORS
330
C
102
}
330
C
100
AcDbDictionary
  3
DIMASSOC
350
6D1
  3
HIDETEXT
350
6D2
  0
MATERIAL
  5
3D
102
{ACAD_REACTORS
330
3B
102
}
102
{ACAD_XDICTIONARY
360
6D5
102
}
330
3B
100
AcDbMaterial
  1
ByBlock
  0
MATERIAL
  5
3C
102
{ACAD_REACTORS
330
3B
102
}
102
{ACAD_XDICTIONARY
360
6D3
102
}
330
3B
100
AcDbMaterial
  1
ByLayer
  0
MATERIAL
  5
3E
102
{ACAD_REACTORS
330
3B
102
}
102
{ACAD_XDICTIONARY
360
6D7
102
}
330
3B
100
AcDbMaterial
  1
Global
  0
MLINESTYLE
  5
18
102
{ACAD_REACTORS
330
17
102
}
330
17
100
AcDbMlineStyle
  2
Standard
 70
     0
  3

 62
   256
 51
90.0
 52
90.0
 71
     2
 49
0.5
 62
   256
  6
BYLAYER
 49
-0.5
 62
   256
  6
BYLAYER
  0
ACAD_PROXY_OBJECT
  5
2F
102
{ACAD_REACTORS
330
2A
102
}
330
2A
100
AcDbProxyObject
 90
      499
 91
      501
 93
      436
310
42CC9915DA5C99599C985B595049028333333333333E3BF0000000000000FB0107901411070040501600405405064090741402480A0340
1001
ACAD
1000
AcDbSavedByObjectVersion
1070
     0
  0
ACAD_PROXY_OBJECT
  5
31
102
{ACAD_REACTORS
330
2A
102
}
330
2A
100
AcDbProxyObject
 90
      499
 91
      501
 93
      500
310
424CD108121A5919195B90640502408333333333333E3BF0000000000000FB01079024090700405020000000000001110200405405064090740C02480A0340
1001
ACAD
1000
AcDbSavedByObjectVersion
1070
     0
  0
ACAD_PROXY_OBJECT
  5
30
102
{ACAD_REACTORS
330
2A
102
}
330
2A
100
AcDbProxyObject
 90
      499
 91
      501
 93
      436
310
42CCD915DA5C99599C985B595059028333333333333E3BF0000000000000FB0107901411070040501600405405064090741402480A0340
1001
ACAD
1000
AcDbSavedByObjectVersion
1070
     0
  0
ACAD_PROXY_OBJECT
  5
32
102
{ACAD_REACTORS
330
2A
102
}
330
2A
100
AcDbProxyObject
 90
      499
 91
      501
 93
      388
310
4150985CDA58D07406404333333333333E3BF0000000000000FB0107A41107004050150841D405064090741402480A0350
1001
ACAD
1000
AcDbSavedByObjectVersion
1070
     0
  0
ACAD_PROXY_OBJECT
  5
36
102
{ACAD_REACTORS
330
2A
102
}
330
2A
100
AcDbProxyObject
 90
      499
 91
      501
 93
      428
310
42109C9A59DA1D195B90C409028333333333333E3BF0000000000000FB010790141107004050150841D405064090741402480A029950
1001
ACAD
1000
AcDbSavedByObjectVersion
1070
     0
  0
ACAD_PROXY_OBJECT
  5
3A
102
{ACAD_REACTORS
330
2A
102
}
330
2A
100
AcDbProxyObject
 90
      499
 91
      501
 93
      452
310
42D0DBDB1BDC90DA185B99D95104090240C333333333333E3BF0000000000000FB0108901411070040501508421405064090741402480A0350
1001
ACAD
1000
AcDbSavedByObjectVersion
1070
     0
  0
ACAD_PROXY_OBJECT
  5
34
102
{ACAD_REACTORS
330
2A
102
}
330
2A
100
AcDbProxyObject
 90
      499
 91
      501
 93
      500
310
4290DBDB98D95C1D1D585B10940D028333333333333E3BF0000000000000FB0107902409070040501000000000000111010841D405064090740C02480A0340
1001
ACAD
1000
AcDbSavedByObjectVersion
1070
     0
  0
ACAD_PROXY_OBJECT
  5
35
102
{ACAD_REACTORS
330
2A
102
}
330
2A
100
AcDbProxyObject
 90
      499
 91
      501
 93
      412
310
40D11A5B50B409028333333333333E3BF0000000000000FB010790141107004050150841D405064090741402480A02677FFFFFD0
1001
ACAD
1000
AcDbSavedByObjectVersion
1070
     0
  0
ACAD_PROXY_OBJECT
  5
39
102
{ACAD_REACTORS
330
2A
102
}
330
2A
100
AcDbProxyObject
 90
      499
 91
      501
 93
      444
310
42D19858D95C185D1D195C9B90F409028333333333333E3BF0000000000000FB010790141107004050150841D405064090741402480A0350
1001
ACAD
1000
AcDbSavedByObjectVersion
1070
     0
  0
ACAD_PROXY_OBJECT
  5
2B
102
{ACAD_REACTORS
330
2A
102
}
330
2A
100
AcDbProxyObject
 90
      499
 91
      501
 93
      388
310
41119B185D240901404333333333333E3BF0000000000000F9010740A41107004050150841D405064090741402480A1B50
1001
ACAD
1000
AcDbSavedByObjectVersion
1070
     0
  0
ACAD_PROXY_OBJECT
  5
2C
102
{ACAD_REACTORS
330
2A
102
}
330
2A
100
AcDbProxyObject
 90
      499
 91
      501
 93
      476
310
43519B185D15DA5D1A115919D95CD0140901404333333333333E3BF0000000000000F9010740901411070040501600405405064090741402480A1B50
1001
ACAD
1000
AcDbSavedByObjectVersion
1070
     0
  0
ACAD_PROXY_OBJECT
  5
2D
102
{ACAD_REACTORS
330
2A
102
}
330
2A
100
AcDbProxyObject
 90
      499
 91
      501
 93
      412
310
41D1DBDD5C985D5910240902404333333333333E3BF0000000000000F9010740A411070040501641D405064090741402480A1B50
1001
ACAD
1000
AcDbSavedByObjectVersion
1070
     0
  0
ACAD_PROXY_OBJECT
  5
2E
102
{ACAD_REACTORS
330
2A
102
}
330
2A
100
AcDbProxyObject
 90
      499
 91
      501
 93
      500
310
4411DBDD5C985D5915DA5D1A115919D95CD0340902404333333333333E3BF0000000000000F9010740901411070040501600405405064090741402480A1B50
1001
ACAD
1000
AcDbSavedByObjectVersion
1070
     0
  0
ACAD_PROXY_OBJECT
  5
38
102
{ACAD_REACTORS
330
2A
102
}
330
2A
100
AcDbProxyObject
 90
      499
 91
      501
 93
      444
310
42D31A5B995C185D1D195C9B90E409028333333333333E3BF0000000000000FB010790141107004050750841D405064090741402483A0350
1001
ACAD
1000
AcDbSavedByObjectVersion
1070
     0
  0
ACAD_PROXY_OBJECT
  5
33
102
{ACAD_REACTORS
330
2A
102
}
330
2A
100
AcDbProxyObject
 90
      499
 91
      501
 93
      420
310
425499585B1A5CDD1A58D08409028333333333333E3BF0000000000000FB01079019070040501508421405064090741402480A1B40
1001
ACAD
1000
AcDbSavedByObjectVersion
1070
     0
  0
ACAD_PROXY_OBJECT
  5
37
102
{ACAD_REACTORS
330
2A
102
}
330
2A
100
AcDbProxyObject
 90
      499
 91
      501
 93
      412
310
41D51A1A58DAD95B90D409028333333333333E3BF0000000000000FB010790141107004050150C41D405064090741402480A0350
1001
ACAD
1000
AcDbSavedByObjectVersion
1070
     0
  0
XRECORD
  5
6B7
102
{ACAD_REACTORS
330
6AE
102
}
330
6AE
100
AcDbXrecord
 90
        0
  0
XRECORD
  5
6CD
102
{ACAD_REACTORS
330
6AE
102
}
330
6AE
100
AcDbXrecord
1000
DSTYLE
1002
{
1070
   340
340
11
1002
}
  0
XRECORD
  5
6B8
102
{ACAD_REACTORS
330
6AE
102
}
330
6AE
100
AcDbXrecord
  1
{DD3D1304-F9B6-4F36-B169-21B526E9746D}
  0
XRECORD
  5
6B1
102
{ACAD_REACTORS
330
6AE
102
}
330
6AE
100
AcDbXrecord
  1

  0
XRECORD
  5
6B6
102
{ACAD_REACTORS
330
6AE
102
}
330
6AE
100
AcDbXrecord
 90
        4
  0
XRECORD
  5
6B3
102
{ACAD_REACTORS
330
6AE
102
}
330
6AE
100
AcDbXrecord
340
1A
  0
XRECORD
  5
6B5
102
{ACAD_REACTORS
330
6AE
102
}
330
6AE
100
AcDbXrecord
 90
    10269
  0
XRECORD
  5
6B4
102
{ACAD_REACTORS
330
6AE
102
}
330
6AE
100
AcDbXrecord
340
19
  0
XRECORD
  5
6BA
102
{ACAD_REACTORS
330
6AE
102
}
330
6AE
100
AcDbXrecord
 40
0.0
  0
XRECORD
  5
6BD
102
{ACAD_REACTORS
330
6AE
102
}
330
6AE
100
AcDbXrecord
340
0
  0
XRECORD
  5
6C3
102
{ACAD_REACTORS
330
6AE
102
}
330
6AE
100
AcDbXrecord
 10
0.0
 20
0.0
 30
0.0
  0
XRECORD
  5
6BF
102
{ACAD_REACTORS
330
6AE
102
}
330
6AE
100
AcDbXrecord
 10
0.0
 20
0.0
 30
0.0
  0
XRECORD
  5
6C2
102
{ACAD_REACTORS
330
6AE
102
}
330
6AE
100
AcDbXrecord
 10
0.0
 20
0.0
 30
0.0
  0
XRECORD
  5
6C0
102
{ACAD_REACTORS
330
6AE
102
}
330
6AE
100
AcDbXrecord
 10
0.0
 20
0.0
 30
0.0
  0
XRECORD
  5
6C1
102
{ACAD_REACTORS
330
6AE
102
}
330
6AE
100
AcDbXrecord
 10
0.0
 20
0.0
 30
0.0
  0
XRECORD
  5
6BE
102
{ACAD_REACTORS
330
6AE
102
}
330
6AE
100
AcDbXrecord
 10
0.0
 20
0.0
 30
0.0
  0
XRECORD
  5
6BB
102
{ACAD_REACTORS
330
6AE
102
}
330
6AE
100
AcDbXrecord
340
0
  0
XRECORD
  5
6BC
102
{ACAD_REACTORS
330
6AE
102
}
330
6AE
100
AcDbXrecord
 70
     0
  0
XRECORD
  5
6B2
102
{ACAD_REACTORS
330
6AE
102
}
330
6AE
100
AcDbXrecord
  1

  0
XRECORD
  5
6AF
102
{ACAD_REACTORS
330
6AE
102
}
330
6AE
100
AcDbXrecord
 90
        1
  0
XRECORD
  5
6B0
102
{ACAD_REACTORS
330
6AE
102
}
330
6AE
100
AcDbXrecord
 90
       70
  0
XRECORD
  5
6C6
102
{ACAD_REACTORS
330
6AE
102
}
330
6AE
100
AcDbXrecord
340
0
  0
XRECORD
  5
6CC
102
{ACAD_REACTORS
330
6AE
102
}
330
6AE
100
AcDbXrecord
 10
0.0
 20
0.0
 30
0.0
  0
XRECORD
  5
6C8
102
{ACAD_REACTORS
330
6AE
102
}
330
6AE
100
AcDbXrecord
 10
0.0
 20
0.0
 30
0.0
  0
XRECORD
  5
6CB
102
{ACAD_REACTORS
330
6AE
102
}
330
6AE
100
AcDbXrecord
 10
0.0
 20
0.0
 30
0.0
  0
XRECORD
  5
6C9
102
{ACAD_REACTORS
330
6AE
102
}
330
6AE
100
AcDbXrecord
 10
0.0
 20
0.0
 30
0.0
  0
XRECORD
  5
6CA
102
{ACAD_REACTORS
330
6AE
102
}
330
6AE
100
AcDbXrecord
 10
0.0
 20
0.0
 30
0.0
  0
XRECORD
  5
6C7
102
{ACAD_REACTORS
330
6AE
102
}
330
6AE
100
AcDbXrecord
 10
0.0
 20
0.0
 30
0.0
  0
XRECORD
  5
6C4
102
{ACAD_REACTORS
330
6AE
102
}
330
6AE
100
AcDbXrecord
340
0
  0
XRECORD
  5
6C5
102
{ACAD_REACTORS
330
6AE
102
}
330
6AE
100
AcDbXrecord
 70
     0
  0
XRECORD
  5
6B9
102
{ACAD_REACTORS
330
6AE
102
}
330
6AE
100
AcDbXrecord
  1
{FAEB1C32-E019-11D5-929B-00C0DF256EC4}
  0
DICTIONARYVAR
  5
6D1
102
{ACAD_REACTORS
330
6CE
102
}
330
6CE
100
DictionaryVariables
280
     0
  1
2
  0
DICTIONARYVAR
  5
6D2
102
{ACAD_REACTORS
330
6CE
102
}
330
6CE
100
DictionaryVariables
280
     0
  1
1
  0
DICTIONARY
  5
6D5
330
3D
100
AcDbDictionary
280
     1
  3
ACAD_XREC_ROUNDTRIP
360
6D6
  0
DICTIONARY
  5
6D3
330
3C
100
AcDbDictionary
280
     1
  3
ACAD_XREC_ROUNDTRIP
360
6D4
  0
DICTIONARY
  5
6D7
330
3E
100
AcDbDictionary
280
     1
  3
ACAD_XREC_ROUNDTRIP
360
6D8
  0
XRECORD
  5
6D6
102
{ACAD_REACTORS
330
6D5
102
}
330
6D5
100
AcDbXrecord
102
MATERIAL
148
0.0
149
0.0
149
0.0
 93
        0
 94
      127
282
     0
 72
     1
 77
     1
171
     1
175
     1
179
     1
273
     0
  0
XRECORD
  5
6D4
102
{ACAD_REACTORS
330
6D3
102
}
330
6D3
100
AcDbXrecord
102
MATERIAL
148
0.0
149
0.0
149
0.0
 93
        0
 94
      127
282
     0
 72
     1
 77
     1
171
     1
175
     1
179
     1
273
     0
  0
XRECORD
  5
6D8
102
{ACAD_REACTORS
330
6D7
102
}
330
6D7
100
AcDbXrecord
102
MATERIAL
148
0.0
149
0.0
149
0.0
 93
        0
 94
      127
282
     0
 72
     1
 77
     1
171
     1
175
     1
179
     1
273
     0
  0
ENDSEC
  0
EOF
