  0
SECTION
  2
HEADER
  9
$ACADVER
  1
AC1014
  9
$ACADMAINTVER
 70
     9
  9
$DWGCODEPAGE
  3
ANSI_1252
  9
$INSBASE
 10
0.0
 20
0.0
 30
0.0
  9
$EXTMIN
 10
1.000000000000000E+20
 20
1.000000000000000E+20
 30
1.000000000000000E+20
  9
$EXTMAX
 10
-1.000000000000000E+20
 20
-1.000000000000000E+20
 30
-1.000000000000000E+20
  9
$LIMMIN
 10
0.0
 20
0.0
  9
$LIMMAX
 10
12.0
 20
9.0
  9
$ORTHOMODE
 70
     0
  9
$REGENMODE
 70
     1
  9
$FILLMODE
 70
     1
  9
$QTEXTMODE
 70
     0
  9
$MIRRTEXT
 70
     1
  9
$DRAGMODE
 70
     2
  9
$LTSCALE
 40
1.0
  9
$OSMODE
 70
    37
  9
$ATTMODE
 70
     1
  9
$TEXTSIZE
 40
0.2
  9
$TRACEWID
 40
0.05
  9
$TEXTSTYLE
  7
STANDARD
  9
$CLAYER
  8
0
  9
$CELTYPE
  6
BYLAYER
  9
$CECOLOR
 62
   256
  9
$CELTSCALE
 40
1.0
  9
$DELOBJ
 70
     1
  9
$DISPSILH
 70
     0
  9
$DIMSCALE
 40
1.0
  9
$DIMASZ
 40
0.18
  9
$DIMEXO
 40
0.0625
  9
$DIMDLI
 40
0.38
  9
$DIMRND
 40
0.0
  9
$DIMDLE
 40
0.0
  9
$DIMEXE
 40
0.18
  9
$DIMTP
 40
0.0
  9
$DIMTM
 40
0.0
  9
$DIMTXT
 40
0.18
  9
$DIMCEN
 40
0.09
  9
$DIMTSZ
 40
0.0
  9
$DIMTOL
 70
     0
  9
$DIMLIM
 70
     0
  9
$DIMTIH
 70
     1
  9
$DIMTOH
 70
     1
  9
$DIMSE1
 70
     0
  9
$DIMSE2
 70
     0
  9
$DIMTAD
 70
     0
  9
$DIMZIN
 70
     0
  9
$DIMBLK
  1

  9
$DIMASO
 70
     1
  9
$DIMSHO
 70
     1
  9
$DIMPOST
  1

  9
$DIMAPOST
  1

  9
$DIMALT
 70
     0
  9
$DIMALTD
 70
     2
  9
$DIMALTF
 40
25.4
  9
$DIMLFAC
 40
1.0
  9
$DIMTOFL
 70
     0
  9
$DIMTVP
 40
0.0
  9
$DIMTIX
 70
     0
  9
$DIMSOXD
 70
     0
  9
$DIMSAH
 70
     0
  9
$DIMBLK1
  1

  9
$DIMBLK2
  1

  9
$DIMSTYLE
  2
STANDARD
  9
$DIMCLRD
 70
     0
  9
$DIMCLRE
 70
     0
  9
$DIMCLRT
 70
     0
  9
$DIMTFAC
 40
1.0
  9
$DIMGAP
 40
0.09
  9
$DIMJUST
 70
     0
  9
$DIMSD1
 70
     0
  9
$DIMSD2
 70
     0
  9
$DIMTOLJ
 70
     1
  9
$DIMTZIN
 70
     0
  9
$DIMALTZ
 70
     0
  9
$DIMALTTZ
 70
     0
  9
$DIMFIT
 70
     3
  9
$DIMUPT
 70
     0
  9
$DIMUNIT
 70
     2
  9
$DIMDEC
 70
     4
  9
$DIMTDEC
 70
     4
  9
$DIMALTU
 70
     2
  9
$DIMALTTD
 70
     2
  9
$DIMTXSTY
  7
STANDARD
  9
$DIMAUNIT
 70
     0
  9
$LUNITS
 70
     2
  9
$LUPREC
 70
     4
  9
$SKETCHINC
 40
0.1
  9
$FILLETRAD
 40
0.5
  9
$AUNITS
 70
     0
  9
$AUPREC
 70
     0
  9
$MENU
  1
.
  9
$ELEVATION
 40
0.0
  9
$PELEVATION
 40
0.0
  9
$THICKNESS
 40
0.0
  9
$LIMCHECK
 70
     0
  9
$CHAMFERA
 40
0.5
  9
$CHAMFERB
 40
0.5
  9
$CHAMFERC
 40
1.0
  9
$CHAMFERD
 40
0.0
  9
$SKPOLY
 70
     0
  9
$TDCREATE
 40
2458897.479563148
  9
$TDUPDATE
 40
2458897.479563403
  9
$TDINDWG
 40
0.0000000116
  9
$TDUSRTIMER
 40
0.0000000116
  9
$USRTIMER
 70
     1
  9
$ANGBASE
 50
0.0
  9
$ANGDIR
 70
     0
  9
$PDMODE
 70
     0
  9
$PDSIZE
 40
0.0
  9
$PLINEWID
 40
0.0
  9
$COORDS
 70
     1
  9
$SPLFRAME
 70
     0
  9
$SPLINETYPE
 70
     6
  9
$SPLINESEGS
 70
     8
  9
$ATTDIA
 70
     0
  9
$ATTREQ
 70
     1
  9
$HANDLING
 70
     1
  9
$HANDSEED
  5
712
  9
$SURFTAB1
 70
     6
  9
$SURFTAB2
 70
     6
  9
$SURFTYPE
 70
     6
  9
$SURFU
 70
     6
  9
$SURFV
 70
     6
  9
$UCSNAME
  2

  9
$UCSORG
 10
0.0
 20
0.0
 30
0.0
  9
$UCSXDIR
 10
1.0
 20
0.0
 30
0.0
  9
$UCSYDIR
 10
0.0
 20
1.0
 30
0.0
  9
$PUCSNAME
  2

  9
$PUCSORG
 10
0.0
 20
0.0
 30
0.0
  9
$PUCSXDIR
 10
1.0
 20
0.0
 30
0.0
  9
$PUCSYDIR
 10
0.0
 20
1.0
 30
0.0
  9
$USERI1
 70
     0
  9
$USERI2
 70
     0
  9
$USERI3
 70
     0
  9
$USERI4
 70
     0
  9
$USERI5
 70
     0
  9
$USERR1
 40
0.0
  9
$USERR2
 40
0.0
  9
$USERR3
 40
0.0
  9
$USERR4
 40
0.0
  9
$USERR5
 40
0.0
  9
$WORLDVIEW
 70
     1
  9
$SHADEDGE
 70
     3
  9
$SHADEDIF
 70
    70
  9
$TILEMODE
 70
     1
  9
$MAXACTVP
 70
    64
  9
$PINSBASE
 10
0.0
 20
0.0
 30
0.0
  9
$PLIMCHECK
 70
     0
  9
$PEXTMIN
 10
1.000000000000000E+20
 20
1.000000000000000E+20
 30
1.000000000000000E+20
  9
$PEXTMAX
 10
-1.000000000000000E+20
 20
-1.000000000000000E+20
 30
-1.000000000000000E+20
  9
$PLIMMIN
 10
0.0
 20
0.0
  9
$PLIMMAX
 10
12.0
 20
9.0
  9
$UNITMODE
 70
     0
  9
$VISRETAIN
 70
     1
  9
$PLINEGEN
 70
     0
  9
$PSLTSCALE
 70
     1
  9
$TREEDEPTH
 70
  3020
  9
$PICKSTYLE
 70
     1
  9
$CMLSTYLE
  2
STANDARD
  9
$CMLJUST
 70
     0
  9
$CMLSCALE
 40
1.0
  9
$PROXYGRAPHICS
 70
     1
  9
$MEASUREMENT
 70
     0
  0
ENDSEC
  0
SECTION
  2
CLASSES
  0
CLASS
  1
ACDBDICTIONARYWDFLT
  2
AcDbDictionaryWithDefault
  3
ObjectDBX Classes
 90
        0
280
     0
281
     0
  0
CLASS
  1
VISUALSTYLE
  2
AcDbVisualStyle
  3
ObjectDBX Classes
 90
     4095
280
     0
281
     0
  0
CLASS
  1
MATERIAL
  2
AcDbMaterial
  3
ObjectDBX Classes
 90
     1153
280
     0
281
     0
  0
CLASS
  1
SUN
  2
AcDbSun
  3
SCENEOE
 90
     1024
280
     0
281
     0
  0
CLASS
  1
DICTIONARYVAR
  2
AcDbDictionaryVar
  3
ObjectDBX Classes
 90
        0
280
     0
281
     0
  0
CLASS
  1
XRECORD
  2
AcDbXrecord
  3
AutoCAD 2000
 90
        0
280
     0
281
     0
  0
CLASS
  1
LWPOLYLINE
  2
AcDbPolyline
  3
AutoCAD 2000
 90
        0
280
     0
281
     1
  0
CLASS
  1
HATCH
  2
AcDbHatch
  3
AutoCAD 2000
 90
        0
280
     0
281
     1
  0
CLASS
  1
ACDBPLACEHOLDER
  2
AcDbPlaceHolder
  3
ObjectDBX Classes
 90
        0
280
     0
281
     0
  0
CLASS
  1
LAYOUT
  2
AcDbLayout
  3
ObjectDBX Classes
 90
        0
280
     0
281
     0
  0
ENDSEC
  0
SECTION
  2
TABLES
  0
TABLE
  2
VPORT
  5
8
330
0
100
AcDbSymbolTable
 70
     1
  0
VPORT
  5
29
330
8
100
AcDbSymbolTableRecord
100
AcDbViewportTableRecord
  2
*ACTIVE
 70
     0
 10
0.0
 20
0.0
 11
1.0
 21
1.0
 12
0.0
 22
0.0
 13
0.0
 23
0.0
 14
0.5
 24
0.5
 15
0.5
 25
0.5
 16
0.0
 26
0.0
 36
1.0
 17
100.0611110860992
 27
127.0194444126945
 37
0.0
 40
296.9999999257403
 41
0.7070707070707531
 42
50.0
 43
0.0
 44
0.0
 50
0.0
 51
0.0
 71
     0
 72
   100
 73
     1
 74
     3
 75
     0
 76
     0
 77
     0
 78
     0
  0
ENDTAB
  0
TABLE
  2
LTYPE
  5
5
330
0
100
AcDbSymbolTable
 70
     4
  0
LTYPE
  5
14
330
5
100
AcDbSymbolTableRecord
100
AcDbLinetypeTableRecord
  2
BYBLOCK
 70
     0
  3

 72
    65
 73
     0
 40
0.0
  0
LTYPE
  5
15
330
5
100
AcDbSymbolTableRecord
100
AcDbLinetypeTableRecord
  2
BYLAYER
 70
     0
  3

 72
    65
 73
     0
 40
0.0
  0
LTYPE
  5
16
330
5
100
AcDbSymbolTableRecord
100
AcDbLinetypeTableRecord
  2
CONTINUOUS
 70
     0
  3
Solid line
 72
    65
 73
     0
 40
0.0
  0
LTYPE
  5
44
330
5
100
AcDbSymbolTableRecord
100
AcDbLinetypeTableRecord
  2
AI-LINETYPE-1
 70
     0
  3
Adobe Illustrator Linetype No. 1
 72
    65
 73
     4
 40
5.997222220722918
 49
4.233333332275
 74
     0
 49
-0.7055555553791667
 74
     0
 49
0.3527777776895833
 74
     0
 49
-0.7055555553791667
 74
     0
  0
LTYPE
  5
49
330
5
100
AcDbSymbolTableRecord
100
AcDbLinetypeTableRecord
  2
AI-LINETYPE-2
 70
     0
  3
Adobe Illustrator Linetype No. 2
 72
    65
 73
     4
 40
5.997222220722918
 49
4.233333332275
 74
     0
 49
-0.7055555553791667
 74
     0
 49
0.3527777776895833
 74
     0
 49
-0.7055555553791667
 74
     0
  0
LTYPE
  5
4E
330
5
100
AcDbSymbolTableRecord
100
AcDbLinetypeTableRecord
  2
AI-LINETYPE-3
 70
     0
  3
Adobe Illustrator Linetype No. 3
 72
    65
 73
     4
 40
5.997222220722918
 49
4.233333332275
 74
     0
 49
-0.7055555553791667
 74
     0
 49
0.3527777776895833
 74
     0
 49
-0.7055555553791667
 74
     0
  0
ENDTAB
  0
TABLE
  2
LAYER
  5
2
330
0
100
AcDbSymbolTable
 70
     5
  0
LAYER
  5
10
330
2
100
AcDbSymbolTableRecord
100
AcDbLayerTableRecord
  2
0
 70
     0
 62
     7
  6
CONTINUOUS
  0
LAYER
  5
40
330
2
100
AcDbSymbolTableRecord
100
AcDbLayerTableRecord
  2
GRAU_10_
 70
     0
 62
     7
  6
CONTINUOUS
  0
LAYER
  5
1CB
330
2
100
AcDbSymbolTableRecord
100
AcDbLayerTableRecord
  2
STANDARDEBENE
 70
     0
 62
     7
  6
CONTINUOUS
  0
LAYER
  5
48A
330
2
100
AcDbSymbolTableRecord
100
AcDbLayerTableRecord
  2
BEMA_U_00DFUNG
 70
     1
 62
     7
  6
CONTINUOUS
  0
LAYER
  5
6E3
330
2
100
AcDbSymbolTableRecord
100
AcDbLayerTableRecord
  2
TEXT
 70
     1
 62
     7
  6
CONTINUOUS
  0
ENDTAB
  0
TABLE
  2
STYLE
  5
3
330
0
100
AcDbSymbolTable
 70
     1
  0
STYLE
  5
11
330
3
100
AcDbSymbolTableRecord
100
AcDbTextStyleTableRecord
  2
STANDARD
 70
     0
 40
0.0
 41
1.0
 50
0.0
 71
     0
 42
0.2
  3
txt
  4

  0
ENDTAB
  0
TABLE
  2
VIEW
  5
6
330
0
100
AcDbSymbolTable
 70
     0
  0
ENDTAB
  0
TABLE
  2
UCS
  5
7
330
0
100
AcDbSymbolTable
 70
     0
  0
ENDTAB
  0
TABLE
  2
APPID
  5
9
330
0
100
AcDbSymbolTable
 70
     1
  0
APPID
  5
12
330
9
100
AcDbSymbolTableRecord
100
AcDbRegAppTableRecord
  2
ACAD
 70
     0
  0
ENDTAB
  0
TABLE
  2
DIMSTYLE
  5
A
330
0
100
AcDbSymbolTable
 70
     1
  0
DIMSTYLE
105
27
330
A
100
AcDbSymbolTableRecord
100
AcDbDimStyleTableRecord
  2
STANDARD
 70
     0
  3

  4

  5

  6

  7

 40
1.0
 41
0.18
 42
0.0625
 43
0.38
 44
0.18
 45
0.0
 46
0.0
 47
0.0
 48
0.0
140
0.18
141
0.09
142
0.0
143
25.4
144
1.0
145
0.0
146
1.0
147
0.09
 71
     0
 72
     0
 73
     1
 74
     1
 75
     0
 76
     0
 77
     0
 78
     0
170
     0
171
     2
172
     0
173
     0
174
     0
175
     0
176
     0
177
     0
178
     0
270
     2
271
     4
272
     4
273
     2
274
     2
340
11
275
     0
280
     0
281
     0
282
     0
283
     1
284
     0
285
     0
286
     0
287
     3
288
     0
  0
ENDTAB
  0
TABLE
  2
BLOCK_RECORD
  5
1
330
0
100
AcDbSymbolTable
 70
     1
  0
BLOCK_RECORD
  5
1F
330
1
100
AcDbSymbolTableRecord
100
AcDbBlockTableRecord
  2
*MODEL_SPACE
  0
BLOCK_RECORD
  5
1B
330
1
100
AcDbSymbolTableRecord
100
AcDbBlockTableRecord
  2
*PAPER_SPACE
  0
ENDTAB
  0
ENDSEC
  0
SECTION
  2
BLOCKS
  0
BLOCK
  5
20
330
1F
100
AcDbEntity
  8
0
100
AcDbBlockBegin
  2
*MODEL_SPACE
 70
     0
 10
0.0
 20
0.0
 30
0.0
  3
*MODEL_SPACE
  1

  0
ENDBLK
  5
21
330
1F
100
AcDbEntity
  8
0
100
AcDbBlockEnd
  0
BLOCK
  5
1C
330
1B
100
AcDbEntity
 67
     1
  8
0
100
AcDbBlockBegin
  2
*PAPER_SPACE
 70
     0
 10
0.0
 20
0.0
 30
0.0
  3
*PAPER_SPACE
  1

  0
ENDBLK
  5
1D
330
1B
100
AcDbEntity
 67
     1
  8
0
100
AcDbBlockEnd
  0
ENDSEC
  0
SECTION
  2
ENTITIES
  0
POLYLINE
  5
41
330
1F
100
AcDbEntity
  8
GRAU_10_
  6
AI-LINETYPE-1
 62
   250
100
AcDb2dPolyline
 66
     1
 10
0.0
 20
0.0
 30
0.0
  0
VERTEX
  5
42
330
41
100
AcDbEntity
  8
GRAU_10_
  6
AI-LINETYPE-1
 62
   250
100
AcDbVertex
100
AcDb2dVertex
 10
112.7977896290109
 20
204.8919614450879
 30
0.0
  0
VERTEX
  5
43
330
41
100
AcDbEntity
  8
GRAU_10_
  6
AI-LINETYPE-1
 62
   250
100
AcDbVertex
100
AcDb2dVertex
 10
137.552112465612
 20
204.8919614450879
 30
0.0
  0
SEQEND
  5
45
330
41
100
AcDbEntity
  8
GRAU_10_
  6
AI-LINETYPE-1
 62
   250
  0
POLYLINE
  5
46
330
1F
100
AcDbEntity
  8
GRAU_10_
  6
AI-LINETYPE-2
 62
   250
100
AcDb2dPolyline
 66
     1
 10
0.0
 20
0.0
 30
0.0
  0
VERTEX
  5
47
330
46
100
AcDbEntity
  8
GRAU_10_
  6
AI-LINETYPE-2
 62
   250
100
AcDbVertex
100
AcDb2dVertex
 10
51.88902498702758
 20
186.0414893151914
 30
0.0
  0
VERTEX
  5
48
330
46
100
AcDbEntity
  8
GRAU_10_
  6
AI-LINETYPE-2
 62
   250
100
AcDbVertex
100
AcDb2dVertex
 10
51.88902498702758
 20
228.7351063257947
 30
0.0
  0
SEQEND
  5
4A
330
46
100
AcDbEntity
  8
GRAU_10_
  6
AI-LINETYPE-2
 62
   250
  0
POLYLINE
  5
4B
330
1F
100
AcDbEntity
  8
GRAU_10_
  6
AI-LINETYPE-3
 62
   250
100
AcDb2dPolyline
 66
     1
 10
0.0
 20
0.0
 30
0.0
  0
VERTEX
  5
4C
330
4B
100
AcDbEntity
  8
GRAU_10_
  6
AI-LINETYPE-3
 62
   250
100
AcDbVertex
100
AcDb2dVertex
 10
32.63569739136814
 20
204.8919614450879
 30
0.0
  0
VERTEX
  5
4D
330
4B
100
AcDbEntity
  8
GRAU_10_
  6
AI-LINETYPE-3
 62
   250
100
AcDbVertex
100
AcDb2dVertex
 10
70.1952718500634
 20
204.8919614450879
 30
0.0
  0
SEQEND
  5
4F
330
4B
100
AcDbEntity
  8
GRAU_10_
  6
AI-LINETYPE-3
 62
   250
  0
POLYLINE
  5
50
330
1F
100
AcDbEntity
  8
GRAU_10_
 62
   250
100
AcDb2dPolyline
 66
     1
 10
0.0
 20
0.0
 30
0.0
  0
VERTEX
  5
51
330
50
100
AcDbEntity
  8
GRAU_10_
 62
   250
100
AcDbVertex
100
AcDb2dVertex
 10
114.1518333047957
 20
187.891600338227
 30
0.0
  0
VERTEX
  5
52
330
50
100
AcDbEntity
  8
GRAU_10_
 62
   250
100
AcDbVertex
100
AcDb2dVertex
 10
133.8523555220925
 20
187.891600338227
 30
0.0
  0
SEQEND
  5
53
330
50
100
AcDbEntity
  8
GRAU_10_
 62
   250
  0
POLYLINE
  5
54
330
1F
100
AcDbEntity
  8
GRAU_10_
 62
   250
100
AcDb2dPolyline
 66
     1
 10
0.0
 20
0.0
 30
0.0
  0
VERTEX
  5
55
330
54
100
AcDbEntity
  8
GRAU_10_
 62
   250
100
AcDbVertex
100
AcDb2dVertex
 10
114.1518333047957
 20
187.891600338227
 30
0.0
  0
VERTEX
  5
56
330
54
100
AcDbEntity
  8
GRAU_10_
 62
   250
100
AcDbVertex
100
AcDb2dVertex
 10
114.1518333047957
 20
187.9988447826447
 30
0.0
  0
VERTEX
  5
57
330
54
100
AcDbEntity
  8
GRAU_10_
 62
   250
100
AcDbVertex
100
AcDb2dVertex
 10
114.1518333047957
 20
188.3198725603422
 30
0.0
  0
VERTEX
  5
58
330
54
100
AcDbEntity
  8
GRAU_10_
 62
   250
100
AcDbVertex
100
AcDb2dVertex
 10
114.1518333047957
 20
188.8493920046543
 30
0.0
  0
VERTEX
  5
59
330
54
100
AcDbEntity
  8
GRAU_10_
 62
   250
100
AcDbVertex
100
AcDb2dVertex
 10
114.1518333047957
 20
189.5817586711375
 30
0.0
  0
VERTEX
  5
5A
330
54
100
AcDbEntity
  8
GRAU_10_
 62
   250
100
AcDbVertex
100
AcDb2dVertex
 10
114.1518333047957
 20
190.5067420042398
 30
0.0
  0
VERTEX
  5
5B
330
54
100
AcDbEntity
  8
GRAU_10_
 62
   250
100
AcDbVertex
100
AcDb2dVertex
 10
114.1518333047957
 20
191.6137586706296
 30
0.0
  0
VERTEX
  5
5C
330
54
100
AcDbEntity
  8
GRAU_10_
 62
   250
100
AcDbVertex
100
AcDb2dVertex
 10
114.1518333047957
 20
192.8879920036444
 30
0.0
  0
VERTEX
  5
5D
330
54
100
AcDbEntity
  8
GRAU_10_
 62
   250
100
AcDbVertex
100
AcDb2dVertex
 10
114.1518333047957
 20
194.3142725588436
 30
0.0
  0
VERTEX
  5
5E
330
54
100
AcDbEntity
  8
GRAU_10_
 62
   250
100
AcDbVertex
100
AcDb2dVertex
 10
114.1518333047957
 20
195.8735503362316
 30
0.0
  0
VERTEX
  5
5F
330
54
100
AcDbEntity
  8
GRAU_10_
 62
   250
100
AcDbVertex
100
AcDb2dVertex
 10
114.1518333047957
 20
197.5471281135906
 30
0.0
  0
VERTEX
  5
60
330
54
100
AcDbEntity
  8
GRAU_10_
 62
   250
100
AcDbVertex
100
AcDb2dVertex
 10
114.1518333047957
 20
199.3127808909273
 30
0.0
  0
VERTEX
  5
61
330
54
100
AcDbEntity
  8
GRAU_10_
 62
   250
100
AcDbVertex
100
AcDb2dVertex
 10
114.1518333047957
 20
201.1493420015793
 30
0.0
  0
VERTEX
  5
62
330
54
100
AcDbEntity
  8
GRAU_10_
 62
   250
100
AcDbVertex
100
AcDb2dVertex
 10
114.1518333047957
 20
203.0331753344417
 30
0.0
  0
VERTEX
  5
63
330
54
100
AcDbEntity
  8
GRAU_10_
 62
   250
100
AcDbVertex
100
AcDb2dVertex
 10
114.1518333047957
 20
204.9399392228535
 30
0.0
  0
VERTEX
  5
64
330
54
100
AcDbEntity
  8
GRAU_10_
 62
   250
100
AcDbVertex
100
AcDb2dVertex
 10
114.1518333047957
 20
206.8463503334882
 30
0.0
  0
VERTEX
  5
65
330
54
100
AcDbEntity
  8
GRAU_10_
 62
   250
100
AcDbVertex
100
AcDb2dVertex
 10
114.1518333047957
 20
208.7287725552396
 30
0.0
  0
VERTEX
  5
66
330
54
100
AcDbEntity
  8
GRAU_10_
 62
   250
100
AcDbVertex
100
AcDb2dVertex
 10
114.1518333047957
 20
210.5621586658924
 30
0.0
  0
VERTEX
  5
67
330
54
100
AcDbEntity
  8
GRAU_10_
 62
   250
100
AcDbVertex
100
AcDb2dVertex
 10
114.1518333047957
 20
212.3235781098966
 30
0.0
  0
VERTEX
  5
68
330
54
100
AcDbEntity
  8
GRAU_10_
 62
   250
100
AcDbVertex
100
AcDb2dVertex
 10
114.1518333047957
 20
213.9918642205907
 30
0.0
  0
VERTEX
  5
69
330
54
100
AcDbEntity
  8
GRAU_10_
 62
   250
100
AcDbVertex
100
AcDb2dVertex
 10
114.1518333047957
 20
215.5451447757577
 30
0.0
  0
VERTEX
  5
6A
330
54
100
AcDbEntity
  8
GRAU_10_
 62
   250
100
AcDbVertex
100
AcDb2dVertex
 10
114.1518333047957
 20
216.9636642198478
 30
0.0
  0
VERTEX
  5
6B
330
54
100
AcDbEntity
  8
GRAU_10_
 62
   250
100
AcDbVertex
100
AcDb2dVertex
 10
114.1518333047957
 20
218.2304892195312
 30
0.0
  0
SEQEND
  5
6C
330
54
100
AcDbEntity
  8
GRAU_10_
 62
   250
  0
POLYLINE
  5
6D
330
1F
100
AcDbEntity
  8
GRAU_10_
 62
   250
100
AcDb2dPolyline
 66
     1
 10
0.0
 20
0.0
 30
0.0
  0
VERTEX
  5
6E
330
6D
100
AcDbEntity
  8
GRAU_10_
 62
   250
100
AcDbVertex
100
AcDb2dVertex
 10
133.8523555220925
 20
218.2304892195312
 30
0.0
  0
VERTEX
  5
6F
330
6D
100
AcDbEntity
  8
GRAU_10_
 62
   250
100
AcDbVertex
100
AcDb2dVertex
 10
133.8523555220925
 20
216.9636642198478
 30
0.0
  0
VERTEX
  5
70
330
6D
100
AcDbEntity
  8
GRAU_10_
 62
   250
100
AcDbVertex
100
AcDb2dVertex
 10
133.8523555220925
 20
215.5451447757577
 30
0.0
  0
VERTEX
  5
71
330
6D
100
AcDbEntity
  8
GRAU_10_
 62
   250
100
AcDbVertex
100
AcDb2dVertex
 10
133.8523555220925
 20
213.9918642205907
 30
0.0
  0
VERTEX
  5
72
330
6D
100
AcDbEntity
  8
GRAU_10_
 62
   250
100
AcDbVertex
100
AcDb2dVertex
 10
133.8523555220925
 20
212.3235781098966
 30
0.0
  0
VERTEX
  5
73
330
6D
100
AcDbEntity
  8
GRAU_10_
 62
   250
100
AcDbVertex
100
AcDb2dVertex
 10
133.8523555220925
 20
210.5621586658924
 30
0.0
  0
VERTEX
  5
74
330
6D
100
AcDbEntity
  8
GRAU_10_
 62
   250
100
AcDbVertex
100
AcDb2dVertex
 10
133.8523555220925
 20
208.7287725552396
 30
0.0
  0
VERTEX
  5
75
330
6D
100
AcDbEntity
  8
GRAU_10_
 62
   250
100
AcDbVertex
100
AcDb2dVertex
 10
133.8523555220925
 20
206.8463503334882
 30
0.0
  0
VERTEX
  5
76
330
6D
100
AcDbEntity
  8
GRAU_10_
 62
   250
100
AcDbVertex
100
AcDb2dVertex
 10
133.8523555220925
 20
204.9399392228535
 30
0.0
  0
VERTEX
  5
77
330
6D
100
AcDbEntity
  8
GRAU_10_
 62
   250
100
AcDbVertex
100
AcDb2dVertex
 10
133.8523555220925
 20
203.0331753344417
 30
0.0
  0
VERTEX
  5
78
330
6D
100
AcDbEntity
  8
GRAU_10_
 62
   250
100
AcDbVertex
100
AcDb2dVertex
 10
133.8523555220925
 20
201.1493420015793
 30
0.0
  0
VERTEX
  5
79
330
6D
100
AcDbEntity
  8
GRAU_10_
 62
   250
100
AcDbVertex
100
AcDb2dVertex
 10
133.8523555220925
 20
199.3127808909273
 30
0.0
  0
VERTEX
  5
7A
330
6D
100
AcDbEntity
  8
GRAU_10_
 62
   250
100
AcDbVertex
100
AcDb2dVertex
 10
133.8523555220925
 20
197.5471281135906
 30
0.0
  0
VERTEX
  5
7B
330
6D
100
AcDbEntity
  8
GRAU_10_
 62
   250
100
AcDbVertex
100
AcDb2dVertex
 10
133.8523555220925
 20
195.8735503362316
 30
0.0
  0
VERTEX
  5
7C
330
6D
100
AcDbEntity
  8
GRAU_10_
 62
   250
100
AcDbVertex
100
AcDb2dVertex
 10
133.8523555220925
 20
194.3142725588436
 30
0.0
  0
VERTEX
  5
7D
330
6D
100
AcDbEntity
  8
GRAU_10_
 62
   250
100
AcDbVertex
100
AcDb2dVertex
 10
133.8523555220925
 20
192.8879920036444
 30
0.0
  0
VERTEX
  5
7E
330
6D
100
AcDbEntity
  8
GRAU_10_
 62
   250
100
AcDbVertex
100
AcDb2dVertex
 10
133.8523555220925
 20
191.6137586706296
 30
0.0
  0
VERTEX
  5
7F
330
6D
100
AcDbEntity
  8
GRAU_10_
 62
   250
100
AcDbVertex
100
AcDb2dVertex
 10
133.8523555220925
 20
190.5067420042398
 30
0.0
  0
VERTEX
  5
80
330
6D
100
AcDbEntity
  8
GRAU_10_
 62
   250
100
AcDbVertex
100
AcDb2dVertex
 10
133.8523555220925
 20
189.5817586711375
 30
0.0
  0
VERTEX
  5
81
330
6D
100
AcDbEntity
  8
GRAU_10_
 62
   250
100
AcDbVertex
100
AcDb2dVertex
 10
133.8523555220925
 20
188.8493920046543
 30
0.0
  0
VERTEX
  5
82
330
6D
100
AcDbEntity
  8
GRAU_10_
 62
   250
100
AcDbVertex
100
AcDb2dVertex
 10
133.8523555220925
 20
188.3198725603422
 30
0.0
  0
VERTEX
  5
83
330
6D
100
AcDbEntity
  8
GRAU_10_
 62
   250
100
AcDbVertex
100
AcDb2dVertex
 10
133.8523555220925
 20
187.9988447826447
 30
0.0
  0
VERTEX
  5
84
330
6D
100
AcDbEntity
  8
GRAU_10_
 62
   250
100
AcDbVertex
100
AcDb2dVertex
 10
133.8523555220925
 20
187.891600338227
 30
0.0
  0
SEQEND
  5
85
330
6D
100
AcDbEntity
  8
GRAU_10_
 62
   250
  0
POLYLINE
  5
86
330
1F
100
AcDbEntity
  8
GRAU_10_
 62
   250
100
AcDb2dPolyline
 66
     1
 10
0.0
 20
0.0
 30
0.0
  0
VERTEX
  5
87
330
86
100
AcDbEntity
  8
GRAU_10_
 62
   250
100
AcDbVertex
100
AcDb2dVertex
 10
114.0519971937094
 20
189.3919642267407
 30
0.0
  0
VERTEX
  5
88
330
86
100
AcDbEntity
  8
GRAU_10_
 62
   250
100
AcDbVertex
100
AcDb2dVertex
 10
114.0519971937094
 20
189.4963864489366
 30
0.0
  0
VERTEX
  5
89
330
86
100
AcDbEntity
  8
GRAU_10_
 62
   250
100
AcDbVertex
100
AcDb2dVertex
 10
114.0519971937094
 20
189.8096531155252
 30
0.0
  0
VERTEX
  5
8A
330
86
100
AcDbEntity
  8
GRAU_10_
 62
   250
100
AcDbVertex
100
AcDb2dVertex
 10
114.0519971937094
 20
190.3268253376183
 30
0.0
  0
VERTEX
  5
8B
330
86
100
AcDbEntity
  8
GRAU_10_
 62
   250
100
AcDbVertex
100
AcDb2dVertex
 10
114.0519971937094
 20
191.0408475596618
 30
0.0
  0
VERTEX
  5
8C
330
86
100
AcDbEntity
  8
GRAU_10_
 62
   250
100
AcDbVertex
100
AcDb2dVertex
 10
114.0519971937094
 20
191.941842003881
 30
0.0
  0
VERTEX
  5
8D
330
86
100
AcDbEntity
  8
GRAU_10_
 62
   250
100
AcDbVertex
100
AcDb2dVertex
 10
114.0519971937094
 20
193.0185197813895
 30
0.0
  0
VERTEX
  5
8E
330
86
100
AcDbEntity
  8
GRAU_10_
 62
   250
100
AcDbVertex
100
AcDb2dVertex
 10
114.0519971937094
 20
194.2550058921916
 30
0.0
  0
VERTEX
  5
8F
330
86
100
AcDbEntity
  8
GRAU_10_
 62
   250
100
AcDbVertex
100
AcDb2dVertex
 10
114.0519971937094
 20
195.6357781140685
 30
0.0
  0
VERTEX
  5
90
330
86
100
AcDbEntity
  8
GRAU_10_
 62
   250
100
AcDbVertex
100
AcDb2dVertex
 10
114.0519971937094
 20
197.1417864470254
 30
0.0
  0
VERTEX
  5
91
330
86
100
AcDbEntity
  8
GRAU_10_
 62
   250
100
AcDbVertex
100
AcDb2dVertex
 10
114.0519971937094
 20
198.7529225577338
 30
0.0
  0
VERTEX
  5
92
330
86
100
AcDbEntity
  8
GRAU_10_
 62
   250
100
AcDbVertex
100
AcDb2dVertex
 10
114.0519971937094
 20
200.4466086684216
 30
0.0
  0
VERTEX
  5
93
330
86
100
AcDbEntity
  8
GRAU_10_
 62
   250
100
AcDbVertex
100
AcDb2dVertex
 10
114.0519971937094
 20
202.2006197790941
 30
0.0
  0
VERTEX
  5
94
330
86
100
AcDbEntity
  8
GRAU_10_
 62
   250
100
AcDbVertex
100
AcDb2dVertex
 10
114.0519971937094
 20
203.9906142230912
 30
0.0
  0
VERTEX
  5
95
330
86
100
AcDbEntity
  8
GRAU_10_
 62
   250
100
AcDbVertex
100
AcDb2dVertex
 10
114.0519971937094
 20
205.7933086670846
 30
0.0
  0
VERTEX
  5
96
330
86
100
AcDbEntity
  8
GRAU_10_
 62
   250
100
AcDbVertex
100
AcDb2dVertex
 10
114.0519971937094
 20
207.5836558888595
 30
0.0
  0
VERTEX
  5
97
330
86
100
AcDbEntity
  8
GRAU_10_
 62
   250
100
AcDbVertex
100
AcDb2dVertex
 10
114.0519971937094
 20
209.337666999532
 30
0.0
  0
VERTEX
  5
98
330
86
100
AcDbEntity
  8
GRAU_10_
 62
   250
100
AcDbVertex
100
AcDb2dVertex
 10
114.0519971937094
 20
211.031000332442
 30
0.0
  0
VERTEX
  5
99
330
86
100
AcDbEntity
  8
GRAU_10_
 62
   250
100
AcDbVertex
100
AcDb2dVertex
 10
114.0519971937094
 20
212.6417836653726
 30
0.0
  0
VERTEX
  5
9A
330
86
100
AcDbEntity
  8
GRAU_10_
 62
   250
100
AcDbVertex
100
AcDb2dVertex
 10
114.0519971937094
 20
214.1477919983295
 30
0.0
  0
VERTEX
  5
9B
330
86
100
AcDbEntity
  8
GRAU_10_
 62
   250
100
AcDbVertex
100
AcDb2dVertex
 10
114.0519971937094
 20
215.5285642202065
 30
0.0
  0
VERTEX
  5
9C
330
86
100
AcDbEntity
  8
GRAU_10_
 62
   250
100
AcDbVertex
100
AcDb2dVertex
 10
114.0519971937094
 20
216.7654031087863
 30
0.0
  0
VERTEX
  5
9D
330
86
100
AcDbEntity
  8
GRAU_10_
 62
   250
100
AcDbVertex
100
AcDb2dVertex
 10
114.0519971937094
 20
217.8420808862948
 30
0.0
  0
VERTEX
  5
9E
330
86
100
AcDbEntity
  8
GRAU_10_
 62
   250
100
AcDbVertex
100
AcDb2dVertex
 10
114.0519971937094
 20
218.743075330514
 30
0.0
  0
VERTEX
  5
9F
330
86
100
AcDbEntity
  8
GRAU_10_
 62
   250
100
AcDbVertex
100
AcDb2dVertex
 10
114.0519971937094
 20
219.4570975525575
 30
0.0
  0
VERTEX
  5
A0
330
86
100
AcDbEntity
  8
GRAU_10_
 62
   250
100
AcDbVertex
100
AcDb2dVertex
 10
114.0519971937094
 20
219.9739169968728
 30
0.0
  0
VERTEX
  5
A1
330
86
100
AcDbEntity
  8
GRAU_10_
 62
   250
100
AcDbVertex
100
AcDb2dVertex
 10
114.0519971937094
 20
220.2871836634614
 30
0.0
  0
VERTEX
  5
A2
330
86
100
AcDbEntity
  8
GRAU_10_
 62
   250
100
AcDbVertex
100
AcDb2dVertex
 10
114.0519971937094
 20
220.3916058856576
 30
0.0
  0
SEQEND
  5
A3
330
86
100
AcDbEntity
  8
GRAU_10_
 62
   250
  0
POLYLINE
  5
A4
330
1F
100
AcDbEntity
  8
GRAU_10_
 62
   250
100
AcDb2dPolyline
 66
     1
 10
0.0
 20
0.0
 30
0.0
  0
VERTEX
  5
A5
330
A4
100
AcDbEntity
  8
GRAU_10_
 62
   250
100
AcDbVertex
100
AcDb2dVertex
 10
133.9521916331788
 20
189.3919642267407
 30
0.0
  0
VERTEX
  5
A6
330
A4
100
AcDbEntity
  8
GRAU_10_
 62
   250
100
AcDbVertex
100
AcDb2dVertex
 10
133.9521916331788
 20
189.4970920044921
 30
0.0
  0
VERTEX
  5
A7
330
A4
100
AcDbEntity
  8
GRAU_10_
 62
   250
100
AcDbVertex
100
AcDb2dVertex
 10
133.9521916331788
 20
189.8096531155252
 30
0.0
  0
VERTEX
  5
A8
330
A4
100
AcDbEntity
  8
GRAU_10_
 62
   250
100
AcDbVertex
100
AcDb2dVertex
 10
133.9521916331788
 20
190.3268253376183
 30
0.0
  0
VERTEX
  5
A9
330
A4
100
AcDbEntity
  8
GRAU_10_
 62
   250
100
AcDbVertex
100
AcDb2dVertex
 10
133.9521916331788
 20
191.0408475596618
 30
0.0
  0
VERTEX
  5
AA
330
A4
100
AcDbEntity
  8
GRAU_10_
 62
   250
100
AcDbVertex
100
AcDb2dVertex
 10
133.9521916331788
 20
191.9421947816588
 30
0.0
  0
VERTEX
  5
AB
330
A4
100
AcDbEntity
  8
GRAU_10_
 62
   250
100
AcDbVertex
100
AcDb2dVertex
 10
133.9521916331788
 20
193.0185197813895
 30
0.0
  0
VERTEX
  5
AC
330
A4
100
AcDbEntity
  8
GRAU_10_
 62
   250
100
AcDbVertex
100
AcDb2dVertex
 10
133.9521916331788
 20
194.2560642255245
 30
0.0
  0
VERTEX
  5
AD
330
A4
100
AcDbEntity
  8
GRAU_10_
 62
   250
100
AcDbVertex
100
AcDb2dVertex
 10
133.9521916331788
 20
195.6368364474018
 30
0.0
  0
VERTEX
  5
AE
330
A4
100
AcDbEntity
  8
GRAU_10_
 62
   250
100
AcDbVertex
100
AcDb2dVertex
 10
133.9521916331788
 20
197.1428447803587
 30
0.0
  0
VERTEX
  5
AF
330
A4
100
AcDbEntity
  8
GRAU_10_
 62
   250
100
AcDbVertex
100
AcDb2dVertex
 10
133.9521916331788
 20
198.7532753355112
 30
0.0
  0
VERTEX
  5
B0
330
A4
100
AcDbEntity
  8
GRAU_10_
 62
   250
100
AcDbVertex
100
AcDb2dVertex
 10
133.9521916331788
 20
200.4473142239768
 30
0.0
  0
VERTEX
  5
B1
330
A4
100
AcDbEntity
  8
GRAU_10_
 62
   250
100
AcDbVertex
100
AcDb2dVertex
 10
133.9521916331788
 20
202.2009725568719
 30
0.0
  0
VERTEX
  5
B2
330
A4
100
AcDbEntity
  8
GRAU_10_
 62
   250
100
AcDbVertex
100
AcDb2dVertex
 10
133.9521916331788
 20
203.9909670008687
 30
0.0
  0
VERTEX
  5
B3
330
A4
100
AcDbEntity
  8
GRAU_10_
 62
   250
100
AcDbVertex
100
AcDb2dVertex
 10
133.9521916331788
 20
205.7933086670846
 30
0.0
  0
VERTEX
  5
B4
330
A4
100
AcDbEntity
  8
GRAU_10_
 62
   250
100
AcDbVertex
100
AcDb2dVertex
 10
133.9521916331788
 20
207.5840086666372
 30
0.0
  0
VERTEX
  5
B5
330
A4
100
AcDbEntity
  8
GRAU_10_
 62
   250
100
AcDbVertex
100
AcDb2dVertex
 10
133.9521916331788
 20
209.337666999532
 30
0.0
  0
VERTEX
  5
B6
330
A4
100
AcDbEntity
  8
GRAU_10_
 62
   250
100
AcDbVertex
100
AcDb2dVertex
 10
133.9521916331788
 20
211.0317058879972
 30
0.0
  0
VERTEX
  5
B7
330
A4
100
AcDbEntity
  8
GRAU_10_
 62
   250
100
AcDbVertex
100
AcDb2dVertex
 10
133.9521916331788
 20
212.6417836653726
 30
0.0
  0
VERTEX
  5
B8
330
A4
100
AcDbEntity
  8
GRAU_10_
 62
   250
100
AcDbVertex
100
AcDb2dVertex
 10
133.9521916331788
 20
214.1477919983295
 30
0.0
  0
VERTEX
  5
B9
330
A4
100
AcDbEntity
  8
GRAU_10_
 62
   250
100
AcDbVertex
100
AcDb2dVertex
 10
133.9521916331788
 20
215.5285642202065
 30
0.0
  0
VERTEX
  5
BA
330
A4
100
AcDbEntity
  8
GRAU_10_
 62
   250
100
AcDbVertex
100
AcDb2dVertex
 10
133.9521916331788
 20
216.7654031087863
 30
0.0
  0
VERTEX
  5
BB
330
A4
100
AcDbEntity
  8
GRAU_10_
 62
   250
100
AcDbVertex
100
AcDb2dVertex
 10
133.9521916331788
 20
217.8420808862948
 30
0.0
  0
VERTEX
  5
BC
330
A4
100
AcDbEntity
  8
GRAU_10_
 62
   250
100
AcDbVertex
100
AcDb2dVertex
 10
133.9521916331788
 20
218.743075330514
 30
0.0
  0
VERTEX
  5
BD
330
A4
100
AcDbEntity
  8
GRAU_10_
 62
   250
100
AcDbVertex
100
AcDb2dVertex
 10
133.9521916331788
 20
219.45674477478
 30
0.0
  0
VERTEX
  5
BE
330
A4
100
AcDbEntity
  8
GRAU_10_
 62
   250
100
AcDbVertex
100
AcDb2dVertex
 10
133.9521916331788
 20
219.9739169968728
 30
0.0
  0
VERTEX
  5
BF
330
A4
100
AcDbEntity
  8
GRAU_10_
 62
   250
100
AcDbVertex
100
AcDb2dVertex
 10
133.9521916331788
 20
220.2871836634614
 30
0.0
  0
VERTEX
  5
C0
330
A4
100
AcDbEntity
  8
GRAU_10_
 62
   250
100
AcDbVertex
100
AcDb2dVertex
 10
133.9521916331788
 20
220.3916058856576
 30
0.0
  0
SEQEND
  5
C1
330
A4
100
AcDbEntity
  8
GRAU_10_
 62
   250
  0
POLYLINE
  5
C2
330
1F
100
AcDbEntity
  8
GRAU_10_
 62
   250
100
AcDb2dPolyline
 66
     1
 10
0.0
 20
0.0
 30
0.0
  0
VERTEX
  5
C3
330
C2
100
AcDbEntity
  8
GRAU_10_
 62
   250
100
AcDbVertex
100
AcDb2dVertex
 10
135.1523416328787
 20
190.2421586709726
 30
0.0
  0
VERTEX
  5
C4
330
C2
100
AcDbEntity
  8
GRAU_10_
 62
   250
100
AcDbVertex
100
AcDb2dVertex
 10
135.1523416328787
 20
190.347286448724
 30
0.0
  0
VERTEX
  5
C5
330
C2
100
AcDbEntity
  8
GRAU_10_
 62
   250
100
AcDbVertex
100
AcDb2dVertex
 10
135.1523416328787
 20
190.6626697819785
 30
0.0
  0
VERTEX
  5
C6
330
C2
100
AcDbEntity
  8
GRAU_10_
 62
   250
100
AcDbVertex
100
AcDb2dVertex
 10
135.1523416328787
 20
191.1833697818486
 30
0.0
  0
VERTEX
  5
C7
330
C2
100
AcDbEntity
  8
GRAU_10_
 62
   250
100
AcDbVertex
100
AcDb2dVertex
 10
135.1523416328787
 20
191.9012725594468
 30
0.0
  0
VERTEX
  5
C8
330
C2
100
AcDbEntity
  8
GRAU_10_
 62
   250
100
AcDbVertex
100
AcDb2dVertex
 10
135.1523416328787
 20
192.8068531147757
 30
0.0
  0
VERTEX
  5
C9
330
C2
100
AcDbEntity
  8
GRAU_10_
 62
   250
100
AcDbVertex
100
AcDb2dVertex
 10
135.1523416328787
 20
193.8870586700611
 30
0.0
  0
VERTEX
  5
CA
330
C2
100
AcDbEntity
  8
GRAU_10_
 62
   250
100
AcDbVertex
100
AcDb2dVertex
 10
135.1523416328787
 20
195.1249558919739
 30
0.0
  0
VERTEX
  5
CB
330
C2
100
AcDbEntity
  8
GRAU_10_
 62
   250
100
AcDbVertex
100
AcDb2dVertex
 10
135.1523416328787
 20
196.5043170027401
 30
0.0
  0
VERTEX
  5
CC
330
C2
100
AcDbEntity
  8
GRAU_10_
 62
   250
100
AcDbVertex
100
AcDb2dVertex
 10
135.1523416328787
 20
198.0046808912541
 30
0.0
  0
VERTEX
  5
CD
330
C2
100
AcDbEntity
  8
GRAU_10_
 62
   250
100
AcDbVertex
100
AcDb2dVertex
 10
135.1523416328787
 20
199.6041753352986
 30
0.0
  0
VERTEX
  5
CE
330
C2
100
AcDbEntity
  8
GRAU_10_
 62
   250
100
AcDbVertex
100
AcDb2dVertex
 10
135.1523416328787
 20
201.2798697793241
 30
0.0
  0
VERTEX
  5
CF
330
C2
100
AcDbEntity
  8
GRAU_10_
 62
   250
100
AcDbVertex
100
AcDb2dVertex
 10
135.1523416328787
 20
203.007775334448
 30
0.0
  0
VERTEX
  5
D0
330
C2
100
AcDbEntity
  8
GRAU_10_
 62
   250
100
AcDbVertex
100
AcDb2dVertex
 10
135.1523416328787
 20
204.7624920006758
 30
0.0
  0
VERTEX
  5
D1
330
C2
100
AcDbEntity
  8
GRAU_10_
 62
   250
100
AcDbVertex
100
AcDb2dVertex
 10
135.1523416328787
 20
206.51932533357
 30
0.0
  0
VERTEX
  5
D2
330
C2
100
AcDbEntity
  8
GRAU_10_
 62
   250
100
AcDbVertex
100
AcDb2dVertex
 10
135.1523416328787
 20
208.2525225553588
 30
0.0
  0
VERTEX
  5
D3
330
C2
100
AcDbEntity
  8
GRAU_10_
 62
   250
100
AcDbVertex
100
AcDb2dVertex
 10
135.1523416328787
 20
209.9380947771597
 30
0.0
  0
VERTEX
  5
D4
330
C2
100
AcDbEntity
  8
GRAU_10_
 62
   250
100
AcDbVertex
100
AcDb2dVertex
 10
135.1523416328787
 20
211.5495836656458
 30
0.0
  0
VERTEX
  5
D5
330
C2
100
AcDbEntity
  8
GRAU_10_
 62
   250
100
AcDbVertex
100
AcDb2dVertex
 10
135.1523416328787
 20
213.0658225541556
 30
0.0
  0
VERTEX
  5
D6
330
C2
100
AcDbEntity
  8
GRAU_10_
 62
   250
100
AcDbVertex
100
AcDb2dVertex
 10
135.1523416328787
 20
214.4645864426945
 30
0.0
  0
VERTEX
  5
D7
330
C2
100
AcDbEntity
  8
GRAU_10_
 62
   250
100
AcDbVertex
100
AcDb2dVertex
 10
135.1523416328787
 20
215.7247086646017
 30
0.0
  0
VERTEX
  5
D8
330
C2
100
AcDbEntity
  8
GRAU_10_
 62
   250
100
AcDbVertex
100
AcDb2dVertex
 10
135.1523416328787
 20
216.8289031087705
 30
0.0
  0
VERTEX
  5
D9
330
C2
100
AcDbEntity
  8
GRAU_10_
 62
   250
100
AcDbVertex
100
AcDb2dVertex
 10
135.1523416328787
 20
217.7605892196486
 30
0.0
  0
SEQEND
  5
DA
330
C2
100
AcDbEntity
  8
GRAU_10_
 62
   250
  0
POLYLINE
  5
DB
330
1F
100
AcDbEntity
  8
GRAU_10_
 62
   250
100
AcDb2dPolyline
 66
     1
 10
0.0
 20
0.0
 30
0.0
  0
VERTEX
  5
DC
330
DB
100
AcDbEntity
  8
GRAU_10_
 62
   250
100
AcDbVertex
100
AcDb2dVertex
 10
135.1523416328787
 20
192.9419670036307
 30
0.0
  0
VERTEX
  5
DD
330
DB
100
AcDbEntity
  8
GRAU_10_
 62
   250
100
AcDbVertex
100
AcDb2dVertex
 10
136.1478805215188
 20
192.9419670036307
 30
0.0
  0
VERTEX
  5
DE
330
DB
100
AcDbEntity
  8
GRAU_10_
 62
   250
100
AcDbVertex
100
AcDb2dVertex
 10
136.1478805215188
 20
193.0439197813832
 30
0.0
  0
VERTEX
  5
DF
330
DB
100
AcDbEntity
  8
GRAU_10_
 62
   250
100
AcDbVertex
100
AcDb2dVertex
 10
136.1478805215188
 20
193.3494253368624
 30
0.0
  0
VERTEX
  5
E0
330
DB
100
AcDbEntity
  8
GRAU_10_
 62
   250
100
AcDbVertex
100
AcDb2dVertex
 10
136.1478805215188
 20
193.8514281145149
 30
0.0
  0
VERTEX
  5
E1
330
DB
100
AcDbEntity
  8
GRAU_10_
 62
   250
100
AcDbVertex
100
AcDb2dVertex
 10
136.1478805215188
 20
194.5432253365639
 30
0.0
  0
VERTEX
  5
E2
330
DB
100
AcDbEntity
  8
GRAU_10_
 62
   250
100
AcDbVertex
100
AcDb2dVertex
 10
136.1478805215188
 20
195.4114114474578
 30
0.0
  0
VERTEX
  5
E3
330
DB
100
AcDbEntity
  8
GRAU_10_
 62
   250
100
AcDbVertex
100
AcDb2dVertex
 10
136.1478805215188
 20
196.4422281138669
 30
0.0
  0
VERTEX
  5
E4
330
DB
100
AcDbEntity
  8
GRAU_10_
 62
   250
100
AcDbVertex
100
AcDb2dVertex
 10
136.1478805215188
 20
197.6169781135732
 30
0.0
  0
VERTEX
  5
E5
330
DB
100
AcDbEntity
  8
GRAU_10_
 62
   250
100
AcDbVertex
100
AcDb2dVertex
 10
136.1478805215188
 20
198.9169642243595
 30
0.0
  0
VERTEX
  5
E6
330
DB
100
AcDbEntity
  8
GRAU_10_
 62
   250
100
AcDbVertex
100
AcDb2dVertex
 10
136.1478805215188
 20
200.3185503351202
 30
0.0
  0
VERTEX
  5
E7
330
DB
100
AcDbEntity
  8
GRAU_10_
 62
   250
100
AcDbVertex
100
AcDb2dVertex
 10
136.1478805215188
 20
201.7991586680831
 30
0.0
  0
VERTEX
  5
E8
330
DB
100
AcDbEntity
  8
GRAU_10_
 62
   250
100
AcDbVertex
100
AcDb2dVertex
 10
136.1478805215188
 20
203.3323308899225
 30
0.0
  0
VERTEX
  5
E9
330
DB
100
AcDbEntity
  8
GRAU_10_
 62
   250
100
AcDbVertex
100
AcDb2dVertex
 10
136.1478805215188
 20
204.8919614450879
 30
0.0
  0
VERTEX
  5
EA
330
DB
100
AcDbEntity
  8
GRAU_10_
 62
   250
100
AcDbVertex
100
AcDb2dVertex
 10
136.1478805215188
 20
206.4515920002533
 30
0.0
  0
VERTEX
  5
EB
330
DB
100
AcDbEntity
  8
GRAU_10_
 62
   250
100
AcDbVertex
100
AcDb2dVertex
 10
136.1478805215188
 20
207.9847642220924
 30
0.0
  0
VERTEX
  5
EC
330
DB
100
AcDbEntity
  8
GRAU_10_
 62
   250
100
AcDbVertex
100
AcDb2dVertex
 10
136.1478805215188
 20
209.4650197772782
 30
0.0
  0
VERTEX
  5
ED
330
DB
100
AcDbEntity
  8
GRAU_10_
 62
   250
100
AcDbVertex
100
AcDb2dVertex
 10
136.1478805215188
 20
210.8666058880389
 30
0.0
  0
VERTEX
  5
EE
330
DB
100
AcDbEntity
  8
GRAU_10_
 62
   250
100
AcDbVertex
100
AcDb2dVertex
 10
136.1478805215188
 20
212.1669447766026
 30
0.0
  0
VERTEX
  5
EF
330
DB
100
AcDbEntity
  8
GRAU_10_
 62
   250
100
AcDbVertex
100
AcDb2dVertex
 10
136.1478805215188
 20
213.3420475540866
 30
0.0
  0
VERTEX
  5
F0
330
DB
100
AcDbEntity
  8
GRAU_10_
 62
   250
100
AcDbVertex
100
AcDb2dVertex
 10
136.1478805215188
 20
214.3721586649403
 30
0.0
  0
VERTEX
  5
F1
330
DB
100
AcDbEntity
  8
GRAU_10_
 62
   250
100
AcDbVertex
100
AcDb2dVertex
 10
136.1478805215188
 20
215.2406975536119
 30
0.0
  0
VERTEX
  5
F2
330
DB
100
AcDbEntity
  8
GRAU_10_
 62
   250
100
AcDbVertex
100
AcDb2dVertex
 10
136.1478805215188
 20
215.9321419978834
 30
0.0
  0
VERTEX
  5
F3
330
DB
100
AcDbEntity
  8
GRAU_10_
 62
   250
100
AcDbVertex
100
AcDb2dVertex
 10
136.1478805215188
 20
216.4344975533134
 30
0.0
  0
VERTEX
  5
F4
330
DB
100
AcDbEntity
  8
GRAU_10_
 62
   250
100
AcDbVertex
100
AcDb2dVertex
 10
136.1478805215188
 20
216.7396503310148
 30
0.0
  0
VERTEX
  5
F5
330
DB
100
AcDbEntity
  8
GRAU_10_
 62
   250
100
AcDbVertex
100
AcDb2dVertex
 10
136.1478805215188
 20
216.8416031087673
 30
0.0
  0
SEQEND
  5
F6
330
DB
100
AcDbEntity
  8
GRAU_10_
 62
   250
  0
POLYLINE
  5
F7
330
1F
100
AcDbEntity
  8
GRAU_10_
 62
   250
100
AcDb2dPolyline
 66
     1
 10
0.0
 20
0.0
 30
0.0
  0
VERTEX
  5
F8
330
F7
100
AcDbEntity
  8
GRAU_10_
 62
   250
100
AcDbVertex
100
AcDb2dVertex
 10
136.5521638547509
 20
193.6422308923447
 30
0.0
  0
VERTEX
  5
F9
330
F7
100
AcDbEntity
  8
GRAU_10_
 62
   250
100
AcDbVertex
100
AcDb2dVertex
 10
136.5521638547509
 20
193.7512392256509
 30
0.0
  0
VERTEX
  5
FA
330
F7
100
AcDbEntity
  8
GRAU_10_
 62
   250
100
AcDbVertex
100
AcDb2dVertex
 10
136.5521638547509
 20
194.0775586700138
 30
0.0
  0
VERTEX
  5
FB
330
F7
100
AcDbEntity
  8
GRAU_10_
 62
   250
100
AcDbVertex
100
AcDb2dVertex
 10
136.5521638547509
 20
194.614486447657
 30
0.0
  0
VERTEX
  5
FC
330
F7
100
AcDbEntity
  8
GRAU_10_
 62
   250
100
AcDbVertex
100
AcDb2dVertex
 10
136.5521638547509
 20
195.3510864474731
 30
0.0
  0
VERTEX
  5
FD
330
F7
100
AcDbEntity
  8
GRAU_10_
 62
   250
100
AcDbVertex
100
AcDb2dVertex
 10
136.5521638547509
 20
196.2736003361316
 30
0.0
  0
VERTEX
  5
FE
330
F7
100
AcDbEntity
  8
GRAU_10_
 62
   250
100
AcDbVertex
100
AcDb2dVertex
 10
136.5521638547509
 20
197.3640364469699
 30
0.0
  0
VERTEX
  5
FF
330
F7
100
AcDbEntity
  8
GRAU_10_
 62
   250
100
AcDbVertex
100
AcDb2dVertex
 10
136.5521638547509
 20
198.6008753355497
 30
0.0
  0
VERTEX
  5
100
330
F7
100
AcDbEntity
  8
GRAU_10_
 62
   250
100
AcDbVertex
100
AcDb2dVertex
 10
136.5521638547509
 20
199.9604808907651
 30
0.0
  0
VERTEX
  5
101
330
F7
100
AcDbEntity
  8
GRAU_10_
 62
   250
100
AcDbVertex
100
AcDb2dVertex
 10
136.5521638547509
 20
201.4156892237347
 30
0.0
  0
VERTEX
  5
102
330
F7
100
AcDbEntity
  8
GRAU_10_
 62
   250
100
AcDbVertex
100
AcDb2dVertex
 10
136.5521638547509
 20
202.9386308900209
 30
0.0
  0
VERTEX
  5
103
330
F7
100
AcDbEntity
  8
GRAU_10_
 62
   250
100
AcDbVertex
100
AcDb2dVertex
 10
136.5521638547509
 20
204.4989670007415
 30
0.0
  0
VERTEX
  5
104
330
F7
100
AcDbEntity
  8
GRAU_10_
 62
   250
100
AcDbVertex
100
AcDb2dVertex
 10
136.5521638547509
 20
206.0681225559049
 30
0.0
  0
VERTEX
  5
105
330
F7
100
AcDbEntity
  8
GRAU_10_
 62
   250
100
AcDbVertex
100
AcDb2dVertex
 10
136.5521638547509
 20
207.6132892221853
 30
0.0
  0
VERTEX
  5
106
330
F7
100
AcDbEntity
  8
GRAU_10_
 62
   250
100
AcDbVertex
100
AcDb2dVertex
 10
136.5521638547509
 20
209.1058919995902
 30
0.0
  0
VERTEX
  5
107
330
F7
100
AcDbEntity
  8
GRAU_10_
 62
   250
100
AcDbVertex
100
AcDb2dVertex
 10
136.5521638547509
 20
210.5166503325708
 30
0.0
  0
SEQEND
  5
108
330
F7
100
AcDbEntity
  8
GRAU_10_
 62
   250
  0
POLYLINE
  5
109
330
1F
100
AcDbEntity
  8
GRAU_10_
 62
   250
100
AcDb2dPolyline
 66
     1
 10
0.0
 20
0.0
 30
0.0
  0
VERTEX
  5
10A
330
109
100
AcDbEntity
  8
GRAU_10_
 62
   250
100
AcDbVertex
100
AcDb2dVertex
 10
136.5521638547509
 20
212.576872554278
 30
0.0
  0
VERTEX
  5
10B
330
109
100
AcDbEntity
  8
GRAU_10_
 62
   250
100
AcDbVertex
100
AcDb2dVertex
 10
138.5520610764731
 20
212.576872554278
 30
0.0
  0
SEQEND
  5
10C
330
109
100
AcDbEntity
  8
GRAU_10_
 62
   250
  0
POLYLINE
  5
10D
330
1F
100
AcDbEntity
  8
GRAU_10_
 62
   250
100
AcDb2dPolyline
 66
     1
 10
0.0
 20
0.0
 30
0.0
  0
VERTEX
  5
10E
330
10D
100
AcDbEntity
  8
GRAU_10_
 62
   250
100
AcDbVertex
100
AcDb2dVertex
 10
133.8523555220925
 20
227.3921281061294
 30
0.0
  0
VERTEX
  5
10F
330
10D
100
AcDbEntity
  8
GRAU_10_
 62
   250
100
AcDbVertex
100
AcDb2dVertex
 10
114.1518333047957
 20
227.3921281061294
 30
0.0
  0
SEQEND
  5
110
330
10D
100
AcDbEntity
  8
GRAU_10_
 62
   250
  0
POLYLINE
  5
111
330
1F
100
AcDbEntity
  8
GRAU_10_
 62
   250
100
AcDb2dPolyline
 66
     1
 10
0.0
 20
0.0
 30
0.0
  0
VERTEX
  5
112
330
111
100
AcDbEntity
  8
GRAU_10_
 62
   250
100
AcDbVertex
100
AcDb2dVertex
 10
133.9521916331788
 20
220.1016225523968
 30
0.0
  0
VERTEX
  5
113
330
111
100
AcDbEntity
  8
GRAU_10_
 62
   250
100
AcDbVertex
100
AcDb2dVertex
 10
135.1523416328787
 20
220.1016225523968
 30
0.0
  0
SEQEND
  5
114
330
111
100
AcDbEntity
  8
GRAU_10_
 62
   250
  0
POLYLINE
  5
115
330
1F
100
AcDbEntity
  8
GRAU_10_
 62
   250
100
AcDb2dPolyline
 66
     1
 10
0.0
 20
0.0
 30
0.0
  0
VERTEX
  5
116
330
115
100
AcDbEntity
  8
GRAU_10_
 62
   250
100
AcDbVertex
100
AcDb2dVertex
 10
138.5520610764731
 20
199.5297392242063
 30
0.0
  0
VERTEX
  5
117
330
115
100
AcDbEntity
  8
GRAU_10_
 62
   250
100
AcDbVertex
100
AcDb2dVertex
 10
138.5520610764731
 20
196.7689003360073
 30
0.0
  0
VERTEX
  5
118
330
115
100
AcDbEntity
  8
GRAU_10_
 62
   250
100
AcDbVertex
100
AcDb2dVertex
 10
138.5520610764731
 20
193.94068089227
 30
0.0
  0
SEQEND
  5
119
330
115
100
AcDbEntity
  8
GRAU_10_
 62
   250
  0
POLYLINE
  5
11A
330
1F
100
AcDbEntity
  8
GRAU_10_
 62
   250
100
AcDb2dPolyline
 66
     1
 10
0.0
 20
0.0
 30
0.0
  0
VERTEX
  5
11B
330
11A
100
AcDbEntity
  8
GRAU_10_
 62
   250
100
AcDbVertex
100
AcDb2dVertex
 10
133.9521916331788
 20
217.7605892196486
 30
0.0
  0
VERTEX
  5
11C
330
11A
100
AcDbEntity
  8
GRAU_10_
 62
   250
100
AcDbVertex
100
AcDb2dVertex
 10
135.1523416328787
 20
217.7605892196486
 30
0.0
  0
SEQEND
  5
11D
330
11A
100
AcDbEntity
  8
GRAU_10_
 62
   250
  0
POLYLINE
  5
11E
330
1F
100
AcDbEntity
  8
GRAU_10_
 62
   250
100
AcDb2dPolyline
 66
     1
 10
0.0
 20
0.0
 30
0.0
  0
VERTEX
  5
11F
330
11E
100
AcDbEntity
  8
GRAU_10_
 62
   250
100
AcDbVertex
100
AcDb2dVertex
 10
136.1478805215188
 20
216.8416031087673
 30
0.0
  0
VERTEX
  5
120
330
11E
100
AcDbEntity
  8
GRAU_10_
 62
   250
100
AcDbVertex
100
AcDb2dVertex
 10
135.1523416328787
 20
216.8416031087673
 30
0.0
  0
SEQEND
  5
121
330
11E
100
AcDbEntity
  8
GRAU_10_
 62
   250
  0
POLYLINE
  5
122
330
1F
100
AcDbEntity
  8
GRAU_10_
 62
   250
100
AcDb2dPolyline
 66
     1
 10
0.0
 20
0.0
 30
0.0
  0
VERTEX
  5
123
330
122
100
AcDbEntity
  8
GRAU_10_
 62
   250
100
AcDbVertex
100
AcDb2dVertex
 10
136.5521638547509
 20
216.1420447756088
 30
0.0
  0
VERTEX
  5
124
330
122
100
AcDbEntity
  8
GRAU_10_
 62
   250
100
AcDbVertex
100
AcDb2dVertex
 10
136.1478805215188
 20
216.8416031087673
 30
0.0
  0
SEQEND
  5
125
330
122
100
AcDbEntity
  8
GRAU_10_
 62
   250
  0
POLYLINE
  5
126
330
1F
100
AcDbEntity
  8
GRAU_10_
 62
   250
100
AcDb2dPolyline
 66
     1
 10
0.0
 20
0.0
 30
0.0
  0
VERTEX
  5
127
330
126
100
AcDbEntity
  8
GRAU_10_
 62
   250
100
AcDbVertex
100
AcDb2dVertex
 10
136.5521638547509
 20
210.5166503325708
 30
0.0
  0
VERTEX
  5
128
330
126
100
AcDbEntity
  8
GRAU_10_
 62
   250
100
AcDbVertex
100
AcDb2dVertex
 10
136.5521638547509
 20
211.9058892211124
 30
0.0
  0
VERTEX
  5
129
330
126
100
AcDbEntity
  8
GRAU_10_
 62
   250
100
AcDbVertex
100
AcDb2dVertex
 10
136.5521638547509
 20
213.1388475541371
 30
0.0
  0
VERTEX
  5
12A
330
126
100
AcDbEntity
  8
GRAU_10_
 62
   250
100
AcDbVertex
100
AcDb2dVertex
 10
136.5521638547509
 20
214.186950331653
 30
0.0
  0
VERTEX
  5
12B
330
126
100
AcDbEntity
  8
GRAU_10_
 62
   250
100
AcDbVertex
100
AcDb2dVertex
 10
136.5521638547509
 20
215.027972553665
 30
0.0
  0
VERTEX
  5
12C
330
126
100
AcDbEntity
  8
GRAU_10_
 62
   250
100
AcDbVertex
100
AcDb2dVertex
 10
136.5521638547509
 20
215.6421586646226
 30
0.0
  0
VERTEX
  5
12D
330
126
100
AcDbEntity
  8
GRAU_10_
 62
   250
100
AcDbVertex
100
AcDb2dVertex
 10
136.5521638547509
 20
216.0164558867514
 30
0.0
  0
VERTEX
  5
12E
330
126
100
AcDbEntity
  8
GRAU_10_
 62
   250
100
AcDbVertex
100
AcDb2dVertex
 10
136.5521638547509
 20
216.1420447756088
 30
0.0
  0
SEQEND
  5
12F
330
126
100
AcDbEntity
  8
GRAU_10_
 62
   250
  0
POLYLINE
  5
130
330
1F
100
AcDbEntity
  8
GRAU_10_
 62
   250
100
AcDb2dPolyline
 66
     1
 10
0.0
 20
0.0
 30
0.0
  0
VERTEX
  5
131
330
130
100
AcDbEntity
  8
GRAU_10_
 62
   250
100
AcDbVertex
100
AcDb2dVertex
 10
138.5520610764731
 20
208.1586836664932
 30
0.0
  0
VERTEX
  5
132
330
130
100
AcDbEntity
  8
GRAU_10_
 62
   250
100
AcDbVertex
100
AcDb2dVertex
 10
138.5520610764731
 20
209.758178110538
 30
0.0
  0
VERTEX
  5
133
330
130
100
AcDbEntity
  8
GRAU_10_
 62
   250
100
AcDbVertex
100
AcDb2dVertex
 10
138.5520610764731
 20
211.2426669990556
 30
0.0
  0
VERTEX
  5
134
330
130
100
AcDbEntity
  8
GRAU_10_
 62
   250
100
AcDbVertex
100
AcDb2dVertex
 10
138.5520610764731
 20
212.576872554278
 30
0.0
  0
SEQEND
  5
135
330
130
100
AcDbEntity
  8
GRAU_10_
 62
   250
  0
POLYLINE
  5
136
330
1F
100
AcDbEntity
  8
GRAU_10_
 62
   250
100
AcDb2dPolyline
 66
     1
 10
0.0
 20
0.0
 30
0.0
  0
VERTEX
  5
137
330
136
100
AcDbEntity
  8
GRAU_10_
 62
   250
100
AcDbVertex
100
AcDb2dVertex
 10
136.5521638547509
 20
206.5122697780161
 30
0.0
  0
VERTEX
  5
138
330
136
100
AcDbEntity
  8
GRAU_10_
 62
   250
100
AcDbVertex
100
AcDb2dVertex
 10
138.5520610764731
 20
206.5122697780161
 30
0.0
  0
SEQEND
  5
139
330
136
100
AcDbEntity
  8
GRAU_10_
 62
   250
  0
POLYLINE
  5
13A
330
1F
100
AcDbEntity
  8
GRAU_10_
 62
   250
100
AcDb2dPolyline
 66
     1
 10
0.0
 20
0.0
 30
0.0
  0
VERTEX
  5
13B
330
13A
100
AcDbEntity
  8
GRAU_10_
 62
   250
100
AcDbVertex
100
AcDb2dVertex
 10
114.1518333047957
 20
224.5071114401841
 30
0.0
  0
VERTEX
  5
13C
330
13A
100
AcDbEntity
  8
GRAU_10_
 62
   250
100
AcDbVertex
100
AcDb2dVertex
 10
114.1518333047957
 20
227.3921281061294
 30
0.0
  0
SEQEND
  5
13D
330
13A
100
AcDbEntity
  8
GRAU_10_
 62
   250
  0
POLYLINE
  5
13E
330
1F
100
AcDbEntity
  8
GRAU_10_
 62
   250
100
AcDb2dPolyline
 66
     1
 10
0.0
 20
0.0
 30
0.0
  0
VERTEX
  5
13F
330
13E
100
AcDbEntity
  8
GRAU_10_
 62
   250
100
AcDbVertex
100
AcDb2dVertex
 10
133.8523555220925
 20
227.3921281061294
 30
0.0
  0
VERTEX
  5
140
330
13E
100
AcDbEntity
  8
GRAU_10_
 62
   250
100
AcDbVertex
100
AcDb2dVertex
 10
133.8523555220925
 20
224.5071114401841
 30
0.0
  0
SEQEND
  5
141
330
13E
100
AcDbEntity
  8
GRAU_10_
 62
   250
  0
POLYLINE
  5
142
330
1F
100
AcDbEntity
  8
GRAU_10_
 62
   250
100
AcDb2dPolyline
 66
     1
 10
0.0
 20
0.0
 30
0.0
  0
VERTEX
  5
143
330
142
100
AcDbEntity
  8
GRAU_10_
 62
   250
100
AcDbVertex
100
AcDb2dVertex
 10
135.1523416328787
 20
218.9783781082327
 30
0.0
  0
VERTEX
  5
144
330
142
100
AcDbEntity
  8
GRAU_10_
 62
   250
100
AcDbVertex
100
AcDb2dVertex
 10
135.1523416328787
 20
219.6521836636198
 30
0.0
  0
VERTEX
  5
145
330
142
100
AcDbEntity
  8
GRAU_10_
 62
   250
100
AcDbVertex
100
AcDb2dVertex
 10
135.1523416328787
 20
220.1016225523968
 30
0.0
  0
SEQEND
  5
146
330
142
100
AcDbEntity
  8
GRAU_10_
 62
   250
  0
POLYLINE
  5
147
330
1F
100
AcDbEntity
  8
GRAU_10_
 62
   250
100
AcDb2dPolyline
 66
     1
 10
0.0
 20
0.0
 30
0.0
  0
VERTEX
  5
148
330
147
100
AcDbEntity
  8
GRAU_10_
 62
   250
100
AcDbVertex
100
AcDb2dVertex
 10
114.1518333047957
 20
220.1481892190517
 30
0.0
  0
VERTEX
  5
149
330
147
100
AcDbEntity
  8
GRAU_10_
 62
   250
100
AcDbVertex
100
AcDb2dVertex
 10
133.8523555220925
 20
220.1481892190517
 30
0.0
  0
VERTEX
  5
14A
330
147
100
AcDbEntity
  8
GRAU_10_
 62
   250
100
AcDbVertex
100
AcDb2dVertex
 10
133.3595249666601
 20
220.1481892190517
 30
0.0
  0
SEQEND
  5
14B
330
147
100
AcDbEntity
  8
GRAU_10_
 62
   250
  0
POLYLINE
  5
14C
330
1F
100
AcDbEntity
  8
GRAU_10_
 62
   250
100
AcDb2dPolyline
 66
     1
 10
0.0
 20
0.0
 30
0.0
  0
VERTEX
  5
14D
330
14C
100
AcDbEntity
  8
GRAU_10_
 62
   250
100
AcDbVertex
100
AcDb2dVertex
 10
136.1478805215188
 20
192.9419670036307
 30
0.0
  0
VERTEX
  5
14E
330
14C
100
AcDbEntity
  8
GRAU_10_
 62
   250
100
AcDbVertex
100
AcDb2dVertex
 10
136.5521638547509
 20
193.6422308923447
 30
0.0
  0
SEQEND
  5
14F
330
14C
100
AcDbEntity
  8
GRAU_10_
 62
   250
  0
POLYLINE
  5
150
330
1F
100
AcDbEntity
  8
GRAU_10_
 62
   250
100
AcDb2dPolyline
 66
     1
 10
0.0
 20
0.0
 30
0.0
  0
VERTEX
  5
151
330
150
100
AcDbEntity
  8
GRAU_10_
 62
   250
100
AcDbVertex
100
AcDb2dVertex
 10
136.5521638547509
 20
208.1586836664932
 30
0.0
  0
VERTEX
  5
152
330
150
100
AcDbEntity
  8
GRAU_10_
 62
   250
100
AcDbVertex
100
AcDb2dVertex
 10
138.5520610764731
 20
208.1586836664932
 30
0.0
  0
SEQEND
  5
153
330
150
100
AcDbEntity
  8
GRAU_10_
 62
   250
  0
POLYLINE
  5
154
330
1F
100
AcDbEntity
  8
GRAU_10_
 62
   250
100
AcDb2dPolyline
 66
     1
 10
0.0
 20
0.0
 30
0.0
  0
VERTEX
  5
155
330
154
100
AcDbEntity
  8
GRAU_10_
 62
   250
100
AcDbVertex
100
AcDb2dVertex
 10
138.5520610764731
 20
208.1586836664932
 30
0.0
  0
VERTEX
  5
156
330
154
100
AcDbEntity
  8
GRAU_10_
 62
   250
100
AcDbVertex
100
AcDb2dVertex
 10
138.5520610764731
 20
207.1941892222901
 30
0.0
  0
VERTEX
  5
157
330
154
100
AcDbEntity
  8
GRAU_10_
 62
   250
100
AcDbVertex
100
AcDb2dVertex
 10
138.5520610764731
 20
206.5122697780161
 30
0.0
  0
SEQEND
  5
158
330
154
100
AcDbEntity
  8
GRAU_10_
 62
   250
  0
POLYLINE
  5
159
330
1F
100
AcDbEntity
  8
GRAU_10_
 62
   250
100
AcDb2dPolyline
 66
     1
 10
0.0
 20
0.0
 30
0.0
  0
VERTEX
  5
15A
330
159
100
AcDbEntity
  8
GRAU_10_
 62
   250
100
AcDbVertex
100
AcDb2dVertex
 10
114.1518333047957
 20
218.2304892195312
 30
0.0
  0
VERTEX
  5
15B
330
159
100
AcDbEntity
  8
GRAU_10_
 62
   250
100
AcDbVertex
100
AcDb2dVertex
 10
114.1518333047957
 20
219.2221475526165
 30
0.0
  0
VERTEX
  5
15C
330
159
100
AcDbEntity
  8
GRAU_10_
 62
   250
100
AcDbVertex
100
AcDb2dVertex
 10
114.1518333047957
 20
220.3856086634367
 30
0.0
  0
VERTEX
  5
15D
330
159
100
AcDbEntity
  8
GRAU_10_
 62
   250
100
AcDbVertex
100
AcDb2dVertex
 10
114.1518333047957
 20
221.6824197742237
 30
0.0
  0
VERTEX
  5
15E
330
159
100
AcDbEntity
  8
GRAU_10_
 62
   250
100
AcDbVertex
100
AcDb2dVertex
 10
114.1518333047957
 20
223.0713058849876
 30
0.0
  0
VERTEX
  5
15F
330
159
100
AcDbEntity
  8
GRAU_10_
 62
   250
100
AcDbVertex
100
AcDb2dVertex
 10
114.1518333047957
 20
224.5071114401841
 30
0.0
  0
SEQEND
  5
160
330
159
100
AcDbEntity
  8
GRAU_10_
 62
   250
  0
POLYLINE
  5
161
330
1F
100
AcDbEntity
  8
GRAU_10_
 62
   250
100
AcDb2dPolyline
 66
     1
 10
0.0
 20
0.0
 30
0.0
  0
VERTEX
  5
162
330
161
100
AcDbEntity
  8
GRAU_10_
 62
   250
100
AcDbVertex
100
AcDb2dVertex
 10
133.8523555220925
 20
224.5071114401841
 30
0.0
  0
VERTEX
  5
163
330
161
100
AcDbEntity
  8
GRAU_10_
 62
   250
100
AcDbVertex
100
AcDb2dVertex
 10
133.8523555220925
 20
223.0713058849876
 30
0.0
  0
VERTEX
  5
164
330
161
100
AcDbEntity
  8
GRAU_10_
 62
   250
100
AcDbVertex
100
AcDb2dVertex
 10
133.8523555220925
 20
221.6824197742237
 30
0.0
  0
VERTEX
  5
165
330
161
100
AcDbEntity
  8
GRAU_10_
 62
   250
100
AcDbVertex
100
AcDb2dVertex
 10
133.8523555220925
 20
220.3856086634367
 30
0.0
  0
VERTEX
  5
166
330
161
100
AcDbEntity
  8
GRAU_10_
 62
   250
100
AcDbVertex
100
AcDb2dVertex
 10
133.8523555220925
 20
219.2221475526165
 30
0.0
  0
VERTEX
  5
167
330
161
100
AcDbEntity
  8
GRAU_10_
 62
   250
100
AcDbVertex
100
AcDb2dVertex
 10
133.8523555220925
 20
218.2304892195312
 30
0.0
  0
SEQEND
  5
168
330
161
100
AcDbEntity
  8
GRAU_10_
 62
   250
  0
POLYLINE
  5
169
330
1F
100
AcDbEntity
  8
GRAU_10_
 62
   250
100
AcDb2dPolyline
 66
     1
 10
0.0
 20
0.0
 30
0.0
  0
VERTEX
  5
16A
330
169
100
AcDbEntity
  8
GRAU_10_
 62
   250
100
AcDbVertex
100
AcDb2dVertex
 10
136.5521638547509
 20
193.6422308923447
 30
0.0
  0
VERTEX
  5
16B
330
169
100
AcDbEntity
  8
GRAU_10_
 62
   250
100
AcDbVertex
100
AcDb2dVertex
 10
138.5520610764731
 20
193.6422308923447
 30
0.0
  0
SEQEND
  5
16C
330
169
100
AcDbEntity
  8
GRAU_10_
 62
   250
  0
POLYLINE
  5
16D
330
1F
100
AcDbEntity
  8
GRAU_10_
 62
   250
100
AcDb2dPolyline
 66
     1
 10
0.0
 20
0.0
 30
0.0
  0
VERTEX
  5
16E
330
16D
100
AcDbEntity
  8
GRAU_10_
 62
   250
100
AcDbVertex
100
AcDb2dVertex
 10
136.5521638547509
 20
193.94068089227
 30
0.0
  0
VERTEX
  5
16F
330
16D
100
AcDbEntity
  8
GRAU_10_
 62
   250
100
AcDbVertex
100
AcDb2dVertex
 10
138.5520610764731
 20
193.94068089227
 30
0.0
  0
SEQEND
  5
170
330
16D
100
AcDbEntity
  8
GRAU_10_
 62
   250
  0
POLYLINE
  5
171
330
1F
100
AcDbEntity
  8
GRAU_10_
 62
   250
100
AcDb2dPolyline
 66
     1
 10
0.0
 20
0.0
 30
0.0
  0
VERTEX
  5
172
330
171
100
AcDbEntity
  8
GRAU_10_
 62
   250
100
AcDbVertex
100
AcDb2dVertex
 10
138.5520610764731
 20
193.6422308923447
 30
0.0
  0
VERTEX
  5
173
330
171
100
AcDbEntity
  8
GRAU_10_
 62
   250
100
AcDbVertex
100
AcDb2dVertex
 10
138.5520610764731
 20
193.7170197812148
 30
0.0
  0
VERTEX
  5
174
330
171
100
AcDbEntity
  8
GRAU_10_
 62
   250
100
AcDbVertex
100
AcDb2dVertex
 10
138.5520610764731
 20
193.94068089227
 30
0.0
  0
SEQEND
  5
175
330
171
100
AcDbEntity
  8
GRAU_10_
 62
   250
  0
POLYLINE
  5
176
330
1F
100
AcDbEntity
  8
GRAU_10_
 62
   250
100
AcDb2dPolyline
 66
     1
 10
0.0
 20
0.0
 30
0.0
  0
VERTEX
  5
177
330
176
100
AcDbEntity
  8
GRAU_10_
 62
   250
100
AcDbVertex
100
AcDb2dVertex
 10
133.9521916331788
 20
190.2421586709726
 30
0.0
  0
VERTEX
  5
178
330
176
100
AcDbEntity
  8
GRAU_10_
 62
   250
100
AcDbVertex
100
AcDb2dVertex
 10
135.1523416328787
 20
190.2421586709726
 30
0.0
  0
SEQEND
  5
179
330
176
100
AcDbEntity
  8
GRAU_10_
 62
   250
  0
POLYLINE
  5
17A
330
1F
100
AcDbEntity
  8
GRAU_10_
 62
   250
100
AcDb2dPolyline
 66
     1
 10
0.0
 20
0.0
 30
0.0
  0
VERTEX
  5
17B
330
17A
100
AcDbEntity
  8
GRAU_10_
 62
   250
100
AcDbVertex
100
AcDb2dVertex
 10
135.1523416328787
 20
217.9810753307045
 30
0.0
  0
VERTEX
  5
17C
330
17A
100
AcDbEntity
  8
GRAU_10_
 62
   250
100
AcDbVertex
100
AcDb2dVertex
 10
135.1523416328787
 20
217.8706558862877
 30
0.0
  0
VERTEX
  5
17D
330
17A
100
AcDbEntity
  8
GRAU_10_
 62
   250
100
AcDbVertex
100
AcDb2dVertex
 10
135.1523416328787
 20
217.7605892196486
 30
0.0
  0
SEQEND
  5
17E
330
17A
100
AcDbEntity
  8
GRAU_10_
 62
   250
  0
POLYLINE
  5
17F
330
1F
100
AcDbEntity
  8
GRAU_10_
 62
   250
100
AcDb2dPolyline
 66
     1
 10
0.0
 20
0.0
 30
0.0
  0
VERTEX
  5
180
330
17F
100
AcDbEntity
  8
GRAU_10_
 62
   250
100
AcDbVertex
100
AcDb2dVertex
 10
135.1523416328787
 20
217.9810753307045
 30
0.0
  0
VERTEX
  5
181
330
17F
100
AcDbEntity
  8
GRAU_10_
 62
   250
100
AcDbVertex
100
AcDb2dVertex
 10
135.1523416328787
 20
218.5748003305561
 30
0.0
  0
VERTEX
  5
182
330
17F
100
AcDbEntity
  8
GRAU_10_
 62
   250
100
AcDbVertex
100
AcDb2dVertex
 10
135.1523416328787
 20
218.9783781082327
 30
0.0
  0
SEQEND
  5
183
330
17F
100
AcDbEntity
  8
GRAU_10_
 62
   250
  0
POLYLINE
  5
184
330
1F
100
AcDbEntity
  8
GRAU_10_
 62
   250
100
AcDb2dPolyline
 66
     1
 10
0.0
 20
0.0
 30
0.0
  0
VERTEX
  5
185
330
184
100
AcDbEntity
  8
GRAU_10_
 62
   250
100
AcDbVertex
100
AcDb2dVertex
 10
136.5521638547509
 20
199.5297392242063
 30
0.0
  0
VERTEX
  5
186
330
184
100
AcDbEntity
  8
GRAU_10_
 62
   250
100
AcDbVertex
100
AcDb2dVertex
 10
138.5520610764731
 20
199.5297392242063
 30
0.0
  0
SEQEND
  5
187
330
184
100
AcDbEntity
  8
GRAU_10_
 62
   250
  0
POLYLINE
  5
188
330
1F
100
AcDbEntity
  8
GRAU_10_
 62
   250
100
AcDb2dPolyline
 66
     1
 10
0.0
 20
0.0
 30
0.0
  0
VERTEX
  5
189
330
188
100
AcDbEntity
  8
GRAU_10_
 62
   250
100
AcDbVertex
100
AcDb2dVertex
 10
135.1523416328787
 20
218.641828108317
 30
0.0
  0
VERTEX
  5
18A
330
188
100
AcDbEntity
  8
GRAU_10_
 62
   250
100
AcDbVertex
100
AcDb2dVertex
 10
133.9521916331788
 20
218.641828108317
 30
0.0
  0
SEQEND
  5
18B
330
188
100
AcDbEntity
  8
GRAU_10_
 62
   250
  0
POLYLINE
  5
18C
330
1F
100
AcDbEntity
  8
GRAU_10_
 62
   250
100
AcDb2dPolyline
 66
     1
 10
0.0
 20
0.0
 30
0.0
  0
VERTEX
  5
18D
330
18C
100
AcDbEntity
  8
GRAU_10_
 62
   250
100
AcDbVertex
100
AcDb2dVertex
 10
135.1523416328787
 20
218.641828108317
 30
0.0
  0
VERTEX
  5
18E
330
18C
100
AcDbEntity
  8
GRAU_10_
 62
   250
100
AcDbVertex
100
AcDb2dVertex
 10
134.852127744065
 20
218.641828108317
 30
0.0
  0
SEQEND
  5
18F
330
18C
100
AcDbEntity
  8
GRAU_10_
 62
   250
  0
POLYLINE
  5
190
330
1F
100
AcDbEntity
  8
GRAU_10_
 62
   250
100
AcDb2dPolyline
 66
     1
 10
0.0
 20
0.0
 30
0.0
  0
VERTEX
  5
191
330
190
100
AcDbEntity
  8
GRAU_10_
 62
   250
100
AcDbVertex
100
AcDb2dVertex
 10
134.2516999664373
 20
218.641828108317
 30
0.0
  0
VERTEX
  5
192
330
190
100
AcDbEntity
  8
GRAU_10_
 62
   250
100
AcDbVertex
100
AcDb2dVertex
 10
133.9521916331788
 20
218.641828108317
 30
0.0
  0
SEQEND
  5
193
330
190
100
AcDbEntity
  8
GRAU_10_
 62
   250
  0
SPLINE
  5
194
330
1F
100
AcDbEntity
  8
GRAU_10_
 62
     7
100
AcDbSpline
210
0.0
220
0.0
230
1.0
 70
     8
 71
     3
 72
     8
 73
     4
 74
     0
 42
0.0000000001
 43
0.0000000001
 12
1.0
 22
0.0
 32
0.0
 13
1.0
 23
0.0
 33
0.0
 40
0.0
 40
0.0
 40
0.0
 40
0.0
 40
1.0
 40
1.0
 40
1.0
 40
1.0
 10
50.6645333206672
 20
199.5297392242063
 30
0.0
 10
51.51084720934463
 20
199.3364170020322
 30
0.0
 10
52.35645554246653
 20
199.3498225575845
 30
0.0
 10
53.11316387561052
 20
199.5297392242063
 30
0.0
  0
SPLINE
  5
195
330
1F
100
AcDbEntity
  8
GRAU_10_
 62
     7
100
AcDbSpline
210
0.0
220
0.0
230
1.0
 70
     8
 71
     3
 72
     8
 73
     4
 74
     0
 42
0.0000000001
 43
0.0000000001
 12
1.0
 22
0.0
 32
0.0
 13
1.0
 23
0.0
 33
0.0
 40
0.0
 40
0.0
 40
0.0
 40
0.0
 40
1.0
 40
1.0
 40
1.0
 40
1.0
 10
54.4399610975012
 20
193.94068089227
 30
0.0
 10
54.17608331978921
 20
195.9462225584354
 30
0.0
 10
53.70724165323985
 20
197.8755642246197
 30
0.0
 10
53.11316387561052
 20
199.5297392242063
 30
0.0
  0
SPLINE
  5
196
330
1F
100
AcDbEntity
  8
GRAU_10_
 62
     7
100
AcDbSpline
210
0.0
220
0.0
230
1.0
 70
     8
 71
     3
 72
     8
 73
     4
 74
     0
 42
0.0000000001
 43
0.0000000001
 12
1.0
 22
0.0
 32
0.0
 13
1.0
 23
0.0
 33
0.0
 40
0.0
 40
0.0
 40
0.0
 40
0.0
 40
1.0
 40
1.0
 40
1.0
 40
1.0
 10
50.6645333206672
 20
199.5297392242063
 30
0.0
 10
49.9984888763893
 20
197.6194475580169
 30
0.0
 10
49.55046109872337
 20
195.6851670029452
 30
0.0
 10
49.33773609877652
 20
193.94068089227
 30
0.0
  0
SPLINE
  5
197
330
1F
100
AcDbEntity
  8
GRAU_10_
 62
     7
100
AcDbSpline
210
0.0
220
0.0
230
1.0
 70
     8
 71
     3
 72
     8
 73
     4
 74
     0
 42
0.0000000001
 43
0.0000000001
 12
1.0
 22
0.0
 32
0.0
 13
1.0
 23
0.0
 33
0.0
 40
0.0
 40
0.0
 40
0.0
 40
0.0
 40
1.0
 40
1.0
 40
1.0
 40
1.0
 10
49.33773609877652
 20
193.94068089227
 30
0.0
 10
51.09915554278076
 20
193.5222864479302
 30
0.0
 10
52.86163332011795
 20
193.5515670034787
 30
0.0
 10
54.4399610975012
 20
193.94068089227
 30
0.0
  0
SPLINE
  5
198
330
1F
100
AcDbEntity
  8
GRAU_10_
 62
     7
100
AcDbSpline
210
0.0
220
0.0
230
1.0
 70
     8
 71
     3
 72
     8
 73
     4
 74
     0
 42
0.0000000001
 43
0.0000000001
 12
1.0
 22
0.0
 32
0.0
 13
1.0
 23
0.0
 33
0.0
 40
0.0
 40
0.0
 40
0.0
 40
0.0
 40
1.0
 40
1.0
 40
1.0
 40
1.0
 10
57.14470831904704
 20
206.5122697780161
 30
0.0
 10
56.88894443022229
 20
207.3420031111423
 30
0.0
 10
56.45432220810874
 20
208.0676669998494
 30
0.0
 10
55.92021665268666
 20
208.6335225552639
 30
0.0
  0
SPLINE
  5
199
330
1F
100
AcDbEntity
  8
GRAU_10_
 62
     7
100
AcDbSpline
210
0.0
220
0.0
230
1.0
 70
     8
 71
     3
 72
     8
 73
     4
 74
     0
 42
0.0000000001
 43
0.0000000001
 12
1.0
 22
0.0
 32
0.0
 13
1.0
 23
0.0
 33
0.0
 40
0.0
 40
0.0
 40
0.0
 40
0.0
 40
1.0
 40
1.0
 40
1.0
 40
1.0
 10
62.64874720655988
 20
208.1586836664932
 30
0.0
 10
62.13016387335642
 20
209.8925864438378
 30
0.0
 10
61.22317220691653
 20
211.4049447767931
 30
0.0
 10
60.09745831830882
 20
212.576872554278
 30
0.0
  0
SPLINE
  5
19A
330
1F
100
AcDbEntity
  8
GRAU_10_
 62
     7
100
AcDbSpline
210
0.0
220
0.0
230
1.0
 70
     8
 71
     3
 72
     8
 73
     4
 74
     0
 42
0.0000000001
 43
0.0000000001
 12
1.0
 22
0.0
 32
0.0
 13
1.0
 23
0.0
 33
0.0
 40
0.0
 40
0.0
 40
0.0
 40
0.0
 40
1.0
 40
1.0
 40
1.0
 40
1.0
 10
60.09745831830882
 20
212.576872554278
 30
0.0
 10
58.49231942982147
 20
211.3456781101411
 30
0.0
 10
57.05651387462465
 20
209.9751364438173
 30
0.0
 10
55.92021665268666
 20
208.6335225552639
 30
0.0
  0
SPLINE
  5
19B
330
1F
100
AcDbEntity
  8
GRAU_10_
 62
     7
100
AcDbSpline
210
0.0
220
0.0
230
1.0
 70
     8
 71
     3
 72
     8
 73
     4
 74
     0
 42
0.0000000001
 43
0.0000000001
 12
1.0
 22
0.0
 32
0.0
 13
1.0
 23
0.0
 33
0.0
 40
0.0
 40
0.0
 40
0.0
 40
0.0
 40
1.0
 40
1.0
 40
1.0
 40
1.0
 10
57.14470831904704
 20
206.5122697780161
 30
0.0
 10
59.13225831855016
 20
206.8908003334771
 30
0.0
 10
61.03055554029792
 20
207.4704142222211
 30
0.0
 10
62.64874720655988
 20
208.1586836664932
 30
0.0
  0
SPLINE
  5
19C
330
1F
100
AcDbEntity
  8
GRAU_10_
 62
     7
100
AcDbSpline
210
0.0
220
0.0
230
1.0
 70
     8
 71
     3
 72
     8
 73
     4
 74
     0
 42
0.0000000001
 43
0.0000000001
 12
1.0
 22
0.0
 32
0.0
 13
1.0
 23
0.0
 33
0.0
 40
0.0
 40
0.0
 40
0.0
 40
0.0
 40
1.0
 40
1.0
 40
1.0
 40
1.0
 10
47.85748054359107
 20
208.6335225552639
 30
0.0
 10
47.26693054373871
 20
207.996758666534
 30
0.0
 10
46.8555916549526
 20
207.2580420000517
 30
0.0
 10
46.63298887723068
 20
206.5122697780161
 30
0.0
  0
SPLINE
  5
19D
330
1F
100
AcDbEntity
  8
GRAU_10_
 62
     7
100
AcDbSpline
210
0.0
220
0.0
230
1.0
 70
     8
 71
     3
 72
     8
 73
     4
 74
     0
 42
0.0000000001
 43
0.0000000001
 12
1.0
 22
0.0
 32
0.0
 13
1.0
 23
0.0
 33
0.0
 40
0.0
 40
0.0
 40
0.0
 40
0.0
 40
1.0
 40
1.0
 40
1.0
 40
1.0
 10
43.67988610019115
 20
212.576872554278
 30
0.0
 10
42.43740276716846
 20
211.2606586657179
 30
0.0
 10
41.58121110071563
 20
209.71972533277
 30
0.0
 10
41.12930276749529
 20
208.1586836664932
 30
0.0
  0
SPLINE
  5
19E
330
1F
100
AcDbEntity
  8
GRAU_10_
 62
     7
100
AcDbSpline
210
0.0
220
0.0
230
1.0
 70
     8
 71
     3
 72
     8
 73
     4
 74
     0
 42
0.0000000001
 43
0.0000000001
 12
1.0
 22
0.0
 32
0.0
 13
1.0
 23
0.0
 33
0.0
 40
0.0
 40
0.0
 40
0.0
 40
0.0
 40
1.0
 40
1.0
 40
1.0
 40
1.0
 10
47.85748054359107
 20
208.6335225552639
 30
0.0
 10
46.53597498836585
 20
210.1656364437694
 30
0.0
 10
45.08499998872882
 20
211.5195975545419
 30
0.0
 10
43.67988610019115
 20
212.576872554278
 30
0.0
  0
SPLINE
  5
19F
330
1F
100
AcDbEntity
  8
GRAU_10_
 62
     7
100
AcDbSpline
210
0.0
220
0.0
230
1.0
 70
     8
 71
     3
 72
     8
 73
     4
 74
     0
 42
0.0000000001
 43
0.0000000001
 12
1.0
 22
0.0
 32
0.0
 13
1.0
 23
0.0
 33
0.0
 40
0.0
 40
0.0
 40
0.0
 40
0.0
 40
1.0
 40
1.0
 40
1.0
 40
1.0
 10
41.12930276749529
 20
208.1586836664932
 30
0.0
 10
42.99831943369495
 20
207.3839836666869
 30
0.0
 10
44.90296665544081
 20
206.8255364446048
 30
0.0
 10
46.63298887723068
 20
206.5122697780161
 30
0.0
  0
SPLINE
  5
1A0
330
1F
100
AcDbEntity
  8
GRAU_10_
 62
     7
100
AcDbSpline
210
0.0
220
0.0
230
1.0
 70
     8
 71
     3
 72
    11
 73
     7
 74
     0
 42
0.0000000001
 43
0.0000000001
 12
1.0
 22
0.0
 32
0.0
 13
1.0
 23
0.0
 33
0.0
 40
0.0
 40
0.0
 40
0.0
 40
0.0
 40
1.0
 40
1.0
 40
1.0
 40
2.0
 40
2.0
 40
2.0
 40
2.0
 10
61.63168887348087
 20
210.5166503325708
 30
0.0
 10
59.5605305406653
 20
214.1040475538961
 30
0.0
 10
55.81191387493603
 20
216.1191142200588
 30
0.0
 10
51.88902498702758
 20
216.1420447756088
 30
0.0
 10
47.74670832139675
 20
216.1420447756088
 30
0.0
 10
44.1275611000793
 20
213.9033169983906
 30
0.0
 10
42.14565554501909
 20
210.5166503325708
 30
0.0
  0
SPLINE
  5
1A1
330
1F
100
AcDbEntity
  8
GRAU_10_
 62
     7
100
AcDbSpline
210
0.0
220
0.0
230
1.0
 70
     8
 71
     3
 72
    11
 73
     7
 74
     0
 42
0.0000000001
 43
0.0000000001
 12
1.0
 22
0.0
 32
0.0
 13
1.0
 23
0.0
 33
0.0
 40
0.0
 40
0.0
 40
0.0
 40
0.0
 40
1.0
 40
1.0
 40
1.0
 40
2.0
 40
2.0
 40
2.0
 40
2.0
 10
55.92021665268666
 20
208.6335225552639
 30
0.0
 10
54.83789443073494
 20
209.79910033275
 30
0.0
 10
53.36786943110232
 20
210.3900031103801
 30
0.0
 10
51.88902498702758
 20
210.3917669992682
 30
0.0
 10
50.29764443187004
 20
210.3917669992682
 30
0.0
 10
48.86501387667276
 20
209.716197554993
 30
0.0
 10
47.85748054359107
 20
208.6335225552639
 30
0.0
  0
SPLINE
  5
1A2
330
1F
100
AcDbEntity
  8
GRAU_10_
 62
     7
100
AcDbSpline
210
0.0
220
0.0
230
1.0
 70
     8
 71
     3
 72
     8
 73
     4
 74
     0
 42
0.0000000001
 43
0.0000000001
 12
1.0
 22
0.0
 32
0.0
 13
1.0
 23
0.0
 33
0.0
 40
0.0
 40
0.0
 40
0.0
 40
0.0
 40
1.0
 40
1.0
 40
1.0
 40
1.0
 10
63.13875553977075
 20
204.8919614450879
 30
0.0
 10
63.13875553977075
 20
206.9631197779035
 30
0.0
 10
62.57924998435531
 20
208.9033975551962
 30
0.0
 10
61.63168887348087
 20
210.5166503325708
 30
0.0
  0
SPLINE
  5
1A3
330
1F
100
AcDbEntity
  8
GRAU_10_
 62
     7
100
AcDbSpline
210
0.0
220
0.0
230
1.0
 70
     8
 71
     3
 72
     8
 73
     4
 74
     0
 42
0.0000000001
 43
0.0000000001
 12
1.0
 22
0.0
 32
0.0
 13
1.0
 23
0.0
 33
0.0
 40
0.0
 40
0.0
 40
0.0
 40
0.0
 40
1.0
 40
1.0
 40
1.0
 40
1.0
 10
51.88902498702758
 20
193.6422308923447
 30
0.0
 10
58.10214720769655
 20
193.6422308923447
 30
0.0
 10
63.13875553977075
 20
198.6784864466412
 30
0.0
 10
63.13875553977075
 20
204.8919614450879
 30
0.0
  0
SPLINE
  5
1A4
330
1F
100
AcDbEntity
  8
GRAU_10_
 62
     7
100
AcDbSpline
210
0.0
220
0.0
230
1.0
 70
     8
 71
     3
 72
     8
 73
     4
 74
     0
 42
0.0000000001
 43
0.0000000001
 12
1.0
 22
0.0
 32
0.0
 13
1.0
 23
0.0
 33
0.0
 40
0.0
 40
0.0
 40
0.0
 40
0.0
 40
1.0
 40
1.0
 40
1.0
 40
1.0
 10
57.3884777634308
 20
204.8919614450879
 30
0.0
 10
57.3884777634308
 20
205.4705170004989
 30
0.0
 10
57.29957776345288
 20
206.0275531114707
 30
0.0
 10
57.14470831904704
 20
206.5122697780161
 30
0.0
  0
SPLINE
  5
1A5
330
1F
100
AcDbEntity
  8
GRAU_10_
 62
     7
100
AcDbSpline
210
0.0
220
0.0
230
1.0
 70
     8
 71
     3
 72
     8
 73
     4
 74
     0
 42
0.0000000001
 43
0.0000000001
 12
1.0
 22
0.0
 32
0.0
 13
1.0
 23
0.0
 33
0.0
 40
0.0
 40
0.0
 40
0.0
 40
0.0
 40
1.0
 40
1.0
 40
1.0
 40
1.0
 10
53.11316387561052
 20
199.5297392242063
 30
0.0
 10
55.65139998608698
 20
200.1097058907281
 30
0.0
 10
57.37507220787843
 20
202.3586642234991
 30
0.0
 10
57.3884777634308
 20
204.8919614450879
 30
0.0
  0
SPLINE
  5
1A6
330
1F
100
AcDbEntity
  8
GRAU_10_
 62
     7
100
AcDbSpline
210
0.0
220
0.0
230
1.0
 70
     8
 71
     3
 72
    11
 73
     7
 74
     0
 42
0.0000000001
 43
0.0000000001
 12
1.0
 22
0.0
 32
0.0
 13
1.0
 23
0.0
 33
0.0
 40
0.0
 40
0.0
 40
0.0
 40
0.0
 40
1.0
 40
1.0
 40
1.0
 40
2.0
 40
2.0
 40
2.0
 40
2.0
 10
42.14565554501909
 20
210.5166503325708
 30
0.0
 10
41.11025276750034
 20
208.7234808885744
 30
0.0
 10
40.62518332317717
 20
206.7634475557309
 30
0.0
 10
40.63858887872922
 20
204.8919614450879
 30
0.0
 10
40.63858887872922
 20
198.6784864466412
 30
0.0
 10
45.67554998858117
 20
193.6422308923447
 30
0.0
 10
51.88902498702758
 20
193.6422308923447
 30
0.0
  0
SPLINE
  5
1A7
330
1F
100
AcDbEntity
  8
GRAU_10_
 62
     7
100
AcDbSpline
210
0.0
220
0.0
230
1.0
 70
     8
 71
     3
 72
    11
 73
     7
 74
     0
 42
0.0000000001
 43
0.0000000001
 12
1.0
 22
0.0
 32
0.0
 13
1.0
 23
0.0
 33
0.0
 40
0.0
 40
0.0
 40
0.0
 40
0.0
 40
1.0
 40
1.0
 40
1.0
 40
2.0
 40
2.0
 40
2.0
 40
2.0
 10
46.63298887723068
 20
206.5122697780161
 30
0.0
 10
46.46259721060655
 20
205.9594670003765
 30
0.0
 10
46.38357498840403
 20
205.4010197782941
 30
0.0
 10
46.38886665506949
 20
204.8919614450879
 30
0.0
 10
46.38886665506949
 20
202.2888142235165
 30
0.0
 10
48.1975583212838
 20
200.1079420018392
 30
0.0
 10
50.6645333206672
 20
199.5297392242063
 30
0.0
  0
SPLINE
  5
1A8
330
1F
100
AcDbEntity
  8
GRAU_10_
 62
     7
100
AcDbSpline
210
0.0
220
0.0
230
1.0
 70
    11
 71
     3
 72
    17
 73
    13
 74
     0
 42
0.0000000001
 43
0.0000000001
 12
1.0
 22
0.0
 32
0.0
 13
1.0
 23
0.0
 33
0.0
 40
0.0
 40
0.0
 40
0.0
 40
0.0
 40
1.0
 40
1.0
 40
1.0
 40
2.0
 40
2.0
 40
2.0
 40
3.0
 40
3.0
 40
3.0
 40
4.0
 40
4.0
 40
4.0
 40
4.0
 10
63.83901942848478
 20
204.8919614450879
 30
0.0
 10
63.83901942848478
 20
211.4917281101045
 30
0.0
 10
58.4887916520445
 20
216.8416031087673
 30
0.0
 10
51.88902498702758
 20
216.8416031087673
 30
0.0
 10
45.28925832201099
 20
216.8416031087673
 30
0.0
 10
39.93867776779295
 20
211.4917281101045
 30
0.0
 10
39.93867776779295
 20
204.8919614450879
 30
0.0
 10
39.93867776779295
 20
198.2921947800713
 30
0.0
 10
45.28925832201099
 20
192.9419670036307
 30
0.0
 10
51.88902498702758
 20
192.9419670036307
 30
0.0
 10
58.4887916520445
 20
192.9419670036307
 30
0.0
 10
63.83901942848478
 20
198.2921947800713
 30
0.0
 10
63.83901942848478
 20
204.8919614450879
 30
0.0
  0
SPLINE
  5
1A9
330
1F
100
AcDbEntity
  8
GRAU_10_
 62
     7
100
AcDbSpline
210
0.0
220
0.0
230
1.0
 70
     8
 71
     3
 72
     8
 73
     4
 74
     0
 42
0.0000000001
 43
0.0000000001
 12
1.0
 22
0.0
 32
0.0
 13
1.0
 23
0.0
 33
0.0
 40
0.0
 40
0.0
 40
0.0
 40
0.0
 40
1.0
 40
1.0
 40
1.0
 40
1.0
 10
58.23479165210791
 20
218.9783781082327
 30
0.0
 10
57.01276943019121
 20
219.5290642192064
 30
0.0
 10
55.75688054161647
 20
219.9075947746671
 30
0.0
 10
54.60188609746066
 20
220.1016225523968
 30
0.0
  0
SPLINE
  5
1AA
330
1F
100
AcDbEntity
  8
GRAU_10_
 62
     7
100
AcDbSpline
210
0.0
220
0.0
230
1.0
 70
     8
 71
     3
 72
     8
 73
     4
 74
     0
 42
0.0000000001
 43
0.0000000001
 12
1.0
 22
0.0
 32
0.0
 13
1.0
 23
0.0
 33
0.0
 40
0.0
 40
0.0
 40
0.0
 40
0.0
 40
1.0
 40
1.0
 40
1.0
 40
1.0
 10
58.88319720750127
 20
217.9810753307045
 30
0.0
 10
58.88108054083534
 20
218.4224003305943
 30
0.0
 10
58.61861387423408
 20
218.8023419971657
 30
0.0
 10
58.23479165210791
 20
218.9783781082327
 30
0.0
  0
SPLINE
  5
1AB
330
1F
100
AcDbEntity
  8
GRAU_10_
 62
     7
100
AcDbSpline
210
0.0
220
0.0
230
1.0
 70
     8
 71
     3
 72
     8
 73
     4
 74
     0
 42
0.0000000001
 43
0.0000000001
 12
1.0
 22
0.0
 32
0.0
 13
1.0
 23
0.0
 33
0.0
 40
0.0
 40
0.0
 40
0.0
 40
0.0
 40
1.0
 40
1.0
 40
1.0
 40
1.0
 10
45.54290554416981
 20
218.9783781082327
 30
0.0
 10
45.14003332204837
 20
218.7966975527228
 30
0.0
 10
44.89979165544159
 20
218.4029975528212
 30
0.0
 10
44.89449998877645
 20
217.9810753307045
 30
0.0
  0
SPLINE
  5
1AC
330
1F
100
AcDbEntity
  8
GRAU_10_
 62
     7
100
AcDbSpline
210
0.0
220
0.0
230
1.0
 70
     8
 71
     3
 72
     8
 73
     4
 74
     0
 42
0.0000000001
 43
0.0000000001
 12
1.0
 22
0.0
 32
0.0
 13
1.0
 23
0.0
 33
0.0
 40
0.0
 40
0.0
 40
0.0
 40
0.0
 40
1.0
 40
1.0
 40
1.0
 40
1.0
 10
49.17581109881706
 20
220.1016225523968
 30
0.0
 10
47.8564222102581
 20
219.8666725524551
 30
0.0
 10
46.6058249883485
 20
219.4701503303321
 30
0.0
 10
45.54290554416981
 20
218.9783781082327
 30
0.0
  0
POLYLINE
  5
1AD
330
1F
100
AcDbEntity
  8
GRAU_10_
 62
     7
100
AcDb2dPolyline
 66
     1
 10
0.0
 20
0.0
 30
0.0
  0
VERTEX
  5
1AE
330
1AD
100
AcDbEntity
  8
GRAU_10_
 62
     7
100
AcDbVertex
100
AcDb2dVertex
 10
49.72896665423441
 20
219.3819558859097
 30
0.0
  0
VERTEX
  5
1AF
330
1AD
100
AcDbEntity
  8
GRAU_10_
 62
     7
100
AcDbVertex
100
AcDb2dVertex
 10
49.17581109881706
 20
220.1016225523968
 30
0.0
  0
SEQEND
  5
1B0
330
1AD
100
AcDbEntity
  8
GRAU_10_
 62
     7
  0
SPLINE
  5
1B1
330
1F
100
AcDbEntity
  8
GRAU_10_
 62
     7
100
AcDbSpline
210
0.0
220
0.0
230
1.0
 70
     8
 71
     3
 72
     8
 73
     4
 74
     0
 42
0.0000000001
 43
0.0000000001
 12
1.0
 22
0.0
 32
0.0
 13
1.0
 23
0.0
 33
0.0
 40
0.0
 40
0.0
 40
0.0
 40
0.0
 40
1.0
 40
1.0
 40
1.0
 40
1.0
 10
54.04837776426555
 20
219.3819558859097
 30
0.0
 10
52.54131109797568
 20
219.6063225525204
 30
0.0
 10
51.05294165390331
 20
219.5932697747458
 30
0.0
 10
49.72896665423441
 20
219.3819558859097
 30
0.0
  0
POLYLINE
  5
1B2
330
1F
100
AcDbEntity
  8
GRAU_10_
 62
     7
100
AcDb2dPolyline
 66
     1
 10
0.0
 20
0.0
 30
0.0
  0
VERTEX
  5
1B3
330
1B2
100
AcDbEntity
  8
GRAU_10_
 62
     7
100
AcDbVertex
100
AcDb2dVertex
 10
54.04837776426555
 20
219.3819558859097
 30
0.0
  0
VERTEX
  5
1B4
330
1B2
100
AcDbEntity
  8
GRAU_10_
 62
     7
100
AcDbVertex
100
AcDb2dVertex
 10
54.60188609746066
 20
220.1016225523968
 30
0.0
  0
SEQEND
  5
1B5
330
1B2
100
AcDbEntity
  8
GRAU_10_
 62
     7
  0
SPLINE
  5
1B6
330
1F
100
AcDbEntity
  8
GRAU_10_
 62
     7
100
AcDbSpline
210
0.0
220
0.0
230
1.0
 70
     8
 71
     3
 72
     8
 73
     4
 74
     0
 42
0.0000000001
 43
0.0000000001
 12
1.0
 22
0.0
 32
0.0
 13
1.0
 23
0.0
 33
0.0
 40
0.0
 40
0.0
 40
0.0
 40
0.0
 40
1.0
 40
1.0
 40
1.0
 40
1.0
 10
44.88779721100027
 20
217.7605892196486
 30
0.0
 10
44.89238332211021
 20
217.83820033074
 30
0.0
 10
44.89449998877645
 20
217.9147531084989
 30
0.0
 10
44.89449998877645
 20
217.9810753307045
 30
0.0
  0
SPLINE
  5
1B7
330
1F
100
AcDbEntity
  8
GRAU_10_
 62
     7
100
AcDbSpline
210
0.0
220
0.0
230
1.0
 70
     8
 71
     3
 72
     8
 73
     4
 74
     0
 42
0.0000000001
 43
0.0000000001
 12
1.0
 22
0.0
 32
0.0
 13
1.0
 23
0.0
 33
0.0
 40
0.0
 40
0.0
 40
0.0
 40
0.0
 40
1.0
 40
1.0
 40
1.0
 40
1.0
 10
66.53847498336549
 20
204.8919614450879
 30
0.0
 10
66.53847498336549
 20
210.4164614437067
 30
0.0
 10
63.48059720635197
 20
215.2265864425043
 30
0.0
 10
58.88989998527745
 20
217.7605892196486
 30
0.0
  0
SPLINE
  5
1B8
330
1F
100
AcDbEntity
  8
GRAU_10_
 62
     7
100
AcDbSpline
210
0.0
220
0.0
230
1.0
 70
     8
 71
     3
 72
    14
 73
    10
 74
     0
 42
0.0000000001
 43
0.0000000001
 12
1.0
 22
0.0
 32
0.0
 13
1.0
 23
0.0
 33
0.0
 40
0.0
 40
0.0
 40
0.0
 40
0.0
 40
1.0
 40
1.0
 40
1.0
 40
2.0
 40
2.0
 40
2.0
 40
3.0
 40
3.0
 40
3.0
 40
3.0
 10
44.88779721100027
 20
217.7605892196486
 30
0.0
 10
40.03498610110225
 20
215.1204003314196
 30
0.0
 10
37.27097221290435
 20
210.1352975548883
 30
0.0
 10
37.23851665735704
 20
204.8919614450879
 30
0.0
 10
37.23851665735704
 20
196.8010031137772
 30
0.0
 10
43.79806665571716
 20
190.2421586709726
 30
0.0
 10
51.88902498702758
 20
190.2421586709726
 30
0.0
 10
59.97963054056056
 20
190.2421586709726
 30
0.0
 10
66.53847498336549
 20
196.8010031137772
 30
0.0
 10
66.53847498336549
 20
204.8919614450879
 30
0.0
  0
SPLINE
  5
1B9
330
1F
100
AcDbEntity
  8
GRAU_10_
 62
     7
100
AcDbSpline
210
0.0
220
0.0
230
1.0
 70
     8
 71
     3
 72
     8
 73
     4
 74
     0
 42
0.0000000001
 43
0.0000000001
 12
1.0
 22
0.0
 32
0.0
 13
1.0
 23
0.0
 33
0.0
 40
0.0
 40
0.0
 40
0.0
 40
0.0
 40
1.0
 40
1.0
 40
1.0
 40
1.0
 10
58.88319720750127
 20
217.9810753307045
 30
0.0
 10
58.88354998527903
 20
217.9031114418353
 30
0.0
 10
58.88566665194528
 20
217.8265586640765
 30
0.0
 10
58.88989998527745
 20
217.7605892196486
 30
0.0
  0
SPLINE
  5
1BA
330
1F
100
AcDbEntity
  8
GRAU_10_
 62
     7
100
AcDbSpline
210
0.0
220
0.0
230
1.0
 70
    11
 71
     3
 72
    17
 73
    13
 74
     0
 42
0.0000000001
 43
0.0000000001
 12
1.0
 22
0.0
 32
0.0
 13
1.0
 23
0.0
 33
0.0
 40
0.0
 40
0.0
 40
0.0
 40
0.0
 40
1.0
 40
1.0
 40
1.0
 40
2.0
 40
2.0
 40
2.0
 40
3.0
 40
3.0
 40
3.0
 40
4.0
 40
4.0
 40
4.0
 40
4.0
 10
67.38902220537508
 20
204.8919614450879
 30
0.0
 10
67.38902220537508
 20
213.4524669985035
 30
0.0
 10
60.44882498488768
 20
220.3916058856576
 30
0.0
 10
51.88902498702758
 20
220.3916058856576
 30
0.0
 10
43.32816665583452
 20
220.3916058856576
 30
0.0
 10
36.38902776868039
 20
213.4524669985035
 30
0.0
 10
36.38902776868039
 20
204.8919614450879
 30
0.0
 10
36.38902776868039
 20
196.3314558916723
 30
0.0
 10
43.32816665583452
 20
189.3919642267407
 30
0.0
 10
51.88902498702758
 20
189.3919642267407
 30
0.0
 10
60.44882498488768
 20
189.3919642267407
 30
0.0
 10
67.38902220537508
 20
196.3314558916723
 30
0.0
 10
67.38902220537508
 20
204.8919614450879
 30
0.0
  0
SPLINE
  5
1BB
330
1F
100
AcDbEntity
  8
GRAU_10_
 62
     7
100
AcDbSpline
210
0.0
220
0.0
230
1.0
 70
     8
 71
     3
 72
     8
 73
     4
 74
     0
 42
0.0000000001
 43
0.0000000001
 12
1.0
 22
0.0
 32
0.0
 13
1.0
 23
0.0
 33
0.0
 40
0.0
 40
0.0
 40
0.0
 40
0.0
 40
1.0
 40
1.0
 40
1.0
 40
1.0
 10
59.3890805407082
 20
224.5071114401841
 30
0.0
 10
59.3890805407082
 20
221.9699336630406
 30
0.0
 10
60.56982776263515
 20
219.7086281080504
 30
0.0
 10
62.42861387328165
 20
218.2304892195312
 30
0.0
  0
SPLINE
  5
1BC
330
1F
100
AcDbEntity
  8
GRAU_10_
 62
     7
100
AcDbSpline
210
0.0
220
0.0
230
1.0
 70
     8
 71
     3
 72
     8
 73
     4
 74
     0
 42
0.0000000001
 43
0.0000000001
 12
1.0
 22
0.0
 32
0.0
 13
1.0
 23
0.0
 33
0.0
 40
0.0
 40
0.0
 40
0.0
 40
0.0
 40
1.0
 40
1.0
 40
1.0
 40
1.0
 10
41.34908332299608
 20
218.2304892195312
 30
0.0
 10
43.33980832249841
 20
219.8031725524712
 30
0.0
 10
44.38156110001557
 20
222.131858663
 30
0.0
 10
44.38861665556952
 20
224.5071114401841
 30
0.0
  0
POLYLINE
  5
1BD
330
1F
100
AcDbEntity
  8
GRAU_10_
 62
     7
100
AcDb2dPolyline
 66
     1
 10
0.0
 20
0.0
 30
0.0
  0
VERTEX
  5
1BE
330
1BD
100
AcDbEntity
  8
GRAU_10_
 62
     7
100
AcDbVertex
100
AcDb2dVertex
 10
59.3890805407082
 20
227.3921281061294
 30
0.0
  0
VERTEX
  5
1BF
330
1BD
100
AcDbEntity
  8
GRAU_10_
 62
     7
100
AcDbVertex
100
AcDb2dVertex
 10
44.38861665556952
 20
227.3921281061294
 30
0.0
  0
SEQEND
  5
1C0
330
1BD
100
AcDbEntity
  8
GRAU_10_
 62
     7
  0
POLYLINE
  5
1C1
330
1F
100
AcDbEntity
  8
GRAU_10_
 62
     7
100
AcDb2dPolyline
 66
     1
 10
0.0
 20
0.0
 30
0.0
  0
VERTEX
  5
1C2
330
1C1
100
AcDbEntity
  8
GRAU_10_
 62
     7
100
AcDbVertex
100
AcDb2dVertex
 10
59.3890805407082
 20
224.5071114401841
 30
0.0
  0
VERTEX
  5
1C3
330
1C1
100
AcDbEntity
  8
GRAU_10_
 62
     7
100
AcDbVertex
100
AcDb2dVertex
 10
59.3890805407082
 20
227.3921281061294
 30
0.0
  0
SEQEND
  5
1C4
330
1C1
100
AcDbEntity
  8
GRAU_10_
 62
     7
  0
POLYLINE
  5
1C5
330
1F
100
AcDbEntity
  8
GRAU_10_
 62
     7
100
AcDb2dPolyline
 66
     1
 10
0.0
 20
0.0
 30
0.0
  0
VERTEX
  5
1C6
330
1C5
100
AcDbEntity
  8
GRAU_10_
 62
     7
100
AcDbVertex
100
AcDb2dVertex
 10
44.38861665556952
 20
227.3921281061294
 30
0.0
  0
VERTEX
  5
1C7
330
1C5
100
AcDbEntity
  8
GRAU_10_
 62
     7
100
AcDbVertex
100
AcDb2dVertex
 10
44.38861665556952
 20
224.5071114401841
 30
0.0
  0
SEQEND
  5
1C8
330
1C5
100
AcDbEntity
  8
GRAU_10_
 62
     7
  0
SPLINE
  5
1C9
330
1F
100
AcDbEntity
  8
GRAU_10_
 62
     7
100
AcDbSpline
210
0.0
220
0.0
230
1.0
 70
     8
 71
     3
 72
     8
 73
     4
 74
     0
 42
0.0000000001
 43
0.0000000001
 12
1.0
 22
0.0
 32
0.0
 13
1.0
 23
0.0
 33
0.0
 40
0.0
 40
0.0
 40
0.0
 40
0.0
 40
1.0
 40
1.0
 40
1.0
 40
1.0
 10
68.88868053833326
 20
204.8919614450879
 30
0.0
 10
68.88868053833326
 20
210.2838169992957
 30
0.0
 10
66.37866665007195
 20
215.0890031092052
 30
0.0
 10
62.42861387328165
 20
218.2304892195312
 30
0.0
  0
SPLINE
  5
1CA
330
1F
100
AcDbEntity
  8
GRAU_10_
 62
     7
100
AcDbSpline
210
0.0
220
0.0
230
1.0
 70
     8
 71
     3
 72
    14
 73
    10
 74
     0
 42
0.0000000001
 43
0.0000000001
 12
1.0
 22
0.0
 32
0.0
 13
1.0
 23
0.0
 33
0.0
 40
0.0
 40
0.0
 40
0.0
 40
0.0
 40
1.0
 40
1.0
 40
1.0
 40
2.0
 40
2.0
 40
2.0
 40
3.0
 40
3.0
 40
3.0
 40
3.0
 10
41.34908332299608
 20
218.2304892195312
 30
0.0
 10
37.11857221294252
 20
214.8875669981445
 30
0.0
 10
34.90453888016276
 20
209.9384475549372
 30
0.0
 10
34.8886638801667
 20
204.8919614450879
 30
0.0
 10
34.8886638801667
 20
195.5031336696572
 30
0.0
 10
42.50019721159716
 20
187.891600338227
 30
0.0
 10
51.88902498702758
 20
187.891600338227
 30
0.0
 10
61.27749998468057
 20
187.891600338227
 30
0.0
 10
68.88868053833326
 20
195.5031336696572
 30
0.0
 10
68.88868053833326
 20
204.8919614450879
 30
0.0
  0
POLYLINE
  5
1CC
330
1F
100
AcDbEntity
  8
STANDARDEBENE
 62
     7
100
AcDb2dPolyline
 66
     1
 10
0.0
 20
0.0
 30
0.0
  0
VERTEX
  5
1CD
330
1CC
100
AcDbEntity
  8
STANDARDEBENE
 62
     7
100
AcDbVertex
100
AcDb2dVertex
 10
114.1518333047957
 20
220.3916058856576
 30
0.0
  0
VERTEX
  5
1CE
330
1CC
100
AcDbEntity
  8
STANDARDEBENE
 62
     7
100
AcDbVertex
100
AcDb2dVertex
 10
114.0519971937094
 20
220.3916058856576
 30
0.0
  0
SEQEND
  5
1CF
330
1CC
100
AcDbEntity
  8
STANDARDEBENE
 62
     7
  0
POLYLINE
  5
1D0
330
1F
100
AcDbEntity
  8
STANDARDEBENE
 62
     7
100
AcDb2dPolyline
 66
     1
 10
0.0
 20
0.0
 30
0.0
  0
VERTEX
  5
1D1
330
1D0
100
AcDbEntity
  8
STANDARDEBENE
 62
     7
100
AcDbVertex
100
AcDb2dVertex
 10
114.0519971937094
 20
189.3919642267407
 30
0.0
  0
VERTEX
  5
1D2
330
1D0
100
AcDbEntity
  8
STANDARDEBENE
 62
     7
100
AcDbVertex
100
AcDb2dVertex
 10
114.1518333047957
 20
189.3919642267407
 30
0.0
  0
SEQEND
  5
1D3
330
1D0
100
AcDbEntity
  8
STANDARDEBENE
 62
     7
  0
POLYLINE
  5
1D4
330
1F
100
AcDbEntity
  8
STANDARDEBENE
 62
     7
100
AcDb2dPolyline
 66
     1
 10
0.0
 20
0.0
 30
0.0
  0
VERTEX
  5
1D5
330
1D4
100
AcDbEntity
  8
STANDARDEBENE
 62
     7
100
AcDbVertex
100
AcDb2dVertex
 10
133.8523555220925
 20
189.3919642267407
 30
0.0
  0
VERTEX
  5
1D6
330
1D4
100
AcDbEntity
  8
STANDARDEBENE
 62
     7
100
AcDbVertex
100
AcDb2dVertex
 10
133.9521916331788
 20
189.3919642267407
 30
0.0
  0
SEQEND
  5
1D7
330
1D4
100
AcDbEntity
  8
STANDARDEBENE
 62
     7
  0
POLYLINE
  5
1D8
330
1F
100
AcDbEntity
  8
STANDARDEBENE
 62
     7
100
AcDb2dPolyline
 66
     1
 10
0.0
 20
0.0
 30
0.0
  0
VERTEX
  5
1D9
330
1D8
100
AcDbEntity
  8
STANDARDEBENE
 62
     7
100
AcDbVertex
100
AcDb2dVertex
 10
133.9521916331788
 20
220.3916058856576
 30
0.0
  0
VERTEX
  5
1DA
330
1D8
100
AcDbEntity
  8
STANDARDEBENE
 62
     7
100
AcDbVertex
100
AcDb2dVertex
 10
133.8523555220925
 20
220.3916058856576
 30
0.0
  0
SEQEND
  5
1DB
330
1D8
100
AcDbEntity
  8
STANDARDEBENE
 62
     7
  0
POLYLINE
  5
1DC
330
1F
100
AcDbEntity
  8
STANDARDEBENE
 62
     7
100
AcDb2dPolyline
 66
     1
 10
0.0
 20
0.0
 30
0.0
  0
VERTEX
  5
1DD
330
1DC
100
AcDbEntity
  8
STANDARDEBENE
 62
     7
100
AcDbVertex
100
AcDb2dVertex
 10
114.0519971937094
 20
192.741942003681
 30
0.0
  0
VERTEX
  5
1DE
330
1DC
100
AcDbEntity
  8
STANDARDEBENE
 62
     7
100
AcDbVertex
100
AcDb2dVertex
 10
114.1694721936799
 20
193.4161003368459
 30
0.0
  0
SEQEND
  5
1DF
330
1DC
100
AcDbEntity
  8
STANDARDEBENE
 62
     7
  0
POLYLINE
  5
1E0
330
1F
100
AcDbEntity
  8
STANDARDEBENE
 62
     7
100
AcDb2dPolyline
 66
     1
 10
0.0
 20
0.0
 30
0.0
  0
VERTEX
  5
1E1
330
1E0
100
AcDbEntity
  8
STANDARDEBENE
 62
     7
100
AcDbVertex
100
AcDb2dVertex
 10
115.025311082355
 20
194.4585586699185
 30
0.0
  0
VERTEX
  5
1E2
330
1E0
100
AcDbEntity
  8
STANDARDEBENE
 62
     7
100
AcDbVertex
100
AcDb2dVertex
 10
115.6638388599729
 20
194.7040920031905
 30
0.0
  0
SEQEND
  5
1E3
330
1E0
100
AcDbEntity
  8
STANDARDEBENE
 62
     7
  0
POLYLINE
  5
1E4
330
1F
100
AcDbEntity
  8
STANDARDEBENE
 62
     7
100
AcDb2dPolyline
 66
     1
 10
0.0
 20
0.0
 30
0.0
  0
VERTEX
  5
1E5
330
1E4
100
AcDbEntity
  8
STANDARDEBENE
 62
     7
100
AcDbVertex
100
AcDb2dVertex
 10
115.6638388599729
 20
215.0801836647631
 30
0.0
  0
VERTEX
  5
1E6
330
1E4
100
AcDbEntity
  8
STANDARDEBENE
 62
     7
100
AcDbVertex
100
AcDb2dVertex
 10
115.025311082355
 20
215.3253642202573
 30
0.0
  0
SEQEND
  5
1E7
330
1E4
100
AcDbEntity
  8
STANDARDEBENE
 62
     7
  0
POLYLINE
  5
1E8
330
1F
100
AcDbEntity
  8
STANDARDEBENE
 62
     7
100
AcDb2dPolyline
 66
     1
 10
0.0
 20
0.0
 30
0.0
  0
VERTEX
  5
1E9
330
1E8
100
AcDbEntity
  8
STANDARDEBENE
 62
     7
100
AcDbVertex
100
AcDb2dVertex
 10
114.1694721936799
 20
216.3678225533299
 30
0.0
  0
VERTEX
  5
1EA
330
1E8
100
AcDbEntity
  8
STANDARDEBENE
 62
     7
100
AcDbVertex
100
AcDb2dVertex
 10
114.0519971937094
 20
217.041628108717
 30
0.0
  0
SEQEND
  5
1EB
330
1E8
100
AcDbEntity
  8
STANDARDEBENE
 62
     7
  0
POLYLINE
  5
1EC
330
1F
100
AcDbEntity
  8
STANDARDEBENE
 62
     7
100
AcDb2dPolyline
 66
     1
 10
0.0
 20
0.0
 30
0.0
  0
VERTEX
  5
1ED
330
1EC
100
AcDbEntity
  8
STANDARDEBENE
 62
     7
100
AcDbVertex
100
AcDb2dVertex
 10
115.6638388599729
 20
194.7040920031905
 30
0.0
  0
VERTEX
  5
1EE
330
1EC
100
AcDbEntity
  8
STANDARDEBENE
 62
     7
100
AcDbVertex
100
AcDb2dVertex
 10
115.6638388599729
 20
194.8078086698312
 30
0.0
  0
VERTEX
  5
1EF
330
1EC
100
AcDbEntity
  8
STANDARDEBENE
 62
     7
100
AcDbVertex
100
AcDb2dVertex
 10
115.6638388599729
 20
195.1164892253095
 30
0.0
  0
VERTEX
  5
1F0
330
1EC
100
AcDbEntity
  8
STANDARDEBENE
 62
     7
100
AcDbVertex
100
AcDb2dVertex
 10
115.6638388599729
 20
195.2131503363963
 30
0.0
  0
SEQEND
  5
1F1
330
1EC
100
AcDbEntity
  8
STANDARDEBENE
 62
     7
  0
POLYLINE
  5
1F2
330
1F
100
AcDbEntity
  8
STANDARDEBENE
 62
     7
100
AcDb2dPolyline
 66
     1
 10
0.0
 20
0.0
 30
0.0
  0
VERTEX
  5
1F3
330
1F2
100
AcDbEntity
  8
STANDARDEBENE
 62
     7
100
AcDbVertex
100
AcDb2dVertex
 10
115.6638388599729
 20
196.2323253361419
 30
0.0
  0
VERTEX
  5
1F4
330
1F2
100
AcDbEntity
  8
STANDARDEBENE
 62
     7
100
AcDbVertex
100
AcDb2dVertex
 10
115.6638388599729
 20
196.320872558342
 30
0.0
  0
VERTEX
  5
1F5
330
1F2
100
AcDbEntity
  8
STANDARDEBENE
 62
     7
100
AcDbVertex
100
AcDb2dVertex
 10
115.6638388599729
 20
197.1925864470128
 30
0.0
  0
VERTEX
  5
1F6
330
1F2
100
AcDbEntity
  8
STANDARDEBENE
 62
     7
100
AcDbVertex
100
AcDb2dVertex
 10
115.6638388599729
 20
197.2507947803313
 30
0.0
  0
SEQEND
  5
1F7
330
1F2
100
AcDbEntity
  8
STANDARDEBENE
 62
     7
  0
POLYLINE
  5
1F8
330
1F
100
AcDbEntity
  8
STANDARDEBENE
 62
     7
100
AcDb2dPolyline
 66
     1
 10
0.0
 20
0.0
 30
0.0
  0
VERTEX
  5
1F9
330
1F8
100
AcDbEntity
  8
STANDARDEBENE
 62
     7
100
AcDbVertex
100
AcDb2dVertex
 10
115.6638388599729
 20
198.2696170022991
 30
0.0
  0
VERTEX
  5
1FA
330
1F8
100
AcDbEntity
  8
STANDARDEBENE
 62
     7
100
AcDbVertex
100
AcDb2dVertex
 10
115.6638388599729
 20
199.288792002044
 30
0.0
  0
SEQEND
  5
1FB
330
1F8
100
AcDbEntity
  8
STANDARDEBENE
 62
     7
  0
POLYLINE
  5
1FC
330
1F
100
AcDbEntity
  8
STANDARDEBENE
 62
     7
100
AcDb2dPolyline
 66
     1
 10
0.0
 20
0.0
 30
0.0
  0
VERTEX
  5
1FD
330
1FC
100
AcDbEntity
  8
STANDARDEBENE
 62
     7
100
AcDbVertex
100
AcDb2dVertex
 10
115.6638388599729
 20
200.3076142240118
 30
0.0
  0
VERTEX
  5
1FE
330
1FC
100
AcDbEntity
  8
STANDARDEBENE
 62
     7
100
AcDbVertex
100
AcDb2dVertex
 10
115.6638388599729
 20
200.6593336683681
 30
0.0
  0
VERTEX
  5
1FF
330
1FC
100
AcDbEntity
  8
STANDARDEBENE
 62
     7
100
AcDbVertex
100
AcDb2dVertex
 10
115.6638388599729
 20
201.3260836682015
 30
0.0
  0
SEQEND
  5
200
330
1FC
100
AcDbEntity
  8
STANDARDEBENE
 62
     7
  0
POLYLINE
  5
201
330
1F
100
AcDbEntity
  8
STANDARDEBENE
 62
     7
100
AcDb2dPolyline
 66
     1
 10
0.0
 20
0.0
 30
0.0
  0
VERTEX
  5
202
330
201
100
AcDbEntity
  8
STANDARDEBENE
 62
     7
100
AcDbVertex
100
AcDb2dVertex
 10
115.6638388599729
 20
202.344905890169
 30
0.0
  0
VERTEX
  5
203
330
201
100
AcDbEntity
  8
STANDARDEBENE
 62
     7
100
AcDbVertex
100
AcDb2dVertex
 10
115.6638388599729
 20
203.3633753343591
 30
0.0
  0
SEQEND
  5
204
330
201
100
AcDbEntity
  8
STANDARDEBENE
 62
     7
  0
POLYLINE
  5
205
330
1F
100
AcDbEntity
  8
STANDARDEBENE
 62
     7
100
AcDb2dPolyline
 66
     1
 10
0.0
 20
0.0
 30
0.0
  0
VERTEX
  5
206
330
205
100
AcDbEntity
  8
STANDARDEBENE
 62
     7
100
AcDbVertex
100
AcDb2dVertex
 10
115.6638388599729
 20
204.3821975563262
 30
0.0
  0
VERTEX
  5
207
330
205
100
AcDbEntity
  8
STANDARDEBENE
 62
     7
100
AcDbVertex
100
AcDb2dVertex
 10
115.6638388599729
 20
204.8919614450879
 30
0.0
  0
VERTEX
  5
208
330
205
100
AcDbEntity
  8
STANDARDEBENE
 62
     7
100
AcDbVertex
100
AcDb2dVertex
 10
115.6638388599729
 20
205.4013725560718
 30
0.0
  0
SEQEND
  5
209
330
205
100
AcDbEntity
  8
STANDARDEBENE
 62
     7
  0
POLYLINE
  5
20A
330
1F
100
AcDbEntity
  8
STANDARDEBENE
 62
     7
100
AcDb2dPolyline
 66
     1
 10
0.0
 20
0.0
 30
0.0
  0
VERTEX
  5
20B
330
20A
100
AcDbEntity
  8
STANDARDEBENE
 62
     7
100
AcDbVertex
100
AcDb2dVertex
 10
115.6638388599729
 20
206.420194778039
 30
0.0
  0
VERTEX
  5
20C
330
20A
100
AcDbEntity
  8
STANDARDEBENE
 62
     7
100
AcDbVertex
100
AcDb2dVertex
 10
115.6638388599729
 20
207.438664222229
 30
0.0
  0
SEQEND
  5
20D
330
20A
100
AcDbEntity
  8
STANDARDEBENE
 62
     7
  0
POLYLINE
  5
20E
330
1F
100
AcDbEntity
  8
STANDARDEBENE
 62
     7
100
AcDb2dPolyline
 66
     1
 10
0.0
 20
0.0
 30
0.0
  0
VERTEX
  5
20F
330
20E
100
AcDbEntity
  8
STANDARDEBENE
 62
     7
100
AcDbVertex
100
AcDb2dVertex
 10
115.6638388599729
 20
208.457839221974
 30
0.0
  0
VERTEX
  5
210
330
20E
100
AcDbEntity
  8
STANDARDEBENE
 62
     7
100
AcDbVertex
100
AcDb2dVertex
 10
115.6638388599729
 20
209.1242364440299
 30
0.0
  0
VERTEX
  5
211
330
20E
100
AcDbEntity
  8
STANDARDEBENE
 62
     7
100
AcDbVertex
100
AcDb2dVertex
 10
115.6638388599729
 20
209.4766614439418
 30
0.0
  0
SEQEND
  5
212
330
20E
100
AcDbEntity
  8
STANDARDEBENE
 62
     7
  0
POLYLINE
  5
213
330
1F
100
AcDbEntity
  8
STANDARDEBENE
 62
     7
100
AcDb2dPolyline
 66
     1
 10
0.0
 20
0.0
 30
0.0
  0
VERTEX
  5
214
330
213
100
AcDbEntity
  8
STANDARDEBENE
 62
     7
100
AcDbVertex
100
AcDb2dVertex
 10
115.6638388599729
 20
210.4951308881315
 30
0.0
  0
VERTEX
  5
215
330
213
100
AcDbEntity
  8
STANDARDEBENE
 62
     7
100
AcDbVertex
100
AcDb2dVertex
 10
115.6638388599729
 20
211.513953110099
 30
0.0
  0
SEQEND
  5
216
330
213
100
AcDbEntity
  8
STANDARDEBENE
 62
     7
  0
POLYLINE
  5
217
330
1F
100
AcDbEntity
  8
STANDARDEBENE
 62
     7
100
AcDb2dPolyline
 66
     1
 10
0.0
 20
0.0
 30
0.0
  0
VERTEX
  5
218
330
217
100
AcDbEntity
  8
STANDARDEBENE
 62
     7
100
AcDbVertex
100
AcDb2dVertex
 10
115.6638388599729
 20
212.5331281098442
 30
0.0
  0
VERTEX
  5
219
330
217
100
AcDbEntity
  8
STANDARDEBENE
 62
     7
100
AcDbVertex
100
AcDb2dVertex
 10
115.6638388599729
 20
212.591336443163
 30
0.0
  0
VERTEX
  5
21A
330
217
100
AcDbEntity
  8
STANDARDEBENE
 62
     7
100
AcDbVertex
100
AcDb2dVertex
 10
115.6638388599729
 20
213.4626975540563
 30
0.0
  0
VERTEX
  5
21B
330
217
100
AcDbEntity
  8
STANDARDEBENE
 62
     7
100
AcDbVertex
100
AcDb2dVertex
 10
115.6638388599729
 20
213.5519503318117
 30
0.0
  0
SEQEND
  5
21C
330
217
100
AcDbEntity
  8
STANDARDEBENE
 62
     7
  0
POLYLINE
  5
21D
330
1F
100
AcDbEntity
  8
STANDARDEBENE
 62
     7
100
AcDb2dPolyline
 66
     1
 10
0.0
 20
0.0
 30
0.0
  0
VERTEX
  5
21E
330
21D
100
AcDbEntity
  8
STANDARDEBENE
 62
     7
100
AcDbVertex
100
AcDb2dVertex
 10
115.6638388599729
 20
214.5704197760018
 30
0.0
  0
VERTEX
  5
21F
330
21D
100
AcDbEntity
  8
STANDARDEBENE
 62
     7
100
AcDbVertex
100
AcDb2dVertex
 10
115.6638388599729
 20
214.6670808870885
 30
0.0
  0
VERTEX
  5
220
330
21D
100
AcDbEntity
  8
STANDARDEBENE
 62
     7
100
AcDbVertex
100
AcDb2dVertex
 10
115.6638388599729
 20
214.9761142203446
 30
0.0
  0
VERTEX
  5
221
330
21D
100
AcDbEntity
  8
STANDARDEBENE
 62
     7
100
AcDbVertex
100
AcDb2dVertex
 10
115.6638388599729
 20
215.0801836647631
 30
0.0
  0
SEQEND
  5
222
330
21D
100
AcDbEntity
  8
STANDARDEBENE
 62
     7
  0
POLYLINE
  5
223
330
1F
100
AcDbEntity
  8
STANDARDEBENE
 62
     7
100
AcDb2dPolyline
 66
     1
 10
0.0
 20
0.0
 30
0.0
  0
VERTEX
  5
224
330
223
100
AcDbEntity
  8
STANDARDEBENE
 62
     7
100
AcDbVertex
100
AcDb2dVertex
 10
121.5516999696123
 20
216.1420447756088
 30
0.0
  0
VERTEX
  5
225
330
223
100
AcDbEntity
  8
STANDARDEBENE
 62
     7
100
AcDbVertex
100
AcDb2dVertex
 10
121.3989471918727
 20
215.8760503312306
 30
0.0
  0
SEQEND
  5
226
330
223
100
AcDbEntity
  8
STANDARDEBENE
 62
     7
  0
POLYLINE
  5
227
330
1F
100
AcDbEntity
  8
STANDARDEBENE
 62
     7
100
AcDb2dPolyline
 66
     1
 10
0.0
 20
0.0
 30
0.0
  0
VERTEX
  5
228
330
227
100
AcDbEntity
  8
STANDARDEBENE
 62
     7
100
AcDbVertex
100
AcDb2dVertex
 10
121.0920305252828
 20
215.3454725535858
 30
0.0
  0
VERTEX
  5
229
330
227
100
AcDbEntity
  8
STANDARDEBENE
 62
     7
100
AcDbVertex
100
AcDb2dVertex
 10
120.9385721919877
 20
215.0801836647631
 30
0.0
  0
SEQEND
  5
22A
330
227
100
AcDbEntity
  8
STANDARDEBENE
 62
     7
  0
POLYLINE
  5
22B
330
1F
100
AcDbEntity
  8
STANDARDEBENE
 62
     7
100
AcDb2dPolyline
 66
     1
 10
0.0
 20
0.0
 30
0.0
  0
VERTEX
  5
22C
330
22B
100
AcDbEntity
  8
STANDARDEBENE
 62
     7
100
AcDbVertex
100
AcDb2dVertex
 10
120.9385721919877
 20
194.7040920031905
 30
0.0
  0
VERTEX
  5
22D
330
22B
100
AcDbEntity
  8
STANDARDEBENE
 62
     7
100
AcDbVertex
100
AcDb2dVertex
 10
121.0920305252828
 20
194.4380975588122
 30
0.0
  0
SEQEND
  5
22E
330
22B
100
AcDbEntity
  8
STANDARDEBENE
 62
     7
  0
POLYLINE
  5
22F
330
1F
100
AcDbEntity
  8
STANDARDEBENE
 62
     7
100
AcDb2dPolyline
 66
     1
 10
0.0
 20
0.0
 30
0.0
  0
VERTEX
  5
230
330
22F
100
AcDbEntity
  8
STANDARDEBENE
 62
     7
100
AcDbVertex
100
AcDb2dVertex
 10
121.3989471918727
 20
193.9071670033897
 30
0.0
  0
VERTEX
  5
231
330
22F
100
AcDbEntity
  8
STANDARDEBENE
 62
     7
100
AcDbVertex
100
AcDb2dVertex
 10
121.5516999696123
 20
193.6422308923447
 30
0.0
  0
VERTEX
  5
232
330
22F
100
AcDbEntity
  8
STANDARDEBENE
 62
     7
100
AcDbVertex
100
AcDb2dVertex
 10
121.5516999696123
 20
193.7466531145409
 30
0.0
  0
VERTEX
  5
233
330
22F
100
AcDbEntity
  8
STANDARDEBENE
 62
     7
100
AcDbVertex
100
AcDb2dVertex
 10
121.5516999696123
 20
194.0588614477963
 30
0.0
  0
VERTEX
  5
234
330
22F
100
AcDbEntity
  8
STANDARDEBENE
 62
     7
100
AcDbVertex
100
AcDb2dVertex
 10
121.5516999696123
 20
194.1534058922171
 30
0.0
  0
SEQEND
  5
235
330
22F
100
AcDbEntity
  8
STANDARDEBENE
 62
     7
  0
POLYLINE
  5
236
330
1F
100
AcDbEntity
  8
STANDARDEBENE
 62
     7
100
AcDb2dPolyline
 66
     1
 10
0.0
 20
0.0
 30
0.0
  0
VERTEX
  5
237
330
236
100
AcDbEntity
  8
STANDARDEBENE
 62
     7
100
AcDbVertex
100
AcDb2dVertex
 10
121.5516999696123
 20
195.176108669739
 30
0.0
  0
VERTEX
  5
238
330
236
100
AcDbEntity
  8
STANDARDEBENE
 62
     7
100
AcDbVertex
100
AcDb2dVertex
 10
121.5516999696123
 20
195.279472558602
 30
0.0
  0
VERTEX
  5
239
330
236
100
AcDbEntity
  8
STANDARDEBENE
 62
     7
100
AcDbVertex
100
AcDb2dVertex
 10
121.5516999696123
 20
196.1649447806029
 30
0.0
  0
VERTEX
  5
23A
330
236
100
AcDbEntity
  8
STANDARDEBENE
 62
     7
100
AcDbVertex
100
AcDb2dVertex
 10
121.5516999696123
 20
196.1988114472609
 30
0.0
  0
SEQEND
  5
23B
330
236
100
AcDbEntity
  8
STANDARDEBENE
 62
     7
  0
POLYLINE
  5
23C
330
1F
100
AcDbEntity
  8
STANDARDEBENE
 62
     7
100
AcDb2dPolyline
 66
     1
 10
0.0
 20
0.0
 30
0.0
  0
VERTEX
  5
23D
330
23C
100
AcDbEntity
  8
STANDARDEBENE
 62
     7
100
AcDbVertex
100
AcDb2dVertex
 10
121.5516999696123
 20
197.2215142247835
 30
0.0
  0
VERTEX
  5
23E
330
23C
100
AcDbEntity
  8
STANDARDEBENE
 62
     7
100
AcDbVertex
100
AcDb2dVertex
 10
121.5516999696123
 20
198.2442170023054
 30
0.0
  0
SEQEND
  5
23F
330
23C
100
AcDbEntity
  8
STANDARDEBENE
 62
     7
  0
POLYLINE
  5
240
330
1F
100
AcDbEntity
  8
STANDARDEBENE
 62
     7
100
AcDb2dPolyline
 66
     1
 10
0.0
 20
0.0
 30
0.0
  0
VERTEX
  5
241
330
240
100
AcDbEntity
  8
STANDARDEBENE
 62
     7
100
AcDbVertex
100
AcDb2dVertex
 10
121.5516999696123
 20
199.2669197798273
 30
0.0
  0
VERTEX
  5
242
330
240
100
AcDbEntity
  8
STANDARDEBENE
 62
     7
100
AcDbVertex
100
AcDb2dVertex
 10
121.5516999696123
 20
199.7163586686042
 30
0.0
  0
VERTEX
  5
243
330
240
100
AcDbEntity
  8
STANDARDEBENE
 62
     7
100
AcDbVertex
100
AcDb2dVertex
 10
121.5516999696123
 20
200.2896225573498
 30
0.0
  0
SEQEND
  5
244
330
240
100
AcDbEntity
  8
STANDARDEBENE
 62
     7
  0
POLYLINE
  5
245
330
1F
100
AcDbEntity
  8
STANDARDEBENE
 62
     7
100
AcDb2dPolyline
 66
     1
 10
0.0
 20
0.0
 30
0.0
  0
VERTEX
  5
246
330
245
100
AcDbEntity
  8
STANDARDEBENE
 62
     7
100
AcDbVertex
100
AcDb2dVertex
 10
121.5516999696123
 20
201.3123253348717
 30
0.0
  0
VERTEX
  5
247
330
245
100
AcDbEntity
  8
STANDARDEBENE
 62
     7
100
AcDbVertex
100
AcDb2dVertex
 10
121.5516999696123
 20
202.3350281123936
 30
0.0
  0
SEQEND
  5
248
330
245
100
AcDbEntity
  8
STANDARDEBENE
 62
     7
  0
POLYLINE
  5
249
330
1F
100
AcDbEntity
  8
STANDARDEBENE
 62
     7
100
AcDb2dPolyline
 66
     1
 10
0.0
 20
0.0
 30
0.0
  0
VERTEX
  5
24A
330
249
100
AcDbEntity
  8
STANDARDEBENE
 62
     7
100
AcDbVertex
100
AcDb2dVertex
 10
121.5516999696123
 20
203.3577308899158
 30
0.0
  0
VERTEX
  5
24B
330
249
100
AcDbEntity
  8
STANDARDEBENE
 62
     7
100
AcDbVertex
100
AcDb2dVertex
 10
121.5516999696123
 20
204.1243170008352
 30
0.0
  0
VERTEX
  5
24C
330
249
100
AcDbEntity
  8
STANDARDEBENE
 62
     7
100
AcDbVertex
100
AcDb2dVertex
 10
121.5516999696123
 20
204.3804336674381
 30
0.0
  0
SEQEND
  5
24D
330
249
100
AcDbEntity
  8
STANDARDEBENE
 62
     7
  0
POLYLINE
  5
24E
330
1F
100
AcDbEntity
  8
STANDARDEBENE
 62
     7
100
AcDb2dPolyline
 66
     1
 10
0.0
 20
0.0
 30
0.0
  0
VERTEX
  5
24F
330
24E
100
AcDbEntity
  8
STANDARDEBENE
 62
     7
100
AcDbVertex
100
AcDb2dVertex
 10
121.5516999696123
 20
205.40313644496
 30
0.0
  0
VERTEX
  5
250
330
24E
100
AcDbEntity
  8
STANDARDEBENE
 62
     7
100
AcDbVertex
100
AcDb2dVertex
 10
121.5516999696123
 20
205.6596058893406
 30
0.0
  0
VERTEX
  5
251
330
24E
100
AcDbEntity
  8
STANDARDEBENE
 62
     7
100
AcDbVertex
100
AcDb2dVertex
 10
121.5516999696123
 20
206.4258392224822
 30
0.0
  0
SEQEND
  5
252
330
24E
100
AcDbEntity
  8
STANDARDEBENE
 62
     7
  0
POLYLINE
  5
253
330
1F
100
AcDbEntity
  8
STANDARDEBENE
 62
     7
100
AcDb2dPolyline
 66
     1
 10
0.0
 20
0.0
 30
0.0
  0
VERTEX
  5
254
330
253
100
AcDbEntity
  8
STANDARDEBENE
 62
     7
100
AcDbVertex
100
AcDb2dVertex
 10
121.5516999696123
 20
207.4485420000044
 30
0.0
  0
VERTEX
  5
255
330
253
100
AcDbEntity
  8
STANDARDEBENE
 62
     7
100
AcDbVertex
100
AcDb2dVertex
 10
121.5516999696123
 20
208.4712447775263
 30
0.0
  0
SEQEND
  5
256
330
253
100
AcDbEntity
  8
STANDARDEBENE
 62
     7
  0
POLYLINE
  5
257
330
1F
100
AcDbEntity
  8
STANDARDEBENE
 62
     7
100
AcDb2dPolyline
 66
     1
 10
0.0
 20
0.0
 30
0.0
  0
VERTEX
  5
258
330
257
100
AcDbEntity
  8
STANDARDEBENE
 62
     7
100
AcDbVertex
100
AcDb2dVertex
 10
121.5516999696123
 20
209.4939475550485
 30
0.0
  0
VERTEX
  5
259
330
257
100
AcDbEntity
  8
STANDARDEBENE
 62
     7
100
AcDbVertex
100
AcDb2dVertex
 10
121.5516999696123
 20
210.0675642215716
 30
0.0
  0
VERTEX
  5
25A
330
257
100
AcDbEntity
  8
STANDARDEBENE
 62
     7
100
AcDbVertex
100
AcDb2dVertex
 10
121.5516999696123
 20
210.5166503325708
 30
0.0
  0
SEQEND
  5
25B
330
257
100
AcDbEntity
  8
STANDARDEBENE
 62
     7
  0
POLYLINE
  5
25C
330
1F
100
AcDbEntity
  8
STANDARDEBENE
 62
     7
100
AcDb2dPolyline
 66
     1
 10
0.0
 20
0.0
 30
0.0
  0
VERTEX
  5
25D
330
25C
100
AcDbEntity
  8
STANDARDEBENE
 62
     7
100
AcDbVertex
100
AcDb2dVertex
 10
121.5516999696123
 20
211.5393531100927
 30
0.0
  0
VERTEX
  5
25E
330
25C
100
AcDbEntity
  8
STANDARDEBENE
 62
     7
100
AcDbVertex
100
AcDb2dVertex
 10
121.5516999696123
 20
212.5620558876146
 30
0.0
  0
SEQEND
  5
25F
330
25C
100
AcDbEntity
  8
STANDARDEBENE
 62
     7
  0
POLYLINE
  5
260
330
1F
100
AcDbEntity
  8
STANDARDEBENE
 62
     7
100
AcDb2dPolyline
 66
     1
 10
0.0
 20
0.0
 30
0.0
  0
VERTEX
  5
261
330
260
100
AcDbEntity
  8
STANDARDEBENE
 62
     7
100
AcDbVertex
100
AcDb2dVertex
 10
121.5516999696123
 20
213.5847586651371
 30
0.0
  0
VERTEX
  5
262
330
260
100
AcDbEntity
  8
STANDARDEBENE
 62
     7
100
AcDbVertex
100
AcDb2dVertex
 10
121.5516999696123
 20
213.6186253317952
 30
0.0
  0
VERTEX
  5
263
330
260
100
AcDbEntity
  8
STANDARDEBENE
 62
     7
100
AcDbVertex
100
AcDb2dVertex
 10
121.5516999696123
 20
214.5040975537961
 30
0.0
  0
VERTEX
  5
264
330
260
100
AcDbEntity
  8
STANDARDEBENE
 62
     7
100
AcDbVertex
100
AcDb2dVertex
 10
121.5516999696123
 20
214.6078142204368
 30
0.0
  0
SEQEND
  5
265
330
260
100
AcDbEntity
  8
STANDARDEBENE
 62
     7
  0
POLYLINE
  5
266
330
1F
100
AcDbEntity
  8
STANDARDEBENE
 62
     7
100
AcDb2dPolyline
 66
     1
 10
0.0
 20
0.0
 30
0.0
  0
VERTEX
  5
267
330
266
100
AcDbEntity
  8
STANDARDEBENE
 62
     7
100
AcDbVertex
100
AcDb2dVertex
 10
121.5516999696123
 20
215.6305169979587
 30
0.0
  0
VERTEX
  5
268
330
266
100
AcDbEntity
  8
STANDARDEBENE
 62
     7
100
AcDbVertex
100
AcDb2dVertex
 10
121.5516999696123
 20
215.7250614423795
 30
0.0
  0
VERTEX
  5
269
330
266
100
AcDbEntity
  8
STANDARDEBENE
 62
     7
100
AcDbVertex
100
AcDb2dVertex
 10
121.5516999696123
 20
216.0372697756349
 30
0.0
  0
VERTEX
  5
26A
330
266
100
AcDbEntity
  8
STANDARDEBENE
 62
     7
100
AcDbVertex
100
AcDb2dVertex
 10
121.5516999696123
 20
216.1420447756088
 30
0.0
  0
SEQEND
  5
26B
330
266
100
AcDbEntity
  8
STANDARDEBENE
 62
     7
  0
POLYLINE
  5
26C
330
1F
100
AcDbEntity
  8
STANDARDEBENE
 62
     7
100
AcDb2dPolyline
 66
     1
 10
0.0
 20
0.0
 30
0.0
  0
VERTEX
  5
26D
330
26C
100
AcDbEntity
  8
STANDARDEBENE
 62
     7
100
AcDbVertex
100
AcDb2dVertex
 10
120.9385721919877
 20
215.0801836647631
 30
0.0
  0
VERTEX
  5
26E
330
26C
100
AcDbEntity
  8
STANDARDEBENE
 62
     7
100
AcDbVertex
100
AcDb2dVertex
 10
120.9385721919877
 20
214.9761142203446
 30
0.0
  0
VERTEX
  5
26F
330
26C
100
AcDbEntity
  8
STANDARDEBENE
 62
     7
100
AcDbVertex
100
AcDb2dVertex
 10
120.9385721919877
 20
214.6670808870885
 30
0.0
  0
VERTEX
  5
270
330
26C
100
AcDbEntity
  8
STANDARDEBENE
 62
     7
100
AcDbVertex
100
AcDb2dVertex
 10
120.9385721919877
 20
214.5704197760018
 30
0.0
  0
SEQEND
  5
271
330
26C
100
AcDbEntity
  8
STANDARDEBENE
 62
     7
  0
POLYLINE
  5
272
330
1F
100
AcDbEntity
  8
STANDARDEBENE
 62
     7
100
AcDb2dPolyline
 66
     1
 10
0.0
 20
0.0
 30
0.0
  0
VERTEX
  5
273
330
272
100
AcDbEntity
  8
STANDARDEBENE
 62
     7
100
AcDbVertex
100
AcDb2dVertex
 10
120.9385721919877
 20
213.5519503318117
 30
0.0
  0
VERTEX
  5
274
330
272
100
AcDbEntity
  8
STANDARDEBENE
 62
     7
100
AcDbVertex
100
AcDb2dVertex
 10
120.9385721919877
 20
213.4626975540563
 30
0.0
  0
VERTEX
  5
275
330
272
100
AcDbEntity
  8
STANDARDEBENE
 62
     7
100
AcDbVertex
100
AcDb2dVertex
 10
120.9385721919877
 20
212.591336443163
 30
0.0
  0
VERTEX
  5
276
330
272
100
AcDbEntity
  8
STANDARDEBENE
 62
     7
100
AcDbVertex
100
AcDb2dVertex
 10
120.9385721919877
 20
212.5331281098442
 30
0.0
  0
SEQEND
  5
277
330
272
100
AcDbEntity
  8
STANDARDEBENE
 62
     7
  0
POLYLINE
  5
278
330
1F
100
AcDbEntity
  8
STANDARDEBENE
 62
     7
100
AcDb2dPolyline
 66
     1
 10
0.0
 20
0.0
 30
0.0
  0
VERTEX
  5
279
330
278
100
AcDbEntity
  8
STANDARDEBENE
 62
     7
100
AcDbVertex
100
AcDb2dVertex
 10
120.9385721919877
 20
211.513953110099
 30
0.0
  0
VERTEX
  5
27A
330
278
100
AcDbEntity
  8
STANDARDEBENE
 62
     7
100
AcDbVertex
100
AcDb2dVertex
 10
120.9385721919877
 20
210.4951308881315
 30
0.0
  0
SEQEND
  5
27B
330
278
100
AcDbEntity
  8
STANDARDEBENE
 62
     7
  0
POLYLINE
  5
27C
330
1F
100
AcDbEntity
  8
STANDARDEBENE
 62
     7
100
AcDb2dPolyline
 66
     1
 10
0.0
 20
0.0
 30
0.0
  0
VERTEX
  5
27D
330
27C
100
AcDbEntity
  8
STANDARDEBENE
 62
     7
100
AcDbVertex
100
AcDb2dVertex
 10
120.9385721919877
 20
209.4766614439418
 30
0.0
  0
VERTEX
  5
27E
330
27C
100
AcDbEntity
  8
STANDARDEBENE
 62
     7
100
AcDbVertex
100
AcDb2dVertex
 10
120.9385721919877
 20
209.1242364440299
 30
0.0
  0
VERTEX
  5
27F
330
27C
100
AcDbEntity
  8
STANDARDEBENE
 62
     7
100
AcDbVertex
100
AcDb2dVertex
 10
120.9385721919877
 20
208.457839221974
 30
0.0
  0
SEQEND
  5
280
330
27C
100
AcDbEntity
  8
STANDARDEBENE
 62
     7
  0
POLYLINE
  5
281
330
1F
100
AcDbEntity
  8
STANDARDEBENE
 62
     7
100
AcDb2dPolyline
 66
     1
 10
0.0
 20
0.0
 30
0.0
  0
VERTEX
  5
282
330
281
100
AcDbEntity
  8
STANDARDEBENE
 62
     7
100
AcDbVertex
100
AcDb2dVertex
 10
120.9385721919877
 20
207.438664222229
 30
0.0
  0
VERTEX
  5
283
330
281
100
AcDbEntity
  8
STANDARDEBENE
 62
     7
100
AcDbVertex
100
AcDb2dVertex
 10
120.9385721919877
 20
206.420194778039
 30
0.0
  0
SEQEND
  5
284
330
281
100
AcDbEntity
  8
STANDARDEBENE
 62
     7
  0
POLYLINE
  5
285
330
1F
100
AcDbEntity
  8
STANDARDEBENE
 62
     7
100
AcDb2dPolyline
 66
     1
 10
0.0
 20
0.0
 30
0.0
  0
VERTEX
  5
286
330
285
100
AcDbEntity
  8
STANDARDEBENE
 62
     7
100
AcDbVertex
100
AcDb2dVertex
 10
120.9385721919877
 20
205.4013725560718
 30
0.0
  0
VERTEX
  5
287
330
285
100
AcDbEntity
  8
STANDARDEBENE
 62
     7
100
AcDbVertex
100
AcDb2dVertex
 10
120.9385721919877
 20
204.8919614450879
 30
0.0
  0
VERTEX
  5
288
330
285
100
AcDbEntity
  8
STANDARDEBENE
 62
     7
100
AcDbVertex
100
AcDb2dVertex
 10
120.9385721919877
 20
204.3821975563262
 30
0.0
  0
SEQEND
  5
289
330
285
100
AcDbEntity
  8
STANDARDEBENE
 62
     7
  0
POLYLINE
  5
28A
330
1F
100
AcDbEntity
  8
STANDARDEBENE
 62
     7
100
AcDb2dPolyline
 66
     1
 10
0.0
 20
0.0
 30
0.0
  0
VERTEX
  5
28B
330
28A
100
AcDbEntity
  8
STANDARDEBENE
 62
     7
100
AcDbVertex
100
AcDb2dVertex
 10
120.9385721919877
 20
203.3633753343591
 30
0.0
  0
VERTEX
  5
28C
330
28A
100
AcDbEntity
  8
STANDARDEBENE
 62
     7
100
AcDbVertex
100
AcDb2dVertex
 10
120.9385721919877
 20
202.344905890169
 30
0.0
  0
SEQEND
  5
28D
330
28A
100
AcDbEntity
  8
STANDARDEBENE
 62
     7
  0
POLYLINE
  5
28E
330
1F
100
AcDbEntity
  8
STANDARDEBENE
 62
     7
100
AcDb2dPolyline
 66
     1
 10
0.0
 20
0.0
 30
0.0
  0
VERTEX
  5
28F
330
28E
100
AcDbEntity
  8
STANDARDEBENE
 62
     7
100
AcDbVertex
100
AcDb2dVertex
 10
120.9385721919877
 20
201.3260836682015
 30
0.0
  0
VERTEX
  5
290
330
28E
100
AcDbEntity
  8
STANDARDEBENE
 62
     7
100
AcDbVertex
100
AcDb2dVertex
 10
120.9385721919877
 20
200.6593336683681
 30
0.0
  0
VERTEX
  5
291
330
28E
100
AcDbEntity
  8
STANDARDEBENE
 62
     7
100
AcDbVertex
100
AcDb2dVertex
 10
120.9385721919877
 20
200.3076142240118
 30
0.0
  0
SEQEND
  5
292
330
28E
100
AcDbEntity
  8
STANDARDEBENE
 62
     7
  0
POLYLINE
  5
293
330
1F
100
AcDbEntity
  8
STANDARDEBENE
 62
     7
100
AcDb2dPolyline
 66
     1
 10
0.0
 20
0.0
 30
0.0
  0
VERTEX
  5
294
330
293
100
AcDbEntity
  8
STANDARDEBENE
 62
     7
100
AcDbVertex
100
AcDb2dVertex
 10
120.9385721919877
 20
199.288792002044
 30
0.0
  0
VERTEX
  5
295
330
293
100
AcDbEntity
  8
STANDARDEBENE
 62
     7
100
AcDbVertex
100
AcDb2dVertex
 10
120.9385721919877
 20
198.2696170022991
 30
0.0
  0
SEQEND
  5
296
330
293
100
AcDbEntity
  8
STANDARDEBENE
 62
     7
  0
POLYLINE
  5
297
330
1F
100
AcDbEntity
  8
STANDARDEBENE
 62
     7
100
AcDb2dPolyline
 66
     1
 10
0.0
 20
0.0
 30
0.0
  0
VERTEX
  5
298
330
297
100
AcDbEntity
  8
STANDARDEBENE
 62
     7
100
AcDbVertex
100
AcDb2dVertex
 10
120.9385721919877
 20
197.2507947803313
 30
0.0
  0
VERTEX
  5
299
330
297
100
AcDbEntity
  8
STANDARDEBENE
 62
     7
100
AcDbVertex
100
AcDb2dVertex
 10
120.9385721919877
 20
197.1925864470128
 30
0.0
  0
VERTEX
  5
29A
330
297
100
AcDbEntity
  8
STANDARDEBENE
 62
     7
100
AcDbVertex
100
AcDb2dVertex
 10
120.9385721919877
 20
196.320872558342
 30
0.0
  0
VERTEX
  5
29B
330
297
100
AcDbEntity
  8
STANDARDEBENE
 62
     7
100
AcDbVertex
100
AcDb2dVertex
 10
120.9385721919877
 20
196.2323253361419
 30
0.0
  0
SEQEND
  5
29C
330
297
100
AcDbEntity
  8
STANDARDEBENE
 62
     7
  0
POLYLINE
  5
29D
330
1F
100
AcDbEntity
  8
STANDARDEBENE
 62
     7
100
AcDb2dPolyline
 66
     1
 10
0.0
 20
0.0
 30
0.0
  0
VERTEX
  5
29E
330
29D
100
AcDbEntity
  8
STANDARDEBENE
 62
     7
100
AcDbVertex
100
AcDb2dVertex
 10
120.9385721919877
 20
195.2131503363963
 30
0.0
  0
VERTEX
  5
29F
330
29D
100
AcDbEntity
  8
STANDARDEBENE
 62
     7
100
AcDbVertex
100
AcDb2dVertex
 10
120.9385721919877
 20
195.1164892253095
 30
0.0
  0
VERTEX
  5
2A0
330
29D
100
AcDbEntity
  8
STANDARDEBENE
 62
     7
100
AcDbVertex
100
AcDb2dVertex
 10
120.9385721919877
 20
194.8078086698312
 30
0.0
  0
VERTEX
  5
2A1
330
29D
100
AcDbEntity
  8
STANDARDEBENE
 62
     7
100
AcDbVertex
100
AcDb2dVertex
 10
120.9385721919877
 20
194.7040920031905
 30
0.0
  0
SEQEND
  5
2A2
330
29D
100
AcDbEntity
  8
STANDARDEBENE
 62
     7
  0
POLYLINE
  5
2A3
330
1F
100
AcDbEntity
  8
STANDARDEBENE
 62
     7
100
AcDb2dPolyline
 66
     1
 10
0.0
 20
0.0
 30
0.0
  0
VERTEX
  5
2A4
330
2A3
100
AcDbEntity
  8
STANDARDEBENE
 62
     7
100
AcDbVertex
100
AcDb2dVertex
 10
125.202244413144
 20
216.1420447756088
 30
0.0
  0
VERTEX
  5
2A5
330
2A3
100
AcDbEntity
  8
STANDARDEBENE
 62
     7
100
AcDbVertex
100
AcDb2dVertex
 10
124.7461027465915
 20
216.1420447756088
 30
0.0
  0
SEQEND
  5
2A6
330
2A3
100
AcDbEntity
  8
STANDARDEBENE
 62
     7
  0
POLYLINE
  5
2A7
330
1F
100
AcDbEntity
  8
STANDARDEBENE
 62
     7
100
AcDb2dPolyline
 66
     1
 10
0.0
 20
0.0
 30
0.0
  0
VERTEX
  5
2A8
330
2A7
100
AcDbEntity
  8
STANDARDEBENE
 62
     7
100
AcDbVertex
100
AcDb2dVertex
 10
123.8334666357084
 20
216.1420447756088
 30
0.0
  0
VERTEX
  5
2A9
330
2A7
100
AcDbEntity
  8
STANDARDEBENE
 62
     7
100
AcDbVertex
100
AcDb2dVertex
 10
122.9204777470479
 20
216.1420447756088
 30
0.0
  0
SEQEND
  5
2AA
330
2A7
100
AcDbEntity
  8
STANDARDEBENE
 62
     7
  0
POLYLINE
  5
2AB
330
1F
100
AcDbEntity
  8
STANDARDEBENE
 62
     7
100
AcDb2dPolyline
 66
     1
 10
0.0
 20
0.0
 30
0.0
  0
VERTEX
  5
2AC
330
2AB
100
AcDbEntity
  8
STANDARDEBENE
 62
     7
100
AcDbVertex
100
AcDb2dVertex
 10
122.0085471917203
 20
216.1420447756088
 30
0.0
  0
VERTEX
  5
2AD
330
2AB
100
AcDbEntity
  8
STANDARDEBENE
 62
     7
100
AcDbVertex
100
AcDb2dVertex
 10
121.5516999696123
 20
216.1420447756088
 30
0.0
  0
SEQEND
  5
2AE
330
2AB
100
AcDbEntity
  8
STANDARDEBENE
 62
     7
  0
POLYLINE
  5
2AF
330
1F
100
AcDbEntity
  8
STANDARDEBENE
 62
     7
100
AcDb2dPolyline
 66
     1
 10
0.0
 20
0.0
 30
0.0
  0
VERTEX
  5
2B0
330
2AF
100
AcDbEntity
  8
STANDARDEBENE
 62
     7
100
AcDbVertex
100
AcDb2dVertex
 10
121.5516999696123
 20
193.6422308923447
 30
0.0
  0
VERTEX
  5
2B1
330
2AF
100
AcDbEntity
  8
STANDARDEBENE
 62
     7
100
AcDbVertex
100
AcDb2dVertex
 10
122.0085471917203
 20
193.6422308923447
 30
0.0
  0
SEQEND
  5
2B2
330
2AF
100
AcDbEntity
  8
STANDARDEBENE
 62
     7
  0
POLYLINE
  5
2B3
330
1F
100
AcDbEntity
  8
STANDARDEBENE
 62
     7
100
AcDb2dPolyline
 66
     1
 10
0.0
 20
0.0
 30
0.0
  0
VERTEX
  5
2B4
330
2B3
100
AcDbEntity
  8
STANDARDEBENE
 62
     7
100
AcDbVertex
100
AcDb2dVertex
 10
122.9204777470479
 20
193.6422308923447
 30
0.0
  0
VERTEX
  5
2B5
330
2B3
100
AcDbEntity
  8
STANDARDEBENE
 62
     7
100
AcDbVertex
100
AcDb2dVertex
 10
123.8334666357084
 20
193.6422308923447
 30
0.0
  0
SEQEND
  5
2B6
330
2B3
100
AcDbEntity
  8
STANDARDEBENE
 62
     7
  0
POLYLINE
  5
2B7
330
1F
100
AcDbEntity
  8
STANDARDEBENE
 62
     7
100
AcDb2dPolyline
 66
     1
 10
0.0
 20
0.0
 30
0.0
  0
VERTEX
  5
2B8
330
2B7
100
AcDbEntity
  8
STANDARDEBENE
 62
     7
100
AcDbVertex
100
AcDb2dVertex
 10
124.7461027465915
 20
193.6422308923447
 30
0.0
  0
VERTEX
  5
2B9
330
2B7
100
AcDbEntity
  8
STANDARDEBENE
 62
     7
100
AcDbVertex
100
AcDb2dVertex
 10
125.202244413144
 20
193.6422308923447
 30
0.0
  0
VERTEX
  5
2BA
330
2B7
100
AcDbEntity
  8
STANDARDEBENE
 62
     7
100
AcDbVertex
100
AcDb2dVertex
 10
125.5017527464026
 20
193.7223114478805
 30
0.0
  0
SEQEND
  5
2BB
330
2B7
100
AcDbEntity
  8
STANDARDEBENE
 62
     7
  0
POLYLINE
  5
2BC
330
1F
100
AcDbEntity
  8
STANDARDEBENE
 62
     7
100
AcDb2dPolyline
 66
     1
 10
0.0
 20
0.0
 30
0.0
  0
VERTEX
  5
2BD
330
2BC
100
AcDbEntity
  8
STANDARDEBENE
 62
     7
100
AcDbVertex
100
AcDb2dVertex
 10
125.921558301853
 20
194.1417642255532
 30
0.0
  0
VERTEX
  5
2BE
330
2BC
100
AcDbEntity
  8
STANDARDEBENE
 62
     7
100
AcDbVertex
100
AcDb2dVertex
 10
126.0019916351663
 20
194.4416253365892
 30
0.0
  0
SEQEND
  5
2BF
330
2BC
100
AcDbEntity
  8
STANDARDEBENE
 62
     7
  0
POLYLINE
  5
2C0
330
1F
100
AcDbEntity
  8
STANDARDEBENE
 62
     7
100
AcDb2dPolyline
 66
     1
 10
0.0
 20
0.0
 30
0.0
  0
VERTEX
  5
2C1
330
2C0
100
AcDbEntity
  8
STANDARDEBENE
 62
     7
100
AcDbVertex
100
AcDb2dVertex
 10
126.0019916351663
 20
215.3419447758089
 30
0.0
  0
VERTEX
  5
2C2
330
2C0
100
AcDbEntity
  8
STANDARDEBENE
 62
     7
100
AcDbVertex
100
AcDb2dVertex
 10
125.921558301853
 20
215.6421586646226
 30
0.0
  0
SEQEND
  5
2C3
330
2C0
100
AcDbEntity
  8
STANDARDEBENE
 62
     7
  0
POLYLINE
  5
2C4
330
1F
100
AcDbEntity
  8
STANDARDEBENE
 62
     7
100
AcDb2dPolyline
 66
     1
 10
0.0
 20
0.0
 30
0.0
  0
VERTEX
  5
2C5
330
2C4
100
AcDbEntity
  8
STANDARDEBENE
 62
     7
100
AcDbVertex
100
AcDb2dVertex
 10
125.5017527464026
 20
216.0612586645178
 30
0.0
  0
VERTEX
  5
2C6
330
2C4
100
AcDbEntity
  8
STANDARDEBENE
 62
     7
100
AcDbVertex
100
AcDb2dVertex
 10
125.202244413144
 20
216.1420447756088
 30
0.0
  0
SEQEND
  5
2C7
330
2C4
100
AcDbEntity
  8
STANDARDEBENE
 62
     7
  0
POLYLINE
  5
2C8
330
1F
100
AcDbEntity
  8
STANDARDEBENE
 62
     7
100
AcDb2dPolyline
 66
     1
 10
0.0
 20
0.0
 30
0.0
  0
VERTEX
  5
2C9
330
2C8
100
AcDbEntity
  8
STANDARDEBENE
 62
     7
100
AcDbVertex
100
AcDb2dVertex
 10
126.0019916351663
 20
194.4416253365892
 30
0.0
  0
VERTEX
  5
2CA
330
2C8
100
AcDbEntity
  8
STANDARDEBENE
 62
     7
100
AcDbVertex
100
AcDb2dVertex
 10
126.0019916351663
 20
194.5485170032291
 30
0.0
  0
VERTEX
  5
2CB
330
2C8
100
AcDbEntity
  8
STANDARDEBENE
 62
     7
100
AcDbVertex
100
AcDb2dVertex
 10
126.0019916351663
 20
194.8653114475947
 30
0.0
  0
VERTEX
  5
2CC
330
2C8
100
AcDbEntity
  8
STANDARDEBENE
 62
     7
100
AcDbVertex
100
AcDb2dVertex
 10
126.0019916351663
 20
194.9640892253474
 30
0.0
  0
SEQEND
  5
2CD
330
2C8
100
AcDbEntity
  8
STANDARDEBENE
 62
     7
  0
POLYLINE
  5
2CE
330
1F
100
AcDbEntity
  8
STANDARDEBENE
 62
     7
100
AcDb2dPolyline
 66
     1
 10
0.0
 20
0.0
 30
0.0
  0
VERTEX
  5
2CF
330
2CE
100
AcDbEntity
  8
STANDARDEBENE
 62
     7
100
AcDbVertex
100
AcDb2dVertex
 10
126.0019916351663
 20
196.0093697806419
 30
0.0
  0
VERTEX
  5
2D0
330
2CE
100
AcDbEntity
  8
STANDARDEBENE
 62
     7
100
AcDbVertex
100
AcDb2dVertex
 10
126.0019916351663
 20
196.1007392250634
 30
0.0
  0
VERTEX
  5
2D1
330
2CE
100
AcDbEntity
  8
STANDARDEBENE
 62
     7
100
AcDbVertex
100
AcDb2dVertex
 10
126.0019916351663
 20
196.9943253359513
 30
0.0
  0
VERTEX
  5
2D2
330
2CE
100
AcDbEntity
  8
STANDARDEBENE
 62
     7
100
AcDbVertex
100
AcDb2dVertex
 10
126.0019916351663
 20
197.0546503359363
 30
0.0
  0
SEQEND
  5
2D3
330
2CE
100
AcDbEntity
  8
STANDARDEBENE
 62
     7
  0
POLYLINE
  5
2D4
330
1F
100
AcDbEntity
  8
STANDARDEBENE
 62
     7
100
AcDb2dPolyline
 66
     1
 10
0.0
 20
0.0
 30
0.0
  0
VERTEX
  5
2D5
330
2D4
100
AcDbEntity
  8
STANDARDEBENE
 62
     7
100
AcDbVertex
100
AcDb2dVertex
 10
126.0019916351663
 20
198.0995781134527
 30
0.0
  0
VERTEX
  5
2D6
330
2D4
100
AcDbEntity
  8
STANDARDEBENE
 62
     7
100
AcDbVertex
100
AcDb2dVertex
 10
126.0019916351663
 20
199.1445058909691
 30
0.0
  0
SEQEND
  5
2D7
330
2D4
100
AcDbEntity
  8
STANDARDEBENE
 62
     7
  0
POLYLINE
  5
2D8
330
1F
100
AcDbEntity
  8
STANDARDEBENE
 62
     7
100
AcDb2dPolyline
 66
     1
 10
0.0
 20
0.0
 30
0.0
  0
VERTEX
  5
2D9
330
2D8
100
AcDbEntity
  8
STANDARDEBENE
 62
     7
100
AcDbVertex
100
AcDb2dVertex
 10
126.0019916351663
 20
200.1894336684858
 30
0.0
  0
VERTEX
  5
2DA
330
2D8
100
AcDbEntity
  8
STANDARDEBENE
 62
     7
100
AcDbVertex
100
AcDb2dVertex
 10
126.0019916351663
 20
200.55067811284
 30
0.0
  0
VERTEX
  5
2DB
330
2D8
100
AcDbEntity
  8
STANDARDEBENE
 62
     7
100
AcDbVertex
100
AcDb2dVertex
 10
126.0019916351663
 20
201.2343614460025
 30
0.0
  0
SEQEND
  5
2DC
330
2D8
100
AcDbEntity
  8
STANDARDEBENE
 62
     7
  0
POLYLINE
  5
2DD
330
1F
100
AcDbEntity
  8
STANDARDEBENE
 62
     7
100
AcDb2dPolyline
 66
     1
 10
0.0
 20
0.0
 30
0.0
  0
VERTEX
  5
2DE
330
2DD
100
AcDbEntity
  8
STANDARDEBENE
 62
     7
100
AcDbVertex
100
AcDb2dVertex
 10
126.0019916351663
 20
202.2792892235189
 30
0.0
  0
VERTEX
  5
2DF
330
2DD
100
AcDbEntity
  8
STANDARDEBENE
 62
     7
100
AcDbVertex
100
AcDb2dVertex
 10
126.0019916351663
 20
203.3242170010352
 30
0.0
  0
SEQEND
  5
2E0
330
2DD
100
AcDbEntity
  8
STANDARDEBENE
 62
     7
  0
POLYLINE
  5
2E1
330
1F
100
AcDbEntity
  8
STANDARDEBENE
 62
     7
100
AcDb2dPolyline
 66
     1
 10
0.0
 20
0.0
 30
0.0
  0
VERTEX
  5
2E2
330
2E1
100
AcDbEntity
  8
STANDARDEBENE
 62
     7
100
AcDbVertex
100
AcDb2dVertex
 10
126.0019916351663
 20
204.3691447785519
 30
0.0
  0
VERTEX
  5
2E3
330
2E1
100
AcDbEntity
  8
STANDARDEBENE
 62
     7
100
AcDbVertex
100
AcDb2dVertex
 10
126.0019916351663
 20
204.8919614450879
 30
0.0
  0
VERTEX
  5
2E4
330
2E1
100
AcDbEntity
  8
STANDARDEBENE
 62
     7
100
AcDbVertex
100
AcDb2dVertex
 10
126.0019916351663
 20
205.4144253338464
 30
0.0
  0
SEQEND
  5
2E5
330
2E1
100
AcDbEntity
  8
STANDARDEBENE
 62
     7
  0
POLYLINE
  5
2E6
330
1F
100
AcDbEntity
  8
STANDARDEBENE
 62
     7
100
AcDb2dPolyline
 66
     1
 10
0.0
 20
0.0
 30
0.0
  0
VERTEX
  5
2E7
330
2E6
100
AcDbEntity
  8
STANDARDEBENE
 62
     7
100
AcDbVertex
100
AcDb2dVertex
 10
126.0019916351663
 20
206.4597058891406
 30
0.0
  0
VERTEX
  5
2E8
330
2E6
100
AcDbEntity
  8
STANDARDEBENE
 62
     7
100
AcDbVertex
100
AcDb2dVertex
 10
126.0019916351663
 20
207.5046336666569
 30
0.0
  0
SEQEND
  5
2E9
330
2E6
100
AcDbEntity
  8
STANDARDEBENE
 62
     7
  0
POLYLINE
  5
2EA
330
1F
100
AcDbEntity
  8
STANDARDEBENE
 62
     7
100
AcDb2dPolyline
 66
     1
 10
0.0
 20
0.0
 30
0.0
  0
VERTEX
  5
2EB
330
2EA
100
AcDbEntity
  8
STANDARDEBENE
 62
     7
100
AcDbVertex
100
AcDb2dVertex
 10
126.0019916351663
 20
208.5492086663955
 30
0.0
  0
VERTEX
  5
2EC
330
2EA
100
AcDbEntity
  8
STANDARDEBENE
 62
     7
100
AcDbVertex
100
AcDb2dVertex
 10
126.0019916351663
 20
209.232891999558
 30
0.0
  0
VERTEX
  5
2ED
330
2EA
100
AcDbEntity
  8
STANDARDEBENE
 62
     7
100
AcDbVertex
100
AcDb2dVertex
 10
126.0019916351663
 20
209.5941364439126
 30
0.0
  0
SEQEND
  5
2EE
330
2EA
100
AcDbEntity
  8
STANDARDEBENE
 62
     7
  0
POLYLINE
  5
2EF
330
1F
100
AcDbEntity
  8
STANDARDEBENE
 62
     7
100
AcDb2dPolyline
 66
     1
 10
0.0
 20
0.0
 30
0.0
  0
VERTEX
  5
2F0
330
2EF
100
AcDbEntity
  8
STANDARDEBENE
 62
     7
100
AcDbVertex
100
AcDb2dVertex
 10
126.0019916351663
 20
210.639064221429
 30
0.0
  0
VERTEX
  5
2F1
330
2EF
100
AcDbEntity
  8
STANDARDEBENE
 62
     7
100
AcDbVertex
100
AcDb2dVertex
 10
126.0019916351663
 20
211.6846975545009
 30
0.0
  0
SEQEND
  5
2F2
330
2EF
100
AcDbEntity
  8
STANDARDEBENE
 62
     7
  0
POLYLINE
  5
2F3
330
1F
100
AcDbEntity
  8
STANDARDEBENE
 62
     7
100
AcDb2dPolyline
 66
     1
 10
0.0
 20
0.0
 30
0.0
  0
VERTEX
  5
2F4
330
2F3
100
AcDbEntity
  8
STANDARDEBENE
 62
     7
100
AcDbVertex
100
AcDb2dVertex
 10
126.0019916351663
 20
212.7296253320172
 30
0.0
  0
VERTEX
  5
2F5
330
2F3
100
AcDbEntity
  8
STANDARDEBENE
 62
     7
100
AcDbVertex
100
AcDb2dVertex
 10
126.0019916351663
 20
212.7892447764467
 30
0.0
  0
VERTEX
  5
2F6
330
2F3
100
AcDbEntity
  8
STANDARDEBENE
 62
     7
100
AcDbVertex
100
AcDb2dVertex
 10
126.0019916351663
 20
213.6831836651124
 30
0.0
  0
VERTEX
  5
2F7
330
2F3
100
AcDbEntity
  8
STANDARDEBENE
 62
     7
100
AcDbVertex
100
AcDb2dVertex
 10
126.0019916351663
 20
213.7745531095339
 30
0.0
  0
SEQEND
  5
2F8
330
2F3
100
AcDbEntity
  8
STANDARDEBENE
 62
     7
  0
POLYLINE
  5
2F9
330
1F
100
AcDbEntity
  8
STANDARDEBENE
 62
     7
100
AcDb2dPolyline
 66
     1
 10
0.0
 20
0.0
 30
0.0
  0
VERTEX
  5
2FA
330
2F9
100
AcDbEntity
  8
STANDARDEBENE
 62
     7
100
AcDbVertex
100
AcDb2dVertex
 10
126.0019916351663
 20
214.8194808870506
 30
0.0
  0
VERTEX
  5
2FB
330
2F9
100
AcDbEntity
  8
STANDARDEBENE
 62
     7
100
AcDbVertex
100
AcDb2dVertex
 10
126.0019916351663
 20
214.9182586648033
 30
0.0
  0
VERTEX
  5
2FC
330
2F9
100
AcDbEntity
  8
STANDARDEBENE
 62
     7
100
AcDbVertex
100
AcDb2dVertex
 10
126.0019916351663
 20
215.2354058869467
 30
0.0
  0
VERTEX
  5
2FD
330
2F9
100
AcDbEntity
  8
STANDARDEBENE
 62
     7
100
AcDbVertex
100
AcDb2dVertex
 10
126.0019916351663
 20
215.3419447758089
 30
0.0
  0
SEQEND
  5
2FE
330
2F9
100
AcDbEntity
  8
STANDARDEBENE
 62
     7
  0
POLYLINE
  5
2FF
330
1F
100
AcDbEntity
  8
STANDARDEBENE
 62
     7
100
AcDb2dPolyline
 66
     1
 10
0.0
 20
0.0
 30
0.0
  0
VERTEX
  5
300
330
2FF
100
AcDbEntity
  8
STANDARDEBENE
 62
     7
100
AcDbVertex
100
AcDb2dVertex
 10
120.9385721919877
 20
215.0801836647631
 30
0.0
  0
VERTEX
  5
301
330
2FF
100
AcDbEntity
  8
STANDARDEBENE
 62
     7
100
AcDbVertex
100
AcDb2dVertex
 10
120.4993638587642
 20
215.0801836647631
 30
0.0
  0
SEQEND
  5
302
330
2FF
100
AcDbEntity
  8
STANDARDEBENE
 62
     7
  0
POLYLINE
  5
303
330
1F
100
AcDbEntity
  8
STANDARDEBENE
 62
     7
100
AcDb2dPolyline
 66
     1
 10
0.0
 20
0.0
 30
0.0
  0
VERTEX
  5
304
330
303
100
AcDbEntity
  8
STANDARDEBENE
 62
     7
100
AcDbVertex
100
AcDb2dVertex
 10
119.6198888589842
 20
215.0801836647631
 30
0.0
  0
VERTEX
  5
305
330
303
100
AcDbEntity
  8
STANDARDEBENE
 62
     7
100
AcDbVertex
100
AcDb2dVertex
 10
118.7411194147595
 20
215.0801836647631
 30
0.0
  0
SEQEND
  5
306
330
303
100
AcDbEntity
  8
STANDARDEBENE
 62
     7
  0
POLYLINE
  5
307
330
1F
100
AcDbEntity
  8
STANDARDEBENE
 62
     7
100
AcDb2dPolyline
 66
     1
 10
0.0
 20
0.0
 30
0.0
  0
VERTEX
  5
308
330
307
100
AcDbEntity
  8
STANDARDEBENE
 62
     7
100
AcDbVertex
100
AcDb2dVertex
 10
117.861997192757
 20
215.0801836647631
 30
0.0
  0
VERTEX
  5
309
330
307
100
AcDbEntity
  8
STANDARDEBENE
 62
     7
100
AcDbVertex
100
AcDb2dVertex
 10
116.9825221929767
 20
215.0801836647631
 30
0.0
  0
SEQEND
  5
30A
330
307
100
AcDbEntity
  8
STANDARDEBENE
 62
     7
  0
POLYLINE
  5
30B
330
1F
100
AcDbEntity
  8
STANDARDEBENE
 62
     7
100
AcDb2dPolyline
 66
     1
 10
0.0
 20
0.0
 30
0.0
  0
VERTEX
  5
30C
330
30B
100
AcDbEntity
  8
STANDARDEBENE
 62
     7
100
AcDbVertex
100
AcDb2dVertex
 10
116.1037527487519
 20
215.0801836647631
 30
0.0
  0
VERTEX
  5
30D
330
30B
100
AcDbEntity
  8
STANDARDEBENE
 62
     7
100
AcDbVertex
100
AcDb2dVertex
 10
115.6638388599729
 20
215.0801836647631
 30
0.0
  0
SEQEND
  5
30E
330
30B
100
AcDbEntity
  8
STANDARDEBENE
 62
     7
  0
POLYLINE
  5
30F
330
1F
100
AcDbEntity
  8
STANDARDEBENE
 62
     7
100
AcDb2dPolyline
 66
     1
 10
0.0
 20
0.0
 30
0.0
  0
VERTEX
  5
310
330
30F
100
AcDbEntity
  8
STANDARDEBENE
 62
     7
100
AcDbVertex
100
AcDb2dVertex
 10
115.6638388599729
 20
194.7040920031905
 30
0.0
  0
VERTEX
  5
311
330
30F
100
AcDbEntity
  8
STANDARDEBENE
 62
     7
100
AcDbVertex
100
AcDb2dVertex
 10
116.1037527487519
 20
194.7040920031905
 30
0.0
  0
SEQEND
  5
312
330
30F
100
AcDbEntity
  8
STANDARDEBENE
 62
     7
  0
POLYLINE
  5
313
330
1F
100
AcDbEntity
  8
STANDARDEBENE
 62
     7
100
AcDb2dPolyline
 66
     1
 10
0.0
 20
0.0
 30
0.0
  0
VERTEX
  5
314
330
313
100
AcDbEntity
  8
STANDARDEBENE
 62
     7
100
AcDbVertex
100
AcDb2dVertex
 10
116.9825221929767
 20
194.7040920031905
 30
0.0
  0
VERTEX
  5
315
330
313
100
AcDbEntity
  8
STANDARDEBENE
 62
     7
100
AcDbVertex
100
AcDb2dVertex
 10
117.861997192757
 20
194.7040920031905
 30
0.0
  0
SEQEND
  5
316
330
313
100
AcDbEntity
  8
STANDARDEBENE
 62
     7
  0
POLYLINE
  5
317
330
1F
100
AcDbEntity
  8
STANDARDEBENE
 62
     7
100
AcDb2dPolyline
 66
     1
 10
0.0
 20
0.0
 30
0.0
  0
VERTEX
  5
318
330
317
100
AcDbEntity
  8
STANDARDEBENE
 62
     7
100
AcDbVertex
100
AcDb2dVertex
 10
118.7411194147595
 20
194.7040920031905
 30
0.0
  0
VERTEX
  5
319
330
317
100
AcDbEntity
  8
STANDARDEBENE
 62
     7
100
AcDbVertex
100
AcDb2dVertex
 10
119.6198888589842
 20
194.7040920031905
 30
0.0
  0
SEQEND
  5
31A
330
317
100
AcDbEntity
  8
STANDARDEBENE
 62
     7
  0
POLYLINE
  5
31B
330
1F
100
AcDbEntity
  8
STANDARDEBENE
 62
     7
100
AcDb2dPolyline
 66
     1
 10
0.0
 20
0.0
 30
0.0
  0
VERTEX
  5
31C
330
31B
100
AcDbEntity
  8
STANDARDEBENE
 62
     7
100
AcDbVertex
100
AcDb2dVertex
 10
120.4993638587642
 20
194.7040920031905
 30
0.0
  0
VERTEX
  5
31D
330
31B
100
AcDbEntity
  8
STANDARDEBENE
 62
     7
100
AcDbVertex
100
AcDb2dVertex
 10
120.9385721919877
 20
194.7040920031905
 30
0.0
  0
SEQEND
  5
31E
330
31B
100
AcDbEntity
  8
STANDARDEBENE
 62
     7
  0
POLYLINE
  5
31F
330
1F
100
AcDbEntity
  8
STANDARDEBENE
 62
     7
100
AcDb2dPolyline
 66
     1
 10
0.0
 20
0.0
 30
0.0
  0
VERTEX
  5
320
330
31F
100
AcDbEntity
  8
STANDARDEBENE
 62
     7
100
AcDbVertex
100
AcDb2dVertex
 10
125.7518721907844
 20
218.3917086639351
 30
0.0
  0
VERTEX
  5
321
330
31F
100
AcDbEntity
  8
STANDARDEBENE
 62
     7
100
AcDbVertex
100
AcDb2dVertex
 10
125.3144277464494
 20
218.3917086639351
 30
0.0
  0
SEQEND
  5
322
330
31F
100
AcDbEntity
  8
STANDARDEBENE
 62
     7
  0
POLYLINE
  5
323
330
1F
100
AcDbEntity
  8
STANDARDEBENE
 62
     7
100
AcDb2dPolyline
 66
     1
 10
0.0
 20
0.0
 30
0.0
  0
VERTEX
  5
324
330
323
100
AcDbEntity
  8
STANDARDEBENE
 62
     7
100
AcDbVertex
100
AcDb2dVertex
 10
124.4398916355568
 20
218.3917086639351
 30
0.0
  0
VERTEX
  5
325
330
323
100
AcDbEntity
  8
STANDARDEBENE
 62
     7
100
AcDbVertex
100
AcDb2dVertex
 10
123.5646499691091
 20
218.3917086639351
 30
0.0
  0
SEQEND
  5
326
330
323
100
AcDbEntity
  8
STANDARDEBENE
 62
     7
  0
POLYLINE
  5
327
330
1F
100
AcDbEntity
  8
STANDARDEBENE
 62
     7
100
AcDb2dPolyline
 66
     1
 10
0.0
 20
0.0
 30
0.0
  0
VERTEX
  5
328
330
327
100
AcDbEntity
  8
STANDARDEBENE
 62
     7
100
AcDbVertex
100
AcDb2dVertex
 10
122.6897610804387
 20
218.3917086639351
 30
0.0
  0
VERTEX
  5
329
330
327
100
AcDbEntity
  8
STANDARDEBENE
 62
     7
100
AcDbVertex
100
AcDb2dVertex
 10
122.2523166361037
 20
218.3917086639351
 30
0.0
  0
SEQEND
  5
32A
330
327
100
AcDbEntity
  8
STANDARDEBENE
 62
     7
  0
POLYLINE
  5
32B
330
1F
100
AcDbEntity
  8
STANDARDEBENE
 62
     7
100
AcDb2dPolyline
 66
     1
 10
0.0
 20
0.0
 30
0.0
  0
VERTEX
  5
32C
330
32B
100
AcDbEntity
  8
STANDARDEBENE
 62
     7
100
AcDbVertex
100
AcDb2dVertex
 10
125.7518721907844
 20
213.8444031095163
 30
0.0
  0
VERTEX
  5
32D
330
32B
100
AcDbEntity
  8
STANDARDEBENE
 62
     7
100
AcDbVertex
100
AcDb2dVertex
 10
125.3144277464494
 20
213.8444031095163
 30
0.0
  0
SEQEND
  5
32E
330
32B
100
AcDbEntity
  8
STANDARDEBENE
 62
     7
  0
POLYLINE
  5
32F
330
1F
100
AcDbEntity
  8
STANDARDEBENE
 62
     7
100
AcDb2dPolyline
 66
     1
 10
0.0
 20
0.0
 30
0.0
  0
VERTEX
  5
330
330
32F
100
AcDbEntity
  8
STANDARDEBENE
 62
     7
100
AcDbVertex
100
AcDb2dVertex
 10
124.4398916355568
 20
213.8444031095163
 30
0.0
  0
VERTEX
  5
331
330
32F
100
AcDbEntity
  8
STANDARDEBENE
 62
     7
100
AcDbVertex
100
AcDb2dVertex
 10
123.5646499691091
 20
213.8444031095163
 30
0.0
  0
SEQEND
  5
332
330
32F
100
AcDbEntity
  8
STANDARDEBENE
 62
     7
  0
POLYLINE
  5
333
330
1F
100
AcDbEntity
  8
STANDARDEBENE
 62
     7
100
AcDb2dPolyline
 66
     1
 10
0.0
 20
0.0
 30
0.0
  0
VERTEX
  5
334
330
333
100
AcDbEntity
  8
STANDARDEBENE
 62
     7
100
AcDbVertex
100
AcDb2dVertex
 10
122.6897610804387
 20
213.8444031095163
 30
0.0
  0
VERTEX
  5
335
330
333
100
AcDbEntity
  8
STANDARDEBENE
 62
     7
100
AcDbVertex
100
AcDb2dVertex
 10
122.2523166361037
 20
213.8444031095163
 30
0.0
  0
VERTEX
  5
336
330
333
100
AcDbEntity
  8
STANDARDEBENE
 62
     7
100
AcDbVertex
100
AcDb2dVertex
 10
122.2523166361037
 20
214.3584003316101
 30
0.0
  0
SEQEND
  5
337
330
333
100
AcDbEntity
  8
STANDARDEBENE
 62
     7
  0
POLYLINE
  5
338
330
1F
100
AcDbEntity
  8
STANDARDEBENE
 62
     7
100
AcDb2dPolyline
 66
     1
 10
0.0
 20
0.0
 30
0.0
  0
VERTEX
  5
339
330
338
100
AcDbEntity
  8
STANDARDEBENE
 62
     7
100
AcDbVertex
100
AcDb2dVertex
 10
122.2523166361037
 20
215.387100331353
 30
0.0
  0
VERTEX
  5
33A
330
338
100
AcDbEntity
  8
STANDARDEBENE
 62
     7
100
AcDbVertex
100
AcDb2dVertex
 10
122.2523166361037
 20
216.4150947755404
 30
0.0
  0
SEQEND
  5
33B
330
338
100
AcDbEntity
  8
STANDARDEBENE
 62
     7
  0
POLYLINE
  5
33C
330
1F
100
AcDbEntity
  8
STANDARDEBENE
 62
     7
100
AcDb2dPolyline
 66
     1
 10
0.0
 20
0.0
 30
0.0
  0
VERTEX
  5
33D
330
33C
100
AcDbEntity
  8
STANDARDEBENE
 62
     7
100
AcDbVertex
100
AcDb2dVertex
 10
122.2523166361037
 20
217.4430892197281
 30
0.0
  0
VERTEX
  5
33E
330
33C
100
AcDbEntity
  8
STANDARDEBENE
 62
     7
100
AcDbVertex
100
AcDb2dVertex
 10
122.2523166361037
 20
217.5806725530268
 30
0.0
  0
VERTEX
  5
33F
330
33C
100
AcDbEntity
  8
STANDARDEBENE
 62
     7
100
AcDbVertex
100
AcDb2dVertex
 10
122.2523166361037
 20
218.4710836639151
 30
0.0
  0
SEQEND
  5
340
330
33C
100
AcDbEntity
  8
STANDARDEBENE
 62
     7
  0
POLYLINE
  5
341
330
1F
100
AcDbEntity
  8
STANDARDEBENE
 62
     7
100
AcDb2dPolyline
 66
     1
 10
0.0
 20
0.0
 30
0.0
  0
VERTEX
  5
342
330
341
100
AcDbEntity
  8
STANDARDEBENE
 62
     7
100
AcDbVertex
100
AcDb2dVertex
 10
122.2523166361037
 20
219.4990781081028
 30
0.0
  0
VERTEX
  5
343
330
341
100
AcDbEntity
  8
STANDARDEBENE
 62
     7
100
AcDbVertex
100
AcDb2dVertex
 10
122.2523166361037
 20
220.0130753301966
 30
0.0
  0
SEQEND
  5
344
330
341
100
AcDbEntity
  8
STANDARDEBENE
 62
     7
  0
POLYLINE
  5
345
330
1F
100
AcDbEntity
  8
STANDARDEBENE
 62
     7
100
AcDb2dPolyline
 66
     1
 10
0.0
 20
0.0
 30
0.0
  0
VERTEX
  5
346
330
345
100
AcDbEntity
  8
STANDARDEBENE
 62
     7
100
AcDbVertex
100
AcDb2dVertex
 10
125.7518721907844
 20
213.8444031095163
 30
0.0
  0
VERTEX
  5
347
330
345
100
AcDbEntity
  8
STANDARDEBENE
 62
     7
100
AcDbVertex
100
AcDb2dVertex
 10
125.7518721907844
 20
214.3584003316101
 30
0.0
  0
SEQEND
  5
348
330
345
100
AcDbEntity
  8
STANDARDEBENE
 62
     7
  0
POLYLINE
  5
349
330
1F
100
AcDbEntity
  8
STANDARDEBENE
 62
     7
100
AcDb2dPolyline
 66
     1
 10
0.0
 20
0.0
 30
0.0
  0
VERTEX
  5
34A
330
349
100
AcDbEntity
  8
STANDARDEBENE
 62
     7
100
AcDbVertex
100
AcDb2dVertex
 10
125.7518721907844
 20
215.387100331353
 30
0.0
  0
VERTEX
  5
34B
330
349
100
AcDbEntity
  8
STANDARDEBENE
 62
     7
100
AcDbVertex
100
AcDb2dVertex
 10
125.7518721907844
 20
216.4150947755404
 30
0.0
  0
SEQEND
  5
34C
330
349
100
AcDbEntity
  8
STANDARDEBENE
 62
     7
  0
POLYLINE
  5
34D
330
1F
100
AcDbEntity
  8
STANDARDEBENE
 62
     7
100
AcDb2dPolyline
 66
     1
 10
0.0
 20
0.0
 30
0.0
  0
VERTEX
  5
34E
330
34D
100
AcDbEntity
  8
STANDARDEBENE
 62
     7
100
AcDbVertex
100
AcDb2dVertex
 10
125.7518721907844
 20
217.4430892197281
 30
0.0
  0
VERTEX
  5
34F
330
34D
100
AcDbEntity
  8
STANDARDEBENE
 62
     7
100
AcDbVertex
100
AcDb2dVertex
 10
125.7518721907844
 20
217.5806725530268
 30
0.0
  0
VERTEX
  5
350
330
34D
100
AcDbEntity
  8
STANDARDEBENE
 62
     7
100
AcDbVertex
100
AcDb2dVertex
 10
125.7518721907844
 20
218.4710836639151
 30
0.0
  0
SEQEND
  5
351
330
34D
100
AcDbEntity
  8
STANDARDEBENE
 62
     7
  0
POLYLINE
  5
352
330
1F
100
AcDbEntity
  8
STANDARDEBENE
 62
     7
100
AcDb2dPolyline
 66
     1
 10
0.0
 20
0.0
 30
0.0
  0
VERTEX
  5
353
330
352
100
AcDbEntity
  8
STANDARDEBENE
 62
     7
100
AcDbVertex
100
AcDb2dVertex
 10
125.7518721907844
 20
219.4990781081028
 30
0.0
  0
VERTEX
  5
354
330
352
100
AcDbEntity
  8
STANDARDEBENE
 62
     7
100
AcDbVertex
100
AcDb2dVertex
 10
125.7518721907844
 20
220.0130753301966
 30
0.0
  0
SEQEND
  5
355
330
352
100
AcDbEntity
  8
STANDARDEBENE
 62
     7
  0
POLYLINE
  5
356
330
1F
100
AcDbEntity
  8
STANDARDEBENE
 62
     7
100
AcDb2dPolyline
 66
     1
 10
0.0
 20
0.0
 30
0.0
  0
VERTEX
  5
357
330
356
100
AcDbEntity
  8
STANDARDEBENE
 62
     7
100
AcDbVertex
100
AcDb2dVertex
 10
126.0019916351663
 20
195.5444086696469
 30
0.0
  0
VERTEX
  5
358
330
356
100
AcDbEntity
  8
STANDARDEBENE
 62
     7
100
AcDbVertex
100
AcDb2dVertex
 10
126.4133305239524
 20
195.7818281140322
 30
0.0
  0
SEQEND
  5
359
330
356
100
AcDbEntity
  8
STANDARDEBENE
 62
     7
  0
POLYLINE
  5
35A
330
1F
100
AcDbEntity
  8
STANDARDEBENE
 62
     7
100
AcDb2dPolyline
 66
     1
 10
0.0
 20
0.0
 30
0.0
  0
VERTEX
  5
35B
330
35A
100
AcDbEntity
  8
STANDARDEBENE
 62
     7
100
AcDbVertex
100
AcDb2dVertex
 10
127.2349499681913
 20
196.2563142250245
 30
0.0
  0
VERTEX
  5
35C
330
35A
100
AcDbEntity
  8
STANDARDEBENE
 62
     7
100
AcDbVertex
100
AcDb2dVertex
 10
128.056922190208
 20
196.7311531137945
 30
0.0
  0
SEQEND
  5
35D
330
35A
100
AcDbEntity
  8
STANDARDEBENE
 62
     7
  0
POLYLINE
  5
35E
330
1F
100
AcDbEntity
  8
STANDARDEBENE
 62
     7
100
AcDb2dPolyline
 66
     1
 10
0.0
 20
0.0
 30
0.0
  0
VERTEX
  5
35F
330
35E
100
AcDbEntity
  8
STANDARDEBENE
 62
     7
100
AcDbVertex
100
AcDb2dVertex
 10
128.8785416344473
 20
197.2056392247874
 30
0.0
  0
VERTEX
  5
360
330
35E
100
AcDbEntity
  8
STANDARDEBENE
 62
     7
100
AcDbVertex
100
AcDb2dVertex
 10
129.700513856464
 20
197.6797725580019
 30
0.0
  0
SEQEND
  5
361
330
35E
100
AcDbEntity
  8
STANDARDEBENE
 62
     7
  0
POLYLINE
  5
362
330
1F
100
AcDbEntity
  8
STANDARDEBENE
 62
     7
100
AcDb2dPolyline
 66
     1
 10
0.0
 20
0.0
 30
0.0
  0
VERTEX
  5
363
330
362
100
AcDbEntity
  8
STANDARDEBENE
 62
     7
100
AcDbVertex
100
AcDb2dVertex
 10
130.5228388562585
 20
198.1546114467723
 30
0.0
  0
VERTEX
  5
364
330
362
100
AcDbEntity
  8
STANDARDEBENE
 62
     7
100
AcDbVertex
100
AcDb2dVertex
 10
130.9334721894891
 20
198.3916781133795
 30
0.0
  0
SEQEND
  5
365
330
362
100
AcDbEntity
  8
STANDARDEBENE
 62
     7
  0
POLYLINE
  5
366
330
1F
100
AcDbEntity
  8
STANDARDEBENE
 62
     7
100
AcDb2dPolyline
 66
     1
 10
0.0
 20
0.0
 30
0.0
  0
VERTEX
  5
367
330
366
100
AcDbEntity
  8
STANDARDEBENE
 62
     7
100
AcDbVertex
100
AcDb2dVertex
 10
130.9334721894891
 20
211.3918919990185
 30
0.0
  0
VERTEX
  5
368
330
366
100
AcDbEntity
  8
STANDARDEBENE
 62
     7
100
AcDbVertex
100
AcDb2dVertex
 10
130.5228388562585
 20
211.6293114434035
 30
0.0
  0
SEQEND
  5
369
330
366
100
AcDbEntity
  8
STANDARDEBENE
 62
     7
  0
POLYLINE
  5
36A
330
1F
100
AcDbEntity
  8
STANDARDEBENE
 62
     7
100
AcDb2dPolyline
 66
     1
 10
0.0
 20
0.0
 30
0.0
  0
VERTEX
  5
36B
330
36A
100
AcDbEntity
  8
STANDARDEBENE
 62
     7
100
AcDbVertex
100
AcDb2dVertex
 10
129.700513856464
 20
212.1037975543961
 30
0.0
  0
VERTEX
  5
36C
330
36A
100
AcDbEntity
  8
STANDARDEBENE
 62
     7
100
AcDbVertex
100
AcDb2dVertex
 10
128.8785416344473
 20
212.5779308876106
 30
0.0
  0
SEQEND
  5
36D
330
36A
100
AcDbEntity
  8
STANDARDEBENE
 62
     7
  0
POLYLINE
  5
36E
330
1F
100
AcDbEntity
  8
STANDARDEBENE
 62
     7
100
AcDb2dPolyline
 66
     1
 10
0.0
 20
0.0
 30
0.0
  0
VERTEX
  5
36F
330
36E
100
AcDbEntity
  8
STANDARDEBENE
 62
     7
100
AcDbVertex
100
AcDb2dVertex
 10
128.056922190208
 20
213.0524169986035
 30
0.0
  0
VERTEX
  5
370
330
36E
100
AcDbEntity
  8
STANDARDEBENE
 62
     7
100
AcDbVertex
100
AcDb2dVertex
 10
127.2349499681913
 20
213.5272558873735
 30
0.0
  0
SEQEND
  5
371
330
36E
100
AcDbEntity
  8
STANDARDEBENE
 62
     7
  0
POLYLINE
  5
372
330
1F
100
AcDbEntity
  8
STANDARDEBENE
 62
     7
100
AcDb2dPolyline
 66
     1
 10
0.0
 20
0.0
 30
0.0
  0
VERTEX
  5
373
330
372
100
AcDbEntity
  8
STANDARDEBENE
 62
     7
100
AcDbVertex
100
AcDb2dVertex
 10
126.4133305239524
 20
214.0020947761436
 30
0.0
  0
VERTEX
  5
374
330
372
100
AcDbEntity
  8
STANDARDEBENE
 62
     7
100
AcDbVertex
100
AcDb2dVertex
 10
126.0019916351663
 20
214.2391614427511
 30
0.0
  0
SEQEND
  5
375
330
372
100
AcDbEntity
  8
STANDARDEBENE
 62
     7
  0
POLYLINE
  5
376
330
1F
100
AcDbEntity
  8
STANDARDEBENE
 62
     7
100
AcDb2dPolyline
 66
     1
 10
0.0
 20
0.0
 30
0.0
  0
VERTEX
  5
377
330
376
100
AcDbEntity
  8
STANDARDEBENE
 62
     7
100
AcDbVertex
100
AcDb2dVertex
 10
130.9334721894891
 20
198.3916781133795
 30
0.0
  0
VERTEX
  5
378
330
376
100
AcDbEntity
  8
STANDARDEBENE
 62
     7
100
AcDbVertex
100
AcDb2dVertex
 10
130.9334721894891
 20
198.5024503355741
 30
0.0
  0
VERTEX
  5
379
330
376
100
AcDbEntity
  8
STANDARDEBENE
 62
     7
100
AcDbVertex
100
AcDb2dVertex
 10
130.9334721894891
 20
198.8308864466033
 30
0.0
  0
VERTEX
  5
37A
330
376
100
AcDbEntity
  8
STANDARDEBENE
 62
     7
100
AcDbVertex
100
AcDb2dVertex
 10
130.9334721894891
 20
198.9338975576885
 30
0.0
  0
SEQEND
  5
37B
330
376
100
AcDbEntity
  8
STANDARDEBENE
 62
     7
  0
POLYLINE
  5
37C
330
1F
100
AcDbEntity
  8
STANDARDEBENE
 62
     7
100
AcDb2dPolyline
 66
     1
 10
0.0
 20
0.0
 30
0.0
  0
VERTEX
  5
37D
330
37C
100
AcDbEntity
  8
STANDARDEBENE
 62
     7
100
AcDbVertex
100
AcDb2dVertex
 10
130.9334721894891
 20
200.0165725574176
 30
0.0
  0
VERTEX
  5
37E
330
37C
100
AcDbEntity
  8
STANDARDEBENE
 62
     7
100
AcDbVertex
100
AcDb2dVertex
 10
130.9334721894891
 20
200.0881864462888
 30
0.0
  0
VERTEX
  5
37F
330
37C
100
AcDbEntity
  8
STANDARDEBENE
 62
     7
100
AcDbVertex
100
AcDb2dVertex
 10
130.9334721894891
 20
200.9747170016227
 30
0.0
  0
VERTEX
  5
380
330
37C
100
AcDbEntity
  8
STANDARDEBENE
 62
     7
100
AcDbVertex
100
AcDb2dVertex
 10
130.9334721894891
 20
201.1003058904801
 30
0.0
  0
SEQEND
  5
381
330
37C
100
AcDbEntity
  8
STANDARDEBENE
 62
     7
  0
POLYLINE
  5
382
330
1F
100
AcDbEntity
  8
STANDARDEBENE
 62
     7
100
AcDb2dPolyline
 66
     1
 10
0.0
 20
0.0
 30
0.0
  0
VERTEX
  5
383
330
382
100
AcDbEntity
  8
STANDARDEBENE
 62
     7
100
AcDbVertex
100
AcDb2dVertex
 10
130.9334721894891
 20
202.1836864457647
 30
0.0
  0
VERTEX
  5
384
330
382
100
AcDbEntity
  8
STANDARDEBENE
 62
     7
100
AcDbVertex
100
AcDb2dVertex
 10
130.9334721894891
 20
203.1132558899769
 30
0.0
  0
VERTEX
  5
385
330
382
100
AcDbEntity
  8
STANDARDEBENE
 62
     7
100
AcDbVertex
100
AcDb2dVertex
 10
130.9334721894891
 20
203.266714223272
 30
0.0
  0
SEQEND
  5
386
330
382
100
AcDbEntity
  8
STANDARDEBENE
 62
     7
  0
POLYLINE
  5
387
330
1F
100
AcDbEntity
  8
STANDARDEBENE
 62
     7
100
AcDb2dPolyline
 66
     1
 10
0.0
 20
0.0
 30
0.0
  0
VERTEX
  5
388
330
387
100
AcDbEntity
  8
STANDARDEBENE
 62
     7
100
AcDbVertex
100
AcDb2dVertex
 10
130.9334721894891
 20
204.3500947785567
 30
0.0
  0
VERTEX
  5
389
330
387
100
AcDbEntity
  8
STANDARDEBENE
 62
     7
100
AcDbVertex
100
AcDb2dVertex
 10
130.9334721894891
 20
205.4334753338414
 30
0.0
  0
SEQEND
  5
38A
330
387
100
AcDbEntity
  8
STANDARDEBENE
 62
     7
  0
POLYLINE
  5
38B
330
1F
100
AcDbEntity
  8
STANDARDEBENE
 62
     7
100
AcDb2dPolyline
 66
     1
 10
0.0
 20
0.0
 30
0.0
  0
VERTEX
  5
38C
330
38B
100
AcDbEntity
  8
STANDARDEBENE
 62
     7
100
AcDbVertex
100
AcDb2dVertex
 10
130.9334721894891
 20
206.5172086669038
 30
0.0
  0
VERTEX
  5
38D
330
38B
100
AcDbEntity
  8
STANDARDEBENE
 62
     7
100
AcDbVertex
100
AcDb2dVertex
 10
130.9334721894891
 20
206.6706670001989
 30
0.0
  0
VERTEX
  5
38E
330
38B
100
AcDbEntity
  8
STANDARDEBENE
 62
     7
100
AcDbVertex
100
AcDb2dVertex
 10
130.9334721894891
 20
207.5998836666333
 30
0.0
  0
SEQEND
  5
38F
330
38B
100
AcDbEntity
  8
STANDARDEBENE
 62
     7
  0
POLYLINE
  5
390
330
1F
100
AcDbEntity
  8
STANDARDEBENE
 62
     7
100
AcDb2dPolyline
 66
     1
 10
0.0
 20
0.0
 30
0.0
  0
VERTEX
  5
391
330
390
100
AcDbEntity
  8
STANDARDEBENE
 62
     7
100
AcDbVertex
100
AcDb2dVertex
 10
130.9334721894891
 20
208.683264221918
 30
0.0
  0
VERTEX
  5
392
330
390
100
AcDbEntity
  8
STANDARDEBENE
 62
     7
100
AcDbVertex
100
AcDb2dVertex
 10
130.9334721894891
 20
208.8088531107754
 30
0.0
  0
VERTEX
  5
393
330
390
100
AcDbEntity
  8
STANDARDEBENE
 62
     7
100
AcDbVertex
100
AcDb2dVertex
 10
130.9334721894891
 20
209.6957364438867
 30
0.0
  0
VERTEX
  5
394
330
390
100
AcDbEntity
  8
STANDARDEBENE
 62
     7
100
AcDbVertex
100
AcDb2dVertex
 10
130.9334721894891
 20
209.7669975549804
 30
0.0
  0
SEQEND
  5
395
330
390
100
AcDbEntity
  8
STANDARDEBENE
 62
     7
  0
POLYLINE
  5
396
330
1F
100
AcDbEntity
  8
STANDARDEBENE
 62
     7
100
AcDb2dPolyline
 66
     1
 10
0.0
 20
0.0
 30
0.0
  0
VERTEX
  5
397
330
396
100
AcDbEntity
  8
STANDARDEBENE
 62
     7
100
AcDbVertex
100
AcDb2dVertex
 10
130.9334721894891
 20
210.8503781102651
 30
0.0
  0
VERTEX
  5
398
330
396
100
AcDbEntity
  8
STANDARDEBENE
 62
     7
100
AcDbVertex
100
AcDb2dVertex
 10
130.9334721894891
 20
210.9526836657947
 30
0.0
  0
VERTEX
  5
399
330
396
100
AcDbEntity
  8
STANDARDEBENE
 62
     7
100
AcDbVertex
100
AcDb2dVertex
 10
130.9334721894891
 20
211.2814725546017
 30
0.0
  0
VERTEX
  5
39A
330
396
100
AcDbEntity
  8
STANDARDEBENE
 62
     7
100
AcDbVertex
100
AcDb2dVertex
 10
130.9334721894891
 20
211.3918919990185
 30
0.0
  0
SEQEND
  5
39B
330
396
100
AcDbEntity
  8
STANDARDEBENE
 62
     7
  0
POLYLINE
  5
39C
330
1F
100
AcDbEntity
  8
STANDARDEBENE
 62
     7
100
AcDb2dPolyline
 66
     1
 10
0.0
 20
0.0
 30
0.0
  0
VERTEX
  5
39D
330
39C
100
AcDbEntity
  8
STANDARDEBENE
 62
     7
100
AcDbVertex
100
AcDb2dVertex
 10
135.1523416328787
 20
211.3918919990185
 30
0.0
  0
VERTEX
  5
39E
330
39C
100
AcDbEntity
  8
STANDARDEBENE
 62
     7
100
AcDbVertex
100
AcDb2dVertex
 10
134.6249388552328
 20
211.3918919990185
 30
0.0
  0
SEQEND
  5
39F
330
39C
100
AcDbEntity
  8
STANDARDEBENE
 62
     7
  0
POLYLINE
  5
3A0
330
1F
100
AcDbEntity
  8
STANDARDEBENE
 62
     7
100
AcDb2dPolyline
 66
     1
 10
0.0
 20
0.0
 30
0.0
  0
VERTEX
  5
3A1
330
3A0
100
AcDbEntity
  8
STANDARDEBENE
 62
     7
100
AcDbVertex
100
AcDb2dVertex
 10
133.5697805221633
 20
211.3918919990185
 30
0.0
  0
VERTEX
  5
3A2
330
3A0
100
AcDbEntity
  8
STANDARDEBENE
 62
     7
100
AcDbVertex
100
AcDb2dVertex
 10
132.5156805224267
 20
211.3918919990185
 30
0.0
  0
SEQEND
  5
3A3
330
3A0
100
AcDbEntity
  8
STANDARDEBENE
 62
     7
  0
POLYLINE
  5
3A4
330
1F
100
AcDbEntity
  8
STANDARDEBENE
 62
     7
100
AcDb2dPolyline
 66
     1
 10
0.0
 20
0.0
 30
0.0
  0
VERTEX
  5
3A5
330
3A4
100
AcDbEntity
  8
STANDARDEBENE
 62
     7
100
AcDbVertex
100
AcDb2dVertex
 10
131.4608749671349
 20
211.3918919990185
 30
0.0
  0
VERTEX
  5
3A6
330
3A4
100
AcDbEntity
  8
STANDARDEBENE
 62
     7
100
AcDbVertex
100
AcDb2dVertex
 10
130.9334721894891
 20
211.3918919990185
 30
0.0
  0
SEQEND
  5
3A7
330
3A4
100
AcDbEntity
  8
STANDARDEBENE
 62
     7
  0
POLYLINE
  5
3A8
330
1F
100
AcDbEntity
  8
STANDARDEBENE
 62
     7
100
AcDb2dPolyline
 66
     1
 10
0.0
 20
0.0
 30
0.0
  0
VERTEX
  5
3A9
330
3A8
100
AcDbEntity
  8
STANDARDEBENE
 62
     7
100
AcDbVertex
100
AcDb2dVertex
 10
130.9334721894891
 20
198.3916781133795
 30
0.0
  0
VERTEX
  5
3AA
330
3A8
100
AcDbEntity
  8
STANDARDEBENE
 62
     7
100
AcDbVertex
100
AcDb2dVertex
 10
131.4608749671349
 20
198.3916781133795
 30
0.0
  0
SEQEND
  5
3AB
330
3A8
100
AcDbEntity
  8
STANDARDEBENE
 62
     7
  0
POLYLINE
  5
3AC
330
1F
100
AcDbEntity
  8
STANDARDEBENE
 62
     7
100
AcDb2dPolyline
 66
     1
 10
0.0
 20
0.0
 30
0.0
  0
VERTEX
  5
3AD
330
3AC
100
AcDbEntity
  8
STANDARDEBENE
 62
     7
100
AcDbVertex
100
AcDb2dVertex
 10
132.5156805224267
 20
198.3916781133795
 30
0.0
  0
VERTEX
  5
3AE
330
3AC
100
AcDbEntity
  8
STANDARDEBENE
 62
     7
100
AcDbVertex
100
AcDb2dVertex
 10
133.5697805221633
 20
198.3916781133795
 30
0.0
  0
SEQEND
  5
3AF
330
3AC
100
AcDbEntity
  8
STANDARDEBENE
 62
     7
  0
POLYLINE
  5
3B0
330
1F
100
AcDbEntity
  8
STANDARDEBENE
 62
     7
100
AcDb2dPolyline
 66
     1
 10
0.0
 20
0.0
 30
0.0
  0
VERTEX
  5
3B1
330
3B0
100
AcDbEntity
  8
STANDARDEBENE
 62
     7
100
AcDbVertex
100
AcDb2dVertex
 10
134.6249388552328
 20
198.3916781133795
 30
0.0
  0
VERTEX
  5
3B2
330
3B0
100
AcDbEntity
  8
STANDARDEBENE
 62
     7
100
AcDbVertex
100
AcDb2dVertex
 10
135.1523416328787
 20
198.3916781133795
 30
0.0
  0
VERTEX
  5
3B3
330
3B0
100
AcDbEntity
  8
STANDARDEBENE
 62
     7
100
AcDbVertex
100
AcDb2dVertex
 10
135.2938055217322
 20
198.4505920022538
 30
0.0
  0
SEQEND
  5
3B4
330
3B0
100
AcDbEntity
  8
STANDARDEBENE
 62
     7
  0
POLYLINE
  5
3B5
330
1F
100
AcDbEntity
  8
STANDARDEBENE
 62
     7
100
AcDb2dPolyline
 66
     1
 10
0.0
 20
0.0
 30
0.0
  0
VERTEX
  5
3B6
330
3B5
100
AcDbEntity
  8
STANDARDEBENE
 62
     7
100
AcDbVertex
100
AcDb2dVertex
 10
135.493124966127
 20
198.6506170022038
 30
0.0
  0
VERTEX
  5
3B7
330
3B5
100
AcDbEntity
  8
STANDARDEBENE
 62
     7
100
AcDbVertex
100
AcDb2dVertex
 10
135.5523916327787
 20
198.7920808910573
 30
0.0
  0
SEQEND
  5
3B8
330
3B5
100
AcDbEntity
  8
STANDARDEBENE
 62
     7
  0
POLYLINE
  5
3B9
330
1F
100
AcDbEntity
  8
STANDARDEBENE
 62
     7
100
AcDb2dPolyline
 66
     1
 10
0.0
 20
0.0
 30
0.0
  0
VERTEX
  5
3BA
330
3B9
100
AcDbEntity
  8
STANDARDEBENE
 62
     7
100
AcDbVertex
100
AcDb2dVertex
 10
135.5523916327787
 20
210.9918419991185
 30
0.0
  0
VERTEX
  5
3BB
330
3B9
100
AcDbEntity
  8
STANDARDEBENE
 62
     7
100
AcDbVertex
100
AcDb2dVertex
 10
135.493124966127
 20
211.1336586657498
 30
0.0
  0
SEQEND
  5
3BC
330
3B9
100
AcDbEntity
  8
STANDARDEBENE
 62
     7
  0
POLYLINE
  5
3BD
330
1F
100
AcDbEntity
  8
STANDARDEBENE
 62
     7
100
AcDb2dPolyline
 66
     1
 10
0.0
 20
0.0
 30
0.0
  0
VERTEX
  5
3BE
330
3BD
100
AcDbEntity
  8
STANDARDEBENE
 62
     7
100
AcDbVertex
100
AcDb2dVertex
 10
135.2938055217322
 20
211.3336836656995
 30
0.0
  0
VERTEX
  5
3BF
330
3BD
100
AcDbEntity
  8
STANDARDEBENE
 62
     7
100
AcDbVertex
100
AcDb2dVertex
 10
135.1523416328787
 20
211.3918919990185
 30
0.0
  0
SEQEND
  5
3C0
330
3BD
100
AcDbEntity
  8
STANDARDEBENE
 62
     7
  0
POLYLINE
  5
3C1
330
1F
100
AcDbEntity
  8
STANDARDEBENE
 62
     7
100
AcDb2dPolyline
 66
     1
 10
0.0
 20
0.0
 30
0.0
  0
VERTEX
  5
3C2
330
3C1
100
AcDbEntity
  8
STANDARDEBENE
 62
     7
100
AcDbVertex
100
AcDb2dVertex
 10
135.5523916327787
 20
198.7920808910573
 30
0.0
  0
VERTEX
  5
3C3
330
3C1
100
AcDbEntity
  8
STANDARDEBENE
 62
     7
100
AcDbVertex
100
AcDb2dVertex
 10
135.5523916327787
 20
198.8954447799202
 30
0.0
  0
VERTEX
  5
3C4
330
3C1
100
AcDbEntity
  8
STANDARDEBENE
 62
     7
100
AcDbVertex
100
AcDb2dVertex
 10
135.5523916327787
 20
199.2041253353986
 30
0.0
  0
VERTEX
  5
3C5
330
3C1
100
AcDbEntity
  8
STANDARDEBENE
 62
     7
100
AcDbVertex
100
AcDb2dVertex
 10
135.5523916327787
 20
199.3004336687082
 30
0.0
  0
SEQEND
  5
3C6
330
3C1
100
AcDbEntity
  8
STANDARDEBENE
 62
     7
  0
POLYLINE
  5
3C7
330
1F
100
AcDbEntity
  8
STANDARDEBENE
 62
     7
100
AcDb2dPolyline
 66
     1
 10
0.0
 20
0.0
 30
0.0
  0
VERTEX
  5
3C8
330
3C7
100
AcDbEntity
  8
STANDARDEBENE
 62
     7
100
AcDbVertex
100
AcDb2dVertex
 10
135.5523916327787
 20
200.3167864462317
 30
0.0
  0
VERTEX
  5
3C9
330
3C7
100
AcDbEntity
  8
STANDARDEBENE
 62
     7
100
AcDbVertex
100
AcDb2dVertex
 10
135.5523916327787
 20
200.3841670017706
 30
0.0
  0
VERTEX
  5
3CA
330
3C7
100
AcDbEntity
  8
STANDARDEBENE
 62
     7
100
AcDbVertex
100
AcDb2dVertex
 10
135.5523916327787
 20
201.215664223785
 30
0.0
  0
VERTEX
  5
3CB
330
3C7
100
AcDbEntity
  8
STANDARDEBENE
 62
     7
100
AcDbVertex
100
AcDb2dVertex
 10
135.5523916327787
 20
201.3338447793107
 30
0.0
  0
SEQEND
  5
3CC
330
3C7
100
AcDbEntity
  8
STANDARDEBENE
 62
     7
  0
POLYLINE
  5
3CD
330
1F
100
AcDbEntity
  8
STANDARDEBENE
 62
     7
100
AcDb2dPolyline
 66
     1
 10
0.0
 20
0.0
 30
0.0
  0
VERTEX
  5
3CE
330
3CD
100
AcDbEntity
  8
STANDARDEBENE
 62
     7
100
AcDbVertex
100
AcDb2dVertex
 10
135.5523916327787
 20
202.3501975568345
 30
0.0
  0
VERTEX
  5
3CF
330
3CD
100
AcDbEntity
  8
STANDARDEBENE
 62
     7
100
AcDbVertex
100
AcDb2dVertex
 10
135.5523916327787
 20
203.222264223283
 30
0.0
  0
VERTEX
  5
3D0
330
3CD
100
AcDbEntity
  8
STANDARDEBENE
 62
     7
100
AcDbVertex
100
AcDb2dVertex
 10
135.5523916327787
 20
203.3665503343583
 30
0.0
  0
SEQEND
  5
3D1
330
3CD
100
AcDbEntity
  8
STANDARDEBENE
 62
     7
  0
POLYLINE
  5
3D2
330
1F
100
AcDbEntity
  8
STANDARDEBENE
 62
     7
100
AcDb2dPolyline
 66
     1
 10
0.0
 20
0.0
 30
0.0
  0
VERTEX
  5
3D3
330
3D2
100
AcDbEntity
  8
STANDARDEBENE
 62
     7
100
AcDbVertex
100
AcDb2dVertex
 10
135.5523916327787
 20
204.3836086674373
 30
0.0
  0
VERTEX
  5
3D4
330
3D2
100
AcDbEntity
  8
STANDARDEBENE
 62
     7
100
AcDbVertex
100
AcDb2dVertex
 10
135.5523916327787
 20
205.3999614449608
 30
0.0
  0
SEQEND
  5
3D5
330
3D2
100
AcDbEntity
  8
STANDARDEBENE
 62
     7
  0
POLYLINE
  5
3D6
330
1F
100
AcDbEntity
  8
STANDARDEBENE
 62
     7
100
AcDb2dPolyline
 66
     1
 10
0.0
 20
0.0
 30
0.0
  0
VERTEX
  5
3D7
330
3D6
100
AcDbEntity
  8
STANDARDEBENE
 62
     7
100
AcDbVertex
100
AcDb2dVertex
 10
135.5523916327787
 20
206.4170197780398
 30
0.0
  0
VERTEX
  5
3D8
330
3D6
100
AcDbEntity
  8
STANDARDEBENE
 62
     7
100
AcDbVertex
100
AcDb2dVertex
 10
135.5523916327787
 20
206.561305889115
 30
0.0
  0
VERTEX
  5
3D9
330
3D6
100
AcDbEntity
  8
STANDARDEBENE
 62
     7
100
AcDbVertex
100
AcDb2dVertex
 10
135.5523916327787
 20
207.4333725555639
 30
0.0
  0
SEQEND
  5
3DA
330
3D6
100
AcDbEntity
  8
STANDARDEBENE
 62
     7
  0
POLYLINE
  5
3DB
330
1F
100
AcDbEntity
  8
STANDARDEBENE
 62
     7
100
AcDb2dPolyline
 66
     1
 10
0.0
 20
0.0
 30
0.0
  0
VERTEX
  5
3DC
330
3DB
100
AcDbEntity
  8
STANDARDEBENE
 62
     7
100
AcDbVertex
100
AcDb2dVertex
 10
135.5523916327787
 20
208.4504308886429
 30
0.0
  0
VERTEX
  5
3DD
330
3DB
100
AcDbEntity
  8
STANDARDEBENE
 62
     7
100
AcDbVertex
100
AcDb2dVertex
 10
135.5523916327787
 20
208.5679058886134
 30
0.0
  0
VERTEX
  5
3DE
330
3DB
100
AcDbEntity
  8
STANDARDEBENE
 62
     7
100
AcDbVertex
100
AcDb2dVertex
 10
135.5523916327787
 20
209.4001086661829
 30
0.0
  0
VERTEX
  5
3DF
330
3DB
100
AcDbEntity
  8
STANDARDEBENE
 62
     7
100
AcDbVertex
100
AcDb2dVertex
 10
135.5523916327787
 20
209.4667836661664
 30
0.0
  0
SEQEND
  5
3E0
330
3DB
100
AcDbEntity
  8
STANDARDEBENE
 62
     7
  0
POLYLINE
  5
3E1
330
1F
100
AcDbEntity
  8
STANDARDEBENE
 62
     7
100
AcDb2dPolyline
 66
     1
 10
0.0
 20
0.0
 30
0.0
  0
VERTEX
  5
3E2
330
3E1
100
AcDbEntity
  8
STANDARDEBENE
 62
     7
100
AcDbVertex
100
AcDb2dVertex
 10
135.5523916327787
 20
210.4838419992454
 30
0.0
  0
VERTEX
  5
3E3
330
3E1
100
AcDbEntity
  8
STANDARDEBENE
 62
     7
100
AcDbVertex
100
AcDb2dVertex
 10
135.5523916327787
 20
210.5797975547772
 30
0.0
  0
VERTEX
  5
3E4
330
3E1
100
AcDbEntity
  8
STANDARDEBENE
 62
     7
100
AcDbVertex
100
AcDb2dVertex
 10
135.5523916327787
 20
210.8881253324778
 30
0.0
  0
VERTEX
  5
3E5
330
3E1
100
AcDbEntity
  8
STANDARDEBENE
 62
     7
100
AcDbVertex
100
AcDb2dVertex
 10
135.5523916327787
 20
210.9918419991185
 30
0.0
  0
SEQEND
  5
3E6
330
3E1
100
AcDbEntity
  8
STANDARDEBENE
 62
     7
  0
POLYLINE
  5
3E7
330
1F
100
AcDbEntity
  8
STANDARDEBENE
 62
     7
100
AcDb2dPolyline
 66
     1
 10
0.0
 20
0.0
 30
0.0
  0
VERTEX
  5
3E8
330
3E7
100
AcDbEntity
  8
STANDARDEBENE
 62
     7
100
AcDbVertex
100
AcDb2dVertex
 10
136.5521638547509
 20
210.3917669992682
 30
0.0
  0
VERTEX
  5
3E9
330
3E7
100
AcDbEntity
  8
STANDARDEBENE
 62
     7
100
AcDbVertex
100
AcDb2dVertex
 10
136.3020444103691
 20
210.3917669992682
 30
0.0
  0
SEQEND
  5
3EA
330
3E7
100
AcDbEntity
  8
STANDARDEBENE
 62
     7
  0
POLYLINE
  5
3EB
330
1F
100
AcDbEntity
  8
STANDARDEBENE
 62
     7
100
AcDb2dPolyline
 66
     1
 10
0.0
 20
0.0
 30
0.0
  0
VERTEX
  5
3EC
330
3EB
100
AcDbEntity
  8
STANDARDEBENE
 62
     7
100
AcDbVertex
100
AcDb2dVertex
 10
135.8018055216054
 20
210.3917669992682
 30
0.0
  0
VERTEX
  5
3ED
330
3EB
100
AcDbEntity
  8
STANDARDEBENE
 62
     7
100
AcDbVertex
100
AcDb2dVertex
 10
135.5523916327787
 20
210.3917669992682
 30
0.0
  0
SEQEND
  5
3EE
330
3EB
100
AcDbEntity
  8
STANDARDEBENE
 62
     7
  0
POLYLINE
  5
3EF
330
1F
100
AcDbEntity
  8
STANDARDEBENE
 62
     7
100
AcDb2dPolyline
 66
     1
 10
0.0
 20
0.0
 30
0.0
  0
VERTEX
  5
3F0
330
3EF
100
AcDbEntity
  8
STANDARDEBENE
 62
     7
100
AcDbVertex
100
AcDb2dVertex
 10
135.5523916327787
 20
199.3921558909072
 30
0.0
  0
VERTEX
  5
3F1
330
3EF
100
AcDbEntity
  8
STANDARDEBENE
 62
     7
100
AcDbVertex
100
AcDb2dVertex
 10
135.9266888549072
 20
199.3921558909072
 30
0.0
  0
SEQEND
  5
3F2
330
3EF
100
AcDbEntity
  8
STANDARDEBENE
 62
     7
  0
POLYLINE
  5
3F3
330
1F
100
AcDbEntity
  8
STANDARDEBENE
 62
     7
100
AcDb2dPolyline
 66
     1
 10
0.0
 20
0.0
 30
0.0
  0
VERTEX
  5
3F4
330
3F3
100
AcDbEntity
  8
STANDARDEBENE
 62
     7
100
AcDbVertex
100
AcDb2dVertex
 10
136.6770471880531
 20
199.3921558909072
 30
0.0
  0
VERTEX
  5
3F5
330
3F3
100
AcDbEntity
  8
STANDARDEBENE
 62
     7
100
AcDbVertex
100
AcDb2dVertex
 10
137.4266999656435
 20
199.3921558909072
 30
0.0
  0
SEQEND
  5
3F6
330
3F3
100
AcDbEntity
  8
STANDARDEBENE
 62
     7
  0
POLYLINE
  5
3F7
330
1F
100
AcDbEntity
  8
STANDARDEBENE
 62
     7
100
AcDb2dPolyline
 66
     1
 10
0.0
 20
0.0
 30
0.0
  0
VERTEX
  5
3F8
330
3F7
100
AcDbEntity
  8
STANDARDEBENE
 62
     7
100
AcDbVertex
100
AcDb2dVertex
 10
138.1770582987891
 20
199.3921558909072
 30
0.0
  0
VERTEX
  5
3F9
330
3F7
100
AcDbEntity
  8
STANDARDEBENE
 62
     7
100
AcDbVertex
100
AcDb2dVertex
 10
138.5520610764731
 20
199.3921558909072
 30
0.0
  0
SEQEND
  5
3FA
330
3F7
100
AcDbEntity
  8
STANDARDEBENE
 62
     7
  0
POLYLINE
  5
3FB
330
1F
100
AcDbEntity
  8
STANDARDEBENE
 62
     7
100
AcDb2dPolyline
 66
     1
 10
0.0
 20
0.0
 30
0.0
  0
VERTEX
  5
3FC
330
3FB
100
AcDbEntity
  8
STANDARDEBENE
 62
     7
100
AcDbVertex
100
AcDb2dVertex
 10
136.5521638547509
 20
208.6335225552639
 30
0.0
  0
VERTEX
  5
3FD
330
3FB
100
AcDbEntity
  8
STANDARDEBENE
 62
     7
100
AcDbVertex
100
AcDb2dVertex
 10
137.0516971879594
 20
208.6335225552639
 30
0.0
  0
SEQEND
  5
3FE
330
3FB
100
AcDbEntity
  8
STANDARDEBENE
 62
     7
  0
POLYLINE
  5
3FF
330
1F
100
AcDbEntity
  8
STANDARDEBENE
 62
     7
100
AcDb2dPolyline
 66
     1
 10
0.0
 20
0.0
 30
0.0
  0
VERTEX
  5
400
330
3FF
100
AcDbEntity
  8
STANDARDEBENE
 62
     7
100
AcDbVertex
100
AcDb2dVertex
 10
138.0518221877094
 20
208.6335225552639
 30
0.0
  0
VERTEX
  5
401
330
3FF
100
AcDbEntity
  8
STANDARDEBENE
 62
     7
100
AcDbVertex
100
AcDb2dVertex
 10
138.5520610764731
 20
208.6335225552639
 30
0.0
  0
SEQEND
  5
402
330
3FF
100
AcDbEntity
  8
STANDARDEBENE
 62
     7
  0
POLYLINE
  5
403
330
1F
100
AcDbEntity
  8
STANDARDEBENE
 62
     7
100
AcDb2dPolyline
 66
     1
 10
0.0
 20
0.0
 30
0.0
  0
VERTEX
  5
404
330
403
100
AcDbEntity
  8
STANDARDEBENE
 62
     7
100
AcDbVertex
100
AcDb2dVertex
 10
119.719019414515
 20
227.3921281061294
 30
0.0
  0
VERTEX
  5
405
330
403
100
AcDbEntity
  8
STANDARDEBENE
 62
     7
100
AcDbVertex
100
AcDb2dVertex
 10
119.719019414515
 20
226.8918892173657
 30
0.0
  0
SEQEND
  5
406
330
403
100
AcDbEntity
  8
STANDARDEBENE
 62
     7
  0
POLYLINE
  5
407
330
1F
100
AcDbEntity
  8
STANDARDEBENE
 62
     7
100
AcDb2dPolyline
 66
     1
 10
0.0
 20
0.0
 30
0.0
  0
VERTEX
  5
408
330
407
100
AcDbEntity
  8
STANDARDEBENE
 62
     7
100
AcDbVertex
100
AcDb2dVertex
 10
119.719019414515
 20
225.8917642176158
 30
0.0
  0
VERTEX
  5
409
330
407
100
AcDbEntity
  8
STANDARDEBENE
 62
     7
100
AcDbVertex
100
AcDb2dVertex
 10
119.719019414515
 20
224.8919919956435
 30
0.0
  0
SEQEND
  5
40A
330
407
100
AcDbEntity
  8
STANDARDEBENE
 62
     7
  0
POLYLINE
  5
40B
330
1F
100
AcDbEntity
  8
STANDARDEBENE
 62
     7
100
AcDb2dPolyline
 66
     1
 10
0.0
 20
0.0
 30
0.0
  0
VERTEX
  5
40C
330
40B
100
AcDbEntity
  8
STANDARDEBENE
 62
     7
100
AcDbVertex
100
AcDb2dVertex
 10
119.719019414515
 20
223.8918669958932
 30
0.0
  0
VERTEX
  5
40D
330
40B
100
AcDbEntity
  8
STANDARDEBENE
 62
     7
100
AcDbVertex
100
AcDb2dVertex
 10
119.719019414515
 20
222.8920947739213
 30
0.0
  0
SEQEND
  5
40E
330
40B
100
AcDbEntity
  8
STANDARDEBENE
 62
     7
  0
POLYLINE
  5
40F
330
1F
100
AcDbEntity
  8
STANDARDEBENE
 62
     7
100
AcDb2dPolyline
 66
     1
 10
0.0
 20
0.0
 30
0.0
  0
VERTEX
  5
410
330
40F
100
AcDbEntity
  8
STANDARDEBENE
 62
     7
100
AcDbVertex
100
AcDb2dVertex
 10
119.719019414515
 20
221.891969774171
 30
0.0
  0
VERTEX
  5
411
330
40F
100
AcDbEntity
  8
STANDARDEBENE
 62
     7
100
AcDbVertex
100
AcDb2dVertex
 10
119.719019414515
 20
220.8918447744214
 30
0.0
  0
SEQEND
  5
412
330
40F
100
AcDbEntity
  8
STANDARDEBENE
 62
     7
  0
POLYLINE
  5
413
330
1F
100
AcDbEntity
  8
STANDARDEBENE
 62
     7
100
AcDb2dPolyline
 66
     1
 10
0.0
 20
0.0
 30
0.0
  0
VERTEX
  5
414
330
413
100
AcDbEntity
  8
STANDARDEBENE
 62
     7
100
AcDbVertex
100
AcDb2dVertex
 10
119.719019414515
 20
219.8920725524488
 30
0.0
  0
VERTEX
  5
415
330
413
100
AcDbEntity
  8
STANDARDEBENE
 62
     7
100
AcDbVertex
100
AcDb2dVertex
 10
119.719019414515
 20
219.3921864414629
 30
0.0
  0
SEQEND
  5
416
330
413
100
AcDbEntity
  8
STANDARDEBENE
 62
     7
  0
POLYLINE
  5
417
330
1F
100
AcDbEntity
  8
STANDARDEBENE
 62
     7
100
AcDb2dPolyline
 66
     1
 10
0.0
 20
0.0
 30
0.0
  0
VERTEX
  5
418
330
417
100
AcDbEntity
  8
STANDARDEBENE
 62
     7
100
AcDbVertex
100
AcDb2dVertex
 10
128.2848166345957
 20
219.3921864414629
 30
0.0
  0
VERTEX
  5
419
330
417
100
AcDbEntity
  8
STANDARDEBENE
 62
     7
100
AcDbVertex
100
AcDb2dVertex
 10
128.2848166345957
 20
219.8920725524488
 30
0.0
  0
SEQEND
  5
41A
330
417
100
AcDbEntity
  8
STANDARDEBENE
 62
     7
  0
POLYLINE
  5
41B
330
1F
100
AcDbEntity
  8
STANDARDEBENE
 62
     7
100
AcDb2dPolyline
 66
     1
 10
0.0
 20
0.0
 30
0.0
  0
VERTEX
  5
41C
330
41B
100
AcDbEntity
  8
STANDARDEBENE
 62
     7
100
AcDbVertex
100
AcDb2dVertex
 10
128.2848166345957
 20
220.8918447744214
 30
0.0
  0
VERTEX
  5
41D
330
41B
100
AcDbEntity
  8
STANDARDEBENE
 62
     7
100
AcDbVertex
100
AcDb2dVertex
 10
128.2848166345957
 20
221.891969774171
 30
0.0
  0
SEQEND
  5
41E
330
41B
100
AcDbEntity
  8
STANDARDEBENE
 62
     7
  0
POLYLINE
  5
41F
330
1F
100
AcDbEntity
  8
STANDARDEBENE
 62
     7
100
AcDb2dPolyline
 66
     1
 10
0.0
 20
0.0
 30
0.0
  0
VERTEX
  5
420
330
41F
100
AcDbEntity
  8
STANDARDEBENE
 62
     7
100
AcDbVertex
100
AcDb2dVertex
 10
128.2848166345957
 20
222.8920947739213
 30
0.0
  0
VERTEX
  5
421
330
41F
100
AcDbEntity
  8
STANDARDEBENE
 62
     7
100
AcDbVertex
100
AcDb2dVertex
 10
128.2848166345957
 20
223.8918669958932
 30
0.0
  0
SEQEND
  5
422
330
41F
100
AcDbEntity
  8
STANDARDEBENE
 62
     7
  0
POLYLINE
  5
423
330
1F
100
AcDbEntity
  8
STANDARDEBENE
 62
     7
100
AcDb2dPolyline
 66
     1
 10
0.0
 20
0.0
 30
0.0
  0
VERTEX
  5
424
330
423
100
AcDbEntity
  8
STANDARDEBENE
 62
     7
100
AcDbVertex
100
AcDb2dVertex
 10
128.2848166345957
 20
224.8919919956435
 30
0.0
  0
VERTEX
  5
425
330
423
100
AcDbEntity
  8
STANDARDEBENE
 62
     7
100
AcDbVertex
100
AcDb2dVertex
 10
128.2848166345957
 20
225.8917642176158
 30
0.0
  0
SEQEND
  5
426
330
423
100
AcDbEntity
  8
STANDARDEBENE
 62
     7
  0
POLYLINE
  5
427
330
1F
100
AcDbEntity
  8
STANDARDEBENE
 62
     7
100
AcDb2dPolyline
 66
     1
 10
0.0
 20
0.0
 30
0.0
  0
VERTEX
  5
428
330
427
100
AcDbEntity
  8
STANDARDEBENE
 62
     7
100
AcDbVertex
100
AcDb2dVertex
 10
128.2848166345957
 20
226.8918892173657
 30
0.0
  0
VERTEX
  5
429
330
427
100
AcDbEntity
  8
STANDARDEBENE
 62
     7
100
AcDbVertex
100
AcDb2dVertex
 10
128.2848166345957
 20
227.3921281061294
 30
0.0
  0
SEQEND
  5
42A
330
427
100
AcDbEntity
  8
STANDARDEBENE
 62
     7
  0
POLYLINE
  5
42B
330
1F
100
AcDbEntity
  8
STANDARDEBENE
 62
     7
100
AcDb2dPolyline
 66
     1
 10
0.0
 20
0.0
 30
0.0
  0
VERTEX
  5
42C
330
42B
100
AcDbEntity
  8
STANDARDEBENE
 62
     7
100
AcDbVertex
100
AcDb2dVertex
 10
119.719019414515
 20
219.3921864414629
 30
0.0
  0
VERTEX
  5
42D
330
42B
100
AcDbEntity
  8
STANDARDEBENE
 62
     7
100
AcDbVertex
100
AcDb2dVertex
 10
119.8319083033755
 20
219.3921864414629
 30
0.0
  0
VERTEX
  5
42E
330
42B
100
AcDbEntity
  8
STANDARDEBENE
 62
     7
100
AcDbVertex
100
AcDb2dVertex
 10
120.1642249699591
 20
219.3921864414629
 30
0.0
  0
VERTEX
  5
42F
330
42B
100
AcDbEntity
  8
STANDARDEBENE
 62
     7
100
AcDbVertex
100
AcDb2dVertex
 10
120.3526083032452
 20
219.3921864414629
 30
0.0
  0
SEQEND
  5
430
330
42B
100
AcDbEntity
  8
STANDARDEBENE
 62
     7
  0
POLYLINE
  5
431
330
1F
100
AcDbEntity
  8
STANDARDEBENE
 62
     7
100
AcDb2dPolyline
 66
     1
 10
0.0
 20
0.0
 30
0.0
  0
VERTEX
  5
432
330
431
100
AcDbEntity
  8
STANDARDEBENE
 62
     7
100
AcDbVertex
100
AcDb2dVertex
 10
121.6187277473731
 20
219.3921864414629
 30
0.0
  0
VERTEX
  5
433
330
431
100
AcDbEntity
  8
STANDARDEBENE
 62
     7
100
AcDbVertex
100
AcDb2dVertex
 10
122.2523166361037
 20
219.3921864414629
 30
0.0
  0
SEQEND
  5
434
330
431
100
AcDbEntity
  8
STANDARDEBENE
 62
     7
  0
POLYLINE
  5
435
330
1F
100
AcDbEntity
  8
STANDARDEBENE
 62
     7
100
AcDb2dPolyline
 66
     1
 10
0.0
 20
0.0
 30
0.0
  0
VERTEX
  5
436
330
435
100
AcDbEntity
  8
STANDARDEBENE
 62
     7
100
AcDbVertex
100
AcDb2dVertex
 10
125.7518721907844
 20
219.3921864414629
 30
0.0
  0
VERTEX
  5
437
330
435
100
AcDbEntity
  8
STANDARDEBENE
 62
     7
100
AcDbVertex
100
AcDb2dVertex
 10
126.385461079515
 20
219.3921864414629
 30
0.0
  0
SEQEND
  5
438
330
435
100
AcDbEntity
  8
STANDARDEBENE
 62
     7
  0
POLYLINE
  5
439
330
1F
100
AcDbEntity
  8
STANDARDEBENE
 62
     7
100
AcDb2dPolyline
 66
     1
 10
0.0
 20
0.0
 30
0.0
  0
VERTEX
  5
43A
330
439
100
AcDbEntity
  8
STANDARDEBENE
 62
     7
100
AcDbVertex
100
AcDb2dVertex
 10
127.6515805236429
 20
219.3921864414629
 30
0.0
  0
VERTEX
  5
43B
330
439
100
AcDbEntity
  8
STANDARDEBENE
 62
     7
100
AcDbVertex
100
AcDb2dVertex
 10
127.8396110791513
 20
219.3921864414629
 30
0.0
  0
VERTEX
  5
43C
330
439
100
AcDbEntity
  8
STANDARDEBENE
 62
     7
100
AcDbVertex
100
AcDb2dVertex
 10
128.1722805235126
 20
219.3921864414629
 30
0.0
  0
VERTEX
  5
43D
330
439
100
AcDbEntity
  8
STANDARDEBENE
 62
     7
100
AcDbVertex
100
AcDb2dVertex
 10
128.2848166345957
 20
219.3921864414629
 30
0.0
  0
SEQEND
  5
43E
330
439
100
AcDbEntity
  8
STANDARDEBENE
 62
     7
  0
POLYLINE
  5
43F
330
1F
100
AcDbEntity
  8
STANDARDEBENE
 62
     7
100
AcDb2dPolyline
 66
     1
 10
0.0
 20
0.0
 30
0.0
  0
VERTEX
  5
440
330
43F
100
AcDbEntity
  8
STANDARDEBENE
 62
     7
100
AcDbVertex
100
AcDb2dVertex
 10
125.7518721907844
 20
220.0130753301966
 30
0.0
  0
VERTEX
  5
441
330
43F
100
AcDbEntity
  8
STANDARDEBENE
 62
     7
100
AcDbVertex
100
AcDb2dVertex
 10
125.5447916352805
 20
219.9792086635383
 30
0.0
  0
VERTEX
  5
442
330
43F
100
AcDbEntity
  8
STANDARDEBENE
 62
     7
100
AcDbVertex
100
AcDb2dVertex
 10
125.3338305242221
 20
219.9495753302124
 30
0.0
  0
VERTEX
  5
443
330
43F
100
AcDbEntity
  8
STANDARDEBENE
 62
     7
100
AcDbVertex
100
AcDb2dVertex
 10
125.3176027464486
 20
219.9471058857687
 30
0.0
  0
SEQEND
  5
444
330
43F
100
AcDbEntity
  8
STANDARDEBENE
 62
     7
  0
POLYLINE
  5
445
330
1F
100
AcDbEntity
  8
STANDARDEBENE
 62
     7
100
AcDb2dPolyline
 66
     1
 10
0.0
 20
0.0
 30
0.0
  0
VERTEX
  5
446
330
445
100
AcDbEntity
  8
STANDARDEBENE
 62
     7
100
AcDbVertex
100
AcDb2dVertex
 10
124.4416555244453
 20
219.8705531080099
 30
0.0
  0
VERTEX
  5
447
330
445
100
AcDbEntity
  8
STANDARDEBENE
 62
     7
100
AcDbVertex
100
AcDb2dVertex
 10
124.2289305244985
 20
219.8634975524559
 30
0.0
  0
VERTEX
  5
448
330
445
100
AcDbEntity
  8
STANDARDEBENE
 62
     7
100
AcDbVertex
100
AcDb2dVertex
 10
124.003152746777
 20
219.8606753302345
 30
0.0
  0
VERTEX
  5
449
330
445
100
AcDbEntity
  8
STANDARDEBENE
 62
     7
100
AcDbVertex
100
AcDb2dVertex
 10
123.7784333023889
 20
219.8634975524559
 30
0.0
  0
VERTEX
  5
44A
330
445
100
AcDbEntity
  8
STANDARDEBENE
 62
     7
100
AcDbVertex
100
AcDb2dVertex
 10
123.5621805246651
 20
219.8705531080099
 30
0.0
  0
SEQEND
  5
44B
330
445
100
AcDbEntity
  8
STANDARDEBENE
 62
     7
  0
POLYLINE
  5
44C
330
1F
100
AcDbEntity
  8
STANDARDEBENE
 62
     7
100
AcDb2dPolyline
 66
     1
 10
0.0
 20
0.0
 30
0.0
  0
VERTEX
  5
44D
330
44C
100
AcDbEntity
  8
STANDARDEBENE
 62
     7
100
AcDbVertex
100
AcDb2dVertex
 10
122.6869388582173
 20
219.9471058857687
 30
0.0
  0
VERTEX
  5
44E
330
44C
100
AcDbEntity
  8
STANDARDEBENE
 62
     7
100
AcDbVertex
100
AcDb2dVertex
 10
122.6717694137767
 20
219.9488697746569
 30
0.0
  0
VERTEX
  5
44F
330
44C
100
AcDbEntity
  8
STANDARDEBENE
 62
     7
100
AcDbVertex
100
AcDb2dVertex
 10
122.4597499693851
 20
219.9792086635383
 30
0.0
  0
VERTEX
  5
450
330
44C
100
AcDbEntity
  8
STANDARDEBENE
 62
     7
100
AcDbVertex
100
AcDb2dVertex
 10
122.2523166361037
 20
220.0130753301966
 30
0.0
  0
SEQEND
  5
451
330
44C
100
AcDbEntity
  8
STANDARDEBENE
 62
     7
  0
POLYLINE
  5
452
330
1F
100
AcDbEntity
  8
STANDARDEBENE
 62
     7
100
AcDb2dPolyline
 66
     1
 10
0.0
 20
0.0
 30
0.0
  0
VERTEX
  5
453
330
452
100
AcDbEntity
  8
STANDARDEBENE
 62
     7
100
AcDbVertex
100
AcDb2dVertex
 10
135.1523416328787
 20
219.5417642192032
 30
0.0
  0
VERTEX
  5
454
330
452
100
AcDbEntity
  8
STANDARDEBENE
 62
     7
100
AcDbVertex
100
AcDb2dVertex
 10
134.852127744065
 20
219.5417642192032
 30
0.0
  0
SEQEND
  5
455
330
452
100
AcDbEntity
  8
STANDARDEBENE
 62
     7
  0
POLYLINE
  5
456
330
1F
100
AcDbEntity
  8
STANDARDEBENE
 62
     7
100
AcDb2dPolyline
 66
     1
 10
0.0
 20
0.0
 30
0.0
  0
VERTEX
  5
457
330
456
100
AcDbEntity
  8
STANDARDEBENE
 62
     7
100
AcDbVertex
100
AcDb2dVertex
 10
134.2516999664373
 20
219.5417642192032
 30
0.0
  0
VERTEX
  5
458
330
456
100
AcDbEntity
  8
STANDARDEBENE
 62
     7
100
AcDbVertex
100
AcDb2dVertex
 10
133.9521916331788
 20
219.5417642192032
 30
0.0
  0
SEQEND
  5
459
330
456
100
AcDbEntity
  8
STANDARDEBENE
 62
     7
  0
POLYLINE
  5
45A
330
1F
100
AcDbEntity
  8
STANDARDEBENE
 62
     7
100
AcDb2dPolyline
 66
     1
 10
0.0
 20
0.0
 30
0.0
  0
VERTEX
  5
45B
330
45A
100
AcDbEntity
  8
STANDARDEBENE
 62
     7
100
AcDbVertex
100
AcDb2dVertex
 10
135.1523416328787
 20
219.3819558859097
 30
0.0
  0
VERTEX
  5
45C
330
45A
100
AcDbEntity
  8
STANDARDEBENE
 62
     7
100
AcDbVertex
100
AcDb2dVertex
 10
134.852127744065
 20
219.3819558859097
 30
0.0
  0
SEQEND
  5
45D
330
45A
100
AcDbEntity
  8
STANDARDEBENE
 62
     7
  0
POLYLINE
  5
45E
330
1F
100
AcDbEntity
  8
STANDARDEBENE
 62
     7
100
AcDb2dPolyline
 66
     1
 10
0.0
 20
0.0
 30
0.0
  0
VERTEX
  5
45F
330
45E
100
AcDbEntity
  8
STANDARDEBENE
 62
     7
100
AcDbVertex
100
AcDb2dVertex
 10
134.2516999664373
 20
219.3819558859097
 30
0.0
  0
VERTEX
  5
460
330
45E
100
AcDbEntity
  8
STANDARDEBENE
 62
     7
100
AcDbVertex
100
AcDb2dVertex
 10
133.9521916331788
 20
219.3819558859097
 30
0.0
  0
SEQEND
  5
461
330
45E
100
AcDbEntity
  8
STANDARDEBENE
 62
     7
  0
POLYLINE
  5
462
330
1F
100
AcDbEntity
  8
STANDARDEBENE
 62
     7
100
AcDb2dPolyline
 66
     1
 10
0.0
 20
0.0
 30
0.0
  0
VERTEX
  5
463
330
462
100
AcDbEntity
  8
STANDARDEBENE
 62
     7
100
AcDbVertex
100
AcDb2dVertex
 10
132.3742166335732
 20
220.1481892190517
 30
0.0
  0
VERTEX
  5
464
330
462
100
AcDbEntity
  8
STANDARDEBENE
 62
     7
100
AcDbVertex
100
AcDb2dVertex
 10
131.3896138560416
 20
220.1481892190517
 30
0.0
  0
SEQEND
  5
465
330
462
100
AcDbEntity
  8
STANDARDEBENE
 62
     7
  0
POLYLINE
  5
466
330
1F
100
AcDbEntity
  8
STANDARDEBENE
 62
     7
100
AcDb2dPolyline
 66
     1
 10
0.0
 20
0.0
 30
0.0
  0
VERTEX
  5
467
330
466
100
AcDbEntity
  8
STANDARDEBENE
 62
     7
100
AcDbVertex
100
AcDb2dVertex
 10
130.4043055229547
 20
220.1481892190517
 30
0.0
  0
VERTEX
  5
468
330
466
100
AcDbEntity
  8
STANDARDEBENE
 62
     7
100
AcDbVertex
100
AcDb2dVertex
 10
129.419702745423
 20
220.1481892190517
 30
0.0
  0
SEQEND
  5
469
330
466
100
AcDbEntity
  8
STANDARDEBENE
 62
     7
  0
POLYLINE
  5
46A
330
1F
100
AcDbEntity
  8
STANDARDEBENE
 62
     7
100
AcDb2dPolyline
 66
     1
 10
0.0
 20
0.0
 30
0.0
  0
VERTEX
  5
46B
330
46A
100
AcDbEntity
  8
STANDARDEBENE
 62
     7
100
AcDbVertex
100
AcDb2dVertex
 10
128.4343944123361
 20
220.1481892190517
 30
0.0
  0
VERTEX
  5
46C
330
46A
100
AcDbEntity
  8
STANDARDEBENE
 62
     7
100
AcDbVertex
100
AcDb2dVertex
 10
127.4497916348044
 20
220.1481892190517
 30
0.0
  0
SEQEND
  5
46D
330
46A
100
AcDbEntity
  8
STANDARDEBENE
 62
     7
  0
POLYLINE
  5
46E
330
1F
100
AcDbEntity
  8
STANDARDEBENE
 62
     7
100
AcDb2dPolyline
 66
     1
 10
0.0
 20
0.0
 30
0.0
  0
VERTEX
  5
46F
330
46E
100
AcDbEntity
  8
STANDARDEBENE
 62
     7
100
AcDbVertex
100
AcDb2dVertex
 10
126.4644833017172
 20
220.1481892190517
 30
0.0
  0
VERTEX
  5
470
330
46E
100
AcDbEntity
  8
STANDARDEBENE
 62
     7
100
AcDbVertex
100
AcDb2dVertex
 10
125.4798805241858
 20
220.1481892190517
 30
0.0
  0
SEQEND
  5
471
330
46E
100
AcDbEntity
  8
STANDARDEBENE
 62
     7
  0
POLYLINE
  5
472
330
1F
100
AcDbEntity
  8
STANDARDEBENE
 62
     7
100
AcDb2dPolyline
 66
     1
 10
0.0
 20
0.0
 30
0.0
  0
VERTEX
  5
473
330
472
100
AcDbEntity
  8
STANDARDEBENE
 62
     7
100
AcDbVertex
100
AcDb2dVertex
 10
124.4942194133209
 20
220.1481892190517
 30
0.0
  0
VERTEX
  5
474
330
472
100
AcDbEntity
  8
STANDARDEBENE
 62
     7
100
AcDbVertex
100
AcDb2dVertex
 10
123.5096166357895
 20
220.1481892190517
 30
0.0
  0
SEQEND
  5
475
330
472
100
AcDbEntity
  8
STANDARDEBENE
 62
     7
  0
POLYLINE
  5
476
330
1F
100
AcDbEntity
  8
STANDARDEBENE
 62
     7
100
AcDb2dPolyline
 66
     1
 10
0.0
 20
0.0
 30
0.0
  0
VERTEX
  5
477
330
476
100
AcDbEntity
  8
STANDARDEBENE
 62
     7
100
AcDbVertex
100
AcDb2dVertex
 10
122.5243083027023
 20
220.1481892190517
 30
0.0
  0
VERTEX
  5
478
330
476
100
AcDbEntity
  8
STANDARDEBENE
 62
     7
100
AcDbVertex
100
AcDb2dVertex
 10
121.5397055251706
 20
220.1481892190517
 30
0.0
  0
SEQEND
  5
479
330
476
100
AcDbEntity
  8
STANDARDEBENE
 62
     7
  0
POLYLINE
  5
47A
330
1F
100
AcDbEntity
  8
STANDARDEBENE
 62
     7
100
AcDb2dPolyline
 66
     1
 10
0.0
 20
0.0
 30
0.0
  0
VERTEX
  5
47B
330
47A
100
AcDbEntity
  8
STANDARDEBENE
 62
     7
100
AcDbVertex
100
AcDb2dVertex
 10
120.5543971920837
 20
220.1481892190517
 30
0.0
  0
VERTEX
  5
47C
330
47A
100
AcDbEntity
  8
STANDARDEBENE
 62
     7
100
AcDbVertex
100
AcDb2dVertex
 10
119.569794414552
 20
220.1481892190517
 30
0.0
  0
SEQEND
  5
47D
330
47A
100
AcDbEntity
  8
STANDARDEBENE
 62
     7
  0
POLYLINE
  5
47E
330
1F
100
AcDbEntity
  8
STANDARDEBENE
 62
     7
100
AcDb2dPolyline
 66
     1
 10
0.0
 20
0.0
 30
0.0
  0
VERTEX
  5
47F
330
47E
100
AcDbEntity
  8
STANDARDEBENE
 62
     7
100
AcDbVertex
100
AcDb2dVertex
 10
118.5844860814651
 20
220.1481892190517
 30
0.0
  0
VERTEX
  5
480
330
47E
100
AcDbEntity
  8
STANDARDEBENE
 62
     7
100
AcDbVertex
100
AcDb2dVertex
 10
117.5998833039335
 20
220.1481892190517
 30
0.0
  0
SEQEND
  5
481
330
47E
100
AcDbEntity
  8
STANDARDEBENE
 62
     7
  0
POLYLINE
  5
482
330
1F
100
AcDbEntity
  8
STANDARDEBENE
 62
     7
100
AcDb2dPolyline
 66
     1
 10
0.0
 20
0.0
 30
0.0
  0
VERTEX
  5
483
330
482
100
AcDbEntity
  8
STANDARDEBENE
 62
     7
100
AcDbVertex
100
AcDb2dVertex
 10
116.6145749708466
 20
220.1481892190517
 30
0.0
  0
VERTEX
  5
484
330
482
100
AcDbEntity
  8
STANDARDEBENE
 62
     7
100
AcDbVertex
100
AcDb2dVertex
 10
115.6292666377594
 20
220.1481892190517
 30
0.0
  0
SEQEND
  5
485
330
482
100
AcDbEntity
  8
STANDARDEBENE
 62
     7
  0
POLYLINE
  5
486
330
1F
100
AcDbEntity
  8
STANDARDEBENE
 62
     7
100
AcDb2dPolyline
 66
     1
 10
0.0
 20
0.0
 30
0.0
  0
VERTEX
  5
487
330
486
100
AcDbEntity
  8
STANDARDEBENE
 62
     7
100
AcDbVertex
100
AcDb2dVertex
 10
114.644663860228
 20
220.1481892190517
 30
0.0
  0
VERTEX
  5
488
330
486
100
AcDbEntity
  8
STANDARDEBENE
 62
     7
100
AcDbVertex
100
AcDb2dVertex
 10
114.1518333047957
 20
220.1481892190517
 30
0.0
  0
SEQEND
  5
489
330
486
100
AcDbEntity
  8
STANDARDEBENE
 62
     7
  0
POLYLINE
  5
48B
330
1F
100
AcDbEntity
  8
BEMA_U_00DFUNG
 62
     7
100
AcDb2dPolyline
 66
     1
 10
0.0
 20
0.0
 30
0.0
  0
VERTEX
  5
48C
330
48B
100
AcDbEntity
  8
BEMA_U_00DFUNG
 62
     7
100
AcDbVertex
100
AcDb2dVertex
 10
115.6638388599729
 20
215.0801836647631
 30
0.0
  0
VERTEX
  5
48D
330
48B
100
AcDbEntity
  8
BEMA_U_00DFUNG
 62
     7
100
AcDbVertex
100
AcDb2dVertex
 10
102.0038875160646
 20
215.0801836647631
 30
0.0
  0
SEQEND
  5
48E
330
48B
100
AcDbEntity
  8
BEMA_U_00DFUNG
 62
     7
  0
POLYLINE
  5
48F
330
1F
100
AcDbEntity
  8
BEMA_U_00DFUNG
 62
     7
100
AcDb2dPolyline
 66
     1
 10
0.0
 20
0.0
 30
0.0
  0
VERTEX
  5
490
330
48F
100
AcDbEntity
  8
BEMA_U_00DFUNG
 62
     7
100
AcDbVertex
100
AcDb2dVertex
 10
115.6638388599729
 20
194.7040920031905
 30
0.0
  0
VERTEX
  5
491
330
48F
100
AcDbEntity
  8
BEMA_U_00DFUNG
 62
     7
100
AcDbVertex
100
AcDb2dVertex
 10
102.0038875160646
 20
194.7040920031905
 30
0.0
  0
SEQEND
  5
492
330
48F
100
AcDbEntity
  8
BEMA_U_00DFUNG
 62
     7
  0
POLYLINE
  5
493
330
1F
100
AcDbEntity
  8
BEMA_U_00DFUNG
 62
     7
100
AcDb2dPolyline
 66
     1
 10
0.0
 20
0.0
 30
0.0
  0
VERTEX
  5
494
330
493
100
AcDbEntity
  8
BEMA_U_00DFUNG
 62
     7
100
AcDbVertex
100
AcDb2dVertex
 10
104.0041375155646
 20
215.0801836647631
 30
0.0
  0
VERTEX
  5
495
330
493
100
AcDbEntity
  8
BEMA_U_00DFUNG
 62
     7
100
AcDbVertex
100
AcDb2dVertex
 10
104.0041375155646
 20
194.7040920031905
 30
0.0
  0
SEQEND
  5
496
330
493
100
AcDbEntity
  8
BEMA_U_00DFUNG
 62
     7
  0
POLYLINE
  5
497
330
1F
100
AcDbEntity
  8
BEMA_U_00DFUNG
 62
     7
100
AcDb2dPolyline
 66
     1
 10
0.0
 20
0.0
 30
0.0
  0
VERTEX
  5
498
330
497
100
AcDbEntity
  8
BEMA_U_00DFUNG
 62
     7
100
AcDbVertex
100
AcDb2dVertex
 10
104.0041375155646
 20
215.0801836647631
 30
0.0
  0
VERTEX
  5
499
330
497
100
AcDbEntity
  8
BEMA_U_00DFUNG
 62
     7
100
AcDbVertex
100
AcDb2dVertex
 10
103.5437625156796
 20
211.5799225545269
 30
0.0
  0
VERTEX
  5
49A
330
497
100
AcDbEntity
  8
BEMA_U_00DFUNG
 62
     7
100
AcDbVertex
100
AcDb2dVertex
 10
104.4652180710048
 20
211.5799225545269
 30
0.0
  0
VERTEX
  5
49B
330
497
100
AcDbEntity
  8
BEMA_U_00DFUNG
 62
     7
100
AcDbVertex
100
AcDb2dVertex
 10
104.0041375155646
 20
215.0801836647631
 30
0.0
  0
SEQEND
  5
49C
330
497
100
AcDbEntity
  8
BEMA_U_00DFUNG
 62
     7
  0
POLYLINE
  5
49D
330
1F
100
AcDbEntity
  8
BEMA_U_00DFUNG
 62
     7
100
AcDb2dPolyline
 66
     1
 10
0.0
 20
0.0
 30
0.0
  0
VERTEX
  5
49E
330
49D
100
AcDbEntity
  8
BEMA_U_00DFUNG
 62
     7
100
AcDbVertex
100
AcDb2dVertex
 10
103.5469375156788
 20
211.5799225545269
 30
0.0
  0
VERTEX
  5
49F
330
49D
100
AcDbEntity
  8
BEMA_U_00DFUNG
 62
     7
100
AcDbVertex
100
AcDb2dVertex
 10
103.5469375156788
 20
211.6070864434091
 30
0.0
  0
SEQEND
  5
4A0
330
49D
100
AcDbEntity
  8
BEMA_U_00DFUNG
 62
     7
  0
POLYLINE
  5
4A1
330
1F
100
AcDbEntity
  8
BEMA_U_00DFUNG
 62
     7
100
AcDb2dPolyline
 66
     1
 10
0.0
 20
0.0
 30
0.0
  0
VERTEX
  5
4A2
330
4A1
100
AcDbEntity
  8
BEMA_U_00DFUNG
 62
     7
100
AcDbVertex
100
AcDb2dVertex
 10
103.5469375156788
 20
211.5799225545269
 30
0.0
  0
VERTEX
  5
4A3
330
4A1
100
AcDbEntity
  8
BEMA_U_00DFUNG
 62
     7
100
AcDbVertex
100
AcDb2dVertex
 10
103.5469375156788
 20
211.6070864434091
 30
0.0
  0
SEQEND
  5
4A4
330
4A1
100
AcDbEntity
  8
BEMA_U_00DFUNG
 62
     7
  0
POLYLINE
  5
4A5
330
1F
100
AcDbEntity
  8
BEMA_U_00DFUNG
 62
     7
100
AcDb2dPolyline
 66
     1
 10
0.0
 20
0.0
 30
0.0
  0
VERTEX
  5
4A6
330
4A5
100
AcDbEntity
  8
BEMA_U_00DFUNG
 62
     7
100
AcDbVertex
100
AcDb2dVertex
 10
103.5980902934439
 20
211.5799225545269
 30
0.0
  0
VERTEX
  5
4A7
330
4A5
100
AcDbEntity
  8
BEMA_U_00DFUNG
 62
     7
100
AcDbVertex
100
AcDb2dVertex
 10
103.5980902934439
 20
211.9926725544237
 30
0.0
  0
SEQEND
  5
4A8
330
4A5
100
AcDbEntity
  8
BEMA_U_00DFUNG
 62
     7
  0
POLYLINE
  5
4A9
330
1F
100
AcDbEntity
  8
BEMA_U_00DFUNG
 62
     7
100
AcDb2dPolyline
 66
     1
 10
0.0
 20
0.0
 30
0.0
  0
VERTEX
  5
4AA
330
4A9
100
AcDbEntity
  8
BEMA_U_00DFUNG
 62
     7
100
AcDbVertex
100
AcDb2dVertex
 10
103.6488902934313
 20
211.5799225545269
 30
0.0
  0
VERTEX
  5
4AB
330
4A9
100
AcDbEntity
  8
BEMA_U_00DFUNG
 62
     7
100
AcDbVertex
100
AcDb2dVertex
 10
103.6488902934313
 20
212.3789642209939
 30
0.0
  0
SEQEND
  5
4AC
330
4A9
100
AcDbEntity
  8
BEMA_U_00DFUNG
 62
     7
  0
POLYLINE
  5
4AD
330
1F
100
AcDbEntity
  8
BEMA_U_00DFUNG
 62
     7
100
AcDb2dPolyline
 66
     1
 10
0.0
 20
0.0
 30
0.0
  0
VERTEX
  5
4AE
330
4AD
100
AcDbEntity
  8
BEMA_U_00DFUNG
 62
     7
100
AcDbVertex
100
AcDb2dVertex
 10
103.6996902934184
 20
211.5799225545269
 30
0.0
  0
VERTEX
  5
4AF
330
4AD
100
AcDbEntity
  8
BEMA_U_00DFUNG
 62
     7
100
AcDbVertex
100
AcDb2dVertex
 10
103.6996902934184
 20
212.7645503320086
 30
0.0
  0
SEQEND
  5
4B0
330
4AD
100
AcDbEntity
  8
BEMA_U_00DFUNG
 62
     7
  0
POLYLINE
  5
4B1
330
1F
100
AcDbEntity
  8
BEMA_U_00DFUNG
 62
     7
100
AcDb2dPolyline
 66
     1
 10
0.0
 20
0.0
 30
0.0
  0
VERTEX
  5
4B2
330
4B1
100
AcDbEntity
  8
BEMA_U_00DFUNG
 62
     7
100
AcDbVertex
100
AcDb2dVertex
 10
103.7504902934057
 20
211.5799225545269
 30
0.0
  0
VERTEX
  5
4B3
330
4B1
100
AcDbEntity
  8
BEMA_U_00DFUNG
 62
     7
100
AcDbVertex
100
AcDb2dVertex
 10
103.7504902934057
 20
213.150489220801
 30
0.0
  0
SEQEND
  5
4B4
330
4B1
100
AcDbEntity
  8
BEMA_U_00DFUNG
 62
     7
  0
POLYLINE
  5
4B5
330
1F
100
AcDbEntity
  8
BEMA_U_00DFUNG
 62
     7
100
AcDb2dPolyline
 66
     1
 10
0.0
 20
0.0
 30
0.0
  0
VERTEX
  5
4B6
330
4B5
100
AcDbEntity
  8
BEMA_U_00DFUNG
 62
     7
100
AcDbVertex
100
AcDb2dVertex
 10
103.8012902933931
 20
211.5799225545269
 30
0.0
  0
VERTEX
  5
4B7
330
4B5
100
AcDbEntity
  8
BEMA_U_00DFUNG
 62
     7
100
AcDbVertex
100
AcDb2dVertex
 10
103.8012902933931
 20
213.5367808873712
 30
0.0
  0
SEQEND
  5
4B8
330
4B5
100
AcDbEntity
  8
BEMA_U_00DFUNG
 62
     7
  0
POLYLINE
  5
4B9
330
1F
100
AcDbEntity
  8
BEMA_U_00DFUNG
 62
     7
100
AcDb2dPolyline
 66
     1
 10
0.0
 20
0.0
 30
0.0
  0
VERTEX
  5
4BA
330
4B9
100
AcDbEntity
  8
BEMA_U_00DFUNG
 62
     7
100
AcDbVertex
100
AcDb2dVertex
 10
103.8517375156027
 20
211.5799225545269
 30
0.0
  0
VERTEX
  5
4BB
330
4B9
100
AcDbEntity
  8
BEMA_U_00DFUNG
 62
     7
100
AcDbVertex
100
AcDb2dVertex
 10
103.8517375156027
 20
213.9223669983859
 30
0.0
  0
SEQEND
  5
4BC
330
4B9
100
AcDbEntity
  8
BEMA_U_00DFUNG
 62
     7
  0
POLYLINE
  5
4BD
330
1F
100
AcDbEntity
  8
BEMA_U_00DFUNG
 62
     7
100
AcDb2dPolyline
 66
     1
 10
0.0
 20
0.0
 30
0.0
  0
VERTEX
  5
4BE
330
4BD
100
AcDbEntity
  8
BEMA_U_00DFUNG
 62
     7
100
AcDbVertex
100
AcDb2dVertex
 10
103.9025375155901
 20
211.5799225545269
 30
0.0
  0
VERTEX
  5
4BF
330
4BD
100
AcDbEntity
  8
BEMA_U_00DFUNG
 62
     7
100
AcDbVertex
100
AcDb2dVertex
 10
103.9025375155901
 20
214.3079531094005
 30
0.0
  0
SEQEND
  5
4C0
330
4BD
100
AcDbEntity
  8
BEMA_U_00DFUNG
 62
     7
  0
POLYLINE
  5
4C1
330
1F
100
AcDbEntity
  8
BEMA_U_00DFUNG
 62
     7
100
AcDb2dPolyline
 66
     1
 10
0.0
 20
0.0
 30
0.0
  0
VERTEX
  5
4C2
330
4C1
100
AcDbEntity
  8
BEMA_U_00DFUNG
 62
     7
100
AcDbVertex
100
AcDb2dVertex
 10
103.9533375155772
 20
211.5799225545269
 30
0.0
  0
VERTEX
  5
4C3
330
4C1
100
AcDbEntity
  8
BEMA_U_00DFUNG
 62
     7
100
AcDbVertex
100
AcDb2dVertex
 10
103.9533375155772
 20
214.6938919981929
 30
0.0
  0
SEQEND
  5
4C4
330
4C1
100
AcDbEntity
  8
BEMA_U_00DFUNG
 62
     7
  0
POLYLINE
  5
4C5
330
1F
100
AcDbEntity
  8
BEMA_U_00DFUNG
 62
     7
100
AcDb2dPolyline
 66
     1
 10
0.0
 20
0.0
 30
0.0
  0
VERTEX
  5
4C6
330
4C5
100
AcDbEntity
  8
BEMA_U_00DFUNG
 62
     7
100
AcDbVertex
100
AcDb2dVertex
 10
104.0041375155646
 20
211.5799225545269
 30
0.0
  0
VERTEX
  5
4C7
330
4C5
100
AcDbEntity
  8
BEMA_U_00DFUNG
 62
     7
100
AcDbVertex
100
AcDb2dVertex
 10
104.0041375155646
 20
215.0801836647631
 30
0.0
  0
SEQEND
  5
4C8
330
4C5
100
AcDbEntity
  8
BEMA_U_00DFUNG
 62
     7
  0
POLYLINE
  5
4C9
330
1F
100
AcDbEntity
  8
BEMA_U_00DFUNG
 62
     7
100
AcDb2dPolyline
 66
     1
 10
0.0
 20
0.0
 30
0.0
  0
VERTEX
  5
4CA
330
4C9
100
AcDbEntity
  8
BEMA_U_00DFUNG
 62
     7
100
AcDbVertex
100
AcDb2dVertex
 10
104.4613375154504
 20
211.5799225545269
 30
0.0
  0
VERTEX
  5
4CB
330
4C9
100
AcDbEntity
  8
BEMA_U_00DFUNG
 62
     7
100
AcDbVertex
100
AcDb2dVertex
 10
104.4613375154504
 20
211.6070864434091
 30
0.0
  0
SEQEND
  5
4CC
330
4C9
100
AcDbEntity
  8
BEMA_U_00DFUNG
 62
     7
  0
POLYLINE
  5
4CD
330
1F
100
AcDbEntity
  8
BEMA_U_00DFUNG
 62
     7
100
AcDb2dPolyline
 66
     1
 10
0.0
 20
0.0
 30
0.0
  0
VERTEX
  5
4CE
330
4CD
100
AcDbEntity
  8
BEMA_U_00DFUNG
 62
     7
100
AcDbVertex
100
AcDb2dVertex
 10
104.4613375154504
 20
211.5799225545269
 30
0.0
  0
VERTEX
  5
4CF
330
4CD
100
AcDbEntity
  8
BEMA_U_00DFUNG
 62
     7
100
AcDbVertex
100
AcDb2dVertex
 10
104.4613375154504
 20
211.6070864434091
 30
0.0
  0
SEQEND
  5
4D0
330
4CD
100
AcDbEntity
  8
BEMA_U_00DFUNG
 62
     7
  0
POLYLINE
  5
4D1
330
1F
100
AcDbEntity
  8
BEMA_U_00DFUNG
 62
     7
100
AcDb2dPolyline
 66
     1
 10
0.0
 20
0.0
 30
0.0
  0
VERTEX
  5
4D2
330
4D1
100
AcDbEntity
  8
BEMA_U_00DFUNG
 62
     7
100
AcDbVertex
100
AcDb2dVertex
 10
104.410537515463
 20
211.5799225545269
 30
0.0
  0
VERTEX
  5
4D3
330
4D1
100
AcDbEntity
  8
BEMA_U_00DFUNG
 62
     7
100
AcDbVertex
100
AcDb2dVertex
 10
104.410537515463
 20
211.9926725544237
 30
0.0
  0
SEQEND
  5
4D4
330
4D1
100
AcDbEntity
  8
BEMA_U_00DFUNG
 62
     7
  0
POLYLINE
  5
4D5
330
1F
100
AcDbEntity
  8
BEMA_U_00DFUNG
 62
     7
100
AcDb2dPolyline
 66
     1
 10
0.0
 20
0.0
 30
0.0
  0
VERTEX
  5
4D6
330
4D5
100
AcDbEntity
  8
BEMA_U_00DFUNG
 62
     7
100
AcDbVertex
100
AcDb2dVertex
 10
104.3600902932534
 20
211.5799225545269
 30
0.0
  0
VERTEX
  5
4D7
330
4D5
100
AcDbEntity
  8
BEMA_U_00DFUNG
 62
     7
100
AcDbVertex
100
AcDb2dVertex
 10
104.3600902932534
 20
212.3789642209939
 30
0.0
  0
SEQEND
  5
4D8
330
4D5
100
AcDbEntity
  8
BEMA_U_00DFUNG
 62
     7
  0
POLYLINE
  5
4D9
330
1F
100
AcDbEntity
  8
BEMA_U_00DFUNG
 62
     7
100
AcDb2dPolyline
 66
     1
 10
0.0
 20
0.0
 30
0.0
  0
VERTEX
  5
4DA
330
4D9
100
AcDbEntity
  8
BEMA_U_00DFUNG
 62
     7
100
AcDbVertex
100
AcDb2dVertex
 10
104.309290293266
 20
211.5799225545269
 30
0.0
  0
VERTEX
  5
4DB
330
4D9
100
AcDbEntity
  8
BEMA_U_00DFUNG
 62
     7
100
AcDbVertex
100
AcDb2dVertex
 10
104.309290293266
 20
212.7645503320086
 30
0.0
  0
SEQEND
  5
4DC
330
4D9
100
AcDbEntity
  8
BEMA_U_00DFUNG
 62
     7
  0
POLYLINE
  5
4DD
330
1F
100
AcDbEntity
  8
BEMA_U_00DFUNG
 62
     7
100
AcDb2dPolyline
 66
     1
 10
0.0
 20
0.0
 30
0.0
  0
VERTEX
  5
4DE
330
4DD
100
AcDbEntity
  8
BEMA_U_00DFUNG
 62
     7
100
AcDbVertex
100
AcDb2dVertex
 10
104.2584902932789
 20
211.5799225545269
 30
0.0
  0
VERTEX
  5
4DF
330
4DD
100
AcDbEntity
  8
BEMA_U_00DFUNG
 62
     7
100
AcDbVertex
100
AcDb2dVertex
 10
104.2584902932789
 20
213.150489220801
 30
0.0
  0
SEQEND
  5
4E0
330
4DD
100
AcDbEntity
  8
BEMA_U_00DFUNG
 62
     7
  0
POLYLINE
  5
4E1
330
1F
100
AcDbEntity
  8
BEMA_U_00DFUNG
 62
     7
100
AcDb2dPolyline
 66
     1
 10
0.0
 20
0.0
 30
0.0
  0
VERTEX
  5
4E2
330
4E1
100
AcDbEntity
  8
BEMA_U_00DFUNG
 62
     7
100
AcDbVertex
100
AcDb2dVertex
 10
104.2076902932915
 20
211.5799225545269
 30
0.0
  0
VERTEX
  5
4E3
330
4E1
100
AcDbEntity
  8
BEMA_U_00DFUNG
 62
     7
100
AcDbVertex
100
AcDb2dVertex
 10
104.2076902932915
 20
213.5367808873712
 30
0.0
  0
SEQEND
  5
4E4
330
4E1
100
AcDbEntity
  8
BEMA_U_00DFUNG
 62
     7
  0
POLYLINE
  5
4E5
330
1F
100
AcDbEntity
  8
BEMA_U_00DFUNG
 62
     7
100
AcDb2dPolyline
 66
     1
 10
0.0
 20
0.0
 30
0.0
  0
VERTEX
  5
4E6
330
4E5
100
AcDbEntity
  8
BEMA_U_00DFUNG
 62
     7
100
AcDbVertex
100
AcDb2dVertex
 10
104.1568902933042
 20
211.5799225545269
 30
0.0
  0
VERTEX
  5
4E7
330
4E5
100
AcDbEntity
  8
BEMA_U_00DFUNG
 62
     7
100
AcDbVertex
100
AcDb2dVertex
 10
104.1568902933042
 20
213.9223669983859
 30
0.0
  0
SEQEND
  5
4E8
330
4E5
100
AcDbEntity
  8
BEMA_U_00DFUNG
 62
     7
  0
POLYLINE
  5
4E9
330
1F
100
AcDbEntity
  8
BEMA_U_00DFUNG
 62
     7
100
AcDb2dPolyline
 66
     1
 10
0.0
 20
0.0
 30
0.0
  0
VERTEX
  5
4EA
330
4E9
100
AcDbEntity
  8
BEMA_U_00DFUNG
 62
     7
100
AcDbVertex
100
AcDb2dVertex
 10
104.1057375155393
 20
211.5799225545269
 30
0.0
  0
VERTEX
  5
4EB
330
4E9
100
AcDbEntity
  8
BEMA_U_00DFUNG
 62
     7
100
AcDbVertex
100
AcDb2dVertex
 10
104.1057375155393
 20
214.3079531094005
 30
0.0
  0
SEQEND
  5
4EC
330
4E9
100
AcDbEntity
  8
BEMA_U_00DFUNG
 62
     7
  0
POLYLINE
  5
4ED
330
1F
100
AcDbEntity
  8
BEMA_U_00DFUNG
 62
     7
100
AcDb2dPolyline
 66
     1
 10
0.0
 20
0.0
 30
0.0
  0
VERTEX
  5
4EE
330
4ED
100
AcDbEntity
  8
BEMA_U_00DFUNG
 62
     7
100
AcDbVertex
100
AcDb2dVertex
 10
104.054937515552
 20
211.5799225545269
 30
0.0
  0
VERTEX
  5
4EF
330
4ED
100
AcDbEntity
  8
BEMA_U_00DFUNG
 62
     7
100
AcDbVertex
100
AcDb2dVertex
 10
104.054937515552
 20
214.6938919981929
 30
0.0
  0
SEQEND
  5
4F0
330
4ED
100
AcDbEntity
  8
BEMA_U_00DFUNG
 62
     7
  0
POLYLINE
  5
4F1
330
1F
100
AcDbEntity
  8
BEMA_U_00DFUNG
 62
     7
100
AcDb2dPolyline
 66
     1
 10
0.0
 20
0.0
 30
0.0
  0
VERTEX
  5
4F2
330
4F1
100
AcDbEntity
  8
BEMA_U_00DFUNG
 62
     7
100
AcDbVertex
100
AcDb2dVertex
 10
104.0041375155646
 20
211.5799225545269
 30
0.0
  0
VERTEX
  5
4F3
330
4F1
100
AcDbEntity
  8
BEMA_U_00DFUNG
 62
     7
100
AcDbVertex
100
AcDb2dVertex
 10
104.0041375155646
 20
215.0801836647631
 30
0.0
  0
SEQEND
  5
4F4
330
4F1
100
AcDbEntity
  8
BEMA_U_00DFUNG
 62
     7
  0
POLYLINE
  5
4F5
330
1F
100
AcDbEntity
  8
BEMA_U_00DFUNG
 62
     7
100
AcDb2dPolyline
 66
     1
 10
0.0
 20
0.0
 30
0.0
  0
VERTEX
  5
4F6
330
4F5
100
AcDbEntity
  8
BEMA_U_00DFUNG
 62
     7
100
AcDbVertex
100
AcDb2dVertex
 10
104.0041375155646
 20
194.7040920031905
 30
0.0
  0
VERTEX
  5
4F7
330
4F5
100
AcDbEntity
  8
BEMA_U_00DFUNG
 62
     7
100
AcDbVertex
100
AcDb2dVertex
 10
104.4652180710048
 20
198.2036475578711
 30
0.0
  0
VERTEX
  5
4F8
330
4F5
100
AcDbEntity
  8
BEMA_U_00DFUNG
 62
     7
100
AcDbVertex
100
AcDb2dVertex
 10
103.5437625156796
 20
198.2036475578711
 30
0.0
  0
VERTEX
  5
4F9
330
4F5
100
AcDbEntity
  8
BEMA_U_00DFUNG
 62
     7
100
AcDbVertex
100
AcDb2dVertex
 10
104.0041375155646
 20
194.7040920031905
 30
0.0
  0
SEQEND
  5
4FA
330
4F5
100
AcDbEntity
  8
BEMA_U_00DFUNG
 62
     7
  0
POLYLINE
  5
4FB
330
1F
100
AcDbEntity
  8
BEMA_U_00DFUNG
 62
     7
100
AcDb2dPolyline
 66
     1
 10
0.0
 20
0.0
 30
0.0
  0
VERTEX
  5
4FC
330
4FB
100
AcDbEntity
  8
BEMA_U_00DFUNG
 62
     7
100
AcDbVertex
100
AcDb2dVertex
 10
104.4613375154504
 20
198.2036475578711
 30
0.0
  0
VERTEX
  5
4FD
330
4FB
100
AcDbEntity
  8
BEMA_U_00DFUNG
 62
     7
100
AcDbVertex
100
AcDb2dVertex
 10
104.4613375154504
 20
198.176483668989
 30
0.0
  0
SEQEND
  5
4FE
330
4FB
100
AcDbEntity
  8
BEMA_U_00DFUNG
 62
     7
  0
POLYLINE
  5
4FF
330
1F
100
AcDbEntity
  8
BEMA_U_00DFUNG
 62
     7
100
AcDb2dPolyline
 66
     1
 10
0.0
 20
0.0
 30
0.0
  0
VERTEX
  5
500
330
4FF
100
AcDbEntity
  8
BEMA_U_00DFUNG
 62
     7
100
AcDbVertex
100
AcDb2dVertex
 10
104.4613375154504
 20
198.2036475578711
 30
0.0
  0
VERTEX
  5
501
330
4FF
100
AcDbEntity
  8
BEMA_U_00DFUNG
 62
     7
100
AcDbVertex
100
AcDb2dVertex
 10
104.4613375154504
 20
198.176483668989
 30
0.0
  0
SEQEND
  5
502
330
4FF
100
AcDbEntity
  8
BEMA_U_00DFUNG
 62
     7
  0
POLYLINE
  5
503
330
1F
100
AcDbEntity
  8
BEMA_U_00DFUNG
 62
     7
100
AcDb2dPolyline
 66
     1
 10
0.0
 20
0.0
 30
0.0
  0
VERTEX
  5
504
330
503
100
AcDbEntity
  8
BEMA_U_00DFUNG
 62
     7
100
AcDbVertex
100
AcDb2dVertex
 10
104.410537515463
 20
198.2036475578711
 30
0.0
  0
VERTEX
  5
505
330
503
100
AcDbEntity
  8
BEMA_U_00DFUNG
 62
     7
100
AcDbVertex
100
AcDb2dVertex
 10
104.410537515463
 20
197.7908975579743
 30
0.0
  0
SEQEND
  5
506
330
503
100
AcDbEntity
  8
BEMA_U_00DFUNG
 62
     7
  0
POLYLINE
  5
507
330
1F
100
AcDbEntity
  8
BEMA_U_00DFUNG
 62
     7
100
AcDb2dPolyline
 66
     1
 10
0.0
 20
0.0
 30
0.0
  0
VERTEX
  5
508
330
507
100
AcDbEntity
  8
BEMA_U_00DFUNG
 62
     7
100
AcDbVertex
100
AcDb2dVertex
 10
104.3600902932534
 20
198.2036475578711
 30
0.0
  0
VERTEX
  5
509
330
507
100
AcDbEntity
  8
BEMA_U_00DFUNG
 62
     7
100
AcDbVertex
100
AcDb2dVertex
 10
104.3600902932534
 20
197.4046058914041
 30
0.0
  0
SEQEND
  5
50A
330
507
100
AcDbEntity
  8
BEMA_U_00DFUNG
 62
     7
  0
POLYLINE
  5
50B
330
1F
100
AcDbEntity
  8
BEMA_U_00DFUNG
 62
     7
100
AcDb2dPolyline
 66
     1
 10
0.0
 20
0.0
 30
0.0
  0
VERTEX
  5
50C
330
50B
100
AcDbEntity
  8
BEMA_U_00DFUNG
 62
     7
100
AcDbVertex
100
AcDb2dVertex
 10
104.309290293266
 20
198.2036475578711
 30
0.0
  0
VERTEX
  5
50D
330
50B
100
AcDbEntity
  8
BEMA_U_00DFUNG
 62
     7
100
AcDbVertex
100
AcDb2dVertex
 10
104.309290293266
 20
197.0193725581672
 30
0.0
  0
SEQEND
  5
50E
330
50B
100
AcDbEntity
  8
BEMA_U_00DFUNG
 62
     7
  0
POLYLINE
  5
50F
330
1F
100
AcDbEntity
  8
BEMA_U_00DFUNG
 62
     7
100
AcDb2dPolyline
 66
     1
 10
0.0
 20
0.0
 30
0.0
  0
VERTEX
  5
510
330
50F
100
AcDbEntity
  8
BEMA_U_00DFUNG
 62
     7
100
AcDbVertex
100
AcDb2dVertex
 10
104.2584902932789
 20
198.2036475578711
 30
0.0
  0
VERTEX
  5
511
330
50F
100
AcDbEntity
  8
BEMA_U_00DFUNG
 62
     7
100
AcDbVertex
100
AcDb2dVertex
 10
104.2584902932789
 20
196.633080891597
 30
0.0
  0
SEQEND
  5
512
330
50F
100
AcDbEntity
  8
BEMA_U_00DFUNG
 62
     7
  0
POLYLINE
  5
513
330
1F
100
AcDbEntity
  8
BEMA_U_00DFUNG
 62
     7
100
AcDb2dPolyline
 66
     1
 10
0.0
 20
0.0
 30
0.0
  0
VERTEX
  5
514
330
513
100
AcDbEntity
  8
BEMA_U_00DFUNG
 62
     7
100
AcDbVertex
100
AcDb2dVertex
 10
104.2076902932915
 20
198.2036475578711
 30
0.0
  0
VERTEX
  5
515
330
513
100
AcDbEntity
  8
BEMA_U_00DFUNG
 62
     7
100
AcDbVertex
100
AcDb2dVertex
 10
104.2076902932915
 20
196.2474947805824
 30
0.0
  0
SEQEND
  5
516
330
513
100
AcDbEntity
  8
BEMA_U_00DFUNG
 62
     7
  0
POLYLINE
  5
517
330
1F
100
AcDbEntity
  8
BEMA_U_00DFUNG
 62
     7
100
AcDb2dPolyline
 66
     1
 10
0.0
 20
0.0
 30
0.0
  0
VERTEX
  5
518
330
517
100
AcDbEntity
  8
BEMA_U_00DFUNG
 62
     7
100
AcDbVertex
100
AcDb2dVertex
 10
104.1568902933042
 20
198.2036475578711
 30
0.0
  0
VERTEX
  5
519
330
517
100
AcDbEntity
  8
BEMA_U_00DFUNG
 62
     7
100
AcDbVertex
100
AcDb2dVertex
 10
104.1568902933042
 20
195.8612031140122
 30
0.0
  0
SEQEND
  5
51A
330
517
100
AcDbEntity
  8
BEMA_U_00DFUNG
 62
     7
  0
POLYLINE
  5
51B
330
1F
100
AcDbEntity
  8
BEMA_U_00DFUNG
 62
     7
100
AcDb2dPolyline
 66
     1
 10
0.0
 20
0.0
 30
0.0
  0
VERTEX
  5
51C
330
51B
100
AcDbEntity
  8
BEMA_U_00DFUNG
 62
     7
100
AcDbVertex
100
AcDb2dVertex
 10
104.1057375155393
 20
198.2036475578711
 30
0.0
  0
VERTEX
  5
51D
330
51B
100
AcDbEntity
  8
BEMA_U_00DFUNG
 62
     7
100
AcDbVertex
100
AcDb2dVertex
 10
104.1057375155393
 20
195.4759697807753
 30
0.0
  0
SEQEND
  5
51E
330
51B
100
AcDbEntity
  8
BEMA_U_00DFUNG
 62
     7
  0
POLYLINE
  5
51F
330
1F
100
AcDbEntity
  8
BEMA_U_00DFUNG
 62
     7
100
AcDb2dPolyline
 66
     1
 10
0.0
 20
0.0
 30
0.0
  0
VERTEX
  5
520
330
51F
100
AcDbEntity
  8
BEMA_U_00DFUNG
 62
     7
100
AcDbVertex
100
AcDb2dVertex
 10
104.054937515552
 20
198.2036475578711
 30
0.0
  0
VERTEX
  5
521
330
51F
100
AcDbEntity
  8
BEMA_U_00DFUNG
 62
     7
100
AcDbVertex
100
AcDb2dVertex
 10
104.054937515552
 20
195.0896781142051
 30
0.0
  0
SEQEND
  5
522
330
51F
100
AcDbEntity
  8
BEMA_U_00DFUNG
 62
     7
  0
POLYLINE
  5
523
330
1F
100
AcDbEntity
  8
BEMA_U_00DFUNG
 62
     7
100
AcDb2dPolyline
 66
     1
 10
0.0
 20
0.0
 30
0.0
  0
VERTEX
  5
524
330
523
100
AcDbEntity
  8
BEMA_U_00DFUNG
 62
     7
100
AcDbVertex
100
AcDb2dVertex
 10
104.0041375155646
 20
198.2036475578711
 30
0.0
  0
VERTEX
  5
525
330
523
100
AcDbEntity
  8
BEMA_U_00DFUNG
 62
     7
100
AcDbVertex
100
AcDb2dVertex
 10
104.0041375155646
 20
194.7040920031905
 30
0.0
  0
SEQEND
  5
526
330
523
100
AcDbEntity
  8
BEMA_U_00DFUNG
 62
     7
  0
POLYLINE
  5
527
330
1F
100
AcDbEntity
  8
BEMA_U_00DFUNG
 62
     7
100
AcDb2dPolyline
 66
     1
 10
0.0
 20
0.0
 30
0.0
  0
VERTEX
  5
528
330
527
100
AcDbEntity
  8
BEMA_U_00DFUNG
 62
     7
100
AcDbVertex
100
AcDb2dVertex
 10
103.5469375156788
 20
198.2036475578711
 30
0.0
  0
VERTEX
  5
529
330
527
100
AcDbEntity
  8
BEMA_U_00DFUNG
 62
     7
100
AcDbVertex
100
AcDb2dVertex
 10
103.5469375156788
 20
198.176483668989
 30
0.0
  0
SEQEND
  5
52A
330
527
100
AcDbEntity
  8
BEMA_U_00DFUNG
 62
     7
  0
POLYLINE
  5
52B
330
1F
100
AcDbEntity
  8
BEMA_U_00DFUNG
 62
     7
100
AcDb2dPolyline
 66
     1
 10
0.0
 20
0.0
 30
0.0
  0
VERTEX
  5
52C
330
52B
100
AcDbEntity
  8
BEMA_U_00DFUNG
 62
     7
100
AcDbVertex
100
AcDb2dVertex
 10
103.5469375156788
 20
198.2036475578711
 30
0.0
  0
VERTEX
  5
52D
330
52B
100
AcDbEntity
  8
BEMA_U_00DFUNG
 62
     7
100
AcDbVertex
100
AcDb2dVertex
 10
103.5469375156788
 20
198.176483668989
 30
0.0
  0
SEQEND
  5
52E
330
52B
100
AcDbEntity
  8
BEMA_U_00DFUNG
 62
     7
  0
POLYLINE
  5
52F
330
1F
100
AcDbEntity
  8
BEMA_U_00DFUNG
 62
     7
100
AcDb2dPolyline
 66
     1
 10
0.0
 20
0.0
 30
0.0
  0
VERTEX
  5
530
330
52F
100
AcDbEntity
  8
BEMA_U_00DFUNG
 62
     7
100
AcDbVertex
100
AcDb2dVertex
 10
103.5980902934439
 20
198.2036475578711
 30
0.0
  0
VERTEX
  5
531
330
52F
100
AcDbEntity
  8
BEMA_U_00DFUNG
 62
     7
100
AcDbVertex
100
AcDb2dVertex
 10
103.5980902934439
 20
197.7908975579743
 30
0.0
  0
SEQEND
  5
532
330
52F
100
AcDbEntity
  8
BEMA_U_00DFUNG
 62
     7
  0
POLYLINE
  5
533
330
1F
100
AcDbEntity
  8
BEMA_U_00DFUNG
 62
     7
100
AcDb2dPolyline
 66
     1
 10
0.0
 20
0.0
 30
0.0
  0
VERTEX
  5
534
330
533
100
AcDbEntity
  8
BEMA_U_00DFUNG
 62
     7
100
AcDbVertex
100
AcDb2dVertex
 10
103.6488902934313
 20
198.2036475578711
 30
0.0
  0
VERTEX
  5
535
330
533
100
AcDbEntity
  8
BEMA_U_00DFUNG
 62
     7
100
AcDbVertex
100
AcDb2dVertex
 10
103.6488902934313
 20
197.4046058914041
 30
0.0
  0
SEQEND
  5
536
330
533
100
AcDbEntity
  8
BEMA_U_00DFUNG
 62
     7
  0
POLYLINE
  5
537
330
1F
100
AcDbEntity
  8
BEMA_U_00DFUNG
 62
     7
100
AcDb2dPolyline
 66
     1
 10
0.0
 20
0.0
 30
0.0
  0
VERTEX
  5
538
330
537
100
AcDbEntity
  8
BEMA_U_00DFUNG
 62
     7
100
AcDbVertex
100
AcDb2dVertex
 10
103.6996902934184
 20
198.2036475578711
 30
0.0
  0
VERTEX
  5
539
330
537
100
AcDbEntity
  8
BEMA_U_00DFUNG
 62
     7
100
AcDbVertex
100
AcDb2dVertex
 10
103.6996902934184
 20
197.0193725581672
 30
0.0
  0
SEQEND
  5
53A
330
537
100
AcDbEntity
  8
BEMA_U_00DFUNG
 62
     7
  0
POLYLINE
  5
53B
330
1F
100
AcDbEntity
  8
BEMA_U_00DFUNG
 62
     7
100
AcDb2dPolyline
 66
     1
 10
0.0
 20
0.0
 30
0.0
  0
VERTEX
  5
53C
330
53B
100
AcDbEntity
  8
BEMA_U_00DFUNG
 62
     7
100
AcDbVertex
100
AcDb2dVertex
 10
103.7504902934057
 20
198.2036475578711
 30
0.0
  0
VERTEX
  5
53D
330
53B
100
AcDbEntity
  8
BEMA_U_00DFUNG
 62
     7
100
AcDbVertex
100
AcDb2dVertex
 10
103.7504902934057
 20
196.633080891597
 30
0.0
  0
SEQEND
  5
53E
330
53B
100
AcDbEntity
  8
BEMA_U_00DFUNG
 62
     7
  0
POLYLINE
  5
53F
330
1F
100
AcDbEntity
  8
BEMA_U_00DFUNG
 62
     7
100
AcDb2dPolyline
 66
     1
 10
0.0
 20
0.0
 30
0.0
  0
VERTEX
  5
540
330
53F
100
AcDbEntity
  8
BEMA_U_00DFUNG
 62
     7
100
AcDbVertex
100
AcDb2dVertex
 10
103.8012902933931
 20
198.2036475578711
 30
0.0
  0
VERTEX
  5
541
330
53F
100
AcDbEntity
  8
BEMA_U_00DFUNG
 62
     7
100
AcDbVertex
100
AcDb2dVertex
 10
103.8012902933931
 20
196.2474947805824
 30
0.0
  0
SEQEND
  5
542
330
53F
100
AcDbEntity
  8
BEMA_U_00DFUNG
 62
     7
  0
POLYLINE
  5
543
330
1F
100
AcDbEntity
  8
BEMA_U_00DFUNG
 62
     7
100
AcDb2dPolyline
 66
     1
 10
0.0
 20
0.0
 30
0.0
  0
VERTEX
  5
544
330
543
100
AcDbEntity
  8
BEMA_U_00DFUNG
 62
     7
100
AcDbVertex
100
AcDb2dVertex
 10
103.8517375156027
 20
198.2036475578711
 30
0.0
  0
VERTEX
  5
545
330
543
100
AcDbEntity
  8
BEMA_U_00DFUNG
 62
     7
100
AcDbVertex
100
AcDb2dVertex
 10
103.8517375156027
 20
195.8612031140122
 30
0.0
  0
SEQEND
  5
546
330
543
100
AcDbEntity
  8
BEMA_U_00DFUNG
 62
     7
  0
POLYLINE
  5
547
330
1F
100
AcDbEntity
  8
BEMA_U_00DFUNG
 62
     7
100
AcDb2dPolyline
 66
     1
 10
0.0
 20
0.0
 30
0.0
  0
VERTEX
  5
548
330
547
100
AcDbEntity
  8
BEMA_U_00DFUNG
 62
     7
100
AcDbVertex
100
AcDb2dVertex
 10
103.9025375155901
 20
198.2036475578711
 30
0.0
  0
VERTEX
  5
549
330
547
100
AcDbEntity
  8
BEMA_U_00DFUNG
 62
     7
100
AcDbVertex
100
AcDb2dVertex
 10
103.9025375155901
 20
195.4759697807753
 30
0.0
  0
SEQEND
  5
54A
330
547
100
AcDbEntity
  8
BEMA_U_00DFUNG
 62
     7
  0
POLYLINE
  5
54B
330
1F
100
AcDbEntity
  8
BEMA_U_00DFUNG
 62
     7
100
AcDb2dPolyline
 66
     1
 10
0.0
 20
0.0
 30
0.0
  0
VERTEX
  5
54C
330
54B
100
AcDbEntity
  8
BEMA_U_00DFUNG
 62
     7
100
AcDbVertex
100
AcDb2dVertex
 10
103.9533375155772
 20
198.2036475578711
 30
0.0
  0
VERTEX
  5
54D
330
54B
100
AcDbEntity
  8
BEMA_U_00DFUNG
 62
     7
100
AcDbVertex
100
AcDb2dVertex
 10
103.9533375155772
 20
195.0896781142051
 30
0.0
  0
SEQEND
  5
54E
330
54B
100
AcDbEntity
  8
BEMA_U_00DFUNG
 62
     7
  0
POLYLINE
  5
54F
330
1F
100
AcDbEntity
  8
BEMA_U_00DFUNG
 62
     7
100
AcDb2dPolyline
 66
     1
 10
0.0
 20
0.0
 30
0.0
  0
VERTEX
  5
550
330
54F
100
AcDbEntity
  8
BEMA_U_00DFUNG
 62
     7
100
AcDbVertex
100
AcDb2dVertex
 10
104.0041375155646
 20
198.2036475578711
 30
0.0
  0
VERTEX
  5
551
330
54F
100
AcDbEntity
  8
BEMA_U_00DFUNG
 62
     7
100
AcDbVertex
100
AcDb2dVertex
 10
104.0041375155646
 20
194.7040920031905
 30
0.0
  0
SEQEND
  5
552
330
54F
100
AcDbEntity
  8
BEMA_U_00DFUNG
 62
     7
  0
POLYLINE
  5
553
330
1F
100
AcDbEntity
  8
BEMA_U_00DFUNG
 62
     7
100
AcDb2dPolyline
 66
     1
 10
0.0
 20
0.0
 30
0.0
  0
VERTEX
  5
554
330
553
100
AcDbEntity
  8
BEMA_U_00DFUNG
 62
     7
100
AcDbVertex
100
AcDb2dVertex
 10
138.5520610764731
 20
212.576872554278
 30
0.0
  0
VERTEX
  5
555
330
553
100
AcDbEntity
  8
BEMA_U_00DFUNG
 62
     7
100
AcDbVertex
100
AcDb2dVertex
 10
138.5520610764731
 20
239.3918642142407
 30
0.0
  0
SEQEND
  5
556
330
553
100
AcDbEntity
  8
BEMA_U_00DFUNG
 62
     7
  0
POLYLINE
  5
557
330
1F
100
AcDbEntity
  8
BEMA_U_00DFUNG
 62
     7
100
AcDb2dPolyline
 66
     1
 10
0.0
 20
0.0
 30
0.0
  0
VERTEX
  5
558
330
557
100
AcDbEntity
  8
BEMA_U_00DFUNG
 62
     7
100
AcDbVertex
100
AcDb2dVertex
 10
114.0519971937094
 20
220.3916058856576
 30
0.0
  0
VERTEX
  5
559
330
557
100
AcDbEntity
  8
BEMA_U_00DFUNG
 62
     7
100
AcDbVertex
100
AcDb2dVertex
 10
114.0519971937094
 20
239.3918642142407
 30
0.0
  0
SEQEND
  5
55A
330
557
100
AcDbEntity
  8
BEMA_U_00DFUNG
 62
     7
  0
POLYLINE
  5
55B
330
1F
100
AcDbEntity
  8
BEMA_U_00DFUNG
 62
     7
100
AcDb2dPolyline
 66
     1
 10
0.0
 20
0.0
 30
0.0
  0
VERTEX
  5
55C
330
55B
100
AcDbEntity
  8
BEMA_U_00DFUNG
 62
     7
100
AcDbVertex
100
AcDb2dVertex
 10
138.5520610764731
 20
237.3919669925182
 30
0.0
  0
VERTEX
  5
55D
330
55B
100
AcDbEntity
  8
BEMA_U_00DFUNG
 62
     7
100
AcDbVertex
100
AcDb2dVertex
 10
114.0519971937094
 20
237.3919669925182
 30
0.0
  0
SEQEND
  5
55E
330
55B
100
AcDbEntity
  8
BEMA_U_00DFUNG
 62
     7
  0
POLYLINE
  5
55F
330
1F
100
AcDbEntity
  8
BEMA_U_00DFUNG
 62
     7
100
AcDb2dPolyline
 66
     1
 10
0.0
 20
0.0
 30
0.0
  0
VERTEX
  5
560
330
55F
100
AcDbEntity
  8
BEMA_U_00DFUNG
 62
     7
100
AcDbVertex
100
AcDb2dVertex
 10
138.5520610764731
 20
237.3919669925182
 30
0.0
  0
VERTEX
  5
561
330
55F
100
AcDbEntity
  8
BEMA_U_00DFUNG
 62
     7
100
AcDbVertex
100
AcDb2dVertex
 10
135.052152744015
 20
237.8523419924032
 30
0.0
  0
VERTEX
  5
562
330
55F
100
AcDbEntity
  8
BEMA_U_00DFUNG
 62
     7
100
AcDbVertex
100
AcDb2dVertex
 10
135.052152744015
 20
236.9308864370783
 30
0.0
  0
VERTEX
  5
563
330
55F
100
AcDbEntity
  8
BEMA_U_00DFUNG
 62
     7
100
AcDbVertex
100
AcDb2dVertex
 10
138.5520610764731
 20
237.3919669925182
 30
0.0
  0
SEQEND
  5
564
330
55F
100
AcDbEntity
  8
BEMA_U_00DFUNG
 62
     7
  0
POLYLINE
  5
565
330
1F
100
AcDbEntity
  8
BEMA_U_00DFUNG
 62
     7
100
AcDb2dPolyline
 66
     1
 10
0.0
 20
0.0
 30
0.0
  0
VERTEX
  5
566
330
565
100
AcDbEntity
  8
BEMA_U_00DFUNG
 62
     7
100
AcDbVertex
100
AcDb2dVertex
 10
135.052152744015
 20
237.8488142146262
 30
0.0
  0
VERTEX
  5
567
330
565
100
AcDbEntity
  8
BEMA_U_00DFUNG
 62
     7
100
AcDbVertex
100
AcDb2dVertex
 10
135.0793166328968
 20
237.8488142146262
 30
0.0
  0
SEQEND
  5
568
330
565
100
AcDbEntity
  8
BEMA_U_00DFUNG
 62
     7
  0
POLYLINE
  5
569
330
1F
100
AcDbEntity
  8
BEMA_U_00DFUNG
 62
     7
100
AcDb2dPolyline
 66
     1
 10
0.0
 20
0.0
 30
0.0
  0
VERTEX
  5
56A
330
569
100
AcDbEntity
  8
BEMA_U_00DFUNG
 62
     7
100
AcDbVertex
100
AcDb2dVertex
 10
135.052152744015
 20
237.8488142146262
 30
0.0
  0
VERTEX
  5
56B
330
569
100
AcDbEntity
  8
BEMA_U_00DFUNG
 62
     7
100
AcDbVertex
100
AcDb2dVertex
 10
135.0793166328968
 20
237.8488142146262
 30
0.0
  0
SEQEND
  5
56C
330
569
100
AcDbEntity
  8
BEMA_U_00DFUNG
 62
     7
  0
POLYLINE
  5
56D
330
1F
100
AcDbEntity
  8
BEMA_U_00DFUNG
 62
     7
100
AcDb2dPolyline
 66
     1
 10
0.0
 20
0.0
 30
0.0
  0
VERTEX
  5
56E
330
56D
100
AcDbEntity
  8
BEMA_U_00DFUNG
 62
     7
100
AcDbVertex
100
AcDb2dVertex
 10
135.052152744015
 20
237.7980142146392
 30
0.0
  0
VERTEX
  5
56F
330
56D
100
AcDbEntity
  8
BEMA_U_00DFUNG
 62
     7
100
AcDbVertex
100
AcDb2dVertex
 10
135.4652555216893
 20
237.7980142146392
 30
0.0
  0
SEQEND
  5
570
330
56D
100
AcDbEntity
  8
BEMA_U_00DFUNG
 62
     7
  0
POLYLINE
  5
571
330
1F
100
AcDbEntity
  8
BEMA_U_00DFUNG
 62
     7
100
AcDb2dPolyline
 66
     1
 10
0.0
 20
0.0
 30
0.0
  0
VERTEX
  5
572
330
571
100
AcDbEntity
  8
BEMA_U_00DFUNG
 62
     7
100
AcDbVertex
100
AcDb2dVertex
 10
135.052152744015
 20
237.7472142146518
 30
0.0
  0
VERTEX
  5
573
330
571
100
AcDbEntity
  8
BEMA_U_00DFUNG
 62
     7
100
AcDbVertex
100
AcDb2dVertex
 10
135.8511944104817
 20
237.7472142146518
 30
0.0
  0
SEQEND
  5
574
330
571
100
AcDbEntity
  8
BEMA_U_00DFUNG
 62
     7
  0
POLYLINE
  5
575
330
1F
100
AcDbEntity
  8
BEMA_U_00DFUNG
 62
     7
100
AcDb2dPolyline
 66
     1
 10
0.0
 20
0.0
 30
0.0
  0
VERTEX
  5
576
330
575
100
AcDbEntity
  8
BEMA_U_00DFUNG
 62
     7
100
AcDbVertex
100
AcDb2dVertex
 10
135.052152744015
 20
237.6964142146647
 30
0.0
  0
VERTEX
  5
577
330
575
100
AcDbEntity
  8
BEMA_U_00DFUNG
 62
     7
100
AcDbVertex
100
AcDb2dVertex
 10
136.2367805214964
 20
237.6964142146647
 30
0.0
  0
SEQEND
  5
578
330
575
100
AcDbEntity
  8
BEMA_U_00DFUNG
 62
     7
  0
POLYLINE
  5
579
330
1F
100
AcDbEntity
  8
BEMA_U_00DFUNG
 62
     7
100
AcDb2dPolyline
 66
     1
 10
0.0
 20
0.0
 30
0.0
  0
VERTEX
  5
57A
330
579
100
AcDbEntity
  8
BEMA_U_00DFUNG
 62
     7
100
AcDbVertex
100
AcDb2dVertex
 10
135.052152744015
 20
237.6456142146774
 30
0.0
  0
VERTEX
  5
57B
330
579
100
AcDbEntity
  8
BEMA_U_00DFUNG
 62
     7
100
AcDbVertex
100
AcDb2dVertex
 10
136.6227194102888
 20
237.6456142146774
 30
0.0
  0
SEQEND
  5
57C
330
579
100
AcDbEntity
  8
BEMA_U_00DFUNG
 62
     7
  0
POLYLINE
  5
57D
330
1F
100
AcDbEntity
  8
BEMA_U_00DFUNG
 62
     7
100
AcDb2dPolyline
 66
     1
 10
0.0
 20
0.0
 30
0.0
  0
VERTEX
  5
57E
330
57D
100
AcDbEntity
  8
BEMA_U_00DFUNG
 62
     7
100
AcDbVertex
100
AcDb2dVertex
 10
135.052152744015
 20
237.5951669924677
 30
0.0
  0
VERTEX
  5
57F
330
57D
100
AcDbEntity
  8
BEMA_U_00DFUNG
 62
     7
100
AcDbVertex
100
AcDb2dVertex
 10
137.0086582990812
 20
237.5951669924677
 30
0.0
  0
SEQEND
  5
580
330
57D
100
AcDbEntity
  8
BEMA_U_00DFUNG
 62
     7
  0
POLYLINE
  5
581
330
1F
100
AcDbEntity
  8
BEMA_U_00DFUNG
 62
     7
100
AcDb2dPolyline
 66
     1
 10
0.0
 20
0.0
 30
0.0
  0
VERTEX
  5
582
330
581
100
AcDbEntity
  8
BEMA_U_00DFUNG
 62
     7
100
AcDbVertex
100
AcDb2dVertex
 10
135.052152744015
 20
237.5443669924803
 30
0.0
  0
VERTEX
  5
583
330
581
100
AcDbEntity
  8
BEMA_U_00DFUNG
 62
     7
100
AcDbVertex
100
AcDb2dVertex
 10
137.3945971878736
 20
237.5443669924803
 30
0.0
  0
SEQEND
  5
584
330
581
100
AcDbEntity
  8
BEMA_U_00DFUNG
 62
     7
  0
POLYLINE
  5
585
330
1F
100
AcDbEntity
  8
BEMA_U_00DFUNG
 62
     7
100
AcDb2dPolyline
 66
     1
 10
0.0
 20
0.0
 30
0.0
  0
VERTEX
  5
586
330
585
100
AcDbEntity
  8
BEMA_U_00DFUNG
 62
     7
100
AcDbVertex
100
AcDb2dVertex
 10
135.052152744015
 20
237.493566992493
 30
0.0
  0
VERTEX
  5
587
330
585
100
AcDbEntity
  8
BEMA_U_00DFUNG
 62
     7
100
AcDbVertex
100
AcDb2dVertex
 10
137.7801832988883
 20
237.493566992493
 30
0.0
  0
SEQEND
  5
588
330
585
100
AcDbEntity
  8
BEMA_U_00DFUNG
 62
     7
  0
POLYLINE
  5
589
330
1F
100
AcDbEntity
  8
BEMA_U_00DFUNG
 62
     7
100
AcDb2dPolyline
 66
     1
 10
0.0
 20
0.0
 30
0.0
  0
VERTEX
  5
58A
330
589
100
AcDbEntity
  8
BEMA_U_00DFUNG
 62
     7
100
AcDbVertex
100
AcDb2dVertex
 10
135.052152744015
 20
237.4427669925056
 30
0.0
  0
VERTEX
  5
58B
330
589
100
AcDbEntity
  8
BEMA_U_00DFUNG
 62
     7
100
AcDbVertex
100
AcDb2dVertex
 10
138.1661221876807
 20
237.4427669925056
 30
0.0
  0
SEQEND
  5
58C
330
589
100
AcDbEntity
  8
BEMA_U_00DFUNG
 62
     7
  0
POLYLINE
  5
58D
330
1F
100
AcDbEntity
  8
BEMA_U_00DFUNG
 62
     7
100
AcDb2dPolyline
 66
     1
 10
0.0
 20
0.0
 30
0.0
  0
VERTEX
  5
58E
330
58D
100
AcDbEntity
  8
BEMA_U_00DFUNG
 62
     7
100
AcDbVertex
100
AcDb2dVertex
 10
135.052152744015
 20
237.3919669925182
 30
0.0
  0
VERTEX
  5
58F
330
58D
100
AcDbEntity
  8
BEMA_U_00DFUNG
 62
     7
100
AcDbVertex
100
AcDb2dVertex
 10
138.5520610764731
 20
237.3919669925182
 30
0.0
  0
SEQEND
  5
590
330
58D
100
AcDbEntity
  8
BEMA_U_00DFUNG
 62
     7
  0
POLYLINE
  5
591
330
1F
100
AcDbEntity
  8
BEMA_U_00DFUNG
 62
     7
100
AcDb2dPolyline
 66
     1
 10
0.0
 20
0.0
 30
0.0
  0
VERTEX
  5
592
330
591
100
AcDbEntity
  8
BEMA_U_00DFUNG
 62
     7
100
AcDbVertex
100
AcDb2dVertex
 10
135.052152744015
 20
236.9344142148553
 30
0.0
  0
VERTEX
  5
593
330
591
100
AcDbEntity
  8
BEMA_U_00DFUNG
 62
     7
100
AcDbVertex
100
AcDb2dVertex
 10
135.0793166328968
 20
236.9344142148553
 30
0.0
  0
SEQEND
  5
594
330
591
100
AcDbEntity
  8
BEMA_U_00DFUNG
 62
     7
  0
POLYLINE
  5
595
330
1F
100
AcDbEntity
  8
BEMA_U_00DFUNG
 62
     7
100
AcDb2dPolyline
 66
     1
 10
0.0
 20
0.0
 30
0.0
  0
VERTEX
  5
596
330
595
100
AcDbEntity
  8
BEMA_U_00DFUNG
 62
     7
100
AcDbVertex
100
AcDb2dVertex
 10
135.052152744015
 20
236.9344142148553
 30
0.0
  0
VERTEX
  5
597
330
595
100
AcDbEntity
  8
BEMA_U_00DFUNG
 62
     7
100
AcDbVertex
100
AcDb2dVertex
 10
135.0793166328968
 20
236.9344142148553
 30
0.0
  0
SEQEND
  5
598
330
595
100
AcDbEntity
  8
BEMA_U_00DFUNG
 62
     7
  0
POLYLINE
  5
599
330
1F
100
AcDbEntity
  8
BEMA_U_00DFUNG
 62
     7
100
AcDb2dPolyline
 66
     1
 10
0.0
 20
0.0
 30
0.0
  0
VERTEX
  5
59A
330
599
100
AcDbEntity
  8
BEMA_U_00DFUNG
 62
     7
100
AcDbVertex
100
AcDb2dVertex
 10
135.052152744015
 20
236.9852142148424
 30
0.0
  0
VERTEX
  5
59B
330
599
100
AcDbEntity
  8
BEMA_U_00DFUNG
 62
     7
100
AcDbVertex
100
AcDb2dVertex
 10
135.4652555216893
 20
236.9852142148424
 30
0.0
  0
SEQEND
  5
59C
330
599
100
AcDbEntity
  8
BEMA_U_00DFUNG
 62
     7
  0
POLYLINE
  5
59D
330
1F
100
AcDbEntity
  8
BEMA_U_00DFUNG
 62
     7
100
AcDb2dPolyline
 66
     1
 10
0.0
 20
0.0
 30
0.0
  0
VERTEX
  5
59E
330
59D
100
AcDbEntity
  8
BEMA_U_00DFUNG
 62
     7
100
AcDbVertex
100
AcDb2dVertex
 10
135.052152744015
 20
237.0360142148294
 30
0.0
  0
VERTEX
  5
59F
330
59D
100
AcDbEntity
  8
BEMA_U_00DFUNG
 62
     7
100
AcDbVertex
100
AcDb2dVertex
 10
135.8511944104817
 20
237.0360142148294
 30
0.0
  0
SEQEND
  5
5A0
330
59D
100
AcDbEntity
  8
BEMA_U_00DFUNG
 62
     7
  0
POLYLINE
  5
5A1
330
1F
100
AcDbEntity
  8
BEMA_U_00DFUNG
 62
     7
100
AcDb2dPolyline
 66
     1
 10
0.0
 20
0.0
 30
0.0
  0
VERTEX
  5
5A2
330
5A1
100
AcDbEntity
  8
BEMA_U_00DFUNG
 62
     7
100
AcDbVertex
100
AcDb2dVertex
 10
135.052152744015
 20
237.0868142148168
 30
0.0
  0
VERTEX
  5
5A3
330
5A1
100
AcDbEntity
  8
BEMA_U_00DFUNG
 62
     7
100
AcDbVertex
100
AcDb2dVertex
 10
136.2367805214964
 20
237.0868142148168
 30
0.0
  0
SEQEND
  5
5A4
330
5A1
100
AcDbEntity
  8
BEMA_U_00DFUNG
 62
     7
  0
POLYLINE
  5
5A5
330
1F
100
AcDbEntity
  8
BEMA_U_00DFUNG
 62
     7
100
AcDb2dPolyline
 66
     1
 10
0.0
 20
0.0
 30
0.0
  0
VERTEX
  5
5A6
330
5A5
100
AcDbEntity
  8
BEMA_U_00DFUNG
 62
     7
100
AcDbVertex
100
AcDb2dVertex
 10
135.052152744015
 20
237.1379669925819
 30
0.0
  0
VERTEX
  5
5A7
330
5A5
100
AcDbEntity
  8
BEMA_U_00DFUNG
 62
     7
100
AcDbVertex
100
AcDb2dVertex
 10
136.6227194102888
 20
237.1379669925819
 30
0.0
  0
SEQEND
  5
5A8
330
5A5
100
AcDbEntity
  8
BEMA_U_00DFUNG
 62
     7
  0
POLYLINE
  5
5A9
330
1F
100
AcDbEntity
  8
BEMA_U_00DFUNG
 62
     7
100
AcDb2dPolyline
 66
     1
 10
0.0
 20
0.0
 30
0.0
  0
VERTEX
  5
5AA
330
5A9
100
AcDbEntity
  8
BEMA_U_00DFUNG
 62
     7
100
AcDbVertex
100
AcDb2dVertex
 10
135.052152744015
 20
237.1887669925693
 30
0.0
  0
VERTEX
  5
5AB
330
5A9
100
AcDbEntity
  8
BEMA_U_00DFUNG
 62
     7
100
AcDbVertex
100
AcDb2dVertex
 10
137.0086582990812
 20
237.1887669925693
 30
0.0
  0
SEQEND
  5
5AC
330
5A9
100
AcDbEntity
  8
BEMA_U_00DFUNG
 62
     7
  0
POLYLINE
  5
5AD
330
1F
100
AcDbEntity
  8
BEMA_U_00DFUNG
 62
     7
100
AcDb2dPolyline
 66
     1
 10
0.0
 20
0.0
 30
0.0
  0
VERTEX
  5
5AE
330
5AD
100
AcDbEntity
  8
BEMA_U_00DFUNG
 62
     7
100
AcDbVertex
100
AcDb2dVertex
 10
135.052152744015
 20
237.2395669925567
 30
0.0
  0
VERTEX
  5
5AF
330
5AD
100
AcDbEntity
  8
BEMA_U_00DFUNG
 62
     7
100
AcDbVertex
100
AcDb2dVertex
 10
137.3945971878736
 20
237.2395669925567
 30
0.0
  0
SEQEND
  5
5B0
330
5AD
100
AcDbEntity
  8
BEMA_U_00DFUNG
 62
     7
  0
POLYLINE
  5
5B1
330
1F
100
AcDbEntity
  8
BEMA_U_00DFUNG
 62
     7
100
AcDb2dPolyline
 66
     1
 10
0.0
 20
0.0
 30
0.0
  0
VERTEX
  5
5B2
330
5B1
100
AcDbEntity
  8
BEMA_U_00DFUNG
 62
     7
100
AcDbVertex
100
AcDb2dVertex
 10
135.052152744015
 20
237.2903669925441
 30
0.0
  0
VERTEX
  5
5B3
330
5B1
100
AcDbEntity
  8
BEMA_U_00DFUNG
 62
     7
100
AcDbVertex
100
AcDb2dVertex
 10
137.7801832988883
 20
237.2903669925441
 30
0.0
  0
SEQEND
  5
5B4
330
5B1
100
AcDbEntity
  8
BEMA_U_00DFUNG
 62
     7
  0
POLYLINE
  5
5B5
330
1F
100
AcDbEntity
  8
BEMA_U_00DFUNG
 62
     7
100
AcDb2dPolyline
 66
     1
 10
0.0
 20
0.0
 30
0.0
  0
VERTEX
  5
5B6
330
5B5
100
AcDbEntity
  8
BEMA_U_00DFUNG
 62
     7
100
AcDbVertex
100
AcDb2dVertex
 10
135.052152744015
 20
237.3411669925312
 30
0.0
  0
VERTEX
  5
5B7
330
5B5
100
AcDbEntity
  8
BEMA_U_00DFUNG
 62
     7
100
AcDbVertex
100
AcDb2dVertex
 10
138.1661221876807
 20
237.3411669925312
 30
0.0
  0
SEQEND
  5
5B8
330
5B5
100
AcDbEntity
  8
BEMA_U_00DFUNG
 62
     7
  0
POLYLINE
  5
5B9
330
1F
100
AcDbEntity
  8
BEMA_U_00DFUNG
 62
     7
100
AcDb2dPolyline
 66
     1
 10
0.0
 20
0.0
 30
0.0
  0
VERTEX
  5
5BA
330
5B9
100
AcDbEntity
  8
BEMA_U_00DFUNG
 62
     7
100
AcDbVertex
100
AcDb2dVertex
 10
135.052152744015
 20
237.3919669925182
 30
0.0
  0
VERTEX
  5
5BB
330
5B9
100
AcDbEntity
  8
BEMA_U_00DFUNG
 62
     7
100
AcDbVertex
100
AcDb2dVertex
 10
138.5520610764731
 20
237.3919669925182
 30
0.0
  0
SEQEND
  5
5BC
330
5B9
100
AcDbEntity
  8
BEMA_U_00DFUNG
 62
     7
  0
POLYLINE
  5
5BD
330
1F
100
AcDbEntity
  8
BEMA_U_00DFUNG
 62
     7
100
AcDb2dPolyline
 66
     1
 10
0.0
 20
0.0
 30
0.0
  0
VERTEX
  5
5BE
330
5BD
100
AcDbEntity
  8
BEMA_U_00DFUNG
 62
     7
100
AcDbVertex
100
AcDb2dVertex
 10
114.0519971937094
 20
237.3919669925182
 30
0.0
  0
VERTEX
  5
5BF
330
5BD
100
AcDbEntity
  8
BEMA_U_00DFUNG
 62
     7
100
AcDbVertex
100
AcDb2dVertex
 10
117.5522583039453
 20
236.9308864370783
 30
0.0
  0
VERTEX
  5
5C0
330
5BD
100
AcDbEntity
  8
BEMA_U_00DFUNG
 62
     7
100
AcDbVertex
100
AcDb2dVertex
 10
117.5522583039453
 20
237.8523419924032
 30
0.0
  0
VERTEX
  5
5C1
330
5BD
100
AcDbEntity
  8
BEMA_U_00DFUNG
 62
     7
100
AcDbVertex
100
AcDb2dVertex
 10
114.0519971937094
 20
237.3919669925182
 30
0.0
  0
SEQEND
  5
5C2
330
5BD
100
AcDbEntity
  8
BEMA_U_00DFUNG
 62
     7
  0
POLYLINE
  5
5C3
330
1F
100
AcDbEntity
  8
BEMA_U_00DFUNG
 62
     7
100
AcDb2dPolyline
 66
     1
 10
0.0
 20
0.0
 30
0.0
  0
VERTEX
  5
5C4
330
5C3
100
AcDbEntity
  8
BEMA_U_00DFUNG
 62
     7
100
AcDbVertex
100
AcDb2dVertex
 10
117.5522583039453
 20
236.9344142148553
 30
0.0
  0
VERTEX
  5
5C5
330
5C3
100
AcDbEntity
  8
BEMA_U_00DFUNG
 62
     7
100
AcDbVertex
100
AcDb2dVertex
 10
117.5250944150634
 20
236.9344142148553
 30
0.0
  0
SEQEND
  5
5C6
330
5C3
100
AcDbEntity
  8
BEMA_U_00DFUNG
 62
     7
  0
POLYLINE
  5
5C7
330
1F
100
AcDbEntity
  8
BEMA_U_00DFUNG
 62
     7
100
AcDb2dPolyline
 66
     1
 10
0.0
 20
0.0
 30
0.0
  0
VERTEX
  5
5C8
330
5C7
100
AcDbEntity
  8
BEMA_U_00DFUNG
 62
     7
100
AcDbVertex
100
AcDb2dVertex
 10
117.5522583039453
 20
236.9344142148553
 30
0.0
  0
VERTEX
  5
5C9
330
5C7
100
AcDbEntity
  8
BEMA_U_00DFUNG
 62
     7
100
AcDbVertex
100
AcDb2dVertex
 10
117.5250944150634
 20
236.9344142148553
 30
0.0
  0
SEQEND
  5
5CA
330
5C7
100
AcDbEntity
  8
BEMA_U_00DFUNG
 62
     7
  0
POLYLINE
  5
5CB
330
1F
100
AcDbEntity
  8
BEMA_U_00DFUNG
 62
     7
100
AcDb2dPolyline
 66
     1
 10
0.0
 20
0.0
 30
0.0
  0
VERTEX
  5
5CC
330
5CB
100
AcDbEntity
  8
BEMA_U_00DFUNG
 62
     7
100
AcDbVertex
100
AcDb2dVertex
 10
117.5522583039453
 20
236.9852142148424
 30
0.0
  0
VERTEX
  5
5CD
330
5CB
100
AcDbEntity
  8
BEMA_U_00DFUNG
 62
     7
100
AcDbVertex
100
AcDb2dVertex
 10
117.1388027484932
 20
236.9852142148424
 30
0.0
  0
SEQEND
  5
5CE
330
5CB
100
AcDbEntity
  8
BEMA_U_00DFUNG
 62
     7
  0
POLYLINE
  5
5CF
330
1F
100
AcDbEntity
  8
BEMA_U_00DFUNG
 62
     7
100
AcDb2dPolyline
 66
     1
 10
0.0
 20
0.0
 30
0.0
  0
VERTEX
  5
5D0
330
5CF
100
AcDbEntity
  8
BEMA_U_00DFUNG
 62
     7
100
AcDbVertex
100
AcDb2dVertex
 10
117.5522583039453
 20
237.0360142148294
 30
0.0
  0
VERTEX
  5
5D1
330
5CF
100
AcDbEntity
  8
BEMA_U_00DFUNG
 62
     7
100
AcDbVertex
100
AcDb2dVertex
 10
116.7528638597008
 20
237.0360142148294
 30
0.0
  0
SEQEND
  5
5D2
330
5CF
100
AcDbEntity
  8
BEMA_U_00DFUNG
 62
     7
  0
POLYLINE
  5
5D3
330
1F
100
AcDbEntity
  8
BEMA_U_00DFUNG
 62
     7
100
AcDb2dPolyline
 66
     1
 10
0.0
 20
0.0
 30
0.0
  0
VERTEX
  5
5D4
330
5D3
100
AcDbEntity
  8
BEMA_U_00DFUNG
 62
     7
100
AcDbVertex
100
AcDb2dVertex
 10
117.5522583039453
 20
237.0868142148168
 30
0.0
  0
VERTEX
  5
5D5
330
5D3
100
AcDbEntity
  8
BEMA_U_00DFUNG
 62
     7
100
AcDbVertex
100
AcDb2dVertex
 10
116.3669249709084
 20
237.0868142148168
 30
0.0
  0
SEQEND
  5
5D6
330
5D3
100
AcDbEntity
  8
BEMA_U_00DFUNG
 62
     7
  0
POLYLINE
  5
5D7
330
1F
100
AcDbEntity
  8
BEMA_U_00DFUNG
 62
     7
100
AcDb2dPolyline
 66
     1
 10
0.0
 20
0.0
 30
0.0
  0
VERTEX
  5
5D8
330
5D7
100
AcDbEntity
  8
BEMA_U_00DFUNG
 62
     7
100
AcDbVertex
100
AcDb2dVertex
 10
117.5522583039453
 20
237.1379669925819
 30
0.0
  0
VERTEX
  5
5D9
330
5D7
100
AcDbEntity
  8
BEMA_U_00DFUNG
 62
     7
100
AcDbVertex
100
AcDb2dVertex
 10
115.9816916376715
 20
237.1379669925819
 30
0.0
  0
SEQEND
  5
5DA
330
5D7
100
AcDbEntity
  8
BEMA_U_00DFUNG
 62
     7
  0
POLYLINE
  5
5DB
330
1F
100
AcDbEntity
  8
BEMA_U_00DFUNG
 62
     7
100
AcDb2dPolyline
 66
     1
 10
0.0
 20
0.0
 30
0.0
  0
VERTEX
  5
5DC
330
5DB
100
AcDbEntity
  8
BEMA_U_00DFUNG
 62
     7
100
AcDbVertex
100
AcDb2dVertex
 10
117.5522583039453
 20
237.1887669925693
 30
0.0
  0
VERTEX
  5
5DD
330
5DB
100
AcDbEntity
  8
BEMA_U_00DFUNG
 62
     7
100
AcDbVertex
100
AcDb2dVertex
 10
115.5953999711013
 20
237.1887669925693
 30
0.0
  0
SEQEND
  5
5DE
330
5DB
100
AcDbEntity
  8
BEMA_U_00DFUNG
 62
     7
  0
POLYLINE
  5
5DF
330
1F
100
AcDbEntity
  8
BEMA_U_00DFUNG
 62
     7
100
AcDb2dPolyline
 66
     1
 10
0.0
 20
0.0
 30
0.0
  0
VERTEX
  5
5E0
330
5DF
100
AcDbEntity
  8
BEMA_U_00DFUNG
 62
     7
100
AcDbVertex
100
AcDb2dVertex
 10
117.5522583039453
 20
237.2395669925567
 30
0.0
  0
VERTEX
  5
5E1
330
5DF
100
AcDbEntity
  8
BEMA_U_00DFUNG
 62
     7
100
AcDbVertex
100
AcDb2dVertex
 10
115.2094610823089
 20
237.2395669925567
 30
0.0
  0
SEQEND
  5
5E2
330
5DF
100
AcDbEntity
  8
BEMA_U_00DFUNG
 62
     7
  0
POLYLINE
  5
5E3
330
1F
100
AcDbEntity
  8
BEMA_U_00DFUNG
 62
     7
100
AcDb2dPolyline
 66
     1
 10
0.0
 20
0.0
 30
0.0
  0
VERTEX
  5
5E4
330
5E3
100
AcDbEntity
  8
BEMA_U_00DFUNG
 62
     7
100
AcDbVertex
100
AcDb2dVertex
 10
117.5522583039453
 20
237.2903669925441
 30
0.0
  0
VERTEX
  5
5E5
330
5E3
100
AcDbEntity
  8
BEMA_U_00DFUNG
 62
     7
100
AcDbVertex
100
AcDb2dVertex
 10
114.8235221935165
 20
237.2903669925441
 30
0.0
  0
SEQEND
  5
5E6
330
5E3
100
AcDbEntity
  8
BEMA_U_00DFUNG
 62
     7
  0
POLYLINE
  5
5E7
330
1F
100
AcDbEntity
  8
BEMA_U_00DFUNG
 62
     7
100
AcDb2dPolyline
 66
     1
 10
0.0
 20
0.0
 30
0.0
  0
VERTEX
  5
5E8
330
5E7
100
AcDbEntity
  8
BEMA_U_00DFUNG
 62
     7
100
AcDbVertex
100
AcDb2dVertex
 10
117.5522583039453
 20
237.3411669925312
 30
0.0
  0
VERTEX
  5
5E9
330
5E7
100
AcDbEntity
  8
BEMA_U_00DFUNG
 62
     7
100
AcDbVertex
100
AcDb2dVertex
 10
114.4375833047241
 20
237.3411669925312
 30
0.0
  0
SEQEND
  5
5EA
330
5E7
100
AcDbEntity
  8
BEMA_U_00DFUNG
 62
     7
  0
POLYLINE
  5
5EB
330
1F
100
AcDbEntity
  8
BEMA_U_00DFUNG
 62
     7
100
AcDb2dPolyline
 66
     1
 10
0.0
 20
0.0
 30
0.0
  0
VERTEX
  5
5EC
330
5EB
100
AcDbEntity
  8
BEMA_U_00DFUNG
 62
     7
100
AcDbVertex
100
AcDb2dVertex
 10
117.5522583039453
 20
237.3919669925182
 30
0.0
  0
VERTEX
  5
5ED
330
5EB
100
AcDbEntity
  8
BEMA_U_00DFUNG
 62
     7
100
AcDbVertex
100
AcDb2dVertex
 10
114.0519971937094
 20
237.3919669925182
 30
0.0
  0
SEQEND
  5
5EE
330
5EB
100
AcDbEntity
  8
BEMA_U_00DFUNG
 62
     7
  0
POLYLINE
  5
5EF
330
1F
100
AcDbEntity
  8
BEMA_U_00DFUNG
 62
     7
100
AcDb2dPolyline
 66
     1
 10
0.0
 20
0.0
 30
0.0
  0
VERTEX
  5
5F0
330
5EF
100
AcDbEntity
  8
BEMA_U_00DFUNG
 62
     7
100
AcDbVertex
100
AcDb2dVertex
 10
117.5522583039453
 20
237.8488142146262
 30
0.0
  0
VERTEX
  5
5F1
330
5EF
100
AcDbEntity
  8
BEMA_U_00DFUNG
 62
     7
100
AcDbVertex
100
AcDb2dVertex
 10
117.5250944150634
 20
237.8488142146262
 30
0.0
  0
SEQEND
  5
5F2
330
5EF
100
AcDbEntity
  8
BEMA_U_00DFUNG
 62
     7
  0
POLYLINE
  5
5F3
330
1F
100
AcDbEntity
  8
BEMA_U_00DFUNG
 62
     7
100
AcDb2dPolyline
 66
     1
 10
0.0
 20
0.0
 30
0.0
  0
VERTEX
  5
5F4
330
5F3
100
AcDbEntity
  8
BEMA_U_00DFUNG
 62
     7
100
AcDbVertex
100
AcDb2dVertex
 10
117.5522583039453
 20
237.8488142146262
 30
0.0
  0
VERTEX
  5
5F5
330
5F3
100
AcDbEntity
  8
BEMA_U_00DFUNG
 62
     7
100
AcDbVertex
100
AcDb2dVertex
 10
117.5250944150634
 20
237.8488142146262
 30
0.0
  0
SEQEND
  5
5F6
330
5F3
100
AcDbEntity
  8
BEMA_U_00DFUNG
 62
     7
  0
POLYLINE
  5
5F7
330
1F
100
AcDbEntity
  8
BEMA_U_00DFUNG
 62
     7
100
AcDb2dPolyline
 66
     1
 10
0.0
 20
0.0
 30
0.0
  0
VERTEX
  5
5F8
330
5F7
100
AcDbEntity
  8
BEMA_U_00DFUNG
 62
     7
100
AcDbVertex
100
AcDb2dVertex
 10
117.5522583039453
 20
237.7980142146392
 30
0.0
  0
VERTEX
  5
5F9
330
5F7
100
AcDbEntity
  8
BEMA_U_00DFUNG
 62
     7
100
AcDbVertex
100
AcDb2dVertex
 10
117.1388027484932
 20
237.7980142146392
 30
0.0
  0
SEQEND
  5
5FA
330
5F7
100
AcDbEntity
  8
BEMA_U_00DFUNG
 62
     7
  0
POLYLINE
  5
5FB
330
1F
100
AcDbEntity
  8
BEMA_U_00DFUNG
 62
     7
100
AcDb2dPolyline
 66
     1
 10
0.0
 20
0.0
 30
0.0
  0
VERTEX
  5
5FC
330
5FB
100
AcDbEntity
  8
BEMA_U_00DFUNG
 62
     7
100
AcDbVertex
100
AcDb2dVertex
 10
117.5522583039453
 20
237.7472142146518
 30
0.0
  0
VERTEX
  5
5FD
330
5FB
100
AcDbEntity
  8
BEMA_U_00DFUNG
 62
     7
100
AcDbVertex
100
AcDb2dVertex
 10
116.7528638597008
 20
237.7472142146518
 30
0.0
  0
SEQEND
  5
5FE
330
5FB
100
AcDbEntity
  8
BEMA_U_00DFUNG
 62
     7
  0
POLYLINE
  5
5FF
330
1F
100
AcDbEntity
  8
BEMA_U_00DFUNG
 62
     7
100
AcDb2dPolyline
 66
     1
 10
0.0
 20
0.0
 30
0.0
  0
VERTEX
  5
600
330
5FF
100
AcDbEntity
  8
BEMA_U_00DFUNG
 62
     7
100
AcDbVertex
100
AcDb2dVertex
 10
117.5522583039453
 20
237.6964142146647
 30
0.0
  0
VERTEX
  5
601
330
5FF
100
AcDbEntity
  8
BEMA_U_00DFUNG
 62
     7
100
AcDbVertex
100
AcDb2dVertex
 10
116.3669249709084
 20
237.6964142146647
 30
0.0
  0
SEQEND
  5
602
330
5FF
100
AcDbEntity
  8
BEMA_U_00DFUNG
 62
     7
  0
POLYLINE
  5
603
330
1F
100
AcDbEntity
  8
BEMA_U_00DFUNG
 62
     7
100
AcDb2dPolyline
 66
     1
 10
0.0
 20
0.0
 30
0.0
  0
VERTEX
  5
604
330
603
100
AcDbEntity
  8
BEMA_U_00DFUNG
 62
     7
100
AcDbVertex
100
AcDb2dVertex
 10
117.5522583039453
 20
237.6456142146774
 30
0.0
  0
VERTEX
  5
605
330
603
100
AcDbEntity
  8
BEMA_U_00DFUNG
 62
     7
100
AcDbVertex
100
AcDb2dVertex
 10
115.9816916376715
 20
237.6456142146774
 30
0.0
  0
SEQEND
  5
606
330
603
100
AcDbEntity
  8
BEMA_U_00DFUNG
 62
     7
  0
POLYLINE
  5
607
330
1F
100
AcDbEntity
  8
BEMA_U_00DFUNG
 62
     7
100
AcDb2dPolyline
 66
     1
 10
0.0
 20
0.0
 30
0.0
  0
VERTEX
  5
608
330
607
100
AcDbEntity
  8
BEMA_U_00DFUNG
 62
     7
100
AcDbVertex
100
AcDb2dVertex
 10
117.5522583039453
 20
237.5951669924677
 30
0.0
  0
VERTEX
  5
609
330
607
100
AcDbEntity
  8
BEMA_U_00DFUNG
 62
     7
100
AcDbVertex
100
AcDb2dVertex
 10
115.5953999711013
 20
237.5951669924677
 30
0.0
  0
SEQEND
  5
60A
330
607
100
AcDbEntity
  8
BEMA_U_00DFUNG
 62
     7
  0
POLYLINE
  5
60B
330
1F
100
AcDbEntity
  8
BEMA_U_00DFUNG
 62
     7
100
AcDb2dPolyline
 66
     1
 10
0.0
 20
0.0
 30
0.0
  0
VERTEX
  5
60C
330
60B
100
AcDbEntity
  8
BEMA_U_00DFUNG
 62
     7
100
AcDbVertex
100
AcDb2dVertex
 10
117.5522583039453
 20
237.5443669924803
 30
0.0
  0
VERTEX
  5
60D
330
60B
100
AcDbEntity
  8
BEMA_U_00DFUNG
 62
     7
100
AcDbVertex
100
AcDb2dVertex
 10
115.2094610823089
 20
237.5443669924803
 30
0.0
  0
SEQEND
  5
60E
330
60B
100
AcDbEntity
  8
BEMA_U_00DFUNG
 62
     7
  0
POLYLINE
  5
60F
330
1F
100
AcDbEntity
  8
BEMA_U_00DFUNG
 62
     7
100
AcDb2dPolyline
 66
     1
 10
0.0
 20
0.0
 30
0.0
  0
VERTEX
  5
610
330
60F
100
AcDbEntity
  8
BEMA_U_00DFUNG
 62
     7
100
AcDbVertex
100
AcDb2dVertex
 10
117.5522583039453
 20
237.493566992493
 30
0.0
  0
VERTEX
  5
611
330
60F
100
AcDbEntity
  8
BEMA_U_00DFUNG
 62
     7
100
AcDbVertex
100
AcDb2dVertex
 10
114.8235221935165
 20
237.493566992493
 30
0.0
  0
SEQEND
  5
612
330
60F
100
AcDbEntity
  8
BEMA_U_00DFUNG
 62
     7
  0
POLYLINE
  5
613
330
1F
100
AcDbEntity
  8
BEMA_U_00DFUNG
 62
     7
100
AcDb2dPolyline
 66
     1
 10
0.0
 20
0.0
 30
0.0
  0
VERTEX
  5
614
330
613
100
AcDbEntity
  8
BEMA_U_00DFUNG
 62
     7
100
AcDbVertex
100
AcDb2dVertex
 10
117.5522583039453
 20
237.4427669925056
 30
0.0
  0
VERTEX
  5
615
330
613
100
AcDbEntity
  8
BEMA_U_00DFUNG
 62
     7
100
AcDbVertex
100
AcDb2dVertex
 10
114.4375833047241
 20
237.4427669925056
 30
0.0
  0
SEQEND
  5
616
330
613
100
AcDbEntity
  8
BEMA_U_00DFUNG
 62
     7
  0
POLYLINE
  5
617
330
1F
100
AcDbEntity
  8
BEMA_U_00DFUNG
 62
     7
100
AcDb2dPolyline
 66
     1
 10
0.0
 20
0.0
 30
0.0
  0
VERTEX
  5
618
330
617
100
AcDbEntity
  8
BEMA_U_00DFUNG
 62
     7
100
AcDbVertex
100
AcDb2dVertex
 10
117.5522583039453
 20
237.3919669925182
 30
0.0
  0
VERTEX
  5
619
330
617
100
AcDbEntity
  8
BEMA_U_00DFUNG
 62
     7
100
AcDbVertex
100
AcDb2dVertex
 10
114.0519971937094
 20
237.3919669925182
 30
0.0
  0
SEQEND
  5
61A
330
617
100
AcDbEntity
  8
BEMA_U_00DFUNG
 62
     7
  0
POLYLINE
  5
61B
330
1F
100
AcDbEntity
  8
BEMA_U_00DFUNG
 62
     7
100
AcDb2dPolyline
 66
     1
 10
0.0
 20
0.0
 30
0.0
  0
VERTEX
  5
61C
330
61B
100
AcDbEntity
  8
BEMA_U_00DFUNG
 62
     7
100
AcDbVertex
100
AcDb2dVertex
 10
34.8886638801667
 20
204.8919614450879
 30
0.0
  0
VERTEX
  5
61D
330
61B
100
AcDbEntity
  8
BEMA_U_00DFUNG
 62
     7
100
AcDbVertex
100
AcDb2dVertex
 10
34.8886638801667
 20
239.0824781032068
 30
0.0
  0
SEQEND
  5
61E
330
61B
100
AcDbEntity
  8
BEMA_U_00DFUNG
 62
     7
  0
POLYLINE
  5
61F
330
1F
100
AcDbEntity
  8
BEMA_U_00DFUNG
 62
     7
100
AcDb2dPolyline
 66
     1
 10
0.0
 20
0.0
 30
0.0
  0
VERTEX
  5
620
330
61F
100
AcDbEntity
  8
BEMA_U_00DFUNG
 62
     7
100
AcDbVertex
100
AcDb2dVertex
 10
68.88868053833326
 20
204.8919614450879
 30
0.0
  0
VERTEX
  5
621
330
61F
100
AcDbEntity
  8
BEMA_U_00DFUNG
 62
     7
100
AcDbVertex
100
AcDb2dVertex
 10
68.88868053833326
 20
239.0824781032068
 30
0.0
  0
SEQEND
  5
622
330
61F
100
AcDbEntity
  8
BEMA_U_00DFUNG
 62
     7
  0
POLYLINE
  5
623
330
1F
100
AcDbEntity
  8
BEMA_U_00DFUNG
 62
     7
100
AcDb2dPolyline
 66
     1
 10
0.0
 20
0.0
 30
0.0
  0
VERTEX
  5
624
330
623
100
AcDbEntity
  8
BEMA_U_00DFUNG
 62
     7
100
AcDbVertex
100
AcDb2dVertex
 10
34.8886638801667
 20
237.0825808814843
 30
0.0
  0
VERTEX
  5
625
330
623
100
AcDbEntity
  8
BEMA_U_00DFUNG
 62
     7
100
AcDbVertex
100
AcDb2dVertex
 10
68.88868053833326
 20
237.0825808814843
 30
0.0
  0
SEQEND
  5
626
330
623
100
AcDbEntity
  8
BEMA_U_00DFUNG
 62
     7
  0
POLYLINE
  5
627
330
1F
100
AcDbEntity
  8
BEMA_U_00DFUNG
 62
     7
100
AcDb2dPolyline
 66
     1
 10
0.0
 20
0.0
 30
0.0
  0
VERTEX
  5
628
330
627
100
AcDbEntity
  8
BEMA_U_00DFUNG
 62
     7
100
AcDbVertex
100
AcDb2dVertex
 10
34.8886638801667
 20
237.0825808814843
 30
0.0
  0
VERTEX
  5
629
330
627
100
AcDbEntity
  8
BEMA_U_00DFUNG
 62
     7
100
AcDbVertex
100
AcDb2dVertex
 10
38.38892499040259
 20
236.6222058815996
 30
0.0
  0
VERTEX
  5
62A
330
627
100
AcDbEntity
  8
BEMA_U_00DFUNG
 62
     7
100
AcDbVertex
100
AcDb2dVertex
 10
38.38892499040259
 20
237.5436614369245
 30
0.0
  0
VERTEX
  5
62B
330
627
100
AcDbEntity
  8
BEMA_U_00DFUNG
 62
     7
100
AcDbVertex
100
AcDb2dVertex
 10
34.8886638801667
 20
237.0825808814843
 30
0.0
  0
SEQEND
  5
62C
330
627
100
AcDbEntity
  8
BEMA_U_00DFUNG
 62
     7
  0
POLYLINE
  5
62D
330
1F
100
AcDbEntity
  8
BEMA_U_00DFUNG
 62
     7
100
AcDb2dPolyline
 66
     1
 10
0.0
 20
0.0
 30
0.0
  0
VERTEX
  5
62E
330
62D
100
AcDbEntity
  8
BEMA_U_00DFUNG
 62
     7
100
AcDbVertex
100
AcDb2dVertex
 10
38.38892499040259
 20
236.6257336593766
 30
0.0
  0
VERTEX
  5
62F
330
62D
100
AcDbEntity
  8
BEMA_U_00DFUNG
 62
     7
100
AcDbVertex
100
AcDb2dVertex
 10
38.36176110152074
 20
236.6257336593766
 30
0.0
  0
SEQEND
  5
630
330
62D
100
AcDbEntity
  8
BEMA_U_00DFUNG
 62
     7
  0
POLYLINE
  5
631
330
1F
100
AcDbEntity
  8
BEMA_U_00DFUNG
 62
     7
100
AcDb2dPolyline
 66
     1
 10
0.0
 20
0.0
 30
0.0
  0
VERTEX
  5
632
330
631
100
AcDbEntity
  8
BEMA_U_00DFUNG
 62
     7
100
AcDbVertex
100
AcDb2dVertex
 10
38.38892499040259
 20
236.6257336593766
 30
0.0
  0
VERTEX
  5
633
330
631
100
AcDbEntity
  8
BEMA_U_00DFUNG
 62
     7
100
AcDbVertex
100
AcDb2dVertex
 10
38.36176110152074
 20
236.6257336593766
 30
0.0
  0
SEQEND
  5
634
330
631
100
AcDbEntity
  8
BEMA_U_00DFUNG
 62
     7
  0
POLYLINE
  5
635
330
1F
100
AcDbEntity
  8
BEMA_U_00DFUNG
 62
     7
100
AcDb2dPolyline
 66
     1
 10
0.0
 20
0.0
 30
0.0
  0
VERTEX
  5
636
330
635
100
AcDbEntity
  8
BEMA_U_00DFUNG
 62
     7
100
AcDbVertex
100
AcDb2dVertex
 10
38.38892499040259
 20
236.6765336593637
 30
0.0
  0
VERTEX
  5
637
330
635
100
AcDbEntity
  8
BEMA_U_00DFUNG
 62
     7
100
AcDbVertex
100
AcDb2dVertex
 10
37.97546943495055
 20
236.6765336593637
 30
0.0
  0
SEQEND
  5
638
330
635
100
AcDbEntity
  8
BEMA_U_00DFUNG
 62
     7
  0
POLYLINE
  5
639
330
1F
100
AcDbEntity
  8
BEMA_U_00DFUNG
 62
     7
100
AcDb2dPolyline
 66
     1
 10
0.0
 20
0.0
 30
0.0
  0
VERTEX
  5
63A
330
639
100
AcDbEntity
  8
BEMA_U_00DFUNG
 62
     7
100
AcDbVertex
100
AcDb2dVertex
 10
38.38892499040259
 20
236.7273336593507
 30
0.0
  0
VERTEX
  5
63B
330
639
100
AcDbEntity
  8
BEMA_U_00DFUNG
 62
     7
100
AcDbVertex
100
AcDb2dVertex
 10
37.58953054615813
 20
236.7273336593507
 30
0.0
  0
SEQEND
  5
63C
330
639
100
AcDbEntity
  8
BEMA_U_00DFUNG
 62
     7
  0
POLYLINE
  5
63D
330
1F
100
AcDbEntity
  8
BEMA_U_00DFUNG
 62
     7
100
AcDb2dPolyline
 66
     1
 10
0.0
 20
0.0
 30
0.0
  0
VERTEX
  5
63E
330
63D
100
AcDbEntity
  8
BEMA_U_00DFUNG
 62
     7
100
AcDbVertex
100
AcDb2dVertex
 10
38.38892499040259
 20
236.7781336593381
 30
0.0
  0
VERTEX
  5
63F
330
63D
100
AcDbEntity
  8
BEMA_U_00DFUNG
 62
     7
100
AcDbVertex
100
AcDb2dVertex
 10
37.20429721292123
 20
236.7781336593381
 30
0.0
  0
SEQEND
  5
640
330
63D
100
AcDbEntity
  8
BEMA_U_00DFUNG
 62
     7
  0
POLYLINE
  5
641
330
1F
100
AcDbEntity
  8
BEMA_U_00DFUNG
 62
     7
100
AcDb2dPolyline
 66
     1
 10
0.0
 20
0.0
 30
0.0
  0
VERTEX
  5
642
330
641
100
AcDbEntity
  8
BEMA_U_00DFUNG
 62
     7
100
AcDbVertex
100
AcDb2dVertex
 10
38.38892499040259
 20
236.8289336593255
 30
0.0
  0
VERTEX
  5
643
330
641
100
AcDbEntity
  8
BEMA_U_00DFUNG
 62
     7
100
AcDbVertex
100
AcDb2dVertex
 10
36.81835832412881
 20
236.8289336593255
 30
0.0
  0
SEQEND
  5
644
330
641
100
AcDbEntity
  8
BEMA_U_00DFUNG
 62
     7
  0
POLYLINE
  5
645
330
1F
100
AcDbEntity
  8
BEMA_U_00DFUNG
 62
     7
100
AcDb2dPolyline
 66
     1
 10
0.0
 20
0.0
 30
0.0
  0
VERTEX
  5
646
330
645
100
AcDbEntity
  8
BEMA_U_00DFUNG
 62
     7
100
AcDbVertex
100
AcDb2dVertex
 10
38.38892499040259
 20
236.8793808815351
 30
0.0
  0
VERTEX
  5
647
330
645
100
AcDbEntity
  8
BEMA_U_00DFUNG
 62
     7
100
AcDbVertex
100
AcDb2dVertex
 10
36.43206665755863
 20
236.8793808815351
 30
0.0
  0
SEQEND
  5
648
330
645
100
AcDbEntity
  8
BEMA_U_00DFUNG
 62
     7
  0
POLYLINE
  5
649
330
1F
100
AcDbEntity
  8
BEMA_U_00DFUNG
 62
     7
100
AcDb2dPolyline
 66
     1
 10
0.0
 20
0.0
 30
0.0
  0
VERTEX
  5
64A
330
649
100
AcDbEntity
  8
BEMA_U_00DFUNG
 62
     7
100
AcDbVertex
100
AcDb2dVertex
 10
38.38892499040259
 20
236.9301808815225
 30
0.0
  0
VERTEX
  5
64B
330
649
100
AcDbEntity
  8
BEMA_U_00DFUNG
 62
     7
100
AcDbVertex
100
AcDb2dVertex
 10
36.0461277687662
 20
236.9301808815225
 30
0.0
  0
SEQEND
  5
64C
330
649
100
AcDbEntity
  8
BEMA_U_00DFUNG
 62
     7
  0
POLYLINE
  5
64D
330
1F
100
AcDbEntity
  8
BEMA_U_00DFUNG
 62
     7
100
AcDb2dPolyline
 66
     1
 10
0.0
 20
0.0
 30
0.0
  0
VERTEX
  5
64E
330
64D
100
AcDbEntity
  8
BEMA_U_00DFUNG
 62
     7
100
AcDbVertex
100
AcDb2dVertex
 10
38.38892499040259
 20
236.9809808815099
 30
0.0
  0
VERTEX
  5
64F
330
64D
100
AcDbEntity
  8
BEMA_U_00DFUNG
 62
     7
100
AcDbVertex
100
AcDb2dVertex
 10
35.66054165775154
 20
236.9809808815099
 30
0.0
  0
SEQEND
  5
650
330
64D
100
AcDbEntity
  8
BEMA_U_00DFUNG
 62
     7
  0
POLYLINE
  5
651
330
1F
100
AcDbEntity
  8
BEMA_U_00DFUNG
 62
     7
100
AcDb2dPolyline
 66
     1
 10
0.0
 20
0.0
 30
0.0
  0
VERTEX
  5
652
330
651
100
AcDbEntity
  8
BEMA_U_00DFUNG
 62
     7
100
AcDbVertex
100
AcDb2dVertex
 10
38.38892499040259
 20
237.0317808814972
 30
0.0
  0
VERTEX
  5
653
330
651
100
AcDbEntity
  8
BEMA_U_00DFUNG
 62
     7
100
AcDbVertex
100
AcDb2dVertex
 10
35.27495554673688
 20
237.0317808814972
 30
0.0
  0
SEQEND
  5
654
330
651
100
AcDbEntity
  8
BEMA_U_00DFUNG
 62
     7
  0
POLYLINE
  5
655
330
1F
100
AcDbEntity
  8
BEMA_U_00DFUNG
 62
     7
100
AcDb2dPolyline
 66
     1
 10
0.0
 20
0.0
 30
0.0
  0
VERTEX
  5
656
330
655
100
AcDbEntity
  8
BEMA_U_00DFUNG
 62
     7
100
AcDbVertex
100
AcDb2dVertex
 10
38.38892499040259
 20
237.0825808814843
 30
0.0
  0
VERTEX
  5
657
330
655
100
AcDbEntity
  8
BEMA_U_00DFUNG
 62
     7
100
AcDbVertex
100
AcDb2dVertex
 10
34.8886638801667
 20
237.0825808814843
 30
0.0
  0
SEQEND
  5
658
330
655
100
AcDbEntity
  8
BEMA_U_00DFUNG
 62
     7
  0
POLYLINE
  5
659
330
1F
100
AcDbEntity
  8
BEMA_U_00DFUNG
 62
     7
100
AcDb2dPolyline
 66
     1
 10
0.0
 20
0.0
 30
0.0
  0
VERTEX
  5
65A
330
659
100
AcDbEntity
  8
BEMA_U_00DFUNG
 62
     7
100
AcDbVertex
100
AcDb2dVertex
 10
38.38892499040259
 20
237.5401336591475
 30
0.0
  0
VERTEX
  5
65B
330
659
100
AcDbEntity
  8
BEMA_U_00DFUNG
 62
     7
100
AcDbVertex
100
AcDb2dVertex
 10
38.36176110152074
 20
237.5401336591475
 30
0.0
  0
SEQEND
  5
65C
330
659
100
AcDbEntity
  8
BEMA_U_00DFUNG
 62
     7
  0
POLYLINE
  5
65D
330
1F
100
AcDbEntity
  8
BEMA_U_00DFUNG
 62
     7
100
AcDb2dPolyline
 66
     1
 10
0.0
 20
0.0
 30
0.0
  0
VERTEX
  5
65E
330
65D
100
AcDbEntity
  8
BEMA_U_00DFUNG
 62
     7
100
AcDbVertex
100
AcDb2dVertex
 10
38.38892499040259
 20
237.5401336591475
 30
0.0
  0
VERTEX
  5
65F
330
65D
100
AcDbEntity
  8
BEMA_U_00DFUNG
 62
     7
100
AcDbVertex
100
AcDb2dVertex
 10
38.36176110152074
 20
237.5401336591475
 30
0.0
  0
SEQEND
  5
660
330
65D
100
AcDbEntity
  8
BEMA_U_00DFUNG
 62
     7
  0
POLYLINE
  5
661
330
1F
100
AcDbEntity
  8
BEMA_U_00DFUNG
 62
     7
100
AcDb2dPolyline
 66
     1
 10
0.0
 20
0.0
 30
0.0
  0
VERTEX
  5
662
330
661
100
AcDbEntity
  8
BEMA_U_00DFUNG
 62
     7
100
AcDbVertex
100
AcDb2dVertex
 10
38.38892499040259
 20
237.4893336591605
 30
0.0
  0
VERTEX
  5
663
330
661
100
AcDbEntity
  8
BEMA_U_00DFUNG
 62
     7
100
AcDbVertex
100
AcDb2dVertex
 10
37.97546943495055
 20
237.4893336591605
 30
0.0
  0
SEQEND
  5
664
330
661
100
AcDbEntity
  8
BEMA_U_00DFUNG
 62
     7
  0
POLYLINE
  5
665
330
1F
100
AcDbEntity
  8
BEMA_U_00DFUNG
 62
     7
100
AcDb2dPolyline
 66
     1
 10
0.0
 20
0.0
 30
0.0
  0
VERTEX
  5
666
330
665
100
AcDbEntity
  8
BEMA_U_00DFUNG
 62
     7
100
AcDbVertex
100
AcDb2dVertex
 10
38.38892499040259
 20
237.4385336591731
 30
0.0
  0
VERTEX
  5
667
330
665
100
AcDbEntity
  8
BEMA_U_00DFUNG
 62
     7
100
AcDbVertex
100
AcDb2dVertex
 10
37.58953054615813
 20
237.4385336591731
 30
0.0
  0
SEQEND
  5
668
330
665
100
AcDbEntity
  8
BEMA_U_00DFUNG
 62
     7
  0
POLYLINE
  5
669
330
1F
100
AcDbEntity
  8
BEMA_U_00DFUNG
 62
     7
100
AcDb2dPolyline
 66
     1
 10
0.0
 20
0.0
 30
0.0
  0
VERTEX
  5
66A
330
669
100
AcDbEntity
  8
BEMA_U_00DFUNG
 62
     7
100
AcDbVertex
100
AcDb2dVertex
 10
38.38892499040259
 20
237.387733659186
 30
0.0
  0
VERTEX
  5
66B
330
669
100
AcDbEntity
  8
BEMA_U_00DFUNG
 62
     7
100
AcDbVertex
100
AcDb2dVertex
 10
37.20429721292123
 20
237.387733659186
 30
0.0
  0
SEQEND
  5
66C
330
669
100
AcDbEntity
  8
BEMA_U_00DFUNG
 62
     7
  0
POLYLINE
  5
66D
330
1F
100
AcDbEntity
  8
BEMA_U_00DFUNG
 62
     7
100
AcDb2dPolyline
 66
     1
 10
0.0
 20
0.0
 30
0.0
  0
VERTEX
  5
66E
330
66D
100
AcDbEntity
  8
BEMA_U_00DFUNG
 62
     7
100
AcDbVertex
100
AcDb2dVertex
 10
38.38892499040259
 20
237.3365808814209
 30
0.0
  0
VERTEX
  5
66F
330
66D
100
AcDbEntity
  8
BEMA_U_00DFUNG
 62
     7
100
AcDbVertex
100
AcDb2dVertex
 10
36.81835832412881
 20
237.3365808814209
 30
0.0
  0
SEQEND
  5
670
330
66D
100
AcDbEntity
  8
BEMA_U_00DFUNG
 62
     7
  0
POLYLINE
  5
671
330
1F
100
AcDbEntity
  8
BEMA_U_00DFUNG
 62
     7
100
AcDb2dPolyline
 66
     1
 10
0.0
 20
0.0
 30
0.0
  0
VERTEX
  5
672
330
671
100
AcDbEntity
  8
BEMA_U_00DFUNG
 62
     7
100
AcDbVertex
100
AcDb2dVertex
 10
38.38892499040259
 20
237.2857808814335
 30
0.0
  0
VERTEX
  5
673
330
671
100
AcDbEntity
  8
BEMA_U_00DFUNG
 62
     7
100
AcDbVertex
100
AcDb2dVertex
 10
36.43206665755863
 20
237.2857808814335
 30
0.0
  0
SEQEND
  5
674
330
671
100
AcDbEntity
  8
BEMA_U_00DFUNG
 62
     7
  0
POLYLINE
  5
675
330
1F
100
AcDbEntity
  8
BEMA_U_00DFUNG
 62
     7
100
AcDb2dPolyline
 66
     1
 10
0.0
 20
0.0
 30
0.0
  0
VERTEX
  5
676
330
675
100
AcDbEntity
  8
BEMA_U_00DFUNG
 62
     7
100
AcDbVertex
100
AcDb2dVertex
 10
38.38892499040259
 20
237.2349808814461
 30
0.0
  0
VERTEX
  5
677
330
675
100
AcDbEntity
  8
BEMA_U_00DFUNG
 62
     7
100
AcDbVertex
100
AcDb2dVertex
 10
36.0461277687662
 20
237.2349808814461
 30
0.0
  0
SEQEND
  5
678
330
675
100
AcDbEntity
  8
BEMA_U_00DFUNG
 62
     7
  0
POLYLINE
  5
679
330
1F
100
AcDbEntity
  8
BEMA_U_00DFUNG
 62
     7
100
AcDb2dPolyline
 66
     1
 10
0.0
 20
0.0
 30
0.0
  0
VERTEX
  5
67A
330
679
100
AcDbEntity
  8
BEMA_U_00DFUNG
 62
     7
100
AcDbVertex
100
AcDb2dVertex
 10
38.38892499040259
 20
237.1841808814587
 30
0.0
  0
VERTEX
  5
67B
330
679
100
AcDbEntity
  8
BEMA_U_00DFUNG
 62
     7
100
AcDbVertex
100
AcDb2dVertex
 10
35.66054165775154
 20
237.1841808814587
 30
0.0
  0
SEQEND
  5
67C
330
679
100
AcDbEntity
  8
BEMA_U_00DFUNG
 62
     7
  0
POLYLINE
  5
67D
330
1F
100
AcDbEntity
  8
BEMA_U_00DFUNG
 62
     7
100
AcDb2dPolyline
 66
     1
 10
0.0
 20
0.0
 30
0.0
  0
VERTEX
  5
67E
330
67D
100
AcDbEntity
  8
BEMA_U_00DFUNG
 62
     7
100
AcDbVertex
100
AcDb2dVertex
 10
38.38892499040259
 20
237.1333808814717
 30
0.0
  0
VERTEX
  5
67F
330
67D
100
AcDbEntity
  8
BEMA_U_00DFUNG
 62
     7
100
AcDbVertex
100
AcDb2dVertex
 10
35.27495554673688
 20
237.1333808814717
 30
0.0
  0
SEQEND
  5
680
330
67D
100
AcDbEntity
  8
BEMA_U_00DFUNG
 62
     7
  0
POLYLINE
  5
681
330
1F
100
AcDbEntity
  8
BEMA_U_00DFUNG
 62
     7
100
AcDb2dPolyline
 66
     1
 10
0.0
 20
0.0
 30
0.0
  0
VERTEX
  5
682
330
681
100
AcDbEntity
  8
BEMA_U_00DFUNG
 62
     7
100
AcDbVertex
100
AcDb2dVertex
 10
38.38892499040259
 20
237.0825808814843
 30
0.0
  0
VERTEX
  5
683
330
681
100
AcDbEntity
  8
BEMA_U_00DFUNG
 62
     7
100
AcDbVertex
100
AcDb2dVertex
 10
34.8886638801667
 20
237.0825808814843
 30
0.0
  0
SEQEND
  5
684
330
681
100
AcDbEntity
  8
BEMA_U_00DFUNG
 62
     7
  0
POLYLINE
  5
685
330
1F
100
AcDbEntity
  8
BEMA_U_00DFUNG
 62
     7
100
AcDb2dPolyline
 66
     1
 10
0.0
 20
0.0
 30
0.0
  0
VERTEX
  5
686
330
685
100
AcDbEntity
  8
BEMA_U_00DFUNG
 62
     7
100
AcDbVertex
100
AcDb2dVertex
 10
68.88868053833326
 20
237.0825808814843
 30
0.0
  0
VERTEX
  5
687
330
685
100
AcDbEntity
  8
BEMA_U_00DFUNG
 62
     7
100
AcDbVertex
100
AcDb2dVertex
 10
65.38912498365256
 20
237.5436614369245
 30
0.0
  0
VERTEX
  5
688
330
685
100
AcDbEntity
  8
BEMA_U_00DFUNG
 62
     7
100
AcDbVertex
100
AcDb2dVertex
 10
65.38912498365256
 20
236.6222058815996
 30
0.0
  0
VERTEX
  5
689
330
685
100
AcDbEntity
  8
BEMA_U_00DFUNG
 62
     7
100
AcDbVertex
100
AcDb2dVertex
 10
68.88868053833326
 20
237.0825808814843
 30
0.0
  0
SEQEND
  5
68A
330
685
100
AcDbEntity
  8
BEMA_U_00DFUNG
 62
     7
  0
POLYLINE
  5
68B
330
1F
100
AcDbEntity
  8
BEMA_U_00DFUNG
 62
     7
100
AcDb2dPolyline
 66
     1
 10
0.0
 20
0.0
 30
0.0
  0
VERTEX
  5
68C
330
68B
100
AcDbEntity
  8
BEMA_U_00DFUNG
 62
     7
100
AcDbVertex
100
AcDb2dVertex
 10
65.38912498365256
 20
237.5401336591475
 30
0.0
  0
VERTEX
  5
68D
330
68B
100
AcDbEntity
  8
BEMA_U_00DFUNG
 62
     7
100
AcDbVertex
100
AcDb2dVertex
 10
65.41628887253475
 20
237.5401336591475
 30
0.0
  0
SEQEND
  5
68E
330
68B
100
AcDbEntity
  8
BEMA_U_00DFUNG
 62
     7
  0
POLYLINE
  5
68F
330
1F
100
AcDbEntity
  8
BEMA_U_00DFUNG
 62
     7
100
AcDb2dPolyline
 66
     1
 10
0.0
 20
0.0
 30
0.0
  0
VERTEX
  5
690
330
68F
100
AcDbEntity
  8
BEMA_U_00DFUNG
 62
     7
100
AcDbVertex
100
AcDb2dVertex
 10
65.38912498365256
 20
237.5401336591475
 30
0.0
  0
VERTEX
  5
691
330
68F
100
AcDbEntity
  8
BEMA_U_00DFUNG
 62
     7
100
AcDbVertex
100
AcDb2dVertex
 10
65.41628887253475
 20
237.5401336591475
 30
0.0
  0
SEQEND
  5
692
330
68F
100
AcDbEntity
  8
BEMA_U_00DFUNG
 62
     7
  0
POLYLINE
  5
693
330
1F
100
AcDbEntity
  8
BEMA_U_00DFUNG
 62
     7
100
AcDb2dPolyline
 66
     1
 10
0.0
 20
0.0
 30
0.0
  0
VERTEX
  5
694
330
693
100
AcDbEntity
  8
BEMA_U_00DFUNG
 62
     7
100
AcDbVertex
100
AcDb2dVertex
 10
65.38912498365256
 20
237.4893336591605
 30
0.0
  0
VERTEX
  5
695
330
693
100
AcDbEntity
  8
BEMA_U_00DFUNG
 62
     7
100
AcDbVertex
100
AcDb2dVertex
 10
65.80187498354941
 20
237.4893336591605
 30
0.0
  0
SEQEND
  5
696
330
693
100
AcDbEntity
  8
BEMA_U_00DFUNG
 62
     7
  0
POLYLINE
  5
697
330
1F
100
AcDbEntity
  8
BEMA_U_00DFUNG
 62
     7
100
AcDb2dPolyline
 66
     1
 10
0.0
 20
0.0
 30
0.0
  0
VERTEX
  5
698
330
697
100
AcDbEntity
  8
BEMA_U_00DFUNG
 62
     7
100
AcDbVertex
100
AcDb2dVertex
 10
65.38912498365256
 20
237.4385336591731
 30
0.0
  0
VERTEX
  5
699
330
697
100
AcDbEntity
  8
BEMA_U_00DFUNG
 62
     7
100
AcDbVertex
100
AcDb2dVertex
 10
66.18746109456407
 20
237.4385336591731
 30
0.0
  0
SEQEND
  5
69A
330
697
100
AcDbEntity
  8
BEMA_U_00DFUNG
 62
     7
  0
POLYLINE
  5
69B
330
1F
100
AcDbEntity
  8
BEMA_U_00DFUNG
 62
     7
100
AcDb2dPolyline
 66
     1
 10
0.0
 20
0.0
 30
0.0
  0
VERTEX
  5
69C
330
69B
100
AcDbEntity
  8
BEMA_U_00DFUNG
 62
     7
100
AcDbVertex
100
AcDb2dVertex
 10
65.38912498365256
 20
237.387733659186
 30
0.0
  0
VERTEX
  5
69D
330
69B
100
AcDbEntity
  8
BEMA_U_00DFUNG
 62
     7
100
AcDbVertex
100
AcDb2dVertex
 10
66.5733999833565
 20
237.387733659186
 30
0.0
  0
SEQEND
  5
69E
330
69B
100
AcDbEntity
  8
BEMA_U_00DFUNG
 62
     7
  0
POLYLINE
  5
69F
330
1F
100
AcDbEntity
  8
BEMA_U_00DFUNG
 62
     7
100
AcDb2dPolyline
 66
     1
 10
0.0
 20
0.0
 30
0.0
  0
VERTEX
  5
6A0
330
69F
100
AcDbEntity
  8
BEMA_U_00DFUNG
 62
     7
100
AcDbVertex
100
AcDb2dVertex
 10
65.38912498365256
 20
237.3365808814209
 30
0.0
  0
VERTEX
  5
6A1
330
69F
100
AcDbEntity
  8
BEMA_U_00DFUNG
 62
     7
100
AcDbVertex
100
AcDb2dVertex
 10
66.9593388721489
 20
237.3365808814209
 30
0.0
  0
SEQEND
  5
6A2
330
69F
100
AcDbEntity
  8
BEMA_U_00DFUNG
 62
     7
  0
POLYLINE
  5
6A3
330
1F
100
AcDbEntity
  8
BEMA_U_00DFUNG
 62
     7
100
AcDb2dPolyline
 66
     1
 10
0.0
 20
0.0
 30
0.0
  0
VERTEX
  5
6A4
330
6A3
100
AcDbEntity
  8
BEMA_U_00DFUNG
 62
     7
100
AcDbVertex
100
AcDb2dVertex
 10
65.38912498365256
 20
237.2857808814335
 30
0.0
  0
VERTEX
  5
6A5
330
6A3
100
AcDbEntity
  8
BEMA_U_00DFUNG
 62
     7
100
AcDbVertex
100
AcDb2dVertex
 10
67.34527776094133
 20
237.2857808814335
 30
0.0
  0
SEQEND
  5
6A6
330
6A3
100
AcDbEntity
  8
BEMA_U_00DFUNG
 62
     7
  0
POLYLINE
  5
6A7
330
1F
100
AcDbEntity
  8
BEMA_U_00DFUNG
 62
     7
100
AcDb2dPolyline
 66
     1
 10
0.0
 20
0.0
 30
0.0
  0
VERTEX
  5
6A8
330
6A7
100
AcDbEntity
  8
BEMA_U_00DFUNG
 62
     7
100
AcDbVertex
100
AcDb2dVertex
 10
65.38912498365256
 20
237.2349808814461
 30
0.0
  0
VERTEX
  5
6A9
330
6A7
100
AcDbEntity
  8
BEMA_U_00DFUNG
 62
     7
100
AcDbVertex
100
AcDb2dVertex
 10
67.73086387195599
 20
237.2349808814461
 30
0.0
  0
SEQEND
  5
6AA
330
6A7
100
AcDbEntity
  8
BEMA_U_00DFUNG
 62
     7
  0
POLYLINE
  5
6AB
330
1F
100
AcDbEntity
  8
BEMA_U_00DFUNG
 62
     7
100
AcDb2dPolyline
 66
     1
 10
0.0
 20
0.0
 30
0.0
  0
VERTEX
  5
6AC
330
6AB
100
AcDbEntity
  8
BEMA_U_00DFUNG
 62
     7
100
AcDbVertex
100
AcDb2dVertex
 10
65.38912498365256
 20
237.1841808814587
 30
0.0
  0
VERTEX
  5
6AD
330
6AB
100
AcDbEntity
  8
BEMA_U_00DFUNG
 62
     7
100
AcDbVertex
100
AcDb2dVertex
 10
68.11680276074841
 20
237.1841808814587
 30
0.0
  0
SEQEND
  5
6AE
330
6AB
100
AcDbEntity
  8
BEMA_U_00DFUNG
 62
     7
  0
POLYLINE
  5
6AF
330
1F
100
AcDbEntity
  8
BEMA_U_00DFUNG
 62
     7
100
AcDb2dPolyline
 66
     1
 10
0.0
 20
0.0
 30
0.0
  0
VERTEX
  5
6B0
330
6AF
100
AcDbEntity
  8
BEMA_U_00DFUNG
 62
     7
100
AcDbVertex
100
AcDb2dVertex
 10
65.38912498365256
 20
237.1333808814717
 30
0.0
  0
VERTEX
  5
6B1
330
6AF
100
AcDbEntity
  8
BEMA_U_00DFUNG
 62
     7
100
AcDbVertex
100
AcDb2dVertex
 10
68.50274164954084
 20
237.1333808814717
 30
0.0
  0
SEQEND
  5
6B2
330
6AF
100
AcDbEntity
  8
BEMA_U_00DFUNG
 62
     7
  0
POLYLINE
  5
6B3
330
1F
100
AcDbEntity
  8
BEMA_U_00DFUNG
 62
     7
100
AcDb2dPolyline
 66
     1
 10
0.0
 20
0.0
 30
0.0
  0
VERTEX
  5
6B4
330
6B3
100
AcDbEntity
  8
BEMA_U_00DFUNG
 62
     7
100
AcDbVertex
100
AcDb2dVertex
 10
65.38912498365256
 20
237.0825808814843
 30
0.0
  0
VERTEX
  5
6B5
330
6B3
100
AcDbEntity
  8
BEMA_U_00DFUNG
 62
     7
100
AcDbVertex
100
AcDb2dVertex
 10
68.88868053833326
 20
237.0825808814843
 30
0.0
  0
SEQEND
  5
6B6
330
6B3
100
AcDbEntity
  8
BEMA_U_00DFUNG
 62
     7
  0
POLYLINE
  5
6B7
330
1F
100
AcDbEntity
  8
BEMA_U_00DFUNG
 62
     7
100
AcDb2dPolyline
 66
     1
 10
0.0
 20
0.0
 30
0.0
  0
VERTEX
  5
6B8
330
6B7
100
AcDbEntity
  8
BEMA_U_00DFUNG
 62
     7
100
AcDbVertex
100
AcDb2dVertex
 10
65.38912498365256
 20
236.6257336593766
 30
0.0
  0
VERTEX
  5
6B9
330
6B7
100
AcDbEntity
  8
BEMA_U_00DFUNG
 62
     7
100
AcDbVertex
100
AcDb2dVertex
 10
65.41628887253475
 20
236.6257336593766
 30
0.0
  0
SEQEND
  5
6BA
330
6B7
100
AcDbEntity
  8
BEMA_U_00DFUNG
 62
     7
  0
POLYLINE
  5
6BB
330
1F
100
AcDbEntity
  8
BEMA_U_00DFUNG
 62
     7
100
AcDb2dPolyline
 66
     1
 10
0.0
 20
0.0
 30
0.0
  0
VERTEX
  5
6BC
330
6BB
100
AcDbEntity
  8
BEMA_U_00DFUNG
 62
     7
100
AcDbVertex
100
AcDb2dVertex
 10
65.38912498365256
 20
236.6257336593766
 30
0.0
  0
VERTEX
  5
6BD
330
6BB
100
AcDbEntity
  8
BEMA_U_00DFUNG
 62
     7
100
AcDbVertex
100
AcDb2dVertex
 10
65.41628887253475
 20
236.6257336593766
 30
0.0
  0
SEQEND
  5
6BE
330
6BB
100
AcDbEntity
  8
BEMA_U_00DFUNG
 62
     7
  0
POLYLINE
  5
6BF
330
1F
100
AcDbEntity
  8
BEMA_U_00DFUNG
 62
     7
100
AcDb2dPolyline
 66
     1
 10
0.0
 20
0.0
 30
0.0
  0
VERTEX
  5
6C0
330
6BF
100
AcDbEntity
  8
BEMA_U_00DFUNG
 62
     7
100
AcDbVertex
100
AcDb2dVertex
 10
65.38912498365256
 20
236.6765336593637
 30
0.0
  0
VERTEX
  5
6C1
330
6BF
100
AcDbEntity
  8
BEMA_U_00DFUNG
 62
     7
100
AcDbVertex
100
AcDb2dVertex
 10
65.80187498354941
 20
236.6765336593637
 30
0.0
  0
SEQEND
  5
6C2
330
6BF
100
AcDbEntity
  8
BEMA_U_00DFUNG
 62
     7
  0
POLYLINE
  5
6C3
330
1F
100
AcDbEntity
  8
BEMA_U_00DFUNG
 62
     7
100
AcDb2dPolyline
 66
     1
 10
0.0
 20
0.0
 30
0.0
  0
VERTEX
  5
6C4
330
6C3
100
AcDbEntity
  8
BEMA_U_00DFUNG
 62
     7
100
AcDbVertex
100
AcDb2dVertex
 10
65.38912498365256
 20
236.7273336593507
 30
0.0
  0
VERTEX
  5
6C5
330
6C3
100
AcDbEntity
  8
BEMA_U_00DFUNG
 62
     7
100
AcDbVertex
100
AcDb2dVertex
 10
66.18746109456407
 20
236.7273336593507
 30
0.0
  0
SEQEND
  5
6C6
330
6C3
100
AcDbEntity
  8
BEMA_U_00DFUNG
 62
     7
  0
POLYLINE
  5
6C7
330
1F
100
AcDbEntity
  8
BEMA_U_00DFUNG
 62
     7
100
AcDb2dPolyline
 66
     1
 10
0.0
 20
0.0
 30
0.0
  0
VERTEX
  5
6C8
330
6C7
100
AcDbEntity
  8
BEMA_U_00DFUNG
 62
     7
100
AcDbVertex
100
AcDb2dVertex
 10
65.38912498365256
 20
236.7781336593381
 30
0.0
  0
VERTEX
  5
6C9
330
6C7
100
AcDbEntity
  8
BEMA_U_00DFUNG
 62
     7
100
AcDbVertex
100
AcDb2dVertex
 10
66.5733999833565
 20
236.7781336593381
 30
0.0
  0
SEQEND
  5
6CA
330
6C7
100
AcDbEntity
  8
BEMA_U_00DFUNG
 62
     7
  0
POLYLINE
  5
6CB
330
1F
100
AcDbEntity
  8
BEMA_U_00DFUNG
 62
     7
100
AcDb2dPolyline
 66
     1
 10
0.0
 20
0.0
 30
0.0
  0
VERTEX
  5
6CC
330
6CB
100
AcDbEntity
  8
BEMA_U_00DFUNG
 62
     7
100
AcDbVertex
100
AcDb2dVertex
 10
65.38912498365256
 20
236.8289336593255
 30
0.0
  0
VERTEX
  5
6CD
330
6CB
100
AcDbEntity
  8
BEMA_U_00DFUNG
 62
     7
100
AcDbVertex
100
AcDb2dVertex
 10
66.9593388721489
 20
236.8289336593255
 30
0.0
  0
SEQEND
  5
6CE
330
6CB
100
AcDbEntity
  8
BEMA_U_00DFUNG
 62
     7
  0
POLYLINE
  5
6CF
330
1F
100
AcDbEntity
  8
BEMA_U_00DFUNG
 62
     7
100
AcDb2dPolyline
 66
     1
 10
0.0
 20
0.0
 30
0.0
  0
VERTEX
  5
6D0
330
6CF
100
AcDbEntity
  8
BEMA_U_00DFUNG
 62
     7
100
AcDbVertex
100
AcDb2dVertex
 10
65.38912498365256
 20
236.8793808815351
 30
0.0
  0
VERTEX
  5
6D1
330
6CF
100
AcDbEntity
  8
BEMA_U_00DFUNG
 62
     7
100
AcDbVertex
100
AcDb2dVertex
 10
67.34527776094133
 20
236.8793808815351
 30
0.0
  0
SEQEND
  5
6D2
330
6CF
100
AcDbEntity
  8
BEMA_U_00DFUNG
 62
     7
  0
POLYLINE
  5
6D3
330
1F
100
AcDbEntity
  8
BEMA_U_00DFUNG
 62
     7
100
AcDb2dPolyline
 66
     1
 10
0.0
 20
0.0
 30
0.0
  0
VERTEX
  5
6D4
330
6D3
100
AcDbEntity
  8
BEMA_U_00DFUNG
 62
     7
100
AcDbVertex
100
AcDb2dVertex
 10
65.38912498365256
 20
236.9301808815225
 30
0.0
  0
VERTEX
  5
6D5
330
6D3
100
AcDbEntity
  8
BEMA_U_00DFUNG
 62
     7
100
AcDbVertex
100
AcDb2dVertex
 10
67.73086387195599
 20
236.9301808815225
 30
0.0
  0
SEQEND
  5
6D6
330
6D3
100
AcDbEntity
  8
BEMA_U_00DFUNG
 62
     7
  0
POLYLINE
  5
6D7
330
1F
100
AcDbEntity
  8
BEMA_U_00DFUNG
 62
     7
100
AcDb2dPolyline
 66
     1
 10
0.0
 20
0.0
 30
0.0
  0
VERTEX
  5
6D8
330
6D7
100
AcDbEntity
  8
BEMA_U_00DFUNG
 62
     7
100
AcDbVertex
100
AcDb2dVertex
 10
65.38912498365256
 20
236.9809808815099
 30
0.0
  0
VERTEX
  5
6D9
330
6D7
100
AcDbEntity
  8
BEMA_U_00DFUNG
 62
     7
100
AcDbVertex
100
AcDb2dVertex
 10
68.11680276074841
 20
236.9809808815099
 30
0.0
  0
SEQEND
  5
6DA
330
6D7
100
AcDbEntity
  8
BEMA_U_00DFUNG
 62
     7
  0
POLYLINE
  5
6DB
330
1F
100
AcDbEntity
  8
BEMA_U_00DFUNG
 62
     7
100
AcDb2dPolyline
 66
     1
 10
0.0
 20
0.0
 30
0.0
  0
VERTEX
  5
6DC
330
6DB
100
AcDbEntity
  8
BEMA_U_00DFUNG
 62
     7
100
AcDbVertex
100
AcDb2dVertex
 10
65.38912498365256
 20
237.0317808814972
 30
0.0
  0
VERTEX
  5
6DD
330
6DB
100
AcDbEntity
  8
BEMA_U_00DFUNG
 62
     7
100
AcDbVertex
100
AcDb2dVertex
 10
68.50274164954084
 20
237.0317808814972
 30
0.0
  0
SEQEND
  5
6DE
330
6DB
100
AcDbEntity
  8
BEMA_U_00DFUNG
 62
     7
  0
POLYLINE
  5
6DF
330
1F
100
AcDbEntity
  8
BEMA_U_00DFUNG
 62
     7
100
AcDb2dPolyline
 66
     1
 10
0.0
 20
0.0
 30
0.0
  0
VERTEX
  5
6E0
330
6DF
100
AcDbEntity
  8
BEMA_U_00DFUNG
 62
     7
100
AcDbVertex
100
AcDb2dVertex
 10
65.38912498365256
 20
237.0825808814843
 30
0.0
  0
VERTEX
  5
6E1
330
6DF
100
AcDbEntity
  8
BEMA_U_00DFUNG
 62
     7
100
AcDbVertex
100
AcDb2dVertex
 10
68.88868053833326
 20
237.0825808814843
 30
0.0
  0
SEQEND
  5
6E2
330
6DF
100
AcDbEntity
  8
BEMA_U_00DFUNG
 62
     7
  0
MTEXT
  5
6E4
330
1F
100
AcDbEntity
  8
TEXT
 62
     7
100
AcDbMText
 10
103.2988680687255
 20
195.4053960523585
 30
0.0
 40
3.447529173370601
 41
0.0
 71
     7
 72
     1
  1
\fINDEX Univers 45 Light|b0|i0|c0|p34;\W1;M22x1,5
 11
6.123233995736766E-17
 21
1.0
 31
0.0
  0
MTEXT
  5
6E5
330
1F
100
AcDbEntity
  8
TEXT
 62
     7
100
AcDbMText
 10
121.4753344973886
 20
238.0971377307318
 30
0.0
 40
3.447529173370601
 41
0.0
 71
     7
 72
     1
  1
\fINDEX Univers 45 Light|b0|i0|c0|p34;\W1;24,5
  0
MTEXT
  5
6E6
330
1F
100
AcDbEntity
  8
TEXT
 62
     7
100
AcDbMText
 10
48.5265007321582
 20
237.7373028902591
 30
0.0
 40
3.447529173370601
 41
0.0
 71
     7
 72
     1
  1
\fINDEX Univers 45 Light|b0|i0|c0|p34;\W1;ø34
  0
ENDSEC
  0
SECTION
  2
OBJECTS
  0
DICTIONARY
  5
C
330
0
100
AcDbDictionary
  3
ACAD_GROUP
350
D
  3
ACAD_LAYOUT
350
1A
  3
ACAD_MATERIAL
350
3B
  3
ACAD_MLEADERSTYLE
350
709
  3
ACAD_MLINESTYLE
350
17
  3
ACAD_PLOTSETTINGS
350
19
  3
ACAD_VISUALSTYLE
350
2A
  3
ACDBHEADERROUNDTRIPXREC
350
6E7
  3
ACDBVARIABLEDICTIONARY
350
707
  0
DICTIONARY
  5
D
102
{ACAD_REACTORS
330
C
102
}
330
C
100
AcDbDictionary
  0
DICTIONARY
  5
1A
102
{ACAD_REACTORS
330
C
102
}
330
C
100
AcDbDictionary
  0
DICTIONARY
  5
3B
102
{ACAD_REACTORS
330
C
102
}
330
C
100
AcDbDictionary
  3
BYBLOCK
350
3D
  3
BYLAYER
350
3C
  3
GLOBAL
350
3E
  0
DICTIONARY
  5
709
102
{ACAD_REACTORS
330
C
102
}
330
C
100
AcDbDictionary
  0
DICTIONARY
  5
17
102
{ACAD_REACTORS
330
C
102
}
330
C
100
AcDbDictionary
  3
STANDARD
350
18
  0
DICTIONARY
  5
19
102
{ACAD_REACTORS
330
C
102
}
330
C
100
AcDbDictionary
  0
DICTIONARY
  5
2A
102
{ACAD_REACTORS
330
C
102
}
330
C
100
AcDbDictionary
  3
2DWIREFRAME
350
2F
  3
3D_HIDDEN
350
31
  3
3DWIREFRAME
350
30
  3
BASIC
350
32
  3
BRIGHTEN
350
36
  3
COLORCHANGE
350
3A
  3
CONCEPTUAL
350
34
  3
DIM
350
35
  3
FACEPATTERN
350
39
  3
FLAT
350
2B
  3
FLATWITHEDGES
350
2C
  3
GOURAUD
350
2D
  3
GOURAUDWITHEDGES
350
2E
  3
LINEPATTERN
350
38
  3
REALISTIC
350
33
  3
THICKEN
350
37
  0
DICTIONARY
  5
6E7
102
{ACAD_REACTORS
330
C
102
}
330
C
100
AcDbDictionary
  3
CEPSNTYPE
350
6F0
  3
DIMSTYLEDATA
350
706
  3
FINGERPRINTGUID
350
6F1
  3
HYPERLINKBASE
350
6EA
  3
INSUNITS
350
6EF
  3
LAYOUTDICT
350
6EC
  3
LWETCUNION
350
6EE
  3
PLOTSETDICT
350
6ED
  3
PSVPSCALE
350
6F3
  3
PUCSBASE
350
6F6
  3
PUCSORGBACK
350
6FC
  3
PUCSORGBOTTOM
350
6F8
  3
PUCSORGFRONT
350
6FB
  3
PUCSORGLEFT
350
6F9
  3
PUCSORGRIGHT
350
6FA
  3
PUCSORGTOP
350
6F7
  3
PUCSORTHOREF
350
6F4
  3
PUCSORTHOVIEW
350
6F5
  3
STYLESHEET
350
6EB
  3
TSTACKALIGN
350
6E8
  3
TSTACKSIZE
350
6E9
  3
UCSBASE
350
6FF
  3
UCSORGBACK
350
705
  3
UCSORGBOTTOM
350
701
  3
UCSORGFRONT
350
704
  3
UCSORGLEFT
350
702
  3
UCSORGRIGHT
350
703
  3
UCSORGTOP
350
700
  3
UCSORTHOREF
350
6FD
  3
UCSORTHOVIEW
350
6FE
  3
VERSIONGUID
350
6F2
  0
DICTIONARY
  5
707
102
{ACAD_REACTORS
330
C
102
}
330
C
100
AcDbDictionary
  3
DIMASSOC
350
70A
  3
HIDETEXT
350
70B
  0
MATERIAL
  5
3D
102
{ACAD_REACTORS
330
3B
102
}
102
{ACAD_XDICTIONARY
360
70E
102
}
330
3B
100
AcDbMaterial
  1
ByBlock
  0
MATERIAL
  5
3C
102
{ACAD_REACTORS
330
3B
102
}
102
{ACAD_XDICTIONARY
360
70C
102
}
330
3B
100
AcDbMaterial
  1
ByLayer
  0
MATERIAL
  5
3E
102
{ACAD_REACTORS
330
3B
102
}
102
{ACAD_XDICTIONARY
360
710
102
}
330
3B
100
AcDbMaterial
  1
Global
  0
MLINESTYLE
  5
18
102
{ACAD_REACTORS
330
17
102
}
330
17
100
AcDbMlineStyle
  2
Standard
 70
     0
  3

 62
   256
 51
90.0
 52
90.0
 71
     2
 49
0.5
 62
   256
  6
BYLAYER
 49
-0.5
 62
   256
  6
BYLAYER
  0
ACAD_PROXY_OBJECT
  5
2F
102
{ACAD_REACTORS
330
2A
102
}
330
2A
100
AcDbProxyObject
 90
      499
 91
      501
 93
      436
310
42CC9915DA5C99599C985B595049028333333333333E3BF0000000000000FB0107901411070040501600405405064090741402480A0340
1001
ACAD
1000
AcDbSavedByObjectVersion
1070
     0
  0
ACAD_PROXY_OBJECT
  5
31
102
{ACAD_REACTORS
330
2A
102
}
330
2A
100
AcDbProxyObject
 90
      499
 91
      501
 93
      500
310
424CD108121A5919195B90640502408333333333333E3BF0000000000000FB01079024090700405020000000000001110200405405064090740C02480A0340
1001
ACAD
1000
AcDbSavedByObjectVersion
1070
     0
  0
ACAD_PROXY_OBJECT
  5
30
102
{ACAD_REACTORS
330
2A
102
}
330
2A
100
AcDbProxyObject
 90
      499
 91
      501
 93
      436
310
42CCD915DA5C99599C985B595059028333333333333E3BF0000000000000FB0107901411070040501600405405064090741402480A0340
1001
ACAD
1000
AcDbSavedByObjectVersion
1070
     0
  0
ACAD_PROXY_OBJECT
  5
32
102
{ACAD_REACTORS
330
2A
102
}
330
2A
100
AcDbProxyObject
 90
      499
 91
      501
 93
      388
310
4150985CDA58D07406404333333333333E3BF0000000000000FB0107A41107004050150841D405064090741402480A0350
1001
ACAD
1000
AcDbSavedByObjectVersion
1070
     0
  0
ACAD_PROXY_OBJECT
  5
36
102
{ACAD_REACTORS
330
2A
102
}
330
2A
100
AcDbProxyObject
 90
      499
 91
      501
 93
      428
310
42109C9A59DA1D195B90C409028333333333333E3BF0000000000000FB010790141107004050150841D405064090741402480A029950
1001
ACAD
1000
AcDbSavedByObjectVersion
1070
     0
  0
ACAD_PROXY_OBJECT
  5
3A
102
{ACAD_REACTORS
330
2A
102
}
330
2A
100
AcDbProxyObject
 90
      499
 91
      501
 93
      452
310
42D0DBDB1BDC90DA185B99D95104090240C333333333333E3BF0000000000000FB0108901411070040501508421405064090741402480A0350
1001
ACAD
1000
AcDbSavedByObjectVersion
1070
     0
  0
ACAD_PROXY_OBJECT
  5
34
102
{ACAD_REACTORS
330
2A
102
}
330
2A
100
AcDbProxyObject
 90
      499
 91
      501
 93
      500
310
4290DBDB98D95C1D1D585B10940D028333333333333E3BF0000000000000FB0107902409070040501000000000000111010841D405064090740C02480A0340
1001
ACAD
1000
AcDbSavedByObjectVersion
1070
     0
  0
ACAD_PROXY_OBJECT
  5
35
102
{ACAD_REACTORS
330
2A
102
}
330
2A
100
AcDbProxyObject
 90
      499
 91
      501
 93
      412
310
40D11A5B50B409028333333333333E3BF0000000000000FB010790141107004050150841D405064090741402480A02677FFFFFD0
1001
ACAD
1000
AcDbSavedByObjectVersion
1070
     0
  0
ACAD_PROXY_OBJECT
  5
39
102
{ACAD_REACTORS
330
2A
102
}
330
2A
100
AcDbProxyObject
 90
      499
 91
      501
 93
      444
310
42D19858D95C185D1D195C9B90F409028333333333333E3BF0000000000000FB010790141107004050150841D405064090741402480A0350
1001
ACAD
1000
AcDbSavedByObjectVersion
1070
     0
  0
ACAD_PROXY_OBJECT
  5
2B
102
{ACAD_REACTORS
330
2A
102
}
330
2A
100
AcDbProxyObject
 90
      499
 91
      501
 93
      388
310
41119B185D240901404333333333333E3BF0000000000000F9010740A41107004050150841D405064090741402480A1B50
1001
ACAD
1000
AcDbSavedByObjectVersion
1070
     0
  0
ACAD_PROXY_OBJECT
  5
2C
102
{ACAD_REACTORS
330
2A
102
}
330
2A
100
AcDbProxyObject
 90
      499
 91
      501
 93
      476
310
43519B185D15DA5D1A115919D95CD0140901404333333333333E3BF0000000000000F9010740901411070040501600405405064090741402480A1B50
1001
ACAD
1000
AcDbSavedByObjectVersion
1070
     0
  0
ACAD_PROXY_OBJECT
  5
2D
102
{ACAD_REACTORS
330
2A
102
}
330
2A
100
AcDbProxyObject
 90
      499
 91
      501
 93
      412
310
41D1DBDD5C985D5910240902404333333333333E3BF0000000000000F9010740A411070040501641D405064090741402480A1B50
1001
ACAD
1000
AcDbSavedByObjectVersion
1070
     0
  0
ACAD_PROXY_OBJECT
  5
2E
102
{ACAD_REACTORS
330
2A
102
}
330
2A
100
AcDbProxyObject
 90
      499
 91
      501
 93
      500
310
4411DBDD5C985D5915DA5D1A115919D95CD0340902404333333333333E3BF0000000000000F9010740901411070040501600405405064090741402480A1B50
1001
ACAD
1000
AcDbSavedByObjectVersion
1070
     0
  0
ACAD_PROXY_OBJECT
  5
38
102
{ACAD_REACTORS
330
2A
102
}
330
2A
100
AcDbProxyObject
 90
      499
 91
      501
 93
      444
310
42D31A5B995C185D1D195C9B90E409028333333333333E3BF0000000000000FB010790141107004050750841D405064090741402483A0350
1001
ACAD
1000
AcDbSavedByObjectVersion
1070
     0
  0
ACAD_PROXY_OBJECT
  5
33
102
{ACAD_REACTORS
330
2A
102
}
330
2A
100
AcDbProxyObject
 90
      499
 91
      501
 93
      420
310
425499585B1A5CDD1A58D08409028333333333333E3BF0000000000000FB01079019070040501508421405064090741402480A1B40
1001
ACAD
1000
AcDbSavedByObjectVersion
1070
     0
  0
ACAD_PROXY_OBJECT
  5
37
102
{ACAD_REACTORS
330
2A
102
}
330
2A
100
AcDbProxyObject
 90
      499
 91
      501
 93
      412
310
41D51A1A58DAD95B90D409028333333333333E3BF0000000000000FB010790141107004050150C41D405064090741402480A0350
1001
ACAD
1000
AcDbSavedByObjectVersion
1070
     0
  0
XRECORD
  5
6F0
102
{ACAD_REACTORS
330
6E7
102
}
330
6E7
100
AcDbXrecord
 90
        0
  0
XRECORD
  5
706
102
{ACAD_REACTORS
330
6E7
102
}
330
6E7
100
AcDbXrecord
1000
DSTYLE
1002
{
1070
   340
340
11
1002
}
  0
XRECORD
  5
6F1
102
{ACAD_REACTORS
330
6E7
102
}
330
6E7
100
AcDbXrecord
  1
{E496A469-6F35-46D3-9EE9-5CC5AA787948}
  0
XRECORD
  5
6EA
102
{ACAD_REACTORS
330
6E7
102
}
330
6E7
100
AcDbXrecord
  1

  0
XRECORD
  5
6EF
102
{ACAD_REACTORS
330
6E7
102
}
330
6E7
100
AcDbXrecord
 90
        4
  0
XRECORD
  5
6EC
102
{ACAD_REACTORS
330
6E7
102
}
330
6E7
100
AcDbXrecord
340
1A
  0
XRECORD
  5
6EE
102
{ACAD_REACTORS
330
6E7
102
}
330
6E7
100
AcDbXrecord
 90
    10269
  0
XRECORD
  5
6ED
102
{ACAD_REACTORS
330
6E7
102
}
330
6E7
100
AcDbXrecord
340
19
  0
XRECORD
  5
6F3
102
{ACAD_REACTORS
330
6E7
102
}
330
6E7
100
AcDbXrecord
 40
0.0
  0
XRECORD
  5
6F6
102
{ACAD_REACTORS
330
6E7
102
}
330
6E7
100
AcDbXrecord
340
0
  0
XRECORD
  5
6FC
102
{ACAD_REACTORS
330
6E7
102
}
330
6E7
100
AcDbXrecord
 10
0.0
 20
0.0
 30
0.0
  0
XRECORD
  5
6F8
102
{ACAD_REACTORS
330
6E7
102
}
330
6E7
100
AcDbXrecord
 10
0.0
 20
0.0
 30
0.0
  0
XRECORD
  5
6FB
102
{ACAD_REACTORS
330
6E7
102
}
330
6E7
100
AcDbXrecord
 10
0.0
 20
0.0
 30
0.0
  0
XRECORD
  5
6F9
102
{ACAD_REACTORS
330
6E7
102
}
330
6E7
100
AcDbXrecord
 10
0.0
 20
0.0
 30
0.0
  0
XRECORD
  5
6FA
102
{ACAD_REACTORS
330
6E7
102
}
330
6E7
100
AcDbXrecord
 10
0.0
 20
0.0
 30
0.0
  0
XRECORD
  5
6F7
102
{ACAD_REACTORS
330
6E7
102
}
330
6E7
100
AcDbXrecord
 10
0.0
 20
0.0
 30
0.0
  0
XRECORD
  5
6F4
102
{ACAD_REACTORS
330
6E7
102
}
330
6E7
100
AcDbXrecord
340
0
  0
XRECORD
  5
6F5
102
{ACAD_REACTORS
330
6E7
102
}
330
6E7
100
AcDbXrecord
 70
     0
  0
XRECORD
  5
6EB
102
{ACAD_REACTORS
330
6E7
102
}
330
6E7
100
AcDbXrecord
  1

  0
XRECORD
  5
6E8
102
{ACAD_REACTORS
330
6E7
102
}
330
6E7
100
AcDbXrecord
 90
        1
  0
XRECORD
  5
6E9
102
{ACAD_REACTORS
330
6E7
102
}
330
6E7
100
AcDbXrecord
 90
       70
  0
XRECORD
  5
6FF
102
{ACAD_REACTORS
330
6E7
102
}
330
6E7
100
AcDbXrecord
340
0
  0
XRECORD
  5
705
102
{ACAD_REACTORS
330
6E7
102
}
330
6E7
100
AcDbXrecord
 10
0.0
 20
0.0
 30
0.0
  0
XRECORD
  5
701
102
{ACAD_REACTORS
330
6E7
102
}
330
6E7
100
AcDbXrecord
 10
0.0
 20
0.0
 30
0.0
  0
XRECORD
  5
704
102
{ACAD_REACTORS
330
6E7
102
}
330
6E7
100
AcDbXrecord
 10
0.0
 20
0.0
 30
0.0
  0
XRECORD
  5
702
102
{ACAD_REACTORS
330
6E7
102
}
330
6E7
100
AcDbXrecord
 10
0.0
 20
0.0
 30
0.0
  0
XRECORD
  5
703
102
{ACAD_REACTORS
330
6E7
102
}
330
6E7
100
AcDbXrecord
 10
0.0
 20
0.0
 30
0.0
  0
XRECORD
  5
700
102
{ACAD_REACTORS
330
6E7
102
}
330
6E7
100
AcDbXrecord
 10
0.0
 20
0.0
 30
0.0
  0
XRECORD
  5
6FD
102
{ACAD_REACTORS
330
6E7
102
}
330
6E7
100
AcDbXrecord
340
0
  0
XRECORD
  5
6FE
102
{ACAD_REACTORS
330
6E7
102
}
330
6E7
100
AcDbXrecord
 70
     0
  0
XRECORD
  5
6F2
102
{ACAD_REACTORS
330
6E7
102
}
330
6E7
100
AcDbXrecord
  1
{FAEB1C32-E019-11D5-929B-00C0DF256EC4}
  0
DICTIONARYVAR
  5
70A
102
{ACAD_REACTORS
330
707
102
}
330
707
100
DictionaryVariables
280
     0
  1
2
  0
DICTIONARYVAR
  5
70B
102
{ACAD_REACTORS
330
707
102
}
330
707
100
DictionaryVariables
280
     0
  1
1
  0
DICTIONARY
  5
70E
330
3D
100
AcDbDictionary
280
     1
  3
ACAD_XREC_ROUNDTRIP
360
70F
  0
DICTIONARY
  5
70C
330
3C
100
AcDbDictionary
280
     1
  3
ACAD_XREC_ROUNDTRIP
360
70D
  0
DICTIONARY
  5
710
330
3E
100
AcDbDictionary
280
     1
  3
ACAD_XREC_ROUNDTRIP
360
711
  0
XRECORD
  5
70F
102
{ACAD_REACTORS
330
70E
102
}
330
70E
100
AcDbXrecord
102
MATERIAL
148
0.0
149
0.0
149
0.0
 93
        0
 94
      127
282
     0
 72
     1
 77
     1
171
     1
175
     1
179
     1
273
     0
  0
XRECORD
  5
70D
102
{ACAD_REACTORS
330
70C
102
}
330
70C
100
AcDbXrecord
102
MATERIAL
148
0.0
149
0.0
149
0.0
 93
        0
 94
      127
282
     0
 72
     1
 77
     1
171
     1
175
     1
179
     1
273
     0
  0
XRECORD
  5
711
102
{ACAD_REACTORS
330
710
102
}
330
710
100
AcDbXrecord
102
MATERIAL
148
0.0
149
0.0
149
0.0
 93
        0
 94
      127
282
     0
 72
     1
 77
     1
171
     1
175
     1
179
     1
273
     0
  0
ENDSEC
  0
EOF
