  0
SECTION
  2
HEADER
  9
$ACADVER
  1
AC1014
  9
$ACADMAINTVER
 70
     9
  9
$DWGCODEPAGE
  3
ANSI_1252
  9
$INSBASE
 10
0.0
 20
0.0
 30
0.0
  9
$EXTMIN
 10
1.000000000000000E+20
 20
1.000000000000000E+20
 30
1.000000000000000E+20
  9
$EXTMAX
 10
-1.000000000000000E+20
 20
-1.000000000000000E+20
 30
-1.000000000000000E+20
  9
$LIMMIN
 10
0.0
 20
0.0
  9
$LIMMAX
 10
12.0
 20
9.0
  9
$ORTHOMODE
 70
     0
  9
$REGENMODE
 70
     1
  9
$FILLMODE
 70
     1
  9
$QTEXTMODE
 70
     0
  9
$MIRRTEXT
 70
     1
  9
$DRAGMODE
 70
     2
  9
$LTSCALE
 40
1.0
  9
$OSMODE
 70
    37
  9
$ATTMODE
 70
     1
  9
$TEXTSIZE
 40
0.2
  9
$TRACEWID
 40
0.05
  9
$TEXTSTYLE
  7
STANDARD
  9
$CLAYER
  8
0
  9
$CELTYPE
  6
BYLAYER
  9
$CECOLOR
 62
   256
  9
$CELTSCALE
 40
1.0
  9
$DELOBJ
 70
     1
  9
$DISPSILH
 70
     0
  9
$DIMSCALE
 40
1.0
  9
$DIMASZ
 40
0.18
  9
$DIMEXO
 40
0.0625
  9
$DIMDLI
 40
0.38
  9
$DIMRND
 40
0.0
  9
$DIMDLE
 40
0.0
  9
$DIMEXE
 40
0.18
  9
$DIMTP
 40
0.0
  9
$DIMTM
 40
0.0
  9
$DIMTXT
 40
0.18
  9
$DIMCEN
 40
0.09
  9
$DIMTSZ
 40
0.0
  9
$DIMTOL
 70
     0
  9
$DIMLIM
 70
     0
  9
$DIMTIH
 70
     1
  9
$DIMTOH
 70
     1
  9
$DIMSE1
 70
     0
  9
$DIMSE2
 70
     0
  9
$DIMTAD
 70
     0
  9
$DIMZIN
 70
     0
  9
$DIMBLK
  1

  9
$DIMASO
 70
     1
  9
$DIMSHO
 70
     1
  9
$DIMPOST
  1

  9
$DIMAPOST
  1

  9
$DIMALT
 70
     0
  9
$DIMALTD
 70
     2
  9
$DIMALTF
 40
25.4
  9
$DIMLFAC
 40
1.0
  9
$DIMTOFL
 70
     0
  9
$DIMTVP
 40
0.0
  9
$DIMTIX
 70
     0
  9
$DIMSOXD
 70
     0
  9
$DIMSAH
 70
     0
  9
$DIMBLK1
  1

  9
$DIMBLK2
  1

  9
$DIMSTYLE
  2
STANDARD
  9
$DIMCLRD
 70
     0
  9
$DIMCLRE
 70
     0
  9
$DIMCLRT
 70
     0
  9
$DIMTFAC
 40
1.0
  9
$DIMGAP
 40
0.09
  9
$DIMJUST
 70
     0
  9
$DIMSD1
 70
     0
  9
$DIMSD2
 70
     0
  9
$DIMTOLJ
 70
     1
  9
$DIMTZIN
 70
     0
  9
$DIMALTZ
 70
     0
  9
$DIMALTTZ
 70
     0
  9
$DIMFIT
 70
     3
  9
$DIMUPT
 70
     0
  9
$DIMUNIT
 70
     2
  9
$DIMDEC
 70
     4
  9
$DIMTDEC
 70
     4
  9
$DIMALTU
 70
     2
  9
$DIMALTTD
 70
     2
  9
$DIMTXSTY
  7
STANDARD
  9
$DIMAUNIT
 70
     0
  9
$LUNITS
 70
     2
  9
$LUPREC
 70
     4
  9
$SKETCHINC
 40
0.1
  9
$FILLETRAD
 40
0.5
  9
$AUNITS
 70
     0
  9
$AUPREC
 70
     0
  9
$MENU
  1
.
  9
$ELEVATION
 40
0.0
  9
$PELEVATION
 40
0.0
  9
$THICKNESS
 40
0.0
  9
$LIMCHECK
 70
     0
  9
$CHAMFERA
 40
0.5
  9
$CHAMFERB
 40
0.5
  9
$CHAMFERC
 40
1.0
  9
$CHAMFERD
 40
0.0
  9
$SKPOLY
 70
     0
  9
$TDCREATE
 40
2458982.576669988
  9
$TDUPDATE
 40
2458982.576670255
  9
$TDINDWG
 40
0.0000000116
  9
$TDUSRTIMER
 40
0.0000000116
  9
$USRTIMER
 70
     1
  9
$ANGBASE
 50
0.0
  9
$ANGDIR
 70
     0
  9
$PDMODE
 70
     0
  9
$PDSIZE
 40
0.0
  9
$PLINEWID
 40
0.0
  9
$COORDS
 70
     1
  9
$SPLFRAME
 70
     0
  9
$SPLINETYPE
 70
     6
  9
$SPLINESEGS
 70
     8
  9
$ATTDIA
 70
     0
  9
$ATTREQ
 70
     1
  9
$HANDLING
 70
     1
  9
$HANDSEED
  5
700
  9
$SURFTAB1
 70
     6
  9
$SURFTAB2
 70
     6
  9
$SURFTYPE
 70
     6
  9
$SURFU
 70
     6
  9
$SURFV
 70
     6
  9
$UCSNAME
  2

  9
$UCSORG
 10
0.0
 20
0.0
 30
0.0
  9
$UCSXDIR
 10
1.0
 20
0.0
 30
0.0
  9
$UCSYDIR
 10
0.0
 20
1.0
 30
0.0
  9
$PUCSNAME
  2

  9
$PUCSORG
 10
0.0
 20
0.0
 30
0.0
  9
$PUCSXDIR
 10
1.0
 20
0.0
 30
0.0
  9
$PUCSYDIR
 10
0.0
 20
1.0
 30
0.0
  9
$USERI1
 70
     0
  9
$USERI2
 70
     0
  9
$USERI3
 70
     0
  9
$USERI4
 70
     0
  9
$USERI5
 70
     0
  9
$USERR1
 40
0.0
  9
$USERR2
 40
0.0
  9
$USERR3
 40
0.0
  9
$USERR4
 40
0.0
  9
$USERR5
 40
0.0
  9
$WORLDVIEW
 70
     1
  9
$SHADEDGE
 70
     3
  9
$SHADEDIF
 70
    70
  9
$TILEMODE
 70
     1
  9
$MAXACTVP
 70
    64
  9
$PINSBASE
 10
0.0
 20
0.0
 30
0.0
  9
$PLIMCHECK
 70
     0
  9
$PEXTMIN
 10
1.000000000000000E+20
 20
1.000000000000000E+20
 30
1.000000000000000E+20
  9
$PEXTMAX
 10
-1.000000000000000E+20
 20
-1.000000000000000E+20
 30
-1.000000000000000E+20
  9
$PLIMMIN
 10
0.0
 20
0.0
  9
$PLIMMAX
 10
12.0
 20
9.0
  9
$UNITMODE
 70
     0
  9
$VISRETAIN
 70
     1
  9
$PLINEGEN
 70
     0
  9
$PSLTSCALE
 70
     1
  9
$TREEDEPTH
 70
  3020
  9
$PICKSTYLE
 70
     1
  9
$CMLSTYLE
  2
STANDARD
  9
$CMLJUST
 70
     0
  9
$CMLSCALE
 40
1.0
  9
$PROXYGRAPHICS
 70
     1
  9
$MEASUREMENT
 70
     0
  0
ENDSEC
  0
SECTION
  2
CLASSES
  0
CLASS
  1
ACDBDICTIONARYWDFLT
  2
AcDbDictionaryWithDefault
  3
ObjectDBX Classes
 90
        0
280
     0
281
     0
  0
CLASS
  1
VISUALSTYLE
  2
AcDbVisualStyle
  3
ObjectDBX Classes
 90
     4095
280
     0
281
     0
  0
CLASS
  1
MATERIAL
  2
AcDbMaterial
  3
ObjectDBX Classes
 90
     1153
280
     0
281
     0
  0
CLASS
  1
SUN
  2
AcDbSun
  3
SCENEOE
 90
     1024
280
     0
281
     0
  0
CLASS
  1
DICTIONARYVAR
  2
AcDbDictionaryVar
  3
ObjectDBX Classes
 90
        0
280
     0
281
     0
  0
CLASS
  1
XRECORD
  2
AcDbXrecord
  3
AutoCAD 2000
 90
        0
280
     0
281
     0
  0
CLASS
  1
LWPOLYLINE
  2
AcDbPolyline
  3
AutoCAD 2000
 90
        0
280
     0
281
     1
  0
CLASS
  1
HATCH
  2
AcDbHatch
  3
AutoCAD 2000
 90
        0
280
     0
281
     1
  0
CLASS
  1
ACDBPLACEHOLDER
  2
AcDbPlaceHolder
  3
ObjectDBX Classes
 90
        0
280
     0
281
     0
  0
CLASS
  1
LAYOUT
  2
AcDbLayout
  3
ObjectDBX Classes
 90
        0
280
     0
281
     0
  0
ENDSEC
  0
SECTION
  2
TABLES
  0
TABLE
  2
VPORT
  5
8
330
0
100
AcDbSymbolTable
 70
     1
  0
VPORT
  5
29
330
8
100
AcDbSymbolTableRecord
100
AcDbViewportTableRecord
  2
*ACTIVE
 70
     0
 10
0.0
 20
0.0
 11
1.0
 21
1.0
 12
0.0
 22
0.0
 13
0.0
 23
0.0
 14
0.5
 24
0.5
 15
0.5
 25
0.5
 16
0.0
 26
0.0
 36
1.0
 17
100.0611110860992
 27
127.0194444126945
 37
0.0
 40
296.9999999257403
 41
0.7070707070707531
 42
50.0
 43
0.0
 44
0.0
 50
0.0
 51
0.0
 71
     0
 72
   100
 73
     1
 74
     3
 75
     0
 76
     0
 77
     0
 78
     0
  0
ENDTAB
  0
TABLE
  2
LTYPE
  5
5
330
0
100
AcDbSymbolTable
 70
     4
  0
LTYPE
  5
14
330
5
100
AcDbSymbolTableRecord
100
AcDbLinetypeTableRecord
  2
BYBLOCK
 70
     0
  3

 72
    65
 73
     0
 40
0.0
  0
LTYPE
  5
15
330
5
100
AcDbSymbolTableRecord
100
AcDbLinetypeTableRecord
  2
BYLAYER
 70
     0
  3

 72
    65
 73
     0
 40
0.0
  0
LTYPE
  5
16
330
5
100
AcDbSymbolTableRecord
100
AcDbLinetypeTableRecord
  2
CONTINUOUS
 70
     0
  3
Solid line
 72
    65
 73
     0
 40
0.0
  0
LTYPE
  5
463
330
5
100
AcDbSymbolTableRecord
100
AcDbLinetypeTableRecord
  2
AI-LINETYPE-1
 70
     0
  3
Adobe Illustrator Linetype No. 1
 72
    65
 73
     4
 40
5.997222220722918
 49
4.233333332275
 74
     0
 49
-0.7055555553791667
 74
     0
 49
0.3527777776895833
 74
     0
 49
-0.7055555553791667
 74
     0
  0
LTYPE
  5
468
330
5
100
AcDbSymbolTableRecord
100
AcDbLinetypeTableRecord
  2
AI-LINETYPE-2
 70
     0
  3
Adobe Illustrator Linetype No. 2
 72
    65
 73
     4
 40
5.997222220722918
 49
4.233333332275
 74
     0
 49
-0.7055555553791667
 74
     0
 49
0.3527777776895833
 74
     0
 49
-0.7055555553791667
 74
     0
  0
LTYPE
  5
46D
330
5
100
AcDbSymbolTableRecord
100
AcDbLinetypeTableRecord
  2
AI-LINETYPE-3
 70
     0
  3
Adobe Illustrator Linetype No. 3
 72
    65
 73
     4
 40
5.997222220722918
 49
4.233333332275
 74
     0
 49
-0.7055555553791667
 74
     0
 49
0.3527777776895833
 74
     0
 49
-0.7055555553791667
 74
     0
  0
ENDTAB
  0
TABLE
  2
LAYER
  5
2
330
0
100
AcDbSymbolTable
 70
     5
  0
LAYER
  5
10
330
2
100
AcDbSymbolTableRecord
100
AcDbLayerTableRecord
  2
0
 70
     0
 62
     7
  6
CONTINUOUS
  0
LAYER
  5
40
330
2
100
AcDbSymbolTableRecord
100
AcDbLayerTableRecord
  2
GRAU_10_
 70
     0
 62
     7
  6
CONTINUOUS
  0
LAYER
  5
46F
330
2
100
AcDbSymbolTableRecord
100
AcDbLayerTableRecord
  2
STANDARDEBENE
 70
     0
 62
     7
  6
CONTINUOUS
  0
LAYER
  5
478
330
2
100
AcDbSymbolTableRecord
100
AcDbLayerTableRecord
  2
TEXT
 70
     1
 62
     7
  6
CONTINUOUS
  0
LAYER
  5
47C
330
2
100
AcDbSymbolTableRecord
100
AcDbLayerTableRecord
  2
BEMA_U_00DFUNG
 70
     1
 62
     7
  6
CONTINUOUS
  0
ENDTAB
  0
TABLE
  2
STYLE
  5
3
330
0
100
AcDbSymbolTable
 70
     1
  0
STYLE
  5
11
330
3
100
AcDbSymbolTableRecord
100
AcDbTextStyleTableRecord
  2
STANDARD
 70
     0
 40
0.0
 41
1.0
 50
0.0
 71
     0
 42
0.2
  3
txt
  4

  0
ENDTAB
  0
TABLE
  2
VIEW
  5
6
330
0
100
AcDbSymbolTable
 70
     0
  0
ENDTAB
  0
TABLE
  2
UCS
  5
7
330
0
100
AcDbSymbolTable
 70
     0
  0
ENDTAB
  0
TABLE
  2
APPID
  5
9
330
0
100
AcDbSymbolTable
 70
     1
  0
APPID
  5
12
330
9
100
AcDbSymbolTableRecord
100
AcDbRegAppTableRecord
  2
ACAD
 70
     0
  0
ENDTAB
  0
TABLE
  2
DIMSTYLE
  5
A
330
0
100
AcDbSymbolTable
 70
     1
  0
DIMSTYLE
105
27
330
A
100
AcDbSymbolTableRecord
100
AcDbDimStyleTableRecord
  2
STANDARD
 70
     0
  3

  4

  5

  6

  7

 40
1.0
 41
0.18
 42
0.0625
 43
0.38
 44
0.18
 45
0.0
 46
0.0
 47
0.0
 48
0.0
140
0.18
141
0.09
142
0.0
143
25.4
144
1.0
145
0.0
146
1.0
147
0.09
 71
     0
 72
     0
 73
     1
 74
     1
 75
     0
 76
     0
 77
     0
 78
     0
170
     0
171
     2
172
     0
173
     0
174
     0
175
     0
176
     0
177
     0
178
     0
270
     2
271
     4
272
     4
273
     2
274
     2
340
11
275
     0
280
     0
281
     0
282
     0
283
     1
284
     0
285
     0
286
     0
287
     3
288
     0
  0
ENDTAB
  0
TABLE
  2
BLOCK_RECORD
  5
1
330
0
100
AcDbSymbolTable
 70
     1
  0
BLOCK_RECORD
  5
1F
330
1
100
AcDbSymbolTableRecord
100
AcDbBlockTableRecord
  2
*MODEL_SPACE
  0
BLOCK_RECORD
  5
1B
330
1
100
AcDbSymbolTableRecord
100
AcDbBlockTableRecord
  2
*PAPER_SPACE
  0
ENDTAB
  0
ENDSEC
  0
SECTION
  2
BLOCKS
  0
BLOCK
  5
20
330
1F
100
AcDbEntity
  8
0
100
AcDbBlockBegin
  2
*MODEL_SPACE
 70
     0
 10
0.0
 20
0.0
 30
0.0
  3
*MODEL_SPACE
  1

  0
ENDBLK
  5
21
330
1F
100
AcDbEntity
  8
0
100
AcDbBlockEnd
  0
BLOCK
  5
1C
330
1B
100
AcDbEntity
 67
     1
  8
0
100
AcDbBlockBegin
  2
*PAPER_SPACE
 70
     0
 10
0.0
 20
0.0
 30
0.0
  3
*PAPER_SPACE
  1

  0
ENDBLK
  5
1D
330
1B
100
AcDbEntity
 67
     1
  8
0
100
AcDbBlockEnd
  0
ENDSEC
  0
SECTION
  2
ENTITIES
  0
POLYLINE
  5
41
330
1F
100
AcDbEntity
  8
GRAU_10_
 62
     7
100
AcDb2dPolyline
 66
     1
 10
0.0
 20
0.0
 30
0.0
  0
VERTEX
  5
42
330
41
100
AcDbEntity
  8
GRAU_10_
 62
     7
100
AcDbVertex
100
AcDb2dVertex
 10
141.5263527416453
 20
226.3275818878626
 30
0.0
  0
VERTEX
  5
43
330
41
100
AcDbEntity
  8
GRAU_10_
 62
     7
100
AcDbVertex
100
AcDb2dVertex
 10
146.52627218484
 20
226.3275818878626
 30
0.0
  0
SEQEND
  5
44
330
41
100
AcDbEntity
  8
GRAU_10_
 62
     7
  0
POLYLINE
  5
45
330
1F
100
AcDbEntity
  8
GRAU_10_
 62
     7
100
AcDb2dPolyline
 66
     1
 10
0.0
 20
0.0
 30
0.0
  0
VERTEX
  5
46
330
45
100
AcDbEntity
  8
GRAU_10_
 62
     7
100
AcDbVertex
100
AcDb2dVertex
 10
146.8681138514212
 20
225.9557541101777
 30
0.0
  0
VERTEX
  5
47
330
45
100
AcDbEntity
  8
GRAU_10_
 62
     7
100
AcDbVertex
100
AcDb2dVertex
 10
146.6977221847971
 20
226.1420207767976
 30
0.0
  0
VERTEX
  5
48
330
45
100
AcDbEntity
  8
GRAU_10_
 62
     7
100
AcDbVertex
100
AcDb2dVertex
 10
146.52627218484
 20
226.3275818878626
 30
0.0
  0
SEQEND
  5
49
330
45
100
AcDbEntity
  8
GRAU_10_
 62
     7
  0
POLYLINE
  5
4A
330
1F
100
AcDbEntity
  8
GRAU_10_
 62
     7
100
AcDb2dPolyline
 66
     1
 10
0.0
 20
0.0
 30
0.0
  0
VERTEX
  5
4B
330
4A
100
AcDbEntity
  8
GRAU_10_
 62
     7
100
AcDbVertex
100
AcDb2dVertex
 10
146.8681138514212
 20
225.9557541101777
 30
0.0
  0
VERTEX
  5
4C
330
4A
100
AcDbEntity
  8
GRAU_10_
 62
     7
100
AcDbVertex
100
AcDb2dVertex
 10
141.1848638528418
 20
225.9557541101777
 30
0.0
  0
SEQEND
  5
4D
330
4A
100
AcDbEntity
  8
GRAU_10_
 62
     7
  0
POLYLINE
  5
4E
330
1F
100
AcDbEntity
  8
GRAU_10_
 62
     7
100
AcDb2dPolyline
 66
     1
 10
0.0
 20
0.0
 30
0.0
  0
VERTEX
  5
4F
330
4E
100
AcDbEntity
  8
GRAU_10_
 62
     7
100
AcDbVertex
100
AcDb2dVertex
 10
141.5263527416453
 20
226.3275818878626
 30
0.0
  0
VERTEX
  5
50
330
4E
100
AcDbEntity
  8
GRAU_10_
 62
     7
100
AcDbVertex
100
AcDb2dVertex
 10
141.355255519466
 20
226.1420207767976
 30
0.0
  0
VERTEX
  5
51
330
4E
100
AcDbEntity
  8
GRAU_10_
 62
     7
100
AcDbVertex
100
AcDb2dVertex
 10
141.1848638528418
 20
225.9557541101777
 30
0.0
  0
SEQEND
  5
52
330
4E
100
AcDbEntity
  8
GRAU_10_
 62
     7
  0
POLYLINE
  5
53
330
1F
100
AcDbEntity
  8
GRAU_10_
 62
     7
100
AcDb2dPolyline
 66
     1
 10
0.0
 20
0.0
 30
0.0
  0
VERTEX
  5
54
330
53
100
AcDbEntity
  8
GRAU_10_
 62
     7
100
AcDbVertex
100
AcDb2dVertex
 10
141.5263527416453
 20
239.8971791066921
 30
0.0
  0
VERTEX
  5
55
330
53
100
AcDbEntity
  8
GRAU_10_
 62
     7
100
AcDbVertex
100
AcDb2dVertex
 10
141.5263527416453
 20
238.2793402182079
 30
0.0
  0
VERTEX
  5
56
330
53
100
AcDbEntity
  8
GRAU_10_
 62
     7
100
AcDbVertex
100
AcDb2dVertex
 10
141.5263527416453
 20
236.5210957742029
 30
0.0
  0
VERTEX
  5
57
330
53
100
AcDbEntity
  8
GRAU_10_
 62
     7
100
AcDbVertex
100
AcDb2dVertex
 10
141.5263527416453
 20
234.641495774673
 30
0.0
  0
VERTEX
  5
58
330
53
100
AcDbEntity
  8
GRAU_10_
 62
     7
100
AcDbVertex
100
AcDb2dVertex
 10
141.5263527416453
 20
232.6606485529461
 30
0.0
  0
VERTEX
  5
59
330
53
100
AcDbEntity
  8
GRAU_10_
 62
     7
100
AcDbVertex
100
AcDb2dVertex
 10
141.5263527416453
 20
230.5997207756833
 30
0.0
  0
VERTEX
  5
5A
330
53
100
AcDbEntity
  8
GRAU_10_
 62
     7
100
AcDbVertex
100
AcDb2dVertex
 10
141.5263527416453
 20
228.4812902206577
 30
0.0
  0
VERTEX
  5
5B
330
53
100
AcDbEntity
  8
GRAU_10_
 62
     7
100
AcDbVertex
100
AcDb2dVertex
 10
141.5263527416453
 20
226.3275818878626
 30
0.0
  0
SEQEND
  5
5C
330
53
100
AcDbEntity
  8
GRAU_10_
 62
     7
  0
POLYLINE
  5
5D
330
1F
100
AcDbEntity
  8
GRAU_10_
 62
     7
100
AcDb2dPolyline
 66
     1
 10
0.0
 20
0.0
 30
0.0
  0
VERTEX
  5
5E
330
5D
100
AcDbEntity
  8
GRAU_10_
 62
     7
100
AcDbVertex
100
AcDb2dVertex
 10
141.1848638528418
 20
225.9557541101777
 30
0.0
  0
VERTEX
  5
5F
330
5D
100
AcDbEntity
  8
GRAU_10_
 62
     7
100
AcDbVertex
100
AcDb2dVertex
 10
141.0268194084371
 20
225.9307068879618
 30
0.0
  0
VERTEX
  5
60
330
5D
100
AcDbEntity
  8
GRAU_10_
 62
     7
100
AcDbVertex
100
AcDb2dVertex
 10
141.0268194084371
 20
228.1415652207424
 30
0.0
  0
VERTEX
  5
61
330
5D
100
AcDbEntity
  8
GRAU_10_
 62
     7
100
AcDbVertex
100
AcDb2dVertex
 10
141.0268194084371
 20
230.3178513313097
 30
0.0
  0
VERTEX
  5
62
330
5D
100
AcDbEntity
  8
GRAU_10_
 62
     7
100
AcDbVertex
100
AcDb2dVertex
 10
141.0268194084371
 20
232.4331068863361
 30
0.0
  0
VERTEX
  5
63
330
5D
100
AcDbEntity
  8
GRAU_10_
 62
     7
100
AcDbVertex
100
AcDb2dVertex
 10
141.0268194084371
 20
234.4636957747172
 30
0.0
  0
VERTEX
  5
64
330
5D
100
AcDbEntity
  8
GRAU_10_
 62
     7
100
AcDbVertex
100
AcDb2dVertex
 10
141.0268194084371
 20
236.3845707742372
 30
0.0
  0
VERTEX
  5
65
330
5D
100
AcDbEntity
  8
GRAU_10_
 62
     7
100
AcDbVertex
100
AcDb2dVertex
 10
141.0268194084371
 20
238.1728013293458
 30
0.0
  0
VERTEX
  5
66
330
5D
100
AcDbEntity
  8
GRAU_10_
 62
     7
100
AcDbVertex
100
AcDb2dVertex
 10
141.0268194084371
 20
239.8075735511594
 30
0.0
  0
VERTEX
  5
67
330
5D
100
AcDbEntity
  8
GRAU_10_
 62
     7
100
AcDbVertex
100
AcDb2dVertex
 10
141.1848638528418
 20
239.9077624400231
 30
0.0
  0
VERTEX
  5
68
330
5D
100
AcDbEntity
  8
GRAU_10_
 62
     7
100
AcDbVertex
100
AcDb2dVertex
 10
141.355255519466
 20
239.9024707733579
 30
0.0
  0
VERTEX
  5
69
330
5D
100
AcDbEntity
  8
GRAU_10_
 62
     7
100
AcDbVertex
100
AcDb2dVertex
 10
141.5263527416453
 20
239.8971791066921
 30
0.0
  0
SEQEND
  5
6A
330
5D
100
AcDbEntity
  8
GRAU_10_
 62
     7
  0
POLYLINE
  5
6B
330
1F
100
AcDbEntity
  8
GRAU_10_
 62
     7
100
AcDb2dPolyline
 66
     1
 10
0.0
 20
0.0
 30
0.0
  0
VERTEX
  5
6C
330
6B
100
AcDbEntity
  8
GRAU_10_
 62
     7
100
AcDbVertex
100
AcDb2dVertex
 10
146.52627218484
 20
239.8971791066921
 30
0.0
  0
VERTEX
  5
6D
330
6B
100
AcDbEntity
  8
GRAU_10_
 62
     7
100
AcDbVertex
100
AcDb2dVertex
 10
141.5263527416453
 20
239.8971791066921
 30
0.0
  0
SEQEND
  5
6E
330
6B
100
AcDbEntity
  8
GRAU_10_
 62
     7
  0
POLYLINE
  5
6F
330
1F
100
AcDbEntity
  8
GRAU_10_
 62
     7
100
AcDb2dPolyline
 66
     1
 10
0.0
 20
0.0
 30
0.0
  0
VERTEX
  5
70
330
6F
100
AcDbEntity
  8
GRAU_10_
 62
     7
100
AcDbVertex
100
AcDb2dVertex
 10
146.52627218484
 20
226.3275818878626
 30
0.0
  0
VERTEX
  5
71
330
6F
100
AcDbEntity
  8
GRAU_10_
 62
     7
100
AcDbVertex
100
AcDb2dVertex
 10
146.52627218484
 20
228.4812902206577
 30
0.0
  0
VERTEX
  5
72
330
6F
100
AcDbEntity
  8
GRAU_10_
 62
     7
100
AcDbVertex
100
AcDb2dVertex
 10
146.52627218484
 20
230.5997207756833
 30
0.0
  0
VERTEX
  5
73
330
6F
100
AcDbEntity
  8
GRAU_10_
 62
     7
100
AcDbVertex
100
AcDb2dVertex
 10
146.52627218484
 20
232.6606485529461
 30
0.0
  0
VERTEX
  5
74
330
6F
100
AcDbEntity
  8
GRAU_10_
 62
     7
100
AcDbVertex
100
AcDb2dVertex
 10
146.52627218484
 20
234.641495774673
 30
0.0
  0
VERTEX
  5
75
330
6F
100
AcDbEntity
  8
GRAU_10_
 62
     7
100
AcDbVertex
100
AcDb2dVertex
 10
146.52627218484
 20
236.5210957742029
 30
0.0
  0
VERTEX
  5
76
330
6F
100
AcDbEntity
  8
GRAU_10_
 62
     7
100
AcDbVertex
100
AcDb2dVertex
 10
146.52627218484
 20
238.2793402182079
 30
0.0
  0
VERTEX
  5
77
330
6F
100
AcDbEntity
  8
GRAU_10_
 62
     7
100
AcDbVertex
100
AcDb2dVertex
 10
146.52627218484
 20
239.8971791066921
 30
0.0
  0
SEQEND
  5
78
330
6F
100
AcDbEntity
  8
GRAU_10_
 62
     7
  0
POLYLINE
  5
79
330
1F
100
AcDbEntity
  8
GRAU_10_
 62
     7
100
AcDb2dPolyline
 66
     1
 10
0.0
 20
0.0
 30
0.0
  0
VERTEX
  5
7A
330
79
100
AcDbEntity
  8
GRAU_10_
 62
     7
100
AcDbVertex
100
AcDb2dVertex
 10
146.8681138514212
 20
239.9077624400231
 30
0.0
  0
VERTEX
  5
7B
330
79
100
AcDbEntity
  8
GRAU_10_
 62
     7
100
AcDbVertex
100
AcDb2dVertex
 10
147.0268638513815
 20
239.8075735511594
 30
0.0
  0
VERTEX
  5
7C
330
79
100
AcDbEntity
  8
GRAU_10_
 62
     7
100
AcDbVertex
100
AcDb2dVertex
 10
147.0268638513815
 20
238.1728013293458
 30
0.0
  0
VERTEX
  5
7D
330
79
100
AcDbEntity
  8
GRAU_10_
 62
     7
100
AcDbVertex
100
AcDb2dVertex
 10
147.0268638513815
 20
236.3845707742372
 30
0.0
  0
VERTEX
  5
7E
330
79
100
AcDbEntity
  8
GRAU_10_
 62
     7
100
AcDbVertex
100
AcDb2dVertex
 10
147.0268638513815
 20
234.4636957747172
 30
0.0
  0
VERTEX
  5
7F
330
79
100
AcDbEntity
  8
GRAU_10_
 62
     7
100
AcDbVertex
100
AcDb2dVertex
 10
147.0268638513815
 20
232.4331068863361
 30
0.0
  0
VERTEX
  5
80
330
79
100
AcDbEntity
  8
GRAU_10_
 62
     7
100
AcDbVertex
100
AcDb2dVertex
 10
147.0268638513815
 20
230.3178513313097
 30
0.0
  0
VERTEX
  5
81
330
79
100
AcDbEntity
  8
GRAU_10_
 62
     7
100
AcDbVertex
100
AcDb2dVertex
 10
147.0268638513815
 20
228.1415652207424
 30
0.0
  0
VERTEX
  5
82
330
79
100
AcDbEntity
  8
GRAU_10_
 62
     7
100
AcDbVertex
100
AcDb2dVertex
 10
147.0268638513815
 20
225.9307068879618
 30
0.0
  0
VERTEX
  5
83
330
79
100
AcDbEntity
  8
GRAU_10_
 62
     7
100
AcDbVertex
100
AcDb2dVertex
 10
146.8681138514212
 20
225.9557541101777
 30
0.0
  0
SEQEND
  5
84
330
79
100
AcDbEntity
  8
GRAU_10_
 62
     7
  0
POLYLINE
  5
85
330
1F
100
AcDbEntity
  8
GRAU_10_
 62
     7
100
AcDb2dPolyline
 66
     1
 10
0.0
 20
0.0
 30
0.0
  0
VERTEX
  5
86
330
85
100
AcDbEntity
  8
GRAU_10_
 62
     7
100
AcDbVertex
100
AcDb2dVertex
 10
146.52627218484
 20
239.8971791066921
 30
0.0
  0
VERTEX
  5
87
330
85
100
AcDbEntity
  8
GRAU_10_
 62
     7
100
AcDbVertex
100
AcDb2dVertex
 10
146.6977221847971
 20
239.9024707733579
 30
0.0
  0
VERTEX
  5
88
330
85
100
AcDbEntity
  8
GRAU_10_
 62
     7
100
AcDbVertex
100
AcDb2dVertex
 10
146.8681138514212
 20
239.9077624400231
 30
0.0
  0
SEQEND
  5
89
330
85
100
AcDbEntity
  8
GRAU_10_
 62
     7
  0
POLYLINE
  5
8A
330
1F
100
AcDbEntity
  8
GRAU_10_
 62
     7
100
AcDb2dPolyline
 66
     1
 10
0.0
 20
0.0
 30
0.0
  0
VERTEX
  5
8B
330
8A
100
AcDbEntity
  8
GRAU_10_
 62
     7
100
AcDbVertex
100
AcDb2dVertex
 10
147.0268638513815
 20
225.6523652213648
 30
0.0
  0
VERTEX
  5
8C
330
8A
100
AcDbEntity
  8
GRAU_10_
 62
     7
100
AcDbVertex
100
AcDb2dVertex
 10
147.0268638513815
 20
225.9307068879618
 30
0.0
  0
SEQEND
  5
8D
330
8A
100
AcDbEntity
  8
GRAU_10_
 62
     7
  0
POLYLINE
  5
8E
330
1F
100
AcDbEntity
  8
GRAU_10_
 62
     7
100
AcDb2dPolyline
 66
     1
 10
0.0
 20
0.0
 30
0.0
  0
VERTEX
  5
8F
330
8E
100
AcDbEntity
  8
GRAU_10_
 62
     7
100
AcDbVertex
100
AcDb2dVertex
 10
141.0268194084371
 20
225.6523652213648
 30
0.0
  0
VERTEX
  5
90
330
8E
100
AcDbEntity
  8
GRAU_10_
 62
     7
100
AcDbVertex
100
AcDb2dVertex
 10
147.0268638513815
 20
225.6523652213648
 30
0.0
  0
SEQEND
  5
91
330
8E
100
AcDbEntity
  8
GRAU_10_
 62
     7
  0
POLYLINE
  5
92
330
1F
100
AcDbEntity
  8
GRAU_10_
 62
     7
100
AcDb2dPolyline
 66
     1
 10
0.0
 20
0.0
 30
0.0
  0
VERTEX
  5
93
330
92
100
AcDbEntity
  8
GRAU_10_
 62
     7
100
AcDbVertex
100
AcDb2dVertex
 10
141.0268194084371
 20
225.6523652213648
 30
0.0
  0
VERTEX
  5
94
330
92
100
AcDbEntity
  8
GRAU_10_
 62
     7
100
AcDbVertex
100
AcDb2dVertex
 10
141.0268194084371
 20
225.9307068879618
 30
0.0
  0
SEQEND
  5
95
330
92
100
AcDbEntity
  8
GRAU_10_
 62
     7
  0
POLYLINE
  5
96
330
1F
100
AcDbEntity
  8
GRAU_10_
 62
     7
100
AcDb2dPolyline
 66
     1
 10
0.0
 20
0.0
 30
0.0
  0
VERTEX
  5
97
330
96
100
AcDbEntity
  8
GRAU_10_
 62
     7
100
AcDbVertex
100
AcDb2dVertex
 10
141.5263527416453
 20
207.7555957813946
 30
0.0
  0
VERTEX
  5
98
330
96
100
AcDbEntity
  8
GRAU_10_
 62
     7
100
AcDbVertex
100
AcDb2dVertex
 10
146.52627218484
 20
207.7555957813946
 30
0.0
  0
SEQEND
  5
99
330
96
100
AcDbEntity
  8
GRAU_10_
 62
     7
  0
POLYLINE
  5
9A
330
1F
100
AcDbEntity
  8
GRAU_10_
 62
     7
100
AcDb2dPolyline
 66
     1
 10
0.0
 20
0.0
 30
0.0
  0
VERTEX
  5
9B
330
9A
100
AcDbEntity
  8
GRAU_10_
 62
     7
100
AcDbVertex
100
AcDb2dVertex
 10
141.5263527416453
 20
219.7232291117357
 30
0.0
  0
VERTEX
  5
9C
330
9A
100
AcDbEntity
  8
GRAU_10_
 62
     7
100
AcDbVertex
100
AcDb2dVertex
 10
141.5263527416453
 20
217.6686513344717
 30
0.0
  0
VERTEX
  5
9D
330
9A
100
AcDbEntity
  8
GRAU_10_
 62
     7
100
AcDbVertex
100
AcDb2dVertex
 10
141.5263527416453
 20
215.6948596682984
 30
0.0
  0
VERTEX
  5
9E
330
9A
100
AcDbEntity
  8
GRAU_10_
 62
     7
100
AcDbVertex
100
AcDb2dVertex
 10
141.5263527416453
 20
213.8244318909884
 30
0.0
  0
VERTEX
  5
9F
330
9A
100
AcDbEntity
  8
GRAU_10_
 62
     7
100
AcDbVertex
100
AcDb2dVertex
 10
141.5263527416453
 20
212.0774763358698
 30
0.0
  0
VERTEX
  5
A0
330
9A
100
AcDbEntity
  8
GRAU_10_
 62
     7
100
AcDbVertex
100
AcDb2dVertex
 10
141.5263527416453
 20
210.4726902251596
 30
0.0
  0
VERTEX
  5
A1
330
9A
100
AcDbEntity
  8
GRAU_10_
 62
     7
100
AcDbVertex
100
AcDb2dVertex
 10
141.5263527416453
 20
209.0263013366321
 30
0.0
  0
VERTEX
  5
A2
330
9A
100
AcDbEntity
  8
GRAU_10_
 62
     7
100
AcDbVertex
100
AcDb2dVertex
 10
141.5263527416453
 20
207.7555957813946
 30
0.0
  0
SEQEND
  5
A3
330
9A
100
AcDbEntity
  8
GRAU_10_
 62
     7
  0
POLYLINE
  5
A4
330
1F
100
AcDbEntity
  8
GRAU_10_
 62
     7
100
AcDb2dPolyline
 66
     1
 10
0.0
 20
0.0
 30
0.0
  0
VERTEX
  5
A5
330
A4
100
AcDbEntity
  8
GRAU_10_
 62
     7
100
AcDbVertex
100
AcDb2dVertex
 10
146.52627218484
 20
219.7232291117357
 30
0.0
  0
VERTEX
  5
A6
330
A4
100
AcDbEntity
  8
GRAU_10_
 62
     7
100
AcDbVertex
100
AcDb2dVertex
 10
141.5263527416453
 20
219.7232291117357
 30
0.0
  0
SEQEND
  5
A7
330
A4
100
AcDbEntity
  8
GRAU_10_
 62
     7
  0
POLYLINE
  5
A8
330
1F
100
AcDbEntity
  8
GRAU_10_
 62
     7
100
AcDb2dPolyline
 66
     1
 10
0.0
 20
0.0
 30
0.0
  0
VERTEX
  5
A9
330
A8
100
AcDbEntity
  8
GRAU_10_
 62
     7
100
AcDbVertex
100
AcDb2dVertex
 10
146.52627218484
 20
207.7555957813946
 30
0.0
  0
VERTEX
  5
AA
330
A8
100
AcDbEntity
  8
GRAU_10_
 62
     7
100
AcDbVertex
100
AcDb2dVertex
 10
146.52627218484
 20
209.0263013366321
 30
0.0
  0
VERTEX
  5
AB
330
A8
100
AcDbEntity
  8
GRAU_10_
 62
     7
100
AcDbVertex
100
AcDb2dVertex
 10
146.52627218484
 20
210.4726902251596
 30
0.0
  0
VERTEX
  5
AC
330
A8
100
AcDbEntity
  8
GRAU_10_
 62
     7
100
AcDbVertex
100
AcDb2dVertex
 10
146.52627218484
 20
212.0774763358698
 30
0.0
  0
VERTEX
  5
AD
330
A8
100
AcDbEntity
  8
GRAU_10_
 62
     7
100
AcDbVertex
100
AcDb2dVertex
 10
146.52627218484
 20
213.8244318909884
 30
0.0
  0
VERTEX
  5
AE
330
A8
100
AcDbEntity
  8
GRAU_10_
 62
     7
100
AcDbVertex
100
AcDb2dVertex
 10
146.52627218484
 20
215.6948596682984
 30
0.0
  0
VERTEX
  5
AF
330
A8
100
AcDbEntity
  8
GRAU_10_
 62
     7
100
AcDbVertex
100
AcDb2dVertex
 10
146.52627218484
 20
217.6686513344717
 30
0.0
  0
VERTEX
  5
B0
330
A8
100
AcDbEntity
  8
GRAU_10_
 62
     7
100
AcDbVertex
100
AcDb2dVertex
 10
146.52627218484
 20
219.7232291117357
 30
0.0
  0
SEQEND
  5
B1
330
A8
100
AcDbEntity
  8
GRAU_10_
 62
     7
  0
POLYLINE
  5
B2
330
1F
100
AcDbEntity
  8
GRAU_10_
 62
     7
100
AcDb2dPolyline
 66
     1
 10
0.0
 20
0.0
 30
0.0
  0
VERTEX
  5
B3
330
B2
100
AcDbEntity
  8
GRAU_10_
 62
     7
100
AcDbVertex
100
AcDb2dVertex
 10
146.8681138514212
 20
220.1571457782941
 30
0.0
  0
VERTEX
  5
B4
330
B2
100
AcDbEntity
  8
GRAU_10_
 62
     7
100
AcDbVertex
100
AcDb2dVertex
 10
147.0268638513815
 20
220.2150013338351
 30
0.0
  0
SEQEND
  5
B5
330
B2
100
AcDbEntity
  8
GRAU_10_
 62
     7
  0
POLYLINE
  5
B6
330
1F
100
AcDbEntity
  8
GRAU_10_
 62
     7
100
AcDb2dPolyline
 66
     1
 10
0.0
 20
0.0
 30
0.0
  0
VERTEX
  5
B7
330
B6
100
AcDbEntity
  8
GRAU_10_
 62
     7
100
AcDbVertex
100
AcDb2dVertex
 10
147.0268638513815
 20
207.9760818924506
 30
0.0
  0
VERTEX
  5
B8
330
B6
100
AcDbEntity
  8
GRAU_10_
 62
     7
100
AcDbVertex
100
AcDb2dVertex
 10
146.8681138514212
 20
207.8519041147036
 30
0.0
  0
VERTEX
  5
B9
330
B6
100
AcDbEntity
  8
GRAU_10_
 62
     7
100
AcDbVertex
100
AcDb2dVertex
 10
146.6977221847971
 20
207.8035735591599
 30
0.0
  0
VERTEX
  5
BA
330
B6
100
AcDbEntity
  8
GRAU_10_
 62
     7
100
AcDbVertex
100
AcDb2dVertex
 10
146.52627218484
 20
207.7555957813946
 30
0.0
  0
SEQEND
  5
BB
330
B6
100
AcDbEntity
  8
GRAU_10_
 62
     7
  0
POLYLINE
  5
BC
330
1F
100
AcDbEntity
  8
GRAU_10_
 62
     7
100
AcDb2dPolyline
 66
     1
 10
0.0
 20
0.0
 30
0.0
  0
VERTEX
  5
BD
330
BC
100
AcDbEntity
  8
GRAU_10_
 62
     7
100
AcDbVertex
100
AcDb2dVertex
 10
146.52627218484
 20
219.7232291117357
 30
0.0
  0
VERTEX
  5
BE
330
BC
100
AcDbEntity
  8
GRAU_10_
 62
     7
100
AcDbVertex
100
AcDb2dVertex
 10
146.6977221847971
 20
219.9401874450148
 30
0.0
  0
VERTEX
  5
BF
330
BC
100
AcDbEntity
  8
GRAU_10_
 62
     7
100
AcDbVertex
100
AcDb2dVertex
 10
146.8681138514212
 20
220.1571457782941
 30
0.0
  0
SEQEND
  5
C0
330
BC
100
AcDbEntity
  8
GRAU_10_
 62
     7
  0
POLYLINE
  5
C1
330
1F
100
AcDbEntity
  8
GRAU_10_
 62
     7
100
AcDb2dPolyline
 66
     1
 10
0.0
 20
0.0
 30
0.0
  0
VERTEX
  5
C2
330
C1
100
AcDbEntity
  8
GRAU_10_
 62
     7
100
AcDbVertex
100
AcDb2dVertex
 10
147.0268638513815
 20
220.2150013338351
 30
0.0
  0
VERTEX
  5
C3
330
C1
100
AcDbEntity
  8
GRAU_10_
 62
     7
100
AcDbVertex
100
AcDb2dVertex
 10
147.0268638513815
 20
218.0979818899199
 30
0.0
  0
VERTEX
  5
C4
330
C1
100
AcDbEntity
  8
GRAU_10_
 62
     7
100
AcDbVertex
100
AcDb2dVertex
 10
147.0268638513815
 20
216.0659818904278
 30
0.0
  0
VERTEX
  5
C5
330
C1
100
AcDbEntity
  8
GRAU_10_
 62
     7
100
AcDbVertex
100
AcDb2dVertex
 10
147.0268638513815
 20
214.1429902242422
 30
0.0
  0
VERTEX
  5
C6
330
C1
100
AcDbEntity
  8
GRAU_10_
 62
     7
100
AcDbVertex
100
AcDb2dVertex
 10
147.0268638513815
 20
212.3522902246895
 30
0.0
  0
VERTEX
  5
C7
330
C1
100
AcDbEntity
  8
GRAU_10_
 62
     7
100
AcDbVertex
100
AcDb2dVertex
 10
147.0268638513815
 20
210.7150485584323
 30
0.0
  0
VERTEX
  5
C8
330
C1
100
AcDbEntity
  8
GRAU_10_
 62
     7
100
AcDbVertex
100
AcDb2dVertex
 10
147.0268638513815
 20
209.2503152254651
 30
0.0
  0
VERTEX
  5
C9
330
C1
100
AcDbEntity
  8
GRAU_10_
 62
     7
100
AcDbVertex
100
AcDb2dVertex
 10
147.0268638513815
 20
207.9760818924506
 30
0.0
  0
SEQEND
  5
CA
330
C1
100
AcDbEntity
  8
GRAU_10_
 62
     7
  0
POLYLINE
  5
CB
330
1F
100
AcDbEntity
  8
GRAU_10_
 62
     7
100
AcDb2dPolyline
 66
     1
 10
0.0
 20
0.0
 30
0.0
  0
VERTEX
  5
CC
330
CB
100
AcDbEntity
  8
GRAU_10_
 62
     7
100
AcDbVertex
100
AcDb2dVertex
 10
141.5263527416453
 20
207.7555957813946
 30
0.0
  0
VERTEX
  5
CD
330
CB
100
AcDbEntity
  8
GRAU_10_
 62
     7
100
AcDbVertex
100
AcDb2dVertex
 10
141.355255519466
 20
207.8035735591599
 30
0.0
  0
VERTEX
  5
CE
330
CB
100
AcDbEntity
  8
GRAU_10_
 62
     7
100
AcDbVertex
100
AcDb2dVertex
 10
141.1848638528418
 20
207.8519041147036
 30
0.0
  0
VERTEX
  5
CF
330
CB
100
AcDbEntity
  8
GRAU_10_
 62
     7
100
AcDbVertex
100
AcDb2dVertex
 10
141.0268194084371
 20
207.9760818924506
 30
0.0
  0
SEQEND
  5
D0
330
CB
100
AcDbEntity
  8
GRAU_10_
 62
     7
  0
POLYLINE
  5
D1
330
1F
100
AcDbEntity
  8
GRAU_10_
 62
     7
100
AcDb2dPolyline
 66
     1
 10
0.0
 20
0.0
 30
0.0
  0
VERTEX
  5
D2
330
D1
100
AcDbEntity
  8
GRAU_10_
 62
     7
100
AcDbVertex
100
AcDb2dVertex
 10
141.0268194084371
 20
220.2150013338351
 30
0.0
  0
VERTEX
  5
D3
330
D1
100
AcDbEntity
  8
GRAU_10_
 62
     7
100
AcDbVertex
100
AcDb2dVertex
 10
141.1848638528418
 20
220.1571457782941
 30
0.0
  0
VERTEX
  5
D4
330
D1
100
AcDbEntity
  8
GRAU_10_
 62
     7
100
AcDbVertex
100
AcDb2dVertex
 10
141.355255519466
 20
219.9401874450148
 30
0.0
  0
VERTEX
  5
D5
330
D1
100
AcDbEntity
  8
GRAU_10_
 62
     7
100
AcDbVertex
100
AcDb2dVertex
 10
141.5263527416453
 20
219.7232291117357
 30
0.0
  0
SEQEND
  5
D6
330
D1
100
AcDbEntity
  8
GRAU_10_
 62
     7
  0
POLYLINE
  5
D7
330
1F
100
AcDbEntity
  8
GRAU_10_
 62
     7
100
AcDb2dPolyline
 66
     1
 10
0.0
 20
0.0
 30
0.0
  0
VERTEX
  5
D8
330
D7
100
AcDbEntity
  8
GRAU_10_
 62
     7
100
AcDbVertex
100
AcDb2dVertex
 10
141.0268194084371
 20
207.9760818924506
 30
0.0
  0
VERTEX
  5
D9
330
D7
100
AcDbEntity
  8
GRAU_10_
 62
     7
100
AcDbVertex
100
AcDb2dVertex
 10
141.0268194084371
 20
209.2503152254651
 30
0.0
  0
VERTEX
  5
DA
330
D7
100
AcDbEntity
  8
GRAU_10_
 62
     7
100
AcDbVertex
100
AcDb2dVertex
 10
141.0268194084371
 20
210.7150485584323
 30
0.0
  0
VERTEX
  5
DB
330
D7
100
AcDbEntity
  8
GRAU_10_
 62
     7
100
AcDbVertex
100
AcDb2dVertex
 10
141.0268194084371
 20
212.3522902246895
 30
0.0
  0
VERTEX
  5
DC
330
D7
100
AcDbEntity
  8
GRAU_10_
 62
     7
100
AcDbVertex
100
AcDb2dVertex
 10
141.0268194084371
 20
214.1429902242422
 30
0.0
  0
VERTEX
  5
DD
330
D7
100
AcDbEntity
  8
GRAU_10_
 62
     7
100
AcDbVertex
100
AcDb2dVertex
 10
141.0268194084371
 20
216.0659818904278
 30
0.0
  0
VERTEX
  5
DE
330
D7
100
AcDbEntity
  8
GRAU_10_
 62
     7
100
AcDbVertex
100
AcDb2dVertex
 10
141.0268194084371
 20
218.0979818899199
 30
0.0
  0
VERTEX
  5
DF
330
D7
100
AcDbEntity
  8
GRAU_10_
 62
     7
100
AcDbVertex
100
AcDb2dVertex
 10
141.0268194084371
 20
220.2150013338351
 30
0.0
  0
SEQEND
  5
E0
330
D7
100
AcDbEntity
  8
GRAU_10_
 62
     7
  0
POLYLINE
  5
E1
330
1F
100
AcDbEntity
  8
GRAU_10_
 62
     7
100
AcDb2dPolyline
 66
     1
 10
0.0
 20
0.0
 30
0.0
  0
VERTEX
  5
E2
330
E1
100
AcDbEntity
  8
GRAU_10_
 62
     7
100
AcDbVertex
100
AcDb2dVertex
 10
146.8681138514212
 20
220.1571457782941
 30
0.0
  0
VERTEX
  5
E3
330
E1
100
AcDbEntity
  8
GRAU_10_
 62
     7
100
AcDbVertex
100
AcDb2dVertex
 10
141.1848638528418
 20
220.1571457782941
 30
0.0
  0
SEQEND
  5
E4
330
E1
100
AcDbEntity
  8
GRAU_10_
 62
     7
  0
POLYLINE
  5
E5
330
1F
100
AcDbEntity
  8
GRAU_10_
 62
     7
100
AcDb2dPolyline
 66
     1
 10
0.0
 20
0.0
 30
0.0
  0
VERTEX
  5
E6
330
E5
100
AcDbEntity
  8
GRAU_10_
 62
     7
100
AcDbVertex
100
AcDb2dVertex
 10
147.0268638513815
 20
220.8732846670039
 30
0.0
  0
VERTEX
  5
E7
330
E5
100
AcDbEntity
  8
GRAU_10_
 62
     7
100
AcDbVertex
100
AcDb2dVertex
 10
141.0268194084371
 20
220.8732846670039
 30
0.0
  0
SEQEND
  5
E8
330
E5
100
AcDbEntity
  8
GRAU_10_
 62
     7
  0
POLYLINE
  5
E9
330
1F
100
AcDbEntity
  8
GRAU_10_
 62
     7
100
AcDb2dPolyline
 66
     1
 10
0.0
 20
0.0
 30
0.0
  0
VERTEX
  5
EA
330
E9
100
AcDbEntity
  8
GRAU_10_
 62
     7
100
AcDbVertex
100
AcDb2dVertex
 10
147.0268638513815
 20
220.2150013338351
 30
0.0
  0
VERTEX
  5
EB
330
E9
100
AcDbEntity
  8
GRAU_10_
 62
     7
100
AcDbVertex
100
AcDb2dVertex
 10
147.0268638513815
 20
220.8732846670039
 30
0.0
  0
SEQEND
  5
EC
330
E9
100
AcDbEntity
  8
GRAU_10_
 62
     7
  0
POLYLINE
  5
ED
330
1F
100
AcDbEntity
  8
GRAU_10_
 62
     7
100
AcDb2dPolyline
 66
     1
 10
0.0
 20
0.0
 30
0.0
  0
VERTEX
  5
EE
330
ED
100
AcDbEntity
  8
GRAU_10_
 62
     7
100
AcDbVertex
100
AcDb2dVertex
 10
141.0268194084371
 20
220.2150013338351
 30
0.0
  0
VERTEX
  5
EF
330
ED
100
AcDbEntity
  8
GRAU_10_
 62
     7
100
AcDbVertex
100
AcDb2dVertex
 10
141.0268194084371
 20
220.8732846670039
 30
0.0
  0
SEQEND
  5
F0
330
ED
100
AcDbEntity
  8
GRAU_10_
 62
     7
  0
POLYLINE
  5
F1
330
1F
100
AcDbEntity
  8
GRAU_10_
 62
     7
100
AcDb2dPolyline
 66
     1
 10
0.0
 20
0.0
 30
0.0
  0
VERTEX
  5
F2
330
F1
100
AcDbEntity
  8
GRAU_10_
 62
     7
100
AcDbVertex
100
AcDb2dVertex
 10
147.0268638513815
 20
225.1934013325905
 30
0.0
  0
VERTEX
  5
F3
330
F1
100
AcDbEntity
  8
GRAU_10_
 62
     7
100
AcDbVertex
100
AcDb2dVertex
 10
141.0268194084371
 20
225.1934013325905
 30
0.0
  0
SEQEND
  5
F4
330
F1
100
AcDbEntity
  8
GRAU_10_
 62
     7
  0
POLYLINE
  5
F5
330
1F
100
AcDbEntity
  8
GRAU_10_
 62
     7
100
AcDb2dPolyline
 66
     1
 10
0.0
 20
0.0
 30
0.0
  0
VERTEX
  5
F6
330
F5
100
AcDbEntity
  8
GRAU_10_
 62
     7
100
AcDbVertex
100
AcDb2dVertex
 10
147.0268638513815
 20
225.6523652213648
 30
0.0
  0
VERTEX
  5
F7
330
F5
100
AcDbEntity
  8
GRAU_10_
 62
     7
100
AcDbVertex
100
AcDb2dVertex
 10
147.0268638513815
 20
225.1934013325905
 30
0.0
  0
SEQEND
  5
F8
330
F5
100
AcDbEntity
  8
GRAU_10_
 62
     7
  0
POLYLINE
  5
F9
330
1F
100
AcDbEntity
  8
GRAU_10_
 62
     7
100
AcDb2dPolyline
 66
     1
 10
0.0
 20
0.0
 30
0.0
  0
VERTEX
  5
FA
330
F9
100
AcDbEntity
  8
GRAU_10_
 62
     7
100
AcDbVertex
100
AcDb2dVertex
 10
141.0268194084371
 20
225.1934013325905
 30
0.0
  0
VERTEX
  5
FB
330
F9
100
AcDbEntity
  8
GRAU_10_
 62
     7
100
AcDbVertex
100
AcDb2dVertex
 10
141.0268194084371
 20
225.6523652213648
 30
0.0
  0
SEQEND
  5
FC
330
F9
100
AcDbEntity
  8
GRAU_10_
 62
     7
  0
POLYLINE
  5
FD
330
1F
100
AcDbEntity
  8
GRAU_10_
 62
     7
100
AcDb2dPolyline
 66
     1
 10
0.0
 20
0.0
 30
0.0
  0
VERTEX
  5
FE
330
FD
100
AcDbEntity
  8
GRAU_10_
 62
     7
100
AcDbVertex
100
AcDb2dVertex
 10
141.0268194084371
 20
221.4155041113128
 30
0.0
  0
VERTEX
  5
FF
330
FD
100
AcDbEntity
  8
GRAU_10_
 62
     7
100
AcDbVertex
100
AcDb2dVertex
 10
147.0268638513815
 20
221.4155041113128
 30
0.0
  0
VERTEX
  5
100
330
FD
100
AcDbEntity
  8
GRAU_10_
 62
     7
100
AcDbVertex
100
AcDb2dVertex
 10
147.0268638513815
 20
225.1934013325905
 30
0.0
  0
SEQEND
  5
101
330
FD
100
AcDbEntity
  8
GRAU_10_
 62
     7
  0
POLYLINE
  5
102
330
1F
100
AcDbEntity
  8
GRAU_10_
 62
     7
100
AcDb2dPolyline
 66
     1
 10
0.0
 20
0.0
 30
0.0
  0
VERTEX
  5
103
330
102
100
AcDbEntity
  8
GRAU_10_
 62
     7
100
AcDbVertex
100
AcDb2dVertex
 10
141.0268194084371
 20
221.4155041113128
 30
0.0
  0
VERTEX
  5
104
330
102
100
AcDbEntity
  8
GRAU_10_
 62
     7
100
AcDbVertex
100
AcDb2dVertex
 10
141.0268194084371
 20
225.1934013325905
 30
0.0
  0
SEQEND
  5
105
330
102
100
AcDbEntity
  8
GRAU_10_
 62
     7
  0
POLYLINE
  5
106
330
1F
100
AcDbEntity
  8
GRAU_10_
 62
     7
100
AcDb2dPolyline
 66
     1
 10
0.0
 20
0.0
 30
0.0
  0
VERTEX
  5
107
330
106
100
AcDbEntity
  8
GRAU_10_
 62
     7
100
AcDbVertex
100
AcDb2dVertex
 10
147.0268638513815
 20
221.4155041113128
 30
0.0
  0
VERTEX
  5
108
330
106
100
AcDbEntity
  8
GRAU_10_
 62
     7
100
AcDbVertex
100
AcDb2dVertex
 10
147.0268638513815
 20
220.8732846670039
 30
0.0
  0
SEQEND
  5
109
330
106
100
AcDbEntity
  8
GRAU_10_
 62
     7
  0
POLYLINE
  5
10A
330
1F
100
AcDbEntity
  8
GRAU_10_
 62
     7
100
AcDb2dPolyline
 66
     1
 10
0.0
 20
0.0
 30
0.0
  0
VERTEX
  5
10B
330
10A
100
AcDbEntity
  8
GRAU_10_
 62
     7
100
AcDbVertex
100
AcDb2dVertex
 10
141.0268194084371
 20
220.8732846670039
 30
0.0
  0
VERTEX
  5
10C
330
10A
100
AcDbEntity
  8
GRAU_10_
 62
     7
100
AcDbVertex
100
AcDb2dVertex
 10
141.0268194084371
 20
221.4155041113128
 30
0.0
  0
SEQEND
  5
10D
330
10A
100
AcDbEntity
  8
GRAU_10_
 62
     7
  0
POLYLINE
  5
10E
330
1F
100
AcDbEntity
  8
GRAU_10_
 62
     7
100
AcDb2dPolyline
 66
     1
 10
0.0
 20
0.0
 30
0.0
  0
VERTEX
  5
10F
330
10E
100
AcDbEntity
  8
GRAU_10_
 62
     7
100
AcDbVertex
100
AcDb2dVertex
 10
133.0265249659928
 20
241.248670773021
 30
0.0
  0
VERTEX
  5
110
330
10E
100
AcDbEntity
  8
GRAU_10_
 62
     7
100
AcDbVertex
100
AcDb2dVertex
 10
132.0267527440203
 20
240.2485457732713
 30
0.0
  0
SEQEND
  5
111
330
10E
100
AcDbEntity
  8
GRAU_10_
 62
     7
  0
POLYLINE
  5
112
330
1F
100
AcDbEntity
  8
GRAU_10_
 62
     7
100
AcDb2dPolyline
 66
     1
 10
0.0
 20
0.0
 30
0.0
  0
VERTEX
  5
113
330
112
100
AcDbEntity
  8
GRAU_10_
 62
     7
100
AcDbVertex
100
AcDb2dVertex
 10
132.0267527440203
 20
210.2486763363266
 30
0.0
  0
VERTEX
  5
114
330
112
100
AcDbEntity
  8
GRAU_10_
 62
     7
100
AcDbVertex
100
AcDb2dVertex
 10
133.0265249659928
 20
209.248551336577
 30
0.0
  0
SEQEND
  5
115
330
112
100
AcDbEntity
  8
GRAU_10_
 62
     7
  0
POLYLINE
  5
116
330
1F
100
AcDbEntity
  8
GRAU_10_
 62
     7
100
AcDb2dPolyline
 66
     1
 10
0.0
 20
0.0
 30
0.0
  0
VERTEX
  5
117
330
116
100
AcDbEntity
  8
GRAU_10_
 62
     7
100
AcDbVertex
100
AcDb2dVertex
 10
132.0267527440203
 20
210.2486763363266
 30
0.0
  0
VERTEX
  5
118
330
116
100
AcDbEntity
  8
GRAU_10_
 62
     7
100
AcDbVertex
100
AcDb2dVertex
 10
132.0267527440203
 20
210.3576846696331
 30
0.0
  0
VERTEX
  5
119
330
116
100
AcDbEntity
  8
GRAU_10_
 62
     7
100
AcDbVertex
100
AcDb2dVertex
 10
132.0267527440203
 20
210.6847096695512
 30
0.0
  0
VERTEX
  5
11A
330
116
100
AcDbEntity
  8
GRAU_10_
 62
     7
100
AcDbVertex
100
AcDb2dVertex
 10
132.0267527440203
 20
211.2230485583055
 30
0.0
  0
VERTEX
  5
11B
330
116
100
AcDbEntity
  8
GRAU_10_
 62
     7
100
AcDbVertex
100
AcDb2dVertex
 10
132.0267527440203
 20
211.9670568914529
 30
0.0
  0
VERTEX
  5
11C
330
116
100
AcDbEntity
  8
GRAU_10_
 62
     7
100
AcDbVertex
100
AcDb2dVertex
 10
132.0267527440203
 20
212.9036818912184
 30
0.0
  0
VERTEX
  5
11D
330
116
100
AcDbEntity
  8
GRAU_10_
 62
     7
100
AcDbVertex
100
AcDb2dVertex
 10
132.0267527440203
 20
214.0209291131614
 30
0.0
  0
VERTEX
  5
11E
330
116
100
AcDbEntity
  8
GRAU_10_
 62
     7
100
AcDbVertex
100
AcDb2dVertex
 10
132.0267527440203
 20
215.3015124461746
 30
0.0
  0
VERTEX
  5
11F
330
116
100
AcDbEntity
  8
GRAU_10_
 62
     7
100
AcDbVertex
100
AcDb2dVertex
 10
132.0267527440203
 20
216.7274402235957
 30
0.0
  0
VERTEX
  5
120
330
116
100
AcDbEntity
  8
GRAU_10_
 62
     7
100
AcDbVertex
100
AcDb2dVertex
 10
132.0267527440203
 20
218.2775457787639
 30
0.0
  0
VERTEX
  5
121
330
116
100
AcDbEntity
  8
GRAU_10_
 62
     7
100
AcDbVertex
100
AcDb2dVertex
 10
132.0267527440203
 20
219.9292513339067
 30
0.0
  0
VERTEX
  5
122
330
116
100
AcDbEntity
  8
GRAU_10_
 62
     7
100
AcDbVertex
100
AcDb2dVertex
 10
132.0267527440203
 20
221.6582152223633
 30
0.0
  0
VERTEX
  5
123
330
116
100
AcDbEntity
  8
GRAU_10_
 62
     7
100
AcDbVertex
100
AcDb2dVertex
 10
132.0267527440203
 20
223.4400957774732
 30
0.0
  0
VERTEX
  5
124
330
116
100
AcDbEntity
  8
GRAU_10_
 62
     7
100
AcDbVertex
100
AcDb2dVertex
 10
132.0267527440203
 20
225.2480818881323
 30
0.0
  0
VERTEX
  5
125
330
116
100
AcDbEntity
  8
GRAU_10_
 62
     7
100
AcDbVertex
100
AcDb2dVertex
 10
132.0267527440203
 20
227.0560679987914
 30
0.0
  0
VERTEX
  5
126
330
116
100
AcDbEntity
  8
GRAU_10_
 62
     7
100
AcDbVertex
100
AcDb2dVertex
 10
132.0267527440203
 20
228.8375957761239
 30
0.0
  0
VERTEX
  5
127
330
116
100
AcDbEntity
  8
GRAU_10_
 62
     7
100
AcDbVertex
100
AcDb2dVertex
 10
132.0267527440203
 20
230.567265220136
 30
0.0
  0
VERTEX
  5
128
330
116
100
AcDbEntity
  8
GRAU_10_
 62
     7
100
AcDbVertex
100
AcDb2dVertex
 10
132.0267527440203
 20
232.2189707752786
 30
0.0
  0
VERTEX
  5
129
330
116
100
AcDbEntity
  8
GRAU_10_
 62
     7
100
AcDbVertex
100
AcDb2dVertex
 10
132.0267527440203
 20
233.7690763304467
 30
0.0
  0
VERTEX
  5
12A
330
116
100
AcDbEntity
  8
GRAU_10_
 62
     7
100
AcDbVertex
100
AcDb2dVertex
 10
132.0267527440203
 20
235.19465133009
 30
0.0
  0
VERTEX
  5
12B
330
116
100
AcDbEntity
  8
GRAU_10_
 62
     7
100
AcDbVertex
100
AcDb2dVertex
 10
132.0267527440203
 20
236.4759402186588
 30
0.0
  0
VERTEX
  5
12C
330
116
100
AcDbEntity
  8
GRAU_10_
 62
     7
100
AcDbVertex
100
AcDb2dVertex
 10
132.0267527440203
 20
237.5924818850463
 30
0.0
  0
VERTEX
  5
12D
330
116
100
AcDbEntity
  8
GRAU_10_
 62
     7
100
AcDbVertex
100
AcDb2dVertex
 10
132.0267527440203
 20
238.530165218145
 30
0.0
  0
VERTEX
  5
12E
330
116
100
AcDbEntity
  8
GRAU_10_
 62
     7
100
AcDbVertex
100
AcDb2dVertex
 10
132.0267527440203
 20
239.273467995737
 30
0.0
  0
VERTEX
  5
12F
330
116
100
AcDbEntity
  8
GRAU_10_
 62
     7
100
AcDbVertex
100
AcDb2dVertex
 10
132.0267527440203
 20
239.8125124400467
 30
0.0
  0
VERTEX
  5
130
330
116
100
AcDbEntity
  8
GRAU_10_
 62
     7
100
AcDbVertex
100
AcDb2dVertex
 10
132.0267527440203
 20
240.13883188441
 30
0.0
  0
VERTEX
  5
131
330
116
100
AcDbEntity
  8
GRAU_10_
 62
     7
100
AcDbVertex
100
AcDb2dVertex
 10
132.0267527440203
 20
240.2485457732713
 30
0.0
  0
SEQEND
  5
132
330
116
100
AcDbEntity
  8
GRAU_10_
 62
     7
  0
POLYLINE
  5
133
330
1F
100
AcDbEntity
  8
GRAU_10_
 62
     7
100
AcDb2dPolyline
 66
     1
 10
0.0
 20
0.0
 30
0.0
  0
VERTEX
  5
134
330
133
100
AcDbEntity
  8
GRAU_10_
 62
     7
100
AcDbVertex
100
AcDb2dVertex
 10
133.0265249659928
 20
241.248670773021
 30
0.0
  0
VERTEX
  5
135
330
133
100
AcDbEntity
  8
GRAU_10_
 62
     7
100
AcDbVertex
100
AcDb2dVertex
 10
133.0265249659928
 20
241.1403679952707
 30
0.0
  0
VERTEX
  5
136
330
133
100
AcDbEntity
  8
GRAU_10_
 62
     7
100
AcDbVertex
100
AcDb2dVertex
 10
133.0265249659928
 20
240.8168707731289
 30
0.0
  0
VERTEX
  5
137
330
133
100
AcDbEntity
  8
GRAU_10_
 62
     7
100
AcDbVertex
100
AcDb2dVertex
 10
133.0265249659928
 20
240.2831179954849
 30
0.0
  0
VERTEX
  5
138
330
133
100
AcDbEntity
  8
GRAU_10_
 62
     7
100
AcDbVertex
100
AcDb2dVertex
 10
133.0265249659928
 20
239.5465179956691
 30
0.0
  0
VERTEX
  5
139
330
133
100
AcDbEntity
  8
GRAU_10_
 62
     7
100
AcDbVertex
100
AcDb2dVertex
 10
133.0265249659928
 20
238.6155374403459
 30
0.0
  0
VERTEX
  5
13A
330
133
100
AcDbEntity
  8
GRAU_10_
 62
     7
100
AcDbVertex
100
AcDb2dVertex
 10
133.0265249659928
 20
237.5042874406239
 30
0.0
  0
VERTEX
  5
13B
330
133
100
AcDbEntity
  8
GRAU_10_
 62
     7
100
AcDbVertex
100
AcDb2dVertex
 10
133.0265249659928
 20
236.2275846631651
 30
0.0
  0
VERTEX
  5
13C
330
133
100
AcDbEntity
  8
GRAU_10_
 62
     7
100
AcDbVertex
100
AcDb2dVertex
 10
133.0265249659928
 20
234.8027152190773
 30
0.0
  0
VERTEX
  5
13D
330
133
100
AcDbEntity
  8
GRAU_10_
 62
     7
100
AcDbVertex
100
AcDb2dVertex
 10
133.0265249659928
 20
233.2476707750214
 30
0.0
  0
VERTEX
  5
13E
330
133
100
AcDbEntity
  8
GRAU_10_
 62
     7
100
AcDbVertex
100
AcDb2dVertex
 10
133.0265249659928
 20
231.5850291087702
 30
0.0
  0
VERTEX
  5
13F
330
133
100
AcDbEntity
  8
GRAU_10_
 62
     7
100
AcDbVertex
100
AcDb2dVertex
 10
133.0265249659928
 20
229.8366624425406
 30
0.0
  0
VERTEX
  5
140
330
133
100
AcDbEntity
  8
GRAU_10_
 62
     7
100
AcDbVertex
100
AcDb2dVertex
 10
133.0265249659928
 20
228.0265596652156
 30
0.0
  0
VERTEX
  5
141
330
133
100
AcDbEntity
  8
GRAU_10_
 62
     7
100
AcDbVertex
100
AcDb2dVertex
 10
133.0265249659928
 20
226.1780041101222
 30
0.0
  0
VERTEX
  5
142
330
133
100
AcDbEntity
  8
GRAU_10_
 62
     7
100
AcDbVertex
100
AcDb2dVertex
 10
133.0265249659928
 20
224.3174541105876
 30
0.0
  0
VERTEX
  5
143
330
133
100
AcDbEntity
  8
GRAU_10_
 62
     7
100
AcDbVertex
100
AcDb2dVertex
 10
133.0265249659928
 20
222.4699568888269
 30
0.0
  0
VERTEX
  5
144
330
133
100
AcDbEntity
  8
GRAU_10_
 62
     7
100
AcDbVertex
100
AcDb2dVertex
 10
133.0265249659928
 20
220.6591485559463
 30
0.0
  0
VERTEX
  5
145
330
133
100
AcDbEntity
  8
GRAU_10_
 62
     7
100
AcDbVertex
100
AcDb2dVertex
 10
133.0265249659928
 20
218.9107818897167
 30
0.0
  0
VERTEX
  5
146
330
133
100
AcDbEntity
  8
GRAU_10_
 62
     7
100
AcDbVertex
100
AcDb2dVertex
 10
133.0265249659928
 20
217.2484930012435
 30
0.0
  0
VERTEX
  5
147
330
133
100
AcDbEntity
  8
GRAU_10_
 62
     7
100
AcDbVertex
100
AcDb2dVertex
 10
133.0265249659928
 20
215.6938013349655
 30
0.0
  0
VERTEX
  5
148
330
133
100
AcDbEntity
  8
GRAU_10_
 62
     7
100
AcDbVertex
100
AcDb2dVertex
 10
133.0265249659928
 20
214.2685791130996
 30
0.0
  0
VERTEX
  5
149
330
133
100
AcDbEntity
  8
GRAU_10_
 62
     7
100
AcDbVertex
100
AcDb2dVertex
 10
133.0265249659928
 20
212.991523557863
 30
0.0
  0
VERTEX
  5
14A
330
133
100
AcDbEntity
  8
GRAU_10_
 62
     7
100
AcDbVertex
100
AcDb2dVertex
 10
133.0265249659928
 20
211.8806263359187
 30
0.0
  0
VERTEX
  5
14B
330
133
100
AcDbEntity
  8
GRAU_10_
 62
     7
100
AcDbVertex
100
AcDb2dVertex
 10
133.0265249659928
 20
210.9507041139288
 30
0.0
  0
VERTEX
  5
14C
330
133
100
AcDbEntity
  8
GRAU_10_
 62
     7
100
AcDbVertex
100
AcDb2dVertex
 10
133.0265249659928
 20
210.2133985585575
 30
0.0
  0
VERTEX
  5
14D
330
133
100
AcDbEntity
  8
GRAU_10_
 62
     7
100
AcDbVertex
100
AcDb2dVertex
 10
133.0265249659928
 20
209.6796457809135
 30
0.0
  0
VERTEX
  5
14E
330
133
100
AcDbEntity
  8
GRAU_10_
 62
     7
100
AcDbVertex
100
AcDb2dVertex
 10
133.0265249659928
 20
209.3568541143273
 30
0.0
  0
VERTEX
  5
14F
330
133
100
AcDbEntity
  8
GRAU_10_
 62
     7
100
AcDbVertex
100
AcDb2dVertex
 10
133.0265249659928
 20
209.248551336577
 30
0.0
  0
SEQEND
  5
150
330
133
100
AcDbEntity
  8
GRAU_10_
 62
     7
  0
POLYLINE
  5
151
330
1F
100
AcDbEntity
  8
GRAU_10_
 62
     7
100
AcDb2dPolyline
 66
     1
 10
0.0
 20
0.0
 30
0.0
  0
VERTEX
  5
152
330
151
100
AcDbEntity
  8
GRAU_10_
 62
     7
100
AcDbVertex
100
AcDb2dVertex
 10
155.0268055160481
 20
209.248551336577
 30
0.0
  0
VERTEX
  5
153
330
151
100
AcDbEntity
  8
GRAU_10_
 62
     7
100
AcDbVertex
100
AcDb2dVertex
 10
156.0265777380203
 20
210.2486763363266
 30
0.0
  0
SEQEND
  5
154
330
151
100
AcDbEntity
  8
GRAU_10_
 62
     7
  0
POLYLINE
  5
155
330
1F
100
AcDbEntity
  8
GRAU_10_
 62
     7
100
AcDb2dPolyline
 66
     1
 10
0.0
 20
0.0
 30
0.0
  0
VERTEX
  5
156
330
155
100
AcDbEntity
  8
GRAU_10_
 62
     7
100
AcDbVertex
100
AcDb2dVertex
 10
156.0265777380203
 20
240.2485457732713
 30
0.0
  0
VERTEX
  5
157
330
155
100
AcDbEntity
  8
GRAU_10_
 62
     7
100
AcDbVertex
100
AcDb2dVertex
 10
155.0268055160481
 20
241.248670773021
 30
0.0
  0
SEQEND
  5
158
330
155
100
AcDbEntity
  8
GRAU_10_
 62
     7
  0
POLYLINE
  5
159
330
1F
100
AcDbEntity
  8
GRAU_10_
 62
     7
100
AcDb2dPolyline
 66
     1
 10
0.0
 20
0.0
 30
0.0
  0
VERTEX
  5
15A
330
159
100
AcDbEntity
  8
GRAU_10_
 62
     7
100
AcDbVertex
100
AcDb2dVertex
 10
155.0268055160481
 20
210.6095680029034
 30
0.0
  0
VERTEX
  5
15B
330
159
100
AcDbEntity
  8
GRAU_10_
 62
     7
100
AcDbVertex
100
AcDb2dVertex
 10
155.0268055160481
 20
211.435773558252
 30
0.0
  0
VERTEX
  5
15C
330
159
100
AcDbEntity
  8
GRAU_10_
 62
     7
100
AcDbVertex
100
AcDb2dVertex
 10
155.0268055160481
 20
212.439779113557
 30
0.0
  0
VERTEX
  5
15D
330
159
100
AcDbEntity
  8
GRAU_10_
 62
     7
100
AcDbVertex
100
AcDb2dVertex
 10
155.0268055160481
 20
213.6088846688198
 30
0.0
  0
VERTEX
  5
15E
330
159
100
AcDbEntity
  8
GRAU_10_
 62
     7
100
AcDbVertex
100
AcDb2dVertex
 10
155.0268055160481
 20
214.928273557379
 30
0.0
  0
VERTEX
  5
15F
330
159
100
AcDbEntity
  8
GRAU_10_
 62
     7
100
AcDbVertex
100
AcDb2dVertex
 10
155.0268055160481
 20
216.3806596681268
 30
0.0
  0
VERTEX
  5
160
330
159
100
AcDbEntity
  8
GRAU_10_
 62
     7
100
AcDbVertex
100
AcDb2dVertex
 10
155.0268055160481
 20
217.9473457788465
 30
0.0
  0
VERTEX
  5
161
330
159
100
AcDbEntity
  8
GRAU_10_
 62
     7
100
AcDbVertex
100
AcDb2dVertex
 10
155.0268055160481
 20
219.6082235562093
 30
0.0
  0
VERTEX
  5
162
330
159
100
AcDbEntity
  8
GRAU_10_
 62
     7
100
AcDbVertex
100
AcDb2dVertex
 10
155.0268055160481
 20
221.3421263335532
 30
0.0
  0
VERTEX
  5
163
330
159
100
AcDbEntity
  8
GRAU_10_
 62
     7
100
AcDbVertex
100
AcDb2dVertex
 10
155.0268055160481
 20
223.1254179997742
 30
0.0
  0
VERTEX
  5
164
330
159
100
AcDbEntity
  8
GRAU_10_
 62
     7
100
AcDbVertex
100
AcDb2dVertex
 10
155.0268055160481
 20
224.9365791104325
 30
0.0
  0
VERTEX
  5
165
330
159
100
AcDbEntity
  8
GRAU_10_
 62
     7
100
AcDbVertex
100
AcDb2dVertex
 10
155.0268055160481
 20
226.7519735544233
 30
0.0
  0
VERTEX
  5
166
330
159
100
AcDbEntity
  8
GRAU_10_
 62
     7
100
AcDbVertex
100
AcDb2dVertex
 10
155.0268055160481
 20
228.5476124428633
 30
0.0
  0
VERTEX
  5
167
330
159
100
AcDbEntity
  8
GRAU_10_
 62
     7
100
AcDbVertex
100
AcDb2dVertex
 10
155.0268055160481
 20
230.3012707757581
 30
0.0
  0
VERTEX
  5
168
330
159
100
AcDbEntity
  8
GRAU_10_
 62
     7
100
AcDbVertex
100
AcDb2dVertex
 10
155.0268055160481
 20
231.9893124420027
 30
0.0
  0
VERTEX
  5
169
330
159
100
AcDbEntity
  8
GRAU_10_
 62
     7
100
AcDbVertex
100
AcDb2dVertex
 10
155.0268055160481
 20
233.5909235527134
 30
0.0
  0
VERTEX
  5
16A
330
159
100
AcDbEntity
  8
GRAU_10_
 62
     7
100
AcDbVertex
100
AcDb2dVertex
 10
155.0268055160481
 20
235.0845846634509
 30
0.0
  0
VERTEX
  5
16B
330
159
100
AcDbEntity
  8
GRAU_10_
 62
     7
100
AcDbVertex
100
AcDb2dVertex
 10
155.0268055160481
 20
236.451598551998
 30
0.0
  0
VERTEX
  5
16C
330
159
100
AcDbEntity
  8
GRAU_10_
 62
     7
100
AcDbVertex
100
AcDb2dVertex
 10
155.0268055160481
 20
237.6739735516925
 30
0.0
  0
VERTEX
  5
16D
330
159
100
AcDbEntity
  8
GRAU_10_
 62
     7
100
AcDbVertex
100
AcDb2dVertex
 10
155.0268055160481
 20
238.7368929958715
 30
0.0
  0
VERTEX
  5
16E
330
159
100
AcDbEntity
  8
GRAU_10_
 62
     7
100
AcDbVertex
100
AcDb2dVertex
 10
155.0268055160481
 20
239.6255402178716
 30
0.0
  0
VERTEX
  5
16F
330
159
100
AcDbEntity
  8
GRAU_10_
 62
     7
100
AcDbVertex
100
AcDb2dVertex
 10
155.0268055160481
 20
240.328273551029
 30
0.0
  0
VERTEX
  5
170
330
159
100
AcDbEntity
  8
GRAU_10_
 62
     7
100
AcDbVertex
100
AcDb2dVertex
 10
155.0268055160481
 20
240.8373318842352
 30
0.0
  0
VERTEX
  5
171
330
159
100
AcDbEntity
  8
GRAU_10_
 62
     7
100
AcDbVertex
100
AcDb2dVertex
 10
155.0268055160481
 20
241.1456596619358
 30
0.0
  0
VERTEX
  5
172
330
159
100
AcDbEntity
  8
GRAU_10_
 62
     7
100
AcDbVertex
100
AcDb2dVertex
 10
155.0268055160481
 20
241.248670773021
 30
0.0
  0
SEQEND
  5
173
330
159
100
AcDbEntity
  8
GRAU_10_
 62
     7
  0
POLYLINE
  5
174
330
1F
100
AcDbEntity
  8
GRAU_10_
 62
     7
100
AcDb2dPolyline
 66
     1
 10
0.0
 20
0.0
 30
0.0
  0
VERTEX
  5
175
330
174
100
AcDbEntity
  8
GRAU_10_
 62
     7
100
AcDbVertex
100
AcDb2dVertex
 10
155.0268055160481
 20
209.248551336577
 30
0.0
  0
VERTEX
  5
176
330
174
100
AcDbEntity
  8
GRAU_10_
 62
     7
100
AcDbVertex
100
AcDb2dVertex
 10
155.0268055160481
 20
209.4013041143162
 30
0.0
  0
VERTEX
  5
177
330
174
100
AcDbEntity
  8
GRAU_10_
 62
     7
100
AcDbVertex
100
AcDb2dVertex
 10
155.0268055160481
 20
209.8581513364242
 30
0.0
  0
VERTEX
  5
178
330
174
100
AcDbEntity
  8
GRAU_10_
 62
     7
100
AcDbVertex
100
AcDb2dVertex
 10
155.0268055160481
 20
210.6095680029034
 30
0.0
  0
SEQEND
  5
179
330
174
100
AcDbEntity
  8
GRAU_10_
 62
     7
  0
POLYLINE
  5
17A
330
1F
100
AcDbEntity
  8
GRAU_10_
 62
     7
100
AcDb2dPolyline
 66
     1
 10
0.0
 20
0.0
 30
0.0
  0
VERTEX
  5
17B
330
17A
100
AcDbEntity
  8
GRAU_10_
 62
     7
100
AcDbVertex
100
AcDb2dVertex
 10
156.0265777380203
 20
211.5243207804521
 30
0.0
  0
VERTEX
  5
17C
330
17A
100
AcDbEntity
  8
GRAU_10_
 62
     7
100
AcDbVertex
100
AcDb2dVertex
 10
156.0265777380203
 20
210.820176336184
 30
0.0
  0
VERTEX
  5
17D
330
17A
100
AcDbEntity
  8
GRAU_10_
 62
     7
100
AcDbVertex
100
AcDb2dVertex
 10
156.0265777380203
 20
210.3919041140689
 30
0.0
  0
VERTEX
  5
17E
330
17A
100
AcDbEntity
  8
GRAU_10_
 62
     7
100
AcDbVertex
100
AcDb2dVertex
 10
156.0265777380203
 20
210.2486763363266
 30
0.0
  0
SEQEND
  5
17F
330
17A
100
AcDbEntity
  8
GRAU_10_
 62
     7
  0
POLYLINE
  5
180
330
1F
100
AcDbEntity
  8
GRAU_10_
 62
     7
100
AcDb2dPolyline
 66
     1
 10
0.0
 20
0.0
 30
0.0
  0
VERTEX
  5
181
330
180
100
AcDbEntity
  8
GRAU_10_
 62
     7
100
AcDbVertex
100
AcDb2dVertex
 10
156.0265777380203
 20
240.2485457732713
 30
0.0
  0
VERTEX
  5
182
330
180
100
AcDbEntity
  8
GRAU_10_
 62
     7
100
AcDbVertex
100
AcDb2dVertex
 10
156.0265777380203
 20
240.1434179955196
 30
0.0
  0
VERTEX
  5
183
330
180
100
AcDbEntity
  8
GRAU_10_
 62
     7
100
AcDbVertex
100
AcDb2dVertex
 10
156.0265777380203
 20
239.8294457733761
 30
0.0
  0
VERTEX
  5
184
330
180
100
AcDbEntity
  8
GRAU_10_
 62
     7
100
AcDbVertex
100
AcDb2dVertex
 10
156.0265777380203
 20
239.3105096623948
 30
0.0
  0
VERTEX
  5
185
330
180
100
AcDbEntity
  8
GRAU_10_
 62
     7
100
AcDbVertex
100
AcDb2dVertex
 10
156.0265777380203
 20
238.5943707736848
 30
0.0
  0
VERTEX
  5
186
330
180
100
AcDbEntity
  8
GRAU_10_
 62
     7
100
AcDbVertex
100
AcDb2dVertex
 10
156.0265777380203
 20
237.6909068850219
 30
0.0
  0
VERTEX
  5
187
330
180
100
AcDbEntity
  8
GRAU_10_
 62
     7
100
AcDbVertex
100
AcDb2dVertex
 10
156.0265777380203
 20
236.6124652186245
 30
0.0
  0
VERTEX
  5
188
330
180
100
AcDbEntity
  8
GRAU_10_
 62
     7
100
AcDbVertex
100
AcDb2dVertex
 10
156.0265777380203
 20
235.3752735522673
 30
0.0
  0
VERTEX
  5
189
330
180
100
AcDbEntity
  8
GRAU_10_
 62
     7
100
AcDbVertex
100
AcDb2dVertex
 10
156.0265777380203
 20
233.9952068859456
 30
0.0
  0
VERTEX
  5
18A
330
180
100
AcDbEntity
  8
GRAU_10_
 62
     7
100
AcDbVertex
100
AcDb2dVertex
 10
156.0265777380203
 20
232.4927263307656
 30
0.0
  0
VERTEX
  5
18B
330
180
100
AcDbEntity
  8
GRAU_10_
 62
     7
100
AcDbVertex
100
AcDb2dVertex
 10
156.0265777380203
 20
230.8886457756109
 30
0.0
  0
VERTEX
  5
18C
330
180
100
AcDbEntity
  8
GRAU_10_
 62
     7
100
AcDbVertex
100
AcDb2dVertex
 10
156.0265777380203
 20
229.2055429982543
 30
0.0
  0
VERTEX
  5
18D
330
180
100
AcDbEntity
  8
GRAU_10_
 62
     7
100
AcDbVertex
100
AcDb2dVertex
 10
156.0265777380203
 20
227.4670541098001
 30
0.0
  0
VERTEX
  5
18E
330
180
100
AcDbEntity
  8
GRAU_10_
 62
     7
100
AcDbVertex
100
AcDb2dVertex
 10
156.0265777380203
 20
225.6968152213538
 30
0.0
  0
VERTEX
  5
18F
330
180
100
AcDbEntity
  8
GRAU_10_
 62
     7
100
AcDbVertex
100
AcDb2dVertex
 10
156.0265777380203
 20
223.9205791106868
 30
0.0
  0
VERTEX
  5
190
330
180
100
AcDbEntity
  8
GRAU_10_
 62
     7
100
AcDbVertex
100
AcDb2dVertex
 10
156.0265777380203
 20
222.1633930000147
 30
0.0
  0
VERTEX
  5
191
330
180
100
AcDbEntity
  8
GRAU_10_
 62
     7
100
AcDbVertex
100
AcDb2dVertex
 10
156.0265777380203
 20
220.4488930004435
 30
0.0
  0
VERTEX
  5
192
330
180
100
AcDbEntity
  8
GRAU_10_
 62
     7
100
AcDbVertex
100
AcDb2dVertex
 10
156.0265777380203
 20
218.8021263341886
 30
0.0
  0
VERTEX
  5
193
330
180
100
AcDbEntity
  8
GRAU_10_
 62
     7
100
AcDbVertex
100
AcDb2dVertex
 10
156.0265777380203
 20
217.2456707790221
 30
0.0
  0
VERTEX
  5
194
330
180
100
AcDbEntity
  8
GRAU_10_
 62
     7
100
AcDbVertex
100
AcDb2dVertex
 10
156.0265777380203
 20
215.8017513349383
 30
0.0
  0
VERTEX
  5
195
330
180
100
AcDbEntity
  8
GRAU_10_
 62
     7
100
AcDbVertex
100
AcDb2dVertex
 10
156.0265777380203
 20
214.4904763352663
 30
0.0
  0
VERTEX
  5
196
330
180
100
AcDbEntity
  8
GRAU_10_
 62
     7
100
AcDbVertex
100
AcDb2dVertex
 10
156.0265777380203
 20
213.3294846688898
 30
0.0
  0
VERTEX
  5
197
330
180
100
AcDbEntity
  8
GRAU_10_
 62
     7
100
AcDbVertex
100
AcDb2dVertex
 10
156.0265777380203
 20
212.3364152246934
 30
0.0
  0
VERTEX
  5
198
330
180
100
AcDbEntity
  8
GRAU_10_
 62
     7
100
AcDbVertex
100
AcDb2dVertex
 10
156.0265777380203
 20
211.5243207804521
 30
0.0
  0
SEQEND
  5
199
330
180
100
AcDbEntity
  8
GRAU_10_
 62
     7
  0
POLYLINE
  5
19A
330
1F
100
AcDbEntity
  8
GRAU_10_
 62
     7
100
AcDb2dPolyline
 66
     1
 10
0.0
 20
0.0
 30
0.0
  0
VERTEX
  5
19B
330
19A
100
AcDbEntity
  8
GRAU_10_
 62
     7
100
AcDbVertex
100
AcDb2dVertex
 10
150.0261805172981
 20
241.248670773021
 30
0.0
  0
VERTEX
  5
19C
330
19A
100
AcDbEntity
  8
GRAU_10_
 62
     7
100
AcDbVertex
100
AcDb2dVertex
 10
148.4803082954625
 20
240.355790217689
 30
0.0
  0
SEQEND
  5
19D
330
19A
100
AcDbEntity
  8
GRAU_10_
 62
     7
  0
POLYLINE
  5
19E
330
1F
100
AcDbEntity
  8
GRAU_10_
 62
     7
100
AcDb2dPolyline
 66
     1
 10
0.0
 20
0.0
 30
0.0
  0
VERTEX
  5
19F
330
19E
100
AcDbEntity
  8
GRAU_10_
 62
     7
100
AcDbVertex
100
AcDb2dVertex
 10
148.4803082954625
 20
210.141431891909
 30
0.0
  0
VERTEX
  5
1A0
330
19E
100
AcDbEntity
  8
GRAU_10_
 62
     7
100
AcDbVertex
100
AcDb2dVertex
 10
150.0261805172981
 20
209.248551336577
 30
0.0
  0
SEQEND
  5
1A1
330
19E
100
AcDbEntity
  8
GRAU_10_
 62
     7
  0
POLYLINE
  5
1A2
330
1F
100
AcDbEntity
  8
GRAU_10_
 62
     7
100
AcDb2dPolyline
 66
     1
 10
0.0
 20
0.0
 30
0.0
  0
VERTEX
  5
1A3
330
1A2
100
AcDbEntity
  8
GRAU_10_
 62
     7
100
AcDbVertex
100
AcDb2dVertex
 10
150.0261805172981
 20
210.6095680029034
 30
0.0
  0
VERTEX
  5
1A4
330
1A2
100
AcDbEntity
  8
GRAU_10_
 62
     7
100
AcDbVertex
100
AcDb2dVertex
 10
150.0261805172981
 20
211.435773558252
 30
0.0
  0
VERTEX
  5
1A5
330
1A2
100
AcDbEntity
  8
GRAU_10_
 62
     7
100
AcDbVertex
100
AcDb2dVertex
 10
150.0261805172981
 20
212.439779113557
 30
0.0
  0
VERTEX
  5
1A6
330
1A2
100
AcDbEntity
  8
GRAU_10_
 62
     7
100
AcDbVertex
100
AcDb2dVertex
 10
150.0261805172981
 20
213.6088846688198
 30
0.0
  0
VERTEX
  5
1A7
330
1A2
100
AcDbEntity
  8
GRAU_10_
 62
     7
100
AcDbVertex
100
AcDb2dVertex
 10
150.0261805172981
 20
214.928273557379
 30
0.0
  0
VERTEX
  5
1A8
330
1A2
100
AcDbEntity
  8
GRAU_10_
 62
     7
100
AcDbVertex
100
AcDb2dVertex
 10
150.0261805172981
 20
216.3806596681268
 30
0.0
  0
VERTEX
  5
1A9
330
1A2
100
AcDbEntity
  8
GRAU_10_
 62
     7
100
AcDbVertex
100
AcDb2dVertex
 10
150.0261805172981
 20
217.9473457788465
 30
0.0
  0
VERTEX
  5
1AA
330
1A2
100
AcDbEntity
  8
GRAU_10_
 62
     7
100
AcDbVertex
100
AcDb2dVertex
 10
150.0261805172981
 20
219.6082235562093
 30
0.0
  0
VERTEX
  5
1AB
330
1A2
100
AcDbEntity
  8
GRAU_10_
 62
     7
100
AcDbVertex
100
AcDb2dVertex
 10
150.0261805172981
 20
221.3421263335532
 30
0.0
  0
VERTEX
  5
1AC
330
1A2
100
AcDbEntity
  8
GRAU_10_
 62
     7
100
AcDbVertex
100
AcDb2dVertex
 10
150.0261805172981
 20
223.1254179997742
 30
0.0
  0
VERTEX
  5
1AD
330
1A2
100
AcDbEntity
  8
GRAU_10_
 62
     7
100
AcDbVertex
100
AcDb2dVertex
 10
150.0261805172981
 20
224.9365791104325
 30
0.0
  0
VERTEX
  5
1AE
330
1A2
100
AcDbEntity
  8
GRAU_10_
 62
     7
100
AcDbVertex
100
AcDb2dVertex
 10
150.0261805172981
 20
226.7519735544233
 30
0.0
  0
VERTEX
  5
1AF
330
1A2
100
AcDbEntity
  8
GRAU_10_
 62
     7
100
AcDbVertex
100
AcDb2dVertex
 10
150.0261805172981
 20
228.5476124428633
 30
0.0
  0
VERTEX
  5
1B0
330
1A2
100
AcDbEntity
  8
GRAU_10_
 62
     7
100
AcDbVertex
100
AcDb2dVertex
 10
150.0261805172981
 20
230.3012707757581
 30
0.0
  0
VERTEX
  5
1B1
330
1A2
100
AcDbEntity
  8
GRAU_10_
 62
     7
100
AcDbVertex
100
AcDb2dVertex
 10
150.0261805172981
 20
231.9893124420027
 30
0.0
  0
VERTEX
  5
1B2
330
1A2
100
AcDbEntity
  8
GRAU_10_
 62
     7
100
AcDbVertex
100
AcDb2dVertex
 10
150.0261805172981
 20
233.5909235527134
 30
0.0
  0
VERTEX
  5
1B3
330
1A2
100
AcDbEntity
  8
GRAU_10_
 62
     7
100
AcDbVertex
100
AcDb2dVertex
 10
150.0261805172981
 20
235.0845846634509
 30
0.0
  0
VERTEX
  5
1B4
330
1A2
100
AcDbEntity
  8
GRAU_10_
 62
     7
100
AcDbVertex
100
AcDb2dVertex
 10
150.0261805172981
 20
236.451598551998
 30
0.0
  0
VERTEX
  5
1B5
330
1A2
100
AcDbEntity
  8
GRAU_10_
 62
     7
100
AcDbVertex
100
AcDb2dVertex
 10
150.0261805172981
 20
237.6739735516925
 30
0.0
  0
VERTEX
  5
1B6
330
1A2
100
AcDbEntity
  8
GRAU_10_
 62
     7
100
AcDbVertex
100
AcDb2dVertex
 10
150.0261805172981
 20
238.7368929958715
 30
0.0
  0
VERTEX
  5
1B7
330
1A2
100
AcDbEntity
  8
GRAU_10_
 62
     7
100
AcDbVertex
100
AcDb2dVertex
 10
150.0261805172981
 20
239.6255402178716
 30
0.0
  0
VERTEX
  5
1B8
330
1A2
100
AcDbEntity
  8
GRAU_10_
 62
     7
100
AcDbVertex
100
AcDb2dVertex
 10
150.0261805172981
 20
240.328273551029
 30
0.0
  0
VERTEX
  5
1B9
330
1A2
100
AcDbEntity
  8
GRAU_10_
 62
     7
100
AcDbVertex
100
AcDb2dVertex
 10
150.0261805172981
 20
240.8373318842352
 30
0.0
  0
VERTEX
  5
1BA
330
1A2
100
AcDbEntity
  8
GRAU_10_
 62
     7
100
AcDbVertex
100
AcDb2dVertex
 10
150.0261805172981
 20
241.1456596619358
 30
0.0
  0
VERTEX
  5
1BB
330
1A2
100
AcDbEntity
  8
GRAU_10_
 62
     7
100
AcDbVertex
100
AcDb2dVertex
 10
150.0261805172981
 20
241.248670773021
 30
0.0
  0
SEQEND
  5
1BC
330
1A2
100
AcDbEntity
  8
GRAU_10_
 62
     7
  0
POLYLINE
  5
1BD
330
1F
100
AcDbEntity
  8
GRAU_10_
 62
     7
100
AcDb2dPolyline
 66
     1
 10
0.0
 20
0.0
 30
0.0
  0
VERTEX
  5
1BE
330
1BD
100
AcDbEntity
  8
GRAU_10_
 62
     7
100
AcDbVertex
100
AcDb2dVertex
 10
150.0261805172981
 20
209.248551336577
 30
0.0
  0
VERTEX
  5
1BF
330
1BD
100
AcDbEntity
  8
GRAU_10_
 62
     7
100
AcDbVertex
100
AcDb2dVertex
 10
150.0261805172981
 20
209.4013041143162
 30
0.0
  0
VERTEX
  5
1C0
330
1BD
100
AcDbEntity
  8
GRAU_10_
 62
     7
100
AcDbVertex
100
AcDb2dVertex
 10
150.0261805172981
 20
209.8581513364242
 30
0.0
  0
VERTEX
  5
1C1
330
1BD
100
AcDbEntity
  8
GRAU_10_
 62
     7
100
AcDbVertex
100
AcDb2dVertex
 10
150.0261805172981
 20
210.6095680029034
 30
0.0
  0
SEQEND
  5
1C2
330
1BD
100
AcDbEntity
  8
GRAU_10_
 62
     7
  0
POLYLINE
  5
1C3
330
1F
100
AcDbEntity
  8
GRAU_10_
 62
     7
100
AcDb2dPolyline
 66
     1
 10
0.0
 20
0.0
 30
0.0
  0
VERTEX
  5
1C4
330
1C3
100
AcDbEntity
  8
GRAU_10_
 62
     7
100
AcDbVertex
100
AcDb2dVertex
 10
155.0268055160481
 20
241.248670773021
 30
0.0
  0
VERTEX
  5
1C5
330
1C3
100
AcDbEntity
  8
GRAU_10_
 62
     7
100
AcDbVertex
100
AcDb2dVertex
 10
150.0261805172981
 20
241.248670773021
 30
0.0
  0
SEQEND
  5
1C6
330
1C3
100
AcDbEntity
  8
GRAU_10_
 62
     7
  0
POLYLINE
  5
1C7
330
1F
100
AcDbEntity
  8
GRAU_10_
 62
     7
100
AcDb2dPolyline
 66
     1
 10
0.0
 20
0.0
 30
0.0
  0
VERTEX
  5
1C8
330
1C7
100
AcDbEntity
  8
GRAU_10_
 62
     7
100
AcDbVertex
100
AcDb2dVertex
 10
150.0261805172981
 20
209.248551336577
 30
0.0
  0
VERTEX
  5
1C9
330
1C7
100
AcDbEntity
  8
GRAU_10_
 62
     7
100
AcDbVertex
100
AcDb2dVertex
 10
155.0268055160481
 20
209.248551336577
 30
0.0
  0
SEQEND
  5
1CA
330
1C7
100
AcDbEntity
  8
GRAU_10_
 62
     7
  0
POLYLINE
  5
1CB
330
1F
100
AcDbEntity
  8
GRAU_10_
 62
     7
100
AcDb2dPolyline
 66
     1
 10
0.0
 20
0.0
 30
0.0
  0
VERTEX
  5
1CC
330
1CB
100
AcDbEntity
  8
GRAU_10_
 62
     7
100
AcDbVertex
100
AcDb2dVertex
 10
138.0267971869646
 20
241.248670773021
 30
0.0
  0
VERTEX
  5
1CD
330
1CB
100
AcDbEntity
  8
GRAU_10_
 62
     7
100
AcDbVertex
100
AcDb2dVertex
 10
133.0265249659928
 20
241.248670773021
 30
0.0
  0
SEQEND
  5
1CE
330
1CB
100
AcDbEntity
  8
GRAU_10_
 62
     7
  0
POLYLINE
  5
1CF
330
1F
100
AcDbEntity
  8
GRAU_10_
 62
     7
100
AcDb2dPolyline
 66
     1
 10
0.0
 20
0.0
 30
0.0
  0
VERTEX
  5
1D0
330
1CF
100
AcDbEntity
  8
GRAU_10_
 62
     7
100
AcDbVertex
100
AcDb2dVertex
 10
133.0265249659928
 20
209.248551336577
 30
0.0
  0
VERTEX
  5
1D1
330
1CF
100
AcDbEntity
  8
GRAU_10_
 62
     7
100
AcDbVertex
100
AcDb2dVertex
 10
138.0267971869646
 20
209.248551336577
 30
0.0
  0
SEQEND
  5
1D2
330
1CF
100
AcDbEntity
  8
GRAU_10_
 62
     7
  0
POLYLINE
  5
1D3
330
1F
100
AcDbEntity
  8
GRAU_10_
 62
     7
100
AcDb2dPolyline
 66
     1
 10
0.0
 20
0.0
 30
0.0
  0
VERTEX
  5
1D4
330
1D3
100
AcDbEntity
  8
GRAU_10_
 62
     7
100
AcDbVertex
100
AcDb2dVertex
 10
138.0267971869646
 20
210.6095680029034
 30
0.0
  0
VERTEX
  5
1D5
330
1D3
100
AcDbEntity
  8
GRAU_10_
 62
     7
100
AcDbVertex
100
AcDb2dVertex
 10
138.0267971869646
 20
211.435773558252
 30
0.0
  0
VERTEX
  5
1D6
330
1D3
100
AcDbEntity
  8
GRAU_10_
 62
     7
100
AcDbVertex
100
AcDb2dVertex
 10
138.0267971869646
 20
212.439779113557
 30
0.0
  0
VERTEX
  5
1D7
330
1D3
100
AcDbEntity
  8
GRAU_10_
 62
     7
100
AcDbVertex
100
AcDb2dVertex
 10
138.0267971869646
 20
213.6088846688198
 30
0.0
  0
VERTEX
  5
1D8
330
1D3
100
AcDbEntity
  8
GRAU_10_
 62
     7
100
AcDbVertex
100
AcDb2dVertex
 10
138.0267971869646
 20
214.928273557379
 30
0.0
  0
VERTEX
  5
1D9
330
1D3
100
AcDbEntity
  8
GRAU_10_
 62
     7
100
AcDbVertex
100
AcDb2dVertex
 10
138.0267971869646
 20
216.3806596681268
 30
0.0
  0
VERTEX
  5
1DA
330
1D3
100
AcDbEntity
  8
GRAU_10_
 62
     7
100
AcDbVertex
100
AcDb2dVertex
 10
138.0267971869646
 20
217.9473457788465
 30
0.0
  0
VERTEX
  5
1DB
330
1D3
100
AcDbEntity
  8
GRAU_10_
 62
     7
100
AcDbVertex
100
AcDb2dVertex
 10
138.0267971869646
 20
219.6082235562093
 30
0.0
  0
VERTEX
  5
1DC
330
1D3
100
AcDbEntity
  8
GRAU_10_
 62
     7
100
AcDbVertex
100
AcDb2dVertex
 10
138.0267971869646
 20
221.3421263335532
 30
0.0
  0
VERTEX
  5
1DD
330
1D3
100
AcDbEntity
  8
GRAU_10_
 62
     7
100
AcDbVertex
100
AcDb2dVertex
 10
138.0267971869646
 20
223.1254179997742
 30
0.0
  0
VERTEX
  5
1DE
330
1D3
100
AcDbEntity
  8
GRAU_10_
 62
     7
100
AcDbVertex
100
AcDb2dVertex
 10
138.0267971869646
 20
224.9365791104325
 30
0.0
  0
VERTEX
  5
1DF
330
1D3
100
AcDbEntity
  8
GRAU_10_
 62
     7
100
AcDbVertex
100
AcDb2dVertex
 10
138.0267971869646
 20
226.7519735544233
 30
0.0
  0
VERTEX
  5
1E0
330
1D3
100
AcDbEntity
  8
GRAU_10_
 62
     7
100
AcDbVertex
100
AcDb2dVertex
 10
138.0267971869646
 20
228.5476124428633
 30
0.0
  0
VERTEX
  5
1E1
330
1D3
100
AcDbEntity
  8
GRAU_10_
 62
     7
100
AcDbVertex
100
AcDb2dVertex
 10
138.0267971869646
 20
230.3012707757581
 30
0.0
  0
VERTEX
  5
1E2
330
1D3
100
AcDbEntity
  8
GRAU_10_
 62
     7
100
AcDbVertex
100
AcDb2dVertex
 10
138.0267971869646
 20
231.9893124420027
 30
0.0
  0
VERTEX
  5
1E3
330
1D3
100
AcDbEntity
  8
GRAU_10_
 62
     7
100
AcDbVertex
100
AcDb2dVertex
 10
138.0267971869646
 20
233.5909235527134
 30
0.0
  0
VERTEX
  5
1E4
330
1D3
100
AcDbEntity
  8
GRAU_10_
 62
     7
100
AcDbVertex
100
AcDb2dVertex
 10
138.0267971869646
 20
235.0845846634509
 30
0.0
  0
VERTEX
  5
1E5
330
1D3
100
AcDbEntity
  8
GRAU_10_
 62
     7
100
AcDbVertex
100
AcDb2dVertex
 10
138.0267971869646
 20
236.451598551998
 30
0.0
  0
VERTEX
  5
1E6
330
1D3
100
AcDbEntity
  8
GRAU_10_
 62
     7
100
AcDbVertex
100
AcDb2dVertex
 10
138.0267971869646
 20
237.6739735516925
 30
0.0
  0
VERTEX
  5
1E7
330
1D3
100
AcDbEntity
  8
GRAU_10_
 62
     7
100
AcDbVertex
100
AcDb2dVertex
 10
138.0267971869646
 20
238.7368929958715
 30
0.0
  0
VERTEX
  5
1E8
330
1D3
100
AcDbEntity
  8
GRAU_10_
 62
     7
100
AcDbVertex
100
AcDb2dVertex
 10
138.0267971869646
 20
239.6255402178716
 30
0.0
  0
VERTEX
  5
1E9
330
1D3
100
AcDbEntity
  8
GRAU_10_
 62
     7
100
AcDbVertex
100
AcDb2dVertex
 10
138.0267971869646
 20
240.328273551029
 30
0.0
  0
VERTEX
  5
1EA
330
1D3
100
AcDbEntity
  8
GRAU_10_
 62
     7
100
AcDbVertex
100
AcDb2dVertex
 10
138.0267971869646
 20
240.8373318842352
 30
0.0
  0
VERTEX
  5
1EB
330
1D3
100
AcDbEntity
  8
GRAU_10_
 62
     7
100
AcDbVertex
100
AcDb2dVertex
 10
138.0267971869646
 20
241.1456596619358
 30
0.0
  0
VERTEX
  5
1EC
330
1D3
100
AcDbEntity
  8
GRAU_10_
 62
     7
100
AcDbVertex
100
AcDb2dVertex
 10
138.0267971869646
 20
241.248670773021
 30
0.0
  0
SEQEND
  5
1ED
330
1D3
100
AcDbEntity
  8
GRAU_10_
 62
     7
  0
POLYLINE
  5
1EE
330
1F
100
AcDbEntity
  8
GRAU_10_
 62
     7
100
AcDb2dPolyline
 66
     1
 10
0.0
 20
0.0
 30
0.0
  0
VERTEX
  5
1EF
330
1EE
100
AcDbEntity
  8
GRAU_10_
 62
     7
100
AcDbVertex
100
AcDb2dVertex
 10
138.0267971869646
 20
209.248551336577
 30
0.0
  0
VERTEX
  5
1F0
330
1EE
100
AcDbEntity
  8
GRAU_10_
 62
     7
100
AcDbVertex
100
AcDb2dVertex
 10
138.0267971869646
 20
209.4013041143162
 30
0.0
  0
VERTEX
  5
1F1
330
1EE
100
AcDbEntity
  8
GRAU_10_
 62
     7
100
AcDbVertex
100
AcDb2dVertex
 10
138.0267971869646
 20
209.8581513364242
 30
0.0
  0
VERTEX
  5
1F2
330
1EE
100
AcDbEntity
  8
GRAU_10_
 62
     7
100
AcDbVertex
100
AcDb2dVertex
 10
138.0267971869646
 20
210.6095680029034
 30
0.0
  0
SEQEND
  5
1F3
330
1EE
100
AcDbEntity
  8
GRAU_10_
 62
     7
  0
POLYLINE
  5
1F4
330
1F
100
AcDbEntity
  8
GRAU_10_
 62
     7
100
AcDb2dPolyline
 66
     1
 10
0.0
 20
0.0
 30
0.0
  0
VERTEX
  5
1F5
330
1F4
100
AcDbEntity
  8
GRAU_10_
 62
     7
100
AcDbVertex
100
AcDb2dVertex
 10
138.0267971869646
 20
209.248551336577
 30
0.0
  0
VERTEX
  5
1F6
330
1F4
100
AcDbEntity
  8
GRAU_10_
 62
     7
100
AcDbVertex
100
AcDb2dVertex
 10
139.5726694088006
 20
210.141431891909
 30
0.0
  0
SEQEND
  5
1F7
330
1F4
100
AcDbEntity
  8
GRAU_10_
 62
     7
  0
POLYLINE
  5
1F8
330
1F
100
AcDbEntity
  8
GRAU_10_
 62
     7
100
AcDb2dPolyline
 66
     1
 10
0.0
 20
0.0
 30
0.0
  0
VERTEX
  5
1F9
330
1F8
100
AcDbEntity
  8
GRAU_10_
 62
     7
100
AcDbVertex
100
AcDb2dVertex
 10
139.5726694088006
 20
240.355790217689
 30
0.0
  0
VERTEX
  5
1FA
330
1F8
100
AcDbEntity
  8
GRAU_10_
 62
     7
100
AcDbVertex
100
AcDb2dVertex
 10
138.0267971869646
 20
241.248670773021
 30
0.0
  0
SEQEND
  5
1FB
330
1F8
100
AcDbEntity
  8
GRAU_10_
 62
     7
  0
SPLINE
  5
1FC
330
1F
100
AcDbEntity
  8
GRAU_10_
 62
     7
100
AcDbSpline
210
0.0
220
0.0
230
1.0
 70
     8
 71
     3
 72
     8
 73
     4
 74
     0
 42
0.0000000001
 43
0.0000000001
 12
1.0
 22
0.0
 32
0.0
 13
1.0
 23
0.0
 33
0.0
 40
0.0
 40
0.0
 40
0.0
 40
0.0
 40
1.0
 40
1.0
 40
1.0
 40
1.0
 10
140.2263666308594
 20
240.2485457732713
 30
0.0
 10
140.6683971863043
 20
240.2485457732713
 30
0.0
 10
141.0268194084371
 20
240.6066152176261
 30
0.0
 10
141.0268194084371
 20
241.0486457730713
 30
0.0
  0
SPLINE
  5
1FD
330
1F
100
AcDbEntity
  8
GRAU_10_
 62
     7
100
AcDbSpline
210
0.0
220
0.0
230
1.0
 70
     8
 71
     3
 72
     8
 73
     4
 74
     0
 42
0.0000000001
 43
0.0000000001
 12
1.0
 22
0.0
 32
0.0
 13
1.0
 23
0.0
 33
0.0
 40
0.0
 40
0.0
 40
0.0
 40
0.0
 40
1.0
 40
1.0
 40
1.0
 40
1.0
 10
141.0268194084371
 20
209.4485763365266
 30
0.0
 10
141.0268194084371
 20
209.8906068919719
 30
0.0
 10
140.6683971863043
 20
210.2486763363266
 30
0.0
 10
140.2263666308594
 20
210.2486763363266
 30
0.0
  0
SPLINE
  5
1FE
330
1F
100
AcDbEntity
  8
GRAU_10_
 62
     7
100
AcDbSpline
210
0.0
220
0.0
230
1.0
 70
     8
 71
     3
 72
     8
 73
     4
 74
     0
 42
0.0000000001
 43
0.0000000001
 12
1.0
 22
0.0
 32
0.0
 13
1.0
 23
0.0
 33
0.0
 40
0.0
 40
0.0
 40
0.0
 40
0.0
 40
1.0
 40
1.0
 40
1.0
 40
1.0
 10
147.8266110734037
 20
210.2486763363266
 30
0.0
 10
147.3845805179588
 20
210.2486763363266
 30
0.0
 10
147.0268638513815
 20
209.8906068919719
 30
0.0
 10
147.0268638513815
 20
209.4485763365266
 30
0.0
  0
SPLINE
  5
1FF
330
1F
100
AcDbEntity
  8
GRAU_10_
 62
     7
100
AcDbSpline
210
0.0
220
0.0
230
1.0
 70
     8
 71
     3
 72
     8
 73
     4
 74
     0
 42
0.0000000001
 43
0.0000000001
 12
1.0
 22
0.0
 32
0.0
 13
1.0
 23
0.0
 33
0.0
 40
0.0
 40
0.0
 40
0.0
 40
0.0
 40
1.0
 40
1.0
 40
1.0
 40
1.0
 10
147.0268638513815
 20
241.0486457730713
 30
0.0
 10
147.0268638513815
 20
240.6066152176261
 30
0.0
 10
147.3845805179588
 20
240.2485457732713
 30
0.0
 10
147.8266110734037
 20
240.2485457732713
 30
0.0
  0
SPLINE
  5
200
330
1F
100
AcDbEntity
  8
GRAU_10_
 62
     7
100
AcDbSpline
210
0.0
220
0.0
230
1.0
 70
     8
 71
     3
 72
     8
 73
     4
 74
     0
 42
0.0000000001
 43
0.0000000001
 12
1.0
 22
0.0
 32
0.0
 13
1.0
 23
0.0
 33
0.0
 40
0.0
 40
0.0
 40
0.0
 40
0.0
 40
1.0
 40
1.0
 40
1.0
 40
1.0
 10
148.4803082954625
 20
210.141431891909
 30
0.0
 10
148.3522499621611
 20
210.2148096696686
 30
0.0
 10
148.2132555177513
 20
210.2493818918821
 30
0.0
 10
148.0799055177848
 20
210.2486763363266
 30
0.0
  0
SPLINE
  5
201
330
1F
100
AcDbEntity
  8
GRAU_10_
 62
     7
100
AcDbSpline
210
0.0
220
0.0
230
1.0
 70
     8
 71
     3
 72
     8
 73
     4
 74
     0
 42
0.0000000001
 43
0.0000000001
 12
1.0
 22
0.0
 32
0.0
 13
1.0
 23
0.0
 33
0.0
 40
0.0
 40
0.0
 40
0.0
 40
0.0
 40
1.0
 40
1.0
 40
1.0
 40
1.0
 10
148.0799055177848
 20
240.2485457732713
 30
0.0
 10
148.2277194066367
 20
240.2485457732713
 30
0.0
 10
148.3656555177135
 20
240.2880568843723
 30
0.0
 10
148.4803082954625
 20
240.3554374399112
 30
0.0
  0
SPLINE
  5
202
330
1F
100
AcDbEntity
  8
GRAU_10_
 62
     7
100
AcDbSpline
210
0.0
220
0.0
230
1.0
 70
     8
 71
     3
 72
     8
 73
     4
 74
     0
 42
0.0000000001
 43
0.0000000001
 12
1.0
 22
0.0
 32
0.0
 13
1.0
 23
0.0
 33
0.0
 40
0.0
 40
0.0
 40
0.0
 40
0.0
 40
1.0
 40
1.0
 40
1.0
 40
1.0
 10
139.9727194087005
 20
210.2486763363266
 30
0.0
 10
139.8259638531816
 20
210.2486763363266
 30
0.0
 10
139.6880277421051
 20
210.2088124474479
 30
0.0
 10
139.5726694088006
 20
210.141431891909
 30
0.0
  0
SPLINE
  5
203
330
1F
100
AcDbEntity
  8
GRAU_10_
 62
     7
100
AcDbSpline
210
0.0
220
0.0
230
1.0
 70
     8
 71
     3
 72
     8
 73
     4
 74
     0
 42
0.0000000001
 43
0.0000000001
 12
1.0
 22
0.0
 32
0.0
 13
1.0
 23
0.0
 33
0.0
 40
0.0
 40
0.0
 40
0.0
 40
0.0
 40
1.0
 40
1.0
 40
1.0
 40
1.0
 10
139.5726694088006
 20
240.3554374399112
 30
0.0
 10
139.700727742102
 20
240.2824124399294
 30
0.0
 10
139.8397221865114
 20
240.2474874399381
 30
0.0
 10
139.9727194087005
 20
240.2485457732713
 30
0.0
  0
POLYLINE
  5
204
330
1F
100
AcDbEntity
  8
GRAU_10_
 62
     7
100
AcDb2dPolyline
 66
     1
 10
0.0
 20
0.0
 30
0.0
  0
VERTEX
  5
205
330
204
100
AcDbEntity
  8
GRAU_10_
 62
     7
100
AcDbVertex
100
AcDb2dVertex
 10
148.0799055177848
 20
240.2485457732713
 30
0.0
  0
VERTEX
  5
206
330
204
100
AcDbEntity
  8
GRAU_10_
 62
     7
100
AcDbVertex
100
AcDb2dVertex
 10
147.8266110734037
 20
240.2485457732713
 30
0.0
  0
SEQEND
  5
207
330
204
100
AcDbEntity
  8
GRAU_10_
 62
     7
  0
POLYLINE
  5
208
330
1F
100
AcDbEntity
  8
GRAU_10_
 62
     7
100
AcDb2dPolyline
 66
     1
 10
0.0
 20
0.0
 30
0.0
  0
VERTEX
  5
209
330
208
100
AcDbEntity
  8
GRAU_10_
 62
     7
100
AcDbVertex
100
AcDb2dVertex
 10
147.8266110734037
 20
210.2486763363266
 30
0.0
  0
VERTEX
  5
20A
330
208
100
AcDbEntity
  8
GRAU_10_
 62
     7
100
AcDbVertex
100
AcDb2dVertex
 10
148.0799055177848
 20
210.2486763363266
 30
0.0
  0
SEQEND
  5
20B
330
208
100
AcDbEntity
  8
GRAU_10_
 62
     7
  0
POLYLINE
  5
20C
330
1F
100
AcDbEntity
  8
GRAU_10_
 62
     7
100
AcDb2dPolyline
 66
     1
 10
0.0
 20
0.0
 30
0.0
  0
VERTEX
  5
20D
330
20C
100
AcDbEntity
  8
GRAU_10_
 62
     7
100
AcDbVertex
100
AcDb2dVertex
 10
132.0267527440203
 20
240.2485457732713
 30
0.0
  0
VERTEX
  5
20E
330
20C
100
AcDbEntity
  8
GRAU_10_
 62
     7
100
AcDbVertex
100
AcDb2dVertex
 10
130.0265027445203
 20
240.2485457732713
 30
0.0
  0
SEQEND
  5
20F
330
20C
100
AcDbEntity
  8
GRAU_10_
 62
     7
  0
POLYLINE
  5
210
330
1F
100
AcDbEntity
  8
GRAU_10_
 62
     7
100
AcDb2dPolyline
 66
     1
 10
0.0
 20
0.0
 30
0.0
  0
VERTEX
  5
211
330
210
100
AcDbEntity
  8
GRAU_10_
 62
     7
100
AcDbVertex
100
AcDb2dVertex
 10
130.0265027445203
 20
210.2486763363266
 30
0.0
  0
VERTEX
  5
212
330
210
100
AcDbEntity
  8
GRAU_10_
 62
     7
100
AcDbVertex
100
AcDb2dVertex
 10
132.0267527440203
 20
210.2486763363266
 30
0.0
  0
SEQEND
  5
213
330
210
100
AcDbEntity
  8
GRAU_10_
 62
     7
  0
POLYLINE
  5
214
330
1F
100
AcDbEntity
  8
GRAU_10_
 62
     7
100
AcDb2dPolyline
 66
     1
 10
0.0
 20
0.0
 30
0.0
  0
VERTEX
  5
215
330
214
100
AcDbEntity
  8
GRAU_10_
 62
     7
100
AcDbVertex
100
AcDb2dVertex
 10
130.0265027445203
 20
223.0238179997994
 30
0.0
  0
VERTEX
  5
216
330
214
100
AcDbEntity
  8
GRAU_10_
 62
     7
100
AcDbVertex
100
AcDb2dVertex
 10
130.0265027445203
 20
221.2856818891229
 30
0.0
  0
VERTEX
  5
217
330
214
100
AcDbEntity
  8
GRAU_10_
 62
     7
100
AcDbVertex
100
AcDb2dVertex
 10
130.0265027445203
 20
219.603637445099
 30
0.0
  0
VERTEX
  5
218
330
214
100
AcDbEntity
  8
GRAU_10_
 62
     7
100
AcDbVertex
100
AcDb2dVertex
 10
130.0265027445203
 20
217.9999096677221
 30
0.0
  0
VERTEX
  5
219
330
214
100
AcDbEntity
  8
GRAU_10_
 62
     7
100
AcDbVertex
100
AcDb2dVertex
 10
130.0265027445203
 20
216.4984874458754
 30
0.0
  0
VERTEX
  5
21A
330
214
100
AcDbEntity
  8
GRAU_10_
 62
     7
100
AcDbVertex
100
AcDb2dVertex
 10
130.0265027445203
 20
215.1198318906647
 30
0.0
  0
VERTEX
  5
21B
330
214
100
AcDbEntity
  8
GRAU_10_
 62
     7
100
AcDbVertex
100
AcDb2dVertex
 10
130.0265027445203
 20
213.8822874465294
 30
0.0
  0
VERTEX
  5
21C
330
214
100
AcDbEntity
  8
GRAU_10_
 62
     7
100
AcDbVertex
100
AcDb2dVertex
 10
130.0265027445203
 20
212.8049041134657
 30
0.0
  0
VERTEX
  5
21D
330
214
100
AcDbEntity
  8
GRAU_10_
 62
     7
100
AcDbVertex
100
AcDb2dVertex
 10
130.0265027445203
 20
211.9024985581354
 30
0.0
  0
VERTEX
  5
21E
330
214
100
AcDbEntity
  8
GRAU_10_
 62
     7
100
AcDbVertex
100
AcDb2dVertex
 10
130.0265027445203
 20
211.1867124472031
 30
0.0
  0
VERTEX
  5
21F
330
214
100
AcDbEntity
  8
GRAU_10_
 62
     7
100
AcDbVertex
100
AcDb2dVertex
 10
130.0265027445203
 20
210.6677763362219
 30
0.0
  0
VERTEX
  5
220
330
214
100
AcDbEntity
  8
GRAU_10_
 62
     7
100
AcDbVertex
100
AcDb2dVertex
 10
130.0265027445203
 20
210.3538041140783
 30
0.0
  0
VERTEX
  5
221
330
214
100
AcDbEntity
  8
GRAU_10_
 62
     7
100
AcDbVertex
100
AcDb2dVertex
 10
130.0265027445203
 20
210.2486763363266
 30
0.0
  0
SEQEND
  5
222
330
214
100
AcDbEntity
  8
GRAU_10_
 62
     7
  0
POLYLINE
  5
223
330
1F
100
AcDbEntity
  8
GRAU_10_
 62
     7
100
AcDb2dPolyline
 66
     1
 10
0.0
 20
0.0
 30
0.0
  0
VERTEX
  5
224
330
223
100
AcDbEntity
  8
GRAU_10_
 62
     7
100
AcDbVertex
100
AcDb2dVertex
 10
130.0265027445203
 20
240.2485457732713
 30
0.0
  0
VERTEX
  5
225
330
223
100
AcDbEntity
  8
GRAU_10_
 62
     7
100
AcDbVertex
100
AcDb2dVertex
 10
130.0265027445203
 20
240.1360096621882
 30
0.0
  0
VERTEX
  5
226
330
223
100
AcDbEntity
  8
GRAU_10_
 62
     7
100
AcDbVertex
100
AcDb2dVertex
 10
130.0265027445203
 20
239.7987541067172
 30
0.0
  0
VERTEX
  5
227
330
223
100
AcDbEntity
  8
GRAU_10_
 62
     7
100
AcDbVertex
100
AcDb2dVertex
 10
130.0265027445203
 20
239.2417179957451
 30
0.0
  0
VERTEX
  5
228
330
223
100
AcDbEntity
  8
GRAU_10_
 62
     7
100
AcDbVertex
100
AcDb2dVertex
 10
130.0265027445203
 20
238.4744263292702
 30
0.0
  0
VERTEX
  5
229
330
223
100
AcDbEntity
  8
GRAU_10_
 62
     7
100
AcDbVertex
100
AcDb2dVertex
 10
130.0265027445203
 20
237.5078152184009
 30
0.0
  0
VERTEX
  5
22A
330
223
100
AcDbEntity
  8
GRAU_10_
 62
     7
100
AcDbVertex
100
AcDb2dVertex
 10
130.0265027445203
 20
236.356348552022
 30
0.0
  0
VERTEX
  5
22B
330
223
100
AcDbEntity
  8
GRAU_10_
 62
     7
100
AcDbVertex
100
AcDb2dVertex
 10
130.0265027445203
 20
235.0376652190183
 30
0.0
  0
VERTEX
  5
22C
330
223
100
AcDbEntity
  8
GRAU_10_
 62
     7
100
AcDbVertex
100
AcDb2dVertex
 10
130.0265027445203
 20
233.5711679971629
 30
0.0
  0
VERTEX
  5
22D
330
223
100
AcDbEntity
  8
GRAU_10_
 62
     7
100
AcDbVertex
100
AcDb2dVertex
 10
130.0265027445203
 20
231.9797874420051
 30
0.0
  0
VERTEX
  5
22E
330
223
100
AcDbEntity
  8
GRAU_10_
 62
     7
100
AcDbVertex
100
AcDb2dVertex
 10
130.0265027445203
 20
230.2861013313176
 30
0.0
  0
VERTEX
  5
22F
330
223
100
AcDbEntity
  8
GRAU_10_
 62
     7
100
AcDbVertex
100
AcDb2dVertex
 10
130.0265027445203
 20
228.5169207762039
 30
0.0
  0
VERTEX
  5
230
330
223
100
AcDbEntity
  8
GRAU_10_
 62
     7
100
AcDbVertex
100
AcDb2dVertex
 10
130.0265027445203
 20
226.6987041099922
 30
0.0
  0
VERTEX
  5
231
330
223
100
AcDbEntity
  8
GRAU_10_
 62
     7
100
AcDbVertex
100
AcDb2dVertex
 10
130.0265027445203
 20
224.8586152215632
 30
0.0
  0
VERTEX
  5
232
330
223
100
AcDbEntity
  8
GRAU_10_
 62
     7
100
AcDbVertex
100
AcDb2dVertex
 10
130.0265027445203
 20
223.0238179997994
 30
0.0
  0
SEQEND
  5
233
330
223
100
AcDbEntity
  8
GRAU_10_
 62
     7
  0
POLYLINE
  5
234
330
1F
100
AcDbEntity
  8
GRAU_10_
 62
     7
100
AcDb2dPolyline
 66
     1
 10
0.0
 20
0.0
 30
0.0
  0
VERTEX
  5
235
330
234
100
AcDbEntity
  8
GRAU_10_
 62
     7
100
AcDbVertex
100
AcDb2dVertex
 10
140.2263666308594
 20
240.2485457732713
 30
0.0
  0
VERTEX
  5
236
330
234
100
AcDbEntity
  8
GRAU_10_
 62
     7
100
AcDbVertex
100
AcDb2dVertex
 10
139.9727194087005
 20
240.2485457732713
 30
0.0
  0
SEQEND
  5
237
330
234
100
AcDbEntity
  8
GRAU_10_
 62
     7
  0
POLYLINE
  5
238
330
1F
100
AcDbEntity
  8
GRAU_10_
 62
     7
100
AcDb2dPolyline
 66
     1
 10
0.0
 20
0.0
 30
0.0
  0
VERTEX
  5
239
330
238
100
AcDbEntity
  8
GRAU_10_
 62
     7
100
AcDbVertex
100
AcDb2dVertex
 10
139.9727194087005
 20
210.2486763363266
 30
0.0
  0
VERTEX
  5
23A
330
238
100
AcDbEntity
  8
GRAU_10_
 62
     7
100
AcDbVertex
100
AcDb2dVertex
 10
140.2263666308594
 20
210.2486763363266
 30
0.0
  0
SEQEND
  5
23B
330
238
100
AcDbEntity
  8
GRAU_10_
 62
     7
  0
POLYLINE
  5
23C
330
1F
100
AcDbEntity
  8
GRAU_10_
 62
     7
100
AcDb2dPolyline
 66
     1
 10
0.0
 20
0.0
 30
0.0
  0
VERTEX
  5
23D
330
23C
100
AcDbEntity
  8
GRAU_10_
 62
     7
100
AcDbVertex
100
AcDb2dVertex
 10
130.0265027445203
 20
240.2485457732713
 30
0.0
  0
VERTEX
  5
23E
330
23C
100
AcDbEntity
  8
GRAU_10_
 62
     7
100
AcDbVertex
100
AcDb2dVertex
 10
129.0267305225481
 20
239.248420773521
 30
0.0
  0
SEQEND
  5
23F
330
23C
100
AcDbEntity
  8
GRAU_10_
 62
     7
  0
POLYLINE
  5
240
330
1F
100
AcDbEntity
  8
GRAU_10_
 62
     7
100
AcDb2dPolyline
 66
     1
 10
0.0
 20
0.0
 30
0.0
  0
VERTEX
  5
241
330
240
100
AcDbEntity
  8
GRAU_10_
 62
     7
100
AcDbVertex
100
AcDb2dVertex
 10
129.0267305225481
 20
211.2484485582991
 30
0.0
  0
VERTEX
  5
242
330
240
100
AcDbEntity
  8
GRAU_10_
 62
     7
100
AcDbVertex
100
AcDb2dVertex
 10
130.0265027445203
 20
210.2486763363266
 30
0.0
  0
SEQEND
  5
243
330
240
100
AcDbEntity
  8
GRAU_10_
 62
     7
  0
POLYLINE
  5
244
330
1F
100
AcDbEntity
  8
GRAU_10_
 62
     7
100
AcDb2dPolyline
 66
     1
 10
0.0
 20
0.0
 30
0.0
  0
VERTEX
  5
245
330
244
100
AcDbEntity
  8
GRAU_10_
 62
     7
100
AcDbVertex
100
AcDb2dVertex
 10
129.0267305225481
 20
223.1726902219846
 30
0.0
  0
VERTEX
  5
246
330
244
100
AcDbEntity
  8
GRAU_10_
 62
     7
100
AcDbVertex
100
AcDb2dVertex
 10
129.0267305225481
 20
224.8843679993347
 30
0.0
  0
VERTEX
  5
247
330
244
100
AcDbEntity
  8
GRAU_10_
 62
     7
100
AcDbVertex
100
AcDb2dVertex
 10
129.0267305225481
 20
226.6020429989049
 30
0.0
  0
VERTEX
  5
248
330
244
100
AcDbEntity
  8
GRAU_10_
 62
     7
100
AcDbVertex
100
AcDb2dVertex
 10
129.0267305225481
 20
228.2992568873697
 30
0.0
  0
VERTEX
  5
249
330
244
100
AcDbEntity
  8
GRAU_10_
 62
     7
100
AcDbVertex
100
AcDb2dVertex
 10
129.0267305225481
 20
229.9502568869567
 30
0.0
  0
VERTEX
  5
24A
330
244
100
AcDbEntity
  8
GRAU_10_
 62
     7
100
AcDbVertex
100
AcDb2dVertex
 10
129.0267305225481
 20
231.5307013310062
 30
0.0
  0
VERTEX
  5
24B
330
244
100
AcDbEntity
  8
GRAU_10_
 62
     7
100
AcDbVertex
100
AcDb2dVertex
 10
129.0267305225481
 20
233.0166013306349
 30
0.0
  0
VERTEX
  5
24C
330
244
100
AcDbEntity
  8
GRAU_10_
 62
     7
100
AcDbVertex
100
AcDb2dVertex
 10
129.0267305225481
 20
234.3853791080702
 30
0.0
  0
VERTEX
  5
24D
330
244
100
AcDbEntity
  8
GRAU_10_
 62
     7
100
AcDbVertex
100
AcDb2dVertex
 10
129.0267305225481
 20
235.6162207744293
 30
0.0
  0
VERTEX
  5
24E
330
244
100
AcDbEntity
  8
GRAU_10_
 62
     7
100
AcDbVertex
100
AcDb2dVertex
 10
129.0267305225481
 20
236.6904291074941
 30
0.0
  0
VERTEX
  5
24F
330
244
100
AcDbEntity
  8
GRAU_10_
 62
     7
100
AcDbVertex
100
AcDb2dVertex
 10
129.0267305225481
 20
237.5928346628241
 30
0.0
  0
VERTEX
  5
250
330
244
100
AcDbEntity
  8
GRAU_10_
 62
     7
100
AcDbVertex
100
AcDb2dVertex
 10
129.0267305225481
 20
238.3093263293116
 30
0.0
  0
VERTEX
  5
251
330
244
100
AcDbEntity
  8
GRAU_10_
 62
     7
100
AcDbVertex
100
AcDb2dVertex
 10
129.0267305225481
 20
238.8286152180709
 30
0.0
  0
VERTEX
  5
252
330
244
100
AcDbEntity
  8
GRAU_10_
 62
     7
100
AcDbVertex
100
AcDb2dVertex
 10
129.0267305225481
 20
239.1429402179922
 30
0.0
  0
VERTEX
  5
253
330
244
100
AcDbEntity
  8
GRAU_10_
 62
     7
100
AcDbVertex
100
AcDb2dVertex
 10
129.0267305225481
 20
239.248420773521
 30
0.0
  0
SEQEND
  5
254
330
244
100
AcDbEntity
  8
GRAU_10_
 62
     7
  0
POLYLINE
  5
255
330
1F
100
AcDbEntity
  8
GRAU_10_
 62
     7
100
AcDb2dPolyline
 66
     1
 10
0.0
 20
0.0
 30
0.0
  0
VERTEX
  5
256
330
255
100
AcDbEntity
  8
GRAU_10_
 62
     7
100
AcDbVertex
100
AcDb2dVertex
 10
129.0267305225481
 20
211.2484485582991
 30
0.0
  0
VERTEX
  5
257
330
255
100
AcDbEntity
  8
GRAU_10_
 62
     7
100
AcDbVertex
100
AcDb2dVertex
 10
129.0267305225481
 20
211.3652180027144
 30
0.0
  0
VERTEX
  5
258
330
255
100
AcDbEntity
  8
GRAU_10_
 62
     7
100
AcDbVertex
100
AcDb2dVertex
 10
129.0267305225481
 20
211.7141152248493
 30
0.0
  0
VERTEX
  5
259
330
255
100
AcDbEntity
  8
GRAU_10_
 62
     7
100
AcDbVertex
100
AcDb2dVertex
 10
129.0267305225481
 20
212.2880846691504
 30
0.0
  0
VERTEX
  5
25A
330
255
100
AcDbEntity
  8
GRAU_10_
 62
     7
100
AcDbVertex
100
AcDb2dVertex
 10
129.0267305225481
 20
213.0790124467305
 30
0.0
  0
VERTEX
  5
25B
330
255
100
AcDbEntity
  8
GRAU_10_
 62
     7
100
AcDbVertex
100
AcDb2dVertex
 10
129.0267305225481
 20
214.0720818909262
 30
0.0
  0
VERTEX
  5
25C
330
255
100
AcDbEntity
  8
GRAU_10_
 62
     7
100
AcDbVertex
100
AcDb2dVertex
 10
129.0267305225481
 20
215.2524763350757
 30
0.0
  0
VERTEX
  5
25D
330
255
100
AcDbEntity
  8
GRAU_10_
 62
     7
100
AcDbVertex
100
AcDb2dVertex
 10
129.0267305225481
 20
216.5993818902946
 30
0.0
  0
VERTEX
  5
25E
330
255
100
AcDbEntity
  8
GRAU_10_
 62
     7
100
AcDbVertex
100
AcDb2dVertex
 10
129.0267305225481
 20
218.0909263343662
 30
0.0
  0
VERTEX
  5
25F
330
255
100
AcDbEntity
  8
GRAU_10_
 62
     7
100
AcDbVertex
100
AcDb2dVertex
 10
129.0267305225481
 20
219.701356889519
 30
0.0
  0
VERTEX
  5
260
330
255
100
AcDbEntity
  8
GRAU_10_
 62
     7
100
AcDbVertex
100
AcDb2dVertex
 10
129.0267305225481
 20
221.4052735557597
 30
0.0
  0
VERTEX
  5
261
330
255
100
AcDbEntity
  8
GRAU_10_
 62
     7
100
AcDbVertex
100
AcDb2dVertex
 10
129.0267305225481
 20
223.1726902219846
 30
0.0
  0
SEQEND
  5
262
330
255
100
AcDbEntity
  8
GRAU_10_
 62
     7
  0
POLYLINE
  5
263
330
1F
100
AcDbEntity
  8
GRAU_10_
 62
     7
100
AcDb2dPolyline
 66
     1
 10
0.0
 20
0.0
 30
0.0
  0
VERTEX
  5
264
330
263
100
AcDbEntity
  8
GRAU_10_
 62
     7
100
AcDbVertex
100
AcDb2dVertex
 10
146.8681138514212
 20
239.9077624400231
 30
0.0
  0
VERTEX
  5
265
330
263
100
AcDbEntity
  8
GRAU_10_
 62
     7
100
AcDbVertex
100
AcDb2dVertex
 10
141.1848638528418
 20
239.9077624400231
 30
0.0
  0
SEQEND
  5
266
330
263
100
AcDbEntity
  8
GRAU_10_
 62
     7
  0
POLYLINE
  5
267
330
1F
100
AcDbEntity
  8
GRAU_10_
 62
     7
100
AcDb2dPolyline
 66
     1
 10
0.0
 20
0.0
 30
0.0
  0
VERTEX
  5
268
330
267
100
AcDbEntity
  8
GRAU_10_
 62
     7
100
AcDbVertex
100
AcDb2dVertex
 10
128.2065221894198
 20
237.7738096627788
 30
0.0
  0
VERTEX
  5
269
330
267
100
AcDbEntity
  8
GRAU_10_
 62
     7
100
AcDbVertex
100
AcDb2dVertex
 10
105.5472527506403
 20
234.5889318857975
 30
0.0
  0
SEQEND
  5
26A
330
267
100
AcDbEntity
  8
GRAU_10_
 62
     7
  0
POLYLINE
  5
26B
330
1F
100
AcDbEntity
  8
GRAU_10_
 62
     7
100
AcDb2dPolyline
 66
     1
 10
0.0
 20
0.0
 30
0.0
  0
VERTEX
  5
26C
330
26B
100
AcDbEntity
  8
GRAU_10_
 62
     7
100
AcDbVertex
100
AcDb2dVertex
 10
105.5472527506403
 20
215.9082902238005
 30
0.0
  0
VERTEX
  5
26D
330
26B
100
AcDbEntity
  8
GRAU_10_
 62
     7
100
AcDbVertex
100
AcDb2dVertex
 10
128.2065221894198
 20
212.7234124468192
 30
0.0
  0
SEQEND
  5
26E
330
26B
100
AcDbEntity
  8
GRAU_10_
 62
     7
  0
POLYLINE
  5
26F
330
1F
100
AcDbEntity
  8
GRAU_10_
 62
     7
100
AcDb2dPolyline
 66
     1
 10
0.0
 20
0.0
 30
0.0
  0
VERTEX
  5
270
330
26F
100
AcDbEntity
  8
GRAU_10_
 62
     7
100
AcDbVertex
100
AcDb2dVertex
 10
128.2065221894198
 20
223.3914124441524
 30
0.0
  0
VERTEX
  5
271
330
26F
100
AcDbEntity
  8
GRAU_10_
 62
     7
100
AcDbVertex
100
AcDb2dVertex
 10
128.2065221894198
 20
225.0413541104065
 30
0.0
  0
VERTEX
  5
272
330
26F
100
AcDbEntity
  8
GRAU_10_
 62
     7
100
AcDbVertex
100
AcDb2dVertex
 10
128.2065221894198
 20
226.6948235544375
 30
0.0
  0
VERTEX
  5
273
330
26F
100
AcDbEntity
  8
GRAU_10_
 62
     7
100
AcDbVertex
100
AcDb2dVertex
 10
128.2065221894198
 20
228.3232457762526
 30
0.0
  0
VERTEX
  5
274
330
26F
100
AcDbEntity
  8
GRAU_10_
 62
     7
100
AcDbVertex
100
AcDb2dVertex
 10
128.2065221894198
 20
229.8976929980811
 30
0.0
  0
VERTEX
  5
275
330
26F
100
AcDbEntity
  8
GRAU_10_
 62
     7
100
AcDbVertex
100
AcDb2dVertex
 10
128.2065221894198
 20
231.391354108819
 30
0.0
  0
VERTEX
  5
276
330
26F
100
AcDbEntity
  8
GRAU_10_
 62
     7
100
AcDbVertex
100
AcDb2dVertex
 10
128.2065221894198
 20
232.7774179973614
 30
0.0
  0
VERTEX
  5
277
330
26F
100
AcDbEntity
  8
GRAU_10_
 62
     7
100
AcDbVertex
100
AcDb2dVertex
 10
128.2065221894198
 20
234.0318957748254
 30
0.0
  0
VERTEX
  5
278
330
26F
100
AcDbEntity
  8
GRAU_10_
 62
     7
100
AcDbVertex
100
AcDb2dVertex
 10
128.2065221894198
 20
235.1329152189946
 30
0.0
  0
VERTEX
  5
279
330
26F
100
AcDbEntity
  8
GRAU_10_
 62
     7
100
AcDbVertex
100
AcDb2dVertex
 10
128.2065221894198
 20
236.0610735520957
 30
0.0
  0
VERTEX
  5
27A
330
26F
100
AcDbEntity
  8
GRAU_10_
 62
     7
100
AcDbVertex
100
AcDb2dVertex
 10
128.2065221894198
 20
236.8004957741332
 30
0.0
  0
VERTEX
  5
27B
330
26F
100
AcDbEntity
  8
GRAU_10_
 62
     7
100
AcDbVertex
100
AcDb2dVertex
 10
128.2065221894198
 20
237.3381291073323
 30
0.0
  0
VERTEX
  5
27C
330
26F
100
AcDbEntity
  8
GRAU_10_
 62
     7
100
AcDbVertex
100
AcDb2dVertex
 10
128.2065221894198
 20
237.6640957739171
 30
0.0
  0
VERTEX
  5
27D
330
26F
100
AcDbEntity
  8
GRAU_10_
 62
     7
100
AcDbVertex
100
AcDb2dVertex
 10
128.2065221894198
 20
237.7738096627788
 30
0.0
  0
SEQEND
  5
27E
330
26F
100
AcDbEntity
  8
GRAU_10_
 62
     7
  0
POLYLINE
  5
27F
330
1F
100
AcDbEntity
  8
GRAU_10_
 62
     7
100
AcDb2dPolyline
 66
     1
 10
0.0
 20
0.0
 30
0.0
  0
VERTEX
  5
280
330
27F
100
AcDbEntity
  8
GRAU_10_
 62
     7
100
AcDbVertex
100
AcDb2dVertex
 10
128.2065221894198
 20
212.7234124468192
 30
0.0
  0
VERTEX
  5
281
330
27F
100
AcDbEntity
  8
GRAU_10_
 62
     7
100
AcDbVertex
100
AcDb2dVertex
 10
128.2065221894198
 20
212.8281874467928
 30
0.0
  0
VERTEX
  5
282
330
27F
100
AcDbEntity
  8
GRAU_10_
 62
     7
100
AcDbVertex
100
AcDb2dVertex
 10
128.2065221894198
 20
213.1400430022704
 30
0.0
  0
VERTEX
  5
283
330
27F
100
AcDbEntity
  8
GRAU_10_
 62
     7
100
AcDbVertex
100
AcDb2dVertex
 10
128.2065221894198
 20
213.6533346688087
 30
0.0
  0
VERTEX
  5
284
330
27F
100
AcDbEntity
  8
GRAU_10_
 62
     7
100
AcDbVertex
100
AcDb2dVertex
 10
128.2065221894198
 20
214.3606541130767
 30
0.0
  0
VERTEX
  5
285
330
27F
100
AcDbEntity
  8
GRAU_10_
 62
     7
100
AcDbVertex
100
AcDb2dVertex
 10
128.2065221894198
 20
215.2500068906317
 30
0.0
  0
VERTEX
  5
286
330
27F
100
AcDbEntity
  8
GRAU_10_
 62
     7
100
AcDbVertex
100
AcDb2dVertex
 10
128.2065221894198
 20
216.305518001479
 30
0.0
  0
VERTEX
  5
287
330
27F
100
AcDbEntity
  8
GRAU_10_
 62
     7
100
AcDbVertex
100
AcDb2dVertex
 10
128.2065221894198
 20
217.5109596678444
 30
0.0
  0
VERTEX
  5
288
330
27F
100
AcDbEntity
  8
GRAU_10_
 62
     7
100
AcDbVertex
100
AcDb2dVertex
 10
128.2065221894198
 20
218.8448124452888
 30
0.0
  0
VERTEX
  5
289
330
27F
100
AcDbEntity
  8
GRAU_10_
 62
     7
100
AcDbVertex
100
AcDb2dVertex
 10
128.2065221894198
 20
220.2859096671507
 30
0.0
  0
VERTEX
  5
28A
330
27F
100
AcDbEntity
  8
GRAU_10_
 62
     7
100
AcDbVertex
100
AcDb2dVertex
 10
128.2065221894198
 20
221.8095568889922
 30
0.0
  0
VERTEX
  5
28B
330
27F
100
AcDbEntity
  8
GRAU_10_
 62
     7
100
AcDbVertex
100
AcDb2dVertex
 10
128.2065221894198
 20
223.3914124441524
 30
0.0
  0
SEQEND
  5
28C
330
27F
100
AcDbEntity
  8
GRAU_10_
 62
     7
  0
POLYLINE
  5
28D
330
1F
100
AcDbEntity
  8
GRAU_10_
 62
     7
100
AcDb2dPolyline
 66
     1
 10
0.0
 20
0.0
 30
0.0
  0
VERTEX
  5
28E
330
28D
100
AcDbEntity
  8
GRAU_10_
 62
     7
100
AcDbVertex
100
AcDb2dVertex
 10
105.5472527506403
 20
223.8630763329232
 30
0.0
  0
VERTEX
  5
28F
330
28D
100
AcDbEntity
  8
GRAU_10_
 62
     7
100
AcDbVertex
100
AcDb2dVertex
 10
105.5472527506403
 20
222.4276235555045
 30
0.0
  0
VERTEX
  5
290
330
28D
100
AcDbEntity
  8
GRAU_10_
 62
     7
100
AcDbVertex
100
AcDb2dVertex
 10
105.5472527506403
 20
221.0613152225122
 30
0.0
  0
VERTEX
  5
291
330
28D
100
AcDbEntity
  8
GRAU_10_
 62
     7
100
AcDbVertex
100
AcDb2dVertex
 10
105.5472527506403
 20
219.7997818894946
 30
0.0
  0
VERTEX
  5
292
330
28D
100
AcDbEntity
  8
GRAU_10_
 62
     7
100
AcDbVertex
100
AcDb2dVertex
 10
105.5472527506403
 20
218.6744207786646
 30
0.0
  0
VERTEX
  5
293
330
28D
100
AcDbEntity
  8
GRAU_10_
 62
     7
100
AcDbVertex
100
AcDb2dVertex
 10
105.5472527506403
 20
217.7120430011277
 30
0.0
  0
VERTEX
  5
294
330
28D
100
AcDbEntity
  8
GRAU_10_
 62
     7
100
AcDbVertex
100
AcDb2dVertex
 10
105.5472527506403
 20
216.9380485568767
 30
0.0
  0
VERTEX
  5
295
330
28D
100
AcDbEntity
  8
GRAU_10_
 62
     7
100
AcDbVertex
100
AcDb2dVertex
 10
105.5472527506403
 20
216.3704291125743
 30
0.0
  0
VERTEX
  5
296
330
28D
100
AcDbEntity
  8
GRAU_10_
 62
     7
100
AcDbVertex
100
AcDb2dVertex
 10
105.5472527506403
 20
216.0243541126606
 30
0.0
  0
VERTEX
  5
297
330
28D
100
AcDbEntity
  8
GRAU_10_
 62
     7
100
AcDbVertex
100
AcDb2dVertex
 10
105.5472527506403
 20
215.9082902238005
 30
0.0
  0
SEQEND
  5
298
330
28D
100
AcDbEntity
  8
GRAU_10_
 62
     7
  0
POLYLINE
  5
299
330
1F
100
AcDbEntity
  8
GRAU_10_
 62
     7
100
AcDb2dPolyline
 66
     1
 10
0.0
 20
0.0
 30
0.0
  0
VERTEX
  5
29A
330
299
100
AcDbEntity
  8
GRAU_10_
 62
     7
100
AcDbVertex
100
AcDb2dVertex
 10
105.5472527506403
 20
234.5889318857975
 30
0.0
  0
VERTEX
  5
29B
330
299
100
AcDbEntity
  8
GRAU_10_
 62
     7
100
AcDbVertex
100
AcDb2dVertex
 10
105.5472527506403
 20
234.4753374413814
 30
0.0
  0
VERTEX
  5
29C
330
299
100
AcDbEntity
  8
GRAU_10_
 62
     7
100
AcDbVertex
100
AcDb2dVertex
 10
105.5472527506403
 20
234.1363179970213
 30
0.0
  0
VERTEX
  5
29D
330
299
100
AcDbEntity
  8
GRAU_10_
 62
     7
100
AcDbVertex
100
AcDb2dVertex
 10
105.5472527506403
 20
233.5810457749383
 30
0.0
  0
VERTEX
  5
29E
330
299
100
AcDbEntity
  8
GRAU_10_
 62
     7
100
AcDbVertex
100
AcDb2dVertex
 10
105.5472527506403
 20
232.8215152195726
 30
0.0
  0
VERTEX
  5
29F
330
299
100
AcDbEntity
  8
GRAU_10_
 62
     7
100
AcDbVertex
100
AcDb2dVertex
 10
105.5472527506403
 20
231.8785402198081
 30
0.0
  0
VERTEX
  5
2A0
330
299
100
AcDbEntity
  8
GRAU_10_
 62
     7
100
AcDbVertex
100
AcDb2dVertex
 10
105.5472527506403
 20
230.7725818867511
 30
0.0
  0
VERTEX
  5
2A1
330
299
100
AcDbEntity
  8
GRAU_10_
 62
     7
100
AcDbVertex
100
AcDb2dVertex
 10
105.5472527506403
 20
229.5329207759502
 30
0.0
  0
VERTEX
  5
2A2
330
299
100
AcDbEntity
  8
GRAU_10_
 62
     7
100
AcDbVertex
100
AcDb2dVertex
 10
105.5472527506403
 20
228.1881318873976
 30
0.0
  0
VERTEX
  5
2A3
330
299
100
AcDbEntity
  8
GRAU_10_
 62
     7
100
AcDbVertex
100
AcDb2dVertex
 10
105.5472527506403
 20
226.7717291099738
 30
0.0
  0
VERTEX
  5
2A4
330
299
100
AcDbEntity
  8
GRAU_10_
 62
     7
100
AcDbVertex
100
AcDb2dVertex
 10
105.5472527506403
 20
225.3182846658927
 30
0.0
  0
VERTEX
  5
2A5
330
299
100
AcDbEntity
  8
GRAU_10_
 62
     7
100
AcDbVertex
100
AcDb2dVertex
 10
105.5472527506403
 20
223.8630763329232
 30
0.0
  0
SEQEND
  5
2A6
330
299
100
AcDbEntity
  8
GRAU_10_
 62
     7
  0
POLYLINE
  5
2A7
330
1F
100
AcDbEntity
  8
GRAU_10_
 62
     7
100
AcDb2dPolyline
 66
     1
 10
0.0
 20
0.0
 30
0.0
  0
VERTEX
  5
2A8
330
2A7
100
AcDbEntity
  8
GRAU_10_
 62
     7
100
AcDbVertex
100
AcDb2dVertex
 10
129.0267305225481
 20
237.7738096627788
 30
0.0
  0
VERTEX
  5
2A9
330
2A7
100
AcDbEntity
  8
GRAU_10_
 62
     7
100
AcDbVertex
100
AcDb2dVertex
 10
128.2065221894198
 20
237.7738096627788
 30
0.0
  0
SEQEND
  5
2AA
330
2A7
100
AcDbEntity
  8
GRAU_10_
 62
     7
  0
POLYLINE
  5
2AB
330
1F
100
AcDbEntity
  8
GRAU_10_
 62
     7
100
AcDb2dPolyline
 66
     1
 10
0.0
 20
0.0
 30
0.0
  0
VERTEX
  5
2AC
330
2AB
100
AcDbEntity
  8
GRAU_10_
 62
     7
100
AcDbVertex
100
AcDb2dVertex
 10
128.2065221894198
 20
212.7234124468192
 30
0.0
  0
VERTEX
  5
2AD
330
2AB
100
AcDbEntity
  8
GRAU_10_
 62
     7
100
AcDbVertex
100
AcDb2dVertex
 10
129.0267305225481
 20
212.7234124468192
 30
0.0
  0
SEQEND
  5
2AE
330
2AB
100
AcDbEntity
  8
GRAU_10_
 62
     7
  0
POLYLINE
  5
2AF
330
1F
100
AcDbEntity
  8
GRAU_10_
 62
     7
100
AcDb2dPolyline
 66
     1
 10
0.0
 20
0.0
 30
0.0
  0
VERTEX
  5
2B0
330
2AF
100
AcDbEntity
  8
GRAU_10_
 62
     7
100
AcDbVertex
100
AcDb2dVertex
 10
147.0268638513815
 20
240.8962457731092
 30
0.0
  0
VERTEX
  5
2B1
330
2AF
100
AcDbEntity
  8
GRAU_10_
 62
     7
100
AcDbVertex
100
AcDb2dVertex
 10
141.0268194084371
 20
240.8962457731092
 30
0.0
  0
SEQEND
  5
2B2
330
2AF
100
AcDbEntity
  8
GRAU_10_
 62
     7
  0
POLYLINE
  5
2B3
330
1F
100
AcDbEntity
  8
GRAU_10_
 62
     7
100
AcDb2dPolyline
 66
     1
 10
0.0
 20
0.0
 30
0.0
  0
VERTEX
  5
2B4
330
2B3
100
AcDbEntity
  8
GRAU_10_
 62
     7
100
AcDbVertex
100
AcDb2dVertex
 10
147.0268638513815
 20
239.8075735511594
 30
0.0
  0
VERTEX
  5
2B5
330
2B3
100
AcDbEntity
  8
GRAU_10_
 62
     7
100
AcDbVertex
100
AcDb2dVertex
 10
147.0268638513815
 20
240.8962457731092
 30
0.0
  0
SEQEND
  5
2B6
330
2B3
100
AcDbEntity
  8
GRAU_10_
 62
     7
  0
POLYLINE
  5
2B7
330
1F
100
AcDbEntity
  8
GRAU_10_
 62
     7
100
AcDb2dPolyline
 66
     1
 10
0.0
 20
0.0
 30
0.0
  0
VERTEX
  5
2B8
330
2B7
100
AcDbEntity
  8
GRAU_10_
 62
     7
100
AcDbVertex
100
AcDb2dVertex
 10
141.0268194084371
 20
239.8075735511594
 30
0.0
  0
VERTEX
  5
2B9
330
2B7
100
AcDbEntity
  8
GRAU_10_
 62
     7
100
AcDbVertex
100
AcDb2dVertex
 10
141.0268194084371
 20
240.8962457731092
 30
0.0
  0
SEQEND
  5
2BA
330
2B7
100
AcDbEntity
  8
GRAU_10_
 62
     7
  0
POLYLINE
  5
2BB
330
1F
100
AcDbEntity
  8
GRAU_10_
 62
     7
100
AcDb2dPolyline
 66
     1
 10
0.0
 20
0.0
 30
0.0
  0
VERTEX
  5
2BC
330
2BB
100
AcDbEntity
  8
GRAU_10_
 62
     7
100
AcDbVertex
100
AcDb2dVertex
 10
141.5263527416453
 20
243.8204207723784
 30
0.0
  0
VERTEX
  5
2BD
330
2BB
100
AcDbEntity
  8
GRAU_10_
 62
     7
100
AcDbVertex
100
AcDb2dVertex
 10
146.52627218484
 20
243.8204207723784
 30
0.0
  0
SEQEND
  5
2BE
330
2BB
100
AcDbEntity
  8
GRAU_10_
 62
     7
  0
POLYLINE
  5
2BF
330
1F
100
AcDbEntity
  8
GRAU_10_
 62
     7
100
AcDb2dPolyline
 66
     1
 10
0.0
 20
0.0
 30
0.0
  0
VERTEX
  5
2C0
330
2BF
100
AcDbEntity
  8
GRAU_10_
 62
     7
100
AcDbVertex
100
AcDb2dVertex
 10
146.8681138514212
 20
243.3522846613842
 30
0.0
  0
VERTEX
  5
2C1
330
2BF
100
AcDbEntity
  8
GRAU_10_
 62
     7
100
AcDbVertex
100
AcDb2dVertex
 10
146.6977221847971
 20
243.58652910577
 30
0.0
  0
VERTEX
  5
2C2
330
2BF
100
AcDbEntity
  8
GRAU_10_
 62
     7
100
AcDbVertex
100
AcDb2dVertex
 10
146.52627218484
 20
243.8204207723784
 30
0.0
  0
SEQEND
  5
2C3
330
2BF
100
AcDbEntity
  8
GRAU_10_
 62
     7
  0
POLYLINE
  5
2C4
330
1F
100
AcDbEntity
  8
GRAU_10_
 62
     7
100
AcDb2dPolyline
 66
     1
 10
0.0
 20
0.0
 30
0.0
  0
VERTEX
  5
2C5
330
2C4
100
AcDbEntity
  8
GRAU_10_
 62
     7
100
AcDbVertex
100
AcDb2dVertex
 10
146.8681138514212
 20
243.3522846613842
 30
0.0
  0
VERTEX
  5
2C6
330
2C4
100
AcDbEntity
  8
GRAU_10_
 62
     7
100
AcDbVertex
100
AcDb2dVertex
 10
141.1848638528418
 20
243.3522846613842
 30
0.0
  0
SEQEND
  5
2C7
330
2C4
100
AcDbEntity
  8
GRAU_10_
 62
     7
  0
POLYLINE
  5
2C8
330
1F
100
AcDbEntity
  8
GRAU_10_
 62
     7
100
AcDb2dPolyline
 66
     1
 10
0.0
 20
0.0
 30
0.0
  0
VERTEX
  5
2C9
330
2C8
100
AcDbEntity
  8
GRAU_10_
 62
     7
100
AcDbVertex
100
AcDb2dVertex
 10
141.5263527416453
 20
243.8204207723784
 30
0.0
  0
VERTEX
  5
2CA
330
2C8
100
AcDbEntity
  8
GRAU_10_
 62
     7
100
AcDbVertex
100
AcDb2dVertex
 10
141.355255519466
 20
243.58652910577
 30
0.0
  0
VERTEX
  5
2CB
330
2C8
100
AcDbEntity
  8
GRAU_10_
 62
     7
100
AcDbVertex
100
AcDb2dVertex
 10
141.1848638528418
 20
243.3522846613842
 30
0.0
  0
VERTEX
  5
2CC
330
2C8
100
AcDbEntity
  8
GRAU_10_
 62
     7
100
AcDbVertex
100
AcDb2dVertex
 10
141.0268194084371
 20
243.2034124391994
 30
0.0
  0
SEQEND
  5
2CD
330
2C8
100
AcDbEntity
  8
GRAU_10_
 62
     7
  0
POLYLINE
  5
2CE
330
1F
100
AcDbEntity
  8
GRAU_10_
 62
     7
100
AcDb2dPolyline
 66
     1
 10
0.0
 20
0.0
 30
0.0
  0
VERTEX
  5
2CF
330
2CE
100
AcDbEntity
  8
GRAU_10_
 62
     7
100
AcDbVertex
100
AcDb2dVertex
 10
147.0268638513815
 20
243.2034124391994
 30
0.0
  0
VERTEX
  5
2D0
330
2CE
100
AcDbEntity
  8
GRAU_10_
 62
     7
100
AcDbVertex
100
AcDb2dVertex
 10
146.8681138514212
 20
243.3522846613842
 30
0.0
  0
SEQEND
  5
2D1
330
2CE
100
AcDbEntity
  8
GRAU_10_
 62
     7
  0
POLYLINE
  5
2D2
330
1F
100
AcDbEntity
  8
GRAU_10_
 62
     7
100
AcDb2dPolyline
 66
     1
 10
0.0
 20
0.0
 30
0.0
  0
VERTEX
  5
2D3
330
2D2
100
AcDbEntity
  8
GRAU_10_
 62
     7
100
AcDbVertex
100
AcDb2dVertex
 10
141.0268194084371
 20
241.5054929951793
 30
0.0
  0
VERTEX
  5
2D4
330
2D2
100
AcDbEntity
  8
GRAU_10_
 62
     7
100
AcDbVertex
100
AcDb2dVertex
 10
147.0268638513815
 20
241.5054929951793
 30
0.0
  0
VERTEX
  5
2D5
330
2D2
100
AcDbEntity
  8
GRAU_10_
 62
     7
100
AcDbVertex
100
AcDb2dVertex
 10
147.0268638513815
 20
243.2034124391994
 30
0.0
  0
SEQEND
  5
2D6
330
2D2
100
AcDbEntity
  8
GRAU_10_
 62
     7
  0
POLYLINE
  5
2D7
330
1F
100
AcDbEntity
  8
GRAU_10_
 62
     7
100
AcDb2dPolyline
 66
     1
 10
0.0
 20
0.0
 30
0.0
  0
VERTEX
  5
2D8
330
2D7
100
AcDbEntity
  8
GRAU_10_
 62
     7
100
AcDbVertex
100
AcDb2dVertex
 10
141.0268194084371
 20
241.5054929951793
 30
0.0
  0
VERTEX
  5
2D9
330
2D7
100
AcDbEntity
  8
GRAU_10_
 62
     7
100
AcDbVertex
100
AcDb2dVertex
 10
141.0268194084371
 20
243.2034124391994
 30
0.0
  0
SEQEND
  5
2DA
330
2D7
100
AcDbEntity
  8
GRAU_10_
 62
     7
  0
POLYLINE
  5
2DB
330
1F
100
AcDbEntity
  8
GRAU_10_
 62
     7
100
AcDb2dPolyline
 66
     1
 10
0.0
 20
0.0
 30
0.0
  0
VERTEX
  5
2DC
330
2DB
100
AcDbEntity
  8
GRAU_10_
 62
     7
100
AcDbVertex
100
AcDb2dVertex
 10
141.5263527416453
 20
246.0983068829201
 30
0.0
  0
VERTEX
  5
2DD
330
2DB
100
AcDbEntity
  8
GRAU_10_
 62
     7
100
AcDbVertex
100
AcDb2dVertex
 10
141.0268194084371
 20
245.5984207719335
 30
0.0
  0
SEQEND
  5
2DE
330
2DB
100
AcDbEntity
  8
GRAU_10_
 62
     7
  0
POLYLINE
  5
2DF
330
1F
100
AcDbEntity
  8
GRAU_10_
 62
     7
100
AcDb2dPolyline
 66
     1
 10
0.0
 20
0.0
 30
0.0
  0
VERTEX
  5
2E0
330
2DF
100
AcDbEntity
  8
GRAU_10_
 62
     7
100
AcDbVertex
100
AcDb2dVertex
 10
141.5263527416453
 20
246.0983068829201
 30
0.0
  0
VERTEX
  5
2E1
330
2DF
100
AcDbEntity
  8
GRAU_10_
 62
     7
100
AcDbVertex
100
AcDb2dVertex
 10
141.5263527416453
 20
245.9540207718449
 30
0.0
  0
VERTEX
  5
2E2
330
2DF
100
AcDbEntity
  8
GRAU_10_
 62
     7
100
AcDbVertex
100
AcDb2dVertex
 10
141.5263527416453
 20
245.5211624386198
 30
0.0
  0
VERTEX
  5
2E3
330
2DF
100
AcDbEntity
  8
GRAU_10_
 62
     7
100
AcDbVertex
100
AcDb2dVertex
 10
141.5263527416453
 20
244.8064346610208
 30
0.0
  0
VERTEX
  5
2E4
330
2DF
100
AcDbEntity
  8
GRAU_10_
 62
     7
100
AcDbVertex
100
AcDb2dVertex
 10
141.5263527416453
 20
243.8204207723784
 30
0.0
  0
SEQEND
  5
2E5
330
2DF
100
AcDbEntity
  8
GRAU_10_
 62
     7
  0
POLYLINE
  5
2E6
330
1F
100
AcDbEntity
  8
GRAU_10_
 62
     7
100
AcDb2dPolyline
 66
     1
 10
0.0
 20
0.0
 30
0.0
  0
VERTEX
  5
2E7
330
2E6
100
AcDbEntity
  8
GRAU_10_
 62
     7
100
AcDbVertex
100
AcDb2dVertex
 10
141.0268194084371
 20
243.2034124391994
 30
0.0
  0
VERTEX
  5
2E8
330
2E6
100
AcDbEntity
  8
GRAU_10_
 62
     7
100
AcDbVertex
100
AcDb2dVertex
 10
141.0268194084371
 20
244.2395207722736
 30
0.0
  0
VERTEX
  5
2E9
330
2E6
100
AcDbEntity
  8
GRAU_10_
 62
     7
100
AcDbVertex
100
AcDb2dVertex
 10
141.0268194084371
 20
244.9905846609744
 30
0.0
  0
VERTEX
  5
2EA
330
2E6
100
AcDbEntity
  8
GRAU_10_
 62
     7
100
AcDbVertex
100
AcDb2dVertex
 10
141.0268194084371
 20
245.4463735497498
 30
0.0
  0
VERTEX
  5
2EB
330
2E6
100
AcDbEntity
  8
GRAU_10_
 62
     7
100
AcDbVertex
100
AcDb2dVertex
 10
141.0268194084371
 20
245.5984207719335
 30
0.0
  0
SEQEND
  5
2EC
330
2E6
100
AcDbEntity
  8
GRAU_10_
 62
     7
  0
POLYLINE
  5
2ED
330
1F
100
AcDbEntity
  8
GRAU_10_
 62
     7
100
AcDb2dPolyline
 66
     1
 10
0.0
 20
0.0
 30
0.0
  0
VERTEX
  5
2EE
330
2ED
100
AcDbEntity
  8
GRAU_10_
 62
     7
100
AcDbVertex
100
AcDb2dVertex
 10
147.0268638513815
 20
245.5984207719335
 30
0.0
  0
VERTEX
  5
2EF
330
2ED
100
AcDbEntity
  8
GRAU_10_
 62
     7
100
AcDbVertex
100
AcDb2dVertex
 10
146.52627218484
 20
246.0983068829201
 30
0.0
  0
SEQEND
  5
2F0
330
2ED
100
AcDbEntity
  8
GRAU_10_
 62
     7
  0
POLYLINE
  5
2F1
330
1F
100
AcDbEntity
  8
GRAU_10_
 62
     7
100
AcDb2dPolyline
 66
     1
 10
0.0
 20
0.0
 30
0.0
  0
VERTEX
  5
2F2
330
2F1
100
AcDbEntity
  8
GRAU_10_
 62
     7
100
AcDbVertex
100
AcDb2dVertex
 10
146.52627218484
 20
243.8204207723784
 30
0.0
  0
VERTEX
  5
2F3
330
2F1
100
AcDbEntity
  8
GRAU_10_
 62
     7
100
AcDbVertex
100
AcDb2dVertex
 10
146.52627218484
 20
244.8064346610208
 30
0.0
  0
VERTEX
  5
2F4
330
2F1
100
AcDbEntity
  8
GRAU_10_
 62
     7
100
AcDbVertex
100
AcDb2dVertex
 10
146.52627218484
 20
245.5211624386198
 30
0.0
  0
VERTEX
  5
2F5
330
2F1
100
AcDbEntity
  8
GRAU_10_
 62
     7
100
AcDbVertex
100
AcDb2dVertex
 10
146.52627218484
 20
245.9540207718449
 30
0.0
  0
VERTEX
  5
2F6
330
2F1
100
AcDbEntity
  8
GRAU_10_
 62
     7
100
AcDbVertex
100
AcDb2dVertex
 10
146.52627218484
 20
246.0983068829201
 30
0.0
  0
SEQEND
  5
2F7
330
2F1
100
AcDbEntity
  8
GRAU_10_
 62
     7
  0
POLYLINE
  5
2F8
330
1F
100
AcDbEntity
  8
GRAU_10_
 62
     7
100
AcDb2dPolyline
 66
     1
 10
0.0
 20
0.0
 30
0.0
  0
VERTEX
  5
2F9
330
2F8
100
AcDbEntity
  8
GRAU_10_
 62
     7
100
AcDbVertex
100
AcDb2dVertex
 10
147.0268638513815
 20
245.5984207719335
 30
0.0
  0
VERTEX
  5
2FA
330
2F8
100
AcDbEntity
  8
GRAU_10_
 62
     7
100
AcDbVertex
100
AcDb2dVertex
 10
147.0268638513815
 20
245.4463735497498
 30
0.0
  0
VERTEX
  5
2FB
330
2F8
100
AcDbEntity
  8
GRAU_10_
 62
     7
100
AcDbVertex
100
AcDb2dVertex
 10
147.0268638513815
 20
244.9905846609744
 30
0.0
  0
VERTEX
  5
2FC
330
2F8
100
AcDbEntity
  8
GRAU_10_
 62
     7
100
AcDbVertex
100
AcDb2dVertex
 10
147.0268638513815
 20
244.2395207722736
 30
0.0
  0
VERTEX
  5
2FD
330
2F8
100
AcDbEntity
  8
GRAU_10_
 62
     7
100
AcDbVertex
100
AcDb2dVertex
 10
147.0268638513815
 20
243.2034124391994
 30
0.0
  0
SEQEND
  5
2FE
330
2F8
100
AcDbEntity
  8
GRAU_10_
 62
     7
  0
POLYLINE
  5
2FF
330
1F
100
AcDbEntity
  8
GRAU_10_
 62
     7
100
AcDb2dPolyline
 66
     1
 10
0.0
 20
0.0
 30
0.0
  0
VERTEX
  5
300
330
2FF
100
AcDbEntity
  8
GRAU_10_
 62
     7
100
AcDbVertex
100
AcDb2dVertex
 10
146.52627218484
 20
246.0983068829201
 30
0.0
  0
VERTEX
  5
301
330
2FF
100
AcDbEntity
  8
GRAU_10_
 62
     7
100
AcDbVertex
100
AcDb2dVertex
 10
141.5263527416453
 20
246.0983068829201
 30
0.0
  0
SEQEND
  5
302
330
2FF
100
AcDbEntity
  8
GRAU_10_
 62
     7
  0
POLYLINE
  5
303
330
1F
100
AcDbEntity
  8
GRAU_10_
 62
     7
100
AcDb2dPolyline
 66
     1
 10
0.0
 20
0.0
 30
0.0
  0
VERTEX
  5
304
330
303
100
AcDbEntity
  8
GRAU_10_
 62
     7
100
AcDbVertex
100
AcDb2dVertex
 10
105.5472527506403
 20
234.5889318857975
 30
0.0
  0
VERTEX
  5
305
330
303
100
AcDbEntity
  8
GRAU_10_
 62
     7
100
AcDbVertex
100
AcDb2dVertex
 10
105.0265527507703
 20
234.0682318859274
 30
0.0
  0
SEQEND
  5
306
330
303
100
AcDbEntity
  8
GRAU_10_
 62
     7
  0
POLYLINE
  5
307
330
1F
100
AcDbEntity
  8
GRAU_10_
 62
     7
100
AcDb2dPolyline
 66
     1
 10
0.0
 20
0.0
 30
0.0
  0
VERTEX
  5
308
330
307
100
AcDbEntity
  8
GRAU_10_
 62
     7
100
AcDbVertex
100
AcDb2dVertex
 10
105.0265527507703
 20
216.4289902236705
 30
0.0
  0
VERTEX
  5
309
330
307
100
AcDbEntity
  8
GRAU_10_
 62
     7
100
AcDbVertex
100
AcDb2dVertex
 10
105.5472527506403
 20
215.9082902238005
 30
0.0
  0
SEQEND
  5
30A
330
307
100
AcDbEntity
  8
GRAU_10_
 62
     7
  0
POLYLINE
  5
30B
330
1F
100
AcDbEntity
  8
GRAU_10_
 62
     7
100
AcDb2dPolyline
 66
     1
 10
0.0
 20
0.0
 30
0.0
  0
VERTEX
  5
30C
330
30B
100
AcDbEntity
  8
GRAU_10_
 62
     7
100
AcDbVertex
100
AcDb2dVertex
 10
105.0265527507703
 20
223.9406874440147
 30
0.0
  0
VERTEX
  5
30D
330
30B
100
AcDbEntity
  8
GRAU_10_
 62
     7
100
AcDbVertex
100
AcDb2dVertex
 10
105.0265527507703
 20
225.3147568881158
 30
0.0
  0
VERTEX
  5
30E
330
30B
100
AcDbEntity
  8
GRAU_10_
 62
     7
100
AcDbVertex
100
AcDb2dVertex
 10
105.0265527507703
 20
226.687062443328
 30
0.0
  0
VERTEX
  5
30F
330
30B
100
AcDbEntity
  8
GRAU_10_
 62
     7
100
AcDbVertex
100
AcDb2dVertex
 10
105.0265527507703
 20
228.0240902207719
 30
0.0
  0
VERTEX
  5
310
330
30B
100
AcDbEntity
  8
GRAU_10_
 62
     7
100
AcDbVertex
100
AcDb2dVertex
 10
105.0265527507703
 20
229.2937374426767
 30
0.0
  0
VERTEX
  5
311
330
30B
100
AcDbEntity
  8
GRAU_10_
 62
     7
100
AcDbVertex
100
AcDb2dVertex
 10
105.0265527507703
 20
230.4653124423838
 30
0.0
  0
VERTEX
  5
312
330
30B
100
AcDbEntity
  8
GRAU_10_
 62
     7
100
AcDbVertex
100
AcDb2dVertex
 10
105.0265527507703
 20
231.5088291087895
 30
0.0
  0
VERTEX
  5
313
330
30B
100
AcDbEntity
  8
GRAU_10_
 62
     7
100
AcDbVertex
100
AcDb2dVertex
 10
105.0265527507703
 20
232.3995929974559
 30
0.0
  0
VERTEX
  5
314
330
30B
100
AcDbEntity
  8
GRAU_10_
 62
     7
100
AcDbVertex
100
AcDb2dVertex
 10
105.0265527507703
 20
233.1164374417208
 30
0.0
  0
VERTEX
  5
315
330
30B
100
AcDbEntity
  8
GRAU_10_
 62
     7
100
AcDbVertex
100
AcDb2dVertex
 10
105.0265527507703
 20
233.6410179971453
 30
0.0
  0
VERTEX
  5
316
330
30B
100
AcDbEntity
  8
GRAU_10_
 62
     7
100
AcDbVertex
100
AcDb2dVertex
 10
105.0265527507703
 20
233.9613402192875
 30
0.0
  0
VERTEX
  5
317
330
30B
100
AcDbEntity
  8
GRAU_10_
 62
     7
100
AcDbVertex
100
AcDb2dVertex
 10
105.0265527507703
 20
234.0682318859274
 30
0.0
  0
SEQEND
  5
318
330
30B
100
AcDbEntity
  8
GRAU_10_
 62
     7
  0
POLYLINE
  5
319
330
1F
100
AcDbEntity
  8
GRAU_10_
 62
     7
100
AcDb2dPolyline
 66
     1
 10
0.0
 20
0.0
 30
0.0
  0
VERTEX
  5
31A
330
319
100
AcDbEntity
  8
GRAU_10_
 62
     7
100
AcDbVertex
100
AcDb2dVertex
 10
105.0265527507703
 20
216.4289902236705
 30
0.0
  0
VERTEX
  5
31B
330
319
100
AcDbEntity
  8
GRAU_10_
 62
     7
100
AcDbVertex
100
AcDb2dVertex
 10
105.0265527507703
 20
216.5383513347541
 30
0.0
  0
VERTEX
  5
31C
330
319
100
AcDbEntity
  8
GRAU_10_
 62
     7
100
AcDbVertex
100
AcDb2dVertex
 10
105.0265527507703
 20
216.8650235568951
 30
0.0
  0
VERTEX
  5
31D
330
319
100
AcDbEntity
  8
GRAU_10_
 62
     7
100
AcDbVertex
100
AcDb2dVertex
 10
105.0265527507703
 20
217.4012457789828
 30
0.0
  0
VERTEX
  5
31E
330
319
100
AcDbEntity
  8
GRAU_10_
 62
     7
100
AcDbVertex
100
AcDb2dVertex
 10
105.0265527507703
 20
218.1322013343556
 30
0.0
  0
VERTEX
  5
31F
330
319
100
AcDbEntity
  8
GRAU_10_
 62
     7
100
AcDbVertex
100
AcDb2dVertex
 10
105.0265527507703
 20
219.0406041119066
 30
0.0
  0
VERTEX
  5
320
330
319
100
AcDbEntity
  8
GRAU_10_
 62
     7
100
AcDbVertex
100
AcDb2dVertex
 10
105.0265527507703
 20
220.1035235560853
 30
0.0
  0
VERTEX
  5
321
330
319
100
AcDbEntity
  8
GRAU_10_
 62
     7
100
AcDbVertex
100
AcDb2dVertex
 10
105.0265527507703
 20
221.2948541113428
 30
0.0
  0
VERTEX
  5
322
330
319
100
AcDbEntity
  8
GRAU_10_
 62
     7
100
AcDbVertex
100
AcDb2dVertex
 10
105.0265527507703
 20
222.5842568887985
 30
0.0
  0
VERTEX
  5
323
330
319
100
AcDbEntity
  8
GRAU_10_
 62
     7
100
AcDbVertex
100
AcDb2dVertex
 10
105.0265527507703
 20
223.9406874440147
 30
0.0
  0
SEQEND
  5
324
330
319
100
AcDbEntity
  8
GRAU_10_
 62
     7
  0
POLYLINE
  5
325
330
1F
100
AcDbEntity
  8
GRAU_10_
 62
     7
100
AcDb2dPolyline
 66
     1
 10
0.0
 20
0.0
 30
0.0
  0
VERTEX
  5
326
330
325
100
AcDbEntity
  8
GRAU_10_
 62
     7
100
AcDbVertex
100
AcDb2dVertex
 10
147.0268638513815
 20
241.5054929951793
 30
0.0
  0
VERTEX
  5
327
330
325
100
AcDbEntity
  8
GRAU_10_
 62
     7
100
AcDbVertex
100
AcDb2dVertex
 10
147.0268638513815
 20
240.8962457731092
 30
0.0
  0
SEQEND
  5
328
330
325
100
AcDbEntity
  8
GRAU_10_
 62
     7
  0
POLYLINE
  5
329
330
1F
100
AcDbEntity
  8
GRAU_10_
 62
     7
100
AcDb2dPolyline
 66
     1
 10
0.0
 20
0.0
 30
0.0
  0
VERTEX
  5
32A
330
329
100
AcDbEntity
  8
GRAU_10_
 62
     7
100
AcDbVertex
100
AcDb2dVertex
 10
141.0268194084371
 20
240.8962457731092
 30
0.0
  0
VERTEX
  5
32B
330
329
100
AcDbEntity
  8
GRAU_10_
 62
     7
100
AcDbVertex
100
AcDb2dVertex
 10
141.0268194084371
 20
241.5054929951793
 30
0.0
  0
SEQEND
  5
32C
330
329
100
AcDbEntity
  8
GRAU_10_
 62
     7
  0
POLYLINE
  5
32D
330
1F
100
AcDbEntity
  8
GRAU_10_
 62
     7
100
AcDb2dPolyline
 66
     1
 10
0.0
 20
0.0
 30
0.0
  0
VERTEX
  5
32E
330
32D
100
AcDbEntity
  8
GRAU_10_
 62
     7
100
AcDbVertex
100
AcDb2dVertex
 10
147.0268638513815
 20
207.4557346703584
 30
0.0
  0
VERTEX
  5
32F
330
32D
100
AcDbEntity
  8
GRAU_10_
 62
     7
100
AcDbVertex
100
AcDb2dVertex
 10
141.0268194084371
 20
207.4557346703584
 30
0.0
  0
SEQEND
  5
330
330
32D
100
AcDbEntity
  8
GRAU_10_
 62
     7
  0
POLYLINE
  5
331
330
1F
100
AcDbEntity
  8
GRAU_10_
 62
     7
100
AcDb2dPolyline
 66
     1
 10
0.0
 20
0.0
 30
0.0
  0
VERTEX
  5
332
330
331
100
AcDbEntity
  8
GRAU_10_
 62
     7
100
AcDbVertex
100
AcDb2dVertex
 10
147.0268638513815
 20
207.9760818924506
 30
0.0
  0
VERTEX
  5
333
330
331
100
AcDbEntity
  8
GRAU_10_
 62
     7
100
AcDbVertex
100
AcDb2dVertex
 10
147.0268638513815
 20
207.4557346703584
 30
0.0
  0
SEQEND
  5
334
330
331
100
AcDbEntity
  8
GRAU_10_
 62
     7
  0
POLYLINE
  5
335
330
1F
100
AcDbEntity
  8
GRAU_10_
 62
     7
100
AcDb2dPolyline
 66
     1
 10
0.0
 20
0.0
 30
0.0
  0
VERTEX
  5
336
330
335
100
AcDbEntity
  8
GRAU_10_
 62
     7
100
AcDbVertex
100
AcDb2dVertex
 10
141.0268194084371
 20
207.4557346703584
 30
0.0
  0
VERTEX
  5
337
330
335
100
AcDbEntity
  8
GRAU_10_
 62
     7
100
AcDbVertex
100
AcDb2dVertex
 10
141.0268194084371
 20
207.9760818924506
 30
0.0
  0
SEQEND
  5
338
330
335
100
AcDbEntity
  8
GRAU_10_
 62
     7
  0
POLYLINE
  5
339
330
1F
100
AcDbEntity
  8
GRAU_10_
 62
     7
100
AcDb2dPolyline
 66
     1
 10
0.0
 20
0.0
 30
0.0
  0
VERTEX
  5
33A
330
339
100
AcDbEntity
  8
GRAU_10_
 62
     7
100
AcDbVertex
100
AcDb2dVertex
 10
146.52627218484
 20
204.3989152266778
 30
0.0
  0
VERTEX
  5
33B
330
339
100
AcDbEntity
  8
GRAU_10_
 62
     7
100
AcDbVertex
100
AcDb2dVertex
 10
147.0268638513815
 20
204.8984485598866
 30
0.0
  0
SEQEND
  5
33C
330
339
100
AcDbEntity
  8
GRAU_10_
 62
     7
  0
POLYLINE
  5
33D
330
1F
100
AcDbEntity
  8
GRAU_10_
 62
     7
100
AcDb2dPolyline
 66
     1
 10
0.0
 20
0.0
 30
0.0
  0
VERTEX
  5
33E
330
33D
100
AcDbEntity
  8
GRAU_10_
 62
     7
100
AcDbVertex
100
AcDb2dVertex
 10
146.52627218484
 20
204.3989152266778
 30
0.0
  0
VERTEX
  5
33F
330
33D
100
AcDbEntity
  8
GRAU_10_
 62
     7
100
AcDbVertex
100
AcDb2dVertex
 10
146.52627218484
 20
204.5686013377471
 30
0.0
  0
VERTEX
  5
340
330
33D
100
AcDbEntity
  8
GRAU_10_
 62
     7
100
AcDbVertex
100
AcDb2dVertex
 10
146.52627218484
 20
205.0748374487314
 30
0.0
  0
VERTEX
  5
341
330
33D
100
AcDbEntity
  8
GRAU_10_
 62
     7
100
AcDbVertex
100
AcDb2dVertex
 10
146.6977221847971
 20
205.2861513375676
 30
0.0
  0
VERTEX
  5
342
330
33D
100
AcDbEntity
  8
GRAU_10_
 62
     7
100
AcDbVertex
100
AcDb2dVertex
 10
146.8681138514212
 20
205.4981707819585
 30
0.0
  0
VERTEX
  5
343
330
33D
100
AcDbEntity
  8
GRAU_10_
 62
     7
100
AcDbVertex
100
AcDb2dVertex
 10
147.0268638513815
 20
205.6558624485859
 30
0.0
  0
VERTEX
  5
344
330
33D
100
AcDbEntity
  8
GRAU_10_
 62
     7
100
AcDbVertex
100
AcDb2dVertex
 10
147.0268638513815
 20
205.0889485598387
 30
0.0
  0
VERTEX
  5
345
330
33D
100
AcDbEntity
  8
GRAU_10_
 62
     7
100
AcDbVertex
100
AcDb2dVertex
 10
147.0268638513815
 20
204.8984485598866
 30
0.0
  0
SEQEND
  5
346
330
33D
100
AcDbEntity
  8
GRAU_10_
 62
     7
  0
POLYLINE
  5
347
330
1F
100
AcDbEntity
  8
GRAU_10_
 62
     7
100
AcDb2dPolyline
 66
     1
 10
0.0
 20
0.0
 30
0.0
  0
VERTEX
  5
348
330
347
100
AcDbEntity
  8
GRAU_10_
 62
     7
100
AcDbVertex
100
AcDb2dVertex
 10
146.8681138514212
 20
205.4981707819585
 30
0.0
  0
VERTEX
  5
349
330
347
100
AcDbEntity
  8
GRAU_10_
 62
     7
100
AcDbVertex
100
AcDb2dVertex
 10
141.1848638528418
 20
205.4981707819585
 30
0.0
  0
SEQEND
  5
34A
330
347
100
AcDbEntity
  8
GRAU_10_
 62
     7
  0
POLYLINE
  5
34B
330
1F
100
AcDbEntity
  8
GRAU_10_
 62
     7
100
AcDb2dPolyline
 66
     1
 10
0.0
 20
0.0
 30
0.0
  0
VERTEX
  5
34C
330
34B
100
AcDbEntity
  8
GRAU_10_
 62
     7
100
AcDbVertex
100
AcDb2dVertex
 10
146.52627218484
 20
205.0748374487314
 30
0.0
  0
VERTEX
  5
34D
330
34B
100
AcDbEntity
  8
GRAU_10_
 62
     7
100
AcDbVertex
100
AcDb2dVertex
 10
141.5263527416453
 20
205.0748374487314
 30
0.0
  0
SEQEND
  5
34E
330
34B
100
AcDbEntity
  8
GRAU_10_
 62
     7
  0
POLYLINE
  5
34F
330
1F
100
AcDbEntity
  8
GRAU_10_
 62
     7
100
AcDb2dPolyline
 66
     1
 10
0.0
 20
0.0
 30
0.0
  0
VERTEX
  5
350
330
34F
100
AcDbEntity
  8
GRAU_10_
 62
     7
100
AcDbVertex
100
AcDb2dVertex
 10
141.1848638528418
 20
205.4981707819585
 30
0.0
  0
VERTEX
  5
351
330
34F
100
AcDbEntity
  8
GRAU_10_
 62
     7
100
AcDbVertex
100
AcDb2dVertex
 10
141.355255519466
 20
205.2861513375676
 30
0.0
  0
VERTEX
  5
352
330
34F
100
AcDbEntity
  8
GRAU_10_
 62
     7
100
AcDbVertex
100
AcDb2dVertex
 10
141.5263527416453
 20
205.0748374487314
 30
0.0
  0
SEQEND
  5
353
330
34F
100
AcDbEntity
  8
GRAU_10_
 62
     7
  0
POLYLINE
  5
354
330
1F
100
AcDbEntity
  8
GRAU_10_
 62
     7
100
AcDb2dPolyline
 66
     1
 10
0.0
 20
0.0
 30
0.0
  0
VERTEX
  5
355
330
354
100
AcDbEntity
  8
GRAU_10_
 62
     7
100
AcDbVertex
100
AcDb2dVertex
 10
141.0268194084371
 20
205.6558624485859
 30
0.0
  0
VERTEX
  5
356
330
354
100
AcDbEntity
  8
GRAU_10_
 62
     7
100
AcDbVertex
100
AcDb2dVertex
 10
141.1848638528418
 20
205.4981707819585
 30
0.0
  0
SEQEND
  5
357
330
354
100
AcDbEntity
  8
GRAU_10_
 62
     7
  0
POLYLINE
  5
358
330
1F
100
AcDbEntity
  8
GRAU_10_
 62
     7
100
AcDb2dPolyline
 66
     1
 10
0.0
 20
0.0
 30
0.0
  0
VERTEX
  5
359
330
358
100
AcDbEntity
  8
GRAU_10_
 62
     7
100
AcDbVertex
100
AcDb2dVertex
 10
147.0268638513815
 20
205.6558624485859
 30
0.0
  0
VERTEX
  5
35A
330
358
100
AcDbEntity
  8
GRAU_10_
 62
     7
100
AcDbVertex
100
AcDb2dVertex
 10
147.0268638513815
 20
207.4557346703584
 30
0.0
  0
SEQEND
  5
35B
330
358
100
AcDbEntity
  8
GRAU_10_
 62
     7
  0
POLYLINE
  5
35C
330
1F
100
AcDbEntity
  8
GRAU_10_
 62
     7
100
AcDb2dPolyline
 66
     1
 10
0.0
 20
0.0
 30
0.0
  0
VERTEX
  5
35D
330
35C
100
AcDbEntity
  8
GRAU_10_
 62
     7
100
AcDbVertex
100
AcDb2dVertex
 10
141.0268194084371
 20
205.6558624485859
 30
0.0
  0
VERTEX
  5
35E
330
35C
100
AcDbEntity
  8
GRAU_10_
 62
     7
100
AcDbVertex
100
AcDb2dVertex
 10
141.0268194084371
 20
207.4557346703584
 30
0.0
  0
SEQEND
  5
35F
330
35C
100
AcDbEntity
  8
GRAU_10_
 62
     7
  0
POLYLINE
  5
360
330
1F
100
AcDbEntity
  8
GRAU_10_
 62
     7
100
AcDb2dPolyline
 66
     1
 10
0.0
 20
0.0
 30
0.0
  0
VERTEX
  5
361
330
360
100
AcDbEntity
  8
GRAU_10_
 62
     7
100
AcDbVertex
100
AcDb2dVertex
 10
141.0268194084371
 20
204.8984485598866
 30
0.0
  0
VERTEX
  5
362
330
360
100
AcDbEntity
  8
GRAU_10_
 62
     7
100
AcDbVertex
100
AcDb2dVertex
 10
141.5263527416453
 20
204.3989152266778
 30
0.0
  0
SEQEND
  5
363
330
360
100
AcDbEntity
  8
GRAU_10_
 62
     7
  0
POLYLINE
  5
364
330
1F
100
AcDbEntity
  8
GRAU_10_
 62
     7
100
AcDb2dPolyline
 66
     1
 10
0.0
 20
0.0
 30
0.0
  0
VERTEX
  5
365
330
364
100
AcDbEntity
  8
GRAU_10_
 62
     7
100
AcDbVertex
100
AcDb2dVertex
 10
141.5263527416453
 20
205.0748374487314
 30
0.0
  0
VERTEX
  5
366
330
364
100
AcDbEntity
  8
GRAU_10_
 62
     7
100
AcDbVertex
100
AcDb2dVertex
 10
141.5263527416453
 20
204.5686013377471
 30
0.0
  0
VERTEX
  5
367
330
364
100
AcDbEntity
  8
GRAU_10_
 62
     7
100
AcDbVertex
100
AcDb2dVertex
 10
141.5263527416453
 20
204.3989152266778
 30
0.0
  0
SEQEND
  5
368
330
364
100
AcDbEntity
  8
GRAU_10_
 62
     7
  0
POLYLINE
  5
369
330
1F
100
AcDbEntity
  8
GRAU_10_
 62
     7
100
AcDb2dPolyline
 66
     1
 10
0.0
 20
0.0
 30
0.0
  0
VERTEX
  5
36A
330
369
100
AcDbEntity
  8
GRAU_10_
 62
     7
100
AcDbVertex
100
AcDb2dVertex
 10
141.0268194084371
 20
204.8984485598866
 30
0.0
  0
VERTEX
  5
36B
330
369
100
AcDbEntity
  8
GRAU_10_
 62
     7
100
AcDbVertex
100
AcDb2dVertex
 10
141.0268194084371
 20
205.0889485598387
 30
0.0
  0
VERTEX
  5
36C
330
369
100
AcDbEntity
  8
GRAU_10_
 62
     7
100
AcDbVertex
100
AcDb2dVertex
 10
141.0268194084371
 20
205.6558624485859
 30
0.0
  0
SEQEND
  5
36D
330
369
100
AcDbEntity
  8
GRAU_10_
 62
     7
  0
POLYLINE
  5
36E
330
1F
100
AcDbEntity
  8
GRAU_10_
 62
     7
100
AcDb2dPolyline
 66
     1
 10
0.0
 20
0.0
 30
0.0
  0
VERTEX
  5
36F
330
36E
100
AcDbEntity
  8
GRAU_10_
 62
     7
100
AcDbVertex
100
AcDb2dVertex
 10
141.5263527416453
 20
204.3989152266778
 30
0.0
  0
VERTEX
  5
370
330
36E
100
AcDbEntity
  8
GRAU_10_
 62
     7
100
AcDbVertex
100
AcDb2dVertex
 10
146.52627218484
 20
204.3989152266778
 30
0.0
  0
SEQEND
  5
371
330
36E
100
AcDbEntity
  8
GRAU_10_
 62
     7
  0
SPLINE
  5
372
330
1F
100
AcDbEntity
  8
GRAU_10_
 62
     7
100
AcDbSpline
210
0.0
220
0.0
230
1.0
 70
    11
 71
     3
 72
    17
 73
    13
 74
     0
 42
0.0000000001
 43
0.0000000001
 12
1.0
 22
0.0
 32
0.0
 13
1.0
 23
0.0
 33
0.0
 40
0.0
 40
0.0
 40
0.0
 40
0.0
 40
1.0
 40
1.0
 40
1.0
 40
2.0
 40
2.0
 40
2.0
 40
3.0
 40
3.0
 40
3.0
 40
4.0
 40
4.0
 40
4.0
 40
4.0
 10
54.61846665301223
 20
225.2487874436879
 30
0.0
 10
54.61846665301223
 20
233.5327152193946
 30
0.0
 10
47.90263609913555
 20
240.2485457732713
 30
0.0
 10
39.618355545651
 20
240.2485457732713
 30
0.0
 10
31.33372221438869
 20
240.2485457732713
 30
0.0
 10
24.61789166051232
 20
233.5327152193946
 30
0.0
 10
24.61789166051232
 20
225.2487874436879
 30
0.0
 10
24.61789166051232
 20
216.9641541124255
 30
0.0
 10
31.33372221438869
 20
210.2486763363266
 30
0.0
 10
39.618355545651
 20
210.2486763363266
 30
0.0
 10
47.90263609913555
 20
210.2486763363266
 30
0.0
 10
54.61846665301223
 20
216.9641541124255
 30
0.0
 10
54.61846665301223
 20
225.2487874436879
 30
0.0
  0
SPLINE
  5
373
330
1F
100
AcDbEntity
  8
GRAU_10_
 62
     7
100
AcDbSpline
210
0.0
220
0.0
230
1.0
 70
    11
 71
     3
 72
    17
 73
    13
 74
     0
 42
0.0000000001
 43
0.0000000001
 12
1.0
 22
0.0
 32
0.0
 13
1.0
 23
0.0
 33
0.0
 40
0.0
 40
0.0
 40
0.0
 40
0.0
 40
1.0
 40
1.0
 40
1.0
 40
2.0
 40
2.0
 40
2.0
 40
3.0
 40
3.0
 40
3.0
 40
4.0
 40
4.0
 40
4.0
 40
4.0
 10
53.71782498657045
 20
225.2487874436879
 30
0.0
 10
53.71782498657045
 20
233.0356513306301
 30
0.0
 10
47.40557221037073
 20
239.3482568846076
 30
0.0
 10
39.618355545651
 20
239.3482568846076
 30
0.0
 10
31.83078610315351
 20
239.3482568846076
 30
0.0
 10
25.51818054917602
 20
233.0356513306301
 30
0.0
 10
25.51818054917602
 20
225.2487874436879
 30
0.0
 10
25.51818054917602
 20
217.4615707789678
 30
0.0
 10
31.83078610315351
 20
211.1482596694354
 30
0.0
 10
39.618355545651
 20
211.1482596694354
 30
0.0
 10
47.40557221037073
 20
211.1482596694354
 30
0.0
 10
53.71782498657045
 20
217.4615707789678
 30
0.0
 10
53.71782498657045
 20
225.2487874436879
 30
0.0
  0
SPLINE
  5
374
330
1F
100
AcDbEntity
  8
GRAU_10_
 62
     7
100
AcDbSpline
210
0.0
220
0.0
230
1.0
 70
    11
 71
     3
 72
    17
 73
    13
 74
     0
 42
0.0000000001
 43
0.0000000001
 12
1.0
 22
0.0
 32
0.0
 13
1.0
 23
0.0
 33
0.0
 40
0.0
 40
0.0
 40
0.0
 40
0.0
 40
1.0
 40
1.0
 40
1.0
 40
2.0
 40
2.0
 40
2.0
 40
3.0
 40
3.0
 40
3.0
 40
4.0
 40
4.0
 40
4.0
 40
4.0
 10
52.44041665355644
 20
225.2487874436879
 30
0.0
 10
52.44041665355644
 20
232.3297429974732
 30
0.0
 10
46.69966387721412
 20
238.0708485515933
 30
0.0
 10
39.618355545651
 20
238.0708485515933
 30
0.0
 10
32.53669443631044
 20
238.0708485515933
 30
0.0
 10
26.7959416599678
 20
232.3297429974732
 30
0.0
 10
26.7959416599678
 20
225.2487874436879
 30
0.0
 10
26.7959416599678
 20
218.1674791121247
 30
0.0
 10
32.53669443631044
 20
212.4267263357824
 30
0.0
 10
39.618355545651
 20
212.4267263357824
 30
0.0
 10
46.69966387721412
 20
212.4267263357824
 30
0.0
 10
52.44041665355644
 20
218.1674791121247
 30
0.0
 10
52.44041665355644
 20
225.2487874436879
 30
0.0
  0
SPLINE
  5
375
330
1F
100
AcDbEntity
  8
GRAU_10_
 62
     7
100
AcDbSpline
210
0.0
220
0.0
230
1.0
 70
    11
 71
     3
 72
    17
 73
    13
 74
     0
 42
0.0000000001
 43
0.0000000001
 12
1.0
 22
0.0
 32
0.0
 13
1.0
 23
0.0
 33
0.0
 40
0.0
 40
0.0
 40
0.0
 40
0.0
 40
1.0
 40
1.0
 40
1.0
 40
2.0
 40
2.0
 40
2.0
 40
3.0
 40
3.0
 40
3.0
 40
4.0
 40
4.0
 40
4.0
 40
4.0
 10
53.61834165326226
 20
225.2487874436879
 30
0.0
 10
53.61834165326226
 20
232.9806179973102
 30
0.0
 10
47.35018609927373
 20
239.248420773521
 30
0.0
 10
39.618355545651
 20
239.248420773521
 30
0.0
 10
31.88617221425083
 20
239.248420773521
 30
0.0
 10
25.6180166602623
 20
232.9806179973102
 30
0.0
 10
25.6180166602623
 20
225.2487874436879
 30
0.0
 10
25.6180166602623
 20
217.5166041122877
 30
0.0
 10
31.88617221425083
 20
211.2484485582991
 30
0.0
 10
39.618355545651
 20
211.2484485582991
 30
0.0
 10
47.35018609927373
 20
211.2484485582991
 30
0.0
 10
53.61834165326226
 20
217.5166041122877
 30
0.0
 10
53.61834165326226
 20
225.2487874436879
 30
0.0
  0
SPLINE
  5
376
330
1F
100
AcDbEntity
  8
GRAU_10_
 62
     7
100
AcDbSpline
210
0.0
220
0.0
230
1.0
 70
    11
 71
     3
 72
    17
 73
    13
 74
     0
 42
0.0000000001
 43
0.0000000001
 12
1.0
 22
0.0
 32
0.0
 13
1.0
 23
0.0
 33
0.0
 40
0.0
 40
0.0
 40
0.0
 40
0.0
 40
1.0
 40
1.0
 40
1.0
 40
2.0
 40
2.0
 40
2.0
 40
3.0
 40
3.0
 40
3.0
 40
4.0
 40
4.0
 40
4.0
 40
4.0
 10
55.61823887498446
 20
225.2487874436879
 30
0.0
 10
55.61823887498446
 20
234.0851652192565
 30
0.0
 10
48.45473332121961
 20
241.248670773021
 30
0.0
 10
39.618355545651
 20
241.248670773021
 30
0.0
 10
30.78162499230463
 20
241.248670773021
 30
0.0
 10
23.6181194385401
 20
234.0851652192565
 30
0.0
 10
23.6181194385401
 20
225.2487874436879
 30
0.0
 10
23.6181194385401
 20
216.4124096681189
 30
0.0
 10
30.78162499230463
 20
209.248551336577
 30
0.0
 10
39.618355545651
 20
209.248551336577
 30
0.0
 10
48.45473332121961
 20
209.248551336577
 30
0.0
 10
55.61823887498446
 20
216.4124096681189
 30
0.0
 10
55.61823887498446
 20
225.2487874436879
 30
0.0
  0
SPLINE
  5
377
330
1F
100
AcDbEntity
  8
GRAU_10_
 62
     7
100
AcDbSpline
210
0.0
220
0.0
230
1.0
 70
    11
 71
     3
 72
    17
 73
    13
 74
     0
 42
0.0000000001
 43
0.0000000001
 12
1.0
 22
0.0
 32
0.0
 13
1.0
 23
0.0
 33
0.0
 40
0.0
 40
0.0
 40
0.0
 40
0.0
 40
1.0
 40
1.0
 40
1.0
 40
2.0
 40
2.0
 40
2.0
 40
3.0
 40
3.0
 40
3.0
 40
4.0
 40
4.0
 40
4.0
 40
4.0
 10
48.61842221006755
 20
225.2487874436879
 30
0.0
 10
48.61842221006755
 20
230.2194263313341
 30
0.0
 10
44.58899443329728
 20
234.2485013303269
 30
0.0
 10
39.618355545651
 20
234.2485013303269
 30
0.0
 10
34.64736388022695
 20
234.2485013303269
 30
0.0
 10
30.61828888123445
 20
230.2194263313341
 30
0.0
 10
30.61828888123445
 20
225.2487874436879
 30
0.0
 10
30.61828888123445
 20
220.2777957782638
 30
0.0
 10
34.64736388022695
 20
216.2483680014932
 30
0.0
 10
39.618355545651
 20
216.2483680014932
 30
0.0
 10
44.58899443329728
 20
216.2483680014932
 30
0.0
 10
48.61842221006755
 20
220.2777957782638
 30
0.0
 10
48.61842221006755
 20
225.2487874436879
 30
0.0
  0
POLYLINE
  5
378
330
1F
100
AcDbEntity
  8
GRAU_10_
 62
     7
100
AcDb2dPolyline
 66
     1
 10
0.0
 20
0.0
 30
0.0
  0
VERTEX
  5
379
330
378
100
AcDbEntity
  8
GRAU_10_
 62
     7
100
AcDbVertex
100
AcDb2dVertex
 10
59.48433054068454
 20
230.3400763313038
 30
0.0
  0
VERTEX
  5
37A
330
378
100
AcDbEntity
  8
GRAU_10_
 62
     7
100
AcDbVertex
100
AcDb2dVertex
 10
59.33545831849937
 20
230.2825735535406
 30
0.0
  0
SEQEND
  5
37B
330
378
100
AcDbEntity
  8
GRAU_10_
 62
     7
  0
SPLINE
  5
37C
330
1F
100
AcDbEntity
  8
GRAU_10_
 62
     7
100
AcDbSpline
210
0.0
220
0.0
230
1.0
 70
     8
 71
     3
 72
     8
 73
     4
 74
     0
 42
0.0000000001
 43
0.0000000001
 12
1.0
 22
0.0
 32
0.0
 13
1.0
 23
0.0
 33
0.0
 40
0.0
 40
0.0
 40
0.0
 40
0.0
 40
1.0
 40
1.0
 40
1.0
 40
1.0
 10
59.33545831849937
 20
230.2825735535406
 30
0.0
 10
57.98431942994829
 20
235.5770624411058
 30
0.0
 10
54.67032498633258
 20
239.8513179955928
 30
0.0
 10
50.37878332073881
 20
242.5211402171473
 30
0.0
  0
POLYLINE
  5
37D
330
1F
100
AcDbEntity
  8
GRAU_10_
 62
     7
100
AcDb2dPolyline
 66
     1
 10
0.0
 20
0.0
 30
0.0
  0
VERTEX
  5
37E
330
37D
100
AcDbEntity
  8
GRAU_10_
 62
     7
100
AcDbVertex
100
AcDb2dVertex
 10
50.37878332073881
 20
242.5211402171473
 30
0.0
  0
VERTEX
  5
37F
330
37D
100
AcDbEntity
  8
GRAU_10_
 62
     7
100
AcDbVertex
100
AcDb2dVertex
 10
50.47826665404701
 20
242.6453179948943
 30
0.0
  0
VERTEX
  5
380
330
37D
100
AcDbEntity
  8
GRAU_10_
 62
     7
100
AcDbVertex
100
AcDb2dVertex
 10
50.72133054287524
 20
242.6936485504377
 30
0.0
  0
VERTEX
  5
381
330
37D
100
AcDbEntity
  8
GRAU_10_
 62
     7
100
AcDbVertex
100
AcDb2dVertex
 10
50.96404165392571
 20
242.7416263282033
 30
0.0
  0
SEQEND
  5
382
330
37D
100
AcDbEntity
  8
GRAU_10_
 62
     7
  0
SPLINE
  5
383
330
1F
100
AcDbEntity
  8
GRAU_10_
 62
     7
100
AcDbSpline
210
0.0
220
0.0
230
1.0
 70
     8
 71
     3
 72
     8
 73
     4
 74
     0
 42
0.0000000001
 43
0.0000000001
 12
1.0
 22
0.0
 32
0.0
 13
1.0
 23
0.0
 33
0.0
 40
0.0
 40
0.0
 40
0.0
 40
0.0
 40
1.0
 40
1.0
 40
1.0
 40
1.0
 10
59.72280831840251
 20
230.7739929978622
 30
0.0
 10
58.30993331875602
 20
235.9139652187993
 30
0.0
 10
55.09224720844929
 20
240.0739207733147
 30
0.0
 10
50.96333609837018
 20
242.7416263282033
 30
0.0
  0
POLYLINE
  5
384
330
1F
100
AcDbEntity
  8
GRAU_10_
 62
     7
100
AcDb2dPolyline
 66
     1
 10
0.0
 20
0.0
 30
0.0
  0
VERTEX
  5
385
330
384
100
AcDbEntity
  8
GRAU_10_
 62
     7
100
AcDbVertex
100
AcDb2dVertex
 10
59.72280831840251
 20
230.7739929978622
 30
0.0
  0
VERTEX
  5
386
330
384
100
AcDbEntity
  8
GRAU_10_
 62
     7
100
AcDbVertex
100
AcDb2dVertex
 10
59.60356942954353
 20
230.5573874423606
 30
0.0
  0
VERTEX
  5
387
330
384
100
AcDbEntity
  8
GRAU_10_
 62
     7
100
AcDbVertex
100
AcDb2dVertex
 10
59.48433054068454
 20
230.3400763313038
 30
0.0
  0
SEQEND
  5
388
330
384
100
AcDbEntity
  8
GRAU_10_
 62
     7
  0
POLYLINE
  5
389
330
1F
100
AcDbEntity
  8
GRAU_10_
 62
     7
100
AcDb2dPolyline
 66
     1
 10
0.0
 20
0.0
 30
0.0
  0
VERTEX
  5
38A
330
389
100
AcDbEntity
  8
GRAU_10_
 62
     7
100
AcDbVertex
100
AcDb2dVertex
 10
45.14179721093686
 20
244.9990513276394
 30
0.0
  0
VERTEX
  5
38B
330
389
100
AcDbEntity
  8
GRAU_10_
 62
     7
100
AcDbVertex
100
AcDb2dVertex
 10
45.11745554427613
 20
244.8413596610121
 30
0.0
  0
SEQEND
  5
38C
330
389
100
AcDbEntity
  8
GRAU_10_
 62
     7
  0
SPLINE
  5
38D
330
1F
100
AcDbEntity
  8
GRAU_10_
 62
     7
100
AcDbSpline
210
0.0
220
0.0
230
1.0
 70
     8
 71
     3
 72
     8
 73
     4
 74
     0
 42
0.0000000001
 43
0.0000000001
 12
1.0
 22
0.0
 32
0.0
 13
1.0
 23
0.0
 33
0.0
 40
0.0
 40
0.0
 40
0.0
 40
0.0
 40
1.0
 40
1.0
 40
1.0
 40
1.0
 10
45.11745554427613
 20
244.8413596610121
 30
0.0
 10
39.85648054559153
 20
246.3180874384206
 30
0.0
 10
34.49778610248658
 20
245.5853679941592
 30
0.0
 10
30.03973332582342
 20
243.2034124391994
 30
0.0
  0
POLYLINE
  5
38E
330
1F
100
AcDbEntity
  8
GRAU_10_
 62
     7
100
AcDb2dPolyline
 66
     1
 10
0.0
 20
0.0
 30
0.0
  0
VERTEX
  5
38F
330
38E
100
AcDbEntity
  8
GRAU_10_
 62
     7
100
AcDbVertex
100
AcDb2dVertex
 10
29.98223054806017
 20
243.3522846613842
 30
0.0
  0
VERTEX
  5
390
330
38E
100
AcDbEntity
  8
GRAU_10_
 62
     7
100
AcDbVertex
100
AcDb2dVertex
 10
30.06231110359566
 20
243.58652910577
 30
0.0
  0
VERTEX
  5
391
330
38E
100
AcDbEntity
  8
GRAU_10_
 62
     7
100
AcDbVertex
100
AcDb2dVertex
 10
30.14168610357562
 20
243.8204207723784
 30
0.0
  0
SEQEND
  5
392
330
38E
100
AcDbEntity
  8
GRAU_10_
 62
     7
  0
SPLINE
  5
393
330
1F
100
AcDbEntity
  8
GRAU_10_
 62
     7
100
AcDbSpline
210
0.0
220
0.0
230
1.0
 70
     8
 71
     3
 72
     8
 73
     4
 74
     0
 42
0.0000000001
 43
0.0000000001
 12
1.0
 22
0.0
 32
0.0
 13
1.0
 23
0.0
 33
0.0
 40
0.0
 40
0.0
 40
0.0
 40
0.0
 40
1.0
 40
1.0
 40
1.0
 40
1.0
 10
44.88568054433402
 20
245.4220318830887
 30
0.0
 10
39.72771665673491
 20
246.7692902160857
 30
0.0
 10
34.51613054692665
 20
246.0619707718178
 30
0.0
 10
30.14168610357562
 20
243.8204207723784
 30
0.0
  0
POLYLINE
  5
394
330
1F
100
AcDbEntity
  8
GRAU_10_
 62
     7
100
AcDb2dPolyline
 66
     1
 10
0.0
 20
0.0
 30
0.0
  0
VERTEX
  5
395
330
394
100
AcDbEntity
  8
GRAU_10_
 62
     7
100
AcDbVertex
100
AcDb2dVertex
 10
44.88568054433402
 20
245.4220318830887
 30
0.0
  0
VERTEX
  5
396
330
394
100
AcDbEntity
  8
GRAU_10_
 62
     7
100
AcDbVertex
100
AcDb2dVertex
 10
45.01373887763544
 20
245.2110707720304
 30
0.0
  0
VERTEX
  5
397
330
394
100
AcDbEntity
  8
GRAU_10_
 62
     7
100
AcDbVertex
100
AcDb2dVertex
 10
45.14179721093686
 20
244.9990513276394
 30
0.0
  0
SEQEND
  5
398
330
394
100
AcDbEntity
  8
GRAU_10_
 62
     7
  0
POLYLINE
  5
399
330
1F
100
AcDbEntity
  8
GRAU_10_
 62
     7
100
AcDb2dPolyline
 66
     1
 10
0.0
 20
0.0
 30
0.0
  0
VERTEX
  5
39A
330
399
100
AcDbEntity
  8
GRAU_10_
 62
     7
100
AcDbVertex
100
AcDb2dVertex
 10
30.03973332582342
 20
243.2034124391994
 30
0.0
  0
VERTEX
  5
39B
330
399
100
AcDbEntity
  8
GRAU_10_
 62
     7
100
AcDbVertex
100
AcDb2dVertex
 10
29.98223054806017
 20
243.3522846613842
 30
0.0
  0
SEQEND
  5
39C
330
399
100
AcDbEntity
  8
GRAU_10_
 62
     7
  0
POLYLINE
  5
39D
330
1F
100
AcDbEntity
  8
GRAU_10_
 62
     7
100
AcDb2dPolyline
 66
     1
 10
0.0
 20
0.0
 30
0.0
  0
VERTEX
  5
39E
330
39D
100
AcDbEntity
  8
GRAU_10_
 62
     7
100
AcDbVertex
100
AcDb2dVertex
 10
53.96088887539868
 20
210.5898124473526
 30
0.0
  0
VERTEX
  5
39F
330
39D
100
AcDbEntity
  8
GRAU_10_
 62
     7
100
AcDbVertex
100
AcDb2dVertex
 10
53.836711097652
 20
210.6896485584386
 30
0.0
  0
SEQEND
  5
3A0
330
39D
100
AcDbEntity
  8
GRAU_10_
 62
     7
  0
SPLINE
  5
3A1
330
1F
100
AcDbEntity
  8
GRAU_10_
 62
     7
100
AcDbSpline
210
0.0
220
0.0
230
1.0
 70
     8
 71
     3
 72
     8
 73
     4
 74
     0
 42
0.0000000001
 43
0.0000000001
 12
1.0
 22
0.0
 32
0.0
 13
1.0
 23
0.0
 33
0.0
 40
0.0
 40
0.0
 40
0.0
 40
0.0
 40
1.0
 40
1.0
 40
1.0
 40
1.0
 10
53.836711097652
 20
210.6900013362163
 30
0.0
 10
57.74548887445255
 20
214.5074096685953
 30
0.0
 10
59.79054165171892
 20
219.5143846673436
 30
0.0
 10
59.95669998501087
 20
224.5658096660809
 30
0.0
  0
POLYLINE
  5
3A2
330
1F
100
AcDbEntity
  8
GRAU_10_
 62
     7
100
AcDb2dPolyline
 66
     1
 10
0.0
 20
0.0
 30
0.0
  0
VERTEX
  5
3A3
330
3A2
100
AcDbEntity
  8
GRAU_10_
 62
     7
100
AcDbVertex
100
AcDb2dVertex
 10
60.11439165163816
 20
224.5414679994202
 30
0.0
  0
VERTEX
  5
3A4
330
3A2
100
AcDbEntity
  8
GRAU_10_
 62
     7
100
AcDbVertex
100
AcDb2dVertex
 10
60.27772776270834
 20
224.3552013328003
 30
0.0
  0
VERTEX
  5
3A5
330
3A2
100
AcDbEntity
  8
GRAU_10_
 62
     7
100
AcDbVertex
100
AcDb2dVertex
 10
60.44000554044556
 20
224.1696402217353
 30
0.0
  0
SEQEND
  5
3A6
330
3A2
100
AcDbEntity
  8
GRAU_10_
 62
     7
  0
SPLINE
  5
3A7
330
1F
100
AcDbEntity
  8
GRAU_10_
 62
     7
100
AcDbSpline
210
0.0
220
0.0
230
1.0
 70
     8
 71
     3
 72
     8
 73
     4
 74
     0
 42
0.0000000001
 43
0.0000000001
 12
1.0
 22
0.0
 32
0.0
 13
1.0
 23
0.0
 33
0.0
 40
0.0
 40
0.0
 40
0.0
 40
0.0
 40
1.0
 40
1.0
 40
1.0
 40
1.0
 10
54.45513054194173
 20
210.6000430029058
 30
0.0
 10
58.20092498544987
 20
214.3938152241792
 30
0.0
 10
60.19376665161812
 20
219.260384667407
 30
0.0
 10
60.44000554044556
 20
224.1696402217353
 30
0.0
  0
POLYLINE
  5
3A8
330
1F
100
AcDbEntity
  8
GRAU_10_
 62
     7
100
AcDb2dPolyline
 66
     1
 10
0.0
 20
0.0
 30
0.0
  0
VERTEX
  5
3A9
330
3A8
100
AcDbEntity
  8
GRAU_10_
 62
     7
100
AcDbVertex
100
AcDb2dVertex
 10
54.45513054194173
 20
210.6000430029058
 30
0.0
  0
VERTEX
  5
3AA
330
3A8
100
AcDbEntity
  8
GRAU_10_
 62
     7
100
AcDbVertex
100
AcDb2dVertex
 10
54.20853887533685
 20
210.59475133624
 30
0.0
  0
VERTEX
  5
3AB
330
3A8
100
AcDbEntity
  8
GRAU_10_
 62
     7
100
AcDbVertex
100
AcDb2dVertex
 10
53.96088887539868
 20
210.5898124473526
 30
0.0
  0
SEQEND
  5
3AC
330
3A8
100
AcDbEntity
  8
GRAU_10_
 62
     7
  0
POLYLINE
  5
3AD
330
1F
100
AcDbEntity
  8
GRAU_10_
 62
     7
100
AcDb2dPolyline
 66
     1
 10
0.0
 20
0.0
 30
0.0
  0
VERTEX
  5
3AE
330
3AD
100
AcDbEntity
  8
GRAU_10_
 62
     7
100
AcDbVertex
100
AcDb2dVertex
 10
59.95669998501087
 20
224.5665152216361
 30
0.0
  0
VERTEX
  5
3AF
330
3AD
100
AcDbEntity
  8
GRAU_10_
 62
     7
100
AcDbVertex
100
AcDb2dVertex
 10
60.11439165163816
 20
224.5414679994202
 30
0.0
  0
SEQEND
  5
3B0
330
3AD
100
AcDbEntity
  8
GRAU_10_
 62
     7
  0
SPLINE
  5
3B1
330
1F
100
AcDbEntity
  8
GRAU_10_
 62
     7
100
AcDbSpline
210
0.0
220
0.0
230
1.0
 70
     8
 71
     3
 72
     8
 73
     4
 74
     0
 42
0.0000000001
 43
0.0000000001
 12
1.0
 22
0.0
 32
0.0
 13
1.0
 23
0.0
 33
0.0
 40
0.0
 40
0.0
 40
0.0
 40
0.0
 40
1.0
 40
1.0
 40
1.0
 40
1.0
 10
34.35067776919021
 20
205.0748374487314
 30
0.0
 10
39.50864165678965
 20
203.7279318935122
 30
0.0
 10
44.72022776659759
 20
204.4352513377802
 30
0.0
 10
49.09502498772638
 20
206.6768013372196
 30
0.0
  0
POLYLINE
  5
3B2
330
1F
100
AcDbEntity
  8
GRAU_10_
 62
     7
100
AcDb2dPolyline
 66
     1
 10
0.0
 20
0.0
 30
0.0
  0
VERTEX
  5
3B3
330
3B2
100
AcDbEntity
  8
GRAU_10_
 62
     7
100
AcDbVertex
100
AcDb2dVertex
 10
34.35067776919021
 20
205.0748374487314
 30
0.0
  0
VERTEX
  5
3B4
330
3B2
100
AcDbEntity
  8
GRAU_10_
 62
     7
100
AcDbVertex
100
AcDb2dVertex
 10
34.2226194358888
 20
205.2861513375676
 30
0.0
  0
VERTEX
  5
3B5
330
3B2
100
AcDbEntity
  8
GRAU_10_
 62
     7
100
AcDbVertex
100
AcDb2dVertex
 10
34.09456110258738
 20
205.4981707819585
 30
0.0
  0
SEQEND
  5
3B6
330
3B2
100
AcDbEntity
  8
GRAU_10_
 62
     7
  0
SPLINE
  5
3B7
330
1F
100
AcDbEntity
  8
GRAU_10_
 62
     7
100
AcDbSpline
210
0.0
220
0.0
230
1.0
 70
     8
 71
     3
 72
     8
 73
     4
 74
     0
 42
0.0000000001
 43
0.0000000001
 12
1.0
 22
0.0
 32
0.0
 13
1.0
 23
0.0
 33
0.0
 40
0.0
 40
0.0
 40
0.0
 40
0.0
 40
1.0
 40
1.0
 40
1.0
 40
1.0
 10
34.11925554702587
 20
205.6558624485859
 30
0.0
 10
39.3798777679327
 20
204.1787818933996
 30
0.0
 10
44.73857221103766
 20
204.911854115439
 30
0.0
 10
49.19662498770082
 20
207.2938096703986
 30
0.0
  0
POLYLINE
  5
3B8
330
1F
100
AcDbEntity
  8
GRAU_10_
 62
     7
100
AcDb2dPolyline
 66
     1
 10
0.0
 20
0.0
 30
0.0
  0
VERTEX
  5
3B9
330
3B8
100
AcDbEntity
  8
GRAU_10_
 62
     7
100
AcDbVertex
100
AcDb2dVertex
 10
49.19662498770082
 20
207.2938096703986
 30
0.0
  0
VERTEX
  5
3BA
330
3B8
100
AcDbEntity
  8
GRAU_10_
 62
     7
100
AcDbVertex
100
AcDb2dVertex
 10
49.25412776546439
 20
207.1449374482141
 30
0.0
  0
VERTEX
  5
3BB
330
3B8
100
AcDbEntity
  8
GRAU_10_
 62
     7
100
AcDbVertex
100
AcDb2dVertex
 10
49.17404720992858
 20
206.9106930038279
 30
0.0
  0
VERTEX
  5
3BC
330
3B8
100
AcDbEntity
  8
GRAU_10_
 62
     7
100
AcDbVertex
100
AcDb2dVertex
 10
49.09502498772638
 20
206.6768013372196
 30
0.0
  0
SEQEND
  5
3BD
330
3B8
100
AcDbEntity
  8
GRAU_10_
 62
     7
  0
POLYLINE
  5
3BE
330
1F
100
AcDbEntity
  8
GRAU_10_
 62
     7
100
AcDb2dPolyline
 66
     1
 10
0.0
 20
0.0
 30
0.0
  0
VERTEX
  5
3BF
330
3BE
100
AcDbEntity
  8
GRAU_10_
 62
     7
100
AcDbVertex
100
AcDb2dVertex
 10
34.09456110258738
 20
205.4981707819585
 30
0.0
  0
VERTEX
  5
3C0
330
3BE
100
AcDbEntity
  8
GRAU_10_
 62
     7
100
AcDbVertex
100
AcDb2dVertex
 10
34.11925554702587
 20
205.6558624485859
 30
0.0
  0
SEQEND
  5
3C1
330
3BE
100
AcDbEntity
  8
GRAU_10_
 62
     7
  0
POLYLINE
  5
3C2
330
1F
100
AcDbEntity
  8
GRAU_10_
 62
     7
100
AcDb2dPolyline
 66
     1
 10
0.0
 20
0.0
 30
0.0
  0
VERTEX
  5
3C3
330
3C2
100
AcDbEntity
  8
GRAU_10_
 62
     7
100
AcDbVertex
100
AcDb2dVertex
 10
48.53763609897686
 20
208.9920818921964
 30
0.0
  0
VERTEX
  5
3C4
330
3C2
100
AcDbEntity
  8
GRAU_10_
 62
     7
100
AcDbVertex
100
AcDb2dVertex
 10
48.71578887670982
 20
209.6009763364888
 30
0.0
  0
SEQEND
  5
3C5
330
3C2
100
AcDbEntity
  8
GRAU_10_
 62
     7
  0
POLYLINE
  5
3C6
330
1F
100
AcDbEntity
  8
GRAU_10_
 62
     7
100
AcDb2dPolyline
 66
     1
 10
0.0
 20
0.0
 30
0.0
  0
VERTEX
  5
3C7
330
3C6
100
AcDbEntity
  8
GRAU_10_
 62
     7
100
AcDbVertex
100
AcDb2dVertex
 10
48.53763609897686
 20
208.9920818921964
 30
0.0
  0
VERTEX
  5
3C8
330
3C6
100
AcDbEntity
  8
GRAU_10_
 62
     7
100
AcDbVertex
100
AcDb2dVertex
 10
49.19662498770082
 20
207.2938096703986
 30
0.0
  0
SEQEND
  5
3C9
330
3C6
100
AcDbEntity
  8
GRAU_10_
 62
     7
  0
POLYLINE
  5
3CA
330
1F
100
AcDbEntity
  8
GRAU_10_
 62
     7
100
AcDb2dPolyline
 66
     1
 10
0.0
 20
0.0
 30
0.0
  0
VERTEX
  5
3CB
330
3CA
100
AcDbEntity
  8
GRAU_10_
 62
     7
100
AcDbVertex
100
AcDb2dVertex
 10
29.99951665916695
 20
209.3956596698733
 30
0.0
  0
VERTEX
  5
3CC
330
3CA
100
AcDbEntity
  8
GRAU_10_
 62
     7
100
AcDbVertex
100
AcDb2dVertex
 10
30.6161722145682
 20
209.5462957809467
 30
0.0
  0
SEQEND
  5
3CD
330
3CA
100
AcDbEntity
  8
GRAU_10_
 62
     7
  0
SPLINE
  5
3CE
330
1F
100
AcDbEntity
  8
GRAU_10_
 62
     7
100
AcDbSpline
210
0.0
220
0.0
230
1.0
 70
     8
 71
     3
 72
     8
 73
     4
 74
     0
 42
0.0000000001
 43
0.0000000001
 12
1.0
 22
0.0
 32
0.0
 13
1.0
 23
0.0
 33
0.0
 40
0.0
 40
0.0
 40
0.0
 40
0.0
 40
1.0
 40
1.0
 40
1.0
 40
1.0
 10
19.90089999502487
 20
220.2146485560573
 30
0.0
 10
21.25203888357595
 20
214.9201596684921
 30
0.0
 10
24.56603332719197
 20
210.6459041140052
 30
0.0
 10
28.85757499278574
 20
207.9760818924506
 30
0.0
  0
POLYLINE
  5
3CF
330
1F
100
AcDbEntity
  8
GRAU_10_
 62
     7
100
AcDb2dPolyline
 66
     1
 10
0.0
 20
0.0
 30
0.0
  0
VERTEX
  5
3D0
330
3CF
100
AcDbEntity
  8
GRAU_10_
 62
     7
100
AcDbVertex
100
AcDb2dVertex
 10
19.90089999502487
 20
220.2150013338351
 30
0.0
  0
VERTEX
  5
3D1
330
3CF
100
AcDbEntity
  8
GRAU_10_
 62
     7
100
AcDbVertex
100
AcDb2dVertex
 10
21.59881943904487
 20
220.8732846670039
 30
0.0
  0
SEQEND
  5
3D2
330
3CF
100
AcDbEntity
  8
GRAU_10_
 62
     7
  0
POLYLINE
  5
3D3
330
1F
100
AcDbEntity
  8
GRAU_10_
 62
     7
100
AcDb2dPolyline
 66
     1
 10
0.0
 20
0.0
 30
0.0
  0
VERTEX
  5
3D4
330
3D3
100
AcDbEntity
  8
GRAU_10_
 62
     7
100
AcDbVertex
100
AcDb2dVertex
 10
21.92831388340669
 20
221.4155041113128
 30
0.0
  0
VERTEX
  5
3D5
330
3D3
100
AcDbEntity
  8
GRAU_10_
 62
     7
100
AcDbVertex
100
AcDb2dVertex
 10
21.59881943904487
 20
220.8732846670039
 30
0.0
  0
SEQEND
  5
3D6
330
3D3
100
AcDbEntity
  8
GRAU_10_
 62
     7
  0
POLYLINE
  5
3D7
330
1F
100
AcDbEntity
  8
GRAU_10_
 62
     7
100
AcDb2dPolyline
 66
     1
 10
0.0
 20
0.0
 30
0.0
  0
VERTEX
  5
3D8
330
3D7
100
AcDbEntity
  8
GRAU_10_
 62
     7
100
AcDbVertex
100
AcDb2dVertex
 10
21.92831388340669
 20
221.4155041113128
 30
0.0
  0
VERTEX
  5
3D9
330
3D7
100
AcDbEntity
  8
GRAU_10_
 62
     7
100
AcDbVertex
100
AcDb2dVertex
 10
21.51838610573162
 20
225.1934013325905
 30
0.0
  0
SEQEND
  5
3DA
330
3D7
100
AcDbEntity
  8
GRAU_10_
 62
     7
  0
SPLINE
  5
3DB
330
1F
100
AcDbEntity
  8
GRAU_10_
 62
     7
100
AcDbSpline
210
0.0
220
0.0
230
1.0
 70
     8
 71
     3
 72
     8
 73
     4
 74
     0
 42
0.0000000001
 43
0.0000000001
 12
1.0
 22
0.0
 32
0.0
 13
1.0
 23
0.0
 33
0.0
 40
0.0
 40
0.0
 40
0.0
 40
0.0
 40
1.0
 40
1.0
 40
1.0
 40
1.0
 10
25.39964721587224
 20
239.8075735511594
 30
0.0
 10
21.49086943907168
 20
235.9898124410026
 30
0.0
 10
19.44581666180532
 20
230.9828374422543
 30
0.0
 10
19.27965832851336
 20
225.9307068879618
 30
0.0
  0
POLYLINE
  5
3DC
330
1F
100
AcDbEntity
  8
GRAU_10_
 62
     7
100
AcDb2dPolyline
 66
     1
 10
0.0
 20
0.0
 30
0.0
  0
VERTEX
  5
3DD
330
3DC
100
AcDbEntity
  8
GRAU_10_
 62
     7
100
AcDbVertex
100
AcDb2dVertex
 10
45.14391387760278
 20
242.4844513282678
 30
0.0
  0
VERTEX
  5
3DE
330
3DC
100
AcDbEntity
  8
GRAU_10_
 62
     7
100
AcDbVertex
100
AcDb2dVertex
 10
44.83911387767913
 20
243.0414874392396
 30
0.0
  0
SEQEND
  5
3DF
330
3DC
100
AcDbEntity
  8
GRAU_10_
 62
     7
  0
POLYLINE
  5
3E0
330
1F
100
AcDbEntity
  8
GRAU_10_
 62
     7
100
AcDb2dPolyline
 66
     1
 10
0.0
 20
0.0
 30
0.0
  0
VERTEX
  5
3E1
330
3E0
100
AcDbEntity
  8
GRAU_10_
 62
     7
100
AcDbVertex
100
AcDb2dVertex
 10
49.2368416543576
 20
241.1015624397246
 30
0.0
  0
VERTEX
  5
3E2
330
3E0
100
AcDbEntity
  8
GRAU_10_
 62
     7
100
AcDbVertex
100
AcDb2dVertex
 10
48.6205388767338
 20
240.9509263286513
 30
0.0
  0
SEQEND
  5
3E3
330
3E0
100
AcDbEntity
  8
GRAU_10_
 62
     7
  0
POLYLINE
  5
3E4
330
1F
100
AcDbEntity
  8
GRAU_10_
 62
     7
100
AcDb2dPolyline
 66
     1
 10
0.0
 20
0.0
 30
0.0
  0
VERTEX
  5
3E5
330
3E4
100
AcDbEntity
  8
GRAU_10_
 62
     7
100
AcDbVertex
100
AcDb2dVertex
 10
49.2368416543576
 20
241.1015624397246
 30
0.0
  0
VERTEX
  5
3E6
330
3E4
100
AcDbEntity
  8
GRAU_10_
 62
     7
100
AcDbVertex
100
AcDb2dVertex
 10
50.37878332073881
 20
242.5211402171473
 30
0.0
  0
SEQEND
  5
3E7
330
3E4
100
AcDbEntity
  8
GRAU_10_
 62
     7
  0
POLYLINE
  5
3E8
330
1F
100
AcDbEntity
  8
GRAU_10_
 62
     7
100
AcDb2dPolyline
 66
     1
 10
0.0
 20
0.0
 30
0.0
  0
VERTEX
  5
3E9
330
3E8
100
AcDbEntity
  8
GRAU_10_
 62
     7
100
AcDbVertex
100
AcDb2dVertex
 10
59.33545831849937
 20
230.2825735535406
 30
0.0
  0
VERTEX
  5
3EA
330
3E8
100
AcDbEntity
  8
GRAU_10_
 62
     7
100
AcDbVertex
100
AcDb2dVertex
 10
57.63753887447937
 20
229.6239374425941
 30
0.0
  0
SEQEND
  5
3EB
330
3E8
100
AcDbEntity
  8
GRAU_10_
 62
     7
  0
POLYLINE
  5
3EC
330
1F
100
AcDbEntity
  8
GRAU_10_
 62
     7
100
AcDb2dPolyline
 66
     1
 10
0.0
 20
0.0
 30
0.0
  0
VERTEX
  5
3ED
330
3EC
100
AcDbEntity
  8
GRAU_10_
 62
     7
100
AcDbVertex
100
AcDb2dVertex
 10
57.30804443011755
 20
229.0817179982851
 30
0.0
  0
VERTEX
  5
3EE
330
3EC
100
AcDbEntity
  8
GRAU_10_
 62
     7
100
AcDbVertex
100
AcDb2dVertex
 10
57.63753887447937
 20
229.6239374425941
 30
0.0
  0
SEQEND
  5
3EF
330
3EC
100
AcDbEntity
  8
GRAU_10_
 62
     7
  0
POLYLINE
  5
3F0
330
1F
100
AcDbEntity
  8
GRAU_10_
 62
     7
100
AcDb2dPolyline
 66
     1
 10
0.0
 20
0.0
 30
0.0
  0
VERTEX
  5
3F1
330
3F0
100
AcDbEntity
  8
GRAU_10_
 62
     7
100
AcDbVertex
100
AcDb2dVertex
 10
53.836711097652
 20
210.6896485584386
 30
0.0
  0
VERTEX
  5
3F2
330
3F0
100
AcDbEntity
  8
GRAU_10_
 62
     7
100
AcDbVertex
100
AcDb2dVertex
 10
52.41713332022899
 20
211.8312374470424
 30
0.0
  0
SEQEND
  5
3F3
330
3F0
100
AcDbEntity
  8
GRAU_10_
 62
     7
  0
POLYLINE
  5
3F4
330
1F
100
AcDbEntity
  8
GRAU_10_
 62
     7
100
AcDb2dPolyline
 66
     1
 10
0.0
 20
0.0
 30
0.0
  0
VERTEX
  5
3F5
330
3F4
100
AcDbEntity
  8
GRAU_10_
 62
     7
100
AcDbVertex
100
AcDb2dVertex
 10
51.78213332038768
 20
211.8453485581496
 30
0.0
  0
VERTEX
  5
3F6
330
3F4
100
AcDbEntity
  8
GRAU_10_
 62
     7
100
AcDbVertex
100
AcDb2dVertex
 10
48.71578887670982
 20
209.6009763364888
 30
0.0
  0
SEQEND
  5
3F7
330
3F4
100
AcDbEntity
  8
GRAU_10_
 62
     7
  0
POLYLINE
  5
3F8
330
1F
100
AcDbEntity
  8
GRAU_10_
 62
     7
100
AcDb2dPolyline
 66
     1
 10
0.0
 20
0.0
 30
0.0
  0
VERTEX
  5
3F9
330
3F8
100
AcDbEntity
  8
GRAU_10_
 62
     7
100
AcDbVertex
100
AcDb2dVertex
 10
27.45422499313656
 20
238.6515207736706
 30
0.0
  0
VERTEX
  5
3FA
330
3F8
100
AcDbEntity
  8
GRAU_10_
 62
     7
100
AcDbVertex
100
AcDb2dVertex
 10
26.81922499329524
 20
238.6659846625556
 30
0.0
  0
SEQEND
  5
3FB
330
3F8
100
AcDbEntity
  8
GRAU_10_
 62
     7
  0
POLYLINE
  5
3FC
330
1F
100
AcDbEntity
  8
GRAU_10_
 62
     7
100
AcDb2dPolyline
 66
     1
 10
0.0
 20
0.0
 30
0.0
  0
VERTEX
  5
3FD
330
3FC
100
AcDbEntity
  8
GRAU_10_
 62
     7
100
AcDbVertex
100
AcDb2dVertex
 10
30.6987222145477
 20
241.5054929951793
 30
0.0
  0
VERTEX
  5
3FE
330
3FC
100
AcDbEntity
  8
GRAU_10_
 62
     7
100
AcDbVertex
100
AcDb2dVertex
 10
30.52056943681442
 20
240.8962457731092
 30
0.0
  0
SEQEND
  5
3FF
330
3FC
100
AcDbEntity
  8
GRAU_10_
 62
     7
  0
POLYLINE
  5
400
330
1F
100
AcDbEntity
  8
GRAU_10_
 62
     7
100
AcDb2dPolyline
 66
     1
 10
0.0
 20
0.0
 30
0.0
  0
VERTEX
  5
401
330
400
100
AcDbEntity
  8
GRAU_10_
 62
     7
100
AcDbVertex
100
AcDb2dVertex
 10
21.07953055028557
 20
225.6523652213648
 30
0.0
  0
VERTEX
  5
402
330
400
100
AcDbEntity
  8
GRAU_10_
 62
     7
100
AcDbVertex
100
AcDb2dVertex
 10
19.27965832851336
 20
225.9307068879618
 30
0.0
  0
SEQEND
  5
403
330
400
100
AcDbEntity
  8
GRAU_10_
 62
     7
  0
POLYLINE
  5
404
330
1F
100
AcDbEntity
  8
GRAU_10_
 62
     7
100
AcDb2dPolyline
 66
     1
 10
0.0
 20
0.0
 30
0.0
  0
VERTEX
  5
405
330
404
100
AcDbEntity
  8
GRAU_10_
 62
     7
100
AcDbVertex
100
AcDb2dVertex
 10
45.11745554427613
 20
244.8413596610121
 30
0.0
  0
VERTEX
  5
406
330
404
100
AcDbEntity
  8
GRAU_10_
 62
     7
100
AcDbVertex
100
AcDb2dVertex
 10
44.83911387767913
 20
243.0414874392396
 30
0.0
  0
SEQEND
  5
407
330
404
100
AcDbEntity
  8
GRAU_10_
 62
     7
  0
POLYLINE
  5
408
330
1F
100
AcDbEntity
  8
GRAU_10_
 62
     7
100
AcDb2dPolyline
 66
     1
 10
0.0
 20
0.0
 30
0.0
  0
VERTEX
  5
409
330
408
100
AcDbEntity
  8
GRAU_10_
 62
     7
100
AcDbVertex
100
AcDb2dVertex
 10
45.14391387760278
 20
242.4844513282678
 30
0.0
  0
VERTEX
  5
40A
330
408
100
AcDbEntity
  8
GRAU_10_
 62
     7
100
AcDbVertex
100
AcDb2dVertex
 10
48.6205388767338
 20
240.9509263286513
 30
0.0
  0
SEQEND
  5
40B
330
408
100
AcDbEntity
  8
GRAU_10_
 62
     7
  0
POLYLINE
  5
40C
330
1F
100
AcDbEntity
  8
GRAU_10_
 62
     7
100
AcDb2dPolyline
 66
     1
 10
0.0
 20
0.0
 30
0.0
  0
VERTEX
  5
40D
330
40C
100
AcDbEntity
  8
GRAU_10_
 62
     7
100
AcDbVertex
100
AcDb2dVertex
 10
21.07953055028557
 20
225.6523652213648
 30
0.0
  0
VERTEX
  5
40E
330
40C
100
AcDbEntity
  8
GRAU_10_
 62
     7
100
AcDbVertex
100
AcDb2dVertex
 10
21.51838610573162
 20
225.1934013325905
 30
0.0
  0
SEQEND
  5
40F
330
40C
100
AcDbEntity
  8
GRAU_10_
 62
     7
  0
POLYLINE
  5
410
330
1F
100
AcDbEntity
  8
GRAU_10_
 62
     7
100
AcDb2dPolyline
 66
     1
 10
0.0
 20
0.0
 30
0.0
  0
VERTEX
  5
411
330
410
100
AcDbEntity
  8
GRAU_10_
 62
     7
100
AcDbVertex
100
AcDb2dVertex
 10
25.39964721587224
 20
239.8075735511594
 30
0.0
  0
VERTEX
  5
412
330
410
100
AcDbEntity
  8
GRAU_10_
 62
     7
100
AcDbVertex
100
AcDb2dVertex
 10
26.81922499329524
 20
238.6659846625556
 30
0.0
  0
SEQEND
  5
413
330
410
100
AcDbEntity
  8
GRAU_10_
 62
     7
  0
POLYLINE
  5
414
330
1F
100
AcDbEntity
  8
GRAU_10_
 62
     7
100
AcDb2dPolyline
 66
     1
 10
0.0
 20
0.0
 30
0.0
  0
VERTEX
  5
415
330
414
100
AcDbEntity
  8
GRAU_10_
 62
     7
100
AcDbVertex
100
AcDb2dVertex
 10
27.45422499313656
 20
238.6515207736706
 30
0.0
  0
VERTEX
  5
416
330
414
100
AcDbEntity
  8
GRAU_10_
 62
     7
100
AcDbVertex
100
AcDb2dVertex
 10
30.52056943681442
 20
240.8962457731092
 30
0.0
  0
SEQEND
  5
417
330
414
100
AcDbEntity
  8
GRAU_10_
 62
     7
  0
POLYLINE
  5
418
330
1F
100
AcDbEntity
  8
GRAU_10_
 62
     7
100
AcDb2dPolyline
 66
     1
 10
0.0
 20
0.0
 30
0.0
  0
VERTEX
  5
419
330
418
100
AcDbEntity
  8
GRAU_10_
 62
     7
100
AcDbVertex
100
AcDb2dVertex
 10
34.09244443592145
 20
208.0124180035524
 30
0.0
  0
VERTEX
  5
41A
330
418
100
AcDbEntity
  8
GRAU_10_
 62
     7
100
AcDbVertex
100
AcDb2dVertex
 10
34.3972444358451
 20
207.4557346703584
 30
0.0
  0
SEQEND
  5
41B
330
418
100
AcDbEntity
  8
GRAU_10_
 62
     7
  0
POLYLINE
  5
41C
330
1F
100
AcDbEntity
  8
GRAU_10_
 62
     7
100
AcDb2dPolyline
 66
     1
 10
0.0
 20
0.0
 30
0.0
  0
VERTEX
  5
41D
330
41C
100
AcDbEntity
  8
GRAU_10_
 62
     7
100
AcDbVertex
100
AcDb2dVertex
 10
29.99951665916695
 20
209.3956596698733
 30
0.0
  0
VERTEX
  5
41E
330
41C
100
AcDbEntity
  8
GRAU_10_
 62
     7
100
AcDbVertex
100
AcDb2dVertex
 10
28.85757499278574
 20
207.9760818924506
 30
0.0
  0
SEQEND
  5
41F
330
41C
100
AcDbEntity
  8
GRAU_10_
 62
     7
  0
POLYLINE
  5
420
330
1F
100
AcDbEntity
  8
GRAU_10_
 62
     7
100
AcDb2dPolyline
 66
     1
 10
0.0
 20
0.0
 30
0.0
  0
VERTEX
  5
421
330
420
100
AcDbEntity
  8
GRAU_10_
 62
     7
100
AcDbVertex
100
AcDb2dVertex
 10
34.09244443592145
 20
208.0124180035524
 30
0.0
  0
VERTEX
  5
422
330
420
100
AcDbEntity
  8
GRAU_10_
 62
     7
100
AcDbVertex
100
AcDb2dVertex
 10
30.6161722145682
 20
209.5462957809467
 30
0.0
  0
SEQEND
  5
423
330
420
100
AcDbEntity
  8
GRAU_10_
 62
     7
  0
POLYLINE
  5
424
330
1F
100
AcDbEntity
  8
GRAU_10_
 62
     7
100
AcDb2dPolyline
 66
     1
 10
0.0
 20
0.0
 30
0.0
  0
VERTEX
  5
425
330
424
100
AcDbEntity
  8
GRAU_10_
 62
     7
100
AcDbVertex
100
AcDb2dVertex
 10
57.30804443011755
 20
229.0817179982851
 30
0.0
  0
VERTEX
  5
426
330
424
100
AcDbEntity
  8
GRAU_10_
 62
     7
100
AcDbVertex
100
AcDb2dVertex
 10
57.71797220779261
 20
225.3034679992296
 30
0.0
  0
SEQEND
  5
427
330
424
100
AcDbEntity
  8
GRAU_10_
 62
     7
  0
POLYLINE
  5
428
330
1F
100
AcDbEntity
  8
GRAU_10_
 62
     7
100
AcDb2dPolyline
 66
     1
 10
0.0
 20
0.0
 30
0.0
  0
VERTEX
  5
429
330
428
100
AcDbEntity
  8
GRAU_10_
 62
     7
100
AcDbVertex
100
AcDb2dVertex
 10
51.78213332038768
 20
211.8453485581496
 30
0.0
  0
VERTEX
  5
42A
330
428
100
AcDbEntity
  8
GRAU_10_
 62
     7
100
AcDbVertex
100
AcDb2dVertex
 10
52.41713332022899
 20
211.8312374470424
 30
0.0
  0
SEQEND
  5
42B
330
428
100
AcDbEntity
  8
GRAU_10_
 62
     7
  0
POLYLINE
  5
42C
330
1F
100
AcDbEntity
  8
GRAU_10_
 62
     7
100
AcDb2dPolyline
 66
     1
 10
0.0
 20
0.0
 30
0.0
  0
VERTEX
  5
42D
330
42C
100
AcDbEntity
  8
GRAU_10_
 62
     7
100
AcDbVertex
100
AcDb2dVertex
 10
58.15682776323867
 20
224.8448568882331
 30
0.0
  0
VERTEX
  5
42E
330
42C
100
AcDbEntity
  8
GRAU_10_
 62
     7
100
AcDbVertex
100
AcDb2dVertex
 10
59.95669998501087
 20
224.5665152216361
 30
0.0
  0
SEQEND
  5
42F
330
42C
100
AcDbEntity
  8
GRAU_10_
 62
     7
  0
POLYLINE
  5
430
330
1F
100
AcDbEntity
  8
GRAU_10_
 62
     7
100
AcDb2dPolyline
 66
     1
 10
0.0
 20
0.0
 30
0.0
  0
VERTEX
  5
431
330
430
100
AcDbEntity
  8
GRAU_10_
 62
     7
100
AcDbVertex
100
AcDb2dVertex
 10
30.6987222145477
 20
241.5054929951793
 30
0.0
  0
VERTEX
  5
432
330
430
100
AcDbEntity
  8
GRAU_10_
 62
     7
100
AcDbVertex
100
AcDb2dVertex
 10
30.03973332582342
 20
243.2034124391994
 30
0.0
  0
SEQEND
  5
433
330
430
100
AcDbEntity
  8
GRAU_10_
 62
     7
  0
POLYLINE
  5
434
330
1F
100
AcDbEntity
  8
GRAU_10_
 62
     7
100
AcDb2dPolyline
 66
     1
 10
0.0
 20
0.0
 30
0.0
  0
VERTEX
  5
435
330
434
100
AcDbEntity
  8
GRAU_10_
 62
     7
100
AcDbVertex
100
AcDb2dVertex
 10
58.15682776323867
 20
224.8448568882331
 30
0.0
  0
VERTEX
  5
436
330
434
100
AcDbEntity
  8
GRAU_10_
 62
     7
100
AcDbVertex
100
AcDb2dVertex
 10
57.71797220779261
 20
225.3034679992296
 30
0.0
  0
SEQEND
  5
437
330
434
100
AcDbEntity
  8
GRAU_10_
 62
     7
  0
POLYLINE
  5
438
330
1F
100
AcDbEntity
  8
GRAU_10_
 62
     7
100
AcDb2dPolyline
 66
     1
 10
0.0
 20
0.0
 30
0.0
  0
VERTEX
  5
439
330
438
100
AcDbEntity
  8
GRAU_10_
 62
     7
100
AcDbVertex
100
AcDb2dVertex
 10
34.11925554702587
 20
205.6558624485859
 30
0.0
  0
VERTEX
  5
43A
330
438
100
AcDbEntity
  8
GRAU_10_
 62
     7
100
AcDbVertex
100
AcDb2dVertex
 10
34.3972444358451
 20
207.4557346703584
 30
0.0
  0
SEQEND
  5
43B
330
438
100
AcDbEntity
  8
GRAU_10_
 62
     7
  0
POLYLINE
  5
43C
330
1F
100
AcDbEntity
  8
GRAU_10_
 62
     7
100
AcDb2dPolyline
 66
     1
 10
0.0
 20
0.0
 30
0.0
  0
VERTEX
  5
43D
330
43C
100
AcDbEntity
  8
GRAU_10_
 62
     7
100
AcDbVertex
100
AcDb2dVertex
 10
19.12196666188608
 20
225.9557541101777
 30
0.0
  0
VERTEX
  5
43E
330
43C
100
AcDbEntity
  8
GRAU_10_
 62
     7
100
AcDbVertex
100
AcDb2dVertex
 10
18.95863055081589
 20
226.1420207767976
 30
0.0
  0
VERTEX
  5
43F
330
43C
100
AcDbEntity
  8
GRAU_10_
 62
     7
100
AcDbVertex
100
AcDb2dVertex
 10
18.79635277307867
 20
226.3275818878626
 30
0.0
  0
SEQEND
  5
440
330
43C
100
AcDbEntity
  8
GRAU_10_
 62
     7
  0
SPLINE
  5
441
330
1F
100
AcDbEntity
  8
GRAU_10_
 62
     7
100
AcDbSpline
210
0.0
220
0.0
230
1.0
 70
     8
 71
     3
 72
     8
 73
     4
 74
     0
 42
0.0000000001
 43
0.0000000001
 12
1.0
 22
0.0
 32
0.0
 13
1.0
 23
0.0
 33
0.0
 40
0.0
 40
0.0
 40
0.0
 40
0.0
 40
1.0
 40
1.0
 40
1.0
 40
1.0
 10
24.7812277715825
 20
239.8971791066921
 30
0.0
 10
21.03543332807437
 20
236.1034068854187
 30
0.0
 10
19.04259166190612
 20
231.2368374421909
 30
0.0
 10
18.79635277307867
 20
226.3275818878626
 30
0.0
  0
POLYLINE
  5
442
330
1F
100
AcDbEntity
  8
GRAU_10_
 62
     7
100
AcDb2dPolyline
 66
     1
 10
0.0
 20
0.0
 30
0.0
  0
VERTEX
  5
443
330
442
100
AcDbEntity
  8
GRAU_10_
 62
     7
100
AcDbVertex
100
AcDb2dVertex
 10
24.7812277715825
 20
239.8971791066921
 30
0.0
  0
VERTEX
  5
444
330
442
100
AcDbEntity
  8
GRAU_10_
 62
     7
100
AcDbVertex
100
AcDb2dVertex
 10
25.02781943818739
 20
239.9024707733579
 30
0.0
  0
VERTEX
  5
445
330
442
100
AcDbEntity
  8
GRAU_10_
 62
     7
100
AcDbVertex
100
AcDb2dVertex
 10
25.27546943812555
 20
239.9077624400231
 30
0.0
  0
SEQEND
  5
446
330
442
100
AcDbEntity
  8
GRAU_10_
 62
     7
  0
POLYLINE
  5
447
330
1F
100
AcDbEntity
  8
GRAU_10_
 62
     7
100
AcDb2dPolyline
 66
     1
 10
0.0
 20
0.0
 30
0.0
  0
VERTEX
  5
448
330
447
100
AcDbEntity
  8
GRAU_10_
 62
     7
100
AcDbVertex
100
AcDb2dVertex
 10
19.27965832851336
 20
225.9307068879618
 30
0.0
  0
VERTEX
  5
449
330
447
100
AcDbEntity
  8
GRAU_10_
 62
     7
100
AcDbVertex
100
AcDb2dVertex
 10
19.12196666188608
 20
225.9557541101777
 30
0.0
  0
SEQEND
  5
44A
330
447
100
AcDbEntity
  8
GRAU_10_
 62
     7
  0
POLYLINE
  5
44B
330
1F
100
AcDbEntity
  8
GRAU_10_
 62
     7
100
AcDb2dPolyline
 66
     1
 10
0.0
 20
0.0
 30
0.0
  0
VERTEX
  5
44C
330
44B
100
AcDbEntity
  8
GRAU_10_
 62
     7
100
AcDbVertex
100
AcDb2dVertex
 10
25.27546943812555
 20
239.9077624400231
 30
0.0
  0
VERTEX
  5
44D
330
44B
100
AcDbEntity
  8
GRAU_10_
 62
     7
100
AcDbVertex
100
AcDb2dVertex
 10
25.39964721587224
 20
239.8075735511594
 30
0.0
  0
SEQEND
  5
44E
330
44B
100
AcDbEntity
  8
GRAU_10_
 62
     7
  0
POLYLINE
  5
44F
330
1F
100
AcDbEntity
  8
GRAU_10_
 62
     7
100
AcDb2dPolyline
 66
     1
 10
0.0
 20
0.0
 30
0.0
  0
VERTEX
  5
450
330
44F
100
AcDbEntity
  8
GRAU_10_
 62
     7
100
AcDbVertex
100
AcDb2dVertex
 10
28.75809165947723
 20
207.8519041147036
 30
0.0
  0
VERTEX
  5
451
330
44F
100
AcDbEntity
  8
GRAU_10_
 62
     7
100
AcDbVertex
100
AcDb2dVertex
 10
28.515027770649
 20
207.8035735591599
 30
0.0
  0
VERTEX
  5
452
330
44F
100
AcDbEntity
  8
GRAU_10_
 62
     7
100
AcDbVertex
100
AcDb2dVertex
 10
28.27302221515405
 20
207.7555957813946
 30
0.0
  0
SEQEND
  5
453
330
44F
100
AcDbEntity
  8
GRAU_10_
 62
     7
  0
SPLINE
  5
454
330
1F
100
AcDbEntity
  8
GRAU_10_
 62
     7
100
AcDbSpline
210
0.0
220
0.0
230
1.0
 70
     8
 71
     3
 72
     8
 73
     4
 74
     0
 42
0.0000000001
 43
0.0000000001
 12
1.0
 22
0.0
 32
0.0
 13
1.0
 23
0.0
 33
0.0
 40
0.0
 40
0.0
 40
0.0
 40
0.0
 40
1.0
 40
1.0
 40
1.0
 40
1.0
 10
19.51354999512172
 20
219.7232291117357
 30
0.0
 10
20.92607221699078
 20
214.5829041130208
 30
0.0
 10
24.1444638828527
 20
210.423654114061
 30
0.0
 10
28.27302221515405
 20
207.7555957813946
 30
0.0
  0
POLYLINE
  5
455
330
1F
100
AcDbEntity
  8
GRAU_10_
 62
     7
100
AcDb2dPolyline
 66
     1
 10
0.0
 20
0.0
 30
0.0
  0
VERTEX
  5
456
330
455
100
AcDbEntity
  8
GRAU_10_
 62
     7
100
AcDbVertex
100
AcDb2dVertex
 10
19.51354999512172
 20
219.7232291117357
 30
0.0
  0
VERTEX
  5
457
330
455
100
AcDbEntity
  8
GRAU_10_
 62
     7
100
AcDbVertex
100
AcDb2dVertex
 10
19.63278888398071
 20
219.9401874450148
 30
0.0
  0
VERTEX
  5
458
330
455
100
AcDbEntity
  8
GRAU_10_
 62
     7
100
AcDbVertex
100
AcDb2dVertex
 10
19.7520277728397
 20
220.1571457782941
 30
0.0
  0
VERTEX
  5
459
330
455
100
AcDbEntity
  8
GRAU_10_
 62
     7
100
AcDbVertex
100
AcDb2dVertex
 10
19.90089999502487
 20
220.2150013338351
 30
0.0
  0
SEQEND
  5
45A
330
455
100
AcDbEntity
  8
GRAU_10_
 62
     7
  0
POLYLINE
  5
45B
330
1F
100
AcDbEntity
  8
GRAU_10_
 62
     7
100
AcDb2dPolyline
 66
     1
 10
0.0
 20
0.0
 30
0.0
  0
VERTEX
  5
45C
330
45B
100
AcDbEntity
  8
GRAU_10_
 62
     7
100
AcDbVertex
100
AcDb2dVertex
 10
28.85757499278574
 20
207.9760818924506
 30
0.0
  0
VERTEX
  5
45D
330
45B
100
AcDbEntity
  8
GRAU_10_
 62
     7
100
AcDbVertex
100
AcDb2dVertex
 10
28.75809165947723
 20
207.8519041147036
 30
0.0
  0
SEQEND
  5
45E
330
45B
100
AcDbEntity
  8
GRAU_10_
 62
     7
  0
SPLINE
  5
45F
330
1F
100
AcDbEntity
  8
GRAU_10_
 62
     7
100
AcDbSpline
210
0.0
220
0.0
230
1.0
 70
    11
 71
     3
 72
    17
 73
    13
 74
     0
 42
0.0000000001
 43
0.0000000001
 12
1.0
 22
0.0
 32
0.0
 13
1.0
 23
0.0
 33
0.0
 40
0.0
 40
0.0
 40
0.0
 40
0.0
 40
1.0
 40
1.0
 40
1.0
 40
2.0
 40
2.0
 40
2.0
 40
3.0
 40
3.0
 40
3.0
 40
4.0
 40
4.0
 40
4.0
 40
4.0
 10
45.61839998859536
 20
225.2487874436879
 30
0.0
 10
45.61839998859536
 20
228.5624291095261
 30
0.0
 10
42.93199721148927
 20
231.2488318866322
 30
0.0
 10
39.618355545651
 20
231.2488318866322
 30
0.0
 10
36.30471387981273
 20
231.2488318866322
 30
0.0
 10
33.61795832492887
 20
228.5624291095261
 30
0.0
 10
33.61795832492887
 20
225.2487874436879
 30
0.0
 10
33.61795832492887
 20
221.9347930000718
 30
0.0
 10
36.30471387981273
 20
219.2483902229657
 30
0.0
 10
39.618355545651
 20
219.2483902229657
 30
0.0
 10
42.93199721148927
 20
219.2483902229657
 30
0.0
 10
45.61839998859536
 20
221.9347930000718
 30
0.0
 10
45.61839998859536
 20
225.2487874436879
 30
0.0
  0
POLYLINE
  5
460
330
1F
100
AcDbEntity
  8
GRAU_10_
  6
AI-LINETYPE-1
 62
   250
100
AcDb2dPolyline
 66
     1
 10
0.0
 20
0.0
 30
0.0
  0
VERTEX
  5
461
330
460
100
AcDbEntity
  8
GRAU_10_
  6
AI-LINETYPE-1
 62
   250
100
AcDbVertex
100
AcDb2dVertex
 10
39.618355545651
 20
247.3135180787114
 30
0.0
  0
VERTEX
  5
462
330
460
100
AcDbEntity
  8
GRAU_10_
  6
AI-LINETYPE-1
 62
   250
100
AcDbVertex
100
AcDb2dVertex
 10
39.618355545651
 20
203.1021123316993
 30
0.0
  0
SEQEND
  5
464
330
460
100
AcDbEntity
  8
GRAU_10_
  6
AI-LINETYPE-1
 62
   250
  0
POLYLINE
  5
465
330
1F
100
AcDbEntity
  8
GRAU_10_
  6
AI-LINETYPE-2
 62
   250
100
AcDb2dPolyline
 66
     1
 10
0.0
 20
0.0
 30
0.0
  0
VERTEX
  5
466
330
465
100
AcDbEntity
  8
GRAU_10_
  6
AI-LINETYPE-2
 62
   250
100
AcDbVertex
100
AcDb2dVertex
 10
17.90653345439751
 20
225.2487874436879
 30
0.0
  0
VERTEX
  5
467
330
465
100
AcDbEntity
  8
GRAU_10_
  6
AI-LINETYPE-2
 62
   250
100
AcDbVertex
100
AcDb2dVertex
 10
61.37971535776739
 20
225.2487874436879
 30
0.0
  0
SEQEND
  5
469
330
465
100
AcDbEntity
  8
GRAU_10_
  6
AI-LINETYPE-2
 62
   250
  0
POLYLINE
  5
46A
330
1F
100
AcDbEntity
  8
GRAU_10_
  6
AI-LINETYPE-3
 62
   250
100
AcDb2dPolyline
 66
     1
 10
0.0
 20
0.0
 30
0.0
  0
VERTEX
  5
46B
330
46A
100
AcDbEntity
  8
GRAU_10_
  6
AI-LINETYPE-3
 62
   250
100
AcDbVertex
100
AcDb2dVertex
 10
104.0267805287981
 20
225.2487874436879
 30
0.0
  0
VERTEX
  5
46C
330
46A
100
AcDbEntity
  8
GRAU_10_
  6
AI-LINETYPE-3
 62
   250
100
AcDbVertex
100
AcDb2dVertex
 10
158.8400931037472
 20
225.2487874436879
 30
0.0
  0
SEQEND
  5
46E
330
46A
100
AcDbEntity
  8
GRAU_10_
  6
AI-LINETYPE-3
 62
   250
  0
POLYLINE
  5
470
330
1F
100
AcDbEntity
  8
STANDARDEBENE
 62
     7
100
AcDb2dPolyline
 66
     1
 10
0.0
 20
0.0
 30
0.0
  0
VERTEX
  5
471
330
470
100
AcDbEntity
  8
STANDARDEBENE
 62
     7
100
AcDbVertex
100
AcDb2dVertex
 10
139.7582305198652
 20
240.2778263288194
 30
0.0
  0
VERTEX
  5
472
330
470
100
AcDbEntity
  8
STANDARDEBENE
 62
     7
100
AcDbVertex
100
AcDb2dVertex
 10
139.7582305198652
 20
210.2193957807788
 30
0.0
  0
SEQEND
  5
473
330
470
100
AcDbEntity
  8
STANDARDEBENE
 62
     7
  0
POLYLINE
  5
474
330
1F
100
AcDbEntity
  8
STANDARDEBENE
 62
     7
100
AcDb2dPolyline
 66
     1
 10
0.0
 20
0.0
 30
0.0
  0
VERTEX
  5
475
330
474
100
AcDbEntity
  8
STANDARDEBENE
 62
     7
100
AcDbVertex
100
AcDb2dVertex
 10
148.2943944066201
 20
210.2193957807788
 30
0.0
  0
VERTEX
  5
476
330
474
100
AcDbEntity
  8
STANDARDEBENE
 62
     7
100
AcDbVertex
100
AcDb2dVertex
 10
148.2943944066201
 20
240.2778263288194
 30
0.0
  0
SEQEND
  5
477
330
474
100
AcDbEntity
  8
STANDARDEBENE
 62
     7
  0
MTEXT
  5
479
330
1F
100
AcDbEntity
  8
TEXT
 62
     7
100
AcDbMText
 10
94.28759909497872
 20
221.3957346892529
 30
0.0
 40
3.447529173370601
 41
0.0
 71
     7
 72
     1
  1
\fINDEX Univers 45 Light|b0|i0|c0|p34;\W1;ø25
 11
6.123233995736766E-17
 21
1.0
 31
0.0
  0
MTEXT
  5
47A
330
1F
100
AcDbEntity
  8
TEXT
 62
     7
100
AcDbMText
 10
84.21648047514051
 20
217.2617536716901
 30
0.0
 40
3.447529173370601
 41
0.0
 71
     7
 72
     1
  1
\fINDEX Univers 45 Light|b0|i0|c0|p34;\W0.896268;M32x1,5
 11
6.123233995736766E-17
 21
1.0
 31
0.0
  0
MTEXT
  5
47B
330
1F
100
AcDbEntity
  8
TEXT
 62
     7
100
AcDbMText
 10
165.3518175983308
 20
215.6404819797135
 30
0.0
 40
3.447529173370601
 41
0.0
 71
     7
 72
     1
  1
\fINDEX Univers 45 Light|b0|i0|c0|p34;\W1;M32x1,5
 11
6.123233995736766E-17
 21
1.0
 31
0.0
  0
POLYLINE
  5
47D
330
1F
100
AcDbEntity
  8
BEMA_U_00DFUNG
 62
     7
100
AcDb2dPolyline
 66
     1
 10
0.0
 20
0.0
 30
0.0
  0
VERTEX
  5
47E
330
47D
100
AcDbEntity
  8
BEMA_U_00DFUNG
 62
     7
100
AcDbVertex
100
AcDb2dVertex
 10
128.2065221894198
 20
237.7738096627788
 30
0.0
  0
VERTEX
  5
47F
330
47D
100
AcDbEntity
  8
BEMA_U_00DFUNG
 62
     7
100
AcDbVertex
100
AcDb2dVertex
 10
93.02646386488153
 20
237.7738096627788
 30
0.0
  0
SEQEND
  5
480
330
47D
100
AcDbEntity
  8
BEMA_U_00DFUNG
 62
     7
  0
POLYLINE
  5
481
330
1F
100
AcDbEntity
  8
BEMA_U_00DFUNG
 62
     7
100
AcDb2dPolyline
 66
     1
 10
0.0
 20
0.0
 30
0.0
  0
VERTEX
  5
482
330
481
100
AcDbEntity
  8
BEMA_U_00DFUNG
 62
     7
100
AcDbVertex
100
AcDb2dVertex
 10
128.2065221894198
 20
212.7234124468192
 30
0.0
  0
VERTEX
  5
483
330
481
100
AcDbEntity
  8
BEMA_U_00DFUNG
 62
     7
100
AcDbVertex
100
AcDb2dVertex
 10
93.02646386488153
 20
212.7234124468192
 30
0.0
  0
SEQEND
  5
484
330
481
100
AcDbEntity
  8
BEMA_U_00DFUNG
 62
     7
  0
POLYLINE
  5
485
330
1F
100
AcDbEntity
  8
BEMA_U_00DFUNG
 62
     7
100
AcDb2dPolyline
 66
     1
 10
0.0
 20
0.0
 30
0.0
  0
VERTEX
  5
486
330
485
100
AcDbEntity
  8
BEMA_U_00DFUNG
 62
     7
100
AcDbVertex
100
AcDb2dVertex
 10
95.0267138643815
 20
237.7738096627788
 30
0.0
  0
VERTEX
  5
487
330
485
100
AcDbEntity
  8
BEMA_U_00DFUNG
 62
     7
100
AcDbVertex
100
AcDb2dVertex
 10
95.0267138643815
 20
212.7234124468192
 30
0.0
  0
SEQEND
  5
488
330
485
100
AcDbEntity
  8
BEMA_U_00DFUNG
 62
     7
  0
POLYLINE
  5
489
330
1F
100
AcDbEntity
  8
BEMA_U_00DFUNG
 62
     7
100
AcDb2dPolyline
 66
     1
 10
0.0
 20
0.0
 30
0.0
  0
VERTEX
  5
48A
330
489
100
AcDbEntity
  8
BEMA_U_00DFUNG
 62
     7
100
AcDbVertex
100
AcDb2dVertex
 10
95.0267138643815
 20
237.7738096627788
 30
0.0
  0
VERTEX
  5
48B
330
489
100
AcDbEntity
  8
BEMA_U_00DFUNG
 62
     7
100
AcDbVertex
100
AcDb2dVertex
 10
94.56563330894129
 20
234.2735485525429
 30
0.0
  0
VERTEX
  5
48C
330
489
100
AcDbEntity
  8
BEMA_U_00DFUNG
 62
     7
100
AcDbVertex
100
AcDb2dVertex
 10
95.48744164204395
 20
234.2735485525429
 30
0.0
  0
VERTEX
  5
48D
330
489
100
AcDbEntity
  8
BEMA_U_00DFUNG
 62
     7
100
AcDbVertex
100
AcDb2dVertex
 10
95.0267138643815
 20
237.7738096627788
 30
0.0
  0
SEQEND
  5
48E
330
489
100
AcDbEntity
  8
BEMA_U_00DFUNG
 62
     7
  0
POLYLINE
  5
48F
330
1F
100
AcDbEntity
  8
BEMA_U_00DFUNG
 62
     7
100
AcDb2dPolyline
 66
     1
 10
0.0
 20
0.0
 30
0.0
  0
VERTEX
  5
490
330
48F
100
AcDbEntity
  8
BEMA_U_00DFUNG
 62
     7
100
AcDbVertex
100
AcDb2dVertex
 10
94.5695138644957
 20
234.2735485525429
 30
0.0
  0
VERTEX
  5
491
330
48F
100
AcDbEntity
  8
BEMA_U_00DFUNG
 62
     7
100
AcDbVertex
100
AcDb2dVertex
 10
94.5695138644957
 20
234.3007124414247
 30
0.0
  0
SEQEND
  5
492
330
48F
100
AcDbEntity
  8
BEMA_U_00DFUNG
 62
     7
  0
POLYLINE
  5
493
330
1F
100
AcDbEntity
  8
BEMA_U_00DFUNG
 62
     7
100
AcDb2dPolyline
 66
     1
 10
0.0
 20
0.0
 30
0.0
  0
VERTEX
  5
494
330
493
100
AcDbEntity
  8
BEMA_U_00DFUNG
 62
     7
100
AcDbVertex
100
AcDb2dVertex
 10
94.5695138644957
 20
234.2735485525429
 30
0.0
  0
VERTEX
  5
495
330
493
100
AcDbEntity
  8
BEMA_U_00DFUNG
 62
     7
100
AcDbVertex
100
AcDb2dVertex
 10
94.5695138644957
 20
234.3007124414247
 30
0.0
  0
SEQEND
  5
496
330
493
100
AcDbEntity
  8
BEMA_U_00DFUNG
 62
     7
  0
POLYLINE
  5
497
330
1F
100
AcDbEntity
  8
BEMA_U_00DFUNG
 62
     7
100
AcDb2dPolyline
 66
     1
 10
0.0
 20
0.0
 30
0.0
  0
VERTEX
  5
498
330
497
100
AcDbEntity
  8
BEMA_U_00DFUNG
 62
     7
100
AcDbVertex
100
AcDb2dVertex
 10
94.61996108670533
 20
234.2735485525429
 30
0.0
  0
VERTEX
  5
499
330
497
100
AcDbEntity
  8
BEMA_U_00DFUNG
 62
     7
100
AcDbVertex
100
AcDb2dVertex
 10
94.61996108670533
 20
234.6870041079949
 30
0.0
  0
SEQEND
  5
49A
330
497
100
AcDbEntity
  8
BEMA_U_00DFUNG
 62
     7
  0
POLYLINE
  5
49B
330
1F
100
AcDbEntity
  8
BEMA_U_00DFUNG
 62
     7
100
AcDb2dPolyline
 66
     1
 10
0.0
 20
0.0
 30
0.0
  0
VERTEX
  5
49C
330
49B
100
AcDbEntity
  8
BEMA_U_00DFUNG
 62
     7
100
AcDbVertex
100
AcDb2dVertex
 10
94.6707610866927
 20
234.2735485525429
 30
0.0
  0
VERTEX
  5
49D
330
49B
100
AcDbEntity
  8
BEMA_U_00DFUNG
 62
     7
100
AcDbVertex
100
AcDb2dVertex
 10
94.6707610866927
 20
235.0722374412318
 30
0.0
  0
SEQEND
  5
49E
330
49B
100
AcDbEntity
  8
BEMA_U_00DFUNG
 62
     7
  0
POLYLINE
  5
49F
330
1F
100
AcDbEntity
  8
BEMA_U_00DFUNG
 62
     7
100
AcDb2dPolyline
 66
     1
 10
0.0
 20
0.0
 30
0.0
  0
VERTEX
  5
4A0
330
49F
100
AcDbEntity
  8
BEMA_U_00DFUNG
 62
     7
100
AcDbVertex
100
AcDb2dVertex
 10
94.72156108668008
 20
234.2735485525429
 30
0.0
  0
VERTEX
  5
4A1
330
49F
100
AcDbEntity
  8
BEMA_U_00DFUNG
 62
     7
100
AcDbVertex
100
AcDb2dVertex
 10
94.72156108668008
 20
235.458529107802
 30
0.0
  0
SEQEND
  5
4A2
330
49F
100
AcDbEntity
  8
BEMA_U_00DFUNG
 62
     7
  0
POLYLINE
  5
4A3
330
1F
100
AcDbEntity
  8
BEMA_U_00DFUNG
 62
     7
100
AcDb2dPolyline
 66
     1
 10
0.0
 20
0.0
 30
0.0
  0
VERTEX
  5
4A4
330
4A3
100
AcDbEntity
  8
BEMA_U_00DFUNG
 62
     7
100
AcDbVertex
100
AcDb2dVertex
 10
94.77236108666715
 20
234.2735485525429
 30
0.0
  0
VERTEX
  5
4A5
330
4A3
100
AcDbEntity
  8
BEMA_U_00DFUNG
 62
     7
100
AcDbVertex
100
AcDb2dVertex
 10
94.77236108666715
 20
235.8441152188167
 30
0.0
  0
SEQEND
  5
4A6
330
4A3
100
AcDbEntity
  8
BEMA_U_00DFUNG
 62
     7
  0
POLYLINE
  5
4A7
330
1F
100
AcDbEntity
  8
BEMA_U_00DFUNG
 62
     7
100
AcDb2dPolyline
 66
     1
 10
0.0
 20
0.0
 30
0.0
  0
VERTEX
  5
4A8
330
4A7
100
AcDbEntity
  8
BEMA_U_00DFUNG
 62
     7
100
AcDbVertex
100
AcDb2dVertex
 10
94.82316108665454
 20
234.2735485525429
 30
0.0
  0
VERTEX
  5
4A9
330
4A7
100
AcDbEntity
  8
BEMA_U_00DFUNG
 62
     7
100
AcDbVertex
100
AcDb2dVertex
 10
94.82316108665454
 20
236.2304068853869
 30
0.0
  0
SEQEND
  5
4AA
330
4A7
100
AcDbEntity
  8
BEMA_U_00DFUNG
 62
     7
  0
POLYLINE
  5
4AB
330
1F
100
AcDbEntity
  8
BEMA_U_00DFUNG
 62
     7
100
AcDb2dPolyline
 66
     1
 10
0.0
 20
0.0
 30
0.0
  0
VERTEX
  5
4AC
330
4AB
100
AcDbEntity
  8
BEMA_U_00DFUNG
 62
     7
100
AcDbVertex
100
AcDb2dVertex
 10
94.87431386441968
 20
234.2735485525429
 30
0.0
  0
VERTEX
  5
4AD
330
4AB
100
AcDbEntity
  8
BEMA_U_00DFUNG
 62
     7
100
AcDbVertex
100
AcDb2dVertex
 10
94.87431386441968
 20
236.6159929964015
 30
0.0
  0
SEQEND
  5
4AE
330
4AB
100
AcDbEntity
  8
BEMA_U_00DFUNG
 62
     7
  0
POLYLINE
  5
4AF
330
1F
100
AcDbEntity
  8
BEMA_U_00DFUNG
 62
     7
100
AcDb2dPolyline
 66
     1
 10
0.0
 20
0.0
 30
0.0
  0
VERTEX
  5
4B0
330
4AF
100
AcDbEntity
  8
BEMA_U_00DFUNG
 62
     7
100
AcDbVertex
100
AcDb2dVertex
 10
94.92511386440674
 20
234.2735485525429
 30
0.0
  0
VERTEX
  5
4B1
330
4AF
100
AcDbEntity
  8
BEMA_U_00DFUNG
 62
     7
100
AcDbVertex
100
AcDb2dVertex
 10
94.92511386440674
 20
237.0019318851939
 30
0.0
  0
SEQEND
  5
4B2
330
4AF
100
AcDbEntity
  8
BEMA_U_00DFUNG
 62
     7
  0
POLYLINE
  5
4B3
330
1F
100
AcDbEntity
  8
BEMA_U_00DFUNG
 62
     7
100
AcDb2dPolyline
 66
     1
 10
0.0
 20
0.0
 30
0.0
  0
VERTEX
  5
4B4
330
4B3
100
AcDbEntity
  8
BEMA_U_00DFUNG
 62
     7
100
AcDbVertex
100
AcDb2dVertex
 10
94.97591386439412
 20
234.2735485525429
 30
0.0
  0
VERTEX
  5
4B5
330
4B3
100
AcDbEntity
  8
BEMA_U_00DFUNG
 62
     7
100
AcDbVertex
100
AcDb2dVertex
 10
94.97591386439412
 20
237.3875179962086
 30
0.0
  0
SEQEND
  5
4B6
330
4B3
100
AcDbEntity
  8
BEMA_U_00DFUNG
 62
     7
  0
POLYLINE
  5
4B7
330
1F
100
AcDbEntity
  8
BEMA_U_00DFUNG
 62
     7
100
AcDb2dPolyline
 66
     1
 10
0.0
 20
0.0
 30
0.0
  0
VERTEX
  5
4B8
330
4B7
100
AcDbEntity
  8
BEMA_U_00DFUNG
 62
     7
100
AcDbVertex
100
AcDb2dVertex
 10
95.0267138643815
 20
234.2735485525429
 30
0.0
  0
VERTEX
  5
4B9
330
4B7
100
AcDbEntity
  8
BEMA_U_00DFUNG
 62
     7
100
AcDbVertex
100
AcDb2dVertex
 10
95.0267138643815
 20
237.7738096627788
 30
0.0
  0
SEQEND
  5
4BA
330
4B7
100
AcDbEntity
  8
BEMA_U_00DFUNG
 62
     7
  0
POLYLINE
  5
4BB
330
1F
100
AcDbEntity
  8
BEMA_U_00DFUNG
 62
     7
100
AcDb2dPolyline
 66
     1
 10
0.0
 20
0.0
 30
0.0
  0
VERTEX
  5
4BC
330
4BB
100
AcDbEntity
  8
BEMA_U_00DFUNG
 62
     7
100
AcDbVertex
100
AcDb2dVertex
 10
95.4839138642673
 20
234.2735485525429
 30
0.0
  0
VERTEX
  5
4BD
330
4BB
100
AcDbEntity
  8
BEMA_U_00DFUNG
 62
     7
100
AcDbVertex
100
AcDb2dVertex
 10
95.4839138642673
 20
234.3007124414247
 30
0.0
  0
SEQEND
  5
4BE
330
4BB
100
AcDbEntity
  8
BEMA_U_00DFUNG
 62
     7
  0
POLYLINE
  5
4BF
330
1F
100
AcDbEntity
  8
BEMA_U_00DFUNG
 62
     7
100
AcDb2dPolyline
 66
     1
 10
0.0
 20
0.0
 30
0.0
  0
VERTEX
  5
4C0
330
4BF
100
AcDbEntity
  8
BEMA_U_00DFUNG
 62
     7
100
AcDbVertex
100
AcDb2dVertex
 10
95.4839138642673
 20
234.2735485525429
 30
0.0
  0
VERTEX
  5
4C1
330
4BF
100
AcDbEntity
  8
BEMA_U_00DFUNG
 62
     7
100
AcDbVertex
100
AcDb2dVertex
 10
95.4839138642673
 20
234.3007124414247
 30
0.0
  0
SEQEND
  5
4C2
330
4BF
100
AcDbEntity
  8
BEMA_U_00DFUNG
 62
     7
  0
POLYLINE
  5
4C3
330
1F
100
AcDbEntity
  8
BEMA_U_00DFUNG
 62
     7
100
AcDb2dPolyline
 66
     1
 10
0.0
 20
0.0
 30
0.0
  0
VERTEX
  5
4C4
330
4C3
100
AcDbEntity
  8
BEMA_U_00DFUNG
 62
     7
100
AcDbVertex
100
AcDb2dVertex
 10
95.43311386427992
 20
234.2735485525429
 30
0.0
  0
VERTEX
  5
4C5
330
4C3
100
AcDbEntity
  8
BEMA_U_00DFUNG
 62
     7
100
AcDbVertex
100
AcDb2dVertex
 10
95.43311386427992
 20
234.6870041079949
 30
0.0
  0
SEQEND
  5
4C6
330
4C3
100
AcDbEntity
  8
BEMA_U_00DFUNG
 62
     7
  0
POLYLINE
  5
4C7
330
1F
100
AcDbEntity
  8
BEMA_U_00DFUNG
 62
     7
100
AcDb2dPolyline
 66
     1
 10
0.0
 20
0.0
 30
0.0
  0
VERTEX
  5
4C8
330
4C7
100
AcDbEntity
  8
BEMA_U_00DFUNG
 62
     7
100
AcDbVertex
100
AcDb2dVertex
 10
95.38196108651478
 20
234.2735485525429
 30
0.0
  0
VERTEX
  5
4C9
330
4C7
100
AcDbEntity
  8
BEMA_U_00DFUNG
 62
     7
100
AcDbVertex
100
AcDb2dVertex
 10
95.38196108651478
 20
235.0722374412318
 30
0.0
  0
SEQEND
  5
4CA
330
4C7
100
AcDbEntity
  8
BEMA_U_00DFUNG
 62
     7
  0
POLYLINE
  5
4CB
330
1F
100
AcDbEntity
  8
BEMA_U_00DFUNG
 62
     7
100
AcDb2dPolyline
 66
     1
 10
0.0
 20
0.0
 30
0.0
  0
VERTEX
  5
4CC
330
4CB
100
AcDbEntity
  8
BEMA_U_00DFUNG
 62
     7
100
AcDbVertex
100
AcDb2dVertex
 10
95.33116108652771
 20
234.2735485525429
 30
0.0
  0
VERTEX
  5
4CD
330
4CB
100
AcDbEntity
  8
BEMA_U_00DFUNG
 62
     7
100
AcDbVertex
100
AcDb2dVertex
 10
95.33116108652771
 20
235.458529107802
 30
0.0
  0
SEQEND
  5
4CE
330
4CB
100
AcDbEntity
  8
BEMA_U_00DFUNG
 62
     7
  0
POLYLINE
  5
4CF
330
1F
100
AcDbEntity
  8
BEMA_U_00DFUNG
 62
     7
100
AcDb2dPolyline
 66
     1
 10
0.0
 20
0.0
 30
0.0
  0
VERTEX
  5
4D0
330
4CF
100
AcDbEntity
  8
BEMA_U_00DFUNG
 62
     7
100
AcDbVertex
100
AcDb2dVertex
 10
95.28036108654032
 20
234.2735485525429
 30
0.0
  0
VERTEX
  5
4D1
330
4CF
100
AcDbEntity
  8
BEMA_U_00DFUNG
 62
     7
100
AcDbVertex
100
AcDb2dVertex
 10
95.28036108654032
 20
235.8441152188167
 30
0.0
  0
SEQEND
  5
4D2
330
4CF
100
AcDbEntity
  8
BEMA_U_00DFUNG
 62
     7
  0
POLYLINE
  5
4D3
330
1F
100
AcDbEntity
  8
BEMA_U_00DFUNG
 62
     7
100
AcDb2dPolyline
 66
     1
 10
0.0
 20
0.0
 30
0.0
  0
VERTEX
  5
4D4
330
4D3
100
AcDbEntity
  8
BEMA_U_00DFUNG
 62
     7
100
AcDbVertex
100
AcDb2dVertex
 10
95.22956108655295
 20
234.2735485525429
 30
0.0
  0
VERTEX
  5
4D5
330
4D3
100
AcDbEntity
  8
BEMA_U_00DFUNG
 62
     7
100
AcDbVertex
100
AcDb2dVertex
 10
95.22956108655295
 20
236.2304068853869
 30
0.0
  0
SEQEND
  5
4D6
330
4D3
100
AcDbEntity
  8
BEMA_U_00DFUNG
 62
     7
  0
POLYLINE
  5
4D7
330
1F
100
AcDbEntity
  8
BEMA_U_00DFUNG
 62
     7
100
AcDb2dPolyline
 66
     1
 10
0.0
 20
0.0
 30
0.0
  0
VERTEX
  5
4D8
330
4D7
100
AcDbEntity
  8
BEMA_U_00DFUNG
 62
     7
100
AcDbVertex
100
AcDb2dVertex
 10
95.17876108656556
 20
234.2735485525429
 30
0.0
  0
VERTEX
  5
4D9
330
4D7
100
AcDbEntity
  8
BEMA_U_00DFUNG
 62
     7
100
AcDbVertex
100
AcDb2dVertex
 10
95.17876108656556
 20
236.6159929964015
 30
0.0
  0
SEQEND
  5
4DA
330
4D7
100
AcDbEntity
  8
BEMA_U_00DFUNG
 62
     7
  0
POLYLINE
  5
4DB
330
1F
100
AcDbEntity
  8
BEMA_U_00DFUNG
 62
     7
100
AcDb2dPolyline
 66
     1
 10
0.0
 20
0.0
 30
0.0
  0
VERTEX
  5
4DC
330
4DB
100
AcDbEntity
  8
BEMA_U_00DFUNG
 62
     7
100
AcDbVertex
100
AcDb2dVertex
 10
95.12831386435595
 20
234.2735485525429
 30
0.0
  0
VERTEX
  5
4DD
330
4DB
100
AcDbEntity
  8
BEMA_U_00DFUNG
 62
     7
100
AcDbVertex
100
AcDb2dVertex
 10
95.12831386435595
 20
237.0019318851939
 30
0.0
  0
SEQEND
  5
4DE
330
4DB
100
AcDbEntity
  8
BEMA_U_00DFUNG
 62
     7
  0
POLYLINE
  5
4DF
330
1F
100
AcDbEntity
  8
BEMA_U_00DFUNG
 62
     7
100
AcDb2dPolyline
 66
     1
 10
0.0
 20
0.0
 30
0.0
  0
VERTEX
  5
4E0
330
4DF
100
AcDbEntity
  8
BEMA_U_00DFUNG
 62
     7
100
AcDbVertex
100
AcDb2dVertex
 10
95.07751386436888
 20
234.2735485525429
 30
0.0
  0
VERTEX
  5
4E1
330
4DF
100
AcDbEntity
  8
BEMA_U_00DFUNG
 62
     7
100
AcDbVertex
100
AcDb2dVertex
 10
95.07751386436888
 20
237.3875179962086
 30
0.0
  0
SEQEND
  5
4E2
330
4DF
100
AcDbEntity
  8
BEMA_U_00DFUNG
 62
     7
  0
POLYLINE
  5
4E3
330
1F
100
AcDbEntity
  8
BEMA_U_00DFUNG
 62
     7
100
AcDb2dPolyline
 66
     1
 10
0.0
 20
0.0
 30
0.0
  0
VERTEX
  5
4E4
330
4E3
100
AcDbEntity
  8
BEMA_U_00DFUNG
 62
     7
100
AcDbVertex
100
AcDb2dVertex
 10
95.0267138643815
 20
234.2735485525429
 30
0.0
  0
VERTEX
  5
4E5
330
4E3
100
AcDbEntity
  8
BEMA_U_00DFUNG
 62
     7
100
AcDbVertex
100
AcDb2dVertex
 10
95.0267138643815
 20
237.7738096627788
 30
0.0
  0
SEQEND
  5
4E6
330
4E3
100
AcDbEntity
  8
BEMA_U_00DFUNG
 62
     7
  0
POLYLINE
  5
4E7
330
1F
100
AcDbEntity
  8
BEMA_U_00DFUNG
 62
     7
100
AcDb2dPolyline
 66
     1
 10
0.0
 20
0.0
 30
0.0
  0
VERTEX
  5
4E8
330
4E7
100
AcDbEntity
  8
BEMA_U_00DFUNG
 62
     7
100
AcDbVertex
100
AcDb2dVertex
 10
95.0267138643815
 20
212.7234124468192
 30
0.0
  0
VERTEX
  5
4E9
330
4E7
100
AcDbEntity
  8
BEMA_U_00DFUNG
 62
     7
100
AcDbVertex
100
AcDb2dVertex
 10
95.48744164204395
 20
216.223673557055
 30
0.0
  0
VERTEX
  5
4EA
330
4E7
100
AcDbEntity
  8
BEMA_U_00DFUNG
 62
     7
100
AcDbVertex
100
AcDb2dVertex
 10
94.56563330894129
 20
216.223673557055
 30
0.0
  0
VERTEX
  5
4EB
330
4E7
100
AcDbEntity
  8
BEMA_U_00DFUNG
 62
     7
100
AcDbVertex
100
AcDb2dVertex
 10
95.0267138643815
 20
212.7234124468192
 30
0.0
  0
SEQEND
  5
4EC
330
4E7
100
AcDbEntity
  8
BEMA_U_00DFUNG
 62
     7
  0
POLYLINE
  5
4ED
330
1F
100
AcDbEntity
  8
BEMA_U_00DFUNG
 62
     7
100
AcDb2dPolyline
 66
     1
 10
0.0
 20
0.0
 30
0.0
  0
VERTEX
  5
4EE
330
4ED
100
AcDbEntity
  8
BEMA_U_00DFUNG
 62
     7
100
AcDbVertex
100
AcDb2dVertex
 10
95.4839138642673
 20
216.223673557055
 30
0.0
  0
VERTEX
  5
4EF
330
4ED
100
AcDbEntity
  8
BEMA_U_00DFUNG
 62
     7
100
AcDbVertex
100
AcDb2dVertex
 10
95.4839138642673
 20
216.1965096681732
 30
0.0
  0
SEQEND
  5
4F0
330
4ED
100
AcDbEntity
  8
BEMA_U_00DFUNG
 62
     7
  0
POLYLINE
  5
4F1
330
1F
100
AcDbEntity
  8
BEMA_U_00DFUNG
 62
     7
100
AcDb2dPolyline
 66
     1
 10
0.0
 20
0.0
 30
0.0
  0
VERTEX
  5
4F2
330
4F1
100
AcDbEntity
  8
BEMA_U_00DFUNG
 62
     7
100
AcDbVertex
100
AcDb2dVertex
 10
95.4839138642673
 20
216.223673557055
 30
0.0
  0
VERTEX
  5
4F3
330
4F1
100
AcDbEntity
  8
BEMA_U_00DFUNG
 62
     7
100
AcDbVertex
100
AcDb2dVertex
 10
95.4839138642673
 20
216.1965096681732
 30
0.0
  0
SEQEND
  5
4F4
330
4F1
100
AcDbEntity
  8
BEMA_U_00DFUNG
 62
     7
  0
POLYLINE
  5
4F5
330
1F
100
AcDbEntity
  8
BEMA_U_00DFUNG
 62
     7
100
AcDb2dPolyline
 66
     1
 10
0.0
 20
0.0
 30
0.0
  0
VERTEX
  5
4F6
330
4F5
100
AcDbEntity
  8
BEMA_U_00DFUNG
 62
     7
100
AcDbVertex
100
AcDb2dVertex
 10
95.43311386427992
 20
216.223673557055
 30
0.0
  0
VERTEX
  5
4F7
330
4F5
100
AcDbEntity
  8
BEMA_U_00DFUNG
 62
     7
100
AcDbVertex
100
AcDb2dVertex
 10
95.43311386427992
 20
215.810218001603
 30
0.0
  0
SEQEND
  5
4F8
330
4F5
100
AcDbEntity
  8
BEMA_U_00DFUNG
 62
     7
  0
POLYLINE
  5
4F9
330
1F
100
AcDbEntity
  8
BEMA_U_00DFUNG
 62
     7
100
AcDb2dPolyline
 66
     1
 10
0.0
 20
0.0
 30
0.0
  0
VERTEX
  5
4FA
330
4F9
100
AcDbEntity
  8
BEMA_U_00DFUNG
 62
     7
100
AcDbVertex
100
AcDb2dVertex
 10
95.38196108651478
 20
216.223673557055
 30
0.0
  0
VERTEX
  5
4FB
330
4F9
100
AcDbEntity
  8
BEMA_U_00DFUNG
 62
     7
100
AcDbVertex
100
AcDb2dVertex
 10
95.38196108651478
 20
215.4249846683661
 30
0.0
  0
SEQEND
  5
4FC
330
4F9
100
AcDbEntity
  8
BEMA_U_00DFUNG
 62
     7
  0
POLYLINE
  5
4FD
330
1F
100
AcDbEntity
  8
BEMA_U_00DFUNG
 62
     7
100
AcDb2dPolyline
 66
     1
 10
0.0
 20
0.0
 30
0.0
  0
VERTEX
  5
4FE
330
4FD
100
AcDbEntity
  8
BEMA_U_00DFUNG
 62
     7
100
AcDbVertex
100
AcDb2dVertex
 10
95.33116108652771
 20
216.223673557055
 30
0.0
  0
VERTEX
  5
4FF
330
4FD
100
AcDbEntity
  8
BEMA_U_00DFUNG
 62
     7
100
AcDbVertex
100
AcDb2dVertex
 10
95.33116108652771
 20
215.0386930017959
 30
0.0
  0
SEQEND
  5
500
330
4FD
100
AcDbEntity
  8
BEMA_U_00DFUNG
 62
     7
  0
POLYLINE
  5
501
330
1F
100
AcDbEntity
  8
BEMA_U_00DFUNG
 62
     7
100
AcDb2dPolyline
 66
     1
 10
0.0
 20
0.0
 30
0.0
  0
VERTEX
  5
502
330
501
100
AcDbEntity
  8
BEMA_U_00DFUNG
 62
     7
100
AcDbVertex
100
AcDb2dVertex
 10
95.28036108654032
 20
216.223673557055
 30
0.0
  0
VERTEX
  5
503
330
501
100
AcDbEntity
  8
BEMA_U_00DFUNG
 62
     7
100
AcDbVertex
100
AcDb2dVertex
 10
95.28036108654032
 20
214.6531068907813
 30
0.0
  0
SEQEND
  5
504
330
501
100
AcDbEntity
  8
BEMA_U_00DFUNG
 62
     7
  0
POLYLINE
  5
505
330
1F
100
AcDbEntity
  8
BEMA_U_00DFUNG
 62
     7
100
AcDb2dPolyline
 66
     1
 10
0.0
 20
0.0
 30
0.0
  0
VERTEX
  5
506
330
505
100
AcDbEntity
  8
BEMA_U_00DFUNG
 62
     7
100
AcDbVertex
100
AcDb2dVertex
 10
95.22956108655295
 20
216.223673557055
 30
0.0
  0
VERTEX
  5
507
330
505
100
AcDbEntity
  8
BEMA_U_00DFUNG
 62
     7
100
AcDbVertex
100
AcDb2dVertex
 10
95.22956108655295
 20
214.2668152242111
 30
0.0
  0
SEQEND
  5
508
330
505
100
AcDbEntity
  8
BEMA_U_00DFUNG
 62
     7
  0
POLYLINE
  5
509
330
1F
100
AcDbEntity
  8
BEMA_U_00DFUNG
 62
     7
100
AcDb2dPolyline
 66
     1
 10
0.0
 20
0.0
 30
0.0
  0
VERTEX
  5
50A
330
509
100
AcDbEntity
  8
BEMA_U_00DFUNG
 62
     7
100
AcDbVertex
100
AcDb2dVertex
 10
95.17876108656556
 20
216.223673557055
 30
0.0
  0
VERTEX
  5
50B
330
509
100
AcDbEntity
  8
BEMA_U_00DFUNG
 62
     7
100
AcDbVertex
100
AcDb2dVertex
 10
95.17876108656556
 20
213.8812291131964
 30
0.0
  0
SEQEND
  5
50C
330
509
100
AcDbEntity
  8
BEMA_U_00DFUNG
 62
     7
  0
POLYLINE
  5
50D
330
1F
100
AcDbEntity
  8
BEMA_U_00DFUNG
 62
     7
100
AcDb2dPolyline
 66
     1
 10
0.0
 20
0.0
 30
0.0
  0
VERTEX
  5
50E
330
50D
100
AcDbEntity
  8
BEMA_U_00DFUNG
 62
     7
100
AcDbVertex
100
AcDb2dVertex
 10
95.12831386435595
 20
216.223673557055
 30
0.0
  0
VERTEX
  5
50F
330
50D
100
AcDbEntity
  8
BEMA_U_00DFUNG
 62
     7
100
AcDbVertex
100
AcDb2dVertex
 10
95.12831386435595
 20
213.495290224404
 30
0.0
  0
SEQEND
  5
510
330
50D
100
AcDbEntity
  8
BEMA_U_00DFUNG
 62
     7
  0
POLYLINE
  5
511
330
1F
100
AcDbEntity
  8
BEMA_U_00DFUNG
 62
     7
100
AcDb2dPolyline
 66
     1
 10
0.0
 20
0.0
 30
0.0
  0
VERTEX
  5
512
330
511
100
AcDbEntity
  8
BEMA_U_00DFUNG
 62
     7
100
AcDbVertex
100
AcDb2dVertex
 10
95.07751386436888
 20
216.223673557055
 30
0.0
  0
VERTEX
  5
513
330
511
100
AcDbEntity
  8
BEMA_U_00DFUNG
 62
     7
100
AcDbVertex
100
AcDb2dVertex
 10
95.07751386436888
 20
213.1097041133893
 30
0.0
  0
SEQEND
  5
514
330
511
100
AcDbEntity
  8
BEMA_U_00DFUNG
 62
     7
  0
POLYLINE
  5
515
330
1F
100
AcDbEntity
  8
BEMA_U_00DFUNG
 62
     7
100
AcDb2dPolyline
 66
     1
 10
0.0
 20
0.0
 30
0.0
  0
VERTEX
  5
516
330
515
100
AcDbEntity
  8
BEMA_U_00DFUNG
 62
     7
100
AcDbVertex
100
AcDb2dVertex
 10
95.0267138643815
 20
216.223673557055
 30
0.0
  0
VERTEX
  5
517
330
515
100
AcDbEntity
  8
BEMA_U_00DFUNG
 62
     7
100
AcDbVertex
100
AcDb2dVertex
 10
95.0267138643815
 20
212.7234124468192
 30
0.0
  0
SEQEND
  5
518
330
515
100
AcDbEntity
  8
BEMA_U_00DFUNG
 62
     7
  0
POLYLINE
  5
519
330
1F
100
AcDbEntity
  8
BEMA_U_00DFUNG
 62
     7
100
AcDb2dPolyline
 66
     1
 10
0.0
 20
0.0
 30
0.0
  0
VERTEX
  5
51A
330
519
100
AcDbEntity
  8
BEMA_U_00DFUNG
 62
     7
100
AcDbVertex
100
AcDb2dVertex
 10
94.5695138644957
 20
216.223673557055
 30
0.0
  0
VERTEX
  5
51B
330
519
100
AcDbEntity
  8
BEMA_U_00DFUNG
 62
     7
100
AcDbVertex
100
AcDb2dVertex
 10
94.5695138644957
 20
216.1965096681732
 30
0.0
  0
SEQEND
  5
51C
330
519
100
AcDbEntity
  8
BEMA_U_00DFUNG
 62
     7
  0
POLYLINE
  5
51D
330
1F
100
AcDbEntity
  8
BEMA_U_00DFUNG
 62
     7
100
AcDb2dPolyline
 66
     1
 10
0.0
 20
0.0
 30
0.0
  0
VERTEX
  5
51E
330
51D
100
AcDbEntity
  8
BEMA_U_00DFUNG
 62
     7
100
AcDbVertex
100
AcDb2dVertex
 10
94.5695138644957
 20
216.223673557055
 30
0.0
  0
VERTEX
  5
51F
330
51D
100
AcDbEntity
  8
BEMA_U_00DFUNG
 62
     7
100
AcDbVertex
100
AcDb2dVertex
 10
94.5695138644957
 20
216.1965096681732
 30
0.0
  0
SEQEND
  5
520
330
51D
100
AcDbEntity
  8
BEMA_U_00DFUNG
 62
     7
  0
POLYLINE
  5
521
330
1F
100
AcDbEntity
  8
BEMA_U_00DFUNG
 62
     7
100
AcDb2dPolyline
 66
     1
 10
0.0
 20
0.0
 30
0.0
  0
VERTEX
  5
522
330
521
100
AcDbEntity
  8
BEMA_U_00DFUNG
 62
     7
100
AcDbVertex
100
AcDb2dVertex
 10
94.61996108670533
 20
216.223673557055
 30
0.0
  0
VERTEX
  5
523
330
521
100
AcDbEntity
  8
BEMA_U_00DFUNG
 62
     7
100
AcDbVertex
100
AcDb2dVertex
 10
94.61996108670533
 20
215.810218001603
 30
0.0
  0
SEQEND
  5
524
330
521
100
AcDbEntity
  8
BEMA_U_00DFUNG
 62
     7
  0
POLYLINE
  5
525
330
1F
100
AcDbEntity
  8
BEMA_U_00DFUNG
 62
     7
100
AcDb2dPolyline
 66
     1
 10
0.0
 20
0.0
 30
0.0
  0
VERTEX
  5
526
330
525
100
AcDbEntity
  8
BEMA_U_00DFUNG
 62
     7
100
AcDbVertex
100
AcDb2dVertex
 10
94.6707610866927
 20
216.223673557055
 30
0.0
  0
VERTEX
  5
527
330
525
100
AcDbEntity
  8
BEMA_U_00DFUNG
 62
     7
100
AcDbVertex
100
AcDb2dVertex
 10
94.6707610866927
 20
215.4249846683661
 30
0.0
  0
SEQEND
  5
528
330
525
100
AcDbEntity
  8
BEMA_U_00DFUNG
 62
     7
  0
POLYLINE
  5
529
330
1F
100
AcDbEntity
  8
BEMA_U_00DFUNG
 62
     7
100
AcDb2dPolyline
 66
     1
 10
0.0
 20
0.0
 30
0.0
  0
VERTEX
  5
52A
330
529
100
AcDbEntity
  8
BEMA_U_00DFUNG
 62
     7
100
AcDbVertex
100
AcDb2dVertex
 10
94.72156108668008
 20
216.223673557055
 30
0.0
  0
VERTEX
  5
52B
330
529
100
AcDbEntity
  8
BEMA_U_00DFUNG
 62
     7
100
AcDbVertex
100
AcDb2dVertex
 10
94.72156108668008
 20
215.0386930017959
 30
0.0
  0
SEQEND
  5
52C
330
529
100
AcDbEntity
  8
BEMA_U_00DFUNG
 62
     7
  0
POLYLINE
  5
52D
330
1F
100
AcDbEntity
  8
BEMA_U_00DFUNG
 62
     7
100
AcDb2dPolyline
 66
     1
 10
0.0
 20
0.0
 30
0.0
  0
VERTEX
  5
52E
330
52D
100
AcDbEntity
  8
BEMA_U_00DFUNG
 62
     7
100
AcDbVertex
100
AcDb2dVertex
 10
94.77236108666715
 20
216.223673557055
 30
0.0
  0
VERTEX
  5
52F
330
52D
100
AcDbEntity
  8
BEMA_U_00DFUNG
 62
     7
100
AcDbVertex
100
AcDb2dVertex
 10
94.77236108666715
 20
214.6531068907813
 30
0.0
  0
SEQEND
  5
530
330
52D
100
AcDbEntity
  8
BEMA_U_00DFUNG
 62
     7
  0
POLYLINE
  5
531
330
1F
100
AcDbEntity
  8
BEMA_U_00DFUNG
 62
     7
100
AcDb2dPolyline
 66
     1
 10
0.0
 20
0.0
 30
0.0
  0
VERTEX
  5
532
330
531
100
AcDbEntity
  8
BEMA_U_00DFUNG
 62
     7
100
AcDbVertex
100
AcDb2dVertex
 10
94.82316108665454
 20
216.223673557055
 30
0.0
  0
VERTEX
  5
533
330
531
100
AcDbEntity
  8
BEMA_U_00DFUNG
 62
     7
100
AcDbVertex
100
AcDb2dVertex
 10
94.82316108665454
 20
214.2668152242111
 30
0.0
  0
SEQEND
  5
534
330
531
100
AcDbEntity
  8
BEMA_U_00DFUNG
 62
     7
  0
POLYLINE
  5
535
330
1F
100
AcDbEntity
  8
BEMA_U_00DFUNG
 62
     7
100
AcDb2dPolyline
 66
     1
 10
0.0
 20
0.0
 30
0.0
  0
VERTEX
  5
536
330
535
100
AcDbEntity
  8
BEMA_U_00DFUNG
 62
     7
100
AcDbVertex
100
AcDb2dVertex
 10
94.87431386441968
 20
216.223673557055
 30
0.0
  0
VERTEX
  5
537
330
535
100
AcDbEntity
  8
BEMA_U_00DFUNG
 62
     7
100
AcDbVertex
100
AcDb2dVertex
 10
94.87431386441968
 20
213.8812291131964
 30
0.0
  0
SEQEND
  5
538
330
535
100
AcDbEntity
  8
BEMA_U_00DFUNG
 62
     7
  0
POLYLINE
  5
539
330
1F
100
AcDbEntity
  8
BEMA_U_00DFUNG
 62
     7
100
AcDb2dPolyline
 66
     1
 10
0.0
 20
0.0
 30
0.0
  0
VERTEX
  5
53A
330
539
100
AcDbEntity
  8
BEMA_U_00DFUNG
 62
     7
100
AcDbVertex
100
AcDb2dVertex
 10
94.92511386440674
 20
216.223673557055
 30
0.0
  0
VERTEX
  5
53B
330
539
100
AcDbEntity
  8
BEMA_U_00DFUNG
 62
     7
100
AcDbVertex
100
AcDb2dVertex
 10
94.92511386440674
 20
213.495290224404
 30
0.0
  0
SEQEND
  5
53C
330
539
100
AcDbEntity
  8
BEMA_U_00DFUNG
 62
     7
  0
POLYLINE
  5
53D
330
1F
100
AcDbEntity
  8
BEMA_U_00DFUNG
 62
     7
100
AcDb2dPolyline
 66
     1
 10
0.0
 20
0.0
 30
0.0
  0
VERTEX
  5
53E
330
53D
100
AcDbEntity
  8
BEMA_U_00DFUNG
 62
     7
100
AcDbVertex
100
AcDb2dVertex
 10
94.97591386439412
 20
216.223673557055
 30
0.0
  0
VERTEX
  5
53F
330
53D
100
AcDbEntity
  8
BEMA_U_00DFUNG
 62
     7
100
AcDbVertex
100
AcDb2dVertex
 10
94.97591386439412
 20
213.1097041133893
 30
0.0
  0
SEQEND
  5
540
330
53D
100
AcDbEntity
  8
BEMA_U_00DFUNG
 62
     7
  0
POLYLINE
  5
541
330
1F
100
AcDbEntity
  8
BEMA_U_00DFUNG
 62
     7
100
AcDb2dPolyline
 66
     1
 10
0.0
 20
0.0
 30
0.0
  0
VERTEX
  5
542
330
541
100
AcDbEntity
  8
BEMA_U_00DFUNG
 62
     7
100
AcDbVertex
100
AcDb2dVertex
 10
95.0267138643815
 20
216.223673557055
 30
0.0
  0
VERTEX
  5
543
330
541
100
AcDbEntity
  8
BEMA_U_00DFUNG
 62
     7
100
AcDbVertex
100
AcDb2dVertex
 10
95.0267138643815
 20
212.7234124468192
 30
0.0
  0
SEQEND
  5
544
330
541
100
AcDbEntity
  8
BEMA_U_00DFUNG
 62
     7
  0
POLYLINE
  5
545
330
1F
100
AcDbEntity
  8
BEMA_U_00DFUNG
 62
     7
100
AcDb2dPolyline
 66
     1
 10
0.0
 20
0.0
 30
0.0
  0
VERTEX
  5
546
330
545
100
AcDbEntity
  8
BEMA_U_00DFUNG
 62
     7
100
AcDbVertex
100
AcDb2dVertex
 10
133.0265249659928
 20
241.248670773021
 30
0.0
  0
VERTEX
  5
547
330
545
100
AcDbEntity
  8
BEMA_U_00DFUNG
 62
     7
100
AcDbVertex
100
AcDb2dVertex
 10
83.026272200715
 20
241.248670773021
 30
0.0
  0
SEQEND
  5
548
330
545
100
AcDbEntity
  8
BEMA_U_00DFUNG
 62
     7
  0
POLYLINE
  5
549
330
1F
100
AcDbEntity
  8
BEMA_U_00DFUNG
 62
     7
100
AcDb2dPolyline
 66
     1
 10
0.0
 20
0.0
 30
0.0
  0
VERTEX
  5
54A
330
549
100
AcDbEntity
  8
BEMA_U_00DFUNG
 62
     7
100
AcDbVertex
100
AcDb2dVertex
 10
133.0265249659928
 20
209.248551336577
 30
0.0
  0
VERTEX
  5
54B
330
549
100
AcDbEntity
  8
BEMA_U_00DFUNG
 62
     7
100
AcDbVertex
100
AcDb2dVertex
 10
83.026272200715
 20
209.248551336577
 30
0.0
  0
SEQEND
  5
54C
330
549
100
AcDbEntity
  8
BEMA_U_00DFUNG
 62
     7
  0
POLYLINE
  5
54D
330
1F
100
AcDbEntity
  8
BEMA_U_00DFUNG
 62
     7
100
AcDb2dPolyline
 66
     1
 10
0.0
 20
0.0
 30
0.0
  0
VERTEX
  5
54E
330
54D
100
AcDbEntity
  8
BEMA_U_00DFUNG
 62
     7
100
AcDbVertex
100
AcDb2dVertex
 10
85.0261694224372
 20
241.248670773021
 30
0.0
  0
VERTEX
  5
54F
330
54D
100
AcDbEntity
  8
BEMA_U_00DFUNG
 62
     7
100
AcDbVertex
100
AcDb2dVertex
 10
85.0261694224372
 20
209.248551336577
 30
0.0
  0
SEQEND
  5
550
330
54D
100
AcDbEntity
  8
BEMA_U_00DFUNG
 62
     7
  0
POLYLINE
  5
551
330
1F
100
AcDbEntity
  8
BEMA_U_00DFUNG
 62
     7
100
AcDb2dPolyline
 66
     1
 10
0.0
 20
0.0
 30
0.0
  0
VERTEX
  5
552
330
551
100
AcDbEntity
  8
BEMA_U_00DFUNG
 62
     7
100
AcDbVertex
100
AcDb2dVertex
 10
85.0261694224372
 20
241.248670773021
 30
0.0
  0
VERTEX
  5
553
330
551
100
AcDbEntity
  8
BEMA_U_00DFUNG
 62
     7
100
AcDbVertex
100
AcDb2dVertex
 10
84.56544164477444
 20
237.7484096627851
 30
0.0
  0
VERTEX
  5
554
330
551
100
AcDbEntity
  8
BEMA_U_00DFUNG
 62
     7
100
AcDbVertex
100
AcDb2dVertex
 10
85.48724997787741
 20
237.7484096627851
 30
0.0
  0
VERTEX
  5
555
330
551
100
AcDbEntity
  8
BEMA_U_00DFUNG
 62
     7
100
AcDbVertex
100
AcDb2dVertex
 10
85.0261694224372
 20
241.248670773021
 30
0.0
  0
SEQEND
  5
556
330
551
100
AcDbEntity
  8
BEMA_U_00DFUNG
 62
     7
  0
POLYLINE
  5
557
330
1F
100
AcDbEntity
  8
BEMA_U_00DFUNG
 62
     7
100
AcDb2dPolyline
 66
     1
 10
0.0
 20
0.0
 30
0.0
  0
VERTEX
  5
558
330
557
100
AcDbEntity
  8
BEMA_U_00DFUNG
 62
     7
100
AcDbVertex
100
AcDb2dVertex
 10
84.5689694225514
 20
237.7484096627851
 30
0.0
  0
VERTEX
  5
559
330
557
100
AcDbEntity
  8
BEMA_U_00DFUNG
 62
     7
100
AcDbVertex
100
AcDb2dVertex
 10
84.5689694225514
 20
237.7755735516673
 30
0.0
  0
SEQEND
  5
55A
330
557
100
AcDbEntity
  8
BEMA_U_00DFUNG
 62
     7
  0
POLYLINE
  5
55B
330
1F
100
AcDbEntity
  8
BEMA_U_00DFUNG
 62
     7
100
AcDb2dPolyline
 66
     1
 10
0.0
 20
0.0
 30
0.0
  0
VERTEX
  5
55C
330
55B
100
AcDbEntity
  8
BEMA_U_00DFUNG
 62
     7
100
AcDbVertex
100
AcDb2dVertex
 10
84.5689694225514
 20
237.7484096627851
 30
0.0
  0
VERTEX
  5
55D
330
55B
100
AcDbEntity
  8
BEMA_U_00DFUNG
 62
     7
100
AcDbVertex
100
AcDb2dVertex
 10
84.5689694225514
 20
237.7755735516673
 30
0.0
  0
SEQEND
  5
55E
330
55B
100
AcDbEntity
  8
BEMA_U_00DFUNG
 62
     7
  0
POLYLINE
  5
55F
330
1F
100
AcDbEntity
  8
BEMA_U_00DFUNG
 62
     7
100
AcDb2dPolyline
 66
     1
 10
0.0
 20
0.0
 30
0.0
  0
VERTEX
  5
560
330
55F
100
AcDbEntity
  8
BEMA_U_00DFUNG
 62
     7
100
AcDbVertex
100
AcDb2dVertex
 10
84.6197694225388
 20
237.7484096627851
 30
0.0
  0
VERTEX
  5
561
330
55F
100
AcDbEntity
  8
BEMA_U_00DFUNG
 62
     7
100
AcDbVertex
100
AcDb2dVertex
 10
84.6197694225388
 20
238.1618652182371
 30
0.0
  0
SEQEND
  5
562
330
55F
100
AcDbEntity
  8
BEMA_U_00DFUNG
 62
     7
  0
POLYLINE
  5
563
330
1F
100
AcDbEntity
  8
BEMA_U_00DFUNG
 62
     7
100
AcDb2dPolyline
 66
     1
 10
0.0
 20
0.0
 30
0.0
  0
VERTEX
  5
564
330
563
100
AcDbEntity
  8
BEMA_U_00DFUNG
 62
     7
100
AcDbVertex
100
AcDb2dVertex
 10
84.67056942252617
 20
237.7484096627851
 30
0.0
  0
VERTEX
  5
565
330
563
100
AcDbEntity
  8
BEMA_U_00DFUNG
 62
     7
100
AcDbVertex
100
AcDb2dVertex
 10
84.67056942252617
 20
238.5474513292521
 30
0.0
  0
SEQEND
  5
566
330
563
100
AcDbEntity
  8
BEMA_U_00DFUNG
 62
     7
  0
POLYLINE
  5
567
330
1F
100
AcDbEntity
  8
BEMA_U_00DFUNG
 62
     7
100
AcDb2dPolyline
 66
     1
 10
0.0
 20
0.0
 30
0.0
  0
VERTEX
  5
568
330
567
100
AcDbEntity
  8
BEMA_U_00DFUNG
 62
     7
100
AcDbVertex
100
AcDb2dVertex
 10
84.721722200291
 20
237.7484096627851
 30
0.0
  0
VERTEX
  5
569
330
567
100
AcDbEntity
  8
BEMA_U_00DFUNG
 62
     7
100
AcDbVertex
100
AcDb2dVertex
 10
84.721722200291
 20
238.933742995822
 30
0.0
  0
SEQEND
  5
56A
330
567
100
AcDbEntity
  8
BEMA_U_00DFUNG
 62
     7
  0
POLYLINE
  5
56B
330
1F
100
AcDbEntity
  8
BEMA_U_00DFUNG
 62
     7
100
AcDb2dPolyline
 66
     1
 10
0.0
 20
0.0
 30
0.0
  0
VERTEX
  5
56C
330
56B
100
AcDbEntity
  8
BEMA_U_00DFUNG
 62
     7
100
AcDbVertex
100
AcDb2dVertex
 10
84.77252220027837
 20
237.7484096627851
 30
0.0
  0
VERTEX
  5
56D
330
56B
100
AcDbEntity
  8
BEMA_U_00DFUNG
 62
     7
100
AcDbVertex
100
AcDb2dVertex
 10
84.77252220027837
 20
239.3189763290592
 30
0.0
  0
SEQEND
  5
56E
330
56B
100
AcDbEntity
  8
BEMA_U_00DFUNG
 62
     7
  0
POLYLINE
  5
56F
330
1F
100
AcDbEntity
  8
BEMA_U_00DFUNG
 62
     7
100
AcDb2dPolyline
 66
     1
 10
0.0
 20
0.0
 30
0.0
  0
VERTEX
  5
570
330
56F
100
AcDbEntity
  8
BEMA_U_00DFUNG
 62
     7
100
AcDbVertex
100
AcDb2dVertex
 10
84.82332220026576
 20
237.7484096627851
 30
0.0
  0
VERTEX
  5
571
330
56F
100
AcDbEntity
  8
BEMA_U_00DFUNG
 62
     7
100
AcDbVertex
100
AcDb2dVertex
 10
84.82332220026576
 20
239.7052679956291
 30
0.0
  0
SEQEND
  5
572
330
56F
100
AcDbEntity
  8
BEMA_U_00DFUNG
 62
     7
  0
POLYLINE
  5
573
330
1F
100
AcDbEntity
  8
BEMA_U_00DFUNG
 62
     7
100
AcDb2dPolyline
 66
     1
 10
0.0
 20
0.0
 30
0.0
  0
VERTEX
  5
574
330
573
100
AcDbEntity
  8
BEMA_U_00DFUNG
 62
     7
100
AcDbVertex
100
AcDb2dVertex
 10
84.87412220025283
 20
237.7484096627851
 30
0.0
  0
VERTEX
  5
575
330
573
100
AcDbEntity
  8
BEMA_U_00DFUNG
 62
     7
100
AcDbVertex
100
AcDb2dVertex
 10
84.87412220025283
 20
240.090854106644
 30
0.0
  0
SEQEND
  5
576
330
573
100
AcDbEntity
  8
BEMA_U_00DFUNG
 62
     7
  0
POLYLINE
  5
577
330
1F
100
AcDbEntity
  8
BEMA_U_00DFUNG
 62
     7
100
AcDb2dPolyline
 66
     1
 10
0.0
 20
0.0
 30
0.0
  0
VERTEX
  5
578
330
577
100
AcDbEntity
  8
BEMA_U_00DFUNG
 62
     7
100
AcDbVertex
100
AcDb2dVertex
 10
84.92527497801797
 20
237.7484096627851
 30
0.0
  0
VERTEX
  5
579
330
577
100
AcDbEntity
  8
BEMA_U_00DFUNG
 62
     7
100
AcDbVertex
100
AcDb2dVertex
 10
84.92527497801797
 20
240.4771457732139
 30
0.0
  0
SEQEND
  5
57A
330
577
100
AcDbEntity
  8
BEMA_U_00DFUNG
 62
     7
  0
POLYLINE
  5
57B
330
1F
100
AcDbEntity
  8
BEMA_U_00DFUNG
 62
     7
100
AcDb2dPolyline
 66
     1
 10
0.0
 20
0.0
 30
0.0
  0
VERTEX
  5
57C
330
57B
100
AcDbEntity
  8
BEMA_U_00DFUNG
 62
     7
100
AcDbVertex
100
AcDb2dVertex
 10
84.97536942244983
 20
237.7484096627851
 30
0.0
  0
VERTEX
  5
57D
330
57B
100
AcDbEntity
  8
BEMA_U_00DFUNG
 62
     7
100
AcDbVertex
100
AcDb2dVertex
 10
84.97536942244983
 20
240.8623791064511
 30
0.0
  0
SEQEND
  5
57E
330
57B
100
AcDbEntity
  8
BEMA_U_00DFUNG
 62
     7
  0
POLYLINE
  5
57F
330
1F
100
AcDbEntity
  8
BEMA_U_00DFUNG
 62
     7
100
AcDb2dPolyline
 66
     1
 10
0.0
 20
0.0
 30
0.0
  0
VERTEX
  5
580
330
57F
100
AcDbEntity
  8
BEMA_U_00DFUNG
 62
     7
100
AcDbVertex
100
AcDb2dVertex
 10
85.0261694224372
 20
237.7484096627851
 30
0.0
  0
VERTEX
  5
581
330
57F
100
AcDbEntity
  8
BEMA_U_00DFUNG
 62
     7
100
AcDbVertex
100
AcDb2dVertex
 10
85.0261694224372
 20
241.248670773021
 30
0.0
  0
SEQEND
  5
582
330
57F
100
AcDbEntity
  8
BEMA_U_00DFUNG
 62
     7
  0
POLYLINE
  5
583
330
1F
100
AcDbEntity
  8
BEMA_U_00DFUNG
 62
     7
100
AcDb2dPolyline
 66
     1
 10
0.0
 20
0.0
 30
0.0
  0
VERTEX
  5
584
330
583
100
AcDbEntity
  8
BEMA_U_00DFUNG
 62
     7
100
AcDbVertex
100
AcDb2dVertex
 10
85.48336942232301
 20
237.7484096627851
 30
0.0
  0
VERTEX
  5
585
330
583
100
AcDbEntity
  8
BEMA_U_00DFUNG
 62
     7
100
AcDbVertex
100
AcDb2dVertex
 10
85.48336942232301
 20
237.7755735516673
 30
0.0
  0
SEQEND
  5
586
330
583
100
AcDbEntity
  8
BEMA_U_00DFUNG
 62
     7
  0
POLYLINE
  5
587
330
1F
100
AcDbEntity
  8
BEMA_U_00DFUNG
 62
     7
100
AcDb2dPolyline
 66
     1
 10
0.0
 20
0.0
 30
0.0
  0
VERTEX
  5
588
330
587
100
AcDbEntity
  8
BEMA_U_00DFUNG
 62
     7
100
AcDbVertex
100
AcDb2dVertex
 10
85.48336942232301
 20
237.7484096627851
 30
0.0
  0
VERTEX
  5
589
330
587
100
AcDbEntity
  8
BEMA_U_00DFUNG
 62
     7
100
AcDbVertex
100
AcDb2dVertex
 10
85.48336942232301
 20
237.7755735516673
 30
0.0
  0
SEQEND
  5
58A
330
587
100
AcDbEntity
  8
BEMA_U_00DFUNG
 62
     7
  0
POLYLINE
  5
58B
330
1F
100
AcDbEntity
  8
BEMA_U_00DFUNG
 62
     7
100
AcDb2dPolyline
 66
     1
 10
0.0
 20
0.0
 30
0.0
  0
VERTEX
  5
58C
330
58B
100
AcDbEntity
  8
BEMA_U_00DFUNG
 62
     7
100
AcDbVertex
100
AcDb2dVertex
 10
85.43292220011338
 20
237.7484096627851
 30
0.0
  0
VERTEX
  5
58D
330
58B
100
AcDbEntity
  8
BEMA_U_00DFUNG
 62
     7
100
AcDbVertex
100
AcDb2dVertex
 10
85.43292220011338
 20
238.1618652182371
 30
0.0
  0
SEQEND
  5
58E
330
58B
100
AcDbEntity
  8
BEMA_U_00DFUNG
 62
     7
  0
POLYLINE
  5
58F
330
1F
100
AcDbEntity
  8
BEMA_U_00DFUNG
 62
     7
100
AcDb2dPolyline
 66
     1
 10
0.0
 20
0.0
 30
0.0
  0
VERTEX
  5
590
330
58F
100
AcDbEntity
  8
BEMA_U_00DFUNG
 62
     7
100
AcDbVertex
100
AcDb2dVertex
 10
85.382122200126
 20
237.7484096627851
 30
0.0
  0
VERTEX
  5
591
330
58F
100
AcDbEntity
  8
BEMA_U_00DFUNG
 62
     7
100
AcDbVertex
100
AcDb2dVertex
 10
85.382122200126
 20
238.5474513292521
 30
0.0
  0
SEQEND
  5
592
330
58F
100
AcDbEntity
  8
BEMA_U_00DFUNG
 62
     7
  0
POLYLINE
  5
593
330
1F
100
AcDbEntity
  8
BEMA_U_00DFUNG
 62
     7
100
AcDb2dPolyline
 66
     1
 10
0.0
 20
0.0
 30
0.0
  0
VERTEX
  5
594
330
593
100
AcDbEntity
  8
BEMA_U_00DFUNG
 62
     7
100
AcDbVertex
100
AcDb2dVertex
 10
85.33132220013862
 20
237.7484096627851
 30
0.0
  0
VERTEX
  5
595
330
593
100
AcDbEntity
  8
BEMA_U_00DFUNG
 62
     7
100
AcDbVertex
100
AcDb2dVertex
 10
85.33132220013862
 20
238.933742995822
 30
0.0
  0
SEQEND
  5
596
330
593
100
AcDbEntity
  8
BEMA_U_00DFUNG
 62
     7
  0
POLYLINE
  5
597
330
1F
100
AcDbEntity
  8
BEMA_U_00DFUNG
 62
     7
100
AcDb2dPolyline
 66
     1
 10
0.0
 20
0.0
 30
0.0
  0
VERTEX
  5
598
330
597
100
AcDbEntity
  8
BEMA_U_00DFUNG
 62
     7
100
AcDbVertex
100
AcDb2dVertex
 10
85.28052220015124
 20
237.7484096627851
 30
0.0
  0
VERTEX
  5
599
330
597
100
AcDbEntity
  8
BEMA_U_00DFUNG
 62
     7
100
AcDbVertex
100
AcDb2dVertex
 10
85.28052220015124
 20
239.3189763290592
 30
0.0
  0
SEQEND
  5
59A
330
597
100
AcDbEntity
  8
BEMA_U_00DFUNG
 62
     7
  0
POLYLINE
  5
59B
330
1F
100
AcDbEntity
  8
BEMA_U_00DFUNG
 62
     7
100
AcDb2dPolyline
 66
     1
 10
0.0
 20
0.0
 30
0.0
  0
VERTEX
  5
59C
330
59B
100
AcDbEntity
  8
BEMA_U_00DFUNG
 62
     7
100
AcDbVertex
100
AcDb2dVertex
 10
85.22972220016418
 20
237.7484096627851
 30
0.0
  0
VERTEX
  5
59D
330
59B
100
AcDbEntity
  8
BEMA_U_00DFUNG
 62
     7
100
AcDbVertex
100
AcDb2dVertex
 10
85.22972220016418
 20
239.7052679956291
 30
0.0
  0
SEQEND
  5
59E
330
59B
100
AcDbEntity
  8
BEMA_U_00DFUNG
 62
     7
  0
POLYLINE
  5
59F
330
1F
100
AcDbEntity
  8
BEMA_U_00DFUNG
 62
     7
100
AcDb2dPolyline
 66
     1
 10
0.0
 20
0.0
 30
0.0
  0
VERTEX
  5
5A0
330
59F
100
AcDbEntity
  8
BEMA_U_00DFUNG
 62
     7
100
AcDbVertex
100
AcDb2dVertex
 10
85.17856942239904
 20
237.7484096627851
 30
0.0
  0
VERTEX
  5
5A1
330
59F
100
AcDbEntity
  8
BEMA_U_00DFUNG
 62
     7
100
AcDbVertex
100
AcDb2dVertex
 10
85.17856942239904
 20
240.090854106644
 30
0.0
  0
SEQEND
  5
5A2
330
59F
100
AcDbEntity
  8
BEMA_U_00DFUNG
 62
     7
  0
POLYLINE
  5
5A3
330
1F
100
AcDbEntity
  8
BEMA_U_00DFUNG
 62
     7
100
AcDb2dPolyline
 66
     1
 10
0.0
 20
0.0
 30
0.0
  0
VERTEX
  5
5A4
330
5A3
100
AcDbEntity
  8
BEMA_U_00DFUNG
 62
     7
100
AcDbVertex
100
AcDb2dVertex
 10
85.12776942241165
 20
237.7484096627851
 30
0.0
  0
VERTEX
  5
5A5
330
5A3
100
AcDbEntity
  8
BEMA_U_00DFUNG
 62
     7
100
AcDbVertex
100
AcDb2dVertex
 10
85.12776942241165
 20
240.4771457732139
 30
0.0
  0
SEQEND
  5
5A6
330
5A3
100
AcDbEntity
  8
BEMA_U_00DFUNG
 62
     7
  0
POLYLINE
  5
5A7
330
1F
100
AcDbEntity
  8
BEMA_U_00DFUNG
 62
     7
100
AcDb2dPolyline
 66
     1
 10
0.0
 20
0.0
 30
0.0
  0
VERTEX
  5
5A8
330
5A7
100
AcDbEntity
  8
BEMA_U_00DFUNG
 62
     7
100
AcDbVertex
100
AcDb2dVertex
 10
85.07696942242458
 20
237.7484096627851
 30
0.0
  0
VERTEX
  5
5A9
330
5A7
100
AcDbEntity
  8
BEMA_U_00DFUNG
 62
     7
100
AcDbVertex
100
AcDb2dVertex
 10
85.07696942242458
 20
240.8623791064511
 30
0.0
  0
SEQEND
  5
5AA
330
5A7
100
AcDbEntity
  8
BEMA_U_00DFUNG
 62
     7
  0
POLYLINE
  5
5AB
330
1F
100
AcDbEntity
  8
BEMA_U_00DFUNG
 62
     7
100
AcDb2dPolyline
 66
     1
 10
0.0
 20
0.0
 30
0.0
  0
VERTEX
  5
5AC
330
5AB
100
AcDbEntity
  8
BEMA_U_00DFUNG
 62
     7
100
AcDbVertex
100
AcDb2dVertex
 10
85.0261694224372
 20
237.7484096627851
 30
0.0
  0
VERTEX
  5
5AD
330
5AB
100
AcDbEntity
  8
BEMA_U_00DFUNG
 62
     7
100
AcDbVertex
100
AcDb2dVertex
 10
85.0261694224372
 20
241.248670773021
 30
0.0
  0
SEQEND
  5
5AE
330
5AB
100
AcDbEntity
  8
BEMA_U_00DFUNG
 62
     7
  0
POLYLINE
  5
5AF
330
1F
100
AcDbEntity
  8
BEMA_U_00DFUNG
 62
     7
100
AcDb2dPolyline
 66
     1
 10
0.0
 20
0.0
 30
0.0
  0
VERTEX
  5
5B0
330
5AF
100
AcDbEntity
  8
BEMA_U_00DFUNG
 62
     7
100
AcDbVertex
100
AcDb2dVertex
 10
85.0261694224372
 20
209.248551336577
 30
0.0
  0
VERTEX
  5
5B1
330
5AF
100
AcDbEntity
  8
BEMA_U_00DFUNG
 62
     7
100
AcDbVertex
100
AcDb2dVertex
 10
85.48724997787741
 20
212.7488124468128
 30
0.0
  0
VERTEX
  5
5B2
330
5AF
100
AcDbEntity
  8
BEMA_U_00DFUNG
 62
     7
100
AcDbVertex
100
AcDb2dVertex
 10
84.56544164477444
 20
212.7488124468128
 30
0.0
  0
VERTEX
  5
5B3
330
5AF
100
AcDbEntity
  8
BEMA_U_00DFUNG
 62
     7
100
AcDbVertex
100
AcDb2dVertex
 10
85.0261694224372
 20
209.248551336577
 30
0.0
  0
SEQEND
  5
5B4
330
5AF
100
AcDbEntity
  8
BEMA_U_00DFUNG
 62
     7
  0
POLYLINE
  5
5B5
330
1F
100
AcDbEntity
  8
BEMA_U_00DFUNG
 62
     7
100
AcDb2dPolyline
 66
     1
 10
0.0
 20
0.0
 30
0.0
  0
VERTEX
  5
5B6
330
5B5
100
AcDbEntity
  8
BEMA_U_00DFUNG
 62
     7
100
AcDbVertex
100
AcDb2dVertex
 10
85.48336942232301
 20
212.7488124468128
 30
0.0
  0
VERTEX
  5
5B7
330
5B5
100
AcDbEntity
  8
BEMA_U_00DFUNG
 62
     7
100
AcDbVertex
100
AcDb2dVertex
 10
85.48336942232301
 20
212.7216485579307
 30
0.0
  0
SEQEND
  5
5B8
330
5B5
100
AcDbEntity
  8
BEMA_U_00DFUNG
 62
     7
  0
POLYLINE
  5
5B9
330
1F
100
AcDbEntity
  8
BEMA_U_00DFUNG
 62
     7
100
AcDb2dPolyline
 66
     1
 10
0.0
 20
0.0
 30
0.0
  0
VERTEX
  5
5BA
330
5B9
100
AcDbEntity
  8
BEMA_U_00DFUNG
 62
     7
100
AcDbVertex
100
AcDb2dVertex
 10
85.48336942232301
 20
212.7488124468128
 30
0.0
  0
VERTEX
  5
5BB
330
5B9
100
AcDbEntity
  8
BEMA_U_00DFUNG
 62
     7
100
AcDbVertex
100
AcDb2dVertex
 10
85.48336942232301
 20
212.7216485579307
 30
0.0
  0
SEQEND
  5
5BC
330
5B9
100
AcDbEntity
  8
BEMA_U_00DFUNG
 62
     7
  0
POLYLINE
  5
5BD
330
1F
100
AcDbEntity
  8
BEMA_U_00DFUNG
 62
     7
100
AcDb2dPolyline
 66
     1
 10
0.0
 20
0.0
 30
0.0
  0
VERTEX
  5
5BE
330
5BD
100
AcDbEntity
  8
BEMA_U_00DFUNG
 62
     7
100
AcDbVertex
100
AcDb2dVertex
 10
85.43292220011338
 20
212.7488124468128
 30
0.0
  0
VERTEX
  5
5BF
330
5BD
100
AcDbEntity
  8
BEMA_U_00DFUNG
 62
     7
100
AcDbVertex
100
AcDb2dVertex
 10
85.43292220011338
 20
212.3353568913608
 30
0.0
  0
SEQEND
  5
5C0
330
5BD
100
AcDbEntity
  8
BEMA_U_00DFUNG
 62
     7
  0
POLYLINE
  5
5C1
330
1F
100
AcDbEntity
  8
BEMA_U_00DFUNG
 62
     7
100
AcDb2dPolyline
 66
     1
 10
0.0
 20
0.0
 30
0.0
  0
VERTEX
  5
5C2
330
5C1
100
AcDbEntity
  8
BEMA_U_00DFUNG
 62
     7
100
AcDbVertex
100
AcDb2dVertex
 10
85.382122200126
 20
212.7488124468128
 30
0.0
  0
VERTEX
  5
5C3
330
5C1
100
AcDbEntity
  8
BEMA_U_00DFUNG
 62
     7
100
AcDbVertex
100
AcDb2dVertex
 10
85.382122200126
 20
211.9497707803458
 30
0.0
  0
SEQEND
  5
5C4
330
5C1
100
AcDbEntity
  8
BEMA_U_00DFUNG
 62
     7
  0
POLYLINE
  5
5C5
330
1F
100
AcDbEntity
  8
BEMA_U_00DFUNG
 62
     7
100
AcDb2dPolyline
 66
     1
 10
0.0
 20
0.0
 30
0.0
  0
VERTEX
  5
5C6
330
5C5
100
AcDbEntity
  8
BEMA_U_00DFUNG
 62
     7
100
AcDbVertex
100
AcDb2dVertex
 10
85.33132220013862
 20
212.7488124468128
 30
0.0
  0
VERTEX
  5
5C7
330
5C5
100
AcDbEntity
  8
BEMA_U_00DFUNG
 62
     7
100
AcDbVertex
100
AcDb2dVertex
 10
85.33132220013862
 20
211.563479113776
 30
0.0
  0
SEQEND
  5
5C8
330
5C5
100
AcDbEntity
  8
BEMA_U_00DFUNG
 62
     7
  0
POLYLINE
  5
5C9
330
1F
100
AcDbEntity
  8
BEMA_U_00DFUNG
 62
     7
100
AcDb2dPolyline
 66
     1
 10
0.0
 20
0.0
 30
0.0
  0
VERTEX
  5
5CA
330
5C9
100
AcDbEntity
  8
BEMA_U_00DFUNG
 62
     7
100
AcDbVertex
100
AcDb2dVertex
 10
85.28052220015124
 20
212.7488124468128
 30
0.0
  0
VERTEX
  5
5CB
330
5C9
100
AcDbEntity
  8
BEMA_U_00DFUNG
 62
     7
100
AcDbVertex
100
AcDb2dVertex
 10
85.28052220015124
 20
211.1782457805387
 30
0.0
  0
SEQEND
  5
5CC
330
5C9
100
AcDbEntity
  8
BEMA_U_00DFUNG
 62
     7
  0
POLYLINE
  5
5CD
330
1F
100
AcDbEntity
  8
BEMA_U_00DFUNG
 62
     7
100
AcDb2dPolyline
 66
     1
 10
0.0
 20
0.0
 30
0.0
  0
VERTEX
  5
5CE
330
5CD
100
AcDbEntity
  8
BEMA_U_00DFUNG
 62
     7
100
AcDbVertex
100
AcDb2dVertex
 10
85.22972220016418
 20
212.7488124468128
 30
0.0
  0
VERTEX
  5
5CF
330
5CD
100
AcDbEntity
  8
BEMA_U_00DFUNG
 62
     7
100
AcDbVertex
100
AcDb2dVertex
 10
85.22972220016418
 20
210.7919541139689
 30
0.0
  0
SEQEND
  5
5D0
330
5CD
100
AcDbEntity
  8
BEMA_U_00DFUNG
 62
     7
  0
POLYLINE
  5
5D1
330
1F
100
AcDbEntity
  8
BEMA_U_00DFUNG
 62
     7
100
AcDb2dPolyline
 66
     1
 10
0.0
 20
0.0
 30
0.0
  0
VERTEX
  5
5D2
330
5D1
100
AcDbEntity
  8
BEMA_U_00DFUNG
 62
     7
100
AcDbVertex
100
AcDb2dVertex
 10
85.17856942239904
 20
212.7488124468128
 30
0.0
  0
VERTEX
  5
5D3
330
5D1
100
AcDbEntity
  8
BEMA_U_00DFUNG
 62
     7
100
AcDbVertex
100
AcDb2dVertex
 10
85.17856942239904
 20
210.4063680029539
 30
0.0
  0
SEQEND
  5
5D4
330
5D1
100
AcDbEntity
  8
BEMA_U_00DFUNG
 62
     7
  0
POLYLINE
  5
5D5
330
1F
100
AcDbEntity
  8
BEMA_U_00DFUNG
 62
     7
100
AcDb2dPolyline
 66
     1
 10
0.0
 20
0.0
 30
0.0
  0
VERTEX
  5
5D6
330
5D5
100
AcDbEntity
  8
BEMA_U_00DFUNG
 62
     7
100
AcDbVertex
100
AcDb2dVertex
 10
85.12776942241165
 20
212.7488124468128
 30
0.0
  0
VERTEX
  5
5D7
330
5D5
100
AcDbEntity
  8
BEMA_U_00DFUNG
 62
     7
100
AcDbVertex
100
AcDb2dVertex
 10
85.12776942241165
 20
210.020076336384
 30
0.0
  0
SEQEND
  5
5D8
330
5D5
100
AcDbEntity
  8
BEMA_U_00DFUNG
 62
     7
  0
POLYLINE
  5
5D9
330
1F
100
AcDbEntity
  8
BEMA_U_00DFUNG
 62
     7
100
AcDb2dPolyline
 66
     1
 10
0.0
 20
0.0
 30
0.0
  0
VERTEX
  5
5DA
330
5D9
100
AcDbEntity
  8
BEMA_U_00DFUNG
 62
     7
100
AcDbVertex
100
AcDb2dVertex
 10
85.07696942242458
 20
212.7488124468128
 30
0.0
  0
VERTEX
  5
5DB
330
5D9
100
AcDbEntity
  8
BEMA_U_00DFUNG
 62
     7
100
AcDbVertex
100
AcDb2dVertex
 10
85.07696942242458
 20
209.6344902253691
 30
0.0
  0
SEQEND
  5
5DC
330
5D9
100
AcDbEntity
  8
BEMA_U_00DFUNG
 62
     7
  0
POLYLINE
  5
5DD
330
1F
100
AcDbEntity
  8
BEMA_U_00DFUNG
 62
     7
100
AcDb2dPolyline
 66
     1
 10
0.0
 20
0.0
 30
0.0
  0
VERTEX
  5
5DE
330
5DD
100
AcDbEntity
  8
BEMA_U_00DFUNG
 62
     7
100
AcDbVertex
100
AcDb2dVertex
 10
85.0261694224372
 20
212.7488124468128
 30
0.0
  0
VERTEX
  5
5DF
330
5DD
100
AcDbEntity
  8
BEMA_U_00DFUNG
 62
     7
100
AcDbVertex
100
AcDb2dVertex
 10
85.0261694224372
 20
209.248551336577
 30
0.0
  0
SEQEND
  5
5E0
330
5DD
100
AcDbEntity
  8
BEMA_U_00DFUNG
 62
     7
  0
POLYLINE
  5
5E1
330
1F
100
AcDbEntity
  8
BEMA_U_00DFUNG
 62
     7
100
AcDb2dPolyline
 66
     1
 10
0.0
 20
0.0
 30
0.0
  0
VERTEX
  5
5E2
330
5E1
100
AcDbEntity
  8
BEMA_U_00DFUNG
 62
     7
100
AcDbVertex
100
AcDb2dVertex
 10
84.5689694225514
 20
212.7488124468128
 30
0.0
  0
VERTEX
  5
5E3
330
5E1
100
AcDbEntity
  8
BEMA_U_00DFUNG
 62
     7
100
AcDbVertex
100
AcDb2dVertex
 10
84.5689694225514
 20
212.7216485579307
 30
0.0
  0
SEQEND
  5
5E4
330
5E1
100
AcDbEntity
  8
BEMA_U_00DFUNG
 62
     7
  0
POLYLINE
  5
5E5
330
1F
100
AcDbEntity
  8
BEMA_U_00DFUNG
 62
     7
100
AcDb2dPolyline
 66
     1
 10
0.0
 20
0.0
 30
0.0
  0
VERTEX
  5
5E6
330
5E5
100
AcDbEntity
  8
BEMA_U_00DFUNG
 62
     7
100
AcDbVertex
100
AcDb2dVertex
 10
84.5689694225514
 20
212.7488124468128
 30
0.0
  0
VERTEX
  5
5E7
330
5E5
100
AcDbEntity
  8
BEMA_U_00DFUNG
 62
     7
100
AcDbVertex
100
AcDb2dVertex
 10
84.5689694225514
 20
212.7216485579307
 30
0.0
  0
SEQEND
  5
5E8
330
5E5
100
AcDbEntity
  8
BEMA_U_00DFUNG
 62
     7
  0
POLYLINE
  5
5E9
330
1F
100
AcDbEntity
  8
BEMA_U_00DFUNG
 62
     7
100
AcDb2dPolyline
 66
     1
 10
0.0
 20
0.0
 30
0.0
  0
VERTEX
  5
5EA
330
5E9
100
AcDbEntity
  8
BEMA_U_00DFUNG
 62
     7
100
AcDbVertex
100
AcDb2dVertex
 10
84.6197694225388
 20
212.7488124468128
 30
0.0
  0
VERTEX
  5
5EB
330
5E9
100
AcDbEntity
  8
BEMA_U_00DFUNG
 62
     7
100
AcDbVertex
100
AcDb2dVertex
 10
84.6197694225388
 20
212.3353568913608
 30
0.0
  0
SEQEND
  5
5EC
330
5E9
100
AcDbEntity
  8
BEMA_U_00DFUNG
 62
     7
  0
POLYLINE
  5
5ED
330
1F
100
AcDbEntity
  8
BEMA_U_00DFUNG
 62
     7
100
AcDb2dPolyline
 66
     1
 10
0.0
 20
0.0
 30
0.0
  0
VERTEX
  5
5EE
330
5ED
100
AcDbEntity
  8
BEMA_U_00DFUNG
 62
     7
100
AcDbVertex
100
AcDb2dVertex
 10
84.67056942252617
 20
212.7488124468128
 30
0.0
  0
VERTEX
  5
5EF
330
5ED
100
AcDbEntity
  8
BEMA_U_00DFUNG
 62
     7
100
AcDbVertex
100
AcDb2dVertex
 10
84.67056942252617
 20
211.9497707803458
 30
0.0
  0
SEQEND
  5
5F0
330
5ED
100
AcDbEntity
  8
BEMA_U_00DFUNG
 62
     7
  0
POLYLINE
  5
5F1
330
1F
100
AcDbEntity
  8
BEMA_U_00DFUNG
 62
     7
100
AcDb2dPolyline
 66
     1
 10
0.0
 20
0.0
 30
0.0
  0
VERTEX
  5
5F2
330
5F1
100
AcDbEntity
  8
BEMA_U_00DFUNG
 62
     7
100
AcDbVertex
100
AcDb2dVertex
 10
84.721722200291
 20
212.7488124468128
 30
0.0
  0
VERTEX
  5
5F3
330
5F1
100
AcDbEntity
  8
BEMA_U_00DFUNG
 62
     7
100
AcDbVertex
100
AcDb2dVertex
 10
84.721722200291
 20
211.563479113776
 30
0.0
  0
SEQEND
  5
5F4
330
5F1
100
AcDbEntity
  8
BEMA_U_00DFUNG
 62
     7
  0
POLYLINE
  5
5F5
330
1F
100
AcDbEntity
  8
BEMA_U_00DFUNG
 62
     7
100
AcDb2dPolyline
 66
     1
 10
0.0
 20
0.0
 30
0.0
  0
VERTEX
  5
5F6
330
5F5
100
AcDbEntity
  8
BEMA_U_00DFUNG
 62
     7
100
AcDbVertex
100
AcDb2dVertex
 10
84.77252220027837
 20
212.7488124468128
 30
0.0
  0
VERTEX
  5
5F7
330
5F5
100
AcDbEntity
  8
BEMA_U_00DFUNG
 62
     7
100
AcDbVertex
100
AcDb2dVertex
 10
84.77252220027837
 20
211.1782457805387
 30
0.0
  0
SEQEND
  5
5F8
330
5F5
100
AcDbEntity
  8
BEMA_U_00DFUNG
 62
     7
  0
POLYLINE
  5
5F9
330
1F
100
AcDbEntity
  8
BEMA_U_00DFUNG
 62
     7
100
AcDb2dPolyline
 66
     1
 10
0.0
 20
0.0
 30
0.0
  0
VERTEX
  5
5FA
330
5F9
100
AcDbEntity
  8
BEMA_U_00DFUNG
 62
     7
100
AcDbVertex
100
AcDb2dVertex
 10
84.82332220026576
 20
212.7488124468128
 30
0.0
  0
VERTEX
  5
5FB
330
5F9
100
AcDbEntity
  8
BEMA_U_00DFUNG
 62
     7
100
AcDbVertex
100
AcDb2dVertex
 10
84.82332220026576
 20
210.7919541139689
 30
0.0
  0
SEQEND
  5
5FC
330
5F9
100
AcDbEntity
  8
BEMA_U_00DFUNG
 62
     7
  0
POLYLINE
  5
5FD
330
1F
100
AcDbEntity
  8
BEMA_U_00DFUNG
 62
     7
100
AcDb2dPolyline
 66
     1
 10
0.0
 20
0.0
 30
0.0
  0
VERTEX
  5
5FE
330
5FD
100
AcDbEntity
  8
BEMA_U_00DFUNG
 62
     7
100
AcDbVertex
100
AcDb2dVertex
 10
84.87412220025283
 20
212.7488124468128
 30
0.0
  0
VERTEX
  5
5FF
330
5FD
100
AcDbEntity
  8
BEMA_U_00DFUNG
 62
     7
100
AcDbVertex
100
AcDb2dVertex
 10
84.87412220025283
 20
210.4063680029539
 30
0.0
  0
SEQEND
  5
600
330
5FD
100
AcDbEntity
  8
BEMA_U_00DFUNG
 62
     7
  0
POLYLINE
  5
601
330
1F
100
AcDbEntity
  8
BEMA_U_00DFUNG
 62
     7
100
AcDb2dPolyline
 66
     1
 10
0.0
 20
0.0
 30
0.0
  0
VERTEX
  5
602
330
601
100
AcDbEntity
  8
BEMA_U_00DFUNG
 62
     7
100
AcDbVertex
100
AcDb2dVertex
 10
84.92527497801797
 20
212.7488124468128
 30
0.0
  0
VERTEX
  5
603
330
601
100
AcDbEntity
  8
BEMA_U_00DFUNG
 62
     7
100
AcDbVertex
100
AcDb2dVertex
 10
84.92527497801797
 20
210.020076336384
 30
0.0
  0
SEQEND
  5
604
330
601
100
AcDbEntity
  8
BEMA_U_00DFUNG
 62
     7
  0
POLYLINE
  5
605
330
1F
100
AcDbEntity
  8
BEMA_U_00DFUNG
 62
     7
100
AcDb2dPolyline
 66
     1
 10
0.0
 20
0.0
 30
0.0
  0
VERTEX
  5
606
330
605
100
AcDbEntity
  8
BEMA_U_00DFUNG
 62
     7
100
AcDbVertex
100
AcDb2dVertex
 10
84.97536942244983
 20
212.7488124468128
 30
0.0
  0
VERTEX
  5
607
330
605
100
AcDbEntity
  8
BEMA_U_00DFUNG
 62
     7
100
AcDbVertex
100
AcDb2dVertex
 10
84.97536942244983
 20
209.6344902253691
 30
0.0
  0
SEQEND
  5
608
330
605
100
AcDbEntity
  8
BEMA_U_00DFUNG
 62
     7
  0
POLYLINE
  5
609
330
1F
100
AcDbEntity
  8
BEMA_U_00DFUNG
 62
     7
100
AcDb2dPolyline
 66
     1
 10
0.0
 20
0.0
 30
0.0
  0
VERTEX
  5
60A
330
609
100
AcDbEntity
  8
BEMA_U_00DFUNG
 62
     7
100
AcDbVertex
100
AcDb2dVertex
 10
85.0261694224372
 20
212.7488124468128
 30
0.0
  0
VERTEX
  5
60B
330
609
100
AcDbEntity
  8
BEMA_U_00DFUNG
 62
     7
100
AcDbVertex
100
AcDb2dVertex
 10
85.0261694224372
 20
209.248551336577
 30
0.0
  0
SEQEND
  5
60C
330
609
100
AcDbEntity
  8
BEMA_U_00DFUNG
 62
     7
  0
POLYLINE
  5
60D
330
1F
100
AcDbEntity
  8
BEMA_U_00DFUNG
 62
     7
100
AcDb2dPolyline
 66
     1
 10
0.0
 20
0.0
 30
0.0
  0
VERTEX
  5
60E
330
60D
100
AcDbEntity
  8
BEMA_U_00DFUNG
 62
     7
100
AcDbVertex
100
AcDb2dVertex
 10
155.0268055160481
 20
241.248670773021
 30
0.0
  0
VERTEX
  5
60F
330
60D
100
AcDbEntity
  8
BEMA_U_00DFUNG
 62
     7
100
AcDbVertex
100
AcDb2dVertex
 10
168.0263138461316
 20
241.248670773021
 30
0.0
  0
SEQEND
  5
610
330
60D
100
AcDbEntity
  8
BEMA_U_00DFUNG
 62
     7
  0
POLYLINE
  5
611
330
1F
100
AcDbEntity
  8
BEMA_U_00DFUNG
 62
     7
100
AcDb2dPolyline
 66
     1
 10
0.0
 20
0.0
 30
0.0
  0
VERTEX
  5
612
330
611
100
AcDbEntity
  8
BEMA_U_00DFUNG
 62
     7
100
AcDbVertex
100
AcDb2dVertex
 10
155.0268055160481
 20
209.248551336577
 30
0.0
  0
VERTEX
  5
613
330
611
100
AcDbEntity
  8
BEMA_U_00DFUNG
 62
     7
100
AcDbVertex
100
AcDb2dVertex
 10
168.0263138461316
 20
209.248551336577
 30
0.0
  0
SEQEND
  5
614
330
611
100
AcDbEntity
  8
BEMA_U_00DFUNG
 62
     7
  0
POLYLINE
  5
615
330
1F
100
AcDbEntity
  8
BEMA_U_00DFUNG
 62
     7
100
AcDb2dPolyline
 66
     1
 10
0.0
 20
0.0
 30
0.0
  0
VERTEX
  5
616
330
615
100
AcDbEntity
  8
BEMA_U_00DFUNG
 62
     7
100
AcDbVertex
100
AcDb2dVertex
 10
166.0267694021871
 20
241.248670773021
 30
0.0
  0
VERTEX
  5
617
330
615
100
AcDbEntity
  8
BEMA_U_00DFUNG
 62
     7
100
AcDbVertex
100
AcDb2dVertex
 10
166.0267694021871
 20
209.248551336577
 30
0.0
  0
SEQEND
  5
618
330
615
100
AcDbEntity
  8
BEMA_U_00DFUNG
 62
     7
  0
POLYLINE
  5
619
330
1F
100
AcDbEntity
  8
BEMA_U_00DFUNG
 62
     7
100
AcDb2dPolyline
 66
     1
 10
0.0
 20
0.0
 30
0.0
  0
VERTEX
  5
61A
330
619
100
AcDbEntity
  8
BEMA_U_00DFUNG
 62
     7
100
AcDbVertex
100
AcDb2dVertex
 10
166.0267694021871
 20
241.248670773021
 30
0.0
  0
VERTEX
  5
61B
330
619
100
AcDbEntity
  8
BEMA_U_00DFUNG
 62
     7
100
AcDbVertex
100
AcDb2dVertex
 10
165.5656888467466
 20
237.7484096627851
 30
0.0
  0
VERTEX
  5
61C
330
619
100
AcDbEntity
  8
BEMA_U_00DFUNG
 62
     7
100
AcDbVertex
100
AcDb2dVertex
 10
166.4874971798496
 20
237.7484096627851
 30
0.0
  0
VERTEX
  5
61D
330
619
100
AcDbEntity
  8
BEMA_U_00DFUNG
 62
     7
100
AcDbVertex
100
AcDb2dVertex
 10
166.0267694021871
 20
241.248670773021
 30
0.0
  0
SEQEND
  5
61E
330
619
100
AcDbEntity
  8
BEMA_U_00DFUNG
 62
     7
  0
POLYLINE
  5
61F
330
1F
100
AcDbEntity
  8
BEMA_U_00DFUNG
 62
     7
100
AcDb2dPolyline
 66
     1
 10
0.0
 20
0.0
 30
0.0
  0
VERTEX
  5
620
330
61F
100
AcDbEntity
  8
BEMA_U_00DFUNG
 62
     7
100
AcDbVertex
100
AcDb2dVertex
 10
165.5692166245236
 20
237.7484096627851
 30
0.0
  0
VERTEX
  5
621
330
61F
100
AcDbEntity
  8
BEMA_U_00DFUNG
 62
     7
100
AcDbVertex
100
AcDb2dVertex
 10
165.5692166245236
 20
237.7755735516673
 30
0.0
  0
SEQEND
  5
622
330
61F
100
AcDbEntity
  8
BEMA_U_00DFUNG
 62
     7
  0
POLYLINE
  5
623
330
1F
100
AcDbEntity
  8
BEMA_U_00DFUNG
 62
     7
100
AcDb2dPolyline
 66
     1
 10
0.0
 20
0.0
 30
0.0
  0
VERTEX
  5
624
330
623
100
AcDbEntity
  8
BEMA_U_00DFUNG
 62
     7
100
AcDbVertex
100
AcDb2dVertex
 10
165.5692166245236
 20
237.7484096627851
 30
0.0
  0
VERTEX
  5
625
330
623
100
AcDbEntity
  8
BEMA_U_00DFUNG
 62
     7
100
AcDbVertex
100
AcDb2dVertex
 10
165.5692166245236
 20
237.7755735516673
 30
0.0
  0
SEQEND
  5
626
330
623
100
AcDbEntity
  8
BEMA_U_00DFUNG
 62
     7
  0
POLYLINE
  5
627
330
1F
100
AcDbEntity
  8
BEMA_U_00DFUNG
 62
     7
100
AcDb2dPolyline
 66
     1
 10
0.0
 20
0.0
 30
0.0
  0
VERTEX
  5
628
330
627
100
AcDbEntity
  8
BEMA_U_00DFUNG
 62
     7
100
AcDbVertex
100
AcDb2dVertex
 10
165.620016624511
 20
237.7484096627851
 30
0.0
  0
VERTEX
  5
629
330
627
100
AcDbEntity
  8
BEMA_U_00DFUNG
 62
     7
100
AcDbVertex
100
AcDb2dVertex
 10
165.620016624511
 20
238.1618652182371
 30
0.0
  0
SEQEND
  5
62A
330
627
100
AcDbEntity
  8
BEMA_U_00DFUNG
 62
     7
  0
POLYLINE
  5
62B
330
1F
100
AcDbEntity
  8
BEMA_U_00DFUNG
 62
     7
100
AcDb2dPolyline
 66
     1
 10
0.0
 20
0.0
 30
0.0
  0
VERTEX
  5
62C
330
62B
100
AcDbEntity
  8
BEMA_U_00DFUNG
 62
     7
100
AcDbVertex
100
AcDb2dVertex
 10
165.6708166244983
 20
237.7484096627851
 30
0.0
  0
VERTEX
  5
62D
330
62B
100
AcDbEntity
  8
BEMA_U_00DFUNG
 62
     7
100
AcDbVertex
100
AcDb2dVertex
 10
165.6708166244983
 20
238.5474513292521
 30
0.0
  0
SEQEND
  5
62E
330
62B
100
AcDbEntity
  8
BEMA_U_00DFUNG
 62
     7
  0
POLYLINE
  5
62F
330
1F
100
AcDbEntity
  8
BEMA_U_00DFUNG
 62
     7
100
AcDb2dPolyline
 66
     1
 10
0.0
 20
0.0
 30
0.0
  0
VERTEX
  5
630
330
62F
100
AcDbEntity
  8
BEMA_U_00DFUNG
 62
     7
100
AcDbVertex
100
AcDb2dVertex
 10
165.7216166244854
 20
237.7484096627851
 30
0.0
  0
VERTEX
  5
631
330
62F
100
AcDbEntity
  8
BEMA_U_00DFUNG
 62
     7
100
AcDbVertex
100
AcDb2dVertex
 10
165.7216166244854
 20
238.933742995822
 30
0.0
  0
SEQEND
  5
632
330
62F
100
AcDbEntity
  8
BEMA_U_00DFUNG
 62
     7
  0
POLYLINE
  5
633
330
1F
100
AcDbEntity
  8
BEMA_U_00DFUNG
 62
     7
100
AcDb2dPolyline
 66
     1
 10
0.0
 20
0.0
 30
0.0
  0
VERTEX
  5
634
330
633
100
AcDbEntity
  8
BEMA_U_00DFUNG
 62
     7
100
AcDbVertex
100
AcDb2dVertex
 10
165.7724166244728
 20
237.7484096627851
 30
0.0
  0
VERTEX
  5
635
330
633
100
AcDbEntity
  8
BEMA_U_00DFUNG
 62
     7
100
AcDbVertex
100
AcDb2dVertex
 10
165.7724166244728
 20
239.3189763290592
 30
0.0
  0
SEQEND
  5
636
330
633
100
AcDbEntity
  8
BEMA_U_00DFUNG
 62
     7
  0
POLYLINE
  5
637
330
1F
100
AcDbEntity
  8
BEMA_U_00DFUNG
 62
     7
100
AcDb2dPolyline
 66
     1
 10
0.0
 20
0.0
 30
0.0
  0
VERTEX
  5
638
330
637
100
AcDbEntity
  8
BEMA_U_00DFUNG
 62
     7
100
AcDbVertex
100
AcDb2dVertex
 10
165.8232166244601
 20
237.7484096627851
 30
0.0
  0
VERTEX
  5
639
330
637
100
AcDbEntity
  8
BEMA_U_00DFUNG
 62
     7
100
AcDbVertex
100
AcDb2dVertex
 10
165.8232166244601
 20
239.7052679956291
 30
0.0
  0
SEQEND
  5
63A
330
637
100
AcDbEntity
  8
BEMA_U_00DFUNG
 62
     7
  0
POLYLINE
  5
63B
330
1F
100
AcDbEntity
  8
BEMA_U_00DFUNG
 62
     7
100
AcDb2dPolyline
 66
     1
 10
0.0
 20
0.0
 30
0.0
  0
VERTEX
  5
63C
330
63B
100
AcDbEntity
  8
BEMA_U_00DFUNG
 62
     7
100
AcDbVertex
100
AcDb2dVertex
 10
165.8740166244475
 20
237.7484096627851
 30
0.0
  0
VERTEX
  5
63D
330
63B
100
AcDbEntity
  8
BEMA_U_00DFUNG
 62
     7
100
AcDbVertex
100
AcDb2dVertex
 10
165.8740166244475
 20
240.090854106644
 30
0.0
  0
SEQEND
  5
63E
330
63B
100
AcDbEntity
  8
BEMA_U_00DFUNG
 62
     7
  0
POLYLINE
  5
63F
330
1F
100
AcDbEntity
  8
BEMA_U_00DFUNG
 62
     7
100
AcDb2dPolyline
 66
     1
 10
0.0
 20
0.0
 30
0.0
  0
VERTEX
  5
640
330
63F
100
AcDbEntity
  8
BEMA_U_00DFUNG
 62
     7
100
AcDbVertex
100
AcDb2dVertex
 10
165.9248166244346
 20
237.7484096627851
 30
0.0
  0
VERTEX
  5
641
330
63F
100
AcDbEntity
  8
BEMA_U_00DFUNG
 62
     7
100
AcDbVertex
100
AcDb2dVertex
 10
165.9248166244346
 20
240.4771457732139
 30
0.0
  0
SEQEND
  5
642
330
63F
100
AcDbEntity
  8
BEMA_U_00DFUNG
 62
     7
  0
POLYLINE
  5
643
330
1F
100
AcDbEntity
  8
BEMA_U_00DFUNG
 62
     7
100
AcDb2dPolyline
 66
     1
 10
0.0
 20
0.0
 30
0.0
  0
VERTEX
  5
644
330
643
100
AcDbEntity
  8
BEMA_U_00DFUNG
 62
     7
100
AcDbVertex
100
AcDb2dVertex
 10
165.9759694021998
 20
237.7484096627851
 30
0.0
  0
VERTEX
  5
645
330
643
100
AcDbEntity
  8
BEMA_U_00DFUNG
 62
     7
100
AcDbVertex
100
AcDb2dVertex
 10
165.9759694021998
 20
240.8623791064511
 30
0.0
  0
SEQEND
  5
646
330
643
100
AcDbEntity
  8
BEMA_U_00DFUNG
 62
     7
  0
POLYLINE
  5
647
330
1F
100
AcDbEntity
  8
BEMA_U_00DFUNG
 62
     7
100
AcDb2dPolyline
 66
     1
 10
0.0
 20
0.0
 30
0.0
  0
VERTEX
  5
648
330
647
100
AcDbEntity
  8
BEMA_U_00DFUNG
 62
     7
100
AcDbVertex
100
AcDb2dVertex
 10
166.0267694021871
 20
237.7484096627851
 30
0.0
  0
VERTEX
  5
649
330
647
100
AcDbEntity
  8
BEMA_U_00DFUNG
 62
     7
100
AcDbVertex
100
AcDb2dVertex
 10
166.0267694021871
 20
241.248670773021
 30
0.0
  0
SEQEND
  5
64A
330
647
100
AcDbEntity
  8
BEMA_U_00DFUNG
 62
     7
  0
POLYLINE
  5
64B
330
1F
100
AcDbEntity
  8
BEMA_U_00DFUNG
 62
     7
100
AcDb2dPolyline
 66
     1
 10
0.0
 20
0.0
 30
0.0
  0
VERTEX
  5
64C
330
64B
100
AcDbEntity
  8
BEMA_U_00DFUNG
 62
     7
100
AcDbVertex
100
AcDb2dVertex
 10
166.4836166242952
 20
237.7484096627851
 30
0.0
  0
VERTEX
  5
64D
330
64B
100
AcDbEntity
  8
BEMA_U_00DFUNG
 62
     7
100
AcDbVertex
100
AcDb2dVertex
 10
166.4836166242952
 20
237.7755735516673
 30
0.0
  0
SEQEND
  5
64E
330
64B
100
AcDbEntity
  8
BEMA_U_00DFUNG
 62
     7
  0
POLYLINE
  5
64F
330
1F
100
AcDbEntity
  8
BEMA_U_00DFUNG
 62
     7
100
AcDb2dPolyline
 66
     1
 10
0.0
 20
0.0
 30
0.0
  0
VERTEX
  5
650
330
64F
100
AcDbEntity
  8
BEMA_U_00DFUNG
 62
     7
100
AcDbVertex
100
AcDb2dVertex
 10
166.4836166242952
 20
237.7484096627851
 30
0.0
  0
VERTEX
  5
651
330
64F
100
AcDbEntity
  8
BEMA_U_00DFUNG
 62
     7
100
AcDbVertex
100
AcDb2dVertex
 10
166.4836166242952
 20
237.7755735516673
 30
0.0
  0
SEQEND
  5
652
330
64F
100
AcDbEntity
  8
BEMA_U_00DFUNG
 62
     7
  0
POLYLINE
  5
653
330
1F
100
AcDbEntity
  8
BEMA_U_00DFUNG
 62
     7
100
AcDb2dPolyline
 66
     1
 10
0.0
 20
0.0
 30
0.0
  0
VERTEX
  5
654
330
653
100
AcDbEntity
  8
BEMA_U_00DFUNG
 62
     7
100
AcDbVertex
100
AcDb2dVertex
 10
166.4331694020855
 20
237.7484096627851
 30
0.0
  0
VERTEX
  5
655
330
653
100
AcDbEntity
  8
BEMA_U_00DFUNG
 62
     7
100
AcDbVertex
100
AcDb2dVertex
 10
166.4331694020855
 20
238.1618652182371
 30
0.0
  0
SEQEND
  5
656
330
653
100
AcDbEntity
  8
BEMA_U_00DFUNG
 62
     7
  0
POLYLINE
  5
657
330
1F
100
AcDbEntity
  8
BEMA_U_00DFUNG
 62
     7
100
AcDb2dPolyline
 66
     1
 10
0.0
 20
0.0
 30
0.0
  0
VERTEX
  5
658
330
657
100
AcDbEntity
  8
BEMA_U_00DFUNG
 62
     7
100
AcDbVertex
100
AcDb2dVertex
 10
166.3823694020982
 20
237.7484096627851
 30
0.0
  0
VERTEX
  5
659
330
657
100
AcDbEntity
  8
BEMA_U_00DFUNG
 62
     7
100
AcDbVertex
100
AcDb2dVertex
 10
166.3823694020982
 20
238.5474513292521
 30
0.0
  0
SEQEND
  5
65A
330
657
100
AcDbEntity
  8
BEMA_U_00DFUNG
 62
     7
  0
POLYLINE
  5
65B
330
1F
100
AcDbEntity
  8
BEMA_U_00DFUNG
 62
     7
100
AcDb2dPolyline
 66
     1
 10
0.0
 20
0.0
 30
0.0
  0
VERTEX
  5
65C
330
65B
100
AcDbEntity
  8
BEMA_U_00DFUNG
 62
     7
100
AcDbVertex
100
AcDb2dVertex
 10
166.3315694021108
 20
237.7484096627851
 30
0.0
  0
VERTEX
  5
65D
330
65B
100
AcDbEntity
  8
BEMA_U_00DFUNG
 62
     7
100
AcDbVertex
100
AcDb2dVertex
 10
166.3315694021108
 20
238.933742995822
 30
0.0
  0
SEQEND
  5
65E
330
65B
100
AcDbEntity
  8
BEMA_U_00DFUNG
 62
     7
  0
POLYLINE
  5
65F
330
1F
100
AcDbEntity
  8
BEMA_U_00DFUNG
 62
     7
100
AcDb2dPolyline
 66
     1
 10
0.0
 20
0.0
 30
0.0
  0
VERTEX
  5
660
330
65F
100
AcDbEntity
  8
BEMA_U_00DFUNG
 62
     7
100
AcDbVertex
100
AcDb2dVertex
 10
166.2807694021234
 20
237.7484096627851
 30
0.0
  0
VERTEX
  5
661
330
65F
100
AcDbEntity
  8
BEMA_U_00DFUNG
 62
     7
100
AcDbVertex
100
AcDb2dVertex
 10
166.2807694021234
 20
239.3189763290592
 30
0.0
  0
SEQEND
  5
662
330
65F
100
AcDbEntity
  8
BEMA_U_00DFUNG
 62
     7
  0
POLYLINE
  5
663
330
1F
100
AcDbEntity
  8
BEMA_U_00DFUNG
 62
     7
100
AcDb2dPolyline
 66
     1
 10
0.0
 20
0.0
 30
0.0
  0
VERTEX
  5
664
330
663
100
AcDbEntity
  8
BEMA_U_00DFUNG
 62
     7
100
AcDbVertex
100
AcDb2dVertex
 10
166.2299694021363
 20
237.7484096627851
 30
0.0
  0
VERTEX
  5
665
330
663
100
AcDbEntity
  8
BEMA_U_00DFUNG
 62
     7
100
AcDbVertex
100
AcDb2dVertex
 10
166.2299694021363
 20
239.7052679956291
 30
0.0
  0
SEQEND
  5
666
330
663
100
AcDbEntity
  8
BEMA_U_00DFUNG
 62
     7
  0
POLYLINE
  5
667
330
1F
100
AcDbEntity
  8
BEMA_U_00DFUNG
 62
     7
100
AcDb2dPolyline
 66
     1
 10
0.0
 20
0.0
 30
0.0
  0
VERTEX
  5
668
330
667
100
AcDbEntity
  8
BEMA_U_00DFUNG
 62
     7
100
AcDbVertex
100
AcDb2dVertex
 10
166.1791694021489
 20
237.7484096627851
 30
0.0
  0
VERTEX
  5
669
330
667
100
AcDbEntity
  8
BEMA_U_00DFUNG
 62
     7
100
AcDbVertex
100
AcDb2dVertex
 10
166.1791694021489
 20
240.090854106644
 30
0.0
  0
SEQEND
  5
66A
330
667
100
AcDbEntity
  8
BEMA_U_00DFUNG
 62
     7
  0
POLYLINE
  5
66B
330
1F
100
AcDbEntity
  8
BEMA_U_00DFUNG
 62
     7
100
AcDb2dPolyline
 66
     1
 10
0.0
 20
0.0
 30
0.0
  0
VERTEX
  5
66C
330
66B
100
AcDbEntity
  8
BEMA_U_00DFUNG
 62
     7
100
AcDbVertex
100
AcDb2dVertex
 10
166.1283694021616
 20
237.7484096627851
 30
0.0
  0
VERTEX
  5
66D
330
66B
100
AcDbEntity
  8
BEMA_U_00DFUNG
 62
     7
100
AcDbVertex
100
AcDb2dVertex
 10
166.1283694021616
 20
240.4771457732139
 30
0.0
  0
SEQEND
  5
66E
330
66B
100
AcDbEntity
  8
BEMA_U_00DFUNG
 62
     7
  0
POLYLINE
  5
66F
330
1F
100
AcDbEntity
  8
BEMA_U_00DFUNG
 62
     7
100
AcDb2dPolyline
 66
     1
 10
0.0
 20
0.0
 30
0.0
  0
VERTEX
  5
670
330
66F
100
AcDbEntity
  8
BEMA_U_00DFUNG
 62
     7
100
AcDbVertex
100
AcDb2dVertex
 10
166.0775694021742
 20
237.7484096627851
 30
0.0
  0
VERTEX
  5
671
330
66F
100
AcDbEntity
  8
BEMA_U_00DFUNG
 62
     7
100
AcDbVertex
100
AcDb2dVertex
 10
166.0775694021742
 20
240.8623791064511
 30
0.0
  0
SEQEND
  5
672
330
66F
100
AcDbEntity
  8
BEMA_U_00DFUNG
 62
     7
  0
POLYLINE
  5
673
330
1F
100
AcDbEntity
  8
BEMA_U_00DFUNG
 62
     7
100
AcDb2dPolyline
 66
     1
 10
0.0
 20
0.0
 30
0.0
  0
VERTEX
  5
674
330
673
100
AcDbEntity
  8
BEMA_U_00DFUNG
 62
     7
100
AcDbVertex
100
AcDb2dVertex
 10
166.0267694021871
 20
237.7484096627851
 30
0.0
  0
VERTEX
  5
675
330
673
100
AcDbEntity
  8
BEMA_U_00DFUNG
 62
     7
100
AcDbVertex
100
AcDb2dVertex
 10
166.0267694021871
 20
241.248670773021
 30
0.0
  0
SEQEND
  5
676
330
673
100
AcDbEntity
  8
BEMA_U_00DFUNG
 62
     7
  0
POLYLINE
  5
677
330
1F
100
AcDbEntity
  8
BEMA_U_00DFUNG
 62
     7
100
AcDb2dPolyline
 66
     1
 10
0.0
 20
0.0
 30
0.0
  0
VERTEX
  5
678
330
677
100
AcDbEntity
  8
BEMA_U_00DFUNG
 62
     7
100
AcDbVertex
100
AcDb2dVertex
 10
166.0267694021871
 20
209.248551336577
 30
0.0
  0
VERTEX
  5
679
330
677
100
AcDbEntity
  8
BEMA_U_00DFUNG
 62
     7
100
AcDbVertex
100
AcDb2dVertex
 10
166.4874971798496
 20
212.7488124468128
 30
0.0
  0
VERTEX
  5
67A
330
677
100
AcDbEntity
  8
BEMA_U_00DFUNG
 62
     7
100
AcDbVertex
100
AcDb2dVertex
 10
165.5656888467466
 20
212.7488124468128
 30
0.0
  0
VERTEX
  5
67B
330
677
100
AcDbEntity
  8
BEMA_U_00DFUNG
 62
     7
100
AcDbVertex
100
AcDb2dVertex
 10
166.0267694021871
 20
209.248551336577
 30
0.0
  0
SEQEND
  5
67C
330
677
100
AcDbEntity
  8
BEMA_U_00DFUNG
 62
     7
  0
POLYLINE
  5
67D
330
1F
100
AcDbEntity
  8
BEMA_U_00DFUNG
 62
     7
100
AcDb2dPolyline
 66
     1
 10
0.0
 20
0.0
 30
0.0
  0
VERTEX
  5
67E
330
67D
100
AcDbEntity
  8
BEMA_U_00DFUNG
 62
     7
100
AcDbVertex
100
AcDb2dVertex
 10
166.4836166242952
 20
212.7488124468128
 30
0.0
  0
VERTEX
  5
67F
330
67D
100
AcDbEntity
  8
BEMA_U_00DFUNG
 62
     7
100
AcDbVertex
100
AcDb2dVertex
 10
166.4836166242952
 20
212.7216485579307
 30
0.0
  0
SEQEND
  5
680
330
67D
100
AcDbEntity
  8
BEMA_U_00DFUNG
 62
     7
  0
POLYLINE
  5
681
330
1F
100
AcDbEntity
  8
BEMA_U_00DFUNG
 62
     7
100
AcDb2dPolyline
 66
     1
 10
0.0
 20
0.0
 30
0.0
  0
VERTEX
  5
682
330
681
100
AcDbEntity
  8
BEMA_U_00DFUNG
 62
     7
100
AcDbVertex
100
AcDb2dVertex
 10
166.4836166242952
 20
212.7488124468128
 30
0.0
  0
VERTEX
  5
683
330
681
100
AcDbEntity
  8
BEMA_U_00DFUNG
 62
     7
100
AcDbVertex
100
AcDb2dVertex
 10
166.4836166242952
 20
212.7216485579307
 30
0.0
  0
SEQEND
  5
684
330
681
100
AcDbEntity
  8
BEMA_U_00DFUNG
 62
     7
  0
POLYLINE
  5
685
330
1F
100
AcDbEntity
  8
BEMA_U_00DFUNG
 62
     7
100
AcDb2dPolyline
 66
     1
 10
0.0
 20
0.0
 30
0.0
  0
VERTEX
  5
686
330
685
100
AcDbEntity
  8
BEMA_U_00DFUNG
 62
     7
100
AcDbVertex
100
AcDb2dVertex
 10
166.4331694020855
 20
212.7488124468128
 30
0.0
  0
VERTEX
  5
687
330
685
100
AcDbEntity
  8
BEMA_U_00DFUNG
 62
     7
100
AcDbVertex
100
AcDb2dVertex
 10
166.4331694020855
 20
212.3353568913608
 30
0.0
  0
SEQEND
  5
688
330
685
100
AcDbEntity
  8
BEMA_U_00DFUNG
 62
     7
  0
POLYLINE
  5
689
330
1F
100
AcDbEntity
  8
BEMA_U_00DFUNG
 62
     7
100
AcDb2dPolyline
 66
     1
 10
0.0
 20
0.0
 30
0.0
  0
VERTEX
  5
68A
330
689
100
AcDbEntity
  8
BEMA_U_00DFUNG
 62
     7
100
AcDbVertex
100
AcDb2dVertex
 10
166.3823694020982
 20
212.7488124468128
 30
0.0
  0
VERTEX
  5
68B
330
689
100
AcDbEntity
  8
BEMA_U_00DFUNG
 62
     7
100
AcDbVertex
100
AcDb2dVertex
 10
166.3823694020982
 20
211.9497707803458
 30
0.0
  0
SEQEND
  5
68C
330
689
100
AcDbEntity
  8
BEMA_U_00DFUNG
 62
     7
  0
POLYLINE
  5
68D
330
1F
100
AcDbEntity
  8
BEMA_U_00DFUNG
 62
     7
100
AcDb2dPolyline
 66
     1
 10
0.0
 20
0.0
 30
0.0
  0
VERTEX
  5
68E
330
68D
100
AcDbEntity
  8
BEMA_U_00DFUNG
 62
     7
100
AcDbVertex
100
AcDb2dVertex
 10
166.3315694021108
 20
212.7488124468128
 30
0.0
  0
VERTEX
  5
68F
330
68D
100
AcDbEntity
  8
BEMA_U_00DFUNG
 62
     7
100
AcDbVertex
100
AcDb2dVertex
 10
166.3315694021108
 20
211.563479113776
 30
0.0
  0
SEQEND
  5
690
330
68D
100
AcDbEntity
  8
BEMA_U_00DFUNG
 62
     7
  0
POLYLINE
  5
691
330
1F
100
AcDbEntity
  8
BEMA_U_00DFUNG
 62
     7
100
AcDb2dPolyline
 66
     1
 10
0.0
 20
0.0
 30
0.0
  0
VERTEX
  5
692
330
691
100
AcDbEntity
  8
BEMA_U_00DFUNG
 62
     7
100
AcDbVertex
100
AcDb2dVertex
 10
166.2807694021234
 20
212.7488124468128
 30
0.0
  0
VERTEX
  5
693
330
691
100
AcDbEntity
  8
BEMA_U_00DFUNG
 62
     7
100
AcDbVertex
100
AcDb2dVertex
 10
166.2807694021234
 20
211.1782457805387
 30
0.0
  0
SEQEND
  5
694
330
691
100
AcDbEntity
  8
BEMA_U_00DFUNG
 62
     7
  0
POLYLINE
  5
695
330
1F
100
AcDbEntity
  8
BEMA_U_00DFUNG
 62
     7
100
AcDb2dPolyline
 66
     1
 10
0.0
 20
0.0
 30
0.0
  0
VERTEX
  5
696
330
695
100
AcDbEntity
  8
BEMA_U_00DFUNG
 62
     7
100
AcDbVertex
100
AcDb2dVertex
 10
166.2299694021363
 20
212.7488124468128
 30
0.0
  0
VERTEX
  5
697
330
695
100
AcDbEntity
  8
BEMA_U_00DFUNG
 62
     7
100
AcDbVertex
100
AcDb2dVertex
 10
166.2299694021363
 20
210.7919541139689
 30
0.0
  0
SEQEND
  5
698
330
695
100
AcDbEntity
  8
BEMA_U_00DFUNG
 62
     7
  0
POLYLINE
  5
699
330
1F
100
AcDbEntity
  8
BEMA_U_00DFUNG
 62
     7
100
AcDb2dPolyline
 66
     1
 10
0.0
 20
0.0
 30
0.0
  0
VERTEX
  5
69A
330
699
100
AcDbEntity
  8
BEMA_U_00DFUNG
 62
     7
100
AcDbVertex
100
AcDb2dVertex
 10
166.1791694021489
 20
212.7488124468128
 30
0.0
  0
VERTEX
  5
69B
330
699
100
AcDbEntity
  8
BEMA_U_00DFUNG
 62
     7
100
AcDbVertex
100
AcDb2dVertex
 10
166.1791694021489
 20
210.4063680029539
 30
0.0
  0
SEQEND
  5
69C
330
699
100
AcDbEntity
  8
BEMA_U_00DFUNG
 62
     7
  0
POLYLINE
  5
69D
330
1F
100
AcDbEntity
  8
BEMA_U_00DFUNG
 62
     7
100
AcDb2dPolyline
 66
     1
 10
0.0
 20
0.0
 30
0.0
  0
VERTEX
  5
69E
330
69D
100
AcDbEntity
  8
BEMA_U_00DFUNG
 62
     7
100
AcDbVertex
100
AcDb2dVertex
 10
166.1283694021616
 20
212.7488124468128
 30
0.0
  0
VERTEX
  5
69F
330
69D
100
AcDbEntity
  8
BEMA_U_00DFUNG
 62
     7
100
AcDbVertex
100
AcDb2dVertex
 10
166.1283694021616
 20
210.020076336384
 30
0.0
  0
SEQEND
  5
6A0
330
69D
100
AcDbEntity
  8
BEMA_U_00DFUNG
 62
     7
  0
POLYLINE
  5
6A1
330
1F
100
AcDbEntity
  8
BEMA_U_00DFUNG
 62
     7
100
AcDb2dPolyline
 66
     1
 10
0.0
 20
0.0
 30
0.0
  0
VERTEX
  5
6A2
330
6A1
100
AcDbEntity
  8
BEMA_U_00DFUNG
 62
     7
100
AcDbVertex
100
AcDb2dVertex
 10
166.0775694021742
 20
212.7488124468128
 30
0.0
  0
VERTEX
  5
6A3
330
6A1
100
AcDbEntity
  8
BEMA_U_00DFUNG
 62
     7
100
AcDbVertex
100
AcDb2dVertex
 10
166.0775694021742
 20
209.6344902253691
 30
0.0
  0
SEQEND
  5
6A4
330
6A1
100
AcDbEntity
  8
BEMA_U_00DFUNG
 62
     7
  0
POLYLINE
  5
6A5
330
1F
100
AcDbEntity
  8
BEMA_U_00DFUNG
 62
     7
100
AcDb2dPolyline
 66
     1
 10
0.0
 20
0.0
 30
0.0
  0
VERTEX
  5
6A6
330
6A5
100
AcDbEntity
  8
BEMA_U_00DFUNG
 62
     7
100
AcDbVertex
100
AcDb2dVertex
 10
166.0267694021871
 20
212.7488124468128
 30
0.0
  0
VERTEX
  5
6A7
330
6A5
100
AcDbEntity
  8
BEMA_U_00DFUNG
 62
     7
100
AcDbVertex
100
AcDb2dVertex
 10
166.0267694021871
 20
209.248551336577
 30
0.0
  0
SEQEND
  5
6A8
330
6A5
100
AcDbEntity
  8
BEMA_U_00DFUNG
 62
     7
  0
POLYLINE
  5
6A9
330
1F
100
AcDbEntity
  8
BEMA_U_00DFUNG
 62
     7
100
AcDb2dPolyline
 66
     1
 10
0.0
 20
0.0
 30
0.0
  0
VERTEX
  5
6AA
330
6A9
100
AcDbEntity
  8
BEMA_U_00DFUNG
 62
     7
100
AcDbVertex
100
AcDb2dVertex
 10
165.5692166245236
 20
212.7488124468128
 30
0.0
  0
VERTEX
  5
6AB
330
6A9
100
AcDbEntity
  8
BEMA_U_00DFUNG
 62
     7
100
AcDbVertex
100
AcDb2dVertex
 10
165.5692166245236
 20
212.7216485579307
 30
0.0
  0
SEQEND
  5
6AC
330
6A9
100
AcDbEntity
  8
BEMA_U_00DFUNG
 62
     7
  0
POLYLINE
  5
6AD
330
1F
100
AcDbEntity
  8
BEMA_U_00DFUNG
 62
     7
100
AcDb2dPolyline
 66
     1
 10
0.0
 20
0.0
 30
0.0
  0
VERTEX
  5
6AE
330
6AD
100
AcDbEntity
  8
BEMA_U_00DFUNG
 62
     7
100
AcDbVertex
100
AcDb2dVertex
 10
165.5692166245236
 20
212.7488124468128
 30
0.0
  0
VERTEX
  5
6AF
330
6AD
100
AcDbEntity
  8
BEMA_U_00DFUNG
 62
     7
100
AcDbVertex
100
AcDb2dVertex
 10
165.5692166245236
 20
212.7216485579307
 30
0.0
  0
SEQEND
  5
6B0
330
6AD
100
AcDbEntity
  8
BEMA_U_00DFUNG
 62
     7
  0
POLYLINE
  5
6B1
330
1F
100
AcDbEntity
  8
BEMA_U_00DFUNG
 62
     7
100
AcDb2dPolyline
 66
     1
 10
0.0
 20
0.0
 30
0.0
  0
VERTEX
  5
6B2
330
6B1
100
AcDbEntity
  8
BEMA_U_00DFUNG
 62
     7
100
AcDbVertex
100
AcDb2dVertex
 10
165.620016624511
 20
212.7488124468128
 30
0.0
  0
VERTEX
  5
6B3
330
6B1
100
AcDbEntity
  8
BEMA_U_00DFUNG
 62
     7
100
AcDbVertex
100
AcDb2dVertex
 10
165.620016624511
 20
212.3353568913608
 30
0.0
  0
SEQEND
  5
6B4
330
6B1
100
AcDbEntity
  8
BEMA_U_00DFUNG
 62
     7
  0
POLYLINE
  5
6B5
330
1F
100
AcDbEntity
  8
BEMA_U_00DFUNG
 62
     7
100
AcDb2dPolyline
 66
     1
 10
0.0
 20
0.0
 30
0.0
  0
VERTEX
  5
6B6
330
6B5
100
AcDbEntity
  8
BEMA_U_00DFUNG
 62
     7
100
AcDbVertex
100
AcDb2dVertex
 10
165.6708166244983
 20
212.7488124468128
 30
0.0
  0
VERTEX
  5
6B7
330
6B5
100
AcDbEntity
  8
BEMA_U_00DFUNG
 62
     7
100
AcDbVertex
100
AcDb2dVertex
 10
165.6708166244983
 20
211.9497707803458
 30
0.0
  0
SEQEND
  5
6B8
330
6B5
100
AcDbEntity
  8
BEMA_U_00DFUNG
 62
     7
  0
POLYLINE
  5
6B9
330
1F
100
AcDbEntity
  8
BEMA_U_00DFUNG
 62
     7
100
AcDb2dPolyline
 66
     1
 10
0.0
 20
0.0
 30
0.0
  0
VERTEX
  5
6BA
330
6B9
100
AcDbEntity
  8
BEMA_U_00DFUNG
 62
     7
100
AcDbVertex
100
AcDb2dVertex
 10
165.7216166244854
 20
212.7488124468128
 30
0.0
  0
VERTEX
  5
6BB
330
6B9
100
AcDbEntity
  8
BEMA_U_00DFUNG
 62
     7
100
AcDbVertex
100
AcDb2dVertex
 10
165.7216166244854
 20
211.563479113776
 30
0.0
  0
SEQEND
  5
6BC
330
6B9
100
AcDbEntity
  8
BEMA_U_00DFUNG
 62
     7
  0
POLYLINE
  5
6BD
330
1F
100
AcDbEntity
  8
BEMA_U_00DFUNG
 62
     7
100
AcDb2dPolyline
 66
     1
 10
0.0
 20
0.0
 30
0.0
  0
VERTEX
  5
6BE
330
6BD
100
AcDbEntity
  8
BEMA_U_00DFUNG
 62
     7
100
AcDbVertex
100
AcDb2dVertex
 10
165.7724166244728
 20
212.7488124468128
 30
0.0
  0
VERTEX
  5
6BF
330
6BD
100
AcDbEntity
  8
BEMA_U_00DFUNG
 62
     7
100
AcDbVertex
100
AcDb2dVertex
 10
165.7724166244728
 20
211.1782457805387
 30
0.0
  0
SEQEND
  5
6C0
330
6BD
100
AcDbEntity
  8
BEMA_U_00DFUNG
 62
     7
  0
POLYLINE
  5
6C1
330
1F
100
AcDbEntity
  8
BEMA_U_00DFUNG
 62
     7
100
AcDb2dPolyline
 66
     1
 10
0.0
 20
0.0
 30
0.0
  0
VERTEX
  5
6C2
330
6C1
100
AcDbEntity
  8
BEMA_U_00DFUNG
 62
     7
100
AcDbVertex
100
AcDb2dVertex
 10
165.8232166244601
 20
212.7488124468128
 30
0.0
  0
VERTEX
  5
6C3
330
6C1
100
AcDbEntity
  8
BEMA_U_00DFUNG
 62
     7
100
AcDbVertex
100
AcDb2dVertex
 10
165.8232166244601
 20
210.7919541139689
 30
0.0
  0
SEQEND
  5
6C4
330
6C1
100
AcDbEntity
  8
BEMA_U_00DFUNG
 62
     7
  0
POLYLINE
  5
6C5
330
1F
100
AcDbEntity
  8
BEMA_U_00DFUNG
 62
     7
100
AcDb2dPolyline
 66
     1
 10
0.0
 20
0.0
 30
0.0
  0
VERTEX
  5
6C6
330
6C5
100
AcDbEntity
  8
BEMA_U_00DFUNG
 62
     7
100
AcDbVertex
100
AcDb2dVertex
 10
165.8740166244475
 20
212.7488124468128
 30
0.0
  0
VERTEX
  5
6C7
330
6C5
100
AcDbEntity
  8
BEMA_U_00DFUNG
 62
     7
100
AcDbVertex
100
AcDb2dVertex
 10
165.8740166244475
 20
210.4063680029539
 30
0.0
  0
SEQEND
  5
6C8
330
6C5
100
AcDbEntity
  8
BEMA_U_00DFUNG
 62
     7
  0
POLYLINE
  5
6C9
330
1F
100
AcDbEntity
  8
BEMA_U_00DFUNG
 62
     7
100
AcDb2dPolyline
 66
     1
 10
0.0
 20
0.0
 30
0.0
  0
VERTEX
  5
6CA
330
6C9
100
AcDbEntity
  8
BEMA_U_00DFUNG
 62
     7
100
AcDbVertex
100
AcDb2dVertex
 10
165.9248166244346
 20
212.7488124468128
 30
0.0
  0
VERTEX
  5
6CB
330
6C9
100
AcDbEntity
  8
BEMA_U_00DFUNG
 62
     7
100
AcDbVertex
100
AcDb2dVertex
 10
165.9248166244346
 20
210.020076336384
 30
0.0
  0
SEQEND
  5
6CC
330
6C9
100
AcDbEntity
  8
BEMA_U_00DFUNG
 62
     7
  0
POLYLINE
  5
6CD
330
1F
100
AcDbEntity
  8
BEMA_U_00DFUNG
 62
     7
100
AcDb2dPolyline
 66
     1
 10
0.0
 20
0.0
 30
0.0
  0
VERTEX
  5
6CE
330
6CD
100
AcDbEntity
  8
BEMA_U_00DFUNG
 62
     7
100
AcDbVertex
100
AcDb2dVertex
 10
165.9759694021998
 20
212.7488124468128
 30
0.0
  0
VERTEX
  5
6CF
330
6CD
100
AcDbEntity
  8
BEMA_U_00DFUNG
 62
     7
100
AcDbVertex
100
AcDb2dVertex
 10
165.9759694021998
 20
209.6344902253691
 30
0.0
  0
SEQEND
  5
6D0
330
6CD
100
AcDbEntity
  8
BEMA_U_00DFUNG
 62
     7
  0
POLYLINE
  5
6D1
330
1F
100
AcDbEntity
  8
BEMA_U_00DFUNG
 62
     7
100
AcDb2dPolyline
 66
     1
 10
0.0
 20
0.0
 30
0.0
  0
VERTEX
  5
6D2
330
6D1
100
AcDbEntity
  8
BEMA_U_00DFUNG
 62
     7
100
AcDbVertex
100
AcDb2dVertex
 10
166.0267694021871
 20
212.7488124468128
 30
0.0
  0
VERTEX
  5
6D3
330
6D1
100
AcDbEntity
  8
BEMA_U_00DFUNG
 62
     7
100
AcDbVertex
100
AcDb2dVertex
 10
166.0267694021871
 20
209.248551336577
 30
0.0
  0
SEQEND
  5
6D4
330
6D1
100
AcDbEntity
  8
BEMA_U_00DFUNG
 62
     7
  0
ENDSEC
  0
SECTION
  2
OBJECTS
  0
DICTIONARY
  5
C
330
0
100
AcDbDictionary
  3
ACAD_GROUP
350
D
  3
ACAD_LAYOUT
350
1A
  3
ACAD_MATERIAL
350
3B
  3
ACAD_MLEADERSTYLE
350
6F7
  3
ACAD_MLINESTYLE
350
17
  3
ACAD_PLOTSETTINGS
350
19
  3
ACAD_VISUALSTYLE
350
2A
  3
ACDBHEADERROUNDTRIPXREC
350
6D5
  3
ACDBVARIABLEDICTIONARY
350
6F5
  0
DICTIONARY
  5
D
102
{ACAD_REACTORS
330
C
102
}
330
C
100
AcDbDictionary
  0
DICTIONARY
  5
1A
102
{ACAD_REACTORS
330
C
102
}
330
C
100
AcDbDictionary
  0
DICTIONARY
  5
3B
102
{ACAD_REACTORS
330
C
102
}
330
C
100
AcDbDictionary
  3
BYBLOCK
350
3D
  3
BYLAYER
350
3C
  3
GLOBAL
350
3E
  0
DICTIONARY
  5
6F7
102
{ACAD_REACTORS
330
C
102
}
330
C
100
AcDbDictionary
  0
DICTIONARY
  5
17
102
{ACAD_REACTORS
330
C
102
}
330
C
100
AcDbDictionary
  3
STANDARD
350
18
  0
DICTIONARY
  5
19
102
{ACAD_REACTORS
330
C
102
}
330
C
100
AcDbDictionary
  0
DICTIONARY
  5
2A
102
{ACAD_REACTORS
330
C
102
}
330
C
100
AcDbDictionary
  3
2DWIREFRAME
350
2F
  3
3D_HIDDEN
350
31
  3
3DWIREFRAME
350
30
  3
BASIC
350
32
  3
BRIGHTEN
350
36
  3
COLORCHANGE
350
3A
  3
CONCEPTUAL
350
34
  3
DIM
350
35
  3
FACEPATTERN
350
39
  3
FLAT
350
2B
  3
FLATWITHEDGES
350
2C
  3
GOURAUD
350
2D
  3
GOURAUDWITHEDGES
350
2E
  3
LINEPATTERN
350
38
  3
REALISTIC
350
33
  3
THICKEN
350
37
  0
DICTIONARY
  5
6D5
102
{ACAD_REACTORS
330
C
102
}
330
C
100
AcDbDictionary
  3
CEPSNTYPE
350
6DE
  3
DIMSTYLEDATA
350
6F4
  3
FINGERPRINTGUID
350
6DF
  3
HYPERLINKBASE
350
6D8
  3
INSUNITS
350
6DD
  3
LAYOUTDICT
350
6DA
  3
LWETCUNION
350
6DC
  3
PLOTSETDICT
350
6DB
  3
PSVPSCALE
350
6E1
  3
PUCSBASE
350
6E4
  3
PUCSORGBACK
350
6EA
  3
PUCSORGBOTTOM
350
6E6
  3
PUCSORGFRONT
350
6E9
  3
PUCSORGLEFT
350
6E7
  3
PUCSORGRIGHT
350
6E8
  3
PUCSORGTOP
350
6E5
  3
PUCSORTHOREF
350
6E2
  3
PUCSORTHOVIEW
350
6E3
  3
STYLESHEET
350
6D9
  3
TSTACKALIGN
350
6D6
  3
TSTACKSIZE
350
6D7
  3
UCSBASE
350
6ED
  3
UCSORGBACK
350
6F3
  3
UCSORGBOTTOM
350
6EF
  3
UCSORGFRONT
350
6F2
  3
UCSORGLEFT
350
6F0
  3
UCSORGRIGHT
350
6F1
  3
UCSORGTOP
350
6EE
  3
UCSORTHOREF
350
6EB
  3
UCSORTHOVIEW
350
6EC
  3
VERSIONGUID
350
6E0
  0
DICTIONARY
  5
6F5
102
{ACAD_REACTORS
330
C
102
}
330
C
100
AcDbDictionary
  3
DIMASSOC
350
6F8
  3
HIDETEXT
350
6F9
  0
MATERIAL
  5
3D
102
{ACAD_REACTORS
330
3B
102
}
102
{ACAD_XDICTIONARY
360
6FC
102
}
330
3B
100
AcDbMaterial
  1
ByBlock
  0
MATERIAL
  5
3C
102
{ACAD_REACTORS
330
3B
102
}
102
{ACAD_XDICTIONARY
360
6FA
102
}
330
3B
100
AcDbMaterial
  1
ByLayer
  0
MATERIAL
  5
3E
102
{ACAD_REACTORS
330
3B
102
}
102
{ACAD_XDICTIONARY
360
6FE
102
}
330
3B
100
AcDbMaterial
  1
Global
  0
MLINESTYLE
  5
18
102
{ACAD_REACTORS
330
17
102
}
330
17
100
AcDbMlineStyle
  2
Standard
 70
     0
  3

 62
   256
 51
90.0
 52
90.0
 71
     2
 49
0.5
 62
   256
  6
BYLAYER
 49
-0.5
 62
   256
  6
BYLAYER
  0
ACAD_PROXY_OBJECT
  5
2F
102
{ACAD_REACTORS
330
2A
102
}
330
2A
100
AcDbProxyObject
 90
      499
 91
      501
 93
      436
310
42CC9915DA5C99599C985B595049028333333333333E3BF0000000000000FB0107901411070040501600405405064090741402480A0340
1001
ACAD
1000
AcDbSavedByObjectVersion
1070
     0
  0
ACAD_PROXY_OBJECT
  5
31
102
{ACAD_REACTORS
330
2A
102
}
330
2A
100
AcDbProxyObject
 90
      499
 91
      501
 93
      500
310
424CD108121A5919195B90640502408333333333333E3BF0000000000000FB01079024090700405020000000000001110200405405064090740C02480A0340
1001
ACAD
1000
AcDbSavedByObjectVersion
1070
     0
  0
ACAD_PROXY_OBJECT
  5
30
102
{ACAD_REACTORS
330
2A
102
}
330
2A
100
AcDbProxyObject
 90
      499
 91
      501
 93
      436
310
42CCD915DA5C99599C985B595059028333333333333E3BF0000000000000FB0107901411070040501600405405064090741402480A0340
1001
ACAD
1000
AcDbSavedByObjectVersion
1070
     0
  0
ACAD_PROXY_OBJECT
  5
32
102
{ACAD_REACTORS
330
2A
102
}
330
2A
100
AcDbProxyObject
 90
      499
 91
      501
 93
      388
310
4150985CDA58D07406404333333333333E3BF0000000000000FB0107A41107004050150841D405064090741402480A0350
1001
ACAD
1000
AcDbSavedByObjectVersion
1070
     0
  0
ACAD_PROXY_OBJECT
  5
36
102
{ACAD_REACTORS
330
2A
102
}
330
2A
100
AcDbProxyObject
 90
      499
 91
      501
 93
      428
310
42109C9A59DA1D195B90C409028333333333333E3BF0000000000000FB010790141107004050150841D405064090741402480A029950
1001
ACAD
1000
AcDbSavedByObjectVersion
1070
     0
  0
ACAD_PROXY_OBJECT
  5
3A
102
{ACAD_REACTORS
330
2A
102
}
330
2A
100
AcDbProxyObject
 90
      499
 91
      501
 93
      452
310
42D0DBDB1BDC90DA185B99D95104090240C333333333333E3BF0000000000000FB0108901411070040501508421405064090741402480A0350
1001
ACAD
1000
AcDbSavedByObjectVersion
1070
     0
  0
ACAD_PROXY_OBJECT
  5
34
102
{ACAD_REACTORS
330
2A
102
}
330
2A
100
AcDbProxyObject
 90
      499
 91
      501
 93
      500
310
4290DBDB98D95C1D1D585B10940D028333333333333E3BF0000000000000FB0107902409070040501000000000000111010841D405064090740C02480A0340
1001
ACAD
1000
AcDbSavedByObjectVersion
1070
     0
  0
ACAD_PROXY_OBJECT
  5
35
102
{ACAD_REACTORS
330
2A
102
}
330
2A
100
AcDbProxyObject
 90
      499
 91
      501
 93
      412
310
40D11A5B50B409028333333333333E3BF0000000000000FB010790141107004050150841D405064090741402480A02677FFFFFD0
1001
ACAD
1000
AcDbSavedByObjectVersion
1070
     0
  0
ACAD_PROXY_OBJECT
  5
39
102
{ACAD_REACTORS
330
2A
102
}
330
2A
100
AcDbProxyObject
 90
      499
 91
      501
 93
      444
310
42D19858D95C185D1D195C9B90F409028333333333333E3BF0000000000000FB010790141107004050150841D405064090741402480A0350
1001
ACAD
1000
AcDbSavedByObjectVersion
1070
     0
  0
ACAD_PROXY_OBJECT
  5
2B
102
{ACAD_REACTORS
330
2A
102
}
330
2A
100
AcDbProxyObject
 90
      499
 91
      501
 93
      388
310
41119B185D240901404333333333333E3BF0000000000000F9010740A41107004050150841D405064090741402480A1B50
1001
ACAD
1000
AcDbSavedByObjectVersion
1070
     0
  0
ACAD_PROXY_OBJECT
  5
2C
102
{ACAD_REACTORS
330
2A
102
}
330
2A
100
AcDbProxyObject
 90
      499
 91
      501
 93
      476
310
43519B185D15DA5D1A115919D95CD0140901404333333333333E3BF0000000000000F9010740901411070040501600405405064090741402480A1B50
1001
ACAD
1000
AcDbSavedByObjectVersion
1070
     0
  0
ACAD_PROXY_OBJECT
  5
2D
102
{ACAD_REACTORS
330
2A
102
}
330
2A
100
AcDbProxyObject
 90
      499
 91
      501
 93
      412
310
41D1DBDD5C985D5910240902404333333333333E3BF0000000000000F9010740A411070040501641D405064090741402480A1B50
1001
ACAD
1000
AcDbSavedByObjectVersion
1070
     0
  0
ACAD_PROXY_OBJECT
  5
2E
102
{ACAD_REACTORS
330
2A
102
}
330
2A
100
AcDbProxyObject
 90
      499
 91
      501
 93
      500
310
4411DBDD5C985D5915DA5D1A115919D95CD0340902404333333333333E3BF0000000000000F9010740901411070040501600405405064090741402480A1B50
1001
ACAD
1000
AcDbSavedByObjectVersion
1070
     0
  0
ACAD_PROXY_OBJECT
  5
38
102
{ACAD_REACTORS
330
2A
102
}
330
2A
100
AcDbProxyObject
 90
      499
 91
      501
 93
      444
310
42D31A5B995C185D1D195C9B90E409028333333333333E3BF0000000000000FB010790141107004050750841D405064090741402483A0350
1001
ACAD
1000
AcDbSavedByObjectVersion
1070
     0
  0
ACAD_PROXY_OBJECT
  5
33
102
{ACAD_REACTORS
330
2A
102
}
330
2A
100
AcDbProxyObject
 90
      499
 91
      501
 93
      420
310
425499585B1A5CDD1A58D08409028333333333333E3BF0000000000000FB01079019070040501508421405064090741402480A1B40
1001
ACAD
1000
AcDbSavedByObjectVersion
1070
     0
  0
ACAD_PROXY_OBJECT
  5
37
102
{ACAD_REACTORS
330
2A
102
}
330
2A
100
AcDbProxyObject
 90
      499
 91
      501
 93
      412
310
41D51A1A58DAD95B90D409028333333333333E3BF0000000000000FB010790141107004050150C41D405064090741402480A0350
1001
ACAD
1000
AcDbSavedByObjectVersion
1070
     0
  0
XRECORD
  5
6DE
102
{ACAD_REACTORS
330
6D5
102
}
330
6D5
100
AcDbXrecord
 90
        0
  0
XRECORD
  5
6F4
102
{ACAD_REACTORS
330
6D5
102
}
330
6D5
100
AcDbXrecord
1000
DSTYLE
1002
{
1070
   340
340
11
1002
}
  0
XRECORD
  5
6DF
102
{ACAD_REACTORS
330
6D5
102
}
330
6D5
100
AcDbXrecord
  1
{03A01E01-80F0-4C19-8284-AB1AE5AE8E3A}
  0
XRECORD
  5
6D8
102
{ACAD_REACTORS
330
6D5
102
}
330
6D5
100
AcDbXrecord
  1

  0
XRECORD
  5
6DD
102
{ACAD_REACTORS
330
6D5
102
}
330
6D5
100
AcDbXrecord
 90
        4
  0
XRECORD
  5
6DA
102
{ACAD_REACTORS
330
6D5
102
}
330
6D5
100
AcDbXrecord
340
1A
  0
XRECORD
  5
6DC
102
{ACAD_REACTORS
330
6D5
102
}
330
6D5
100
AcDbXrecord
 90
    10269
  0
XRECORD
  5
6DB
102
{ACAD_REACTORS
330
6D5
102
}
330
6D5
100
AcDbXrecord
340
19
  0
XRECORD
  5
6E1
102
{ACAD_REACTORS
330
6D5
102
}
330
6D5
100
AcDbXrecord
 40
0.0
  0
XRECORD
  5
6E4
102
{ACAD_REACTORS
330
6D5
102
}
330
6D5
100
AcDbXrecord
340
0
  0
XRECORD
  5
6EA
102
{ACAD_REACTORS
330
6D5
102
}
330
6D5
100
AcDbXrecord
 10
0.0
 20
0.0
 30
0.0
  0
XRECORD
  5
6E6
102
{ACAD_REACTORS
330
6D5
102
}
330
6D5
100
AcDbXrecord
 10
0.0
 20
0.0
 30
0.0
  0
XRECORD
  5
6E9
102
{ACAD_REACTORS
330
6D5
102
}
330
6D5
100
AcDbXrecord
 10
0.0
 20
0.0
 30
0.0
  0
XRECORD
  5
6E7
102
{ACAD_REACTORS
330
6D5
102
}
330
6D5
100
AcDbXrecord
 10
0.0
 20
0.0
 30
0.0
  0
XRECORD
  5
6E8
102
{ACAD_REACTORS
330
6D5
102
}
330
6D5
100
AcDbXrecord
 10
0.0
 20
0.0
 30
0.0
  0
XRECORD
  5
6E5
102
{ACAD_REACTORS
330
6D5
102
}
330
6D5
100
AcDbXrecord
 10
0.0
 20
0.0
 30
0.0
  0
XRECORD
  5
6E2
102
{ACAD_REACTORS
330
6D5
102
}
330
6D5
100
AcDbXrecord
340
0
  0
XRECORD
  5
6E3
102
{ACAD_REACTORS
330
6D5
102
}
330
6D5
100
AcDbXrecord
 70
     0
  0
XRECORD
  5
6D9
102
{ACAD_REACTORS
330
6D5
102
}
330
6D5
100
AcDbXrecord
  1

  0
XRECORD
  5
6D6
102
{ACAD_REACTORS
330
6D5
102
}
330
6D5
100
AcDbXrecord
 90
        1
  0
XRECORD
  5
6D7
102
{ACAD_REACTORS
330
6D5
102
}
330
6D5
100
AcDbXrecord
 90
       70
  0
XRECORD
  5
6ED
102
{ACAD_REACTORS
330
6D5
102
}
330
6D5
100
AcDbXrecord
340
0
  0
XRECORD
  5
6F3
102
{ACAD_REACTORS
330
6D5
102
}
330
6D5
100
AcDbXrecord
 10
0.0
 20
0.0
 30
0.0
  0
XRECORD
  5
6EF
102
{ACAD_REACTORS
330
6D5
102
}
330
6D5
100
AcDbXrecord
 10
0.0
 20
0.0
 30
0.0
  0
XRECORD
  5
6F2
102
{ACAD_REACTORS
330
6D5
102
}
330
6D5
100
AcDbXrecord
 10
0.0
 20
0.0
 30
0.0
  0
XRECORD
  5
6F0
102
{ACAD_REACTORS
330
6D5
102
}
330
6D5
100
AcDbXrecord
 10
0.0
 20
0.0
 30
0.0
  0
XRECORD
  5
6F1
102
{ACAD_REACTORS
330
6D5
102
}
330
6D5
100
AcDbXrecord
 10
0.0
 20
0.0
 30
0.0
  0
XRECORD
  5
6EE
102
{ACAD_REACTORS
330
6D5
102
}
330
6D5
100
AcDbXrecord
 10
0.0
 20
0.0
 30
0.0
  0
XRECORD
  5
6EB
102
{ACAD_REACTORS
330
6D5
102
}
330
6D5
100
AcDbXrecord
340
0
  0
XRECORD
  5
6EC
102
{ACAD_REACTORS
330
6D5
102
}
330
6D5
100
AcDbXrecord
 70
     0
  0
XRECORD
  5
6E0
102
{ACAD_REACTORS
330
6D5
102
}
330
6D5
100
AcDbXrecord
  1
{FAEB1C32-E019-11D5-929B-00C0DF256EC4}
  0
DICTIONARYVAR
  5
6F8
102
{ACAD_REACTORS
330
6F5
102
}
330
6F5
100
DictionaryVariables
280
     0
  1
2
  0
DICTIONARYVAR
  5
6F9
102
{ACAD_REACTORS
330
6F5
102
}
330
6F5
100
DictionaryVariables
280
     0
  1
1
  0
DICTIONARY
  5
6FC
330
3D
100
AcDbDictionary
280
     1
  3
ACAD_XREC_ROUNDTRIP
360
6FD
  0
DICTIONARY
  5
6FA
330
3C
100
AcDbDictionary
280
     1
  3
ACAD_XREC_ROUNDTRIP
360
6FB
  0
DICTIONARY
  5
6FE
330
3E
100
AcDbDictionary
280
     1
  3
ACAD_XREC_ROUNDTRIP
360
6FF
  0
XRECORD
  5
6FD
102
{ACAD_REACTORS
330
6FC
102
}
330
6FC
100
AcDbXrecord
102
MATERIAL
148
0.0
149
0.0
149
0.0
 93
        0
 94
      127
282
     0
 72
     1
 77
     1
171
     1
175
     1
179
     1
273
     0
  0
XRECORD
  5
6FB
102
{ACAD_REACTORS
330
6FA
102
}
330
6FA
100
AcDbXrecord
102
MATERIAL
148
0.0
149
0.0
149
0.0
 93
        0
 94
      127
282
     0
 72
     1
 77
     1
171
     1
175
     1
179
     1
273
     0
  0
XRECORD
  5
6FF
102
{ACAD_REACTORS
330
6FE
102
}
330
6FE
100
AcDbXrecord
102
MATERIAL
148
0.0
149
0.0
149
0.0
 93
        0
 94
      127
282
     0
 72
     1
 77
     1
171
     1
175
     1
179
     1
273
     0
  0
ENDSEC
  0
EOF
