  0
SECTION
  2
HEADER
  9
$ACADVER
  1
AC1014
  9
$ACADMAINTVER
 70
     9
  9
$DWGCODEPAGE
  3
ANSI_1252
  9
$INSBASE
 10
0.0
 20
0.0
 30
0.0
  9
$EXTMIN
 10
1.000000000000000E+20
 20
1.000000000000000E+20
 30
1.000000000000000E+20
  9
$EXTMAX
 10
-1.000000000000000E+20
 20
-1.000000000000000E+20
 30
-1.000000000000000E+20
  9
$LIMMIN
 10
0.0
 20
0.0
  9
$LIMMAX
 10
12.0
 20
9.0
  9
$ORTHOMODE
 70
     0
  9
$REGENMODE
 70
     1
  9
$FILLMODE
 70
     1
  9
$QTEXTMODE
 70
     0
  9
$MIRRTEXT
 70
     1
  9
$DRAGMODE
 70
     2
  9
$LTSCALE
 40
1.0
  9
$OSMODE
 70
    37
  9
$ATTMODE
 70
     1
  9
$TEXTSIZE
 40
0.2
  9
$TRACEWID
 40
0.05
  9
$TEXTSTYLE
  7
STANDARD
  9
$CLAYER
  8
0
  9
$CELTYPE
  6
BYLAYER
  9
$CECOLOR
 62
   256
  9
$CELTSCALE
 40
1.0
  9
$DELOBJ
 70
     1
  9
$DISPSILH
 70
     0
  9
$DIMSCALE
 40
1.0
  9
$DIMASZ
 40
0.18
  9
$DIMEXO
 40
0.0625
  9
$DIMDLI
 40
0.38
  9
$DIMRND
 40
0.0
  9
$DIMDLE
 40
0.0
  9
$DIMEXE
 40
0.18
  9
$DIMTP
 40
0.0
  9
$DIMTM
 40
0.0
  9
$DIMTXT
 40
0.18
  9
$DIMCEN
 40
0.09
  9
$DIMTSZ
 40
0.0
  9
$DIMTOL
 70
     0
  9
$DIMLIM
 70
     0
  9
$DIMTIH
 70
     1
  9
$DIMTOH
 70
     1
  9
$DIMSE1
 70
     0
  9
$DIMSE2
 70
     0
  9
$DIMTAD
 70
     0
  9
$DIMZIN
 70
     0
  9
$DIMBLK
  1

  9
$DIMASO
 70
     1
  9
$DIMSHO
 70
     1
  9
$DIMPOST
  1

  9
$DIMAPOST
  1

  9
$DIMALT
 70
     0
  9
$DIMALTD
 70
     2
  9
$DIMALTF
 40
25.4
  9
$DIMLFAC
 40
1.0
  9
$DIMTOFL
 70
     0
  9
$DIMTVP
 40
0.0
  9
$DIMTIX
 70
     0
  9
$DIMSOXD
 70
     0
  9
$DIMSAH
 70
     0
  9
$DIMBLK1
  1

  9
$DIMBLK2
  1

  9
$DIMSTYLE
  2
STANDARD
  9
$DIMCLRD
 70
     0
  9
$DIMCLRE
 70
     0
  9
$DIMCLRT
 70
     0
  9
$DIMTFAC
 40
1.0
  9
$DIMGAP
 40
0.09
  9
$DIMJUST
 70
     0
  9
$DIMSD1
 70
     0
  9
$DIMSD2
 70
     0
  9
$DIMTOLJ
 70
     1
  9
$DIMTZIN
 70
     0
  9
$DIMALTZ
 70
     0
  9
$DIMALTTZ
 70
     0
  9
$DIMFIT
 70
     3
  9
$DIMUPT
 70
     0
  9
$DIMUNIT
 70
     2
  9
$DIMDEC
 70
     4
  9
$DIMTDEC
 70
     4
  9
$DIMALTU
 70
     2
  9
$DIMALTTD
 70
     2
  9
$DIMTXSTY
  7
STANDARD
  9
$DIMAUNIT
 70
     0
  9
$LUNITS
 70
     2
  9
$LUPREC
 70
     4
  9
$SKETCHINC
 40
0.1
  9
$FILLETRAD
 40
0.5
  9
$AUNITS
 70
     0
  9
$AUPREC
 70
     0
  9
$MENU
  1
.
  9
$ELEVATION
 40
0.0
  9
$PELEVATION
 40
0.0
  9
$THICKNESS
 40
0.0
  9
$LIMCHECK
 70
     0
  9
$CHAMFERA
 40
0.5
  9
$CHAMFERB
 40
0.5
  9
$CHAMFERC
 40
1.0
  9
$CHAMFERD
 40
0.0
  9
$SKPOLY
 70
     0
  9
$TDCREATE
 40
2458982.543144387
  9
$TDUPDATE
 40
2458982.543144664
  9
$TDINDWG
 40
0.0000000116
  9
$TDUSRTIMER
 40
0.0000000116
  9
$USRTIMER
 70
     1
  9
$ANGBASE
 50
0.0
  9
$ANGDIR
 70
     0
  9
$PDMODE
 70
     0
  9
$PDSIZE
 40
0.0
  9
$PLINEWID
 40
0.0
  9
$COORDS
 70
     1
  9
$SPLFRAME
 70
     0
  9
$SPLINETYPE
 70
     6
  9
$SPLINESEGS
 70
     8
  9
$ATTDIA
 70
     0
  9
$ATTREQ
 70
     1
  9
$HANDLING
 70
     1
  9
$HANDSEED
  5
6E9
  9
$SURFTAB1
 70
     6
  9
$SURFTAB2
 70
     6
  9
$SURFTYPE
 70
     6
  9
$SURFU
 70
     6
  9
$SURFV
 70
     6
  9
$UCSNAME
  2

  9
$UCSORG
 10
0.0
 20
0.0
 30
0.0
  9
$UCSXDIR
 10
1.0
 20
0.0
 30
0.0
  9
$UCSYDIR
 10
0.0
 20
1.0
 30
0.0
  9
$PUCSNAME
  2

  9
$PUCSORG
 10
0.0
 20
0.0
 30
0.0
  9
$PUCSXDIR
 10
1.0
 20
0.0
 30
0.0
  9
$PUCSYDIR
 10
0.0
 20
1.0
 30
0.0
  9
$USERI1
 70
     0
  9
$USERI2
 70
     0
  9
$USERI3
 70
     0
  9
$USERI4
 70
     0
  9
$USERI5
 70
     0
  9
$USERR1
 40
0.0
  9
$USERR2
 40
0.0
  9
$USERR3
 40
0.0
  9
$USERR4
 40
0.0
  9
$USERR5
 40
0.0
  9
$WORLDVIEW
 70
     1
  9
$SHADEDGE
 70
     3
  9
$SHADEDIF
 70
    70
  9
$TILEMODE
 70
     1
  9
$MAXACTVP
 70
    64
  9
$PINSBASE
 10
0.0
 20
0.0
 30
0.0
  9
$PLIMCHECK
 70
     0
  9
$PEXTMIN
 10
1.000000000000000E+20
 20
1.000000000000000E+20
 30
1.000000000000000E+20
  9
$PEXTMAX
 10
-1.000000000000000E+20
 20
-1.000000000000000E+20
 30
-1.000000000000000E+20
  9
$PLIMMIN
 10
0.0
 20
0.0
  9
$PLIMMAX
 10
12.0
 20
9.0
  9
$UNITMODE
 70
     0
  9
$VISRETAIN
 70
     1
  9
$PLINEGEN
 70
     0
  9
$PSLTSCALE
 70
     1
  9
$TREEDEPTH
 70
  3020
  9
$PICKSTYLE
 70
     1
  9
$CMLSTYLE
  2
STANDARD
  9
$CMLJUST
 70
     0
  9
$CMLSCALE
 40
1.0
  9
$PROXYGRAPHICS
 70
     1
  9
$MEASUREMENT
 70
     0
  0
ENDSEC
  0
SECTION
  2
CLASSES
  0
CLASS
  1
ACDBDICTIONARYWDFLT
  2
AcDbDictionaryWithDefault
  3
ObjectDBX Classes
 90
        0
280
     0
281
     0
  0
CLASS
  1
VISUALSTYLE
  2
AcDbVisualStyle
  3
ObjectDBX Classes
 90
     4095
280
     0
281
     0
  0
CLASS
  1
MATERIAL
  2
AcDbMaterial
  3
ObjectDBX Classes
 90
     1153
280
     0
281
     0
  0
CLASS
  1
SUN
  2
AcDbSun
  3
SCENEOE
 90
     1024
280
     0
281
     0
  0
CLASS
  1
DICTIONARYVAR
  2
AcDbDictionaryVar
  3
ObjectDBX Classes
 90
        0
280
     0
281
     0
  0
CLASS
  1
XRECORD
  2
AcDbXrecord
  3
AutoCAD 2000
 90
        0
280
     0
281
     0
  0
CLASS
  1
LWPOLYLINE
  2
AcDbPolyline
  3
AutoCAD 2000
 90
        0
280
     0
281
     1
  0
CLASS
  1
HATCH
  2
AcDbHatch
  3
AutoCAD 2000
 90
        0
280
     0
281
     1
  0
CLASS
  1
ACDBPLACEHOLDER
  2
AcDbPlaceHolder
  3
ObjectDBX Classes
 90
        0
280
     0
281
     0
  0
CLASS
  1
LAYOUT
  2
AcDbLayout
  3
ObjectDBX Classes
 90
        0
280
     0
281
     0
  0
ENDSEC
  0
SECTION
  2
TABLES
  0
TABLE
  2
VPORT
  5
8
330
0
100
AcDbSymbolTable
 70
     1
  0
VPORT
  5
29
330
8
100
AcDbSymbolTableRecord
100
AcDbViewportTableRecord
  2
*ACTIVE
 70
     0
 10
0.0
 20
0.0
 11
1.0
 21
1.0
 12
0.0
 22
0.0
 13
0.0
 23
0.0
 14
0.5
 24
0.5
 15
0.5
 25
0.5
 16
0.0
 26
0.0
 36
1.0
 17
100.0611110860992
 27
127.0194444126945
 37
0.0
 40
296.9999999257403
 41
0.7070707070707531
 42
50.0
 43
0.0
 44
0.0
 50
0.0
 51
0.0
 71
     0
 72
   100
 73
     1
 74
     3
 75
     0
 76
     0
 77
     0
 78
     0
  0
ENDTAB
  0
TABLE
  2
LTYPE
  5
5
330
0
100
AcDbSymbolTable
 70
     4
  0
LTYPE
  5
14
330
5
100
AcDbSymbolTableRecord
100
AcDbLinetypeTableRecord
  2
BYBLOCK
 70
     0
  3

 72
    65
 73
     0
 40
0.0
  0
LTYPE
  5
15
330
5
100
AcDbSymbolTableRecord
100
AcDbLinetypeTableRecord
  2
BYLAYER
 70
     0
  3

 72
    65
 73
     0
 40
0.0
  0
LTYPE
  5
16
330
5
100
AcDbSymbolTableRecord
100
AcDbLinetypeTableRecord
  2
CONTINUOUS
 70
     0
  3
Solid line
 72
    65
 73
     0
 40
0.0
  0
LTYPE
  5
384
330
5
100
AcDbSymbolTableRecord
100
AcDbLinetypeTableRecord
  2
AI-LINETYPE-1
 70
     0
  3
Adobe Illustrator Linetype No. 1
 72
    65
 73
     4
 40
5.997222220722918
 49
4.233333332275
 74
     0
 49
-0.7055555553791667
 74
     0
 49
0.3527777776895833
 74
     0
 49
-0.7055555553791667
 74
     0
  0
LTYPE
  5
389
330
5
100
AcDbSymbolTableRecord
100
AcDbLinetypeTableRecord
  2
AI-LINETYPE-2
 70
     0
  3
Adobe Illustrator Linetype No. 2
 72
    65
 73
     4
 40
5.997222220722918
 49
4.233333332275
 74
     0
 49
-0.7055555553791667
 74
     0
 49
0.3527777776895833
 74
     0
 49
-0.7055555553791667
 74
     0
  0
LTYPE
  5
38E
330
5
100
AcDbSymbolTableRecord
100
AcDbLinetypeTableRecord
  2
AI-LINETYPE-3
 70
     0
  3
Adobe Illustrator Linetype No. 3
 72
    65
 73
     4
 40
5.997222220722918
 49
4.233333332275
 74
     0
 49
-0.7055555553791667
 74
     0
 49
0.3527777776895833
 74
     0
 49
-0.7055555553791667
 74
     0
  0
ENDTAB
  0
TABLE
  2
LAYER
  5
2
330
0
100
AcDbSymbolTable
 70
     5
  0
LAYER
  5
10
330
2
100
AcDbSymbolTableRecord
100
AcDbLayerTableRecord
  2
0
 70
     0
 62
     7
  6
CONTINUOUS
  0
LAYER
  5
40
330
2
100
AcDbSymbolTableRecord
100
AcDbLayerTableRecord
  2
GRAU_10_
 70
     0
 62
     7
  6
CONTINUOUS
  0
LAYER
  5
380
330
2
100
AcDbSymbolTableRecord
100
AcDbLayerTableRecord
  2
STANDARDEBENE
 70
     0
 62
     7
  6
CONTINUOUS
  0
LAYER
  5
398
330
2
100
AcDbSymbolTableRecord
100
AcDbLayerTableRecord
  2
BEMA_U_00DFUNG
 70
     1
 62
     7
  6
CONTINUOUS
  0
LAYER
  5
6B9
330
2
100
AcDbSymbolTableRecord
100
AcDbLayerTableRecord
  2
TEXT
 70
     1
 62
     7
  6
CONTINUOUS
  0
ENDTAB
  0
TABLE
  2
STYLE
  5
3
330
0
100
AcDbSymbolTable
 70
     1
  0
STYLE
  5
11
330
3
100
AcDbSymbolTableRecord
100
AcDbTextStyleTableRecord
  2
STANDARD
 70
     0
 40
0.0
 41
1.0
 50
0.0
 71
     0
 42
0.2
  3
txt
  4

  0
ENDTAB
  0
TABLE
  2
VIEW
  5
6
330
0
100
AcDbSymbolTable
 70
     0
  0
ENDTAB
  0
TABLE
  2
UCS
  5
7
330
0
100
AcDbSymbolTable
 70
     0
  0
ENDTAB
  0
TABLE
  2
APPID
  5
9
330
0
100
AcDbSymbolTable
 70
     1
  0
APPID
  5
12
330
9
100
AcDbSymbolTableRecord
100
AcDbRegAppTableRecord
  2
ACAD
 70
     0
  0
ENDTAB
  0
TABLE
  2
DIMSTYLE
  5
A
330
0
100
AcDbSymbolTable
 70
     1
  0
DIMSTYLE
105
27
330
A
100
AcDbSymbolTableRecord
100
AcDbDimStyleTableRecord
  2
STANDARD
 70
     0
  3

  4

  5

  6

  7

 40
1.0
 41
0.18
 42
0.0625
 43
0.38
 44
0.18
 45
0.0
 46
0.0
 47
0.0
 48
0.0
140
0.18
141
0.09
142
0.0
143
25.4
144
1.0
145
0.0
146
1.0
147
0.09
 71
     0
 72
     0
 73
     1
 74
     1
 75
     0
 76
     0
 77
     0
 78
     0
170
     0
171
     2
172
     0
173
     0
174
     0
175
     0
176
     0
177
     0
178
     0
270
     2
271
     4
272
     4
273
     2
274
     2
340
11
275
     0
280
     0
281
     0
282
     0
283
     1
284
     0
285
     0
286
     0
287
     3
288
     0
  0
ENDTAB
  0
TABLE
  2
BLOCK_RECORD
  5
1
330
0
100
AcDbSymbolTable
 70
     1
  0
BLOCK_RECORD
  5
1F
330
1
100
AcDbSymbolTableRecord
100
AcDbBlockTableRecord
  2
*MODEL_SPACE
  0
BLOCK_RECORD
  5
1B
330
1
100
AcDbSymbolTableRecord
100
AcDbBlockTableRecord
  2
*PAPER_SPACE
  0
ENDTAB
  0
ENDSEC
  0
SECTION
  2
BLOCKS
  0
BLOCK
  5
20
330
1F
100
AcDbEntity
  8
0
100
AcDbBlockBegin
  2
*MODEL_SPACE
 70
     0
 10
0.0
 20
0.0
 30
0.0
  3
*MODEL_SPACE
  1

  0
ENDBLK
  5
21
330
1F
100
AcDbEntity
  8
0
100
AcDbBlockEnd
  0
BLOCK
  5
1C
330
1B
100
AcDbEntity
 67
     1
  8
0
100
AcDbBlockBegin
  2
*PAPER_SPACE
 70
     0
 10
0.0
 20
0.0
 30
0.0
  3
*PAPER_SPACE
  1

  0
ENDBLK
  5
1D
330
1B
100
AcDbEntity
 67
     1
  8
0
100
AcDbBlockEnd
  0
ENDSEC
  0
SECTION
  2
ENTITIES
  0
POLYLINE
  5
41
330
1F
100
AcDbEntity
  8
GRAU_10_
 62
     7
100
AcDb2dPolyline
 66
     1
 10
0.0
 20
0.0
 30
0.0
  0
VERTEX
  5
42
330
41
100
AcDbEntity
  8
GRAU_10_
 62
     7
100
AcDbVertex
100
AcDb2dVertex
 10
137.5126161194214
 20
190.7522986160677
 30
0.0
  0
VERTEX
  5
43
330
41
100
AcDbEntity
  8
GRAU_10_
 62
     7
100
AcDbVertex
100
AcDb2dVertex
 10
137.7694383415794
 20
191.3336763937005
 30
0.0
  0
VERTEX
  5
44
330
41
100
AcDbEntity
  8
GRAU_10_
 62
     7
100
AcDbVertex
100
AcDb2dVertex
 10
138.0121494526299
 20
191.9228152824421
 30
0.0
  0
VERTEX
  5
45
330
41
100
AcDbEntity
  8
GRAU_10_
 62
     7
100
AcDbVertex
100
AcDb2dVertex
 10
138.0121494526299
 20
190.2534708384151
 30
0.0
  0
VERTEX
  5
46
330
41
100
AcDbEntity
  8
GRAU_10_
 62
     7
100
AcDbVertex
100
AcDb2dVertex
 10
138.0121494526299
 20
188.6903125054723
 30
0.0
  0
SEQEND
  5
47
330
41
100
AcDbEntity
  8
GRAU_10_
 62
     7
  0
POLYLINE
  5
48
330
1F
100
AcDbEntity
  8
GRAU_10_
 62
     7
100
AcDb2dPolyline
 66
     1
 10
0.0
 20
0.0
 30
0.0
  0
VERTEX
  5
49
330
48
100
AcDbEntity
  8
GRAU_10_
 62
     7
100
AcDbVertex
100
AcDb2dVertex
 10
137.5126161194214
 20
189.2755708386592
 30
0.0
  0
VERTEX
  5
4A
330
48
100
AcDbEntity
  8
GRAU_10_
 62
     7
100
AcDbVertex
100
AcDb2dVertex
 10
137.7694383415794
 20
188.9852347276206
 30
0.0
  0
VERTEX
  5
4B
330
48
100
AcDbEntity
  8
GRAU_10_
 62
     7
100
AcDbVertex
100
AcDb2dVertex
 10
138.0121494526299
 20
188.6903125054723
 30
0.0
  0
SEQEND
  5
4C
330
48
100
AcDbEntity
  8
GRAU_10_
 62
     7
  0
POLYLINE
  5
4D
330
1F
100
AcDbEntity
  8
GRAU_10_
 62
     7
100
AcDb2dPolyline
 66
     1
 10
0.0
 20
0.0
 30
0.0
  0
VERTEX
  5
4E
330
4D
100
AcDbEntity
  8
GRAU_10_
 62
     7
100
AcDbVertex
100
AcDb2dVertex
 10
137.5126161194214
 20
189.2755708386592
 30
0.0
  0
VERTEX
  5
4F
330
4D
100
AcDbEntity
  8
GRAU_10_
 62
     7
100
AcDbVertex
100
AcDb2dVertex
 10
137.5126161194214
 20
190.0029986162551
 30
0.0
  0
VERTEX
  5
50
330
4D
100
AcDbEntity
  8
GRAU_10_
 62
     7
100
AcDbVertex
100
AcDb2dVertex
 10
137.5126161194214
 20
190.7522986160677
 30
0.0
  0
SEQEND
  5
51
330
4D
100
AcDbEntity
  8
GRAU_10_
 62
     7
  0
POLYLINE
  5
52
330
1F
100
AcDbEntity
  8
GRAU_10_
 62
     7
100
AcDb2dPolyline
 66
     1
 10
0.0
 20
0.0
 30
0.0
  0
VERTEX
  5
53
330
52
100
AcDbEntity
  8
GRAU_10_
 62
     7
100
AcDbVertex
100
AcDb2dVertex
 10
132.512696676227
 20
206.1041291677856
 30
0.0
  0
VERTEX
  5
54
330
52
100
AcDbEntity
  8
GRAU_10_
 62
     7
100
AcDbVertex
100
AcDb2dVertex
 10
132.255874454069
 20
205.5231041679309
 30
0.0
  0
VERTEX
  5
55
330
52
100
AcDbEntity
  8
GRAU_10_
 62
     7
100
AcDbVertex
100
AcDb2dVertex
 10
132.0124577874633
 20
204.9336125014115
 30
0.0
  0
VERTEX
  5
56
330
52
100
AcDbEntity
  8
GRAU_10_
 62
     7
100
AcDbVertex
100
AcDb2dVertex
 10
132.0124577874633
 20
206.6033097232163
 30
0.0
  0
VERTEX
  5
57
330
52
100
AcDbEntity
  8
GRAU_10_
 62
     7
100
AcDbVertex
100
AcDb2dVertex
 10
132.0124577874633
 20
208.1657625006035
 30
0.0
  0
VERTEX
  5
58
330
52
100
AcDbEntity
  8
GRAU_10_
 62
     7
100
AcDbVertex
100
AcDb2dVertex
 10
132.2551688985138
 20
207.8718986117879
 30
0.0
  0
VERTEX
  5
59
330
52
100
AcDbEntity
  8
GRAU_10_
 62
     7
100
AcDbVertex
100
AcDb2dVertex
 10
132.512696676227
 20
207.5808569451941
 30
0.0
  0
VERTEX
  5
5A
330
52
100
AcDbEntity
  8
GRAU_10_
 62
     7
100
AcDbVertex
100
AcDb2dVertex
 10
132.512696676227
 20
206.8530763898204
 30
0.0
  0
VERTEX
  5
5B
330
52
100
AcDbEntity
  8
GRAU_10_
 62
     7
100
AcDbVertex
100
AcDb2dVertex
 10
132.512696676227
 20
206.1041291677856
 30
0.0
  0
SEQEND
  5
5C
330
52
100
AcDbEntity
  8
GRAU_10_
 62
     7
  0
POLYLINE
  5
5D
330
1F
100
AcDbEntity
  8
GRAU_10_
 62
     7
100
AcDb2dPolyline
 66
     1
 10
0.0
 20
0.0
 30
0.0
  0
VERTEX
  5
5E
330
5D
100
AcDbEntity
  8
GRAU_10_
 62
     7
100
AcDbVertex
100
AcDb2dVertex
 10
132.512696676227
 20
206.1041291677856
 30
0.0
  0
VERTEX
  5
5F
330
5D
100
AcDbEntity
  8
GRAU_10_
 62
     7
100
AcDbVertex
100
AcDb2dVertex
 10
137.5126161194214
 20
206.1041291677856
 30
0.0
  0
SEQEND
  5
60
330
5D
100
AcDbEntity
  8
GRAU_10_
 62
     7
  0
POLYLINE
  5
61
330
1F
100
AcDbEntity
  8
GRAU_10_
 62
     7
100
AcDb2dPolyline
 66
     1
 10
0.0
 20
0.0
 30
0.0
  0
VERTEX
  5
62
330
61
100
AcDbEntity
  8
GRAU_10_
 62
     7
100
AcDbVertex
100
AcDb2dVertex
 10
138.0121494526299
 20
204.9336125014115
 30
0.0
  0
VERTEX
  5
63
330
61
100
AcDbEntity
  8
GRAU_10_
 62
     7
100
AcDbVertex
100
AcDb2dVertex
 10
137.7697911193572
 20
205.5216930568198
 30
0.0
  0
VERTEX
  5
64
330
61
100
AcDbEntity
  8
GRAU_10_
 62
     7
100
AcDbVertex
100
AcDb2dVertex
 10
137.5126161194214
 20
206.1041291677856
 30
0.0
  0
SEQEND
  5
65
330
61
100
AcDbEntity
  8
GRAU_10_
 62
     7
  0
POLYLINE
  5
66
330
1F
100
AcDbEntity
  8
GRAU_10_
 62
     7
100
AcDb2dPolyline
 66
     1
 10
0.0
 20
0.0
 30
0.0
  0
VERTEX
  5
67
330
66
100
AcDbEntity
  8
GRAU_10_
 62
     7
100
AcDbVertex
100
AcDb2dVertex
 10
138.0121494526299
 20
191.9228152824421
 30
0.0
  0
VERTEX
  5
68
330
66
100
AcDbEntity
  8
GRAU_10_
 62
     7
100
AcDbVertex
100
AcDb2dVertex
 10
138.0121494526299
 20
204.9336125014115
 30
0.0
  0
SEQEND
  5
69
330
66
100
AcDbEntity
  8
GRAU_10_
 62
     7
  0
POLYLINE
  5
6A
330
1F
100
AcDbEntity
  8
GRAU_10_
 62
     7
100
AcDb2dPolyline
 66
     1
 10
0.0
 20
0.0
 30
0.0
  0
VERTEX
  5
6B
330
6A
100
AcDbEntity
  8
GRAU_10_
 62
     7
100
AcDbVertex
100
AcDb2dVertex
 10
132.512696676227
 20
190.7522986160677
 30
0.0
  0
VERTEX
  5
6C
330
6A
100
AcDbEntity
  8
GRAU_10_
 62
     7
100
AcDbVertex
100
AcDb2dVertex
 10
137.5126161194214
 20
190.7522986160677
 30
0.0
  0
SEQEND
  5
6D
330
6A
100
AcDbEntity
  8
GRAU_10_
 62
     7
  0
POLYLINE
  5
6E
330
1F
100
AcDbEntity
  8
GRAU_10_
 62
     7
100
AcDb2dPolyline
 66
     1
 10
0.0
 20
0.0
 30
0.0
  0
VERTEX
  5
6F
330
6E
100
AcDbEntity
  8
GRAU_10_
 62
     7
100
AcDbVertex
100
AcDb2dVertex
 10
132.0124577874633
 20
191.9228152824421
 30
0.0
  0
VERTEX
  5
70
330
6E
100
AcDbEntity
  8
GRAU_10_
 62
     7
100
AcDbVertex
100
AcDb2dVertex
 10
132.2551688985138
 20
191.3343819492557
 30
0.0
  0
VERTEX
  5
71
330
6E
100
AcDbEntity
  8
GRAU_10_
 62
     7
100
AcDbVertex
100
AcDb2dVertex
 10
132.512696676227
 20
190.7522986160677
 30
0.0
  0
SEQEND
  5
72
330
6E
100
AcDbEntity
  8
GRAU_10_
 62
     7
  0
POLYLINE
  5
73
330
1F
100
AcDbEntity
  8
GRAU_10_
 62
     7
100
AcDb2dPolyline
 66
     1
 10
0.0
 20
0.0
 30
0.0
  0
VERTEX
  5
74
330
73
100
AcDbEntity
  8
GRAU_10_
 62
     7
100
AcDbVertex
100
AcDb2dVertex
 10
132.0124577874633
 20
191.9228152824421
 30
0.0
  0
VERTEX
  5
75
330
73
100
AcDbEntity
  8
GRAU_10_
 62
     7
100
AcDbVertex
100
AcDb2dVertex
 10
132.0124577874633
 20
204.9336125014115
 30
0.0
  0
SEQEND
  5
76
330
73
100
AcDbEntity
  8
GRAU_10_
 62
     7
  0
POLYLINE
  5
77
330
1F
100
AcDbEntity
  8
GRAU_10_
 62
     7
100
AcDb2dPolyline
 66
     1
 10
0.0
 20
0.0
 30
0.0
  0
VERTEX
  5
78
330
77
100
AcDbEntity
  8
GRAU_10_
 62
     7
100
AcDbVertex
100
AcDb2dVertex
 10
132.512696676227
 20
189.2755708386592
 30
0.0
  0
VERTEX
  5
79
330
77
100
AcDbEntity
  8
GRAU_10_
 62
     7
100
AcDbVertex
100
AcDb2dVertex
 10
137.5126161194214
 20
189.2755708386592
 30
0.0
  0
SEQEND
  5
7A
330
77
100
AcDbEntity
  8
GRAU_10_
 62
     7
  0
POLYLINE
  5
7B
330
1F
100
AcDbEntity
  8
GRAU_10_
 62
     7
100
AcDb2dPolyline
 66
     1
 10
0.0
 20
0.0
 30
0.0
  0
VERTEX
  5
7C
330
7B
100
AcDbEntity
  8
GRAU_10_
 62
     7
100
AcDbVertex
100
AcDb2dVertex
 10
132.512696676227
 20
190.7522986160677
 30
0.0
  0
VERTEX
  5
7D
330
7B
100
AcDbEntity
  8
GRAU_10_
 62
     7
100
AcDbVertex
100
AcDb2dVertex
 10
132.512696676227
 20
190.0029986162551
 30
0.0
  0
VERTEX
  5
7E
330
7B
100
AcDbEntity
  8
GRAU_10_
 62
     7
100
AcDbVertex
100
AcDb2dVertex
 10
132.512696676227
 20
189.2755708386592
 30
0.0
  0
SEQEND
  5
7F
330
7B
100
AcDbEntity
  8
GRAU_10_
 62
     7
  0
POLYLINE
  5
80
330
1F
100
AcDbEntity
  8
GRAU_10_
 62
     7
100
AcDb2dPolyline
 66
     1
 10
0.0
 20
0.0
 30
0.0
  0
VERTEX
  5
81
330
80
100
AcDbEntity
  8
GRAU_10_
 62
     7
100
AcDbVertex
100
AcDb2dVertex
 10
137.5126161194214
 20
207.5808569451941
 30
0.0
  0
VERTEX
  5
82
330
80
100
AcDbEntity
  8
GRAU_10_
 62
     7
100
AcDbVertex
100
AcDb2dVertex
 10
137.7694383415794
 20
207.8711930562327
 30
0.0
  0
VERTEX
  5
83
330
80
100
AcDbEntity
  8
GRAU_10_
 62
     7
100
AcDbVertex
100
AcDb2dVertex
 10
138.0121494526299
 20
208.1657625006035
 30
0.0
  0
SEQEND
  5
84
330
80
100
AcDbEntity
  8
GRAU_10_
 62
     7
  0
POLYLINE
  5
85
330
1F
100
AcDbEntity
  8
GRAU_10_
 62
     7
100
AcDb2dPolyline
 66
     1
 10
0.0
 20
0.0
 30
0.0
  0
VERTEX
  5
86
330
85
100
AcDbEntity
  8
GRAU_10_
 62
     7
100
AcDbVertex
100
AcDb2dVertex
 10
137.5126161194214
 20
206.1041291677856
 30
0.0
  0
VERTEX
  5
87
330
85
100
AcDbEntity
  8
GRAU_10_
 62
     7
100
AcDbVertex
100
AcDb2dVertex
 10
137.5126161194214
 20
206.8530763898204
 30
0.0
  0
VERTEX
  5
88
330
85
100
AcDbEntity
  8
GRAU_10_
 62
     7
100
AcDbVertex
100
AcDb2dVertex
 10
137.5126161194214
 20
207.5808569451941
 30
0.0
  0
SEQEND
  5
89
330
85
100
AcDbEntity
  8
GRAU_10_
 62
     7
  0
POLYLINE
  5
8A
330
1F
100
AcDbEntity
  8
GRAU_10_
 62
     7
100
AcDb2dPolyline
 66
     1
 10
0.0
 20
0.0
 30
0.0
  0
VERTEX
  5
8B
330
8A
100
AcDbEntity
  8
GRAU_10_
 62
     7
100
AcDbVertex
100
AcDb2dVertex
 10
138.0121494526299
 20
208.1657625006035
 30
0.0
  0
VERTEX
  5
8C
330
8A
100
AcDbEntity
  8
GRAU_10_
 62
     7
100
AcDbVertex
100
AcDb2dVertex
 10
138.0121494526299
 20
206.6033097232163
 30
0.0
  0
VERTEX
  5
8D
330
8A
100
AcDbEntity
  8
GRAU_10_
 62
     7
100
AcDbVertex
100
AcDb2dVertex
 10
138.0121494526299
 20
204.9336125014115
 30
0.0
  0
SEQEND
  5
8E
330
8A
100
AcDbEntity
  8
GRAU_10_
 62
     7
  0
POLYLINE
  5
8F
330
1F
100
AcDbEntity
  8
GRAU_10_
 62
     7
100
AcDb2dPolyline
 66
     1
 10
0.0
 20
0.0
 30
0.0
  0
VERTEX
  5
90
330
8F
100
AcDbEntity
  8
GRAU_10_
 62
     7
100
AcDbVertex
100
AcDb2dVertex
 10
132.0124577874633
 20
188.6903125054723
 30
0.0
  0
VERTEX
  5
91
330
8F
100
AcDbEntity
  8
GRAU_10_
 62
     7
100
AcDbVertex
100
AcDb2dVertex
 10
132.2551688985138
 20
188.9848819498432
 30
0.0
  0
VERTEX
  5
92
330
8F
100
AcDbEntity
  8
GRAU_10_
 62
     7
100
AcDbVertex
100
AcDb2dVertex
 10
132.512696676227
 20
189.2755708386592
 30
0.0
  0
SEQEND
  5
93
330
8F
100
AcDbEntity
  8
GRAU_10_
 62
     7
  0
POLYLINE
  5
94
330
1F
100
AcDbEntity
  8
GRAU_10_
 62
     7
100
AcDb2dPolyline
 66
     1
 10
0.0
 20
0.0
 30
0.0
  0
VERTEX
  5
95
330
94
100
AcDbEntity
  8
GRAU_10_
 62
     7
100
AcDbVertex
100
AcDb2dVertex
 10
132.0124577874633
 20
188.6903125054723
 30
0.0
  0
VERTEX
  5
96
330
94
100
AcDbEntity
  8
GRAU_10_
 62
     7
100
AcDbVertex
100
AcDb2dVertex
 10
132.0124577874633
 20
190.2534708384151
 30
0.0
  0
VERTEX
  5
97
330
94
100
AcDbEntity
  8
GRAU_10_
 62
     7
100
AcDbVertex
100
AcDb2dVertex
 10
132.0124577874633
 20
191.9228152824421
 30
0.0
  0
SEQEND
  5
98
330
94
100
AcDbEntity
  8
GRAU_10_
 62
     7
  0
POLYLINE
  5
99
330
1F
100
AcDbEntity
  8
GRAU_10_
 62
     7
100
AcDb2dPolyline
 66
     1
 10
0.0
 20
0.0
 30
0.0
  0
VERTEX
  5
9A
330
99
100
AcDbEntity
  8
GRAU_10_
 62
     7
100
AcDbVertex
100
AcDb2dVertex
 10
132.512696676227
 20
207.5808569451941
 30
0.0
  0
VERTEX
  5
9B
330
99
100
AcDbEntity
  8
GRAU_10_
 62
     7
100
AcDbVertex
100
AcDb2dVertex
 10
137.5126161194214
 20
207.5808569451941
 30
0.0
  0
SEQEND
  5
9C
330
99
100
AcDbEntity
  8
GRAU_10_
 62
     7
  0
POLYLINE
  5
9D
330
1F
100
AcDbEntity
  8
GRAU_10_
 62
     7
100
AcDb2dPolyline
 66
     1
 10
0.0
 20
0.0
 30
0.0
  0
VERTEX
  5
9E
330
9D
100
AcDbEntity
  8
GRAU_10_
 62
     7
100
AcDbVertex
100
AcDb2dVertex
 10
132.512696676227
 20
215.2569486099417
 30
0.0
  0
VERTEX
  5
9F
330
9D
100
AcDbEntity
  8
GRAU_10_
 62
     7
100
AcDbVertex
100
AcDb2dVertex
 10
137.5126161194214
 20
215.2569486099417
 30
0.0
  0
SEQEND
  5
A0
330
9D
100
AcDbEntity
  8
GRAU_10_
 62
     7
  0
POLYLINE
  5
A1
330
1F
100
AcDbEntity
  8
GRAU_10_
 62
     7
100
AcDb2dPolyline
 66
     1
 10
0.0
 20
0.0
 30
0.0
  0
VERTEX
  5
A2
330
A1
100
AcDbEntity
  8
GRAU_10_
 62
     7
100
AcDbVertex
100
AcDb2dVertex
 10
138.0121494526299
 20
214.6716902767548
 30
0.0
  0
VERTEX
  5
A3
330
A1
100
AcDbEntity
  8
GRAU_10_
 62
     7
100
AcDbVertex
100
AcDb2dVertex
 10
137.7697911193572
 20
214.9652013877923
 30
0.0
  0
VERTEX
  5
A4
330
A1
100
AcDbEntity
  8
GRAU_10_
 62
     7
100
AcDbVertex
100
AcDb2dVertex
 10
137.5126161194214
 20
215.2569486099417
 30
0.0
  0
SEQEND
  5
A5
330
A1
100
AcDbEntity
  8
GRAU_10_
 62
     7
  0
POLYLINE
  5
A6
330
1F
100
AcDbEntity
  8
GRAU_10_
 62
     7
100
AcDb2dPolyline
 66
     1
 10
0.0
 20
0.0
 30
0.0
  0
VERTEX
  5
A7
330
A6
100
AcDbEntity
  8
GRAU_10_
 62
     7
100
AcDbVertex
100
AcDb2dVertex
 10
132.512696676227
 20
215.2569486099417
 30
0.0
  0
VERTEX
  5
A8
330
A6
100
AcDbEntity
  8
GRAU_10_
 62
     7
100
AcDbVertex
100
AcDb2dVertex
 10
132.255874454069
 20
214.9659069433479
 30
0.0
  0
VERTEX
  5
A9
330
A6
100
AcDbEntity
  8
GRAU_10_
 62
     7
100
AcDbVertex
100
AcDb2dVertex
 10
132.0124577874633
 20
214.6716902767548
 30
0.0
  0
SEQEND
  5
AA
330
A6
100
AcDbEntity
  8
GRAU_10_
 62
     7
  0
POLYLINE
  5
AB
330
1F
100
AcDbEntity
  8
GRAU_10_
 62
     7
100
AcDb2dPolyline
 66
     1
 10
0.0
 20
0.0
 30
0.0
  0
VERTEX
  5
AC
330
AB
100
AcDbEntity
  8
GRAU_10_
 62
     7
100
AcDbVertex
100
AcDb2dVertex
 10
132.0124577874633
 20
208.1657625006035
 30
0.0
  0
VERTEX
  5
AD
330
AB
100
AcDbEntity
  8
GRAU_10_
 62
     7
100
AcDbVertex
100
AcDb2dVertex
 10
132.0124577874633
 20
214.6716902767548
 30
0.0
  0
SEQEND
  5
AE
330
AB
100
AcDbEntity
  8
GRAU_10_
 62
     7
  0
POLYLINE
  5
AF
330
1F
100
AcDbEntity
  8
GRAU_10_
 62
     7
100
AcDb2dPolyline
 66
     1
 10
0.0
 20
0.0
 30
0.0
  0
VERTEX
  5
B0
330
AF
100
AcDbEntity
  8
GRAU_10_
 62
     7
100
AcDbVertex
100
AcDb2dVertex
 10
138.0121494526299
 20
208.1657625006035
 30
0.0
  0
VERTEX
  5
B1
330
AF
100
AcDbEntity
  8
GRAU_10_
 62
     7
100
AcDbVertex
100
AcDb2dVertex
 10
138.0121494526299
 20
214.6716902767548
 30
0.0
  0
SEQEND
  5
B2
330
AF
100
AcDbEntity
  8
GRAU_10_
 62
     7
  0
POLYLINE
  5
B3
330
1F
100
AcDbEntity
  8
GRAU_10_
 62
     7
100
AcDb2dPolyline
 66
     1
 10
0.0
 20
0.0
 30
0.0
  0
VERTEX
  5
B4
330
B3
100
AcDbEntity
  8
GRAU_10_
 62
     7
100
AcDbVertex
100
AcDb2dVertex
 10
132.512696676227
 20
181.5994791739116
 30
0.0
  0
VERTEX
  5
B5
330
B3
100
AcDbEntity
  8
GRAU_10_
 62
     7
100
AcDbVertex
100
AcDb2dVertex
 10
132.255874454069
 20
181.8905208405058
 30
0.0
  0
VERTEX
  5
B6
330
B3
100
AcDbEntity
  8
GRAU_10_
 62
     7
100
AcDbVertex
100
AcDb2dVertex
 10
132.0124577874633
 20
182.1847375070985
 30
0.0
  0
SEQEND
  5
B7
330
B3
100
AcDbEntity
  8
GRAU_10_
 62
     7
  0
POLYLINE
  5
B8
330
1F
100
AcDbEntity
  8
GRAU_10_
 62
     7
100
AcDb2dPolyline
 66
     1
 10
0.0
 20
0.0
 30
0.0
  0
VERTEX
  5
B9
330
B8
100
AcDbEntity
  8
GRAU_10_
 62
     7
100
AcDbVertex
100
AcDb2dVertex
 10
138.0121494526299
 20
182.1847375070985
 30
0.0
  0
VERTEX
  5
BA
330
B8
100
AcDbEntity
  8
GRAU_10_
 62
     7
100
AcDbVertex
100
AcDb2dVertex
 10
137.7697911193572
 20
181.8908736182832
 30
0.0
  0
VERTEX
  5
BB
330
B8
100
AcDbEntity
  8
GRAU_10_
 62
     7
100
AcDbVertex
100
AcDb2dVertex
 10
137.5126161194214
 20
181.5994791739116
 30
0.0
  0
SEQEND
  5
BC
330
B8
100
AcDbEntity
  8
GRAU_10_
 62
     7
  0
POLYLINE
  5
BD
330
1F
100
AcDbEntity
  8
GRAU_10_
 62
     7
100
AcDb2dPolyline
 66
     1
 10
0.0
 20
0.0
 30
0.0
  0
VERTEX
  5
BE
330
BD
100
AcDbEntity
  8
GRAU_10_
 62
     7
100
AcDbVertex
100
AcDb2dVertex
 10
132.512696676227
 20
181.5994791739116
 30
0.0
  0
VERTEX
  5
BF
330
BD
100
AcDbEntity
  8
GRAU_10_
 62
     7
100
AcDbVertex
100
AcDb2dVertex
 10
137.5126161194214
 20
181.5994791739116
 30
0.0
  0
SEQEND
  5
C0
330
BD
100
AcDbEntity
  8
GRAU_10_
 62
     7
  0
POLYLINE
  5
C1
330
1F
100
AcDbEntity
  8
GRAU_10_
 62
     7
100
AcDb2dPolyline
 66
     1
 10
0.0
 20
0.0
 30
0.0
  0
VERTEX
  5
C2
330
C1
100
AcDbEntity
  8
GRAU_10_
 62
     7
100
AcDbVertex
100
AcDb2dVertex
 10
132.0124577874633
 20
188.6903125054723
 30
0.0
  0
VERTEX
  5
C3
330
C1
100
AcDbEntity
  8
GRAU_10_
 62
     7
100
AcDbVertex
100
AcDb2dVertex
 10
132.0124577874633
 20
182.1847375070985
 30
0.0
  0
SEQEND
  5
C4
330
C1
100
AcDbEntity
  8
GRAU_10_
 62
     7
  0
POLYLINE
  5
C5
330
1F
100
AcDbEntity
  8
GRAU_10_
 62
     7
100
AcDb2dPolyline
 66
     1
 10
0.0
 20
0.0
 30
0.0
  0
VERTEX
  5
C6
330
C5
100
AcDbEntity
  8
GRAU_10_
 62
     7
100
AcDbVertex
100
AcDb2dVertex
 10
138.0121494526299
 20
188.6903125054723
 30
0.0
  0
VERTEX
  5
C7
330
C5
100
AcDbEntity
  8
GRAU_10_
 62
     7
100
AcDbVertex
100
AcDb2dVertex
 10
138.0121494526299
 20
182.1847375070985
 30
0.0
  0
SEQEND
  5
C8
330
C5
100
AcDbEntity
  8
GRAU_10_
 62
     7
  0
POLYLINE
  5
C9
330
1F
100
AcDbEntity
  8
GRAU_10_
 62
     7
100
AcDb2dPolyline
 66
     1
 10
0.0
 20
0.0
 30
0.0
  0
VERTEX
  5
CA
330
C9
100
AcDbEntity
  8
GRAU_10_
 62
     7
100
AcDbVertex
100
AcDb2dVertex
 10
124.5124022337827
 20
212.4280236106492
 30
0.0
  0
VERTEX
  5
CB
330
C9
100
AcDbEntity
  8
GRAU_10_
 62
     7
100
AcDbVertex
100
AcDb2dVertex
 10
123.5126300118105
 20
211.4286041664544
 30
0.0
  0
SEQEND
  5
CC
330
C9
100
AcDbEntity
  8
GRAU_10_
 62
     7
  0
POLYLINE
  5
CD
330
1F
100
AcDbEntity
  8
GRAU_10_
 62
     7
100
AcDb2dPolyline
 66
     1
 10
0.0
 20
0.0
 30
0.0
  0
VERTEX
  5
CE
330
CD
100
AcDbEntity
  8
GRAU_10_
 62
     7
100
AcDbVertex
100
AcDb2dVertex
 10
123.5126300118105
 20
185.4285291729544
 30
0.0
  0
VERTEX
  5
CF
330
CD
100
AcDbEntity
  8
GRAU_10_
 62
     7
100
AcDbVertex
100
AcDb2dVertex
 10
124.5124022337827
 20
184.4280513954267
 30
0.0
  0
SEQEND
  5
D0
330
CD
100
AcDbEntity
  8
GRAU_10_
 62
     7
  0
POLYLINE
  5
D1
330
1F
100
AcDbEntity
  8
GRAU_10_
 62
     7
100
AcDb2dPolyline
 66
     1
 10
0.0
 20
0.0
 30
0.0
  0
VERTEX
  5
D2
330
D1
100
AcDbEntity
  8
GRAU_10_
 62
     7
100
AcDbVertex
100
AcDb2dVertex
 10
123.5126300118105
 20
185.4285291729544
 30
0.0
  0
VERTEX
  5
D3
330
D1
100
AcDbEntity
  8
GRAU_10_
 62
     7
100
AcDbVertex
100
AcDb2dVertex
 10
123.5126300118105
 20
185.5304819507066
 30
0.0
  0
VERTEX
  5
D4
330
D1
100
AcDbEntity
  8
GRAU_10_
 62
     7
100
AcDbVertex
100
AcDb2dVertex
 10
123.5126300118105
 20
185.8363402839636
 30
0.0
  0
VERTEX
  5
D5
330
D1
100
AcDbEntity
  8
GRAU_10_
 62
     7
100
AcDbVertex
100
AcDb2dVertex
 10
123.5126300118105
 20
186.3411652838375
 30
0.0
  0
VERTEX
  5
D6
330
D1
100
AcDbEntity
  8
GRAU_10_
 62
     7
100
AcDbVertex
100
AcDb2dVertex
 10
123.5126300118105
 20
187.0364902836635
 30
0.0
  0
VERTEX
  5
D7
330
D1
100
AcDbEntity
  8
GRAU_10_
 62
     7
100
AcDbVertex
100
AcDb2dVertex
 10
123.5126300118105
 20
187.9113791723335
 30
0.0
  0
VERTEX
  5
D8
330
D1
100
AcDbEntity
  8
GRAU_10_
 62
     7
100
AcDbVertex
100
AcDb2dVertex
 10
123.5126300118105
 20
188.9513680609626
 30
0.0
  0
VERTEX
  5
D9
330
D1
100
AcDbEntity
  8
GRAU_10_
 62
     7
100
AcDbVertex
100
AcDb2dVertex
 10
123.5126300118105
 20
190.1419930606649
 30
0.0
  0
VERTEX
  5
DA
330
D1
100
AcDbEntity
  8
GRAU_10_
 62
     7
100
AcDbVertex
100
AcDb2dVertex
 10
123.5126300118105
 20
191.4627930603349
 30
0.0
  0
VERTEX
  5
DB
330
D1
100
AcDbEntity
  8
GRAU_10_
 62
     7
100
AcDbVertex
100
AcDb2dVertex
 10
123.5126300118105
 20
192.8929541710885
 30
0.0
  0
VERTEX
  5
DC
330
D1
100
AcDbEntity
  8
GRAU_10_
 62
     7
100
AcDbVertex
100
AcDb2dVertex
 10
123.5126300118105
 20
194.4109569484868
 30
0.0
  0
VERTEX
  5
DD
330
D1
100
AcDbEntity
  8
GRAU_10_
 62
     7
100
AcDbVertex
100
AcDb2dVertex
 10
123.5126300118105
 20
195.9921069480914
 30
0.0
  0
VERTEX
  5
DE
330
D1
100
AcDbEntity
  8
GRAU_10_
 62
     7
100
AcDbVertex
100
AcDb2dVertex
 10
123.5126300118105
 20
197.6117097254641
 30
0.0
  0
VERTEX
  5
DF
330
D1
100
AcDbEntity
  8
GRAU_10_
 62
     7
100
AcDbVertex
100
AcDb2dVertex
 10
123.5126300118105
 20
199.2447180583892
 30
0.0
  0
VERTEX
  5
E0
330
D1
100
AcDbEntity
  8
GRAU_10_
 62
     7
100
AcDbVertex
100
AcDb2dVertex
 10
123.5126300118105
 20
200.8643208357622
 30
0.0
  0
VERTEX
  5
E1
330
D1
100
AcDbEntity
  8
GRAU_10_
 62
     7
100
AcDbVertex
100
AcDb2dVertex
 10
123.5126300118105
 20
202.4451180575891
 30
0.0
  0
VERTEX
  5
E2
330
D1
100
AcDbEntity
  8
GRAU_10_
 62
     7
100
AcDbVertex
100
AcDb2dVertex
 10
123.5126300118105
 20
203.9631208349874
 30
0.0
  0
VERTEX
  5
E3
330
D1
100
AcDbEntity
  8
GRAU_10_
 62
     7
100
AcDbVertex
100
AcDb2dVertex
 10
123.5126300118105
 20
205.3943402790742
 30
0.0
  0
VERTEX
  5
E4
330
D1
100
AcDbEntity
  8
GRAU_10_
 62
     7
100
AcDbVertex
100
AcDb2dVertex
 10
123.5126300118105
 20
206.7144347231884
 30
0.0
  0
VERTEX
  5
E5
330
D1
100
AcDbEntity
  8
GRAU_10_
 62
     7
100
AcDbVertex
100
AcDb2dVertex
 10
123.5126300118105
 20
207.9047069451133
 30
0.0
  0
VERTEX
  5
E6
330
D1
100
AcDbEntity
  8
GRAU_10_
 62
     7
100
AcDbVertex
100
AcDb2dVertex
 10
123.5126300118105
 20
208.945754167075
 30
0.0
  0
VERTEX
  5
E7
330
D1
100
AcDbEntity
  8
GRAU_10_
 62
     7
100
AcDbVertex
100
AcDb2dVertex
 10
123.5126300118105
 20
209.8199375001901
 30
0.0
  0
VERTEX
  5
E8
330
D1
100
AcDbEntity
  8
GRAU_10_
 62
     7
100
AcDbVertex
100
AcDb2dVertex
 10
123.5126300118105
 20
210.5152625000161
 30
0.0
  0
VERTEX
  5
E9
330
D1
100
AcDbEntity
  8
GRAU_10_
 62
     7
100
AcDbVertex
100
AcDb2dVertex
 10
123.5126300118105
 20
211.0200874998901
 30
0.0
  0
VERTEX
  5
EA
330
D1
100
AcDbEntity
  8
GRAU_10_
 62
     7
100
AcDbVertex
100
AcDb2dVertex
 10
123.5126300118105
 20
211.3255930553692
 30
0.0
  0
VERTEX
  5
EB
330
D1
100
AcDbEntity
  8
GRAU_10_
 62
     7
100
AcDbVertex
100
AcDb2dVertex
 10
123.5126300118105
 20
211.4286041664544
 30
0.0
  0
SEQEND
  5
EC
330
D1
100
AcDbEntity
  8
GRAU_10_
 62
     7
  0
POLYLINE
  5
ED
330
1F
100
AcDbEntity
  8
GRAU_10_
 62
     7
100
AcDb2dPolyline
 66
     1
 10
0.0
 20
0.0
 30
0.0
  0
VERTEX
  5
EE
330
ED
100
AcDbEntity
  8
GRAU_10_
 62
     7
100
AcDbVertex
100
AcDb2dVertex
 10
124.5124022337827
 20
212.4280236106492
 30
0.0
  0
VERTEX
  5
EF
330
ED
100
AcDbEntity
  8
GRAU_10_
 62
     7
100
AcDbVertex
100
AcDb2dVertex
 10
124.5124022337827
 20
212.3264236106744
 30
0.0
  0
VERTEX
  5
F0
330
ED
100
AcDbEntity
  8
GRAU_10_
 62
     7
100
AcDbVertex
100
AcDb2dVertex
 10
124.5124022337827
 20
212.021270832973
 30
0.0
  0
VERTEX
  5
F1
330
ED
100
AcDbEntity
  8
GRAU_10_
 62
     7
100
AcDbVertex
100
AcDb2dVertex
 10
124.5124022337827
 20
211.5185624997653
 30
0.0
  0
VERTEX
  5
F2
330
ED
100
AcDbEntity
  8
GRAU_10_
 62
     7
100
AcDbVertex
100
AcDb2dVertex
 10
124.5124022337827
 20
210.82464861105
 30
0.0
  0
VERTEX
  5
F3
330
ED
100
AcDbEntity
  8
GRAU_10_
 62
     7
100
AcDbVertex
100
AcDb2dVertex
 10
124.5124022337827
 20
209.9501125001574
 30
0.0
  0
VERTEX
  5
F4
330
ED
100
AcDbEntity
  8
GRAU_10_
 62
     7
100
AcDbVertex
100
AcDb2dVertex
 10
124.5124022337827
 20
208.907301389307
 30
0.0
  0
VERTEX
  5
F5
330
ED
100
AcDbEntity
  8
GRAU_10_
 62
     7
100
AcDbVertex
100
AcDb2dVertex
 10
124.5124022337827
 20
207.7117375007169
 30
0.0
  0
VERTEX
  5
F6
330
ED
100
AcDbEntity
  8
GRAU_10_
 62
     7
100
AcDbVertex
100
AcDb2dVertex
 10
124.5124022337827
 20
206.3814125010496
 30
0.0
  0
VERTEX
  5
F7
330
ED
100
AcDbEntity
  8
GRAU_10_
 62
     7
100
AcDbVertex
100
AcDb2dVertex
 10
124.5124022337827
 20
204.9346708347448
 30
0.0
  0
VERTEX
  5
F8
330
ED
100
AcDbEntity
  8
GRAU_10_
 62
     7
100
AcDbVertex
100
AcDb2dVertex
 10
124.5124022337827
 20
203.393031946241
 30
0.0
  0
VERTEX
  5
F9
330
ED
100
AcDbEntity
  8
GRAU_10_
 62
     7
100
AcDbVertex
100
AcDb2dVertex
 10
124.5124022337827
 20
201.7787208355334
 30
0.0
  0
VERTEX
  5
FA
330
ED
100
AcDbEntity
  8
GRAU_10_
 62
     7
100
AcDbVertex
100
AcDb2dVertex
 10
124.5124022337827
 20
200.1160791692825
 30
0.0
  0
VERTEX
  5
FB
330
ED
100
AcDbEntity
  8
GRAU_10_
 62
     7
100
AcDbVertex
100
AcDb2dVertex
 10
124.5124022337827
 20
198.4283902808154
 30
0.0
  0
VERTEX
  5
FC
330
ED
100
AcDbEntity
  8
GRAU_10_
 62
     7
100
AcDbVertex
100
AcDb2dVertex
 10
124.5124022337827
 20
196.7410541701263
 30
0.0
  0
VERTEX
  5
FD
330
ED
100
AcDbEntity
  8
GRAU_10_
 62
     7
100
AcDbVertex
100
AcDb2dVertex
 10
124.5124022337827
 20
195.0777069483198
 30
0.0
  0
VERTEX
  5
FE
330
ED
100
AcDbEntity
  8
GRAU_10_
 62
     7
100
AcDbVertex
100
AcDb2dVertex
 10
124.5124022337827
 20
193.4641013931678
 30
0.0
  0
VERTEX
  5
FF
330
ED
100
AcDbEntity
  8
GRAU_10_
 62
     7
100
AcDbVertex
100
AcDb2dVertex
 10
124.5124022337827
 20
191.9224625046644
 30
0.0
  0
VERTEX
  5
100
330
ED
100
AcDbEntity
  8
GRAU_10_
 62
     7
100
AcDbVertex
100
AcDb2dVertex
 10
124.5124022337827
 20
190.4750152828037
 30
0.0
  0
VERTEX
  5
101
330
ED
100
AcDbEntity
  8
GRAU_10_
 62
     7
100
AcDbVertex
100
AcDb2dVertex
 10
124.5124022337827
 20
189.1446902831367
 30
0.0
  0
VERTEX
  5
102
330
ED
100
AcDbEntity
  8
GRAU_10_
 62
     7
100
AcDbVertex
100
AcDb2dVertex
 10
124.5124022337827
 20
187.9491263945463
 30
0.0
  0
VERTEX
  5
103
330
ED
100
AcDbEntity
  8
GRAU_10_
 62
     7
100
AcDbVertex
100
AcDb2dVertex
 10
124.5124022337827
 20
186.9063152836959
 30
0.0
  0
VERTEX
  5
104
330
ED
100
AcDbEntity
  8
GRAU_10_
 62
     7
100
AcDbVertex
100
AcDb2dVertex
 10
124.5124022337827
 20
186.0321319505814
 30
0.0
  0
VERTEX
  5
105
330
ED
100
AcDbEntity
  8
GRAU_10_
 62
     7
100
AcDbVertex
100
AcDb2dVertex
 10
124.5124022337827
 20
185.3382180618658
 30
0.0
  0
VERTEX
  5
106
330
ED
100
AcDbEntity
  8
GRAU_10_
 62
     7
100
AcDbVertex
100
AcDb2dVertex
 10
124.5124022337827
 20
184.8351569508806
 30
0.0
  0
VERTEX
  5
107
330
ED
100
AcDbEntity
  8
GRAU_10_
 62
     7
100
AcDbVertex
100
AcDb2dVertex
 10
124.5124022337827
 20
184.5300041731792
 30
0.0
  0
VERTEX
  5
108
330
ED
100
AcDbEntity
  8
GRAU_10_
 62
     7
100
AcDbVertex
100
AcDb2dVertex
 10
124.5124022337827
 20
184.4280513954267
 30
0.0
  0
SEQEND
  5
109
330
ED
100
AcDbEntity
  8
GRAU_10_
 62
     7
  0
POLYLINE
  5
10A
330
1F
100
AcDbEntity
  8
GRAU_10_
 62
     7
100
AcDb2dPolyline
 66
     1
 10
0.0
 20
0.0
 30
0.0
  0
VERTEX
  5
10B
330
10A
100
AcDbEntity
  8
GRAU_10_
 62
     7
100
AcDbVertex
100
AcDb2dVertex
 10
129.0120827882133
 20
212.4280236106492
 30
0.0
  0
VERTEX
  5
10C
330
10A
100
AcDbEntity
  8
GRAU_10_
 62
     7
100
AcDbVertex
100
AcDb2dVertex
 10
124.5124022337827
 20
212.4280236106492
 30
0.0
  0
SEQEND
  5
10D
330
10A
100
AcDbEntity
  8
GRAU_10_
 62
     7
  0
POLYLINE
  5
10E
330
1F
100
AcDbEntity
  8
GRAU_10_
 62
     7
100
AcDb2dPolyline
 66
     1
 10
0.0
 20
0.0
 30
0.0
  0
VERTEX
  5
10F
330
10E
100
AcDbEntity
  8
GRAU_10_
 62
     7
100
AcDbVertex
100
AcDb2dVertex
 10
124.5124022337827
 20
184.4280513954267
 30
0.0
  0
VERTEX
  5
110
330
10E
100
AcDbEntity
  8
GRAU_10_
 62
     7
100
AcDbVertex
100
AcDb2dVertex
 10
129.0120827882133
 20
184.4280513954267
 30
0.0
  0
SEQEND
  5
111
330
10E
100
AcDbEntity
  8
GRAU_10_
 62
     7
  0
POLYLINE
  5
112
330
1F
100
AcDbEntity
  8
GRAU_10_
 62
     7
100
AcDb2dPolyline
 66
     1
 10
0.0
 20
0.0
 30
0.0
  0
VERTEX
  5
113
330
112
100
AcDbEntity
  8
GRAU_10_
 62
     7
100
AcDbVertex
100
AcDb2dVertex
 10
129.0120827882133
 20
198.4283902808154
 30
0.0
  0
VERTEX
  5
114
330
112
100
AcDbEntity
  8
GRAU_10_
 62
     7
100
AcDbVertex
100
AcDb2dVertex
 10
129.0120827882133
 20
200.1160791692825
 30
0.0
  0
VERTEX
  5
115
330
112
100
AcDbEntity
  8
GRAU_10_
 62
     7
100
AcDbVertex
100
AcDb2dVertex
 10
129.0120827882133
 20
201.7787208355334
 30
0.0
  0
VERTEX
  5
116
330
112
100
AcDbEntity
  8
GRAU_10_
 62
     7
100
AcDbVertex
100
AcDb2dVertex
 10
129.0120827882133
 20
203.393031946241
 30
0.0
  0
VERTEX
  5
117
330
112
100
AcDbEntity
  8
GRAU_10_
 62
     7
100
AcDbVertex
100
AcDb2dVertex
 10
129.0120827882133
 20
204.9346708347448
 30
0.0
  0
VERTEX
  5
118
330
112
100
AcDbEntity
  8
GRAU_10_
 62
     7
100
AcDbVertex
100
AcDb2dVertex
 10
129.0120827882133
 20
206.3814125010496
 30
0.0
  0
VERTEX
  5
119
330
112
100
AcDbEntity
  8
GRAU_10_
 62
     7
100
AcDbVertex
100
AcDb2dVertex
 10
129.0120827882133
 20
207.7117375007169
 30
0.0
  0
VERTEX
  5
11A
330
112
100
AcDbEntity
  8
GRAU_10_
 62
     7
100
AcDbVertex
100
AcDb2dVertex
 10
129.0120827882133
 20
208.907301389307
 30
0.0
  0
VERTEX
  5
11B
330
112
100
AcDbEntity
  8
GRAU_10_
 62
     7
100
AcDbVertex
100
AcDb2dVertex
 10
129.0120827882133
 20
209.9501125001574
 30
0.0
  0
VERTEX
  5
11C
330
112
100
AcDbEntity
  8
GRAU_10_
 62
     7
100
AcDbVertex
100
AcDb2dVertex
 10
129.0120827882133
 20
210.82464861105
 30
0.0
  0
VERTEX
  5
11D
330
112
100
AcDbEntity
  8
GRAU_10_
 62
     7
100
AcDbVertex
100
AcDb2dVertex
 10
129.0120827882133
 20
211.5185624997653
 30
0.0
  0
VERTEX
  5
11E
330
112
100
AcDbEntity
  8
GRAU_10_
 62
     7
100
AcDbVertex
100
AcDb2dVertex
 10
129.0120827882133
 20
212.021270832973
 30
0.0
  0
VERTEX
  5
11F
330
112
100
AcDbEntity
  8
GRAU_10_
 62
     7
100
AcDbVertex
100
AcDb2dVertex
 10
129.0120827882133
 20
212.3264236106744
 30
0.0
  0
VERTEX
  5
120
330
112
100
AcDbEntity
  8
GRAU_10_
 62
     7
100
AcDbVertex
100
AcDb2dVertex
 10
129.0120827882133
 20
212.4280236106492
 30
0.0
  0
SEQEND
  5
121
330
112
100
AcDbEntity
  8
GRAU_10_
 62
     7
  0
POLYLINE
  5
122
330
1F
100
AcDbEntity
  8
GRAU_10_
 62
     7
100
AcDb2dPolyline
 66
     1
 10
0.0
 20
0.0
 30
0.0
  0
VERTEX
  5
123
330
122
100
AcDbEntity
  8
GRAU_10_
 62
     7
100
AcDbVertex
100
AcDb2dVertex
 10
129.0120827882133
 20
184.4280513954267
 30
0.0
  0
VERTEX
  5
124
330
122
100
AcDbEntity
  8
GRAU_10_
 62
     7
100
AcDbVertex
100
AcDb2dVertex
 10
129.0120827882133
 20
184.5300041731792
 30
0.0
  0
VERTEX
  5
125
330
122
100
AcDbEntity
  8
GRAU_10_
 62
     7
100
AcDbVertex
100
AcDb2dVertex
 10
129.0120827882133
 20
184.8351569508806
 30
0.0
  0
VERTEX
  5
126
330
122
100
AcDbEntity
  8
GRAU_10_
 62
     7
100
AcDbVertex
100
AcDb2dVertex
 10
129.0120827882133
 20
185.3382180618658
 30
0.0
  0
VERTEX
  5
127
330
122
100
AcDbEntity
  8
GRAU_10_
 62
     7
100
AcDbVertex
100
AcDb2dVertex
 10
129.0120827882133
 20
186.0321319505814
 30
0.0
  0
VERTEX
  5
128
330
122
100
AcDbEntity
  8
GRAU_10_
 62
     7
100
AcDbVertex
100
AcDb2dVertex
 10
129.0120827882133
 20
186.9063152836959
 30
0.0
  0
VERTEX
  5
129
330
122
100
AcDbEntity
  8
GRAU_10_
 62
     7
100
AcDbVertex
100
AcDb2dVertex
 10
129.0120827882133
 20
187.9491263945463
 30
0.0
  0
VERTEX
  5
12A
330
122
100
AcDbEntity
  8
GRAU_10_
 62
     7
100
AcDbVertex
100
AcDb2dVertex
 10
129.0120827882133
 20
189.1446902831367
 30
0.0
  0
VERTEX
  5
12B
330
122
100
AcDbEntity
  8
GRAU_10_
 62
     7
100
AcDbVertex
100
AcDb2dVertex
 10
129.0120827882133
 20
190.4750152828037
 30
0.0
  0
VERTEX
  5
12C
330
122
100
AcDbEntity
  8
GRAU_10_
 62
     7
100
AcDbVertex
100
AcDb2dVertex
 10
129.0120827882133
 20
191.9224625046644
 30
0.0
  0
VERTEX
  5
12D
330
122
100
AcDbEntity
  8
GRAU_10_
 62
     7
100
AcDbVertex
100
AcDb2dVertex
 10
129.0120827882133
 20
193.4641013931678
 30
0.0
  0
VERTEX
  5
12E
330
122
100
AcDbEntity
  8
GRAU_10_
 62
     7
100
AcDbVertex
100
AcDb2dVertex
 10
129.0120827882133
 20
195.0777069483198
 30
0.0
  0
VERTEX
  5
12F
330
122
100
AcDbEntity
  8
GRAU_10_
 62
     7
100
AcDbVertex
100
AcDb2dVertex
 10
129.0120827882133
 20
196.7410541701263
 30
0.0
  0
VERTEX
  5
130
330
122
100
AcDbEntity
  8
GRAU_10_
 62
     7
100
AcDbVertex
100
AcDb2dVertex
 10
129.0120827882133
 20
198.4283902808154
 30
0.0
  0
SEQEND
  5
131
330
122
100
AcDbEntity
  8
GRAU_10_
 62
     7
  0
POLYLINE
  5
132
330
1F
100
AcDbEntity
  8
GRAU_10_
 62
     7
100
AcDb2dPolyline
 66
     1
 10
0.0
 20
0.0
 30
0.0
  0
VERTEX
  5
133
330
132
100
AcDbEntity
  8
GRAU_10_
 62
     7
100
AcDbVertex
100
AcDb2dVertex
 10
129.0120827882133
 20
184.4280513954267
 30
0.0
  0
VERTEX
  5
134
330
132
100
AcDbEntity
  8
GRAU_10_
 62
     7
100
AcDbVertex
100
AcDb2dVertex
 10
130.5590133433823
 20
185.3212847285368
 30
0.0
  0
SEQEND
  5
135
330
132
100
AcDbEntity
  8
GRAU_10_
 62
     7
  0
POLYLINE
  5
136
330
1F
100
AcDbEntity
  8
GRAU_10_
 62
     7
100
AcDb2dPolyline
 66
     1
 10
0.0
 20
0.0
 30
0.0
  0
VERTEX
  5
137
330
136
100
AcDbEntity
  8
GRAU_10_
 62
     7
100
AcDbVertex
100
AcDb2dVertex
 10
130.5590133433823
 20
211.5354958330943
 30
0.0
  0
VERTEX
  5
138
330
136
100
AcDbEntity
  8
GRAU_10_
 62
     7
100
AcDbVertex
100
AcDb2dVertex
 10
129.0120827882133
 20
212.4280236106492
 30
0.0
  0
SEQEND
  5
139
330
136
100
AcDbEntity
  8
GRAU_10_
 62
     7
  0
SPLINE
  5
13A
330
1F
100
AcDbEntity
  8
GRAU_10_
 62
     7
100
AcDbSpline
210
0.0
220
0.0
230
1.0
 70
     8
 71
     3
 72
     8
 73
     4
 74
     0
 42
0.0000000001
 43
0.0000000001
 12
1.0
 22
0.0
 32
0.0
 13
1.0
 23
0.0
 33
0.0
 40
0.0
 40
0.0
 40
0.0
 40
0.0
 40
1.0
 40
1.0
 40
1.0
 40
1.0
 10
131.2127105654411
 20
211.4278986108989
 30
0.0
 10
131.6543883431083
 20
211.4278986108989
 30
0.0
 10
132.0124577874633
 20
211.7866736108091
 30
0.0
 10
132.0124577874633
 20
212.2279986106989
 30
0.0
  0
SPLINE
  5
13B
330
1F
100
AcDbEntity
  8
GRAU_10_
 62
     7
100
AcDbSpline
210
0.0
220
0.0
230
1.0
 70
     8
 71
     3
 72
     8
 73
     4
 74
     0
 42
0.0000000001
 43
0.0000000001
 12
1.0
 22
0.0
 32
0.0
 13
1.0
 23
0.0
 33
0.0
 40
0.0
 40
0.0
 40
0.0
 40
0.0
 40
1.0
 40
1.0
 40
1.0
 40
1.0
 10
132.0124577874633
 20
184.6280763953767
 30
0.0
 10
132.0124577874633
 20
185.0697541730442
 30
0.0
 10
131.6543883431083
 20
185.4285291729544
 30
0.0
 10
131.2127105654411
 20
185.4285291729544
 30
0.0
  0
SPLINE
  5
13C
330
1F
100
AcDbEntity
  8
GRAU_10_
 62
     7
100
AcDbSpline
210
0.0
220
0.0
230
1.0
 70
     8
 71
     3
 72
     8
 73
     4
 74
     0
 42
0.0000000001
 43
0.0000000001
 12
1.0
 22
0.0
 32
0.0
 13
1.0
 23
0.0
 33
0.0
 40
0.0
 40
0.0
 40
0.0
 40
0.0
 40
1.0
 40
1.0
 40
1.0
 40
1.0
 10
130.9590633432823
 20
185.4285291729544
 30
0.0
 10
130.8116022322078
 20
185.4285291729544
 30
0.0
 10
130.6733133433536
 20
185.3883125062976
 30
0.0
 10
130.5590133433823
 20
185.3212847285368
 30
0.0
  0
SPLINE
  5
13D
330
1F
100
AcDbEntity
  8
GRAU_10_
 62
     7
100
AcDbSpline
210
0.0
220
0.0
230
1.0
 70
     8
 71
     3
 72
     8
 73
     4
 74
     0
 42
0.0000000001
 43
0.0000000001
 12
1.0
 22
0.0
 32
0.0
 13
1.0
 23
0.0
 33
0.0
 40
0.0
 40
0.0
 40
0.0
 40
0.0
 40
1.0
 40
1.0
 40
1.0
 40
1.0
 10
130.5590133433823
 20
211.5354958330943
 30
0.0
 10
130.6863661211281
 20
211.4617652775572
 30
0.0
 10
130.8260661210931
 20
211.4275458331211
 30
0.0
 10
130.9590633432823
 20
211.4278986108989
 30
0.0
  0
POLYLINE
  5
13E
330
1F
100
AcDbEntity
  8
GRAU_10_
 62
     7
100
AcDb2dPolyline
 66
     1
 10
0.0
 20
0.0
 30
0.0
  0
VERTEX
  5
13F
330
13E
100
AcDbEntity
  8
GRAU_10_
 62
     7
100
AcDbVertex
100
AcDb2dVertex
 10
131.2127105654411
 20
211.4286041664544
 30
0.0
  0
VERTEX
  5
140
330
13E
100
AcDbEntity
  8
GRAU_10_
 62
     7
100
AcDbVertex
100
AcDb2dVertex
 10
130.9590633432823
 20
211.4286041664544
 30
0.0
  0
SEQEND
  5
141
330
13E
100
AcDbEntity
  8
GRAU_10_
 62
     7
  0
POLYLINE
  5
142
330
1F
100
AcDbEntity
  8
GRAU_10_
 62
     7
100
AcDb2dPolyline
 66
     1
 10
0.0
 20
0.0
 30
0.0
  0
VERTEX
  5
143
330
142
100
AcDbEntity
  8
GRAU_10_
 62
     7
100
AcDbVertex
100
AcDb2dVertex
 10
130.9590633432823
 20
185.4285291729544
 30
0.0
  0
VERTEX
  5
144
330
142
100
AcDbEntity
  8
GRAU_10_
 62
     7
100
AcDbVertex
100
AcDb2dVertex
 10
131.2127105654411
 20
185.4285291729544
 30
0.0
  0
SEQEND
  5
145
330
142
100
AcDbEntity
  8
GRAU_10_
 62
     7
  0
SPLINE
  5
146
330
1F
100
AcDbEntity
  8
GRAU_10_
 62
     7
100
AcDbSpline
210
0.0
220
0.0
230
1.0
 70
     8
 71
     3
 72
     8
 73
     4
 74
     0
 42
0.0000000001
 43
0.0000000001
 12
1.0
 22
0.0
 32
0.0
 13
1.0
 23
0.0
 33
0.0
 40
0.0
 40
0.0
 40
0.0
 40
0.0
 40
1.0
 40
1.0
 40
1.0
 40
1.0
 10
138.8126022302077
 20
186.6784208393088
 30
0.0
 10
138.3709244525405
 20
186.6784208393088
 30
0.0
 10
138.0121494526299
 20
186.3203513949538
 30
0.0
 10
138.0121494526299
 20
185.8779680617311
 30
0.0
  0
SPLINE
  5
147
330
1F
100
AcDbEntity
  8
GRAU_10_
 62
     7
100
AcDbSpline
210
0.0
220
0.0
230
1.0
 70
     8
 71
     3
 72
     8
 73
     4
 74
     0
 42
0.0000000001
 43
0.0000000001
 12
1.0
 22
0.0
 32
0.0
 13
1.0
 23
0.0
 33
0.0
 40
0.0
 40
0.0
 40
0.0
 40
0.0
 40
1.0
 40
1.0
 40
1.0
 40
1.0
 10
138.0121494526299
 20
210.9781069443448
 30
0.0
 10
138.0121494526299
 20
210.5364291666773
 30
0.0
 10
138.3709244525405
 20
210.1780069445448
 30
0.0
 10
138.8126022302077
 20
210.1780069445448
 30
0.0
  0
POLYLINE
  5
148
330
1F
100
AcDbEntity
  8
GRAU_10_
 62
     7
100
AcDb2dPolyline
 66
     1
 10
0.0
 20
0.0
 30
0.0
  0
VERTEX
  5
149
330
148
100
AcDbEntity
  8
GRAU_10_
 62
     7
100
AcDbVertex
100
AcDb2dVertex
 10
144.5124327843383
 20
210.9283652776907
 30
0.0
  0
VERTEX
  5
14A
330
148
100
AcDbEntity
  8
GRAU_10_
 62
     7
100
AcDbVertex
100
AcDb2dVertex
 10
141.0125244518799
 20
210.9283652776907
 30
0.0
  0
SEQEND
  5
14B
330
148
100
AcDbEntity
  8
GRAU_10_
 62
     7
  0
POLYLINE
  5
14C
330
1F
100
AcDbEntity
  8
GRAU_10_
 62
     7
100
AcDb2dPolyline
 66
     1
 10
0.0
 20
0.0
 30
0.0
  0
VERTEX
  5
14D
330
14C
100
AcDbEntity
  8
GRAU_10_
 62
     7
100
AcDbVertex
100
AcDb2dVertex
 10
141.0125244518799
 20
185.9284152839407
 30
0.0
  0
VERTEX
  5
14E
330
14C
100
AcDbEntity
  8
GRAU_10_
 62
     7
100
AcDbVertex
100
AcDb2dVertex
 10
144.5124327843383
 20
185.9284152839407
 30
0.0
  0
SEQEND
  5
14F
330
14C
100
AcDbEntity
  8
GRAU_10_
 62
     7
  0
POLYLINE
  5
150
330
1F
100
AcDbEntity
  8
GRAU_10_
 62
     7
100
AcDb2dPolyline
 66
     1
 10
0.0
 20
0.0
 30
0.0
  0
VERTEX
  5
151
330
150
100
AcDbEntity
  8
GRAU_10_
 62
     7
100
AcDbVertex
100
AcDb2dVertex
 10
144.5124327843383
 20
198.4283902808154
 30
0.0
  0
VERTEX
  5
152
330
150
100
AcDbEntity
  8
GRAU_10_
 62
     7
100
AcDbVertex
100
AcDb2dVertex
 10
144.5124327843383
 20
200.0599875026297
 30
0.0
  0
VERTEX
  5
153
330
150
100
AcDbEntity
  8
GRAU_10_
 62
     7
100
AcDbVertex
100
AcDb2dVertex
 10
144.5124327843383
 20
201.6633625022289
 30
0.0
  0
VERTEX
  5
154
330
150
100
AcDbEntity
  8
GRAU_10_
 62
     7
100
AcDbVertex
100
AcDb2dVertex
 10
144.5124327843383
 20
203.2117041685088
 30
0.0
  0
VERTEX
  5
155
330
150
100
AcDbEntity
  8
GRAU_10_
 62
     7
100
AcDbVertex
100
AcDb2dVertex
 10
144.5124327843383
 20
204.6785541681419
 30
0.0
  0
VERTEX
  5
156
330
150
100
AcDbEntity
  8
GRAU_10_
 62
     7
100
AcDbVertex
100
AcDb2dVertex
 10
144.5124327843383
 20
206.0374541678021
 30
0.0
  0
VERTEX
  5
157
330
150
100
AcDbEntity
  8
GRAU_10_
 62
     7
100
AcDbVertex
100
AcDb2dVertex
 10
144.5124327843383
 20
207.2668847230502
 30
0.0
  0
VERTEX
  5
158
330
150
100
AcDbEntity
  8
GRAU_10_
 62
     7
100
AcDbVertex
100
AcDb2dVertex
 10
144.5124327843383
 20
208.3453263894475
 30
0.0
  0
VERTEX
  5
159
330
150
100
AcDbEntity
  8
GRAU_10_
 62
     7
100
AcDbVertex
100
AcDb2dVertex
 10
144.5124327843383
 20
209.2533763892204
 30
0.0
  0
VERTEX
  5
15A
330
150
100
AcDbEntity
  8
GRAU_10_
 62
     7
100
AcDbVertex
100
AcDb2dVertex
 10
144.5124327843383
 20
209.9769236112618
 30
0.0
  0
VERTEX
  5
15B
330
150
100
AcDbEntity
  8
GRAU_10_
 62
     7
100
AcDbVertex
100
AcDb2dVertex
 10
144.5124327843383
 20
210.5025625000193
 30
0.0
  0
VERTEX
  5
15C
330
150
100
AcDbEntity
  8
GRAU_10_
 62
     7
100
AcDbVertex
100
AcDb2dVertex
 10
144.5124327843383
 20
210.8214736110508
 30
0.0
  0
VERTEX
  5
15D
330
150
100
AcDbEntity
  8
GRAU_10_
 62
     7
100
AcDbVertex
100
AcDb2dVertex
 10
144.5124327843383
 20
210.9283652776907
 30
0.0
  0
SEQEND
  5
15E
330
150
100
AcDbEntity
  8
GRAU_10_
 62
     7
  0
POLYLINE
  5
15F
330
1F
100
AcDbEntity
  8
GRAU_10_
 62
     7
100
AcDb2dPolyline
 66
     1
 10
0.0
 20
0.0
 30
0.0
  0
VERTEX
  5
160
330
15F
100
AcDbEntity
  8
GRAU_10_
 62
     7
100
AcDbVertex
100
AcDb2dVertex
 10
144.5124327843383
 20
185.9284152839407
 30
0.0
  0
VERTEX
  5
161
330
15F
100
AcDbEntity
  8
GRAU_10_
 62
     7
100
AcDbVertex
100
AcDb2dVertex
 10
144.5124327843383
 20
186.0353069505806
 30
0.0
  0
VERTEX
  5
162
330
15F
100
AcDbEntity
  8
GRAU_10_
 62
     7
100
AcDbVertex
100
AcDb2dVertex
 10
144.5124327843383
 20
186.3542180616118
 30
0.0
  0
VERTEX
  5
163
330
15F
100
AcDbEntity
  8
GRAU_10_
 62
     7
100
AcDbVertex
100
AcDb2dVertex
 10
144.5124327843383
 20
186.8798569503695
 30
0.0
  0
VERTEX
  5
164
330
15F
100
AcDbEntity
  8
GRAU_10_
 62
     7
100
AcDbVertex
100
AcDb2dVertex
 10
144.5124327843383
 20
187.6030513946329
 30
0.0
  0
VERTEX
  5
165
330
15F
100
AcDbEntity
  8
GRAU_10_
 62
     7
100
AcDbVertex
100
AcDb2dVertex
 10
144.5124327843383
 20
188.5114541721839
 30
0.0
  0
VERTEX
  5
166
330
15F
100
AcDbEntity
  8
GRAU_10_
 62
     7
100
AcDbVertex
100
AcDb2dVertex
 10
144.5124327843383
 20
189.5891902830253
 30
0.0
  0
VERTEX
  5
167
330
15F
100
AcDbEntity
  8
GRAU_10_
 62
     7
100
AcDbVertex
100
AcDb2dVertex
 10
144.5124327843383
 20
190.8186208382734
 30
0.0
  0
VERTEX
  5
168
330
15F
100
AcDbEntity
  8
GRAU_10_
 62
     7
100
AcDbVertex
100
AcDb2dVertex
 10
144.5124327843383
 20
192.1785791712669
 30
0.0
  0
VERTEX
  5
169
330
15F
100
AcDbEntity
  8
GRAU_10_
 62
     7
100
AcDbVertex
100
AcDb2dVertex
 10
144.5124327843383
 20
193.644370837567
 30
0.0
  0
VERTEX
  5
16A
330
15F
100
AcDbEntity
  8
GRAU_10_
 62
     7
100
AcDbVertex
100
AcDb2dVertex
 10
144.5124327843383
 20
195.1927125038467
 30
0.0
  0
VERTEX
  5
16B
330
15F
100
AcDbEntity
  8
GRAU_10_
 62
     7
100
AcDbVertex
100
AcDb2dVertex
 10
144.5124327843383
 20
196.7967930590011
 30
0.0
  0
VERTEX
  5
16C
330
15F
100
AcDbEntity
  8
GRAU_10_
 62
     7
100
AcDbVertex
100
AcDb2dVertex
 10
144.5124327843383
 20
198.4283902808154
 30
0.0
  0
SEQEND
  5
16D
330
15F
100
AcDbEntity
  8
GRAU_10_
 62
     7
  0
POLYLINE
  5
16E
330
1F
100
AcDbEntity
  8
GRAU_10_
 62
     7
100
AcDb2dPolyline
 66
     1
 10
0.0
 20
0.0
 30
0.0
  0
VERTEX
  5
16F
330
16E
100
AcDbEntity
  8
GRAU_10_
 62
     7
100
AcDbVertex
100
AcDb2dVertex
 10
141.0125244518799
 20
198.4283902808154
 30
0.0
  0
VERTEX
  5
170
330
16E
100
AcDbEntity
  8
GRAU_10_
 62
     7
100
AcDbVertex
100
AcDb2dVertex
 10
141.0125244518799
 20
200.0599875026297
 30
0.0
  0
VERTEX
  5
171
330
16E
100
AcDbEntity
  8
GRAU_10_
 62
     7
100
AcDbVertex
100
AcDb2dVertex
 10
141.0125244518799
 20
201.6633625022289
 30
0.0
  0
VERTEX
  5
172
330
16E
100
AcDbEntity
  8
GRAU_10_
 62
     7
100
AcDbVertex
100
AcDb2dVertex
 10
141.0125244518799
 20
203.2117041685088
 30
0.0
  0
VERTEX
  5
173
330
16E
100
AcDbEntity
  8
GRAU_10_
 62
     7
100
AcDbVertex
100
AcDb2dVertex
 10
141.0125244518799
 20
204.6785541681419
 30
0.0
  0
VERTEX
  5
174
330
16E
100
AcDbEntity
  8
GRAU_10_
 62
     7
100
AcDbVertex
100
AcDb2dVertex
 10
141.0125244518799
 20
206.0374541678021
 30
0.0
  0
VERTEX
  5
175
330
16E
100
AcDbEntity
  8
GRAU_10_
 62
     7
100
AcDbVertex
100
AcDb2dVertex
 10
141.0125244518799
 20
207.2668847230502
 30
0.0
  0
VERTEX
  5
176
330
16E
100
AcDbEntity
  8
GRAU_10_
 62
     7
100
AcDbVertex
100
AcDb2dVertex
 10
141.0125244518799
 20
208.3453263894475
 30
0.0
  0
VERTEX
  5
177
330
16E
100
AcDbEntity
  8
GRAU_10_
 62
     7
100
AcDbVertex
100
AcDb2dVertex
 10
141.0125244518799
 20
209.2533763892204
 30
0.0
  0
VERTEX
  5
178
330
16E
100
AcDbEntity
  8
GRAU_10_
 62
     7
100
AcDbVertex
100
AcDb2dVertex
 10
141.0125244518799
 20
209.9769236112618
 30
0.0
  0
VERTEX
  5
179
330
16E
100
AcDbEntity
  8
GRAU_10_
 62
     7
100
AcDbVertex
100
AcDb2dVertex
 10
141.0125244518799
 20
210.5025625000193
 30
0.0
  0
VERTEX
  5
17A
330
16E
100
AcDbEntity
  8
GRAU_10_
 62
     7
100
AcDbVertex
100
AcDb2dVertex
 10
141.0125244518799
 20
210.8214736110508
 30
0.0
  0
VERTEX
  5
17B
330
16E
100
AcDbEntity
  8
GRAU_10_
 62
     7
100
AcDbVertex
100
AcDb2dVertex
 10
141.0125244518799
 20
210.9283652776907
 30
0.0
  0
SEQEND
  5
17C
330
16E
100
AcDbEntity
  8
GRAU_10_
 62
     7
  0
POLYLINE
  5
17D
330
1F
100
AcDbEntity
  8
GRAU_10_
 62
     7
100
AcDb2dPolyline
 66
     1
 10
0.0
 20
0.0
 30
0.0
  0
VERTEX
  5
17E
330
17D
100
AcDbEntity
  8
GRAU_10_
 62
     7
100
AcDbVertex
100
AcDb2dVertex
 10
141.0125244518799
 20
185.9284152839407
 30
0.0
  0
VERTEX
  5
17F
330
17D
100
AcDbEntity
  8
GRAU_10_
 62
     7
100
AcDbVertex
100
AcDb2dVertex
 10
141.0125244518799
 20
186.0353069505806
 30
0.0
  0
VERTEX
  5
180
330
17D
100
AcDbEntity
  8
GRAU_10_
 62
     7
100
AcDbVertex
100
AcDb2dVertex
 10
141.0125244518799
 20
186.3542180616118
 30
0.0
  0
VERTEX
  5
181
330
17D
100
AcDbEntity
  8
GRAU_10_
 62
     7
100
AcDbVertex
100
AcDb2dVertex
 10
141.0125244518799
 20
186.8798569503695
 30
0.0
  0
VERTEX
  5
182
330
17D
100
AcDbEntity
  8
GRAU_10_
 62
     7
100
AcDbVertex
100
AcDb2dVertex
 10
141.0125244518799
 20
187.6030513946329
 30
0.0
  0
VERTEX
  5
183
330
17D
100
AcDbEntity
  8
GRAU_10_
 62
     7
100
AcDbVertex
100
AcDb2dVertex
 10
141.0125244518799
 20
188.5114541721839
 30
0.0
  0
VERTEX
  5
184
330
17D
100
AcDbEntity
  8
GRAU_10_
 62
     7
100
AcDbVertex
100
AcDb2dVertex
 10
141.0125244518799
 20
189.5891902830253
 30
0.0
  0
VERTEX
  5
185
330
17D
100
AcDbEntity
  8
GRAU_10_
 62
     7
100
AcDbVertex
100
AcDb2dVertex
 10
141.0125244518799
 20
190.8186208382734
 30
0.0
  0
VERTEX
  5
186
330
17D
100
AcDbEntity
  8
GRAU_10_
 62
     7
100
AcDbVertex
100
AcDb2dVertex
 10
141.0125244518799
 20
192.1785791712669
 30
0.0
  0
VERTEX
  5
187
330
17D
100
AcDbEntity
  8
GRAU_10_
 62
     7
100
AcDbVertex
100
AcDb2dVertex
 10
141.0125244518799
 20
193.644370837567
 30
0.0
  0
VERTEX
  5
188
330
17D
100
AcDbEntity
  8
GRAU_10_
 62
     7
100
AcDbVertex
100
AcDb2dVertex
 10
141.0125244518799
 20
195.1927125038467
 30
0.0
  0
VERTEX
  5
189
330
17D
100
AcDbEntity
  8
GRAU_10_
 62
     7
100
AcDbVertex
100
AcDb2dVertex
 10
141.0125244518799
 20
196.7967930590011
 30
0.0
  0
VERTEX
  5
18A
330
17D
100
AcDbEntity
  8
GRAU_10_
 62
     7
100
AcDbVertex
100
AcDb2dVertex
 10
141.0125244518799
 20
198.4283902808154
 30
0.0
  0
SEQEND
  5
18B
330
17D
100
AcDbEntity
  8
GRAU_10_
 62
     7
  0
POLYLINE
  5
18C
330
1F
100
AcDbEntity
  8
GRAU_10_
 62
     7
100
AcDb2dPolyline
 66
     1
 10
0.0
 20
0.0
 30
0.0
  0
VERTEX
  5
18D
330
18C
100
AcDbEntity
  8
GRAU_10_
 62
     7
100
AcDbVertex
100
AcDb2dVertex
 10
141.0125244518799
 20
210.9283652776907
 30
0.0
  0
VERTEX
  5
18E
330
18C
100
AcDbEntity
  8
GRAU_10_
 62
     7
100
AcDbVertex
100
AcDb2dVertex
 10
139.8991577854916
 20
210.2856041667402
 30
0.0
  0
SEQEND
  5
18F
330
18C
100
AcDbEntity
  8
GRAU_10_
 62
     7
  0
POLYLINE
  5
190
330
1F
100
AcDbEntity
  8
GRAU_10_
 62
     7
100
AcDb2dPolyline
 66
     1
 10
0.0
 20
0.0
 30
0.0
  0
VERTEX
  5
191
330
190
100
AcDbEntity
  8
GRAU_10_
 62
     7
100
AcDbVertex
100
AcDb2dVertex
 10
139.8991577854916
 20
186.5711763948912
 30
0.0
  0
VERTEX
  5
192
330
190
100
AcDbEntity
  8
GRAU_10_
 62
     7
100
AcDbVertex
100
AcDb2dVertex
 10
141.0125244518799
 20
185.9284152839407
 30
0.0
  0
SEQEND
  5
193
330
190
100
AcDbEntity
  8
GRAU_10_
 62
     7
  0
POLYLINE
  5
194
330
1F
100
AcDbEntity
  8
GRAU_10_
 62
     7
100
AcDb2dPolyline
 66
     1
 10
0.0
 20
0.0
 30
0.0
  0
VERTEX
  5
195
330
194
100
AcDbEntity
  8
GRAU_10_
 62
     7
100
AcDbVertex
100
AcDb2dVertex
 10
144.5124327843383
 20
185.9284152839407
 30
0.0
  0
VERTEX
  5
196
330
194
100
AcDbEntity
  8
GRAU_10_
 62
     7
100
AcDbVertex
100
AcDb2dVertex
 10
145.5122050063105
 20
186.9281875059129
 30
0.0
  0
SEQEND
  5
197
330
194
100
AcDbEntity
  8
GRAU_10_
 62
     7
  0
POLYLINE
  5
198
330
1F
100
AcDbEntity
  8
GRAU_10_
 62
     7
100
AcDb2dPolyline
 66
     1
 10
0.0
 20
0.0
 30
0.0
  0
VERTEX
  5
199
330
198
100
AcDbEntity
  8
GRAU_10_
 62
     7
100
AcDbVertex
100
AcDb2dVertex
 10
145.5122050063105
 20
209.9282402779404
 30
0.0
  0
VERTEX
  5
19A
330
198
100
AcDbEntity
  8
GRAU_10_
 62
     7
100
AcDbVertex
100
AcDb2dVertex
 10
144.5124327843383
 20
210.9283652776907
 30
0.0
  0
SEQEND
  5
19B
330
198
100
AcDbEntity
  8
GRAU_10_
 62
     7
  0
POLYLINE
  5
19C
330
1F
100
AcDbEntity
  8
GRAU_10_
 62
     7
100
AcDb2dPolyline
 66
     1
 10
0.0
 20
0.0
 30
0.0
  0
VERTEX
  5
19D
330
19C
100
AcDbEntity
  8
GRAU_10_
 62
     7
100
AcDbVertex
100
AcDb2dVertex
 10
145.5122050063105
 20
198.4283902808154
 30
0.0
  0
VERTEX
  5
19E
330
19C
100
AcDbEntity
  8
GRAU_10_
 62
     7
100
AcDbVertex
100
AcDb2dVertex
 10
145.5122050063105
 20
200.0649263915177
 30
0.0
  0
VERTEX
  5
19F
330
19C
100
AcDbEntity
  8
GRAU_10_
 62
     7
100
AcDbVertex
100
AcDb2dVertex
 10
145.5122050063105
 20
201.6683013911169
 30
0.0
  0
VERTEX
  5
1A0
330
19C
100
AcDbEntity
  8
GRAU_10_
 62
     7
100
AcDbVertex
100
AcDb2dVertex
 10
145.5122050063105
 20
203.2053541685104
 30
0.0
  0
VERTEX
  5
1A1
330
19C
100
AcDbEntity
  8
GRAU_10_
 62
     7
100
AcDbVertex
100
AcDb2dVertex
 10
145.5122050063105
 20
204.6453930570391
 30
0.0
  0
VERTEX
  5
1A2
330
19C
100
AcDbEntity
  8
GRAU_10_
 62
     7
100
AcDbVertex
100
AcDb2dVertex
 10
145.5122050063105
 20
205.9594902789326
 30
0.0
  0
VERTEX
  5
1A3
330
19C
100
AcDbEntity
  8
GRAU_10_
 62
     7
100
AcDbVertex
100
AcDb2dVertex
 10
145.5122050063105
 20
207.1194236119761
 30
0.0
  0
VERTEX
  5
1A4
330
19C
100
AcDbEntity
  8
GRAU_10_
 62
     7
100
AcDbVertex
100
AcDb2dVertex
 10
145.5122050063105
 20
208.1029680561748
 30
0.0
  0
VERTEX
  5
1A5
330
19C
100
AcDbEntity
  8
GRAU_10_
 62
     7
100
AcDbVertex
100
AcDb2dVertex
 10
145.5122050063105
 20
208.8889569448669
 30
0.0
  0
VERTEX
  5
1A6
330
19C
100
AcDbEntity
  8
GRAU_10_
 62
     7
100
AcDbVertex
100
AcDb2dVertex
 10
145.5122050063105
 20
209.4622208336125
 30
0.0
  0
VERTEX
  5
1A7
330
19C
100
AcDbEntity
  8
GRAU_10_
 62
     7
100
AcDbVertex
100
AcDb2dVertex
 10
145.5122050063105
 20
209.8111180557477
 30
0.0
  0
VERTEX
  5
1A8
330
19C
100
AcDbEntity
  8
GRAU_10_
 62
     7
100
AcDbVertex
100
AcDb2dVertex
 10
145.5122050063105
 20
209.9282402779404
 30
0.0
  0
SEQEND
  5
1A9
330
19C
100
AcDbEntity
  8
GRAU_10_
 62
     7
  0
POLYLINE
  5
1AA
330
1F
100
AcDbEntity
  8
GRAU_10_
 62
     7
100
AcDb2dPolyline
 66
     1
 10
0.0
 20
0.0
 30
0.0
  0
VERTEX
  5
1AB
330
1AA
100
AcDbEntity
  8
GRAU_10_
 62
     7
100
AcDbVertex
100
AcDb2dVertex
 10
145.5122050063105
 20
186.9281875059129
 30
0.0
  0
VERTEX
  5
1AC
330
1AA
100
AcDbEntity
  8
GRAU_10_
 62
     7
100
AcDbVertex
100
AcDb2dVertex
 10
145.5122050063105
 20
187.0449569503279
 30
0.0
  0
VERTEX
  5
1AD
330
1AA
100
AcDbEntity
  8
GRAU_10_
 62
     7
100
AcDbVertex
100
AcDb2dVertex
 10
145.5122050063105
 20
187.3942069502408
 30
0.0
  0
VERTEX
  5
1AE
330
1AA
100
AcDbEntity
  8
GRAU_10_
 62
     7
100
AcDbVertex
100
AcDb2dVertex
 10
145.5122050063105
 20
187.9678236167638
 30
0.0
  0
VERTEX
  5
1AF
330
1AA
100
AcDbEntity
  8
GRAU_10_
 62
     7
100
AcDbVertex
100
AcDb2dVertex
 10
145.5122050063105
 20
188.7541652832343
 30
0.0
  0
VERTEX
  5
1B0
330
1AA
100
AcDbEntity
  8
GRAU_10_
 62
     7
100
AcDbVertex
100
AcDb2dVertex
 10
145.5122050063105
 20
189.7370041718772
 30
0.0
  0
VERTEX
  5
1B1
330
1AA
100
AcDbEntity
  8
GRAU_10_
 62
     7
100
AcDbVertex
100
AcDb2dVertex
 10
145.5122050063105
 20
190.8972902826982
 30
0.0
  0
VERTEX
  5
1B2
330
1AA
100
AcDbEntity
  8
GRAU_10_
 62
     7
100
AcDbVertex
100
AcDb2dVertex
 10
145.5122050063105
 20
192.2110347268142
 30
0.0
  0
VERTEX
  5
1B3
330
1AA
100
AcDbEntity
  8
GRAU_10_
 62
     7
100
AcDbVertex
100
AcDb2dVertex
 10
145.5122050063105
 20
193.6510736153432
 30
0.0
  0
VERTEX
  5
1B4
330
1AA
100
AcDbEntity
  8
GRAU_10_
 62
     7
100
AcDbVertex
100
AcDb2dVertex
 10
145.5122050063105
 20
195.1881263927367
 30
0.0
  0
VERTEX
  5
1B5
330
1AA
100
AcDbEntity
  8
GRAU_10_
 62
     7
100
AcDbVertex
100
AcDb2dVertex
 10
145.5122050063105
 20
196.7918541701137
 30
0.0
  0
VERTEX
  5
1B6
330
1AA
100
AcDbEntity
  8
GRAU_10_
 62
     7
100
AcDbVertex
100
AcDb2dVertex
 10
145.5122050063105
 20
198.4283902808154
 30
0.0
  0
SEQEND
  5
1B7
330
1AA
100
AcDbEntity
  8
GRAU_10_
 62
     7
  0
SPLINE
  5
1B8
330
1F
100
AcDbEntity
  8
GRAU_10_
 62
     7
100
AcDbSpline
210
0.0
220
0.0
230
1.0
 70
     8
 71
     3
 72
     8
 73
     4
 74
     0
 42
0.0000000001
 43
0.0000000001
 12
1.0
 22
0.0
 32
0.0
 13
1.0
 23
0.0
 33
0.0
 40
0.0
 40
0.0
 40
0.0
 40
0.0
 40
1.0
 40
1.0
 40
1.0
 40
1.0
 10
139.8991577854916
 20
186.5711763948912
 30
0.0
 10
139.7718050077457
 20
186.6449069504279
 30
0.0
 10
139.6317522300029
 20
186.679126394864
 30
0.0
 10
139.4987550078138
 20
186.6784208393088
 30
0.0
  0
SPLINE
  5
1B9
330
1F
100
AcDbEntity
  8
GRAU_10_
 62
     7
100
AcDbSpline
210
0.0
220
0.0
230
1.0
 70
     8
 71
     3
 72
     8
 73
     4
 74
     0
 42
0.0000000001
 43
0.0000000001
 12
1.0
 22
0.0
 32
0.0
 13
1.0
 23
0.0
 33
0.0
 40
0.0
 40
0.0
 40
0.0
 40
0.0
 40
1.0
 40
1.0
 40
1.0
 40
1.0
 10
139.4987550078138
 20
210.1780069445448
 30
0.0
 10
139.6462161188882
 20
210.1780069445448
 30
0.0
 10
139.7845050077425
 20
210.2182236112013
 30
0.0
 10
139.8991577854916
 20
210.2856041667402
 30
0.0
  0
POLYLINE
  5
1BA
330
1F
100
AcDbEntity
  8
GRAU_10_
 62
     7
100
AcDb2dPolyline
 66
     1
 10
0.0
 20
0.0
 30
0.0
  0
VERTEX
  5
1BB
330
1BA
100
AcDbEntity
  8
GRAU_10_
 62
     7
100
AcDbVertex
100
AcDb2dVertex
 10
139.4987550078138
 20
210.1780069445448
 30
0.0
  0
VERTEX
  5
1BC
330
1BA
100
AcDbEntity
  8
GRAU_10_
 62
     7
100
AcDbVertex
100
AcDb2dVertex
 10
138.8126022302077
 20
210.1780069445448
 30
0.0
  0
SEQEND
  5
1BD
330
1BA
100
AcDbEntity
  8
GRAU_10_
 62
     7
  0
POLYLINE
  5
1BE
330
1F
100
AcDbEntity
  8
GRAU_10_
 62
     7
100
AcDb2dPolyline
 66
     1
 10
0.0
 20
0.0
 30
0.0
  0
VERTEX
  5
1BF
330
1BE
100
AcDbEntity
  8
GRAU_10_
 62
     7
100
AcDbVertex
100
AcDb2dVertex
 10
138.8126022302077
 20
186.6784208393088
 30
0.0
  0
VERTEX
  5
1C0
330
1BE
100
AcDbEntity
  8
GRAU_10_
 62
     7
100
AcDbVertex
100
AcDb2dVertex
 10
139.4987550078138
 20
186.6784208393088
 30
0.0
  0
SEQEND
  5
1C1
330
1BE
100
AcDbEntity
  8
GRAU_10_
 62
     7
  0
POLYLINE
  5
1C2
330
1F
100
AcDbEntity
  8
GRAU_10_
 62
     7
100
AcDb2dPolyline
 66
     1
 10
0.0
 20
0.0
 30
0.0
  0
VERTEX
  5
1C3
330
1C2
100
AcDbEntity
  8
GRAU_10_
 62
     7
100
AcDbVertex
100
AcDb2dVertex
 10
146.4124938949742
 20
209.9282402779404
 30
0.0
  0
VERTEX
  5
1C4
330
1C2
100
AcDbEntity
  8
GRAU_10_
 62
     7
100
AcDbVertex
100
AcDb2dVertex
 10
145.5122050063105
 20
209.9282402779404
 30
0.0
  0
SEQEND
  5
1C5
330
1C2
100
AcDbEntity
  8
GRAU_10_
 62
     7
  0
POLYLINE
  5
1C6
330
1F
100
AcDbEntity
  8
GRAU_10_
 62
     7
100
AcDb2dPolyline
 66
     1
 10
0.0
 20
0.0
 30
0.0
  0
VERTEX
  5
1C7
330
1C6
100
AcDbEntity
  8
GRAU_10_
 62
     7
100
AcDbVertex
100
AcDb2dVertex
 10
145.5122050063105
 20
186.9281875059129
 30
0.0
  0
VERTEX
  5
1C8
330
1C6
100
AcDbEntity
  8
GRAU_10_
 62
     7
100
AcDbVertex
100
AcDb2dVertex
 10
146.4124938949742
 20
186.9281875059129
 30
0.0
  0
SEQEND
  5
1C9
330
1C6
100
AcDbEntity
  8
GRAU_10_
 62
     7
  0
POLYLINE
  5
1CA
330
1F
100
AcDbEntity
  8
GRAU_10_
 62
     7
100
AcDb2dPolyline
 66
     1
 10
0.0
 20
0.0
 30
0.0
  0
VERTEX
  5
1CB
330
1CA
100
AcDbEntity
  8
GRAU_10_
 62
     7
100
AcDbVertex
100
AcDb2dVertex
 10
146.4124938949742
 20
198.4283902808154
 30
0.0
  0
VERTEX
  5
1CC
330
1CA
100
AcDbEntity
  8
GRAU_10_
 62
     7
100
AcDbVertex
100
AcDb2dVertex
 10
146.4124938949742
 20
200.0649263915177
 30
0.0
  0
VERTEX
  5
1CD
330
1CA
100
AcDbEntity
  8
GRAU_10_
 62
     7
100
AcDbVertex
100
AcDb2dVertex
 10
146.4124938949742
 20
201.6683013911169
 30
0.0
  0
VERTEX
  5
1CE
330
1CA
100
AcDbEntity
  8
GRAU_10_
 62
     7
100
AcDbVertex
100
AcDb2dVertex
 10
146.4124938949742
 20
203.2053541685104
 30
0.0
  0
VERTEX
  5
1CF
330
1CA
100
AcDbEntity
  8
GRAU_10_
 62
     7
100
AcDbVertex
100
AcDb2dVertex
 10
146.4124938949742
 20
204.6453930570391
 30
0.0
  0
VERTEX
  5
1D0
330
1CA
100
AcDbEntity
  8
GRAU_10_
 62
     7
100
AcDbVertex
100
AcDb2dVertex
 10
146.4124938949742
 20
205.9594902789326
 30
0.0
  0
VERTEX
  5
1D1
330
1CA
100
AcDbEntity
  8
GRAU_10_
 62
     7
100
AcDbVertex
100
AcDb2dVertex
 10
146.4124938949742
 20
207.1194236119761
 30
0.0
  0
VERTEX
  5
1D2
330
1CA
100
AcDbEntity
  8
GRAU_10_
 62
     7
100
AcDbVertex
100
AcDb2dVertex
 10
146.4124938949742
 20
208.1029680561748
 30
0.0
  0
VERTEX
  5
1D3
330
1CA
100
AcDbEntity
  8
GRAU_10_
 62
     7
100
AcDbVertex
100
AcDb2dVertex
 10
146.4124938949742
 20
208.8889569448669
 30
0.0
  0
VERTEX
  5
1D4
330
1CA
100
AcDbEntity
  8
GRAU_10_
 62
     7
100
AcDbVertex
100
AcDb2dVertex
 10
146.4124938949742
 20
209.4622208336125
 30
0.0
  0
VERTEX
  5
1D5
330
1CA
100
AcDbEntity
  8
GRAU_10_
 62
     7
100
AcDbVertex
100
AcDb2dVertex
 10
146.4124938949742
 20
209.8111180557477
 30
0.0
  0
VERTEX
  5
1D6
330
1CA
100
AcDbEntity
  8
GRAU_10_
 62
     7
100
AcDbVertex
100
AcDb2dVertex
 10
146.4124938949742
 20
209.9282402779404
 30
0.0
  0
SEQEND
  5
1D7
330
1CA
100
AcDbEntity
  8
GRAU_10_
 62
     7
  0
POLYLINE
  5
1D8
330
1F
100
AcDbEntity
  8
GRAU_10_
 62
     7
100
AcDb2dPolyline
 66
     1
 10
0.0
 20
0.0
 30
0.0
  0
VERTEX
  5
1D9
330
1D8
100
AcDbEntity
  8
GRAU_10_
 62
     7
100
AcDbVertex
100
AcDb2dVertex
 10
146.4124938949742
 20
186.9281875059129
 30
0.0
  0
VERTEX
  5
1DA
330
1D8
100
AcDbEntity
  8
GRAU_10_
 62
     7
100
AcDbVertex
100
AcDb2dVertex
 10
146.4124938949742
 20
187.0449569503279
 30
0.0
  0
VERTEX
  5
1DB
330
1D8
100
AcDbEntity
  8
GRAU_10_
 62
     7
100
AcDbVertex
100
AcDb2dVertex
 10
146.4124938949742
 20
187.3942069502408
 30
0.0
  0
VERTEX
  5
1DC
330
1D8
100
AcDbEntity
  8
GRAU_10_
 62
     7
100
AcDbVertex
100
AcDb2dVertex
 10
146.4124938949742
 20
187.9678236167638
 30
0.0
  0
VERTEX
  5
1DD
330
1D8
100
AcDbEntity
  8
GRAU_10_
 62
     7
100
AcDbVertex
100
AcDb2dVertex
 10
146.4124938949742
 20
188.7541652832343
 30
0.0
  0
VERTEX
  5
1DE
330
1D8
100
AcDbEntity
  8
GRAU_10_
 62
     7
100
AcDbVertex
100
AcDb2dVertex
 10
146.4124938949742
 20
189.7370041718772
 30
0.0
  0
VERTEX
  5
1DF
330
1D8
100
AcDbEntity
  8
GRAU_10_
 62
     7
100
AcDbVertex
100
AcDb2dVertex
 10
146.4124938949742
 20
190.8972902826982
 30
0.0
  0
VERTEX
  5
1E0
330
1D8
100
AcDbEntity
  8
GRAU_10_
 62
     7
100
AcDbVertex
100
AcDb2dVertex
 10
146.4124938949742
 20
192.2110347268142
 30
0.0
  0
VERTEX
  5
1E1
330
1D8
100
AcDbEntity
  8
GRAU_10_
 62
     7
100
AcDbVertex
100
AcDb2dVertex
 10
146.4124938949742
 20
193.6510736153432
 30
0.0
  0
VERTEX
  5
1E2
330
1D8
100
AcDbEntity
  8
GRAU_10_
 62
     7
100
AcDbVertex
100
AcDb2dVertex
 10
146.4124938949742
 20
195.1881263927367
 30
0.0
  0
VERTEX
  5
1E3
330
1D8
100
AcDbEntity
  8
GRAU_10_
 62
     7
100
AcDbVertex
100
AcDb2dVertex
 10
146.4124938949742
 20
196.7918541701137
 30
0.0
  0
VERTEX
  5
1E4
330
1D8
100
AcDbEntity
  8
GRAU_10_
 62
     7
100
AcDbVertex
100
AcDb2dVertex
 10
146.4124938949742
 20
198.4283902808154
 30
0.0
  0
SEQEND
  5
1E5
330
1D8
100
AcDbEntity
  8
GRAU_10_
 62
     7
  0
POLYLINE
  5
1E6
330
1F
100
AcDbEntity
  8
GRAU_10_
 62
     7
100
AcDb2dPolyline
 66
     1
 10
0.0
 20
0.0
 30
0.0
  0
VERTEX
  5
1E7
330
1E6
100
AcDbEntity
  8
GRAU_10_
 62
     7
100
AcDbVertex
100
AcDb2dVertex
 10
146.4124938949742
 20
186.9281875059129
 30
0.0
  0
VERTEX
  5
1E8
330
1E6
100
AcDbEntity
  8
GRAU_10_
 62
     7
100
AcDbVertex
100
AcDb2dVertex
 10
146.5126827838383
 20
187.0280236169992
 30
0.0
  0
SEQEND
  5
1E9
330
1E6
100
AcDbEntity
  8
GRAU_10_
 62
     7
  0
POLYLINE
  5
1EA
330
1F
100
AcDbEntity
  8
GRAU_10_
 62
     7
100
AcDb2dPolyline
 66
     1
 10
0.0
 20
0.0
 30
0.0
  0
VERTEX
  5
1EB
330
1EA
100
AcDbEntity
  8
GRAU_10_
 62
     7
100
AcDbVertex
100
AcDb2dVertex
 10
146.5126827838383
 20
209.8280513890767
 30
0.0
  0
VERTEX
  5
1EC
330
1EA
100
AcDbEntity
  8
GRAU_10_
 62
     7
100
AcDbVertex
100
AcDb2dVertex
 10
146.4124938949742
 20
209.9282402779404
 30
0.0
  0
SEQEND
  5
1ED
330
1EA
100
AcDbEntity
  8
GRAU_10_
 62
     7
  0
POLYLINE
  5
1EE
330
1F
100
AcDbEntity
  8
GRAU_10_
 62
     7
100
AcDb2dPolyline
 66
     1
 10
0.0
 20
0.0
 30
0.0
  0
VERTEX
  5
1EF
330
1EE
100
AcDbEntity
  8
GRAU_10_
 62
     7
100
AcDbVertex
100
AcDb2dVertex
 10
146.5126827838383
 20
198.4283902808154
 30
0.0
  0
VERTEX
  5
1F0
330
1EE
100
AcDbEntity
  8
GRAU_10_
 62
     7
100
AcDbVertex
100
AcDb2dVertex
 10
146.5126827838383
 20
196.8056125034435
 30
0.0
  0
VERTEX
  5
1F1
330
1EE
100
AcDbEntity
  8
GRAU_10_
 62
     7
100
AcDbVertex
100
AcDb2dVertex
 10
146.5126827838383
 20
195.2167013927296
 30
0.0
  0
VERTEX
  5
1F2
330
1EE
100
AcDbEntity
  8
GRAU_10_
 62
     7
100
AcDbVertex
100
AcDb2dVertex
 10
146.5126827838383
 20
193.692348615333
 30
0.0
  0
VERTEX
  5
1F3
330
1EE
100
AcDbEntity
  8
GRAU_10_
 62
     7
100
AcDbVertex
100
AcDb2dVertex
 10
146.5126827838383
 20
192.2650097268008
 30
0.0
  0
VERTEX
  5
1F4
330
1EE
100
AcDbEntity
  8
GRAU_10_
 62
     7
100
AcDbVertex
100
AcDb2dVertex
 10
146.5126827838383
 20
190.9629069493486
 30
0.0
  0
VERTEX
  5
1F5
330
1EE
100
AcDbEntity
  8
GRAU_10_
 62
     7
100
AcDbVertex
100
AcDb2dVertex
 10
146.5126827838383
 20
189.8128513940805
 30
0.0
  0
VERTEX
  5
1F6
330
1EE
100
AcDbEntity
  8
GRAU_10_
 62
     7
100
AcDbVertex
100
AcDb2dVertex
 10
146.5126827838383
 20
188.8377736165465
 30
0.0
  0
VERTEX
  5
1F7
330
1EE
100
AcDbEntity
  8
GRAU_10_
 62
     7
100
AcDbVertex
100
AcDb2dVertex
 10
146.5126827838383
 20
188.0581347278525
 30
0.0
  0
VERTEX
  5
1F8
330
1EE
100
AcDbEntity
  8
GRAU_10_
 62
     7
100
AcDbVertex
100
AcDb2dVertex
 10
146.5126827838383
 20
187.4898097279946
 30
0.0
  0
VERTEX
  5
1F9
330
1EE
100
AcDbEntity
  8
GRAU_10_
 62
     7
100
AcDbVertex
100
AcDb2dVertex
 10
146.5126827838383
 20
187.1444402836367
 30
0.0
  0
VERTEX
  5
1FA
330
1EE
100
AcDbEntity
  8
GRAU_10_
 62
     7
100
AcDbVertex
100
AcDb2dVertex
 10
146.5126827838383
 20
187.0280236169992
 30
0.0
  0
SEQEND
  5
1FB
330
1EE
100
AcDbEntity
  8
GRAU_10_
 62
     7
  0
POLYLINE
  5
1FC
330
1F
100
AcDbEntity
  8
GRAU_10_
 62
     7
100
AcDb2dPolyline
 66
     1
 10
0.0
 20
0.0
 30
0.0
  0
VERTEX
  5
1FD
330
1FC
100
AcDbEntity
  8
GRAU_10_
 62
     7
100
AcDbVertex
100
AcDb2dVertex
 10
146.5126827838383
 20
209.8280513890767
 30
0.0
  0
VERTEX
  5
1FE
330
1FC
100
AcDbEntity
  8
GRAU_10_
 62
     7
100
AcDbVertex
100
AcDb2dVertex
 10
146.5126827838383
 20
209.7123402779947
 30
0.0
  0
VERTEX
  5
1FF
330
1FC
100
AcDbEntity
  8
GRAU_10_
 62
     7
100
AcDbVertex
100
AcDb2dVertex
 10
146.5126827838383
 20
209.3666180558587
 30
0.0
  0
VERTEX
  5
200
330
1FC
100
AcDbEntity
  8
GRAU_10_
 62
     7
100
AcDbVertex
100
AcDb2dVertex
 10
146.5126827838383
 20
208.7982930560008
 30
0.0
  0
VERTEX
  5
201
330
1FC
100
AcDbEntity
  8
GRAU_10_
 62
     7
100
AcDbVertex
100
AcDb2dVertex
 10
146.5126827838383
 20
208.0183013895294
 30
0.0
  0
VERTEX
  5
202
330
1FC
100
AcDbEntity
  8
GRAU_10_
 62
     7
100
AcDbVertex
100
AcDb2dVertex
 10
146.5126827838383
 20
207.0435763897728
 30
0.0
  0
VERTEX
  5
203
330
1FC
100
AcDbEntity
  8
GRAU_10_
 62
     7
100
AcDbVertex
100
AcDb2dVertex
 10
146.5126827838383
 20
205.8935208345047
 30
0.0
  0
VERTEX
  5
204
330
1FC
100
AcDbEntity
  8
GRAU_10_
 62
     7
100
AcDbVertex
100
AcDb2dVertex
 10
146.5126827838383
 20
204.5917708348302
 30
0.0
  0
VERTEX
  5
205
330
1FC
100
AcDbEntity
  8
GRAU_10_
 62
     7
100
AcDbVertex
100
AcDb2dVertex
 10
146.5126827838383
 20
203.1640791685207
 30
0.0
  0
VERTEX
  5
206
330
1FC
100
AcDbEntity
  8
GRAU_10_
 62
     7
100
AcDbVertex
100
AcDb2dVertex
 10
146.5126827838383
 20
201.639726391124
 30
0.0
  0
VERTEX
  5
207
330
1FC
100
AcDbEntity
  8
GRAU_10_
 62
     7
100
AcDbVertex
100
AcDb2dVertex
 10
146.5126827838383
 20
200.0504625026321
 30
0.0
  0
VERTEX
  5
208
330
1FC
100
AcDbEntity
  8
GRAU_10_
 62
     7
100
AcDbVertex
100
AcDb2dVertex
 10
146.5126827838383
 20
198.4283902808154
 30
0.0
  0
SEQEND
  5
209
330
1FC
100
AcDbEntity
  8
GRAU_10_
 62
     7
  0
POLYLINE
  5
20A
330
1F
100
AcDbEntity
  8
GRAU_10_
 62
     7
100
AcDb2dPolyline
 66
     1
 10
0.0
 20
0.0
 30
0.0
  0
VERTEX
  5
20B
330
20A
100
AcDbEntity
  8
GRAU_10_
 62
     7
100
AcDbVertex
100
AcDb2dVertex
 10
132.512696676227
 20
215.278468054381
 30
0.0
  0
VERTEX
  5
20C
330
20A
100
AcDbEntity
  8
GRAU_10_
 62
     7
100
AcDbVertex
100
AcDb2dVertex
 10
132.0124577874633
 20
214.7785819433947
 30
0.0
  0
SEQEND
  5
20D
330
20A
100
AcDbEntity
  8
GRAU_10_
 62
     7
  0
POLYLINE
  5
20E
330
1F
100
AcDbEntity
  8
GRAU_10_
 62
     7
100
AcDb2dPolyline
 66
     1
 10
0.0
 20
0.0
 30
0.0
  0
VERTEX
  5
20F
330
20E
100
AcDbEntity
  8
GRAU_10_
 62
     7
100
AcDbVertex
100
AcDb2dVertex
 10
132.512696676227
 20
215.278468054381
 30
0.0
  0
VERTEX
  5
210
330
20E
100
AcDbEntity
  8
GRAU_10_
 62
     7
100
AcDbVertex
100
AcDb2dVertex
 10
132.512696676227
 20
215.2728236099378
 30
0.0
  0
VERTEX
  5
211
330
20E
100
AcDbEntity
  8
GRAU_10_
 62
     7
100
AcDbVertex
100
AcDb2dVertex
 10
132.512696676227
 20
215.2569486099417
 30
0.0
  0
SEQEND
  5
212
330
20E
100
AcDbEntity
  8
GRAU_10_
 62
     7
  0
POLYLINE
  5
213
330
1F
100
AcDbEntity
  8
GRAU_10_
 62
     7
100
AcDb2dPolyline
 66
     1
 10
0.0
 20
0.0
 30
0.0
  0
VERTEX
  5
214
330
213
100
AcDbEntity
  8
GRAU_10_
 62
     7
100
AcDbVertex
100
AcDb2dVertex
 10
132.0124577874633
 20
214.6716902767548
 30
0.0
  0
VERTEX
  5
215
330
213
100
AcDbEntity
  8
GRAU_10_
 62
     7
100
AcDbVertex
100
AcDb2dVertex
 10
132.0124577874633
 20
214.7517708322903
 30
0.0
  0
VERTEX
  5
216
330
213
100
AcDbEntity
  8
GRAU_10_
 62
     7
100
AcDbVertex
100
AcDb2dVertex
 10
132.0124577874633
 20
214.7785819433947
 30
0.0
  0
SEQEND
  5
217
330
213
100
AcDbEntity
  8
GRAU_10_
 62
     7
  0
POLYLINE
  5
218
330
1F
100
AcDbEntity
  8
GRAU_10_
 62
     7
100
AcDb2dPolyline
 66
     1
 10
0.0
 20
0.0
 30
0.0
  0
VERTEX
  5
219
330
218
100
AcDbEntity
  8
GRAU_10_
 62
     7
100
AcDbVertex
100
AcDb2dVertex
 10
138.0121494526299
 20
214.7785819433947
 30
0.0
  0
VERTEX
  5
21A
330
218
100
AcDbEntity
  8
GRAU_10_
 62
     7
100
AcDbVertex
100
AcDb2dVertex
 10
137.5126161194214
 20
215.278468054381
 30
0.0
  0
SEQEND
  5
21B
330
218
100
AcDbEntity
  8
GRAU_10_
 62
     7
  0
POLYLINE
  5
21C
330
1F
100
AcDbEntity
  8
GRAU_10_
 62
     7
100
AcDb2dPolyline
 66
     1
 10
0.0
 20
0.0
 30
0.0
  0
VERTEX
  5
21D
330
21C
100
AcDbEntity
  8
GRAU_10_
 62
     7
100
AcDbVertex
100
AcDb2dVertex
 10
137.5126161194214
 20
215.2569486099417
 30
0.0
  0
VERTEX
  5
21E
330
21C
100
AcDbEntity
  8
GRAU_10_
 62
     7
100
AcDbVertex
100
AcDb2dVertex
 10
137.5126161194214
 20
215.2728236099378
 30
0.0
  0
VERTEX
  5
21F
330
21C
100
AcDbEntity
  8
GRAU_10_
 62
     7
100
AcDbVertex
100
AcDb2dVertex
 10
137.5126161194214
 20
215.278468054381
 30
0.0
  0
SEQEND
  5
220
330
21C
100
AcDbEntity
  8
GRAU_10_
 62
     7
  0
POLYLINE
  5
221
330
1F
100
AcDbEntity
  8
GRAU_10_
 62
     7
100
AcDb2dPolyline
 66
     1
 10
0.0
 20
0.0
 30
0.0
  0
VERTEX
  5
222
330
221
100
AcDbEntity
  8
GRAU_10_
 62
     7
100
AcDbVertex
100
AcDb2dVertex
 10
138.0121494526299
 20
214.7785819433947
 30
0.0
  0
VERTEX
  5
223
330
221
100
AcDbEntity
  8
GRAU_10_
 62
     7
100
AcDbVertex
100
AcDb2dVertex
 10
138.0121494526299
 20
214.7517708322903
 30
0.0
  0
VERTEX
  5
224
330
221
100
AcDbEntity
  8
GRAU_10_
 62
     7
100
AcDbVertex
100
AcDb2dVertex
 10
138.0121494526299
 20
214.6716902767548
 30
0.0
  0
SEQEND
  5
225
330
221
100
AcDbEntity
  8
GRAU_10_
 62
     7
  0
POLYLINE
  5
226
330
1F
100
AcDbEntity
  8
GRAU_10_
 62
     7
100
AcDb2dPolyline
 66
     1
 10
0.0
 20
0.0
 30
0.0
  0
VERTEX
  5
227
330
226
100
AcDbEntity
  8
GRAU_10_
 62
     7
100
AcDbVertex
100
AcDb2dVertex
 10
132.0124577874633
 20
182.0785513960141
 30
0.0
  0
VERTEX
  5
228
330
226
100
AcDbEntity
  8
GRAU_10_
 62
     7
100
AcDbVertex
100
AcDb2dVertex
 10
132.512696676227
 20
181.5783125072504
 30
0.0
  0
SEQEND
  5
229
330
226
100
AcDbEntity
  8
GRAU_10_
 62
     7
  0
POLYLINE
  5
22A
330
1F
100
AcDbEntity
  8
GRAU_10_
 62
     7
100
AcDb2dPolyline
 66
     1
 10
0.0
 20
0.0
 30
0.0
  0
VERTEX
  5
22B
330
22A
100
AcDbEntity
  8
GRAU_10_
 62
     7
100
AcDbVertex
100
AcDb2dVertex
 10
132.512696676227
 20
181.5994791739116
 30
0.0
  0
VERTEX
  5
22C
330
22A
100
AcDbEntity
  8
GRAU_10_
 62
     7
100
AcDbVertex
100
AcDb2dVertex
 10
132.512696676227
 20
181.5836041739155
 30
0.0
  0
VERTEX
  5
22D
330
22A
100
AcDbEntity
  8
GRAU_10_
 62
     7
100
AcDbVertex
100
AcDb2dVertex
 10
132.512696676227
 20
181.5783125072504
 30
0.0
  0
SEQEND
  5
22E
330
22A
100
AcDbEntity
  8
GRAU_10_
 62
     7
  0
POLYLINE
  5
22F
330
1F
100
AcDbEntity
  8
GRAU_10_
 62
     7
100
AcDb2dPolyline
 66
     1
 10
0.0
 20
0.0
 30
0.0
  0
VERTEX
  5
230
330
22F
100
AcDbEntity
  8
GRAU_10_
 62
     7
100
AcDbVertex
100
AcDb2dVertex
 10
132.0124577874633
 20
182.0785513960141
 30
0.0
  0
VERTEX
  5
231
330
22F
100
AcDbEntity
  8
GRAU_10_
 62
     7
100
AcDbVertex
100
AcDb2dVertex
 10
132.0124577874633
 20
182.1046569515633
 30
0.0
  0
VERTEX
  5
232
330
22F
100
AcDbEntity
  8
GRAU_10_
 62
     7
100
AcDbVertex
100
AcDb2dVertex
 10
132.0124577874633
 20
182.1847375070985
 30
0.0
  0
SEQEND
  5
233
330
22F
100
AcDbEntity
  8
GRAU_10_
 62
     7
  0
POLYLINE
  5
234
330
1F
100
AcDbEntity
  8
GRAU_10_
 62
     7
100
AcDb2dPolyline
 66
     1
 10
0.0
 20
0.0
 30
0.0
  0
VERTEX
  5
235
330
234
100
AcDbEntity
  8
GRAU_10_
 62
     7
100
AcDbVertex
100
AcDb2dVertex
 10
137.5126161194214
 20
181.5783125072504
 30
0.0
  0
VERTEX
  5
236
330
234
100
AcDbEntity
  8
GRAU_10_
 62
     7
100
AcDbVertex
100
AcDb2dVertex
 10
138.0121494526299
 20
182.0785513960141
 30
0.0
  0
SEQEND
  5
237
330
234
100
AcDbEntity
  8
GRAU_10_
 62
     7
  0
POLYLINE
  5
238
330
1F
100
AcDbEntity
  8
GRAU_10_
 62
     7
100
AcDb2dPolyline
 66
     1
 10
0.0
 20
0.0
 30
0.0
  0
VERTEX
  5
239
330
238
100
AcDbEntity
  8
GRAU_10_
 62
     7
100
AcDbVertex
100
AcDb2dVertex
 10
137.5126161194214
 20
181.5783125072504
 30
0.0
  0
VERTEX
  5
23A
330
238
100
AcDbEntity
  8
GRAU_10_
 62
     7
100
AcDbVertex
100
AcDb2dVertex
 10
137.5126161194214
 20
181.5836041739155
 30
0.0
  0
VERTEX
  5
23B
330
238
100
AcDbEntity
  8
GRAU_10_
 62
     7
100
AcDbVertex
100
AcDb2dVertex
 10
137.5126161194214
 20
181.5994791739116
 30
0.0
  0
SEQEND
  5
23C
330
238
100
AcDbEntity
  8
GRAU_10_
 62
     7
  0
POLYLINE
  5
23D
330
1F
100
AcDbEntity
  8
GRAU_10_
 62
     7
100
AcDb2dPolyline
 66
     1
 10
0.0
 20
0.0
 30
0.0
  0
VERTEX
  5
23E
330
23D
100
AcDbEntity
  8
GRAU_10_
 62
     7
100
AcDbVertex
100
AcDb2dVertex
 10
138.0121494526299
 20
182.1847375070985
 30
0.0
  0
VERTEX
  5
23F
330
23D
100
AcDbEntity
  8
GRAU_10_
 62
     7
100
AcDbVertex
100
AcDb2dVertex
 10
138.0121494526299
 20
182.1046569515633
 30
0.0
  0
VERTEX
  5
240
330
23D
100
AcDbEntity
  8
GRAU_10_
 62
     7
100
AcDbVertex
100
AcDb2dVertex
 10
138.0121494526299
 20
182.0785513960141
 30
0.0
  0
SEQEND
  5
241
330
23D
100
AcDbEntity
  8
GRAU_10_
 62
     7
  0
POLYLINE
  5
242
330
1F
100
AcDbEntity
  8
GRAU_10_
 62
     7
100
AcDb2dPolyline
 66
     1
 10
0.0
 20
0.0
 30
0.0
  0
VERTEX
  5
243
330
242
100
AcDbEntity
  8
GRAU_10_
 62
     7
100
AcDbVertex
100
AcDb2dVertex
 10
137.5126161194214
 20
215.278468054381
 30
0.0
  0
VERTEX
  5
244
330
242
100
AcDbEntity
  8
GRAU_10_
 62
     7
100
AcDbVertex
100
AcDb2dVertex
 10
132.512696676227
 20
215.278468054381
 30
0.0
  0
SEQEND
  5
245
330
242
100
AcDbEntity
  8
GRAU_10_
 62
     7
  0
POLYLINE
  5
246
330
1F
100
AcDbEntity
  8
GRAU_10_
 62
     7
100
AcDb2dPolyline
 66
     1
 10
0.0
 20
0.0
 30
0.0
  0
VERTEX
  5
247
330
246
100
AcDbEntity
  8
GRAU_10_
 62
     7
100
AcDbVertex
100
AcDb2dVertex
 10
132.512696676227
 20
181.5783125072504
 30
0.0
  0
VERTEX
  5
248
330
246
100
AcDbEntity
  8
GRAU_10_
 62
     7
100
AcDbVertex
100
AcDb2dVertex
 10
137.5126161194214
 20
181.5783125072504
 30
0.0
  0
SEQEND
  5
249
330
246
100
AcDbEntity
  8
GRAU_10_
 62
     7
  0
POLYLINE
  5
24A
330
1F
100
AcDbEntity
  8
GRAU_10_
 62
     7
100
AcDb2dPolyline
 66
     1
 10
0.0
 20
0.0
 30
0.0
  0
VERTEX
  5
24B
330
24A
100
AcDbEntity
  8
GRAU_10_
 62
     7
100
AcDbVertex
100
AcDb2dVertex
 10
123.5126300118105
 20
211.4286041664544
 30
0.0
  0
VERTEX
  5
24C
330
24A
100
AcDbEntity
  8
GRAU_10_
 62
     7
100
AcDbVertex
100
AcDb2dVertex
 10
121.5123800123105
 20
211.4286041664544
 30
0.0
  0
SEQEND
  5
24D
330
24A
100
AcDbEntity
  8
GRAU_10_
 62
     7
  0
POLYLINE
  5
24E
330
1F
100
AcDbEntity
  8
GRAU_10_
 62
     7
100
AcDb2dPolyline
 66
     1
 10
0.0
 20
0.0
 30
0.0
  0
VERTEX
  5
24F
330
24E
100
AcDbEntity
  8
GRAU_10_
 62
     7
100
AcDbVertex
100
AcDb2dVertex
 10
121.5123800123105
 20
185.4285291729544
 30
0.0
  0
VERTEX
  5
250
330
24E
100
AcDbEntity
  8
GRAU_10_
 62
     7
100
AcDbVertex
100
AcDb2dVertex
 10
123.5126300118105
 20
185.4285291729544
 30
0.0
  0
SEQEND
  5
251
330
24E
100
AcDbEntity
  8
GRAU_10_
 62
     7
  0
POLYLINE
  5
252
330
1F
100
AcDbEntity
  8
GRAU_10_
 62
     7
100
AcDb2dPolyline
 66
     1
 10
0.0
 20
0.0
 30
0.0
  0
VERTEX
  5
253
330
252
100
AcDbEntity
  8
GRAU_10_
 62
     7
100
AcDbVertex
100
AcDb2dVertex
 10
123.5126300118105
 20
198.4283902808154
 30
0.0
  0
VERTEX
  5
254
330
252
100
AcDbEntity
  8
GRAU_10_
 62
     7
100
AcDbVertex
100
AcDb2dVertex
 10
123.5126300118105
 20
200.124898613725
 30
0.0
  0
VERTEX
  5
255
330
252
100
AcDbEntity
  8
GRAU_10_
 62
     7
100
AcDbVertex
100
AcDb2dVertex
 10
123.5126300118105
 20
201.7931847244188
 30
0.0
  0
VERTEX
  5
256
330
252
100
AcDbEntity
  8
GRAU_10_
 62
     7
100
AcDbVertex
100
AcDb2dVertex
 10
123.5126300118105
 20
203.4032625017942
 30
0.0
  0
VERTEX
  5
257
330
252
100
AcDbEntity
  8
GRAU_10_
 62
     7
100
AcDbVertex
100
AcDb2dVertex
 10
123.5126300118105
 20
204.9279680569686
 30
0.0
  0
VERTEX
  5
258
330
252
100
AcDbEntity
  8
GRAU_10_
 62
     7
100
AcDbVertex
100
AcDb2dVertex
 10
123.5126300118105
 20
206.3422541677261
 30
0.0
  0
VERTEX
  5
259
330
252
100
AcDbEntity
  8
GRAU_10_
 62
     7
100
AcDbVertex
100
AcDb2dVertex
 10
123.5126300118105
 20
207.6203680562953
 30
0.0
  0
VERTEX
  5
25A
330
252
100
AcDbEntity
  8
GRAU_10_
 62
     7
100
AcDbVertex
100
AcDb2dVertex
 10
123.5126300118105
 20
208.7414958337928
 30
0.0
  0
VERTEX
  5
25B
330
252
100
AcDbEntity
  8
GRAU_10_
 62
     7
100
AcDbVertex
100
AcDb2dVertex
 10
123.5126300118105
 20
209.6865875002232
 30
0.0
  0
VERTEX
  5
25C
330
252
100
AcDbEntity
  8
GRAU_10_
 62
     7
100
AcDbVertex
100
AcDb2dVertex
 10
123.5126300118105
 20
210.4387097222573
 30
0.0
  0
VERTEX
  5
25D
330
252
100
AcDbEntity
  8
GRAU_10_
 62
     7
100
AcDbVertex
100
AcDb2dVertex
 10
123.5126300118105
 20
210.9851624998987
 30
0.0
  0
VERTEX
  5
25E
330
252
100
AcDbEntity
  8
GRAU_10_
 62
     7
100
AcDbVertex
100
AcDb2dVertex
 10
123.5126300118105
 20
211.3171263887046
 30
0.0
  0
VERTEX
  5
25F
330
252
100
AcDbEntity
  8
GRAU_10_
 62
     7
100
AcDbVertex
100
AcDb2dVertex
 10
123.5126300118105
 20
211.4286041664544
 30
0.0
  0
SEQEND
  5
260
330
252
100
AcDbEntity
  8
GRAU_10_
 62
     7
  0
POLYLINE
  5
261
330
1F
100
AcDbEntity
  8
GRAU_10_
 62
     7
100
AcDb2dPolyline
 66
     1
 10
0.0
 20
0.0
 30
0.0
  0
VERTEX
  5
262
330
261
100
AcDbEntity
  8
GRAU_10_
 62
     7
100
AcDbVertex
100
AcDb2dVertex
 10
123.5126300118105
 20
185.4285291729544
 30
0.0
  0
VERTEX
  5
263
330
261
100
AcDbEntity
  8
GRAU_10_
 62
     7
100
AcDbVertex
100
AcDb2dVertex
 10
123.5126300118105
 20
185.5393013951487
 30
0.0
  0
VERTEX
  5
264
330
261
100
AcDbEntity
  8
GRAU_10_
 62
     7
100
AcDbVertex
100
AcDb2dVertex
 10
123.5126300118105
 20
185.8712652839549
 30
0.0
  0
VERTEX
  5
265
330
261
100
AcDbEntity
  8
GRAU_10_
 62
     7
100
AcDbVertex
100
AcDb2dVertex
 10
123.5126300118105
 20
186.417718061596
 30
0.0
  0
VERTEX
  5
266
330
261
100
AcDbEntity
  8
GRAU_10_
 62
     7
100
AcDbVertex
100
AcDb2dVertex
 10
123.5126300118105
 20
187.1701930614078
 30
0.0
  0
VERTEX
  5
267
330
261
100
AcDbEntity
  8
GRAU_10_
 62
     7
100
AcDbVertex
100
AcDb2dVertex
 10
123.5126300118105
 20
188.1149319500605
 30
0.0
  0
VERTEX
  5
268
330
261
100
AcDbEntity
  8
GRAU_10_
 62
     7
100
AcDbVertex
100
AcDb2dVertex
 10
123.5126300118105
 20
189.2360597275583
 30
0.0
  0
VERTEX
  5
269
330
261
100
AcDbEntity
  8
GRAU_10_
 62
     7
100
AcDbVertex
100
AcDb2dVertex
 10
123.5126300118105
 20
190.5145263939053
 30
0.0
  0
VERTEX
  5
26A
330
261
100
AcDbEntity
  8
GRAU_10_
 62
     7
100
AcDbVertex
100
AcDb2dVertex
 10
123.5126300118105
 20
191.9281069491073
 30
0.0
  0
VERTEX
  5
26B
330
261
100
AcDbEntity
  8
GRAU_10_
 62
     7
100
AcDbVertex
100
AcDb2dVertex
 10
123.5126300118105
 20
193.4531652820595
 30
0.0
  0
VERTEX
  5
26C
330
261
100
AcDbEntity
  8
GRAU_10_
 62
     7
100
AcDbVertex
100
AcDb2dVertex
 10
123.5126300118105
 20
195.0635958372123
 30
0.0
  0
VERTEX
  5
26D
330
261
100
AcDbEntity
  8
GRAU_10_
 62
     7
100
AcDbVertex
100
AcDb2dVertex
 10
123.5126300118105
 20
196.7311763923509
 30
0.0
  0
VERTEX
  5
26E
330
261
100
AcDbEntity
  8
GRAU_10_
 62
     7
100
AcDbVertex
100
AcDb2dVertex
 10
123.5126300118105
 20
198.4283902808154
 30
0.0
  0
SEQEND
  5
26F
330
261
100
AcDbEntity
  8
GRAU_10_
 62
     7
  0
POLYLINE
  5
270
330
1F
100
AcDbEntity
  8
GRAU_10_
 62
     7
100
AcDb2dPolyline
 66
     1
 10
0.0
 20
0.0
 30
0.0
  0
VERTEX
  5
271
330
270
100
AcDbEntity
  8
GRAU_10_
 62
     7
100
AcDbVertex
100
AcDb2dVertex
 10
121.5123800123105
 20
198.4283902808154
 30
0.0
  0
VERTEX
  5
272
330
270
100
AcDbEntity
  8
GRAU_10_
 62
     7
100
AcDbVertex
100
AcDb2dVertex
 10
121.5123800123105
 20
196.7311763923509
 30
0.0
  0
VERTEX
  5
273
330
270
100
AcDbEntity
  8
GRAU_10_
 62
     7
100
AcDbVertex
100
AcDb2dVertex
 10
121.5123800123105
 20
195.0635958372123
 30
0.0
  0
VERTEX
  5
274
330
270
100
AcDbEntity
  8
GRAU_10_
 62
     7
100
AcDbVertex
100
AcDb2dVertex
 10
121.5123800123105
 20
193.4531652820595
 30
0.0
  0
VERTEX
  5
275
330
270
100
AcDbEntity
  8
GRAU_10_
 62
     7
100
AcDbVertex
100
AcDb2dVertex
 10
121.5123800123105
 20
191.9281069491073
 30
0.0
  0
VERTEX
  5
276
330
270
100
AcDbEntity
  8
GRAU_10_
 62
     7
100
AcDbVertex
100
AcDb2dVertex
 10
121.5123800123105
 20
190.5145263939053
 30
0.0
  0
VERTEX
  5
277
330
270
100
AcDbEntity
  8
GRAU_10_
 62
     7
100
AcDbVertex
100
AcDb2dVertex
 10
121.5123800123105
 20
189.2360597275583
 30
0.0
  0
VERTEX
  5
278
330
270
100
AcDbEntity
  8
GRAU_10_
 62
     7
100
AcDbVertex
100
AcDb2dVertex
 10
121.5123800123105
 20
188.1149319500605
 30
0.0
  0
VERTEX
  5
279
330
270
100
AcDbEntity
  8
GRAU_10_
 62
     7
100
AcDbVertex
100
AcDb2dVertex
 10
121.5123800123105
 20
187.1701930614078
 30
0.0
  0
VERTEX
  5
27A
330
270
100
AcDbEntity
  8
GRAU_10_
 62
     7
100
AcDbVertex
100
AcDb2dVertex
 10
121.5123800123105
 20
186.417718061596
 30
0.0
  0
VERTEX
  5
27B
330
270
100
AcDbEntity
  8
GRAU_10_
 62
     7
100
AcDbVertex
100
AcDb2dVertex
 10
121.5123800123105
 20
185.8712652839549
 30
0.0
  0
VERTEX
  5
27C
330
270
100
AcDbEntity
  8
GRAU_10_
 62
     7
100
AcDbVertex
100
AcDb2dVertex
 10
121.5123800123105
 20
185.5393013951487
 30
0.0
  0
VERTEX
  5
27D
330
270
100
AcDbEntity
  8
GRAU_10_
 62
     7
100
AcDbVertex
100
AcDb2dVertex
 10
121.5123800123105
 20
185.4285291729544
 30
0.0
  0
SEQEND
  5
27E
330
270
100
AcDbEntity
  8
GRAU_10_
 62
     7
  0
POLYLINE
  5
27F
330
1F
100
AcDbEntity
  8
GRAU_10_
 62
     7
100
AcDb2dPolyline
 66
     1
 10
0.0
 20
0.0
 30
0.0
  0
VERTEX
  5
280
330
27F
100
AcDbEntity
  8
GRAU_10_
 62
     7
100
AcDbVertex
100
AcDb2dVertex
 10
121.5123800123105
 20
211.4286041664544
 30
0.0
  0
VERTEX
  5
281
330
27F
100
AcDbEntity
  8
GRAU_10_
 62
     7
100
AcDbVertex
100
AcDb2dVertex
 10
121.5123800123105
 20
211.3171263887046
 30
0.0
  0
VERTEX
  5
282
330
27F
100
AcDbEntity
  8
GRAU_10_
 62
     7
100
AcDbVertex
100
AcDb2dVertex
 10
121.5123800123105
 20
210.9851624998987
 30
0.0
  0
VERTEX
  5
283
330
27F
100
AcDbEntity
  8
GRAU_10_
 62
     7
100
AcDbVertex
100
AcDb2dVertex
 10
121.5123800123105
 20
210.4387097222573
 30
0.0
  0
VERTEX
  5
284
330
27F
100
AcDbEntity
  8
GRAU_10_
 62
     7
100
AcDbVertex
100
AcDb2dVertex
 10
121.5123800123105
 20
209.6865875002232
 30
0.0
  0
VERTEX
  5
285
330
27F
100
AcDbEntity
  8
GRAU_10_
 62
     7
100
AcDbVertex
100
AcDb2dVertex
 10
121.5123800123105
 20
208.7414958337928
 30
0.0
  0
VERTEX
  5
286
330
27F
100
AcDbEntity
  8
GRAU_10_
 62
     7
100
AcDbVertex
100
AcDb2dVertex
 10
121.5123800123105
 20
207.6203680562953
 30
0.0
  0
VERTEX
  5
287
330
27F
100
AcDbEntity
  8
GRAU_10_
 62
     7
100
AcDbVertex
100
AcDb2dVertex
 10
121.5123800123105
 20
206.3422541677261
 30
0.0
  0
VERTEX
  5
288
330
27F
100
AcDbEntity
  8
GRAU_10_
 62
     7
100
AcDbVertex
100
AcDb2dVertex
 10
121.5123800123105
 20
204.9279680569686
 30
0.0
  0
VERTEX
  5
289
330
27F
100
AcDbEntity
  8
GRAU_10_
 62
     7
100
AcDbVertex
100
AcDb2dVertex
 10
121.5123800123105
 20
203.4032625017942
 30
0.0
  0
VERTEX
  5
28A
330
27F
100
AcDbEntity
  8
GRAU_10_
 62
     7
100
AcDbVertex
100
AcDb2dVertex
 10
121.5123800123105
 20
201.7931847244188
 30
0.0
  0
VERTEX
  5
28B
330
27F
100
AcDbEntity
  8
GRAU_10_
 62
     7
100
AcDbVertex
100
AcDb2dVertex
 10
121.5123800123105
 20
200.124898613725
 30
0.0
  0
VERTEX
  5
28C
330
27F
100
AcDbEntity
  8
GRAU_10_
 62
     7
100
AcDbVertex
100
AcDb2dVertex
 10
121.5123800123105
 20
198.4283902808154
 30
0.0
  0
SEQEND
  5
28D
330
27F
100
AcDbEntity
  8
GRAU_10_
 62
     7
  0
POLYLINE
  5
28E
330
1F
100
AcDbEntity
  8
GRAU_10_
 62
     7
100
AcDb2dPolyline
 66
     1
 10
0.0
 20
0.0
 30
0.0
  0
VERTEX
  5
28F
330
28E
100
AcDbEntity
  8
GRAU_10_
 62
     7
100
AcDbVertex
100
AcDb2dVertex
 10
121.5123800123105
 20
211.4286041664544
 30
0.0
  0
VERTEX
  5
290
330
28E
100
AcDbEntity
  8
GRAU_10_
 62
     7
100
AcDbVertex
100
AcDb2dVertex
 10
120.5122550125605
 20
210.4284791667044
 30
0.0
  0
SEQEND
  5
291
330
28E
100
AcDbEntity
  8
GRAU_10_
 62
     7
  0
POLYLINE
  5
292
330
1F
100
AcDbEntity
  8
GRAU_10_
 62
     7
100
AcDb2dPolyline
 66
     1
 10
0.0
 20
0.0
 30
0.0
  0
VERTEX
  5
293
330
292
100
AcDbEntity
  8
GRAU_10_
 62
     7
100
AcDbVertex
100
AcDb2dVertex
 10
120.5122550125605
 20
186.4279486171489
 30
0.0
  0
VERTEX
  5
294
330
292
100
AcDbEntity
  8
GRAU_10_
 62
     7
100
AcDbVertex
100
AcDb2dVertex
 10
121.5123800123105
 20
185.4285291729544
 30
0.0
  0
SEQEND
  5
295
330
292
100
AcDbEntity
  8
GRAU_10_
 62
     7
  0
POLYLINE
  5
296
330
1F
100
AcDbEntity
  8
GRAU_10_
 62
     7
100
AcDb2dPolyline
 66
     1
 10
0.0
 20
0.0
 30
0.0
  0
VERTEX
  5
297
330
296
100
AcDbEntity
  8
GRAU_10_
 62
     7
100
AcDbVertex
100
AcDb2dVertex
 10
120.5122550125605
 20
198.4283902808154
 30
0.0
  0
VERTEX
  5
298
330
296
100
AcDbEntity
  8
GRAU_10_
 62
     7
100
AcDbVertex
100
AcDb2dVertex
 10
120.5122550125605
 20
199.9943708359795
 30
0.0
  0
VERTEX
  5
299
330
296
100
AcDbEntity
  8
GRAU_10_
 62
     7
100
AcDbVertex
100
AcDb2dVertex
 10
120.5122550125605
 20
201.5342458355945
 30
0.0
  0
VERTEX
  5
29A
330
296
100
AcDbEntity
  8
GRAU_10_
 62
     7
100
AcDbVertex
100
AcDb2dVertex
 10
120.5122550125605
 20
203.0201458352232
 30
0.0
  0
VERTEX
  5
29B
330
296
100
AcDbEntity
  8
GRAU_10_
 62
     7
100
AcDbVertex
100
AcDb2dVertex
 10
120.5122550125605
 20
204.4280819459823
 30
0.0
  0
VERTEX
  5
29C
330
296
100
AcDbEntity
  8
GRAU_10_
 62
     7
100
AcDbVertex
100
AcDb2dVertex
 10
120.5122550125605
 20
205.7337125012114
 30
0.0
  0
VERTEX
  5
29D
330
296
100
AcDbEntity
  8
GRAU_10_
 62
     7
100
AcDbVertex
100
AcDb2dVertex
 10
120.5122550125605
 20
206.9137541675832
 30
0.0
  0
VERTEX
  5
29E
330
296
100
AcDbEntity
  8
GRAU_10_
 62
     7
100
AcDbVertex
100
AcDb2dVertex
 10
120.5122550125605
 20
207.9488041673245
 30
0.0
  0
VERTEX
  5
29F
330
296
100
AcDbEntity
  8
GRAU_10_
 62
     7
100
AcDbVertex
100
AcDb2dVertex
 10
120.5122550125605
 20
208.8205180559953
 30
0.0
  0
VERTEX
  5
2A0
330
296
100
AcDbEntity
  8
GRAU_10_
 62
     7
100
AcDbVertex
100
AcDb2dVertex
 10
120.5122550125605
 20
209.5147847224883
 30
0.0
  0
VERTEX
  5
2A1
330
296
100
AcDbEntity
  8
GRAU_10_
 62
     7
100
AcDbVertex
100
AcDb2dVertex
 10
120.5122550125605
 20
210.019609722362
 30
0.0
  0
VERTEX
  5
2A2
330
296
100
AcDbEntity
  8
GRAU_10_
 62
     7
100
AcDbVertex
100
AcDb2dVertex
 10
120.5122550125605
 20
210.3254680556189
 30
0.0
  0
VERTEX
  5
2A3
330
296
100
AcDbEntity
  8
GRAU_10_
 62
     7
100
AcDbVertex
100
AcDb2dVertex
 10
120.5122550125605
 20
210.4284791667044
 30
0.0
  0
SEQEND
  5
2A4
330
296
100
AcDbEntity
  8
GRAU_10_
 62
     7
  0
POLYLINE
  5
2A5
330
1F
100
AcDbEntity
  8
GRAU_10_
 62
     7
100
AcDb2dPolyline
 66
     1
 10
0.0
 20
0.0
 30
0.0
  0
VERTEX
  5
2A6
330
2A5
100
AcDbEntity
  8
GRAU_10_
 62
     7
100
AcDbVertex
100
AcDb2dVertex
 10
120.5122550125605
 20
186.4279486171489
 30
0.0
  0
VERTEX
  5
2A7
330
2A5
100
AcDbEntity
  8
GRAU_10_
 62
     7
100
AcDbVertex
100
AcDb2dVertex
 10
120.5122550125605
 20
186.5309597282344
 30
0.0
  0
VERTEX
  5
2A8
330
2A5
100
AcDbEntity
  8
GRAU_10_
 62
     7
100
AcDbVertex
100
AcDb2dVertex
 10
120.5122550125605
 20
186.8368180614913
 30
0.0
  0
VERTEX
  5
2A9
330
2A5
100
AcDbEntity
  8
GRAU_10_
 62
     7
100
AcDbVertex
100
AcDb2dVertex
 10
120.5122550125605
 20
187.3419958391427
 30
0.0
  0
VERTEX
  5
2AA
330
2A5
100
AcDbEntity
  8
GRAU_10_
 62
     7
100
AcDbVertex
100
AcDb2dVertex
 10
120.5122550125605
 20
188.0359097278583
 30
0.0
  0
VERTEX
  5
2AB
330
2A5
100
AcDbEntity
  8
GRAU_10_
 62
     7
100
AcDbVertex
100
AcDb2dVertex
 10
120.5122550125605
 20
188.9083291720846
 30
0.0
  0
VERTEX
  5
2AC
330
2A5
100
AcDbEntity
  8
GRAU_10_
 62
     7
100
AcDbVertex
100
AcDb2dVertex
 10
120.5122550125605
 20
189.9430263940479
 30
0.0
  0
VERTEX
  5
2AD
330
2A5
100
AcDbEntity
  8
GRAU_10_
 62
     7
100
AcDbVertex
100
AcDb2dVertex
 10
120.5122550125605
 20
191.1234208381974
 30
0.0
  0
VERTEX
  5
2AE
330
2A5
100
AcDbEntity
  8
GRAU_10_
 62
     7
100
AcDbVertex
100
AcDb2dVertex
 10
120.5122550125605
 20
192.428345837871
 30
0.0
  0
VERTEX
  5
2AF
330
2A5
100
AcDbEntity
  8
GRAU_10_
 62
     7
100
AcDbVertex
100
AcDb2dVertex
 10
120.5122550125605
 20
193.8359291708524
 30
0.0
  0
VERTEX
  5
2B0
330
2A5
100
AcDbEntity
  8
GRAU_10_
 62
     7
100
AcDbVertex
100
AcDb2dVertex
 10
120.5122550125605
 20
195.3221819482588
 30
0.0
  0
VERTEX
  5
2B1
330
2A5
100
AcDbEntity
  8
GRAU_10_
 62
     7
100
AcDbVertex
100
AcDb2dVertex
 10
120.5122550125605
 20
196.8617041700963
 30
0.0
  0
VERTEX
  5
2B2
330
2A5
100
AcDbEntity
  8
GRAU_10_
 62
     7
100
AcDbVertex
100
AcDb2dVertex
 10
120.5122550125605
 20
198.4283902808154
 30
0.0
  0
SEQEND
  5
2B3
330
2A5
100
AcDbEntity
  8
GRAU_10_
 62
     7
  0
POLYLINE
  5
2B4
330
1F
100
AcDbEntity
  8
GRAU_10_
 62
     7
100
AcDb2dPolyline
 66
     1
 10
0.0
 20
0.0
 30
0.0
  0
VERTEX
  5
2B5
330
2B4
100
AcDbEntity
  8
GRAU_10_
 62
     7
100
AcDbVertex
100
AcDb2dVertex
 10
120.5122550125605
 20
208.4529236116429
 30
0.0
  0
VERTEX
  5
2B6
330
2B4
100
AcDbEntity
  8
GRAU_10_
 62
     7
100
AcDbVertex
100
AcDb2dVertex
 10
119.5124827905883
 20
208.4529236116429
 30
0.0
  0
SEQEND
  5
2B7
330
2B4
100
AcDbEntity
  8
GRAU_10_
 62
     7
  0
POLYLINE
  5
2B8
330
1F
100
AcDbEntity
  8
GRAU_10_
 62
     7
100
AcDb2dPolyline
 66
     1
 10
0.0
 20
0.0
 30
0.0
  0
VERTEX
  5
2B9
330
2B8
100
AcDbEntity
  8
GRAU_10_
 62
     7
100
AcDbVertex
100
AcDb2dVertex
 10
119.5124827905883
 20
188.4035041722107
 30
0.0
  0
VERTEX
  5
2BA
330
2B8
100
AcDbEntity
  8
GRAU_10_
 62
     7
100
AcDbVertex
100
AcDb2dVertex
 10
120.5122550125605
 20
188.4035041722107
 30
0.0
  0
SEQEND
  5
2BB
330
2B8
100
AcDbEntity
  8
GRAU_10_
 62
     7
  0
POLYLINE
  5
2BC
330
1F
100
AcDbEntity
  8
GRAU_10_
 62
     7
100
AcDb2dPolyline
 66
     1
 10
0.0
 20
0.0
 30
0.0
  0
VERTEX
  5
2BD
330
2BC
100
AcDbEntity
  8
GRAU_10_
 62
     7
100
AcDbVertex
100
AcDb2dVertex
 10
119.5124827905883
 20
198.4283902808154
 30
0.0
  0
VERTEX
  5
2BE
330
2BC
100
AcDbEntity
  8
GRAU_10_
 62
     7
100
AcDbVertex
100
AcDb2dVertex
 10
119.5124827905883
 20
199.8550236137923
 30
0.0
  0
VERTEX
  5
2BF
330
2BC
100
AcDbEntity
  8
GRAU_10_
 62
     7
100
AcDbVertex
100
AcDb2dVertex
 10
119.5124827905883
 20
201.2527291689983
 30
0.0
  0
VERTEX
  5
2C0
330
2BC
100
AcDbEntity
  8
GRAU_10_
 62
     7
100
AcDbVertex
100
AcDb2dVertex
 10
119.5124827905883
 20
202.5925791686632
 30
0.0
  0
VERTEX
  5
2C1
330
2BC
100
AcDbEntity
  8
GRAU_10_
 62
     7
100
AcDbVertex
100
AcDb2dVertex
 10
119.5124827905883
 20
203.8481152794605
 30
0.0
  0
VERTEX
  5
2C2
330
2BC
100
AcDbEntity
  8
GRAU_10_
 62
     7
100
AcDbVertex
100
AcDb2dVertex
 10
119.5124827905883
 20
204.9928791680632
 30
0.0
  0
VERTEX
  5
2C3
330
2BC
100
AcDbEntity
  8
GRAU_10_
 62
     7
100
AcDbVertex
100
AcDb2dVertex
 10
119.5124827905883
 20
206.0046458344771
 30
0.0
  0
VERTEX
  5
2C4
330
2BC
100
AcDbEntity
  8
GRAU_10_
 62
     7
100
AcDbVertex
100
AcDb2dVertex
 10
119.5124827905883
 20
206.8615430564851
 30
0.0
  0
VERTEX
  5
2C5
330
2BC
100
AcDbEntity
  8
GRAU_10_
 62
     7
100
AcDbVertex
100
AcDb2dVertex
 10
119.5124827905883
 20
207.5469902785357
 30
0.0
  0
VERTEX
  5
2C6
330
2BC
100
AcDbEntity
  8
GRAU_10_
 62
     7
100
AcDbVertex
100
AcDb2dVertex
 10
119.5124827905883
 20
208.0472291672997
 30
0.0
  0
VERTEX
  5
2C7
330
2BC
100
AcDbEntity
  8
GRAU_10_
 62
     7
100
AcDbVertex
100
AcDb2dVertex
 10
119.5124827905883
 20
208.3509708338904
 30
0.0
  0
VERTEX
  5
2C8
330
2BC
100
AcDbEntity
  8
GRAU_10_
 62
     7
100
AcDbVertex
100
AcDb2dVertex
 10
119.5124827905883
 20
208.4529236116429
 30
0.0
  0
SEQEND
  5
2C9
330
2BC
100
AcDbEntity
  8
GRAU_10_
 62
     7
  0
POLYLINE
  5
2CA
330
1F
100
AcDbEntity
  8
GRAU_10_
 62
     7
100
AcDb2dPolyline
 66
     1
 10
0.0
 20
0.0
 30
0.0
  0
VERTEX
  5
2CB
330
2CA
100
AcDbEntity
  8
GRAU_10_
 62
     7
100
AcDbVertex
100
AcDb2dVertex
 10
119.5124827905883
 20
188.4035041722107
 30
0.0
  0
VERTEX
  5
2CC
330
2CA
100
AcDbEntity
  8
GRAU_10_
 62
     7
100
AcDbVertex
100
AcDb2dVertex
 10
119.5124827905883
 20
188.5054569499629
 30
0.0
  0
VERTEX
  5
2CD
330
2CA
100
AcDbEntity
  8
GRAU_10_
 62
     7
100
AcDbVertex
100
AcDb2dVertex
 10
119.5124827905883
 20
188.8091986165536
 30
0.0
  0
VERTEX
  5
2CE
330
2CA
100
AcDbEntity
  8
GRAU_10_
 62
     7
100
AcDbVertex
100
AcDb2dVertex
 10
119.5124827905883
 20
189.3090847275398
 30
0.0
  0
VERTEX
  5
2CF
330
2CA
100
AcDbEntity
  8
GRAU_10_
 62
     7
100
AcDbVertex
100
AcDb2dVertex
 10
119.5124827905883
 20
189.9945319495908
 30
0.0
  0
VERTEX
  5
2D0
330
2CA
100
AcDbEntity
  8
GRAU_10_
 62
     7
100
AcDbVertex
100
AcDb2dVertex
 10
119.5124827905883
 20
190.852134727154
 30
0.0
  0
VERTEX
  5
2D1
330
2CA
100
AcDbEntity
  8
GRAU_10_
 62
     7
100
AcDbVertex
100
AcDb2dVertex
 10
119.5124827905883
 20
191.8635486157901
 30
0.0
  0
VERTEX
  5
2D2
330
2CA
100
AcDbEntity
  8
GRAU_10_
 62
     7
100
AcDbVertex
100
AcDb2dVertex
 10
119.5124827905883
 20
193.0083125043928
 30
0.0
  0
VERTEX
  5
2D3
330
2CA
100
AcDbEntity
  8
GRAU_10_
 62
     7
100
AcDbVertex
100
AcDb2dVertex
 10
119.5124827905883
 20
194.2634958374123
 30
0.0
  0
VERTEX
  5
2D4
330
2CA
100
AcDbEntity
  8
GRAU_10_
 62
     7
100
AcDbVertex
100
AcDb2dVertex
 10
119.5124827905883
 20
195.603698614855
 30
0.0
  0
VERTEX
  5
2D5
330
2CA
100
AcDbEntity
  8
GRAU_10_
 62
     7
100
AcDbVertex
100
AcDb2dVertex
 10
119.5124827905883
 20
197.001404170061
 30
0.0
  0
VERTEX
  5
2D6
330
2CA
100
AcDbEntity
  8
GRAU_10_
 62
     7
100
AcDbVertex
100
AcDb2dVertex
 10
119.5124827905883
 20
198.4283902808154
 30
0.0
  0
SEQEND
  5
2D7
330
2CA
100
AcDbEntity
  8
GRAU_10_
 62
     7
  0
POLYLINE
  5
2D8
330
1F
100
AcDbEntity
  8
GRAU_10_
 62
     7
100
AcDb2dPolyline
 66
     1
 10
0.0
 20
0.0
 30
0.0
  0
VERTEX
  5
2D9
330
2D8
100
AcDbEntity
  8
GRAU_10_
 62
     7
100
AcDbVertex
100
AcDb2dVertex
 10
119.5124827905883
 20
208.4529236116429
 30
0.0
  0
VERTEX
  5
2DA
330
2D8
100
AcDbEntity
  8
GRAU_10_
 62
     7
100
AcDbVertex
100
AcDb2dVertex
 10
100.0624327954508
 20
205.7199541678816
 30
0.0
  0
SEQEND
  5
2DB
330
2D8
100
AcDbEntity
  8
GRAU_10_
 62
     7
  0
POLYLINE
  5
2DC
330
1F
100
AcDbEntity
  8
GRAU_10_
 62
     7
100
AcDb2dPolyline
 66
     1
 10
0.0
 20
0.0
 30
0.0
  0
VERTEX
  5
2DD
330
2DC
100
AcDbEntity
  8
GRAU_10_
 62
     7
100
AcDbVertex
100
AcDb2dVertex
 10
100.0624327954508
 20
191.1364736159717
 30
0.0
  0
VERTEX
  5
2DE
330
2DC
100
AcDbEntity
  8
GRAU_10_
 62
     7
100
AcDbVertex
100
AcDb2dVertex
 10
119.5124827905883
 20
188.4035041722107
 30
0.0
  0
SEQEND
  5
2DF
330
2DC
100
AcDbEntity
  8
GRAU_10_
 62
     7
  0
POLYLINE
  5
2E0
330
1F
100
AcDbEntity
  8
GRAU_10_
 62
     7
100
AcDb2dPolyline
 66
     1
 10
0.0
 20
0.0
 30
0.0
  0
VERTEX
  5
2E1
330
2E0
100
AcDbEntity
  8
GRAU_10_
 62
     7
100
AcDbVertex
100
AcDb2dVertex
 10
100.0624327954508
 20
198.4283902808154
 30
0.0
  0
VERTEX
  5
2E2
330
2E0
100
AcDbEntity
  8
GRAU_10_
 62
     7
100
AcDbVertex
100
AcDb2dVertex
 10
100.0624327954508
 20
199.6941569471658
 30
0.0
  0
VERTEX
  5
2E3
330
2E0
100
AcDbEntity
  8
GRAU_10_
 62
     7
100
AcDbVertex
100
AcDb2dVertex
 10
100.0624327954508
 20
200.9221763913032
 30
0.0
  0
VERTEX
  5
2E4
330
2E0
100
AcDbEntity
  8
GRAU_10_
 62
     7
100
AcDbVertex
100
AcDb2dVertex
 10
100.0624327954508
 20
202.073643057682
 30
0.0
  0
VERTEX
  5
2E5
330
2E0
100
AcDbEntity
  8
GRAU_10_
 62
     7
100
AcDbVertex
100
AcDb2dVertex
 10
100.0624327954508
 20
203.1150430574218
 30
0.0
  0
VERTEX
  5
2E6
330
2E0
100
AcDbEntity
  8
GRAU_10_
 62
     7
100
AcDbVertex
100
AcDb2dVertex
 10
100.0624327954508
 20
204.0139208349747
 30
0.0
  0
VERTEX
  5
2E7
330
2E0
100
AcDbEntity
  8
GRAU_10_
 62
     7
100
AcDbVertex
100
AcDb2dVertex
 10
100.0624327954508
 20
204.7431125014591
 30
0.0
  0
VERTEX
  5
2E8
330
2E0
100
AcDbEntity
  8
GRAU_10_
 62
     7
100
AcDbVertex
100
AcDb2dVertex
 10
100.0624327954508
 20
205.2796875013249
 30
0.0
  0
VERTEX
  5
2E9
330
2E0
100
AcDbEntity
  8
GRAU_10_
 62
     7
100
AcDbVertex
100
AcDb2dVertex
 10
100.0624327954508
 20
205.6088291679092
 30
0.0
  0
VERTEX
  5
2EA
330
2E0
100
AcDbEntity
  8
GRAU_10_
 62
     7
100
AcDbVertex
100
AcDb2dVertex
 10
100.0624327954508
 20
205.7199541678816
 30
0.0
  0
SEQEND
  5
2EB
330
2E0
100
AcDbEntity
  8
GRAU_10_
 62
     7
  0
POLYLINE
  5
2EC
330
1F
100
AcDbEntity
  8
GRAU_10_
 62
     7
100
AcDb2dPolyline
 66
     1
 10
0.0
 20
0.0
 30
0.0
  0
VERTEX
  5
2ED
330
2EC
100
AcDbEntity
  8
GRAU_10_
 62
     7
100
AcDbVertex
100
AcDb2dVertex
 10
100.0624327954508
 20
191.1364736159717
 30
0.0
  0
VERTEX
  5
2EE
330
2EC
100
AcDbEntity
  8
GRAU_10_
 62
     7
100
AcDbVertex
100
AcDb2dVertex
 10
100.0624327954508
 20
191.2475986159441
 30
0.0
  0
VERTEX
  5
2EF
330
2EC
100
AcDbEntity
  8
GRAU_10_
 62
     7
100
AcDbVertex
100
AcDb2dVertex
 10
100.0624327954508
 20
191.5767402825284
 30
0.0
  0
VERTEX
  5
2F0
330
2EC
100
AcDbEntity
  8
GRAU_10_
 62
     7
100
AcDbVertex
100
AcDb2dVertex
 10
100.0624327954508
 20
192.1133152823942
 30
0.0
  0
VERTEX
  5
2F1
330
2EC
100
AcDbEntity
  8
GRAU_10_
 62
     7
100
AcDbVertex
100
AcDb2dVertex
 10
100.0624327954508
 20
192.8425069488789
 30
0.0
  0
VERTEX
  5
2F2
330
2EC
100
AcDbEntity
  8
GRAU_10_
 62
     7
100
AcDbVertex
100
AcDb2dVertex
 10
100.0624327954508
 20
193.7413847264316
 30
0.0
  0
VERTEX
  5
2F3
330
2EC
100
AcDbEntity
  8
GRAU_10_
 62
     7
100
AcDbVertex
100
AcDb2dVertex
 10
100.0624327954508
 20
194.7824319483938
 30
0.0
  0
VERTEX
  5
2F4
330
2EC
100
AcDbEntity
  8
GRAU_10_
 62
     7
100
AcDbVertex
100
AcDb2dVertex
 10
100.0624327954508
 20
195.9342513925501
 30
0.0
  0
VERTEX
  5
2F5
330
2EC
100
AcDbEntity
  8
GRAU_10_
 62
     7
100
AcDbVertex
100
AcDb2dVertex
 10
100.0624327954508
 20
197.16191805891
 30
0.0
  0
VERTEX
  5
2F6
330
2EC
100
AcDbEntity
  8
GRAU_10_
 62
     7
100
AcDbVertex
100
AcDb2dVertex
 10
100.0624327954508
 20
198.4283902808154
 30
0.0
  0
SEQEND
  5
2F7
330
2EC
100
AcDbEntity
  8
GRAU_10_
 62
     7
  0
POLYLINE
  5
2F8
330
1F
100
AcDbEntity
  8
GRAU_10_
 62
     7
100
AcDb2dPolyline
 66
     1
 10
0.0
 20
0.0
 30
0.0
  0
VERTEX
  5
2F9
330
2F8
100
AcDbEntity
  8
GRAU_10_
 62
     7
100
AcDbVertex
100
AcDb2dVertex
 10
100.0624327954508
 20
205.7199541678816
 30
0.0
  0
VERTEX
  5
2FA
330
2F8
100
AcDbEntity
  8
GRAU_10_
 62
     7
100
AcDbVertex
100
AcDb2dVertex
 10
99.51209946225492
 20
205.1696208346858
 30
0.0
  0
SEQEND
  5
2FB
330
2F8
100
AcDbEntity
  8
GRAU_10_
 62
     7
  0
POLYLINE
  5
2FC
330
1F
100
AcDbEntity
  8
GRAU_10_
 62
     7
100
AcDb2dPolyline
 66
     1
 10
0.0
 20
0.0
 30
0.0
  0
VERTEX
  5
2FD
330
2FC
100
AcDbEntity
  8
GRAU_10_
 62
     7
100
AcDbVertex
100
AcDb2dVertex
 10
99.51209946225492
 20
191.6868069491676
 30
0.0
  0
VERTEX
  5
2FE
330
2FC
100
AcDbEntity
  8
GRAU_10_
 62
     7
100
AcDbVertex
100
AcDb2dVertex
 10
100.0624327954508
 20
191.1364736159717
 30
0.0
  0
SEQEND
  5
2FF
330
2FC
100
AcDbEntity
  8
GRAU_10_
 62
     7
  0
POLYLINE
  5
300
330
1F
100
AcDbEntity
  8
GRAU_10_
 62
     7
100
AcDb2dPolyline
 66
     1
 10
0.0
 20
0.0
 30
0.0
  0
VERTEX
  5
301
330
300
100
AcDbEntity
  8
GRAU_10_
 62
     7
100
AcDbVertex
100
AcDb2dVertex
 10
99.51209946225492
 20
198.4283902808154
 30
0.0
  0
VERTEX
  5
302
330
300
100
AcDbEntity
  8
GRAU_10_
 62
     7
100
AcDbVertex
100
AcDb2dVertex
 10
99.51209946225492
 20
199.5989069471898
 30
0.0
  0
VERTEX
  5
303
330
300
100
AcDbEntity
  8
GRAU_10_
 62
     7
100
AcDbVertex
100
AcDb2dVertex
 10
99.51209946225492
 20
200.7337930580171
 30
0.0
  0
VERTEX
  5
304
330
300
100
AcDbEntity
  8
GRAU_10_
 62
     7
100
AcDbVertex
100
AcDb2dVertex
 10
99.51209946225492
 20
201.7988291688617
 30
0.0
  0
VERTEX
  5
305
330
300
100
AcDbEntity
  8
GRAU_10_
 62
     7
100
AcDbVertex
100
AcDb2dVertex
 10
99.51209946225492
 20
202.7619125019544
 30
0.0
  0
VERTEX
  5
306
330
300
100
AcDbEntity
  8
GRAU_10_
 62
     7
100
AcDbVertex
100
AcDb2dVertex
 10
99.51209946225492
 20
203.5927041684135
 30
0.0
  0
VERTEX
  5
307
330
300
100
AcDbEntity
  8
GRAU_10_
 62
     7
100
AcDbVertex
100
AcDb2dVertex
 10
99.51209946225492
 20
204.2665097238006
 30
0.0
  0
VERTEX
  5
308
330
300
100
AcDbEntity
  8
GRAU_10_
 62
     7
100
AcDbVertex
100
AcDb2dVertex
 10
99.51209946225492
 20
204.7632208347873
 30
0.0
  0
VERTEX
  5
309
330
300
100
AcDbEntity
  8
GRAU_10_
 62
     7
100
AcDbVertex
100
AcDb2dVertex
 10
99.51209946225492
 20
205.0673152791558
 30
0.0
  0
VERTEX
  5
30A
330
300
100
AcDbEntity
  8
GRAU_10_
 62
     7
100
AcDbVertex
100
AcDb2dVertex
 10
99.51209946225492
 20
205.1696208346858
 30
0.0
  0
SEQEND
  5
30B
330
300
100
AcDbEntity
  8
GRAU_10_
 62
     7
  0
POLYLINE
  5
30C
330
1F
100
AcDbEntity
  8
GRAU_10_
 62
     7
100
AcDb2dPolyline
 66
     1
 10
0.0
 20
0.0
 30
0.0
  0
VERTEX
  5
30D
330
30C
100
AcDbEntity
  8
GRAU_10_
 62
     7
100
AcDbVertex
100
AcDb2dVertex
 10
99.51209946225492
 20
191.6868069491676
 30
0.0
  0
VERTEX
  5
30E
330
30C
100
AcDbEntity
  8
GRAU_10_
 62
     7
100
AcDbVertex
100
AcDb2dVertex
 10
99.51209946225492
 20
191.7891125046975
 30
0.0
  0
VERTEX
  5
30F
330
30C
100
AcDbEntity
  8
GRAU_10_
 62
     7
100
AcDbVertex
100
AcDb2dVertex
 10
99.51209946225492
 20
192.0935597268437
 30
0.0
  0
VERTEX
  5
310
330
30C
100
AcDbEntity
  8
GRAU_10_
 62
     7
100
AcDbVertex
100
AcDb2dVertex
 10
99.51209946225492
 20
192.589918060053
 30
0.0
  0
VERTEX
  5
311
330
30C
100
AcDbEntity
  8
GRAU_10_
 62
     7
100
AcDbVertex
100
AcDb2dVertex
 10
99.51209946225492
 20
193.2640763932178
 30
0.0
  0
VERTEX
  5
312
330
30C
100
AcDbEntity
  8
GRAU_10_
 62
     7
100
AcDbVertex
100
AcDb2dVertex
 10
99.51209946225492
 20
194.0952208374544
 30
0.0
  0
VERTEX
  5
313
330
30C
100
AcDbEntity
  8
GRAU_10_
 62
     7
100
AcDbVertex
100
AcDb2dVertex
 10
99.51209946225492
 20
195.0572458372139
 30
0.0
  0
VERTEX
  5
314
330
30C
100
AcDbEntity
  8
GRAU_10_
 62
     7
100
AcDbVertex
100
AcDb2dVertex
 10
99.51209946225492
 20
196.1222819480588
 30
0.0
  0
VERTEX
  5
315
330
30C
100
AcDbEntity
  8
GRAU_10_
 62
     7
100
AcDbVertex
100
AcDb2dVertex
 10
99.51209946225492
 20
197.2575208366638
 30
0.0
  0
VERTEX
  5
316
330
30C
100
AcDbEntity
  8
GRAU_10_
 62
     7
100
AcDbVertex
100
AcDb2dVertex
 10
99.51209946225492
 20
198.4283902808154
 30
0.0
  0
SEQEND
  5
317
330
30C
100
AcDbEntity
  8
GRAU_10_
 62
     7
  0
SPLINE
  5
318
330
1F
100
AcDbEntity
  8
GRAU_10_
 62
     7
100
AcDbSpline
210
0.0
220
0.0
230
1.0
 70
    11
 71
     3
 72
    17
 73
    13
 74
     0
 42
0.0000000001
 43
0.0000000001
 12
1.0
 22
0.0
 32
0.0
 13
1.0
 23
0.0
 33
0.0
 40
0.0
 40
0.0
 40
0.0
 40
0.0
 40
1.0
 40
1.0
 40
1.0
 40
2.0
 40
2.0
 40
2.0
 40
3.0
 40
3.0
 40
3.0
 40
4.0
 40
4.0
 40
4.0
 40
4.0
 10
50.17276109856816
 20
198.4283902808154
 30
0.0
 10
50.17276109856816
 20
204.5582569459496
 30
0.0
 10
45.20318054425484
 20
209.5281902780404
 30
0.0
 10
39.07296110134281
 20
209.5281902780404
 30
0.0
 10
32.94309443620885
 20
209.5281902780404
 30
0.0
 10
27.97316110411778
 20
204.5582569459496
 30
0.0
 10
27.97316110411778
 20
198.4283902808154
 30
0.0
 10
27.97316110411778
 20
192.2978180601259
 30
0.0
 10
32.94309443620885
 20
187.3282375058129
 30
0.0
 10
39.07296110134281
 20
187.3282375058129
 30
0.0
 10
45.20318054425484
 20
187.3282375058129
 30
0.0
 10
50.17276109856816
 20
192.2978180601259
 30
0.0
 10
50.17276109856816
 20
198.4283902808154
 30
0.0
  0
SPLINE
  5
319
330
1F
100
AcDbEntity
  8
GRAU_10_
 62
     7
100
AcDbSpline
210
0.0
220
0.0
230
1.0
 70
    11
 71
     3
 72
    17
 73
    13
 74
     0
 42
0.0000000001
 43
0.0000000001
 12
1.0
 22
0.0
 32
0.0
 13
1.0
 23
0.0
 33
0.0
 40
0.0
 40
0.0
 40
0.0
 40
0.0
 40
1.0
 40
1.0
 40
1.0
 40
2.0
 40
2.0
 40
2.0
 40
3.0
 40
3.0
 40
3.0
 40
4.0
 40
4.0
 40
4.0
 40
4.0
 10
50.47332776515963
 20
198.4283902808154
 30
0.0
 10
50.47332776515963
 20
204.7244152792416
 30
0.0
 10
45.36898609976903
 20
209.8280513890767
 30
0.0
 10
39.07296110134281
 20
209.8280513890767
 30
0.0
 10
32.77728888069466
 20
209.8280513890767
 30
0.0
 10
27.67294721530406
 20
204.7244152792416
 30
0.0
 10
27.67294721530406
 20
198.4283902808154
 30
0.0
 10
27.67294721530406
 20
192.1320125046117
 30
0.0
 10
32.77728888069466
 20
187.0280236169992
 30
0.0
 10
39.07296110134281
 20
187.0280236169992
 30
0.0
 10
45.36898609976903
 20
187.0280236169992
 30
0.0
 10
50.47332776515963
 20
192.1320125046117
 30
0.0
 10
50.47332776515963
 20
198.4283902808154
 30
0.0
  0
SPLINE
  5
31A
330
1F
100
AcDbEntity
  8
GRAU_10_
 62
     7
100
AcDbSpline
210
0.0
220
0.0
230
1.0
 70
    11
 71
     3
 72
    17
 73
    13
 74
     0
 42
0.0000000001
 43
0.0000000001
 12
1.0
 22
0.0
 32
0.0
 13
1.0
 23
0.0
 33
0.0
 40
0.0
 40
0.0
 40
0.0
 40
0.0
 40
1.0
 40
1.0
 40
1.0
 40
2.0
 40
2.0
 40
2.0
 40
3.0
 40
3.0
 40
3.0
 40
4.0
 40
4.0
 40
4.0
 40
4.0
 10
50.07292498748188
 20
198.4283902808154
 30
0.0
 10
50.07292498748188
 20
204.5035763904079
 30
0.0
 10
45.14779443315752
 20
209.4280013891767
 30
0.0
 10
39.07296110134281
 20
209.4280013891767
 30
0.0
 10
32.99812776952841
 20
209.4280013891767
 30
0.0
 10
28.07334999298181
 20
204.5035763904079
 30
0.0
 10
28.07334999298181
 20
198.4283902808154
 30
0.0
 10
28.07334999298181
 20
192.353556949001
 30
0.0
 10
32.99812776952841
 20
187.4284263946766
 30
0.0
 10
39.07296110134281
 20
187.4284263946766
 30
0.0
 10
45.14779443315752
 20
187.4284263946766
 30
0.0
 10
50.07292498748188
 20
192.353556949001
 30
0.0
 10
50.07292498748188
 20
198.4283902808154
 30
0.0
  0
SPLINE
  5
31B
330
1F
100
AcDbEntity
  8
GRAU_10_
 62
     7
100
AcDbSpline
210
0.0
220
0.0
230
1.0
 70
    11
 71
     3
 72
    17
 73
    13
 74
     0
 42
0.0000000001
 43
0.0000000001
 12
1.0
 22
0.0
 32
0.0
 13
1.0
 23
0.0
 33
0.0
 40
0.0
 40
0.0
 40
0.0
 40
0.0
 40
1.0
 40
1.0
 40
1.0
 40
2.0
 40
2.0
 40
2.0
 40
3.0
 40
3.0
 40
3.0
 40
4.0
 40
4.0
 40
4.0
 40
4.0
 10
50.57316387624559
 20
198.4283902808154
 30
0.0
 10
50.57316387624559
 20
204.7790958347834
 30
0.0
 10
45.42437221086635
 20
209.9282402779404
 30
0.0
 10
39.07296110134281
 20
209.9282402779404
 30
0.0
 10
32.72154999181958
 20
209.9282402779404
 30
0.0
 10
27.57275832644034
 20
204.7790958347834
 30
0.0
 10
27.57275832644034
 20
198.4283902808154
 30
0.0
 10
27.57275832644034
 20
192.0773319490699
 30
0.0
 10
32.72154999181958
 20
186.9281875059129
 30
0.0
 10
39.07296110134281
 20
186.9281875059129
 30
0.0
 10
45.42437221086635
 20
186.9281875059129
 30
0.0
 10
50.57316387624559
 20
192.0773319490699
 30
0.0
 10
50.57316387624559
 20
198.4283902808154
 30
0.0
  0
SPLINE
  5
31C
330
1F
100
AcDbEntity
  8
GRAU_10_
 62
     7
100
AcDbSpline
210
0.0
220
0.0
230
1.0
 70
    11
 71
     3
 72
    17
 73
    13
 74
     0
 42
0.0000000001
 43
0.0000000001
 12
1.0
 22
0.0
 32
0.0
 13
1.0
 23
0.0
 33
0.0
 40
0.0
 40
0.0
 40
0.0
 40
0.0
 40
1.0
 40
1.0
 40
1.0
 40
2.0
 40
2.0
 40
2.0
 40
3.0
 40
3.0
 40
3.0
 40
4.0
 40
4.0
 40
4.0
 40
4.0
 10
51.57328887599557
 20
198.4283902808154
 30
0.0
 10
51.57328887599557
 20
205.331898612423
 30
0.0
 10
45.97682221072817
 20
210.9283652776907
 30
0.0
 10
39.07296110134281
 20
210.9283652776907
 30
0.0
 10
32.16945276973552
 20
210.9283652776907
 30
0.0
 10
26.5729861044678
 20
205.331898612423
 30
0.0
 10
26.5729861044678
 20
198.4283902808154
 30
0.0
 10
26.5729861044678
 20
191.5245291714303
 30
0.0
 10
32.16945276973552
 20
185.9284152839407
 30
0.0
 10
39.07296110134281
 20
185.9284152839407
 30
0.0
 10
45.97682221072817
 20
185.9284152839407
 30
0.0
 10
51.57328887599557
 20
191.5245291714303
 30
0.0
 10
51.57328887599557
 20
198.4283902808154
 30
0.0
  0
POLYLINE
  5
31D
330
1F
100
AcDbEntity
  8
GRAU_10_
 62
     7
100
AcDb2dPolyline
 66
     1
 10
0.0
 20
0.0
 30
0.0
  0
VERTEX
  5
31E
330
31D
100
AcDbEntity
  8
GRAU_10_
 62
     7
100
AcDbVertex
100
AcDb2dVertex
 10
54.07271943092628
 20
204.9336125014115
 30
0.0
  0
VERTEX
  5
31F
330
31D
100
AcDbEntity
  8
GRAU_10_
 62
     7
100
AcDbVertex
100
AcDb2dVertex
 10
54.07271943092628
 20
205.5216930568198
 30
0.0
  0
VERTEX
  5
320
330
31D
100
AcDbEntity
  8
GRAU_10_
 62
     7
100
AcDbVertex
100
AcDb2dVertex
 10
54.07271943092628
 20
206.1041291677856
 30
0.0
  0
SEQEND
  5
321
330
31D
100
AcDbEntity
  8
GRAU_10_
 62
     7
  0
SPLINE
  5
322
330
1F
100
AcDbEntity
  8
GRAU_10_
 62
     7
100
AcDbSpline
210
0.0
220
0.0
230
1.0
 70
     8
 71
     3
 72
     8
 73
     4
 74
     0
 42
0.0000000001
 43
0.0000000001
 12
1.0
 22
0.0
 32
0.0
 13
1.0
 23
0.0
 33
0.0
 40
0.0
 40
0.0
 40
0.0
 40
0.0
 40
1.0
 40
1.0
 40
1.0
 40
1.0
 10
54.07271943092628
 20
204.9336125014115
 30
0.0
 10
53.54954998661257
 20
206.1404652788876
 30
0.0
 10
52.89867498677552
 20
207.2517152786097
 30
0.0
 10
52.20723054250392
 20
208.1657625006035
 30
0.0
  0
POLYLINE
  5
323
330
1F
100
AcDbEntity
  8
GRAU_10_
 62
     7
100
AcDb2dPolyline
 66
     1
 10
0.0
 20
0.0
 30
0.0
  0
VERTEX
  5
324
330
323
100
AcDbEntity
  8
GRAU_10_
 62
     7
100
AcDbVertex
100
AcDb2dVertex
 10
52.20723054250392
 20
208.1657625006035
 30
0.0
  0
VERTEX
  5
325
330
323
100
AcDbEntity
  8
GRAU_10_
 62
     7
100
AcDbVertex
100
AcDb2dVertex
 10
52.71628887570974
 20
207.8718986117879
 30
0.0
  0
VERTEX
  5
326
330
323
100
AcDbEntity
  8
GRAU_10_
 62
     7
100
AcDbVertex
100
AcDb2dVertex
 10
53.22111387558371
 20
207.5808569451941
 30
0.0
  0
SEQEND
  5
327
330
323
100
AcDbEntity
  8
GRAU_10_
 62
     7
  0
SPLINE
  5
328
330
1F
100
AcDbEntity
  8
GRAU_10_
 62
     7
100
AcDbSpline
210
0.0
220
0.0
230
1.0
 70
     8
 71
     3
 72
     8
 73
     4
 74
     0
 42
0.0000000001
 43
0.0000000001
 12
1.0
 22
0.0
 32
0.0
 13
1.0
 23
0.0
 33
0.0
 40
0.0
 40
0.0
 40
0.0
 40
0.0
 40
1.0
 40
1.0
 40
1.0
 40
1.0
 10
54.07271943092628
 20
206.1041291677856
 30
0.0
 10
53.79966943099475
 20
206.6378819454299
 30
0.0
 10
53.50192498662472
 20
207.1511736119682
 30
0.0
 10
53.22111387558371
 20
207.5808569451941
 30
0.0
  0
POLYLINE
  5
329
330
1F
100
AcDbEntity
  8
GRAU_10_
 62
     7
100
AcDb2dPolyline
 66
     1
 10
0.0
 20
0.0
 30
0.0
  0
VERTEX
  5
32A
330
329
100
AcDbEntity
  8
GRAU_10_
 62
     7
100
AcDbVertex
100
AcDb2dVertex
 10
39.92562499001866
 20
215.2569486099417
 30
0.0
  0
VERTEX
  5
32B
330
329
100
AcDbEntity
  8
GRAU_10_
 62
     7
100
AcDbVertex
100
AcDb2dVertex
 10
40.42903887878158
 20
214.9659069433479
 30
0.0
  0
VERTEX
  5
32C
330
329
100
AcDbEntity
  8
GRAU_10_
 62
     7
100
AcDbVertex
100
AcDb2dVertex
 10
40.93915554532069
 20
214.6716902767548
 30
0.0
  0
SEQEND
  5
32D
330
329
100
AcDbEntity
  8
GRAU_10_
 62
     7
  0
SPLINE
  5
32E
330
1F
100
AcDbEntity
  8
GRAU_10_
 62
     7
100
AcDbSpline
210
0.0
220
0.0
230
1.0
 70
     8
 71
     3
 72
     8
 73
     4
 74
     0
 42
0.0000000001
 43
0.0000000001
 12
1.0
 22
0.0
 32
0.0
 13
1.0
 23
0.0
 33
0.0
 40
0.0
 40
0.0
 40
0.0
 40
0.0
 40
1.0
 40
1.0
 40
1.0
 40
1.0
 10
40.93915554532069
 20
214.6716902767548
 30
0.0
 10
39.63281943453633
 20
214.8212680544952
 30
0.0
 10
38.34447499041396
 20
214.8131541656083
 30
0.0
 10
37.20676665736492
 20
214.6716902767548
 30
0.0
  0
POLYLINE
  5
32F
330
1F
100
AcDbEntity
  8
GRAU_10_
 62
     7
100
AcDb2dPolyline
 66
     1
 10
0.0
 20
0.0
 30
0.0
  0
VERTEX
  5
330
330
32F
100
AcDbEntity
  8
GRAU_10_
 62
     7
100
AcDbVertex
100
AcDb2dVertex
 10
37.20676665736492
 20
214.6716902767548
 30
0.0
  0
VERTEX
  5
331
330
32F
100
AcDbEntity
  8
GRAU_10_
 62
     7
100
AcDbVertex
100
AcDb2dVertex
 10
37.71653054612659
 20
214.9652013877923
 30
0.0
  0
VERTEX
  5
332
330
32F
100
AcDbEntity
  8
GRAU_10_
 62
     7
100
AcDbVertex
100
AcDb2dVertex
 10
38.22064999044503
 20
215.2569486099417
 30
0.0
  0
SEQEND
  5
333
330
32F
100
AcDbEntity
  8
GRAU_10_
 62
     7
  0
SPLINE
  5
334
330
1F
100
AcDbEntity
  8
GRAU_10_
 62
     7
100
AcDbSpline
210
0.0
220
0.0
230
1.0
 70
     8
 71
     3
 72
     8
 73
     4
 74
     0
 42
0.0000000001
 43
0.0000000001
 12
1.0
 22
0.0
 32
0.0
 13
1.0
 23
0.0
 33
0.0
 40
0.0
 40
0.0
 40
0.0
 40
0.0
 40
1.0
 40
1.0
 40
1.0
 40
1.0
 10
39.92562499001866
 20
215.2569486099417
 30
0.0
 10
39.32660832350163
 20
215.2872874988231
 30
0.0
 10
38.73323610142783
 20
215.2858763877124
 30
0.0
 10
38.22064999044503
 20
215.2569486099417
 30
0.0
  0
SPLINE
  5
335
330
1F
100
AcDbEntity
  8
GRAU_10_
 62
     7
100
AcDbSpline
210
0.0
220
0.0
230
1.0
 70
     8
 71
     3
 72
     8
 73
     4
 74
     0
 42
0.0000000001
 43
0.0000000001
 12
1.0
 22
0.0
 32
0.0
 13
1.0
 23
0.0
 33
0.0
 40
0.0
 40
0.0
 40
0.0
 40
0.0
 40
1.0
 40
1.0
 40
1.0
 40
1.0
 10
37.20676665736492
 20
182.1847375070985
 30
0.0
 10
38.5138083237048
 20
182.0348069515807
 30
0.0
 10
39.80179999004974
 20
182.043273618245
 30
0.0
 10
40.93915554532069
 20
182.1847375070985
 30
0.0
  0
SPLINE
  5
336
330
1F
100
AcDbEntity
  8
GRAU_10_
 62
     7
100
AcDbSpline
210
0.0
220
0.0
230
1.0
 70
     8
 71
     3
 72
     8
 73
     4
 74
     0
 42
0.0000000001
 43
0.0000000001
 12
1.0
 22
0.0
 32
0.0
 13
1.0
 23
0.0
 33
0.0
 40
0.0
 40
0.0
 40
0.0
 40
0.0
 40
1.0
 40
1.0
 40
1.0
 40
1.0
 10
38.22064999044503
 20
181.5994791739116
 30
0.0
 10
38.8193138791843
 20
181.5691402850305
 30
0.0
 10
39.4126861012581
 20
181.5705513961409
 30
0.0
 10
39.92562499001866
 20
181.5994791739116
 30
0.0
  0
POLYLINE
  5
337
330
1F
100
AcDbEntity
  8
GRAU_10_
 62
     7
100
AcDb2dPolyline
 66
     1
 10
0.0
 20
0.0
 30
0.0
  0
VERTEX
  5
338
330
337
100
AcDbEntity
  8
GRAU_10_
 62
     7
100
AcDbVertex
100
AcDb2dVertex
 10
37.20676665736492
 20
182.1847375070985
 30
0.0
  0
VERTEX
  5
339
330
337
100
AcDbEntity
  8
GRAU_10_
 62
     7
100
AcDbVertex
100
AcDb2dVertex
 10
37.71653054612659
 20
181.8908736182832
 30
0.0
  0
VERTEX
  5
33A
330
337
100
AcDbEntity
  8
GRAU_10_
 62
     7
100
AcDbVertex
100
AcDb2dVertex
 10
38.22064999044503
 20
181.5994791739116
 30
0.0
  0
SEQEND
  5
33B
330
337
100
AcDbEntity
  8
GRAU_10_
 62
     7
  0
POLYLINE
  5
33C
330
1F
100
AcDbEntity
  8
GRAU_10_
 62
     7
100
AcDb2dPolyline
 66
     1
 10
0.0
 20
0.0
 30
0.0
  0
VERTEX
  5
33D
330
33C
100
AcDbEntity
  8
GRAU_10_
 62
     7
100
AcDbVertex
100
AcDb2dVertex
 10
39.92562499001866
 20
181.5994791739116
 30
0.0
  0
VERTEX
  5
33E
330
33C
100
AcDbEntity
  8
GRAU_10_
 62
     7
100
AcDbVertex
100
AcDb2dVertex
 10
40.42903887878158
 20
181.8905208405058
 30
0.0
  0
VERTEX
  5
33F
330
33C
100
AcDbEntity
  8
GRAU_10_
 62
     7
100
AcDbVertex
100
AcDb2dVertex
 10
40.93915554532069
 20
182.1847375070985
 30
0.0
  0
SEQEND
  5
340
330
33C
100
AcDbEntity
  8
GRAU_10_
 62
     7
  0
SPLINE
  5
341
330
1F
100
AcDbEntity
  8
GRAU_10_
 62
     7
100
AcDbSpline
210
0.0
220
0.0
230
1.0
 70
     8
 71
     3
 72
     8
 73
     4
 74
     0
 42
0.0000000001
 43
0.0000000001
 12
1.0
 22
0.0
 32
0.0
 13
1.0
 23
0.0
 33
0.0
 40
0.0
 40
0.0
 40
0.0
 40
0.0
 40
1.0
 40
1.0
 40
1.0
 40
1.0
 10
24.07320277175965
 20
191.9228152824421
 30
0.0
 10
24.59637221607336
 20
190.7163152827438
 30
0.0
 10
25.24759999368818
 20
189.6047125052436
 30
0.0
 10
25.93904443795977
 20
188.6903125054723
 30
0.0
  0
SPLINE
  5
342
330
1F
100
AcDbEntity
  8
GRAU_10_
 62
     7
100
AcDbSpline
210
0.0
220
0.0
230
1.0
 70
     8
 71
     3
 72
     8
 73
     4
 74
     0
 42
0.0000000001
 43
0.0000000001
 12
1.0
 22
0.0
 32
0.0
 13
1.0
 23
0.0
 33
0.0
 40
0.0
 40
0.0
 40
0.0
 40
0.0
 40
1.0
 40
1.0
 40
1.0
 40
1.0
 10
24.07320277175965
 20
190.7522986160677
 30
0.0
 10
24.34625277169119
 20
190.218193060646
 30
0.0
 10
24.64399721606121
 20
189.7056069496629
 30
0.0
 10
24.92551388265774
 20
189.2755708386592
 30
0.0
  0
POLYLINE
  5
343
330
1F
100
AcDbEntity
  8
GRAU_10_
 62
     7
100
AcDb2dPolyline
 66
     1
 10
0.0
 20
0.0
 30
0.0
  0
VERTEX
  5
344
330
343
100
AcDbEntity
  8
GRAU_10_
 62
     7
100
AcDbVertex
100
AcDb2dVertex
 10
24.07320277175965
 20
190.7522986160677
 30
0.0
  0
VERTEX
  5
345
330
343
100
AcDbEntity
  8
GRAU_10_
 62
     7
100
AcDbVertex
100
AcDb2dVertex
 10
24.07320277175965
 20
191.3336763937005
 30
0.0
  0
VERTEX
  5
346
330
343
100
AcDbEntity
  8
GRAU_10_
 62
     7
100
AcDbVertex
100
AcDb2dVertex
 10
24.07320277175965
 20
191.9228152824421
 30
0.0
  0
SEQEND
  5
347
330
343
100
AcDbEntity
  8
GRAU_10_
 62
     7
  0
POLYLINE
  5
348
330
1F
100
AcDbEntity
  8
GRAU_10_
 62
     7
100
AcDb2dPolyline
 66
     1
 10
0.0
 20
0.0
 30
0.0
  0
VERTEX
  5
349
330
348
100
AcDbEntity
  8
GRAU_10_
 62
     7
100
AcDbVertex
100
AcDb2dVertex
 10
24.92551388265774
 20
189.2755708386592
 30
0.0
  0
VERTEX
  5
34A
330
348
100
AcDbEntity
  8
GRAU_10_
 62
     7
100
AcDbVertex
100
AcDb2dVertex
 10
25.4285749936429
 20
188.9852347276206
 30
0.0
  0
VERTEX
  5
34B
330
348
100
AcDbEntity
  8
GRAU_10_
 62
     7
100
AcDbVertex
100
AcDb2dVertex
 10
25.93904443795977
 20
188.6903125054723
 30
0.0
  0
SEQEND
  5
34C
330
348
100
AcDbEntity
  8
GRAU_10_
 62
     7
  0
POLYLINE
  5
34D
330
1F
100
AcDbEntity
  8
GRAU_10_
 62
     7
100
AcDb2dPolyline
 66
     1
 10
0.0
 20
0.0
 30
0.0
  0
VERTEX
  5
34E
330
34D
100
AcDbEntity
  8
GRAU_10_
 62
     7
100
AcDbVertex
100
AcDb2dVertex
 10
54.07271943092628
 20
191.9228152824421
 30
0.0
  0
VERTEX
  5
34F
330
34D
100
AcDbEntity
  8
GRAU_10_
 62
     7
100
AcDbVertex
100
AcDb2dVertex
 10
54.07271943092628
 20
204.9336125014115
 30
0.0
  0
SEQEND
  5
350
330
34D
100
AcDbEntity
  8
GRAU_10_
 62
     7
  0
SPLINE
  5
351
330
1F
100
AcDbEntity
  8
GRAU_10_
 62
     7
100
AcDbSpline
210
0.0
220
0.0
230
1.0
 70
     8
 71
     3
 72
     8
 73
     4
 74
     0
 42
0.0000000001
 43
0.0000000001
 12
1.0
 22
0.0
 32
0.0
 13
1.0
 23
0.0
 33
0.0
 40
0.0
 40
0.0
 40
0.0
 40
0.0
 40
1.0
 40
1.0
 40
1.0
 40
1.0
 10
25.93904443795977
 20
208.1657625006035
 30
0.0
 10
25.15587777148881
 20
207.109193056423
 30
0.0
 10
24.51876110498156
 20
205.9898291678143
 30
0.0
 10
24.07320277175965
 20
204.9336125014115
 30
0.0
  0
SPLINE
  5
352
330
1F
100
AcDbEntity
  8
GRAU_10_
 62
     7
100
AcDbSpline
210
0.0
220
0.0
230
1.0
 70
     8
 71
     3
 72
     8
 73
     4
 74
     0
 42
0.0000000001
 43
0.0000000001
 12
1.0
 22
0.0
 32
0.0
 13
1.0
 23
0.0
 33
0.0
 40
0.0
 40
0.0
 40
0.0
 40
0.0
 40
1.0
 40
1.0
 40
1.0
 40
1.0
 10
52.20723054250392
 20
188.6903125054723
 30
0.0
 10
52.99039720897456
 20
189.7468819496526
 30
0.0
 10
53.62716109770437
 20
190.8665986160393
 30
0.0
 10
54.07271943092628
 20
191.9228152824421
 30
0.0
  0
POLYLINE
  5
353
330
1F
100
AcDbEntity
  8
GRAU_10_
 62
     7
100
AcDb2dPolyline
 66
     1
 10
0.0
 20
0.0
 30
0.0
  0
VERTEX
  5
354
330
353
100
AcDbEntity
  8
GRAU_10_
 62
     7
100
AcDbVertex
100
AcDb2dVertex
 10
25.93904443795977
 20
208.1657625006035
 30
0.0
  0
VERTEX
  5
355
330
353
100
AcDbEntity
  8
GRAU_10_
 62
     7
100
AcDbVertex
100
AcDb2dVertex
 10
37.20676665736492
 20
214.6716902767548
 30
0.0
  0
SEQEND
  5
356
330
353
100
AcDbEntity
  8
GRAU_10_
 62
     7
  0
POLYLINE
  5
357
330
1F
100
AcDbEntity
  8
GRAU_10_
 62
     7
100
AcDb2dPolyline
 66
     1
 10
0.0
 20
0.0
 30
0.0
  0
VERTEX
  5
358
330
357
100
AcDbEntity
  8
GRAU_10_
 62
     7
100
AcDbVertex
100
AcDb2dVertex
 10
40.93915554532069
 20
214.6716902767548
 30
0.0
  0
VERTEX
  5
359
330
357
100
AcDbEntity
  8
GRAU_10_
 62
     7
100
AcDbVertex
100
AcDb2dVertex
 10
52.20723054250392
 20
208.1657625006035
 30
0.0
  0
SEQEND
  5
35A
330
357
100
AcDbEntity
  8
GRAU_10_
 62
     7
  0
POLYLINE
  5
35B
330
1F
100
AcDbEntity
  8
GRAU_10_
 62
     7
100
AcDb2dPolyline
 66
     1
 10
0.0
 20
0.0
 30
0.0
  0
VERTEX
  5
35C
330
35B
100
AcDbEntity
  8
GRAU_10_
 62
     7
100
AcDbVertex
100
AcDb2dVertex
 10
24.07320277175965
 20
191.9228152824421
 30
0.0
  0
VERTEX
  5
35D
330
35B
100
AcDbEntity
  8
GRAU_10_
 62
     7
100
AcDbVertex
100
AcDb2dVertex
 10
24.07320277175965
 20
204.9336125014115
 30
0.0
  0
SEQEND
  5
35E
330
35B
100
AcDbEntity
  8
GRAU_10_
 62
     7
  0
POLYLINE
  5
35F
330
1F
100
AcDbEntity
  8
GRAU_10_
 62
     7
100
AcDb2dPolyline
 66
     1
 10
0.0
 20
0.0
 30
0.0
  0
VERTEX
  5
360
330
35F
100
AcDbEntity
  8
GRAU_10_
 62
     7
100
AcDbVertex
100
AcDb2dVertex
 10
25.93904443795977
 20
188.6903125054723
 30
0.0
  0
VERTEX
  5
361
330
35F
100
AcDbEntity
  8
GRAU_10_
 62
     7
100
AcDbVertex
100
AcDb2dVertex
 10
37.20676665736492
 20
182.1847375070985
 30
0.0
  0
SEQEND
  5
362
330
35F
100
AcDbEntity
  8
GRAU_10_
 62
     7
  0
POLYLINE
  5
363
330
1F
100
AcDbEntity
  8
GRAU_10_
 62
     7
100
AcDb2dPolyline
 66
     1
 10
0.0
 20
0.0
 30
0.0
  0
VERTEX
  5
364
330
363
100
AcDbEntity
  8
GRAU_10_
 62
     7
100
AcDbVertex
100
AcDb2dVertex
 10
40.93915554532069
 20
182.1847375070985
 30
0.0
  0
VERTEX
  5
365
330
363
100
AcDbEntity
  8
GRAU_10_
 62
     7
100
AcDbVertex
100
AcDb2dVertex
 10
52.20723054250392
 20
188.6903125054723
 30
0.0
  0
SEQEND
  5
366
330
363
100
AcDbEntity
  8
GRAU_10_
 62
     7
  0
SPLINE
  5
367
330
1F
100
AcDbEntity
  8
GRAU_10_
 62
     7
100
AcDbSpline
210
0.0
220
0.0
230
1.0
 70
     8
 71
     3
 72
     8
 73
     4
 74
     0
 42
0.0000000001
 43
0.0000000001
 12
1.0
 22
0.0
 32
0.0
 13
1.0
 23
0.0
 33
0.0
 40
0.0
 40
0.0
 40
0.0
 40
0.0
 40
1.0
 40
1.0
 40
1.0
 40
1.0
 10
24.92551388265774
 20
207.5808569451941
 30
0.0
 10
24.59989999385002
 20
207.0770902786534
 30
0.0
 10
24.304624993924
 20
206.5630930565599
 30
0.0
 10
24.07320277175965
 20
206.1041291677856
 30
0.0
  0
POLYLINE
  5
368
330
1F
100
AcDbEntity
  8
GRAU_10_
 62
     7
100
AcDb2dPolyline
 66
     1
 10
0.0
 20
0.0
 30
0.0
  0
VERTEX
  5
369
330
368
100
AcDbEntity
  8
GRAU_10_
 62
     7
100
AcDbVertex
100
AcDb2dVertex
 10
24.92551388265774
 20
207.5808569451941
 30
0.0
  0
VERTEX
  5
36A
330
368
100
AcDbEntity
  8
GRAU_10_
 62
     7
100
AcDbVertex
100
AcDb2dVertex
 10
25.4285749936429
 20
207.8711930562327
 30
0.0
  0
VERTEX
  5
36B
330
368
100
AcDbEntity
  8
GRAU_10_
 62
     7
100
AcDbVertex
100
AcDb2dVertex
 10
25.93904443795977
 20
208.1657625006035
 30
0.0
  0
SEQEND
  5
36C
330
368
100
AcDbEntity
  8
GRAU_10_
 62
     7
  0
POLYLINE
  5
36D
330
1F
100
AcDbEntity
  8
GRAU_10_
 62
     7
100
AcDb2dPolyline
 66
     1
 10
0.0
 20
0.0
 30
0.0
  0
VERTEX
  5
36E
330
36D
100
AcDbEntity
  8
GRAU_10_
 62
     7
100
AcDbVertex
100
AcDb2dVertex
 10
24.07320277175965
 20
204.9336125014115
 30
0.0
  0
VERTEX
  5
36F
330
36D
100
AcDbEntity
  8
GRAU_10_
 62
     7
100
AcDbVertex
100
AcDb2dVertex
 10
24.07320277175965
 20
205.5216930568198
 30
0.0
  0
VERTEX
  5
370
330
36D
100
AcDbEntity
  8
GRAU_10_
 62
     7
100
AcDbVertex
100
AcDb2dVertex
 10
24.07320277175965
 20
206.1041291677856
 30
0.0
  0
SEQEND
  5
371
330
36D
100
AcDbEntity
  8
GRAU_10_
 62
     7
  0
SPLINE
  5
372
330
1F
100
AcDbEntity
  8
GRAU_10_
 62
     7
100
AcDbSpline
210
0.0
220
0.0
230
1.0
 70
     8
 71
     3
 72
     8
 73
     4
 74
     0
 42
0.0000000001
 43
0.0000000001
 12
1.0
 22
0.0
 32
0.0
 13
1.0
 23
0.0
 33
0.0
 40
0.0
 40
0.0
 40
0.0
 40
0.0
 40
1.0
 40
1.0
 40
1.0
 40
1.0
 10
53.22111387558371
 20
189.275923616437
 30
0.0
 10
53.54672776439112
 20
189.7793375051999
 30
0.0
 10
53.84164998653969
 20
190.2933347272938
 30
0.0
 10
54.07307220870404
 20
190.7522986160677
 30
0.0
  0
POLYLINE
  5
373
330
1F
100
AcDbEntity
  8
GRAU_10_
 62
     7
100
AcDb2dPolyline
 66
     1
 10
0.0
 20
0.0
 30
0.0
  0
VERTEX
  5
374
330
373
100
AcDbEntity
  8
GRAU_10_
 62
     7
100
AcDbVertex
100
AcDb2dVertex
 10
54.07271943092628
 20
190.7522986160677
 30
0.0
  0
VERTEX
  5
375
330
373
100
AcDbEntity
  8
GRAU_10_
 62
     7
100
AcDbVertex
100
AcDb2dVertex
 10
54.07271943092628
 20
191.3336763937005
 30
0.0
  0
VERTEX
  5
376
330
373
100
AcDbEntity
  8
GRAU_10_
 62
     7
100
AcDbVertex
100
AcDb2dVertex
 10
54.07271943092628
 20
191.9228152824421
 30
0.0
  0
SEQEND
  5
377
330
373
100
AcDbEntity
  8
GRAU_10_
 62
     7
  0
POLYLINE
  5
378
330
1F
100
AcDbEntity
  8
GRAU_10_
 62
     7
100
AcDb2dPolyline
 66
     1
 10
0.0
 20
0.0
 30
0.0
  0
VERTEX
  5
379
330
378
100
AcDbEntity
  8
GRAU_10_
 62
     7
100
AcDbVertex
100
AcDb2dVertex
 10
52.20723054250392
 20
188.6903125054723
 30
0.0
  0
VERTEX
  5
37A
330
378
100
AcDbEntity
  8
GRAU_10_
 62
     7
100
AcDbVertex
100
AcDb2dVertex
 10
52.71628887570974
 20
188.9848819498432
 30
0.0
  0
VERTEX
  5
37B
330
378
100
AcDbEntity
  8
GRAU_10_
 62
     7
100
AcDbVertex
100
AcDb2dVertex
 10
53.22111387558371
 20
189.2755708386592
 30
0.0
  0
SEQEND
  5
37C
330
378
100
AcDbEntity
  8
GRAU_10_
 62
     7
  0
SPLINE
  5
37D
330
1F
100
AcDbEntity
  8
GRAU_10_
 62
     7
100
AcDbSpline
210
0.0
220
0.0
230
1.0
 70
    11
 71
     3
 72
    17
 73
    13
 74
     0
 42
0.0000000001
 43
0.0000000001
 12
1.0
 22
0.0
 32
0.0
 13
1.0
 23
0.0
 33
0.0
 40
0.0
 40
0.0
 40
0.0
 40
0.0
 40
1.0
 40
1.0
 40
1.0
 40
2.0
 40
2.0
 40
2.0
 40
3.0
 40
3.0
 40
3.0
 40
4.0
 40
4.0
 40
4.0
 40
4.0
 10
49.39559165431785
 20
198.4283902808154
 30
0.0
 10
49.39559165431785
 20
204.1292791682793
 30
0.0
 10
44.77384998880675
 20
208.7506680560127
 30
0.0
 10
39.07296110134281
 20
208.7506680560127
 30
0.0
 10
33.37207221387919
 20
208.7506680560127
 30
0.0
 10
28.75068332614584
 20
204.1292791682793
 30
0.0
 10
28.75068332614584
 20
198.4283902808154
 30
0.0
 10
28.75068332614584
 20
192.7278541711295
 30
0.0
 10
33.37207221387919
 20
188.1061125056184
 30
0.0
 10
39.07296110134281
 20
188.1061125056184
 30
0.0
 10
44.77384998880675
 20
188.1061125056184
 30
0.0
 10
49.39559165431785
 20
192.7278541711295
 30
0.0
 10
49.39559165431785
 20
198.4283902808154
 30
0.0
  0
SPLINE
  5
37E
330
1F
100
AcDbEntity
  8
GRAU_10_
 62
     7
100
AcDbSpline
210
0.0
220
0.0
230
1.0
 70
    11
 71
     3
 72
    17
 73
    13
 74
     0
 42
0.0000000001
 43
0.0000000001
 12
1.0
 22
0.0
 32
0.0
 13
1.0
 23
0.0
 33
0.0
 40
0.0
 40
0.0
 40
0.0
 40
0.0
 40
1.0
 40
1.0
 40
1.0
 40
2.0
 40
2.0
 40
2.0
 40
3.0
 40
3.0
 40
3.0
 40
4.0
 40
4.0
 40
4.0
 40
4.0
 10
45.82336387743306
 20
198.4283902808154
 30
0.0
 10
45.82336387743306
 20
202.1561930576615
 30
0.0
 10
42.80076387818863
 20
205.1780875013504
 30
0.0
 10
39.07296110134281
 20
205.1780875013504
 30
0.0
 10
35.34551110227473
 20
205.1780875013504
 30
0.0
 10
32.32326388080808
 20
202.1561930576615
 30
0.0
 10
32.32326388080808
 20
198.4283902808154
 30
0.0
 10
32.32326388080808
 20
194.7005875039699
 30
0.0
 10
35.34551110227473
 20
191.6783402825029
 30
0.0
 10
39.07296110134281
 20
191.6783402825029
 30
0.0
 10
42.80076387818863
 20
191.6783402825029
 30
0.0
 10
45.82336387743306
 20
194.7005875039699
 30
0.0
 10
45.82336387743306
 20
198.4283902808154
 30
0.0
  0
SPLINE
  5
37F
330
1F
100
AcDbEntity
  8
GRAU_10_
 62
     7
100
AcDbSpline
210
0.0
220
0.0
230
1.0
 70
    11
 71
     3
 72
    17
 73
    13
 74
     0
 42
0.0000000001
 43
0.0000000001
 12
1.0
 22
0.0
 32
0.0
 13
1.0
 23
0.0
 33
0.0
 40
0.0
 40
0.0
 40
0.0
 40
0.0
 40
1.0
 40
1.0
 40
1.0
 40
2.0
 40
2.0
 40
2.0
 40
3.0
 40
3.0
 40
3.0
 40
4.0
 40
4.0
 40
4.0
 40
4.0
 10
44.07288054453751
 20
198.4283902808154
 30
0.0
 10
44.07288054453751
 20
201.1899347245696
 30
0.0
 10
41.83415276731925
 20
203.4283097240101
 30
0.0
 10
39.07296110134281
 20
203.4283097240101
 30
0.0
 10
36.31176943536668
 20
203.4283097240101
 30
0.0
 10
34.07304165814842
 20
201.1899347245696
 30
0.0
 10
34.07304165814842
 20
198.4283902808154
 30
0.0
 10
34.07304165814842
 20
195.6671986148392
 30
0.0
 10
36.31176943536668
 20
193.4284708376213
 30
0.0
 10
39.07296110134281
 20
193.4284708376213
 30
0.0
 10
41.83415276731925
 20
193.4284708376213
 30
0.0
 10
44.07288054453751
 20
195.6671986148392
 30
0.0
 10
44.07288054453751
 20
198.4283902808154
 30
0.0
  0
POLYLINE
  5
381
330
1F
100
AcDbEntity
  8
STANDARDEBENE
  6
AI-LINETYPE-1
 62
   250
100
AcDb2dPolyline
 66
     1
 10
0.0
 20
0.0
 30
0.0
  0
VERTEX
  5
382
330
381
100
AcDbEntity
  8
STANDARDEBENE
  6
AI-LINETYPE-1
 62
   250
100
AcDbVertex
100
AcDb2dVertex
 10
39.07296110134281
 20
216.6513071067344
 30
0.0
  0
VERTEX
  5
383
330
381
100
AcDbEntity
  8
STANDARDEBENE
  6
AI-LINETYPE-1
 62
   250
100
AcDbVertex
100
AcDb2dVertex
 10
39.07296110134281
 20
178.5914082439325
 30
0.0
  0
SEQEND
  5
385
330
381
100
AcDbEntity
  8
STANDARDEBENE
  6
AI-LINETYPE-1
 62
   250
  0
POLYLINE
  5
386
330
1F
100
AcDbEntity
  8
STANDARDEBENE
  6
AI-LINETYPE-2
 62
   250
100
AcDb2dPolyline
 66
     1
 10
0.0
 20
0.0
 30
0.0
  0
VERTEX
  5
387
330
386
100
AcDbEntity
  8
STANDARDEBENE
  6
AI-LINETYPE-2
 62
   250
100
AcDbVertex
100
AcDb2dVertex
 10
22.32909050962544
 20
198.4283902808154
 30
0.0
  0
VERTEX
  5
388
330
386
100
AcDbEntity
  8
STANDARDEBENE
  6
AI-LINETYPE-2
 62
   250
100
AcDbVertex
100
AcDb2dVertex
 10
56.03664084067125
 20
198.4283902808154
 30
0.0
  0
SEQEND
  5
38A
330
386
100
AcDbEntity
  8
STANDARDEBENE
  6
AI-LINETYPE-2
 62
   250
  0
POLYLINE
  5
38B
330
1F
100
AcDbEntity
  8
STANDARDEBENE
  6
AI-LINETYPE-3
 62
   250
100
AcDb2dPolyline
 66
     1
 10
0.0
 20
0.0
 30
0.0
  0
VERTEX
  5
38C
330
38B
100
AcDbEntity
  8
STANDARDEBENE
  6
AI-LINETYPE-3
 62
   250
100
AcDbVertex
100
AcDb2dVertex
 10
96.56321218380423
 20
198.4283902808154
 30
0.0
  0
VERTEX
  5
38D
330
38B
100
AcDbEntity
  8
STANDARDEBENE
  6
AI-LINETYPE-3
 62
   250
100
AcDbVertex
100
AcDb2dVertex
 10
148.6061882443747
 20
198.4283902808154
 30
0.0
  0
SEQEND
  5
38F
330
38B
100
AcDbEntity
  8
STANDARDEBENE
  6
AI-LINETYPE-3
 62
   250
  0
POLYLINE
  5
390
330
1F
100
AcDbEntity
  8
STANDARDEBENE
 62
   155
100
AcDb2dPolyline
 66
     1
 10
0.0
 20
0.0
 30
0.0
  0
VERTEX
  5
391
330
390
100
AcDbEntity
  8
STANDARDEBENE
 62
   155
100
AcDbVertex
100
AcDb2dVertex
 10
130.7445744544469
 20
211.4575319442251
 30
0.0
  0
VERTEX
  5
392
330
390
100
AcDbEntity
  8
STANDARDEBENE
 62
   155
100
AcDbVertex
100
AcDb2dVertex
 10
130.7445744544469
 20
185.3992486174063
 30
0.0
  0
SEQEND
  5
393
330
390
100
AcDbEntity
  8
STANDARDEBENE
 62
   155
  0
POLYLINE
  5
394
330
1F
100
AcDbEntity
  8
STANDARDEBENE
 62
   155
100
AcDb2dPolyline
 66
     1
 10
0.0
 20
0.0
 30
0.0
  0
VERTEX
  5
395
330
394
100
AcDbEntity
  8
STANDARDEBENE
 62
   155
100
AcDbVertex
100
AcDb2dVertex
 10
139.7132438966491
 20
186.6487875059826
 30
0.0
  0
VERTEX
  5
396
330
394
100
AcDbEntity
  8
STANDARDEBENE
 62
   155
100
AcDbVertex
100
AcDb2dVertex
 10
139.7132438966491
 20
210.2076402778707
 30
0.0
  0
SEQEND
  5
397
330
394
100
AcDbEntity
  8
STANDARDEBENE
 62
   155
  0
POLYLINE
  5
399
330
1F
100
AcDbEntity
  8
BEMA_U_00DFUNG
 62
     7
100
AcDb2dPolyline
 66
     1
 10
0.0
 20
0.0
 30
0.0
  0
VERTEX
  5
39A
330
399
100
AcDbEntity
  8
BEMA_U_00DFUNG
 62
     7
100
AcDbVertex
100
AcDb2dVertex
 10
54.07271943092628
 20
204.9336125014115
 30
0.0
  0
VERTEX
  5
39B
330
399
100
AcDbEntity
  8
BEMA_U_00DFUNG
 62
     7
100
AcDbVertex
100
AcDb2dVertex
 10
54.07271943092628
 20
227.2785569402697
 30
0.0
  0
SEQEND
  5
39C
330
399
100
AcDbEntity
  8
BEMA_U_00DFUNG
 62
     7
  0
POLYLINE
  5
39D
330
1F
100
AcDbEntity
  8
BEMA_U_00DFUNG
 62
     7
100
AcDb2dPolyline
 66
     1
 10
0.0
 20
0.0
 30
0.0
  0
VERTEX
  5
39E
330
39D
100
AcDbEntity
  8
BEMA_U_00DFUNG
 62
     7
100
AcDbVertex
100
AcDb2dVertex
 10
24.07320277175965
 20
204.9336125014115
 30
0.0
  0
VERTEX
  5
39F
330
39D
100
AcDbEntity
  8
BEMA_U_00DFUNG
 62
     7
100
AcDbVertex
100
AcDb2dVertex
 10
24.07320277175965
 20
227.2785569402697
 30
0.0
  0
SEQEND
  5
3A0
330
39D
100
AcDbEntity
  8
BEMA_U_00DFUNG
 62
     7
  0
POLYLINE
  5
3A1
330
1F
100
AcDbEntity
  8
BEMA_U_00DFUNG
 62
     7
100
AcDb2dPolyline
 66
     1
 10
0.0
 20
0.0
 30
0.0
  0
VERTEX
  5
3A2
330
3A1
100
AcDbEntity
  8
BEMA_U_00DFUNG
 62
     7
100
AcDbVertex
100
AcDb2dVertex
 10
54.07271943092628
 20
225.277954162992
 30
0.0
  0
VERTEX
  5
3A3
330
3A1
100
AcDbEntity
  8
BEMA_U_00DFUNG
 62
     7
100
AcDbVertex
100
AcDb2dVertex
 10
24.07320277175965
 20
225.277954162992
 30
0.0
  0
SEQEND
  5
3A4
330
3A1
100
AcDbEntity
  8
BEMA_U_00DFUNG
 62
     7
  0
POLYLINE
  5
3A5
330
1F
100
AcDbEntity
  8
BEMA_U_00DFUNG
 62
     7
100
AcDb2dPolyline
 66
     1
 10
0.0
 20
0.0
 30
0.0
  0
VERTEX
  5
3A6
330
3A5
100
AcDbEntity
  8
BEMA_U_00DFUNG
 62
     7
100
AcDbVertex
100
AcDb2dVertex
 10
54.07271943092628
 20
225.277954162992
 30
0.0
  0
VERTEX
  5
3A7
330
3A5
100
AcDbEntity
  8
BEMA_U_00DFUNG
 62
     7
100
AcDbVertex
100
AcDb2dVertex
 10
50.57316387624559
 20
225.7390347184325
 30
0.0
  0
VERTEX
  5
3A8
330
3A5
100
AcDbEntity
  8
BEMA_U_00DFUNG
 62
     7
100
AcDbVertex
100
AcDb2dVertex
 10
50.57316387624559
 20
224.817579163107
 30
0.0
  0
VERTEX
  5
3A9
330
3A5
100
AcDbEntity
  8
BEMA_U_00DFUNG
 62
     7
100
AcDbVertex
100
AcDb2dVertex
 10
54.07271943092628
 20
225.277954162992
 30
0.0
  0
SEQEND
  5
3AA
330
3A5
100
AcDbEntity
  8
BEMA_U_00DFUNG
 62
     7
  0
POLYLINE
  5
3AB
330
1F
100
AcDbEntity
  8
BEMA_U_00DFUNG
 62
     7
100
AcDb2dPolyline
 66
     1
 10
0.0
 20
0.0
 30
0.0
  0
VERTEX
  5
3AC
330
3AB
100
AcDbEntity
  8
BEMA_U_00DFUNG
 62
     7
100
AcDbVertex
100
AcDb2dVertex
 10
50.57316387624559
 20
225.7351541628778
 30
0.0
  0
VERTEX
  5
3AD
330
3AB
100
AcDbEntity
  8
BEMA_U_00DFUNG
 62
     7
100
AcDbVertex
100
AcDb2dVertex
 10
50.59997498735001
 20
225.7351541628778
 30
0.0
  0
SEQEND
  5
3AE
330
3AB
100
AcDbEntity
  8
BEMA_U_00DFUNG
 62
     7
  0
POLYLINE
  5
3AF
330
1F
100
AcDbEntity
  8
BEMA_U_00DFUNG
 62
     7
100
AcDb2dPolyline
 66
     1
 10
0.0
 20
0.0
 30
0.0
  0
VERTEX
  5
3B0
330
3AF
100
AcDbEntity
  8
BEMA_U_00DFUNG
 62
     7
100
AcDbVertex
100
AcDb2dVertex
 10
50.57316387624559
 20
225.7351541628778
 30
0.0
  0
VERTEX
  5
3B1
330
3AF
100
AcDbEntity
  8
BEMA_U_00DFUNG
 62
     7
100
AcDbVertex
100
AcDb2dVertex
 10
50.59997498735001
 20
225.7351541628778
 30
0.0
  0
SEQEND
  5
3B2
330
3AF
100
AcDbEntity
  8
BEMA_U_00DFUNG
 62
     7
  0
POLYLINE
  5
3B3
330
1F
100
AcDbEntity
  8
BEMA_U_00DFUNG
 62
     7
100
AcDb2dPolyline
 66
     1
 10
0.0
 20
0.0
 30
0.0
  0
VERTEX
  5
3B4
330
3B3
100
AcDbEntity
  8
BEMA_U_00DFUNG
 62
     7
100
AcDbVertex
100
AcDb2dVertex
 10
50.57316387624559
 20
225.6843541628904
 30
0.0
  0
VERTEX
  5
3B5
330
3B3
100
AcDbEntity
  8
BEMA_U_00DFUNG
 62
     7
100
AcDbVertex
100
AcDb2dVertex
 10
50.98591387614243
 20
225.6843541628904
 30
0.0
  0
SEQEND
  5
3B6
330
3B3
100
AcDbEntity
  8
BEMA_U_00DFUNG
 62
     7
  0
POLYLINE
  5
3B7
330
1F
100
AcDbEntity
  8
BEMA_U_00DFUNG
 62
     7
100
AcDb2dPolyline
 66
     1
 10
0.0
 20
0.0
 30
0.0
  0
VERTEX
  5
3B8
330
3B7
100
AcDbEntity
  8
BEMA_U_00DFUNG
 62
     7
100
AcDbVertex
100
AcDb2dVertex
 10
50.57316387624559
 20
225.633554162903
 30
0.0
  0
VERTEX
  5
3B9
330
3B7
100
AcDbEntity
  8
BEMA_U_00DFUNG
 62
     7
100
AcDbVertex
100
AcDb2dVertex
 10
51.37185276493485
 20
225.633554162903
 30
0.0
  0
SEQEND
  5
3BA
330
3B7
100
AcDbEntity
  8
BEMA_U_00DFUNG
 62
     7
  0
POLYLINE
  5
3BB
330
1F
100
AcDbEntity
  8
BEMA_U_00DFUNG
 62
     7
100
AcDb2dPolyline
 66
     1
 10
0.0
 20
0.0
 30
0.0
  0
VERTEX
  5
3BC
330
3BB
100
AcDbEntity
  8
BEMA_U_00DFUNG
 62
     7
100
AcDbVertex
100
AcDb2dVertex
 10
50.57316387624559
 20
225.5827541629156
 30
0.0
  0
VERTEX
  5
3BD
330
3BB
100
AcDbEntity
  8
BEMA_U_00DFUNG
 62
     7
100
AcDbVertex
100
AcDb2dVertex
 10
51.75814443150503
 20
225.5827541629156
 30
0.0
  0
SEQEND
  5
3BE
330
3BB
100
AcDbEntity
  8
BEMA_U_00DFUNG
 62
     7
  0
POLYLINE
  5
3BF
330
1F
100
AcDbEntity
  8
BEMA_U_00DFUNG
 62
     7
100
AcDb2dPolyline
 66
     1
 10
0.0
 20
0.0
 30
0.0
  0
VERTEX
  5
3C0
330
3BF
100
AcDbEntity
  8
BEMA_U_00DFUNG
 62
     7
100
AcDbVertex
100
AcDb2dVertex
 10
50.57316387624559
 20
225.5319541629286
 30
0.0
  0
VERTEX
  5
3C1
330
3BF
100
AcDbEntity
  8
BEMA_U_00DFUNG
 62
     7
100
AcDbVertex
100
AcDb2dVertex
 10
52.14408332029745
 20
225.5319541629286
 30
0.0
  0
SEQEND
  5
3C2
330
3BF
100
AcDbEntity
  8
BEMA_U_00DFUNG
 62
     7
  0
POLYLINE
  5
3C3
330
1F
100
AcDbEntity
  8
BEMA_U_00DFUNG
 62
     7
100
AcDb2dPolyline
 66
     1
 10
0.0
 20
0.0
 30
0.0
  0
VERTEX
  5
3C4
330
3C3
100
AcDbEntity
  8
BEMA_U_00DFUNG
 62
     7
100
AcDbVertex
100
AcDb2dVertex
 10
50.57316387624559
 20
225.4811541629412
 30
0.0
  0
VERTEX
  5
3C5
330
3C3
100
AcDbEntity
  8
BEMA_U_00DFUNG
 62
     7
100
AcDbVertex
100
AcDb2dVertex
 10
52.52931665353436
 20
225.4811541629412
 30
0.0
  0
SEQEND
  5
3C6
330
3C3
100
AcDbEntity
  8
BEMA_U_00DFUNG
 62
     7
  0
POLYLINE
  5
3C7
330
1F
100
AcDbEntity
  8
BEMA_U_00DFUNG
 62
     7
100
AcDb2dPolyline
 66
     1
 10
0.0
 20
0.0
 30
0.0
  0
VERTEX
  5
3C8
330
3C7
100
AcDbEntity
  8
BEMA_U_00DFUNG
 62
     7
100
AcDbVertex
100
AcDb2dVertex
 10
50.57316387624559
 20
225.4303541629542
 30
0.0
  0
VERTEX
  5
3C9
330
3C7
100
AcDbEntity
  8
BEMA_U_00DFUNG
 62
     7
100
AcDbVertex
100
AcDb2dVertex
 10
52.91525554232678
 20
225.4303541629542
 30
0.0
  0
SEQEND
  5
3CA
330
3C7
100
AcDbEntity
  8
BEMA_U_00DFUNG
 62
     7
  0
POLYLINE
  5
3CB
330
1F
100
AcDbEntity
  8
BEMA_U_00DFUNG
 62
     7
100
AcDb2dPolyline
 66
     1
 10
0.0
 20
0.0
 30
0.0
  0
VERTEX
  5
3CC
330
3CB
100
AcDbEntity
  8
BEMA_U_00DFUNG
 62
     7
100
AcDbVertex
100
AcDb2dVertex
 10
50.57316387624559
 20
225.3795541629668
 30
0.0
  0
VERTEX
  5
3CD
330
3CB
100
AcDbEntity
  8
BEMA_U_00DFUNG
 62
     7
100
AcDbVertex
100
AcDb2dVertex
 10
53.30154720889696
 20
225.3795541629668
 30
0.0
  0
SEQEND
  5
3CE
330
3CB
100
AcDbEntity
  8
BEMA_U_00DFUNG
 62
     7
  0
POLYLINE
  5
3CF
330
1F
100
AcDbEntity
  8
BEMA_U_00DFUNG
 62
     7
100
AcDb2dPolyline
 66
     1
 10
0.0
 20
0.0
 30
0.0
  0
VERTEX
  5
3D0
330
3CF
100
AcDbEntity
  8
BEMA_U_00DFUNG
 62
     7
100
AcDbVertex
100
AcDb2dVertex
 10
50.57316387624559
 20
225.3287541629794
 30
0.0
  0
VERTEX
  5
3D1
330
3CF
100
AcDbEntity
  8
BEMA_U_00DFUNG
 62
     7
100
AcDbVertex
100
AcDb2dVertex
 10
53.68748609768938
 20
225.3287541629794
 30
0.0
  0
SEQEND
  5
3D2
330
3CF
100
AcDbEntity
  8
BEMA_U_00DFUNG
 62
     7
  0
POLYLINE
  5
3D3
330
1F
100
AcDbEntity
  8
BEMA_U_00DFUNG
 62
     7
100
AcDb2dPolyline
 66
     1
 10
0.0
 20
0.0
 30
0.0
  0
VERTEX
  5
3D4
330
3D3
100
AcDbEntity
  8
BEMA_U_00DFUNG
 62
     7
100
AcDbVertex
100
AcDb2dVertex
 10
50.57316387624559
 20
225.277954162992
 30
0.0
  0
VERTEX
  5
3D5
330
3D3
100
AcDbEntity
  8
BEMA_U_00DFUNG
 62
     7
100
AcDbVertex
100
AcDb2dVertex
 10
54.07271943092628
 20
225.277954162992
 30
0.0
  0
SEQEND
  5
3D6
330
3D3
100
AcDbEntity
  8
BEMA_U_00DFUNG
 62
     7
  0
POLYLINE
  5
3D7
330
1F
100
AcDbEntity
  8
BEMA_U_00DFUNG
 62
     7
100
AcDb2dPolyline
 66
     1
 10
0.0
 20
0.0
 30
0.0
  0
VERTEX
  5
3D8
330
3D7
100
AcDbEntity
  8
BEMA_U_00DFUNG
 62
     7
100
AcDbVertex
100
AcDb2dVertex
 10
50.57316387624559
 20
224.821106940884
 30
0.0
  0
VERTEX
  5
3D9
330
3D7
100
AcDbEntity
  8
BEMA_U_00DFUNG
 62
     7
100
AcDbVertex
100
AcDb2dVertex
 10
50.59997498735001
 20
224.821106940884
 30
0.0
  0
SEQEND
  5
3DA
330
3D7
100
AcDbEntity
  8
BEMA_U_00DFUNG
 62
     7
  0
POLYLINE
  5
3DB
330
1F
100
AcDbEntity
  8
BEMA_U_00DFUNG
 62
     7
100
AcDb2dPolyline
 66
     1
 10
0.0
 20
0.0
 30
0.0
  0
VERTEX
  5
3DC
330
3DB
100
AcDbEntity
  8
BEMA_U_00DFUNG
 62
     7
100
AcDbVertex
100
AcDb2dVertex
 10
50.57316387624559
 20
224.821106940884
 30
0.0
  0
VERTEX
  5
3DD
330
3DB
100
AcDbEntity
  8
BEMA_U_00DFUNG
 62
     7
100
AcDbVertex
100
AcDb2dVertex
 10
50.59997498735001
 20
224.821106940884
 30
0.0
  0
SEQEND
  5
3DE
330
3DB
100
AcDbEntity
  8
BEMA_U_00DFUNG
 62
     7
  0
POLYLINE
  5
3DF
330
1F
100
AcDbEntity
  8
BEMA_U_00DFUNG
 62
     7
100
AcDb2dPolyline
 66
     1
 10
0.0
 20
0.0
 30
0.0
  0
VERTEX
  5
3E0
330
3DF
100
AcDbEntity
  8
BEMA_U_00DFUNG
 62
     7
100
AcDbVertex
100
AcDb2dVertex
 10
50.57316387624559
 20
224.8719069408714
 30
0.0
  0
VERTEX
  5
3E1
330
3DF
100
AcDbEntity
  8
BEMA_U_00DFUNG
 62
     7
100
AcDbVertex
100
AcDb2dVertex
 10
50.98591387614243
 20
224.8719069408714
 30
0.0
  0
SEQEND
  5
3E2
330
3DF
100
AcDbEntity
  8
BEMA_U_00DFUNG
 62
     7
  0
POLYLINE
  5
3E3
330
1F
100
AcDbEntity
  8
BEMA_U_00DFUNG
 62
     7
100
AcDb2dPolyline
 66
     1
 10
0.0
 20
0.0
 30
0.0
  0
VERTEX
  5
3E4
330
3E3
100
AcDbEntity
  8
BEMA_U_00DFUNG
 62
     7
100
AcDbVertex
100
AcDb2dVertex
 10
50.57316387624559
 20
224.9227069408587
 30
0.0
  0
VERTEX
  5
3E5
330
3E3
100
AcDbEntity
  8
BEMA_U_00DFUNG
 62
     7
100
AcDbVertex
100
AcDb2dVertex
 10
51.37185276493485
 20
224.9227069408587
 30
0.0
  0
SEQEND
  5
3E6
330
3E3
100
AcDbEntity
  8
BEMA_U_00DFUNG
 62
     7
  0
POLYLINE
  5
3E7
330
1F
100
AcDbEntity
  8
BEMA_U_00DFUNG
 62
     7
100
AcDb2dPolyline
 66
     1
 10
0.0
 20
0.0
 30
0.0
  0
VERTEX
  5
3E8
330
3E7
100
AcDbEntity
  8
BEMA_U_00DFUNG
 62
     7
100
AcDbVertex
100
AcDb2dVertex
 10
50.57316387624559
 20
224.9735069408461
 30
0.0
  0
VERTEX
  5
3E9
330
3E7
100
AcDbEntity
  8
BEMA_U_00DFUNG
 62
     7
100
AcDbVertex
100
AcDb2dVertex
 10
51.75814443150503
 20
224.9735069408461
 30
0.0
  0
SEQEND
  5
3EA
330
3E7
100
AcDbEntity
  8
BEMA_U_00DFUNG
 62
     7
  0
POLYLINE
  5
3EB
330
1F
100
AcDbEntity
  8
BEMA_U_00DFUNG
 62
     7
100
AcDb2dPolyline
 66
     1
 10
0.0
 20
0.0
 30
0.0
  0
VERTEX
  5
3EC
330
3EB
100
AcDbEntity
  8
BEMA_U_00DFUNG
 62
     7
100
AcDbVertex
100
AcDb2dVertex
 10
50.57316387624559
 20
225.0243069408332
 30
0.0
  0
VERTEX
  5
3ED
330
3EB
100
AcDbEntity
  8
BEMA_U_00DFUNG
 62
     7
100
AcDbVertex
100
AcDb2dVertex
 10
52.14408332029745
 20
225.0243069408332
 30
0.0
  0
SEQEND
  5
3EE
330
3EB
100
AcDbEntity
  8
BEMA_U_00DFUNG
 62
     7
  0
POLYLINE
  5
3EF
330
1F
100
AcDbEntity
  8
BEMA_U_00DFUNG
 62
     7
100
AcDb2dPolyline
 66
     1
 10
0.0
 20
0.0
 30
0.0
  0
VERTEX
  5
3F0
330
3EF
100
AcDbEntity
  8
BEMA_U_00DFUNG
 62
     7
100
AcDbVertex
100
AcDb2dVertex
 10
50.57316387624559
 20
225.0751069408205
 30
0.0
  0
VERTEX
  5
3F1
330
3EF
100
AcDbEntity
  8
BEMA_U_00DFUNG
 62
     7
100
AcDbVertex
100
AcDb2dVertex
 10
52.52931665353436
 20
225.0751069408205
 30
0.0
  0
SEQEND
  5
3F2
330
3EF
100
AcDbEntity
  8
BEMA_U_00DFUNG
 62
     7
  0
POLYLINE
  5
3F3
330
1F
100
AcDbEntity
  8
BEMA_U_00DFUNG
 62
     7
100
AcDb2dPolyline
 66
     1
 10
0.0
 20
0.0
 30
0.0
  0
VERTEX
  5
3F4
330
3F3
100
AcDbEntity
  8
BEMA_U_00DFUNG
 62
     7
100
AcDbVertex
100
AcDb2dVertex
 10
50.57316387624559
 20
225.1259069408079
 30
0.0
  0
VERTEX
  5
3F5
330
3F3
100
AcDbEntity
  8
BEMA_U_00DFUNG
 62
     7
100
AcDbVertex
100
AcDb2dVertex
 10
52.91525554232678
 20
225.1259069408079
 30
0.0
  0
SEQEND
  5
3F6
330
3F3
100
AcDbEntity
  8
BEMA_U_00DFUNG
 62
     7
  0
POLYLINE
  5
3F7
330
1F
100
AcDbEntity
  8
BEMA_U_00DFUNG
 62
     7
100
AcDb2dPolyline
 66
     1
 10
0.0
 20
0.0
 30
0.0
  0
VERTEX
  5
3F8
330
3F7
100
AcDbEntity
  8
BEMA_U_00DFUNG
 62
     7
100
AcDbVertex
100
AcDb2dVertex
 10
50.57316387624559
 20
225.176706940795
 30
0.0
  0
VERTEX
  5
3F9
330
3F7
100
AcDbEntity
  8
BEMA_U_00DFUNG
 62
     7
100
AcDbVertex
100
AcDb2dVertex
 10
53.30154720889696
 20
225.176706940795
 30
0.0
  0
SEQEND
  5
3FA
330
3F7
100
AcDbEntity
  8
BEMA_U_00DFUNG
 62
     7
  0
POLYLINE
  5
3FB
330
1F
100
AcDbEntity
  8
BEMA_U_00DFUNG
 62
     7
100
AcDb2dPolyline
 66
     1
 10
0.0
 20
0.0
 30
0.0
  0
VERTEX
  5
3FC
330
3FB
100
AcDbEntity
  8
BEMA_U_00DFUNG
 62
     7
100
AcDbVertex
100
AcDb2dVertex
 10
50.57316387624559
 20
225.2275069407824
 30
0.0
  0
VERTEX
  5
3FD
330
3FB
100
AcDbEntity
  8
BEMA_U_00DFUNG
 62
     7
100
AcDbVertex
100
AcDb2dVertex
 10
53.68748609768938
 20
225.2275069407824
 30
0.0
  0
SEQEND
  5
3FE
330
3FB
100
AcDbEntity
  8
BEMA_U_00DFUNG
 62
     7
  0
POLYLINE
  5
3FF
330
1F
100
AcDbEntity
  8
BEMA_U_00DFUNG
 62
     7
100
AcDb2dPolyline
 66
     1
 10
0.0
 20
0.0
 30
0.0
  0
VERTEX
  5
400
330
3FF
100
AcDbEntity
  8
BEMA_U_00DFUNG
 62
     7
100
AcDbVertex
100
AcDb2dVertex
 10
50.57316387624559
 20
225.277954162992
 30
0.0
  0
VERTEX
  5
401
330
3FF
100
AcDbEntity
  8
BEMA_U_00DFUNG
 62
     7
100
AcDbVertex
100
AcDb2dVertex
 10
54.07271943092628
 20
225.277954162992
 30
0.0
  0
SEQEND
  5
402
330
3FF
100
AcDbEntity
  8
BEMA_U_00DFUNG
 62
     7
  0
POLYLINE
  5
403
330
1F
100
AcDbEntity
  8
BEMA_U_00DFUNG
 62
     7
100
AcDb2dPolyline
 66
     1
 10
0.0
 20
0.0
 30
0.0
  0
VERTEX
  5
404
330
403
100
AcDbEntity
  8
BEMA_U_00DFUNG
 62
     7
100
AcDbVertex
100
AcDb2dVertex
 10
24.07320277175965
 20
225.277954162992
 30
0.0
  0
VERTEX
  5
405
330
403
100
AcDbEntity
  8
BEMA_U_00DFUNG
 62
     7
100
AcDbVertex
100
AcDb2dVertex
 10
27.57275832644034
 20
224.817579163107
 30
0.0
  0
VERTEX
  5
406
330
403
100
AcDbEntity
  8
BEMA_U_00DFUNG
 62
     7
100
AcDbVertex
100
AcDb2dVertex
 10
27.57275832644034
 20
225.7390347184325
 30
0.0
  0
VERTEX
  5
407
330
403
100
AcDbEntity
  8
BEMA_U_00DFUNG
 62
     7
100
AcDbVertex
100
AcDb2dVertex
 10
24.07320277175965
 20
225.277954162992
 30
0.0
  0
SEQEND
  5
408
330
403
100
AcDbEntity
  8
BEMA_U_00DFUNG
 62
     7
  0
POLYLINE
  5
409
330
1F
100
AcDbEntity
  8
BEMA_U_00DFUNG
 62
     7
100
AcDb2dPolyline
 66
     1
 10
0.0
 20
0.0
 30
0.0
  0
VERTEX
  5
40A
330
409
100
AcDbEntity
  8
BEMA_U_00DFUNG
 62
     7
100
AcDbVertex
100
AcDb2dVertex
 10
27.57275832644034
 20
224.821106940884
 30
0.0
  0
VERTEX
  5
40B
330
409
100
AcDbEntity
  8
BEMA_U_00DFUNG
 62
     7
100
AcDbVertex
100
AcDb2dVertex
 10
27.54594721533593
 20
224.821106940884
 30
0.0
  0
SEQEND
  5
40C
330
409
100
AcDbEntity
  8
BEMA_U_00DFUNG
 62
     7
  0
POLYLINE
  5
40D
330
1F
100
AcDbEntity
  8
BEMA_U_00DFUNG
 62
     7
100
AcDb2dPolyline
 66
     1
 10
0.0
 20
0.0
 30
0.0
  0
VERTEX
  5
40E
330
40D
100
AcDbEntity
  8
BEMA_U_00DFUNG
 62
     7
100
AcDbVertex
100
AcDb2dVertex
 10
27.57275832644034
 20
224.821106940884
 30
0.0
  0
VERTEX
  5
40F
330
40D
100
AcDbEntity
  8
BEMA_U_00DFUNG
 62
     7
100
AcDbVertex
100
AcDb2dVertex
 10
27.54594721533593
 20
224.821106940884
 30
0.0
  0
SEQEND
  5
410
330
40D
100
AcDbEntity
  8
BEMA_U_00DFUNG
 62
     7
  0
POLYLINE
  5
411
330
1F
100
AcDbEntity
  8
BEMA_U_00DFUNG
 62
     7
100
AcDb2dPolyline
 66
     1
 10
0.0
 20
0.0
 30
0.0
  0
VERTEX
  5
412
330
411
100
AcDbEntity
  8
BEMA_U_00DFUNG
 62
     7
100
AcDbVertex
100
AcDb2dVertex
 10
27.57275832644034
 20
224.8719069408714
 30
0.0
  0
VERTEX
  5
413
330
411
100
AcDbEntity
  8
BEMA_U_00DFUNG
 62
     7
100
AcDbVertex
100
AcDb2dVertex
 10
27.1600083265435
 20
224.8719069408714
 30
0.0
  0
SEQEND
  5
414
330
411
100
AcDbEntity
  8
BEMA_U_00DFUNG
 62
     7
  0
POLYLINE
  5
415
330
1F
100
AcDbEntity
  8
BEMA_U_00DFUNG
 62
     7
100
AcDb2dPolyline
 66
     1
 10
0.0
 20
0.0
 30
0.0
  0
VERTEX
  5
416
330
415
100
AcDbEntity
  8
BEMA_U_00DFUNG
 62
     7
100
AcDbVertex
100
AcDb2dVertex
 10
27.57275832644034
 20
224.9227069408587
 30
0.0
  0
VERTEX
  5
417
330
415
100
AcDbEntity
  8
BEMA_U_00DFUNG
 62
     7
100
AcDbVertex
100
AcDb2dVertex
 10
26.77406943775108
 20
224.9227069408587
 30
0.0
  0
SEQEND
  5
418
330
415
100
AcDbEntity
  8
BEMA_U_00DFUNG
 62
     7
  0
POLYLINE
  5
419
330
1F
100
AcDbEntity
  8
BEMA_U_00DFUNG
 62
     7
100
AcDb2dPolyline
 66
     1
 10
0.0
 20
0.0
 30
0.0
  0
VERTEX
  5
41A
330
419
100
AcDbEntity
  8
BEMA_U_00DFUNG
 62
     7
100
AcDbVertex
100
AcDb2dVertex
 10
27.57275832644034
 20
224.9735069408461
 30
0.0
  0
VERTEX
  5
41B
330
419
100
AcDbEntity
  8
BEMA_U_00DFUNG
 62
     7
100
AcDbVertex
100
AcDb2dVertex
 10
26.38813054895866
 20
224.9735069408461
 30
0.0
  0
SEQEND
  5
41C
330
419
100
AcDbEntity
  8
BEMA_U_00DFUNG
 62
     7
  0
POLYLINE
  5
41D
330
1F
100
AcDbEntity
  8
BEMA_U_00DFUNG
 62
     7
100
AcDb2dPolyline
 66
     1
 10
0.0
 20
0.0
 30
0.0
  0
VERTEX
  5
41E
330
41D
100
AcDbEntity
  8
BEMA_U_00DFUNG
 62
     7
100
AcDbVertex
100
AcDb2dVertex
 10
27.57275832644034
 20
225.0243069408332
 30
0.0
  0
VERTEX
  5
41F
330
41D
100
AcDbEntity
  8
BEMA_U_00DFUNG
 62
     7
100
AcDbVertex
100
AcDb2dVertex
 10
26.002544437944
 20
225.0243069408332
 30
0.0
  0
SEQEND
  5
420
330
41D
100
AcDbEntity
  8
BEMA_U_00DFUNG
 62
     7
  0
POLYLINE
  5
421
330
1F
100
AcDbEntity
  8
BEMA_U_00DFUNG
 62
     7
100
AcDb2dPolyline
 66
     1
 10
0.0
 20
0.0
 30
0.0
  0
VERTEX
  5
422
330
421
100
AcDbEntity
  8
BEMA_U_00DFUNG
 62
     7
100
AcDbVertex
100
AcDb2dVertex
 10
27.57275832644034
 20
225.0751069408205
 30
0.0
  0
VERTEX
  5
423
330
421
100
AcDbEntity
  8
BEMA_U_00DFUNG
 62
     7
100
AcDbVertex
100
AcDb2dVertex
 10
25.61660554915158
 20
225.0751069408205
 30
0.0
  0
SEQEND
  5
424
330
421
100
AcDbEntity
  8
BEMA_U_00DFUNG
 62
     7
  0
POLYLINE
  5
425
330
1F
100
AcDbEntity
  8
BEMA_U_00DFUNG
 62
     7
100
AcDb2dPolyline
 66
     1
 10
0.0
 20
0.0
 30
0.0
  0
VERTEX
  5
426
330
425
100
AcDbEntity
  8
BEMA_U_00DFUNG
 62
     7
100
AcDbVertex
100
AcDb2dVertex
 10
27.57275832644034
 20
225.1259069408079
 30
0.0
  0
VERTEX
  5
427
330
425
100
AcDbEntity
  8
BEMA_U_00DFUNG
 62
     7
100
AcDbVertex
100
AcDb2dVertex
 10
25.23066666035916
 20
225.1259069408079
 30
0.0
  0
SEQEND
  5
428
330
425
100
AcDbEntity
  8
BEMA_U_00DFUNG
 62
     7
  0
POLYLINE
  5
429
330
1F
100
AcDbEntity
  8
BEMA_U_00DFUNG
 62
     7
100
AcDb2dPolyline
 66
     1
 10
0.0
 20
0.0
 30
0.0
  0
VERTEX
  5
42A
330
429
100
AcDbEntity
  8
BEMA_U_00DFUNG
 62
     7
100
AcDbVertex
100
AcDb2dVertex
 10
27.57275832644034
 20
225.176706940795
 30
0.0
  0
VERTEX
  5
42B
330
429
100
AcDbEntity
  8
BEMA_U_00DFUNG
 62
     7
100
AcDbVertex
100
AcDb2dVertex
 10
24.84472777156673
 20
225.176706940795
 30
0.0
  0
SEQEND
  5
42C
330
429
100
AcDbEntity
  8
BEMA_U_00DFUNG
 62
     7
  0
POLYLINE
  5
42D
330
1F
100
AcDbEntity
  8
BEMA_U_00DFUNG
 62
     7
100
AcDb2dPolyline
 66
     1
 10
0.0
 20
0.0
 30
0.0
  0
VERTEX
  5
42E
330
42D
100
AcDbEntity
  8
BEMA_U_00DFUNG
 62
     7
100
AcDbVertex
100
AcDb2dVertex
 10
27.57275832644034
 20
225.2275069407824
 30
0.0
  0
VERTEX
  5
42F
330
42D
100
AcDbEntity
  8
BEMA_U_00DFUNG
 62
     7
100
AcDbVertex
100
AcDb2dVertex
 10
24.45914166055207
 20
225.2275069407824
 30
0.0
  0
SEQEND
  5
430
330
42D
100
AcDbEntity
  8
BEMA_U_00DFUNG
 62
     7
  0
POLYLINE
  5
431
330
1F
100
AcDbEntity
  8
BEMA_U_00DFUNG
 62
     7
100
AcDb2dPolyline
 66
     1
 10
0.0
 20
0.0
 30
0.0
  0
VERTEX
  5
432
330
431
100
AcDbEntity
  8
BEMA_U_00DFUNG
 62
     7
100
AcDbVertex
100
AcDb2dVertex
 10
27.57275832644034
 20
225.277954162992
 30
0.0
  0
VERTEX
  5
433
330
431
100
AcDbEntity
  8
BEMA_U_00DFUNG
 62
     7
100
AcDbVertex
100
AcDb2dVertex
 10
24.07320277175965
 20
225.277954162992
 30
0.0
  0
SEQEND
  5
434
330
431
100
AcDbEntity
  8
BEMA_U_00DFUNG
 62
     7
  0
POLYLINE
  5
435
330
1F
100
AcDbEntity
  8
BEMA_U_00DFUNG
 62
     7
100
AcDb2dPolyline
 66
     1
 10
0.0
 20
0.0
 30
0.0
  0
VERTEX
  5
436
330
435
100
AcDbEntity
  8
BEMA_U_00DFUNG
 62
     7
100
AcDbVertex
100
AcDb2dVertex
 10
27.57275832644034
 20
225.7351541628778
 30
0.0
  0
VERTEX
  5
437
330
435
100
AcDbEntity
  8
BEMA_U_00DFUNG
 62
     7
100
AcDbVertex
100
AcDb2dVertex
 10
27.54594721533593
 20
225.7351541628778
 30
0.0
  0
SEQEND
  5
438
330
435
100
AcDbEntity
  8
BEMA_U_00DFUNG
 62
     7
  0
POLYLINE
  5
439
330
1F
100
AcDbEntity
  8
BEMA_U_00DFUNG
 62
     7
100
AcDb2dPolyline
 66
     1
 10
0.0
 20
0.0
 30
0.0
  0
VERTEX
  5
43A
330
439
100
AcDbEntity
  8
BEMA_U_00DFUNG
 62
     7
100
AcDbVertex
100
AcDb2dVertex
 10
27.57275832644034
 20
225.7351541628778
 30
0.0
  0
VERTEX
  5
43B
330
439
100
AcDbEntity
  8
BEMA_U_00DFUNG
 62
     7
100
AcDbVertex
100
AcDb2dVertex
 10
27.54594721533593
 20
225.7351541628778
 30
0.0
  0
SEQEND
  5
43C
330
439
100
AcDbEntity
  8
BEMA_U_00DFUNG
 62
     7
  0
POLYLINE
  5
43D
330
1F
100
AcDbEntity
  8
BEMA_U_00DFUNG
 62
     7
100
AcDb2dPolyline
 66
     1
 10
0.0
 20
0.0
 30
0.0
  0
VERTEX
  5
43E
330
43D
100
AcDbEntity
  8
BEMA_U_00DFUNG
 62
     7
100
AcDbVertex
100
AcDb2dVertex
 10
27.57275832644034
 20
225.6843541628904
 30
0.0
  0
VERTEX
  5
43F
330
43D
100
AcDbEntity
  8
BEMA_U_00DFUNG
 62
     7
100
AcDbVertex
100
AcDb2dVertex
 10
27.1600083265435
 20
225.6843541628904
 30
0.0
  0
SEQEND
  5
440
330
43D
100
AcDbEntity
  8
BEMA_U_00DFUNG
 62
     7
  0
POLYLINE
  5
441
330
1F
100
AcDbEntity
  8
BEMA_U_00DFUNG
 62
     7
100
AcDb2dPolyline
 66
     1
 10
0.0
 20
0.0
 30
0.0
  0
VERTEX
  5
442
330
441
100
AcDbEntity
  8
BEMA_U_00DFUNG
 62
     7
100
AcDbVertex
100
AcDb2dVertex
 10
27.57275832644034
 20
225.633554162903
 30
0.0
  0
VERTEX
  5
443
330
441
100
AcDbEntity
  8
BEMA_U_00DFUNG
 62
     7
100
AcDbVertex
100
AcDb2dVertex
 10
26.77406943775108
 20
225.633554162903
 30
0.0
  0
SEQEND
  5
444
330
441
100
AcDbEntity
  8
BEMA_U_00DFUNG
 62
     7
  0
POLYLINE
  5
445
330
1F
100
AcDbEntity
  8
BEMA_U_00DFUNG
 62
     7
100
AcDb2dPolyline
 66
     1
 10
0.0
 20
0.0
 30
0.0
  0
VERTEX
  5
446
330
445
100
AcDbEntity
  8
BEMA_U_00DFUNG
 62
     7
100
AcDbVertex
100
AcDb2dVertex
 10
27.57275832644034
 20
225.5827541629156
 30
0.0
  0
VERTEX
  5
447
330
445
100
AcDbEntity
  8
BEMA_U_00DFUNG
 62
     7
100
AcDbVertex
100
AcDb2dVertex
 10
26.38813054895866
 20
225.5827541629156
 30
0.0
  0
SEQEND
  5
448
330
445
100
AcDbEntity
  8
BEMA_U_00DFUNG
 62
     7
  0
POLYLINE
  5
449
330
1F
100
AcDbEntity
  8
BEMA_U_00DFUNG
 62
     7
100
AcDb2dPolyline
 66
     1
 10
0.0
 20
0.0
 30
0.0
  0
VERTEX
  5
44A
330
449
100
AcDbEntity
  8
BEMA_U_00DFUNG
 62
     7
100
AcDbVertex
100
AcDb2dVertex
 10
27.57275832644034
 20
225.5319541629286
 30
0.0
  0
VERTEX
  5
44B
330
449
100
AcDbEntity
  8
BEMA_U_00DFUNG
 62
     7
100
AcDbVertex
100
AcDb2dVertex
 10
26.002544437944
 20
225.5319541629286
 30
0.0
  0
SEQEND
  5
44C
330
449
100
AcDbEntity
  8
BEMA_U_00DFUNG
 62
     7
  0
POLYLINE
  5
44D
330
1F
100
AcDbEntity
  8
BEMA_U_00DFUNG
 62
     7
100
AcDb2dPolyline
 66
     1
 10
0.0
 20
0.0
 30
0.0
  0
VERTEX
  5
44E
330
44D
100
AcDbEntity
  8
BEMA_U_00DFUNG
 62
     7
100
AcDbVertex
100
AcDb2dVertex
 10
27.57275832644034
 20
225.4811541629412
 30
0.0
  0
VERTEX
  5
44F
330
44D
100
AcDbEntity
  8
BEMA_U_00DFUNG
 62
     7
100
AcDbVertex
100
AcDb2dVertex
 10
25.61660554915158
 20
225.4811541629412
 30
0.0
  0
SEQEND
  5
450
330
44D
100
AcDbEntity
  8
BEMA_U_00DFUNG
 62
     7
  0
POLYLINE
  5
451
330
1F
100
AcDbEntity
  8
BEMA_U_00DFUNG
 62
     7
100
AcDb2dPolyline
 66
     1
 10
0.0
 20
0.0
 30
0.0
  0
VERTEX
  5
452
330
451
100
AcDbEntity
  8
BEMA_U_00DFUNG
 62
     7
100
AcDbVertex
100
AcDb2dVertex
 10
27.57275832644034
 20
225.4303541629542
 30
0.0
  0
VERTEX
  5
453
330
451
100
AcDbEntity
  8
BEMA_U_00DFUNG
 62
     7
100
AcDbVertex
100
AcDb2dVertex
 10
25.23066666035916
 20
225.4303541629542
 30
0.0
  0
SEQEND
  5
454
330
451
100
AcDbEntity
  8
BEMA_U_00DFUNG
 62
     7
  0
POLYLINE
  5
455
330
1F
100
AcDbEntity
  8
BEMA_U_00DFUNG
 62
     7
100
AcDb2dPolyline
 66
     1
 10
0.0
 20
0.0
 30
0.0
  0
VERTEX
  5
456
330
455
100
AcDbEntity
  8
BEMA_U_00DFUNG
 62
     7
100
AcDbVertex
100
AcDb2dVertex
 10
27.57275832644034
 20
225.3795541629668
 30
0.0
  0
VERTEX
  5
457
330
455
100
AcDbEntity
  8
BEMA_U_00DFUNG
 62
     7
100
AcDbVertex
100
AcDb2dVertex
 10
24.84472777156673
 20
225.3795541629668
 30
0.0
  0
SEQEND
  5
458
330
455
100
AcDbEntity
  8
BEMA_U_00DFUNG
 62
     7
  0
POLYLINE
  5
459
330
1F
100
AcDbEntity
  8
BEMA_U_00DFUNG
 62
     7
100
AcDb2dPolyline
 66
     1
 10
0.0
 20
0.0
 30
0.0
  0
VERTEX
  5
45A
330
459
100
AcDbEntity
  8
BEMA_U_00DFUNG
 62
     7
100
AcDbVertex
100
AcDb2dVertex
 10
27.57275832644034
 20
225.3287541629794
 30
0.0
  0
VERTEX
  5
45B
330
459
100
AcDbEntity
  8
BEMA_U_00DFUNG
 62
     7
100
AcDbVertex
100
AcDb2dVertex
 10
24.45914166055207
 20
225.3287541629794
 30
0.0
  0
SEQEND
  5
45C
330
459
100
AcDbEntity
  8
BEMA_U_00DFUNG
 62
     7
  0
POLYLINE
  5
45D
330
1F
100
AcDbEntity
  8
BEMA_U_00DFUNG
 62
     7
100
AcDb2dPolyline
 66
     1
 10
0.0
 20
0.0
 30
0.0
  0
VERTEX
  5
45E
330
45D
100
AcDbEntity
  8
BEMA_U_00DFUNG
 62
     7
100
AcDbVertex
100
AcDb2dVertex
 10
27.57275832644034
 20
225.277954162992
 30
0.0
  0
VERTEX
  5
45F
330
45D
100
AcDbEntity
  8
BEMA_U_00DFUNG
 62
     7
100
AcDbVertex
100
AcDb2dVertex
 10
24.07320277175965
 20
225.277954162992
 30
0.0
  0
SEQEND
  5
460
330
45D
100
AcDbEntity
  8
BEMA_U_00DFUNG
 62
     7
  0
POLYLINE
  5
461
330
1F
100
AcDbEntity
  8
BEMA_U_00DFUNG
 62
     7
100
AcDb2dPolyline
 66
     1
 10
0.0
 20
0.0
 30
0.0
  0
VERTEX
  5
462
330
461
100
AcDbEntity
  8
BEMA_U_00DFUNG
 62
     7
100
AcDbVertex
100
AcDb2dVertex
 10
119.5124827905883
 20
208.4529236116429
 30
0.0
  0
VERTEX
  5
463
330
461
100
AcDbEntity
  8
BEMA_U_00DFUNG
 62
     7
100
AcDbVertex
100
AcDb2dVertex
 10
87.51236335414394
 20
208.4529236116429
 30
0.0
  0
SEQEND
  5
464
330
461
100
AcDbEntity
  8
BEMA_U_00DFUNG
 62
     7
  0
POLYLINE
  5
465
330
1F
100
AcDbEntity
  8
BEMA_U_00DFUNG
 62
     7
100
AcDb2dPolyline
 66
     1
 10
0.0
 20
0.0
 30
0.0
  0
VERTEX
  5
466
330
465
100
AcDbEntity
  8
BEMA_U_00DFUNG
 62
     7
100
AcDbVertex
100
AcDb2dVertex
 10
119.5124827905883
 20
188.4035041722107
 30
0.0
  0
VERTEX
  5
467
330
465
100
AcDbEntity
  8
BEMA_U_00DFUNG
 62
     7
100
AcDbVertex
100
AcDb2dVertex
 10
87.51236335414394
 20
188.4035041722107
 30
0.0
  0
SEQEND
  5
468
330
465
100
AcDbEntity
  8
BEMA_U_00DFUNG
 62
     7
  0
POLYLINE
  5
469
330
1F
100
AcDbEntity
  8
BEMA_U_00DFUNG
 62
     7
100
AcDb2dPolyline
 66
     1
 10
0.0
 20
0.0
 30
0.0
  0
VERTEX
  5
46A
330
469
100
AcDbEntity
  8
BEMA_U_00DFUNG
 62
     7
100
AcDbVertex
100
AcDb2dVertex
 10
89.51226057586615
 20
208.4529236116429
 30
0.0
  0
VERTEX
  5
46B
330
469
100
AcDbEntity
  8
BEMA_U_00DFUNG
 62
     7
100
AcDbVertex
100
AcDb2dVertex
 10
89.51226057586615
 20
188.4035041722107
 30
0.0
  0
SEQEND
  5
46C
330
469
100
AcDbEntity
  8
BEMA_U_00DFUNG
 62
     7
  0
POLYLINE
  5
46D
330
1F
100
AcDbEntity
  8
BEMA_U_00DFUNG
 62
     7
100
AcDb2dPolyline
 66
     1
 10
0.0
 20
0.0
 30
0.0
  0
VERTEX
  5
46E
330
46D
100
AcDbEntity
  8
BEMA_U_00DFUNG
 62
     7
100
AcDbVertex
100
AcDb2dVertex
 10
89.51226057586615
 20
208.4529236116429
 30
0.0
  0
VERTEX
  5
46F
330
46D
100
AcDbEntity
  8
BEMA_U_00DFUNG
 62
     7
100
AcDbVertex
100
AcDb2dVertex
 10
89.05153279820338
 20
204.9533680569623
 30
0.0
  0
VERTEX
  5
470
330
46D
100
AcDbEntity
  8
BEMA_U_00DFUNG
 62
     7
100
AcDbVertex
100
AcDb2dVertex
 10
89.97334113130636
 20
204.9533680569623
 30
0.0
  0
VERTEX
  5
471
330
46D
100
AcDbEntity
  8
BEMA_U_00DFUNG
 62
     7
100
AcDbVertex
100
AcDb2dVertex
 10
89.51226057586615
 20
208.4529236116429
 30
0.0
  0
SEQEND
  5
472
330
46D
100
AcDbEntity
  8
BEMA_U_00DFUNG
 62
     7
  0
POLYLINE
  5
473
330
1F
100
AcDbEntity
  8
BEMA_U_00DFUNG
 62
     7
100
AcDb2dPolyline
 66
     1
 10
0.0
 20
0.0
 30
0.0
  0
VERTEX
  5
474
330
473
100
AcDbEntity
  8
BEMA_U_00DFUNG
 62
     7
100
AcDbVertex
100
AcDb2dVertex
 10
89.05506057598035
 20
204.9533680569623
 30
0.0
  0
VERTEX
  5
475
330
473
100
AcDbEntity
  8
BEMA_U_00DFUNG
 62
     7
100
AcDbVertex
100
AcDb2dVertex
 10
89.05506057598035
 20
204.9805319458441
 30
0.0
  0
SEQEND
  5
476
330
473
100
AcDbEntity
  8
BEMA_U_00DFUNG
 62
     7
  0
POLYLINE
  5
477
330
1F
100
AcDbEntity
  8
BEMA_U_00DFUNG
 62
     7
100
AcDb2dPolyline
 66
     1
 10
0.0
 20
0.0
 30
0.0
  0
VERTEX
  5
478
330
477
100
AcDbEntity
  8
BEMA_U_00DFUNG
 62
     7
100
AcDbVertex
100
AcDb2dVertex
 10
89.05506057598035
 20
204.9533680569623
 30
0.0
  0
VERTEX
  5
479
330
477
100
AcDbEntity
  8
BEMA_U_00DFUNG
 62
     7
100
AcDbVertex
100
AcDb2dVertex
 10
89.05506057598035
 20
204.9805319458441
 30
0.0
  0
SEQEND
  5
47A
330
477
100
AcDbEntity
  8
BEMA_U_00DFUNG
 62
     7
  0
POLYLINE
  5
47B
330
1F
100
AcDbEntity
  8
BEMA_U_00DFUNG
 62
     7
100
AcDb2dPolyline
 66
     1
 10
0.0
 20
0.0
 30
0.0
  0
VERTEX
  5
47C
330
47B
100
AcDbEntity
  8
BEMA_U_00DFUNG
 62
     7
100
AcDbVertex
100
AcDb2dVertex
 10
89.10586057596772
 20
204.9533680569623
 30
0.0
  0
VERTEX
  5
47D
330
47B
100
AcDbEntity
  8
BEMA_U_00DFUNG
 62
     7
100
AcDbVertex
100
AcDb2dVertex
 10
89.10586057596772
 20
205.3661180568591
 30
0.0
  0
SEQEND
  5
47E
330
47B
100
AcDbEntity
  8
BEMA_U_00DFUNG
 62
     7
  0
POLYLINE
  5
47F
330
1F
100
AcDbEntity
  8
BEMA_U_00DFUNG
 62
     7
100
AcDb2dPolyline
 66
     1
 10
0.0
 20
0.0
 30
0.0
  0
VERTEX
  5
480
330
47F
100
AcDbEntity
  8
BEMA_U_00DFUNG
 62
     7
100
AcDbVertex
100
AcDb2dVertex
 10
89.15666057595512
 20
204.9533680569623
 30
0.0
  0
VERTEX
  5
481
330
47F
100
AcDbEntity
  8
BEMA_U_00DFUNG
 62
     7
100
AcDbVertex
100
AcDb2dVertex
 10
89.15666057595512
 20
205.752409723429
 30
0.0
  0
SEQEND
  5
482
330
47F
100
AcDbEntity
  8
BEMA_U_00DFUNG
 62
     7
  0
POLYLINE
  5
483
330
1F
100
AcDbEntity
  8
BEMA_U_00DFUNG
 62
     7
100
AcDb2dPolyline
 66
     1
 10
0.0
 20
0.0
 30
0.0
  0
VERTEX
  5
484
330
483
100
AcDbEntity
  8
BEMA_U_00DFUNG
 62
     7
100
AcDbVertex
100
AcDb2dVertex
 10
89.20746057594218
 20
204.9533680569623
 30
0.0
  0
VERTEX
  5
485
330
483
100
AcDbEntity
  8
BEMA_U_00DFUNG
 62
     7
100
AcDbVertex
100
AcDb2dVertex
 10
89.20746057594218
 20
206.1379958344436
 30
0.0
  0
SEQEND
  5
486
330
483
100
AcDbEntity
  8
BEMA_U_00DFUNG
 62
     7
  0
POLYLINE
  5
487
330
1F
100
AcDbEntity
  8
BEMA_U_00DFUNG
 62
     7
100
AcDb2dPolyline
 66
     1
 10
0.0
 20
0.0
 30
0.0
  0
VERTEX
  5
488
330
487
100
AcDbEntity
  8
BEMA_U_00DFUNG
 62
     7
100
AcDbVertex
100
AcDb2dVertex
 10
89.25861335370732
 20
204.9533680569623
 30
0.0
  0
VERTEX
  5
489
330
487
100
AcDbEntity
  8
BEMA_U_00DFUNG
 62
     7
100
AcDbVertex
100
AcDb2dVertex
 10
89.25861335370732
 20
206.523934723236
 30
0.0
  0
SEQEND
  5
48A
330
487
100
AcDbEntity
  8
BEMA_U_00DFUNG
 62
     7
  0
POLYLINE
  5
48B
330
1F
100
AcDbEntity
  8
BEMA_U_00DFUNG
 62
     7
100
AcDb2dPolyline
 66
     1
 10
0.0
 20
0.0
 30
0.0
  0
VERTEX
  5
48C
330
48B
100
AcDbEntity
  8
BEMA_U_00DFUNG
 62
     7
100
AcDbVertex
100
AcDb2dVertex
 10
89.3094133536947
 20
204.9533680569623
 30
0.0
  0
VERTEX
  5
48D
330
48B
100
AcDbEntity
  8
BEMA_U_00DFUNG
 62
     7
100
AcDbVertex
100
AcDb2dVertex
 10
89.3094133536947
 20
206.909520834251
 30
0.0
  0
SEQEND
  5
48E
330
48B
100
AcDbEntity
  8
BEMA_U_00DFUNG
 62
     7
  0
POLYLINE
  5
48F
330
1F
100
AcDbEntity
  8
BEMA_U_00DFUNG
 62
     7
100
AcDb2dPolyline
 66
     1
 10
0.0
 20
0.0
 30
0.0
  0
VERTEX
  5
490
330
48F
100
AcDbEntity
  8
BEMA_U_00DFUNG
 62
     7
100
AcDbVertex
100
AcDb2dVertex
 10
89.36021335368176
 20
204.9533680569623
 30
0.0
  0
VERTEX
  5
491
330
48F
100
AcDbEntity
  8
BEMA_U_00DFUNG
 62
     7
100
AcDbVertex
100
AcDb2dVertex
 10
89.36021335368176
 20
207.2958125008209
 30
0.0
  0
SEQEND
  5
492
330
48F
100
AcDbEntity
  8
BEMA_U_00DFUNG
 62
     7
  0
POLYLINE
  5
493
330
1F
100
AcDbEntity
  8
BEMA_U_00DFUNG
 62
     7
100
AcDb2dPolyline
 66
     1
 10
0.0
 20
0.0
 30
0.0
  0
VERTEX
  5
494
330
493
100
AcDbEntity
  8
BEMA_U_00DFUNG
 62
     7
100
AcDbVertex
100
AcDb2dVertex
 10
89.41101335366915
 20
204.9533680569623
 30
0.0
  0
VERTEX
  5
495
330
493
100
AcDbEntity
  8
BEMA_U_00DFUNG
 62
     7
100
AcDbVertex
100
AcDb2dVertex
 10
89.41101335366915
 20
207.6813986118356
 30
0.0
  0
SEQEND
  5
496
330
493
100
AcDbEntity
  8
BEMA_U_00DFUNG
 62
     7
  0
POLYLINE
  5
497
330
1F
100
AcDbEntity
  8
BEMA_U_00DFUNG
 62
     7
100
AcDb2dPolyline
 66
     1
 10
0.0
 20
0.0
 30
0.0
  0
VERTEX
  5
498
330
497
100
AcDbEntity
  8
BEMA_U_00DFUNG
 62
     7
100
AcDbVertex
100
AcDb2dVertex
 10
89.46181335365652
 20
204.9533680569623
 30
0.0
  0
VERTEX
  5
499
330
497
100
AcDbEntity
  8
BEMA_U_00DFUNG
 62
     7
100
AcDbVertex
100
AcDb2dVertex
 10
89.46181335365652
 20
208.0676902784057
 30
0.0
  0
SEQEND
  5
49A
330
497
100
AcDbEntity
  8
BEMA_U_00DFUNG
 62
     7
  0
POLYLINE
  5
49B
330
1F
100
AcDbEntity
  8
BEMA_U_00DFUNG
 62
     7
100
AcDb2dPolyline
 66
     1
 10
0.0
 20
0.0
 30
0.0
  0
VERTEX
  5
49C
330
49B
100
AcDbEntity
  8
BEMA_U_00DFUNG
 62
     7
100
AcDbVertex
100
AcDb2dVertex
 10
89.51226057586615
 20
204.9533680569623
 30
0.0
  0
VERTEX
  5
49D
330
49B
100
AcDbEntity
  8
BEMA_U_00DFUNG
 62
     7
100
AcDbVertex
100
AcDb2dVertex
 10
89.51226057586615
 20
208.4529236116429
 30
0.0
  0
SEQEND
  5
49E
330
49B
100
AcDbEntity
  8
BEMA_U_00DFUNG
 62
     7
  0
POLYLINE
  5
49F
330
1F
100
AcDbEntity
  8
BEMA_U_00DFUNG
 62
     7
100
AcDb2dPolyline
 66
     1
 10
0.0
 20
0.0
 30
0.0
  0
VERTEX
  5
4A0
330
49F
100
AcDbEntity
  8
BEMA_U_00DFUNG
 62
     7
100
AcDbVertex
100
AcDb2dVertex
 10
89.96981335352939
 20
204.9533680569623
 30
0.0
  0
VERTEX
  5
4A1
330
49F
100
AcDbEntity
  8
BEMA_U_00DFUNG
 62
     7
100
AcDbVertex
100
AcDb2dVertex
 10
89.96981335352939
 20
204.9805319458441
 30
0.0
  0
SEQEND
  5
4A2
330
49F
100
AcDbEntity
  8
BEMA_U_00DFUNG
 62
     7
  0
POLYLINE
  5
4A3
330
1F
100
AcDbEntity
  8
BEMA_U_00DFUNG
 62
     7
100
AcDb2dPolyline
 66
     1
 10
0.0
 20
0.0
 30
0.0
  0
VERTEX
  5
4A4
330
4A3
100
AcDbEntity
  8
BEMA_U_00DFUNG
 62
     7
100
AcDbVertex
100
AcDb2dVertex
 10
89.96981335352939
 20
204.9533680569623
 30
0.0
  0
VERTEX
  5
4A5
330
4A3
100
AcDbEntity
  8
BEMA_U_00DFUNG
 62
     7
100
AcDbVertex
100
AcDb2dVertex
 10
89.96981335352939
 20
204.9805319458441
 30
0.0
  0
SEQEND
  5
4A6
330
4A3
100
AcDbEntity
  8
BEMA_U_00DFUNG
 62
     7
  0
POLYLINE
  5
4A7
330
1F
100
AcDbEntity
  8
BEMA_U_00DFUNG
 62
     7
100
AcDb2dPolyline
 66
     1
 10
0.0
 20
0.0
 30
0.0
  0
VERTEX
  5
4A8
330
4A7
100
AcDbEntity
  8
BEMA_U_00DFUNG
 62
     7
100
AcDbVertex
100
AcDb2dVertex
 10
89.91901335354233
 20
204.9533680569623
 30
0.0
  0
VERTEX
  5
4A9
330
4A7
100
AcDbEntity
  8
BEMA_U_00DFUNG
 62
     7
100
AcDbVertex
100
AcDb2dVertex
 10
89.91901335354233
 20
205.3661180568591
 30
0.0
  0
SEQEND
  5
4AA
330
4A7
100
AcDbEntity
  8
BEMA_U_00DFUNG
 62
     7
  0
POLYLINE
  5
4AB
330
1F
100
AcDbEntity
  8
BEMA_U_00DFUNG
 62
     7
100
AcDb2dPolyline
 66
     1
 10
0.0
 20
0.0
 30
0.0
  0
VERTEX
  5
4AC
330
4AB
100
AcDbEntity
  8
BEMA_U_00DFUNG
 62
     7
100
AcDbVertex
100
AcDb2dVertex
 10
89.86821335355494
 20
204.9533680569623
 30
0.0
  0
VERTEX
  5
4AD
330
4AB
100
AcDbEntity
  8
BEMA_U_00DFUNG
 62
     7
100
AcDbVertex
100
AcDb2dVertex
 10
89.86821335355494
 20
205.752409723429
 30
0.0
  0
SEQEND
  5
4AE
330
4AB
100
AcDbEntity
  8
BEMA_U_00DFUNG
 62
     7
  0
POLYLINE
  5
4AF
330
1F
100
AcDbEntity
  8
BEMA_U_00DFUNG
 62
     7
100
AcDb2dPolyline
 66
     1
 10
0.0
 20
0.0
 30
0.0
  0
VERTEX
  5
4B0
330
4AF
100
AcDbEntity
  8
BEMA_U_00DFUNG
 62
     7
100
AcDbVertex
100
AcDb2dVertex
 10
89.81741335356756
 20
204.9533680569623
 30
0.0
  0
VERTEX
  5
4B1
330
4AF
100
AcDbEntity
  8
BEMA_U_00DFUNG
 62
     7
100
AcDbVertex
100
AcDb2dVertex
 10
89.81741335356756
 20
206.1379958344436
 30
0.0
  0
SEQEND
  5
4B2
330
4AF
100
AcDbEntity
  8
BEMA_U_00DFUNG
 62
     7
  0
POLYLINE
  5
4B3
330
1F
100
AcDbEntity
  8
BEMA_U_00DFUNG
 62
     7
100
AcDb2dPolyline
 66
     1
 10
0.0
 20
0.0
 30
0.0
  0
VERTEX
  5
4B4
330
4B3
100
AcDbEntity
  8
BEMA_U_00DFUNG
 62
     7
100
AcDbVertex
100
AcDb2dVertex
 10
89.76661335358018
 20
204.9533680569623
 30
0.0
  0
VERTEX
  5
4B5
330
4B3
100
AcDbEntity
  8
BEMA_U_00DFUNG
 62
     7
100
AcDbVertex
100
AcDb2dVertex
 10
89.76661335358018
 20
206.523934723236
 30
0.0
  0
SEQEND
  5
4B6
330
4B3
100
AcDbEntity
  8
BEMA_U_00DFUNG
 62
     7
  0
POLYLINE
  5
4B7
330
1F
100
AcDbEntity
  8
BEMA_U_00DFUNG
 62
     7
100
AcDb2dPolyline
 66
     1
 10
0.0
 20
0.0
 30
0.0
  0
VERTEX
  5
4B8
330
4B7
100
AcDbEntity
  8
BEMA_U_00DFUNG
 62
     7
100
AcDbVertex
100
AcDb2dVertex
 10
89.71546057581536
 20
204.9533680569623
 30
0.0
  0
VERTEX
  5
4B9
330
4B7
100
AcDbEntity
  8
BEMA_U_00DFUNG
 62
     7
100
AcDbVertex
100
AcDb2dVertex
 10
89.71546057581536
 20
206.909520834251
 30
0.0
  0
SEQEND
  5
4BA
330
4B7
100
AcDbEntity
  8
BEMA_U_00DFUNG
 62
     7
  0
POLYLINE
  5
4BB
330
1F
100
AcDbEntity
  8
BEMA_U_00DFUNG
 62
     7
100
AcDb2dPolyline
 66
     1
 10
0.0
 20
0.0
 30
0.0
  0
VERTEX
  5
4BC
330
4BB
100
AcDbEntity
  8
BEMA_U_00DFUNG
 62
     7
100
AcDbVertex
100
AcDb2dVertex
 10
89.66466057582797
 20
204.9533680569623
 30
0.0
  0
VERTEX
  5
4BD
330
4BB
100
AcDbEntity
  8
BEMA_U_00DFUNG
 62
     7
100
AcDbVertex
100
AcDb2dVertex
 10
89.66466057582797
 20
207.2958125008209
 30
0.0
  0
SEQEND
  5
4BE
330
4BB
100
AcDbEntity
  8
BEMA_U_00DFUNG
 62
     7
  0
POLYLINE
  5
4BF
330
1F
100
AcDbEntity
  8
BEMA_U_00DFUNG
 62
     7
100
AcDb2dPolyline
 66
     1
 10
0.0
 20
0.0
 30
0.0
  0
VERTEX
  5
4C0
330
4BF
100
AcDbEntity
  8
BEMA_U_00DFUNG
 62
     7
100
AcDbVertex
100
AcDb2dVertex
 10
89.61386057584059
 20
204.9533680569623
 30
0.0
  0
VERTEX
  5
4C1
330
4BF
100
AcDbEntity
  8
BEMA_U_00DFUNG
 62
     7
100
AcDbVertex
100
AcDb2dVertex
 10
89.61386057584059
 20
207.6813986118356
 30
0.0
  0
SEQEND
  5
4C2
330
4BF
100
AcDbEntity
  8
BEMA_U_00DFUNG
 62
     7
  0
POLYLINE
  5
4C3
330
1F
100
AcDbEntity
  8
BEMA_U_00DFUNG
 62
     7
100
AcDb2dPolyline
 66
     1
 10
0.0
 20
0.0
 30
0.0
  0
VERTEX
  5
4C4
330
4C3
100
AcDbEntity
  8
BEMA_U_00DFUNG
 62
     7
100
AcDbVertex
100
AcDb2dVertex
 10
89.56306057585353
 20
204.9533680569623
 30
0.0
  0
VERTEX
  5
4C5
330
4C3
100
AcDbEntity
  8
BEMA_U_00DFUNG
 62
     7
100
AcDbVertex
100
AcDb2dVertex
 10
89.56306057585353
 20
208.0676902784057
 30
0.0
  0
SEQEND
  5
4C6
330
4C3
100
AcDbEntity
  8
BEMA_U_00DFUNG
 62
     7
  0
POLYLINE
  5
4C7
330
1F
100
AcDbEntity
  8
BEMA_U_00DFUNG
 62
     7
100
AcDb2dPolyline
 66
     1
 10
0.0
 20
0.0
 30
0.0
  0
VERTEX
  5
4C8
330
4C7
100
AcDbEntity
  8
BEMA_U_00DFUNG
 62
     7
100
AcDbVertex
100
AcDb2dVertex
 10
89.51226057586615
 20
204.9533680569623
 30
0.0
  0
VERTEX
  5
4C9
330
4C7
100
AcDbEntity
  8
BEMA_U_00DFUNG
 62
     7
100
AcDbVertex
100
AcDb2dVertex
 10
89.51226057586615
 20
208.4529236116429
 30
0.0
  0
SEQEND
  5
4CA
330
4C7
100
AcDbEntity
  8
BEMA_U_00DFUNG
 62
     7
  0
POLYLINE
  5
4CB
330
1F
100
AcDbEntity
  8
BEMA_U_00DFUNG
 62
     7
100
AcDb2dPolyline
 66
     1
 10
0.0
 20
0.0
 30
0.0
  0
VERTEX
  5
4CC
330
4CB
100
AcDbEntity
  8
BEMA_U_00DFUNG
 62
     7
100
AcDbVertex
100
AcDb2dVertex
 10
89.51226057586615
 20
188.4035041722107
 30
0.0
  0
VERTEX
  5
4CD
330
4CB
100
AcDbEntity
  8
BEMA_U_00DFUNG
 62
     7
100
AcDbVertex
100
AcDb2dVertex
 10
89.97334113130636
 20
191.9030597268914
 30
0.0
  0
VERTEX
  5
4CE
330
4CB
100
AcDbEntity
  8
BEMA_U_00DFUNG
 62
     7
100
AcDbVertex
100
AcDb2dVertex
 10
89.05153279820338
 20
191.9030597268914
 30
0.0
  0
VERTEX
  5
4CF
330
4CB
100
AcDbEntity
  8
BEMA_U_00DFUNG
 62
     7
100
AcDbVertex
100
AcDb2dVertex
 10
89.51226057586615
 20
188.4035041722107
 30
0.0
  0
SEQEND
  5
4D0
330
4CB
100
AcDbEntity
  8
BEMA_U_00DFUNG
 62
     7
  0
POLYLINE
  5
4D1
330
1F
100
AcDbEntity
  8
BEMA_U_00DFUNG
 62
     7
100
AcDb2dPolyline
 66
     1
 10
0.0
 20
0.0
 30
0.0
  0
VERTEX
  5
4D2
330
4D1
100
AcDbEntity
  8
BEMA_U_00DFUNG
 62
     7
100
AcDbVertex
100
AcDb2dVertex
 10
89.96981335352939
 20
191.9030597268914
 30
0.0
  0
VERTEX
  5
4D3
330
4D1
100
AcDbEntity
  8
BEMA_U_00DFUNG
 62
     7
100
AcDbVertex
100
AcDb2dVertex
 10
89.96981335352939
 20
191.8758958380092
 30
0.0
  0
SEQEND
  5
4D4
330
4D1
100
AcDbEntity
  8
BEMA_U_00DFUNG
 62
     7
  0
POLYLINE
  5
4D5
330
1F
100
AcDbEntity
  8
BEMA_U_00DFUNG
 62
     7
100
AcDb2dPolyline
 66
     1
 10
0.0
 20
0.0
 30
0.0
  0
VERTEX
  5
4D6
330
4D5
100
AcDbEntity
  8
BEMA_U_00DFUNG
 62
     7
100
AcDbVertex
100
AcDb2dVertex
 10
89.96981335352939
 20
191.9030597268914
 30
0.0
  0
VERTEX
  5
4D7
330
4D5
100
AcDbEntity
  8
BEMA_U_00DFUNG
 62
     7
100
AcDbVertex
100
AcDb2dVertex
 10
89.96981335352939
 20
191.8758958380092
 30
0.0
  0
SEQEND
  5
4D8
330
4D5
100
AcDbEntity
  8
BEMA_U_00DFUNG
 62
     7
  0
POLYLINE
  5
4D9
330
1F
100
AcDbEntity
  8
BEMA_U_00DFUNG
 62
     7
100
AcDb2dPolyline
 66
     1
 10
0.0
 20
0.0
 30
0.0
  0
VERTEX
  5
4DA
330
4D9
100
AcDbEntity
  8
BEMA_U_00DFUNG
 62
     7
100
AcDbVertex
100
AcDb2dVertex
 10
89.91901335354233
 20
191.9030597268914
 30
0.0
  0
VERTEX
  5
4DB
330
4D9
100
AcDbEntity
  8
BEMA_U_00DFUNG
 62
     7
100
AcDbVertex
100
AcDb2dVertex
 10
89.91901335354233
 20
191.4903097269945
 30
0.0
  0
SEQEND
  5
4DC
330
4D9
100
AcDbEntity
  8
BEMA_U_00DFUNG
 62
     7
  0
POLYLINE
  5
4DD
330
1F
100
AcDbEntity
  8
BEMA_U_00DFUNG
 62
     7
100
AcDb2dPolyline
 66
     1
 10
0.0
 20
0.0
 30
0.0
  0
VERTEX
  5
4DE
330
4DD
100
AcDbEntity
  8
BEMA_U_00DFUNG
 62
     7
100
AcDbVertex
100
AcDb2dVertex
 10
89.86821335355494
 20
191.9030597268914
 30
0.0
  0
VERTEX
  5
4DF
330
4DD
100
AcDbEntity
  8
BEMA_U_00DFUNG
 62
     7
100
AcDbVertex
100
AcDb2dVertex
 10
89.86821335355494
 20
191.1040180604244
 30
0.0
  0
SEQEND
  5
4E0
330
4DD
100
AcDbEntity
  8
BEMA_U_00DFUNG
 62
     7
  0
POLYLINE
  5
4E1
330
1F
100
AcDbEntity
  8
BEMA_U_00DFUNG
 62
     7
100
AcDb2dPolyline
 66
     1
 10
0.0
 20
0.0
 30
0.0
  0
VERTEX
  5
4E2
330
4E1
100
AcDbEntity
  8
BEMA_U_00DFUNG
 62
     7
100
AcDbVertex
100
AcDb2dVertex
 10
89.81741335356756
 20
191.9030597268914
 30
0.0
  0
VERTEX
  5
4E3
330
4E1
100
AcDbEntity
  8
BEMA_U_00DFUNG
 62
     7
100
AcDbVertex
100
AcDb2dVertex
 10
89.81741335356756
 20
190.7187847271875
 30
0.0
  0
SEQEND
  5
4E4
330
4E1
100
AcDbEntity
  8
BEMA_U_00DFUNG
 62
     7
  0
POLYLINE
  5
4E5
330
1F
100
AcDbEntity
  8
BEMA_U_00DFUNG
 62
     7
100
AcDb2dPolyline
 66
     1
 10
0.0
 20
0.0
 30
0.0
  0
VERTEX
  5
4E6
330
4E5
100
AcDbEntity
  8
BEMA_U_00DFUNG
 62
     7
100
AcDbVertex
100
AcDb2dVertex
 10
89.76661335358018
 20
191.9030597268914
 30
0.0
  0
VERTEX
  5
4E7
330
4E5
100
AcDbEntity
  8
BEMA_U_00DFUNG
 62
     7
100
AcDbVertex
100
AcDb2dVertex
 10
89.76661335358018
 20
190.3324930606173
 30
0.0
  0
SEQEND
  5
4E8
330
4E5
100
AcDbEntity
  8
BEMA_U_00DFUNG
 62
     7
  0
POLYLINE
  5
4E9
330
1F
100
AcDbEntity
  8
BEMA_U_00DFUNG
 62
     7
100
AcDb2dPolyline
 66
     1
 10
0.0
 20
0.0
 30
0.0
  0
VERTEX
  5
4EA
330
4E9
100
AcDbEntity
  8
BEMA_U_00DFUNG
 62
     7
100
AcDbVertex
100
AcDb2dVertex
 10
89.71546057581536
 20
191.9030597268914
 30
0.0
  0
VERTEX
  5
4EB
330
4E9
100
AcDbEntity
  8
BEMA_U_00DFUNG
 62
     7
100
AcDbVertex
100
AcDb2dVertex
 10
89.71546057581536
 20
189.9469069496026
 30
0.0
  0
SEQEND
  5
4EC
330
4E9
100
AcDbEntity
  8
BEMA_U_00DFUNG
 62
     7
  0
POLYLINE
  5
4ED
330
1F
100
AcDbEntity
  8
BEMA_U_00DFUNG
 62
     7
100
AcDb2dPolyline
 66
     1
 10
0.0
 20
0.0
 30
0.0
  0
VERTEX
  5
4EE
330
4ED
100
AcDbEntity
  8
BEMA_U_00DFUNG
 62
     7
100
AcDbVertex
100
AcDb2dVertex
 10
89.66466057582797
 20
191.9030597268914
 30
0.0
  0
VERTEX
  5
4EF
330
4ED
100
AcDbEntity
  8
BEMA_U_00DFUNG
 62
     7
100
AcDbVertex
100
AcDb2dVertex
 10
89.66466057582797
 20
189.5606152830324
 30
0.0
  0
SEQEND
  5
4F0
330
4ED
100
AcDbEntity
  8
BEMA_U_00DFUNG
 62
     7
  0
POLYLINE
  5
4F1
330
1F
100
AcDbEntity
  8
BEMA_U_00DFUNG
 62
     7
100
AcDb2dPolyline
 66
     1
 10
0.0
 20
0.0
 30
0.0
  0
VERTEX
  5
4F2
330
4F1
100
AcDbEntity
  8
BEMA_U_00DFUNG
 62
     7
100
AcDbVertex
100
AcDb2dVertex
 10
89.61386057584059
 20
191.9030597268914
 30
0.0
  0
VERTEX
  5
4F3
330
4F1
100
AcDbEntity
  8
BEMA_U_00DFUNG
 62
     7
100
AcDbVertex
100
AcDb2dVertex
 10
89.61386057584059
 20
189.1750291720178
 30
0.0
  0
SEQEND
  5
4F4
330
4F1
100
AcDbEntity
  8
BEMA_U_00DFUNG
 62
     7
  0
POLYLINE
  5
4F5
330
1F
100
AcDbEntity
  8
BEMA_U_00DFUNG
 62
     7
100
AcDb2dPolyline
 66
     1
 10
0.0
 20
0.0
 30
0.0
  0
VERTEX
  5
4F6
330
4F5
100
AcDbEntity
  8
BEMA_U_00DFUNG
 62
     7
100
AcDbVertex
100
AcDb2dVertex
 10
89.56306057585353
 20
191.9030597268914
 30
0.0
  0
VERTEX
  5
4F7
330
4F5
100
AcDbEntity
  8
BEMA_U_00DFUNG
 62
     7
100
AcDbVertex
100
AcDb2dVertex
 10
89.56306057585353
 20
188.7890902832253
 30
0.0
  0
SEQEND
  5
4F8
330
4F5
100
AcDbEntity
  8
BEMA_U_00DFUNG
 62
     7
  0
POLYLINE
  5
4F9
330
1F
100
AcDbEntity
  8
BEMA_U_00DFUNG
 62
     7
100
AcDb2dPolyline
 66
     1
 10
0.0
 20
0.0
 30
0.0
  0
VERTEX
  5
4FA
330
4F9
100
AcDbEntity
  8
BEMA_U_00DFUNG
 62
     7
100
AcDbVertex
100
AcDb2dVertex
 10
89.51226057586615
 20
191.9030597268914
 30
0.0
  0
VERTEX
  5
4FB
330
4F9
100
AcDbEntity
  8
BEMA_U_00DFUNG
 62
     7
100
AcDbVertex
100
AcDb2dVertex
 10
89.51226057586615
 20
188.4035041722107
 30
0.0
  0
SEQEND
  5
4FC
330
4F9
100
AcDbEntity
  8
BEMA_U_00DFUNG
 62
     7
  0
POLYLINE
  5
4FD
330
1F
100
AcDbEntity
  8
BEMA_U_00DFUNG
 62
     7
100
AcDb2dPolyline
 66
     1
 10
0.0
 20
0.0
 30
0.0
  0
VERTEX
  5
4FE
330
4FD
100
AcDbEntity
  8
BEMA_U_00DFUNG
 62
     7
100
AcDbVertex
100
AcDb2dVertex
 10
89.05506057598035
 20
191.9030597268914
 30
0.0
  0
VERTEX
  5
4FF
330
4FD
100
AcDbEntity
  8
BEMA_U_00DFUNG
 62
     7
100
AcDbVertex
100
AcDb2dVertex
 10
89.05506057598035
 20
191.8758958380092
 30
0.0
  0
SEQEND
  5
500
330
4FD
100
AcDbEntity
  8
BEMA_U_00DFUNG
 62
     7
  0
POLYLINE
  5
501
330
1F
100
AcDbEntity
  8
BEMA_U_00DFUNG
 62
     7
100
AcDb2dPolyline
 66
     1
 10
0.0
 20
0.0
 30
0.0
  0
VERTEX
  5
502
330
501
100
AcDbEntity
  8
BEMA_U_00DFUNG
 62
     7
100
AcDbVertex
100
AcDb2dVertex
 10
89.05506057598035
 20
191.9030597268914
 30
0.0
  0
VERTEX
  5
503
330
501
100
AcDbEntity
  8
BEMA_U_00DFUNG
 62
     7
100
AcDbVertex
100
AcDb2dVertex
 10
89.05506057598035
 20
191.8758958380092
 30
0.0
  0
SEQEND
  5
504
330
501
100
AcDbEntity
  8
BEMA_U_00DFUNG
 62
     7
  0
POLYLINE
  5
505
330
1F
100
AcDbEntity
  8
BEMA_U_00DFUNG
 62
     7
100
AcDb2dPolyline
 66
     1
 10
0.0
 20
0.0
 30
0.0
  0
VERTEX
  5
506
330
505
100
AcDbEntity
  8
BEMA_U_00DFUNG
 62
     7
100
AcDbVertex
100
AcDb2dVertex
 10
89.10586057596772
 20
191.9030597268914
 30
0.0
  0
VERTEX
  5
507
330
505
100
AcDbEntity
  8
BEMA_U_00DFUNG
 62
     7
100
AcDbVertex
100
AcDb2dVertex
 10
89.10586057596772
 20
191.4903097269945
 30
0.0
  0
SEQEND
  5
508
330
505
100
AcDbEntity
  8
BEMA_U_00DFUNG
 62
     7
  0
POLYLINE
  5
509
330
1F
100
AcDbEntity
  8
BEMA_U_00DFUNG
 62
     7
100
AcDb2dPolyline
 66
     1
 10
0.0
 20
0.0
 30
0.0
  0
VERTEX
  5
50A
330
509
100
AcDbEntity
  8
BEMA_U_00DFUNG
 62
     7
100
AcDbVertex
100
AcDb2dVertex
 10
89.15666057595512
 20
191.9030597268914
 30
0.0
  0
VERTEX
  5
50B
330
509
100
AcDbEntity
  8
BEMA_U_00DFUNG
 62
     7
100
AcDbVertex
100
AcDb2dVertex
 10
89.15666057595512
 20
191.1040180604244
 30
0.0
  0
SEQEND
  5
50C
330
509
100
AcDbEntity
  8
BEMA_U_00DFUNG
 62
     7
  0
POLYLINE
  5
50D
330
1F
100
AcDbEntity
  8
BEMA_U_00DFUNG
 62
     7
100
AcDb2dPolyline
 66
     1
 10
0.0
 20
0.0
 30
0.0
  0
VERTEX
  5
50E
330
50D
100
AcDbEntity
  8
BEMA_U_00DFUNG
 62
     7
100
AcDbVertex
100
AcDb2dVertex
 10
89.20746057594218
 20
191.9030597268914
 30
0.0
  0
VERTEX
  5
50F
330
50D
100
AcDbEntity
  8
BEMA_U_00DFUNG
 62
     7
100
AcDbVertex
100
AcDb2dVertex
 10
89.20746057594218
 20
190.7187847271875
 30
0.0
  0
SEQEND
  5
510
330
50D
100
AcDbEntity
  8
BEMA_U_00DFUNG
 62
     7
  0
POLYLINE
  5
511
330
1F
100
AcDbEntity
  8
BEMA_U_00DFUNG
 62
     7
100
AcDb2dPolyline
 66
     1
 10
0.0
 20
0.0
 30
0.0
  0
VERTEX
  5
512
330
511
100
AcDbEntity
  8
BEMA_U_00DFUNG
 62
     7
100
AcDbVertex
100
AcDb2dVertex
 10
89.25861335370732
 20
191.9030597268914
 30
0.0
  0
VERTEX
  5
513
330
511
100
AcDbEntity
  8
BEMA_U_00DFUNG
 62
     7
100
AcDbVertex
100
AcDb2dVertex
 10
89.25861335370732
 20
190.3324930606173
 30
0.0
  0
SEQEND
  5
514
330
511
100
AcDbEntity
  8
BEMA_U_00DFUNG
 62
     7
  0
POLYLINE
  5
515
330
1F
100
AcDbEntity
  8
BEMA_U_00DFUNG
 62
     7
100
AcDb2dPolyline
 66
     1
 10
0.0
 20
0.0
 30
0.0
  0
VERTEX
  5
516
330
515
100
AcDbEntity
  8
BEMA_U_00DFUNG
 62
     7
100
AcDbVertex
100
AcDb2dVertex
 10
89.3094133536947
 20
191.9030597268914
 30
0.0
  0
VERTEX
  5
517
330
515
100
AcDbEntity
  8
BEMA_U_00DFUNG
 62
     7
100
AcDbVertex
100
AcDb2dVertex
 10
89.3094133536947
 20
189.9469069496026
 30
0.0
  0
SEQEND
  5
518
330
515
100
AcDbEntity
  8
BEMA_U_00DFUNG
 62
     7
  0
POLYLINE
  5
519
330
1F
100
AcDbEntity
  8
BEMA_U_00DFUNG
 62
     7
100
AcDb2dPolyline
 66
     1
 10
0.0
 20
0.0
 30
0.0
  0
VERTEX
  5
51A
330
519
100
AcDbEntity
  8
BEMA_U_00DFUNG
 62
     7
100
AcDbVertex
100
AcDb2dVertex
 10
89.36021335368176
 20
191.9030597268914
 30
0.0
  0
VERTEX
  5
51B
330
519
100
AcDbEntity
  8
BEMA_U_00DFUNG
 62
     7
100
AcDbVertex
100
AcDb2dVertex
 10
89.36021335368176
 20
189.5606152830324
 30
0.0
  0
SEQEND
  5
51C
330
519
100
AcDbEntity
  8
BEMA_U_00DFUNG
 62
     7
  0
POLYLINE
  5
51D
330
1F
100
AcDbEntity
  8
BEMA_U_00DFUNG
 62
     7
100
AcDb2dPolyline
 66
     1
 10
0.0
 20
0.0
 30
0.0
  0
VERTEX
  5
51E
330
51D
100
AcDbEntity
  8
BEMA_U_00DFUNG
 62
     7
100
AcDbVertex
100
AcDb2dVertex
 10
89.41101335366915
 20
191.9030597268914
 30
0.0
  0
VERTEX
  5
51F
330
51D
100
AcDbEntity
  8
BEMA_U_00DFUNG
 62
     7
100
AcDbVertex
100
AcDb2dVertex
 10
89.41101335366915
 20
189.1750291720178
 30
0.0
  0
SEQEND
  5
520
330
51D
100
AcDbEntity
  8
BEMA_U_00DFUNG
 62
     7
  0
POLYLINE
  5
521
330
1F
100
AcDbEntity
  8
BEMA_U_00DFUNG
 62
     7
100
AcDb2dPolyline
 66
     1
 10
0.0
 20
0.0
 30
0.0
  0
VERTEX
  5
522
330
521
100
AcDbEntity
  8
BEMA_U_00DFUNG
 62
     7
100
AcDbVertex
100
AcDb2dVertex
 10
89.46181335365652
 20
191.9030597268914
 30
0.0
  0
VERTEX
  5
523
330
521
100
AcDbEntity
  8
BEMA_U_00DFUNG
 62
     7
100
AcDbVertex
100
AcDb2dVertex
 10
89.46181335365652
 20
188.7890902832253
 30
0.0
  0
SEQEND
  5
524
330
521
100
AcDbEntity
  8
BEMA_U_00DFUNG
 62
     7
  0
POLYLINE
  5
525
330
1F
100
AcDbEntity
  8
BEMA_U_00DFUNG
 62
     7
100
AcDb2dPolyline
 66
     1
 10
0.0
 20
0.0
 30
0.0
  0
VERTEX
  5
526
330
525
100
AcDbEntity
  8
BEMA_U_00DFUNG
 62
     7
100
AcDbVertex
100
AcDb2dVertex
 10
89.51226057586615
 20
191.9030597268914
 30
0.0
  0
VERTEX
  5
527
330
525
100
AcDbEntity
  8
BEMA_U_00DFUNG
 62
     7
100
AcDbVertex
100
AcDb2dVertex
 10
89.51226057586615
 20
188.4035041722107
 30
0.0
  0
SEQEND
  5
528
330
525
100
AcDbEntity
  8
BEMA_U_00DFUNG
 62
     7
  0
POLYLINE
  5
529
330
1F
100
AcDbEntity
  8
BEMA_U_00DFUNG
 62
     7
100
AcDb2dPolyline
 66
     1
 10
0.0
 20
0.0
 30
0.0
  0
VERTEX
  5
52A
330
529
100
AcDbEntity
  8
BEMA_U_00DFUNG
 62
     7
100
AcDbVertex
100
AcDb2dVertex
 10
124.5124022337827
 20
212.4280236106492
 30
0.0
  0
VERTEX
  5
52B
330
529
100
AcDbEntity
  8
BEMA_U_00DFUNG
 62
     7
100
AcDbVertex
100
AcDb2dVertex
 10
77.51252446775486
 20
212.4280236106492
 30
0.0
  0
SEQEND
  5
52C
330
529
100
AcDbEntity
  8
BEMA_U_00DFUNG
 62
     7
  0
POLYLINE
  5
52D
330
1F
100
AcDbEntity
  8
BEMA_U_00DFUNG
 62
     7
100
AcDb2dPolyline
 66
     1
 10
0.0
 20
0.0
 30
0.0
  0
VERTEX
  5
52E
330
52D
100
AcDbEntity
  8
BEMA_U_00DFUNG
 62
     7
100
AcDbVertex
100
AcDb2dVertex
 10
124.5124022337827
 20
184.4280513954267
 30
0.0
  0
VERTEX
  5
52F
330
52D
100
AcDbEntity
  8
BEMA_U_00DFUNG
 62
     7
100
AcDbVertex
100
AcDb2dVertex
 10
77.51252446775486
 20
184.4280513954267
 30
0.0
  0
SEQEND
  5
530
330
52D
100
AcDbEntity
  8
BEMA_U_00DFUNG
 62
     7
  0
POLYLINE
  5
531
330
1F
100
AcDbEntity
  8
BEMA_U_00DFUNG
 62
     7
100
AcDb2dPolyline
 66
     1
 10
0.0
 20
0.0
 30
0.0
  0
VERTEX
  5
532
330
531
100
AcDbEntity
  8
BEMA_U_00DFUNG
 62
     7
100
AcDbVertex
100
AcDb2dVertex
 10
79.51206891169961
 20
212.4280236106492
 30
0.0
  0
VERTEX
  5
533
330
531
100
AcDbEntity
  8
BEMA_U_00DFUNG
 62
     7
100
AcDbVertex
100
AcDb2dVertex
 10
79.51206891169961
 20
184.4280513954267
 30
0.0
  0
SEQEND
  5
534
330
531
100
AcDbEntity
  8
BEMA_U_00DFUNG
 62
     7
  0
POLYLINE
  5
535
330
1F
100
AcDbEntity
  8
BEMA_U_00DFUNG
 62
     7
100
AcDb2dPolyline
 66
     1
 10
0.0
 20
0.0
 30
0.0
  0
VERTEX
  5
536
330
535
100
AcDbEntity
  8
BEMA_U_00DFUNG
 62
     7
100
AcDbVertex
100
AcDb2dVertex
 10
79.51206891169961
 20
212.4280236106492
 30
0.0
  0
VERTEX
  5
537
330
535
100
AcDbEntity
  8
BEMA_U_00DFUNG
 62
     7
100
AcDbVertex
100
AcDb2dVertex
 10
79.05169391181461
 20
208.9284680559685
 30
0.0
  0
VERTEX
  5
538
330
535
100
AcDbEntity
  8
BEMA_U_00DFUNG
 62
     7
100
AcDbVertex
100
AcDb2dVertex
 10
79.97350224491758
 20
208.9284680559685
 30
0.0
  0
VERTEX
  5
539
330
535
100
AcDbEntity
  8
BEMA_U_00DFUNG
 62
     7
100
AcDbVertex
100
AcDb2dVertex
 10
79.51206891169961
 20
212.4280236106492
 30
0.0
  0
SEQEND
  5
53A
330
535
100
AcDbEntity
  8
BEMA_U_00DFUNG
 62
     7
  0
POLYLINE
  5
53B
330
1F
100
AcDbEntity
  8
BEMA_U_00DFUNG
 62
     7
100
AcDb2dPolyline
 66
     1
 10
0.0
 20
0.0
 30
0.0
  0
VERTEX
  5
53C
330
53B
100
AcDbEntity
  8
BEMA_U_00DFUNG
 62
     7
100
AcDbVertex
100
AcDb2dVertex
 10
79.05522168959158
 20
208.9284680559685
 30
0.0
  0
VERTEX
  5
53D
330
53B
100
AcDbEntity
  8
BEMA_U_00DFUNG
 62
     7
100
AcDbVertex
100
AcDb2dVertex
 10
79.05522168959158
 20
208.9556319448504
 30
0.0
  0
SEQEND
  5
53E
330
53B
100
AcDbEntity
  8
BEMA_U_00DFUNG
 62
     7
  0
POLYLINE
  5
53F
330
1F
100
AcDbEntity
  8
BEMA_U_00DFUNG
 62
     7
100
AcDb2dPolyline
 66
     1
 10
0.0
 20
0.0
 30
0.0
  0
VERTEX
  5
540
330
53F
100
AcDbEntity
  8
BEMA_U_00DFUNG
 62
     7
100
AcDbVertex
100
AcDb2dVertex
 10
79.05522168959158
 20
208.9284680559685
 30
0.0
  0
VERTEX
  5
541
330
53F
100
AcDbEntity
  8
BEMA_U_00DFUNG
 62
     7
100
AcDbVertex
100
AcDb2dVertex
 10
79.05522168959158
 20
208.9556319448504
 30
0.0
  0
SEQEND
  5
542
330
53F
100
AcDbEntity
  8
BEMA_U_00DFUNG
 62
     7
  0
POLYLINE
  5
543
330
1F
100
AcDbEntity
  8
BEMA_U_00DFUNG
 62
     7
100
AcDb2dPolyline
 66
     1
 10
0.0
 20
0.0
 30
0.0
  0
VERTEX
  5
544
330
543
100
AcDbEntity
  8
BEMA_U_00DFUNG
 62
     7
100
AcDbVertex
100
AcDb2dVertex
 10
79.10602168957864
 20
208.9284680559685
 30
0.0
  0
VERTEX
  5
545
330
543
100
AcDbEntity
  8
BEMA_U_00DFUNG
 62
     7
100
AcDbVertex
100
AcDb2dVertex
 10
79.10602168957864
 20
209.3412180558653
 30
0.0
  0
SEQEND
  5
546
330
543
100
AcDbEntity
  8
BEMA_U_00DFUNG
 62
     7
  0
POLYLINE
  5
547
330
1F
100
AcDbEntity
  8
BEMA_U_00DFUNG
 62
     7
100
AcDb2dPolyline
 66
     1
 10
0.0
 20
0.0
 30
0.0
  0
VERTEX
  5
548
330
547
100
AcDbEntity
  8
BEMA_U_00DFUNG
 62
     7
100
AcDbVertex
100
AcDb2dVertex
 10
79.15682168956602
 20
208.9284680559685
 30
0.0
  0
VERTEX
  5
549
330
547
100
AcDbEntity
  8
BEMA_U_00DFUNG
 62
     7
100
AcDbVertex
100
AcDb2dVertex
 10
79.15682168956602
 20
209.7275097224352
 30
0.0
  0
SEQEND
  5
54A
330
547
100
AcDbEntity
  8
BEMA_U_00DFUNG
 62
     7
  0
POLYLINE
  5
54B
330
1F
100
AcDbEntity
  8
BEMA_U_00DFUNG
 62
     7
100
AcDb2dPolyline
 66
     1
 10
0.0
 20
0.0
 30
0.0
  0
VERTEX
  5
54C
330
54B
100
AcDbEntity
  8
BEMA_U_00DFUNG
 62
     7
100
AcDbVertex
100
AcDb2dVertex
 10
79.2076216895534
 20
208.9284680559685
 30
0.0
  0
VERTEX
  5
54D
330
54B
100
AcDbEntity
  8
BEMA_U_00DFUNG
 62
     7
100
AcDbVertex
100
AcDb2dVertex
 10
79.2076216895534
 20
210.1130958334498
 30
0.0
  0
SEQEND
  5
54E
330
54B
100
AcDbEntity
  8
BEMA_U_00DFUNG
 62
     7
  0
POLYLINE
  5
54F
330
1F
100
AcDbEntity
  8
BEMA_U_00DFUNG
 62
     7
100
AcDb2dPolyline
 66
     1
 10
0.0
 20
0.0
 30
0.0
  0
VERTEX
  5
550
330
54F
100
AcDbEntity
  8
BEMA_U_00DFUNG
 62
     7
100
AcDbVertex
100
AcDb2dVertex
 10
79.25842168954078
 20
208.9284680559685
 30
0.0
  0
VERTEX
  5
551
330
54F
100
AcDbEntity
  8
BEMA_U_00DFUNG
 62
     7
100
AcDbVertex
100
AcDb2dVertex
 10
79.25842168954078
 20
210.4990347222423
 30
0.0
  0
SEQEND
  5
552
330
54F
100
AcDbEntity
  8
BEMA_U_00DFUNG
 62
     7
  0
POLYLINE
  5
553
330
1F
100
AcDbEntity
  8
BEMA_U_00DFUNG
 62
     7
100
AcDb2dPolyline
 66
     1
 10
0.0
 20
0.0
 30
0.0
  0
VERTEX
  5
554
330
553
100
AcDbEntity
  8
BEMA_U_00DFUNG
 62
     7
100
AcDbVertex
100
AcDb2dVertex
 10
79.30957446730561
 20
208.9284680559685
 30
0.0
  0
VERTEX
  5
555
330
553
100
AcDbEntity
  8
BEMA_U_00DFUNG
 62
     7
100
AcDbVertex
100
AcDb2dVertex
 10
79.30957446730561
 20
210.8846208332573
 30
0.0
  0
SEQEND
  5
556
330
553
100
AcDbEntity
  8
BEMA_U_00DFUNG
 62
     7
  0
POLYLINE
  5
557
330
1F
100
AcDbEntity
  8
BEMA_U_00DFUNG
 62
     7
100
AcDb2dPolyline
 66
     1
 10
0.0
 20
0.0
 30
0.0
  0
VERTEX
  5
558
330
557
100
AcDbEntity
  8
BEMA_U_00DFUNG
 62
     7
100
AcDbVertex
100
AcDb2dVertex
 10
79.36037446729298
 20
208.9284680559685
 30
0.0
  0
VERTEX
  5
559
330
557
100
AcDbEntity
  8
BEMA_U_00DFUNG
 62
     7
100
AcDbVertex
100
AcDb2dVertex
 10
79.36037446729298
 20
211.2709124998271
 30
0.0
  0
SEQEND
  5
55A
330
557
100
AcDbEntity
  8
BEMA_U_00DFUNG
 62
     7
  0
POLYLINE
  5
55B
330
1F
100
AcDbEntity
  8
BEMA_U_00DFUNG
 62
     7
100
AcDb2dPolyline
 66
     1
 10
0.0
 20
0.0
 30
0.0
  0
VERTEX
  5
55C
330
55B
100
AcDbEntity
  8
BEMA_U_00DFUNG
 62
     7
100
AcDbVertex
100
AcDb2dVertex
 10
79.41117446728038
 20
208.9284680559685
 30
0.0
  0
VERTEX
  5
55D
330
55B
100
AcDbEntity
  8
BEMA_U_00DFUNG
 62
     7
100
AcDbVertex
100
AcDb2dVertex
 10
79.41117446728038
 20
211.6564986108418
 30
0.0
  0
SEQEND
  5
55E
330
55B
100
AcDbEntity
  8
BEMA_U_00DFUNG
 62
     7
  0
POLYLINE
  5
55F
330
1F
100
AcDbEntity
  8
BEMA_U_00DFUNG
 62
     7
100
AcDb2dPolyline
 66
     1
 10
0.0
 20
0.0
 30
0.0
  0
VERTEX
  5
560
330
55F
100
AcDbEntity
  8
BEMA_U_00DFUNG
 62
     7
100
AcDbVertex
100
AcDb2dVertex
 10
79.46197446726744
 20
208.9284680559685
 30
0.0
  0
VERTEX
  5
561
330
55F
100
AcDbEntity
  8
BEMA_U_00DFUNG
 62
     7
100
AcDbVertex
100
AcDb2dVertex
 10
79.46197446726744
 20
212.0424374996342
 30
0.0
  0
SEQEND
  5
562
330
55F
100
AcDbEntity
  8
BEMA_U_00DFUNG
 62
     7
  0
POLYLINE
  5
563
330
1F
100
AcDbEntity
  8
BEMA_U_00DFUNG
 62
     7
100
AcDb2dPolyline
 66
     1
 10
0.0
 20
0.0
 30
0.0
  0
VERTEX
  5
564
330
563
100
AcDbEntity
  8
BEMA_U_00DFUNG
 62
     7
100
AcDbVertex
100
AcDb2dVertex
 10
79.51206891169961
 20
208.9284680559685
 30
0.0
  0
VERTEX
  5
565
330
563
100
AcDbEntity
  8
BEMA_U_00DFUNG
 62
     7
100
AcDbVertex
100
AcDb2dVertex
 10
79.51206891169961
 20
212.4280236106492
 30
0.0
  0
SEQEND
  5
566
330
563
100
AcDbEntity
  8
BEMA_U_00DFUNG
 62
     7
  0
POLYLINE
  5
567
330
1F
100
AcDbEntity
  8
BEMA_U_00DFUNG
 62
     7
100
AcDb2dPolyline
 66
     1
 10
0.0
 20
0.0
 30
0.0
  0
VERTEX
  5
568
330
567
100
AcDbEntity
  8
BEMA_U_00DFUNG
 62
     7
100
AcDbVertex
100
AcDb2dVertex
 10
79.96997446714062
 20
208.9284680559685
 30
0.0
  0
VERTEX
  5
569
330
567
100
AcDbEntity
  8
BEMA_U_00DFUNG
 62
     7
100
AcDbVertex
100
AcDb2dVertex
 10
79.96997446714062
 20
208.9556319448504
 30
0.0
  0
SEQEND
  5
56A
330
567
100
AcDbEntity
  8
BEMA_U_00DFUNG
 62
     7
  0
POLYLINE
  5
56B
330
1F
100
AcDbEntity
  8
BEMA_U_00DFUNG
 62
     7
100
AcDb2dPolyline
 66
     1
 10
0.0
 20
0.0
 30
0.0
  0
VERTEX
  5
56C
330
56B
100
AcDbEntity
  8
BEMA_U_00DFUNG
 62
     7
100
AcDbVertex
100
AcDb2dVertex
 10
79.96997446714062
 20
208.9284680559685
 30
0.0
  0
VERTEX
  5
56D
330
56B
100
AcDbEntity
  8
BEMA_U_00DFUNG
 62
     7
100
AcDbVertex
100
AcDb2dVertex
 10
79.96997446714062
 20
208.9556319448504
 30
0.0
  0
SEQEND
  5
56E
330
56B
100
AcDbEntity
  8
BEMA_U_00DFUNG
 62
     7
  0
POLYLINE
  5
56F
330
1F
100
AcDbEntity
  8
BEMA_U_00DFUNG
 62
     7
100
AcDb2dPolyline
 66
     1
 10
0.0
 20
0.0
 30
0.0
  0
VERTEX
  5
570
330
56F
100
AcDbEntity
  8
BEMA_U_00DFUNG
 62
     7
100
AcDbVertex
100
AcDb2dVertex
 10
79.91917446715323
 20
208.9284680559685
 30
0.0
  0
VERTEX
  5
571
330
56F
100
AcDbEntity
  8
BEMA_U_00DFUNG
 62
     7
100
AcDbVertex
100
AcDb2dVertex
 10
79.91917446715323
 20
209.3412180558653
 30
0.0
  0
SEQEND
  5
572
330
56F
100
AcDbEntity
  8
BEMA_U_00DFUNG
 62
     7
  0
POLYLINE
  5
573
330
1F
100
AcDbEntity
  8
BEMA_U_00DFUNG
 62
     7
100
AcDb2dPolyline
 66
     1
 10
0.0
 20
0.0
 30
0.0
  0
VERTEX
  5
574
330
573
100
AcDbEntity
  8
BEMA_U_00DFUNG
 62
     7
100
AcDbVertex
100
AcDb2dVertex
 10
79.86837446716585
 20
208.9284680559685
 30
0.0
  0
VERTEX
  5
575
330
573
100
AcDbEntity
  8
BEMA_U_00DFUNG
 62
     7
100
AcDbVertex
100
AcDb2dVertex
 10
79.86837446716585
 20
209.7275097224352
 30
0.0
  0
SEQEND
  5
576
330
573
100
AcDbEntity
  8
BEMA_U_00DFUNG
 62
     7
  0
POLYLINE
  5
577
330
1F
100
AcDbEntity
  8
BEMA_U_00DFUNG
 62
     7
100
AcDb2dPolyline
 66
     1
 10
0.0
 20
0.0
 30
0.0
  0
VERTEX
  5
578
330
577
100
AcDbEntity
  8
BEMA_U_00DFUNG
 62
     7
100
AcDbVertex
100
AcDb2dVertex
 10
79.81757446717879
 20
208.9284680559685
 30
0.0
  0
VERTEX
  5
579
330
577
100
AcDbEntity
  8
BEMA_U_00DFUNG
 62
     7
100
AcDbVertex
100
AcDb2dVertex
 10
79.81757446717879
 20
210.1130958334498
 30
0.0
  0
SEQEND
  5
57A
330
577
100
AcDbEntity
  8
BEMA_U_00DFUNG
 62
     7
  0
POLYLINE
  5
57B
330
1F
100
AcDbEntity
  8
BEMA_U_00DFUNG
 62
     7
100
AcDb2dPolyline
 66
     1
 10
0.0
 20
0.0
 30
0.0
  0
VERTEX
  5
57C
330
57B
100
AcDbEntity
  8
BEMA_U_00DFUNG
 62
     7
100
AcDbVertex
100
AcDb2dVertex
 10
79.76642168941365
 20
208.9284680559685
 30
0.0
  0
VERTEX
  5
57D
330
57B
100
AcDbEntity
  8
BEMA_U_00DFUNG
 62
     7
100
AcDbVertex
100
AcDb2dVertex
 10
79.76642168941365
 20
210.4990347222423
 30
0.0
  0
SEQEND
  5
57E
330
57B
100
AcDbEntity
  8
BEMA_U_00DFUNG
 62
     7
  0
POLYLINE
  5
57F
330
1F
100
AcDbEntity
  8
BEMA_U_00DFUNG
 62
     7
100
AcDb2dPolyline
 66
     1
 10
0.0
 20
0.0
 30
0.0
  0
VERTEX
  5
580
330
57F
100
AcDbEntity
  8
BEMA_U_00DFUNG
 62
     7
100
AcDbVertex
100
AcDb2dVertex
 10
79.71562168942626
 20
208.9284680559685
 30
0.0
  0
VERTEX
  5
581
330
57F
100
AcDbEntity
  8
BEMA_U_00DFUNG
 62
     7
100
AcDbVertex
100
AcDb2dVertex
 10
79.71562168942626
 20
210.8846208332573
 30
0.0
  0
SEQEND
  5
582
330
57F
100
AcDbEntity
  8
BEMA_U_00DFUNG
 62
     7
  0
POLYLINE
  5
583
330
1F
100
AcDbEntity
  8
BEMA_U_00DFUNG
 62
     7
100
AcDb2dPolyline
 66
     1
 10
0.0
 20
0.0
 30
0.0
  0
VERTEX
  5
584
330
583
100
AcDbEntity
  8
BEMA_U_00DFUNG
 62
     7
100
AcDbVertex
100
AcDb2dVertex
 10
79.66482168943921
 20
208.9284680559685
 30
0.0
  0
VERTEX
  5
585
330
583
100
AcDbEntity
  8
BEMA_U_00DFUNG
 62
     7
100
AcDbVertex
100
AcDb2dVertex
 10
79.66482168943921
 20
211.2709124998271
 30
0.0
  0
SEQEND
  5
586
330
583
100
AcDbEntity
  8
BEMA_U_00DFUNG
 62
     7
  0
POLYLINE
  5
587
330
1F
100
AcDbEntity
  8
BEMA_U_00DFUNG
 62
     7
100
AcDb2dPolyline
 66
     1
 10
0.0
 20
0.0
 30
0.0
  0
VERTEX
  5
588
330
587
100
AcDbEntity
  8
BEMA_U_00DFUNG
 62
     7
100
AcDbVertex
100
AcDb2dVertex
 10
79.61402168945182
 20
208.9284680559685
 30
0.0
  0
VERTEX
  5
589
330
587
100
AcDbEntity
  8
BEMA_U_00DFUNG
 62
     7
100
AcDbVertex
100
AcDb2dVertex
 10
79.61402168945182
 20
211.6564986108418
 30
0.0
  0
SEQEND
  5
58A
330
587
100
AcDbEntity
  8
BEMA_U_00DFUNG
 62
     7
  0
POLYLINE
  5
58B
330
1F
100
AcDbEntity
  8
BEMA_U_00DFUNG
 62
     7
100
AcDb2dPolyline
 66
     1
 10
0.0
 20
0.0
 30
0.0
  0
VERTEX
  5
58C
330
58B
100
AcDbEntity
  8
BEMA_U_00DFUNG
 62
     7
100
AcDbVertex
100
AcDb2dVertex
 10
79.56322168946444
 20
208.9284680559685
 30
0.0
  0
VERTEX
  5
58D
330
58B
100
AcDbEntity
  8
BEMA_U_00DFUNG
 62
     7
100
AcDbVertex
100
AcDb2dVertex
 10
79.56322168946444
 20
212.0424374996342
 30
0.0
  0
SEQEND
  5
58E
330
58B
100
AcDbEntity
  8
BEMA_U_00DFUNG
 62
     7
  0
POLYLINE
  5
58F
330
1F
100
AcDbEntity
  8
BEMA_U_00DFUNG
 62
     7
100
AcDb2dPolyline
 66
     1
 10
0.0
 20
0.0
 30
0.0
  0
VERTEX
  5
590
330
58F
100
AcDbEntity
  8
BEMA_U_00DFUNG
 62
     7
100
AcDbVertex
100
AcDb2dVertex
 10
79.51206891169961
 20
208.9284680559685
 30
0.0
  0
VERTEX
  5
591
330
58F
100
AcDbEntity
  8
BEMA_U_00DFUNG
 62
     7
100
AcDbVertex
100
AcDb2dVertex
 10
79.51206891169961
 20
212.4280236106492
 30
0.0
  0
SEQEND
  5
592
330
58F
100
AcDbEntity
  8
BEMA_U_00DFUNG
 62
     7
  0
POLYLINE
  5
593
330
1F
100
AcDbEntity
  8
BEMA_U_00DFUNG
 62
     7
100
AcDb2dPolyline
 66
     1
 10
0.0
 20
0.0
 30
0.0
  0
VERTEX
  5
594
330
593
100
AcDbEntity
  8
BEMA_U_00DFUNG
 62
     7
100
AcDbVertex
100
AcDb2dVertex
 10
79.51206891169961
 20
184.4280513954267
 30
0.0
  0
VERTEX
  5
595
330
593
100
AcDbEntity
  8
BEMA_U_00DFUNG
 62
     7
100
AcDbVertex
100
AcDb2dVertex
 10
79.97350224491758
 20
187.9283125056629
 30
0.0
  0
VERTEX
  5
596
330
593
100
AcDbEntity
  8
BEMA_U_00DFUNG
 62
     7
100
AcDbVertex
100
AcDb2dVertex
 10
79.05169391181461
 20
187.9283125056629
 30
0.0
  0
VERTEX
  5
597
330
593
100
AcDbEntity
  8
BEMA_U_00DFUNG
 62
     7
100
AcDbVertex
100
AcDb2dVertex
 10
79.51206891169961
 20
184.4280513954267
 30
0.0
  0
SEQEND
  5
598
330
593
100
AcDbEntity
  8
BEMA_U_00DFUNG
 62
     7
  0
POLYLINE
  5
599
330
1F
100
AcDbEntity
  8
BEMA_U_00DFUNG
 62
     7
100
AcDb2dPolyline
 66
     1
 10
0.0
 20
0.0
 30
0.0
  0
VERTEX
  5
59A
330
599
100
AcDbEntity
  8
BEMA_U_00DFUNG
 62
     7
100
AcDbVertex
100
AcDb2dVertex
 10
79.96997446714062
 20
187.9283125056629
 30
0.0
  0
VERTEX
  5
59B
330
599
100
AcDbEntity
  8
BEMA_U_00DFUNG
 62
     7
100
AcDbVertex
100
AcDb2dVertex
 10
79.96997446714062
 20
187.9011486167807
 30
0.0
  0
SEQEND
  5
59C
330
599
100
AcDbEntity
  8
BEMA_U_00DFUNG
 62
     7
  0
POLYLINE
  5
59D
330
1F
100
AcDbEntity
  8
BEMA_U_00DFUNG
 62
     7
100
AcDb2dPolyline
 66
     1
 10
0.0
 20
0.0
 30
0.0
  0
VERTEX
  5
59E
330
59D
100
AcDbEntity
  8
BEMA_U_00DFUNG
 62
     7
100
AcDbVertex
100
AcDb2dVertex
 10
79.96997446714062
 20
187.9283125056629
 30
0.0
  0
VERTEX
  5
59F
330
59D
100
AcDbEntity
  8
BEMA_U_00DFUNG
 62
     7
100
AcDbVertex
100
AcDb2dVertex
 10
79.96997446714062
 20
187.9011486167807
 30
0.0
  0
SEQEND
  5
5A0
330
59D
100
AcDbEntity
  8
BEMA_U_00DFUNG
 62
     7
  0
POLYLINE
  5
5A1
330
1F
100
AcDbEntity
  8
BEMA_U_00DFUNG
 62
     7
100
AcDb2dPolyline
 66
     1
 10
0.0
 20
0.0
 30
0.0
  0
VERTEX
  5
5A2
330
5A1
100
AcDbEntity
  8
BEMA_U_00DFUNG
 62
     7
100
AcDbVertex
100
AcDb2dVertex
 10
79.91917446715323
 20
187.9283125056629
 30
0.0
  0
VERTEX
  5
5A3
330
5A1
100
AcDbEntity
  8
BEMA_U_00DFUNG
 62
     7
100
AcDbVertex
100
AcDb2dVertex
 10
79.91917446715323
 20
187.5148569502105
 30
0.0
  0
SEQEND
  5
5A4
330
5A1
100
AcDbEntity
  8
BEMA_U_00DFUNG
 62
     7
  0
POLYLINE
  5
5A5
330
1F
100
AcDbEntity
  8
BEMA_U_00DFUNG
 62
     7
100
AcDb2dPolyline
 66
     1
 10
0.0
 20
0.0
 30
0.0
  0
VERTEX
  5
5A6
330
5A5
100
AcDbEntity
  8
BEMA_U_00DFUNG
 62
     7
100
AcDbVertex
100
AcDb2dVertex
 10
79.86837446716585
 20
187.9283125056629
 30
0.0
  0
VERTEX
  5
5A7
330
5A5
100
AcDbEntity
  8
BEMA_U_00DFUNG
 62
     7
100
AcDbVertex
100
AcDb2dVertex
 10
79.86837446716585
 20
187.1296236169736
 30
0.0
  0
SEQEND
  5
5A8
330
5A5
100
AcDbEntity
  8
BEMA_U_00DFUNG
 62
     7
  0
POLYLINE
  5
5A9
330
1F
100
AcDbEntity
  8
BEMA_U_00DFUNG
 62
     7
100
AcDb2dPolyline
 66
     1
 10
0.0
 20
0.0
 30
0.0
  0
VERTEX
  5
5AA
330
5A9
100
AcDbEntity
  8
BEMA_U_00DFUNG
 62
     7
100
AcDbVertex
100
AcDb2dVertex
 10
79.81757446717879
 20
187.9283125056629
 30
0.0
  0
VERTEX
  5
5AB
330
5A9
100
AcDbEntity
  8
BEMA_U_00DFUNG
 62
     7
100
AcDbVertex
100
AcDb2dVertex
 10
79.81757446717879
 20
186.7433319504034
 30
0.0
  0
SEQEND
  5
5AC
330
5A9
100
AcDbEntity
  8
BEMA_U_00DFUNG
 62
     7
  0
POLYLINE
  5
5AD
330
1F
100
AcDbEntity
  8
BEMA_U_00DFUNG
 62
     7
100
AcDb2dPolyline
 66
     1
 10
0.0
 20
0.0
 30
0.0
  0
VERTEX
  5
5AE
330
5AD
100
AcDbEntity
  8
BEMA_U_00DFUNG
 62
     7
100
AcDbVertex
100
AcDb2dVertex
 10
79.76642168941365
 20
187.9283125056629
 30
0.0
  0
VERTEX
  5
5AF
330
5AD
100
AcDbEntity
  8
BEMA_U_00DFUNG
 62
     7
100
AcDbVertex
100
AcDb2dVertex
 10
79.76642168941365
 20
186.3577458393888
 30
0.0
  0
SEQEND
  5
5B0
330
5AD
100
AcDbEntity
  8
BEMA_U_00DFUNG
 62
     7
  0
POLYLINE
  5
5B1
330
1F
100
AcDbEntity
  8
BEMA_U_00DFUNG
 62
     7
100
AcDb2dPolyline
 66
     1
 10
0.0
 20
0.0
 30
0.0
  0
VERTEX
  5
5B2
330
5B1
100
AcDbEntity
  8
BEMA_U_00DFUNG
 62
     7
100
AcDbVertex
100
AcDb2dVertex
 10
79.71562168942626
 20
187.9283125056629
 30
0.0
  0
VERTEX
  5
5B3
330
5B1
100
AcDbEntity
  8
BEMA_U_00DFUNG
 62
     7
100
AcDbVertex
100
AcDb2dVertex
 10
79.71562168942626
 20
185.9714541728186
 30
0.0
  0
SEQEND
  5
5B4
330
5B1
100
AcDbEntity
  8
BEMA_U_00DFUNG
 62
     7
  0
POLYLINE
  5
5B5
330
1F
100
AcDbEntity
  8
BEMA_U_00DFUNG
 62
     7
100
AcDb2dPolyline
 66
     1
 10
0.0
 20
0.0
 30
0.0
  0
VERTEX
  5
5B6
330
5B5
100
AcDbEntity
  8
BEMA_U_00DFUNG
 62
     7
100
AcDbVertex
100
AcDb2dVertex
 10
79.66482168943921
 20
187.9283125056629
 30
0.0
  0
VERTEX
  5
5B7
330
5B5
100
AcDbEntity
  8
BEMA_U_00DFUNG
 62
     7
100
AcDbVertex
100
AcDb2dVertex
 10
79.66482168943921
 20
185.585868061804
 30
0.0
  0
SEQEND
  5
5B8
330
5B5
100
AcDbEntity
  8
BEMA_U_00DFUNG
 62
     7
  0
POLYLINE
  5
5B9
330
1F
100
AcDbEntity
  8
BEMA_U_00DFUNG
 62
     7
100
AcDb2dPolyline
 66
     1
 10
0.0
 20
0.0
 30
0.0
  0
VERTEX
  5
5BA
330
5B9
100
AcDbEntity
  8
BEMA_U_00DFUNG
 62
     7
100
AcDbVertex
100
AcDb2dVertex
 10
79.61402168945182
 20
187.9283125056629
 30
0.0
  0
VERTEX
  5
5BB
330
5B9
100
AcDbEntity
  8
BEMA_U_00DFUNG
 62
     7
100
AcDbVertex
100
AcDb2dVertex
 10
79.61402168945182
 20
185.1999291730115
 30
0.0
  0
SEQEND
  5
5BC
330
5B9
100
AcDbEntity
  8
BEMA_U_00DFUNG
 62
     7
  0
POLYLINE
  5
5BD
330
1F
100
AcDbEntity
  8
BEMA_U_00DFUNG
 62
     7
100
AcDb2dPolyline
 66
     1
 10
0.0
 20
0.0
 30
0.0
  0
VERTEX
  5
5BE
330
5BD
100
AcDbEntity
  8
BEMA_U_00DFUNG
 62
     7
100
AcDbVertex
100
AcDb2dVertex
 10
79.56322168946444
 20
187.9283125056629
 30
0.0
  0
VERTEX
  5
5BF
330
5BD
100
AcDbEntity
  8
BEMA_U_00DFUNG
 62
     7
100
AcDbVertex
100
AcDb2dVertex
 10
79.56322168946444
 20
184.8143430619969
 30
0.0
  0
SEQEND
  5
5C0
330
5BD
100
AcDbEntity
  8
BEMA_U_00DFUNG
 62
     7
  0
POLYLINE
  5
5C1
330
1F
100
AcDbEntity
  8
BEMA_U_00DFUNG
 62
     7
100
AcDb2dPolyline
 66
     1
 10
0.0
 20
0.0
 30
0.0
  0
VERTEX
  5
5C2
330
5C1
100
AcDbEntity
  8
BEMA_U_00DFUNG
 62
     7
100
AcDbVertex
100
AcDb2dVertex
 10
79.51206891169961
 20
187.9283125056629
 30
0.0
  0
VERTEX
  5
5C3
330
5C1
100
AcDbEntity
  8
BEMA_U_00DFUNG
 62
     7
100
AcDbVertex
100
AcDb2dVertex
 10
79.51206891169961
 20
184.4280513954267
 30
0.0
  0
SEQEND
  5
5C4
330
5C1
100
AcDbEntity
  8
BEMA_U_00DFUNG
 62
     7
  0
POLYLINE
  5
5C5
330
1F
100
AcDbEntity
  8
BEMA_U_00DFUNG
 62
     7
100
AcDb2dPolyline
 66
     1
 10
0.0
 20
0.0
 30
0.0
  0
VERTEX
  5
5C6
330
5C5
100
AcDbEntity
  8
BEMA_U_00DFUNG
 62
     7
100
AcDbVertex
100
AcDb2dVertex
 10
79.05522168959158
 20
187.9283125056629
 30
0.0
  0
VERTEX
  5
5C7
330
5C5
100
AcDbEntity
  8
BEMA_U_00DFUNG
 62
     7
100
AcDbVertex
100
AcDb2dVertex
 10
79.05522168959158
 20
187.9011486167807
 30
0.0
  0
SEQEND
  5
5C8
330
5C5
100
AcDbEntity
  8
BEMA_U_00DFUNG
 62
     7
  0
POLYLINE
  5
5C9
330
1F
100
AcDbEntity
  8
BEMA_U_00DFUNG
 62
     7
100
AcDb2dPolyline
 66
     1
 10
0.0
 20
0.0
 30
0.0
  0
VERTEX
  5
5CA
330
5C9
100
AcDbEntity
  8
BEMA_U_00DFUNG
 62
     7
100
AcDbVertex
100
AcDb2dVertex
 10
79.05522168959158
 20
187.9283125056629
 30
0.0
  0
VERTEX
  5
5CB
330
5C9
100
AcDbEntity
  8
BEMA_U_00DFUNG
 62
     7
100
AcDbVertex
100
AcDb2dVertex
 10
79.05522168959158
 20
187.9011486167807
 30
0.0
  0
SEQEND
  5
5CC
330
5C9
100
AcDbEntity
  8
BEMA_U_00DFUNG
 62
     7
  0
POLYLINE
  5
5CD
330
1F
100
AcDbEntity
  8
BEMA_U_00DFUNG
 62
     7
100
AcDb2dPolyline
 66
     1
 10
0.0
 20
0.0
 30
0.0
  0
VERTEX
  5
5CE
330
5CD
100
AcDbEntity
  8
BEMA_U_00DFUNG
 62
     7
100
AcDbVertex
100
AcDb2dVertex
 10
79.10602168957864
 20
187.9283125056629
 30
0.0
  0
VERTEX
  5
5CF
330
5CD
100
AcDbEntity
  8
BEMA_U_00DFUNG
 62
     7
100
AcDbVertex
100
AcDb2dVertex
 10
79.10602168957864
 20
187.5148569502105
 30
0.0
  0
SEQEND
  5
5D0
330
5CD
100
AcDbEntity
  8
BEMA_U_00DFUNG
 62
     7
  0
POLYLINE
  5
5D1
330
1F
100
AcDbEntity
  8
BEMA_U_00DFUNG
 62
     7
100
AcDb2dPolyline
 66
     1
 10
0.0
 20
0.0
 30
0.0
  0
VERTEX
  5
5D2
330
5D1
100
AcDbEntity
  8
BEMA_U_00DFUNG
 62
     7
100
AcDbVertex
100
AcDb2dVertex
 10
79.15682168956602
 20
187.9283125056629
 30
0.0
  0
VERTEX
  5
5D3
330
5D1
100
AcDbEntity
  8
BEMA_U_00DFUNG
 62
     7
100
AcDbVertex
100
AcDb2dVertex
 10
79.15682168956602
 20
187.1296236169736
 30
0.0
  0
SEQEND
  5
5D4
330
5D1
100
AcDbEntity
  8
BEMA_U_00DFUNG
 62
     7
  0
POLYLINE
  5
5D5
330
1F
100
AcDbEntity
  8
BEMA_U_00DFUNG
 62
     7
100
AcDb2dPolyline
 66
     1
 10
0.0
 20
0.0
 30
0.0
  0
VERTEX
  5
5D6
330
5D5
100
AcDbEntity
  8
BEMA_U_00DFUNG
 62
     7
100
AcDbVertex
100
AcDb2dVertex
 10
79.2076216895534
 20
187.9283125056629
 30
0.0
  0
VERTEX
  5
5D7
330
5D5
100
AcDbEntity
  8
BEMA_U_00DFUNG
 62
     7
100
AcDbVertex
100
AcDb2dVertex
 10
79.2076216895534
 20
186.7433319504034
 30
0.0
  0
SEQEND
  5
5D8
330
5D5
100
AcDbEntity
  8
BEMA_U_00DFUNG
 62
     7
  0
POLYLINE
  5
5D9
330
1F
100
AcDbEntity
  8
BEMA_U_00DFUNG
 62
     7
100
AcDb2dPolyline
 66
     1
 10
0.0
 20
0.0
 30
0.0
  0
VERTEX
  5
5DA
330
5D9
100
AcDbEntity
  8
BEMA_U_00DFUNG
 62
     7
100
AcDbVertex
100
AcDb2dVertex
 10
79.25842168954078
 20
187.9283125056629
 30
0.0
  0
VERTEX
  5
5DB
330
5D9
100
AcDbEntity
  8
BEMA_U_00DFUNG
 62
     7
100
AcDbVertex
100
AcDb2dVertex
 10
79.25842168954078
 20
186.3577458393888
 30
0.0
  0
SEQEND
  5
5DC
330
5D9
100
AcDbEntity
  8
BEMA_U_00DFUNG
 62
     7
  0
POLYLINE
  5
5DD
330
1F
100
AcDbEntity
  8
BEMA_U_00DFUNG
 62
     7
100
AcDb2dPolyline
 66
     1
 10
0.0
 20
0.0
 30
0.0
  0
VERTEX
  5
5DE
330
5DD
100
AcDbEntity
  8
BEMA_U_00DFUNG
 62
     7
100
AcDbVertex
100
AcDb2dVertex
 10
79.30957446730561
 20
187.9283125056629
 30
0.0
  0
VERTEX
  5
5DF
330
5DD
100
AcDbEntity
  8
BEMA_U_00DFUNG
 62
     7
100
AcDbVertex
100
AcDb2dVertex
 10
79.30957446730561
 20
185.9714541728186
 30
0.0
  0
SEQEND
  5
5E0
330
5DD
100
AcDbEntity
  8
BEMA_U_00DFUNG
 62
     7
  0
POLYLINE
  5
5E1
330
1F
100
AcDbEntity
  8
BEMA_U_00DFUNG
 62
     7
100
AcDb2dPolyline
 66
     1
 10
0.0
 20
0.0
 30
0.0
  0
VERTEX
  5
5E2
330
5E1
100
AcDbEntity
  8
BEMA_U_00DFUNG
 62
     7
100
AcDbVertex
100
AcDb2dVertex
 10
79.36037446729298
 20
187.9283125056629
 30
0.0
  0
VERTEX
  5
5E3
330
5E1
100
AcDbEntity
  8
BEMA_U_00DFUNG
 62
     7
100
AcDbVertex
100
AcDb2dVertex
 10
79.36037446729298
 20
185.585868061804
 30
0.0
  0
SEQEND
  5
5E4
330
5E1
100
AcDbEntity
  8
BEMA_U_00DFUNG
 62
     7
  0
POLYLINE
  5
5E5
330
1F
100
AcDbEntity
  8
BEMA_U_00DFUNG
 62
     7
100
AcDb2dPolyline
 66
     1
 10
0.0
 20
0.0
 30
0.0
  0
VERTEX
  5
5E6
330
5E5
100
AcDbEntity
  8
BEMA_U_00DFUNG
 62
     7
100
AcDbVertex
100
AcDb2dVertex
 10
79.41117446728038
 20
187.9283125056629
 30
0.0
  0
VERTEX
  5
5E7
330
5E5
100
AcDbEntity
  8
BEMA_U_00DFUNG
 62
     7
100
AcDbVertex
100
AcDb2dVertex
 10
79.41117446728038
 20
185.1999291730115
 30
0.0
  0
SEQEND
  5
5E8
330
5E5
100
AcDbEntity
  8
BEMA_U_00DFUNG
 62
     7
  0
POLYLINE
  5
5E9
330
1F
100
AcDbEntity
  8
BEMA_U_00DFUNG
 62
     7
100
AcDb2dPolyline
 66
     1
 10
0.0
 20
0.0
 30
0.0
  0
VERTEX
  5
5EA
330
5E9
100
AcDbEntity
  8
BEMA_U_00DFUNG
 62
     7
100
AcDbVertex
100
AcDb2dVertex
 10
79.46197446726744
 20
187.9283125056629
 30
0.0
  0
VERTEX
  5
5EB
330
5E9
100
AcDbEntity
  8
BEMA_U_00DFUNG
 62
     7
100
AcDbVertex
100
AcDb2dVertex
 10
79.46197446726744
 20
184.8143430619969
 30
0.0
  0
SEQEND
  5
5EC
330
5E9
100
AcDbEntity
  8
BEMA_U_00DFUNG
 62
     7
  0
POLYLINE
  5
5ED
330
1F
100
AcDbEntity
  8
BEMA_U_00DFUNG
 62
     7
100
AcDb2dPolyline
 66
     1
 10
0.0
 20
0.0
 30
0.0
  0
VERTEX
  5
5EE
330
5ED
100
AcDbEntity
  8
BEMA_U_00DFUNG
 62
     7
100
AcDbVertex
100
AcDb2dVertex
 10
79.51206891169961
 20
187.9283125056629
 30
0.0
  0
VERTEX
  5
5EF
330
5ED
100
AcDbEntity
  8
BEMA_U_00DFUNG
 62
     7
100
AcDbVertex
100
AcDb2dVertex
 10
79.51206891169961
 20
184.4280513954267
 30
0.0
  0
SEQEND
  5
5F0
330
5ED
100
AcDbEntity
  8
BEMA_U_00DFUNG
 62
     7
  0
POLYLINE
  5
5F1
330
1F
100
AcDbEntity
  8
BEMA_U_00DFUNG
 62
     7
100
AcDb2dPolyline
 66
     1
 10
0.0
 20
0.0
 30
0.0
  0
VERTEX
  5
5F2
330
5F1
100
AcDbEntity
  8
BEMA_U_00DFUNG
 62
     7
100
AcDbVertex
100
AcDb2dVertex
 10
144.5124327843383
 20
210.9283652776907
 30
0.0
  0
VERTEX
  5
5F3
330
5F1
100
AcDbEntity
  8
BEMA_U_00DFUNG
 62
     7
100
AcDbVertex
100
AcDb2dVertex
 10
158.512771669727
 20
210.9283652776907
 30
0.0
  0
SEQEND
  5
5F4
330
5F1
100
AcDbEntity
  8
BEMA_U_00DFUNG
 62
     7
  0
POLYLINE
  5
5F5
330
1F
100
AcDbEntity
  8
BEMA_U_00DFUNG
 62
     7
100
AcDb2dPolyline
 66
     1
 10
0.0
 20
0.0
 30
0.0
  0
VERTEX
  5
5F6
330
5F5
100
AcDbEntity
  8
BEMA_U_00DFUNG
 62
     7
100
AcDbVertex
100
AcDb2dVertex
 10
144.5124327843383
 20
185.9284152839407
 30
0.0
  0
VERTEX
  5
5F7
330
5F5
100
AcDbEntity
  8
BEMA_U_00DFUNG
 62
     7
100
AcDbVertex
100
AcDb2dVertex
 10
158.512771669727
 20
185.9284152839407
 30
0.0
  0
SEQEND
  5
5F8
330
5F5
100
AcDbEntity
  8
BEMA_U_00DFUNG
 62
     7
  0
POLYLINE
  5
5F9
330
1F
100
AcDbEntity
  8
BEMA_U_00DFUNG
 62
     7
100
AcDb2dPolyline
 66
     1
 10
0.0
 20
0.0
 30
0.0
  0
VERTEX
  5
5FA
330
5F9
100
AcDbEntity
  8
BEMA_U_00DFUNG
 62
     7
100
AcDbVertex
100
AcDb2dVertex
 10
156.5121688924493
 20
210.9283652776907
 30
0.0
  0
VERTEX
  5
5FB
330
5F9
100
AcDbEntity
  8
BEMA_U_00DFUNG
 62
     7
100
AcDbVertex
100
AcDb2dVertex
 10
156.5121688924493
 20
185.9284152839407
 30
0.0
  0
SEQEND
  5
5FC
330
5F9
100
AcDbEntity
  8
BEMA_U_00DFUNG
 62
     7
  0
POLYLINE
  5
5FD
330
1F
100
AcDbEntity
  8
BEMA_U_00DFUNG
 62
     7
100
AcDb2dPolyline
 66
     1
 10
0.0
 20
0.0
 30
0.0
  0
VERTEX
  5
5FE
330
5FD
100
AcDbEntity
  8
BEMA_U_00DFUNG
 62
     7
100
AcDbVertex
100
AcDb2dVertex
 10
156.5121688924493
 20
210.9283652776907
 30
0.0
  0
VERTEX
  5
5FF
330
5FD
100
AcDbEntity
  8
BEMA_U_00DFUNG
 62
     7
100
AcDbVertex
100
AcDb2dVertex
 10
156.0517938925646
 20
207.4281041674545
 30
0.0
  0
VERTEX
  5
600
330
5FD
100
AcDbEntity
  8
BEMA_U_00DFUNG
 62
     7
100
AcDbVertex
100
AcDb2dVertex
 10
156.9732494478898
 20
207.4281041674545
 30
0.0
  0
VERTEX
  5
601
330
5FD
100
AcDbEntity
  8
BEMA_U_00DFUNG
 62
     7
100
AcDbVertex
100
AcDb2dVertex
 10
156.5121688924493
 20
210.9283652776907
 30
0.0
  0
SEQEND
  5
602
330
5FD
100
AcDbEntity
  8
BEMA_U_00DFUNG
 62
     7
  0
POLYLINE
  5
603
330
1F
100
AcDbEntity
  8
BEMA_U_00DFUNG
 62
     7
100
AcDb2dPolyline
 66
     1
 10
0.0
 20
0.0
 30
0.0
  0
VERTEX
  5
604
330
603
100
AcDbEntity
  8
BEMA_U_00DFUNG
 62
     7
100
AcDbVertex
100
AcDb2dVertex
 10
156.0553216703416
 20
207.4281041674545
 30
0.0
  0
VERTEX
  5
605
330
603
100
AcDbEntity
  8
BEMA_U_00DFUNG
 62
     7
100
AcDbVertex
100
AcDb2dVertex
 10
156.0553216703416
 20
207.4552680563366
 30
0.0
  0
SEQEND
  5
606
330
603
100
AcDbEntity
  8
BEMA_U_00DFUNG
 62
     7
  0
POLYLINE
  5
607
330
1F
100
AcDbEntity
  8
BEMA_U_00DFUNG
 62
     7
100
AcDb2dPolyline
 66
     1
 10
0.0
 20
0.0
 30
0.0
  0
VERTEX
  5
608
330
607
100
AcDbEntity
  8
BEMA_U_00DFUNG
 62
     7
100
AcDbVertex
100
AcDb2dVertex
 10
156.0553216703416
 20
207.4281041674545
 30
0.0
  0
VERTEX
  5
609
330
607
100
AcDbEntity
  8
BEMA_U_00DFUNG
 62
     7
100
AcDbVertex
100
AcDb2dVertex
 10
156.0553216703416
 20
207.4552680563366
 30
0.0
  0
SEQEND
  5
60A
330
607
100
AcDbEntity
  8
BEMA_U_00DFUNG
 62
     7
  0
POLYLINE
  5
60B
330
1F
100
AcDbEntity
  8
BEMA_U_00DFUNG
 62
     7
100
AcDb2dPolyline
 66
     1
 10
0.0
 20
0.0
 30
0.0
  0
VERTEX
  5
60C
330
60B
100
AcDbEntity
  8
BEMA_U_00DFUNG
 62
     7
100
AcDbVertex
100
AcDb2dVertex
 10
156.1061216703286
 20
207.4281041674545
 30
0.0
  0
VERTEX
  5
60D
330
60B
100
AcDbEntity
  8
BEMA_U_00DFUNG
 62
     7
100
AcDbVertex
100
AcDb2dVertex
 10
156.1061216703286
 20
207.8415597229069
 30
0.0
  0
SEQEND
  5
60E
330
60B
100
AcDbEntity
  8
BEMA_U_00DFUNG
 62
     7
  0
POLYLINE
  5
60F
330
1F
100
AcDbEntity
  8
BEMA_U_00DFUNG
 62
     7
100
AcDb2dPolyline
 66
     1
 10
0.0
 20
0.0
 30
0.0
  0
VERTEX
  5
610
330
60F
100
AcDbEntity
  8
BEMA_U_00DFUNG
 62
     7
100
AcDbVertex
100
AcDb2dVertex
 10
156.156921670316
 20
207.4281041674545
 30
0.0
  0
VERTEX
  5
611
330
60F
100
AcDbEntity
  8
BEMA_U_00DFUNG
 62
     7
100
AcDbVertex
100
AcDb2dVertex
 10
156.156921670316
 20
208.2271458339215
 30
0.0
  0
SEQEND
  5
612
330
60F
100
AcDbEntity
  8
BEMA_U_00DFUNG
 62
     7
  0
POLYLINE
  5
613
330
1F
100
AcDbEntity
  8
BEMA_U_00DFUNG
 62
     7
100
AcDb2dPolyline
 66
     1
 10
0.0
 20
0.0
 30
0.0
  0
VERTEX
  5
614
330
613
100
AcDbEntity
  8
BEMA_U_00DFUNG
 62
     7
100
AcDbVertex
100
AcDb2dVertex
 10
156.2077216703034
 20
207.4281041674545
 30
0.0
  0
VERTEX
  5
615
330
613
100
AcDbEntity
  8
BEMA_U_00DFUNG
 62
     7
100
AcDbVertex
100
AcDb2dVertex
 10
156.2077216703034
 20
208.6130847227139
 30
0.0
  0
SEQEND
  5
616
330
613
100
AcDbEntity
  8
BEMA_U_00DFUNG
 62
     7
  0
POLYLINE
  5
617
330
1F
100
AcDbEntity
  8
BEMA_U_00DFUNG
 62
     7
100
AcDb2dPolyline
 66
     1
 10
0.0
 20
0.0
 30
0.0
  0
VERTEX
  5
618
330
617
100
AcDbEntity
  8
BEMA_U_00DFUNG
 62
     7
100
AcDbVertex
100
AcDb2dVertex
 10
156.2585216702908
 20
207.4281041674545
 30
0.0
  0
VERTEX
  5
619
330
617
100
AcDbEntity
  8
BEMA_U_00DFUNG
 62
     7
100
AcDbVertex
100
AcDb2dVertex
 10
156.2585216702908
 20
208.9986708337286
 30
0.0
  0
SEQEND
  5
61A
330
617
100
AcDbEntity
  8
BEMA_U_00DFUNG
 62
     7
  0
POLYLINE
  5
61B
330
1F
100
AcDbEntity
  8
BEMA_U_00DFUNG
 62
     7
100
AcDb2dPolyline
 66
     1
 10
0.0
 20
0.0
 30
0.0
  0
VERTEX
  5
61C
330
61B
100
AcDbEntity
  8
BEMA_U_00DFUNG
 62
     7
100
AcDbVertex
100
AcDb2dVertex
 10
156.3089688925004
 20
207.4281041674545
 30
0.0
  0
VERTEX
  5
61D
330
61B
100
AcDbEntity
  8
BEMA_U_00DFUNG
 62
     7
100
AcDbVertex
100
AcDb2dVertex
 10
156.3089688925004
 20
209.3849625002988
 30
0.0
  0
SEQEND
  5
61E
330
61B
100
AcDbEntity
  8
BEMA_U_00DFUNG
 62
     7
  0
POLYLINE
  5
61F
330
1F
100
AcDbEntity
  8
BEMA_U_00DFUNG
 62
     7
100
AcDb2dPolyline
 66
     1
 10
0.0
 20
0.0
 30
0.0
  0
VERTEX
  5
620
330
61F
100
AcDbEntity
  8
BEMA_U_00DFUNG
 62
     7
100
AcDbVertex
100
AcDb2dVertex
 10
156.3597688924875
 20
207.4281041674545
 30
0.0
  0
VERTEX
  5
621
330
61F
100
AcDbEntity
  8
BEMA_U_00DFUNG
 62
     7
100
AcDbVertex
100
AcDb2dVertex
 10
156.3597688924875
 20
209.7705486113134
 30
0.0
  0
SEQEND
  5
622
330
61F
100
AcDbEntity
  8
BEMA_U_00DFUNG
 62
     7
  0
POLYLINE
  5
623
330
1F
100
AcDbEntity
  8
BEMA_U_00DFUNG
 62
     7
100
AcDb2dPolyline
 66
     1
 10
0.0
 20
0.0
 30
0.0
  0
VERTEX
  5
624
330
623
100
AcDbEntity
  8
BEMA_U_00DFUNG
 62
     7
100
AcDbVertex
100
AcDb2dVertex
 10
156.4105688924748
 20
207.4281041674545
 30
0.0
  0
VERTEX
  5
625
330
623
100
AcDbEntity
  8
BEMA_U_00DFUNG
 62
     7
100
AcDbVertex
100
AcDb2dVertex
 10
156.4105688924748
 20
210.1568402778836
 30
0.0
  0
SEQEND
  5
626
330
623
100
AcDbEntity
  8
BEMA_U_00DFUNG
 62
     7
  0
POLYLINE
  5
627
330
1F
100
AcDbEntity
  8
BEMA_U_00DFUNG
 62
     7
100
AcDb2dPolyline
 66
     1
 10
0.0
 20
0.0
 30
0.0
  0
VERTEX
  5
628
330
627
100
AcDbEntity
  8
BEMA_U_00DFUNG
 62
     7
100
AcDbVertex
100
AcDb2dVertex
 10
156.4613688924622
 20
207.4281041674545
 30
0.0
  0
VERTEX
  5
629
330
627
100
AcDbEntity
  8
BEMA_U_00DFUNG
 62
     7
100
AcDbVertex
100
AcDb2dVertex
 10
156.4613688924622
 20
210.5420736111205
 30
0.0
  0
SEQEND
  5
62A
330
627
100
AcDbEntity
  8
BEMA_U_00DFUNG
 62
     7
  0
POLYLINE
  5
62B
330
1F
100
AcDbEntity
  8
BEMA_U_00DFUNG
 62
     7
100
AcDb2dPolyline
 66
     1
 10
0.0
 20
0.0
 30
0.0
  0
VERTEX
  5
62C
330
62B
100
AcDbEntity
  8
BEMA_U_00DFUNG
 62
     7
100
AcDbVertex
100
AcDb2dVertex
 10
156.5121688924493
 20
207.4281041674545
 30
0.0
  0
VERTEX
  5
62D
330
62B
100
AcDbEntity
  8
BEMA_U_00DFUNG
 62
     7
100
AcDbVertex
100
AcDb2dVertex
 10
156.5121688924493
 20
210.9283652776907
 30
0.0
  0
SEQEND
  5
62E
330
62B
100
AcDbEntity
  8
BEMA_U_00DFUNG
 62
     7
  0
POLYLINE
  5
62F
330
1F
100
AcDbEntity
  8
BEMA_U_00DFUNG
 62
     7
100
AcDb2dPolyline
 66
     1
 10
0.0
 20
0.0
 30
0.0
  0
VERTEX
  5
630
330
62F
100
AcDbEntity
  8
BEMA_U_00DFUNG
 62
     7
100
AcDbVertex
100
AcDb2dVertex
 10
156.9697216701128
 20
207.4281041674545
 30
0.0
  0
VERTEX
  5
631
330
62F
100
AcDbEntity
  8
BEMA_U_00DFUNG
 62
     7
100
AcDbVertex
100
AcDb2dVertex
 10
156.9697216701128
 20
207.4552680563366
 30
0.0
  0
SEQEND
  5
632
330
62F
100
AcDbEntity
  8
BEMA_U_00DFUNG
 62
     7
  0
POLYLINE
  5
633
330
1F
100
AcDbEntity
  8
BEMA_U_00DFUNG
 62
     7
100
AcDb2dPolyline
 66
     1
 10
0.0
 20
0.0
 30
0.0
  0
VERTEX
  5
634
330
633
100
AcDbEntity
  8
BEMA_U_00DFUNG
 62
     7
100
AcDbVertex
100
AcDb2dVertex
 10
156.9697216701128
 20
207.4281041674545
 30
0.0
  0
VERTEX
  5
635
330
633
100
AcDbEntity
  8
BEMA_U_00DFUNG
 62
     7
100
AcDbVertex
100
AcDb2dVertex
 10
156.9697216701128
 20
207.4552680563366
 30
0.0
  0
SEQEND
  5
636
330
633
100
AcDbEntity
  8
BEMA_U_00DFUNG
 62
     7
  0
POLYLINE
  5
637
330
1F
100
AcDbEntity
  8
BEMA_U_00DFUNG
 62
     7
100
AcDb2dPolyline
 66
     1
 10
0.0
 20
0.0
 30
0.0
  0
VERTEX
  5
638
330
637
100
AcDbEntity
  8
BEMA_U_00DFUNG
 62
     7
100
AcDbVertex
100
AcDb2dVertex
 10
156.9189216701255
 20
207.4281041674545
 30
0.0
  0
VERTEX
  5
639
330
637
100
AcDbEntity
  8
BEMA_U_00DFUNG
 62
     7
100
AcDbVertex
100
AcDb2dVertex
 10
156.9189216701255
 20
207.8415597229069
 30
0.0
  0
SEQEND
  5
63A
330
637
100
AcDbEntity
  8
BEMA_U_00DFUNG
 62
     7
  0
POLYLINE
  5
63B
330
1F
100
AcDbEntity
  8
BEMA_U_00DFUNG
 62
     7
100
AcDb2dPolyline
 66
     1
 10
0.0
 20
0.0
 30
0.0
  0
VERTEX
  5
63C
330
63B
100
AcDbEntity
  8
BEMA_U_00DFUNG
 62
     7
100
AcDbVertex
100
AcDb2dVertex
 10
156.8681216701381
 20
207.4281041674545
 30
0.0
  0
VERTEX
  5
63D
330
63B
100
AcDbEntity
  8
BEMA_U_00DFUNG
 62
     7
100
AcDbVertex
100
AcDb2dVertex
 10
156.8681216701381
 20
208.2271458339215
 30
0.0
  0
SEQEND
  5
63E
330
63B
100
AcDbEntity
  8
BEMA_U_00DFUNG
 62
     7
  0
POLYLINE
  5
63F
330
1F
100
AcDbEntity
  8
BEMA_U_00DFUNG
 62
     7
100
AcDb2dPolyline
 66
     1
 10
0.0
 20
0.0
 30
0.0
  0
VERTEX
  5
640
330
63F
100
AcDbEntity
  8
BEMA_U_00DFUNG
 62
     7
100
AcDbVertex
100
AcDb2dVertex
 10
156.8169688923733
 20
207.4281041674545
 30
0.0
  0
VERTEX
  5
641
330
63F
100
AcDbEntity
  8
BEMA_U_00DFUNG
 62
     7
100
AcDbVertex
100
AcDb2dVertex
 10
156.8169688923733
 20
208.6130847227139
 30
0.0
  0
SEQEND
  5
642
330
63F
100
AcDbEntity
  8
BEMA_U_00DFUNG
 62
     7
  0
POLYLINE
  5
643
330
1F
100
AcDbEntity
  8
BEMA_U_00DFUNG
 62
     7
100
AcDb2dPolyline
 66
     1
 10
0.0
 20
0.0
 30
0.0
  0
VERTEX
  5
644
330
643
100
AcDbEntity
  8
BEMA_U_00DFUNG
 62
     7
100
AcDbVertex
100
AcDb2dVertex
 10
156.7661688923859
 20
207.4281041674545
 30
0.0
  0
VERTEX
  5
645
330
643
100
AcDbEntity
  8
BEMA_U_00DFUNG
 62
     7
100
AcDbVertex
100
AcDb2dVertex
 10
156.7661688923859
 20
208.9986708337286
 30
0.0
  0
SEQEND
  5
646
330
643
100
AcDbEntity
  8
BEMA_U_00DFUNG
 62
     7
  0
POLYLINE
  5
647
330
1F
100
AcDbEntity
  8
BEMA_U_00DFUNG
 62
     7
100
AcDb2dPolyline
 66
     1
 10
0.0
 20
0.0
 30
0.0
  0
VERTEX
  5
648
330
647
100
AcDbEntity
  8
BEMA_U_00DFUNG
 62
     7
100
AcDbVertex
100
AcDb2dVertex
 10
156.7153688923988
 20
207.4281041674545
 30
0.0
  0
VERTEX
  5
649
330
647
100
AcDbEntity
  8
BEMA_U_00DFUNG
 62
     7
100
AcDbVertex
100
AcDb2dVertex
 10
156.7153688923988
 20
209.3849625002988
 30
0.0
  0
SEQEND
  5
64A
330
647
100
AcDbEntity
  8
BEMA_U_00DFUNG
 62
     7
  0
POLYLINE
  5
64B
330
1F
100
AcDbEntity
  8
BEMA_U_00DFUNG
 62
     7
100
AcDb2dPolyline
 66
     1
 10
0.0
 20
0.0
 30
0.0
  0
VERTEX
  5
64C
330
64B
100
AcDbEntity
  8
BEMA_U_00DFUNG
 62
     7
100
AcDbVertex
100
AcDb2dVertex
 10
156.6645688924114
 20
207.4281041674545
 30
0.0
  0
VERTEX
  5
64D
330
64B
100
AcDbEntity
  8
BEMA_U_00DFUNG
 62
     7
100
AcDbVertex
100
AcDb2dVertex
 10
156.6645688924114
 20
209.7705486113134
 30
0.0
  0
SEQEND
  5
64E
330
64B
100
AcDbEntity
  8
BEMA_U_00DFUNG
 62
     7
  0
POLYLINE
  5
64F
330
1F
100
AcDbEntity
  8
BEMA_U_00DFUNG
 62
     7
100
AcDb2dPolyline
 66
     1
 10
0.0
 20
0.0
 30
0.0
  0
VERTEX
  5
650
330
64F
100
AcDbEntity
  8
BEMA_U_00DFUNG
 62
     7
100
AcDbVertex
100
AcDb2dVertex
 10
156.613768892424
 20
207.4281041674545
 30
0.0
  0
VERTEX
  5
651
330
64F
100
AcDbEntity
  8
BEMA_U_00DFUNG
 62
     7
100
AcDbVertex
100
AcDb2dVertex
 10
156.613768892424
 20
210.1568402778836
 30
0.0
  0
SEQEND
  5
652
330
64F
100
AcDbEntity
  8
BEMA_U_00DFUNG
 62
     7
  0
POLYLINE
  5
653
330
1F
100
AcDbEntity
  8
BEMA_U_00DFUNG
 62
     7
100
AcDb2dPolyline
 66
     1
 10
0.0
 20
0.0
 30
0.0
  0
VERTEX
  5
654
330
653
100
AcDbEntity
  8
BEMA_U_00DFUNG
 62
     7
100
AcDbVertex
100
AcDb2dVertex
 10
156.5629688924367
 20
207.4281041674545
 30
0.0
  0
VERTEX
  5
655
330
653
100
AcDbEntity
  8
BEMA_U_00DFUNG
 62
     7
100
AcDbVertex
100
AcDb2dVertex
 10
156.5629688924367
 20
210.5420736111205
 30
0.0
  0
SEQEND
  5
656
330
653
100
AcDbEntity
  8
BEMA_U_00DFUNG
 62
     7
  0
POLYLINE
  5
657
330
1F
100
AcDbEntity
  8
BEMA_U_00DFUNG
 62
     7
100
AcDb2dPolyline
 66
     1
 10
0.0
 20
0.0
 30
0.0
  0
VERTEX
  5
658
330
657
100
AcDbEntity
  8
BEMA_U_00DFUNG
 62
     7
100
AcDbVertex
100
AcDb2dVertex
 10
156.5121688924493
 20
207.4281041674545
 30
0.0
  0
VERTEX
  5
659
330
657
100
AcDbEntity
  8
BEMA_U_00DFUNG
 62
     7
100
AcDbVertex
100
AcDb2dVertex
 10
156.5121688924493
 20
210.9283652776907
 30
0.0
  0
SEQEND
  5
65A
330
657
100
AcDbEntity
  8
BEMA_U_00DFUNG
 62
     7
  0
POLYLINE
  5
65B
330
1F
100
AcDbEntity
  8
BEMA_U_00DFUNG
 62
     7
100
AcDb2dPolyline
 66
     1
 10
0.0
 20
0.0
 30
0.0
  0
VERTEX
  5
65C
330
65B
100
AcDbEntity
  8
BEMA_U_00DFUNG
 62
     7
100
AcDbVertex
100
AcDb2dVertex
 10
156.5121688924493
 20
185.9284152839407
 30
0.0
  0
VERTEX
  5
65D
330
65B
100
AcDbEntity
  8
BEMA_U_00DFUNG
 62
     7
100
AcDbVertex
100
AcDb2dVertex
 10
156.9732494478898
 20
189.4279708386214
 30
0.0
  0
VERTEX
  5
65E
330
65B
100
AcDbEntity
  8
BEMA_U_00DFUNG
 62
     7
100
AcDbVertex
100
AcDb2dVertex
 10
156.0517938925646
 20
189.4279708386214
 30
0.0
  0
VERTEX
  5
65F
330
65B
100
AcDbEntity
  8
BEMA_U_00DFUNG
 62
     7
100
AcDbVertex
100
AcDb2dVertex
 10
156.5121688924493
 20
185.9284152839407
 30
0.0
  0
SEQEND
  5
660
330
65B
100
AcDbEntity
  8
BEMA_U_00DFUNG
 62
     7
  0
POLYLINE
  5
661
330
1F
100
AcDbEntity
  8
BEMA_U_00DFUNG
 62
     7
100
AcDb2dPolyline
 66
     1
 10
0.0
 20
0.0
 30
0.0
  0
VERTEX
  5
662
330
661
100
AcDbEntity
  8
BEMA_U_00DFUNG
 62
     7
100
AcDbVertex
100
AcDb2dVertex
 10
156.9697216701128
 20
189.4279708386214
 30
0.0
  0
VERTEX
  5
663
330
661
100
AcDbEntity
  8
BEMA_U_00DFUNG
 62
     7
100
AcDbVertex
100
AcDb2dVertex
 10
156.9697216701128
 20
189.4008069497392
 30
0.0
  0
SEQEND
  5
664
330
661
100
AcDbEntity
  8
BEMA_U_00DFUNG
 62
     7
  0
POLYLINE
  5
665
330
1F
100
AcDbEntity
  8
BEMA_U_00DFUNG
 62
     7
100
AcDb2dPolyline
 66
     1
 10
0.0
 20
0.0
 30
0.0
  0
VERTEX
  5
666
330
665
100
AcDbEntity
  8
BEMA_U_00DFUNG
 62
     7
100
AcDbVertex
100
AcDb2dVertex
 10
156.9697216701128
 20
189.4279708386214
 30
0.0
  0
VERTEX
  5
667
330
665
100
AcDbEntity
  8
BEMA_U_00DFUNG
 62
     7
100
AcDbVertex
100
AcDb2dVertex
 10
156.9697216701128
 20
189.4008069497392
 30
0.0
  0
SEQEND
  5
668
330
665
100
AcDbEntity
  8
BEMA_U_00DFUNG
 62
     7
  0
POLYLINE
  5
669
330
1F
100
AcDbEntity
  8
BEMA_U_00DFUNG
 62
     7
100
AcDb2dPolyline
 66
     1
 10
0.0
 20
0.0
 30
0.0
  0
VERTEX
  5
66A
330
669
100
AcDbEntity
  8
BEMA_U_00DFUNG
 62
     7
100
AcDbVertex
100
AcDb2dVertex
 10
156.9189216701255
 20
189.4279708386214
 30
0.0
  0
VERTEX
  5
66B
330
669
100
AcDbEntity
  8
BEMA_U_00DFUNG
 62
     7
100
AcDbVertex
100
AcDb2dVertex
 10
156.9189216701255
 20
189.0152208387245
 30
0.0
  0
SEQEND
  5
66C
330
669
100
AcDbEntity
  8
BEMA_U_00DFUNG
 62
     7
  0
POLYLINE
  5
66D
330
1F
100
AcDbEntity
  8
BEMA_U_00DFUNG
 62
     7
100
AcDb2dPolyline
 66
     1
 10
0.0
 20
0.0
 30
0.0
  0
VERTEX
  5
66E
330
66D
100
AcDbEntity
  8
BEMA_U_00DFUNG
 62
     7
100
AcDbVertex
100
AcDb2dVertex
 10
156.8681216701381
 20
189.4279708386214
 30
0.0
  0
VERTEX
  5
66F
330
66D
100
AcDbEntity
  8
BEMA_U_00DFUNG
 62
     7
100
AcDbVertex
100
AcDb2dVertex
 10
156.8681216701381
 20
188.6292819499318
 30
0.0
  0
SEQEND
  5
670
330
66D
100
AcDbEntity
  8
BEMA_U_00DFUNG
 62
     7
  0
POLYLINE
  5
671
330
1F
100
AcDbEntity
  8
BEMA_U_00DFUNG
 62
     7
100
AcDb2dPolyline
 66
     1
 10
0.0
 20
0.0
 30
0.0
  0
VERTEX
  5
672
330
671
100
AcDbEntity
  8
BEMA_U_00DFUNG
 62
     7
100
AcDbVertex
100
AcDb2dVertex
 10
156.8169688923733
 20
189.4279708386214
 30
0.0
  0
VERTEX
  5
673
330
671
100
AcDbEntity
  8
BEMA_U_00DFUNG
 62
     7
100
AcDbVertex
100
AcDb2dVertex
 10
156.8169688923733
 20
188.2436958389175
 30
0.0
  0
SEQEND
  5
674
330
671
100
AcDbEntity
  8
BEMA_U_00DFUNG
 62
     7
  0
POLYLINE
  5
675
330
1F
100
AcDbEntity
  8
BEMA_U_00DFUNG
 62
     7
100
AcDb2dPolyline
 66
     1
 10
0.0
 20
0.0
 30
0.0
  0
VERTEX
  5
676
330
675
100
AcDbEntity
  8
BEMA_U_00DFUNG
 62
     7
100
AcDbVertex
100
AcDb2dVertex
 10
156.7661688923859
 20
189.4279708386214
 30
0.0
  0
VERTEX
  5
677
330
675
100
AcDbEntity
  8
BEMA_U_00DFUNG
 62
     7
100
AcDbVertex
100
AcDb2dVertex
 10
156.7661688923859
 20
187.8574041723473
 30
0.0
  0
SEQEND
  5
678
330
675
100
AcDbEntity
  8
BEMA_U_00DFUNG
 62
     7
  0
POLYLINE
  5
679
330
1F
100
AcDbEntity
  8
BEMA_U_00DFUNG
 62
     7
100
AcDb2dPolyline
 66
     1
 10
0.0
 20
0.0
 30
0.0
  0
VERTEX
  5
67A
330
679
100
AcDbEntity
  8
BEMA_U_00DFUNG
 62
     7
100
AcDbVertex
100
AcDb2dVertex
 10
156.7153688923988
 20
189.4279708386214
 30
0.0
  0
VERTEX
  5
67B
330
679
100
AcDbEntity
  8
BEMA_U_00DFUNG
 62
     7
100
AcDbVertex
100
AcDb2dVertex
 10
156.7153688923988
 20
187.4718180613326
 30
0.0
  0
SEQEND
  5
67C
330
679
100
AcDbEntity
  8
BEMA_U_00DFUNG
 62
     7
  0
POLYLINE
  5
67D
330
1F
100
AcDbEntity
  8
BEMA_U_00DFUNG
 62
     7
100
AcDb2dPolyline
 66
     1
 10
0.0
 20
0.0
 30
0.0
  0
VERTEX
  5
67E
330
67D
100
AcDbEntity
  8
BEMA_U_00DFUNG
 62
     7
100
AcDbVertex
100
AcDb2dVertex
 10
156.6645688924114
 20
189.4279708386214
 30
0.0
  0
VERTEX
  5
67F
330
67D
100
AcDbEntity
  8
BEMA_U_00DFUNG
 62
     7
100
AcDbVertex
100
AcDb2dVertex
 10
156.6645688924114
 20
187.0858791725399
 30
0.0
  0
SEQEND
  5
680
330
67D
100
AcDbEntity
  8
BEMA_U_00DFUNG
 62
     7
  0
POLYLINE
  5
681
330
1F
100
AcDbEntity
  8
BEMA_U_00DFUNG
 62
     7
100
AcDb2dPolyline
 66
     1
 10
0.0
 20
0.0
 30
0.0
  0
VERTEX
  5
682
330
681
100
AcDbEntity
  8
BEMA_U_00DFUNG
 62
     7
100
AcDbVertex
100
AcDb2dVertex
 10
156.613768892424
 20
189.4279708386214
 30
0.0
  0
VERTEX
  5
683
330
681
100
AcDbEntity
  8
BEMA_U_00DFUNG
 62
     7
100
AcDbVertex
100
AcDb2dVertex
 10
156.613768892424
 20
186.7002930615255
 30
0.0
  0
SEQEND
  5
684
330
681
100
AcDbEntity
  8
BEMA_U_00DFUNG
 62
     7
  0
POLYLINE
  5
685
330
1F
100
AcDbEntity
  8
BEMA_U_00DFUNG
 62
     7
100
AcDb2dPolyline
 66
     1
 10
0.0
 20
0.0
 30
0.0
  0
VERTEX
  5
686
330
685
100
AcDbEntity
  8
BEMA_U_00DFUNG
 62
     7
100
AcDbVertex
100
AcDb2dVertex
 10
156.5629688924367
 20
189.4279708386214
 30
0.0
  0
VERTEX
  5
687
330
685
100
AcDbEntity
  8
BEMA_U_00DFUNG
 62
     7
100
AcDbVertex
100
AcDb2dVertex
 10
156.5629688924367
 20
186.3140013949553
 30
0.0
  0
SEQEND
  5
688
330
685
100
AcDbEntity
  8
BEMA_U_00DFUNG
 62
     7
  0
POLYLINE
  5
689
330
1F
100
AcDbEntity
  8
BEMA_U_00DFUNG
 62
     7
100
AcDb2dPolyline
 66
     1
 10
0.0
 20
0.0
 30
0.0
  0
VERTEX
  5
68A
330
689
100
AcDbEntity
  8
BEMA_U_00DFUNG
 62
     7
100
AcDbVertex
100
AcDb2dVertex
 10
156.5121688924493
 20
189.4279708386214
 30
0.0
  0
VERTEX
  5
68B
330
689
100
AcDbEntity
  8
BEMA_U_00DFUNG
 62
     7
100
AcDbVertex
100
AcDb2dVertex
 10
156.5121688924493
 20
185.9284152839407
 30
0.0
  0
SEQEND
  5
68C
330
689
100
AcDbEntity
  8
BEMA_U_00DFUNG
 62
     7
  0
POLYLINE
  5
68D
330
1F
100
AcDbEntity
  8
BEMA_U_00DFUNG
 62
     7
100
AcDb2dPolyline
 66
     1
 10
0.0
 20
0.0
 30
0.0
  0
VERTEX
  5
68E
330
68D
100
AcDbEntity
  8
BEMA_U_00DFUNG
 62
     7
100
AcDbVertex
100
AcDb2dVertex
 10
156.0553216703416
 20
189.4279708386214
 30
0.0
  0
VERTEX
  5
68F
330
68D
100
AcDbEntity
  8
BEMA_U_00DFUNG
 62
     7
100
AcDbVertex
100
AcDb2dVertex
 10
156.0553216703416
 20
189.4008069497392
 30
0.0
  0
SEQEND
  5
690
330
68D
100
AcDbEntity
  8
BEMA_U_00DFUNG
 62
     7
  0
POLYLINE
  5
691
330
1F
100
AcDbEntity
  8
BEMA_U_00DFUNG
 62
     7
100
AcDb2dPolyline
 66
     1
 10
0.0
 20
0.0
 30
0.0
  0
VERTEX
  5
692
330
691
100
AcDbEntity
  8
BEMA_U_00DFUNG
 62
     7
100
AcDbVertex
100
AcDb2dVertex
 10
156.0553216703416
 20
189.4279708386214
 30
0.0
  0
VERTEX
  5
693
330
691
100
AcDbEntity
  8
BEMA_U_00DFUNG
 62
     7
100
AcDbVertex
100
AcDb2dVertex
 10
156.0553216703416
 20
189.4008069497392
 30
0.0
  0
SEQEND
  5
694
330
691
100
AcDbEntity
  8
BEMA_U_00DFUNG
 62
     7
  0
POLYLINE
  5
695
330
1F
100
AcDbEntity
  8
BEMA_U_00DFUNG
 62
     7
100
AcDb2dPolyline
 66
     1
 10
0.0
 20
0.0
 30
0.0
  0
VERTEX
  5
696
330
695
100
AcDbEntity
  8
BEMA_U_00DFUNG
 62
     7
100
AcDbVertex
100
AcDb2dVertex
 10
156.1061216703286
 20
189.4279708386214
 30
0.0
  0
VERTEX
  5
697
330
695
100
AcDbEntity
  8
BEMA_U_00DFUNG
 62
     7
100
AcDbVertex
100
AcDb2dVertex
 10
156.1061216703286
 20
189.0152208387245
 30
0.0
  0
SEQEND
  5
698
330
695
100
AcDbEntity
  8
BEMA_U_00DFUNG
 62
     7
  0
POLYLINE
  5
699
330
1F
100
AcDbEntity
  8
BEMA_U_00DFUNG
 62
     7
100
AcDb2dPolyline
 66
     1
 10
0.0
 20
0.0
 30
0.0
  0
VERTEX
  5
69A
330
699
100
AcDbEntity
  8
BEMA_U_00DFUNG
 62
     7
100
AcDbVertex
100
AcDb2dVertex
 10
156.156921670316
 20
189.4279708386214
 30
0.0
  0
VERTEX
  5
69B
330
699
100
AcDbEntity
  8
BEMA_U_00DFUNG
 62
     7
100
AcDbVertex
100
AcDb2dVertex
 10
156.156921670316
 20
188.6292819499318
 30
0.0
  0
SEQEND
  5
69C
330
699
100
AcDbEntity
  8
BEMA_U_00DFUNG
 62
     7
  0
POLYLINE
  5
69D
330
1F
100
AcDbEntity
  8
BEMA_U_00DFUNG
 62
     7
100
AcDb2dPolyline
 66
     1
 10
0.0
 20
0.0
 30
0.0
  0
VERTEX
  5
69E
330
69D
100
AcDbEntity
  8
BEMA_U_00DFUNG
 62
     7
100
AcDbVertex
100
AcDb2dVertex
 10
156.2077216703034
 20
189.4279708386214
 30
0.0
  0
VERTEX
  5
69F
330
69D
100
AcDbEntity
  8
BEMA_U_00DFUNG
 62
     7
100
AcDbVertex
100
AcDb2dVertex
 10
156.2077216703034
 20
188.2436958389175
 30
0.0
  0
SEQEND
  5
6A0
330
69D
100
AcDbEntity
  8
BEMA_U_00DFUNG
 62
     7
  0
POLYLINE
  5
6A1
330
1F
100
AcDbEntity
  8
BEMA_U_00DFUNG
 62
     7
100
AcDb2dPolyline
 66
     1
 10
0.0
 20
0.0
 30
0.0
  0
VERTEX
  5
6A2
330
6A1
100
AcDbEntity
  8
BEMA_U_00DFUNG
 62
     7
100
AcDbVertex
100
AcDb2dVertex
 10
156.2585216702908
 20
189.4279708386214
 30
0.0
  0
VERTEX
  5
6A3
330
6A1
100
AcDbEntity
  8
BEMA_U_00DFUNG
 62
     7
100
AcDbVertex
100
AcDb2dVertex
 10
156.2585216702908
 20
187.8574041723473
 30
0.0
  0
SEQEND
  5
6A4
330
6A1
100
AcDbEntity
  8
BEMA_U_00DFUNG
 62
     7
  0
POLYLINE
  5
6A5
330
1F
100
AcDbEntity
  8
BEMA_U_00DFUNG
 62
     7
100
AcDb2dPolyline
 66
     1
 10
0.0
 20
0.0
 30
0.0
  0
VERTEX
  5
6A6
330
6A5
100
AcDbEntity
  8
BEMA_U_00DFUNG
 62
     7
100
AcDbVertex
100
AcDb2dVertex
 10
156.3089688925004
 20
189.4279708386214
 30
0.0
  0
VERTEX
  5
6A7
330
6A5
100
AcDbEntity
  8
BEMA_U_00DFUNG
 62
     7
100
AcDbVertex
100
AcDb2dVertex
 10
156.3089688925004
 20
187.4718180613326
 30
0.0
  0
SEQEND
  5
6A8
330
6A5
100
AcDbEntity
  8
BEMA_U_00DFUNG
 62
     7
  0
POLYLINE
  5
6A9
330
1F
100
AcDbEntity
  8
BEMA_U_00DFUNG
 62
     7
100
AcDb2dPolyline
 66
     1
 10
0.0
 20
0.0
 30
0.0
  0
VERTEX
  5
6AA
330
6A9
100
AcDbEntity
  8
BEMA_U_00DFUNG
 62
     7
100
AcDbVertex
100
AcDb2dVertex
 10
156.3597688924875
 20
189.4279708386214
 30
0.0
  0
VERTEX
  5
6AB
330
6A9
100
AcDbEntity
  8
BEMA_U_00DFUNG
 62
     7
100
AcDbVertex
100
AcDb2dVertex
 10
156.3597688924875
 20
187.0858791725399
 30
0.0
  0
SEQEND
  5
6AC
330
6A9
100
AcDbEntity
  8
BEMA_U_00DFUNG
 62
     7
  0
POLYLINE
  5
6AD
330
1F
100
AcDbEntity
  8
BEMA_U_00DFUNG
 62
     7
100
AcDb2dPolyline
 66
     1
 10
0.0
 20
0.0
 30
0.0
  0
VERTEX
  5
6AE
330
6AD
100
AcDbEntity
  8
BEMA_U_00DFUNG
 62
     7
100
AcDbVertex
100
AcDb2dVertex
 10
156.4105688924748
 20
189.4279708386214
 30
0.0
  0
VERTEX
  5
6AF
330
6AD
100
AcDbEntity
  8
BEMA_U_00DFUNG
 62
     7
100
AcDbVertex
100
AcDb2dVertex
 10
156.4105688924748
 20
186.7002930615255
 30
0.0
  0
SEQEND
  5
6B0
330
6AD
100
AcDbEntity
  8
BEMA_U_00DFUNG
 62
     7
  0
POLYLINE
  5
6B1
330
1F
100
AcDbEntity
  8
BEMA_U_00DFUNG
 62
     7
100
AcDb2dPolyline
 66
     1
 10
0.0
 20
0.0
 30
0.0
  0
VERTEX
  5
6B2
330
6B1
100
AcDbEntity
  8
BEMA_U_00DFUNG
 62
     7
100
AcDbVertex
100
AcDb2dVertex
 10
156.4613688924622
 20
189.4279708386214
 30
0.0
  0
VERTEX
  5
6B3
330
6B1
100
AcDbEntity
  8
BEMA_U_00DFUNG
 62
     7
100
AcDbVertex
100
AcDb2dVertex
 10
156.4613688924622
 20
186.3140013949553
 30
0.0
  0
SEQEND
  5
6B4
330
6B1
100
AcDbEntity
  8
BEMA_U_00DFUNG
 62
     7
  0
POLYLINE
  5
6B5
330
1F
100
AcDbEntity
  8
BEMA_U_00DFUNG
 62
     7
100
AcDb2dPolyline
 66
     1
 10
0.0
 20
0.0
 30
0.0
  0
VERTEX
  5
6B6
330
6B5
100
AcDbEntity
  8
BEMA_U_00DFUNG
 62
     7
100
AcDbVertex
100
AcDb2dVertex
 10
156.5121688924493
 20
189.4279708386214
 30
0.0
  0
VERTEX
  5
6B7
330
6B5
100
AcDbEntity
  8
BEMA_U_00DFUNG
 62
     7
100
AcDbVertex
100
AcDb2dVertex
 10
156.5121688924493
 20
185.9284152839407
 30
0.0
  0
SEQEND
  5
6B8
330
6B5
100
AcDbEntity
  8
BEMA_U_00DFUNG
 62
     7
  0
MTEXT
  5
6BA
330
1F
100
AcDbEntity
  8
TEXT
 62
     7
100
AcDbMText
 10
35.6271292915286
 20
226.2375041819932
 30
0.0
 40
3.447529173370601
 41
0.0
 71
     7
 72
     1
  1
\fINDEX Univers 45 Light|b0|i0|c0|p34;\W1;s30
  0
MTEXT
  5
6BB
330
1F
100
AcDbEntity
  8
TEXT
 62
     7
100
AcDbMText
 10
88.73370952507135
 20
194.9140554576598
 30
0.0
 40
3.447529173370601
 41
0.0
 71
     7
 72
     1
  1
\fINDEX Univers 45 Light|b0|i0|c0|p34;\W1;ø20
 11
6.123233995736766E-17
 21
1.0
 31
0.0
  0
MTEXT
  5
6BC
330
1F
100
AcDbEntity
  8
TEXT
 62
     7
100
AcDbMText
 10
78.77850592021288
 20
189.3558083802598
 30
0.0
 40
3.447529173370601
 41
0.0
 71
     7
 72
     1
  1
\fINDEX Univers 45 Light|b0|i0|c0|p34;\W1;M28x1,5
 11
6.123233995736766E-17
 21
1.0
 31
0.0
  0
MTEXT
  5
6BD
330
1F
100
AcDbEntity
  8
TEXT
 62
     7
100
AcDbMText
 10
155.6391325667489
 20
188.3371743896969
 30
0.0
 40
3.447529173370601
 41
0.0
 71
     7
 72
     1
  1
\fINDEX Univers 45 Light|b0|i0|c0|p34;\W1;M25x1,5
 11
6.123233995736766E-17
 21
1.0
 31
0.0
  0
ENDSEC
  0
SECTION
  2
OBJECTS
  0
DICTIONARY
  5
C
330
0
100
AcDbDictionary
  3
ACAD_GROUP
350
D
  3
ACAD_LAYOUT
350
1A
  3
ACAD_MATERIAL
350
3B
  3
ACAD_MLEADERSTYLE
350
6E0
  3
ACAD_MLINESTYLE
350
17
  3
ACAD_PLOTSETTINGS
350
19
  3
ACAD_VISUALSTYLE
350
2A
  3
ACDBHEADERROUNDTRIPXREC
350
6BE
  3
ACDBVARIABLEDICTIONARY
350
6DE
  0
DICTIONARY
  5
D
102
{ACAD_REACTORS
330
C
102
}
330
C
100
AcDbDictionary
  0
DICTIONARY
  5
1A
102
{ACAD_REACTORS
330
C
102
}
330
C
100
AcDbDictionary
  0
DICTIONARY
  5
3B
102
{ACAD_REACTORS
330
C
102
}
330
C
100
AcDbDictionary
  3
BYBLOCK
350
3D
  3
BYLAYER
350
3C
  3
GLOBAL
350
3E
  0
DICTIONARY
  5
6E0
102
{ACAD_REACTORS
330
C
102
}
330
C
100
AcDbDictionary
  0
DICTIONARY
  5
17
102
{ACAD_REACTORS
330
C
102
}
330
C
100
AcDbDictionary
  3
STANDARD
350
18
  0
DICTIONARY
  5
19
102
{ACAD_REACTORS
330
C
102
}
330
C
100
AcDbDictionary
  0
DICTIONARY
  5
2A
102
{ACAD_REACTORS
330
C
102
}
330
C
100
AcDbDictionary
  3
2DWIREFRAME
350
2F
  3
3D_HIDDEN
350
31
  3
3DWIREFRAME
350
30
  3
BASIC
350
32
  3
BRIGHTEN
350
36
  3
COLORCHANGE
350
3A
  3
CONCEPTUAL
350
34
  3
DIM
350
35
  3
FACEPATTERN
350
39
  3
FLAT
350
2B
  3
FLATWITHEDGES
350
2C
  3
GOURAUD
350
2D
  3
GOURAUDWITHEDGES
350
2E
  3
LINEPATTERN
350
38
  3
REALISTIC
350
33
  3
THICKEN
350
37
  0
DICTIONARY
  5
6BE
102
{ACAD_REACTORS
330
C
102
}
330
C
100
AcDbDictionary
  3
CEPSNTYPE
350
6C7
  3
DIMSTYLEDATA
350
6DD
  3
FINGERPRINTGUID
350
6C8
  3
HYPERLINKBASE
350
6C1
  3
INSUNITS
350
6C6
  3
LAYOUTDICT
350
6C3
  3
LWETCUNION
350
6C5
  3
PLOTSETDICT
350
6C4
  3
PSVPSCALE
350
6CA
  3
PUCSBASE
350
6CD
  3
PUCSORGBACK
350
6D3
  3
PUCSORGBOTTOM
350
6CF
  3
PUCSORGFRONT
350
6D2
  3
PUCSORGLEFT
350
6D0
  3
PUCSORGRIGHT
350
6D1
  3
PUCSORGTOP
350
6CE
  3
PUCSORTHOREF
350
6CB
  3
PUCSORTHOVIEW
350
6CC
  3
STYLESHEET
350
6C2
  3
TSTACKALIGN
350
6BF
  3
TSTACKSIZE
350
6C0
  3
UCSBASE
350
6D6
  3
UCSORGBACK
350
6DC
  3
UCSORGBOTTOM
350
6D8
  3
UCSORGFRONT
350
6DB
  3
UCSORGLEFT
350
6D9
  3
UCSORGRIGHT
350
6DA
  3
UCSORGTOP
350
6D7
  3
UCSORTHOREF
350
6D4
  3
UCSORTHOVIEW
350
6D5
  3
VERSIONGUID
350
6C9
  0
DICTIONARY
  5
6DE
102
{ACAD_REACTORS
330
C
102
}
330
C
100
AcDbDictionary
  3
DIMASSOC
350
6E1
  3
HIDETEXT
350
6E2
  0
MATERIAL
  5
3D
102
{ACAD_REACTORS
330
3B
102
}
102
{ACAD_XDICTIONARY
360
6E5
102
}
330
3B
100
AcDbMaterial
  1
ByBlock
  0
MATERIAL
  5
3C
102
{ACAD_REACTORS
330
3B
102
}
102
{ACAD_XDICTIONARY
360
6E3
102
}
330
3B
100
AcDbMaterial
  1
ByLayer
  0
MATERIAL
  5
3E
102
{ACAD_REACTORS
330
3B
102
}
102
{ACAD_XDICTIONARY
360
6E7
102
}
330
3B
100
AcDbMaterial
  1
Global
  0
MLINESTYLE
  5
18
102
{ACAD_REACTORS
330
17
102
}
330
17
100
AcDbMlineStyle
  2
Standard
 70
     0
  3

 62
   256
 51
90.0
 52
90.0
 71
     2
 49
0.5
 62
   256
  6
BYLAYER
 49
-0.5
 62
   256
  6
BYLAYER
  0
ACAD_PROXY_OBJECT
  5
2F
102
{ACAD_REACTORS
330
2A
102
}
330
2A
100
AcDbProxyObject
 90
      499
 91
      501
 93
      436
310
42CC9915DA5C99599C985B595049028333333333333E3BF0000000000000FB0107901411070040501600405405064090741402480A0340
1001
ACAD
1000
AcDbSavedByObjectVersion
1070
     0
  0
ACAD_PROXY_OBJECT
  5
31
102
{ACAD_REACTORS
330
2A
102
}
330
2A
100
AcDbProxyObject
 90
      499
 91
      501
 93
      500
310
424CD108121A5919195B90640502408333333333333E3BF0000000000000FB01079024090700405020000000000001110200405405064090740C02480A0340
1001
ACAD
1000
AcDbSavedByObjectVersion
1070
     0
  0
ACAD_PROXY_OBJECT
  5
30
102
{ACAD_REACTORS
330
2A
102
}
330
2A
100
AcDbProxyObject
 90
      499
 91
      501
 93
      436
310
42CCD915DA5C99599C985B595059028333333333333E3BF0000000000000FB0107901411070040501600405405064090741402480A0340
1001
ACAD
1000
AcDbSavedByObjectVersion
1070
     0
  0
ACAD_PROXY_OBJECT
  5
32
102
{ACAD_REACTORS
330
2A
102
}
330
2A
100
AcDbProxyObject
 90
      499
 91
      501
 93
      388
310
4150985CDA58D07406404333333333333E3BF0000000000000FB0107A41107004050150841D405064090741402480A0350
1001
ACAD
1000
AcDbSavedByObjectVersion
1070
     0
  0
ACAD_PROXY_OBJECT
  5
36
102
{ACAD_REACTORS
330
2A
102
}
330
2A
100
AcDbProxyObject
 90
      499
 91
      501
 93
      428
310
42109C9A59DA1D195B90C409028333333333333E3BF0000000000000FB010790141107004050150841D405064090741402480A029950
1001
ACAD
1000
AcDbSavedByObjectVersion
1070
     0
  0
ACAD_PROXY_OBJECT
  5
3A
102
{ACAD_REACTORS
330
2A
102
}
330
2A
100
AcDbProxyObject
 90
      499
 91
      501
 93
      452
310
42D0DBDB1BDC90DA185B99D95104090240C333333333333E3BF0000000000000FB0108901411070040501508421405064090741402480A0350
1001
ACAD
1000
AcDbSavedByObjectVersion
1070
     0
  0
ACAD_PROXY_OBJECT
  5
34
102
{ACAD_REACTORS
330
2A
102
}
330
2A
100
AcDbProxyObject
 90
      499
 91
      501
 93
      500
310
4290DBDB98D95C1D1D585B10940D028333333333333E3BF0000000000000FB0107902409070040501000000000000111010841D405064090740C02480A0340
1001
ACAD
1000
AcDbSavedByObjectVersion
1070
     0
  0
ACAD_PROXY_OBJECT
  5
35
102
{ACAD_REACTORS
330
2A
102
}
330
2A
100
AcDbProxyObject
 90
      499
 91
      501
 93
      412
310
40D11A5B50B409028333333333333E3BF0000000000000FB010790141107004050150841D405064090741402480A02677FFFFFD0
1001
ACAD
1000
AcDbSavedByObjectVersion
1070
     0
  0
ACAD_PROXY_OBJECT
  5
39
102
{ACAD_REACTORS
330
2A
102
}
330
2A
100
AcDbProxyObject
 90
      499
 91
      501
 93
      444
310
42D19858D95C185D1D195C9B90F409028333333333333E3BF0000000000000FB010790141107004050150841D405064090741402480A0350
1001
ACAD
1000
AcDbSavedByObjectVersion
1070
     0
  0
ACAD_PROXY_OBJECT
  5
2B
102
{ACAD_REACTORS
330
2A
102
}
330
2A
100
AcDbProxyObject
 90
      499
 91
      501
 93
      388
310
41119B185D240901404333333333333E3BF0000000000000F9010740A41107004050150841D405064090741402480A1B50
1001
ACAD
1000
AcDbSavedByObjectVersion
1070
     0
  0
ACAD_PROXY_OBJECT
  5
2C
102
{ACAD_REACTORS
330
2A
102
}
330
2A
100
AcDbProxyObject
 90
      499
 91
      501
 93
      476
310
43519B185D15DA5D1A115919D95CD0140901404333333333333E3BF0000000000000F9010740901411070040501600405405064090741402480A1B50
1001
ACAD
1000
AcDbSavedByObjectVersion
1070
     0
  0
ACAD_PROXY_OBJECT
  5
2D
102
{ACAD_REACTORS
330
2A
102
}
330
2A
100
AcDbProxyObject
 90
      499
 91
      501
 93
      412
310
41D1DBDD5C985D5910240902404333333333333E3BF0000000000000F9010740A411070040501641D405064090741402480A1B50
1001
ACAD
1000
AcDbSavedByObjectVersion
1070
     0
  0
ACAD_PROXY_OBJECT
  5
2E
102
{ACAD_REACTORS
330
2A
102
}
330
2A
100
AcDbProxyObject
 90
      499
 91
      501
 93
      500
310
4411DBDD5C985D5915DA5D1A115919D95CD0340902404333333333333E3BF0000000000000F9010740901411070040501600405405064090741402480A1B50
1001
ACAD
1000
AcDbSavedByObjectVersion
1070
     0
  0
ACAD_PROXY_OBJECT
  5
38
102
{ACAD_REACTORS
330
2A
102
}
330
2A
100
AcDbProxyObject
 90
      499
 91
      501
 93
      444
310
42D31A5B995C185D1D195C9B90E409028333333333333E3BF0000000000000FB010790141107004050750841D405064090741402483A0350
1001
ACAD
1000
AcDbSavedByObjectVersion
1070
     0
  0
ACAD_PROXY_OBJECT
  5
33
102
{ACAD_REACTORS
330
2A
102
}
330
2A
100
AcDbProxyObject
 90
      499
 91
      501
 93
      420
310
425499585B1A5CDD1A58D08409028333333333333E3BF0000000000000FB01079019070040501508421405064090741402480A1B40
1001
ACAD
1000
AcDbSavedByObjectVersion
1070
     0
  0
ACAD_PROXY_OBJECT
  5
37
102
{ACAD_REACTORS
330
2A
102
}
330
2A
100
AcDbProxyObject
 90
      499
 91
      501
 93
      412
310
41D51A1A58DAD95B90D409028333333333333E3BF0000000000000FB010790141107004050150C41D405064090741402480A0350
1001
ACAD
1000
AcDbSavedByObjectVersion
1070
     0
  0
XRECORD
  5
6C7
102
{ACAD_REACTORS
330
6BE
102
}
330
6BE
100
AcDbXrecord
 90
        0
  0
XRECORD
  5
6DD
102
{ACAD_REACTORS
330
6BE
102
}
330
6BE
100
AcDbXrecord
1000
DSTYLE
1002
{
1070
   340
340
11
1002
}
  0
XRECORD
  5
6C8
102
{ACAD_REACTORS
330
6BE
102
}
330
6BE
100
AcDbXrecord
  1
{A58C26AE-5A27-419C-A4CD-064968FC1AB8}
  0
XRECORD
  5
6C1
102
{ACAD_REACTORS
330
6BE
102
}
330
6BE
100
AcDbXrecord
  1

  0
XRECORD
  5
6C6
102
{ACAD_REACTORS
330
6BE
102
}
330
6BE
100
AcDbXrecord
 90
        4
  0
XRECORD
  5
6C3
102
{ACAD_REACTORS
330
6BE
102
}
330
6BE
100
AcDbXrecord
340
1A
  0
XRECORD
  5
6C5
102
{ACAD_REACTORS
330
6BE
102
}
330
6BE
100
AcDbXrecord
 90
    10269
  0
XRECORD
  5
6C4
102
{ACAD_REACTORS
330
6BE
102
}
330
6BE
100
AcDbXrecord
340
19
  0
XRECORD
  5
6CA
102
{ACAD_REACTORS
330
6BE
102
}
330
6BE
100
AcDbXrecord
 40
0.0
  0
XRECORD
  5
6CD
102
{ACAD_REACTORS
330
6BE
102
}
330
6BE
100
AcDbXrecord
340
0
  0
XRECORD
  5
6D3
102
{ACAD_REACTORS
330
6BE
102
}
330
6BE
100
AcDbXrecord
 10
0.0
 20
0.0
 30
0.0
  0
XRECORD
  5
6CF
102
{ACAD_REACTORS
330
6BE
102
}
330
6BE
100
AcDbXrecord
 10
0.0
 20
0.0
 30
0.0
  0
XRECORD
  5
6D2
102
{ACAD_REACTORS
330
6BE
102
}
330
6BE
100
AcDbXrecord
 10
0.0
 20
0.0
 30
0.0
  0
XRECORD
  5
6D0
102
{ACAD_REACTORS
330
6BE
102
}
330
6BE
100
AcDbXrecord
 10
0.0
 20
0.0
 30
0.0
  0
XRECORD
  5
6D1
102
{ACAD_REACTORS
330
6BE
102
}
330
6BE
100
AcDbXrecord
 10
0.0
 20
0.0
 30
0.0
  0
XRECORD
  5
6CE
102
{ACAD_REACTORS
330
6BE
102
}
330
6BE
100
AcDbXrecord
 10
0.0
 20
0.0
 30
0.0
  0
XRECORD
  5
6CB
102
{ACAD_REACTORS
330
6BE
102
}
330
6BE
100
AcDbXrecord
340
0
  0
XRECORD
  5
6CC
102
{ACAD_REACTORS
330
6BE
102
}
330
6BE
100
AcDbXrecord
 70
     0
  0
XRECORD
  5
6C2
102
{ACAD_REACTORS
330
6BE
102
}
330
6BE
100
AcDbXrecord
  1

  0
XRECORD
  5
6BF
102
{ACAD_REACTORS
330
6BE
102
}
330
6BE
100
AcDbXrecord
 90
        1
  0
XRECORD
  5
6C0
102
{ACAD_REACTORS
330
6BE
102
}
330
6BE
100
AcDbXrecord
 90
       70
  0
XRECORD
  5
6D6
102
{ACAD_REACTORS
330
6BE
102
}
330
6BE
100
AcDbXrecord
340
0
  0
XRECORD
  5
6DC
102
{ACAD_REACTORS
330
6BE
102
}
330
6BE
100
AcDbXrecord
 10
0.0
 20
0.0
 30
0.0
  0
XRECORD
  5
6D8
102
{ACAD_REACTORS
330
6BE
102
}
330
6BE
100
AcDbXrecord
 10
0.0
 20
0.0
 30
0.0
  0
XRECORD
  5
6DB
102
{ACAD_REACTORS
330
6BE
102
}
330
6BE
100
AcDbXrecord
 10
0.0
 20
0.0
 30
0.0
  0
XRECORD
  5
6D9
102
{ACAD_REACTORS
330
6BE
102
}
330
6BE
100
AcDbXrecord
 10
0.0
 20
0.0
 30
0.0
  0
XRECORD
  5
6DA
102
{ACAD_REACTORS
330
6BE
102
}
330
6BE
100
AcDbXrecord
 10
0.0
 20
0.0
 30
0.0
  0
XRECORD
  5
6D7
102
{ACAD_REACTORS
330
6BE
102
}
330
6BE
100
AcDbXrecord
 10
0.0
 20
0.0
 30
0.0
  0
XRECORD
  5
6D4
102
{ACAD_REACTORS
330
6BE
102
}
330
6BE
100
AcDbXrecord
340
0
  0
XRECORD
  5
6D5
102
{ACAD_REACTORS
330
6BE
102
}
330
6BE
100
AcDbXrecord
 70
     0
  0
XRECORD
  5
6C9
102
{ACAD_REACTORS
330
6BE
102
}
330
6BE
100
AcDbXrecord
  1
{FAEB1C32-E019-11D5-929B-00C0DF256EC4}
  0
DICTIONARYVAR
  5
6E1
102
{ACAD_REACTORS
330
6DE
102
}
330
6DE
100
DictionaryVariables
280
     0
  1
2
  0
DICTIONARYVAR
  5
6E2
102
{ACAD_REACTORS
330
6DE
102
}
330
6DE
100
DictionaryVariables
280
     0
  1
1
  0
DICTIONARY
  5
6E5
330
3D
100
AcDbDictionary
280
     1
  3
ACAD_XREC_ROUNDTRIP
360
6E6
  0
DICTIONARY
  5
6E3
330
3C
100
AcDbDictionary
280
     1
  3
ACAD_XREC_ROUNDTRIP
360
6E4
  0
DICTIONARY
  5
6E7
330
3E
100
AcDbDictionary
280
     1
  3
ACAD_XREC_ROUNDTRIP
360
6E8
  0
XRECORD
  5
6E6
102
{ACAD_REACTORS
330
6E5
102
}
330
6E5
100
AcDbXrecord
102
MATERIAL
148
0.0
149
0.0
149
0.0
 93
        0
 94
      127
282
     0
 72
     1
 77
     1
171
     1
175
     1
179
     1
273
     0
  0
XRECORD
  5
6E4
102
{ACAD_REACTORS
330
6E3
102
}
330
6E3
100
AcDbXrecord
102
MATERIAL
148
0.0
149
0.0
149
0.0
 93
        0
 94
      127
282
     0
 72
     1
 77
     1
171
     1
175
     1
179
     1
273
     0
  0
XRECORD
  5
6E8
102
{ACAD_REACTORS
330
6E7
102
}
330
6E7
100
AcDbXrecord
102
MATERIAL
148
0.0
149
0.0
149
0.0
 93
        0
 94
      127
282
     0
 72
     1
 77
     1
171
     1
175
     1
179
     1
273
     0
  0
ENDSEC
  0
EOF
