  0
SECTION
  2
HEADER
  9
$ACADVER
  1
AC1014
  9
$ACADMAINTVER
 70
     9
  9
$DWGCODEPAGE
  3
ANSI_1252
  9
$INSBASE
 10
0.0
 20
0.0
 30
0.0
  9
$EXTMIN
 10
1.000000000000000E+20
 20
1.000000000000000E+20
 30
1.000000000000000E+20
  9
$EXTMAX
 10
-1.000000000000000E+20
 20
-1.000000000000000E+20
 30
-1.000000000000000E+20
  9
$LIMMIN
 10
0.0
 20
0.0
  9
$LIMMAX
 10
12.0
 20
9.0
  9
$ORTHOMODE
 70
     0
  9
$REGENMODE
 70
     1
  9
$FILLMODE
 70
     1
  9
$QTEXTMODE
 70
     0
  9
$MIRRTEXT
 70
     1
  9
$DRAGMODE
 70
     2
  9
$LTSCALE
 40
1.0
  9
$OSMODE
 70
    37
  9
$ATTMODE
 70
     1
  9
$TEXTSIZE
 40
0.2
  9
$TRACEWID
 40
0.05
  9
$TEXTSTYLE
  7
STANDARD
  9
$CLAYER
  8
0
  9
$CELTYPE
  6
BYLAYER
  9
$CECOLOR
 62
   256
  9
$CELTSCALE
 40
1.0
  9
$DELOBJ
 70
     1
  9
$DISPSILH
 70
     0
  9
$DIMSCALE
 40
1.0
  9
$DIMASZ
 40
0.18
  9
$DIMEXO
 40
0.0625
  9
$DIMDLI
 40
0.38
  9
$DIMRND
 40
0.0
  9
$DIMDLE
 40
0.0
  9
$DIMEXE
 40
0.18
  9
$DIMTP
 40
0.0
  9
$DIMTM
 40
0.0
  9
$DIMTXT
 40
0.18
  9
$DIMCEN
 40
0.09
  9
$DIMTSZ
 40
0.0
  9
$DIMTOL
 70
     0
  9
$DIMLIM
 70
     0
  9
$DIMTIH
 70
     1
  9
$DIMTOH
 70
     1
  9
$DIMSE1
 70
     0
  9
$DIMSE2
 70
     0
  9
$DIMTAD
 70
     0
  9
$DIMZIN
 70
     0
  9
$DIMBLK
  1

  9
$DIMASO
 70
     1
  9
$DIMSHO
 70
     1
  9
$DIMPOST
  1

  9
$DIMAPOST
  1

  9
$DIMALT
 70
     0
  9
$DIMALTD
 70
     2
  9
$DIMALTF
 40
25.4
  9
$DIMLFAC
 40
1.0
  9
$DIMTOFL
 70
     0
  9
$DIMTVP
 40
0.0
  9
$DIMTIX
 70
     0
  9
$DIMSOXD
 70
     0
  9
$DIMSAH
 70
     0
  9
$DIMBLK1
  1

  9
$DIMBLK2
  1

  9
$DIMSTYLE
  2
STANDARD
  9
$DIMCLRD
 70
     0
  9
$DIMCLRE
 70
     0
  9
$DIMCLRT
 70
     0
  9
$DIMTFAC
 40
1.0
  9
$DIMGAP
 40
0.09
  9
$DIMJUST
 70
     0
  9
$DIMSD1
 70
     0
  9
$DIMSD2
 70
     0
  9
$DIMTOLJ
 70
     1
  9
$DIMTZIN
 70
     0
  9
$DIMALTZ
 70
     0
  9
$DIMALTTZ
 70
     0
  9
$DIMFIT
 70
     3
  9
$DIMUPT
 70
     0
  9
$DIMUNIT
 70
     2
  9
$DIMDEC
 70
     4
  9
$DIMTDEC
 70
     4
  9
$DIMALTU
 70
     2
  9
$DIMALTTD
 70
     2
  9
$DIMTXSTY
  7
STANDARD
  9
$DIMAUNIT
 70
     0
  9
$LUNITS
 70
     2
  9
$LUPREC
 70
     4
  9
$SKETCHINC
 40
0.1
  9
$FILLETRAD
 40
0.5
  9
$AUNITS
 70
     0
  9
$AUPREC
 70
     0
  9
$MENU
  1
.
  9
$ELEVATION
 40
0.0
  9
$PELEVATION
 40
0.0
  9
$THICKNESS
 40
0.0
  9
$LIMCHECK
 70
     0
  9
$CHAMFERA
 40
0.5
  9
$CHAMFERB
 40
0.5
  9
$CHAMFERC
 40
1.0
  9
$CHAMFERD
 40
0.0
  9
$SKPOLY
 70
     0
  9
$TDCREATE
 40
2458905.614744016
  9
$TDUPDATE
 40
2458905.614744618
  9
$TDINDWG
 40
0.0000000116
  9
$TDUSRTIMER
 40
0.0000000116
  9
$USRTIMER
 70
     1
  9
$ANGBASE
 50
0.0
  9
$ANGDIR
 70
     0
  9
$PDMODE
 70
     0
  9
$PDSIZE
 40
0.0
  9
$PLINEWID
 40
0.0
  9
$COORDS
 70
     1
  9
$SPLFRAME
 70
     0
  9
$SPLINETYPE
 70
     6
  9
$SPLINESEGS
 70
     8
  9
$ATTDIA
 70
     0
  9
$ATTREQ
 70
     1
  9
$HANDLING
 70
     1
  9
$HANDSEED
  5
77A
  9
$SURFTAB1
 70
     6
  9
$SURFTAB2
 70
     6
  9
$SURFTYPE
 70
     6
  9
$SURFU
 70
     6
  9
$SURFV
 70
     6
  9
$UCSNAME
  2

  9
$UCSORG
 10
0.0
 20
0.0
 30
0.0
  9
$UCSXDIR
 10
1.0
 20
0.0
 30
0.0
  9
$UCSYDIR
 10
0.0
 20
1.0
 30
0.0
  9
$PUCSNAME
  2

  9
$PUCSORG
 10
0.0
 20
0.0
 30
0.0
  9
$PUCSXDIR
 10
1.0
 20
0.0
 30
0.0
  9
$PUCSYDIR
 10
0.0
 20
1.0
 30
0.0
  9
$USERI1
 70
     0
  9
$USERI2
 70
     0
  9
$USERI3
 70
     0
  9
$USERI4
 70
     0
  9
$USERI5
 70
     0
  9
$USERR1
 40
0.0
  9
$USERR2
 40
0.0
  9
$USERR3
 40
0.0
  9
$USERR4
 40
0.0
  9
$USERR5
 40
0.0
  9
$WORLDVIEW
 70
     1
  9
$SHADEDGE
 70
     3
  9
$SHADEDIF
 70
    70
  9
$TILEMODE
 70
     1
  9
$MAXACTVP
 70
    64
  9
$PINSBASE
 10
0.0
 20
0.0
 30
0.0
  9
$PLIMCHECK
 70
     0
  9
$PEXTMIN
 10
1.000000000000000E+20
 20
1.000000000000000E+20
 30
1.000000000000000E+20
  9
$PEXTMAX
 10
-1.000000000000000E+20
 20
-1.000000000000000E+20
 30
-1.000000000000000E+20
  9
$PLIMMIN
 10
0.0
 20
0.0
  9
$PLIMMAX
 10
12.0
 20
9.0
  9
$UNITMODE
 70
     0
  9
$VISRETAIN
 70
     1
  9
$PLINEGEN
 70
     0
  9
$PSLTSCALE
 70
     1
  9
$TREEDEPTH
 70
  3020
  9
$PICKSTYLE
 70
     1
  9
$CMLSTYLE
  2
STANDARD
  9
$CMLJUST
 70
     0
  9
$CMLSCALE
 40
1.0
  9
$PROXYGRAPHICS
 70
     1
  9
$MEASUREMENT
 70
     0
  0
ENDSEC
  0
SECTION
  2
CLASSES
  0
CLASS
  1
ACDBDICTIONARYWDFLT
  2
AcDbDictionaryWithDefault
  3
ObjectDBX Classes
 90
        0
280
     0
281
     0
  0
CLASS
  1
VISUALSTYLE
  2
AcDbVisualStyle
  3
ObjectDBX Classes
 90
     4095
280
     0
281
     0
  0
CLASS
  1
MATERIAL
  2
AcDbMaterial
  3
ObjectDBX Classes
 90
     1153
280
     0
281
     0
  0
CLASS
  1
SUN
  2
AcDbSun
  3
SCENEOE
 90
     1024
280
     0
281
     0
  0
CLASS
  1
DICTIONARYVAR
  2
AcDbDictionaryVar
  3
ObjectDBX Classes
 90
        0
280
     0
281
     0
  0
CLASS
  1
XRECORD
  2
AcDbXrecord
  3
AutoCAD 2000
 90
        0
280
     0
281
     0
  0
CLASS
  1
LWPOLYLINE
  2
AcDbPolyline
  3
AutoCAD 2000
 90
        0
280
     0
281
     1
  0
CLASS
  1
HATCH
  2
AcDbHatch
  3
AutoCAD 2000
 90
        0
280
     0
281
     1
  0
CLASS
  1
ACDBPLACEHOLDER
  2
AcDbPlaceHolder
  3
ObjectDBX Classes
 90
        0
280
     0
281
     0
  0
CLASS
  1
LAYOUT
  2
AcDbLayout
  3
ObjectDBX Classes
 90
        0
280
     0
281
     0
  0
ENDSEC
  0
SECTION
  2
TABLES
  0
TABLE
  2
VPORT
  5
8
330
0
100
AcDbSymbolTable
 70
     1
  0
VPORT
  5
29
330
8
100
AcDbSymbolTableRecord
100
AcDbViewportTableRecord
  2
*ACTIVE
 70
     0
 10
0.0
 20
0.0
 11
1.0
 21
1.0
 12
0.0
 22
0.0
 13
0.0
 23
0.0
 14
0.5
 24
0.5
 15
0.5
 25
0.5
 16
0.0
 26
0.0
 36
1.0
 17
100.0611110860992
 27
127.0194444126945
 37
0.0
 40
296.9999999257403
 41
0.7070707070707531
 42
50.0
 43
0.0
 44
0.0
 50
0.0
 51
0.0
 71
     0
 72
   100
 73
     1
 74
     3
 75
     0
 76
     0
 77
     0
 78
     0
  0
ENDTAB
  0
TABLE
  2
LTYPE
  5
5
330
0
100
AcDbSymbolTable
 70
     4
  0
LTYPE
  5
14
330
5
100
AcDbSymbolTableRecord
100
AcDbLinetypeTableRecord
  2
BYBLOCK
 70
     0
  3

 72
    65
 73
     0
 40
0.0
  0
LTYPE
  5
15
330
5
100
AcDbSymbolTableRecord
100
AcDbLinetypeTableRecord
  2
BYLAYER
 70
     0
  3

 72
    65
 73
     0
 40
0.0
  0
LTYPE
  5
16
330
5
100
AcDbSymbolTableRecord
100
AcDbLinetypeTableRecord
  2
CONTINUOUS
 70
     0
  3
Solid line
 72
    65
 73
     0
 40
0.0
  0
LTYPE
  5
44
330
5
100
AcDbSymbolTableRecord
100
AcDbLinetypeTableRecord
  2
AI-LINETYPE-1
 70
     0
  3
Adobe Illustrator Linetype No. 1
 72
    65
 73
     4
 40
5.997222220722918
 49
4.233333332275
 74
     0
 49
-0.7055555553791667
 74
     0
 49
0.3527777776895833
 74
     0
 49
-0.7055555553791667
 74
     0
  0
LTYPE
  5
49
330
5
100
AcDbSymbolTableRecord
100
AcDbLinetypeTableRecord
  2
AI-LINETYPE-2
 70
     0
  3
Adobe Illustrator Linetype No. 2
 72
    65
 73
     4
 40
5.997222220722918
 49
4.233333332275
 74
     0
 49
-0.7055555553791667
 74
     0
 49
0.3527777776895833
 74
     0
 49
-0.7055555553791667
 74
     0
  0
LTYPE
  5
4F
330
5
100
AcDbSymbolTableRecord
100
AcDbLinetypeTableRecord
  2
AI-LINETYPE-3
 70
     0
  3
Adobe Illustrator Linetype No. 3
 72
    65
 73
     4
 40
5.997222220722918
 49
4.233333332275
 74
     0
 49
-0.7055555553791667
 74
     0
 49
0.3527777776895833
 74
     0
 49
-0.7055555553791667
 74
     0
  0
ENDTAB
  0
TABLE
  2
LAYER
  5
2
330
0
100
AcDbSymbolTable
 70
     5
  0
LAYER
  5
10
330
2
100
AcDbSymbolTableRecord
100
AcDbLayerTableRecord
  2
0
 70
     0
 62
     7
  6
CONTINUOUS
  0
LAYER
  5
40
330
2
100
AcDbSymbolTableRecord
100
AcDbLayerTableRecord
  2
GRAU_10_
 70
     0
 62
     7
  6
CONTINUOUS
  0
LAYER
  5
4BA
330
2
100
AcDbSymbolTableRecord
100
AcDbLayerTableRecord
  2
STANDARDEBENE
 70
     0
 62
     7
  6
CONTINUOUS
  0
LAYER
  5
4EC
330
2
100
AcDbSymbolTableRecord
100
AcDbLayerTableRecord
  2
BEMA_U_00DFUNG
 70
     1
 62
     7
  6
CONTINUOUS
  0
LAYER
  5
74B
330
2
100
AcDbSymbolTableRecord
100
AcDbLayerTableRecord
  2
TEXT
 70
     1
 62
     7
  6
CONTINUOUS
  0
ENDTAB
  0
TABLE
  2
STYLE
  5
3
330
0
100
AcDbSymbolTable
 70
     1
  0
STYLE
  5
11
330
3
100
AcDbSymbolTableRecord
100
AcDbTextStyleTableRecord
  2
STANDARD
 70
     0
 40
0.0
 41
1.0
 50
0.0
 71
     0
 42
0.2
  3
txt
  4

  0
ENDTAB
  0
TABLE
  2
VIEW
  5
6
330
0
100
AcDbSymbolTable
 70
     0
  0
ENDTAB
  0
TABLE
  2
UCS
  5
7
330
0
100
AcDbSymbolTable
 70
     0
  0
ENDTAB
  0
TABLE
  2
APPID
  5
9
330
0
100
AcDbSymbolTable
 70
     1
  0
APPID
  5
12
330
9
100
AcDbSymbolTableRecord
100
AcDbRegAppTableRecord
  2
ACAD
 70
     0
  0
ENDTAB
  0
TABLE
  2
DIMSTYLE
  5
A
330
0
100
AcDbSymbolTable
 70
     1
  0
DIMSTYLE
105
27
330
A
100
AcDbSymbolTableRecord
100
AcDbDimStyleTableRecord
  2
STANDARD
 70
     0
  3

  4

  5

  6

  7

 40
1.0
 41
0.18
 42
0.0625
 43
0.38
 44
0.18
 45
0.0
 46
0.0
 47
0.0
 48
0.0
140
0.18
141
0.09
142
0.0
143
25.4
144
1.0
145
0.0
146
1.0
147
0.09
 71
     0
 72
     0
 73
     1
 74
     1
 75
     0
 76
     0
 77
     0
 78
     0
170
     0
171
     2
172
     0
173
     0
174
     0
175
     0
176
     0
177
     0
178
     0
270
     2
271
     4
272
     4
273
     2
274
     2
340
11
275
     0
280
     0
281
     0
282
     0
283
     1
284
     0
285
     0
286
     0
287
     3
288
     0
  0
ENDTAB
  0
TABLE
  2
BLOCK_RECORD
  5
1
330
0
100
AcDbSymbolTable
 70
     1
  0
BLOCK_RECORD
  5
1F
330
1
100
AcDbSymbolTableRecord
100
AcDbBlockTableRecord
  2
*MODEL_SPACE
  0
BLOCK_RECORD
  5
1B
330
1
100
AcDbSymbolTableRecord
100
AcDbBlockTableRecord
  2
*PAPER_SPACE
  0
ENDTAB
  0
ENDSEC
  0
SECTION
  2
BLOCKS
  0
BLOCK
  5
20
330
1F
100
AcDbEntity
  8
0
100
AcDbBlockBegin
  2
*MODEL_SPACE
 70
     0
 10
0.0
 20
0.0
 30
0.0
  3
*MODEL_SPACE
  1

  0
ENDBLK
  5
21
330
1F
100
AcDbEntity
  8
0
100
AcDbBlockEnd
  0
BLOCK
  5
1C
330
1B
100
AcDbEntity
 67
     1
  8
0
100
AcDbBlockBegin
  2
*PAPER_SPACE
 70
     0
 10
0.0
 20
0.0
 30
0.0
  3
*PAPER_SPACE
  1

  0
ENDBLK
  5
1D
330
1B
100
AcDbEntity
 67
     1
  8
0
100
AcDbBlockEnd
  0
ENDSEC
  0
SECTION
  2
ENTITIES
  0
POLYLINE
  5
41
330
1F
100
AcDbEntity
  8
GRAU_10_
  6
AI-LINETYPE-1
 62
   250
100
AcDb2dPolyline
 66
     1
 10
0.0
 20
0.0
 30
0.0
  0
VERTEX
  5
42
330
41
100
AcDbEntity
  8
GRAU_10_
  6
AI-LINETYPE-1
 62
   250
100
AcDbVertex
100
AcDb2dVertex
 10
67.97569164967271
 20
155.2822694647268
 30
0.0
  0
VERTEX
  5
43
330
41
100
AcDbEntity
  8
GRAU_10_
  6
AI-LINETYPE-1
 62
   250
100
AcDbVertex
100
AcDb2dVertex
 10
67.97569164967271
 20
210.5858155501917
 30
0.0
  0
SEQEND
  5
45
330
41
100
AcDbEntity
  8
GRAU_10_
  6
AI-LINETYPE-1
 62
   250
  0
POLYLINE
  5
46
330
1F
100
AcDbEntity
  8
GRAU_10_
  6
AI-LINETYPE-2
 62
   250
100
AcDb2dPolyline
 66
     1
 10
0.0
 20
0.0
 30
0.0
  0
VERTEX
  5
47
330
46
100
AcDbEntity
  8
GRAU_10_
  6
AI-LINETYPE-2
 62
   250
100
AcDbVertex
100
AcDb2dVertex
 10
42.90378249518287
 20
181.0221247268801
 30
0.0
  0
VERTEX
  5
48
330
46
100
AcDbEntity
  8
GRAU_10_
  6
AI-LINETYPE-2
 62
   250
100
AcDbVertex
100
AcDb2dVertex
 10
92.4427895749966
 20
181.0221247268801
 30
0.0
  0
SEQEND
  5
4A
330
46
100
AcDbEntity
  8
GRAU_10_
  6
AI-LINETYPE-2
 62
   250
  0
POLYLINE
  5
4B
330
1F
100
AcDbEntity
  8
GRAU_10_
  6
AI-LINETYPE-3
 62
   250
100
AcDb2dPolyline
 66
     1
 10
0.0
 20
0.0
 30
0.0
  0
VERTEX
  5
4C
330
4B
100
AcDbEntity
  8
GRAU_10_
  6
AI-LINETYPE-3
 62
   250
100
AcDbVertex
100
AcDb2dVertex
 10
164.1392434577825
 20
181.0221247268801
 30
0.0
  0
VERTEX
  5
4D
330
4B
100
AcDbEntity
  8
GRAU_10_
  6
AI-LINETYPE-3
 62
   250
100
AcDbVertex
100
AcDb2dVertex
 10
136.7377024480855
 20
181.0221247268801
 30
0.0
  0
VERTEX
  5
4E
330
4B
100
AcDbEntity
  8
GRAU_10_
  6
AI-LINETYPE-3
 62
   250
100
AcDbVertex
100
AcDb2dVertex
 10
133.7853427561513
 20
181.0221247268801
 30
0.0
  0
SEQEND
  5
50
330
4B
100
AcDbEntity
  8
GRAU_10_
  6
AI-LINETYPE-3
 62
   250
  0
SPLINE
  5
51
330
1F
100
AcDbEntity
  8
GRAU_10_
 62
     7
100
AcDbSpline
210
0.0
220
0.0
230
1.0
 70
     8
 71
     3
 72
     8
 73
     4
 74
     0
 42
0.0000000001
 43
0.0000000001
 12
1.0
 22
0.0
 32
0.0
 13
1.0
 23
0.0
 33
0.0
 40
0.0
 40
0.0
 40
0.0
 40
0.0
 40
1.0
 40
1.0
 40
1.0
 40
1.0
 10
58.66588609644482
 20
182.9158358375176
 30
0.0
 10
56.88259443022387
 20
183.3963191707309
 30
0.0
 10
55.09365831956002
 20
183.7303997262029
 30
0.0
 10
53.50862776440058
 20
183.8983219483831
 30
0.0
  0
SPLINE
  5
52
330
1F
100
AcDbEntity
  8
GRAU_10_
 62
     7
100
AcDbSpline
210
0.0
220
0.0
230
1.0
 70
     8
 71
     3
 72
     8
 73
     4
 74
     0
 42
0.0000000001
 43
0.0000000001
 12
1.0
 22
0.0
 32
0.0
 13
1.0
 23
0.0
 33
0.0
 40
0.0
 40
0.0
 40
0.0
 40
0.0
 40
1.0
 40
1.0
 40
1.0
 40
1.0
 10
53.50862776440058
 20
178.1462802831546
 30
0.0
 10
55.34483609727516
 20
178.3551247275467
 30
0.0
 10
57.13094998571724
 20
178.7019052830153
 30
0.0
 10
58.66623887422257
 20
179.1287663940201
 30
0.0
  0
SPLINE
  5
53
330
1F
100
AcDbEntity
  8
GRAU_10_
 62
     7
100
AcDbSpline
210
0.0
220
0.0
230
1.0
 70
     8
 71
     3
 72
     8
 73
     4
 74
     0
 42
0.0000000001
 43
0.0000000001
 12
1.0
 22
0.0
 32
0.0
 13
1.0
 23
0.0
 33
0.0
 40
0.0
 40
0.0
 40
0.0
 40
0.0
 40
1.0
 40
1.0
 40
1.0
 40
1.0
 10
53.50862776440058
 20
183.8983219483831
 30
0.0
 10
53.1117527644998
 20
181.9019525044375
 30
0.0
 10
53.13821109782678
 20
179.9193413938224
 30
0.0
 10
53.50862776440058
 20
178.1462802831546
 30
0.0
  0
SPLINE
  5
54
330
1F
100
AcDbEntity
  8
GRAU_10_
 62
     7
100
AcDbSpline
210
0.0
220
0.0
230
1.0
 70
     8
 71
     3
 72
     8
 73
     4
 74
     0
 42
0.0000000001
 43
0.0000000001
 12
1.0
 22
0.0
 32
0.0
 13
1.0
 23
0.0
 33
0.0
 40
0.0
 40
0.0
 40
0.0
 40
0.0
 40
1.0
 40
1.0
 40
1.0
 40
1.0
 10
58.66623887422257
 20
182.9158358375176
 30
0.0
 10
58.39883331873362
 20
181.6017386156241
 30
0.0
 10
58.41717776317368
 20
180.2968136159502
 30
0.0
 10
58.66623887422257
 20
179.1287663940201
 30
0.0
  0
SPLINE
  5
55
330
1F
100
AcDbEntity
  8
GRAU_10_
 62
     7
100
AcDbSpline
210
0.0
220
0.0
230
1.0
 70
     8
 71
     3
 72
     8
 73
     4
 74
     0
 42
0.0000000001
 43
0.0000000001
 12
1.0
 22
0.0
 32
0.0
 13
1.0
 23
0.0
 33
0.0
 40
0.0
 40
0.0
 40
0.0
 40
0.0
 40
1.0
 40
1.0
 40
1.0
 40
1.0
 10
77.70001109168625
 20
169.9311441740972
 30
0.0
 10
76.60110831418328
 20
171.4170441737255
 30
0.0
 10
75.40730831448172
 20
172.7907608400489
 30
0.0
 10
74.26995275921045
 20
173.9065969508812
 30
0.0
  0
SPLINE
  5
56
330
1F
100
AcDbEntity
  8
GRAU_10_
 62
     7
100
AcDbSpline
210
0.0
220
0.0
230
1.0
 70
     8
 71
     3
 72
     8
 73
     4
 74
     0
 42
0.0000000001
 43
0.0000000001
 12
1.0
 22
0.0
 32
0.0
 13
1.0
 23
0.0
 33
0.0
 40
0.0
 40
0.0
 40
0.0
 40
0.0
 40
1.0
 40
1.0
 40
1.0
 40
1.0
 10
72.71808331515385
 20
167.0552997303717
 30
0.0
 10
74.64566109244971
 20
167.7097025079857
 30
0.0
 10
76.34922498091294
 20
168.7235858410655
 30
0.0
 10
77.70001109168625
 20
169.9311441740972
 30
0.0
  0
SPLINE
  5
57
330
1F
100
AcDbEntity
  8
GRAU_10_
 62
     7
100
AcDbSpline
210
0.0
220
0.0
230
1.0
 70
     8
 71
     3
 72
     8
 73
     4
 74
     0
 42
0.0000000001
 43
0.0000000001
 12
1.0
 22
0.0
 32
0.0
 13
1.0
 23
0.0
 33
0.0
 40
0.0
 40
0.0
 40
0.0
 40
0.0
 40
1.0
 40
1.0
 40
1.0
 40
1.0
 10
70.99088331558575
 20
172.0128858402434
 30
0.0
 10
71.46607498213353
 20
170.2278302851342
 30
0.0
 10
72.07108887087122
 20
168.5115663966745
 30
0.0
 10
72.71808331515385
 20
167.0552997303717
 30
0.0
  0
SPLINE
  5
58
330
1F
100
AcDbEntity
  8
GRAU_10_
 62
     7
100
AcDbSpline
210
0.0
220
0.0
230
1.0
 70
     8
 71
     3
 72
     8
 73
     4
 74
     0
 42
0.0000000001
 43
0.0000000001
 12
1.0
 22
0.0
 32
0.0
 13
1.0
 23
0.0
 33
0.0
 40
0.0
 40
0.0
 40
0.0
 40
0.0
 40
1.0
 40
1.0
 40
1.0
 40
1.0
 10
70.99088331558575
 20
172.0128858402434
 30
0.0
 10
72.26194164860134
 20
172.4383358401371
 30
0.0
 10
73.38342220387656
 20
173.1064969510812
 30
0.0
 10
74.26995275921045
 20
173.9065969508812
 30
0.0
  0
SPLINE
  5
59
330
1F
100
AcDbEntity
  8
GRAU_10_
 62
     7
100
AcDbSpline
210
0.0
220
0.0
230
1.0
 70
     8
 71
     3
 72
     8
 73
     4
 74
     0
 42
0.0000000001
 43
0.0000000001
 12
1.0
 22
0.0
 32
0.0
 13
1.0
 23
0.0
 33
0.0
 40
0.0
 40
0.0
 40
0.0
 40
0.0
 40
1.0
 40
1.0
 40
1.0
 40
1.0
 10
63.23259442863637
 20
167.0552997303717
 30
0.0
 10
63.96989998400765
 20
168.749338618837
 30
0.0
 10
64.56256665052625
 20
170.4705413961847
 30
0.0
 10
64.96085276153775
 20
172.0128858402434
 30
0.0
  0
SPLINE
  5
5A
330
1F
100
AcDbEntity
  8
GRAU_10_
 62
     7
100
AcDbSpline
210
0.0
220
0.0
230
1.0
 70
     8
 71
     3
 72
     8
 73
     4
 74
     0
 42
0.0000000001
 43
0.0000000001
 12
1.0
 22
0.0
 32
0.0
 13
1.0
 23
0.0
 33
0.0
 40
0.0
 40
0.0
 40
0.0
 40
0.0
 40
1.0
 40
1.0
 40
1.0
 40
1.0
 10
61.68107776235753
 20
173.9065969508812
 30
0.0
 10
60.37262498490692
 20
172.6023775067628
 30
0.0
 10
59.18870276298076
 20
171.2201941737751
 30
0.0
 10
58.25172498543725
 20
169.9311441740972
 30
0.0
  0
SPLINE
  5
5B
330
1F
100
AcDbEntity
  8
GRAU_10_
 62
     7
100
AcDbSpline
210
0.0
220
0.0
230
1.0
 70
     8
 71
     3
 72
     8
 73
     4
 74
     0
 42
0.0000000001
 43
0.0000000001
 12
1.0
 22
0.0
 32
0.0
 13
1.0
 23
0.0
 33
0.0
 40
0.0
 40
0.0
 40
0.0
 40
0.0
 40
1.0
 40
1.0
 40
1.0
 40
1.0
 10
58.25172498543725
 20
169.9311441740972
 30
0.0
 10
59.78207498505457
 20
168.5895302855438
 30
0.0
 10
61.51209720684444
 20
167.6211552857856
 30
0.0
 10
63.23259442863637
 20
167.0552997303717
 30
0.0
  0
SPLINE
  5
5C
330
1F
100
AcDbEntity
  8
GRAU_10_
 62
     7
100
AcDbSpline
210
0.0
220
0.0
230
1.0
 70
     8
 71
     3
 72
     8
 73
     4
 74
     0
 42
0.0000000001
 43
0.0000000001
 12
1.0
 22
0.0
 32
0.0
 13
1.0
 23
0.0
 33
0.0
 40
0.0
 40
0.0
 40
0.0
 40
0.0
 40
1.0
 40
1.0
 40
1.0
 40
1.0
 10
61.68107776235753
 20
173.9065969508812
 30
0.0
 10
62.68508331766225
 20
173.0183025066588
 30
0.0
 10
63.82455553959944
 20
172.381538617929
 30
0.0
 10
64.96085276153775
 20
172.0128858402434
 30
0.0
  0
SPLINE
  5
5D
330
1F
100
AcDbEntity
  8
GRAU_10_
 62
     7
100
AcDbSpline
210
0.0
220
0.0
230
1.0
 70
     8
 71
     3
 72
     8
 73
     4
 74
     0
 42
0.0000000001
 43
0.0000000001
 12
1.0
 22
0.0
 32
0.0
 13
1.0
 23
0.0
 33
0.0
 40
0.0
 40
0.0
 40
0.0
 40
0.0
 40
1.0
 40
1.0
 40
1.0
 40
1.0
 10
58.25172498543725
 20
192.1127525018853
 30
0.0
 10
59.34992220738502
 20
190.6275580578118
 30
0.0
 10
60.54407498486402
 20
189.2538413914885
 30
0.0
 10
61.68107776235753
 20
188.137652502879
 30
0.0
  0
SPLINE
  5
5E
330
1F
100
AcDbEntity
  8
GRAU_10_
 62
     7
100
AcDbSpline
210
0.0
220
0.0
230
1.0
 70
     8
 71
     3
 72
     8
 73
     4
 74
     0
 42
0.0000000001
 43
0.0000000001
 12
1.0
 22
0.0
 32
0.0
 13
1.0
 23
0.0
 33
0.0
 40
0.0
 40
0.0
 40
0.0
 40
0.0
 40
1.0
 40
1.0
 40
1.0
 40
1.0
 10
64.96085276153775
 20
190.0310108357388
 30
0.0
 10
64.48495553943445
 20
191.8167719464037
 30
0.0
 10
63.87994165069676
 20
193.5330358348635
 30
0.0
 10
63.23259442863637
 20
194.9885969456108
 30
0.0
  0
SPLINE
  5
5F
330
1F
100
AcDbEntity
  8
GRAU_10_
 62
     7
100
AcDbSpline
210
0.0
220
0.0
230
1.0
 70
     8
 71
     3
 72
     8
 73
     4
 74
     0
 42
0.0000000001
 43
0.0000000001
 12
1.0
 22
0.0
 32
0.0
 13
1.0
 23
0.0
 33
0.0
 40
0.0
 40
0.0
 40
0.0
 40
0.0
 40
1.0
 40
1.0
 40
1.0
 40
1.0
 10
63.23259442863637
 20
194.9885969456108
 30
0.0
 10
61.30536942911827
 20
194.3341941679961
 30
0.0
 10
59.60215831843281
 20
193.3203108349163
 30
0.0
 10
58.25172498543725
 20
192.1127525018853
 30
0.0
  0
SPLINE
  5
60
330
1F
100
AcDbEntity
  8
GRAU_10_
 62
     7
100
AcDbSpline
210
0.0
220
0.0
230
1.0
 70
     8
 71
     3
 72
     8
 73
     4
 74
     0
 42
0.0000000001
 43
0.0000000001
 12
1.0
 22
0.0
 32
0.0
 13
1.0
 23
0.0
 33
0.0
 40
0.0
 40
0.0
 40
0.0
 40
0.0
 40
1.0
 40
1.0
 40
1.0
 40
1.0
 10
64.96085276153775
 20
190.0310108357388
 30
0.0
 10
63.68979442852216
 20
189.6055608358454
 30
0.0
 10
62.56831387324695
 20
188.9373997249013
 30
0.0
 10
61.68107776235753
 20
188.137652502879
 30
0.0
  0
SPLINE
  5
61
330
1F
100
AcDbEntity
  8
GRAU_10_
 62
     7
100
AcDbSpline
210
0.0
220
0.0
230
1.0
 70
     8
 71
     3
 72
     8
 73
     4
 74
     0
 42
0.0000000001
 43
0.0000000001
 12
1.0
 22
0.0
 32
0.0
 13
1.0
 23
0.0
 33
0.0
 40
0.0
 40
0.0
 40
0.0
 40
0.0
 40
1.0
 40
1.0
 40
1.0
 40
1.0
 10
72.71808331515385
 20
194.9885969456108
 30
0.0
 10
71.98113053756033
 20
193.2945580571452
 30
0.0
 10
71.38846387104205
 20
191.5740608353533
 30
0.0
 10
70.99088331558575
 20
190.0310108357388
 30
0.0
  0
SPLINE
  5
62
330
1F
100
AcDbEntity
  8
GRAU_10_
 62
     7
100
AcDbSpline
210
0.0
220
0.0
230
1.0
 70
     8
 71
     3
 72
     8
 73
     4
 74
     0
 42
0.0000000001
 43
0.0000000001
 12
1.0
 22
0.0
 32
0.0
 13
1.0
 23
0.0
 33
0.0
 40
0.0
 40
0.0
 40
0.0
 40
0.0
 40
1.0
 40
1.0
 40
1.0
 40
1.0
 10
74.26995275921045
 20
188.137652502879
 30
0.0
 10
75.57840553666105
 20
189.4422247247749
 30
0.0
 10
76.76232775858722
 20
190.8244080577629
 30
0.0
 10
77.70001109168625
 20
192.1127525018853
 30
0.0
  0
SPLINE
  5
63
330
1F
100
AcDbEntity
  8
GRAU_10_
 62
     7
100
AcDbSpline
210
0.0
220
0.0
230
1.0
 70
     8
 71
     3
 72
     8
 73
     4
 74
     0
 42
0.0000000001
 43
0.0000000001
 12
1.0
 22
0.0
 32
0.0
 13
1.0
 23
0.0
 33
0.0
 40
0.0
 40
0.0
 40
0.0
 40
0.0
 40
1.0
 40
1.0
 40
1.0
 40
1.0
 10
77.70001109168625
 20
192.1127525018853
 30
0.0
 10
76.16966109206894
 20
193.4547191682165
 30
0.0
 10
74.43963887027905
 20
194.4227413901963
 30
0.0
 10
72.71808331515385
 20
194.9885969456108
 30
0.0
  0
SPLINE
  5
64
330
1F
100
AcDbEntity
  8
GRAU_10_
 62
     7
100
AcDbSpline
210
0.0
220
0.0
230
1.0
 70
     8
 71
     3
 72
     8
 73
     4
 74
     0
 42
0.0000000001
 43
0.0000000001
 12
1.0
 22
0.0
 32
0.0
 13
1.0
 23
0.0
 33
0.0
 40
0.0
 40
0.0
 40
0.0
 40
0.0
 40
1.0
 40
1.0
 40
1.0
 40
1.0
 10
74.26995275921045
 20
188.137652502879
 30
0.0
 10
73.26594720390574
 20
189.0255941693237
 30
0.0
 10
72.12647498196854
 20
189.6630636136083
 30
0.0
 10
70.99088331558575
 20
190.0310108357388
 30
0.0
  0
SPLINE
  5
65
330
1F
100
AcDbEntity
  8
GRAU_10_
 62
     7
100
AcDbSpline
210
0.0
220
0.0
230
1.0
 70
     8
 71
     3
 72
     8
 73
     4
 74
     0
 42
0.0000000001
 43
0.0000000001
 12
1.0
 22
0.0
 32
0.0
 13
1.0
 23
0.0
 33
0.0
 40
0.0
 40
0.0
 40
0.0
 40
0.0
 40
1.0
 40
1.0
 40
1.0
 40
1.0
 10
82.7256833126521
 20
181.0221247268801
 30
0.0
 10
82.7256833126521
 20
182.0395358377369
 30
0.0
 10
82.6226722015666
 20
183.0333108374881
 30
0.0
 10
82.4424027571674
 20
183.8983219483831
 30
0.0
  0
SPLINE
  5
66
330
1F
100
AcDbEntity
  8
GRAU_10_
 62
     7
100
AcDbSpline
210
0.0
220
0.0
230
1.0
 70
     8
 71
     3
 72
     8
 73
     4
 74
     0
 42
0.0000000001
 43
0.0000000001
 12
1.0
 22
0.0
 32
0.0
 13
1.0
 23
0.0
 33
0.0
 40
0.0
 40
0.0
 40
0.0
 40
0.0
 40
1.0
 40
1.0
 40
1.0
 40
1.0
 10
82.4424027571674
 20
178.1462802831546
 30
0.0
 10
82.64101664600668
 20
179.1442886162384
 30
0.0
 10
82.733797201539
 20
180.1391219493229
 30
0.0
 10
82.7256833126521
 20
181.0221247268801
 30
0.0
  0
SPLINE
  5
67
330
1F
100
AcDbEntity
  8
GRAU_10_
 62
     7
100
AcDbSpline
210
0.0
220
0.0
230
1.0
 70
     8
 71
     3
 72
     8
 73
     4
 74
     0
 42
0.0000000001
 43
0.0000000001
 12
1.0
 22
0.0
 32
0.0
 13
1.0
 23
0.0
 33
0.0
 40
0.0
 40
0.0
 40
0.0
 40
0.0
 40
1.0
 40
1.0
 40
1.0
 40
1.0
 10
82.4424027571674
 20
183.8983219483831
 30
0.0
 10
80.60689997984835
 20
183.689477503991
 30
0.0
 10
78.82008053585075
 20
183.3419913929665
 30
0.0
 10
77.28514442512316
 20
182.9158358375176
 30
0.0
  0
SPLINE
  5
68
330
1F
100
AcDbEntity
  8
GRAU_10_
 62
     7
100
AcDbSpline
210
0.0
220
0.0
230
1.0
 70
     8
 71
     3
 72
     8
 73
     4
 74
     0
 42
0.0000000001
 43
0.0000000001
 12
1.0
 22
0.0
 32
0.0
 13
1.0
 23
0.0
 33
0.0
 40
0.0
 40
0.0
 40
0.0
 40
0.0
 40
1.0
 40
1.0
 40
1.0
 40
1.0
 10
77.28514442512316
 20
179.1287663940201
 30
0.0
 10
79.06914164689964
 20
178.6475775052513
 30
0.0
 10
80.85772497978573
 20
178.3134969497795
 30
0.0
 10
82.4424027571674
 20
178.1462802831546
 30
0.0
  0
SPLINE
  5
69
330
1F
100
AcDbEntity
  8
GRAU_10_
 62
     7
100
AcDbSpline
210
0.0
220
0.0
230
1.0
 70
     8
 71
     3
 72
     8
 73
     4
 74
     0
 42
0.0000000001
 43
0.0000000001
 12
1.0
 22
0.0
 32
0.0
 13
1.0
 23
0.0
 33
0.0
 40
0.0
 40
0.0
 40
0.0
 40
0.0
 40
1.0
 40
1.0
 40
1.0
 40
1.0
 10
77.47599720285329
 20
181.0221247268801
 30
0.0
 10
77.47599720285329
 20
181.6920497267124
 30
0.0
 10
77.4064999806484
 20
182.3464525043265
 30
0.0
 10
77.28514442512316
 20
182.9158358375176
 30
0.0
  0
SPLINE
  5
6A
330
1F
100
AcDbEntity
  8
GRAU_10_
 62
     7
100
AcDbSpline
210
0.0
220
0.0
230
1.0
 70
     8
 71
     3
 72
     8
 73
     4
 74
     0
 42
0.0000000001
 43
0.0000000001
 12
1.0
 22
0.0
 32
0.0
 13
1.0
 23
0.0
 33
0.0
 40
0.0
 40
0.0
 40
0.0
 40
0.0
 40
1.0
 40
1.0
 40
1.0
 40
1.0
 10
77.28514442512316
 20
179.1287663940201
 30
0.0
 10
77.41884720286748
 20
179.7852858383
 30
0.0
 10
77.48093609174099
 20
180.4400413936921
 30
0.0
 10
77.47599720285329
 20
181.0221247268801
 30
0.0
  0
SPLINE
  5
6B
330
1F
100
AcDbEntity
  8
GRAU_10_
 62
     7
100
AcDbSpline
210
0.0
220
0.0
230
1.0
 70
     8
 71
     3
 72
     8
 73
     4
 74
     0
 42
0.0000000001
 43
0.0000000001
 12
1.0
 22
0.0
 32
0.0
 13
1.0
 23
0.0
 33
0.0
 40
0.0
 40
0.0
 40
0.0
 40
0.0
 40
1.0
 40
1.0
 40
1.0
 40
1.0
 10
82.4424027571674
 20
183.8983219483831
 30
0.0
 10
81.78059164622167
 20
187.2285441697726
 30
0.0
 10
80.04563053554442
 20
190.0719330579508
 30
0.0
 10
77.70001109168625
 20
192.1127525018853
 30
0.0
  0
SPLINE
  5
6C
330
1F
100
AcDbEntity
  8
GRAU_10_
 62
     7
100
AcDbSpline
210
0.0
220
0.0
230
1.0
 70
     8
 71
     3
 72
     8
 73
     4
 74
     0
 42
0.0000000001
 43
0.0000000001
 12
1.0
 22
0.0
 32
0.0
 13
1.0
 23
0.0
 33
0.0
 40
0.0
 40
0.0
 40
0.0
 40
0.0
 40
1.0
 40
1.0
 40
1.0
 40
1.0
 10
77.28514442512316
 20
182.9158358375176
 30
0.0
 10
76.85475553634211
 20
185.0293275036559
 30
0.0
 10
75.75408886995065
 20
186.8355497254265
 30
0.0
 10
74.26995275921045
 20
188.137652502879
 30
0.0
  0
SPLINE
  5
6D
330
1F
100
AcDbEntity
  8
GRAU_10_
 62
     7
100
AcDbSpline
210
0.0
220
0.0
230
1.0
 70
     8
 71
     3
 72
     8
 73
     4
 74
     0
 42
0.0000000001
 43
0.0000000001
 12
1.0
 22
0.0
 32
0.0
 13
1.0
 23
0.0
 33
0.0
 40
0.0
 40
0.0
 40
0.0
 40
0.0
 40
1.0
 40
1.0
 40
1.0
 40
1.0
 10
72.71808331515385
 20
194.9885969456108
 30
0.0
 10
69.5032194270689
 20
196.0807969453376
 30
0.0
 10
66.17299720567905
 20
195.9996580564691
 30
0.0
 10
63.23259442863637
 20
194.9885969456108
 30
0.0
  0
SPLINE
  5
6E
330
1F
100
AcDbEntity
  8
GRAU_10_
 62
     7
100
AcDbSpline
210
0.0
220
0.0
230
1.0
 70
     8
 71
     3
 72
     8
 73
     4
 74
     0
 42
0.0000000001
 43
0.0000000001
 12
1.0
 22
0.0
 32
0.0
 13
1.0
 23
0.0
 33
0.0
 40
0.0
 40
0.0
 40
0.0
 40
0.0
 40
1.0
 40
1.0
 40
1.0
 40
1.0
 10
58.25172498543725
 20
192.1127525018853
 30
0.0
 10
55.69831943051994
 20
189.8747302802222
 30
0.0
 10
54.10305831980767
 20
186.9498497253981
 30
0.0
 10
53.50862776440058
 20
183.8983219483831
 30
0.0
  0
SPLINE
  5
6F
330
1F
100
AcDbEntity
  8
GRAU_10_
 62
     7
100
AcDbSpline
210
0.0
220
0.0
230
1.0
 70
     8
 71
     3
 72
     8
 73
     4
 74
     0
 42
0.0000000001
 43
0.0000000001
 12
1.0
 22
0.0
 32
0.0
 13
1.0
 23
0.0
 33
0.0
 40
0.0
 40
0.0
 40
0.0
 40
0.0
 40
1.0
 40
1.0
 40
1.0
 40
1.0
 10
53.50862776440058
 20
178.1462802831546
 30
0.0
 10
54.17114443090183
 20
174.815705283987
 30
0.0
 10
55.90610554157909
 20
171.9719636180314
 30
0.0
 10
58.25172498543725
 20
169.9311441740972
 30
0.0
  0
SPLINE
  5
70
330
1F
100
AcDbEntity
  8
GRAU_10_
 62
     7
100
AcDbSpline
210
0.0
220
0.0
230
1.0
 70
     8
 71
     3
 72
     8
 73
     4
 74
     0
 42
0.0000000001
 43
0.0000000001
 12
1.0
 22
0.0
 32
0.0
 13
1.0
 23
0.0
 33
0.0
 40
0.0
 40
0.0
 40
0.0
 40
0.0
 40
1.0
 40
1.0
 40
1.0
 40
1.0
 10
63.23259442863637
 20
167.0552997303717
 30
0.0
 10
66.4478110944994
 20
165.9638052861998
 30
0.0
 10
69.77803331588892
 20
166.0442386195134
 30
0.0
 10
72.71808331515385
 20
167.0552997303717
 30
0.0
  0
SPLINE
  5
71
330
1F
100
AcDbEntity
  8
GRAU_10_
 62
     7
100
AcDbSpline
210
0.0
220
0.0
230
1.0
 70
     8
 71
     3
 72
     8
 73
     4
 74
     0
 42
0.0000000001
 43
0.0000000001
 12
1.0
 22
0.0
 32
0.0
 13
1.0
 23
0.0
 33
0.0
 40
0.0
 40
0.0
 40
0.0
 40
0.0
 40
1.0
 40
1.0
 40
1.0
 40
1.0
 10
77.70001109168625
 20
169.9311441740972
 30
0.0
 10
80.25271109104804
 20
172.1698719513151
 30
0.0
 10
81.84797220176031
 20
175.0940469505843
 30
0.0
 10
82.4424027571674
 20
178.1462802831546
 30
0.0
  0
SPLINE
  5
72
330
1F
100
AcDbEntity
  8
GRAU_10_
 62
     7
100
AcDbSpline
210
0.0
220
0.0
230
1.0
 70
    11
 71
     3
 72
    17
 73
    13
 74
     0
 42
0.0000000001
 43
0.0000000001
 12
1.0
 22
0.0
 32
0.0
 13
1.0
 23
0.0
 33
0.0
 40
0.0
 40
0.0
 40
0.0
 40
0.0
 40
1.0
 40
1.0
 40
1.0
 40
2.0
 40
2.0
 40
2.0
 40
3.0
 40
3.0
 40
3.0
 40
4.0
 40
4.0
 40
4.0
 40
4.0
 10
83.9254805345743
 20
181.0221247268801
 30
0.0
 10
83.9254805345743
 20
189.8309858357888
 30
0.0
 10
76.7845527585817
 20
196.9719136117814
 30
0.0
 10
67.97569164967271
 20
196.9719136117814
 30
0.0
 10
59.16718331854181
 20
196.9719136117814
 30
0.0
 10
52.02554998699367
 20
189.8309858357888
 30
0.0
 10
52.02554998699367
 20
181.0221247268801
 30
0.0
 10
52.02554998699367
 20
172.2136163957486
 30
0.0
 10
59.16718331854181
 20
165.0719830642011
 30
0.0
 10
67.97569164967271
 20
165.0719830642011
 30
0.0
 10
76.7845527585817
 20
165.0719830642011
 30
0.0
 10
83.9254805345743
 20
172.2136163957486
 30
0.0
 10
83.9254805345743
 20
181.0221247268801
 30
0.0
  0
SPLINE
  5
73
330
1F
100
AcDbEntity
  8
GRAU_10_
 62
     7
100
AcDbSpline
210
0.0
220
0.0
230
1.0
 70
     8
 71
     3
 72
     8
 73
     4
 74
     0
 42
0.0000000001
 43
0.0000000001
 12
1.0
 22
0.0
 32
0.0
 13
1.0
 23
0.0
 33
0.0
 40
0.0
 40
0.0
 40
0.0
 40
0.0
 40
1.0
 40
1.0
 40
1.0
 40
1.0
 10
70.99088331558575
 20
190.0310108357388
 30
0.0
 10
68.94441942720835
 20
190.7157525022342
 30
0.0
 10
66.8298694277371
 20
190.6653052800246
 30
0.0
 10
64.96085276153775
 20
190.0310108357388
 30
0.0
  0
SPLINE
  5
74
330
1F
100
AcDbEntity
  8
GRAU_10_
 62
     7
100
AcDbSpline
210
0.0
220
0.0
230
1.0
 70
     8
 71
     3
 72
     8
 73
     4
 74
     0
 42
0.0000000001
 43
0.0000000001
 12
1.0
 22
0.0
 32
0.0
 13
1.0
 23
0.0
 33
0.0
 40
0.0
 40
0.0
 40
0.0
 40
0.0
 40
1.0
 40
1.0
 40
1.0
 40
1.0
 10
61.68107776235753
 20
188.137652502879
 30
0.0
 10
60.06535554053927
 20
186.7081969476806
 30
0.0
 10
59.05182498523723
 20
184.8511747259226
 30
0.0
 10
58.66623887422257
 20
182.9158358375176
 30
0.0
  0
SPLINE
  5
75
330
1F
100
AcDbEntity
  8
GRAU_10_
 62
     7
100
AcDbSpline
210
0.0
220
0.0
230
1.0
 70
     8
 71
     3
 72
     8
 73
     4
 74
     0
 42
0.0000000001
 43
0.0000000001
 12
1.0
 22
0.0
 32
0.0
 13
1.0
 23
0.0
 33
0.0
 40
0.0
 40
0.0
 40
0.0
 40
0.0
 40
1.0
 40
1.0
 40
1.0
 40
1.0
 10
58.66623887422257
 20
179.1287663940201
 30
0.0
 10
59.09592220744843
 20
177.0145691723262
 30
0.0
 10
60.19764720717286
 20
175.208699728333
 30
0.0
 10
61.68107776235753
 20
173.9065969508812
 30
0.0
  0
SPLINE
  5
76
330
1F
100
AcDbEntity
  8
GRAU_10_
 62
     7
100
AcDbSpline
210
0.0
220
0.0
230
1.0
 70
     8
 71
     3
 72
     8
 73
     4
 74
     0
 42
0.0000000001
 43
0.0000000001
 12
1.0
 22
0.0
 32
0.0
 13
1.0
 23
0.0
 33
0.0
 40
0.0
 40
0.0
 40
0.0
 40
0.0
 40
1.0
 40
1.0
 40
1.0
 40
1.0
 10
64.96085276153775
 20
172.0128858402434
 30
0.0
 10
67.00625831658188
 20
171.3288497293032
 30
0.0
 10
69.12116109383089
 20
171.3792969515128
 30
0.0
 10
70.99088331558575
 20
172.0128858402434
 30
0.0
  0
SPLINE
  5
77
330
1F
100
AcDbEntity
  8
GRAU_10_
 62
     7
100
AcDbSpline
210
0.0
220
0.0
230
1.0
 70
     8
 71
     3
 72
     8
 73
     4
 74
     0
 42
0.0000000001
 43
0.0000000001
 12
1.0
 22
0.0
 32
0.0
 13
1.0
 23
0.0
 33
0.0
 40
0.0
 40
0.0
 40
0.0
 40
0.0
 40
1.0
 40
1.0
 40
1.0
 40
1.0
 10
74.26995275921045
 20
173.9065969508812
 30
0.0
 10
75.88602775880648
 20
175.336405283857
 30
0.0
 10
76.89920553633075
 20
177.193074727837
 30
0.0
 10
77.28514442512316
 20
179.1287663940201
 30
0.0
  0
SPLINE
  5
78
330
1F
100
AcDbEntity
  8
GRAU_10_
 62
     7
100
AcDbSpline
210
0.0
220
0.0
230
1.0
 70
    11
 71
     3
 72
    17
 73
    13
 74
     0
 42
0.0000000001
 43
0.0000000001
 12
1.0
 22
0.0
 32
0.0
 13
1.0
 23
0.0
 33
0.0
 40
0.0
 40
0.0
 40
0.0
 40
0.0
 40
1.0
 40
1.0
 40
1.0
 40
2.0
 40
2.0
 40
2.0
 40
3.0
 40
3.0
 40
3.0
 40
4.0
 40
4.0
 40
4.0
 40
4.0
 10
87.12552775599649
 20
181.0221247268801
 30
0.0
 10
87.12552775599649
 20
191.5980497242359
 30
0.0
 10
78.55161664702882
 20
200.1719608332036
 30
0.0
 10
67.97569164967271
 20
200.1719608332036
 30
0.0
 10
57.39941387453916
 20
200.1719608332036
 30
0.0
 10
48.82550276557149
 20
191.5980497242359
 30
0.0
 10
48.82550276557149
 20
181.0221247268801
 30
0.0
 10
48.82550276557149
 20
170.4461997295237
 30
0.0
 10
57.39941387453916
 20
161.8719358427782
 30
0.0
 10
67.97569164967271
 20
161.8719358427782
 30
0.0
 10
78.55161664702882
 20
161.8719358427782
 30
0.0
 10
87.12552775599649
 20
170.4461997295237
 30
0.0
 10
87.12552775599649
 20
181.0221247268801
 30
0.0
  0
SPLINE
  5
79
330
1F
100
AcDbEntity
  8
GRAU_10_
 62
     7
100
AcDbSpline
210
0.0
220
0.0
230
1.0
 70
     8
 71
     3
 72
     8
 73
     4
 74
     0
 42
0.0000000001
 43
0.0000000001
 12
1.0
 22
0.0
 32
0.0
 13
1.0
 23
0.0
 33
0.0
 40
0.0
 40
0.0
 40
0.0
 40
0.0
 40
1.0
 40
1.0
 40
1.0
 40
1.0
 10
75.47539442557557
 20
207.8688663868347
 30
0.0
 10
75.47539442557557
 20
204.9235247209046
 30
0.0
 10
77.06748053628895
 20
202.3496580548816
 30
0.0
 10
79.47554164679805
 20
200.9406636107892
 30
0.0
  0
SPLINE
  5
7A
330
1F
100
AcDbEntity
  8
GRAU_10_
 62
     7
100
AcDbSpline
210
0.0
220
0.0
230
1.0
 70
     8
 71
     3
 72
     8
 73
     4
 74
     0
 42
0.0000000001
 43
0.0000000001
 12
1.0
 22
0.0
 32
0.0
 13
1.0
 23
0.0
 33
0.0
 40
0.0
 40
0.0
 40
0.0
 40
0.0
 40
1.0
 40
1.0
 40
1.0
 40
1.0
 10
56.47548887477025
 20
200.9406636107892
 30
0.0
 10
59.02677776302131
 20
202.413510832643
 30
0.0
 10
60.45940831821859
 20
205.0787469430879
 30
0.0
 10
60.47563609599241
 20
207.8688663868347
 30
0.0
  0
POLYLINE
  5
7B
330
1F
100
AcDbEntity
  8
GRAU_10_
 62
     7
100
AcDb2dPolyline
 66
     1
 10
0.0
 20
0.0
 30
0.0
  0
VERTEX
  5
7C
330
7B
100
AcDbEntity
  8
GRAU_10_
 62
     7
100
AcDbVertex
100
AcDb2dVertex
 10
60.47563609599241
 20
208.5218580533383
 30
0.0
  0
VERTEX
  5
7D
330
7B
100
AcDbEntity
  8
GRAU_10_
 62
     7
100
AcDbVertex
100
AcDb2dVertex
 10
60.47563609599241
 20
207.8688663868347
 30
0.0
  0
SEQEND
  5
7E
330
7B
100
AcDbEntity
  8
GRAU_10_
 62
     7
  0
POLYLINE
  5
7F
330
1F
100
AcDbEntity
  8
GRAU_10_
 62
     7
100
AcDb2dPolyline
 66
     1
 10
0.0
 20
0.0
 30
0.0
  0
VERTEX
  5
80
330
7F
100
AcDbEntity
  8
GRAU_10_
 62
     7
100
AcDbVertex
100
AcDb2dVertex
 10
75.47539442557557
 20
208.5218580533383
 30
0.0
  0
VERTEX
  5
81
330
7F
100
AcDbEntity
  8
GRAU_10_
 62
     7
100
AcDbVertex
100
AcDb2dVertex
 10
60.47563609599241
 20
208.5218580533383
 30
0.0
  0
SEQEND
  5
82
330
7F
100
AcDbEntity
  8
GRAU_10_
 62
     7
  0
POLYLINE
  5
83
330
1F
100
AcDbEntity
  8
GRAU_10_
 62
     7
100
AcDb2dPolyline
 66
     1
 10
0.0
 20
0.0
 30
0.0
  0
VERTEX
  5
84
330
83
100
AcDbEntity
  8
GRAU_10_
 62
     7
100
AcDbVertex
100
AcDb2dVertex
 10
75.47539442557557
 20
207.8688663868347
 30
0.0
  0
VERTEX
  5
85
330
83
100
AcDbEntity
  8
GRAU_10_
 62
     7
100
AcDbVertex
100
AcDb2dVertex
 10
75.47539442557557
 20
208.5218580533383
 30
0.0
  0
SEQEND
  5
86
330
83
100
AcDbEntity
  8
GRAU_10_
 62
     7
  0
SPLINE
  5
87
330
1F
100
AcDbEntity
  8
GRAU_10_
 62
     7
100
AcDbSpline
210
0.0
220
0.0
230
1.0
 70
     8
 71
     3
 72
     8
 73
     4
 74
     0
 42
0.0000000001
 43
0.0000000001
 12
1.0
 22
0.0
 32
0.0
 13
1.0
 23
0.0
 33
0.0
 40
0.0
 40
0.0
 40
0.0
 40
0.0
 40
1.0
 40
1.0
 40
1.0
 40
1.0
 10
90.97574442170051
 20
181.0221247268801
 30
0.0
 10
90.97574442170051
 20
189.4902025025405
 30
0.0
 10
86.39880553395612
 20
196.8897163895797
 30
0.0
 10
79.47554164679805
 20
200.9406636107892
 30
0.0
  0
SPLINE
  5
88
330
1F
100
AcDbEntity
  8
GRAU_10_
 62
     7
100
AcDbSpline
210
0.0
220
0.0
230
1.0
 70
     8
 71
     3
 72
    14
 73
    10
 74
     0
 42
0.0000000001
 43
0.0000000001
 12
1.0
 22
0.0
 32
0.0
 13
1.0
 23
0.0
 33
0.0
 40
0.0
 40
0.0
 40
0.0
 40
0.0
 40
1.0
 40
1.0
 40
1.0
 40
2.0
 40
2.0
 40
2.0
 40
3.0
 40
3.0
 40
3.0
 40
3.0
 10
56.47548887477025
 20
200.9406636107892
 30
0.0
 10
49.14229720993679
 20
196.7066247229587
 30
0.0
 10
45.02220554430011
 20
189.0435858359857
 30
0.0
 10
44.97599165542267
 20
181.0221247268801
 30
0.0
 10
44.97599165542267
 20
168.3200080633885
 30
0.0
 10
55.27357498618179
 20
158.0220719548523
 30
0.0
 10
67.97569164967271
 20
158.0220719548523
 30
0.0
 10
80.67816109094171
 20
158.0220719548523
 30
0.0
 10
90.97574442170051
 20
168.3200080633885
 30
0.0
 10
90.97574442170051
 20
181.0221247268801
 30
0.0
  0
POLYLINE
  5
89
330
1F
100
AcDbEntity
  8
GRAU_10_
 62
     7
100
AcDb2dPolyline
 66
     1
 10
0.0
 20
0.0
 30
0.0
  0
VERTEX
  5
8A
330
89
100
AcDbEntity
  8
GRAU_10_
 62
     7
100
AcDbVertex
100
AcDb2dVertex
 10
135.5883524483726
 20
158.0220719548523
 30
0.0
  0
VERTEX
  5
8B
330
89
100
AcDbEntity
  8
GRAU_10_
 62
     7
100
AcDbVertex
100
AcDb2dVertex
 10
157.387902442923
 20
158.0220719548523
 30
0.0
  0
SEQEND
  5
8C
330
89
100
AcDbEntity
  8
GRAU_10_
 62
     7
  0
POLYLINE
  5
8D
330
1F
100
AcDbEntity
  8
GRAU_10_
 62
     7
100
AcDb2dPolyline
 66
     1
 10
0.0
 20
0.0
 30
0.0
  0
VERTEX
  5
8E
330
8D
100
AcDbEntity
  8
GRAU_10_
 62
     7
100
AcDbVertex
100
AcDb2dVertex
 10
157.387902442923
 20
200.9406636107892
 30
0.0
  0
VERTEX
  5
8F
330
8D
100
AcDbEntity
  8
GRAU_10_
 62
     7
100
AcDbVertex
100
AcDb2dVertex
 10
157.387902442923
 20
199.7341636110908
 30
0.0
  0
VERTEX
  5
90
330
8D
100
AcDbEntity
  8
GRAU_10_
 62
     7
100
AcDbVertex
100
AcDb2dVertex
 10
157.387902442923
 20
198.3512747225476
 30
0.0
  0
VERTEX
  5
91
330
8D
100
AcDbEntity
  8
GRAU_10_
 62
     7
100
AcDbVertex
100
AcDb2dVertex
 10
157.387902442923
 20
196.805402500712
 30
0.0
  0
VERTEX
  5
92
330
8D
100
AcDbEntity
  8
GRAU_10_
 62
     7
100
AcDbVertex
100
AcDb2dVertex
 10
157.387902442923
 20
195.1120691678019
 30
0.0
  0
VERTEX
  5
93
330
8D
100
AcDbEntity
  8
GRAU_10_
 62
     7
100
AcDbVertex
100
AcDb2dVertex
 10
157.387902442923
 20
193.2857386127027
 30
0.0
  0
VERTEX
  5
94
330
8D
100
AcDbEntity
  8
GRAU_10_
 62
     7
100
AcDbVertex
100
AcDb2dVertex
 10
157.387902442923
 20
191.3444025020771
 30
0.0
  0
VERTEX
  5
95
330
8D
100
AcDbEntity
  8
GRAU_10_
 62
     7
100
AcDbVertex
100
AcDb2dVertex
 10
157.387902442923
 20
189.3064052803647
 30
0.0
  0
VERTEX
  5
96
330
8D
100
AcDbEntity
  8
GRAU_10_
 62
     7
100
AcDbVertex
100
AcDb2dVertex
 10
157.387902442923
 20
187.1900913920046
 30
0.0
  0
VERTEX
  5
97
330
8D
100
AcDbEntity
  8
GRAU_10_
 62
     7
100
AcDbVertex
100
AcDb2dVertex
 10
157.387902442923
 20
185.0159219481039
 30
0.0
  0
VERTEX
  5
98
330
8D
100
AcDbEntity
  8
GRAU_10_
 62
     7
100
AcDbVertex
100
AcDb2dVertex
 10
157.387902442923
 20
182.8043580597678
 30
0.0
  0
VERTEX
  5
99
330
8D
100
AcDbEntity
  8
GRAU_10_
 62
     7
100
AcDbVertex
100
AcDb2dVertex
 10
157.387902442923
 20
180.5758608381024
 30
0.0
  0
VERTEX
  5
9A
330
8D
100
AcDbEntity
  8
GRAU_10_
 62
     7
100
AcDbVertex
100
AcDb2dVertex
 10
157.387902442923
 20
178.3519497275475
 30
0.0
  0
VERTEX
  5
9B
330
8D
100
AcDbEntity
  8
GRAU_10_
 62
     7
100
AcDbVertex
100
AcDb2dVertex
 10
157.387902442923
 20
176.1527330614308
 30
0.0
  0
VERTEX
  5
9C
330
8D
100
AcDbEntity
  8
GRAU_10_
 62
     7
100
AcDbVertex
100
AcDb2dVertex
 10
157.387902442923
 20
173.999730284191
 30
0.0
  0
VERTEX
  5
9D
330
8D
100
AcDbEntity
  8
GRAU_10_
 62
     7
100
AcDbVertex
100
AcDb2dVertex
 10
157.387902442923
 20
171.9123441736019
 30
0.0
  0
VERTEX
  5
9E
330
8D
100
AcDbEntity
  8
GRAU_10_
 62
     7
100
AcDbVertex
100
AcDb2dVertex
 10
157.387902442923
 20
169.9106830629909
 30
0.0
  0
VERTEX
  5
9F
330
8D
100
AcDbEntity
  8
GRAU_10_
 62
     7
100
AcDbVertex
100
AcDb2dVertex
 10
157.387902442923
 20
168.013091396799
 30
0.0
  0
VERTEX
  5
A0
330
8D
100
AcDbEntity
  8
GRAU_10_
 62
     7
100
AcDbVertex
100
AcDb2dVertex
 10
157.387902442923
 20
166.2382663972424
 30
0.0
  0
VERTEX
  5
A1
330
8D
100
AcDbEntity
  8
GRAU_10_
 62
     7
100
AcDbVertex
100
AcDb2dVertex
 10
157.387902442923
 20
164.6020830643184
 30
0.0
  0
VERTEX
  5
A2
330
8D
100
AcDbEntity
  8
GRAU_10_
 62
     7
100
AcDbVertex
100
AcDb2dVertex
 10
157.387902442923
 20
163.1200636202442
 30
0.0
  0
VERTEX
  5
A3
330
8D
100
AcDbEntity
  8
GRAU_10_
 62
     7
100
AcDbVertex
100
AcDb2dVertex
 10
157.387902442923
 20
161.8056136205732
 30
0.0
  0
VERTEX
  5
A4
330
8D
100
AcDbEntity
  8
GRAU_10_
 62
     7
100
AcDbVertex
100
AcDb2dVertex
 10
157.387902442923
 20
160.6724913986338
 30
0.0
  0
VERTEX
  5
A5
330
8D
100
AcDbEntity
  8
GRAU_10_
 62
     7
100
AcDbVertex
100
AcDb2dVertex
 10
157.387902442923
 20
159.7305747322026
 30
0.0
  0
VERTEX
  5
A6
330
8D
100
AcDbEntity
  8
GRAU_10_
 62
     7
100
AcDbVertex
100
AcDb2dVertex
 10
157.387902442923
 20
158.9883302879439
 30
0.0
  0
VERTEX
  5
A7
330
8D
100
AcDbEntity
  8
GRAU_10_
 62
     7
100
AcDbVertex
100
AcDb2dVertex
 10
157.387902442923
 20
158.4535191769667
 30
0.0
  0
VERTEX
  5
A8
330
8D
100
AcDbEntity
  8
GRAU_10_
 62
     7
100
AcDbVertex
100
AcDb2dVertex
 10
157.387902442923
 20
158.1300219548249
 30
0.0
  0
VERTEX
  5
A9
330
8D
100
AcDbEntity
  8
GRAU_10_
 62
     7
100
AcDbVertex
100
AcDb2dVertex
 10
157.387902442923
 20
158.0220719548523
 30
0.0
  0
SEQEND
  5
AA
330
8D
100
AcDbEntity
  8
GRAU_10_
 62
     7
  0
POLYLINE
  5
AB
330
1F
100
AcDbEntity
  8
GRAU_10_
 62
     7
100
AcDb2dPolyline
 66
     1
 10
0.0
 20
0.0
 30
0.0
  0
VERTEX
  5
AC
330
AB
100
AcDbEntity
  8
GRAU_10_
 62
     7
100
AcDbVertex
100
AcDb2dVertex
 10
135.5883524483726
 20
158.0220719548523
 30
0.0
  0
VERTEX
  5
AD
330
AB
100
AcDbEntity
  8
GRAU_10_
 62
     7
100
AcDbVertex
100
AcDb2dVertex
 10
135.5883524483726
 20
158.1300219548249
 30
0.0
  0
VERTEX
  5
AE
330
AB
100
AcDbEntity
  8
GRAU_10_
 62
     7
100
AcDbVertex
100
AcDb2dVertex
 10
135.5883524483726
 20
158.4535191769667
 30
0.0
  0
VERTEX
  5
AF
330
AB
100
AcDbEntity
  8
GRAU_10_
 62
     7
100
AcDbVertex
100
AcDb2dVertex
 10
135.5883524483726
 20
158.9883302879439
 30
0.0
  0
VERTEX
  5
B0
330
AB
100
AcDbEntity
  8
GRAU_10_
 62
     7
100
AcDbVertex
100
AcDb2dVertex
 10
135.5883524483726
 20
159.7305747322026
 30
0.0
  0
VERTEX
  5
B1
330
AB
100
AcDbEntity
  8
GRAU_10_
 62
     7
100
AcDbVertex
100
AcDb2dVertex
 10
135.5883524483726
 20
160.6724913986338
 30
0.0
  0
VERTEX
  5
B2
330
AB
100
AcDbEntity
  8
GRAU_10_
 62
     7
100
AcDbVertex
100
AcDb2dVertex
 10
135.5883524483726
 20
161.8056136205732
 30
0.0
  0
VERTEX
  5
B3
330
AB
100
AcDbEntity
  8
GRAU_10_
 62
     7
100
AcDbVertex
100
AcDb2dVertex
 10
135.5883524483726
 20
163.1200636202442
 30
0.0
  0
VERTEX
  5
B4
330
AB
100
AcDbEntity
  8
GRAU_10_
 62
     7
100
AcDbVertex
100
AcDb2dVertex
 10
135.5883524483726
 20
164.6020830643184
 30
0.0
  0
VERTEX
  5
B5
330
AB
100
AcDbEntity
  8
GRAU_10_
 62
     7
100
AcDbVertex
100
AcDb2dVertex
 10
135.5883524483726
 20
166.2382663972424
 30
0.0
  0
VERTEX
  5
B6
330
AB
100
AcDbEntity
  8
GRAU_10_
 62
     7
100
AcDbVertex
100
AcDb2dVertex
 10
135.5883524483726
 20
168.013091396799
 30
0.0
  0
VERTEX
  5
B7
330
AB
100
AcDbEntity
  8
GRAU_10_
 62
     7
100
AcDbVertex
100
AcDb2dVertex
 10
135.5883524483726
 20
169.9106830629909
 30
0.0
  0
VERTEX
  5
B8
330
AB
100
AcDbEntity
  8
GRAU_10_
 62
     7
100
AcDbVertex
100
AcDb2dVertex
 10
135.5883524483726
 20
171.9123441736019
 30
0.0
  0
VERTEX
  5
B9
330
AB
100
AcDbEntity
  8
GRAU_10_
 62
     7
100
AcDbVertex
100
AcDb2dVertex
 10
135.5883524483726
 20
173.999730284191
 30
0.0
  0
VERTEX
  5
BA
330
AB
100
AcDbEntity
  8
GRAU_10_
 62
     7
100
AcDbVertex
100
AcDb2dVertex
 10
135.5883524483726
 20
176.1527330614308
 30
0.0
  0
VERTEX
  5
BB
330
AB
100
AcDbEntity
  8
GRAU_10_
 62
     7
100
AcDbVertex
100
AcDb2dVertex
 10
135.5883524483726
 20
178.3519497275475
 30
0.0
  0
VERTEX
  5
BC
330
AB
100
AcDbEntity
  8
GRAU_10_
 62
     7
100
AcDbVertex
100
AcDb2dVertex
 10
135.5883524483726
 20
180.5758608381024
 30
0.0
  0
VERTEX
  5
BD
330
AB
100
AcDbEntity
  8
GRAU_10_
 62
     7
100
AcDbVertex
100
AcDb2dVertex
 10
135.5883524483726
 20
182.8043580597678
 30
0.0
  0
VERTEX
  5
BE
330
AB
100
AcDbEntity
  8
GRAU_10_
 62
     7
100
AcDbVertex
100
AcDb2dVertex
 10
135.5883524483726
 20
185.0159219481039
 30
0.0
  0
VERTEX
  5
BF
330
AB
100
AcDbEntity
  8
GRAU_10_
 62
     7
100
AcDbVertex
100
AcDb2dVertex
 10
135.5883524483726
 20
187.1900913920046
 30
0.0
  0
VERTEX
  5
C0
330
AB
100
AcDbEntity
  8
GRAU_10_
 62
     7
100
AcDbVertex
100
AcDb2dVertex
 10
135.5883524483726
 20
189.3064052803647
 30
0.0
  0
VERTEX
  5
C1
330
AB
100
AcDbEntity
  8
GRAU_10_
 62
     7
100
AcDbVertex
100
AcDb2dVertex
 10
135.5883524483726
 20
191.3444025020771
 30
0.0
  0
VERTEX
  5
C2
330
AB
100
AcDbEntity
  8
GRAU_10_
 62
     7
100
AcDbVertex
100
AcDb2dVertex
 10
135.5883524483726
 20
193.2857386127027
 30
0.0
  0
VERTEX
  5
C3
330
AB
100
AcDbEntity
  8
GRAU_10_
 62
     7
100
AcDbVertex
100
AcDb2dVertex
 10
135.5883524483726
 20
195.1120691678019
 30
0.0
  0
VERTEX
  5
C4
330
AB
100
AcDbEntity
  8
GRAU_10_
 62
     7
100
AcDbVertex
100
AcDb2dVertex
 10
135.5883524483726
 20
196.805402500712
 30
0.0
  0
VERTEX
  5
C5
330
AB
100
AcDbEntity
  8
GRAU_10_
 62
     7
100
AcDbVertex
100
AcDb2dVertex
 10
135.5883524483726
 20
198.3512747225476
 30
0.0
  0
VERTEX
  5
C6
330
AB
100
AcDbEntity
  8
GRAU_10_
 62
     7
100
AcDbVertex
100
AcDb2dVertex
 10
135.5883524483726
 20
199.7341636110908
 30
0.0
  0
VERTEX
  5
C7
330
AB
100
AcDbEntity
  8
GRAU_10_
 62
     7
100
AcDbVertex
100
AcDb2dVertex
 10
135.5883524483726
 20
200.9406636107892
 30
0.0
  0
SEQEND
  5
C8
330
AB
100
AcDbEntity
  8
GRAU_10_
 62
     7
  0
POLYLINE
  5
C9
330
1F
100
AcDbEntity
  8
GRAU_10_
 62
     7
100
AcDb2dPolyline
 66
     1
 10
0.0
 20
0.0
 30
0.0
  0
VERTEX
  5
CA
330
C9
100
AcDbEntity
  8
GRAU_10_
 62
     7
100
AcDbVertex
100
AcDb2dVertex
 10
158.8879135536589
 20
200.1719608332036
 30
0.0
  0
VERTEX
  5
CB
330
C9
100
AcDbEntity
  8
GRAU_10_
 62
     7
100
AcDbVertex
100
AcDb2dVertex
 10
157.387902442923
 20
200.1719608332036
 30
0.0
  0
SEQEND
  5
CC
330
C9
100
AcDbEntity
  8
GRAU_10_
 62
     7
  0
POLYLINE
  5
CD
330
1F
100
AcDbEntity
  8
GRAU_10_
 62
     7
100
AcDb2dPolyline
 66
     1
 10
0.0
 20
0.0
 30
0.0
  0
VERTEX
  5
CE
330
CD
100
AcDbEntity
  8
GRAU_10_
 62
     7
100
AcDbVertex
100
AcDb2dVertex
 10
157.387902442923
 20
161.8719358427782
 30
0.0
  0
VERTEX
  5
CF
330
CD
100
AcDbEntity
  8
GRAU_10_
 62
     7
100
AcDbVertex
100
AcDb2dVertex
 10
158.8879135536589
 20
161.8719358427782
 30
0.0
  0
SEQEND
  5
D0
330
CD
100
AcDbEntity
  8
GRAU_10_
 62
     7
  0
POLYLINE
  5
D1
330
1F
100
AcDbEntity
  8
GRAU_10_
 62
     7
100
AcDb2dPolyline
 66
     1
 10
0.0
 20
0.0
 30
0.0
  0
VERTEX
  5
D2
330
D1
100
AcDbEntity
  8
GRAU_10_
 62
     7
100
AcDbVertex
100
AcDb2dVertex
 10
158.8879135536589
 20
200.1719608332036
 30
0.0
  0
VERTEX
  5
D3
330
D1
100
AcDbEntity
  8
GRAU_10_
 62
     7
100
AcDbVertex
100
AcDb2dVertex
 10
158.8879135536589
 20
200.0671858332296
 30
0.0
  0
VERTEX
  5
D4
330
D1
100
AcDbEntity
  8
GRAU_10_
 62
     7
100
AcDbVertex
100
AcDb2dVertex
 10
158.8879135536589
 20
199.7539191666416
 30
0.0
  0
VERTEX
  5
D5
330
D1
100
AcDbEntity
  8
GRAU_10_
 62
     7
100
AcDbVertex
100
AcDb2dVertex
 10
158.8879135536589
 20
199.2349830556601
 30
0.0
  0
VERTEX
  5
D6
330
D1
100
AcDbEntity
  8
GRAU_10_
 62
     7
100
AcDbVertex
100
AcDb2dVertex
 10
158.8879135536589
 20
198.5163747225066
 30
0.0
  0
VERTEX
  5
D7
330
D1
100
AcDbEntity
  8
GRAU_10_
 62
     7
100
AcDbVertex
100
AcDb2dVertex
 10
158.8879135536589
 20
197.6062080560672
 30
0.0
  0
VERTEX
  5
D8
330
D1
100
AcDbEntity
  8
GRAU_10_
 62
     7
100
AcDbVertex
100
AcDb2dVertex
 10
158.8879135536589
 20
196.5150663896734
 30
0.0
  0
VERTEX
  5
D9
330
D1
100
AcDbEntity
  8
GRAU_10_
 62
     7
100
AcDbVertex
100
AcDb2dVertex
 10
158.8879135536589
 20
195.2531802788779
 30
0.0
  0
VERTEX
  5
DA
330
D1
100
AcDbEntity
  8
GRAU_10_
 62
     7
100
AcDbVertex
100
AcDb2dVertex
 10
158.8879135536589
 20
193.8357191681212
 30
0.0
  0
VERTEX
  5
DB
330
D1
100
AcDbEntity
  8
GRAU_10_
 62
     7
100
AcDbVertex
100
AcDb2dVertex
 10
158.8879135536589
 20
192.2782052796214
 30
0.0
  0
VERTEX
  5
DC
330
D1
100
AcDbEntity
  8
GRAU_10_
 62
     7
100
AcDbVertex
100
AcDb2dVertex
 10
158.8879135536589
 20
190.5972191689307
 30
0.0
  0
VERTEX
  5
DD
330
D1
100
AcDbEntity
  8
GRAU_10_
 62
     7
100
AcDbVertex
100
AcDb2dVertex
 10
158.8879135536589
 20
188.8114580582661
 30
0.0
  0
VERTEX
  5
DE
330
D1
100
AcDbEntity
  8
GRAU_10_
 62
     7
100
AcDbVertex
100
AcDb2dVertex
 10
158.8879135536589
 20
186.939619169845
 30
0.0
  0
VERTEX
  5
DF
330
D1
100
AcDbEntity
  8
GRAU_10_
 62
     7
100
AcDbVertex
100
AcDb2dVertex
 10
158.8879135536589
 20
185.0039275036622
 30
0.0
  0
VERTEX
  5
E0
330
D1
100
AcDbEntity
  8
GRAU_10_
 62
     7
100
AcDbVertex
100
AcDb2dVertex
 10
158.8879135536589
 20
183.0241386152682
 30
0.0
  0
VERTEX
  5
E1
330
D1
100
AcDbEntity
  8
GRAU_10_
 62
     7
100
AcDbVertex
100
AcDb2dVertex
 10
158.8879135536589
 20
181.0221247268801
 30
0.0
  0
VERTEX
  5
E2
330
D1
100
AcDbEntity
  8
GRAU_10_
 62
     7
100
AcDbVertex
100
AcDb2dVertex
 10
158.8879135536589
 20
179.0204636162691
 30
0.0
  0
VERTEX
  5
E3
330
D1
100
AcDbEntity
  8
GRAU_10_
 62
     7
100
AcDbVertex
100
AcDb2dVertex
 10
158.8879135536589
 20
177.0406747278755
 30
0.0
  0
VERTEX
  5
E4
330
D1
100
AcDbEntity
  8
GRAU_10_
 62
     7
100
AcDbVertex
100
AcDb2dVertex
 10
158.8879135536589
 20
175.1042775061372
 30
0.0
  0
VERTEX
  5
E5
330
D1
100
AcDbEntity
  8
GRAU_10_
 62
     7
100
AcDbVertex
100
AcDb2dVertex
 10
158.8879135536589
 20
173.2331441732716
 30
0.0
  0
VERTEX
  5
E6
330
D1
100
AcDbEntity
  8
GRAU_10_
 62
     7
100
AcDbVertex
100
AcDb2dVertex
 10
158.8879135536589
 20
171.4473830626066
 30
0.0
  0
VERTEX
  5
E7
330
D1
100
AcDbEntity
  8
GRAU_10_
 62
     7
100
AcDbVertex
100
AcDb2dVertex
 10
158.8879135536589
 20
169.766396951916
 30
0.0
  0
VERTEX
  5
E8
330
D1
100
AcDbEntity
  8
GRAU_10_
 62
     7
100
AcDbVertex
100
AcDb2dVertex
 10
158.8879135536589
 20
168.2081775078613
 30
0.0
  0
VERTEX
  5
E9
330
D1
100
AcDbEntity
  8
GRAU_10_
 62
     7
100
AcDbVertex
100
AcDb2dVertex
 10
158.8879135536589
 20
166.7907163971045
 30
0.0
  0
VERTEX
  5
EA
330
D1
100
AcDbEntity
  8
GRAU_10_
 62
     7
100
AcDbVertex
100
AcDb2dVertex
 10
158.8879135536589
 20
165.529535841864
 30
0.0
  0
VERTEX
  5
EB
330
D1
100
AcDbEntity
  8
GRAU_10_
 62
     7
100
AcDbVertex
100
AcDb2dVertex
 10
158.8879135536589
 20
164.437688619915
 30
0.0
  0
VERTEX
  5
EC
330
D1
100
AcDbEntity
  8
GRAU_10_
 62
     7
100
AcDbVertex
100
AcDb2dVertex
 10
158.8879135536589
 20
163.5275219534759
 30
0.0
  0
VERTEX
  5
ED
330
D1
100
AcDbEntity
  8
GRAU_10_
 62
     7
100
AcDbVertex
100
AcDb2dVertex
 10
158.8879135536589
 20
162.8096191758776
 30
0.0
  0
VERTEX
  5
EE
330
D1
100
AcDbEntity
  8
GRAU_10_
 62
     7
100
AcDbVertex
100
AcDb2dVertex
 10
158.8879135536589
 20
162.2906830648964
 30
0.0
  0
VERTEX
  5
EF
330
D1
100
AcDbEntity
  8
GRAU_10_
 62
     7
100
AcDbVertex
100
AcDb2dVertex
 10
158.8879135536589
 20
161.9767108427522
 30
0.0
  0
VERTEX
  5
F0
330
D1
100
AcDbEntity
  8
GRAU_10_
 62
     7
100
AcDbVertex
100
AcDb2dVertex
 10
158.8879135536589
 20
161.8719358427782
 30
0.0
  0
SEQEND
  5
F1
330
D1
100
AcDbEntity
  8
GRAU_10_
 62
     7
  0
POLYLINE
  5
F2
330
1F
100
AcDbEntity
  8
GRAU_10_
 62
     7
100
AcDb2dPolyline
 66
     1
 10
0.0
 20
0.0
 30
0.0
  0
VERTEX
  5
F3
330
F2
100
AcDbEntity
  8
GRAU_10_
 62
     7
100
AcDbVertex
100
AcDb2dVertex
 10
135.5883524483726
 20
165.0635163975361
 30
0.0
  0
VERTEX
  5
F4
330
F2
100
AcDbEntity
  8
GRAU_10_
 62
     7
100
AcDbVertex
100
AcDb2dVertex
 10
135.6977135594565
 20
165.5482330640815
 30
0.0
  0
SEQEND
  5
F5
330
F2
100
AcDbEntity
  8
GRAU_10_
 62
     7
  0
POLYLINE
  5
F6
330
1F
100
AcDbEntity
  8
GRAU_10_
 62
     7
100
AcDb2dPolyline
 66
     1
 10
0.0
 20
0.0
 30
0.0
  0
VERTEX
  5
F7
330
F6
100
AcDbEntity
  8
GRAU_10_
 62
     7
100
AcDbVertex
100
AcDb2dVertex
 10
136.2921441148636
 20
166.3028247305599
 30
0.0
  0
VERTEX
  5
F8
330
F6
100
AcDbEntity
  8
GRAU_10_
 62
     7
100
AcDbVertex
100
AcDb2dVertex
 10
136.7377024480855
 20
166.5222525082826
 30
0.0
  0
SEQEND
  5
F9
330
F6
100
AcDbEntity
  8
GRAU_10_
 62
     7
  0
POLYLINE
  5
FA
330
1F
100
AcDbEntity
  8
GRAU_10_
 62
     7
100
AcDb2dPolyline
 66
     1
 10
0.0
 20
0.0
 30
0.0
  0
VERTEX
  5
FB
330
FA
100
AcDbEntity
  8
GRAU_10_
 62
     7
100
AcDbVertex
100
AcDb2dVertex
 10
136.7377024480855
 20
195.5223497232548
 30
0.0
  0
VERTEX
  5
FC
330
FA
100
AcDbEntity
  8
GRAU_10_
 62
     7
100
AcDbVertex
100
AcDb2dVertex
 10
136.2921441148636
 20
195.7417775009778
 30
0.0
  0
SEQEND
  5
FD
330
FA
100
AcDbEntity
  8
GRAU_10_
 62
     7
  0
POLYLINE
  5
FE
330
1F
100
AcDbEntity
  8
GRAU_10_
 62
     7
100
AcDb2dPolyline
 66
     1
 10
0.0
 20
0.0
 30
0.0
  0
VERTEX
  5
FF
330
FE
100
AcDbEntity
  8
GRAU_10_
 62
     7
100
AcDbVertex
100
AcDb2dVertex
 10
135.6977135594565
 20
196.4963691674558
 30
0.0
  0
VERTEX
  5
100
330
FE
100
AcDbEntity
  8
GRAU_10_
 62
     7
100
AcDbVertex
100
AcDb2dVertex
 10
135.5883524483726
 20
196.9803802784458
 30
0.0
  0
SEQEND
  5
101
330
FE
100
AcDbEntity
  8
GRAU_10_
 62
     7
  0
POLYLINE
  5
102
330
1F
100
AcDbEntity
  8
GRAU_10_
 62
     7
100
AcDb2dPolyline
 66
     1
 10
0.0
 20
0.0
 30
0.0
  0
VERTEX
  5
103
330
102
100
AcDbEntity
  8
GRAU_10_
 62
     7
100
AcDbVertex
100
AcDb2dVertex
 10
136.7377024480855
 20
166.5222525082826
 30
0.0
  0
VERTEX
  5
104
330
102
100
AcDbEntity
  8
GRAU_10_
 62
     7
100
AcDbVertex
100
AcDb2dVertex
 10
136.7377024480855
 20
166.6277330638121
 30
0.0
  0
VERTEX
  5
105
330
102
100
AcDbEntity
  8
GRAU_10_
 62
     7
100
AcDbVertex
100
AcDb2dVertex
 10
136.7377024480855
 20
166.9438219526215
 30
0.0
  0
VERTEX
  5
106
330
102
100
AcDbEntity
  8
GRAU_10_
 62
     7
100
AcDbVertex
100
AcDb2dVertex
 10
136.7377024480855
 20
167.0055580637176
 30
0.0
  0
SEQEND
  5
107
330
102
100
AcDbEntity
  8
GRAU_10_
 62
     7
  0
POLYLINE
  5
108
330
1F
100
AcDbEntity
  8
GRAU_10_
 62
     7
100
AcDb2dPolyline
 66
     1
 10
0.0
 20
0.0
 30
0.0
  0
VERTEX
  5
109
330
108
100
AcDbEntity
  8
GRAU_10_
 62
     7
100
AcDbVertex
100
AcDb2dVertex
 10
136.7377024480855
 20
167.972169174587
 30
0.0
  0
VERTEX
  5
10A
330
108
100
AcDbEntity
  8
GRAU_10_
 62
     7
100
AcDbVertex
100
AcDb2dVertex
 10
136.7377024480855
 20
168.1827775078676
 30
0.0
  0
VERTEX
  5
10B
330
108
100
AcDbEntity
  8
GRAU_10_
 62
     7
100
AcDbVertex
100
AcDb2dVertex
 10
136.7377024480855
 20
168.9391330632341
 30
0.0
  0
SEQEND
  5
10C
330
108
100
AcDbEntity
  8
GRAU_10_
 62
     7
  0
POLYLINE
  5
10D
330
1F
100
AcDbEntity
  8
GRAU_10_
 62
     7
100
AcDb2dPolyline
 66
     1
 10
0.0
 20
0.0
 30
0.0
  0
VERTEX
  5
10E
330
10D
100
AcDbEntity
  8
GRAU_10_
 62
     7
100
AcDbVertex
100
AcDb2dVertex
 10
136.7377024480855
 20
169.9057441741035
 30
0.0
  0
VERTEX
  5
10F
330
10D
100
AcDbEntity
  8
GRAU_10_
 62
     7
100
AcDbVertex
100
AcDb2dVertex
 10
136.7377024480855
 20
170.1685636184819
 30
0.0
  0
VERTEX
  5
110
330
10D
100
AcDbEntity
  8
GRAU_10_
 62
     7
100
AcDbVertex
100
AcDb2dVertex
 10
136.7377024480855
 20
170.8723552849729
 30
0.0
  0
SEQEND
  5
111
330
10D
100
AcDbEntity
  8
GRAU_10_
 62
     7
  0
POLYLINE
  5
112
330
1F
100
AcDbEntity
  8
GRAU_10_
 62
     7
100
AcDb2dPolyline
 66
     1
 10
0.0
 20
0.0
 30
0.0
  0
VERTEX
  5
113
330
112
100
AcDbEntity
  8
GRAU_10_
 62
     7
100
AcDbVertex
100
AcDb2dVertex
 10
136.7377024480855
 20
171.8389663958423
 30
0.0
  0
VERTEX
  5
114
330
112
100
AcDbEntity
  8
GRAU_10_
 62
     7
100
AcDbVertex
100
AcDb2dVertex
 10
136.7377024480855
 20
172.7854691733837
 30
0.0
  0
VERTEX
  5
115
330
112
100
AcDbEntity
  8
GRAU_10_
 62
     7
100
AcDbVertex
100
AcDb2dVertex
 10
136.7377024480855
 20
172.8055775067116
 30
0.0
  0
SEQEND
  5
116
330
112
100
AcDbEntity
  8
GRAU_10_
 62
     7
  0
POLYLINE
  5
117
330
1F
100
AcDbEntity
  8
GRAU_10_
 62
     7
100
AcDb2dPolyline
 66
     1
 10
0.0
 20
0.0
 30
0.0
  0
VERTEX
  5
118
330
117
100
AcDbEntity
  8
GRAU_10_
 62
     7
100
AcDbVertex
100
AcDb2dVertex
 10
136.7377024480855
 20
173.7721886175813
 30
0.0
  0
VERTEX
  5
119
330
117
100
AcDbEntity
  8
GRAU_10_
 62
     7
100
AcDbVertex
100
AcDb2dVertex
 10
136.7377024480855
 20
174.2833636174534
 30
0.0
  0
VERTEX
  5
11A
330
117
100
AcDbEntity
  8
GRAU_10_
 62
     7
100
AcDbVertex
100
AcDb2dVertex
 10
136.7377024480855
 20
174.7391525062285
 30
0.0
  0
SEQEND
  5
11B
330
117
100
AcDbEntity
  8
GRAU_10_
 62
     7
  0
POLYLINE
  5
11C
330
1F
100
AcDbEntity
  8
GRAU_10_
 62
     7
100
AcDb2dPolyline
 66
     1
 10
0.0
 20
0.0
 30
0.0
  0
VERTEX
  5
11D
330
11C
100
AcDbEntity
  8
GRAU_10_
 62
     7
100
AcDbVertex
100
AcDb2dVertex
 10
136.7377024480855
 20
175.7057636170979
 30
0.0
  0
VERTEX
  5
11E
330
11C
100
AcDbEntity
  8
GRAU_10_
 62
     7
100
AcDbVertex
100
AcDb2dVertex
 10
136.7377024480855
 20
175.8803886170542
 30
0.0
  0
VERTEX
  5
11F
330
11C
100
AcDbEntity
  8
GRAU_10_
 62
     7
100
AcDbVertex
100
AcDb2dVertex
 10
136.7377024480855
 20
176.6723747279676
 30
0.0
  0
SEQEND
  5
120
330
11C
100
AcDbEntity
  8
GRAU_10_
 62
     7
  0
POLYLINE
  5
121
330
1F
100
AcDbEntity
  8
GRAU_10_
 62
     7
100
AcDb2dPolyline
 66
     1
 10
0.0
 20
0.0
 30
0.0
  0
VERTEX
  5
122
330
121
100
AcDbEntity
  8
GRAU_10_
 62
     7
100
AcDbVertex
100
AcDb2dVertex
 10
136.7377024480855
 20
177.6386330610592
 30
0.0
  0
VERTEX
  5
123
330
121
100
AcDbEntity
  8
GRAU_10_
 62
     7
100
AcDbVertex
100
AcDb2dVertex
 10
136.7377024480855
 20
178.6052441719286
 30
0.0
  0
SEQEND
  5
124
330
121
100
AcDbEntity
  8
GRAU_10_
 62
     7
  0
POLYLINE
  5
125
330
1F
100
AcDbEntity
  8
GRAU_10_
 62
     7
100
AcDb2dPolyline
 66
     1
 10
0.0
 20
0.0
 30
0.0
  0
VERTEX
  5
126
330
125
100
AcDbEntity
  8
GRAU_10_
 62
     7
100
AcDbVertex
100
AcDb2dVertex
 10
136.7377024480855
 20
179.571855282798
 30
0.0
  0
VERTEX
  5
127
330
125
100
AcDbEntity
  8
GRAU_10_
 62
     7
100
AcDbVertex
100
AcDb2dVertex
 10
136.7377024480855
 20
180.5388191714451
 30
0.0
  0
SEQEND
  5
128
330
125
100
AcDbEntity
  8
GRAU_10_
 62
     7
  0
POLYLINE
  5
129
330
1F
100
AcDbEntity
  8
GRAU_10_
 62
     7
100
AcDb2dPolyline
 66
     1
 10
0.0
 20
0.0
 30
0.0
  0
VERTEX
  5
12A
330
129
100
AcDbEntity
  8
GRAU_10_
 62
     7
100
AcDbVertex
100
AcDb2dVertex
 10
136.7377024480855
 20
181.5054302823145
 30
0.0
  0
VERTEX
  5
12B
330
129
100
AcDbEntity
  8
GRAU_10_
 62
     7
100
AcDbVertex
100
AcDb2dVertex
 10
136.7377024480855
 20
182.4720413931839
 30
0.0
  0
SEQEND
  5
12C
330
129
100
AcDbEntity
  8
GRAU_10_
 62
     7
  0
POLYLINE
  5
12D
330
1F
100
AcDbEntity
  8
GRAU_10_
 62
     7
100
AcDb2dPolyline
 66
     1
 10
0.0
 20
0.0
 30
0.0
  0
VERTEX
  5
12E
330
12D
100
AcDbEntity
  8
GRAU_10_
 62
     7
100
AcDbVertex
100
AcDb2dVertex
 10
136.7377024480855
 20
183.4386525040536
 30
0.0
  0
VERTEX
  5
12F
330
12D
100
AcDbEntity
  8
GRAU_10_
 62
     7
100
AcDbVertex
100
AcDb2dVertex
 10
136.7377024480855
 20
184.4052636149233
 30
0.0
  0
SEQEND
  5
130
330
12D
100
AcDbEntity
  8
GRAU_10_
 62
     7
  0
POLYLINE
  5
131
330
1F
100
AcDbEntity
  8
GRAU_10_
 62
     7
100
AcDb2dPolyline
 66
     1
 10
0.0
 20
0.0
 30
0.0
  0
VERTEX
  5
132
330
131
100
AcDbEntity
  8
GRAU_10_
 62
     7
100
AcDbVertex
100
AcDb2dVertex
 10
136.7377024480855
 20
185.3718747257927
 30
0.0
  0
VERTEX
  5
133
330
131
100
AcDbEntity
  8
GRAU_10_
 62
     7
100
AcDbVertex
100
AcDb2dVertex
 10
136.7377024480855
 20
186.1642136144832
 30
0.0
  0
VERTEX
  5
134
330
131
100
AcDbEntity
  8
GRAU_10_
 62
     7
100
AcDbVertex
100
AcDb2dVertex
 10
136.7377024480855
 20
186.3388386144398
 30
0.0
  0
SEQEND
  5
135
330
131
100
AcDbEntity
  8
GRAU_10_
 62
     7
  0
POLYLINE
  5
136
330
1F
100
AcDbEntity
  8
GRAU_10_
 62
     7
100
AcDb2dPolyline
 66
     1
 10
0.0
 20
0.0
 30
0.0
  0
VERTEX
  5
137
330
136
100
AcDbEntity
  8
GRAU_10_
 62
     7
100
AcDbVertex
100
AcDb2dVertex
 10
136.7377024480855
 20
187.3054497253092
 30
0.0
  0
VERTEX
  5
138
330
136
100
AcDbEntity
  8
GRAU_10_
 62
     7
100
AcDbVertex
100
AcDb2dVertex
 10
136.7377024480855
 20
187.7605330585284
 30
0.0
  0
VERTEX
  5
139
330
136
100
AcDbEntity
  8
GRAU_10_
 62
     7
100
AcDbVertex
100
AcDb2dVertex
 10
136.7377024480855
 20
188.2724136139563
 30
0.0
  0
SEQEND
  5
13A
330
136
100
AcDbEntity
  8
GRAU_10_
 62
     7
  0
POLYLINE
  5
13B
330
1F
100
AcDbEntity
  8
GRAU_10_
 62
     7
100
AcDb2dPolyline
 66
     1
 10
0.0
 20
0.0
 30
0.0
  0
VERTEX
  5
13C
330
13B
100
AcDbEntity
  8
GRAU_10_
 62
     7
100
AcDbVertex
100
AcDb2dVertex
 10
136.7377024480855
 20
189.2390247248257
 30
0.0
  0
VERTEX
  5
13D
330
13B
100
AcDbEntity
  8
GRAU_10_
 62
     7
100
AcDbVertex
100
AcDb2dVertex
 10
136.7377024480855
 20
189.2591330581542
 30
0.0
  0
VERTEX
  5
13E
330
13B
100
AcDbEntity
  8
GRAU_10_
 62
     7
100
AcDbVertex
100
AcDb2dVertex
 10
136.7377024480855
 20
190.2056358356951
 30
0.0
  0
SEQEND
  5
13F
330
13B
100
AcDbEntity
  8
GRAU_10_
 62
     7
  0
POLYLINE
  5
140
330
1F
100
AcDbEntity
  8
GRAU_10_
 62
     7
100
AcDb2dPolyline
 66
     1
 10
0.0
 20
0.0
 30
0.0
  0
VERTEX
  5
141
330
140
100
AcDbEntity
  8
GRAU_10_
 62
     7
100
AcDbVertex
100
AcDb2dVertex
 10
136.7377024480855
 20
191.1722469465645
 30
0.0
  0
VERTEX
  5
142
330
140
100
AcDbEntity
  8
GRAU_10_
 62
     7
100
AcDbVertex
100
AcDb2dVertex
 10
136.7377024480855
 20
191.8753330574999
 30
0.0
  0
VERTEX
  5
143
330
140
100
AcDbEntity
  8
GRAU_10_
 62
     7
100
AcDbVertex
100
AcDb2dVertex
 10
136.7377024480855
 20
192.1388580574339
 30
0.0
  0
SEQEND
  5
144
330
140
100
AcDbEntity
  8
GRAU_10_
 62
     7
  0
POLYLINE
  5
145
330
1F
100
AcDbEntity
  8
GRAU_10_
 62
     7
100
AcDb2dPolyline
 66
     1
 10
0.0
 20
0.0
 30
0.0
  0
VERTEX
  5
146
330
145
100
AcDbEntity
  8
GRAU_10_
 62
     7
100
AcDbVertex
100
AcDb2dVertex
 10
136.7377024480855
 20
193.105821946081
 30
0.0
  0
VERTEX
  5
147
330
145
100
AcDbEntity
  8
GRAU_10_
 62
     7
100
AcDbVertex
100
AcDb2dVertex
 10
136.7377024480855
 20
193.8611191681146
 30
0.0
  0
VERTEX
  5
148
330
145
100
AcDbEntity
  8
GRAU_10_
 62
     7
100
AcDbVertex
100
AcDb2dVertex
 10
136.7377024480855
 20
194.0724330569507
 30
0.0
  0
SEQEND
  5
149
330
145
100
AcDbEntity
  8
GRAU_10_
 62
     7
  0
POLYLINE
  5
14A
330
1F
100
AcDbEntity
  8
GRAU_10_
 62
     7
100
AcDb2dPolyline
 66
     1
 10
0.0
 20
0.0
 30
0.0
  0
VERTEX
  5
14B
330
14A
100
AcDbEntity
  8
GRAU_10_
 62
     7
100
AcDbVertex
100
AcDb2dVertex
 10
136.7377024480855
 20
195.0390441678204
 30
0.0
  0
VERTEX
  5
14C
330
14A
100
AcDbEntity
  8
GRAU_10_
 62
     7
100
AcDbVertex
100
AcDb2dVertex
 10
136.7377024480855
 20
195.1007802789158
 30
0.0
  0
VERTEX
  5
14D
330
14A
100
AcDbEntity
  8
GRAU_10_
 62
     7
100
AcDbVertex
100
AcDb2dVertex
 10
136.7377024480855
 20
195.4161636121704
 30
0.0
  0
VERTEX
  5
14E
330
14A
100
AcDbEntity
  8
GRAU_10_
 62
     7
100
AcDbVertex
100
AcDb2dVertex
 10
136.7377024480855
 20
195.5223497232548
 30
0.0
  0
SEQEND
  5
14F
330
14A
100
AcDbEntity
  8
GRAU_10_
 62
     7
  0
POLYLINE
  5
150
330
1F
100
AcDbEntity
  8
GRAU_10_
 62
     7
100
AcDb2dPolyline
 66
     1
 10
0.0
 20
0.0
 30
0.0
  0
VERTEX
  5
151
330
150
100
AcDbEntity
  8
GRAU_10_
 62
     7
100
AcDbVertex
100
AcDb2dVertex
 10
159.8954468867403
 20
165.0719830642011
 30
0.0
  0
VERTEX
  5
152
330
150
100
AcDbEntity
  8
GRAU_10_
 62
     7
100
AcDbVertex
100
AcDb2dVertex
 10
160.5883024421226
 20
166.2717802861233
 30
0.0
  0
SEQEND
  5
153
330
150
100
AcDbEntity
  8
GRAU_10_
 62
     7
  0
POLYLINE
  5
154
330
1F
100
AcDbEntity
  8
GRAU_10_
 62
     7
100
AcDb2dPolyline
 66
     1
 10
0.0
 20
0.0
 30
0.0
  0
VERTEX
  5
155
330
154
100
AcDbEntity
  8
GRAU_10_
 62
     7
100
AcDbVertex
100
AcDb2dVertex
 10
160.5883024421226
 20
195.7721163898592
 30
0.0
  0
VERTEX
  5
156
330
154
100
AcDbEntity
  8
GRAU_10_
 62
     7
100
AcDbVertex
100
AcDb2dVertex
 10
159.8954468867403
 20
196.9719136117814
 30
0.0
  0
SEQEND
  5
157
330
154
100
AcDbEntity
  8
GRAU_10_
 62
     7
  0
POLYLINE
  5
158
330
1F
100
AcDbEntity
  8
GRAU_10_
 62
     7
100
AcDb2dPolyline
 66
     1
 10
0.0
 20
0.0
 30
0.0
  0
VERTEX
  5
159
330
158
100
AcDbEntity
  8
GRAU_10_
 62
     7
100
AcDbVertex
100
AcDb2dVertex
 10
160.5883024421226
 20
194.9885969456108
 30
0.0
  0
VERTEX
  5
15A
330
158
100
AcDbEntity
  8
GRAU_10_
 62
     7
100
AcDbVertex
100
AcDb2dVertex
 10
160.5883024421226
 20
195.5752663899081
 30
0.0
  0
VERTEX
  5
15B
330
158
100
AcDbEntity
  8
GRAU_10_
 62
     7
100
AcDbVertex
100
AcDb2dVertex
 10
160.5883024421226
 20
195.7721163898592
 30
0.0
  0
SEQEND
  5
15C
330
158
100
AcDbEntity
  8
GRAU_10_
 62
     7
  0
POLYLINE
  5
15D
330
1F
100
AcDbEntity
  8
GRAU_10_
 62
     7
100
AcDb2dPolyline
 66
     1
 10
0.0
 20
0.0
 30
0.0
  0
VERTEX
  5
15E
330
15D
100
AcDbEntity
  8
GRAU_10_
 62
     7
100
AcDbVertex
100
AcDb2dVertex
 10
160.5883024421226
 20
192.1127525018853
 30
0.0
  0
VERTEX
  5
15F
330
15D
100
AcDbEntity
  8
GRAU_10_
 62
     7
100
AcDbVertex
100
AcDb2dVertex
 10
160.5883024421226
 20
193.2864441682583
 30
0.0
  0
VERTEX
  5
160
330
15D
100
AcDbEntity
  8
GRAU_10_
 62
     7
100
AcDbVertex
100
AcDb2dVertex
 10
160.5883024421226
 20
194.2509386124617
 30
0.0
  0
VERTEX
  5
161
330
15D
100
AcDbEntity
  8
GRAU_10_
 62
     7
100
AcDbVertex
100
AcDb2dVertex
 10
160.5883024421226
 20
194.9885969456108
 30
0.0
  0
SEQEND
  5
162
330
15D
100
AcDbEntity
  8
GRAU_10_
 62
     7
  0
POLYLINE
  5
163
330
1F
100
AcDbEntity
  8
GRAU_10_
 62
     7
100
AcDb2dPolyline
 66
     1
 10
0.0
 20
0.0
 30
0.0
  0
VERTEX
  5
164
330
163
100
AcDbEntity
  8
GRAU_10_
 62
     7
100
AcDbVertex
100
AcDb2dVertex
 10
160.5883024421226
 20
183.8983219483831
 30
0.0
  0
VERTEX
  5
165
330
163
100
AcDbEntity
  8
GRAU_10_
 62
     7
100
AcDbVertex
100
AcDb2dVertex
 10
160.5883024421226
 20
185.762399725695
 30
0.0
  0
VERTEX
  5
166
330
163
100
AcDbEntity
  8
GRAU_10_
 62
     7
100
AcDbVertex
100
AcDb2dVertex
 10
160.5883024421226
 20
187.545691391916
 30
0.0
  0
VERTEX
  5
167
330
163
100
AcDbEntity
  8
GRAU_10_
 62
     7
100
AcDbVertex
100
AcDb2dVertex
 10
160.5883024421226
 20
189.2167997248312
 30
0.0
  0
VERTEX
  5
168
330
163
100
AcDbEntity
  8
GRAU_10_
 62
     7
100
AcDbVertex
100
AcDb2dVertex
 10
160.5883024421226
 20
190.7482080577818
 30
0.0
  0
VERTEX
  5
169
330
163
100
AcDbEntity
  8
GRAU_10_
 62
     7
100
AcDbVertex
100
AcDb2dVertex
 10
160.5883024421226
 20
192.1127525018853
 30
0.0
  0
SEQEND
  5
16A
330
163
100
AcDbEntity
  8
GRAU_10_
 62
     7
  0
POLYLINE
  5
16B
330
1F
100
AcDbEntity
  8
GRAU_10_
 62
     7
100
AcDb2dPolyline
 66
     1
 10
0.0
 20
0.0
 30
0.0
  0
VERTEX
  5
16C
330
16B
100
AcDbEntity
  8
GRAU_10_
 62
     7
100
AcDbVertex
100
AcDb2dVertex
 10
160.5883024421226
 20
178.1462802831546
 30
0.0
  0
VERTEX
  5
16D
330
16B
100
AcDbEntity
  8
GRAU_10_
 62
     7
100
AcDbVertex
100
AcDb2dVertex
 10
160.5883024421226
 20
180.0579830604544
 30
0.0
  0
VERTEX
  5
16E
330
16B
100
AcDbEntity
  8
GRAU_10_
 62
     7
100
AcDbVertex
100
AcDb2dVertex
 10
160.5883024421226
 20
181.9866191710832
 30
0.0
  0
VERTEX
  5
16F
330
16B
100
AcDbEntity
  8
GRAU_10_
 62
     7
100
AcDbVertex
100
AcDb2dVertex
 10
160.5883024421226
 20
183.8983219483831
 30
0.0
  0
SEQEND
  5
170
330
16B
100
AcDbEntity
  8
GRAU_10_
 62
     7
  0
POLYLINE
  5
171
330
1F
100
AcDbEntity
  8
GRAU_10_
 62
     7
100
AcDb2dPolyline
 66
     1
 10
0.0
 20
0.0
 30
0.0
  0
VERTEX
  5
172
330
171
100
AcDbEntity
  8
GRAU_10_
 62
     7
100
AcDbVertex
100
AcDb2dVertex
 10
160.5883024421226
 20
169.9311441740972
 30
0.0
  0
VERTEX
  5
173
330
171
100
AcDbEntity
  8
GRAU_10_
 62
     7
100
AcDbVertex
100
AcDb2dVertex
 10
160.5883024421226
 20
171.2963941737555
 30
0.0
  0
VERTEX
  5
174
330
171
100
AcDbEntity
  8
GRAU_10_
 62
     7
100
AcDbVertex
100
AcDb2dVertex
 10
160.5883024421226
 20
172.8274497289284
 30
0.0
  0
VERTEX
  5
175
330
171
100
AcDbEntity
  8
GRAU_10_
 62
     7
100
AcDbVertex
100
AcDb2dVertex
 10
160.5883024421226
 20
174.4985580618443
 30
0.0
  0
VERTEX
  5
176
330
171
100
AcDbEntity
  8
GRAU_10_
 62
     7
100
AcDbVertex
100
AcDb2dVertex
 10
160.5883024421226
 20
176.2814969502874
 30
0.0
  0
VERTEX
  5
177
330
171
100
AcDbEntity
  8
GRAU_10_
 62
     7
100
AcDbVertex
100
AcDb2dVertex
 10
160.5883024421226
 20
178.1462802831546
 30
0.0
  0
SEQEND
  5
178
330
171
100
AcDbEntity
  8
GRAU_10_
 62
     7
  0
POLYLINE
  5
179
330
1F
100
AcDbEntity
  8
GRAU_10_
 62
     7
100
AcDb2dPolyline
 66
     1
 10
0.0
 20
0.0
 30
0.0
  0
VERTEX
  5
17A
330
179
100
AcDbEntity
  8
GRAU_10_
 62
     7
100
AcDbVertex
100
AcDb2dVertex
 10
160.5883024421226
 20
167.0552997303717
 30
0.0
  0
VERTEX
  5
17B
330
179
100
AcDbEntity
  8
GRAU_10_
 62
     7
100
AcDbVertex
100
AcDb2dVertex
 10
160.5883024421226
 20
167.7936636190756
 30
0.0
  0
VERTEX
  5
17C
330
179
100
AcDbEntity
  8
GRAU_10_
 62
     7
100
AcDbVertex
100
AcDb2dVertex
 10
160.5883024421226
 20
168.7574525077235
 30
0.0
  0
VERTEX
  5
17D
330
179
100
AcDbEntity
  8
GRAU_10_
 62
     7
100
AcDbVertex
100
AcDb2dVertex
 10
160.5883024421226
 20
169.9311441740972
 30
0.0
  0
SEQEND
  5
17E
330
179
100
AcDbEntity
  8
GRAU_10_
 62
     7
  0
POLYLINE
  5
17F
330
1F
100
AcDbEntity
  8
GRAU_10_
 62
     7
100
AcDb2dPolyline
 66
     1
 10
0.0
 20
0.0
 30
0.0
  0
VERTEX
  5
180
330
17F
100
AcDbEntity
  8
GRAU_10_
 62
     7
100
AcDbVertex
100
AcDb2dVertex
 10
160.5883024421226
 20
166.2717802861233
 30
0.0
  0
VERTEX
  5
181
330
17F
100
AcDbEntity
  8
GRAU_10_
 62
     7
100
AcDbVertex
100
AcDb2dVertex
 10
160.5883024421226
 20
166.4693358416293
 30
0.0
  0
VERTEX
  5
182
330
17F
100
AcDbEntity
  8
GRAU_10_
 62
     7
100
AcDbVertex
100
AcDb2dVertex
 10
160.5883024421226
 20
167.0552997303717
 30
0.0
  0
SEQEND
  5
183
330
17F
100
AcDbEntity
  8
GRAU_10_
 62
     7
  0
POLYLINE
  5
184
330
1F
100
AcDbEntity
  8
GRAU_10_
 62
     7
100
AcDb2dPolyline
 66
     1
 10
0.0
 20
0.0
 30
0.0
  0
VERTEX
  5
185
330
184
100
AcDbEntity
  8
GRAU_10_
 62
     7
100
AcDbVertex
100
AcDb2dVertex
 10
159.8954468867403
 20
165.0719830642011
 30
0.0
  0
VERTEX
  5
186
330
184
100
AcDbEntity
  8
GRAU_10_
 62
     7
100
AcDbVertex
100
AcDb2dVertex
 10
159.8954468867403
 20
165.1802858419514
 30
0.0
  0
VERTEX
  5
187
330
184
100
AcDbEntity
  8
GRAU_10_
 62
     7
100
AcDbVertex
100
AcDb2dVertex
 10
159.8954468867403
 20
165.5023719529821
 30
0.0
  0
VERTEX
  5
188
330
184
100
AcDbEntity
  8
GRAU_10_
 62
     7
100
AcDbVertex
100
AcDb2dVertex
 10
159.8954468867403
 20
166.0340080639602
 30
0.0
  0
VERTEX
  5
189
330
184
100
AcDbEntity
  8
GRAU_10_
 62
     7
100
AcDbVertex
100
AcDb2dVertex
 10
159.8954468867403
 20
166.76849139711
 30
0.0
  0
VERTEX
  5
18A
330
184
100
AcDbEntity
  8
GRAU_10_
 62
     7
100
AcDbVertex
100
AcDb2dVertex
 10
159.8954468867403
 20
167.6959441746556
 30
0.0
  0
VERTEX
  5
18B
330
184
100
AcDbEntity
  8
GRAU_10_
 62
     7
100
AcDbVertex
100
AcDb2dVertex
 10
159.8954468867403
 20
168.8036663966013
 30
0.0
  0
VERTEX
  5
18C
330
184
100
AcDbEntity
  8
GRAU_10_
 62
     7
100
AcDbVertex
100
AcDb2dVertex
 10
159.8954468867403
 20
170.0768413962832
 30
0.0
  0
VERTEX
  5
18D
330
184
100
AcDbEntity
  8
GRAU_10_
 62
     7
100
AcDbVertex
100
AcDb2dVertex
 10
159.8954468867403
 20
171.4971247292614
 30
0.0
  0
VERTEX
  5
18E
330
184
100
AcDbEntity
  8
GRAU_10_
 62
     7
100
AcDbVertex
100
AcDb2dVertex
 10
159.8954468867403
 20
173.0468775066517
 30
0.0
  0
VERTEX
  5
18F
330
184
100
AcDbEntity
  8
GRAU_10_
 62
     7
100
AcDbVertex
100
AcDb2dVertex
 10
159.8954468867403
 20
174.7049330617924
 30
0.0
  0
VERTEX
  5
190
330
184
100
AcDbEntity
  8
GRAU_10_
 62
     7
100
AcDbVertex
100
AcDb2dVertex
 10
159.8954468867403
 20
176.4473025058013
 30
0.0
  0
VERTEX
  5
191
330
184
100
AcDbEntity
  8
GRAU_10_
 62
     7
100
AcDbVertex
100
AcDb2dVertex
 10
159.8954468867403
 20
178.2521136164612
 30
0.0
  0
VERTEX
  5
192
330
184
100
AcDbEntity
  8
GRAU_10_
 62
     7
100
AcDbVertex
100
AcDb2dVertex
 10
159.8954468867403
 20
180.0950247271117
 30
0.0
  0
VERTEX
  5
193
330
184
100
AcDbEntity
  8
GRAU_10_
 62
     7
100
AcDbVertex
100
AcDb2dVertex
 10
159.8954468867403
 20
181.9495775044257
 30
0.0
  0
VERTEX
  5
194
330
184
100
AcDbEntity
  8
GRAU_10_
 62
     7
100
AcDbVertex
100
AcDb2dVertex
 10
159.8954468867403
 20
183.7917830595206
 30
0.0
  0
VERTEX
  5
195
330
184
100
AcDbEntity
  8
GRAU_10_
 62
     7
100
AcDbVertex
100
AcDb2dVertex
 10
159.8954468867403
 20
185.5969469479583
 30
0.0
  0
VERTEX
  5
196
330
184
100
AcDbEntity
  8
GRAU_10_
 62
     7
100
AcDbVertex
100
AcDb2dVertex
 10
159.8954468867403
 20
187.3393163919672
 30
0.0
  0
VERTEX
  5
197
330
184
100
AcDbEntity
  8
GRAU_10_
 62
     7
100
AcDbVertex
100
AcDb2dVertex
 10
159.8954468867403
 20
188.9970191693307
 30
0.0
  0
VERTEX
  5
198
330
184
100
AcDbEntity
  8
GRAU_10_
 62
     7
100
AcDbVertex
100
AcDb2dVertex
 10
159.8954468867403
 20
190.5467719467211
 30
0.0
  0
VERTEX
  5
199
330
184
100
AcDbEntity
  8
GRAU_10_
 62
     7
100
AcDbVertex
100
AcDb2dVertex
 10
159.8954468867403
 20
191.9677608352548
 30
0.0
  0
VERTEX
  5
19A
330
184
100
AcDbEntity
  8
GRAU_10_
 62
     7
100
AcDbVertex
100
AcDb2dVertex
 10
159.8954468867403
 20
193.2402302793811
 30
0.0
  0
VERTEX
  5
19B
330
184
100
AcDbEntity
  8
GRAU_10_
 62
     7
100
AcDbVertex
100
AcDb2dVertex
 10
159.8954468867403
 20
194.3479525013262
 30
0.0
  0
VERTEX
  5
19C
330
184
100
AcDbEntity
  8
GRAU_10_
 62
     7
100
AcDbVertex
100
AcDb2dVertex
 10
159.8954468867403
 20
195.2754052788721
 30
0.0
  0
VERTEX
  5
19D
330
184
100
AcDbEntity
  8
GRAU_10_
 62
     7
100
AcDbVertex
100
AcDb2dVertex
 10
159.8954468867403
 20
196.0098886120216
 30
0.0
  0
VERTEX
  5
19E
330
184
100
AcDbEntity
  8
GRAU_10_
 62
     7
100
AcDbVertex
100
AcDb2dVertex
 10
159.8954468867403
 20
196.5422302785552
 30
0.0
  0
VERTEX
  5
19F
330
184
100
AcDbEntity
  8
GRAU_10_
 62
     7
100
AcDbVertex
100
AcDb2dVertex
 10
159.8954468867403
 20
196.864316389586
 30
0.0
  0
VERTEX
  5
1A0
330
184
100
AcDbEntity
  8
GRAU_10_
 62
     7
100
AcDbVertex
100
AcDb2dVertex
 10
159.8954468867403
 20
196.9719136117814
 30
0.0
  0
VERTEX
  5
1A1
330
184
100
AcDbEntity
  8
GRAU_10_
 62
     7
100
AcDbVertex
100
AcDb2dVertex
 10
158.8879135536589
 20
196.9719136117814
 30
0.0
  0
SEQEND
  5
1A2
330
184
100
AcDbEntity
  8
GRAU_10_
 62
     7
  0
POLYLINE
  5
1A3
330
1F
100
AcDbEntity
  8
GRAU_10_
 62
     7
100
AcDb2dPolyline
 66
     1
 10
0.0
 20
0.0
 30
0.0
  0
VERTEX
  5
1A4
330
1A3
100
AcDbEntity
  8
GRAU_10_
 62
     7
100
AcDbVertex
100
AcDb2dVertex
 10
158.8879135536589
 20
165.0719830642011
 30
0.0
  0
VERTEX
  5
1A5
330
1A3
100
AcDbEntity
  8
GRAU_10_
 62
     7
100
AcDbVertex
100
AcDb2dVertex
 10
159.8954468867403
 20
165.0719830642011
 30
0.0
  0
SEQEND
  5
1A6
330
1A3
100
AcDbEntity
  8
GRAU_10_
 62
     7
  0
POLYLINE
  5
1A7
330
1F
100
AcDbEntity
  8
GRAU_10_
 62
     7
100
AcDb2dPolyline
 66
     1
 10
0.0
 20
0.0
 30
0.0
  0
VERTEX
  5
1A8
330
1A7
100
AcDbEntity
  8
GRAU_10_
 62
     7
100
AcDbVertex
100
AcDb2dVertex
 10
148.3384468896298
 20
165.8724358417782
 30
0.0
  0
VERTEX
  5
1A9
330
1A7
100
AcDbEntity
  8
GRAU_10_
 62
     7
100
AcDbVertex
100
AcDb2dVertex
 10
148.4799107784832
 20
165.9306441750973
 30
0.0
  0
SEQEND
  5
1AA
330
1A7
100
AcDbEntity
  8
GRAU_10_
 62
     7
  0
POLYLINE
  5
1AB
330
1F
100
AcDbEntity
  8
GRAU_10_
 62
     7
100
AcDb2dPolyline
 66
     1
 10
0.0
 20
0.0
 30
0.0
  0
VERTEX
  5
1AC
330
1AB
100
AcDbEntity
  8
GRAU_10_
 62
     7
100
AcDbVertex
100
AcDb2dVertex
 10
148.6792302228777
 20
166.1306691750469
 30
0.0
  0
VERTEX
  5
1AD
330
1AB
100
AcDbEntity
  8
GRAU_10_
 62
     7
100
AcDbVertex
100
AcDb2dVertex
 10
148.7377913339743
 20
166.2717802861233
 30
0.0
  0
SEQEND
  5
1AE
330
1AB
100
AcDbEntity
  8
GRAU_10_
 62
     7
  0
POLYLINE
  5
1AF
330
1F
100
AcDbEntity
  8
GRAU_10_
 62
     7
100
AcDb2dPolyline
 66
     1
 10
0.0
 20
0.0
 30
0.0
  0
VERTEX
  5
1B0
330
1AF
100
AcDbEntity
  8
GRAU_10_
 62
     7
100
AcDbVertex
100
AcDb2dVertex
 10
148.7377913339743
 20
195.7721163898592
 30
0.0
  0
VERTEX
  5
1B1
330
1AF
100
AcDbEntity
  8
GRAU_10_
 62
     7
100
AcDbVertex
100
AcDb2dVertex
 10
148.6792302228777
 20
195.9132275009349
 30
0.0
  0
SEQEND
  5
1B2
330
1AF
100
AcDbEntity
  8
GRAU_10_
 62
     7
  0
POLYLINE
  5
1B3
330
1F
100
AcDbEntity
  8
GRAU_10_
 62
     7
100
AcDb2dPolyline
 66
     1
 10
0.0
 20
0.0
 30
0.0
  0
VERTEX
  5
1B4
330
1B3
100
AcDbEntity
  8
GRAU_10_
 62
     7
100
AcDbVertex
100
AcDb2dVertex
 10
148.4799107784832
 20
196.1132525008849
 30
0.0
  0
VERTEX
  5
1B5
330
1B3
100
AcDbEntity
  8
GRAU_10_
 62
     7
100
AcDbVertex
100
AcDb2dVertex
 10
148.3384468896298
 20
196.1721663897592
 30
0.0
  0
SEQEND
  5
1B6
330
1B3
100
AcDbEntity
  8
GRAU_10_
 62
     7
  0
POLYLINE
  5
1B7
330
1F
100
AcDbEntity
  8
GRAU_10_
 62
     7
100
AcDb2dPolyline
 66
     1
 10
0.0
 20
0.0
 30
0.0
  0
VERTEX
  5
1B8
330
1B7
100
AcDbEntity
  8
GRAU_10_
 62
     7
100
AcDbVertex
100
AcDb2dVertex
 10
148.7377913339743
 20
166.2717802861233
 30
0.0
  0
VERTEX
  5
1B9
330
1B7
100
AcDbEntity
  8
GRAU_10_
 62
     7
100
AcDbVertex
100
AcDb2dVertex
 10
148.7377913339743
 20
166.3797302860958
 30
0.0
  0
VERTEX
  5
1BA
330
1B7
100
AcDbEntity
  8
GRAU_10_
 62
     7
100
AcDbVertex
100
AcDb2dVertex
 10
148.7377913339743
 20
166.7007580637933
 30
0.0
  0
VERTEX
  5
1BB
330
1B7
100
AcDbEntity
  8
GRAU_10_
 62
     7
100
AcDbVertex
100
AcDb2dVertex
 10
148.7377913339743
 20
166.763552508222
 30
0.0
  0
SEQEND
  5
1BC
330
1B7
100
AcDbEntity
  8
GRAU_10_
 62
     7
  0
POLYLINE
  5
1BD
330
1F
100
AcDbEntity
  8
GRAU_10_
 62
     7
100
AcDb2dPolyline
 66
     1
 10
0.0
 20
0.0
 30
0.0
  0
VERTEX
  5
1BE
330
1BD
100
AcDbEntity
  8
GRAU_10_
 62
     7
100
AcDbVertex
100
AcDb2dVertex
 10
148.7377913339743
 20
167.7470969524207
 30
0.0
  0
VERTEX
  5
1BF
330
1BD
100
AcDbEntity
  8
GRAU_10_
 62
     7
100
AcDbVertex
100
AcDb2dVertex
 10
148.7377913339743
 20
167.9619386190338
 30
0.0
  0
VERTEX
  5
1C0
330
1BD
100
AcDbEntity
  8
GRAU_10_
 62
     7
100
AcDbVertex
100
AcDb2dVertex
 10
148.7377913339743
 20
168.7302886188417
 30
0.0
  0
SEQEND
  5
1C1
330
1BD
100
AcDbEntity
  8
GRAU_10_
 62
     7
  0
POLYLINE
  5
1C2
330
1F
100
AcDbEntity
  8
GRAU_10_
 62
     7
100
AcDb2dPolyline
 66
     1
 10
0.0
 20
0.0
 30
0.0
  0
VERTEX
  5
1C3
330
1C2
100
AcDbEntity
  8
GRAU_10_
 62
     7
100
AcDbVertex
100
AcDb2dVertex
 10
148.7377913339743
 20
169.7138330630404
 30
0.0
  0
VERTEX
  5
1C4
330
1C2
100
AcDbEntity
  8
GRAU_10_
 62
     7
100
AcDbVertex
100
AcDb2dVertex
 10
148.7377913339743
 20
169.9819441740846
 30
0.0
  0
VERTEX
  5
1C5
330
1C2
100
AcDbEntity
  8
GRAU_10_
 62
     7
100
AcDbVertex
100
AcDb2dVertex
 10
148.7377913339743
 20
170.6973775072391
 30
0.0
  0
SEQEND
  5
1C6
330
1C2
100
AcDbEntity
  8
GRAU_10_
 62
     7
  0
POLYLINE
  5
1C7
330
1F
100
AcDbEntity
  8
GRAU_10_
 62
     7
100
AcDb2dPolyline
 66
     1
 10
0.0
 20
0.0
 30
0.0
  0
VERTEX
  5
1C8
330
1C7
100
AcDbEntity
  8
GRAU_10_
 62
     7
100
AcDbVertex
100
AcDb2dVertex
 10
148.7377913339743
 20
171.680216395882
 30
0.0
  0
VERTEX
  5
1C9
330
1C7
100
AcDbEntity
  8
GRAU_10_
 62
     7
100
AcDbVertex
100
AcDb2dVertex
 10
148.7377913339743
 20
172.6432997289747
 30
0.0
  0
VERTEX
  5
1CA
330
1C7
100
AcDbEntity
  8
GRAU_10_
 62
     7
100
AcDbVertex
100
AcDb2dVertex
 10
148.7377913339743
 20
172.6637608400804
 30
0.0
  0
SEQEND
  5
1CB
330
1C7
100
AcDbEntity
  8
GRAU_10_
 62
     7
  0
POLYLINE
  5
1CC
330
1F
100
AcDbEntity
  8
GRAU_10_
 62
     7
100
AcDb2dPolyline
 66
     1
 10
0.0
 20
0.0
 30
0.0
  0
VERTEX
  5
1CD
330
1CC
100
AcDbEntity
  8
GRAU_10_
 62
     7
100
AcDbVertex
100
AcDb2dVertex
 10
148.7377913339743
 20
173.6473052842792
 30
0.0
  0
VERTEX
  5
1CE
330
1CC
100
AcDbEntity
  8
GRAU_10_
 62
     7
100
AcDbVertex
100
AcDb2dVertex
 10
148.7377913339743
 20
174.1676525063714
 30
0.0
  0
VERTEX
  5
1CF
330
1CC
100
AcDbEntity
  8
GRAU_10_
 62
     7
100
AcDbVertex
100
AcDb2dVertex
 10
148.7377913339743
 20
174.6304969507001
 30
0.0
  0
SEQEND
  5
1D0
330
1CC
100
AcDbEntity
  8
GRAU_10_
 62
     7
  0
POLYLINE
  5
1D1
330
1F
100
AcDbEntity
  8
GRAU_10_
 62
     7
100
AcDb2dPolyline
 66
     1
 10
0.0
 20
0.0
 30
0.0
  0
VERTEX
  5
1D2
330
1D1
100
AcDbEntity
  8
GRAU_10_
 62
     7
100
AcDbVertex
100
AcDb2dVertex
 10
148.7377913339743
 20
175.6140413948988
 30
0.0
  0
VERTEX
  5
1D3
330
1D1
100
AcDbEntity
  8
GRAU_10_
 62
     7
100
AcDbVertex
100
AcDb2dVertex
 10
148.7377913339743
 20
175.7914886170763
 30
0.0
  0
VERTEX
  5
1D4
330
1D1
100
AcDbEntity
  8
GRAU_10_
 62
     7
100
AcDbVertex
100
AcDb2dVertex
 10
148.7377913339743
 20
176.596880283542
 30
0.0
  0
SEQEND
  5
1D5
330
1D1
100
AcDbEntity
  8
GRAU_10_
 62
     7
  0
POLYLINE
  5
1D6
330
1F
100
AcDbEntity
  8
GRAU_10_
 62
     7
100
AcDb2dPolyline
 66
     1
 10
0.0
 20
0.0
 30
0.0
  0
VERTEX
  5
1D7
330
1D6
100
AcDbEntity
  8
GRAU_10_
 62
     7
100
AcDbVertex
100
AcDb2dVertex
 10
148.7377913339743
 20
177.5804247277401
 30
0.0
  0
VERTEX
  5
1D8
330
1D6
100
AcDbEntity
  8
GRAU_10_
 62
     7
100
AcDbVertex
100
AcDb2dVertex
 10
148.7377913339743
 20
178.5639691719388
 30
0.0
  0
SEQEND
  5
1D9
330
1D6
100
AcDbEntity
  8
GRAU_10_
 62
     7
  0
POLYLINE
  5
1DA
330
1F
100
AcDbEntity
  8
GRAU_10_
 62
     7
100
AcDb2dPolyline
 66
     1
 10
0.0
 20
0.0
 30
0.0
  0
VERTEX
  5
1DB
330
1DA
100
AcDbEntity
  8
GRAU_10_
 62
     7
100
AcDbVertex
100
AcDb2dVertex
 10
148.7377913339743
 20
179.5471608383598
 30
0.0
  0
VERTEX
  5
1DC
330
1DA
100
AcDbEntity
  8
GRAU_10_
 62
     7
100
AcDbVertex
100
AcDb2dVertex
 10
148.7377913339743
 20
180.5303525047808
 30
0.0
  0
SEQEND
  5
1DD
330
1DA
100
AcDbEntity
  8
GRAU_10_
 62
     7
  0
POLYLINE
  5
1DE
330
1F
100
AcDbEntity
  8
GRAU_10_
 62
     7
100
AcDb2dPolyline
 66
     1
 10
0.0
 20
0.0
 30
0.0
  0
VERTEX
  5
1DF
330
1DE
100
AcDbEntity
  8
GRAU_10_
 62
     7
100
AcDbVertex
100
AcDb2dVertex
 10
148.7377913339743
 20
181.5135441712017
 30
0.0
  0
VERTEX
  5
1E0
330
1DE
100
AcDbEntity
  8
GRAU_10_
 62
     7
100
AcDbVertex
100
AcDb2dVertex
 10
148.7377913339743
 20
182.4970886154001
 30
0.0
  0
SEQEND
  5
1E1
330
1DE
100
AcDbEntity
  8
GRAU_10_
 62
     7
  0
POLYLINE
  5
1E2
330
1F
100
AcDbEntity
  8
GRAU_10_
 62
     7
100
AcDb2dPolyline
 66
     1
 10
0.0
 20
0.0
 30
0.0
  0
VERTEX
  5
1E3
330
1E2
100
AcDbEntity
  8
GRAU_10_
 62
     7
100
AcDbVertex
100
AcDb2dVertex
 10
148.7377913339743
 20
183.4806330595985
 30
0.0
  0
VERTEX
  5
1E4
330
1E2
100
AcDbEntity
  8
GRAU_10_
 62
     7
100
AcDbVertex
100
AcDb2dVertex
 10
148.7377913339743
 20
184.4634719482417
 30
0.0
  0
SEQEND
  5
1E5
330
1E2
100
AcDbEntity
  8
GRAU_10_
 62
     7
  0
POLYLINE
  5
1E6
330
1F
100
AcDbEntity
  8
GRAU_10_
 62
     7
100
AcDb2dPolyline
 66
     1
 10
0.0
 20
0.0
 30
0.0
  0
VERTEX
  5
1E7
330
1E6
100
AcDbEntity
  8
GRAU_10_
 62
     7
100
AcDbVertex
100
AcDb2dVertex
 10
148.7377913339743
 20
185.4470163924404
 30
0.0
  0
VERTEX
  5
1E8
330
1E6
100
AcDbEntity
  8
GRAU_10_
 62
     7
100
AcDbVertex
100
AcDb2dVertex
 10
148.7377913339743
 20
186.2524080589056
 30
0.0
  0
VERTEX
  5
1E9
330
1E6
100
AcDbEntity
  8
GRAU_10_
 62
     7
100
AcDbVertex
100
AcDb2dVertex
 10
148.7377913339743
 20
186.4302080588614
 30
0.0
  0
SEQEND
  5
1EA
330
1E6
100
AcDbEntity
  8
GRAU_10_
 62
     7
  0
POLYLINE
  5
1EB
330
1F
100
AcDbEntity
  8
GRAU_10_
 62
     7
100
AcDb2dPolyline
 66
     1
 10
0.0
 20
0.0
 30
0.0
  0
VERTEX
  5
1EC
330
1EB
100
AcDbEntity
  8
GRAU_10_
 62
     7
100
AcDbVertex
100
AcDb2dVertex
 10
148.7377913339743
 20
187.4141052808372
 30
0.0
  0
VERTEX
  5
1ED
330
1EB
100
AcDbEntity
  8
GRAU_10_
 62
     7
100
AcDbVertex
100
AcDb2dVertex
 10
148.7377913339743
 20
187.8769497251663
 30
0.0
  0
VERTEX
  5
1EE
330
1EB
100
AcDbEntity
  8
GRAU_10_
 62
     7
100
AcDbVertex
100
AcDb2dVertex
 10
148.7377913339743
 20
188.3972969472582
 30
0.0
  0
SEQEND
  5
1EF
330
1EB
100
AcDbEntity
  8
GRAU_10_
 62
     7
  0
POLYLINE
  5
1F0
330
1F
100
AcDbEntity
  8
GRAU_10_
 62
     7
100
AcDb2dPolyline
 66
     1
 10
0.0
 20
0.0
 30
0.0
  0
VERTEX
  5
1F1
330
1F0
100
AcDbEntity
  8
GRAU_10_
 62
     7
100
AcDbVertex
100
AcDb2dVertex
 10
148.7377913339743
 20
189.3801358359014
 30
0.0
  0
VERTEX
  5
1F2
330
1F0
100
AcDbEntity
  8
GRAU_10_
 62
     7
100
AcDbVertex
100
AcDb2dVertex
 10
148.7377913339743
 20
189.4013025025629
 30
0.0
  0
VERTEX
  5
1F3
330
1F0
100
AcDbEntity
  8
GRAU_10_
 62
     7
100
AcDbVertex
100
AcDb2dVertex
 10
148.7377913339743
 20
190.3636802801001
 30
0.0
  0
SEQEND
  5
1F4
330
1F0
100
AcDbEntity
  8
GRAU_10_
 62
     7
  0
POLYLINE
  5
1F5
330
1F
100
AcDbEntity
  8
GRAU_10_
 62
     7
100
AcDb2dPolyline
 66
     1
 10
0.0
 20
0.0
 30
0.0
  0
VERTEX
  5
1F6
330
1F5
100
AcDbEntity
  8
GRAU_10_
 62
     7
100
AcDbVertex
100
AcDb2dVertex
 10
148.7377913339743
 20
191.3472247242989
 30
0.0
  0
VERTEX
  5
1F7
330
1F5
100
AcDbEntity
  8
GRAU_10_
 62
     7
100
AcDbVertex
100
AcDb2dVertex
 10
148.7377913339743
 20
192.0630108352308
 30
0.0
  0
VERTEX
  5
1F8
330
1F5
100
AcDbEntity
  8
GRAU_10_
 62
     7
100
AcDbVertex
100
AcDb2dVertex
 10
148.7377913339743
 20
192.3307691684973
 30
0.0
  0
SEQEND
  5
1F9
330
1F5
100
AcDbEntity
  8
GRAU_10_
 62
     7
  0
POLYLINE
  5
1FA
330
1F
100
AcDbEntity
  8
GRAU_10_
 62
     7
100
AcDb2dPolyline
 66
     1
 10
0.0
 20
0.0
 30
0.0
  0
VERTEX
  5
1FB
330
1FA
100
AcDbEntity
  8
GRAU_10_
 62
     7
100
AcDbVertex
100
AcDb2dVertex
 10
148.7377913339743
 20
193.3139608349179
 30
0.0
  0
VERTEX
  5
1FC
330
1FA
100
AcDbEntity
  8
GRAU_10_
 62
     7
100
AcDbVertex
100
AcDb2dVertex
 10
148.7377913339743
 20
194.0826636125035
 30
0.0
  0
VERTEX
  5
1FD
330
1FA
100
AcDbEntity
  8
GRAU_10_
 62
     7
100
AcDbVertex
100
AcDb2dVertex
 10
148.7377913339743
 20
194.2971525013388
 30
0.0
  0
SEQEND
  5
1FE
330
1FA
100
AcDbEntity
  8
GRAU_10_
 62
     7
  0
POLYLINE
  5
1FF
330
1F
100
AcDbEntity
  8
GRAU_10_
 62
     7
100
AcDb2dPolyline
 66
     1
 10
0.0
 20
0.0
 30
0.0
  0
VERTEX
  5
200
330
1FF
100
AcDbEntity
  8
GRAU_10_
 62
     7
100
AcDbVertex
100
AcDb2dVertex
 10
148.7377913339743
 20
195.2803441677598
 30
0.0
  0
VERTEX
  5
201
330
1FF
100
AcDbEntity
  8
GRAU_10_
 62
     7
100
AcDbVertex
100
AcDb2dVertex
 10
148.7377913339743
 20
195.3434913899663
 30
0.0
  0
VERTEX
  5
202
330
1FF
100
AcDbEntity
  8
GRAU_10_
 62
     7
100
AcDbVertex
100
AcDb2dVertex
 10
148.7377913339743
 20
195.6648719454415
 30
0.0
  0
VERTEX
  5
203
330
1FF
100
AcDbEntity
  8
GRAU_10_
 62
     7
100
AcDbVertex
100
AcDb2dVertex
 10
148.7377913339743
 20
195.7721163898592
 30
0.0
  0
SEQEND
  5
204
330
1FF
100
AcDbEntity
  8
GRAU_10_
 62
     7
  0
POLYLINE
  5
205
330
1F
100
AcDbEntity
  8
GRAU_10_
 62
     7
100
AcDb2dPolyline
 66
     1
 10
0.0
 20
0.0
 30
0.0
  0
VERTEX
  5
206
330
205
100
AcDbEntity
  8
GRAU_10_
 62
     7
100
AcDbVertex
100
AcDb2dVertex
 10
148.3384468896298
 20
196.1721663897592
 30
0.0
  0
VERTEX
  5
207
330
205
100
AcDbEntity
  8
GRAU_10_
 62
     7
100
AcDbVertex
100
AcDb2dVertex
 10
147.8255080008689
 20
196.1721663897592
 30
0.0
  0
SEQEND
  5
208
330
205
100
AcDbEntity
  8
GRAU_10_
 62
     7
  0
POLYLINE
  5
209
330
1F
100
AcDbEntity
  8
GRAU_10_
 62
     7
100
AcDb2dPolyline
 66
     1
 10
0.0
 20
0.0
 30
0.0
  0
VERTEX
  5
20A
330
209
100
AcDbEntity
  8
GRAU_10_
 62
     7
100
AcDbVertex
100
AcDb2dVertex
 10
146.800335778903
 20
196.1721663897592
 30
0.0
  0
VERTEX
  5
20B
330
209
100
AcDbEntity
  8
GRAU_10_
 62
     7
100
AcDbVertex
100
AcDb2dVertex
 10
145.7758691124926
 20
196.1721663897592
 30
0.0
  0
SEQEND
  5
20C
330
209
100
AcDbEntity
  8
GRAU_10_
 62
     7
  0
POLYLINE
  5
20D
330
1F
100
AcDbEntity
  8
GRAU_10_
 62
     7
100
AcDb2dPolyline
 66
     1
 10
0.0
 20
0.0
 30
0.0
  0
VERTEX
  5
20E
330
20D
100
AcDbEntity
  8
GRAU_10_
 62
     7
100
AcDbVertex
100
AcDb2dVertex
 10
144.7503441127489
 20
196.1721663897592
 30
0.0
  0
VERTEX
  5
20F
330
20D
100
AcDbEntity
  8
GRAU_10_
 62
     7
100
AcDbVertex
100
AcDb2dVertex
 10
144.2384635573213
 20
196.1721663897592
 30
0.0
  0
SEQEND
  5
210
330
20D
100
AcDbEntity
  8
GRAU_10_
 62
     7
  0
POLYLINE
  5
211
330
1F
100
AcDbEntity
  8
GRAU_10_
 62
     7
100
AcDb2dPolyline
 66
     1
 10
0.0
 20
0.0
 30
0.0
  0
VERTEX
  5
212
330
211
100
AcDbEntity
  8
GRAU_10_
 62
     7
100
AcDbVertex
100
AcDb2dVertex
 10
144.2384635573213
 20
165.8724358417782
 30
0.0
  0
VERTEX
  5
213
330
211
100
AcDbEntity
  8
GRAU_10_
 62
     7
100
AcDbVertex
100
AcDb2dVertex
 10
144.7503441127489
 20
165.8724358417782
 30
0.0
  0
SEQEND
  5
214
330
211
100
AcDbEntity
  8
GRAU_10_
 62
     7
  0
POLYLINE
  5
215
330
1F
100
AcDbEntity
  8
GRAU_10_
 62
     7
100
AcDb2dPolyline
 66
     1
 10
0.0
 20
0.0
 30
0.0
  0
VERTEX
  5
216
330
215
100
AcDbEntity
  8
GRAU_10_
 62
     7
100
AcDbVertex
100
AcDb2dVertex
 10
145.7758691124926
 20
165.8724358417782
 30
0.0
  0
VERTEX
  5
217
330
215
100
AcDbEntity
  8
GRAU_10_
 62
     7
100
AcDbVertex
100
AcDb2dVertex
 10
146.800335778903
 20
165.8724358417782
 30
0.0
  0
SEQEND
  5
218
330
215
100
AcDbEntity
  8
GRAU_10_
 62
     7
  0
POLYLINE
  5
219
330
1F
100
AcDbEntity
  8
GRAU_10_
 62
     7
100
AcDb2dPolyline
 66
     1
 10
0.0
 20
0.0
 30
0.0
  0
VERTEX
  5
21A
330
219
100
AcDbEntity
  8
GRAU_10_
 62
     7
100
AcDbVertex
100
AcDb2dVertex
 10
147.8255080008689
 20
165.8724358417782
 30
0.0
  0
VERTEX
  5
21B
330
219
100
AcDbEntity
  8
GRAU_10_
 62
     7
100
AcDbVertex
100
AcDb2dVertex
 10
148.3384468896298
 20
165.8724358417782
 30
0.0
  0
SEQEND
  5
21C
330
219
100
AcDbEntity
  8
GRAU_10_
 62
     7
  0
POLYLINE
  5
21D
330
1F
100
AcDbEntity
  8
GRAU_10_
 62
     7
100
AcDb2dPolyline
 66
     1
 10
0.0
 20
0.0
 30
0.0
  0
VERTEX
  5
21E
330
21D
100
AcDbEntity
  8
GRAU_10_
 62
     7
100
AcDbVertex
100
AcDb2dVertex
 10
144.2384635573213
 20
165.8724358417782
 30
0.0
  0
VERTEX
  5
21F
330
21D
100
AcDbEntity
  8
GRAU_10_
 62
     7
100
AcDbVertex
100
AcDb2dVertex
 10
144.2384635573213
 20
165.9743886195307
 30
0.0
  0
VERTEX
  5
220
330
21D
100
AcDbEntity
  8
GRAU_10_
 62
     7
100
AcDbVertex
100
AcDb2dVertex
 10
144.2384635573213
 20
166.2802469527876
 30
0.0
  0
VERTEX
  5
221
330
21D
100
AcDbEntity
  8
GRAU_10_
 62
     7
100
AcDbVertex
100
AcDb2dVertex
 10
144.2384635573213
 20
166.3769080638744
 30
0.0
  0
SEQEND
  5
222
330
21D
100
AcDbEntity
  8
GRAU_10_
 62
     7
  0
POLYLINE
  5
223
330
1F
100
AcDbEntity
  8
GRAU_10_
 62
     7
100
AcDb2dPolyline
 66
     1
 10
0.0
 20
0.0
 30
0.0
  0
VERTEX
  5
224
330
223
100
AcDbEntity
  8
GRAU_10_
 62
     7
100
AcDbVertex
100
AcDb2dVertex
 10
144.2384635573213
 20
167.3872636191772
 30
0.0
  0
VERTEX
  5
225
330
223
100
AcDbEntity
  8
GRAU_10_
 62
     7
100
AcDbVertex
100
AcDb2dVertex
 10
144.2384635573213
 20
167.4839247302646
 30
0.0
  0
VERTEX
  5
226
330
223
100
AcDbEntity
  8
GRAU_10_
 62
     7
100
AcDbVertex
100
AcDb2dVertex
 10
144.2384635573213
 20
168.3644580633775
 30
0.0
  0
VERTEX
  5
227
330
223
100
AcDbEntity
  8
GRAU_10_
 62
     7
100
AcDbVertex
100
AcDb2dVertex
 10
144.2384635573213
 20
168.3969136189251
 30
0.0
  0
SEQEND
  5
228
330
223
100
AcDbEntity
  8
GRAU_10_
 62
     7
  0
POLYLINE
  5
229
330
1F
100
AcDbEntity
  8
GRAU_10_
 62
     7
100
AcDb2dPolyline
 66
     1
 10
0.0
 20
0.0
 30
0.0
  0
VERTEX
  5
22A
330
229
100
AcDbEntity
  8
GRAU_10_
 62
     7
100
AcDbVertex
100
AcDb2dVertex
 10
144.2384635573213
 20
169.407269174228
 30
0.0
  0
VERTEX
  5
22B
330
229
100
AcDbEntity
  8
GRAU_10_
 62
     7
100
AcDbVertex
100
AcDb2dVertex
 10
144.2384635573213
 20
169.4167941742256
 30
0.0
  0
VERTEX
  5
22C
330
229
100
AcDbEntity
  8
GRAU_10_
 62
     7
100
AcDbVertex
100
AcDb2dVertex
 10
144.2384635573213
 20
170.4169191739759
 30
0.0
  0
SEQEND
  5
22D
330
229
100
AcDbEntity
  8
GRAU_10_
 62
     7
  0
POLYLINE
  5
22E
330
1F
100
AcDbEntity
  8
GRAU_10_
 62
     7
100
AcDb2dPolyline
 66
     1
 10
0.0
 20
0.0
 30
0.0
  0
VERTEX
  5
22F
330
22E
100
AcDbEntity
  8
GRAU_10_
 62
     7
100
AcDbVertex
100
AcDb2dVertex
 10
144.2384635573213
 20
171.4272747292787
 30
0.0
  0
VERTEX
  5
230
330
22E
100
AcDbEntity
  8
GRAU_10_
 62
     7
100
AcDbVertex
100
AcDb2dVertex
 10
144.2384635573213
 20
171.9751386180306
 30
0.0
  0
VERTEX
  5
231
330
22E
100
AcDbEntity
  8
GRAU_10_
 62
     7
100
AcDbVertex
100
AcDb2dVertex
 10
144.2384635573213
 20
172.436924729026
 30
0.0
  0
SEQEND
  5
232
330
22E
100
AcDbEntity
  8
GRAU_10_
 62
     7
  0
POLYLINE
  5
233
330
1F
100
AcDbEntity
  8
GRAU_10_
 62
     7
100
AcDb2dPolyline
 66
     1
 10
0.0
 20
0.0
 30
0.0
  0
VERTEX
  5
234
330
233
100
AcDbEntity
  8
GRAU_10_
 62
     7
100
AcDbVertex
100
AcDb2dVertex
 10
144.2384635573213
 20
173.4472802843291
 30
0.0
  0
VERTEX
  5
235
330
233
100
AcDbEntity
  8
GRAU_10_
 62
     7
100
AcDbVertex
100
AcDb2dVertex
 10
144.2384635573213
 20
174.4569302840768
 30
0.0
  0
SEQEND
  5
236
330
233
100
AcDbEntity
  8
GRAU_10_
 62
     7
  0
POLYLINE
  5
237
330
1F
100
AcDbEntity
  8
GRAU_10_
 62
     7
100
AcDb2dPolyline
 66
     1
 10
0.0
 20
0.0
 30
0.0
  0
VERTEX
  5
238
330
237
100
AcDbEntity
  8
GRAU_10_
 62
     7
100
AcDbVertex
100
AcDb2dVertex
 10
144.2384635573213
 20
175.4672858393796
 30
0.0
  0
VERTEX
  5
239
330
237
100
AcDbEntity
  8
GRAU_10_
 62
     7
100
AcDbVertex
100
AcDb2dVertex
 10
144.2384635573213
 20
176.4772886169053
 30
0.0
  0
SEQEND
  5
23A
330
237
100
AcDbEntity
  8
GRAU_10_
 62
     7
  0
POLYLINE
  5
23B
330
1F
100
AcDbEntity
  8
GRAU_10_
 62
     7
100
AcDb2dPolyline
 66
     1
 10
0.0
 20
0.0
 30
0.0
  0
VERTEX
  5
23C
330
23B
100
AcDbEntity
  8
GRAU_10_
 62
     7
100
AcDbVertex
100
AcDb2dVertex
 10
144.2384635573213
 20
177.4869386166526
 30
0.0
  0
VERTEX
  5
23D
330
23B
100
AcDbEntity
  8
GRAU_10_
 62
     7
100
AcDbVertex
100
AcDb2dVertex
 10
144.2384635573213
 20
178.391108060871
 30
0.0
  0
VERTEX
  5
23E
330
23B
100
AcDbEntity
  8
GRAU_10_
 62
     7
100
AcDbVertex
100
AcDb2dVertex
 10
144.2384635573213
 20
178.4972941719554
 30
0.0
  0
SEQEND
  5
23F
330
23B
100
AcDbEntity
  8
GRAU_10_
 62
     7
  0
POLYLINE
  5
240
330
1F
100
AcDbEntity
  8
GRAU_10_
 62
     7
100
AcDb2dPolyline
 66
     1
 10
0.0
 20
0.0
 30
0.0
  0
VERTEX
  5
241
330
240
100
AcDbEntity
  8
GRAU_10_
 62
     7
100
AcDbVertex
100
AcDb2dVertex
 10
144.2384635573213
 20
179.5069441717033
 30
0.0
  0
VERTEX
  5
242
330
240
100
AcDbEntity
  8
GRAU_10_
 62
     7
100
AcDbVertex
100
AcDb2dVertex
 10
144.2384635573213
 20
180.1415913937666
 30
0.0
  0
VERTEX
  5
243
330
240
100
AcDbEntity
  8
GRAU_10_
 62
     7
100
AcDbVertex
100
AcDb2dVertex
 10
144.2384635573213
 20
180.5172997270061
 30
0.0
  0
SEQEND
  5
244
330
240
100
AcDbEntity
  8
GRAU_10_
 62
     7
  0
POLYLINE
  5
245
330
1F
100
AcDbEntity
  8
GRAU_10_
 62
     7
100
AcDb2dPolyline
 66
     1
 10
0.0
 20
0.0
 30
0.0
  0
VERTEX
  5
246
330
245
100
AcDbEntity
  8
GRAU_10_
 62
     7
100
AcDbVertex
100
AcDb2dVertex
 10
144.2384635573213
 20
181.5269497267538
 30
0.0
  0
VERTEX
  5
247
330
245
100
AcDbEntity
  8
GRAU_10_
 62
     7
100
AcDbVertex
100
AcDb2dVertex
 10
144.2384635573213
 20
181.9033636155486
 30
0.0
  0
VERTEX
  5
248
330
245
100
AcDbEntity
  8
GRAU_10_
 62
     7
100
AcDbVertex
100
AcDb2dVertex
 10
144.2384635573213
 20
182.5373052820569
 30
0.0
  0
SEQEND
  5
249
330
245
100
AcDbEntity
  8
GRAU_10_
 62
     7
  0
POLYLINE
  5
24A
330
1F
100
AcDbEntity
  8
GRAU_10_
 62
     7
100
AcDb2dPolyline
 66
     1
 10
0.0
 20
0.0
 30
0.0
  0
VERTEX
  5
24B
330
24A
100
AcDbEntity
  8
GRAU_10_
 62
     7
100
AcDbVertex
100
AcDb2dVertex
 10
144.2384635573213
 20
183.5469552818042
 30
0.0
  0
VERTEX
  5
24C
330
24A
100
AcDbEntity
  8
GRAU_10_
 62
     7
100
AcDbVertex
100
AcDb2dVertex
 10
144.2384635573213
 20
183.6527886151111
 30
0.0
  0
VERTEX
  5
24D
330
24A
100
AcDbEntity
  8
GRAU_10_
 62
     7
100
AcDbVertex
100
AcDb2dVertex
 10
144.2384635573213
 20
184.557310837107
 30
0.0
  0
SEQEND
  5
24E
330
24A
100
AcDbEntity
  8
GRAU_10_
 62
     7
  0
POLYLINE
  5
24F
330
1F
100
AcDbEntity
  8
GRAU_10_
 62
     7
100
AcDb2dPolyline
 66
     1
 10
0.0
 20
0.0
 30
0.0
  0
VERTEX
  5
250
330
24F
100
AcDbEntity
  8
GRAU_10_
 62
     7
100
AcDbVertex
100
AcDb2dVertex
 10
144.2384635573213
 20
185.5669608368549
 30
0.0
  0
VERTEX
  5
251
330
24F
100
AcDbEntity
  8
GRAU_10_
 62
     7
100
AcDbVertex
100
AcDb2dVertex
 10
144.2384635573213
 20
186.5773163921578
 30
0.0
  0
SEQEND
  5
252
330
24F
100
AcDbEntity
  8
GRAU_10_
 62
     7
  0
POLYLINE
  5
253
330
1F
100
AcDbEntity
  8
GRAU_10_
 62
     7
100
AcDb2dPolyline
 66
     1
 10
0.0
 20
0.0
 30
0.0
  0
VERTEX
  5
254
330
253
100
AcDbEntity
  8
GRAU_10_
 62
     7
100
AcDbVertex
100
AcDb2dVertex
 10
144.2384635573213
 20
187.5869663919054
 30
0.0
  0
VERTEX
  5
255
330
253
100
AcDbEntity
  8
GRAU_10_
 62
     7
100
AcDbVertex
100
AcDb2dVertex
 10
144.2384635573213
 20
188.5973219472085
 30
0.0
  0
SEQEND
  5
256
330
253
100
AcDbEntity
  8
GRAU_10_
 62
     7
  0
POLYLINE
  5
257
330
1F
100
AcDbEntity
  8
GRAU_10_
 62
     7
100
AcDb2dPolyline
 66
     1
 10
0.0
 20
0.0
 30
0.0
  0
VERTEX
  5
258
330
257
100
AcDbEntity
  8
GRAU_10_
 62
     7
100
AcDbVertex
100
AcDb2dVertex
 10
144.2384635573213
 20
189.6069719469558
 30
0.0
  0
VERTEX
  5
259
330
257
100
AcDbEntity
  8
GRAU_10_
 62
     7
100
AcDbVertex
100
AcDb2dVertex
 10
144.2384635573213
 20
190.0687580579516
 30
0.0
  0
VERTEX
  5
25A
330
257
100
AcDbEntity
  8
GRAU_10_
 62
     7
100
AcDbVertex
100
AcDb2dVertex
 10
144.2384635573213
 20
190.6173275022589
 30
0.0
  0
SEQEND
  5
25B
330
257
100
AcDbEntity
  8
GRAU_10_
 62
     7
  0
POLYLINE
  5
25C
330
1F
100
AcDbEntity
  8
GRAU_10_
 62
     7
100
AcDb2dPolyline
 66
     1
 10
0.0
 20
0.0
 30
0.0
  0
VERTEX
  5
25D
330
25C
100
AcDbEntity
  8
GRAU_10_
 62
     7
100
AcDbVertex
100
AcDb2dVertex
 10
144.2384635573213
 20
191.6269775020066
 30
0.0
  0
VERTEX
  5
25E
330
25C
100
AcDbEntity
  8
GRAU_10_
 62
     7
100
AcDbVertex
100
AcDb2dVertex
 10
144.2384635573213
 20
192.6278080573118
 30
0.0
  0
VERTEX
  5
25F
330
25C
100
AcDbEntity
  8
GRAU_10_
 62
     7
100
AcDbVertex
100
AcDb2dVertex
 10
144.2384635573213
 20
192.6373330573094
 30
0.0
  0
SEQEND
  5
260
330
25C
100
AcDbEntity
  8
GRAU_10_
 62
     7
  0
POLYLINE
  5
261
330
1F
100
AcDbEntity
  8
GRAU_10_
 62
     7
100
AcDb2dPolyline
 66
     1
 10
0.0
 20
0.0
 30
0.0
  0
VERTEX
  5
262
330
261
100
AcDbEntity
  8
GRAU_10_
 62
     7
100
AcDbVertex
100
AcDb2dVertex
 10
144.2384635573213
 20
193.646983057057
 30
0.0
  0
VERTEX
  5
263
330
261
100
AcDbEntity
  8
GRAU_10_
 62
     7
100
AcDbVertex
100
AcDb2dVertex
 10
144.2384635573213
 20
193.6794386126043
 30
0.0
  0
VERTEX
  5
264
330
261
100
AcDbEntity
  8
GRAU_10_
 62
     7
100
AcDbVertex
100
AcDb2dVertex
 10
144.2384635573213
 20
194.5606775012731
 30
0.0
  0
VERTEX
  5
265
330
261
100
AcDbEntity
  8
GRAU_10_
 62
     7
100
AcDbVertex
100
AcDb2dVertex
 10
144.2384635573213
 20
194.6573386123601
 30
0.0
  0
SEQEND
  5
266
330
261
100
AcDbEntity
  8
GRAU_10_
 62
     7
  0
POLYLINE
  5
267
330
1F
100
AcDbEntity
  8
GRAU_10_
 62
     7
100
AcDb2dPolyline
 66
     1
 10
0.0
 20
0.0
 30
0.0
  0
VERTEX
  5
268
330
267
100
AcDbEntity
  8
GRAU_10_
 62
     7
100
AcDbVertex
100
AcDb2dVertex
 10
144.2384635573213
 20
195.6669886121074
 30
0.0
  0
VERTEX
  5
269
330
267
100
AcDbEntity
  8
GRAU_10_
 62
     7
100
AcDbVertex
100
AcDb2dVertex
 10
144.2384635573213
 20
195.7636497231945
 30
0.0
  0
VERTEX
  5
26A
330
267
100
AcDbEntity
  8
GRAU_10_
 62
     7
100
AcDbVertex
100
AcDb2dVertex
 10
144.2384635573213
 20
196.0695080564514
 30
0.0
  0
VERTEX
  5
26B
330
267
100
AcDbEntity
  8
GRAU_10_
 62
     7
100
AcDbVertex
100
AcDb2dVertex
 10
144.2384635573213
 20
196.1721663897592
 30
0.0
  0
VERTEX
  5
26C
330
267
100
AcDbEntity
  8
GRAU_10_
 62
     7
100
AcDbVertex
100
AcDb2dVertex
 10
144.1442718906783
 20
196.0095358342442
 30
0.0
  0
SEQEND
  5
26D
330
267
100
AcDbEntity
  8
GRAU_10_
 62
     7
  0
POLYLINE
  5
26E
330
1F
100
AcDbEntity
  8
GRAU_10_
 62
     7
100
AcDb2dPolyline
 66
     1
 10
0.0
 20
0.0
 30
0.0
  0
VERTEX
  5
26F
330
26E
100
AcDbEntity
  8
GRAU_10_
 62
     7
100
AcDbVertex
100
AcDb2dVertex
 10
143.9565941129474
 20
195.6846275009923
 30
0.0
  0
VERTEX
  5
270
330
26E
100
AcDbEntity
  8
GRAU_10_
 62
     7
100
AcDbVertex
100
AcDb2dVertex
 10
143.8627552240821
 20
195.5223497232548
 30
0.0
  0
SEQEND
  5
271
330
26E
100
AcDbEntity
  8
GRAU_10_
 62
     7
  0
POLYLINE
  5
272
330
1F
100
AcDbEntity
  8
GRAU_10_
 62
     7
100
AcDb2dPolyline
 66
     1
 10
0.0
 20
0.0
 30
0.0
  0
VERTEX
  5
273
330
272
100
AcDbEntity
  8
GRAU_10_
 62
     7
100
AcDbVertex
100
AcDb2dVertex
 10
143.8627552240821
 20
166.5222525082826
 30
0.0
  0
VERTEX
  5
274
330
272
100
AcDbEntity
  8
GRAU_10_
 62
     7
100
AcDbVertex
100
AcDb2dVertex
 10
143.9565941129474
 20
166.3596219527679
 30
0.0
  0
SEQEND
  5
275
330
272
100
AcDbEntity
  8
GRAU_10_
 62
     7
  0
POLYLINE
  5
276
330
1F
100
AcDbEntity
  8
GRAU_10_
 62
     7
100
AcDb2dPolyline
 66
     1
 10
0.0
 20
0.0
 30
0.0
  0
VERTEX
  5
277
330
276
100
AcDbEntity
  8
GRAU_10_
 62
     7
100
AcDbVertex
100
AcDb2dVertex
 10
144.1442718906783
 20
166.034360841738
 30
0.0
  0
VERTEX
  5
278
330
276
100
AcDbEntity
  8
GRAU_10_
 62
     7
100
AcDbVertex
100
AcDb2dVertex
 10
144.2384635573213
 20
165.8724358417782
 30
0.0
  0
SEQEND
  5
279
330
276
100
AcDbEntity
  8
GRAU_10_
 62
     7
  0
POLYLINE
  5
27A
330
1F
100
AcDbEntity
  8
GRAU_10_
 62
     7
100
AcDb2dPolyline
 66
     1
 10
0.0
 20
0.0
 30
0.0
  0
VERTEX
  5
27B
330
27A
100
AcDbEntity
  8
GRAU_10_
 62
     7
100
AcDbVertex
100
AcDb2dVertex
 10
143.8627552240821
 20
195.5223497232548
 30
0.0
  0
VERTEX
  5
27C
330
27A
100
AcDbEntity
  8
GRAU_10_
 62
     7
100
AcDbVertex
100
AcDb2dVertex
 10
143.8627552240821
 20
195.4161636121704
 30
0.0
  0
VERTEX
  5
27D
330
27A
100
AcDbEntity
  8
GRAU_10_
 62
     7
100
AcDbVertex
100
AcDb2dVertex
 10
143.8627552240821
 20
195.1007802789158
 30
0.0
  0
VERTEX
  5
27E
330
27A
100
AcDbEntity
  8
GRAU_10_
 62
     7
100
AcDbVertex
100
AcDb2dVertex
 10
143.8627552240821
 20
195.0041191678291
 30
0.0
  0
SEQEND
  5
27F
330
27A
100
AcDbEntity
  8
GRAU_10_
 62
     7
  0
POLYLINE
  5
280
330
1F
100
AcDbEntity
  8
GRAU_10_
 62
     7
100
AcDb2dPolyline
 66
     1
 10
0.0
 20
0.0
 30
0.0
  0
VERTEX
  5
281
330
280
100
AcDbEntity
  8
GRAU_10_
 62
     7
100
AcDbVertex
100
AcDb2dVertex
 10
143.8627552240821
 20
193.96871639031
 30
0.0
  0
VERTEX
  5
282
330
280
100
AcDbEntity
  8
GRAU_10_
 62
     7
100
AcDbVertex
100
AcDb2dVertex
 10
143.8627552240821
 20
193.8611191681146
 30
0.0
  0
VERTEX
  5
283
330
280
100
AcDbEntity
  8
GRAU_10_
 62
     7
100
AcDbVertex
100
AcDb2dVertex
 10
143.8627552240821
 20
192.9551858350077
 30
0.0
  0
VERTEX
  5
284
330
280
100
AcDbEntity
  8
GRAU_10_
 62
     7
100
AcDbVertex
100
AcDb2dVertex
 10
143.8627552240821
 20
192.9329608350132
 30
0.0
  0
SEQEND
  5
285
330
280
100
AcDbEntity
  8
GRAU_10_
 62
     7
  0
POLYLINE
  5
286
330
1F
100
AcDbEntity
  8
GRAU_10_
 62
     7
100
AcDb2dPolyline
 66
     1
 10
0.0
 20
0.0
 30
0.0
  0
VERTEX
  5
287
330
286
100
AcDbEntity
  8
GRAU_10_
 62
     7
100
AcDbVertex
100
AcDb2dVertex
 10
143.8627552240821
 20
191.8968525019389
 30
0.0
  0
VERTEX
  5
288
330
286
100
AcDbEntity
  8
GRAU_10_
 62
     7
100
AcDbVertex
100
AcDb2dVertex
 10
143.8627552240821
 20
191.8753330574999
 30
0.0
  0
VERTEX
  5
289
330
286
100
AcDbEntity
  8
GRAU_10_
 62
     7
100
AcDbVertex
100
AcDb2dVertex
 10
143.8627552240821
 20
190.8610969466424
 30
0.0
  0
SEQEND
  5
28A
330
286
100
AcDbEntity
  8
GRAU_10_
 62
     7
  0
POLYLINE
  5
28B
330
1F
100
AcDbEntity
  8
GRAU_10_
 62
     7
100
AcDb2dPolyline
 66
     1
 10
0.0
 20
0.0
 30
0.0
  0
VERTEX
  5
28C
330
28B
100
AcDbEntity
  8
GRAU_10_
 62
     7
100
AcDbVertex
100
AcDb2dVertex
 10
143.8627552240821
 20
189.8256941691236
 30
0.0
  0
VERTEX
  5
28D
330
28B
100
AcDbEntity
  8
GRAU_10_
 62
     7
100
AcDbVertex
100
AcDb2dVertex
 10
143.8627552240821
 20
189.2591330581542
 30
0.0
  0
VERTEX
  5
28E
330
28B
100
AcDbEntity
  8
GRAU_10_
 62
     7
100
AcDbVertex
100
AcDb2dVertex
 10
143.8627552240821
 20
188.7899386138268
 30
0.0
  0
SEQEND
  5
28F
330
28B
100
AcDbEntity
  8
GRAU_10_
 62
     7
  0
POLYLINE
  5
290
330
1F
100
AcDbEntity
  8
GRAU_10_
 62
     7
100
AcDb2dPolyline
 66
     1
 10
0.0
 20
0.0
 30
0.0
  0
VERTEX
  5
291
330
290
100
AcDbEntity
  8
GRAU_10_
 62
     7
100
AcDbVertex
100
AcDb2dVertex
 10
143.8627552240821
 20
187.7545358363078
 30
0.0
  0
VERTEX
  5
292
330
290
100
AcDbEntity
  8
GRAU_10_
 62
     7
100
AcDbVertex
100
AcDb2dVertex
 10
143.8627552240821
 20
186.7187802810112
 30
0.0
  0
SEQEND
  5
293
330
290
100
AcDbEntity
  8
GRAU_10_
 62
     7
  0
POLYLINE
  5
294
330
1F
100
AcDbEntity
  8
GRAU_10_
 62
     7
100
AcDb2dPolyline
 66
     1
 10
0.0
 20
0.0
 30
0.0
  0
VERTEX
  5
295
330
294
100
AcDbEntity
  8
GRAU_10_
 62
     7
100
AcDbVertex
100
AcDb2dVertex
 10
143.8627552240821
 20
185.682671947937
 30
0.0
  0
VERTEX
  5
296
330
294
100
AcDbEntity
  8
GRAU_10_
 62
     7
100
AcDbVertex
100
AcDb2dVertex
 10
143.8627552240821
 20
184.6472691704182
 30
0.0
  0
SEQEND
  5
297
330
294
100
AcDbEntity
  8
GRAU_10_
 62
     7
  0
POLYLINE
  5
298
330
1F
100
AcDbEntity
  8
GRAU_10_
 62
     7
100
AcDb2dPolyline
 66
     1
 10
0.0
 20
0.0
 30
0.0
  0
VERTEX
  5
299
330
298
100
AcDbEntity
  8
GRAU_10_
 62
     7
100
AcDbVertex
100
AcDb2dVertex
 10
143.8627552240821
 20
183.6115136151217
 30
0.0
  0
VERTEX
  5
29A
330
298
100
AcDbEntity
  8
GRAU_10_
 62
     7
100
AcDbVertex
100
AcDb2dVertex
 10
143.8627552240821
 20
182.770138615332
 30
0.0
  0
VERTEX
  5
29B
330
298
100
AcDbEntity
  8
GRAU_10_
 62
     7
100
AcDbVertex
100
AcDb2dVertex
 10
143.8627552240821
 20
182.5754052820471
 30
0.0
  0
SEQEND
  5
29C
330
298
100
AcDbEntity
  8
GRAU_10_
 62
     7
  0
POLYLINE
  5
29D
330
1F
100
AcDbEntity
  8
GRAU_10_
 62
     7
100
AcDb2dPolyline
 66
     1
 10
0.0
 20
0.0
 30
0.0
  0
VERTEX
  5
29E
330
29D
100
AcDbEntity
  8
GRAU_10_
 62
     7
100
AcDbVertex
100
AcDb2dVertex
 10
143.8627552240821
 20
181.540002504528
 30
0.0
  0
VERTEX
  5
29F
330
29D
100
AcDbEntity
  8
GRAU_10_
 62
     7
100
AcDbVertex
100
AcDb2dVertex
 10
143.8627552240821
 20
181.0221247268801
 30
0.0
  0
VERTEX
  5
2A0
330
29D
100
AcDbEntity
  8
GRAU_10_
 62
     7
100
AcDbVertex
100
AcDb2dVertex
 10
143.8627552240821
 20
180.5042469492315
 30
0.0
  0
SEQEND
  5
2A1
330
29D
100
AcDbEntity
  8
GRAU_10_
 62
     7
  0
POLYLINE
  5
2A2
330
1F
100
AcDbEntity
  8
GRAU_10_
 62
     7
100
AcDb2dPolyline
 66
     1
 10
0.0
 20
0.0
 30
0.0
  0
VERTEX
  5
2A3
330
2A2
100
AcDbEntity
  8
GRAU_10_
 62
     7
100
AcDbVertex
100
AcDb2dVertex
 10
143.8627552240821
 20
179.468491393935
 30
0.0
  0
VERTEX
  5
2A4
330
2A2
100
AcDbEntity
  8
GRAU_10_
 62
     7
100
AcDbVertex
100
AcDb2dVertex
 10
143.8627552240821
 20
179.2744636162057
 30
0.0
  0
VERTEX
  5
2A5
330
2A2
100
AcDbEntity
  8
GRAU_10_
 62
     7
100
AcDbVertex
100
AcDb2dVertex
 10
143.8627552240821
 20
178.4330886164163
 30
0.0
  0
SEQEND
  5
2A6
330
2A2
100
AcDbEntity
  8
GRAU_10_
 62
     7
  0
POLYLINE
  5
2A7
330
1F
100
AcDbEntity
  8
GRAU_10_
 62
     7
100
AcDb2dPolyline
 66
     1
 10
0.0
 20
0.0
 30
0.0
  0
VERTEX
  5
2A8
330
2A7
100
AcDbEntity
  8
GRAU_10_
 62
     7
100
AcDbVertex
100
AcDb2dVertex
 10
143.8627552240821
 20
177.3973330611194
 30
0.0
  0
VERTEX
  5
2A9
330
2A7
100
AcDbEntity
  8
GRAU_10_
 62
     7
100
AcDbVertex
100
AcDb2dVertex
 10
143.8627552240821
 20
176.3612247280452
 30
0.0
  0
SEQEND
  5
2AA
330
2A7
100
AcDbEntity
  8
GRAU_10_
 62
     7
  0
POLYLINE
  5
2AB
330
1F
100
AcDbEntity
  8
GRAU_10_
 62
     7
100
AcDb2dPolyline
 66
     1
 10
0.0
 20
0.0
 30
0.0
  0
VERTEX
  5
2AC
330
2AB
100
AcDbEntity
  8
GRAU_10_
 62
     7
100
AcDbVertex
100
AcDb2dVertex
 10
143.8627552240821
 20
175.3258219505261
 30
0.0
  0
VERTEX
  5
2AD
330
2AB
100
AcDbEntity
  8
GRAU_10_
 62
     7
100
AcDbVertex
100
AcDb2dVertex
 10
143.8627552240821
 20
174.2900663952296
 30
0.0
  0
SEQEND
  5
2AE
330
2AB
100
AcDbEntity
  8
GRAU_10_
 62
     7
  0
POLYLINE
  5
2AF
330
1F
100
AcDbEntity
  8
GRAU_10_
 62
     7
100
AcDb2dPolyline
 66
     1
 10
0.0
 20
0.0
 30
0.0
  0
VERTEX
  5
2B0
330
2AF
100
AcDbEntity
  8
GRAU_10_
 62
     7
100
AcDbVertex
100
AcDb2dVertex
 10
143.8627552240821
 20
173.2539580621553
 30
0.0
  0
VERTEX
  5
2B1
330
2AF
100
AcDbEntity
  8
GRAU_10_
 62
     7
100
AcDbVertex
100
AcDb2dVertex
 10
143.8627552240821
 20
172.7854691733837
 30
0.0
  0
VERTEX
  5
2B2
330
2AF
100
AcDbEntity
  8
GRAU_10_
 62
     7
100
AcDbVertex
100
AcDb2dVertex
 10
143.8627552240821
 20
172.218908062414
 30
0.0
  0
SEQEND
  5
2B3
330
2AF
100
AcDbEntity
  8
GRAU_10_
 62
     7
  0
POLYLINE
  5
2B4
330
1F
100
AcDbEntity
  8
GRAU_10_
 62
     7
100
AcDb2dPolyline
 66
     1
 10
0.0
 20
0.0
 30
0.0
  0
VERTEX
  5
2B5
330
2B4
100
AcDbEntity
  8
GRAU_10_
 62
     7
100
AcDbVertex
100
AcDb2dVertex
 10
143.8627552240821
 20
171.1827997293395
 30
0.0
  0
VERTEX
  5
2B6
330
2B4
100
AcDbEntity
  8
GRAU_10_
 62
     7
100
AcDbVertex
100
AcDb2dVertex
 10
143.8627552240821
 20
170.1685636184819
 30
0.0
  0
VERTEX
  5
2B7
330
2B4
100
AcDbEntity
  8
GRAU_10_
 62
     7
100
AcDbVertex
100
AcDb2dVertex
 10
143.8627552240821
 20
170.1470441740429
 30
0.0
  0
SEQEND
  5
2B8
330
2B4
100
AcDbEntity
  8
GRAU_10_
 62
     7
  0
POLYLINE
  5
2B9
330
1F
100
AcDbEntity
  8
GRAU_10_
 62
     7
100
AcDb2dPolyline
 66
     1
 10
0.0
 20
0.0
 30
0.0
  0
VERTEX
  5
2BA
330
2B9
100
AcDbEntity
  8
GRAU_10_
 62
     7
100
AcDbVertex
100
AcDb2dVertex
 10
143.8627552240821
 20
169.1116413965242
 30
0.0
  0
VERTEX
  5
2BB
330
2B9
100
AcDbEntity
  8
GRAU_10_
 62
     7
100
AcDbVertex
100
AcDb2dVertex
 10
143.8627552240821
 20
169.0887108409742
 30
0.0
  0
VERTEX
  5
2BC
330
2B9
100
AcDbEntity
  8
GRAU_10_
 62
     7
100
AcDbVertex
100
AcDb2dVertex
 10
143.8627552240821
 20
168.1827775078676
 30
0.0
  0
VERTEX
  5
2BD
330
2B9
100
AcDbEntity
  8
GRAU_10_
 62
     7
100
AcDbVertex
100
AcDb2dVertex
 10
143.8627552240821
 20
168.0758858412277
 30
0.0
  0
SEQEND
  5
2BE
330
2B9
100
AcDbEntity
  8
GRAU_10_
 62
     7
  0
POLYLINE
  5
2BF
330
1F
100
AcDbEntity
  8
GRAU_10_
 62
     7
100
AcDb2dPolyline
 66
     1
 10
0.0
 20
0.0
 30
0.0
  0
VERTEX
  5
2C0
330
2BF
100
AcDbEntity
  8
GRAU_10_
 62
     7
100
AcDbVertex
100
AcDb2dVertex
 10
143.8627552240821
 20
167.0397775081534
 30
0.0
  0
VERTEX
  5
2C1
330
2BF
100
AcDbEntity
  8
GRAU_10_
 62
     7
100
AcDbVertex
100
AcDb2dVertex
 10
143.8627552240821
 20
166.9438219526215
 30
0.0
  0
VERTEX
  5
2C2
330
2BF
100
AcDbEntity
  8
GRAU_10_
 62
     7
100
AcDbVertex
100
AcDb2dVertex
 10
143.8627552240821
 20
166.6277330638121
 30
0.0
  0
VERTEX
  5
2C3
330
2BF
100
AcDbEntity
  8
GRAU_10_
 62
     7
100
AcDbVertex
100
AcDb2dVertex
 10
143.8627552240821
 20
166.5222525082826
 30
0.0
  0
SEQEND
  5
2C4
330
2BF
100
AcDbEntity
  8
GRAU_10_
 62
     7
  0
POLYLINE
  5
2C5
330
1F
100
AcDbEntity
  8
GRAU_10_
 62
     7
100
AcDb2dPolyline
 66
     1
 10
0.0
 20
0.0
 30
0.0
  0
VERTEX
  5
2C6
330
2C5
100
AcDbEntity
  8
GRAU_10_
 62
     7
100
AcDbVertex
100
AcDb2dVertex
 10
160.5883024421226
 20
183.8983219483831
 30
0.0
  0
VERTEX
  5
2C7
330
2C5
100
AcDbEntity
  8
GRAU_10_
 62
     7
100
AcDbVertex
100
AcDb2dVertex
 10
162.5878468860674
 20
183.8983219483831
 30
0.0
  0
SEQEND
  5
2C8
330
2C5
100
AcDbEntity
  8
GRAU_10_
 62
     7
  0
POLYLINE
  5
2C9
330
1F
100
AcDbEntity
  8
GRAU_10_
 62
     7
100
AcDb2dPolyline
 66
     1
 10
0.0
 20
0.0
 30
0.0
  0
VERTEX
  5
2CA
330
2C9
100
AcDbEntity
  8
GRAU_10_
 62
     7
100
AcDbVertex
100
AcDb2dVertex
 10
162.5878468860674
 20
178.1462802831546
 30
0.0
  0
VERTEX
  5
2CB
330
2C9
100
AcDbEntity
  8
GRAU_10_
 62
     7
100
AcDbVertex
100
AcDb2dVertex
 10
162.5878468860674
 20
180.0579830604544
 30
0.0
  0
VERTEX
  5
2CC
330
2C9
100
AcDbEntity
  8
GRAU_10_
 62
     7
100
AcDbVertex
100
AcDb2dVertex
 10
162.5878468860674
 20
181.9866191710832
 30
0.0
  0
VERTEX
  5
2CD
330
2C9
100
AcDbEntity
  8
GRAU_10_
 62
     7
100
AcDbVertex
100
AcDb2dVertex
 10
162.5878468860674
 20
183.8983219483831
 30
0.0
  0
SEQEND
  5
2CE
330
2C9
100
AcDbEntity
  8
GRAU_10_
 62
     7
  0
POLYLINE
  5
2CF
330
1F
100
AcDbEntity
  8
GRAU_10_
 62
     7
100
AcDb2dPolyline
 66
     1
 10
0.0
 20
0.0
 30
0.0
  0
VERTEX
  5
2D0
330
2CF
100
AcDbEntity
  8
GRAU_10_
 62
     7
100
AcDbVertex
100
AcDb2dVertex
 10
160.5883024421226
 20
178.1462802831546
 30
0.0
  0
VERTEX
  5
2D1
330
2CF
100
AcDbEntity
  8
GRAU_10_
 62
     7
100
AcDbVertex
100
AcDb2dVertex
 10
162.5878468860674
 20
178.1462802831546
 30
0.0
  0
SEQEND
  5
2D2
330
2CF
100
AcDbEntity
  8
GRAU_10_
 62
     7
  0
POLYLINE
  5
2D3
330
1F
100
AcDbEntity
  8
GRAU_10_
 62
     7
100
AcDb2dPolyline
 66
     1
 10
0.0
 20
0.0
 30
0.0
  0
VERTEX
  5
2D4
330
2D3
100
AcDbEntity
  8
GRAU_10_
 62
     7
100
AcDbVertex
100
AcDb2dVertex
 10
143.8627552240821
 20
195.5223497232548
 30
0.0
  0
VERTEX
  5
2D5
330
2D3
100
AcDbEntity
  8
GRAU_10_
 62
     7
100
AcDbVertex
100
AcDb2dVertex
 10
143.4175496686376
 20
195.5223497232548
 30
0.0
  0
SEQEND
  5
2D6
330
2D3
100
AcDbEntity
  8
GRAU_10_
 62
     7
  0
POLYLINE
  5
2D7
330
1F
100
AcDbEntity
  8
GRAU_10_
 62
     7
100
AcDb2dPolyline
 66
     1
 10
0.0
 20
0.0
 30
0.0
  0
VERTEX
  5
2D8
330
2D7
100
AcDbEntity
  8
GRAU_10_
 62
     7
100
AcDbVertex
100
AcDb2dVertex
 10
142.5271385577493
 20
195.5223497232548
 30
0.0
  0
VERTEX
  5
2D9
330
2D7
100
AcDbEntity
  8
GRAU_10_
 62
     7
100
AcDbVertex
100
AcDb2dVertex
 10
141.6363746690829
 20
195.5223497232548
 30
0.0
  0
SEQEND
  5
2DA
330
2D7
100
AcDbEntity
  8
GRAU_10_
 62
     7
  0
POLYLINE
  5
2DB
330
1F
100
AcDbEntity
  8
GRAU_10_
 62
     7
100
AcDb2dPolyline
 66
     1
 10
0.0
 20
0.0
 30
0.0
  0
VERTEX
  5
2DC
330
2DB
100
AcDbEntity
  8
GRAU_10_
 62
     7
100
AcDbVertex
100
AcDb2dVertex
 10
140.7459635581946
 20
195.5223497232548
 30
0.0
  0
VERTEX
  5
2DD
330
2DB
100
AcDbEntity
  8
GRAU_10_
 62
     7
100
AcDbVertex
100
AcDb2dVertex
 10
139.8548468917504
 20
195.5223497232548
 30
0.0
  0
SEQEND
  5
2DE
330
2DB
100
AcDbEntity
  8
GRAU_10_
 62
     7
  0
POLYLINE
  5
2DF
330
1F
100
AcDbEntity
  8
GRAU_10_
 62
     7
100
AcDb2dPolyline
 66
     1
 10
0.0
 20
0.0
 30
0.0
  0
VERTEX
  5
2E0
330
2DF
100
AcDbEntity
  8
GRAU_10_
 62
     7
100
AcDbVertex
100
AcDb2dVertex
 10
138.9644357808621
 20
195.5223497232548
 30
0.0
  0
VERTEX
  5
2E1
330
2DF
100
AcDbEntity
  8
GRAU_10_
 62
     7
100
AcDbVertex
100
AcDb2dVertex
 10
138.0740246699735
 20
195.5223497232548
 30
0.0
  0
SEQEND
  5
2E2
330
2DF
100
AcDbEntity
  8
GRAU_10_
 62
     7
  0
POLYLINE
  5
2E3
330
1F
100
AcDbEntity
  8
GRAU_10_
 62
     7
100
AcDb2dPolyline
 66
     1
 10
0.0
 20
0.0
 30
0.0
  0
VERTEX
  5
2E4
330
2E3
100
AcDbEntity
  8
GRAU_10_
 62
     7
100
AcDbVertex
100
AcDb2dVertex
 10
137.1829080035297
 20
195.5223497232548
 30
0.0
  0
VERTEX
  5
2E5
330
2E3
100
AcDbEntity
  8
GRAU_10_
 62
     7
100
AcDbVertex
100
AcDb2dVertex
 10
136.7377024480855
 20
195.5223497232548
 30
0.0
  0
SEQEND
  5
2E6
330
2E3
100
AcDbEntity
  8
GRAU_10_
 62
     7
  0
POLYLINE
  5
2E7
330
1F
100
AcDbEntity
  8
GRAU_10_
 62
     7
100
AcDb2dPolyline
 66
     1
 10
0.0
 20
0.0
 30
0.0
  0
VERTEX
  5
2E8
330
2E7
100
AcDbEntity
  8
GRAU_10_
 62
     7
100
AcDbVertex
100
AcDb2dVertex
 10
136.7377024480855
 20
166.5222525082826
 30
0.0
  0
VERTEX
  5
2E9
330
2E7
100
AcDbEntity
  8
GRAU_10_
 62
     7
100
AcDbVertex
100
AcDb2dVertex
 10
137.1829080035297
 20
166.5222525082826
 30
0.0
  0
SEQEND
  5
2EA
330
2E7
100
AcDbEntity
  8
GRAU_10_
 62
     7
  0
POLYLINE
  5
2EB
330
1F
100
AcDbEntity
  8
GRAU_10_
 62
     7
100
AcDb2dPolyline
 66
     1
 10
0.0
 20
0.0
 30
0.0
  0
VERTEX
  5
2EC
330
2EB
100
AcDbEntity
  8
GRAU_10_
 62
     7
100
AcDbVertex
100
AcDb2dVertex
 10
138.0740246699735
 20
166.5222525082826
 30
0.0
  0
VERTEX
  5
2ED
330
2EB
100
AcDbEntity
  8
GRAU_10_
 62
     7
100
AcDbVertex
100
AcDb2dVertex
 10
138.9644357808621
 20
166.5222525082826
 30
0.0
  0
SEQEND
  5
2EE
330
2EB
100
AcDbEntity
  8
GRAU_10_
 62
     7
  0
POLYLINE
  5
2EF
330
1F
100
AcDbEntity
  8
GRAU_10_
 62
     7
100
AcDb2dPolyline
 66
     1
 10
0.0
 20
0.0
 30
0.0
  0
VERTEX
  5
2F0
330
2EF
100
AcDbEntity
  8
GRAU_10_
 62
     7
100
AcDbVertex
100
AcDb2dVertex
 10
139.8548468917504
 20
166.5222525082826
 30
0.0
  0
VERTEX
  5
2F1
330
2EF
100
AcDbEntity
  8
GRAU_10_
 62
     7
100
AcDbVertex
100
AcDb2dVertex
 10
140.7459635581946
 20
166.5222525082826
 30
0.0
  0
SEQEND
  5
2F2
330
2EF
100
AcDbEntity
  8
GRAU_10_
 62
     7
  0
POLYLINE
  5
2F3
330
1F
100
AcDbEntity
  8
GRAU_10_
 62
     7
100
AcDb2dPolyline
 66
     1
 10
0.0
 20
0.0
 30
0.0
  0
VERTEX
  5
2F4
330
2F3
100
AcDbEntity
  8
GRAU_10_
 62
     7
100
AcDbVertex
100
AcDb2dVertex
 10
141.6363746690829
 20
166.5222525082826
 30
0.0
  0
VERTEX
  5
2F5
330
2F3
100
AcDbEntity
  8
GRAU_10_
 62
     7
100
AcDbVertex
100
AcDb2dVertex
 10
142.5271385577493
 20
166.5222525082826
 30
0.0
  0
SEQEND
  5
2F6
330
2F3
100
AcDbEntity
  8
GRAU_10_
 62
     7
  0
POLYLINE
  5
2F7
330
1F
100
AcDbEntity
  8
GRAU_10_
 62
     7
100
AcDb2dPolyline
 66
     1
 10
0.0
 20
0.0
 30
0.0
  0
VERTEX
  5
2F8
330
2F7
100
AcDbEntity
  8
GRAU_10_
 62
     7
100
AcDbVertex
100
AcDb2dVertex
 10
143.4175496686376
 20
166.5222525082826
 30
0.0
  0
VERTEX
  5
2F9
330
2F7
100
AcDbEntity
  8
GRAU_10_
 62
     7
100
AcDbVertex
100
AcDb2dVertex
 10
143.8627552240821
 20
166.5222525082826
 30
0.0
  0
SEQEND
  5
2FA
330
2F7
100
AcDbEntity
  8
GRAU_10_
 62
     7
  0
POLYLINE
  5
2FB
330
1F
100
AcDbEntity
  8
GRAU_10_
 62
     7
100
AcDb2dPolyline
 66
     1
 10
0.0
 20
0.0
 30
0.0
  0
VERTEX
  5
2FC
330
2FB
100
AcDbEntity
  8
GRAU_10_
 62
     7
100
AcDbVertex
100
AcDb2dVertex
 10
148.7377913339743
 20
166.9766302859469
 30
0.0
  0
VERTEX
  5
2FD
330
2FB
100
AcDbEntity
  8
GRAU_10_
 62
     7
100
AcDbVertex
100
AcDb2dVertex
 10
149.1219663338782
 20
167.1985275081133
 30
0.0
  0
SEQEND
  5
2FE
330
2FB
100
AcDbEntity
  8
GRAU_10_
 62
     7
  0
POLYLINE
  5
2FF
330
1F
100
AcDbEntity
  8
GRAU_10_
 62
     7
100
AcDb2dPolyline
 66
     1
 10
0.0
 20
0.0
 30
0.0
  0
VERTEX
  5
300
330
2FF
100
AcDbEntity
  8
GRAU_10_
 62
     7
100
AcDbVertex
100
AcDb2dVertex
 10
149.8896107781308
 20
167.6416163968919
 30
0.0
  0
VERTEX
  5
301
330
2FF
100
AcDbEntity
  8
GRAU_10_
 62
     7
100
AcDbVertex
100
AcDb2dVertex
 10
150.6569024446057
 20
168.0847052856698
 30
0.0
  0
SEQEND
  5
302
330
2FF
100
AcDbEntity
  8
GRAU_10_
 62
     7
  0
POLYLINE
  5
303
330
1F
100
AcDbEntity
  8
GRAU_10_
 62
     7
100
AcDb2dPolyline
 66
     1
 10
0.0
 20
0.0
 30
0.0
  0
VERTEX
  5
304
330
303
100
AcDbEntity
  8
GRAU_10_
 62
     7
100
AcDbVertex
100
AcDb2dVertex
 10
151.4245468888581
 20
168.5281469522255
 30
0.0
  0
VERTEX
  5
305
330
303
100
AcDbEntity
  8
GRAU_10_
 62
     7
100
AcDbVertex
100
AcDb2dVertex
 10
152.1925441108885
 20
168.971235841004
 30
0.0
  0
SEQEND
  5
306
330
303
100
AcDbEntity
  8
GRAU_10_
 62
     7
  0
POLYLINE
  5
307
330
1F
100
AcDbEntity
  8
GRAU_10_
 62
     7
100
AcDb2dPolyline
 66
     1
 10
0.0
 20
0.0
 30
0.0
  0
VERTEX
  5
308
330
307
100
AcDbEntity
  8
GRAU_10_
 62
     7
100
AcDbVertex
100
AcDb2dVertex
 10
152.9601885551409
 20
169.4139719520041
 30
0.0
  0
VERTEX
  5
309
330
307
100
AcDbEntity
  8
GRAU_10_
 62
     7
100
AcDbVertex
100
AcDb2dVertex
 10
153.7278329993936
 20
169.8570608407821
 30
0.0
  0
SEQEND
  5
30A
330
307
100
AcDbEntity
  8
GRAU_10_
 62
     7
  0
POLYLINE
  5
30B
330
1F
100
AcDbEntity
  8
GRAU_10_
 62
     7
100
AcDb2dPolyline
 66
     1
 10
0.0
 20
0.0
 30
0.0
  0
VERTEX
  5
30C
330
30B
100
AcDbEntity
  8
GRAU_10_
 62
     7
100
AcDbVertex
100
AcDb2dVertex
 10
154.4951246658681
 20
170.3008552851155
 30
0.0
  0
VERTEX
  5
30D
330
30B
100
AcDbEntity
  8
GRAU_10_
 62
     7
100
AcDbVertex
100
AcDb2dVertex
 10
154.8785941102169
 20
170.522046951727
 30
0.0
  0
SEQEND
  5
30E
330
30B
100
AcDbEntity
  8
GRAU_10_
 62
     7
  0
POLYLINE
  5
30F
330
1F
100
AcDbEntity
  8
GRAU_10_
 62
     7
100
AcDb2dPolyline
 66
     1
 10
0.0
 20
0.0
 30
0.0
  0
VERTEX
  5
310
330
30F
100
AcDbEntity
  8
GRAU_10_
 62
     7
100
AcDbVertex
100
AcDb2dVertex
 10
154.8785941102169
 20
191.5218497242548
 30
0.0
  0
VERTEX
  5
311
330
30F
100
AcDbEntity
  8
GRAU_10_
 62
     7
100
AcDbVertex
100
AcDb2dVertex
 10
154.4951246658681
 20
191.7437469464219
 30
0.0
  0
SEQEND
  5
312
330
30F
100
AcDbEntity
  8
GRAU_10_
 62
     7
  0
POLYLINE
  5
313
330
1F
100
AcDbEntity
  8
GRAU_10_
 62
     7
100
AcDb2dPolyline
 66
     1
 10
0.0
 20
0.0
 30
0.0
  0
VERTEX
  5
314
330
313
100
AcDbEntity
  8
GRAU_10_
 62
     7
100
AcDbVertex
100
AcDb2dVertex
 10
153.7278329993936
 20
192.1868358351998
 30
0.0
  0
VERTEX
  5
315
330
313
100
AcDbEntity
  8
GRAU_10_
 62
     7
100
AcDbVertex
100
AcDb2dVertex
 10
152.9601885551409
 20
192.629924723978
 30
0.0
  0
SEQEND
  5
316
330
313
100
AcDbEntity
  8
GRAU_10_
 62
     7
  0
POLYLINE
  5
317
330
1F
100
AcDbEntity
  8
GRAU_10_
 62
     7
100
AcDb2dPolyline
 66
     1
 10
0.0
 20
0.0
 30
0.0
  0
VERTEX
  5
318
330
317
100
AcDbEntity
  8
GRAU_10_
 62
     7
100
AcDbVertex
100
AcDb2dVertex
 10
152.1925441108885
 20
193.073366390534
 30
0.0
  0
VERTEX
  5
319
330
317
100
AcDbEntity
  8
GRAU_10_
 62
     7
100
AcDbVertex
100
AcDb2dVertex
 10
151.4245468888581
 20
193.5164552793119
 30
0.0
  0
SEQEND
  5
31A
330
317
100
AcDbEntity
  8
GRAU_10_
 62
     7
  0
POLYLINE
  5
31B
330
1F
100
AcDbEntity
  8
GRAU_10_
 62
     7
100
AcDb2dPolyline
 66
     1
 10
0.0
 20
0.0
 30
0.0
  0
VERTEX
  5
31C
330
31B
100
AcDbEntity
  8
GRAU_10_
 62
     7
100
AcDbVertex
100
AcDb2dVertex
 10
150.6569024446057
 20
193.9595441680898
 30
0.0
  0
VERTEX
  5
31D
330
31B
100
AcDbEntity
  8
GRAU_10_
 62
     7
100
AcDbVertex
100
AcDb2dVertex
 10
149.8896107781308
 20
194.4029858346458
 30
0.0
  0
SEQEND
  5
31E
330
31B
100
AcDbEntity
  8
GRAU_10_
 62
     7
  0
POLYLINE
  5
31F
330
1F
100
AcDbEntity
  8
GRAU_10_
 62
     7
100
AcDb2dPolyline
 66
     1
 10
0.0
 20
0.0
 30
0.0
  0
VERTEX
  5
320
330
31F
100
AcDbEntity
  8
GRAU_10_
 62
     7
100
AcDbVertex
100
AcDb2dVertex
 10
149.1219663338782
 20
194.846074723424
 30
0.0
  0
VERTEX
  5
321
330
31F
100
AcDbEntity
  8
GRAU_10_
 62
     7
100
AcDbVertex
100
AcDb2dVertex
 10
148.7377913339743
 20
195.0672663900355
 30
0.0
  0
SEQEND
  5
322
330
31F
100
AcDbEntity
  8
GRAU_10_
 62
     7
  0
POLYLINE
  5
323
330
1F
100
AcDbEntity
  8
GRAU_10_
 62
     7
100
AcDb2dPolyline
 66
     1
 10
0.0
 20
0.0
 30
0.0
  0
VERTEX
  5
324
330
323
100
AcDbEntity
  8
GRAU_10_
 62
     7
100
AcDbVertex
100
AcDb2dVertex
 10
154.8785941102169
 20
170.522046951727
 30
0.0
  0
VERTEX
  5
325
330
323
100
AcDbEntity
  8
GRAU_10_
 62
     7
100
AcDbVertex
100
AcDb2dVertex
 10
154.8785941102169
 20
170.6289386183669
 30
0.0
  0
VERTEX
  5
326
330
323
100
AcDbEntity
  8
GRAU_10_
 62
     7
100
AcDbVertex
100
AcDb2dVertex
 10
154.8785941102169
 20
170.9471441738429
 30
0.0
  0
VERTEX
  5
327
330
323
100
AcDbEntity
  8
GRAU_10_
 62
     7
100
AcDbVertex
100
AcDb2dVertex
 10
154.8785941102169
 20
171.0473330627066
 30
0.0
  0
SEQEND
  5
328
330
323
100
AcDbEntity
  8
GRAU_10_
 62
     7
  0
POLYLINE
  5
329
330
1F
100
AcDbEntity
  8
GRAU_10_
 62
     7
100
AcDb2dPolyline
 66
     1
 10
0.0
 20
0.0
 30
0.0
  0
VERTEX
  5
32A
330
329
100
AcDbEntity
  8
GRAU_10_
 62
     7
100
AcDbVertex
100
AcDb2dVertex
 10
154.8785941102169
 20
172.097199729111
 30
0.0
  0
VERTEX
  5
32B
330
329
100
AcDbEntity
  8
GRAU_10_
 62
     7
100
AcDbVertex
100
AcDb2dVertex
 10
154.8785941102169
 20
172.1889219513104
 30
0.0
  0
VERTEX
  5
32C
330
329
100
AcDbEntity
  8
GRAU_10_
 62
     7
100
AcDbVertex
100
AcDb2dVertex
 10
154.8785941102169
 20
173.0870941733082
 30
0.0
  0
VERTEX
  5
32D
330
329
100
AcDbEntity
  8
GRAU_10_
 62
     7
100
AcDbVertex
100
AcDb2dVertex
 10
154.8785941102169
 20
173.1470663955154
 30
0.0
  0
SEQEND
  5
32E
330
329
100
AcDbEntity
  8
GRAU_10_
 62
     7
  0
POLYLINE
  5
32F
330
1F
100
AcDbEntity
  8
GRAU_10_
 62
     7
100
AcDb2dPolyline
 66
     1
 10
0.0
 20
0.0
 30
0.0
  0
VERTEX
  5
330
330
32F
100
AcDbEntity
  8
GRAU_10_
 62
     7
100
AcDbVertex
100
AcDb2dVertex
 10
154.8785941102169
 20
174.1969330619195
 30
0.0
  0
VERTEX
  5
331
330
32F
100
AcDbEntity
  8
GRAU_10_
 62
     7
100
AcDbVertex
100
AcDb2dVertex
 10
154.8785941102169
 20
175.2471525061013
 30
0.0
  0
SEQEND
  5
332
330
32F
100
AcDbEntity
  8
GRAU_10_
 62
     7
  0
POLYLINE
  5
333
330
1F
100
AcDbEntity
  8
GRAU_10_
 62
     7
100
AcDb2dPolyline
 66
     1
 10
0.0
 20
0.0
 30
0.0
  0
VERTEX
  5
334
330
333
100
AcDbEntity
  8
GRAU_10_
 62
     7
100
AcDbVertex
100
AcDb2dVertex
 10
154.8785941102169
 20
176.2970191725057
 30
0.0
  0
VERTEX
  5
335
330
333
100
AcDbEntity
  8
GRAU_10_
 62
     7
100
AcDbVertex
100
AcDb2dVertex
 10
154.8785941102169
 20
176.6600275057482
 30
0.0
  0
VERTEX
  5
336
330
333
100
AcDbEntity
  8
GRAU_10_
 62
     7
100
AcDbVertex
100
AcDb2dVertex
 10
154.8785941102169
 20
177.3468858389098
 30
0.0
  0
SEQEND
  5
337
330
333
100
AcDbEntity
  8
GRAU_10_
 62
     7
  0
POLYLINE
  5
338
330
1F
100
AcDbEntity
  8
GRAU_10_
 62
     7
100
AcDb2dPolyline
 66
     1
 10
0.0
 20
0.0
 30
0.0
  0
VERTEX
  5
339
330
338
100
AcDbEntity
  8
GRAU_10_
 62
     7
100
AcDbVertex
100
AcDb2dVertex
 10
154.8785941102169
 20
178.3974580608694
 30
0.0
  0
VERTEX
  5
33A
330
338
100
AcDbEntity
  8
GRAU_10_
 62
     7
100
AcDbVertex
100
AcDb2dVertex
 10
154.8785941102169
 20
179.4473247272738
 30
0.0
  0
SEQEND
  5
33B
330
338
100
AcDbEntity
  8
GRAU_10_
 62
     7
  0
POLYLINE
  5
33C
330
1F
100
AcDbEntity
  8
GRAU_10_
 62
     7
100
AcDb2dPolyline
 66
     1
 10
0.0
 20
0.0
 30
0.0
  0
VERTEX
  5
33D
330
33C
100
AcDbEntity
  8
GRAU_10_
 62
     7
100
AcDbVertex
100
AcDb2dVertex
 10
154.8785941102169
 20
180.4971913936776
 30
0.0
  0
VERTEX
  5
33E
330
33C
100
AcDbEntity
  8
GRAU_10_
 62
     7
100
AcDbVertex
100
AcDb2dVertex
 10
154.8785941102169
 20
181.0221247268801
 30
0.0
  0
VERTEX
  5
33F
330
33C
100
AcDbEntity
  8
GRAU_10_
 62
     7
100
AcDbVertex
100
AcDb2dVertex
 10
154.8785941102169
 20
181.5474108378598
 30
0.0
  0
SEQEND
  5
340
330
33C
100
AcDbEntity
  8
GRAU_10_
 62
     7
  0
POLYLINE
  5
341
330
1F
100
AcDbEntity
  8
GRAU_10_
 62
     7
100
AcDb2dPolyline
 66
     1
 10
0.0
 20
0.0
 30
0.0
  0
VERTEX
  5
342
330
341
100
AcDbEntity
  8
GRAU_10_
 62
     7
100
AcDbVertex
100
AcDb2dVertex
 10
154.8785941102169
 20
182.5972775042642
 30
0.0
  0
VERTEX
  5
343
330
341
100
AcDbEntity
  8
GRAU_10_
 62
     7
100
AcDbVertex
100
AcDb2dVertex
 10
154.8785941102169
 20
183.6471441706679
 30
0.0
  0
SEQEND
  5
344
330
341
100
AcDbEntity
  8
GRAU_10_
 62
     7
  0
POLYLINE
  5
345
330
1F
100
AcDbEntity
  8
GRAU_10_
 62
     7
100
AcDb2dPolyline
 66
     1
 10
0.0
 20
0.0
 30
0.0
  0
VERTEX
  5
346
330
345
100
AcDbEntity
  8
GRAU_10_
 62
     7
100
AcDbVertex
100
AcDb2dVertex
 10
154.8785941102169
 20
184.6970108370723
 30
0.0
  0
VERTEX
  5
347
330
345
100
AcDbEntity
  8
GRAU_10_
 62
     7
100
AcDbVertex
100
AcDb2dVertex
 10
154.8785941102169
 20
185.383869170234
 30
0.0
  0
VERTEX
  5
348
330
345
100
AcDbEntity
  8
GRAU_10_
 62
     7
100
AcDbVertex
100
AcDb2dVertex
 10
154.8785941102169
 20
185.7468775034767
 30
0.0
  0
SEQEND
  5
349
330
345
100
AcDbEntity
  8
GRAU_10_
 62
     7
  0
POLYLINE
  5
34A
330
1F
100
AcDbEntity
  8
GRAU_10_
 62
     7
100
AcDb2dPolyline
 66
     1
 10
0.0
 20
0.0
 30
0.0
  0
VERTEX
  5
34B
330
34A
100
AcDbEntity
  8
GRAU_10_
 62
     7
100
AcDbVertex
100
AcDb2dVertex
 10
154.8785941102169
 20
186.7970969476582
 30
0.0
  0
VERTEX
  5
34C
330
34A
100
AcDbEntity
  8
GRAU_10_
 62
     7
100
AcDbVertex
100
AcDb2dVertex
 10
154.8785941102169
 20
187.8469636140626
 30
0.0
  0
SEQEND
  5
34D
330
34A
100
AcDbEntity
  8
GRAU_10_
 62
     7
  0
POLYLINE
  5
34E
330
1F
100
AcDbEntity
  8
GRAU_10_
 62
     7
100
AcDb2dPolyline
 66
     1
 10
0.0
 20
0.0
 30
0.0
  0
VERTEX
  5
34F
330
34E
100
AcDbEntity
  8
GRAU_10_
 62
     7
100
AcDbVertex
100
AcDb2dVertex
 10
154.8785941102169
 20
188.896830280467
 30
0.0
  0
VERTEX
  5
350
330
34E
100
AcDbEntity
  8
GRAU_10_
 62
     7
100
AcDbVertex
100
AcDb2dVertex
 10
154.8785941102169
 20
188.9575080582292
 30
0.0
  0
VERTEX
  5
351
330
34E
100
AcDbEntity
  8
GRAU_10_
 62
     7
100
AcDbVertex
100
AcDb2dVertex
 10
154.8785941102169
 20
189.8549747246717
 30
0.0
  0
VERTEX
  5
352
330
34E
100
AcDbEntity
  8
GRAU_10_
 62
     7
100
AcDbVertex
100
AcDb2dVertex
 10
154.8785941102169
 20
189.9474025024263
 30
0.0
  0
SEQEND
  5
353
330
34E
100
AcDbEntity
  8
GRAU_10_
 62
     7
  0
POLYLINE
  5
354
330
1F
100
AcDbEntity
  8
GRAU_10_
 62
     7
100
AcDb2dPolyline
 66
     1
 10
0.0
 20
0.0
 30
0.0
  0
VERTEX
  5
355
330
354
100
AcDbEntity
  8
GRAU_10_
 62
     7
100
AcDbVertex
100
AcDb2dVertex
 10
154.8785941102169
 20
190.9972691688307
 30
0.0
  0
VERTEX
  5
356
330
354
100
AcDbEntity
  8
GRAU_10_
 62
     7
100
AcDbVertex
100
AcDb2dVertex
 10
154.8785941102169
 20
191.0967525021389
 30
0.0
  0
VERTEX
  5
357
330
354
100
AcDbEntity
  8
GRAU_10_
 62
     7
100
AcDbVertex
100
AcDb2dVertex
 10
154.8785941102169
 20
191.4149580576149
 30
0.0
  0
VERTEX
  5
358
330
354
100
AcDbEntity
  8
GRAU_10_
 62
     7
100
AcDbVertex
100
AcDb2dVertex
 10
154.8785941102169
 20
191.5218497242548
 30
0.0
  0
SEQEND
  5
359
330
354
100
AcDbEntity
  8
GRAU_10_
 62
     7
  0
POLYLINE
  5
35A
330
1F
100
AcDbEntity
  8
GRAU_10_
 62
     7
100
AcDb2dPolyline
 66
     1
 10
0.0
 20
0.0
 30
0.0
  0
VERTEX
  5
35B
330
35A
100
AcDbEntity
  8
GRAU_10_
 62
     7
100
AcDbVertex
100
AcDb2dVertex
 10
157.387902442923
 20
207.8688663868347
 30
0.0
  0
VERTEX
  5
35C
330
35A
100
AcDbEntity
  8
GRAU_10_
 62
     7
100
AcDbVertex
100
AcDb2dVertex
 10
157.387902442923
 20
206.4796274982934
 30
0.0
  0
VERTEX
  5
35D
330
35A
100
AcDbEntity
  8
GRAU_10_
 62
     7
100
AcDbVertex
100
AcDb2dVertex
 10
157.387902442923
 20
205.1327219430744
 30
0.0
  0
VERTEX
  5
35E
330
35A
100
AcDbEntity
  8
GRAU_10_
 62
     7
100
AcDbVertex
100
AcDb2dVertex
 10
157.387902442923
 20
203.8690719433903
 30
0.0
  0
VERTEX
  5
35F
330
35A
100
AcDbEntity
  8
GRAU_10_
 62
     7
100
AcDbVertex
100
AcDb2dVertex
 10
157.387902442923
 20
202.7264247214538
 30
0.0
  0
VERTEX
  5
360
330
35A
100
AcDbEntity
  8
GRAU_10_
 62
     7
100
AcDbVertex
100
AcDb2dVertex
 10
157.387902442923
 20
201.7404108328114
 30
0.0
  0
VERTEX
  5
361
330
35A
100
AcDbEntity
  8
GRAU_10_
 62
     7
100
AcDbVertex
100
AcDb2dVertex
 10
157.387902442923
 20
200.9406636107892
 30
0.0
  0
SEQEND
  5
362
330
35A
100
AcDbEntity
  8
GRAU_10_
 62
     7
  0
POLYLINE
  5
363
330
1F
100
AcDbEntity
  8
GRAU_10_
 62
     7
100
AcDb2dPolyline
 66
     1
 10
0.0
 20
0.0
 30
0.0
  0
VERTEX
  5
364
330
363
100
AcDbEntity
  8
GRAU_10_
 62
     7
100
AcDbVertex
100
AcDb2dVertex
 10
135.5883524483726
 20
200.9406636107892
 30
0.0
  0
VERTEX
  5
365
330
363
100
AcDbEntity
  8
GRAU_10_
 62
     7
100
AcDbVertex
100
AcDb2dVertex
 10
135.5883524483726
 20
201.7404108328114
 30
0.0
  0
VERTEX
  5
366
330
363
100
AcDbEntity
  8
GRAU_10_
 62
     7
100
AcDbVertex
100
AcDb2dVertex
 10
135.5883524483726
 20
202.7264247214538
 30
0.0
  0
VERTEX
  5
367
330
363
100
AcDbEntity
  8
GRAU_10_
 62
     7
100
AcDbVertex
100
AcDb2dVertex
 10
135.5883524483726
 20
203.8690719433903
 30
0.0
  0
VERTEX
  5
368
330
363
100
AcDbEntity
  8
GRAU_10_
 62
     7
100
AcDbVertex
100
AcDb2dVertex
 10
135.5883524483726
 20
205.1327219430744
 30
0.0
  0
VERTEX
  5
369
330
363
100
AcDbEntity
  8
GRAU_10_
 62
     7
100
AcDbVertex
100
AcDb2dVertex
 10
135.5883524483726
 20
206.4796274982934
 30
0.0
  0
VERTEX
  5
36A
330
363
100
AcDbEntity
  8
GRAU_10_
 62
     7
100
AcDbVertex
100
AcDb2dVertex
 10
135.5883524483726
 20
207.8688663868347
 30
0.0
  0
SEQEND
  5
36B
330
363
100
AcDbEntity
  8
GRAU_10_
 62
     7
  0
POLYLINE
  5
36C
330
1F
100
AcDbEntity
  8
GRAU_10_
 62
     7
100
AcDb2dPolyline
 66
     1
 10
0.0
 20
0.0
 30
0.0
  0
VERTEX
  5
36D
330
36C
100
AcDbEntity
  8
GRAU_10_
 62
     7
100
AcDbVertex
100
AcDb2dVertex
 10
159.188127442473
 20
170.522046951727
 30
0.0
  0
VERTEX
  5
36E
330
36C
100
AcDbEntity
  8
GRAU_10_
 62
     7
100
AcDbVertex
100
AcDb2dVertex
 10
159.3295913313264
 20
170.5809608406016
 30
0.0
  0
SEQEND
  5
36F
330
36C
100
AcDbEntity
  8
GRAU_10_
 62
     7
  0
POLYLINE
  5
370
330
1F
100
AcDbEntity
  8
GRAU_10_
 62
     7
100
AcDb2dPolyline
 66
     1
 10
0.0
 20
0.0
 30
0.0
  0
VERTEX
  5
371
330
370
100
AcDbEntity
  8
GRAU_10_
 62
     7
100
AcDbVertex
100
AcDb2dVertex
 10
159.5296163312764
 20
170.7809858405513
 30
0.0
  0
VERTEX
  5
372
330
370
100
AcDbEntity
  8
GRAU_10_
 62
     7
100
AcDbVertex
100
AcDb2dVertex
 10
159.5881774423729
 20
170.922096951627
 30
0.0
  0
SEQEND
  5
373
330
370
100
AcDbEntity
  8
GRAU_10_
 62
     7
  0
POLYLINE
  5
374
330
1F
100
AcDbEntity
  8
GRAU_10_
 62
     7
100
AcDb2dPolyline
 66
     1
 10
0.0
 20
0.0
 30
0.0
  0
VERTEX
  5
375
330
374
100
AcDbEntity
  8
GRAU_10_
 62
     7
100
AcDbVertex
100
AcDb2dVertex
 10
159.5881774423729
 20
191.1221525021326
 30
0.0
  0
VERTEX
  5
376
330
374
100
AcDbEntity
  8
GRAU_10_
 62
     7
100
AcDbVertex
100
AcDb2dVertex
 10
159.5296163312764
 20
191.2636163909861
 30
0.0
  0
SEQEND
  5
377
330
374
100
AcDbEntity
  8
GRAU_10_
 62
     7
  0
POLYLINE
  5
378
330
1F
100
AcDbEntity
  8
GRAU_10_
 62
     7
100
AcDb2dPolyline
 66
     1
 10
0.0
 20
0.0
 30
0.0
  0
VERTEX
  5
379
330
378
100
AcDbEntity
  8
GRAU_10_
 62
     7
100
AcDbVertex
100
AcDb2dVertex
 10
159.3295913313264
 20
191.4636413909364
 30
0.0
  0
VERTEX
  5
37A
330
378
100
AcDbEntity
  8
GRAU_10_
 62
     7
100
AcDbVertex
100
AcDb2dVertex
 10
159.188127442473
 20
191.5218497242548
 30
0.0
  0
SEQEND
  5
37B
330
378
100
AcDbEntity
  8
GRAU_10_
 62
     7
  0
POLYLINE
  5
37C
330
1F
100
AcDbEntity
  8
GRAU_10_
 62
     7
100
AcDb2dPolyline
 66
     1
 10
0.0
 20
0.0
 30
0.0
  0
VERTEX
  5
37D
330
37C
100
AcDbEntity
  8
GRAU_10_
 62
     7
100
AcDbVertex
100
AcDb2dVertex
 10
159.5881774423729
 20
170.922096951627
 30
0.0
  0
VERTEX
  5
37E
330
37C
100
AcDbEntity
  8
GRAU_10_
 62
     7
100
AcDbVertex
100
AcDb2dVertex
 10
159.5881774423729
 20
171.0251080627128
 30
0.0
  0
VERTEX
  5
37F
330
37C
100
AcDbEntity
  8
GRAU_10_
 62
     7
100
AcDbVertex
100
AcDb2dVertex
 10
159.5881774423729
 20
171.3309663959691
 30
0.0
  0
VERTEX
  5
380
330
37C
100
AcDbEntity
  8
GRAU_10_
 62
     7
100
AcDbVertex
100
AcDb2dVertex
 10
159.5881774423729
 20
171.4272747292787
 30
0.0
  0
SEQEND
  5
381
330
37C
100
AcDbEntity
  8
GRAU_10_
 62
     7
  0
POLYLINE
  5
382
330
1F
100
AcDbEntity
  8
GRAU_10_
 62
     7
100
AcDb2dPolyline
 66
     1
 10
0.0
 20
0.0
 30
0.0
  0
VERTEX
  5
383
330
382
100
AcDbEntity
  8
GRAU_10_
 62
     7
100
AcDbVertex
100
AcDb2dVertex
 10
159.5881774423729
 20
172.436924729026
 30
0.0
  0
VERTEX
  5
384
330
382
100
AcDbEntity
  8
GRAU_10_
 62
     7
100
AcDbVertex
100
AcDb2dVertex
 10
159.5881774423729
 20
172.5251191734484
 30
0.0
  0
VERTEX
  5
385
330
382
100
AcDbEntity
  8
GRAU_10_
 62
     7
100
AcDbVertex
100
AcDb2dVertex
 10
159.5881774423729
 20
173.3890719510104
 30
0.0
  0
VERTEX
  5
386
330
382
100
AcDbEntity
  8
GRAU_10_
 62
     7
100
AcDbVertex
100
AcDb2dVertex
 10
159.5881774423729
 20
173.4472802843291
 30
0.0
  0
SEQEND
  5
387
330
382
100
AcDbEntity
  8
GRAU_10_
 62
     7
  0
POLYLINE
  5
388
330
1F
100
AcDbEntity
  8
GRAU_10_
 62
     7
100
AcDb2dPolyline
 66
     1
 10
0.0
 20
0.0
 30
0.0
  0
VERTEX
  5
389
330
388
100
AcDbEntity
  8
GRAU_10_
 62
     7
100
AcDbVertex
100
AcDb2dVertex
 10
159.5881774423729
 20
174.4569302840768
 30
0.0
  0
VERTEX
  5
38A
330
388
100
AcDbEntity
  8
GRAU_10_
 62
     7
100
AcDbVertex
100
AcDb2dVertex
 10
159.5881774423729
 20
175.4672858393796
 30
0.0
  0
SEQEND
  5
38B
330
388
100
AcDbEntity
  8
GRAU_10_
 62
     7
  0
POLYLINE
  5
38C
330
1F
100
AcDbEntity
  8
GRAU_10_
 62
     7
100
AcDb2dPolyline
 66
     1
 10
0.0
 20
0.0
 30
0.0
  0
VERTEX
  5
38D
330
38C
100
AcDbEntity
  8
GRAU_10_
 62
     7
100
AcDbVertex
100
AcDb2dVertex
 10
159.5881774423729
 20
176.4772886169053
 30
0.0
  0
VERTEX
  5
38E
330
38C
100
AcDbEntity
  8
GRAU_10_
 62
     7
100
AcDbVertex
100
AcDb2dVertex
 10
159.5881774423729
 20
176.8261858390401
 30
0.0
  0
VERTEX
  5
38F
330
38C
100
AcDbEntity
  8
GRAU_10_
 62
     7
100
AcDbVertex
100
AcDb2dVertex
 10
159.5881774423729
 20
177.4869386166526
 30
0.0
  0
SEQEND
  5
390
330
38C
100
AcDbEntity
  8
GRAU_10_
 62
     7
  0
POLYLINE
  5
391
330
1F
100
AcDbEntity
  8
GRAU_10_
 62
     7
100
AcDb2dPolyline
 66
     1
 10
0.0
 20
0.0
 30
0.0
  0
VERTEX
  5
392
330
391
100
AcDbEntity
  8
GRAU_10_
 62
     7
100
AcDbVertex
100
AcDb2dVertex
 10
159.5881774423729
 20
178.4972941719554
 30
0.0
  0
VERTEX
  5
393
330
391
100
AcDbEntity
  8
GRAU_10_
 62
     7
100
AcDbVertex
100
AcDb2dVertex
 10
159.5881774423729
 20
179.5069441717033
 30
0.0
  0
SEQEND
  5
394
330
391
100
AcDbEntity
  8
GRAU_10_
 62
     7
  0
POLYLINE
  5
395
330
1F
100
AcDbEntity
  8
GRAU_10_
 62
     7
100
AcDb2dPolyline
 66
     1
 10
0.0
 20
0.0
 30
0.0
  0
VERTEX
  5
396
330
395
100
AcDbEntity
  8
GRAU_10_
 62
     7
100
AcDbVertex
100
AcDb2dVertex
 10
159.5881774423729
 20
180.5172997270061
 30
0.0
  0
VERTEX
  5
397
330
395
100
AcDbEntity
  8
GRAU_10_
 62
     7
100
AcDbVertex
100
AcDb2dVertex
 10
159.5881774423729
 20
181.0221247268801
 30
0.0
  0
VERTEX
  5
398
330
395
100
AcDbEntity
  8
GRAU_10_
 62
     7
100
AcDbVertex
100
AcDb2dVertex
 10
159.5881774423729
 20
181.5269497267538
 30
0.0
  0
SEQEND
  5
399
330
395
100
AcDbEntity
  8
GRAU_10_
 62
     7
  0
POLYLINE
  5
39A
330
1F
100
AcDbEntity
  8
GRAU_10_
 62
     7
100
AcDb2dPolyline
 66
     1
 10
0.0
 20
0.0
 30
0.0
  0
VERTEX
  5
39B
330
39A
100
AcDbEntity
  8
GRAU_10_
 62
     7
100
AcDbVertex
100
AcDb2dVertex
 10
159.5881774423729
 20
182.5373052820569
 30
0.0
  0
VERTEX
  5
39C
330
39A
100
AcDbEntity
  8
GRAU_10_
 62
     7
100
AcDbVertex
100
AcDb2dVertex
 10
159.5881774423729
 20
183.5469552818042
 30
0.0
  0
SEQEND
  5
39D
330
39A
100
AcDbEntity
  8
GRAU_10_
 62
     7
  0
POLYLINE
  5
39E
330
1F
100
AcDbEntity
  8
GRAU_10_
 62
     7
100
AcDb2dPolyline
 66
     1
 10
0.0
 20
0.0
 30
0.0
  0
VERTEX
  5
39F
330
39E
100
AcDbEntity
  8
GRAU_10_
 62
     7
100
AcDbVertex
100
AcDb2dVertex
 10
159.5881774423729
 20
184.557310837107
 30
0.0
  0
VERTEX
  5
3A0
330
39E
100
AcDbEntity
  8
GRAU_10_
 62
     7
100
AcDbVertex
100
AcDb2dVertex
 10
159.5881774423729
 20
185.2177108369423
 30
0.0
  0
VERTEX
  5
3A1
330
39E
100
AcDbEntity
  8
GRAU_10_
 62
     7
100
AcDbVertex
100
AcDb2dVertex
 10
159.5881774423729
 20
185.5669608368549
 30
0.0
  0
SEQEND
  5
3A2
330
39E
100
AcDbEntity
  8
GRAU_10_
 62
     7
  0
POLYLINE
  5
3A3
330
1F
100
AcDbEntity
  8
GRAU_10_
 62
     7
100
AcDb2dPolyline
 66
     1
 10
0.0
 20
0.0
 30
0.0
  0
VERTEX
  5
3A4
330
3A3
100
AcDbEntity
  8
GRAU_10_
 62
     7
100
AcDbVertex
100
AcDb2dVertex
 10
159.5881774423729
 20
186.5773163921578
 30
0.0
  0
VERTEX
  5
3A5
330
3A3
100
AcDbEntity
  8
GRAU_10_
 62
     7
100
AcDbVertex
100
AcDb2dVertex
 10
159.5881774423729
 20
187.5869663919054
 30
0.0
  0
SEQEND
  5
3A6
330
3A3
100
AcDbEntity
  8
GRAU_10_
 62
     7
  0
POLYLINE
  5
3A7
330
1F
100
AcDbEntity
  8
GRAU_10_
 62
     7
100
AcDb2dPolyline
 66
     1
 10
0.0
 20
0.0
 30
0.0
  0
VERTEX
  5
3A8
330
3A7
100
AcDbEntity
  8
GRAU_10_
 62
     7
100
AcDbVertex
100
AcDb2dVertex
 10
159.5881774423729
 20
188.5973219472085
 30
0.0
  0
VERTEX
  5
3A9
330
3A7
100
AcDbEntity
  8
GRAU_10_
 62
     7
100
AcDbVertex
100
AcDb2dVertex
 10
159.5881774423729
 20
188.655530280527
 30
0.0
  0
VERTEX
  5
3AA
330
3A7
100
AcDbEntity
  8
GRAU_10_
 62
     7
100
AcDbVertex
100
AcDb2dVertex
 10
159.5881774423729
 20
189.5187775025334
 30
0.0
  0
VERTEX
  5
3AB
330
3A7
100
AcDbEntity
  8
GRAU_10_
 62
     7
100
AcDbVertex
100
AcDb2dVertex
 10
159.5881774423729
 20
189.6069719469558
 30
0.0
  0
SEQEND
  5
3AC
330
3A7
100
AcDbEntity
  8
GRAU_10_
 62
     7
  0
POLYLINE
  5
3AD
330
1F
100
AcDbEntity
  8
GRAU_10_
 62
     7
100
AcDb2dPolyline
 66
     1
 10
0.0
 20
0.0
 30
0.0
  0
VERTEX
  5
3AE
330
3AD
100
AcDbEntity
  8
GRAU_10_
 62
     7
100
AcDbVertex
100
AcDb2dVertex
 10
159.5881774423729
 20
190.6173275022589
 30
0.0
  0
VERTEX
  5
3AF
330
3AD
100
AcDbEntity
  8
GRAU_10_
 62
     7
100
AcDbVertex
100
AcDb2dVertex
 10
159.5881774423729
 20
190.7129302800127
 30
0.0
  0
VERTEX
  5
3B0
330
3AD
100
AcDbEntity
  8
GRAU_10_
 62
     7
100
AcDbVertex
100
AcDb2dVertex
 10
159.5881774423729
 20
191.0194941688252
 30
0.0
  0
VERTEX
  5
3B1
330
3AD
100
AcDbEntity
  8
GRAU_10_
 62
     7
100
AcDbVertex
100
AcDb2dVertex
 10
159.5881774423729
 20
191.1221525021326
 30
0.0
  0
SEQEND
  5
3B2
330
3AD
100
AcDbEntity
  8
GRAU_10_
 62
     7
  0
POLYLINE
  5
3B3
330
1F
100
AcDbEntity
  8
GRAU_10_
 62
     7
100
AcDb2dPolyline
 66
     1
 10
0.0
 20
0.0
 30
0.0
  0
VERTEX
  5
3B4
330
3B3
100
AcDbEntity
  8
GRAU_10_
 62
     7
100
AcDbVertex
100
AcDb2dVertex
 10
159.188127442473
 20
191.5218497242548
 30
0.0
  0
VERTEX
  5
3B5
330
3B3
100
AcDbEntity
  8
GRAU_10_
 62
     7
100
AcDbVertex
100
AcDb2dVertex
 10
158.6494357759409
 20
191.5218497242548
 30
0.0
  0
SEQEND
  5
3B6
330
3B3
100
AcDbEntity
  8
GRAU_10_
 62
     7
  0
POLYLINE
  5
3B7
330
1F
100
AcDbEntity
  8
GRAU_10_
 62
     7
100
AcDb2dPolyline
 66
     1
 10
0.0
 20
0.0
 30
0.0
  0
VERTEX
  5
3B8
330
3B7
100
AcDbEntity
  8
GRAU_10_
 62
     7
100
AcDbVertex
100
AcDb2dVertex
 10
157.5724052206547
 20
191.5218497242548
 30
0.0
  0
VERTEX
  5
3B9
330
3B7
100
AcDbEntity
  8
GRAU_10_
 62
     7
100
AcDbVertex
100
AcDb2dVertex
 10
156.4946691098129
 20
191.5218497242548
 30
0.0
  0
SEQEND
  5
3BA
330
3B7
100
AcDbEntity
  8
GRAU_10_
 62
     7
  0
POLYLINE
  5
3BB
330
1F
100
AcDbEntity
  8
GRAU_10_
 62
     7
100
AcDb2dPolyline
 66
     1
 10
0.0
 20
0.0
 30
0.0
  0
VERTEX
  5
3BC
330
3BB
100
AcDbEntity
  8
GRAU_10_
 62
     7
100
AcDbVertex
100
AcDb2dVertex
 10
155.4176385545267
 20
191.5218497242548
 30
0.0
  0
VERTEX
  5
3BD
330
3BB
100
AcDbEntity
  8
GRAU_10_
 62
     7
100
AcDbVertex
100
AcDb2dVertex
 10
154.8785941102169
 20
191.5218497242548
 30
0.0
  0
SEQEND
  5
3BE
330
3BB
100
AcDbEntity
  8
GRAU_10_
 62
     7
  0
POLYLINE
  5
3BF
330
1F
100
AcDbEntity
  8
GRAU_10_
 62
     7
100
AcDb2dPolyline
 66
     1
 10
0.0
 20
0.0
 30
0.0
  0
VERTEX
  5
3C0
330
3BF
100
AcDbEntity
  8
GRAU_10_
 62
     7
100
AcDbVertex
100
AcDb2dVertex
 10
154.8785941102169
 20
170.522046951727
 30
0.0
  0
VERTEX
  5
3C1
330
3BF
100
AcDbEntity
  8
GRAU_10_
 62
     7
100
AcDbVertex
100
AcDb2dVertex
 10
155.4176385545267
 20
170.522046951727
 30
0.0
  0
SEQEND
  5
3C2
330
3BF
100
AcDbEntity
  8
GRAU_10_
 62
     7
  0
POLYLINE
  5
3C3
330
1F
100
AcDbEntity
  8
GRAU_10_
 62
     7
100
AcDb2dPolyline
 66
     1
 10
0.0
 20
0.0
 30
0.0
  0
VERTEX
  5
3C4
330
3C3
100
AcDbEntity
  8
GRAU_10_
 62
     7
100
AcDbVertex
100
AcDb2dVertex
 10
156.4946691098129
 20
170.522046951727
 30
0.0
  0
VERTEX
  5
3C5
330
3C3
100
AcDbEntity
  8
GRAU_10_
 62
     7
100
AcDbVertex
100
AcDb2dVertex
 10
157.5724052206547
 20
170.522046951727
 30
0.0
  0
SEQEND
  5
3C6
330
3C3
100
AcDbEntity
  8
GRAU_10_
 62
     7
  0
POLYLINE
  5
3C7
330
1F
100
AcDbEntity
  8
GRAU_10_
 62
     7
100
AcDb2dPolyline
 66
     1
 10
0.0
 20
0.0
 30
0.0
  0
VERTEX
  5
3C8
330
3C7
100
AcDbEntity
  8
GRAU_10_
 62
     7
100
AcDbVertex
100
AcDb2dVertex
 10
158.6494357759409
 20
170.522046951727
 30
0.0
  0
VERTEX
  5
3C9
330
3C7
100
AcDbEntity
  8
GRAU_10_
 62
     7
100
AcDbVertex
100
AcDb2dVertex
 10
159.188127442473
 20
170.522046951727
 30
0.0
  0
SEQEND
  5
3CA
330
3C7
100
AcDbEntity
  8
GRAU_10_
 62
     7
  0
POLYLINE
  5
3CB
330
1F
100
AcDbEntity
  8
GRAU_10_
 62
     7
100
AcDb2dPolyline
 66
     1
 10
0.0
 20
0.0
 30
0.0
  0
VERTEX
  5
3CC
330
3CB
100
AcDbEntity
  8
GRAU_10_
 62
     7
100
AcDbVertex
100
AcDb2dVertex
 10
148.4883774451479
 20
196.359491389712
 30
0.0
  0
VERTEX
  5
3CD
330
3CB
100
AcDbEntity
  8
GRAU_10_
 62
     7
100
AcDbVertex
100
AcDb2dVertex
 10
148.4883774451479
 20
196.9810858340013
 30
0.0
  0
SEQEND
  5
3CE
330
3CB
100
AcDbEntity
  8
GRAU_10_
 62
     7
  0
POLYLINE
  5
3CF
330
1F
100
AcDbEntity
  8
GRAU_10_
 62
     7
100
AcDb2dPolyline
 66
     1
 10
0.0
 20
0.0
 30
0.0
  0
VERTEX
  5
3D0
330
3CF
100
AcDbEntity
  8
GRAU_10_
 62
     7
100
AcDbVertex
100
AcDb2dVertex
 10
148.4883774451479
 20
198.2232163892465
 30
0.0
  0
VERTEX
  5
3D1
330
3CF
100
AcDbEntity
  8
GRAU_10_
 62
     7
100
AcDbVertex
100
AcDb2dVertex
 10
148.4883774451479
 20
198.8758552779721
 30
0.0
  0
VERTEX
  5
3D2
330
3CF
100
AcDbEntity
  8
GRAU_10_
 62
     7
100
AcDbVertex
100
AcDb2dVertex
 10
148.4883774451479
 20
199.4660525000467
 30
0.0
  0
SEQEND
  5
3D3
330
3CF
100
AcDbEntity
  8
GRAU_10_
 62
     7
  0
POLYLINE
  5
3D4
330
1F
100
AcDbEntity
  8
GRAU_10_
 62
     7
100
AcDb2dPolyline
 66
     1
 10
0.0
 20
0.0
 30
0.0
  0
VERTEX
  5
3D5
330
3D4
100
AcDbEntity
  8
GRAU_10_
 62
     7
100
AcDbVertex
100
AcDb2dVertex
 10
148.4883774451479
 20
200.7081830552919
 30
0.0
  0
VERTEX
  5
3D6
330
3D4
100
AcDbEntity
  8
GRAU_10_
 62
     7
100
AcDbVertex
100
AcDb2dVertex
 10
148.4883774451479
 20
200.7110052775134
 30
0.0
  0
VERTEX
  5
3D7
330
3D4
100
AcDbEntity
  8
GRAU_10_
 62
     7
100
AcDbVertex
100
AcDb2dVertex
 10
148.4883774451479
 20
201.3297774995808
 30
0.0
  0
SEQEND
  5
3D8
330
3D4
100
AcDbEntity
  8
GRAU_10_
 62
     7
  0
POLYLINE
  5
3D9
330
1F
100
AcDbEntity
  8
GRAU_10_
 62
     7
100
AcDb2dPolyline
 66
     1
 10
0.0
 20
0.0
 30
0.0
  0
VERTEX
  5
3DA
330
3D9
100
AcDbEntity
  8
GRAU_10_
 62
     7
100
AcDbVertex
100
AcDb2dVertex
 10
148.4883774451479
 20
199.5221441666992
 30
0.0
  0
VERTEX
  5
3DB
330
3D9
100
AcDbEntity
  8
GRAU_10_
 62
     7
100
AcDbVertex
100
AcDb2dVertex
 10
147.9881385563839
 20
199.5221441666992
 30
0.0
  0
SEQEND
  5
3DC
330
3D9
100
AcDbEntity
  8
GRAU_10_
 62
     7
  0
POLYLINE
  5
3DD
330
1F
100
AcDbEntity
  8
GRAU_10_
 62
     7
100
AcDb2dPolyline
 66
     1
 10
0.0
 20
0.0
 30
0.0
  0
VERTEX
  5
3DE
330
3DD
100
AcDbEntity
  8
GRAU_10_
 62
     7
100
AcDbVertex
100
AcDb2dVertex
 10
146.9883663344117
 20
199.5221441666992
 30
0.0
  0
VERTEX
  5
3DF
330
3DD
100
AcDbEntity
  8
GRAU_10_
 62
     7
100
AcDbVertex
100
AcDb2dVertex
 10
145.9878885568839
 20
199.5221441666992
 30
0.0
  0
SEQEND
  5
3E0
330
3DD
100
AcDbEntity
  8
GRAU_10_
 62
     7
  0
POLYLINE
  5
3E1
330
1F
100
AcDbEntity
  8
GRAU_10_
 62
     7
100
AcDb2dPolyline
 66
     1
 10
0.0
 20
0.0
 30
0.0
  0
VERTEX
  5
3E2
330
3E1
100
AcDbEntity
  8
GRAU_10_
 62
     7
100
AcDbVertex
100
AcDb2dVertex
 10
144.9881163349117
 20
199.5221441666992
 30
0.0
  0
VERTEX
  5
3E3
330
3E1
100
AcDbEntity
  8
GRAU_10_
 62
     7
100
AcDbVertex
100
AcDb2dVertex
 10
144.4882302239254
 20
199.5221441666992
 30
0.0
  0
SEQEND
  5
3E4
330
3E1
100
AcDbEntity
  8
GRAU_10_
 62
     7
  0
POLYLINE
  5
3E5
330
1F
100
AcDbEntity
  8
GRAU_10_
 62
     7
100
AcDb2dPolyline
 66
     1
 10
0.0
 20
0.0
 30
0.0
  0
VERTEX
  5
3E6
330
3E5
100
AcDbEntity
  8
GRAU_10_
 62
     7
100
AcDbVertex
100
AcDb2dVertex
 10
148.4883774451479
 20
196.359491389712
 30
0.0
  0
VERTEX
  5
3E7
330
3E5
100
AcDbEntity
  8
GRAU_10_
 62
     7
100
AcDbVertex
100
AcDb2dVertex
 10
147.9881385563839
 20
196.359491389712
 30
0.0
  0
SEQEND
  5
3E8
330
3E5
100
AcDbEntity
  8
GRAU_10_
 62
     7
  0
POLYLINE
  5
3E9
330
1F
100
AcDbEntity
  8
GRAU_10_
 62
     7
100
AcDb2dPolyline
 66
     1
 10
0.0
 20
0.0
 30
0.0
  0
VERTEX
  5
3EA
330
3E9
100
AcDbEntity
  8
GRAU_10_
 62
     7
100
AcDbVertex
100
AcDb2dVertex
 10
146.9883663344117
 20
196.359491389712
 30
0.0
  0
VERTEX
  5
3EB
330
3E9
100
AcDbEntity
  8
GRAU_10_
 62
     7
100
AcDbVertex
100
AcDb2dVertex
 10
145.9878885568839
 20
196.359491389712
 30
0.0
  0
SEQEND
  5
3EC
330
3E9
100
AcDbEntity
  8
GRAU_10_
 62
     7
  0
POLYLINE
  5
3ED
330
1F
100
AcDbEntity
  8
GRAU_10_
 62
     7
100
AcDb2dPolyline
 66
     1
 10
0.0
 20
0.0
 30
0.0
  0
VERTEX
  5
3EE
330
3ED
100
AcDbEntity
  8
GRAU_10_
 62
     7
100
AcDbVertex
100
AcDb2dVertex
 10
144.9881163349117
 20
196.359491389712
 30
0.0
  0
VERTEX
  5
3EF
330
3ED
100
AcDbEntity
  8
GRAU_10_
 62
     7
100
AcDbVertex
100
AcDb2dVertex
 10
144.4882302239254
 20
196.359491389712
 30
0.0
  0
VERTEX
  5
3F0
330
3ED
100
AcDbEntity
  8
GRAU_10_
 62
     7
100
AcDbVertex
100
AcDb2dVertex
 10
144.4882302239254
 20
196.9810858340013
 30
0.0
  0
SEQEND
  5
3F1
330
3ED
100
AcDbEntity
  8
GRAU_10_
 62
     7
  0
POLYLINE
  5
3F2
330
1F
100
AcDbEntity
  8
GRAU_10_
 62
     7
100
AcDb2dPolyline
 66
     1
 10
0.0
 20
0.0
 30
0.0
  0
VERTEX
  5
3F3
330
3F2
100
AcDbEntity
  8
GRAU_10_
 62
     7
100
AcDbVertex
100
AcDb2dVertex
 10
144.4882302239254
 20
198.2232163892465
 30
0.0
  0
VERTEX
  5
3F4
330
3F2
100
AcDbEntity
  8
GRAU_10_
 62
     7
100
AcDbVertex
100
AcDb2dVertex
 10
144.4882302239254
 20
198.8758552779721
 30
0.0
  0
VERTEX
  5
3F5
330
3F2
100
AcDbEntity
  8
GRAU_10_
 62
     7
100
AcDbVertex
100
AcDb2dVertex
 10
144.4882302239254
 20
199.4660525000467
 30
0.0
  0
SEQEND
  5
3F6
330
3F2
100
AcDbEntity
  8
GRAU_10_
 62
     7
  0
POLYLINE
  5
3F7
330
1F
100
AcDbEntity
  8
GRAU_10_
 62
     7
100
AcDb2dPolyline
 66
     1
 10
0.0
 20
0.0
 30
0.0
  0
VERTEX
  5
3F8
330
3F7
100
AcDbEntity
  8
GRAU_10_
 62
     7
100
AcDbVertex
100
AcDb2dVertex
 10
144.4882302239254
 20
200.7081830552919
 30
0.0
  0
VERTEX
  5
3F9
330
3F7
100
AcDbEntity
  8
GRAU_10_
 62
     7
100
AcDbVertex
100
AcDb2dVertex
 10
144.4882302239254
 20
200.7110052775134
 30
0.0
  0
VERTEX
  5
3FA
330
3F7
100
AcDbEntity
  8
GRAU_10_
 62
     7
100
AcDbVertex
100
AcDb2dVertex
 10
144.4882302239254
 20
201.3297774995808
 30
0.0
  0
SEQEND
  5
3FB
330
3F7
100
AcDbEntity
  8
GRAU_10_
 62
     7
  0
POLYLINE
  5
3FC
330
1F
100
AcDbEntity
  8
GRAU_10_
 62
     7
100
AcDb2dPolyline
 66
     1
 10
0.0
 20
0.0
 30
0.0
  0
VERTEX
  5
3FD
330
3FC
100
AcDbEntity
  8
GRAU_10_
 62
     7
100
AcDbVertex
100
AcDb2dVertex
 10
160.5883024421226
 20
194.9885969456108
 30
0.0
  0
VERTEX
  5
3FE
330
3FC
100
AcDbEntity
  8
GRAU_10_
 62
     7
100
AcDbVertex
100
AcDb2dVertex
 10
162.5878468860674
 20
194.9885969456108
 30
0.0
  0
SEQEND
  5
3FF
330
3FC
100
AcDbEntity
  8
GRAU_10_
 62
     7
  0
POLYLINE
  5
400
330
1F
100
AcDbEntity
  8
GRAU_10_
 62
     7
100
AcDb2dPolyline
 66
     1
 10
0.0
 20
0.0
 30
0.0
  0
VERTEX
  5
401
330
400
100
AcDbEntity
  8
GRAU_10_
 62
     7
100
AcDbVertex
100
AcDb2dVertex
 10
160.5883024421226
 20
192.1127525018853
 30
0.0
  0
VERTEX
  5
402
330
400
100
AcDbEntity
  8
GRAU_10_
 62
     7
100
AcDbVertex
100
AcDb2dVertex
 10
162.5878468860674
 20
192.1127525018853
 30
0.0
  0
VERTEX
  5
403
330
400
100
AcDbEntity
  8
GRAU_10_
 62
     7
100
AcDbVertex
100
AcDb2dVertex
 10
162.5878468860674
 20
193.2864441682583
 30
0.0
  0
VERTEX
  5
404
330
400
100
AcDbEntity
  8
GRAU_10_
 62
     7
100
AcDbVertex
100
AcDb2dVertex
 10
162.5878468860674
 20
194.2509386124617
 30
0.0
  0
VERTEX
  5
405
330
400
100
AcDbEntity
  8
GRAU_10_
 62
     7
100
AcDbVertex
100
AcDb2dVertex
 10
162.5878468860674
 20
194.9885969456108
 30
0.0
  0
SEQEND
  5
406
330
400
100
AcDbEntity
  8
GRAU_10_
 62
     7
  0
POLYLINE
  5
407
330
1F
100
AcDbEntity
  8
GRAU_10_
 62
     7
100
AcDb2dPolyline
 66
     1
 10
0.0
 20
0.0
 30
0.0
  0
VERTEX
  5
408
330
407
100
AcDbEntity
  8
GRAU_10_
 62
     7
100
AcDbVertex
100
AcDb2dVertex
 10
160.5883024421226
 20
188.137652502879
 30
0.0
  0
VERTEX
  5
409
330
407
100
AcDbEntity
  8
GRAU_10_
 62
     7
100
AcDbVertex
100
AcDb2dVertex
 10
162.5878468860674
 20
188.137652502879
 30
0.0
  0
SEQEND
  5
40A
330
407
100
AcDbEntity
  8
GRAU_10_
 62
     7
  0
POLYLINE
  5
40B
330
1F
100
AcDbEntity
  8
GRAU_10_
 62
     7
100
AcDb2dPolyline
 66
     1
 10
0.0
 20
0.0
 30
0.0
  0
VERTEX
  5
40C
330
40B
100
AcDbEntity
  8
GRAU_10_
 62
     7
100
AcDbVertex
100
AcDb2dVertex
 10
162.5878468860674
 20
192.1127525018853
 30
0.0
  0
VERTEX
  5
40D
330
40B
100
AcDbEntity
  8
GRAU_10_
 62
     7
100
AcDbVertex
100
AcDb2dVertex
 10
162.5878468860674
 20
190.0609969468424
 30
0.0
  0
VERTEX
  5
40E
330
40B
100
AcDbEntity
  8
GRAU_10_
 62
     7
100
AcDbVertex
100
AcDb2dVertex
 10
162.5878468860674
 20
188.137652502879
 30
0.0
  0
SEQEND
  5
40F
330
40B
100
AcDbEntity
  8
GRAU_10_
 62
     7
  0
POLYLINE
  5
410
330
1F
100
AcDbEntity
  8
GRAU_10_
 62
     7
100
AcDb2dPolyline
 66
     1
 10
0.0
 20
0.0
 30
0.0
  0
VERTEX
  5
411
330
410
100
AcDbEntity
  8
GRAU_10_
 62
     7
100
AcDbVertex
100
AcDb2dVertex
 10
160.5883024421226
 20
169.9311441740972
 30
0.0
  0
VERTEX
  5
412
330
410
100
AcDbEntity
  8
GRAU_10_
 62
     7
100
AcDbVertex
100
AcDb2dVertex
 10
162.5878468860674
 20
169.9311441740972
 30
0.0
  0
SEQEND
  5
413
330
410
100
AcDbEntity
  8
GRAU_10_
 62
     7
  0
POLYLINE
  5
414
330
1F
100
AcDbEntity
  8
GRAU_10_
 62
     7
100
AcDb2dPolyline
 66
     1
 10
0.0
 20
0.0
 30
0.0
  0
VERTEX
  5
415
330
414
100
AcDbEntity
  8
GRAU_10_
 62
     7
100
AcDbVertex
100
AcDb2dVertex
 10
160.5883024421226
 20
173.9065969508812
 30
0.0
  0
VERTEX
  5
416
330
414
100
AcDbEntity
  8
GRAU_10_
 62
     7
100
AcDbVertex
100
AcDb2dVertex
 10
162.5878468860674
 20
173.9065969508812
 30
0.0
  0
VERTEX
  5
417
330
414
100
AcDbEntity
  8
GRAU_10_
 62
     7
100
AcDbVertex
100
AcDb2dVertex
 10
162.5878468860674
 20
171.9836052846949
 30
0.0
  0
VERTEX
  5
418
330
414
100
AcDbEntity
  8
GRAU_10_
 62
     7
100
AcDbVertex
100
AcDb2dVertex
 10
162.5878468860674
 20
169.9311441740972
 30
0.0
  0
SEQEND
  5
419
330
414
100
AcDbEntity
  8
GRAU_10_
 62
     7
  0
POLYLINE
  5
41A
330
1F
100
AcDbEntity
  8
GRAU_10_
 62
     7
100
AcDb2dPolyline
 66
     1
 10
0.0
 20
0.0
 30
0.0
  0
VERTEX
  5
41B
330
41A
100
AcDbEntity
  8
GRAU_10_
 62
     7
100
AcDbVertex
100
AcDb2dVertex
 10
160.5883024421226
 20
167.0552997303717
 30
0.0
  0
VERTEX
  5
41C
330
41A
100
AcDbEntity
  8
GRAU_10_
 62
     7
100
AcDbVertex
100
AcDb2dVertex
 10
162.5878468860674
 20
167.0552997303717
 30
0.0
  0
VERTEX
  5
41D
330
41A
100
AcDbEntity
  8
GRAU_10_
 62
     7
100
AcDbVertex
100
AcDb2dVertex
 10
162.5878468860674
 20
167.7936636190756
 30
0.0
  0
VERTEX
  5
41E
330
41A
100
AcDbEntity
  8
GRAU_10_
 62
     7
100
AcDbVertex
100
AcDb2dVertex
 10
162.5878468860674
 20
168.7574525077235
 30
0.0
  0
VERTEX
  5
41F
330
41A
100
AcDbEntity
  8
GRAU_10_
 62
     7
100
AcDbVertex
100
AcDb2dVertex
 10
162.5878468860674
 20
169.9311441740972
 30
0.0
  0
SEQEND
  5
420
330
41A
100
AcDbEntity
  8
GRAU_10_
 62
     7
  0
POLYLINE
  5
421
330
1F
100
AcDbEntity
  8
GRAU_10_
 62
     7
100
AcDb2dPolyline
 66
     1
 10
0.0
 20
0.0
 30
0.0
  0
VERTEX
  5
422
330
421
100
AcDbEntity
  8
GRAU_10_
 62
     7
100
AcDbVertex
100
AcDb2dVertex
 10
160.5883024421226
 20
190.5224302800604
 30
0.0
  0
VERTEX
  5
423
330
421
100
AcDbEntity
  8
GRAU_10_
 62
     7
100
AcDbVertex
100
AcDb2dVertex
 10
160.3381829977407
 20
190.5224302800604
 30
0.0
  0
SEQEND
  5
424
330
421
100
AcDbEntity
  8
GRAU_10_
 62
     7
  0
POLYLINE
  5
425
330
1F
100
AcDbEntity
  8
GRAU_10_
 62
     7
100
AcDb2dPolyline
 66
     1
 10
0.0
 20
0.0
 30
0.0
  0
VERTEX
  5
426
330
425
100
AcDbEntity
  8
GRAU_10_
 62
     7
100
AcDbVertex
100
AcDb2dVertex
 10
159.8382968867548
 20
190.5224302800604
 30
0.0
  0
VERTEX
  5
427
330
425
100
AcDbEntity
  8
GRAU_10_
 62
     7
100
AcDbVertex
100
AcDb2dVertex
 10
159.5881774423729
 20
190.5224302800604
 30
0.0
  0
SEQEND
  5
428
330
425
100
AcDbEntity
  8
GRAU_10_
 62
     7
  0
POLYLINE
  5
429
330
1F
100
AcDbEntity
  8
GRAU_10_
 62
     7
100
AcDb2dPolyline
 66
     1
 10
0.0
 20
0.0
 30
0.0
  0
VERTEX
  5
42A
330
429
100
AcDbEntity
  8
GRAU_10_
 62
     7
100
AcDbVertex
100
AcDb2dVertex
 10
159.5881774423729
 20
171.5221719514773
 30
0.0
  0
VERTEX
  5
42B
330
429
100
AcDbEntity
  8
GRAU_10_
 62
     7
100
AcDbVertex
100
AcDb2dVertex
 10
159.8382968867548
 20
171.5221719514773
 30
0.0
  0
SEQEND
  5
42C
330
429
100
AcDbEntity
  8
GRAU_10_
 62
     7
  0
POLYLINE
  5
42D
330
1F
100
AcDbEntity
  8
GRAU_10_
 62
     7
100
AcDb2dPolyline
 66
     1
 10
0.0
 20
0.0
 30
0.0
  0
VERTEX
  5
42E
330
42D
100
AcDbEntity
  8
GRAU_10_
 62
     7
100
AcDbVertex
100
AcDb2dVertex
 10
160.3381829977407
 20
171.5221719514773
 30
0.0
  0
VERTEX
  5
42F
330
42D
100
AcDbEntity
  8
GRAU_10_
 62
     7
100
AcDbVertex
100
AcDb2dVertex
 10
160.5883024421226
 20
171.5221719514773
 30
0.0
  0
SEQEND
  5
430
330
42D
100
AcDbEntity
  8
GRAU_10_
 62
     7
  0
POLYLINE
  5
431
330
1F
100
AcDbEntity
  8
GRAU_10_
 62
     7
100
AcDb2dPolyline
 66
     1
 10
0.0
 20
0.0
 30
0.0
  0
VERTEX
  5
432
330
431
100
AcDbEntity
  8
GRAU_10_
 62
     7
100
AcDbVertex
100
AcDb2dVertex
 10
160.5883024421226
 20
190.0310108357388
 30
0.0
  0
VERTEX
  5
433
330
431
100
AcDbEntity
  8
GRAU_10_
 62
     7
100
AcDbVertex
100
AcDb2dVertex
 10
161.0878357753311
 20
190.0310108357388
 30
0.0
  0
SEQEND
  5
434
330
431
100
AcDbEntity
  8
GRAU_10_
 62
     7
  0
POLYLINE
  5
435
330
1F
100
AcDbEntity
  8
GRAU_10_
 62
     7
100
AcDb2dPolyline
 66
     1
 10
0.0
 20
0.0
 30
0.0
  0
VERTEX
  5
436
330
435
100
AcDbEntity
  8
GRAU_10_
 62
     7
100
AcDbVertex
100
AcDb2dVertex
 10
162.0883135528589
 20
190.0310108357388
 30
0.0
  0
VERTEX
  5
437
330
435
100
AcDbEntity
  8
GRAU_10_
 62
     7
100
AcDbVertex
100
AcDb2dVertex
 10
162.5878468860674
 20
190.0310108357388
 30
0.0
  0
SEQEND
  5
438
330
435
100
AcDbEntity
  8
GRAU_10_
 62
     7
  0
POLYLINE
  5
439
330
1F
100
AcDbEntity
  8
GRAU_10_
 62
     7
100
AcDb2dPolyline
 66
     1
 10
0.0
 20
0.0
 30
0.0
  0
VERTEX
  5
43A
330
439
100
AcDbEntity
  8
GRAU_10_
 62
     7
100
AcDbVertex
100
AcDb2dVertex
 10
160.5883024421226
 20
172.0128858402434
 30
0.0
  0
VERTEX
  5
43B
330
439
100
AcDbEntity
  8
GRAU_10_
 62
     7
100
AcDbVertex
100
AcDb2dVertex
 10
161.0878357753311
 20
172.0128858402434
 30
0.0
  0
SEQEND
  5
43C
330
439
100
AcDbEntity
  8
GRAU_10_
 62
     7
  0
POLYLINE
  5
43D
330
1F
100
AcDbEntity
  8
GRAU_10_
 62
     7
100
AcDb2dPolyline
 66
     1
 10
0.0
 20
0.0
 30
0.0
  0
VERTEX
  5
43E
330
43D
100
AcDbEntity
  8
GRAU_10_
 62
     7
100
AcDbVertex
100
AcDb2dVertex
 10
162.0883135528589
 20
172.0128858402434
 30
0.0
  0
VERTEX
  5
43F
330
43D
100
AcDbEntity
  8
GRAU_10_
 62
     7
100
AcDbVertex
100
AcDb2dVertex
 10
162.5878468860674
 20
172.0128858402434
 30
0.0
  0
SEQEND
  5
440
330
43D
100
AcDbEntity
  8
GRAU_10_
 62
     7
  0
POLYLINE
  5
441
330
1F
100
AcDbEntity
  8
GRAU_10_
 62
     7
100
AcDb2dPolyline
 66
     1
 10
0.0
 20
0.0
 30
0.0
  0
VERTEX
  5
442
330
441
100
AcDbEntity
  8
GRAU_10_
 62
     7
100
AcDbVertex
100
AcDb2dVertex
 10
160.5883024421226
 20
182.9158358375176
 30
0.0
  0
VERTEX
  5
443
330
441
100
AcDbEntity
  8
GRAU_10_
 62
     7
100
AcDbVertex
100
AcDb2dVertex
 10
161.0878357753311
 20
182.9158358375176
 30
0.0
  0
SEQEND
  5
444
330
441
100
AcDbEntity
  8
GRAU_10_
 62
     7
  0
POLYLINE
  5
445
330
1F
100
AcDbEntity
  8
GRAU_10_
 62
     7
100
AcDb2dPolyline
 66
     1
 10
0.0
 20
0.0
 30
0.0
  0
VERTEX
  5
446
330
445
100
AcDbEntity
  8
GRAU_10_
 62
     7
100
AcDbVertex
100
AcDb2dVertex
 10
162.0883135528589
 20
182.9158358375176
 30
0.0
  0
VERTEX
  5
447
330
445
100
AcDbEntity
  8
GRAU_10_
 62
     7
100
AcDbVertex
100
AcDb2dVertex
 10
162.5878468860674
 20
182.9158358375176
 30
0.0
  0
SEQEND
  5
448
330
445
100
AcDbEntity
  8
GRAU_10_
 62
     7
  0
POLYLINE
  5
449
330
1F
100
AcDbEntity
  8
GRAU_10_
 62
     7
100
AcDb2dPolyline
 66
     1
 10
0.0
 20
0.0
 30
0.0
  0
VERTEX
  5
44A
330
449
100
AcDbEntity
  8
GRAU_10_
 62
     7
100
AcDbVertex
100
AcDb2dVertex
 10
160.5883024421226
 20
179.1287663940201
 30
0.0
  0
VERTEX
  5
44B
330
449
100
AcDbEntity
  8
GRAU_10_
 62
     7
100
AcDbVertex
100
AcDb2dVertex
 10
161.0878357753311
 20
179.1287663940201
 30
0.0
  0
SEQEND
  5
44C
330
449
100
AcDbEntity
  8
GRAU_10_
 62
     7
  0
POLYLINE
  5
44D
330
1F
100
AcDbEntity
  8
GRAU_10_
 62
     7
100
AcDb2dPolyline
 66
     1
 10
0.0
 20
0.0
 30
0.0
  0
VERTEX
  5
44E
330
44D
100
AcDbEntity
  8
GRAU_10_
 62
     7
100
AcDbVertex
100
AcDb2dVertex
 10
162.0883135528589
 20
179.1287663940201
 30
0.0
  0
VERTEX
  5
44F
330
44D
100
AcDbEntity
  8
GRAU_10_
 62
     7
100
AcDbVertex
100
AcDb2dVertex
 10
162.5878468860674
 20
179.1287663940201
 30
0.0
  0
SEQEND
  5
450
330
44D
100
AcDbEntity
  8
GRAU_10_
 62
     7
  0
POLYLINE
  5
451
330
1F
100
AcDbEntity
  8
GRAU_10_
 62
     7
100
AcDb2dPolyline
 66
     1
 10
0.0
 20
0.0
 30
0.0
  0
VERTEX
  5
452
330
451
100
AcDbEntity
  8
GRAU_10_
 62
     7
100
AcDbVertex
100
AcDb2dVertex
 10
157.387902442923
 20
208.5218580533383
 30
0.0
  0
VERTEX
  5
453
330
451
100
AcDbEntity
  8
GRAU_10_
 62
     7
100
AcDbVertex
100
AcDb2dVertex
 10
135.5883524483726
 20
208.5218580533383
 30
0.0
  0
SEQEND
  5
454
330
451
100
AcDbEntity
  8
GRAU_10_
 62
     7
  0
POLYLINE
  5
455
330
1F
100
AcDbEntity
  8
GRAU_10_
 62
     7
100
AcDb2dPolyline
 66
     1
 10
0.0
 20
0.0
 30
0.0
  0
VERTEX
  5
456
330
455
100
AcDbEntity
  8
GRAU_10_
 62
     7
100
AcDbVertex
100
AcDb2dVertex
 10
157.387902442923
 20
208.5218580533383
 30
0.0
  0
VERTEX
  5
457
330
455
100
AcDbEntity
  8
GRAU_10_
 62
     7
100
AcDbVertex
100
AcDb2dVertex
 10
157.387902442923
 20
207.8688663868347
 30
0.0
  0
SEQEND
  5
458
330
455
100
AcDbEntity
  8
GRAU_10_
 62
     7
  0
POLYLINE
  5
459
330
1F
100
AcDbEntity
  8
GRAU_10_
 62
     7
100
AcDb2dPolyline
 66
     1
 10
0.0
 20
0.0
 30
0.0
  0
VERTEX
  5
45A
330
459
100
AcDbEntity
  8
GRAU_10_
 62
     7
100
AcDbVertex
100
AcDb2dVertex
 10
135.5883524483726
 20
207.8688663868347
 30
0.0
  0
VERTEX
  5
45B
330
459
100
AcDbEntity
  8
GRAU_10_
 62
     7
100
AcDbVertex
100
AcDb2dVertex
 10
135.5883524483726
 20
208.5218580533383
 30
0.0
  0
SEQEND
  5
45C
330
459
100
AcDbEntity
  8
GRAU_10_
 62
     7
  0
POLYLINE
  5
45D
330
1F
100
AcDbEntity
  8
GRAU_10_
 62
     7
100
AcDb2dPolyline
 66
     1
 10
0.0
 20
0.0
 30
0.0
  0
VERTEX
  5
45E
330
45D
100
AcDbEntity
  8
GRAU_10_
 62
     7
100
AcDbVertex
100
AcDb2dVertex
 10
142.2054052244963
 20
201.5220413884214
 30
0.0
  0
VERTEX
  5
45F
330
45D
100
AcDbEntity
  8
GRAU_10_
 62
     7
100
AcDbVertex
100
AcDb2dVertex
 10
142.2054052244963
 20
201.2722747218176
 30
0.0
  0
SEQEND
  5
460
330
45D
100
AcDbEntity
  8
GRAU_10_
 62
     7
  0
POLYLINE
  5
461
330
1F
100
AcDbEntity
  8
GRAU_10_
 62
     7
100
AcDb2dPolyline
 66
     1
 10
0.0
 20
0.0
 30
0.0
  0
VERTEX
  5
462
330
461
100
AcDbEntity
  8
GRAU_10_
 62
     7
100
AcDbVertex
100
AcDb2dVertex
 10
142.2054052244963
 20
200.7720358330536
 30
0.0
  0
VERTEX
  5
463
330
461
100
AcDbEntity
  8
GRAU_10_
 62
     7
100
AcDbVertex
100
AcDb2dVertex
 10
142.2054052244963
 20
200.5222691664495
 30
0.0
  0
SEQEND
  5
464
330
461
100
AcDbEntity
  8
GRAU_10_
 62
     7
  0
POLYLINE
  5
465
330
1F
100
AcDbEntity
  8
GRAU_10_
 62
     7
100
AcDb2dPolyline
 66
     1
 10
0.0
 20
0.0
 30
0.0
  0
VERTEX
  5
466
330
465
100
AcDbEntity
  8
GRAU_10_
 62
     7
100
AcDbVertex
100
AcDb2dVertex
 10
150.7708496667993
 20
200.5222691664495
 30
0.0
  0
VERTEX
  5
467
330
465
100
AcDbEntity
  8
GRAU_10_
 62
     7
100
AcDbVertex
100
AcDb2dVertex
 10
150.7708496667993
 20
200.7720358330536
 30
0.0
  0
SEQEND
  5
468
330
465
100
AcDbEntity
  8
GRAU_10_
 62
     7
  0
POLYLINE
  5
469
330
1F
100
AcDbEntity
  8
GRAU_10_
 62
     7
100
AcDb2dPolyline
 66
     1
 10
0.0
 20
0.0
 30
0.0
  0
VERTEX
  5
46A
330
469
100
AcDbEntity
  8
GRAU_10_
 62
     7
100
AcDbVertex
100
AcDb2dVertex
 10
150.7708496667993
 20
201.2722747218176
 30
0.0
  0
VERTEX
  5
46B
330
469
100
AcDbEntity
  8
GRAU_10_
 62
     7
100
AcDbVertex
100
AcDb2dVertex
 10
150.7708496667993
 20
201.5220413884214
 30
0.0
  0
SEQEND
  5
46C
330
469
100
AcDbEntity
  8
GRAU_10_
 62
     7
  0
POLYLINE
  5
46D
330
1F
100
AcDbEntity
  8
GRAU_10_
 62
     7
100
AcDb2dPolyline
 66
     1
 10
0.0
 20
0.0
 30
0.0
  0
VERTEX
  5
46E
330
46D
100
AcDbEntity
  8
GRAU_10_
 62
     7
100
AcDbVertex
100
AcDb2dVertex
 10
142.2054052244963
 20
200.5222691664495
 30
0.0
  0
VERTEX
  5
46F
330
46D
100
AcDbEntity
  8
GRAU_10_
 62
     7
100
AcDbVertex
100
AcDb2dVertex
 10
142.3616857800129
 20
200.5222691664495
 30
0.0
  0
VERTEX
  5
470
330
46D
100
AcDbEntity
  8
GRAU_10_
 62
     7
100
AcDbVertex
100
AcDb2dVertex
 10
142.7761996687979
 20
200.5222691664495
 30
0.0
  0
SEQEND
  5
471
330
46D
100
AcDbEntity
  8
GRAU_10_
 62
     7
  0
POLYLINE
  5
472
330
1F
100
AcDbEntity
  8
GRAU_10_
 62
     7
100
AcDb2dPolyline
 66
     1
 10
0.0
 20
0.0
 30
0.0
  0
VERTEX
  5
473
330
472
100
AcDbEntity
  8
GRAU_10_
 62
     7
100
AcDbVertex
100
AcDb2dVertex
 10
143.9170830018461
 20
200.5222691664495
 30
0.0
  0
VERTEX
  5
474
330
472
100
AcDbEntity
  8
GRAU_10_
 62
     7
100
AcDbVertex
100
AcDb2dVertex
 10
144.4882302239254
 20
200.5222691664495
 30
0.0
  0
SEQEND
  5
475
330
472
100
AcDbEntity
  8
GRAU_10_
 62
     7
  0
POLYLINE
  5
476
330
1F
100
AcDbEntity
  8
GRAU_10_
 62
     7
100
AcDb2dPolyline
 66
     1
 10
0.0
 20
0.0
 30
0.0
  0
VERTEX
  5
477
330
476
100
AcDbEntity
  8
GRAU_10_
 62
     7
100
AcDbVertex
100
AcDb2dVertex
 10
148.4883774451479
 20
200.5222691664495
 30
0.0
  0
VERTEX
  5
478
330
476
100
AcDbEntity
  8
GRAU_10_
 62
     7
100
AcDbVertex
100
AcDb2dVertex
 10
149.0591718894495
 20
200.5222691664495
 30
0.0
  0
SEQEND
  5
479
330
476
100
AcDbEntity
  8
GRAU_10_
 62
     7
  0
POLYLINE
  5
47A
330
1F
100
AcDbEntity
  8
GRAU_10_
 62
     7
100
AcDb2dPolyline
 66
     1
 10
0.0
 20
0.0
 30
0.0
  0
VERTEX
  5
47B
330
47A
100
AcDbEntity
  8
GRAU_10_
 62
     7
100
AcDbVertex
100
AcDb2dVertex
 10
150.2000552224977
 20
200.5222691664495
 30
0.0
  0
VERTEX
  5
47C
330
47A
100
AcDbEntity
  8
GRAU_10_
 62
     7
100
AcDbVertex
100
AcDb2dVertex
 10
150.6145691112827
 20
200.5222691664495
 30
0.0
  0
VERTEX
  5
47D
330
47A
100
AcDbEntity
  8
GRAU_10_
 62
     7
100
AcDbVertex
100
AcDb2dVertex
 10
150.7708496667993
 20
200.5222691664495
 30
0.0
  0
SEQEND
  5
47E
330
47A
100
AcDbEntity
  8
GRAU_10_
 62
     7
  0
POLYLINE
  5
47F
330
1F
100
AcDbEntity
  8
GRAU_10_
 62
     7
100
AcDb2dPolyline
 66
     1
 10
0.0
 20
0.0
 30
0.0
  0
VERTEX
  5
480
330
47F
100
AcDbEntity
  8
GRAU_10_
 62
     7
100
AcDbVertex
100
AcDb2dVertex
 10
148.4883774451479
 20
201.3297774995808
 30
0.0
  0
VERTEX
  5
481
330
47F
100
AcDbEntity
  8
GRAU_10_
 62
     7
100
AcDbVertex
100
AcDb2dVertex
 10
148.2551913340951
 20
201.2923830551455
 30
0.0
  0
VERTEX
  5
482
330
47F
100
AcDbEntity
  8
GRAU_10_
 62
     7
100
AcDbVertex
100
AcDb2dVertex
 10
148.016360778599
 20
201.2588691662652
 30
0.0
  0
VERTEX
  5
483
330
47F
100
AcDbEntity
  8
GRAU_10_
 62
     7
100
AcDbVertex
100
AcDb2dVertex
 10
147.9909607786053
 20
201.255694166266
 30
0.0
  0
SEQEND
  5
484
330
47F
100
AcDbEntity
  8
GRAU_10_
 62
     7
  0
POLYLINE
  5
485
330
1F
100
AcDbEntity
  8
GRAU_10_
 62
     7
100
AcDb2dPolyline
 66
     1
 10
0.0
 20
0.0
 30
0.0
  0
VERTEX
  5
486
330
485
100
AcDbEntity
  8
GRAU_10_
 62
     7
100
AcDbVertex
100
AcDb2dVertex
 10
146.9901302233002
 20
201.1703219440651
 30
0.0
  0
VERTEX
  5
487
330
485
100
AcDbEntity
  8
GRAU_10_
 62
     7
100
AcDbVertex
100
AcDb2dVertex
 10
146.7477718900275
 20
201.1622080551785
 30
0.0
  0
VERTEX
  5
488
330
485
100
AcDbEntity
  8
GRAU_10_
 62
     7
100
AcDbVertex
100
AcDb2dVertex
 10
146.488127445648
 20
201.1586802774015
 30
0.0
  0
VERTEX
  5
489
330
485
100
AcDbEntity
  8
GRAU_10_
 62
     7
100
AcDbVertex
100
AcDb2dVertex
 10
146.2284830012681
 20
201.1622080551785
 30
0.0
  0
VERTEX
  5
48A
330
485
100
AcDbEntity
  8
GRAU_10_
 62
     7
100
AcDbVertex
100
AcDb2dVertex
 10
145.9861246679954
 20
201.1703219440651
 30
0.0
  0
SEQEND
  5
48B
330
485
100
AcDbEntity
  8
GRAU_10_
 62
     7
  0
POLYLINE
  5
48C
330
1F
100
AcDbEntity
  8
GRAU_10_
 62
     7
100
AcDb2dPolyline
 66
     1
 10
0.0
 20
0.0
 30
0.0
  0
VERTEX
  5
48D
330
48C
100
AcDbEntity
  8
GRAU_10_
 62
     7
100
AcDbVertex
100
AcDb2dVertex
 10
144.9852941126902
 20
201.255694166266
 30
0.0
  0
VERTEX
  5
48E
330
48C
100
AcDbEntity
  8
GRAU_10_
 62
     7
100
AcDbVertex
100
AcDb2dVertex
 10
144.9598941126966
 20
201.2588691662652
 30
0.0
  0
VERTEX
  5
48F
330
48C
100
AcDbEntity
  8
GRAU_10_
 62
     7
100
AcDbVertex
100
AcDb2dVertex
 10
144.721769112756
 20
201.2923830551455
 30
0.0
  0
VERTEX
  5
490
330
48C
100
AcDbEntity
  8
GRAU_10_
 62
     7
100
AcDbVertex
100
AcDb2dVertex
 10
144.4882302239254
 20
201.3297774995808
 30
0.0
  0
SEQEND
  5
491
330
48C
100
AcDbEntity
  8
GRAU_10_
 62
     7
  0
POLYLINE
  5
492
330
1F
100
AcDbEntity
  8
GRAU_10_
 62
     7
100
AcDb2dPolyline
 66
     1
 10
0.0
 20
0.0
 30
0.0
  0
VERTEX
  5
493
330
492
100
AcDbEntity
  8
GRAU_10_
 62
     7
100
AcDbVertex
100
AcDb2dVertex
 10
142.2054052244963
 20
208.5218580533383
 30
0.0
  0
VERTEX
  5
494
330
492
100
AcDbEntity
  8
GRAU_10_
 62
     7
100
AcDbVertex
100
AcDb2dVertex
 10
142.2054052244963
 20
208.0844136090033
 30
0.0
  0
SEQEND
  5
495
330
492
100
AcDbEntity
  8
GRAU_10_
 62
     7
  0
POLYLINE
  5
496
330
1F
100
AcDbEntity
  8
GRAU_10_
 62
     7
100
AcDb2dPolyline
 66
     1
 10
0.0
 20
0.0
 30
0.0
  0
VERTEX
  5
497
330
496
100
AcDbEntity
  8
GRAU_10_
 62
     7
100
AcDbVertex
100
AcDb2dVertex
 10
142.2054052244963
 20
207.209877498111
 30
0.0
  0
VERTEX
  5
498
330
496
100
AcDbEntity
  8
GRAU_10_
 62
     7
100
AcDbVertex
100
AcDb2dVertex
 10
142.2054052244963
 20
206.3349886094404
 30
0.0
  0
SEQEND
  5
499
330
496
100
AcDbEntity
  8
GRAU_10_
 62
     7
  0
POLYLINE
  5
49A
330
1F
100
AcDbEntity
  8
GRAU_10_
 62
     7
100
AcDb2dPolyline
 66
     1
 10
0.0
 20
0.0
 30
0.0
  0
VERTEX
  5
49B
330
49A
100
AcDbEntity
  8
GRAU_10_
 62
     7
100
AcDbVertex
100
AcDb2dVertex
 10
142.2054052244963
 20
205.4597469429926
 30
0.0
  0
VERTEX
  5
49C
330
49A
100
AcDbEntity
  8
GRAU_10_
 62
     7
100
AcDbVertex
100
AcDb2dVertex
 10
142.2054052244963
 20
204.5848580543226
 30
0.0
  0
SEQEND
  5
49D
330
49A
100
AcDbEntity
  8
GRAU_10_
 62
     7
  0
POLYLINE
  5
49E
330
1F
100
AcDbEntity
  8
GRAU_10_
 62
     7
100
AcDb2dPolyline
 66
     1
 10
0.0
 20
0.0
 30
0.0
  0
VERTEX
  5
49F
330
49E
100
AcDbEntity
  8
GRAU_10_
 62
     7
100
AcDbVertex
100
AcDb2dVertex
 10
142.2054052244963
 20
203.7096163878748
 30
0.0
  0
VERTEX
  5
4A0
330
49E
100
AcDbEntity
  8
GRAU_10_
 62
     7
100
AcDbVertex
100
AcDb2dVertex
 10
142.2054052244963
 20
202.834374721427
 30
0.0
  0
SEQEND
  5
4A1
330
49E
100
AcDbEntity
  8
GRAU_10_
 62
     7
  0
POLYLINE
  5
4A2
330
1F
100
AcDbEntity
  8
GRAU_10_
 62
     7
100
AcDb2dPolyline
 66
     1
 10
0.0
 20
0.0
 30
0.0
  0
VERTEX
  5
4A3
330
4A2
100
AcDbEntity
  8
GRAU_10_
 62
     7
100
AcDbVertex
100
AcDb2dVertex
 10
142.2054052244963
 20
201.9594858327567
 30
0.0
  0
VERTEX
  5
4A4
330
4A2
100
AcDbEntity
  8
GRAU_10_
 62
     7
100
AcDbVertex
100
AcDb2dVertex
 10
142.2054052244963
 20
201.5220413884214
 30
0.0
  0
SEQEND
  5
4A5
330
4A2
100
AcDbEntity
  8
GRAU_10_
 62
     7
  0
POLYLINE
  5
4A6
330
1F
100
AcDbEntity
  8
GRAU_10_
 62
     7
100
AcDb2dPolyline
 66
     1
 10
0.0
 20
0.0
 30
0.0
  0
VERTEX
  5
4A7
330
4A6
100
AcDbEntity
  8
GRAU_10_
 62
     7
100
AcDbVertex
100
AcDb2dVertex
 10
150.7708496667993
 20
201.5220413884214
 30
0.0
  0
VERTEX
  5
4A8
330
4A6
100
AcDbEntity
  8
GRAU_10_
 62
     7
100
AcDbVertex
100
AcDb2dVertex
 10
150.7708496667993
 20
201.9594858327567
 30
0.0
  0
SEQEND
  5
4A9
330
4A6
100
AcDbEntity
  8
GRAU_10_
 62
     7
  0
POLYLINE
  5
4AA
330
1F
100
AcDbEntity
  8
GRAU_10_
 62
     7
100
AcDb2dPolyline
 66
     1
 10
0.0
 20
0.0
 30
0.0
  0
VERTEX
  5
4AB
330
4AA
100
AcDbEntity
  8
GRAU_10_
 62
     7
100
AcDbVertex
100
AcDb2dVertex
 10
150.7708496667993
 20
202.834374721427
 30
0.0
  0
VERTEX
  5
4AC
330
4AA
100
AcDbEntity
  8
GRAU_10_
 62
     7
100
AcDbVertex
100
AcDb2dVertex
 10
150.7708496667993
 20
203.7096163878748
 30
0.0
  0
SEQEND
  5
4AD
330
4AA
100
AcDbEntity
  8
GRAU_10_
 62
     7
  0
POLYLINE
  5
4AE
330
1F
100
AcDbEntity
  8
GRAU_10_
 62
     7
100
AcDb2dPolyline
 66
     1
 10
0.0
 20
0.0
 30
0.0
  0
VERTEX
  5
4AF
330
4AE
100
AcDbEntity
  8
GRAU_10_
 62
     7
100
AcDbVertex
100
AcDb2dVertex
 10
150.7708496667993
 20
204.5848580543226
 30
0.0
  0
VERTEX
  5
4B0
330
4AE
100
AcDbEntity
  8
GRAU_10_
 62
     7
100
AcDbVertex
100
AcDb2dVertex
 10
150.7708496667993
 20
205.4597469429926
 30
0.0
  0
SEQEND
  5
4B1
330
4AE
100
AcDbEntity
  8
GRAU_10_
 62
     7
  0
POLYLINE
  5
4B2
330
1F
100
AcDbEntity
  8
GRAU_10_
 62
     7
100
AcDb2dPolyline
 66
     1
 10
0.0
 20
0.0
 30
0.0
  0
VERTEX
  5
4B3
330
4B2
100
AcDbEntity
  8
GRAU_10_
 62
     7
100
AcDbVertex
100
AcDb2dVertex
 10
150.7708496667993
 20
206.3349886094404
 30
0.0
  0
VERTEX
  5
4B4
330
4B2
100
AcDbEntity
  8
GRAU_10_
 62
     7
100
AcDbVertex
100
AcDb2dVertex
 10
150.7708496667993
 20
207.209877498111
 30
0.0
  0
SEQEND
  5
4B5
330
4B2
100
AcDbEntity
  8
GRAU_10_
 62
     7
  0
POLYLINE
  5
4B6
330
1F
100
AcDbEntity
  8
GRAU_10_
 62
     7
100
AcDb2dPolyline
 66
     1
 10
0.0
 20
0.0
 30
0.0
  0
VERTEX
  5
4B7
330
4B6
100
AcDbEntity
  8
GRAU_10_
 62
     7
100
AcDbVertex
100
AcDb2dVertex
 10
150.7708496667993
 20
208.0844136090033
 30
0.0
  0
VERTEX
  5
4B8
330
4B6
100
AcDbEntity
  8
GRAU_10_
 62
     7
100
AcDbVertex
100
AcDb2dVertex
 10
150.7708496667993
 20
208.5218580533383
 30
0.0
  0
SEQEND
  5
4B9
330
4B6
100
AcDbEntity
  8
GRAU_10_
 62
     7
  0
POLYLINE
  5
4BB
330
1F
100
AcDbEntity
  8
STANDARDEBENE
 62
   250
100
AcDb2dPolyline
 66
     1
 10
0.0
 20
0.0
 30
0.0
  0
VERTEX
  5
4BC
330
4BB
100
AcDbEntity
  8
STANDARDEBENE
 62
   250
100
AcDbVertex
100
AcDb2dVertex
 10
135.5883524483726
 20
202.7648774992221
 30
0.0
  0
VERTEX
  5
4BD
330
4BB
100
AcDbEntity
  8
STANDARDEBENE
 62
   250
100
AcDbVertex
100
AcDb2dVertex
 10
157.387902442923
 20
202.7648774992221
 30
0.0
  0
VERTEX
  5
4BE
330
4BB
100
AcDbEntity
  8
STANDARDEBENE
 62
   250
100
AcDbVertex
100
AcDb2dVertex
 10
156.8926024430467
 20
202.7648774992221
 30
0.0
  0
SEQEND
  5
4BF
330
4BB
100
AcDbEntity
  8
STANDARDEBENE
 62
   250
  0
POLYLINE
  5
4C0
330
1F
100
AcDbEntity
  8
STANDARDEBENE
 62
   155
100
AcDb2dPolyline
 66
     1
 10
0.0
 20
0.0
 30
0.0
  0
VERTEX
  5
4C1
330
4C0
100
AcDbEntity
  8
STANDARDEBENE
 62
   155
100
AcDbVertex
100
AcDb2dVertex
 10
155.9020024432943
 20
202.7648774992221
 30
0.0
  0
VERTEX
  5
4C2
330
4C0
100
AcDbEntity
  8
STANDARDEBENE
 62
   155
100
AcDbVertex
100
AcDb2dVertex
 10
154.9106968879867
 20
202.7648774992221
 30
0.0
  0
SEQEND
  5
4C3
330
4C0
100
AcDbEntity
  8
STANDARDEBENE
 62
   155
  0
POLYLINE
  5
4C4
330
1F
100
AcDbEntity
  8
STANDARDEBENE
 62
   155
100
AcDb2dPolyline
 66
     1
 10
0.0
 20
0.0
 30
0.0
  0
VERTEX
  5
4C5
330
4C4
100
AcDbEntity
  8
STANDARDEBENE
 62
   155
100
AcDbVertex
100
AcDb2dVertex
 10
153.9200968882344
 20
202.7648774992221
 30
0.0
  0
VERTEX
  5
4C6
330
4C4
100
AcDbEntity
  8
STANDARDEBENE
 62
   155
100
AcDbVertex
100
AcDb2dVertex
 10
152.9287913329265
 20
202.7648774992221
 30
0.0
  0
SEQEND
  5
4C7
330
4C4
100
AcDbEntity
  8
STANDARDEBENE
 62
   155
  0
POLYLINE
  5
4C8
330
1F
100
AcDbEntity
  8
STANDARDEBENE
 62
   155
100
AcDb2dPolyline
 66
     1
 10
0.0
 20
0.0
 30
0.0
  0
VERTEX
  5
4C9
330
4C8
100
AcDbEntity
  8
STANDARDEBENE
 62
   155
100
AcDbVertex
100
AcDb2dVertex
 10
151.9381913331742
 20
202.7648774992221
 30
0.0
  0
VERTEX
  5
4CA
330
4C8
100
AcDbEntity
  8
STANDARDEBENE
 62
   155
100
AcDbVertex
100
AcDb2dVertex
 10
150.9468857778663
 20
202.7648774992221
 30
0.0
  0
SEQEND
  5
4CB
330
4C8
100
AcDbEntity
  8
STANDARDEBENE
 62
   155
  0
POLYLINE
  5
4CC
330
1F
100
AcDbEntity
  8
STANDARDEBENE
 62
   155
100
AcDb2dPolyline
 66
     1
 10
0.0
 20
0.0
 30
0.0
  0
VERTEX
  5
4CD
330
4CC
100
AcDbEntity
  8
STANDARDEBENE
 62
   155
100
AcDbVertex
100
AcDb2dVertex
 10
149.9566385558917
 20
202.7648774992221
 30
0.0
  0
VERTEX
  5
4CE
330
4CC
100
AcDbEntity
  8
STANDARDEBENE
 62
   155
100
AcDbVertex
100
AcDb2dVertex
 10
148.9653330005842
 20
202.7648774992221
 30
0.0
  0
SEQEND
  5
4CF
330
4CC
100
AcDbEntity
  8
STANDARDEBENE
 62
   155
  0
POLYLINE
  5
4D0
330
1F
100
AcDbEntity
  8
STANDARDEBENE
 62
   155
100
AcDb2dPolyline
 66
     1
 10
0.0
 20
0.0
 30
0.0
  0
VERTEX
  5
4D1
330
4D0
100
AcDbEntity
  8
STANDARDEBENE
 62
   155
100
AcDbVertex
100
AcDb2dVertex
 10
147.9747330008318
 20
202.7648774992221
 30
0.0
  0
VERTEX
  5
4D2
330
4D0
100
AcDbEntity
  8
STANDARDEBENE
 62
   155
100
AcDbVertex
100
AcDb2dVertex
 10
146.983427445524
 20
202.7648774992221
 30
0.0
  0
SEQEND
  5
4D3
330
4D0
100
AcDbEntity
  8
STANDARDEBENE
 62
   155
  0
POLYLINE
  5
4D4
330
1F
100
AcDbEntity
  8
STANDARDEBENE
 62
   155
100
AcDb2dPolyline
 66
     1
 10
0.0
 20
0.0
 30
0.0
  0
VERTEX
  5
4D5
330
4D4
100
AcDbEntity
  8
STANDARDEBENE
 62
   155
100
AcDbVertex
100
AcDb2dVertex
 10
145.9928274457716
 20
202.7648774992221
 30
0.0
  0
VERTEX
  5
4D6
330
4D4
100
AcDbEntity
  8
STANDARDEBENE
 62
   155
100
AcDbVertex
100
AcDb2dVertex
 10
145.0015218904641
 20
202.7648774992221
 30
0.0
  0
SEQEND
  5
4D7
330
4D4
100
AcDbEntity
  8
STANDARDEBENE
 62
   155
  0
POLYLINE
  5
4D8
330
1F
100
AcDbEntity
  8
STANDARDEBENE
 62
   155
100
AcDb2dPolyline
 66
     1
 10
0.0
 20
0.0
 30
0.0
  0
VERTEX
  5
4D9
330
4D8
100
AcDbEntity
  8
STANDARDEBENE
 62
   155
100
AcDbVertex
100
AcDb2dVertex
 10
144.0109218907114
 20
202.7648774992221
 30
0.0
  0
VERTEX
  5
4DA
330
4D8
100
AcDbEntity
  8
STANDARDEBENE
 62
   155
100
AcDbVertex
100
AcDb2dVertex
 10
143.0196163354038
 20
202.7648774992221
 30
0.0
  0
SEQEND
  5
4DB
330
4D8
100
AcDbEntity
  8
STANDARDEBENE
 62
   155
  0
POLYLINE
  5
4DC
330
1F
100
AcDbEntity
  8
STANDARDEBENE
 62
   155
100
AcDb2dPolyline
 66
     1
 10
0.0
 20
0.0
 30
0.0
  0
VERTEX
  5
4DD
330
4DC
100
AcDbEntity
  8
STANDARDEBENE
 62
   155
100
AcDbVertex
100
AcDb2dVertex
 10
142.0290163356515
 20
202.7648774992221
 30
0.0
  0
VERTEX
  5
4DE
330
4DC
100
AcDbEntity
  8
STANDARDEBENE
 62
   155
100
AcDbVertex
100
AcDb2dVertex
 10
141.0380635581214
 20
202.7648774992221
 30
0.0
  0
SEQEND
  5
4DF
330
4DC
100
AcDbEntity
  8
STANDARDEBENE
 62
   155
  0
POLYLINE
  5
4E0
330
1F
100
AcDbEntity
  8
STANDARDEBENE
 62
   155
100
AcDb2dPolyline
 66
     1
 10
0.0
 20
0.0
 30
0.0
  0
VERTEX
  5
4E1
330
4E0
100
AcDbEntity
  8
STANDARDEBENE
 62
   155
100
AcDbVertex
100
AcDb2dVertex
 10
140.047463558369
 20
202.7648774992221
 30
0.0
  0
VERTEX
  5
4E2
330
4E0
100
AcDbEntity
  8
STANDARDEBENE
 62
   155
100
AcDbVertex
100
AcDb2dVertex
 10
139.0561580030615
 20
202.7648774992221
 30
0.0
  0
SEQEND
  5
4E3
330
4E0
100
AcDbEntity
  8
STANDARDEBENE
 62
   155
  0
POLYLINE
  5
4E4
330
1F
100
AcDbEntity
  8
STANDARDEBENE
 62
   250
100
AcDb2dPolyline
 66
     1
 10
0.0
 20
0.0
 30
0.0
  0
VERTEX
  5
4E5
330
4E4
100
AcDbEntity
  8
STANDARDEBENE
 62
   250
100
AcDbVertex
100
AcDb2dVertex
 10
138.0655580033091
 20
202.7648774992221
 30
0.0
  0
VERTEX
  5
4E6
330
4E4
100
AcDbEntity
  8
STANDARDEBENE
 62
   250
100
AcDbVertex
100
AcDb2dVertex
 10
137.0742524480013
 20
202.7648774992221
 30
0.0
  0
SEQEND
  5
4E7
330
4E4
100
AcDbEntity
  8
STANDARDEBENE
 62
   250
  0
POLYLINE
  5
4E8
330
1F
100
AcDbEntity
  8
STANDARDEBENE
 62
   155
100
AcDb2dPolyline
 66
     1
 10
0.0
 20
0.0
 30
0.0
  0
VERTEX
  5
4E9
330
4E8
100
AcDbEntity
  8
STANDARDEBENE
 62
   155
100
AcDbVertex
100
AcDb2dVertex
 10
136.0836524482489
 20
202.7648774992221
 30
0.0
  0
VERTEX
  5
4EA
330
4E8
100
AcDbEntity
  8
STANDARDEBENE
 62
   155
100
AcDbVertex
100
AcDb2dVertex
 10
135.5883524483726
 20
202.7648774992221
 30
0.0
  0
SEQEND
  5
4EB
330
4E8
100
AcDbEntity
  8
STANDARDEBENE
 62
   155
  0
POLYLINE
  5
4ED
330
1F
100
AcDbEntity
  8
BEMA_U_00DFUNG
 62
     7
100
AcDb2dPolyline
 66
     1
 10
0.0
 20
0.0
 30
0.0
  0
VERTEX
  5
4EE
330
4ED
100
AcDbEntity
  8
BEMA_U_00DFUNG
 62
     7
100
AcDbVertex
100
AcDb2dVertex
 10
44.97599165542267
 20
181.0221247268801
 30
0.0
  0
VERTEX
  5
4EF
330
4ED
100
AcDbEntity
  8
BEMA_U_00DFUNG
 62
     7
100
AcDbVertex
100
AcDb2dVertex
 10
44.97599165542267
 20
219.894122589502
 30
0.0
  0
SEQEND
  5
4F0
330
4ED
100
AcDbEntity
  8
BEMA_U_00DFUNG
 62
     7
  0
POLYLINE
  5
4F1
330
1F
100
AcDbEntity
  8
BEMA_U_00DFUNG
 62
     7
100
AcDb2dPolyline
 66
     1
 10
0.0
 20
0.0
 30
0.0
  0
VERTEX
  5
4F2
330
4F1
100
AcDbEntity
  8
BEMA_U_00DFUNG
 62
     7
100
AcDbVertex
100
AcDb2dVertex
 10
90.97574442170051
 20
181.0221247268801
 30
0.0
  0
VERTEX
  5
4F3
330
4F1
100
AcDbEntity
  8
BEMA_U_00DFUNG
 62
     7
100
AcDbVertex
100
AcDb2dVertex
 10
90.97574442170051
 20
219.894122589502
 30
0.0
  0
SEQEND
  5
4F4
330
4F1
100
AcDbEntity
  8
BEMA_U_00DFUNG
 62
     7
  0
POLYLINE
  5
4F5
330
1F
100
AcDbEntity
  8
BEMA_U_00DFUNG
 62
     7
100
AcDb2dPolyline
 66
     1
 10
0.0
 20
0.0
 30
0.0
  0
VERTEX
  5
4F6
330
4F5
100
AcDbEntity
  8
BEMA_U_00DFUNG
 62
     7
100
AcDbVertex
100
AcDb2dVertex
 10
44.97599165542267
 20
217.893872590002
 30
0.0
  0
VERTEX
  5
4F7
330
4F5
100
AcDbEntity
  8
BEMA_U_00DFUNG
 62
     7
100
AcDbVertex
100
AcDb2dVertex
 10
90.97574442170051
 20
217.893872590002
 30
0.0
  0
SEQEND
  5
4F8
330
4F5
100
AcDbEntity
  8
BEMA_U_00DFUNG
 62
     7
  0
POLYLINE
  5
4F9
330
1F
100
AcDbEntity
  8
BEMA_U_00DFUNG
 62
     7
100
AcDb2dPolyline
 66
     1
 10
0.0
 20
0.0
 30
0.0
  0
VERTEX
  5
4FA
330
4F9
100
AcDbEntity
  8
BEMA_U_00DFUNG
 62
     7
100
AcDbVertex
100
AcDb2dVertex
 10
44.97599165542267
 20
217.893872590002
 30
0.0
  0
VERTEX
  5
4FB
330
4F9
100
AcDbEntity
  8
BEMA_U_00DFUNG
 62
     7
100
AcDbVertex
100
AcDb2dVertex
 10
48.47554721010336
 20
217.4331448123399
 30
0.0
  0
VERTEX
  5
4FC
330
4F9
100
AcDbEntity
  8
BEMA_U_00DFUNG
 62
     7
100
AcDbVertex
100
AcDb2dVertex
 10
48.47554721010336
 20
218.3542475898871
 30
0.0
  0
VERTEX
  5
4FD
330
4F9
100
AcDbEntity
  8
BEMA_U_00DFUNG
 62
     7
100
AcDbVertex
100
AcDb2dVertex
 10
44.97599165542267
 20
217.893872590002
 30
0.0
  0
SEQEND
  5
4FF
330
4F9
100
AcDbEntity
  8
BEMA_U_00DFUNG
 62
     7
  0
HATCH
  5
4FE
330
1F
100
AcDbEntity
  8
BEMA_U_00DFUNG
 62
     7
100
AcDbHatch
 10
0.0
 20
0.0
 30
0.0
210
0.0
220
0.0
230
1.0
  2
SOLID
 70
     1
 71
     0
 91
        1
 92
        1
 93
        3
 72
     1
 10
44.97599165542267
 20
217.893872590002
 11
48.47554721010336
 21
217.4331448123399
 72
     1
 10
48.47554721010336
 20
217.4331448123399
 11
48.47554721010336
 21
218.3542475898871
 72
     1
 10
48.47554721010336
 20
218.3542475898871
 11
44.97599165542267
 21
217.8938725900021
 97
        0
 75
     0
 76
     1
 98
        0
  0
POLYLINE
  5
500
330
1F
100
AcDbEntity
  8
BEMA_U_00DFUNG
 62
     7
100
AcDb2dPolyline
 66
     1
 10
0.0
 20
0.0
 30
0.0
  0
VERTEX
  5
501
330
500
100
AcDbEntity
  8
BEMA_U_00DFUNG
 62
     7
100
AcDbVertex
100
AcDb2dVertex
 10
48.47554721010336
 20
217.4366725901166
 30
0.0
  0
VERTEX
  5
502
330
500
100
AcDbEntity
  8
BEMA_U_00DFUNG
 62
     7
100
AcDbVertex
100
AcDb2dVertex
 10
48.4483833212215
 20
217.4366725901166
 30
0.0
  0
SEQEND
  5
503
330
500
100
AcDbEntity
  8
BEMA_U_00DFUNG
 62
     7
  0
POLYLINE
  5
504
330
1F
100
AcDbEntity
  8
BEMA_U_00DFUNG
 62
     7
100
AcDb2dPolyline
 66
     1
 10
0.0
 20
0.0
 30
0.0
  0
VERTEX
  5
505
330
504
100
AcDbEntity
  8
BEMA_U_00DFUNG
 62
     7
100
AcDbVertex
100
AcDb2dVertex
 10
48.47554721010336
 20
217.4366725901166
 30
0.0
  0
VERTEX
  5
506
330
504
100
AcDbEntity
  8
BEMA_U_00DFUNG
 62
     7
100
AcDbVertex
100
AcDb2dVertex
 10
48.4483833212215
 20
217.4366725901166
 30
0.0
  0
SEQEND
  5
507
330
504
100
AcDbEntity
  8
BEMA_U_00DFUNG
 62
     7
  0
POLYLINE
  5
508
330
1F
100
AcDbEntity
  8
BEMA_U_00DFUNG
 62
     7
100
AcDb2dPolyline
 66
     1
 10
0.0
 20
0.0
 30
0.0
  0
VERTEX
  5
509
330
508
100
AcDbEntity
  8
BEMA_U_00DFUNG
 62
     7
100
AcDbVertex
100
AcDb2dVertex
 10
48.47554721010336
 20
217.4874725901036
 30
0.0
  0
VERTEX
  5
50A
330
508
100
AcDbEntity
  8
BEMA_U_00DFUNG
 62
     7
100
AcDbVertex
100
AcDb2dVertex
 10
48.06279721020652
 20
217.4874725901036
 30
0.0
  0
SEQEND
  5
50B
330
508
100
AcDbEntity
  8
BEMA_U_00DFUNG
 62
     7
  0
POLYLINE
  5
50C
330
1F
100
AcDbEntity
  8
BEMA_U_00DFUNG
 62
     7
100
AcDb2dPolyline
 66
     1
 10
0.0
 20
0.0
 30
0.0
  0
VERTEX
  5
50D
330
50C
100
AcDbEntity
  8
BEMA_U_00DFUNG
 62
     7
100
AcDbVertex
100
AcDb2dVertex
 10
48.47554721010336
 20
217.538272590091
 30
0.0
  0
VERTEX
  5
50E
330
50C
100
AcDbEntity
  8
BEMA_U_00DFUNG
 62
     7
100
AcDbVertex
100
AcDb2dVertex
 10
47.67685832141409
 20
217.538272590091
 30
0.0
  0
SEQEND
  5
50F
330
50C
100
AcDbEntity
  8
BEMA_U_00DFUNG
 62
     7
  0
POLYLINE
  5
510
330
1F
100
AcDbEntity
  8
BEMA_U_00DFUNG
 62
     7
100
AcDb2dPolyline
 66
     1
 10
0.0
 20
0.0
 30
0.0
  0
VERTEX
  5
511
330
510
100
AcDbEntity
  8
BEMA_U_00DFUNG
 62
     7
100
AcDbVertex
100
AcDb2dVertex
 10
48.47554721010336
 20
217.5890725900784
 30
0.0
  0
VERTEX
  5
512
330
510
100
AcDbEntity
  8
BEMA_U_00DFUNG
 62
     7
100
AcDbVertex
100
AcDb2dVertex
 10
47.29056665484423
 20
217.5890725900784
 30
0.0
  0
SEQEND
  5
513
330
510
100
AcDbEntity
  8
BEMA_U_00DFUNG
 62
     7
  0
POLYLINE
  5
514
330
1F
100
AcDbEntity
  8
BEMA_U_00DFUNG
 62
     7
100
AcDb2dPolyline
 66
     1
 10
0.0
 20
0.0
 30
0.0
  0
VERTEX
  5
515
330
514
100
AcDbEntity
  8
BEMA_U_00DFUNG
 62
     7
100
AcDbVertex
100
AcDb2dVertex
 10
48.47554721010336
 20
217.6398725900658
 30
0.0
  0
VERTEX
  5
516
330
514
100
AcDbEntity
  8
BEMA_U_00DFUNG
 62
     7
100
AcDbVertex
100
AcDb2dVertex
 10
46.90462776605181
 20
217.6398725900658
 30
0.0
  0
SEQEND
  5
517
330
514
100
AcDbEntity
  8
BEMA_U_00DFUNG
 62
     7
  0
POLYLINE
  5
518
330
1F
100
AcDbEntity
  8
BEMA_U_00DFUNG
 62
     7
100
AcDb2dPolyline
 66
     1
 10
0.0
 20
0.0
 30
0.0
  0
VERTEX
  5
519
330
518
100
AcDbEntity
  8
BEMA_U_00DFUNG
 62
     7
100
AcDbVertex
100
AcDb2dVertex
 10
48.47554721010336
 20
217.6906725900532
 30
0.0
  0
VERTEX
  5
51A
330
518
100
AcDbEntity
  8
BEMA_U_00DFUNG
 62
     7
100
AcDbVertex
100
AcDb2dVertex
 10
46.51939443281459
 20
217.6906725900532
 30
0.0
  0
SEQEND
  5
51B
330
518
100
AcDbEntity
  8
BEMA_U_00DFUNG
 62
     7
  0
POLYLINE
  5
51C
330
1F
100
AcDbEntity
  8
BEMA_U_00DFUNG
 62
     7
100
AcDb2dPolyline
 66
     1
 10
0.0
 20
0.0
 30
0.0
  0
VERTEX
  5
51D
330
51C
100
AcDbEntity
  8
BEMA_U_00DFUNG
 62
     7
100
AcDbVertex
100
AcDb2dVertex
 10
48.47554721010336
 20
217.7414725900406
 30
0.0
  0
VERTEX
  5
51E
330
51C
100
AcDbEntity
  8
BEMA_U_00DFUNG
 62
     7
100
AcDbVertex
100
AcDb2dVertex
 10
46.13345554402217
 20
217.7414725900406
 30
0.0
  0
SEQEND
  5
51F
330
51C
100
AcDbEntity
  8
BEMA_U_00DFUNG
 62
     7
  0
POLYLINE
  5
520
330
1F
100
AcDbEntity
  8
BEMA_U_00DFUNG
 62
     7
100
AcDb2dPolyline
 66
     1
 10
0.0
 20
0.0
 30
0.0
  0
VERTEX
  5
521
330
520
100
AcDbEntity
  8
BEMA_U_00DFUNG
 62
     7
100
AcDbVertex
100
AcDb2dVertex
 10
48.47554721010336
 20
217.7922725900279
 30
0.0
  0
VERTEX
  5
522
330
520
100
AcDbEntity
  8
BEMA_U_00DFUNG
 62
     7
100
AcDbVertex
100
AcDb2dVertex
 10
45.74716387745231
 20
217.7922725900279
 30
0.0
  0
SEQEND
  5
523
330
520
100
AcDbEntity
  8
BEMA_U_00DFUNG
 62
     7
  0
POLYLINE
  5
524
330
1F
100
AcDbEntity
  8
BEMA_U_00DFUNG
 62
     7
100
AcDb2dPolyline
 66
     1
 10
0.0
 20
0.0
 30
0.0
  0
VERTEX
  5
525
330
524
100
AcDbEntity
  8
BEMA_U_00DFUNG
 62
     7
100
AcDbVertex
100
AcDb2dVertex
 10
48.47554721010336
 20
217.843072590015
 30
0.0
  0
VERTEX
  5
526
330
524
100
AcDbEntity
  8
BEMA_U_00DFUNG
 62
     7
100
AcDbVertex
100
AcDb2dVertex
 10
45.36122498865988
 20
217.843072590015
 30
0.0
  0
SEQEND
  5
527
330
524
100
AcDbEntity
  8
BEMA_U_00DFUNG
 62
     7
  0
POLYLINE
  5
528
330
1F
100
AcDbEntity
  8
BEMA_U_00DFUNG
 62
     7
100
AcDb2dPolyline
 66
     1
 10
0.0
 20
0.0
 30
0.0
  0
VERTEX
  5
529
330
528
100
AcDbEntity
  8
BEMA_U_00DFUNG
 62
     7
100
AcDbVertex
100
AcDb2dVertex
 10
48.47554721010336
 20
217.893872590002
 30
0.0
  0
VERTEX
  5
52A
330
528
100
AcDbEntity
  8
BEMA_U_00DFUNG
 62
     7
100
AcDbVertex
100
AcDb2dVertex
 10
44.97599165542267
 20
217.893872590002
 30
0.0
  0
SEQEND
  5
52B
330
528
100
AcDbEntity
  8
BEMA_U_00DFUNG
 62
     7
  0
POLYLINE
  5
52C
330
1F
100
AcDbEntity
  8
BEMA_U_00DFUNG
 62
     7
100
AcDb2dPolyline
 66
     1
 10
0.0
 20
0.0
 30
0.0
  0
VERTEX
  5
52D
330
52C
100
AcDbEntity
  8
BEMA_U_00DFUNG
 62
     7
100
AcDbVertex
100
AcDb2dVertex
 10
48.47554721010336
 20
218.3507198121101
 30
0.0
  0
VERTEX
  5
52E
330
52C
100
AcDbEntity
  8
BEMA_U_00DFUNG
 62
     7
100
AcDbVertex
100
AcDb2dVertex
 10
48.4483833212215
 20
218.3507198121101
 30
0.0
  0
SEQEND
  5
52F
330
52C
100
AcDbEntity
  8
BEMA_U_00DFUNG
 62
     7
  0
POLYLINE
  5
530
330
1F
100
AcDbEntity
  8
BEMA_U_00DFUNG
 62
     7
100
AcDb2dPolyline
 66
     1
 10
0.0
 20
0.0
 30
0.0
  0
VERTEX
  5
531
330
530
100
AcDbEntity
  8
BEMA_U_00DFUNG
 62
     7
100
AcDbVertex
100
AcDb2dVertex
 10
48.47554721010336
 20
218.3507198121101
 30
0.0
  0
VERTEX
  5
532
330
530
100
AcDbEntity
  8
BEMA_U_00DFUNG
 62
     7
100
AcDbVertex
100
AcDb2dVertex
 10
48.4483833212215
 20
218.3507198121101
 30
0.0
  0
SEQEND
  5
533
330
530
100
AcDbEntity
  8
BEMA_U_00DFUNG
 62
     7
  0
POLYLINE
  5
534
330
1F
100
AcDbEntity
  8
BEMA_U_00DFUNG
 62
     7
100
AcDb2dPolyline
 66
     1
 10
0.0
 20
0.0
 30
0.0
  0
VERTEX
  5
535
330
534
100
AcDbEntity
  8
BEMA_U_00DFUNG
 62
     7
100
AcDbVertex
100
AcDb2dVertex
 10
48.47554721010336
 20
218.299919812123
 30
0.0
  0
VERTEX
  5
536
330
534
100
AcDbEntity
  8
BEMA_U_00DFUNG
 62
     7
100
AcDbVertex
100
AcDb2dVertex
 10
48.06279721020652
 20
218.299919812123
 30
0.0
  0
SEQEND
  5
537
330
534
100
AcDbEntity
  8
BEMA_U_00DFUNG
 62
     7
  0
POLYLINE
  5
538
330
1F
100
AcDbEntity
  8
BEMA_U_00DFUNG
 62
     7
100
AcDb2dPolyline
 66
     1
 10
0.0
 20
0.0
 30
0.0
  0
VERTEX
  5
539
330
538
100
AcDbEntity
  8
BEMA_U_00DFUNG
 62
     7
100
AcDbVertex
100
AcDb2dVertex
 10
48.47554721010336
 20
218.2491198121357
 30
0.0
  0
VERTEX
  5
53A
330
538
100
AcDbEntity
  8
BEMA_U_00DFUNG
 62
     7
100
AcDbVertex
100
AcDb2dVertex
 10
47.67685832141409
 20
218.2491198121357
 30
0.0
  0
SEQEND
  5
53B
330
538
100
AcDbEntity
  8
BEMA_U_00DFUNG
 62
     7
  0
POLYLINE
  5
53C
330
1F
100
AcDbEntity
  8
BEMA_U_00DFUNG
 62
     7
100
AcDb2dPolyline
 66
     1
 10
0.0
 20
0.0
 30
0.0
  0
VERTEX
  5
53D
330
53C
100
AcDbEntity
  8
BEMA_U_00DFUNG
 62
     7
100
AcDbVertex
100
AcDb2dVertex
 10
48.47554721010336
 20
218.1983198121486
 30
0.0
  0
VERTEX
  5
53E
330
53C
100
AcDbEntity
  8
BEMA_U_00DFUNG
 62
     7
100
AcDbVertex
100
AcDb2dVertex
 10
47.29056665484423
 20
218.1983198121486
 30
0.0
  0
SEQEND
  5
53F
330
53C
100
AcDbEntity
  8
BEMA_U_00DFUNG
 62
     7
  0
POLYLINE
  5
540
330
1F
100
AcDbEntity
  8
BEMA_U_00DFUNG
 62
     7
100
AcDb2dPolyline
 66
     1
 10
0.0
 20
0.0
 30
0.0
  0
VERTEX
  5
541
330
540
100
AcDbEntity
  8
BEMA_U_00DFUNG
 62
     7
100
AcDbVertex
100
AcDb2dVertex
 10
48.47554721010336
 20
218.1475198121612
 30
0.0
  0
VERTEX
  5
542
330
540
100
AcDbEntity
  8
BEMA_U_00DFUNG
 62
     7
100
AcDbVertex
100
AcDb2dVertex
 10
46.90462776605181
 20
218.1475198121612
 30
0.0
  0
SEQEND
  5
543
330
540
100
AcDbEntity
  8
BEMA_U_00DFUNG
 62
     7
  0
POLYLINE
  5
544
330
1F
100
AcDbEntity
  8
BEMA_U_00DFUNG
 62
     7
100
AcDb2dPolyline
 66
     1
 10
0.0
 20
0.0
 30
0.0
  0
VERTEX
  5
545
330
544
100
AcDbEntity
  8
BEMA_U_00DFUNG
 62
     7
100
AcDbVertex
100
AcDb2dVertex
 10
48.47554721010336
 20
218.0967198121738
 30
0.0
  0
VERTEX
  5
546
330
544
100
AcDbEntity
  8
BEMA_U_00DFUNG
 62
     7
100
AcDbVertex
100
AcDb2dVertex
 10
46.51939443281459
 20
218.0967198121738
 30
0.0
  0
SEQEND
  5
547
330
544
100
AcDbEntity
  8
BEMA_U_00DFUNG
 62
     7
  0
POLYLINE
  5
548
330
1F
100
AcDbEntity
  8
BEMA_U_00DFUNG
 62
     7
100
AcDb2dPolyline
 66
     1
 10
0.0
 20
0.0
 30
0.0
  0
VERTEX
  5
549
330
548
100
AcDbEntity
  8
BEMA_U_00DFUNG
 62
     7
100
AcDbVertex
100
AcDb2dVertex
 10
48.47554721010336
 20
218.0459198121864
 30
0.0
  0
VERTEX
  5
54A
330
548
100
AcDbEntity
  8
BEMA_U_00DFUNG
 62
     7
100
AcDbVertex
100
AcDb2dVertex
 10
46.13345554402217
 20
218.0459198121864
 30
0.0
  0
SEQEND
  5
54B
330
548
100
AcDbEntity
  8
BEMA_U_00DFUNG
 62
     7
  0
POLYLINE
  5
54C
330
1F
100
AcDbEntity
  8
BEMA_U_00DFUNG
 62
     7
100
AcDb2dPolyline
 66
     1
 10
0.0
 20
0.0
 30
0.0
  0
VERTEX
  5
54D
330
54C
100
AcDbEntity
  8
BEMA_U_00DFUNG
 62
     7
100
AcDbVertex
100
AcDb2dVertex
 10
48.47554721010336
 20
217.9951198121991
 30
0.0
  0
VERTEX
  5
54E
330
54C
100
AcDbEntity
  8
BEMA_U_00DFUNG
 62
     7
100
AcDbVertex
100
AcDb2dVertex
 10
45.74716387745231
 20
217.9951198121991
 30
0.0
  0
SEQEND
  5
54F
330
54C
100
AcDbEntity
  8
BEMA_U_00DFUNG
 62
     7
  0
POLYLINE
  5
550
330
1F
100
AcDbEntity
  8
BEMA_U_00DFUNG
 62
     7
100
AcDb2dPolyline
 66
     1
 10
0.0
 20
0.0
 30
0.0
  0
VERTEX
  5
551
330
550
100
AcDbEntity
  8
BEMA_U_00DFUNG
 62
     7
100
AcDbVertex
100
AcDb2dVertex
 10
48.47554721010336
 20
217.9443198122117
 30
0.0
  0
VERTEX
  5
552
330
550
100
AcDbEntity
  8
BEMA_U_00DFUNG
 62
     7
100
AcDbVertex
100
AcDb2dVertex
 10
45.36122498865988
 20
217.9443198122117
 30
0.0
  0
SEQEND
  5
553
330
550
100
AcDbEntity
  8
BEMA_U_00DFUNG
 62
     7
  0
POLYLINE
  5
554
330
1F
100
AcDbEntity
  8
BEMA_U_00DFUNG
 62
     7
100
AcDb2dPolyline
 66
     1
 10
0.0
 20
0.0
 30
0.0
  0
VERTEX
  5
555
330
554
100
AcDbEntity
  8
BEMA_U_00DFUNG
 62
     7
100
AcDbVertex
100
AcDb2dVertex
 10
48.47554721010336
 20
217.893872590002
 30
0.0
  0
VERTEX
  5
556
330
554
100
AcDbEntity
  8
BEMA_U_00DFUNG
 62
     7
100
AcDbVertex
100
AcDb2dVertex
 10
44.97599165542267
 20
217.893872590002
 30
0.0
  0
SEQEND
  5
557
330
554
100
AcDbEntity
  8
BEMA_U_00DFUNG
 62
     7
  0
POLYLINE
  5
558
330
1F
100
AcDbEntity
  8
BEMA_U_00DFUNG
 62
     7
100
AcDb2dPolyline
 66
     1
 10
0.0
 20
0.0
 30
0.0
  0
VERTEX
  5
559
330
558
100
AcDbEntity
  8
BEMA_U_00DFUNG
 62
     7
100
AcDbVertex
100
AcDb2dVertex
 10
90.97574442170051
 20
217.893872590002
 30
0.0
  0
VERTEX
  5
55A
330
558
100
AcDbEntity
  8
BEMA_U_00DFUNG
 62
     7
100
AcDbVertex
100
AcDb2dVertex
 10
87.47583608924238
 20
218.3542475898871
 30
0.0
  0
VERTEX
  5
55B
330
558
100
AcDbEntity
  8
BEMA_U_00DFUNG
 62
     7
100
AcDbVertex
100
AcDb2dVertex
 10
87.47583608924238
 20
217.4331448123399
 30
0.0
  0
VERTEX
  5
55C
330
558
100
AcDbEntity
  8
BEMA_U_00DFUNG
 62
     7
100
AcDbVertex
100
AcDb2dVertex
 10
90.97574442170051
 20
217.893872590002
 30
0.0
  0
SEQEND
  5
55E
330
558
100
AcDbEntity
  8
BEMA_U_00DFUNG
 62
     7
  0
HATCH
  5
55D
330
1F
100
AcDbEntity
  8
BEMA_U_00DFUNG
 62
     7
100
AcDbHatch
 10
0.0
 20
0.0
 30
0.0
210
0.0
220
0.0
230
1.0
  2
SOLID
 70
     1
 71
     0
 91
        1
 92
        1
 93
        3
 72
     1
 10
90.97574442170051
 20
217.893872590002
 11
87.47583608924238
 21
218.3542475898871
 72
     1
 10
87.47583608924238
 20
218.3542475898871
 11
87.47583608924238
 21
217.4331448123399
 72
     1
 10
87.47583608924238
 20
217.4331448123399
 11
90.97574442170051
 21
217.893872590002
 97
        0
 75
     0
 76
     1
 98
        0
  0
POLYLINE
  5
55F
330
1F
100
AcDbEntity
  8
BEMA_U_00DFUNG
 62
     7
100
AcDb2dPolyline
 66
     1
 10
0.0
 20
0.0
 30
0.0
  0
VERTEX
  5
560
330
55F
100
AcDbEntity
  8
BEMA_U_00DFUNG
 62
     7
100
AcDbVertex
100
AcDb2dVertex
 10
87.47583608924238
 20
218.3507198121101
 30
0.0
  0
VERTEX
  5
561
330
55F
100
AcDbEntity
  8
BEMA_U_00DFUNG
 62
     7
100
AcDbVertex
100
AcDb2dVertex
 10
87.50299997812424
 20
218.3507198121101
 30
0.0
  0
SEQEND
  5
562
330
55F
100
AcDbEntity
  8
BEMA_U_00DFUNG
 62
     7
  0
POLYLINE
  5
563
330
1F
100
AcDbEntity
  8
BEMA_U_00DFUNG
 62
     7
100
AcDb2dPolyline
 66
     1
 10
0.0
 20
0.0
 30
0.0
  0
VERTEX
  5
564
330
563
100
AcDbEntity
  8
BEMA_U_00DFUNG
 62
     7
100
AcDbVertex
100
AcDb2dVertex
 10
87.47583608924238
 20
218.3507198121101
 30
0.0
  0
VERTEX
  5
565
330
563
100
AcDbEntity
  8
BEMA_U_00DFUNG
 62
     7
100
AcDbVertex
100
AcDb2dVertex
 10
87.50299997812424
 20
218.3507198121101
 30
0.0
  0
SEQEND
  5
566
330
563
100
AcDbEntity
  8
BEMA_U_00DFUNG
 62
     7
  0
POLYLINE
  5
567
330
1F
100
AcDbEntity
  8
BEMA_U_00DFUNG
 62
     7
100
AcDb2dPolyline
 66
     1
 10
0.0
 20
0.0
 30
0.0
  0
VERTEX
  5
568
330
567
100
AcDbEntity
  8
BEMA_U_00DFUNG
 62
     7
100
AcDbVertex
100
AcDb2dVertex
 10
87.47583608924238
 20
218.299919812123
 30
0.0
  0
VERTEX
  5
569
330
567
100
AcDbEntity
  8
BEMA_U_00DFUNG
 62
     7
100
AcDbVertex
100
AcDb2dVertex
 10
87.88893886691666
 20
218.299919812123
 30
0.0
  0
SEQEND
  5
56A
330
567
100
AcDbEntity
  8
BEMA_U_00DFUNG
 62
     7
  0
POLYLINE
  5
56B
330
1F
100
AcDbEntity
  8
BEMA_U_00DFUNG
 62
     7
100
AcDb2dPolyline
 66
     1
 10
0.0
 20
0.0
 30
0.0
  0
VERTEX
  5
56C
330
56B
100
AcDbEntity
  8
BEMA_U_00DFUNG
 62
     7
100
AcDbVertex
100
AcDb2dVertex
 10
87.47583608924238
 20
218.2491198121357
 30
0.0
  0
VERTEX
  5
56D
330
56B
100
AcDbEntity
  8
BEMA_U_00DFUNG
 62
     7
100
AcDbVertex
100
AcDb2dVertex
 10
88.27487775570908
 20
218.2491198121357
 30
0.0
  0
SEQEND
  5
56E
330
56B
100
AcDbEntity
  8
BEMA_U_00DFUNG
 62
     7
  0
POLYLINE
  5
56F
330
1F
100
AcDbEntity
  8
BEMA_U_00DFUNG
 62
     7
100
AcDb2dPolyline
 66
     1
 10
0.0
 20
0.0
 30
0.0
  0
VERTEX
  5
570
330
56F
100
AcDbEntity
  8
BEMA_U_00DFUNG
 62
     7
100
AcDbVertex
100
AcDb2dVertex
 10
87.47583608924238
 20
218.1983198121486
 30
0.0
  0
VERTEX
  5
571
330
56F
100
AcDbEntity
  8
BEMA_U_00DFUNG
 62
     7
100
AcDbVertex
100
AcDb2dVertex
 10
88.66046386672375
 20
218.1983198121486
 30
0.0
  0
SEQEND
  5
572
330
56F
100
AcDbEntity
  8
BEMA_U_00DFUNG
 62
     7
  0
POLYLINE
  5
573
330
1F
100
AcDbEntity
  8
BEMA_U_00DFUNG
 62
     7
100
AcDb2dPolyline
 66
     1
 10
0.0
 20
0.0
 30
0.0
  0
VERTEX
  5
574
330
573
100
AcDbEntity
  8
BEMA_U_00DFUNG
 62
     7
100
AcDbVertex
100
AcDb2dVertex
 10
87.47583608924238
 20
218.1475198121612
 30
0.0
  0
VERTEX
  5
575
330
573
100
AcDbEntity
  8
BEMA_U_00DFUNG
 62
     7
100
AcDbVertex
100
AcDb2dVertex
 10
89.04640275551617
 20
218.1475198121612
 30
0.0
  0
SEQEND
  5
576
330
573
100
AcDbEntity
  8
BEMA_U_00DFUNG
 62
     7
  0
POLYLINE
  5
577
330
1F
100
AcDbEntity
  8
BEMA_U_00DFUNG
 62
     7
100
AcDb2dPolyline
 66
     1
 10
0.0
 20
0.0
 30
0.0
  0
VERTEX
  5
578
330
577
100
AcDbEntity
  8
BEMA_U_00DFUNG
 62
     7
100
AcDbVertex
100
AcDb2dVertex
 10
87.47583608924238
 20
218.0967198121738
 30
0.0
  0
VERTEX
  5
579
330
577
100
AcDbEntity
  8
BEMA_U_00DFUNG
 62
     7
100
AcDbVertex
100
AcDb2dVertex
 10
89.4323416443086
 20
218.0967198121738
 30
0.0
  0
SEQEND
  5
57A
330
577
100
AcDbEntity
  8
BEMA_U_00DFUNG
 62
     7
  0
POLYLINE
  5
57B
330
1F
100
AcDbEntity
  8
BEMA_U_00DFUNG
 62
     7
100
AcDb2dPolyline
 66
     1
 10
0.0
 20
0.0
 30
0.0
  0
VERTEX
  5
57C
330
57B
100
AcDbEntity
  8
BEMA_U_00DFUNG
 62
     7
100
AcDbVertex
100
AcDb2dVertex
 10
87.47583608924238
 20
218.0459198121864
 30
0.0
  0
VERTEX
  5
57D
330
57B
100
AcDbEntity
  8
BEMA_U_00DFUNG
 62
     7
100
AcDbVertex
100
AcDb2dVertex
 10
89.81828053310102
 20
218.0459198121864
 30
0.0
  0
SEQEND
  5
57E
330
57B
100
AcDbEntity
  8
BEMA_U_00DFUNG
 62
     7
  0
POLYLINE
  5
57F
330
1F
100
AcDbEntity
  8
BEMA_U_00DFUNG
 62
     7
100
AcDb2dPolyline
 66
     1
 10
0.0
 20
0.0
 30
0.0
  0
VERTEX
  5
580
330
57F
100
AcDbEntity
  8
BEMA_U_00DFUNG
 62
     7
100
AcDbVertex
100
AcDb2dVertex
 10
87.47583608924238
 20
217.9951198121991
 30
0.0
  0
VERTEX
  5
581
330
57F
100
AcDbEntity
  8
BEMA_U_00DFUNG
 62
     7
100
AcDbVertex
100
AcDb2dVertex
 10
90.20386664411568
 20
217.9951198121991
 30
0.0
  0
SEQEND
  5
582
330
57F
100
AcDbEntity
  8
BEMA_U_00DFUNG
 62
     7
  0
POLYLINE
  5
583
330
1F
100
AcDbEntity
  8
BEMA_U_00DFUNG
 62
     7
100
AcDb2dPolyline
 66
     1
 10
0.0
 20
0.0
 30
0.0
  0
VERTEX
  5
584
330
583
100
AcDbEntity
  8
BEMA_U_00DFUNG
 62
     7
100
AcDbVertex
100
AcDb2dVertex
 10
87.47583608924238
 20
217.9443198122117
 30
0.0
  0
VERTEX
  5
585
330
583
100
AcDbEntity
  8
BEMA_U_00DFUNG
 62
     7
100
AcDbVertex
100
AcDb2dVertex
 10
90.5898055329081
 20
217.9443198122117
 30
0.0
  0
SEQEND
  5
586
330
583
100
AcDbEntity
  8
BEMA_U_00DFUNG
 62
     7
  0
POLYLINE
  5
587
330
1F
100
AcDbEntity
  8
BEMA_U_00DFUNG
 62
     7
100
AcDb2dPolyline
 66
     1
 10
0.0
 20
0.0
 30
0.0
  0
VERTEX
  5
588
330
587
100
AcDbEntity
  8
BEMA_U_00DFUNG
 62
     7
100
AcDbVertex
100
AcDb2dVertex
 10
87.47583608924238
 20
217.893872590002
 30
0.0
  0
VERTEX
  5
589
330
587
100
AcDbEntity
  8
BEMA_U_00DFUNG
 62
     7
100
AcDbVertex
100
AcDb2dVertex
 10
90.97574442170051
 20
217.893872590002
 30
0.0
  0
SEQEND
  5
58A
330
587
100
AcDbEntity
  8
BEMA_U_00DFUNG
 62
     7
  0
POLYLINE
  5
58B
330
1F
100
AcDbEntity
  8
BEMA_U_00DFUNG
 62
     7
100
AcDb2dPolyline
 66
     1
 10
0.0
 20
0.0
 30
0.0
  0
VERTEX
  5
58C
330
58B
100
AcDbEntity
  8
BEMA_U_00DFUNG
 62
     7
100
AcDbVertex
100
AcDb2dVertex
 10
87.47583608924238
 20
217.4366725901166
 30
0.0
  0
VERTEX
  5
58D
330
58B
100
AcDbEntity
  8
BEMA_U_00DFUNG
 62
     7
100
AcDbVertex
100
AcDb2dVertex
 10
87.50299997812424
 20
217.4366725901166
 30
0.0
  0
SEQEND
  5
58E
330
58B
100
AcDbEntity
  8
BEMA_U_00DFUNG
 62
     7
  0
POLYLINE
  5
58F
330
1F
100
AcDbEntity
  8
BEMA_U_00DFUNG
 62
     7
100
AcDb2dPolyline
 66
     1
 10
0.0
 20
0.0
 30
0.0
  0
VERTEX
  5
590
330
58F
100
AcDbEntity
  8
BEMA_U_00DFUNG
 62
     7
100
AcDbVertex
100
AcDb2dVertex
 10
87.47583608924238
 20
217.4366725901166
 30
0.0
  0
VERTEX
  5
591
330
58F
100
AcDbEntity
  8
BEMA_U_00DFUNG
 62
     7
100
AcDbVertex
100
AcDb2dVertex
 10
87.50299997812424
 20
217.4366725901166
 30
0.0
  0
SEQEND
  5
592
330
58F
100
AcDbEntity
  8
BEMA_U_00DFUNG
 62
     7
  0
POLYLINE
  5
593
330
1F
100
AcDbEntity
  8
BEMA_U_00DFUNG
 62
     7
100
AcDb2dPolyline
 66
     1
 10
0.0
 20
0.0
 30
0.0
  0
VERTEX
  5
594
330
593
100
AcDbEntity
  8
BEMA_U_00DFUNG
 62
     7
100
AcDbVertex
100
AcDb2dVertex
 10
87.47583608924238
 20
217.4874725901036
 30
0.0
  0
VERTEX
  5
595
330
593
100
AcDbEntity
  8
BEMA_U_00DFUNG
 62
     7
100
AcDbVertex
100
AcDb2dVertex
 10
87.88893886691666
 20
217.4874725901036
 30
0.0
  0
SEQEND
  5
596
330
593
100
AcDbEntity
  8
BEMA_U_00DFUNG
 62
     7
  0
POLYLINE
  5
597
330
1F
100
AcDbEntity
  8
BEMA_U_00DFUNG
 62
     7
100
AcDb2dPolyline
 66
     1
 10
0.0
 20
0.0
 30
0.0
  0
VERTEX
  5
598
330
597
100
AcDbEntity
  8
BEMA_U_00DFUNG
 62
     7
100
AcDbVertex
100
AcDb2dVertex
 10
87.47583608924238
 20
217.538272590091
 30
0.0
  0
VERTEX
  5
599
330
597
100
AcDbEntity
  8
BEMA_U_00DFUNG
 62
     7
100
AcDbVertex
100
AcDb2dVertex
 10
88.27487775570908
 20
217.538272590091
 30
0.0
  0
SEQEND
  5
59A
330
597
100
AcDbEntity
  8
BEMA_U_00DFUNG
 62
     7
  0
POLYLINE
  5
59B
330
1F
100
AcDbEntity
  8
BEMA_U_00DFUNG
 62
     7
100
AcDb2dPolyline
 66
     1
 10
0.0
 20
0.0
 30
0.0
  0
VERTEX
  5
59C
330
59B
100
AcDbEntity
  8
BEMA_U_00DFUNG
 62
     7
100
AcDbVertex
100
AcDb2dVertex
 10
87.47583608924238
 20
217.5890725900784
 30
0.0
  0
VERTEX
  5
59D
330
59B
100
AcDbEntity
  8
BEMA_U_00DFUNG
 62
     7
100
AcDbVertex
100
AcDb2dVertex
 10
88.66046386672375
 20
217.5890725900784
 30
0.0
  0
SEQEND
  5
59E
330
59B
100
AcDbEntity
  8
BEMA_U_00DFUNG
 62
     7
  0
POLYLINE
  5
59F
330
1F
100
AcDbEntity
  8
BEMA_U_00DFUNG
 62
     7
100
AcDb2dPolyline
 66
     1
 10
0.0
 20
0.0
 30
0.0
  0
VERTEX
  5
5A0
330
59F
100
AcDbEntity
  8
BEMA_U_00DFUNG
 62
     7
100
AcDbVertex
100
AcDb2dVertex
 10
87.47583608924238
 20
217.6398725900658
 30
0.0
  0
VERTEX
  5
5A1
330
59F
100
AcDbEntity
  8
BEMA_U_00DFUNG
 62
     7
100
AcDbVertex
100
AcDb2dVertex
 10
89.04640275551617
 20
217.6398725900658
 30
0.0
  0
SEQEND
  5
5A2
330
59F
100
AcDbEntity
  8
BEMA_U_00DFUNG
 62
     7
  0
POLYLINE
  5
5A3
330
1F
100
AcDbEntity
  8
BEMA_U_00DFUNG
 62
     7
100
AcDb2dPolyline
 66
     1
 10
0.0
 20
0.0
 30
0.0
  0
VERTEX
  5
5A4
330
5A3
100
AcDbEntity
  8
BEMA_U_00DFUNG
 62
     7
100
AcDbVertex
100
AcDb2dVertex
 10
87.47583608924238
 20
217.6906725900532
 30
0.0
  0
VERTEX
  5
5A5
330
5A3
100
AcDbEntity
  8
BEMA_U_00DFUNG
 62
     7
100
AcDbVertex
100
AcDb2dVertex
 10
89.4323416443086
 20
217.6906725900532
 30
0.0
  0
SEQEND
  5
5A6
330
5A3
100
AcDbEntity
  8
BEMA_U_00DFUNG
 62
     7
  0
POLYLINE
  5
5A7
330
1F
100
AcDbEntity
  8
BEMA_U_00DFUNG
 62
     7
100
AcDb2dPolyline
 66
     1
 10
0.0
 20
0.0
 30
0.0
  0
VERTEX
  5
5A8
330
5A7
100
AcDbEntity
  8
BEMA_U_00DFUNG
 62
     7
100
AcDbVertex
100
AcDb2dVertex
 10
87.47583608924238
 20
217.7414725900406
 30
0.0
  0
VERTEX
  5
5A9
330
5A7
100
AcDbEntity
  8
BEMA_U_00DFUNG
 62
     7
100
AcDbVertex
100
AcDb2dVertex
 10
89.81828053310102
 20
217.7414725900406
 30
0.0
  0
SEQEND
  5
5AA
330
5A7
100
AcDbEntity
  8
BEMA_U_00DFUNG
 62
     7
  0
POLYLINE
  5
5AB
330
1F
100
AcDbEntity
  8
BEMA_U_00DFUNG
 62
     7
100
AcDb2dPolyline
 66
     1
 10
0.0
 20
0.0
 30
0.0
  0
VERTEX
  5
5AC
330
5AB
100
AcDbEntity
  8
BEMA_U_00DFUNG
 62
     7
100
AcDbVertex
100
AcDb2dVertex
 10
87.47583608924238
 20
217.7922725900279
 30
0.0
  0
VERTEX
  5
5AD
330
5AB
100
AcDbEntity
  8
BEMA_U_00DFUNG
 62
     7
100
AcDbVertex
100
AcDb2dVertex
 10
90.20386664411568
 20
217.7922725900279
 30
0.0
  0
SEQEND
  5
5AE
330
5AB
100
AcDbEntity
  8
BEMA_U_00DFUNG
 62
     7
  0
POLYLINE
  5
5AF
330
1F
100
AcDbEntity
  8
BEMA_U_00DFUNG
 62
     7
100
AcDb2dPolyline
 66
     1
 10
0.0
 20
0.0
 30
0.0
  0
VERTEX
  5
5B0
330
5AF
100
AcDbEntity
  8
BEMA_U_00DFUNG
 62
     7
100
AcDbVertex
100
AcDb2dVertex
 10
87.47583608924238
 20
217.843072590015
 30
0.0
  0
VERTEX
  5
5B1
330
5AF
100
AcDbEntity
  8
BEMA_U_00DFUNG
 62
     7
100
AcDbVertex
100
AcDb2dVertex
 10
90.5898055329081
 20
217.843072590015
 30
0.0
  0
SEQEND
  5
5B2
330
5AF
100
AcDbEntity
  8
BEMA_U_00DFUNG
 62
     7
  0
POLYLINE
  5
5B3
330
1F
100
AcDbEntity
  8
BEMA_U_00DFUNG
 62
     7
100
AcDb2dPolyline
 66
     1
 10
0.0
 20
0.0
 30
0.0
  0
VERTEX
  5
5B4
330
5B3
100
AcDbEntity
  8
BEMA_U_00DFUNG
 62
     7
100
AcDbVertex
100
AcDb2dVertex
 10
87.47583608924238
 20
217.893872590002
 30
0.0
  0
VERTEX
  5
5B5
330
5B3
100
AcDbEntity
  8
BEMA_U_00DFUNG
 62
     7
100
AcDbVertex
100
AcDb2dVertex
 10
90.97574442170051
 20
217.893872590002
 30
0.0
  0
SEQEND
  5
5B6
330
5B3
100
AcDbEntity
  8
BEMA_U_00DFUNG
 62
     7
  0
POLYLINE
  5
5B7
330
1F
100
AcDbEntity
  8
BEMA_U_00DFUNG
 62
     7
100
AcDb2dPolyline
 66
     1
 10
0.0
 20
0.0
 30
0.0
  0
VERTEX
  5
5B8
330
5B7
100
AcDbEntity
  8
BEMA_U_00DFUNG
 62
     7
100
AcDbVertex
100
AcDb2dVertex
 10
135.5883524483726
 20
208.5218580533383
 30
0.0
  0
VERTEX
  5
5B9
330
5B7
100
AcDbEntity
  8
BEMA_U_00DFUNG
 62
     7
100
AcDbVertex
100
AcDb2dVertex
 10
135.5883524483726
 20
220.5222997170048
 30
0.0
  0
SEQEND
  5
5BA
330
5B7
100
AcDbEntity
  8
BEMA_U_00DFUNG
 62
     7
  0
POLYLINE
  5
5BB
330
1F
100
AcDbEntity
  8
BEMA_U_00DFUNG
 62
     7
100
AcDb2dPolyline
 66
     1
 10
0.0
 20
0.0
 30
0.0
  0
VERTEX
  5
5BC
330
5BB
100
AcDbEntity
  8
BEMA_U_00DFUNG
 62
     7
100
AcDbVertex
100
AcDb2dVertex
 10
162.5878468860674
 20
194.9885969456108
 30
0.0
  0
VERTEX
  5
5BD
330
5BB
100
AcDbEntity
  8
BEMA_U_00DFUNG
 62
     7
100
AcDbVertex
100
AcDb2dVertex
 10
162.5878468860674
 20
220.5222997170048
 30
0.0
  0
SEQEND
  5
5BE
330
5BB
100
AcDbEntity
  8
BEMA_U_00DFUNG
 62
     7
  0
POLYLINE
  5
5BF
330
1F
100
AcDbEntity
  8
BEMA_U_00DFUNG
 62
     7
100
AcDb2dPolyline
 66
     1
 10
0.0
 20
0.0
 30
0.0
  0
VERTEX
  5
5C0
330
5BF
100
AcDbEntity
  8
BEMA_U_00DFUNG
 62
     7
100
AcDbVertex
100
AcDb2dVertex
 10
135.5883524483726
 20
218.5224024952826
 30
0.0
  0
VERTEX
  5
5C1
330
5BF
100
AcDbEntity
  8
BEMA_U_00DFUNG
 62
     7
100
AcDbVertex
100
AcDb2dVertex
 10
162.5878468860674
 20
218.5224024952826
 30
0.0
  0
SEQEND
  5
5C2
330
5BF
100
AcDbEntity
  8
BEMA_U_00DFUNG
 62
     7
  0
POLYLINE
  5
5C3
330
1F
100
AcDbEntity
  8
BEMA_U_00DFUNG
 62
     7
100
AcDb2dPolyline
 66
     1
 10
0.0
 20
0.0
 30
0.0
  0
VERTEX
  5
5C4
330
5C3
100
AcDbEntity
  8
BEMA_U_00DFUNG
 62
     7
100
AcDbVertex
100
AcDb2dVertex
 10
135.5883524483726
 20
218.5224024952826
 30
0.0
  0
VERTEX
  5
5C5
330
5C3
100
AcDbEntity
  8
BEMA_U_00DFUNG
 62
     7
100
AcDbVertex
100
AcDb2dVertex
 10
139.088260780831
 20
218.0616747176198
 30
0.0
  0
VERTEX
  5
5C6
330
5C3
100
AcDbEntity
  8
BEMA_U_00DFUNG
 62
     7
100
AcDbVertex
100
AcDb2dVertex
 10
139.088260780831
 20
218.9827774951676
 30
0.0
  0
VERTEX
  5
5C7
330
5C3
100
AcDbEntity
  8
BEMA_U_00DFUNG
 62
     7
100
AcDbVertex
100
AcDb2dVertex
 10
135.5883524483726
 20
218.5224024952826
 30
0.0
  0
SEQEND
  5
5C9
330
5C3
100
AcDbEntity
  8
BEMA_U_00DFUNG
 62
     7
  0
HATCH
  5
5C8
330
1F
100
AcDbEntity
  8
BEMA_U_00DFUNG
 62
     7
100
AcDbHatch
 10
0.0
 20
0.0
 30
0.0
210
0.0
220
0.0
230
1.0
  2
SOLID
 70
     1
 71
     0
 91
        1
 92
        1
 93
        3
 72
     1
 10
135.5883524483726
 20
218.5224024952826
 11
139.0882607808311
 21
218.0616747176198
 72
     1
 10
139.088260780831
 20
218.0616747176198
 11
139.088260780831
 21
218.9827774951676
 72
     1
 10
139.088260780831
 20
218.9827774951676
 11
135.5883524483726
 21
218.5224024952826
 97
        0
 75
     0
 76
     1
 98
        0
  0
POLYLINE
  5
5CA
330
1F
100
AcDbEntity
  8
BEMA_U_00DFUNG
 62
     7
100
AcDb2dPolyline
 66
     1
 10
0.0
 20
0.0
 30
0.0
  0
VERTEX
  5
5CB
330
5CA
100
AcDbEntity
  8
BEMA_U_00DFUNG
 62
     7
100
AcDbVertex
100
AcDb2dVertex
 10
139.088260780831
 20
218.0652024953968
 30
0.0
  0
VERTEX
  5
5CC
330
5CA
100
AcDbEntity
  8
BEMA_U_00DFUNG
 62
     7
100
AcDbVertex
100
AcDb2dVertex
 10
139.0610968919489
 20
218.0652024953968
 30
0.0
  0
SEQEND
  5
5CD
330
5CA
100
AcDbEntity
  8
BEMA_U_00DFUNG
 62
     7
  0
POLYLINE
  5
5CE
330
1F
100
AcDbEntity
  8
BEMA_U_00DFUNG
 62
     7
100
AcDb2dPolyline
 66
     1
 10
0.0
 20
0.0
 30
0.0
  0
VERTEX
  5
5CF
330
5CE
100
AcDbEntity
  8
BEMA_U_00DFUNG
 62
     7
100
AcDbVertex
100
AcDb2dVertex
 10
139.088260780831
 20
218.0652024953968
 30
0.0
  0
VERTEX
  5
5D0
330
5CE
100
AcDbEntity
  8
BEMA_U_00DFUNG
 62
     7
100
AcDbVertex
100
AcDb2dVertex
 10
139.0610968919489
 20
218.0652024953968
 30
0.0
  0
SEQEND
  5
5D1
330
5CE
100
AcDbEntity
  8
BEMA_U_00DFUNG
 62
     7
  0
POLYLINE
  5
5D2
330
1F
100
AcDbEntity
  8
BEMA_U_00DFUNG
 62
     7
100
AcDb2dPolyline
 66
     1
 10
0.0
 20
0.0
 30
0.0
  0
VERTEX
  5
5D3
330
5D2
100
AcDbEntity
  8
BEMA_U_00DFUNG
 62
     7
100
AcDbVertex
100
AcDb2dVertex
 10
139.088260780831
 20
218.1160024953842
 30
0.0
  0
VERTEX
  5
5D4
330
5D2
100
AcDbEntity
  8
BEMA_U_00DFUNG
 62
     7
100
AcDbVertex
100
AcDb2dVertex
 10
138.6751580031564
 20
218.1160024953842
 30
0.0
  0
SEQEND
  5
5D5
330
5D2
100
AcDbEntity
  8
BEMA_U_00DFUNG
 62
     7
  0
POLYLINE
  5
5D6
330
1F
100
AcDbEntity
  8
BEMA_U_00DFUNG
 62
     7
100
AcDb2dPolyline
 66
     1
 10
0.0
 20
0.0
 30
0.0
  0
VERTEX
  5
5D7
330
5D6
100
AcDbEntity
  8
BEMA_U_00DFUNG
 62
     7
100
AcDbVertex
100
AcDb2dVertex
 10
139.088260780831
 20
218.1668024953715
 30
0.0
  0
VERTEX
  5
5D8
330
5D6
100
AcDbEntity
  8
BEMA_U_00DFUNG
 62
     7
100
AcDbVertex
100
AcDb2dVertex
 10
138.2892191143644
 20
218.1668024953715
 30
0.0
  0
SEQEND
  5
5D9
330
5D6
100
AcDbEntity
  8
BEMA_U_00DFUNG
 62
     7
  0
POLYLINE
  5
5DA
330
1F
100
AcDbEntity
  8
BEMA_U_00DFUNG
 62
     7
100
AcDb2dPolyline
 66
     1
 10
0.0
 20
0.0
 30
0.0
  0
VERTEX
  5
5DB
330
5DA
100
AcDbEntity
  8
BEMA_U_00DFUNG
 62
     7
100
AcDbVertex
100
AcDb2dVertex
 10
139.088260780831
 20
218.2176024953589
 30
0.0
  0
VERTEX
  5
5DC
330
5DA
100
AcDbEntity
  8
BEMA_U_00DFUNG
 62
     7
100
AcDbVertex
100
AcDb2dVertex
 10
137.9036330033494
 20
218.2176024953589
 30
0.0
  0
SEQEND
  5
5DD
330
5DA
100
AcDbEntity
  8
BEMA_U_00DFUNG
 62
     7
  0
POLYLINE
  5
5DE
330
1F
100
AcDbEntity
  8
BEMA_U_00DFUNG
 62
     7
100
AcDb2dPolyline
 66
     1
 10
0.0
 20
0.0
 30
0.0
  0
VERTEX
  5
5DF
330
5DE
100
AcDbEntity
  8
BEMA_U_00DFUNG
 62
     7
100
AcDbVertex
100
AcDb2dVertex
 10
139.088260780831
 20
218.2684024953463
 30
0.0
  0
VERTEX
  5
5E0
330
5DE
100
AcDbEntity
  8
BEMA_U_00DFUNG
 62
     7
100
AcDbVertex
100
AcDb2dVertex
 10
137.5176941145569
 20
218.2684024953463
 30
0.0
  0
SEQEND
  5
5E1
330
5DE
100
AcDbEntity
  8
BEMA_U_00DFUNG
 62
     7
  0
POLYLINE
  5
5E2
330
1F
100
AcDbEntity
  8
BEMA_U_00DFUNG
 62
     7
100
AcDb2dPolyline
 66
     1
 10
0.0
 20
0.0
 30
0.0
  0
VERTEX
  5
5E3
330
5E2
100
AcDbEntity
  8
BEMA_U_00DFUNG
 62
     7
100
AcDbVertex
100
AcDb2dVertex
 10
139.088260780831
 20
218.3192024953337
 30
0.0
  0
VERTEX
  5
5E4
330
5E2
100
AcDbEntity
  8
BEMA_U_00DFUNG
 62
     7
100
AcDbVertex
100
AcDb2dVertex
 10
137.1317552257645
 20
218.3192024953337
 30
0.0
  0
SEQEND
  5
5E5
330
5E2
100
AcDbEntity
  8
BEMA_U_00DFUNG
 62
     7
  0
POLYLINE
  5
5E6
330
1F
100
AcDbEntity
  8
BEMA_U_00DFUNG
 62
     7
100
AcDb2dPolyline
 66
     1
 10
0.0
 20
0.0
 30
0.0
  0
VERTEX
  5
5E7
330
5E6
100
AcDbEntity
  8
BEMA_U_00DFUNG
 62
     7
100
AcDbVertex
100
AcDb2dVertex
 10
139.088260780831
 20
218.3700024953207
 30
0.0
  0
VERTEX
  5
5E8
330
5E6
100
AcDbEntity
  8
BEMA_U_00DFUNG
 62
     7
100
AcDbVertex
100
AcDb2dVertex
 10
136.7458163369724
 20
218.3700024953207
 30
0.0
  0
SEQEND
  5
5E9
330
5E6
100
AcDbEntity
  8
BEMA_U_00DFUNG
 62
     7
  0
POLYLINE
  5
5EA
330
1F
100
AcDbEntity
  8
BEMA_U_00DFUNG
 62
     7
100
AcDb2dPolyline
 66
     1
 10
0.0
 20
0.0
 30
0.0
  0
VERTEX
  5
5EB
330
5EA
100
AcDbEntity
  8
BEMA_U_00DFUNG
 62
     7
100
AcDbVertex
100
AcDb2dVertex
 10
139.088260780831
 20
218.4208024953078
 30
0.0
  0
VERTEX
  5
5EC
330
5EA
100
AcDbEntity
  8
BEMA_U_00DFUNG
 62
     7
100
AcDbVertex
100
AcDb2dVertex
 10
136.3595246704022
 20
218.4208024953078
 30
0.0
  0
SEQEND
  5
5ED
330
5EA
100
AcDbEntity
  8
BEMA_U_00DFUNG
 62
     7
  0
POLYLINE
  5
5EE
330
1F
100
AcDbEntity
  8
BEMA_U_00DFUNG
 62
     7
100
AcDb2dPolyline
 66
     1
 10
0.0
 20
0.0
 30
0.0
  0
VERTEX
  5
5EF
330
5EE
100
AcDbEntity
  8
BEMA_U_00DFUNG
 62
     7
100
AcDbVertex
100
AcDb2dVertex
 10
139.088260780831
 20
218.4716024952952
 30
0.0
  0
VERTEX
  5
5F0
330
5EE
100
AcDbEntity
  8
BEMA_U_00DFUNG
 62
     7
100
AcDbVertex
100
AcDb2dVertex
 10
135.974291337165
 20
218.4716024952952
 30
0.0
  0
SEQEND
  5
5F1
330
5EE
100
AcDbEntity
  8
BEMA_U_00DFUNG
 62
     7
  0
POLYLINE
  5
5F2
330
1F
100
AcDbEntity
  8
BEMA_U_00DFUNG
 62
     7
100
AcDb2dPolyline
 66
     1
 10
0.0
 20
0.0
 30
0.0
  0
VERTEX
  5
5F3
330
5F2
100
AcDbEntity
  8
BEMA_U_00DFUNG
 62
     7
100
AcDbVertex
100
AcDb2dVertex
 10
139.088260780831
 20
218.5224024952826
 30
0.0
  0
VERTEX
  5
5F4
330
5F2
100
AcDbEntity
  8
BEMA_U_00DFUNG
 62
     7
100
AcDbVertex
100
AcDb2dVertex
 10
135.5883524483726
 20
218.5224024952826
 30
0.0
  0
SEQEND
  5
5F5
330
5F2
100
AcDbEntity
  8
BEMA_U_00DFUNG
 62
     7
  0
POLYLINE
  5
5F6
330
1F
100
AcDbEntity
  8
BEMA_U_00DFUNG
 62
     7
100
AcDb2dPolyline
 66
     1
 10
0.0
 20
0.0
 30
0.0
  0
VERTEX
  5
5F7
330
5F6
100
AcDbEntity
  8
BEMA_U_00DFUNG
 62
     7
100
AcDbVertex
100
AcDb2dVertex
 10
139.088260780831
 20
218.9792497173906
 30
0.0
  0
VERTEX
  5
5F8
330
5F6
100
AcDbEntity
  8
BEMA_U_00DFUNG
 62
     7
100
AcDbVertex
100
AcDb2dVertex
 10
139.0610968919489
 20
218.9792497173906
 30
0.0
  0
SEQEND
  5
5F9
330
5F6
100
AcDbEntity
  8
BEMA_U_00DFUNG
 62
     7
  0
POLYLINE
  5
5FA
330
1F
100
AcDbEntity
  8
BEMA_U_00DFUNG
 62
     7
100
AcDb2dPolyline
 66
     1
 10
0.0
 20
0.0
 30
0.0
  0
VERTEX
  5
5FB
330
5FA
100
AcDbEntity
  8
BEMA_U_00DFUNG
 62
     7
100
AcDbVertex
100
AcDb2dVertex
 10
139.088260780831
 20
218.9792497173906
 30
0.0
  0
VERTEX
  5
5FC
330
5FA
100
AcDbEntity
  8
BEMA_U_00DFUNG
 62
     7
100
AcDbVertex
100
AcDb2dVertex
 10
139.0610968919489
 20
218.9792497173906
 30
0.0
  0
SEQEND
  5
5FD
330
5FA
100
AcDbEntity
  8
BEMA_U_00DFUNG
 62
     7
  0
POLYLINE
  5
5FE
330
1F
100
AcDbEntity
  8
BEMA_U_00DFUNG
 62
     7
100
AcDb2dPolyline
 66
     1
 10
0.0
 20
0.0
 30
0.0
  0
VERTEX
  5
5FF
330
5FE
100
AcDbEntity
  8
BEMA_U_00DFUNG
 62
     7
100
AcDbVertex
100
AcDb2dVertex
 10
139.088260780831
 20
218.9284497174032
 30
0.0
  0
VERTEX
  5
600
330
5FE
100
AcDbEntity
  8
BEMA_U_00DFUNG
 62
     7
100
AcDbVertex
100
AcDb2dVertex
 10
138.6751580031564
 20
218.9284497174032
 30
0.0
  0
SEQEND
  5
601
330
5FE
100
AcDbEntity
  8
BEMA_U_00DFUNG
 62
     7
  0
POLYLINE
  5
602
330
1F
100
AcDbEntity
  8
BEMA_U_00DFUNG
 62
     7
100
AcDb2dPolyline
 66
     1
 10
0.0
 20
0.0
 30
0.0
  0
VERTEX
  5
603
330
602
100
AcDbEntity
  8
BEMA_U_00DFUNG
 62
     7
100
AcDbVertex
100
AcDb2dVertex
 10
139.088260780831
 20
218.8776497174158
 30
0.0
  0
VERTEX
  5
604
330
602
100
AcDbEntity
  8
BEMA_U_00DFUNG
 62
     7
100
AcDbVertex
100
AcDb2dVertex
 10
138.2892191143644
 20
218.8776497174158
 30
0.0
  0
SEQEND
  5
605
330
602
100
AcDbEntity
  8
BEMA_U_00DFUNG
 62
     7
  0
POLYLINE
  5
606
330
1F
100
AcDbEntity
  8
BEMA_U_00DFUNG
 62
     7
100
AcDb2dPolyline
 66
     1
 10
0.0
 20
0.0
 30
0.0
  0
VERTEX
  5
607
330
606
100
AcDbEntity
  8
BEMA_U_00DFUNG
 62
     7
100
AcDbVertex
100
AcDb2dVertex
 10
139.088260780831
 20
218.8268497174288
 30
0.0
  0
VERTEX
  5
608
330
606
100
AcDbEntity
  8
BEMA_U_00DFUNG
 62
     7
100
AcDbVertex
100
AcDb2dVertex
 10
137.9036330033494
 20
218.8268497174288
 30
0.0
  0
SEQEND
  5
609
330
606
100
AcDbEntity
  8
BEMA_U_00DFUNG
 62
     7
  0
POLYLINE
  5
60A
330
1F
100
AcDbEntity
  8
BEMA_U_00DFUNG
 62
     7
100
AcDb2dPolyline
 66
     1
 10
0.0
 20
0.0
 30
0.0
  0
VERTEX
  5
60B
330
60A
100
AcDbEntity
  8
BEMA_U_00DFUNG
 62
     7
100
AcDbVertex
100
AcDb2dVertex
 10
139.088260780831
 20
218.7760497174414
 30
0.0
  0
VERTEX
  5
60C
330
60A
100
AcDbEntity
  8
BEMA_U_00DFUNG
 62
     7
100
AcDbVertex
100
AcDb2dVertex
 10
137.5176941145569
 20
218.7760497174414
 30
0.0
  0
SEQEND
  5
60D
330
60A
100
AcDbEntity
  8
BEMA_U_00DFUNG
 62
     7
  0
POLYLINE
  5
60E
330
1F
100
AcDbEntity
  8
BEMA_U_00DFUNG
 62
     7
100
AcDb2dPolyline
 66
     1
 10
0.0
 20
0.0
 30
0.0
  0
VERTEX
  5
60F
330
60E
100
AcDbEntity
  8
BEMA_U_00DFUNG
 62
     7
100
AcDbVertex
100
AcDb2dVertex
 10
139.088260780831
 20
218.7252497174543
 30
0.0
  0
VERTEX
  5
610
330
60E
100
AcDbEntity
  8
BEMA_U_00DFUNG
 62
     7
100
AcDbVertex
100
AcDb2dVertex
 10
137.1317552257645
 20
218.7252497174543
 30
0.0
  0
SEQEND
  5
611
330
60E
100
AcDbEntity
  8
BEMA_U_00DFUNG
 62
     7
  0
POLYLINE
  5
612
330
1F
100
AcDbEntity
  8
BEMA_U_00DFUNG
 62
     7
100
AcDb2dPolyline
 66
     1
 10
0.0
 20
0.0
 30
0.0
  0
VERTEX
  5
613
330
612
100
AcDbEntity
  8
BEMA_U_00DFUNG
 62
     7
100
AcDbVertex
100
AcDb2dVertex
 10
139.088260780831
 20
218.674449717467
 30
0.0
  0
VERTEX
  5
614
330
612
100
AcDbEntity
  8
BEMA_U_00DFUNG
 62
     7
100
AcDbVertex
100
AcDb2dVertex
 10
136.7458163369724
 20
218.674449717467
 30
0.0
  0
SEQEND
  5
615
330
612
100
AcDbEntity
  8
BEMA_U_00DFUNG
 62
     7
  0
POLYLINE
  5
616
330
1F
100
AcDbEntity
  8
BEMA_U_00DFUNG
 62
     7
100
AcDb2dPolyline
 66
     1
 10
0.0
 20
0.0
 30
0.0
  0
VERTEX
  5
617
330
616
100
AcDbEntity
  8
BEMA_U_00DFUNG
 62
     7
100
AcDbVertex
100
AcDb2dVertex
 10
139.088260780831
 20
218.6236497174796
 30
0.0
  0
VERTEX
  5
618
330
616
100
AcDbEntity
  8
BEMA_U_00DFUNG
 62
     7
100
AcDbVertex
100
AcDb2dVertex
 10
136.3595246704022
 20
218.6236497174796
 30
0.0
  0
SEQEND
  5
619
330
616
100
AcDbEntity
  8
BEMA_U_00DFUNG
 62
     7
  0
POLYLINE
  5
61A
330
1F
100
AcDbEntity
  8
BEMA_U_00DFUNG
 62
     7
100
AcDb2dPolyline
 66
     1
 10
0.0
 20
0.0
 30
0.0
  0
VERTEX
  5
61B
330
61A
100
AcDbEntity
  8
BEMA_U_00DFUNG
 62
     7
100
AcDbVertex
100
AcDb2dVertex
 10
139.088260780831
 20
218.57320249527
 30
0.0
  0
VERTEX
  5
61C
330
61A
100
AcDbEntity
  8
BEMA_U_00DFUNG
 62
     7
100
AcDbVertex
100
AcDb2dVertex
 10
135.974291337165
 20
218.57320249527
 30
0.0
  0
SEQEND
  5
61D
330
61A
100
AcDbEntity
  8
BEMA_U_00DFUNG
 62
     7
  0
POLYLINE
  5
61E
330
1F
100
AcDbEntity
  8
BEMA_U_00DFUNG
 62
     7
100
AcDb2dPolyline
 66
     1
 10
0.0
 20
0.0
 30
0.0
  0
VERTEX
  5
61F
330
61E
100
AcDbEntity
  8
BEMA_U_00DFUNG
 62
     7
100
AcDbVertex
100
AcDb2dVertex
 10
139.088260780831
 20
218.5224024952826
 30
0.0
  0
VERTEX
  5
620
330
61E
100
AcDbEntity
  8
BEMA_U_00DFUNG
 62
     7
100
AcDbVertex
100
AcDb2dVertex
 10
135.5883524483726
 20
218.5224024952826
 30
0.0
  0
SEQEND
  5
621
330
61E
100
AcDbEntity
  8
BEMA_U_00DFUNG
 62
     7
  0
POLYLINE
  5
622
330
1F
100
AcDbEntity
  8
BEMA_U_00DFUNG
 62
     7
100
AcDb2dPolyline
 66
     1
 10
0.0
 20
0.0
 30
0.0
  0
VERTEX
  5
623
330
622
100
AcDbEntity
  8
BEMA_U_00DFUNG
 62
     7
100
AcDbVertex
100
AcDb2dVertex
 10
162.5878468860674
 20
218.5224024952826
 30
0.0
  0
VERTEX
  5
624
330
622
100
AcDbEntity
  8
BEMA_U_00DFUNG
 62
     7
100
AcDbVertex
100
AcDb2dVertex
 10
159.0879385536089
 20
218.9827774951676
 30
0.0
  0
VERTEX
  5
625
330
622
100
AcDbEntity
  8
BEMA_U_00DFUNG
 62
     7
100
AcDbVertex
100
AcDb2dVertex
 10
159.0879385536089
 20
218.0616747176198
 30
0.0
  0
VERTEX
  5
626
330
622
100
AcDbEntity
  8
BEMA_U_00DFUNG
 62
     7
100
AcDbVertex
100
AcDb2dVertex
 10
162.5878468860674
 20
218.5224024952826
 30
0.0
  0
SEQEND
  5
628
330
622
100
AcDbEntity
  8
BEMA_U_00DFUNG
 62
     7
  0
HATCH
  5
627
330
1F
100
AcDbEntity
  8
BEMA_U_00DFUNG
 62
     7
100
AcDbHatch
 10
0.0
 20
0.0
 30
0.0
210
0.0
220
0.0
230
1.0
  2
SOLID
 70
     1
 71
     0
 91
        1
 92
        1
 93
        3
 72
     1
 10
162.5878468860674
 20
218.5224024952826
 11
159.0879385536089
 21
218.9827774951676
 72
     1
 10
159.0879385536089
 20
218.9827774951676
 11
159.0879385536089
 21
218.0616747176198
 72
     1
 10
159.0879385536089
 20
218.0616747176198
 11
162.5878468860674
 21
218.5224024952826
 97
        0
 75
     0
 76
     1
 98
        0
  0
POLYLINE
  5
629
330
1F
100
AcDbEntity
  8
BEMA_U_00DFUNG
 62
     7
100
AcDb2dPolyline
 66
     1
 10
0.0
 20
0.0
 30
0.0
  0
VERTEX
  5
62A
330
629
100
AcDbEntity
  8
BEMA_U_00DFUNG
 62
     7
100
AcDbVertex
100
AcDb2dVertex
 10
159.0879385536089
 20
218.9792497173906
 30
0.0
  0
VERTEX
  5
62B
330
629
100
AcDbEntity
  8
BEMA_U_00DFUNG
 62
     7
100
AcDbVertex
100
AcDb2dVertex
 10
159.1151024424911
 20
218.9792497173906
 30
0.0
  0
SEQEND
  5
62C
330
629
100
AcDbEntity
  8
BEMA_U_00DFUNG
 62
     7
  0
POLYLINE
  5
62D
330
1F
100
AcDbEntity
  8
BEMA_U_00DFUNG
 62
     7
100
AcDb2dPolyline
 66
     1
 10
0.0
 20
0.0
 30
0.0
  0
VERTEX
  5
62E
330
62D
100
AcDbEntity
  8
BEMA_U_00DFUNG
 62
     7
100
AcDbVertex
100
AcDb2dVertex
 10
159.0879385536089
 20
218.9792497173906
 30
0.0
  0
VERTEX
  5
62F
330
62D
100
AcDbEntity
  8
BEMA_U_00DFUNG
 62
     7
100
AcDbVertex
100
AcDb2dVertex
 10
159.1151024424911
 20
218.9792497173906
 30
0.0
  0
SEQEND
  5
630
330
62D
100
AcDbEntity
  8
BEMA_U_00DFUNG
 62
     7
  0
POLYLINE
  5
631
330
1F
100
AcDbEntity
  8
BEMA_U_00DFUNG
 62
     7
100
AcDb2dPolyline
 66
     1
 10
0.0
 20
0.0
 30
0.0
  0
VERTEX
  5
632
330
631
100
AcDbEntity
  8
BEMA_U_00DFUNG
 62
     7
100
AcDbVertex
100
AcDb2dVertex
 10
159.0879385536089
 20
218.9284497174032
 30
0.0
  0
VERTEX
  5
633
330
631
100
AcDbEntity
  8
BEMA_U_00DFUNG
 62
     7
100
AcDbVertex
100
AcDb2dVertex
 10
159.5010413312835
 20
218.9284497174032
 30
0.0
  0
SEQEND
  5
634
330
631
100
AcDbEntity
  8
BEMA_U_00DFUNG
 62
     7
  0
POLYLINE
  5
635
330
1F
100
AcDbEntity
  8
BEMA_U_00DFUNG
 62
     7
100
AcDb2dPolyline
 66
     1
 10
0.0
 20
0.0
 30
0.0
  0
VERTEX
  5
636
330
635
100
AcDbEntity
  8
BEMA_U_00DFUNG
 62
     7
100
AcDbVertex
100
AcDb2dVertex
 10
159.0879385536089
 20
218.8776497174158
 30
0.0
  0
VERTEX
  5
637
330
635
100
AcDbEntity
  8
BEMA_U_00DFUNG
 62
     7
100
AcDbVertex
100
AcDb2dVertex
 10
159.8869802200759
 20
218.8776497174158
 30
0.0
  0
SEQEND
  5
638
330
635
100
AcDbEntity
  8
BEMA_U_00DFUNG
 62
     7
  0
POLYLINE
  5
639
330
1F
100
AcDbEntity
  8
BEMA_U_00DFUNG
 62
     7
100
AcDb2dPolyline
 66
     1
 10
0.0
 20
0.0
 30
0.0
  0
VERTEX
  5
63A
330
639
100
AcDbEntity
  8
BEMA_U_00DFUNG
 62
     7
100
AcDbVertex
100
AcDb2dVertex
 10
159.0879385536089
 20
218.8268497174288
 30
0.0
  0
VERTEX
  5
63B
330
639
100
AcDbEntity
  8
BEMA_U_00DFUNG
 62
     7
100
AcDbVertex
100
AcDb2dVertex
 10
160.2729191088684
 20
218.8268497174288
 30
0.0
  0
SEQEND
  5
63C
330
639
100
AcDbEntity
  8
BEMA_U_00DFUNG
 62
     7
  0
POLYLINE
  5
63D
330
1F
100
AcDbEntity
  8
BEMA_U_00DFUNG
 62
     7
100
AcDb2dPolyline
 66
     1
 10
0.0
 20
0.0
 30
0.0
  0
VERTEX
  5
63E
330
63D
100
AcDbEntity
  8
BEMA_U_00DFUNG
 62
     7
100
AcDbVertex
100
AcDb2dVertex
 10
159.0879385536089
 20
218.7760497174414
 30
0.0
  0
VERTEX
  5
63F
330
63D
100
AcDbEntity
  8
BEMA_U_00DFUNG
 62
     7
100
AcDbVertex
100
AcDb2dVertex
 10
160.658505219883
 20
218.7760497174414
 30
0.0
  0
SEQEND
  5
640
330
63D
100
AcDbEntity
  8
BEMA_U_00DFUNG
 62
     7
  0
POLYLINE
  5
641
330
1F
100
AcDbEntity
  8
BEMA_U_00DFUNG
 62
     7
100
AcDb2dPolyline
 66
     1
 10
0.0
 20
0.0
 30
0.0
  0
VERTEX
  5
642
330
641
100
AcDbEntity
  8
BEMA_U_00DFUNG
 62
     7
100
AcDbVertex
100
AcDb2dVertex
 10
159.0879385536089
 20
218.7252497174543
 30
0.0
  0
VERTEX
  5
643
330
641
100
AcDbEntity
  8
BEMA_U_00DFUNG
 62
     7
100
AcDbVertex
100
AcDb2dVertex
 10
161.0444441086754
 20
218.7252497174543
 30
0.0
  0
SEQEND
  5
644
330
641
100
AcDbEntity
  8
BEMA_U_00DFUNG
 62
     7
  0
POLYLINE
  5
645
330
1F
100
AcDbEntity
  8
BEMA_U_00DFUNG
 62
     7
100
AcDb2dPolyline
 66
     1
 10
0.0
 20
0.0
 30
0.0
  0
VERTEX
  5
646
330
645
100
AcDbEntity
  8
BEMA_U_00DFUNG
 62
     7
100
AcDbVertex
100
AcDb2dVertex
 10
159.0879385536089
 20
218.674449717467
 30
0.0
  0
VERTEX
  5
647
330
645
100
AcDbEntity
  8
BEMA_U_00DFUNG
 62
     7
100
AcDbVertex
100
AcDb2dVertex
 10
161.4303829974679
 20
218.674449717467
 30
0.0
  0
SEQEND
  5
648
330
645
100
AcDbEntity
  8
BEMA_U_00DFUNG
 62
     7
  0
POLYLINE
  5
649
330
1F
100
AcDbEntity
  8
BEMA_U_00DFUNG
 62
     7
100
AcDb2dPolyline
 66
     1
 10
0.0
 20
0.0
 30
0.0
  0
VERTEX
  5
64A
330
649
100
AcDbEntity
  8
BEMA_U_00DFUNG
 62
     7
100
AcDbVertex
100
AcDb2dVertex
 10
159.0879385536089
 20
218.6236497174796
 30
0.0
  0
VERTEX
  5
64B
330
649
100
AcDbEntity
  8
BEMA_U_00DFUNG
 62
     7
100
AcDbVertex
100
AcDb2dVertex
 10
161.8163218862603
 20
218.6236497174796
 30
0.0
  0
SEQEND
  5
64C
330
649
100
AcDbEntity
  8
BEMA_U_00DFUNG
 62
     7
  0
POLYLINE
  5
64D
330
1F
100
AcDbEntity
  8
BEMA_U_00DFUNG
 62
     7
100
AcDb2dPolyline
 66
     1
 10
0.0
 20
0.0
 30
0.0
  0
VERTEX
  5
64E
330
64D
100
AcDbEntity
  8
BEMA_U_00DFUNG
 62
     7
100
AcDbVertex
100
AcDb2dVertex
 10
159.0879385536089
 20
218.57320249527
 30
0.0
  0
VERTEX
  5
64F
330
64D
100
AcDbEntity
  8
BEMA_U_00DFUNG
 62
     7
100
AcDbVertex
100
AcDb2dVertex
 10
162.2026135528305
 20
218.57320249527
 30
0.0
  0
SEQEND
  5
650
330
64D
100
AcDbEntity
  8
BEMA_U_00DFUNG
 62
     7
  0
POLYLINE
  5
651
330
1F
100
AcDbEntity
  8
BEMA_U_00DFUNG
 62
     7
100
AcDb2dPolyline
 66
     1
 10
0.0
 20
0.0
 30
0.0
  0
VERTEX
  5
652
330
651
100
AcDbEntity
  8
BEMA_U_00DFUNG
 62
     7
100
AcDbVertex
100
AcDb2dVertex
 10
159.0879385536089
 20
218.5224024952826
 30
0.0
  0
VERTEX
  5
653
330
651
100
AcDbEntity
  8
BEMA_U_00DFUNG
 62
     7
100
AcDbVertex
100
AcDb2dVertex
 10
162.5878468860674
 20
218.5224024952826
 30
0.0
  0
SEQEND
  5
654
330
651
100
AcDbEntity
  8
BEMA_U_00DFUNG
 62
     7
  0
POLYLINE
  5
655
330
1F
100
AcDbEntity
  8
BEMA_U_00DFUNG
 62
     7
100
AcDb2dPolyline
 66
     1
 10
0.0
 20
0.0
 30
0.0
  0
VERTEX
  5
656
330
655
100
AcDbEntity
  8
BEMA_U_00DFUNG
 62
     7
100
AcDbVertex
100
AcDb2dVertex
 10
159.0879385536089
 20
218.0652024953968
 30
0.0
  0
VERTEX
  5
657
330
655
100
AcDbEntity
  8
BEMA_U_00DFUNG
 62
     7
100
AcDbVertex
100
AcDb2dVertex
 10
159.1151024424911
 20
218.0652024953968
 30
0.0
  0
SEQEND
  5
658
330
655
100
AcDbEntity
  8
BEMA_U_00DFUNG
 62
     7
  0
POLYLINE
  5
659
330
1F
100
AcDbEntity
  8
BEMA_U_00DFUNG
 62
     7
100
AcDb2dPolyline
 66
     1
 10
0.0
 20
0.0
 30
0.0
  0
VERTEX
  5
65A
330
659
100
AcDbEntity
  8
BEMA_U_00DFUNG
 62
     7
100
AcDbVertex
100
AcDb2dVertex
 10
159.0879385536089
 20
218.0652024953968
 30
0.0
  0
VERTEX
  5
65B
330
659
100
AcDbEntity
  8
BEMA_U_00DFUNG
 62
     7
100
AcDbVertex
100
AcDb2dVertex
 10
159.1151024424911
 20
218.0652024953968
 30
0.0
  0
SEQEND
  5
65C
330
659
100
AcDbEntity
  8
BEMA_U_00DFUNG
 62
     7
  0
POLYLINE
  5
65D
330
1F
100
AcDbEntity
  8
BEMA_U_00DFUNG
 62
     7
100
AcDb2dPolyline
 66
     1
 10
0.0
 20
0.0
 30
0.0
  0
VERTEX
  5
65E
330
65D
100
AcDbEntity
  8
BEMA_U_00DFUNG
 62
     7
100
AcDbVertex
100
AcDb2dVertex
 10
159.0879385536089
 20
218.1160024953842
 30
0.0
  0
VERTEX
  5
65F
330
65D
100
AcDbEntity
  8
BEMA_U_00DFUNG
 62
     7
100
AcDbVertex
100
AcDb2dVertex
 10
159.5010413312835
 20
218.1160024953842
 30
0.0
  0
SEQEND
  5
660
330
65D
100
AcDbEntity
  8
BEMA_U_00DFUNG
 62
     7
  0
POLYLINE
  5
661
330
1F
100
AcDbEntity
  8
BEMA_U_00DFUNG
 62
     7
100
AcDb2dPolyline
 66
     1
 10
0.0
 20
0.0
 30
0.0
  0
VERTEX
  5
662
330
661
100
AcDbEntity
  8
BEMA_U_00DFUNG
 62
     7
100
AcDbVertex
100
AcDb2dVertex
 10
159.0879385536089
 20
218.1668024953715
 30
0.0
  0
VERTEX
  5
663
330
661
100
AcDbEntity
  8
BEMA_U_00DFUNG
 62
     7
100
AcDbVertex
100
AcDb2dVertex
 10
159.8869802200759
 20
218.1668024953715
 30
0.0
  0
SEQEND
  5
664
330
661
100
AcDbEntity
  8
BEMA_U_00DFUNG
 62
     7
  0
POLYLINE
  5
665
330
1F
100
AcDbEntity
  8
BEMA_U_00DFUNG
 62
     7
100
AcDb2dPolyline
 66
     1
 10
0.0
 20
0.0
 30
0.0
  0
VERTEX
  5
666
330
665
100
AcDbEntity
  8
BEMA_U_00DFUNG
 62
     7
100
AcDbVertex
100
AcDb2dVertex
 10
159.0879385536089
 20
218.2176024953589
 30
0.0
  0
VERTEX
  5
667
330
665
100
AcDbEntity
  8
BEMA_U_00DFUNG
 62
     7
100
AcDbVertex
100
AcDb2dVertex
 10
160.2729191088684
 20
218.2176024953589
 30
0.0
  0
SEQEND
  5
668
330
665
100
AcDbEntity
  8
BEMA_U_00DFUNG
 62
     7
  0
POLYLINE
  5
669
330
1F
100
AcDbEntity
  8
BEMA_U_00DFUNG
 62
     7
100
AcDb2dPolyline
 66
     1
 10
0.0
 20
0.0
 30
0.0
  0
VERTEX
  5
66A
330
669
100
AcDbEntity
  8
BEMA_U_00DFUNG
 62
     7
100
AcDbVertex
100
AcDb2dVertex
 10
159.0879385536089
 20
218.2684024953463
 30
0.0
  0
VERTEX
  5
66B
330
669
100
AcDbEntity
  8
BEMA_U_00DFUNG
 62
     7
100
AcDbVertex
100
AcDb2dVertex
 10
160.658505219883
 20
218.2684024953463
 30
0.0
  0
SEQEND
  5
66C
330
669
100
AcDbEntity
  8
BEMA_U_00DFUNG
 62
     7
  0
POLYLINE
  5
66D
330
1F
100
AcDbEntity
  8
BEMA_U_00DFUNG
 62
     7
100
AcDb2dPolyline
 66
     1
 10
0.0
 20
0.0
 30
0.0
  0
VERTEX
  5
66E
330
66D
100
AcDbEntity
  8
BEMA_U_00DFUNG
 62
     7
100
AcDbVertex
100
AcDb2dVertex
 10
159.0879385536089
 20
218.3192024953337
 30
0.0
  0
VERTEX
  5
66F
330
66D
100
AcDbEntity
  8
BEMA_U_00DFUNG
 62
     7
100
AcDbVertex
100
AcDb2dVertex
 10
161.0444441086754
 20
218.3192024953337
 30
0.0
  0
SEQEND
  5
670
330
66D
100
AcDbEntity
  8
BEMA_U_00DFUNG
 62
     7
  0
POLYLINE
  5
671
330
1F
100
AcDbEntity
  8
BEMA_U_00DFUNG
 62
     7
100
AcDb2dPolyline
 66
     1
 10
0.0
 20
0.0
 30
0.0
  0
VERTEX
  5
672
330
671
100
AcDbEntity
  8
BEMA_U_00DFUNG
 62
     7
100
AcDbVertex
100
AcDb2dVertex
 10
159.0879385536089
 20
218.3700024953207
 30
0.0
  0
VERTEX
  5
673
330
671
100
AcDbEntity
  8
BEMA_U_00DFUNG
 62
     7
100
AcDbVertex
100
AcDb2dVertex
 10
161.4303829974679
 20
218.3700024953207
 30
0.0
  0
SEQEND
  5
674
330
671
100
AcDbEntity
  8
BEMA_U_00DFUNG
 62
     7
  0
POLYLINE
  5
675
330
1F
100
AcDbEntity
  8
BEMA_U_00DFUNG
 62
     7
100
AcDb2dPolyline
 66
     1
 10
0.0
 20
0.0
 30
0.0
  0
VERTEX
  5
676
330
675
100
AcDbEntity
  8
BEMA_U_00DFUNG
 62
     7
100
AcDbVertex
100
AcDb2dVertex
 10
159.0879385536089
 20
218.4208024953078
 30
0.0
  0
VERTEX
  5
677
330
675
100
AcDbEntity
  8
BEMA_U_00DFUNG
 62
     7
100
AcDbVertex
100
AcDb2dVertex
 10
161.8163218862603
 20
218.4208024953078
 30
0.0
  0
SEQEND
  5
678
330
675
100
AcDbEntity
  8
BEMA_U_00DFUNG
 62
     7
  0
POLYLINE
  5
679
330
1F
100
AcDbEntity
  8
BEMA_U_00DFUNG
 62
     7
100
AcDb2dPolyline
 66
     1
 10
0.0
 20
0.0
 30
0.0
  0
VERTEX
  5
67A
330
679
100
AcDbEntity
  8
BEMA_U_00DFUNG
 62
     7
100
AcDbVertex
100
AcDb2dVertex
 10
159.0879385536089
 20
218.4716024952952
 30
0.0
  0
VERTEX
  5
67B
330
679
100
AcDbEntity
  8
BEMA_U_00DFUNG
 62
     7
100
AcDbVertex
100
AcDb2dVertex
 10
162.2026135528305
 20
218.4716024952952
 30
0.0
  0
SEQEND
  5
67C
330
679
100
AcDbEntity
  8
BEMA_U_00DFUNG
 62
     7
  0
POLYLINE
  5
67D
330
1F
100
AcDbEntity
  8
BEMA_U_00DFUNG
 62
     7
100
AcDb2dPolyline
 66
     1
 10
0.0
 20
0.0
 30
0.0
  0
VERTEX
  5
67E
330
67D
100
AcDbEntity
  8
BEMA_U_00DFUNG
 62
     7
100
AcDbVertex
100
AcDb2dVertex
 10
159.0879385536089
 20
218.5224024952826
 30
0.0
  0
VERTEX
  5
67F
330
67D
100
AcDbEntity
  8
BEMA_U_00DFUNG
 62
     7
100
AcDbVertex
100
AcDb2dVertex
 10
162.5878468860674
 20
218.5224024952826
 30
0.0
  0
SEQEND
  5
680
330
67D
100
AcDbEntity
  8
BEMA_U_00DFUNG
 62
     7
  0
POLYLINE
  5
681
330
1F
100
AcDbEntity
  8
BEMA_U_00DFUNG
 62
     7
100
AcDb2dPolyline
 66
     1
 10
0.0
 20
0.0
 30
0.0
  0
VERTEX
  5
682
330
681
100
AcDbEntity
  8
BEMA_U_00DFUNG
 62
     7
100
AcDbVertex
100
AcDb2dVertex
 10
136.7377024480855
 20
195.5223497232548
 30
0.0
  0
VERTEX
  5
683
330
681
100
AcDbEntity
  8
BEMA_U_00DFUNG
 62
     7
100
AcDbVertex
100
AcDb2dVertex
 10
123.5879107847061
 20
195.5223497232548
 30
0.0
  0
SEQEND
  5
684
330
681
100
AcDbEntity
  8
BEMA_U_00DFUNG
 62
     7
  0
POLYLINE
  5
685
330
1F
100
AcDbEntity
  8
BEMA_U_00DFUNG
 62
     7
100
AcDb2dPolyline
 66
     1
 10
0.0
 20
0.0
 30
0.0
  0
VERTEX
  5
686
330
685
100
AcDbEntity
  8
BEMA_U_00DFUNG
 62
     7
100
AcDbVertex
100
AcDb2dVertex
 10
136.7377024480855
 20
166.5222525082826
 30
0.0
  0
VERTEX
  5
687
330
685
100
AcDbEntity
  8
BEMA_U_00DFUNG
 62
     7
100
AcDbVertex
100
AcDb2dVertex
 10
123.5879107847061
 20
166.5222525082826
 30
0.0
  0
SEQEND
  5
688
330
685
100
AcDbEntity
  8
BEMA_U_00DFUNG
 62
     7
  0
POLYLINE
  5
689
330
1F
100
AcDbEntity
  8
BEMA_U_00DFUNG
 62
     7
100
AcDb2dPolyline
 66
     1
 10
0.0
 20
0.0
 30
0.0
  0
VERTEX
  5
68A
330
689
100
AcDbEntity
  8
BEMA_U_00DFUNG
 62
     7
100
AcDbVertex
100
AcDb2dVertex
 10
125.5878080064283
 20
195.5223497232548
 30
0.0
  0
VERTEX
  5
68B
330
689
100
AcDbEntity
  8
BEMA_U_00DFUNG
 62
     7
100
AcDbVertex
100
AcDb2dVertex
 10
125.5878080064283
 20
166.5222525082826
 30
0.0
  0
SEQEND
  5
68C
330
689
100
AcDbEntity
  8
BEMA_U_00DFUNG
 62
     7
  0
POLYLINE
  5
68D
330
1F
100
AcDbEntity
  8
BEMA_U_00DFUNG
 62
     7
100
AcDb2dPolyline
 66
     1
 10
0.0
 20
0.0
 30
0.0
  0
VERTEX
  5
68E
330
68D
100
AcDbEntity
  8
BEMA_U_00DFUNG
 62
     7
100
AcDbVertex
100
AcDb2dVertex
 10
125.5878080064283
 20
195.5223497232548
 30
0.0
  0
VERTEX
  5
68F
330
68D
100
AcDbEntity
  8
BEMA_U_00DFUNG
 62
     7
100
AcDbVertex
100
AcDb2dVertex
 10
125.1270802287658
 20
192.0220886130189
 30
0.0
  0
VERTEX
  5
690
330
68D
100
AcDbEntity
  8
BEMA_U_00DFUNG
 62
     7
100
AcDbVertex
100
AcDb2dVertex
 10
126.0488885618688
 20
192.0220886130189
 30
0.0
  0
VERTEX
  5
691
330
68D
100
AcDbEntity
  8
BEMA_U_00DFUNG
 62
     7
100
AcDbVertex
100
AcDb2dVertex
 10
125.5878080064283
 20
195.5223497232548
 30
0.0
  0
SEQEND
  5
693
330
68D
100
AcDbEntity
  8
BEMA_U_00DFUNG
 62
     7
  0
HATCH
  5
692
330
1F
100
AcDbEntity
  8
BEMA_U_00DFUNG
 62
     7
100
AcDbHatch
 10
0.0
 20
0.0
 30
0.0
210
0.0
220
0.0
230
1.0
  2
SOLID
 70
     1
 71
     0
 91
        1
 92
        1
 93
        3
 72
     1
 10
125.5878080064283
 20
195.5223497232548
 11
125.1270802287658
 21
192.0220886130189
 72
     1
 10
125.1270802287658
 20
192.0220886130189
 11
126.0488885618688
 21
192.0220886130189
 72
     1
 10
126.0488885618688
 20
192.0220886130189
 11
125.5878080064283
 21
195.5223497232548
 97
        0
 75
     0
 76
     1
 98
        0
  0
POLYLINE
  5
694
330
1F
100
AcDbEntity
  8
BEMA_U_00DFUNG
 62
     7
100
AcDb2dPolyline
 66
     1
 10
0.0
 20
0.0
 30
0.0
  0
VERTEX
  5
695
330
694
100
AcDbEntity
  8
BEMA_U_00DFUNG
 62
     7
100
AcDbVertex
100
AcDb2dVertex
 10
125.1306080065428
 20
192.0220886130189
 30
0.0
  0
VERTEX
  5
696
330
694
100
AcDbEntity
  8
BEMA_U_00DFUNG
 62
     7
100
AcDbVertex
100
AcDb2dVertex
 10
125.1306080065428
 20
192.049252501901
 30
0.0
  0
SEQEND
  5
697
330
694
100
AcDbEntity
  8
BEMA_U_00DFUNG
 62
     7
  0
POLYLINE
  5
698
330
1F
100
AcDbEntity
  8
BEMA_U_00DFUNG
 62
     7
100
AcDb2dPolyline
 66
     1
 10
0.0
 20
0.0
 30
0.0
  0
VERTEX
  5
699
330
698
100
AcDbEntity
  8
BEMA_U_00DFUNG
 62
     7
100
AcDbVertex
100
AcDb2dVertex
 10
125.1306080065428
 20
192.0220886130189
 30
0.0
  0
VERTEX
  5
69A
330
698
100
AcDbEntity
  8
BEMA_U_00DFUNG
 62
     7
100
AcDbVertex
100
AcDb2dVertex
 10
125.1306080065428
 20
192.049252501901
 30
0.0
  0
SEQEND
  5
69B
330
698
100
AcDbEntity
  8
BEMA_U_00DFUNG
 62
     7
  0
POLYLINE
  5
69C
330
1F
100
AcDbEntity
  8
BEMA_U_00DFUNG
 62
     7
100
AcDb2dPolyline
 66
     1
 10
0.0
 20
0.0
 30
0.0
  0
VERTEX
  5
69D
330
69C
100
AcDbEntity
  8
BEMA_U_00DFUNG
 62
     7
100
AcDbVertex
100
AcDb2dVertex
 10
125.1814080065299
 20
192.0220886130189
 30
0.0
  0
VERTEX
  5
69E
330
69C
100
AcDbEntity
  8
BEMA_U_00DFUNG
 62
     7
100
AcDbVertex
100
AcDb2dVertex
 10
125.1814080065299
 20
192.4355441684709
 30
0.0
  0
SEQEND
  5
69F
330
69C
100
AcDbEntity
  8
BEMA_U_00DFUNG
 62
     7
  0
POLYLINE
  5
6A0
330
1F
100
AcDbEntity
  8
BEMA_U_00DFUNG
 62
     7
100
AcDb2dPolyline
 66
     1
 10
0.0
 20
0.0
 30
0.0
  0
VERTEX
  5
6A1
330
6A0
100
AcDbEntity
  8
BEMA_U_00DFUNG
 62
     7
100
AcDbVertex
100
AcDb2dVertex
 10
125.232560784295
 20
192.0220886130189
 30
0.0
  0
VERTEX
  5
6A2
330
6A0
100
AcDbEntity
  8
BEMA_U_00DFUNG
 62
     7
100
AcDbVertex
100
AcDb2dVertex
 10
125.232560784295
 20
192.8211302794859
 30
0.0
  0
SEQEND
  5
6A3
330
6A0
100
AcDbEntity
  8
BEMA_U_00DFUNG
 62
     7
  0
POLYLINE
  5
6A4
330
1F
100
AcDbEntity
  8
BEMA_U_00DFUNG
 62
     7
100
AcDb2dPolyline
 66
     1
 10
0.0
 20
0.0
 30
0.0
  0
VERTEX
  5
6A5
330
6A4
100
AcDbEntity
  8
BEMA_U_00DFUNG
 62
     7
100
AcDbVertex
100
AcDb2dVertex
 10
125.2833607842824
 20
192.0220886130189
 30
0.0
  0
VERTEX
  5
6A6
330
6A4
100
AcDbEntity
  8
BEMA_U_00DFUNG
 62
     7
100
AcDbVertex
100
AcDb2dVertex
 10
125.2833607842824
 20
193.2067163905002
 30
0.0
  0
SEQEND
  5
6A7
330
6A4
100
AcDbEntity
  8
BEMA_U_00DFUNG
 62
     7
  0
POLYLINE
  5
6A8
330
1F
100
AcDbEntity
  8
BEMA_U_00DFUNG
 62
     7
100
AcDb2dPolyline
 66
     1
 10
0.0
 20
0.0
 30
0.0
  0
VERTEX
  5
6A9
330
6A8
100
AcDbEntity
  8
BEMA_U_00DFUNG
 62
     7
100
AcDbVertex
100
AcDb2dVertex
 10
125.3341607842698
 20
192.0220886130189
 30
0.0
  0
VERTEX
  5
6AA
330
6A8
100
AcDbEntity
  8
BEMA_U_00DFUNG
 62
     7
100
AcDbVertex
100
AcDb2dVertex
 10
125.3341607842698
 20
193.592655279293
 30
0.0
  0
SEQEND
  5
6AB
330
6A8
100
AcDbEntity
  8
BEMA_U_00DFUNG
 62
     7
  0
POLYLINE
  5
6AC
330
1F
100
AcDbEntity
  8
BEMA_U_00DFUNG
 62
     7
100
AcDb2dPolyline
 66
     1
 10
0.0
 20
0.0
 30
0.0
  0
VERTEX
  5
6AD
330
6AC
100
AcDbEntity
  8
BEMA_U_00DFUNG
 62
     7
100
AcDbVertex
100
AcDb2dVertex
 10
125.3849607842569
 20
192.0220886130189
 30
0.0
  0
VERTEX
  5
6AE
330
6AC
100
AcDbEntity
  8
BEMA_U_00DFUNG
 62
     7
100
AcDbVertex
100
AcDb2dVertex
 10
125.3849607842569
 20
193.9789469458628
 30
0.0
  0
SEQEND
  5
6AF
330
6AC
100
AcDbEntity
  8
BEMA_U_00DFUNG
 62
     7
  0
POLYLINE
  5
6B0
330
1F
100
AcDbEntity
  8
BEMA_U_00DFUNG
 62
     7
100
AcDb2dPolyline
 66
     1
 10
0.0
 20
0.0
 30
0.0
  0
VERTEX
  5
6B1
330
6B0
100
AcDbEntity
  8
BEMA_U_00DFUNG
 62
     7
100
AcDbVertex
100
AcDb2dVertex
 10
125.4357607842442
 20
192.0220886130189
 30
0.0
  0
VERTEX
  5
6B2
330
6B0
100
AcDbEntity
  8
BEMA_U_00DFUNG
 62
     7
100
AcDbVertex
100
AcDb2dVertex
 10
125.4357607842442
 20
194.3645330568778
 30
0.0
  0
SEQEND
  5
6B3
330
6B0
100
AcDbEntity
  8
BEMA_U_00DFUNG
 62
     7
  0
POLYLINE
  5
6B4
330
1F
100
AcDbEntity
  8
BEMA_U_00DFUNG
 62
     7
100
AcDb2dPolyline
 66
     1
 10
0.0
 20
0.0
 30
0.0
  0
VERTEX
  5
6B5
330
6B4
100
AcDbEntity
  8
BEMA_U_00DFUNG
 62
     7
100
AcDbVertex
100
AcDb2dVertex
 10
125.4865607842316
 20
192.0220886130189
 30
0.0
  0
VERTEX
  5
6B6
330
6B4
100
AcDbEntity
  8
BEMA_U_00DFUNG
 62
     7
100
AcDbVertex
100
AcDb2dVertex
 10
125.4865607842316
 20
194.7501191678922
 30
0.0
  0
SEQEND
  5
6B7
330
6B4
100
AcDbEntity
  8
BEMA_U_00DFUNG
 62
     7
  0
POLYLINE
  5
6B8
330
1F
100
AcDbEntity
  8
BEMA_U_00DFUNG
 62
     7
100
AcDb2dPolyline
 66
     1
 10
0.0
 20
0.0
 30
0.0
  0
VERTEX
  5
6B9
330
6B8
100
AcDbEntity
  8
BEMA_U_00DFUNG
 62
     7
100
AcDbVertex
100
AcDb2dVertex
 10
125.5370080064412
 20
192.0220886130189
 30
0.0
  0
VERTEX
  5
6BA
330
6B8
100
AcDbEntity
  8
BEMA_U_00DFUNG
 62
     7
100
AcDbVertex
100
AcDb2dVertex
 10
125.5370080064412
 20
195.1360580566849
 30
0.0
  0
SEQEND
  5
6BB
330
6B8
100
AcDbEntity
  8
BEMA_U_00DFUNG
 62
     7
  0
POLYLINE
  5
6BC
330
1F
100
AcDbEntity
  8
BEMA_U_00DFUNG
 62
     7
100
AcDb2dPolyline
 66
     1
 10
0.0
 20
0.0
 30
0.0
  0
VERTEX
  5
6BD
330
6BC
100
AcDbEntity
  8
BEMA_U_00DFUNG
 62
     7
100
AcDbVertex
100
AcDb2dVertex
 10
125.5878080064283
 20
192.0220886130189
 30
0.0
  0
VERTEX
  5
6BE
330
6BC
100
AcDbEntity
  8
BEMA_U_00DFUNG
 62
     7
100
AcDbVertex
100
AcDb2dVertex
 10
125.5878080064283
 20
195.5223497232548
 30
0.0
  0
SEQEND
  5
6BF
330
6BC
100
AcDbEntity
  8
BEMA_U_00DFUNG
 62
     7
  0
POLYLINE
  5
6C0
330
1F
100
AcDbEntity
  8
BEMA_U_00DFUNG
 62
     7
100
AcDb2dPolyline
 66
     1
 10
0.0
 20
0.0
 30
0.0
  0
VERTEX
  5
6C1
330
6C0
100
AcDbEntity
  8
BEMA_U_00DFUNG
 62
     7
100
AcDbVertex
100
AcDb2dVertex
 10
126.0450080063141
 20
192.0220886130189
 30
0.0
  0
VERTEX
  5
6C2
330
6C0
100
AcDbEntity
  8
BEMA_U_00DFUNG
 62
     7
100
AcDbVertex
100
AcDb2dVertex
 10
126.0450080063141
 20
192.049252501901
 30
0.0
  0
SEQEND
  5
6C3
330
6C0
100
AcDbEntity
  8
BEMA_U_00DFUNG
 62
     7
  0
POLYLINE
  5
6C4
330
1F
100
AcDbEntity
  8
BEMA_U_00DFUNG
 62
     7
100
AcDb2dPolyline
 66
     1
 10
0.0
 20
0.0
 30
0.0
  0
VERTEX
  5
6C5
330
6C4
100
AcDbEntity
  8
BEMA_U_00DFUNG
 62
     7
100
AcDbVertex
100
AcDb2dVertex
 10
126.0450080063141
 20
192.0220886130189
 30
0.0
  0
VERTEX
  5
6C6
330
6C4
100
AcDbEntity
  8
BEMA_U_00DFUNG
 62
     7
100
AcDbVertex
100
AcDb2dVertex
 10
126.0450080063141
 20
192.049252501901
 30
0.0
  0
SEQEND
  5
6C7
330
6C4
100
AcDbEntity
  8
BEMA_U_00DFUNG
 62
     7
  0
POLYLINE
  5
6C8
330
1F
100
AcDbEntity
  8
BEMA_U_00DFUNG
 62
     7
100
AcDb2dPolyline
 66
     1
 10
0.0
 20
0.0
 30
0.0
  0
VERTEX
  5
6C9
330
6C8
100
AcDbEntity
  8
BEMA_U_00DFUNG
 62
     7
100
AcDbVertex
100
AcDb2dVertex
 10
125.9945607841045
 20
192.0220886130189
 30
0.0
  0
VERTEX
  5
6CA
330
6C8
100
AcDbEntity
  8
BEMA_U_00DFUNG
 62
     7
100
AcDbVertex
100
AcDb2dVertex
 10
125.9945607841045
 20
192.4355441684709
 30
0.0
  0
SEQEND
  5
6CB
330
6C8
100
AcDbEntity
  8
BEMA_U_00DFUNG
 62
     7
  0
POLYLINE
  5
6CC
330
1F
100
AcDbEntity
  8
BEMA_U_00DFUNG
 62
     7
100
AcDb2dPolyline
 66
     1
 10
0.0
 20
0.0
 30
0.0
  0
VERTEX
  5
6CD
330
6CC
100
AcDbEntity
  8
BEMA_U_00DFUNG
 62
     7
100
AcDbVertex
100
AcDb2dVertex
 10
125.9437607841171
 20
192.0220886130189
 30
0.0
  0
VERTEX
  5
6CE
330
6CC
100
AcDbEntity
  8
BEMA_U_00DFUNG
 62
     7
100
AcDbVertex
100
AcDb2dVertex
 10
125.9437607841171
 20
192.8211302794859
 30
0.0
  0
SEQEND
  5
6CF
330
6CC
100
AcDbEntity
  8
BEMA_U_00DFUNG
 62
     7
  0
POLYLINE
  5
6D0
330
1F
100
AcDbEntity
  8
BEMA_U_00DFUNG
 62
     7
100
AcDb2dPolyline
 66
     1
 10
0.0
 20
0.0
 30
0.0
  0
VERTEX
  5
6D1
330
6D0
100
AcDbEntity
  8
BEMA_U_00DFUNG
 62
     7
100
AcDbVertex
100
AcDb2dVertex
 10
125.89296078413
 20
192.0220886130189
 30
0.0
  0
VERTEX
  5
6D2
330
6D0
100
AcDbEntity
  8
BEMA_U_00DFUNG
 62
     7
100
AcDbVertex
100
AcDb2dVertex
 10
125.89296078413
 20
193.2067163905002
 30
0.0
  0
SEQEND
  5
6D3
330
6D0
100
AcDbEntity
  8
BEMA_U_00DFUNG
 62
     7
  0
POLYLINE
  5
6D4
330
1F
100
AcDbEntity
  8
BEMA_U_00DFUNG
 62
     7
100
AcDb2dPolyline
 66
     1
 10
0.0
 20
0.0
 30
0.0
  0
VERTEX
  5
6D5
330
6D4
100
AcDbEntity
  8
BEMA_U_00DFUNG
 62
     7
100
AcDbVertex
100
AcDb2dVertex
 10
125.8421607841426
 20
192.0220886130189
 30
0.0
  0
VERTEX
  5
6D6
330
6D4
100
AcDbEntity
  8
BEMA_U_00DFUNG
 62
     7
100
AcDbVertex
100
AcDb2dVertex
 10
125.8421607841426
 20
193.592655279293
 30
0.0
  0
SEQEND
  5
6D7
330
6D4
100
AcDbEntity
  8
BEMA_U_00DFUNG
 62
     7
  0
POLYLINE
  5
6D8
330
1F
100
AcDbEntity
  8
BEMA_U_00DFUNG
 62
     7
100
AcDb2dPolyline
 66
     1
 10
0.0
 20
0.0
 30
0.0
  0
VERTEX
  5
6D9
330
6D8
100
AcDbEntity
  8
BEMA_U_00DFUNG
 62
     7
100
AcDbVertex
100
AcDb2dVertex
 10
125.7913607841553
 20
192.0220886130189
 30
0.0
  0
VERTEX
  5
6DA
330
6D8
100
AcDbEntity
  8
BEMA_U_00DFUNG
 62
     7
100
AcDbVertex
100
AcDb2dVertex
 10
125.7913607841553
 20
193.9789469458628
 30
0.0
  0
SEQEND
  5
6DB
330
6D8
100
AcDbEntity
  8
BEMA_U_00DFUNG
 62
     7
  0
POLYLINE
  5
6DC
330
1F
100
AcDbEntity
  8
BEMA_U_00DFUNG
 62
     7
100
AcDb2dPolyline
 66
     1
 10
0.0
 20
0.0
 30
0.0
  0
VERTEX
  5
6DD
330
6DC
100
AcDbEntity
  8
BEMA_U_00DFUNG
 62
     7
100
AcDbVertex
100
AcDb2dVertex
 10
125.7402080063904
 20
192.0220886130189
 30
0.0
  0
VERTEX
  5
6DE
330
6DC
100
AcDbEntity
  8
BEMA_U_00DFUNG
 62
     7
100
AcDbVertex
100
AcDb2dVertex
 10
125.7402080063904
 20
194.3645330568778
 30
0.0
  0
SEQEND
  5
6DF
330
6DC
100
AcDbEntity
  8
BEMA_U_00DFUNG
 62
     7
  0
POLYLINE
  5
6E0
330
1F
100
AcDbEntity
  8
BEMA_U_00DFUNG
 62
     7
100
AcDb2dPolyline
 66
     1
 10
0.0
 20
0.0
 30
0.0
  0
VERTEX
  5
6E1
330
6E0
100
AcDbEntity
  8
BEMA_U_00DFUNG
 62
     7
100
AcDbVertex
100
AcDb2dVertex
 10
125.6894080064031
 20
192.0220886130189
 30
0.0
  0
VERTEX
  5
6E2
330
6E0
100
AcDbEntity
  8
BEMA_U_00DFUNG
 62
     7
100
AcDbVertex
100
AcDb2dVertex
 10
125.6894080064031
 20
194.7501191678922
 30
0.0
  0
SEQEND
  5
6E3
330
6E0
100
AcDbEntity
  8
BEMA_U_00DFUNG
 62
     7
  0
POLYLINE
  5
6E4
330
1F
100
AcDbEntity
  8
BEMA_U_00DFUNG
 62
     7
100
AcDb2dPolyline
 66
     1
 10
0.0
 20
0.0
 30
0.0
  0
VERTEX
  5
6E5
330
6E4
100
AcDbEntity
  8
BEMA_U_00DFUNG
 62
     7
100
AcDbVertex
100
AcDb2dVertex
 10
125.6386080064157
 20
192.0220886130189
 30
0.0
  0
VERTEX
  5
6E6
330
6E4
100
AcDbEntity
  8
BEMA_U_00DFUNG
 62
     7
100
AcDbVertex
100
AcDb2dVertex
 10
125.6386080064157
 20
195.1360580566849
 30
0.0
  0
SEQEND
  5
6E7
330
6E4
100
AcDbEntity
  8
BEMA_U_00DFUNG
 62
     7
  0
POLYLINE
  5
6E8
330
1F
100
AcDbEntity
  8
BEMA_U_00DFUNG
 62
     7
100
AcDb2dPolyline
 66
     1
 10
0.0
 20
0.0
 30
0.0
  0
VERTEX
  5
6E9
330
6E8
100
AcDbEntity
  8
BEMA_U_00DFUNG
 62
     7
100
AcDbVertex
100
AcDb2dVertex
 10
125.5878080064283
 20
192.0220886130189
 30
0.0
  0
VERTEX
  5
6EA
330
6E8
100
AcDbEntity
  8
BEMA_U_00DFUNG
 62
     7
100
AcDbVertex
100
AcDb2dVertex
 10
125.5878080064283
 20
195.5223497232548
 30
0.0
  0
SEQEND
  5
6EB
330
6E8
100
AcDbEntity
  8
BEMA_U_00DFUNG
 62
     7
  0
POLYLINE
  5
6EC
330
1F
100
AcDbEntity
  8
BEMA_U_00DFUNG
 62
     7
100
AcDb2dPolyline
 66
     1
 10
0.0
 20
0.0
 30
0.0
  0
VERTEX
  5
6ED
330
6EC
100
AcDbEntity
  8
BEMA_U_00DFUNG
 62
     7
100
AcDbVertex
100
AcDb2dVertex
 10
125.5878080064283
 20
166.5222525082826
 30
0.0
  0
VERTEX
  5
6EE
330
6EC
100
AcDbEntity
  8
BEMA_U_00DFUNG
 62
     7
100
AcDbVertex
100
AcDb2dVertex
 10
126.0488885618688
 20
170.022160840741
 30
0.0
  0
VERTEX
  5
6EF
330
6EC
100
AcDbEntity
  8
BEMA_U_00DFUNG
 62
     7
100
AcDbVertex
100
AcDb2dVertex
 10
125.1270802287658
 20
170.022160840741
 30
0.0
  0
VERTEX
  5
6F0
330
6EC
100
AcDbEntity
  8
BEMA_U_00DFUNG
 62
     7
100
AcDbVertex
100
AcDb2dVertex
 10
125.5878080064283
 20
166.5222525082826
 30
0.0
  0
SEQEND
  5
6F2
330
6EC
100
AcDbEntity
  8
BEMA_U_00DFUNG
 62
     7
  0
HATCH
  5
6F1
330
1F
100
AcDbEntity
  8
BEMA_U_00DFUNG
 62
     7
100
AcDbHatch
 10
0.0
 20
0.0
 30
0.0
210
0.0
220
0.0
230
1.0
  2
SOLID
 70
     1
 71
     0
 91
        1
 92
        1
 93
        3
 72
     1
 10
125.5878080064283
 20
166.5222525082826
 11
126.0488885618688
 21
170.022160840741
 72
     1
 10
126.0488885618688
 20
170.022160840741
 11
125.1270802287658
 21
170.022160840741
 72
     1
 10
125.1270802287658
 20
170.022160840741
 11
125.5878080064283
 21
166.5222525082826
 97
        0
 75
     0
 76
     1
 98
        0
  0
POLYLINE
  5
6F3
330
1F
100
AcDbEntity
  8
BEMA_U_00DFUNG
 62
     7
100
AcDb2dPolyline
 66
     1
 10
0.0
 20
0.0
 30
0.0
  0
VERTEX
  5
6F4
330
6F3
100
AcDbEntity
  8
BEMA_U_00DFUNG
 62
     7
100
AcDbVertex
100
AcDb2dVertex
 10
126.0450080063141
 20
170.022160840741
 30
0.0
  0
VERTEX
  5
6F5
330
6F3
100
AcDbEntity
  8
BEMA_U_00DFUNG
 62
     7
100
AcDbVertex
100
AcDb2dVertex
 10
126.0450080063141
 20
169.9949969518592
 30
0.0
  0
SEQEND
  5
6F6
330
6F3
100
AcDbEntity
  8
BEMA_U_00DFUNG
 62
     7
  0
POLYLINE
  5
6F7
330
1F
100
AcDbEntity
  8
BEMA_U_00DFUNG
 62
     7
100
AcDb2dPolyline
 66
     1
 10
0.0
 20
0.0
 30
0.0
  0
VERTEX
  5
6F8
330
6F7
100
AcDbEntity
  8
BEMA_U_00DFUNG
 62
     7
100
AcDbVertex
100
AcDb2dVertex
 10
126.0450080063141
 20
170.022160840741
 30
0.0
  0
VERTEX
  5
6F9
330
6F7
100
AcDbEntity
  8
BEMA_U_00DFUNG
 62
     7
100
AcDbVertex
100
AcDb2dVertex
 10
126.0450080063141
 20
169.9949969518592
 30
0.0
  0
SEQEND
  5
6FA
330
6F7
100
AcDbEntity
  8
BEMA_U_00DFUNG
 62
     7
  0
POLYLINE
  5
6FB
330
1F
100
AcDbEntity
  8
BEMA_U_00DFUNG
 62
     7
100
AcDb2dPolyline
 66
     1
 10
0.0
 20
0.0
 30
0.0
  0
VERTEX
  5
6FC
330
6FB
100
AcDbEntity
  8
BEMA_U_00DFUNG
 62
     7
100
AcDbVertex
100
AcDb2dVertex
 10
125.9945607841045
 20
170.022160840741
 30
0.0
  0
VERTEX
  5
6FD
330
6FB
100
AcDbEntity
  8
BEMA_U_00DFUNG
 62
     7
100
AcDbVertex
100
AcDb2dVertex
 10
125.9945607841045
 20
169.6090580630664
 30
0.0
  0
SEQEND
  5
6FE
330
6FB
100
AcDbEntity
  8
BEMA_U_00DFUNG
 62
     7
  0
POLYLINE
  5
6FF
330
1F
100
AcDbEntity
  8
BEMA_U_00DFUNG
 62
     7
100
AcDb2dPolyline
 66
     1
 10
0.0
 20
0.0
 30
0.0
  0
VERTEX
  5
700
330
6FF
100
AcDbEntity
  8
BEMA_U_00DFUNG
 62
     7
100
AcDbVertex
100
AcDb2dVertex
 10
125.9437607841171
 20
170.022160840741
 30
0.0
  0
VERTEX
  5
701
330
6FF
100
AcDbEntity
  8
BEMA_U_00DFUNG
 62
     7
100
AcDbVertex
100
AcDb2dVertex
 10
125.9437607841171
 20
169.2234719520521
 30
0.0
  0
SEQEND
  5
702
330
6FF
100
AcDbEntity
  8
BEMA_U_00DFUNG
 62
     7
  0
POLYLINE
  5
703
330
1F
100
AcDbEntity
  8
BEMA_U_00DFUNG
 62
     7
100
AcDb2dPolyline
 66
     1
 10
0.0
 20
0.0
 30
0.0
  0
VERTEX
  5
704
330
703
100
AcDbEntity
  8
BEMA_U_00DFUNG
 62
     7
100
AcDbVertex
100
AcDb2dVertex
 10
125.89296078413
 20
170.022160840741
 30
0.0
  0
VERTEX
  5
705
330
703
100
AcDbEntity
  8
BEMA_U_00DFUNG
 62
     7
100
AcDbVertex
100
AcDb2dVertex
 10
125.89296078413
 20
168.8371802854816
 30
0.0
  0
SEQEND
  5
706
330
703
100
AcDbEntity
  8
BEMA_U_00DFUNG
 62
     7
  0
POLYLINE
  5
707
330
1F
100
AcDbEntity
  8
BEMA_U_00DFUNG
 62
     7
100
AcDb2dPolyline
 66
     1
 10
0.0
 20
0.0
 30
0.0
  0
VERTEX
  5
708
330
707
100
AcDbEntity
  8
BEMA_U_00DFUNG
 62
     7
100
AcDbVertex
100
AcDb2dVertex
 10
125.8421607841426
 20
170.022160840741
 30
0.0
  0
VERTEX
  5
709
330
707
100
AcDbEntity
  8
BEMA_U_00DFUNG
 62
     7
100
AcDbVertex
100
AcDb2dVertex
 10
125.8421607841426
 20
168.4515941744673
 30
0.0
  0
SEQEND
  5
70A
330
707
100
AcDbEntity
  8
BEMA_U_00DFUNG
 62
     7
  0
POLYLINE
  5
70B
330
1F
100
AcDbEntity
  8
BEMA_U_00DFUNG
 62
     7
100
AcDb2dPolyline
 66
     1
 10
0.0
 20
0.0
 30
0.0
  0
VERTEX
  5
70C
330
70B
100
AcDbEntity
  8
BEMA_U_00DFUNG
 62
     7
100
AcDbVertex
100
AcDb2dVertex
 10
125.7913607841553
 20
170.022160840741
 30
0.0
  0
VERTEX
  5
70D
330
70B
100
AcDbEntity
  8
BEMA_U_00DFUNG
 62
     7
100
AcDbVertex
100
AcDb2dVertex
 10
125.7913607841553
 20
168.0656552856745
 30
0.0
  0
SEQEND
  5
70E
330
70B
100
AcDbEntity
  8
BEMA_U_00DFUNG
 62
     7
  0
POLYLINE
  5
70F
330
1F
100
AcDbEntity
  8
BEMA_U_00DFUNG
 62
     7
100
AcDb2dPolyline
 66
     1
 10
0.0
 20
0.0
 30
0.0
  0
VERTEX
  5
710
330
70F
100
AcDbEntity
  8
BEMA_U_00DFUNG
 62
     7
100
AcDbVertex
100
AcDb2dVertex
 10
125.7402080063904
 20
170.022160840741
 30
0.0
  0
VERTEX
  5
711
330
70F
100
AcDbEntity
  8
BEMA_U_00DFUNG
 62
     7
100
AcDbVertex
100
AcDb2dVertex
 10
125.7402080063904
 20
167.6800691746602
 30
0.0
  0
SEQEND
  5
712
330
70F
100
AcDbEntity
  8
BEMA_U_00DFUNG
 62
     7
  0
POLYLINE
  5
713
330
1F
100
AcDbEntity
  8
BEMA_U_00DFUNG
 62
     7
100
AcDb2dPolyline
 66
     1
 10
0.0
 20
0.0
 30
0.0
  0
VERTEX
  5
714
330
713
100
AcDbEntity
  8
BEMA_U_00DFUNG
 62
     7
100
AcDbVertex
100
AcDb2dVertex
 10
125.6894080064031
 20
170.022160840741
 30
0.0
  0
VERTEX
  5
715
330
713
100
AcDbEntity
  8
BEMA_U_00DFUNG
 62
     7
100
AcDbVertex
100
AcDb2dVertex
 10
125.6894080064031
 20
167.2937775080897
 30
0.0
  0
SEQEND
  5
716
330
713
100
AcDbEntity
  8
BEMA_U_00DFUNG
 62
     7
  0
POLYLINE
  5
717
330
1F
100
AcDbEntity
  8
BEMA_U_00DFUNG
 62
     7
100
AcDb2dPolyline
 66
     1
 10
0.0
 20
0.0
 30
0.0
  0
VERTEX
  5
718
330
717
100
AcDbEntity
  8
BEMA_U_00DFUNG
 62
     7
100
AcDbVertex
100
AcDb2dVertex
 10
125.6386080064157
 20
170.022160840741
 30
0.0
  0
VERTEX
  5
719
330
717
100
AcDbEntity
  8
BEMA_U_00DFUNG
 62
     7
100
AcDbVertex
100
AcDb2dVertex
 10
125.6386080064157
 20
166.9081913970753
 30
0.0
  0
SEQEND
  5
71A
330
717
100
AcDbEntity
  8
BEMA_U_00DFUNG
 62
     7
  0
POLYLINE
  5
71B
330
1F
100
AcDbEntity
  8
BEMA_U_00DFUNG
 62
     7
100
AcDb2dPolyline
 66
     1
 10
0.0
 20
0.0
 30
0.0
  0
VERTEX
  5
71C
330
71B
100
AcDbEntity
  8
BEMA_U_00DFUNG
 62
     7
100
AcDbVertex
100
AcDb2dVertex
 10
125.5878080064283
 20
170.022160840741
 30
0.0
  0
VERTEX
  5
71D
330
71B
100
AcDbEntity
  8
BEMA_U_00DFUNG
 62
     7
100
AcDbVertex
100
AcDb2dVertex
 10
125.5878080064283
 20
166.5222525082826
 30
0.0
  0
SEQEND
  5
71E
330
71B
100
AcDbEntity
  8
BEMA_U_00DFUNG
 62
     7
  0
POLYLINE
  5
71F
330
1F
100
AcDbEntity
  8
BEMA_U_00DFUNG
 62
     7
100
AcDb2dPolyline
 66
     1
 10
0.0
 20
0.0
 30
0.0
  0
VERTEX
  5
720
330
71F
100
AcDbEntity
  8
BEMA_U_00DFUNG
 62
     7
100
AcDbVertex
100
AcDb2dVertex
 10
125.1306080065428
 20
170.022160840741
 30
0.0
  0
VERTEX
  5
721
330
71F
100
AcDbEntity
  8
BEMA_U_00DFUNG
 62
     7
100
AcDbVertex
100
AcDb2dVertex
 10
125.1306080065428
 20
169.9949969518592
 30
0.0
  0
SEQEND
  5
722
330
71F
100
AcDbEntity
  8
BEMA_U_00DFUNG
 62
     7
  0
POLYLINE
  5
723
330
1F
100
AcDbEntity
  8
BEMA_U_00DFUNG
 62
     7
100
AcDb2dPolyline
 66
     1
 10
0.0
 20
0.0
 30
0.0
  0
VERTEX
  5
724
330
723
100
AcDbEntity
  8
BEMA_U_00DFUNG
 62
     7
100
AcDbVertex
100
AcDb2dVertex
 10
125.1306080065428
 20
170.022160840741
 30
0.0
  0
VERTEX
  5
725
330
723
100
AcDbEntity
  8
BEMA_U_00DFUNG
 62
     7
100
AcDbVertex
100
AcDb2dVertex
 10
125.1306080065428
 20
169.9949969518592
 30
0.0
  0
SEQEND
  5
726
330
723
100
AcDbEntity
  8
BEMA_U_00DFUNG
 62
     7
  0
POLYLINE
  5
727
330
1F
100
AcDbEntity
  8
BEMA_U_00DFUNG
 62
     7
100
AcDb2dPolyline
 66
     1
 10
0.0
 20
0.0
 30
0.0
  0
VERTEX
  5
728
330
727
100
AcDbEntity
  8
BEMA_U_00DFUNG
 62
     7
100
AcDbVertex
100
AcDb2dVertex
 10
125.1814080065299
 20
170.022160840741
 30
0.0
  0
VERTEX
  5
729
330
727
100
AcDbEntity
  8
BEMA_U_00DFUNG
 62
     7
100
AcDbVertex
100
AcDb2dVertex
 10
125.1814080065299
 20
169.6090580630664
 30
0.0
  0
SEQEND
  5
72A
330
727
100
AcDbEntity
  8
BEMA_U_00DFUNG
 62
     7
  0
POLYLINE
  5
72B
330
1F
100
AcDbEntity
  8
BEMA_U_00DFUNG
 62
     7
100
AcDb2dPolyline
 66
     1
 10
0.0
 20
0.0
 30
0.0
  0
VERTEX
  5
72C
330
72B
100
AcDbEntity
  8
BEMA_U_00DFUNG
 62
     7
100
AcDbVertex
100
AcDb2dVertex
 10
125.232560784295
 20
170.022160840741
 30
0.0
  0
VERTEX
  5
72D
330
72B
100
AcDbEntity
  8
BEMA_U_00DFUNG
 62
     7
100
AcDbVertex
100
AcDb2dVertex
 10
125.232560784295
 20
169.2234719520521
 30
0.0
  0
SEQEND
  5
72E
330
72B
100
AcDbEntity
  8
BEMA_U_00DFUNG
 62
     7
  0
POLYLINE
  5
72F
330
1F
100
AcDbEntity
  8
BEMA_U_00DFUNG
 62
     7
100
AcDb2dPolyline
 66
     1
 10
0.0
 20
0.0
 30
0.0
  0
VERTEX
  5
730
330
72F
100
AcDbEntity
  8
BEMA_U_00DFUNG
 62
     7
100
AcDbVertex
100
AcDb2dVertex
 10
125.2833607842824
 20
170.022160840741
 30
0.0
  0
VERTEX
  5
731
330
72F
100
AcDbEntity
  8
BEMA_U_00DFUNG
 62
     7
100
AcDbVertex
100
AcDb2dVertex
 10
125.2833607842824
 20
168.8371802854816
 30
0.0
  0
SEQEND
  5
732
330
72F
100
AcDbEntity
  8
BEMA_U_00DFUNG
 62
     7
  0
POLYLINE
  5
733
330
1F
100
AcDbEntity
  8
BEMA_U_00DFUNG
 62
     7
100
AcDb2dPolyline
 66
     1
 10
0.0
 20
0.0
 30
0.0
  0
VERTEX
  5
734
330
733
100
AcDbEntity
  8
BEMA_U_00DFUNG
 62
     7
100
AcDbVertex
100
AcDb2dVertex
 10
125.3341607842698
 20
170.022160840741
 30
0.0
  0
VERTEX
  5
735
330
733
100
AcDbEntity
  8
BEMA_U_00DFUNG
 62
     7
100
AcDbVertex
100
AcDb2dVertex
 10
125.3341607842698
 20
168.4515941744673
 30
0.0
  0
SEQEND
  5
736
330
733
100
AcDbEntity
  8
BEMA_U_00DFUNG
 62
     7
  0
POLYLINE
  5
737
330
1F
100
AcDbEntity
  8
BEMA_U_00DFUNG
 62
     7
100
AcDb2dPolyline
 66
     1
 10
0.0
 20
0.0
 30
0.0
  0
VERTEX
  5
738
330
737
100
AcDbEntity
  8
BEMA_U_00DFUNG
 62
     7
100
AcDbVertex
100
AcDb2dVertex
 10
125.3849607842569
 20
170.022160840741
 30
0.0
  0
VERTEX
  5
739
330
737
100
AcDbEntity
  8
BEMA_U_00DFUNG
 62
     7
100
AcDbVertex
100
AcDb2dVertex
 10
125.3849607842569
 20
168.0656552856745
 30
0.0
  0
SEQEND
  5
73A
330
737
100
AcDbEntity
  8
BEMA_U_00DFUNG
 62
     7
  0
POLYLINE
  5
73B
330
1F
100
AcDbEntity
  8
BEMA_U_00DFUNG
 62
     7
100
AcDb2dPolyline
 66
     1
 10
0.0
 20
0.0
 30
0.0
  0
VERTEX
  5
73C
330
73B
100
AcDbEntity
  8
BEMA_U_00DFUNG
 62
     7
100
AcDbVertex
100
AcDb2dVertex
 10
125.4357607842442
 20
170.022160840741
 30
0.0
  0
VERTEX
  5
73D
330
73B
100
AcDbEntity
  8
BEMA_U_00DFUNG
 62
     7
100
AcDbVertex
100
AcDb2dVertex
 10
125.4357607842442
 20
167.6800691746602
 30
0.0
  0
SEQEND
  5
73E
330
73B
100
AcDbEntity
  8
BEMA_U_00DFUNG
 62
     7
  0
POLYLINE
  5
73F
330
1F
100
AcDbEntity
  8
BEMA_U_00DFUNG
 62
     7
100
AcDb2dPolyline
 66
     1
 10
0.0
 20
0.0
 30
0.0
  0
VERTEX
  5
740
330
73F
100
AcDbEntity
  8
BEMA_U_00DFUNG
 62
     7
100
AcDbVertex
100
AcDb2dVertex
 10
125.4865607842316
 20
170.022160840741
 30
0.0
  0
VERTEX
  5
741
330
73F
100
AcDbEntity
  8
BEMA_U_00DFUNG
 62
     7
100
AcDbVertex
100
AcDb2dVertex
 10
125.4865607842316
 20
167.2937775080897
 30
0.0
  0
SEQEND
  5
742
330
73F
100
AcDbEntity
  8
BEMA_U_00DFUNG
 62
     7
  0
POLYLINE
  5
743
330
1F
100
AcDbEntity
  8
BEMA_U_00DFUNG
 62
     7
100
AcDb2dPolyline
 66
     1
 10
0.0
 20
0.0
 30
0.0
  0
VERTEX
  5
744
330
743
100
AcDbEntity
  8
BEMA_U_00DFUNG
 62
     7
100
AcDbVertex
100
AcDb2dVertex
 10
125.5370080064412
 20
170.022160840741
 30
0.0
  0
VERTEX
  5
745
330
743
100
AcDbEntity
  8
BEMA_U_00DFUNG
 62
     7
100
AcDbVertex
100
AcDb2dVertex
 10
125.5370080064412
 20
166.9081913970753
 30
0.0
  0
SEQEND
  5
746
330
743
100
AcDbEntity
  8
BEMA_U_00DFUNG
 62
     7
  0
POLYLINE
  5
747
330
1F
100
AcDbEntity
  8
BEMA_U_00DFUNG
 62
     7
100
AcDb2dPolyline
 66
     1
 10
0.0
 20
0.0
 30
0.0
  0
VERTEX
  5
748
330
747
100
AcDbEntity
  8
BEMA_U_00DFUNG
 62
     7
100
AcDbVertex
100
AcDb2dVertex
 10
125.5878080064283
 20
170.022160840741
 30
0.0
  0
VERTEX
  5
749
330
747
100
AcDbEntity
  8
BEMA_U_00DFUNG
 62
     7
100
AcDbVertex
100
AcDb2dVertex
 10
125.5878080064283
 20
166.5222525082826
 30
0.0
  0
SEQEND
  5
74A
330
747
100
AcDbEntity
  8
BEMA_U_00DFUNG
 62
     7
  0
MTEXT
  5
74C
330
1F
100
AcDbEntity
  8
TEXT
 62
     7
100
AcDbMText
 10
63.555492936246
 20
218.903342679717
 30
0.0
 40
3.447529173370601
 41
0.0
 71
     7
 72
     1
  1
\fINDEX Univers 45 Light|b0|i0|c0|p34;\W1;ø46
  0
MTEXT
  5
74D
330
1F
100
AcDbEntity
  8
TEXT
 62
     7
100
AcDbMText
 10
147.0174635201711
 20
219.0168639589177
 30
0.0
 40
3.447529173370601
 41
0.0
 71
     7
 72
     1
  1
\fINDEX Univers 45 Light|b0|i0|c0|p34;\W1;27
  0
MTEXT
  5
74E
330
1F
100
AcDbEntity
  8
TEXT
 62
     7
100
AcDbMText
 10
125.0932311275131
 20
174.0412877389468
 30
0.0
 40
3.447529173370601
 41
0.0
 71
     7
 72
     1
  1
\fINDEX Univers 45 Light|b0|i0|c0|p34;\W1;M30x1
 11
6.123233995736766E-17
 21
1.0
 31
0.0
  0
ENDSEC
  0
SECTION
  2
OBJECTS
  0
DICTIONARY
  5
C
330
0
100
AcDbDictionary
  3
ACAD_GROUP
350
D
  3
ACAD_LAYOUT
350
1A
  3
ACAD_MATERIAL
350
3B
  3
ACAD_MLEADERSTYLE
350
771
  3
ACAD_MLINESTYLE
350
17
  3
ACAD_PLOTSETTINGS
350
19
  3
ACAD_VISUALSTYLE
350
2A
  3
ACDBHEADERROUNDTRIPXREC
350
74F
  3
ACDBVARIABLEDICTIONARY
350
76F
  0
DICTIONARY
  5
D
102
{ACAD_REACTORS
330
C
102
}
330
C
100
AcDbDictionary
  0
DICTIONARY
  5
1A
102
{ACAD_REACTORS
330
C
102
}
330
C
100
AcDbDictionary
  0
DICTIONARY
  5
3B
102
{ACAD_REACTORS
330
C
102
}
330
C
100
AcDbDictionary
  3
BYBLOCK
350
3D
  3
BYLAYER
350
3C
  3
GLOBAL
350
3E
  0
DICTIONARY
  5
771
102
{ACAD_REACTORS
330
C
102
}
330
C
100
AcDbDictionary
  0
DICTIONARY
  5
17
102
{ACAD_REACTORS
330
C
102
}
330
C
100
AcDbDictionary
  3
STANDARD
350
18
  0
DICTIONARY
  5
19
102
{ACAD_REACTORS
330
C
102
}
330
C
100
AcDbDictionary
  0
DICTIONARY
  5
2A
102
{ACAD_REACTORS
330
C
102
}
330
C
100
AcDbDictionary
  3
2DWIREFRAME
350
2F
  3
3D_HIDDEN
350
31
  3
3DWIREFRAME
350
30
  3
BASIC
350
32
  3
BRIGHTEN
350
36
  3
COLORCHANGE
350
3A
  3
CONCEPTUAL
350
34
  3
DIM
350
35
  3
FACEPATTERN
350
39
  3
FLAT
350
2B
  3
FLATWITHEDGES
350
2C
  3
GOURAUD
350
2D
  3
GOURAUDWITHEDGES
350
2E
  3
LINEPATTERN
350
38
  3
REALISTIC
350
33
  3
THICKEN
350
37
  0
DICTIONARY
  5
74F
102
{ACAD_REACTORS
330
C
102
}
330
C
100
AcDbDictionary
  3
CEPSNTYPE
350
758
  3
DIMSTYLEDATA
350
76E
  3
FINGERPRINTGUID
350
759
  3
HYPERLINKBASE
350
752
  3
INSUNITS
350
757
  3
LAYOUTDICT
350
754
  3
LWETCUNION
350
756
  3
PLOTSETDICT
350
755
  3
PSVPSCALE
350
75B
  3
PUCSBASE
350
75E
  3
PUCSORGBACK
350
764
  3
PUCSORGBOTTOM
350
760
  3
PUCSORGFRONT
350
763
  3
PUCSORGLEFT
350
761
  3
PUCSORGRIGHT
350
762
  3
PUCSORGTOP
350
75F
  3
PUCSORTHOREF
350
75C
  3
PUCSORTHOVIEW
350
75D
  3
STYLESHEET
350
753
  3
TSTACKALIGN
350
750
  3
TSTACKSIZE
350
751
  3
UCSBASE
350
767
  3
UCSORGBACK
350
76D
  3
UCSORGBOTTOM
350
769
  3
UCSORGFRONT
350
76C
  3
UCSORGLEFT
350
76A
  3
UCSORGRIGHT
350
76B
  3
UCSORGTOP
350
768
  3
UCSORTHOREF
350
765
  3
UCSORTHOVIEW
350
766
  3
VERSIONGUID
350
75A
  0
DICTIONARY
  5
76F
102
{ACAD_REACTORS
330
C
102
}
330
C
100
AcDbDictionary
  3
DIMASSOC
350
772
  3
HIDETEXT
350
773
  0
MATERIAL
  5
3D
102
{ACAD_REACTORS
330
3B
102
}
102
{ACAD_XDICTIONARY
360
776
102
}
330
3B
100
AcDbMaterial
  1
ByBlock
  0
MATERIAL
  5
3C
102
{ACAD_REACTORS
330
3B
102
}
102
{ACAD_XDICTIONARY
360
774
102
}
330
3B
100
AcDbMaterial
  1
ByLayer
  0
MATERIAL
  5
3E
102
{ACAD_REACTORS
330
3B
102
}
102
{ACAD_XDICTIONARY
360
778
102
}
330
3B
100
AcDbMaterial
  1
Global
  0
MLINESTYLE
  5
18
102
{ACAD_REACTORS
330
17
102
}
330
17
100
AcDbMlineStyle
  2
Standard
 70
     0
  3

 62
   256
 51
90.0
 52
90.0
 71
     2
 49
0.5
 62
   256
  6
BYLAYER
 49
-0.5
 62
   256
  6
BYLAYER
  0
ACAD_PROXY_OBJECT
  5
2F
102
{ACAD_REACTORS
330
2A
102
}
330
2A
100
AcDbProxyObject
 90
      499
 91
      501
 93
      436
310
42CC9915DA5C99599C985B595049028333333333333E3BF0000000000000FB0107901411070040501600405405064090741402480A0340
1001
ACAD
1000
AcDbSavedByObjectVersion
1070
     0
  0
ACAD_PROXY_OBJECT
  5
31
102
{ACAD_REACTORS
330
2A
102
}
330
2A
100
AcDbProxyObject
 90
      499
 91
      501
 93
      500
310
424CD108121A5919195B90640502408333333333333E3BF0000000000000FB01079024090700405020000000000001110200405405064090740C02480A0340
1001
ACAD
1000
AcDbSavedByObjectVersion
1070
     0
  0
ACAD_PROXY_OBJECT
  5
30
102
{ACAD_REACTORS
330
2A
102
}
330
2A
100
AcDbProxyObject
 90
      499
 91
      501
 93
      436
310
42CCD915DA5C99599C985B595059028333333333333E3BF0000000000000FB0107901411070040501600405405064090741402480A0340
1001
ACAD
1000
AcDbSavedByObjectVersion
1070
     0
  0
ACAD_PROXY_OBJECT
  5
32
102
{ACAD_REACTORS
330
2A
102
}
330
2A
100
AcDbProxyObject
 90
      499
 91
      501
 93
      388
310
4150985CDA58D07406404333333333333E3BF0000000000000FB0107A41107004050150841D405064090741402480A0350
1001
ACAD
1000
AcDbSavedByObjectVersion
1070
     0
  0
ACAD_PROXY_OBJECT
  5
36
102
{ACAD_REACTORS
330
2A
102
}
330
2A
100
AcDbProxyObject
 90
      499
 91
      501
 93
      428
310
42109C9A59DA1D195B90C409028333333333333E3BF0000000000000FB010790141107004050150841D405064090741402480A029950
1001
ACAD
1000
AcDbSavedByObjectVersion
1070
     0
  0
ACAD_PROXY_OBJECT
  5
3A
102
{ACAD_REACTORS
330
2A
102
}
330
2A
100
AcDbProxyObject
 90
      499
 91
      501
 93
      452
310
42D0DBDB1BDC90DA185B99D95104090240C333333333333E3BF0000000000000FB0108901411070040501508421405064090741402480A0350
1001
ACAD
1000
AcDbSavedByObjectVersion
1070
     0
  0
ACAD_PROXY_OBJECT
  5
34
102
{ACAD_REACTORS
330
2A
102
}
330
2A
100
AcDbProxyObject
 90
      499
 91
      501
 93
      500
310
4290DBDB98D95C1D1D585B10940D028333333333333E3BF0000000000000FB0107902409070040501000000000000111010841D405064090740C02480A0340
1001
ACAD
1000
AcDbSavedByObjectVersion
1070
     0
  0
ACAD_PROXY_OBJECT
  5
35
102
{ACAD_REACTORS
330
2A
102
}
330
2A
100
AcDbProxyObject
 90
      499
 91
      501
 93
      412
310
40D11A5B50B409028333333333333E3BF0000000000000FB010790141107004050150841D405064090741402480A02677FFFFFD0
1001
ACAD
1000
AcDbSavedByObjectVersion
1070
     0
  0
ACAD_PROXY_OBJECT
  5
39
102
{ACAD_REACTORS
330
2A
102
}
330
2A
100
AcDbProxyObject
 90
      499
 91
      501
 93
      444
310
42D19858D95C185D1D195C9B90F409028333333333333E3BF0000000000000FB010790141107004050150841D405064090741402480A0350
1001
ACAD
1000
AcDbSavedByObjectVersion
1070
     0
  0
ACAD_PROXY_OBJECT
  5
2B
102
{ACAD_REACTORS
330
2A
102
}
330
2A
100
AcDbProxyObject
 90
      499
 91
      501
 93
      388
310
41119B185D240901404333333333333E3BF0000000000000F9010740A41107004050150841D405064090741402480A1B50
1001
ACAD
1000
AcDbSavedByObjectVersion
1070
     0
  0
ACAD_PROXY_OBJECT
  5
2C
102
{ACAD_REACTORS
330
2A
102
}
330
2A
100
AcDbProxyObject
 90
      499
 91
      501
 93
      476
310
43519B185D15DA5D1A115919D95CD0140901404333333333333E3BF0000000000000F9010740901411070040501600405405064090741402480A1B50
1001
ACAD
1000
AcDbSavedByObjectVersion
1070
     0
  0
ACAD_PROXY_OBJECT
  5
2D
102
{ACAD_REACTORS
330
2A
102
}
330
2A
100
AcDbProxyObject
 90
      499
 91
      501
 93
      412
310
41D1DBDD5C985D5910240902404333333333333E3BF0000000000000F9010740A411070040501641D405064090741402480A1B50
1001
ACAD
1000
AcDbSavedByObjectVersion
1070
     0
  0
ACAD_PROXY_OBJECT
  5
2E
102
{ACAD_REACTORS
330
2A
102
}
330
2A
100
AcDbProxyObject
 90
      499
 91
      501
 93
      500
310
4411DBDD5C985D5915DA5D1A115919D95CD0340902404333333333333E3BF0000000000000F9010740901411070040501600405405064090741402480A1B50
1001
ACAD
1000
AcDbSavedByObjectVersion
1070
     0
  0
ACAD_PROXY_OBJECT
  5
38
102
{ACAD_REACTORS
330
2A
102
}
330
2A
100
AcDbProxyObject
 90
      499
 91
      501
 93
      444
310
42D31A5B995C185D1D195C9B90E409028333333333333E3BF0000000000000FB010790141107004050750841D405064090741402483A0350
1001
ACAD
1000
AcDbSavedByObjectVersion
1070
     0
  0
ACAD_PROXY_OBJECT
  5
33
102
{ACAD_REACTORS
330
2A
102
}
330
2A
100
AcDbProxyObject
 90
      499
 91
      501
 93
      420
310
425499585B1A5CDD1A58D08409028333333333333E3BF0000000000000FB01079019070040501508421405064090741402480A1B40
1001
ACAD
1000
AcDbSavedByObjectVersion
1070
     0
  0
ACAD_PROXY_OBJECT
  5
37
102
{ACAD_REACTORS
330
2A
102
}
330
2A
100
AcDbProxyObject
 90
      499
 91
      501
 93
      412
310
41D51A1A58DAD95B90D409028333333333333E3BF0000000000000FB010790141107004050150C41D405064090741402480A0350
1001
ACAD
1000
AcDbSavedByObjectVersion
1070
     0
  0
XRECORD
  5
758
102
{ACAD_REACTORS
330
74F
102
}
330
74F
100
AcDbXrecord
 90
        0
  0
XRECORD
  5
76E
102
{ACAD_REACTORS
330
74F
102
}
330
74F
100
AcDbXrecord
1000
DSTYLE
1002
{
1070
   340
340
11
1002
}
  0
XRECORD
  5
759
102
{ACAD_REACTORS
330
74F
102
}
330
74F
100
AcDbXrecord
  1
{9BDF45AD-7BCD-40A7-80CB-240F8D1CC71D}
  0
XRECORD
  5
752
102
{ACAD_REACTORS
330
74F
102
}
330
74F
100
AcDbXrecord
  1

  0
XRECORD
  5
757
102
{ACAD_REACTORS
330
74F
102
}
330
74F
100
AcDbXrecord
 90
        4
  0
XRECORD
  5
754
102
{ACAD_REACTORS
330
74F
102
}
330
74F
100
AcDbXrecord
340
1A
  0
XRECORD
  5
756
102
{ACAD_REACTORS
330
74F
102
}
330
74F
100
AcDbXrecord
 90
    10269
  0
XRECORD
  5
755
102
{ACAD_REACTORS
330
74F
102
}
330
74F
100
AcDbXrecord
340
19
  0
XRECORD
  5
75B
102
{ACAD_REACTORS
330
74F
102
}
330
74F
100
AcDbXrecord
 40
0.0
  0
XRECORD
  5
75E
102
{ACAD_REACTORS
330
74F
102
}
330
74F
100
AcDbXrecord
340
0
  0
XRECORD
  5
764
102
{ACAD_REACTORS
330
74F
102
}
330
74F
100
AcDbXrecord
 10
0.0
 20
0.0
 30
0.0
  0
XRECORD
  5
760
102
{ACAD_REACTORS
330
74F
102
}
330
74F
100
AcDbXrecord
 10
0.0
 20
0.0
 30
0.0
  0
XRECORD
  5
763
102
{ACAD_REACTORS
330
74F
102
}
330
74F
100
AcDbXrecord
 10
0.0
 20
0.0
 30
0.0
  0
XRECORD
  5
761
102
{ACAD_REACTORS
330
74F
102
}
330
74F
100
AcDbXrecord
 10
0.0
 20
0.0
 30
0.0
  0
XRECORD
  5
762
102
{ACAD_REACTORS
330
74F
102
}
330
74F
100
AcDbXrecord
 10
0.0
 20
0.0
 30
0.0
  0
XRECORD
  5
75F
102
{ACAD_REACTORS
330
74F
102
}
330
74F
100
AcDbXrecord
 10
0.0
 20
0.0
 30
0.0
  0
XRECORD
  5
75C
102
{ACAD_REACTORS
330
74F
102
}
330
74F
100
AcDbXrecord
340
0
  0
XRECORD
  5
75D
102
{ACAD_REACTORS
330
74F
102
}
330
74F
100
AcDbXrecord
 70
     0
  0
XRECORD
  5
753
102
{ACAD_REACTORS
330
74F
102
}
330
74F
100
AcDbXrecord
  1

  0
XRECORD
  5
750
102
{ACAD_REACTORS
330
74F
102
}
330
74F
100
AcDbXrecord
 90
        1
  0
XRECORD
  5
751
102
{ACAD_REACTORS
330
74F
102
}
330
74F
100
AcDbXrecord
 90
       70
  0
XRECORD
  5
767
102
{ACAD_REACTORS
330
74F
102
}
330
74F
100
AcDbXrecord
340
0
  0
XRECORD
  5
76D
102
{ACAD_REACTORS
330
74F
102
}
330
74F
100
AcDbXrecord
 10
0.0
 20
0.0
 30
0.0
  0
XRECORD
  5
769
102
{ACAD_REACTORS
330
74F
102
}
330
74F
100
AcDbXrecord
 10
0.0
 20
0.0
 30
0.0
  0
XRECORD
  5
76C
102
{ACAD_REACTORS
330
74F
102
}
330
74F
100
AcDbXrecord
 10
0.0
 20
0.0
 30
0.0
  0
XRECORD
  5
76A
102
{ACAD_REACTORS
330
74F
102
}
330
74F
100
AcDbXrecord
 10
0.0
 20
0.0
 30
0.0
  0
XRECORD
  5
76B
102
{ACAD_REACTORS
330
74F
102
}
330
74F
100
AcDbXrecord
 10
0.0
 20
0.0
 30
0.0
  0
XRECORD
  5
768
102
{ACAD_REACTORS
330
74F
102
}
330
74F
100
AcDbXrecord
 10
0.0
 20
0.0
 30
0.0
  0
XRECORD
  5
765
102
{ACAD_REACTORS
330
74F
102
}
330
74F
100
AcDbXrecord
340
0
  0
XRECORD
  5
766
102
{ACAD_REACTORS
330
74F
102
}
330
74F
100
AcDbXrecord
 70
     0
  0
XRECORD
  5
75A
102
{ACAD_REACTORS
330
74F
102
}
330
74F
100
AcDbXrecord
  1
{FAEB1C32-E019-11D5-929B-00C0DF256EC4}
  0
DICTIONARYVAR
  5
772
102
{ACAD_REACTORS
330
76F
102
}
330
76F
100
DictionaryVariables
280
     0
  1
2
  0
DICTIONARYVAR
  5
773
102
{ACAD_REACTORS
330
76F
102
}
330
76F
100
DictionaryVariables
280
     0
  1
1
  0
DICTIONARY
  5
776
330
3D
100
AcDbDictionary
280
     1
  3
ACAD_XREC_ROUNDTRIP
360
777
  0
DICTIONARY
  5
774
330
3C
100
AcDbDictionary
280
     1
  3
ACAD_XREC_ROUNDTRIP
360
775
  0
DICTIONARY
  5
778
330
3E
100
AcDbDictionary
280
     1
  3
ACAD_XREC_ROUNDTRIP
360
779
  0
XRECORD
  5
777
102
{ACAD_REACTORS
330
776
102
}
330
776
100
AcDbXrecord
102
MATERIAL
148
0.0
149
0.0
149
0.0
 93
        0
 94
      127
282
     0
 72
     1
 77
     1
171
     1
175
     1
179
     1
273
     0
  0
XRECORD
  5
775
102
{ACAD_REACTORS
330
774
102
}
330
774
100
AcDbXrecord
102
MATERIAL
148
0.0
149
0.0
149
0.0
 93
        0
 94
      127
282
     0
 72
     1
 77
     1
171
     1
175
     1
179
     1
273
     0
  0
XRECORD
  5
779
102
{ACAD_REACTORS
330
778
102
}
330
778
100
AcDbXrecord
102
MATERIAL
148
0.0
149
0.0
149
0.0
 93
        0
 94
      127
282
     0
 72
     1
 77
     1
171
     1
175
     1
179
     1
273
     0
  0
ENDSEC
  0
EOF
