ISO-10303-21;
HEADER;
/* Generated by software containing ST-Developer
 * from STEP Tools, Inc. (www.steptools.com) 
 */
/* OPTION: using custom schema-name function */

FILE_DESCRIPTION(
/* description */ (''),
/* implementation_level */ '2;1');

FILE_NAME(
/* name */ '1597646986688.stp',
/* time_stamp */ '2020-08-17T12:19:57+06:00',
/* author */ (''),
/* organization */ ('SMS'),
/* preprocessor_version */ 'ST-DEVELOPER v16.7',
/* originating_system */ 'SIEMENS PLM Software NX 12.0',
/* authorisation */ '');

FILE_SCHEMA (('AUTOMOTIVE_DESIGN { 1 0 10303 214 3 1 1 1 }'));
ENDSEC;

DATA;
#10=CONSTRUCTIVE_GEOMETRY_REPRESENTATION_RELATIONSHIP(
'supplemental geometry','',#26,#11);
#11=CONSTRUCTIVE_GEOMETRY_REPRESENTATION('supplemental geometry',(#282,
#283),#481);
#12=GEOMETRICALLY_BOUNDED_WIREFRAME_SHAPE_REPRESENTATION(
'203124683mod000_00-None',(#27),#481);
#13=SHAPE_REPRESENTATION_RELATIONSHIP('None',
'relationship between 203124683mod000_00-None and 203124683mod000_00-N
one',#26,#15);
#14=SHAPE_REPRESENTATION_RELATIONSHIP('None',
'relationship between 203124683mod000_00-None and 203124683mod000_00-N
one',#26,#12);
#15=ADVANCED_BREP_SHAPE_REPRESENTATION('203124683mod000_00-None',(#33),
#481);
#16=SHAPE_DEFINITION_REPRESENTATION(#17,#26);
#17=PRODUCT_DEFINITION_SHAPE('','',#18);
#18=PRODUCT_DEFINITION(' ','',#20,#19);
#19=PRODUCT_DEFINITION_CONTEXT('part definition',#25,'design');
#20=PRODUCT_DEFINITION_FORMATION_WITH_SPECIFIED_SOURCE(' ',' ',#22,
 .NOT_KNOWN.);
#21=PRODUCT_RELATED_PRODUCT_CATEGORY('part','',(#22));
#22=PRODUCT('203124683mod000_00','203124683mod000_00',' ',(#23));
#23=PRODUCT_CONTEXT(' ',#25,'mechanical');
#24=APPLICATION_PROTOCOL_DEFINITION('international standard',
'automotive_design',2010,#25);
#25=APPLICATION_CONTEXT(
'core data for automotive mechanical design processes');
#26=SHAPE_REPRESENTATION('203124683mod000_00-None',(#281),#481);
#27=GEOMETRIC_CURVE_SET('None',(#414,#415));
#28=SURFACE_STYLE_USAGE(.BOTH.,#29);
#29=SURFACE_SIDE_STYLE('',(#30));
#30=SURFACE_STYLE_FILL_AREA(#31);
#31=FILL_AREA_STYLE('',(#32));
#32=FILL_AREA_STYLE_COLOUR('',#280);
#33=MANIFOLD_SOLID_BREP('NOCUT',#34);
#34=CLOSED_SHELL('',(#50,#51,#52,#53,#54,#55,#56,#57,#58,#59,#60,#61,#62,
#63,#64,#65,#66,#67,#68,#69,#70));
#35=FACE_OUTER_BOUND('',#144,.T.);
#36=VERTEX_LOOP('',#212);
#37=TOROIDAL_SURFACE('',#302,7.50000000000002,0.750000000000002);
#38=TOROIDAL_SURFACE('',#306,7.50000000000002,0.75);
#39=TOROIDAL_SURFACE('',#319,10.45,0.800000000000017);
#40=TOROIDAL_SURFACE('',#323,10.45,0.8);
#41=PLANE('',#292);
#42=PLANE('',#311);
#43=PLANE('',#317);
#44=CYLINDRICAL_SURFACE('',#288,9.);
#45=CYLINDRICAL_SURFACE('',#298,7.49999999999998);
#46=CYLINDRICAL_SURFACE('',#304,8.25000000000002);
#47=CYLINDRICAL_SURFACE('',#308,7.49999999999998);
#48=CYLINDRICAL_SURFACE('',#315,16.);
#49=CYLINDRICAL_SURFACE('',#321,9.65);
#50=ADVANCED_FACE('',(#79,#80),#71,.T.);
#51=ADVANCED_FACE('',(#81,#82),#44,.T.);
#52=ADVANCED_FACE('',(#83,#84),#72,.T.);
#53=ADVANCED_FACE('',(#85,#86),#41,.T.);
#54=ADVANCED_FACE('',(#87,#88),#73,.F.);
#55=ADVANCED_FACE('',(#89,#90),#74,.F.);
#56=ADVANCED_FACE('',(#91,#92),#45,.F.);
#57=ADVANCED_FACE('',(#93,#94),#75,.F.);
#58=ADVANCED_FACE('',(#95,#96),#37,.F.);
#59=ADVANCED_FACE('',(#97,#98),#46,.F.);
#60=ADVANCED_FACE('',(#99,#100),#38,.F.);
#61=ADVANCED_FACE('',(#101,#102),#47,.F.);
#62=ADVANCED_FACE('',(#103,#104),#76,.F.);
#63=ADVANCED_FACE('',(#35),#42,.T.);
#64=ADVANCED_FACE('',(#105,#106),#77,.T.);
#65=ADVANCED_FACE('',(#107,#108),#48,.T.);
#66=ADVANCED_FACE('',(#109,#110),#43,.T.);
#67=ADVANCED_FACE('',(#111,#112),#39,.F.);
#68=ADVANCED_FACE('',(#113,#114),#49,.T.);
#69=ADVANCED_FACE('',(#115,#116),#40,.F.);
#70=ADVANCED_FACE('',(#117,#118),#78,.T.);
#71=CONICAL_SURFACE('',#286,9.88003825881883,30.);
#72=CONICAL_SURFACE('',#290,9.,44.9999999999993);
#73=CONICAL_SURFACE('',#294,8.54470131214356,30.);
#74=CONICAL_SURFACE('',#296,7.95551362713289,15.);
#75=CONICAL_SURFACE('',#300,7.49999999999998,15.0000000000007);
#76=CONICAL_SURFACE('',#309,7.49999999999998,59.);
#77=CONICAL_SURFACE('',#313,15.7,44.9999999999997);
#78=CONICAL_SURFACE('',#324,10.2047436862767,1.50000000000002);
#79=FACE_BOUND('',#119,.T.);
#80=FACE_BOUND('',#120,.T.);
#81=FACE_BOUND('',#121,.T.);
#82=FACE_BOUND('',#122,.T.);
#83=FACE_BOUND('',#123,.T.);
#84=FACE_BOUND('',#124,.T.);
#85=FACE_BOUND('',#125,.T.);
#86=FACE_BOUND('',#126,.T.);
#87=FACE_BOUND('',#127,.T.);
#88=FACE_BOUND('',#128,.T.);
#89=FACE_BOUND('',#129,.T.);
#90=FACE_BOUND('',#130,.T.);
#91=FACE_BOUND('',#131,.T.);
#92=FACE_BOUND('',#132,.T.);
#93=FACE_BOUND('',#133,.T.);
#94=FACE_BOUND('',#134,.T.);
#95=FACE_BOUND('',#135,.T.);
#96=FACE_BOUND('',#136,.T.);
#97=FACE_BOUND('',#137,.T.);
#98=FACE_BOUND('',#138,.T.);
#99=FACE_BOUND('',#139,.T.);
#100=FACE_BOUND('',#140,.T.);
#101=FACE_BOUND('',#141,.T.);
#102=FACE_BOUND('',#142,.T.);
#103=FACE_BOUND('',#36,.T.);
#104=FACE_BOUND('',#143,.T.);
#105=FACE_BOUND('',#145,.T.);
#106=FACE_BOUND('',#146,.T.);
#107=FACE_BOUND('',#147,.T.);
#108=FACE_BOUND('',#148,.T.);
#109=FACE_BOUND('',#149,.T.);
#110=FACE_BOUND('',#150,.T.);
#111=FACE_BOUND('',#151,.T.);
#112=FACE_BOUND('',#152,.T.);
#113=FACE_BOUND('',#153,.T.);
#114=FACE_BOUND('',#154,.T.);
#115=FACE_BOUND('',#155,.T.);
#116=FACE_BOUND('',#156,.T.);
#117=FACE_BOUND('',#157,.T.);
#118=FACE_BOUND('',#158,.T.);
#119=EDGE_LOOP('',(#159));
#120=EDGE_LOOP('',(#160));
#121=EDGE_LOOP('',(#161));
#122=EDGE_LOOP('',(#162));
#123=EDGE_LOOP('',(#163));
#124=EDGE_LOOP('',(#164));
#125=EDGE_LOOP('',(#165));
#126=EDGE_LOOP('',(#166));
#127=EDGE_LOOP('',(#167));
#128=EDGE_LOOP('',(#168));
#129=EDGE_LOOP('',(#169));
#130=EDGE_LOOP('',(#170));
#131=EDGE_LOOP('',(#171));
#132=EDGE_LOOP('',(#172));
#133=EDGE_LOOP('',(#173));
#134=EDGE_LOOP('',(#174));
#135=EDGE_LOOP('',(#175));
#136=EDGE_LOOP('',(#176));
#137=EDGE_LOOP('',(#177));
#138=EDGE_LOOP('',(#178));
#139=EDGE_LOOP('',(#179));
#140=EDGE_LOOP('',(#180));
#141=EDGE_LOOP('',(#181));
#142=EDGE_LOOP('',(#182));
#143=EDGE_LOOP('',(#183));
#144=EDGE_LOOP('',(#184));
#145=EDGE_LOOP('',(#185));
#146=EDGE_LOOP('',(#186));
#147=EDGE_LOOP('',(#187));
#148=EDGE_LOOP('',(#188));
#149=EDGE_LOOP('',(#189));
#150=EDGE_LOOP('',(#190));
#151=EDGE_LOOP('',(#191));
#152=EDGE_LOOP('',(#192));
#153=EDGE_LOOP('',(#193));
#154=EDGE_LOOP('',(#194));
#155=EDGE_LOOP('',(#195));
#156=EDGE_LOOP('',(#196));
#157=EDGE_LOOP('',(#197));
#158=EDGE_LOOP('',(#198));
#159=ORIENTED_EDGE('',*,*,#220,.T.);
#160=ORIENTED_EDGE('',*,*,#221,.F.);
#161=ORIENTED_EDGE('',*,*,#222,.T.);
#162=ORIENTED_EDGE('',*,*,#220,.F.);
#163=ORIENTED_EDGE('',*,*,#223,.T.);
#164=ORIENTED_EDGE('',*,*,#222,.F.);
#165=ORIENTED_EDGE('',*,*,#224,.T.);
#166=ORIENTED_EDGE('',*,*,#223,.F.);
#167=ORIENTED_EDGE('',*,*,#225,.T.);
#168=ORIENTED_EDGE('',*,*,#224,.F.);
#169=ORIENTED_EDGE('',*,*,#226,.T.);
#170=ORIENTED_EDGE('',*,*,#225,.F.);
#171=ORIENTED_EDGE('',*,*,#227,.T.);
#172=ORIENTED_EDGE('',*,*,#226,.F.);
#173=ORIENTED_EDGE('',*,*,#228,.T.);
#174=ORIENTED_EDGE('',*,*,#227,.F.);
#175=ORIENTED_EDGE('',*,*,#229,.T.);
#176=ORIENTED_EDGE('',*,*,#228,.F.);
#177=ORIENTED_EDGE('',*,*,#230,.T.);
#178=ORIENTED_EDGE('',*,*,#229,.F.);
#179=ORIENTED_EDGE('',*,*,#231,.T.);
#180=ORIENTED_EDGE('',*,*,#230,.F.);
#181=ORIENTED_EDGE('',*,*,#232,.T.);
#182=ORIENTED_EDGE('',*,*,#231,.F.);
#183=ORIENTED_EDGE('',*,*,#232,.F.);
#184=ORIENTED_EDGE('',*,*,#233,.T.);
#185=ORIENTED_EDGE('',*,*,#234,.T.);
#186=ORIENTED_EDGE('',*,*,#233,.F.);
#187=ORIENTED_EDGE('',*,*,#235,.T.);
#188=ORIENTED_EDGE('',*,*,#234,.F.);
#189=ORIENTED_EDGE('',*,*,#236,.T.);
#190=ORIENTED_EDGE('',*,*,#235,.F.);
#191=ORIENTED_EDGE('',*,*,#237,.T.);
#192=ORIENTED_EDGE('',*,*,#236,.F.);
#193=ORIENTED_EDGE('',*,*,#238,.T.);
#194=ORIENTED_EDGE('',*,*,#237,.F.);
#195=ORIENTED_EDGE('',*,*,#239,.T.);
#196=ORIENTED_EDGE('',*,*,#238,.F.);
#197=ORIENTED_EDGE('',*,*,#221,.T.);
#198=ORIENTED_EDGE('',*,*,#239,.F.);
#199=VERTEX_POINT('',#419);
#200=VERTEX_POINT('',#421);
#201=VERTEX_POINT('',#424);
#202=VERTEX_POINT('',#427);
#203=VERTEX_POINT('',#430);
#204=VERTEX_POINT('',#433);
#205=VERTEX_POINT('',#436);
#206=VERTEX_POINT('',#439);
#207=VERTEX_POINT('',#442);
#208=VERTEX_POINT('',#445);
#209=VERTEX_POINT('',#448);
#210=VERTEX_POINT('',#451);
#211=VERTEX_POINT('',#454);
#212=VERTEX_POINT('',#456);
#213=VERTEX_POINT('',#459);
#214=VERTEX_POINT('',#462);
#215=VERTEX_POINT('',#465);
#216=VERTEX_POINT('',#468);
#217=VERTEX_POINT('',#471);
#218=VERTEX_POINT('',#474);
#219=VERTEX_POINT('',#477);
#220=EDGE_CURVE('',#199,#199,#240,.T.);
#221=EDGE_CURVE('',#200,#200,#241,.T.);
#222=EDGE_CURVE('',#201,#201,#242,.T.);
#223=EDGE_CURVE('',#202,#202,#243,.T.);
#224=EDGE_CURVE('',#203,#203,#244,.T.);
#225=EDGE_CURVE('',#204,#204,#245,.T.);
#226=EDGE_CURVE('',#205,#205,#246,.T.);
#227=EDGE_CURVE('',#206,#206,#247,.T.);
#228=EDGE_CURVE('',#207,#207,#248,.T.);
#229=EDGE_CURVE('',#208,#208,#249,.T.);
#230=EDGE_CURVE('',#209,#209,#250,.T.);
#231=EDGE_CURVE('',#210,#210,#251,.T.);
#232=EDGE_CURVE('',#211,#211,#252,.T.);
#233=EDGE_CURVE('',#213,#213,#253,.T.);
#234=EDGE_CURVE('',#214,#214,#254,.T.);
#235=EDGE_CURVE('',#215,#215,#255,.T.);
#236=EDGE_CURVE('',#216,#216,#256,.T.);
#237=EDGE_CURVE('',#217,#217,#257,.T.);
#238=EDGE_CURVE('',#218,#218,#258,.T.);
#239=EDGE_CURVE('',#219,#219,#259,.T.);
#240=CIRCLE('',#284,9.);
#241=CIRCLE('',#285,9.88003825881883);
#242=CIRCLE('',#287,9.);
#243=CIRCLE('',#289,8.8);
#244=CIRCLE('',#291,8.54470131214356);
#245=CIRCLE('',#293,7.95551362713289);
#246=CIRCLE('',#295,7.49999999999998);
#247=CIRCLE('',#297,7.49999999999998);
#248=CIRCLE('',#299,7.67416697508022);
#249=CIRCLE('',#301,8.25000000000002);
#250=CIRCLE('',#303,8.25000000000002);
#251=CIRCLE('',#305,7.49999999999998);
#252=CIRCLE('',#307,7.49999999999998);
#253=CIRCLE('',#310,15.7);
#254=CIRCLE('',#312,16.);
#255=CIRCLE('',#314,16.);
#256=CIRCLE('',#316,10.45);
#257=CIRCLE('',#318,9.65);
#258=CIRCLE('',#320,9.65);
#259=CIRCLE('',#322,10.2047436862767);
#260=CURVE_STYLE('',#262,POSITIVE_LENGTH_MEASURE(0.18),#279);
#261=CURVE_STYLE('',#263,POSITIVE_LENGTH_MEASURE(0.18),#279);
#262=DRAUGHTING_PRE_DEFINED_CURVE_FONT('continuous');
#263=DRAUGHTING_PRE_DEFINED_CURVE_FONT('continuous');
#264=PRESENTATION_LAYER_ASSIGNMENT('1','Layer 1',(#414,#415,#282,#283,#33));
#265=STYLED_ITEM('',(#270),#414);
#266=STYLED_ITEM('',(#271),#415);
#267=STYLED_ITEM('',(#272),#282);
#268=STYLED_ITEM('',(#273),#283);
#269=STYLED_ITEM('',(#274),#33);
#270=PRESENTATION_STYLE_ASSIGNMENT((#275));
#271=PRESENTATION_STYLE_ASSIGNMENT((#276));
#272=PRESENTATION_STYLE_ASSIGNMENT((#260));
#273=PRESENTATION_STYLE_ASSIGNMENT((#261));
#274=PRESENTATION_STYLE_ASSIGNMENT((#28));
#275=POINT_STYLE('',#277,POSITIVE_LENGTH_MEASURE(3.),#279);
#276=POINT_STYLE('',#278,POSITIVE_LENGTH_MEASURE(3.),#279);
#277=PRE_DEFINED_POINT_MARKER_SYMBOL('plus');
#278=PRE_DEFINED_POINT_MARKER_SYMBOL('plus');
#279=COLOUR_RGB('Medium Maroon',0.6,0.4,0.4);
#280=COLOUR_RGB('Medium Gray',0.501960784313725,0.501960784313725,0.501960784313725);
#281=AXIS2_PLACEMENT_3D('',#413,#325,#326);
#282=AXIS2_PLACEMENT_3D('PCS',#416,#327,#328);
#283=AXIS2_PLACEMENT_3D('MCS',#417,#329,#330);
#284=AXIS2_PLACEMENT_3D('',#418,#331,#332);
#285=AXIS2_PLACEMENT_3D('',#420,#333,#334);
#286=AXIS2_PLACEMENT_3D('',#422,#335,#336);
#287=AXIS2_PLACEMENT_3D('',#423,#337,#338);
#288=AXIS2_PLACEMENT_3D('',#425,#339,#340);
#289=AXIS2_PLACEMENT_3D('',#426,#341,#342);
#290=AXIS2_PLACEMENT_3D('',#428,#343,#344);
#291=AXIS2_PLACEMENT_3D('',#429,#345,#346);
#292=AXIS2_PLACEMENT_3D('',#431,#347,#348);
#293=AXIS2_PLACEMENT_3D('',#432,#349,#350);
#294=AXIS2_PLACEMENT_3D('',#434,#351,#352);
#295=AXIS2_PLACEMENT_3D('',#435,#353,#354);
#296=AXIS2_PLACEMENT_3D('',#437,#355,#356);
#297=AXIS2_PLACEMENT_3D('',#438,#357,#358);
#298=AXIS2_PLACEMENT_3D('',#440,#359,#360);
#299=AXIS2_PLACEMENT_3D('',#441,#361,#362);
#300=AXIS2_PLACEMENT_3D('',#443,#363,#364);
#301=AXIS2_PLACEMENT_3D('',#444,#365,#366);
#302=AXIS2_PLACEMENT_3D('',#446,#367,#368);
#303=AXIS2_PLACEMENT_3D('',#447,#369,#370);
#304=AXIS2_PLACEMENT_3D('',#449,#371,#372);
#305=AXIS2_PLACEMENT_3D('',#450,#373,#374);
#306=AXIS2_PLACEMENT_3D('',#452,#375,#376);
#307=AXIS2_PLACEMENT_3D('',#453,#377,#378);
#308=AXIS2_PLACEMENT_3D('',#455,#379,#380);
#309=AXIS2_PLACEMENT_3D('',#457,#381,#382);
#310=AXIS2_PLACEMENT_3D('',#458,#383,#384);
#311=AXIS2_PLACEMENT_3D('',#460,#385,#386);
#312=AXIS2_PLACEMENT_3D('',#461,#387,#388);
#313=AXIS2_PLACEMENT_3D('',#463,#389,#390);
#314=AXIS2_PLACEMENT_3D('',#464,#391,#392);
#315=AXIS2_PLACEMENT_3D('',#466,#393,#394);
#316=AXIS2_PLACEMENT_3D('',#467,#395,#396);
#317=AXIS2_PLACEMENT_3D('',#469,#397,#398);
#318=AXIS2_PLACEMENT_3D('',#470,#399,#400);
#319=AXIS2_PLACEMENT_3D('',#472,#401,#402);
#320=AXIS2_PLACEMENT_3D('',#473,#403,#404);
#321=AXIS2_PLACEMENT_3D('',#475,#405,#406);
#322=AXIS2_PLACEMENT_3D('',#476,#407,#408);
#323=AXIS2_PLACEMENT_3D('',#478,#409,#410);
#324=AXIS2_PLACEMENT_3D('',#479,#411,#412);
#325=DIRECTION('',(0.,0.,1.));
#326=DIRECTION('',(1.,0.,0.));
#327=DIRECTION('',(0.,0.,1.));
#328=DIRECTION('',(1.,0.,0.));
#329=DIRECTION('',(0.,0.,1.));
#330=DIRECTION('',(1.,0.,0.));
#331=DIRECTION('',(0.,0.,-1.));
#332=DIRECTION('',(0.,1.,0.));
#333=DIRECTION('',(0.,0.,-1.));
#334=DIRECTION('',(0.,1.,0.));
#335=DIRECTION('',(0.,0.,-1.));
#336=DIRECTION('',(0.,1.,-4.72652301210896E-17));
#337=DIRECTION('',(0.,0.,-1.));
#338=DIRECTION('',(0.,1.,0.));
#339=DIRECTION('',(0.,0.,-1.));
#340=DIRECTION('',(0.,1.,0.));
#341=DIRECTION('',(0.,0.,-1.));
#342=DIRECTION('',(0.,1.,0.));
#343=DIRECTION('',(0.,0.,-1.));
#344=DIRECTION('',(0.,1.,4.12620053750688E-17));
#345=DIRECTION('',(0.,0.,-1.));
#346=DIRECTION('',(0.,1.,0.));
#347=DIRECTION('',(0.,0.,1.));
#348=DIRECTION('',(0.,-1.,0.));
#349=DIRECTION('',(0.,0.,-1.));
#350=DIRECTION('',(0.,1.,0.));
#351=DIRECTION('',(0.,0.,1.));
#352=DIRECTION('',(0.,-1.,-1.65805339771914E-16));
#353=DIRECTION('',(0.,0.,-1.));
#354=DIRECTION('',(0.,1.,0.));
#355=DIRECTION('',(0.,0.,1.));
#356=DIRECTION('',(0.,-1.,0.));
#357=DIRECTION('',(0.,0.,-1.));
#358=DIRECTION('',(0.,1.,0.));
#359=DIRECTION('',(0.,0.,-1.));
#360=DIRECTION('',(0.,1.,0.));
#361=DIRECTION('',(0.,0.,-1.));
#362=DIRECTION('',(0.,1.,0.));
#363=DIRECTION('',(0.,0.,-1.));
#364=DIRECTION('',(0.,1.,1.25955967462893E-16));
#365=DIRECTION('',(0.,0.,-1.));
#366=DIRECTION('',(0.,1.,0.));
#367=DIRECTION('',(0.,0.,-1.));
#368=DIRECTION('',(0.,1.,0.));
#369=DIRECTION('',(0.,0.,-1.));
#370=DIRECTION('',(0.,1.,0.));
#371=DIRECTION('',(0.,0.,-1.));
#372=DIRECTION('',(0.,1.,0.));
#373=DIRECTION('',(0.,0.,-1.));
#374=DIRECTION('',(0.,1.,0.));
#375=DIRECTION('',(0.,0.,-1.));
#376=DIRECTION('',(0.,1.,0.));
#377=DIRECTION('',(0.,0.,-1.));
#378=DIRECTION('',(0.,1.,0.));
#379=DIRECTION('',(0.,0.,-1.));
#380=DIRECTION('',(0.,1.,0.));
#381=DIRECTION('',(0.,0.,1.));
#382=DIRECTION('',(0.,-1.,4.15060357969651E-18));
#383=DIRECTION('',(0.,0.,-1.));
#384=DIRECTION('',(0.,1.,0.));
#385=DIRECTION('',(0.,0.,-1.));
#386=DIRECTION('',(0.,1.,0.));
#387=DIRECTION('',(0.,0.,-1.));
#388=DIRECTION('',(0.,1.,0.));
#389=DIRECTION('',(0.,0.,1.));
#390=DIRECTION('',(0.,-1.,0.));
#391=DIRECTION('',(0.,0.,-1.));
#392=DIRECTION('',(0.,1.,0.));
#393=DIRECTION('',(0.,0.,-1.));
#394=DIRECTION('',(0.,1.,0.));
#395=DIRECTION('',(0.,0.,-1.));
#396=DIRECTION('',(0.,1.,0.));
#397=DIRECTION('',(0.,0.,1.));
#398=DIRECTION('',(0.,-1.,0.));
#399=DIRECTION('',(0.,0.,-1.));
#400=DIRECTION('',(0.,1.,0.));
#401=DIRECTION('',(0.,0.,-1.));
#402=DIRECTION('',(0.,1.,0.));
#403=DIRECTION('',(0.,0.,-1.));
#404=DIRECTION('',(0.,1.,0.));
#405=DIRECTION('',(0.,0.,-1.));
#406=DIRECTION('',(0.,1.,0.));
#407=DIRECTION('',(0.,0.,-1.));
#408=DIRECTION('',(0.,1.,0.));
#409=DIRECTION('',(0.,0.,-1.));
#410=DIRECTION('',(0.,1.,0.));
#411=DIRECTION('',(0.,0.,-1.));
#412=DIRECTION('',(0.,1.,0.));
#413=CARTESIAN_POINT('',(0.,0.,0.));
#414=CARTESIAN_POINT('',(0.,0.,0.));
#415=CARTESIAN_POINT('',(0.,0.,0.));
#416=CARTESIAN_POINT('',(0.,0.,0.));
#417=CARTESIAN_POINT('',(0.,0.,0.));
#418=CARTESIAN_POINT('',(0.,0.,15.9242709768787));
#419=CARTESIAN_POINT('',(0.,9.,15.9242709768787));
#420=CARTESIAN_POINT('',(0.,0.,14.4));
#421=CARTESIAN_POINT('',(0.,9.88003825881883,14.4));
#422=CARTESIAN_POINT('',(0.,0.,14.4));
#423=CARTESIAN_POINT('',(0.,0.,18.8));
#424=CARTESIAN_POINT('',(0.,9.,18.8));
#425=CARTESIAN_POINT('',(0.,0.,-38.9884839994452));
#426=CARTESIAN_POINT('',(0.,0.,19.));
#427=CARTESIAN_POINT('',(0.,8.8,19.));
#428=CARTESIAN_POINT('',(0.,0.,18.8));
#429=CARTESIAN_POINT('',(0.,0.,19.));
#430=CARTESIAN_POINT('',(0.,8.54470131214356,19.));
#431=CARTESIAN_POINT('',(8.8,0.,19.));
#432=CARTESIAN_POINT('',(0.,0.,17.9794969943676));
#433=CARTESIAN_POINT('',(0.,7.95551362713289,17.9794969943676));
#434=CARTESIAN_POINT('',(0.,0.,19.));
#435=CARTESIAN_POINT('',(0.,0.,16.2794969943676));
#436=CARTESIAN_POINT('',(0.,7.49999999999998,16.2794969943676));
#437=CARTESIAN_POINT('',(0.,0.,17.9794969943676));
#438=CARTESIAN_POINT('',(0.,0.,15.6294969943676));
#439=CARTESIAN_POINT('',(0.,7.49999999999998,15.6294969943676));
#440=CARTESIAN_POINT('',(0.,0.,-38.9884839994452));
#441=CARTESIAN_POINT('',(0.,0.,14.9794969943676));
#442=CARTESIAN_POINT('',(0.,7.67416697508022,14.9794969943676));
#443=CARTESIAN_POINT('',(0.,0.,15.6294969943676));
#444=CARTESIAN_POINT('',(0.,0.,14.25));
#445=CARTESIAN_POINT('',(0.,8.25000000000002,14.25));
#446=CARTESIAN_POINT('',(0.,0.,14.25));
#447=CARTESIAN_POINT('',(0.,0.,13.25));
#448=CARTESIAN_POINT('',(0.,8.25000000000002,13.25));
#449=CARTESIAN_POINT('',(0.,0.,-38.9884839994452));
#450=CARTESIAN_POINT('',(0.,0.,12.5));
#451=CARTESIAN_POINT('',(0.,7.49999999999998,12.5));
#452=CARTESIAN_POINT('',(0.,0.,13.25));
#453=CARTESIAN_POINT('',(0.,0.,6.));
#454=CARTESIAN_POINT('',(0.,7.49999999999998,6.));
#455=CARTESIAN_POINT('',(0.,0.,-38.9884839994452));
#456=CARTESIAN_POINT('',(-4.44089209850063E-16,0.,1.4935453572933));
#457=CARTESIAN_POINT('',(0.,0.,6.));
#458=CARTESIAN_POINT('',(0.,0.,-3.));
#459=CARTESIAN_POINT('',(0.,15.7,-3.));
#460=CARTESIAN_POINT('',(0.,0.,-3.));
#461=CARTESIAN_POINT('',(0.,0.,-2.69999999999999));
#462=CARTESIAN_POINT('',(0.,16.,-2.69999999999999));
#463=CARTESIAN_POINT('',(0.,0.,-3.));
#464=CARTESIAN_POINT('',(0.,0.,0.));
#465=CARTESIAN_POINT('',(0.,16.,0.));
#466=CARTESIAN_POINT('',(0.,0.,-38.9884839994452));
#467=CARTESIAN_POINT('',(0.,0.,-6.93889390390723E-15));
#468=CARTESIAN_POINT('',(0.,10.45,-6.93889390390723E-15));
#469=CARTESIAN_POINT('',(16.,0.,-2.66453525910038E-15));
#470=CARTESIAN_POINT('',(0.,0.,0.800000000000002));
#471=CARTESIAN_POINT('',(0.,9.65,0.800000000000002));
#472=CARTESIAN_POINT('',(0.,0.,0.800000000000009));
#473=CARTESIAN_POINT('',(0.,0.,1.2385216085936));
#474=CARTESIAN_POINT('',(0.,9.65,1.2385216085936));
#475=CARTESIAN_POINT('',(0.,0.,-38.9884839994452));
#476=CARTESIAN_POINT('',(0.,0.,2.));
#477=CARTESIAN_POINT('',(0.,10.2047436862767,2.));
#478=CARTESIAN_POINT('',(0.,0.,1.2385216085936));
#479=CARTESIAN_POINT('',(0.,0.,2.));
#480=MECHANICAL_DESIGN_GEOMETRIC_PRESENTATION_REPRESENTATION('',(#265,#266,
#267,#268,#269),#481);
#481=(
GEOMETRIC_REPRESENTATION_CONTEXT(3)
GLOBAL_UNCERTAINTY_ASSIGNED_CONTEXT((#482))
GLOBAL_UNIT_ASSIGNED_CONTEXT((#488,#484,#483))
REPRESENTATION_CONTEXT('1597646986688','TOP_LEVEL_ASSEMBLY_PART')
);
#482=UNCERTAINTY_MEASURE_WITH_UNIT(LENGTH_MEASURE(2.E-5),#488,
'DISTANCE_ACCURACY_VALUE','Maximum Tolerance applied to model');
#483=(
NAMED_UNIT(*)
SI_UNIT($,.STERADIAN.)
SOLID_ANGLE_UNIT()
);
#484=(
CONVERSION_BASED_UNIT('DEGREE',#486)
NAMED_UNIT(#485)
PLANE_ANGLE_UNIT()
);
#485=DIMENSIONAL_EXPONENTS(0.,0.,0.,0.,0.,0.,0.);
#486=PLANE_ANGLE_MEASURE_WITH_UNIT(PLANE_ANGLE_MEASURE(0.0174532925),#487);
#487=(
NAMED_UNIT(*)
PLANE_ANGLE_UNIT()
SI_UNIT($,.RADIAN.)
);
#488=(
LENGTH_UNIT()
NAMED_UNIT(*)
SI_UNIT(.MILLI.,.METRE.)
);
ENDSEC;
END-ISO-10303-21;
