  0
SECTION
  2
HEADER
  9
$ACADVER
  1
AC1014
  9
$ACADMAINTVER
 70
     9
  9
$DWGCODEPAGE
  3
ANSI_1252
  9
$INSBASE
 10
0.0
 20
0.0
 30
0.0
  9
$EXTMIN
 10
1.000000000000000E+20
 20
1.000000000000000E+20
 30
1.000000000000000E+20
  9
$EXTMAX
 10
-1.000000000000000E+20
 20
-1.000000000000000E+20
 30
-1.000000000000000E+20
  9
$LIMMIN
 10
0.0
 20
0.0
  9
$LIMMAX
 10
12.0
 20
9.0
  9
$ORTHOMODE
 70
     0
  9
$REGENMODE
 70
     1
  9
$FILLMODE
 70
     1
  9
$QTEXTMODE
 70
     0
  9
$MIRRTEXT
 70
     1
  9
$DRAGMODE
 70
     2
  9
$LTSCALE
 40
1.0
  9
$OSMODE
 70
    37
  9
$ATTMODE
 70
     1
  9
$TEXTSIZE
 40
0.2
  9
$TRACEWID
 40
0.05
  9
$TEXTSTYLE
  7
STANDARD
  9
$CLAYER
  8
0
  9
$CELTYPE
  6
BYLAYER
  9
$CECOLOR
 62
   256
  9
$CELTSCALE
 40
1.0
  9
$DELOBJ
 70
     1
  9
$DISPSILH
 70
     0
  9
$DIMSCALE
 40
1.0
  9
$DIMASZ
 40
0.18
  9
$DIMEXO
 40
0.0625
  9
$DIMDLI
 40
0.38
  9
$DIMRND
 40
0.0
  9
$DIMDLE
 40
0.0
  9
$DIMEXE
 40
0.18
  9
$DIMTP
 40
0.0
  9
$DIMTM
 40
0.0
  9
$DIMTXT
 40
0.18
  9
$DIMCEN
 40
0.09
  9
$DIMTSZ
 40
0.0
  9
$DIMTOL
 70
     0
  9
$DIMLIM
 70
     0
  9
$DIMTIH
 70
     1
  9
$DIMTOH
 70
     1
  9
$DIMSE1
 70
     0
  9
$DIMSE2
 70
     0
  9
$DIMTAD
 70
     0
  9
$DIMZIN
 70
     0
  9
$DIMBLK
  1

  9
$DIMASO
 70
     1
  9
$DIMSHO
 70
     1
  9
$DIMPOST
  1

  9
$DIMAPOST
  1

  9
$DIMALT
 70
     0
  9
$DIMALTD
 70
     2
  9
$DIMALTF
 40
25.4
  9
$DIMLFAC
 40
1.0
  9
$DIMTOFL
 70
     0
  9
$DIMTVP
 40
0.0
  9
$DIMTIX
 70
     0
  9
$DIMSOXD
 70
     0
  9
$DIMSAH
 70
     0
  9
$DIMBLK1
  1

  9
$DIMBLK2
  1

  9
$DIMSTYLE
  2
STANDARD
  9
$DIMCLRD
 70
     0
  9
$DIMCLRE
 70
     0
  9
$DIMCLRT
 70
     0
  9
$DIMTFAC
 40
1.0
  9
$DIMGAP
 40
0.09
  9
$DIMJUST
 70
     0
  9
$DIMSD1
 70
     0
  9
$DIMSD2
 70
     0
  9
$DIMTOLJ
 70
     1
  9
$DIMTZIN
 70
     0
  9
$DIMALTZ
 70
     0
  9
$DIMALTTZ
 70
     0
  9
$DIMFIT
 70
     3
  9
$DIMUPT
 70
     0
  9
$DIMUNIT
 70
     2
  9
$DIMDEC
 70
     4
  9
$DIMTDEC
 70
     4
  9
$DIMALTU
 70
     2
  9
$DIMALTTD
 70
     2
  9
$DIMTXSTY
  7
STANDARD
  9
$DIMAUNIT
 70
     0
  9
$LUNITS
 70
     2
  9
$LUPREC
 70
     4
  9
$SKETCHINC
 40
0.1
  9
$FILLETRAD
 40
0.5
  9
$AUNITS
 70
     0
  9
$AUPREC
 70
     0
  9
$MENU
  1
.
  9
$ELEVATION
 40
0.0
  9
$PELEVATION
 40
0.0
  9
$THICKNESS
 40
0.0
  9
$LIMCHECK
 70
     0
  9
$CHAMFERA
 40
0.5
  9
$CHAMFERB
 40
0.5
  9
$CHAMFERC
 40
1.0
  9
$CHAMFERD
 40
0.0
  9
$SKPOLY
 70
     0
  9
$TDCREATE
 40
2458982.488381921
  9
$TDUPDATE
 40
2458982.488382164
  9
$TDINDWG
 40
0.0000000116
  9
$TDUSRTIMER
 40
0.0000000116
  9
$USRTIMER
 70
     1
  9
$ANGBASE
 50
0.0
  9
$ANGDIR
 70
     0
  9
$PDMODE
 70
     0
  9
$PDSIZE
 40
0.0
  9
$PLINEWID
 40
0.0
  9
$COORDS
 70
     1
  9
$SPLFRAME
 70
     0
  9
$SPLINETYPE
 70
     6
  9
$SPLINESEGS
 70
     8
  9
$ATTDIA
 70
     0
  9
$ATTREQ
 70
     1
  9
$HANDLING
 70
     1
  9
$HANDSEED
  5
563
  9
$SURFTAB1
 70
     6
  9
$SURFTAB2
 70
     6
  9
$SURFTYPE
 70
     6
  9
$SURFU
 70
     6
  9
$SURFV
 70
     6
  9
$UCSNAME
  2

  9
$UCSORG
 10
0.0
 20
0.0
 30
0.0
  9
$UCSXDIR
 10
1.0
 20
0.0
 30
0.0
  9
$UCSYDIR
 10
0.0
 20
1.0
 30
0.0
  9
$PUCSNAME
  2

  9
$PUCSORG
 10
0.0
 20
0.0
 30
0.0
  9
$PUCSXDIR
 10
1.0
 20
0.0
 30
0.0
  9
$PUCSYDIR
 10
0.0
 20
1.0
 30
0.0
  9
$USERI1
 70
     0
  9
$USERI2
 70
     0
  9
$USERI3
 70
     0
  9
$USERI4
 70
     0
  9
$USERI5
 70
     0
  9
$USERR1
 40
0.0
  9
$USERR2
 40
0.0
  9
$USERR3
 40
0.0
  9
$USERR4
 40
0.0
  9
$USERR5
 40
0.0
  9
$WORLDVIEW
 70
     1
  9
$SHADEDGE
 70
     3
  9
$SHADEDIF
 70
    70
  9
$TILEMODE
 70
     1
  9
$MAXACTVP
 70
    64
  9
$PINSBASE
 10
0.0
 20
0.0
 30
0.0
  9
$PLIMCHECK
 70
     0
  9
$PEXTMIN
 10
1.000000000000000E+20
 20
1.000000000000000E+20
 30
1.000000000000000E+20
  9
$PEXTMAX
 10
-1.000000000000000E+20
 20
-1.000000000000000E+20
 30
-1.000000000000000E+20
  9
$PLIMMIN
 10
0.0
 20
0.0
  9
$PLIMMAX
 10
12.0
 20
9.0
  9
$UNITMODE
 70
     0
  9
$VISRETAIN
 70
     1
  9
$PLINEGEN
 70
     0
  9
$PSLTSCALE
 70
     1
  9
$TREEDEPTH
 70
  3020
  9
$PICKSTYLE
 70
     1
  9
$CMLSTYLE
  2
STANDARD
  9
$CMLJUST
 70
     0
  9
$CMLSCALE
 40
1.0
  9
$PROXYGRAPHICS
 70
     1
  9
$MEASUREMENT
 70
     0
  0
ENDSEC
  0
SECTION
  2
CLASSES
  0
CLASS
  1
ACDBDICTIONARYWDFLT
  2
AcDbDictionaryWithDefault
  3
ObjectDBX Classes
 90
        0
280
     0
281
     0
  0
CLASS
  1
VISUALSTYLE
  2
AcDbVisualStyle
  3
ObjectDBX Classes
 90
     4095
280
     0
281
     0
  0
CLASS
  1
MATERIAL
  2
AcDbMaterial
  3
ObjectDBX Classes
 90
     1153
280
     0
281
     0
  0
CLASS
  1
SUN
  2
AcDbSun
  3
SCENEOE
 90
     1024
280
     0
281
     0
  0
CLASS
  1
DICTIONARYVAR
  2
AcDbDictionaryVar
  3
ObjectDBX Classes
 90
        0
280
     0
281
     0
  0
CLASS
  1
XRECORD
  2
AcDbXrecord
  3
AutoCAD 2000
 90
        0
280
     0
281
     0
  0
CLASS
  1
LWPOLYLINE
  2
AcDbPolyline
  3
AutoCAD 2000
 90
        0
280
     0
281
     1
  0
CLASS
  1
HATCH
  2
AcDbHatch
  3
AutoCAD 2000
 90
        0
280
     0
281
     1
  0
CLASS
  1
ACDBPLACEHOLDER
  2
AcDbPlaceHolder
  3
ObjectDBX Classes
 90
        0
280
     0
281
     0
  0
CLASS
  1
LAYOUT
  2
AcDbLayout
  3
ObjectDBX Classes
 90
        0
280
     0
281
     0
  0
ENDSEC
  0
SECTION
  2
TABLES
  0
TABLE
  2
VPORT
  5
8
330
0
100
AcDbSymbolTable
 70
     1
  0
VPORT
  5
29
330
8
100
AcDbSymbolTableRecord
100
AcDbViewportTableRecord
  2
*ACTIVE
 70
     0
 10
0.0
 20
0.0
 11
1.0
 21
1.0
 12
0.0
 22
0.0
 13
0.0
 23
0.0
 14
0.5
 24
0.5
 15
0.5
 25
0.5
 16
0.0
 26
0.0
 36
1.0
 17
101.0340131610478
 27
218.0751345334261
 37
0.0
 40
45.02862892483219
 41
3.934538545476489
 42
50.0
 43
0.0
 44
0.0
 50
0.0
 51
0.0
 71
     0
 72
   100
 73
     1
 74
     3
 75
     0
 76
     0
 77
     0
 78
     0
  0
ENDTAB
  0
TABLE
  2
LTYPE
  5
5
330
0
100
AcDbSymbolTable
 70
     1
  0
LTYPE
  5
14
330
5
100
AcDbSymbolTableRecord
100
AcDbLinetypeTableRecord
  2
BYBLOCK
 70
     0
  3

 72
    65
 73
     0
 40
0.0
  0
LTYPE
  5
15
330
5
100
AcDbSymbolTableRecord
100
AcDbLinetypeTableRecord
  2
BYLAYER
 70
     0
  3

 72
    65
 73
     0
 40
0.0
  0
LTYPE
  5
16
330
5
100
AcDbSymbolTableRecord
100
AcDbLinetypeTableRecord
  2
CONTINUOUS
 70
     0
  3
Solid line
 72
    65
 73
     0
 40
0.0
  0
ENDTAB
  0
TABLE
  2
LAYER
  5
2
330
0
100
AcDbSymbolTable
 70
     5
  0
LAYER
  5
10
330
2
100
AcDbSymbolTableRecord
100
AcDbLayerTableRecord
  2
0
 70
     0
 62
     7
  6
CONTINUOUS
  0
LAYER
  5
40
330
2
100
AcDbSymbolTableRecord
100
AcDbLayerTableRecord
  2
GRAU_10_
 70
     0
 62
     7
  6
CONTINUOUS
  0
LAYER
  5
41
330
2
100
AcDbSymbolTableRecord
100
AcDbLayerTableRecord
  2
STANDARDEBENE
 70
     0
 62
     7
  6
CONTINUOUS
  0
LAYER
  5
2DB
330
2
100
AcDbSymbolTableRecord
100
AcDbLayerTableRecord
  2
TEXT
 70
     1
 62
     7
  6
CONTINUOUS
  0
LAYER
  5
2DF
330
2
100
AcDbSymbolTableRecord
100
AcDbLayerTableRecord
  2
BEMA_U_00DFUNG
 70
     1
 62
     7
  6
CONTINUOUS
  0
ENDTAB
  0
TABLE
  2
STYLE
  5
3
330
0
100
AcDbSymbolTable
 70
     1
  0
STYLE
  5
11
330
3
100
AcDbSymbolTableRecord
100
AcDbTextStyleTableRecord
  2
STANDARD
 70
     0
 40
0.0
 41
1.0
 50
0.0
 71
     0
 42
0.2
  3
txt
  4

  0
ENDTAB
  0
TABLE
  2
VIEW
  5
6
330
0
100
AcDbSymbolTable
 70
     0
  0
ENDTAB
  0
TABLE
  2
UCS
  5
7
330
0
100
AcDbSymbolTable
 70
     0
  0
ENDTAB
  0
TABLE
  2
APPID
  5
9
330
0
100
AcDbSymbolTable
 70
     1
  0
APPID
  5
12
330
9
100
AcDbSymbolTableRecord
100
AcDbRegAppTableRecord
  2
ACAD
 70
     0
  0
ENDTAB
  0
TABLE
  2
DIMSTYLE
  5
A
330
0
100
AcDbSymbolTable
 70
     1
  0
DIMSTYLE
105
27
330
A
100
AcDbSymbolTableRecord
100
AcDbDimStyleTableRecord
  2
STANDARD
 70
     0
  3

  4

  5

  6

  7

 40
1.0
 41
0.18
 42
0.0625
 43
0.38
 44
0.18
 45
0.0
 46
0.0
 47
0.0
 48
0.0
140
0.18
141
0.09
142
0.0
143
25.4
144
1.0
145
0.0
146
1.0
147
0.09
 71
     0
 72
     0
 73
     1
 74
     1
 75
     0
 76
     0
 77
     0
 78
     0
170
     0
171
     2
172
     0
173
     0
174
     0
175
     0
176
     0
177
     0
178
     0
270
     2
271
     4
272
     4
273
     2
274
     2
340
11
275
     0
280
     0
281
     0
282
     0
283
     1
284
     0
285
     0
286
     0
287
     3
288
     0
  0
ENDTAB
  0
TABLE
  2
BLOCK_RECORD
  5
1
330
0
100
AcDbSymbolTable
 70
     1
  0
BLOCK_RECORD
  5
1F
330
1
100
AcDbSymbolTableRecord
100
AcDbBlockTableRecord
  2
*MODEL_SPACE
  0
BLOCK_RECORD
  5
1B
330
1
100
AcDbSymbolTableRecord
100
AcDbBlockTableRecord
  2
*PAPER_SPACE
  0
ENDTAB
  0
ENDSEC
  0
SECTION
  2
BLOCKS
  0
BLOCK
  5
20
330
1F
100
AcDbEntity
  8
0
100
AcDbBlockBegin
  2
*MODEL_SPACE
 70
     0
 10
0.0
 20
0.0
 30
0.0
  3
*MODEL_SPACE
  1

  0
ENDBLK
  5
21
330
1F
100
AcDbEntity
  8
0
100
AcDbBlockEnd
  0
BLOCK
  5
1C
330
1B
100
AcDbEntity
 67
     1
  8
0
100
AcDbBlockBegin
  2
*PAPER_SPACE
 70
     0
 10
0.0
 20
0.0
 30
0.0
  3
*PAPER_SPACE
  1

  0
ENDBLK
  5
1D
330
1B
100
AcDbEntity
 67
     1
  8
0
100
AcDbBlockEnd
  0
ENDSEC
  0
SECTION
  2
ENTITIES
  0
POLYLINE
  5
42
330
1F
100
AcDbEntity
  8
STANDARDEBENE
 62
     7
100
AcDb2dPolyline
 66
     1
 10
0.0
 20
0.0
 30
0.0
  0
VERTEX
  5
43
330
42
100
AcDbEntity
  8
STANDARDEBENE
 62
     7
100
AcDbVertex
100
AcDb2dVertex
 10
174.658967908809
 20
230.9797089510444
 30
0.0
  0
VERTEX
  5
44
330
42
100
AcDbEntity
  8
STANDARDEBENE
 62
     7
100
AcDbVertex
100
AcDb2dVertex
 10
174.5972317977132
 20
230.9797089510444
 30
0.0
  0
VERTEX
  5
45
330
42
100
AcDbEntity
  8
STANDARDEBENE
 62
     7
100
AcDbVertex
100
AcDb2dVertex
 10
27.57356516780273
 20
230.9797089510444
 30
0.0
  0
SEQEND
  5
46
330
42
100
AcDbEntity
  8
STANDARDEBENE
 62
     7
  0
POLYLINE
  5
47
330
1F
100
AcDbEntity
  8
STANDARDEBENE
 62
     7
100
AcDb2dPolyline
 66
     1
 10
0.0
 20
0.0
 30
0.0
  0
VERTEX
  5
48
330
47
100
AcDbEntity
  8
STANDARDEBENE
 62
     7
100
AcDbVertex
100
AcDb2dVertex
 10
27.42595045571066
 20
227.9800395073496
 30
0.0
  0
VERTEX
  5
49
330
47
100
AcDbEntity
  8
STANDARDEBENE
 62
     7
100
AcDbVertex
100
AcDb2dVertex
 10
174.5381643078213
 20
227.9800395073496
 30
0.0
  0
SEQEND
  5
4A
330
47
100
AcDbEntity
  8
STANDARDEBENE
 62
     7
  0
POLYLINE
  5
4B
330
1F
100
AcDbEntity
  8
STANDARDEBENE
 62
     7
100
AcDb2dPolyline
 66
     1
 10
0.0
 20
0.0
 30
0.0
  0
VERTEX
  5
4C
330
4B
100
AcDbEntity
  8
STANDARDEBENE
 62
     7
100
AcDbVertex
100
AcDb2dVertex
 10
177.3488984636921
 20
227.9800395073496
 30
0.0
  0
VERTEX
  5
4D
330
4B
100
AcDbEntity
  8
STANDARDEBENE
 62
     7
100
AcDbVertex
100
AcDb2dVertex
 10
177.4116929081208
 20
227.9800395073496
 30
0.0
  0
VERTEX
  5
4E
330
4B
100
AcDbEntity
  8
STANDARDEBENE
 62
     7
100
AcDbVertex
100
AcDb2dVertex
 10
177.5736179080802
 20
227.9800395073496
 30
0.0
  0
VERTEX
  5
4F
330
4B
100
AcDbEntity
  8
STANDARDEBENE
 62
     7
100
AcDbVertex
100
AcDb2dVertex
 10
177.5736179080802
 20
228.0943395073213
 30
0.0
  0
VERTEX
  5
50
330
4B
100
AcDbEntity
  8
STANDARDEBENE
 62
     7
100
AcDbVertex
100
AcDb2dVertex
 10
177.5736179080802
 20
228.4196006183509
 30
0.0
  0
VERTEX
  5
51
330
4B
100
AcDbEntity
  8
STANDARDEBENE
 62
     7
100
AcDbVertex
100
AcDb2dVertex
 10
177.5736179080802
 20
228.9060811737848
 30
0.0
  0
VERTEX
  5
52
330
4B
100
AcDbEntity
  8
STANDARDEBENE
 62
     7
100
AcDbVertex
100
AcDb2dVertex
 10
177.5736179080802
 20
229.4800506180859
 30
0.0
  0
VERTEX
  5
53
330
4B
100
AcDbEntity
  8
STANDARDEBENE
 62
     7
100
AcDbVertex
100
AcDb2dVertex
 10
177.5736179080802
 20
230.0543728401644
 30
0.0
  0
VERTEX
  5
54
330
4B
100
AcDbEntity
  8
STANDARDEBENE
 62
     7
100
AcDbVertex
100
AcDb2dVertex
 10
177.5736179080802
 20
230.5405006178206
 30
0.0
  0
VERTEX
  5
55
330
4B
100
AcDbEntity
  8
STANDARDEBENE
 62
     7
100
AcDbVertex
100
AcDb2dVertex
 10
177.5736179080802
 20
230.8657617288505
 30
0.0
  0
VERTEX
  5
56
330
4B
100
AcDbEntity
  8
STANDARDEBENE
 62
     7
100
AcDbVertex
100
AcDb2dVertex
 10
177.5736179080802
 20
230.9797089510444
 30
0.0
  0
SEQEND
  5
57
330
4B
100
AcDbEntity
  8
STANDARDEBENE
 62
     7
  0
POLYLINE
  5
58
330
1F
100
AcDbEntity
  8
STANDARDEBENE
 62
     7
100
AcDb2dPolyline
 66
     1
 10
0.0
 20
0.0
 30
0.0
  0
VERTEX
  5
59
330
58
100
AcDbEntity
  8
STANDARDEBENE
 62
     7
100
AcDbVertex
100
AcDb2dVertex
 10
172.0734595761221
 20
230.2297033956763
 30
0.0
  0
VERTEX
  5
5A
330
58
100
AcDbEntity
  8
STANDARDEBENE
 62
     7
100
AcDbVertex
100
AcDb2dVertex
 10
171.0733345763721
 20
230.2297033956763
 30
0.0
  0
SEQEND
  5
5B
330
58
100
AcDbEntity
  8
STANDARDEBENE
 62
     7
  0
POLYLINE
  5
5C
330
1F
100
AcDbEntity
  8
STANDARDEBENE
 62
     7
100
AcDb2dPolyline
 66
     1
 10
0.0
 20
0.0
 30
0.0
  0
VERTEX
  5
5D
330
5C
100
AcDbEntity
  8
STANDARDEBENE
 62
     7
100
AcDbVertex
100
AcDb2dVertex
 10
170.0735623543999
 20
230.2297033956763
 30
0.0
  0
VERTEX
  5
5E
330
5C
100
AcDbEntity
  8
STANDARDEBENE
 62
     7
100
AcDbVertex
100
AcDb2dVertex
 10
169.0734373546499
 20
230.2297033956763
 30
0.0
  0
SEQEND
  5
5F
330
5C
100
AcDbEntity
  8
STANDARDEBENE
 62
     7
  0
POLYLINE
  5
60
330
1F
100
AcDbEntity
  8
STANDARDEBENE
 62
     7
100
AcDb2dPolyline
 66
     1
 10
0.0
 20
0.0
 30
0.0
  0
VERTEX
  5
61
330
60
100
AcDbEntity
  8
STANDARDEBENE
 62
     7
100
AcDbVertex
100
AcDb2dVertex
 10
168.0736651326777
 20
230.2297033956763
 30
0.0
  0
VERTEX
  5
62
330
60
100
AcDbEntity
  8
STANDARDEBENE
 62
     7
100
AcDbVertex
100
AcDb2dVertex
 10
167.0735401329274
 20
230.2297033956763
 30
0.0
  0
SEQEND
  5
63
330
60
100
AcDbEntity
  8
STANDARDEBENE
 62
     7
  0
POLYLINE
  5
64
330
1F
100
AcDbEntity
  8
STANDARDEBENE
 62
     7
100
AcDb2dPolyline
 66
     1
 10
0.0
 20
0.0
 30
0.0
  0
VERTEX
  5
65
330
64
100
AcDbEntity
  8
STANDARDEBENE
 62
     7
100
AcDbVertex
100
AcDb2dVertex
 10
166.0734151331777
 20
230.2297033956763
 30
0.0
  0
VERTEX
  5
66
330
64
100
AcDbEntity
  8
STANDARDEBENE
 62
     7
100
AcDbVertex
100
AcDb2dVertex
 10
165.0736429112052
 20
230.2297033956763
 30
0.0
  0
SEQEND
  5
67
330
64
100
AcDbEntity
  8
STANDARDEBENE
 62
     7
  0
POLYLINE
  5
68
330
1F
100
AcDbEntity
  8
STANDARDEBENE
 62
     7
100
AcDb2dPolyline
 66
     1
 10
0.0
 20
0.0
 30
0.0
  0
VERTEX
  5
69
330
68
100
AcDbEntity
  8
STANDARDEBENE
 62
     7
100
AcDbVertex
100
AcDb2dVertex
 10
164.0731651336778
 20
230.2297033956763
 30
0.0
  0
VERTEX
  5
6A
330
68
100
AcDbEntity
  8
STANDARDEBENE
 62
     7
100
AcDbVertex
100
AcDb2dVertex
 10
163.073745689483
 20
230.2297033956763
 30
0.0
  0
SEQEND
  5
6B
330
68
100
AcDbEntity
  8
STANDARDEBENE
 62
     7
  0
POLYLINE
  5
6C
330
1F
100
AcDbEntity
  8
STANDARDEBENE
 62
     7
100
AcDb2dPolyline
 66
     1
 10
0.0
 20
0.0
 30
0.0
  0
VERTEX
  5
6D
330
6C
100
AcDbEntity
  8
STANDARDEBENE
 62
     7
100
AcDbVertex
100
AcDb2dVertex
 10
162.073620689733
 20
230.2297033956763
 30
0.0
  0
VERTEX
  5
6E
330
6C
100
AcDbEntity
  8
STANDARDEBENE
 62
     7
100
AcDbVertex
100
AcDb2dVertex
 10
161.0731429122053
 20
230.2297033956763
 30
0.0
  0
SEQEND
  5
6F
330
6C
100
AcDbEntity
  8
STANDARDEBENE
 62
     7
  0
POLYLINE
  5
70
330
1F
100
AcDbEntity
  8
STANDARDEBENE
 62
     7
100
AcDb2dPolyline
 66
     1
 10
0.0
 20
0.0
 30
0.0
  0
VERTEX
  5
71
330
70
100
AcDbEntity
  8
STANDARDEBENE
 62
     7
100
AcDbVertex
100
AcDb2dVertex
 10
160.0737234680108
 20
230.2297033956763
 30
0.0
  0
VERTEX
  5
72
330
70
100
AcDbEntity
  8
STANDARDEBENE
 62
     7
100
AcDbVertex
100
AcDb2dVertex
 10
159.0732456904831
 20
230.2297033956763
 30
0.0
  0
SEQEND
  5
73
330
70
100
AcDbEntity
  8
STANDARDEBENE
 62
     7
  0
POLYLINE
  5
74
330
1F
100
AcDbEntity
  8
STANDARDEBENE
 62
     7
100
AcDb2dPolyline
 66
     1
 10
0.0
 20
0.0
 30
0.0
  0
VERTEX
  5
75
330
74
100
AcDbEntity
  8
STANDARDEBENE
 62
     7
100
AcDbVertex
100
AcDb2dVertex
 10
158.0731206907331
 20
230.2297033956763
 30
0.0
  0
VERTEX
  5
76
330
74
100
AcDbEntity
  8
STANDARDEBENE
 62
     7
100
AcDbVertex
100
AcDb2dVertex
 10
157.0737012465387
 20
230.2297033956763
 30
0.0
  0
SEQEND
  5
77
330
74
100
AcDbEntity
  8
STANDARDEBENE
 62
     7
  0
POLYLINE
  5
78
330
1F
100
AcDbEntity
  8
STANDARDEBENE
 62
     7
100
AcDb2dPolyline
 66
     1
 10
0.0
 20
0.0
 30
0.0
  0
VERTEX
  5
79
330
78
100
AcDbEntity
  8
STANDARDEBENE
 62
     7
100
AcDbVertex
100
AcDb2dVertex
 10
156.0732234690109
 20
230.2297033956763
 30
0.0
  0
VERTEX
  5
7A
330
78
100
AcDbEntity
  8
STANDARDEBENE
 62
     7
100
AcDbVertex
100
AcDb2dVertex
 10
155.0734512470387
 20
230.2297033956763
 30
0.0
  0
SEQEND
  5
7B
330
78
100
AcDbEntity
  8
STANDARDEBENE
 62
     7
  0
POLYLINE
  5
7C
330
1F
100
AcDbEntity
  8
STANDARDEBENE
 62
     7
100
AcDb2dPolyline
 66
     1
 10
0.0
 20
0.0
 30
0.0
  0
VERTEX
  5
7D
330
7C
100
AcDbEntity
  8
STANDARDEBENE
 62
     7
100
AcDbVertex
100
AcDb2dVertex
 10
154.0733262472887
 20
230.2297033956763
 30
0.0
  0
VERTEX
  5
7E
330
7C
100
AcDbEntity
  8
STANDARDEBENE
 62
     7
100
AcDbVertex
100
AcDb2dVertex
 10
153.0732012475387
 20
230.2297033956763
 30
0.0
  0
SEQEND
  5
7F
330
7C
100
AcDbEntity
  8
STANDARDEBENE
 62
     7
  0
POLYLINE
  5
80
330
1F
100
AcDbEntity
  8
STANDARDEBENE
 62
     7
100
AcDb2dPolyline
 66
     1
 10
0.0
 20
0.0
 30
0.0
  0
VERTEX
  5
81
330
80
100
AcDbEntity
  8
STANDARDEBENE
 62
     7
100
AcDbVertex
100
AcDb2dVertex
 10
152.0737818033443
 20
230.2297033956763
 30
0.0
  0
VERTEX
  5
82
330
80
100
AcDbEntity
  8
STANDARDEBENE
 62
     7
100
AcDbVertex
100
AcDb2dVertex
 10
151.0733040258165
 20
230.2297033956763
 30
0.0
  0
SEQEND
  5
83
330
80
100
AcDbEntity
  8
STANDARDEBENE
 62
     7
  0
POLYLINE
  5
84
330
1F
100
AcDbEntity
  8
STANDARDEBENE
 62
     7
100
AcDb2dPolyline
 66
     1
 10
0.0
 20
0.0
 30
0.0
  0
VERTEX
  5
85
330
84
100
AcDbEntity
  8
STANDARDEBENE
 62
     7
100
AcDbVertex
100
AcDb2dVertex
 10
150.0735318038443
 20
230.2297033956763
 30
0.0
  0
VERTEX
  5
86
330
84
100
AcDbEntity
  8
STANDARDEBENE
 62
     7
100
AcDbVertex
100
AcDb2dVertex
 10
149.0734068040943
 20
230.2297033956763
 30
0.0
  0
SEQEND
  5
87
330
84
100
AcDbEntity
  8
STANDARDEBENE
 62
     7
  0
POLYLINE
  5
88
330
1F
100
AcDbEntity
  8
STANDARDEBENE
 62
     7
100
AcDb2dPolyline
 66
     1
 10
0.0
 20
0.0
 30
0.0
  0
VERTEX
  5
89
330
88
100
AcDbEntity
  8
STANDARDEBENE
 62
     7
100
AcDbVertex
100
AcDb2dVertex
 10
148.0732818043443
 20
230.2297033956763
 30
0.0
  0
VERTEX
  5
8A
330
88
100
AcDbEntity
  8
STANDARDEBENE
 62
     7
100
AcDbVertex
100
AcDb2dVertex
 10
147.0735095823721
 20
230.2297033956763
 30
0.0
  0
SEQEND
  5
8B
330
88
100
AcDbEntity
  8
STANDARDEBENE
 62
     7
  0
POLYLINE
  5
8C
330
1F
100
AcDbEntity
  8
STANDARDEBENE
 62
     7
100
AcDb2dPolyline
 66
     1
 10
0.0
 20
0.0
 30
0.0
  0
VERTEX
  5
8D
330
8C
100
AcDbEntity
  8
STANDARDEBENE
 62
     7
100
AcDbVertex
100
AcDb2dVertex
 10
146.0733845826221
 20
230.2297033956763
 30
0.0
  0
VERTEX
  5
8E
330
8C
100
AcDbEntity
  8
STANDARDEBENE
 62
     7
100
AcDbVertex
100
AcDb2dVertex
 10
145.0736123606499
 20
230.2297033956763
 30
0.0
  0
SEQEND
  5
8F
330
8C
100
AcDbEntity
  8
STANDARDEBENE
 62
     7
  0
POLYLINE
  5
90
330
1F
100
AcDbEntity
  8
STANDARDEBENE
 62
     7
100
AcDb2dPolyline
 66
     1
 10
0.0
 20
0.0
 30
0.0
  0
VERTEX
  5
91
330
90
100
AcDbEntity
  8
STANDARDEBENE
 62
     7
100
AcDbVertex
100
AcDb2dVertex
 10
144.0734873608999
 20
230.2297033956763
 30
0.0
  0
VERTEX
  5
92
330
90
100
AcDbEntity
  8
STANDARDEBENE
 62
     7
100
AcDbVertex
100
AcDb2dVertex
 10
143.0733623611499
 20
230.2297033956763
 30
0.0
  0
SEQEND
  5
93
330
90
100
AcDbEntity
  8
STANDARDEBENE
 62
     7
  0
POLYLINE
  5
94
330
1F
100
AcDbEntity
  8
STANDARDEBENE
 62
     7
100
AcDb2dPolyline
 66
     1
 10
0.0
 20
0.0
 30
0.0
  0
VERTEX
  5
95
330
94
100
AcDbEntity
  8
STANDARDEBENE
 62
     7
100
AcDbVertex
100
AcDb2dVertex
 10
142.0735901391774
 20
230.2297033956763
 30
0.0
  0
VERTEX
  5
96
330
94
100
AcDbEntity
  8
STANDARDEBENE
 62
     7
100
AcDbVertex
100
AcDb2dVertex
 10
141.07311236165
 20
230.2297033956763
 30
0.0
  0
SEQEND
  5
97
330
94
100
AcDbEntity
  8
STANDARDEBENE
 62
     7
  0
POLYLINE
  5
98
330
1F
100
AcDbEntity
  8
STANDARDEBENE
 62
     7
100
AcDb2dPolyline
 66
     1
 10
0.0
 20
0.0
 30
0.0
  0
VERTEX
  5
99
330
98
100
AcDbEntity
  8
STANDARDEBENE
 62
     7
100
AcDbVertex
100
AcDb2dVertex
 10
140.0736929174552
 20
230.2297033956763
 30
0.0
  0
VERTEX
  5
9A
330
98
100
AcDbEntity
  8
STANDARDEBENE
 62
     7
100
AcDbVertex
100
AcDb2dVertex
 10
139.0735679177052
 20
230.2297033956763
 30
0.0
  0
SEQEND
  5
9B
330
98
100
AcDbEntity
  8
STANDARDEBENE
 62
     7
  0
POLYLINE
  5
9C
330
1F
100
AcDbEntity
  8
STANDARDEBENE
 62
     7
100
AcDb2dPolyline
 66
     1
 10
0.0
 20
0.0
 30
0.0
  0
VERTEX
  5
9D
330
9C
100
AcDbEntity
  8
STANDARDEBENE
 62
     7
100
AcDbVertex
100
AcDb2dVertex
 10
138.0734429179552
 20
230.2297033956763
 30
0.0
  0
VERTEX
  5
9E
330
9C
100
AcDbEntity
  8
STANDARDEBENE
 62
     7
100
AcDbVertex
100
AcDb2dVertex
 10
137.073670695983
 20
230.2297033956763
 30
0.0
  0
SEQEND
  5
9F
330
9C
100
AcDbEntity
  8
STANDARDEBENE
 62
     7
  0
POLYLINE
  5
A0
330
1F
100
AcDbEntity
  8
STANDARDEBENE
 62
     7
100
AcDb2dPolyline
 66
     1
 10
0.0
 20
0.0
 30
0.0
  0
VERTEX
  5
A1
330
A0
100
AcDbEntity
  8
STANDARDEBENE
 62
     7
100
AcDbVertex
100
AcDb2dVertex
 10
136.0731929184553
 20
230.2297033956763
 30
0.0
  0
VERTEX
  5
A2
330
A0
100
AcDbEntity
  8
STANDARDEBENE
 62
     7
100
AcDbVertex
100
AcDb2dVertex
 10
135.0737734742608
 20
230.2297033956763
 30
0.0
  0
SEQEND
  5
A3
330
A0
100
AcDbEntity
  8
STANDARDEBENE
 62
     7
  0
POLYLINE
  5
A4
330
1F
100
AcDbEntity
  8
STANDARDEBENE
 62
     7
100
AcDb2dPolyline
 66
     1
 10
0.0
 20
0.0
 30
0.0
  0
VERTEX
  5
A5
330
A4
100
AcDbEntity
  8
STANDARDEBENE
 62
     7
100
AcDbVertex
100
AcDb2dVertex
 10
134.0736484745108
 20
230.2297033956763
 30
0.0
  0
VERTEX
  5
A6
330
A4
100
AcDbEntity
  8
STANDARDEBENE
 62
     7
100
AcDbVertex
100
AcDb2dVertex
 10
133.0731706969831
 20
230.2297033956763
 30
0.0
  0
SEQEND
  5
A7
330
A4
100
AcDbEntity
  8
STANDARDEBENE
 62
     7
  0
POLYLINE
  5
A8
330
1F
100
AcDbEntity
  8
STANDARDEBENE
 62
     7
100
AcDb2dPolyline
 66
     1
 10
0.0
 20
0.0
 30
0.0
  0
VERTEX
  5
A9
330
A8
100
AcDbEntity
  8
STANDARDEBENE
 62
     7
100
AcDbVertex
100
AcDb2dVertex
 10
132.0737512527886
 20
230.2297033956763
 30
0.0
  0
VERTEX
  5
AA
330
A8
100
AcDbEntity
  8
STANDARDEBENE
 62
     7
100
AcDbVertex
100
AcDb2dVertex
 10
131.0732734752609
 20
230.2297033956763
 30
0.0
  0
SEQEND
  5
AB
330
A8
100
AcDbEntity
  8
STANDARDEBENE
 62
     7
  0
POLYLINE
  5
AC
330
1F
100
AcDbEntity
  8
STANDARDEBENE
 62
     7
100
AcDb2dPolyline
 66
     1
 10
0.0
 20
0.0
 30
0.0
  0
VERTEX
  5
AD
330
AC
100
AcDbEntity
  8
STANDARDEBENE
 62
     7
100
AcDbVertex
100
AcDb2dVertex
 10
130.0731484755109
 20
230.2297033956763
 30
0.0
  0
VERTEX
  5
AE
330
AC
100
AcDbEntity
  8
STANDARDEBENE
 62
     7
100
AcDbVertex
100
AcDb2dVertex
 10
129.0737290313164
 20
230.2297033956763
 30
0.0
  0
SEQEND
  5
AF
330
AC
100
AcDbEntity
  8
STANDARDEBENE
 62
     7
  0
POLYLINE
  5
B0
330
1F
100
AcDbEntity
  8
STANDARDEBENE
 62
     7
100
AcDb2dPolyline
 66
     1
 10
0.0
 20
0.0
 30
0.0
  0
VERTEX
  5
B1
330
B0
100
AcDbEntity
  8
STANDARDEBENE
 62
     7
100
AcDbVertex
100
AcDb2dVertex
 10
128.0732512537887
 20
230.2297033956763
 30
0.0
  0
VERTEX
  5
B2
330
B0
100
AcDbEntity
  8
STANDARDEBENE
 62
     7
100
AcDbVertex
100
AcDb2dVertex
 10
127.0734790318165
 20
230.2297033956763
 30
0.0
  0
SEQEND
  5
B3
330
B0
100
AcDbEntity
  8
STANDARDEBENE
 62
     7
  0
POLYLINE
  5
B4
330
1F
100
AcDbEntity
  8
STANDARDEBENE
 62
     7
100
AcDb2dPolyline
 66
     1
 10
0.0
 20
0.0
 30
0.0
  0
VERTEX
  5
B5
330
B4
100
AcDbEntity
  8
STANDARDEBENE
 62
     7
100
AcDbVertex
100
AcDb2dVertex
 10
126.0733540320665
 20
230.2297033956763
 30
0.0
  0
VERTEX
  5
B6
330
B4
100
AcDbEntity
  8
STANDARDEBENE
 62
     7
100
AcDbVertex
100
AcDb2dVertex
 10
125.0732290323165
 20
230.2297033956763
 30
0.0
  0
SEQEND
  5
B7
330
B4
100
AcDbEntity
  8
STANDARDEBENE
 62
     7
  0
POLYLINE
  5
B8
330
1F
100
AcDbEntity
  8
STANDARDEBENE
 62
     7
100
AcDb2dPolyline
 66
     1
 10
0.0
 20
0.0
 30
0.0
  0
VERTEX
  5
B9
330
B8
100
AcDbEntity
  8
STANDARDEBENE
 62
     7
100
AcDbVertex
100
AcDb2dVertex
 10
124.0734568103443
 20
230.2297033956763
 30
0.0
  0
VERTEX
  5
BA
330
B8
100
AcDbEntity
  8
STANDARDEBENE
 62
     7
100
AcDbVertex
100
AcDb2dVertex
 10
123.0733318105943
 20
230.2297033956763
 30
0.0
  0
SEQEND
  5
BB
330
B8
100
AcDbEntity
  8
STANDARDEBENE
 62
     7
  0
POLYLINE
  5
BC
330
1F
100
AcDbEntity
  8
STANDARDEBENE
 62
     7
100
AcDb2dPolyline
 66
     1
 10
0.0
 20
0.0
 30
0.0
  0
VERTEX
  5
BD
330
BC
100
AcDbEntity
  8
STANDARDEBENE
 62
     7
100
AcDbVertex
100
AcDb2dVertex
 10
122.0735595886221
 20
230.2297033956763
 30
0.0
  0
VERTEX
  5
BE
330
BC
100
AcDbEntity
  8
STANDARDEBENE
 62
     7
100
AcDbVertex
100
AcDb2dVertex
 10
121.0734345888721
 20
230.2297033956763
 30
0.0
  0
SEQEND
  5
BF
330
BC
100
AcDbEntity
  8
STANDARDEBENE
 62
     7
  0
POLYLINE
  5
C0
330
1F
100
AcDbEntity
  8
STANDARDEBENE
 62
     7
100
AcDb2dPolyline
 66
     1
 10
0.0
 20
0.0
 30
0.0
  0
VERTEX
  5
C1
330
C0
100
AcDbEntity
  8
STANDARDEBENE
 62
     7
100
AcDbVertex
100
AcDb2dVertex
 10
120.0733095891221
 20
230.2297033956763
 30
0.0
  0
VERTEX
  5
C2
330
C0
100
AcDbEntity
  8
STANDARDEBENE
 62
     7
100
AcDbVertex
100
AcDb2dVertex
 10
119.0735373671499
 20
230.2297033956763
 30
0.0
  0
SEQEND
  5
C3
330
C0
100
AcDbEntity
  8
STANDARDEBENE
 62
     7
  0
POLYLINE
  5
C4
330
1F
100
AcDbEntity
  8
STANDARDEBENE
 62
     7
100
AcDb2dPolyline
 66
     1
 10
0.0
 20
0.0
 30
0.0
  0
VERTEX
  5
C5
330
C4
100
AcDbEntity
  8
STANDARDEBENE
 62
     7
100
AcDbVertex
100
AcDb2dVertex
 10
118.0734123673999
 20
230.2297033956763
 30
0.0
  0
VERTEX
  5
C6
330
C4
100
AcDbEntity
  8
STANDARDEBENE
 62
     7
100
AcDbVertex
100
AcDb2dVertex
 10
117.0736401454274
 20
230.2297033956763
 30
0.0
  0
SEQEND
  5
C7
330
C4
100
AcDbEntity
  8
STANDARDEBENE
 62
     7
  0
POLYLINE
  5
C8
330
1F
100
AcDbEntity
  8
STANDARDEBENE
 62
     7
100
AcDb2dPolyline
 66
     1
 10
0.0
 20
0.0
 30
0.0
  0
VERTEX
  5
C9
330
C8
100
AcDbEntity
  8
STANDARDEBENE
 62
     7
100
AcDbVertex
100
AcDb2dVertex
 10
116.0735151456777
 20
230.2297033956763
 30
0.0
  0
VERTEX
  5
CA
330
C8
100
AcDbEntity
  8
STANDARDEBENE
 62
     7
100
AcDbVertex
100
AcDb2dVertex
 10
115.0733901459274
 20
230.2297033956763
 30
0.0
  0
SEQEND
  5
CB
330
C8
100
AcDbEntity
  8
STANDARDEBENE
 62
     7
  0
POLYLINE
  5
CC
330
1F
100
AcDbEntity
  8
STANDARDEBENE
 62
     7
100
AcDb2dPolyline
 66
     1
 10
0.0
 20
0.0
 30
0.0
  0
VERTEX
  5
CD
330
CC
100
AcDbEntity
  8
STANDARDEBENE
 62
     7
100
AcDbVertex
100
AcDb2dVertex
 10
114.0736179239552
 20
230.2297033956763
 30
0.0
  0
VERTEX
  5
CE
330
CC
100
AcDbEntity
  8
STANDARDEBENE
 62
     7
100
AcDbVertex
100
AcDb2dVertex
 10
113.0731401464278
 20
230.2297033956763
 30
0.0
  0
SEQEND
  5
CF
330
CC
100
AcDbEntity
  8
STANDARDEBENE
 62
     7
  0
POLYLINE
  5
D0
330
1F
100
AcDbEntity
  8
STANDARDEBENE
 62
     7
100
AcDb2dPolyline
 66
     1
 10
0.0
 20
0.0
 30
0.0
  0
VERTEX
  5
D1
330
D0
100
AcDbEntity
  8
STANDARDEBENE
 62
     7
100
AcDbVertex
100
AcDb2dVertex
 10
112.073720702233
 20
230.2297033956763
 30
0.0
  0
VERTEX
  5
D2
330
D0
100
AcDbEntity
  8
STANDARDEBENE
 62
     7
100
AcDbVertex
100
AcDb2dVertex
 10
111.073595702483
 20
230.2297033956763
 30
0.0
  0
SEQEND
  5
D3
330
D0
100
AcDbEntity
  8
STANDARDEBENE
 62
     7
  0
POLYLINE
  5
D4
330
1F
100
AcDbEntity
  8
STANDARDEBENE
 62
     7
100
AcDb2dPolyline
 66
     1
 10
0.0
 20
0.0
 30
0.0
  0
VERTEX
  5
D5
330
D4
100
AcDbEntity
  8
STANDARDEBENE
 62
     7
100
AcDbVertex
100
AcDb2dVertex
 10
110.0731179249556
 20
230.2297033956763
 30
0.0
  0
VERTEX
  5
D6
330
D4
100
AcDbEntity
  8
STANDARDEBENE
 62
     7
100
AcDbVertex
100
AcDb2dVertex
 10
109.0736984807608
 20
230.2297033956763
 30
0.0
  0
SEQEND
  5
D7
330
D4
100
AcDbEntity
  8
STANDARDEBENE
 62
     7
  0
POLYLINE
  5
D8
330
1F
100
AcDbEntity
  8
STANDARDEBENE
 62
     7
100
AcDb2dPolyline
 66
     1
 10
0.0
 20
0.0
 30
0.0
  0
VERTEX
  5
D9
330
D8
100
AcDbEntity
  8
STANDARDEBENE
 62
     7
100
AcDbVertex
100
AcDb2dVertex
 10
108.0732207032331
 20
230.2297033956763
 30
0.0
  0
VERTEX
  5
DA
330
D8
100
AcDbEntity
  8
STANDARDEBENE
 62
     7
100
AcDbVertex
100
AcDb2dVertex
 10
107.0730957034831
 20
230.2297033956763
 30
0.0
  0
SEQEND
  5
DB
330
D8
100
AcDbEntity
  8
STANDARDEBENE
 62
     7
  0
POLYLINE
  5
DC
330
1F
100
AcDbEntity
  8
STANDARDEBENE
 62
     7
100
AcDb2dPolyline
 66
     1
 10
0.0
 20
0.0
 30
0.0
  0
VERTEX
  5
DD
330
DC
100
AcDbEntity
  8
STANDARDEBENE
 62
     7
100
AcDbVertex
100
AcDb2dVertex
 10
106.0736762592886
 20
230.2297033956763
 30
0.0
  0
VERTEX
  5
DE
330
DC
100
AcDbEntity
  8
STANDARDEBENE
 62
     7
100
AcDbVertex
100
AcDb2dVertex
 10
105.0731984817609
 20
230.2297033956763
 30
0.0
  0
SEQEND
  5
DF
330
DC
100
AcDbEntity
  8
STANDARDEBENE
 62
     7
  0
POLYLINE
  5
E0
330
1F
100
AcDbEntity
  8
STANDARDEBENE
 62
     7
100
AcDb2dPolyline
 66
     1
 10
0.0
 20
0.0
 30
0.0
  0
VERTEX
  5
E1
330
E0
100
AcDbEntity
  8
STANDARDEBENE
 62
     7
100
AcDbVertex
100
AcDb2dVertex
 10
104.0737790375665
 20
230.2297033956763
 30
0.0
  0
VERTEX
  5
E2
330
E0
100
AcDbEntity
  8
STANDARDEBENE
 62
     7
100
AcDbVertex
100
AcDb2dVertex
 10
103.0733012600387
 20
230.2297033956763
 30
0.0
  0
SEQEND
  5
E3
330
E0
100
AcDbEntity
  8
STANDARDEBENE
 62
     7
  0
POLYLINE
  5
E4
330
1F
100
AcDbEntity
  8
STANDARDEBENE
 62
     7
100
AcDb2dPolyline
 66
     1
 10
0.0
 20
0.0
 30
0.0
  0
VERTEX
  5
E5
330
E4
100
AcDbEntity
  8
STANDARDEBENE
 62
     7
100
AcDbVertex
100
AcDb2dVertex
 10
102.0731762602887
 20
230.2297033956763
 30
0.0
  0
VERTEX
  5
E6
330
E4
100
AcDbEntity
  8
STANDARDEBENE
 62
     7
100
AcDbVertex
100
AcDb2dVertex
 10
101.0737568160943
 20
230.2297033956763
 30
0.0
  0
SEQEND
  5
E7
330
E4
100
AcDbEntity
  8
STANDARDEBENE
 62
     7
  0
POLYLINE
  5
E8
330
1F
100
AcDbEntity
  8
STANDARDEBENE
 62
     7
100
AcDb2dPolyline
 66
     1
 10
0.0
 20
0.0
 30
0.0
  0
VERTEX
  5
E9
330
E8
100
AcDbEntity
  8
STANDARDEBENE
 62
     7
100
AcDbVertex
100
AcDb2dVertex
 10
100.0732790385665
 20
230.2297033956763
 30
0.0
  0
VERTEX
  5
EA
330
E8
100
AcDbEntity
  8
STANDARDEBENE
 62
     7
100
AcDbVertex
100
AcDb2dVertex
 10
99.0735068165943
 20
230.2297033956763
 30
0.0
  0
SEQEND
  5
EB
330
E8
100
AcDbEntity
  8
STANDARDEBENE
 62
     7
  0
POLYLINE
  5
EC
330
1F
100
AcDbEntity
  8
STANDARDEBENE
 62
     7
100
AcDb2dPolyline
 66
     1
 10
0.0
 20
0.0
 30
0.0
  0
VERTEX
  5
ED
330
EC
100
AcDbEntity
  8
STANDARDEBENE
 62
     7
100
AcDbVertex
100
AcDb2dVertex
 10
98.07338181684432
 20
230.2297033956763
 30
0.0
  0
VERTEX
  5
EE
330
EC
100
AcDbEntity
  8
STANDARDEBENE
 62
     7
100
AcDbVertex
100
AcDb2dVertex
 10
97.07325681709433
 20
230.2297033956763
 30
0.0
  0
SEQEND
  5
EF
330
EC
100
AcDbEntity
  8
STANDARDEBENE
 62
     7
  0
POLYLINE
  5
F0
330
1F
100
AcDbEntity
  8
STANDARDEBENE
 62
     7
100
AcDb2dPolyline
 66
     1
 10
0.0
 20
0.0
 30
0.0
  0
VERTEX
  5
F1
330
F0
100
AcDbEntity
  8
STANDARDEBENE
 62
     7
100
AcDbVertex
100
AcDb2dVertex
 10
96.07348459512211
 20
230.2297033956763
 30
0.0
  0
VERTEX
  5
F2
330
F0
100
AcDbEntity
  8
STANDARDEBENE
 62
     7
100
AcDbVertex
100
AcDb2dVertex
 10
95.07335959537214
 20
230.2297033956763
 30
0.0
  0
SEQEND
  5
F3
330
F0
100
AcDbEntity
  8
STANDARDEBENE
 62
     7
  0
POLYLINE
  5
F4
330
1F
100
AcDbEntity
  8
STANDARDEBENE
 62
     7
100
AcDb2dPolyline
 66
     1
 10
0.0
 20
0.0
 30
0.0
  0
VERTEX
  5
F5
330
F4
100
AcDbEntity
  8
STANDARDEBENE
 62
     7
100
AcDbVertex
100
AcDb2dVertex
 10
94.07358737339992
 20
230.2297033956763
 30
0.0
  0
VERTEX
  5
F6
330
F4
100
AcDbEntity
  8
STANDARDEBENE
 62
     7
100
AcDbVertex
100
AcDb2dVertex
 10
93.07346237364993
 20
230.2297033956763
 30
0.0
  0
SEQEND
  5
F7
330
F4
100
AcDbEntity
  8
STANDARDEBENE
 62
     7
  0
POLYLINE
  5
F8
330
1F
100
AcDbEntity
  8
STANDARDEBENE
 62
     7
100
AcDb2dPolyline
 66
     1
 10
0.0
 20
0.0
 30
0.0
  0
VERTEX
  5
F9
330
F8
100
AcDbEntity
  8
STANDARDEBENE
 62
     7
100
AcDbVertex
100
AcDb2dVertex
 10
92.07333737389995
 20
230.2297033956763
 30
0.0
  0
VERTEX
  5
FA
330
F8
100
AcDbEntity
  8
STANDARDEBENE
 62
     7
100
AcDbVertex
100
AcDb2dVertex
 10
91.07356515192774
 20
230.2297033956763
 30
0.0
  0
SEQEND
  5
FB
330
F8
100
AcDbEntity
  8
STANDARDEBENE
 62
     7
  0
POLYLINE
  5
FC
330
1F
100
AcDbEntity
  8
STANDARDEBENE
 62
     7
100
AcDb2dPolyline
 66
     1
 10
0.0
 20
0.0
 30
0.0
  0
VERTEX
  5
FD
330
FC
100
AcDbEntity
  8
STANDARDEBENE
 62
     7
100
AcDbVertex
100
AcDb2dVertex
 10
90.07344015217743
 20
230.2297033956763
 30
0.0
  0
VERTEX
  5
FE
330
FC
100
AcDbEntity
  8
STANDARDEBENE
 62
     7
100
AcDbVertex
100
AcDb2dVertex
 10
89.0736679302052
 20
230.2297033956763
 30
0.0
  0
SEQEND
  5
FF
330
FC
100
AcDbEntity
  8
STANDARDEBENE
 62
     7
  0
POLYLINE
  5
100
330
1F
100
AcDbEntity
  8
STANDARDEBENE
 62
     7
100
AcDb2dPolyline
 66
     1
 10
0.0
 20
0.0
 30
0.0
  0
VERTEX
  5
101
330
100
100
AcDbEntity
  8
STANDARDEBENE
 62
     7
100
AcDbVertex
100
AcDb2dVertex
 10
88.07354293045523
 20
230.2297033956763
 30
0.0
  0
VERTEX
  5
102
330
100
100
AcDbEntity
  8
STANDARDEBENE
 62
     7
100
AcDbVertex
100
AcDb2dVertex
 10
87.07306515292781
 20
230.2297033956763
 30
0.0
  0
SEQEND
  5
103
330
100
100
AcDbEntity
  8
STANDARDEBENE
 62
     7
  0
POLYLINE
  5
104
330
1F
100
AcDbEntity
  8
STANDARDEBENE
 62
     7
100
AcDb2dPolyline
 66
     1
 10
0.0
 20
0.0
 30
0.0
  0
VERTEX
  5
105
330
104
100
AcDbEntity
  8
STANDARDEBENE
 62
     7
100
AcDbVertex
100
AcDb2dVertex
 10
86.07364570873303
 20
230.2297033956763
 30
0.0
  0
VERTEX
  5
106
330
104
100
AcDbEntity
  8
STANDARDEBENE
 62
     7
100
AcDbVertex
100
AcDb2dVertex
 10
85.0731679312056
 20
230.2297033956763
 30
0.0
  0
SEQEND
  5
107
330
104
100
AcDbEntity
  8
STANDARDEBENE
 62
     7
  0
POLYLINE
  5
108
330
1F
100
AcDbEntity
  8
STANDARDEBENE
 62
     7
100
AcDb2dPolyline
 66
     1
 10
0.0
 20
0.0
 30
0.0
  0
VERTEX
  5
109
330
108
100
AcDbEntity
  8
STANDARDEBENE
 62
     7
100
AcDbVertex
100
AcDb2dVertex
 10
84.07374848701082
 20
230.2297033956763
 30
0.0
  0
VERTEX
  5
10A
330
108
100
AcDbEntity
  8
STANDARDEBENE
 62
     7
100
AcDbVertex
100
AcDb2dVertex
 10
83.07362348726085
 20
230.2297033956763
 30
0.0
  0
SEQEND
  5
10B
330
108
100
AcDbEntity
  8
STANDARDEBENE
 62
     7
  0
POLYLINE
  5
10C
330
1F
100
AcDbEntity
  8
STANDARDEBENE
 62
     7
100
AcDb2dPolyline
 66
     1
 10
0.0
 20
0.0
 30
0.0
  0
VERTEX
  5
10D
330
10C
100
AcDbEntity
  8
STANDARDEBENE
 62
     7
100
AcDbVertex
100
AcDb2dVertex
 10
82.0731457097331
 20
230.2297033956763
 30
0.0
  0
VERTEX
  5
10E
330
10C
100
AcDbEntity
  8
STANDARDEBENE
 62
     7
100
AcDbVertex
100
AcDb2dVertex
 10
81.07372626553864
 20
230.2297033956763
 30
0.0
  0
SEQEND
  5
10F
330
10C
100
AcDbEntity
  8
STANDARDEBENE
 62
     7
  0
POLYLINE
  5
110
330
1F
100
AcDbEntity
  8
STANDARDEBENE
 62
     7
100
AcDb2dPolyline
 66
     1
 10
0.0
 20
0.0
 30
0.0
  0
VERTEX
  5
111
330
110
100
AcDbEntity
  8
STANDARDEBENE
 62
     7
100
AcDbVertex
100
AcDb2dVertex
 10
80.0732484880109
 20
230.2297033956763
 30
0.0
  0
VERTEX
  5
112
330
110
100
AcDbEntity
  8
STANDARDEBENE
 62
     7
100
AcDbVertex
100
AcDb2dVertex
 10
79.07312348826092
 20
230.2297033956763
 30
0.0
  0
SEQEND
  5
113
330
110
100
AcDbEntity
  8
STANDARDEBENE
 62
     7
  0
POLYLINE
  5
114
330
1F
100
AcDbEntity
  8
STANDARDEBENE
 62
     7
100
AcDb2dPolyline
 66
     1
 10
0.0
 20
0.0
 30
0.0
  0
VERTEX
  5
115
330
114
100
AcDbEntity
  8
STANDARDEBENE
 62
     7
100
AcDbVertex
100
AcDb2dVertex
 10
78.07370404406646
 20
230.2297033956763
 30
0.0
  0
VERTEX
  5
116
330
114
100
AcDbEntity
  8
STANDARDEBENE
 62
     7
100
AcDbVertex
100
AcDb2dVertex
 10
77.07322626653871
 20
230.2297033956763
 30
0.0
  0
SEQEND
  5
117
330
114
100
AcDbEntity
  8
STANDARDEBENE
 62
     7
  0
POLYLINE
  5
118
330
1F
100
AcDbEntity
  8
STANDARDEBENE
 62
     7
100
AcDb2dPolyline
 66
     1
 10
0.0
 20
0.0
 30
0.0
  0
VERTEX
  5
119
330
118
100
AcDbEntity
  8
STANDARDEBENE
 62
     7
100
AcDbVertex
100
AcDb2dVertex
 10
76.07345404456649
 20
230.2297033956763
 30
0.0
  0
VERTEX
  5
11A
330
118
100
AcDbEntity
  8
STANDARDEBENE
 62
     7
100
AcDbVertex
100
AcDb2dVertex
 10
75.07332904481652
 20
230.2297033956763
 30
0.0
  0
SEQEND
  5
11B
330
118
100
AcDbEntity
  8
STANDARDEBENE
 62
     7
  0
POLYLINE
  5
11C
330
1F
100
AcDbEntity
  8
STANDARDEBENE
 62
     7
100
AcDb2dPolyline
 66
     1
 10
0.0
 20
0.0
 30
0.0
  0
VERTEX
  5
11D
330
11C
100
AcDbEntity
  8
STANDARDEBENE
 62
     7
100
AcDbVertex
100
AcDb2dVertex
 10
74.07320404506653
 20
230.2297033956763
 30
0.0
  0
VERTEX
  5
11E
330
11C
100
AcDbEntity
  8
STANDARDEBENE
 62
     7
100
AcDbVertex
100
AcDb2dVertex
 10
73.07343182309431
 20
230.2297033956763
 30
0.0
  0
SEQEND
  5
11F
330
11C
100
AcDbEntity
  8
STANDARDEBENE
 62
     7
  0
POLYLINE
  5
120
330
1F
100
AcDbEntity
  8
STANDARDEBENE
 62
     7
100
AcDb2dPolyline
 66
     1
 10
0.0
 20
0.0
 30
0.0
  0
VERTEX
  5
121
330
120
100
AcDbEntity
  8
STANDARDEBENE
 62
     7
100
AcDbVertex
100
AcDb2dVertex
 10
72.07330682334432
 20
230.2297033956763
 30
0.0
  0
VERTEX
  5
122
330
120
100
AcDbEntity
  8
STANDARDEBENE
 62
     7
100
AcDbVertex
100
AcDb2dVertex
 10
71.0735346013721
 20
230.2297033956763
 30
0.0
  0
SEQEND
  5
123
330
120
100
AcDbEntity
  8
STANDARDEBENE
 62
     7
  0
POLYLINE
  5
124
330
1F
100
AcDbEntity
  8
STANDARDEBENE
 62
     7
100
AcDb2dPolyline
 66
     1
 10
0.0
 20
0.0
 30
0.0
  0
VERTEX
  5
125
330
124
100
AcDbEntity
  8
STANDARDEBENE
 62
     7
100
AcDbVertex
100
AcDb2dVertex
 10
70.07340960162213
 20
230.2297033956763
 30
0.0
  0
VERTEX
  5
126
330
124
100
AcDbEntity
  8
STANDARDEBENE
 62
     7
100
AcDbVertex
100
AcDb2dVertex
 10
69.07328460187215
 20
230.2297033956763
 30
0.0
  0
SEQEND
  5
127
330
124
100
AcDbEntity
  8
STANDARDEBENE
 62
     7
  0
POLYLINE
  5
128
330
1F
100
AcDbEntity
  8
STANDARDEBENE
 62
     7
100
AcDb2dPolyline
 66
     1
 10
0.0
 20
0.0
 30
0.0
  0
VERTEX
  5
129
330
128
100
AcDbEntity
  8
STANDARDEBENE
 62
     7
100
AcDbVertex
100
AcDb2dVertex
 10
68.07351237989992
 20
230.2297033956763
 30
0.0
  0
VERTEX
  5
12A
330
128
100
AcDbEntity
  8
STANDARDEBENE
 62
     7
100
AcDbVertex
100
AcDb2dVertex
 10
67.07338738014994
 20
230.2297033956763
 30
0.0
  0
SEQEND
  5
12B
330
128
100
AcDbEntity
  8
STANDARDEBENE
 62
     7
  0
POLYLINE
  5
12C
330
1F
100
AcDbEntity
  8
STANDARDEBENE
 62
     7
100
AcDb2dPolyline
 66
     1
 10
0.0
 20
0.0
 30
0.0
  0
VERTEX
  5
12D
330
12C
100
AcDbEntity
  8
STANDARDEBENE
 62
     7
100
AcDbVertex
100
AcDb2dVertex
 10
66.07361515817772
 20
230.2297033956763
 30
0.0
  0
VERTEX
  5
12E
330
12C
100
AcDbEntity
  8
STANDARDEBENE
 62
     7
100
AcDbVertex
100
AcDb2dVertex
 10
65.07349015842742
 20
230.2297033956763
 30
0.0
  0
SEQEND
  5
12F
330
12C
100
AcDbEntity
  8
STANDARDEBENE
 62
     7
  0
POLYLINE
  5
130
330
1F
100
AcDbEntity
  8
STANDARDEBENE
 62
     7
100
AcDb2dPolyline
 66
     1
 10
0.0
 20
0.0
 30
0.0
  0
VERTEX
  5
131
330
130
100
AcDbEntity
  8
STANDARDEBENE
 62
     7
100
AcDbVertex
100
AcDb2dVertex
 10
64.07336515867776
 20
230.2297033956763
 30
0.0
  0
VERTEX
  5
132
330
130
100
AcDbEntity
  8
STANDARDEBENE
 62
     7
100
AcDbVertex
100
AcDb2dVertex
 10
63.07359293670522
 20
230.2297033956763
 30
0.0
  0
SEQEND
  5
133
330
130
100
AcDbEntity
  8
STANDARDEBENE
 62
     7
  0
POLYLINE
  5
134
330
1F
100
AcDbEntity
  8
STANDARDEBENE
 62
     7
100
AcDb2dPolyline
 66
     1
 10
0.0
 20
0.0
 30
0.0
  0
VERTEX
  5
135
330
134
100
AcDbEntity
  8
STANDARDEBENE
 62
     7
100
AcDbVertex
100
AcDb2dVertex
 10
62.0731151591778
 20
230.2297033956763
 30
0.0
  0
VERTEX
  5
136
330
134
100
AcDbEntity
  8
STANDARDEBENE
 62
     7
100
AcDbVertex
100
AcDb2dVertex
 10
61.07369571498302
 20
230.2297033956763
 30
0.0
  0
SEQEND
  5
137
330
134
100
AcDbEntity
  8
STANDARDEBENE
 62
     7
  0
POLYLINE
  5
138
330
1F
100
AcDbEntity
  8
STANDARDEBENE
 62
     7
100
AcDb2dPolyline
 66
     1
 10
0.0
 20
0.0
 30
0.0
  0
VERTEX
  5
139
330
138
100
AcDbEntity
  8
STANDARDEBENE
 62
     7
100
AcDbVertex
100
AcDb2dVertex
 10
60.07357071523303
 20
230.2297033956763
 30
0.0
  0
VERTEX
  5
13A
330
138
100
AcDbEntity
  8
STANDARDEBENE
 62
     7
100
AcDbVertex
100
AcDb2dVertex
 10
59.07344571548305
 20
230.2297033956763
 30
0.0
  0
SEQEND
  5
13B
330
138
100
AcDbEntity
  8
STANDARDEBENE
 62
     7
  0
POLYLINE
  5
13C
330
1F
100
AcDbEntity
  8
STANDARDEBENE
 62
     7
100
AcDb2dPolyline
 66
     1
 10
0.0
 20
0.0
 30
0.0
  0
VERTEX
  5
13D
330
13C
100
AcDbEntity
  8
STANDARDEBENE
 62
     7
100
AcDbVertex
100
AcDb2dVertex
 10
58.07367349351083
 20
230.2297033956763
 30
0.0
  0
VERTEX
  5
13E
330
13C
100
AcDbEntity
  8
STANDARDEBENE
 62
     7
100
AcDbVertex
100
AcDb2dVertex
 10
57.07319571598309
 20
230.2297033956763
 30
0.0
  0
SEQEND
  5
13F
330
13C
100
AcDbEntity
  8
STANDARDEBENE
 62
     7
  0
POLYLINE
  5
140
330
1F
100
AcDbEntity
  8
STANDARDEBENE
 62
     7
100
AcDb2dPolyline
 66
     1
 10
0.0
 20
0.0
 30
0.0
  0
VERTEX
  5
141
330
140
100
AcDbEntity
  8
STANDARDEBENE
 62
     7
100
AcDbVertex
100
AcDb2dVertex
 10
56.07342349401087
 20
230.2297033956763
 30
0.0
  0
VERTEX
  5
142
330
140
100
AcDbEntity
  8
STANDARDEBENE
 62
     7
100
AcDbVertex
100
AcDb2dVertex
 10
55.07365127203865
 20
230.2297033956763
 30
0.0
  0
SEQEND
  5
143
330
140
100
AcDbEntity
  8
STANDARDEBENE
 62
     7
  0
POLYLINE
  5
144
330
1F
100
AcDbEntity
  8
STANDARDEBENE
 62
     7
100
AcDb2dPolyline
 66
     1
 10
0.0
 20
0.0
 30
0.0
  0
VERTEX
  5
145
330
144
100
AcDbEntity
  8
STANDARDEBENE
 62
     7
100
AcDbVertex
100
AcDb2dVertex
 10
54.07352627228867
 20
230.2297033956763
 30
0.0
  0
VERTEX
  5
146
330
144
100
AcDbEntity
  8
STANDARDEBENE
 62
     7
100
AcDbVertex
100
AcDb2dVertex
 10
53.07375405031645
 20
230.2297033956763
 30
0.0
  0
SEQEND
  5
147
330
144
100
AcDbEntity
  8
STANDARDEBENE
 62
     7
  0
POLYLINE
  5
148
330
1F
100
AcDbEntity
  8
STANDARDEBENE
 62
     7
100
AcDb2dPolyline
 66
     1
 10
0.0
 20
0.0
 30
0.0
  0
VERTEX
  5
149
330
148
100
AcDbEntity
  8
STANDARDEBENE
 62
     7
100
AcDbVertex
100
AcDb2dVertex
 10
52.0732762727887
 20
230.2297033956763
 30
0.0
  0
VERTEX
  5
14A
330
148
100
AcDbEntity
  8
STANDARDEBENE
 62
     7
100
AcDbVertex
100
AcDb2dVertex
 10
51.07350405081649
 20
230.2297033956763
 30
0.0
  0
SEQEND
  5
14B
330
148
100
AcDbEntity
  8
STANDARDEBENE
 62
     7
  0
POLYLINE
  5
14C
330
1F
100
AcDbEntity
  8
STANDARDEBENE
 62
     7
100
AcDb2dPolyline
 66
     1
 10
0.0
 20
0.0
 30
0.0
  0
VERTEX
  5
14D
330
14C
100
AcDbEntity
  8
STANDARDEBENE
 62
     7
100
AcDbVertex
100
AcDb2dVertex
 10
50.0733790510665
 20
230.2297033956763
 30
0.0
  0
VERTEX
  5
14E
330
14C
100
AcDbEntity
  8
STANDARDEBENE
 62
     7
100
AcDbVertex
100
AcDb2dVertex
 10
49.07360682909428
 20
230.2297033956763
 30
0.0
  0
SEQEND
  5
14F
330
14C
100
AcDbEntity
  8
STANDARDEBENE
 62
     7
  0
POLYLINE
  5
150
330
1F
100
AcDbEntity
  8
STANDARDEBENE
 62
     7
100
AcDb2dPolyline
 66
     1
 10
0.0
 20
0.0
 30
0.0
  0
VERTEX
  5
151
330
150
100
AcDbEntity
  8
STANDARDEBENE
 62
     7
100
AcDbVertex
100
AcDb2dVertex
 10
48.07312905156654
 20
230.2297033956763
 30
0.0
  0
VERTEX
  5
152
330
150
100
AcDbEntity
  8
STANDARDEBENE
 62
     7
100
AcDbVertex
100
AcDb2dVertex
 10
47.07335682959432
 20
230.2297033956763
 30
0.0
  0
SEQEND
  5
153
330
150
100
AcDbEntity
  8
STANDARDEBENE
 62
     7
  0
POLYLINE
  5
154
330
1F
100
AcDbEntity
  8
STANDARDEBENE
 62
     7
100
AcDb2dPolyline
 66
     1
 10
0.0
 20
0.0
 30
0.0
  0
VERTEX
  5
155
330
154
100
AcDbEntity
  8
STANDARDEBENE
 62
     7
100
AcDbVertex
100
AcDb2dVertex
 10
46.07323182984434
 20
230.2297033956763
 30
0.0
  0
VERTEX
  5
156
330
154
100
AcDbEntity
  8
STANDARDEBENE
 62
     7
100
AcDbVertex
100
AcDb2dVertex
 10
45.07345960787212
 20
230.2297033956763
 30
0.0
  0
SEQEND
  5
157
330
154
100
AcDbEntity
  8
STANDARDEBENE
 62
     7
  0
POLYLINE
  5
158
330
1F
100
AcDbEntity
  8
STANDARDEBENE
 62
     7
100
AcDb2dPolyline
 66
     1
 10
0.0
 20
0.0
 30
0.0
  0
VERTEX
  5
159
330
158
100
AcDbEntity
  8
STANDARDEBENE
 62
     7
100
AcDbVertex
100
AcDb2dVertex
 10
44.07368738589989
 20
230.2297033956763
 30
0.0
  0
VERTEX
  5
15A
330
158
100
AcDbEntity
  8
STANDARDEBENE
 62
     7
100
AcDbVertex
100
AcDb2dVertex
 10
43.07320960837215
 20
230.2297033956763
 30
0.0
  0
SEQEND
  5
15B
330
158
100
AcDbEntity
  8
STANDARDEBENE
 62
     7
  0
POLYLINE
  5
15C
330
1F
100
AcDbEntity
  8
STANDARDEBENE
 62
     7
100
AcDb2dPolyline
 66
     1
 10
0.0
 20
0.0
 30
0.0
  0
VERTEX
  5
15D
330
15C
100
AcDbEntity
  8
STANDARDEBENE
 62
     7
100
AcDbVertex
100
AcDb2dVertex
 10
42.07343738639994
 20
230.2297033956763
 30
0.0
  0
VERTEX
  5
15E
330
15C
100
AcDbEntity
  8
STANDARDEBENE
 62
     7
100
AcDbVertex
100
AcDb2dVertex
 10
41.07331238664995
 20
230.2297033956763
 30
0.0
  0
SEQEND
  5
15F
330
15C
100
AcDbEntity
  8
STANDARDEBENE
 62
     7
  0
POLYLINE
  5
160
330
1F
100
AcDbEntity
  8
STANDARDEBENE
 62
     7
100
AcDb2dPolyline
 66
     1
 10
0.0
 20
0.0
 30
0.0
  0
VERTEX
  5
161
330
160
100
AcDbEntity
  8
STANDARDEBENE
 62
     7
100
AcDbVertex
100
AcDb2dVertex
 10
40.07354016467741
 20
230.2297033956763
 30
0.0
  0
VERTEX
  5
162
330
160
100
AcDbEntity
  8
STANDARDEBENE
 62
     7
100
AcDbVertex
100
AcDb2dVertex
 10
39.07376794270519
 20
230.2297033956763
 30
0.0
  0
SEQEND
  5
163
330
160
100
AcDbEntity
  8
STANDARDEBENE
 62
     7
  0
POLYLINE
  5
164
330
1F
100
AcDbEntity
  8
STANDARDEBENE
 62
     7
100
AcDb2dPolyline
 66
     1
 10
0.0
 20
0.0
 30
0.0
  0
VERTEX
  5
165
330
164
100
AcDbEntity
  8
STANDARDEBENE
 62
     7
100
AcDbVertex
100
AcDb2dVertex
 10
38.07329016517777
 20
230.2297033956763
 30
0.0
  0
VERTEX
  5
166
330
164
100
AcDbEntity
  8
STANDARDEBENE
 62
     7
100
AcDbVertex
100
AcDb2dVertex
 10
37.07316516542779
 20
230.2297033956763
 30
0.0
  0
SEQEND
  5
167
330
164
100
AcDbEntity
  8
STANDARDEBENE
 62
     7
  0
POLYLINE
  5
168
330
1F
100
AcDbEntity
  8
STANDARDEBENE
 62
     7
100
AcDb2dPolyline
 66
     1
 10
0.0
 20
0.0
 30
0.0
  0
VERTEX
  5
169
330
168
100
AcDbEntity
  8
STANDARDEBENE
 62
     7
100
AcDbVertex
100
AcDb2dVertex
 10
36.07339294345525
 20
230.2297033956763
 30
0.0
  0
VERTEX
  5
16A
330
168
100
AcDbEntity
  8
STANDARDEBENE
 62
     7
100
AcDbVertex
100
AcDb2dVertex
 10
35.07362072148302
 20
230.2297033956763
 30
0.0
  0
SEQEND
  5
16B
330
168
100
AcDbEntity
  8
STANDARDEBENE
 62
     7
  0
POLYLINE
  5
16C
330
1F
100
AcDbEntity
  8
STANDARDEBENE
 62
     7
100
AcDb2dPolyline
 66
     1
 10
0.0
 20
0.0
 30
0.0
  0
VERTEX
  5
16D
330
16C
100
AcDbEntity
  8
STANDARDEBENE
 62
     7
100
AcDbVertex
100
AcDb2dVertex
 10
34.07314294395528
 20
230.2297033956763
 30
0.0
  0
VERTEX
  5
16E
330
16C
100
AcDbEntity
  8
STANDARDEBENE
 62
     7
100
AcDbVertex
100
AcDb2dVertex
 10
33.07337072198306
 20
230.2297033956763
 30
0.0
  0
SEQEND
  5
16F
330
16C
100
AcDbEntity
  8
STANDARDEBENE
 62
     7
  0
POLYLINE
  5
170
330
1F
100
AcDbEntity
  8
STANDARDEBENE
 62
     7
100
AcDb2dPolyline
 66
     1
 10
0.0
 20
0.0
 30
0.0
  0
VERTEX
  5
171
330
170
100
AcDbEntity
  8
STANDARDEBENE
 62
     7
100
AcDbVertex
100
AcDb2dVertex
 10
32.07324572223308
 20
230.2297033956763
 30
0.0
  0
VERTEX
  5
172
330
170
100
AcDbEntity
  8
STANDARDEBENE
 62
     7
100
AcDbVertex
100
AcDb2dVertex
 10
31.07347350026086
 20
230.2297033956763
 30
0.0
  0
SEQEND
  5
173
330
170
100
AcDbEntity
  8
STANDARDEBENE
 62
     7
  0
POLYLINE
  5
174
330
1F
100
AcDbEntity
  8
STANDARDEBENE
 62
     7
100
AcDb2dPolyline
 66
     1
 10
0.0
 20
0.0
 30
0.0
  0
VERTEX
  5
175
330
174
100
AcDbEntity
  8
STANDARDEBENE
 62
     7
100
AcDbVertex
100
AcDb2dVertex
 10
30.07370127828864
 20
230.2297033956763
 30
0.0
  0
VERTEX
  5
176
330
174
100
AcDbEntity
  8
STANDARDEBENE
 62
     7
100
AcDbVertex
100
AcDb2dVertex
 10
29.0732235007609
 20
230.2297033956763
 30
0.0
  0
SEQEND
  5
177
330
174
100
AcDbEntity
  8
STANDARDEBENE
 62
     7
  0
POLYLINE
  5
178
330
1F
100
AcDbEntity
  8
STANDARDEBENE
 62
     7
100
AcDb2dPolyline
 66
     1
 10
0.0
 20
0.0
 30
0.0
  0
VERTEX
  5
179
330
178
100
AcDbEntity
  8
STANDARDEBENE
 62
     7
100
AcDbVertex
100
AcDb2dVertex
 10
28.07309850101092
 20
230.2297033956763
 30
0.0
  0
VERTEX
  5
17A
330
178
100
AcDbEntity
  8
STANDARDEBENE
 62
     7
100
AcDbVertex
100
AcDb2dVertex
 10
27.57356516780273
 20
230.2297033956763
 30
0.0
  0
SEQEND
  5
17B
330
178
100
AcDbEntity
  8
STANDARDEBENE
 62
     7
  0
POLYLINE
  5
17C
330
1F
100
AcDbEntity
  8
STANDARDEBENE
 62
     7
100
AcDb2dPolyline
 66
     1
 10
0.0
 20
0.0
 30
0.0
  0
VERTEX
  5
17D
330
17C
100
AcDbEntity
  8
STANDARDEBENE
 62
     7
100
AcDbVertex
100
AcDb2dVertex
 10
27.57356516780273
 20
228.7300450627178
 30
0.0
  0
VERTEX
  5
17E
330
17C
100
AcDbEntity
  8
STANDARDEBENE
 62
     7
100
AcDbVertex
100
AcDb2dVertex
 10
28.07309850101092
 20
228.7300450627178
 30
0.0
  0
SEQEND
  5
17F
330
17C
100
AcDbEntity
  8
STANDARDEBENE
 62
     7
  0
POLYLINE
  5
180
330
1F
100
AcDbEntity
  8
STANDARDEBENE
 62
     7
100
AcDb2dPolyline
 66
     1
 10
0.0
 20
0.0
 30
0.0
  0
VERTEX
  5
181
330
180
100
AcDbEntity
  8
STANDARDEBENE
 62
     7
100
AcDbVertex
100
AcDb2dVertex
 10
29.0732235007609
 20
228.7300450627178
 30
0.0
  0
VERTEX
  5
182
330
180
100
AcDbEntity
  8
STANDARDEBENE
 62
     7
100
AcDbVertex
100
AcDb2dVertex
 10
30.07370127828864
 20
228.7300450627178
 30
0.0
  0
SEQEND
  5
183
330
180
100
AcDbEntity
  8
STANDARDEBENE
 62
     7
  0
POLYLINE
  5
184
330
1F
100
AcDbEntity
  8
STANDARDEBENE
 62
     7
100
AcDb2dPolyline
 66
     1
 10
0.0
 20
0.0
 30
0.0
  0
VERTEX
  5
185
330
184
100
AcDbEntity
  8
STANDARDEBENE
 62
     7
100
AcDbVertex
100
AcDb2dVertex
 10
31.07347350026086
 20
228.7300450627178
 30
0.0
  0
VERTEX
  5
186
330
184
100
AcDbEntity
  8
STANDARDEBENE
 62
     7
100
AcDbVertex
100
AcDb2dVertex
 10
32.07324572223308
 20
228.7300450627178
 30
0.0
  0
SEQEND
  5
187
330
184
100
AcDbEntity
  8
STANDARDEBENE
 62
     7
  0
POLYLINE
  5
188
330
1F
100
AcDbEntity
  8
STANDARDEBENE
 62
     7
100
AcDb2dPolyline
 66
     1
 10
0.0
 20
0.0
 30
0.0
  0
VERTEX
  5
189
330
188
100
AcDbEntity
  8
STANDARDEBENE
 62
     7
100
AcDbVertex
100
AcDb2dVertex
 10
33.07337072198306
 20
228.7300450627178
 30
0.0
  0
VERTEX
  5
18A
330
188
100
AcDbEntity
  8
STANDARDEBENE
 62
     7
100
AcDbVertex
100
AcDb2dVertex
 10
34.07314294395528
 20
228.7300450627178
 30
0.0
  0
SEQEND
  5
18B
330
188
100
AcDbEntity
  8
STANDARDEBENE
 62
     7
  0
POLYLINE
  5
18C
330
1F
100
AcDbEntity
  8
STANDARDEBENE
 62
     7
100
AcDb2dPolyline
 66
     1
 10
0.0
 20
0.0
 30
0.0
  0
VERTEX
  5
18D
330
18C
100
AcDbEntity
  8
STANDARDEBENE
 62
     7
100
AcDbVertex
100
AcDb2dVertex
 10
35.07362072148302
 20
228.7300450627178
 30
0.0
  0
VERTEX
  5
18E
330
18C
100
AcDbEntity
  8
STANDARDEBENE
 62
     7
100
AcDbVertex
100
AcDb2dVertex
 10
36.07339294345525
 20
228.7300450627178
 30
0.0
  0
SEQEND
  5
18F
330
18C
100
AcDbEntity
  8
STANDARDEBENE
 62
     7
  0
POLYLINE
  5
190
330
1F
100
AcDbEntity
  8
STANDARDEBENE
 62
     7
100
AcDb2dPolyline
 66
     1
 10
0.0
 20
0.0
 30
0.0
  0
VERTEX
  5
191
330
190
100
AcDbEntity
  8
STANDARDEBENE
 62
     7
100
AcDbVertex
100
AcDb2dVertex
 10
37.07316516542779
 20
228.7300450627178
 30
0.0
  0
VERTEX
  5
192
330
190
100
AcDbEntity
  8
STANDARDEBENE
 62
     7
100
AcDbVertex
100
AcDb2dVertex
 10
38.07329016517777
 20
228.7300450627178
 30
0.0
  0
SEQEND
  5
193
330
190
100
AcDbEntity
  8
STANDARDEBENE
 62
     7
  0
POLYLINE
  5
194
330
1F
100
AcDbEntity
  8
STANDARDEBENE
 62
     7
100
AcDb2dPolyline
 66
     1
 10
0.0
 20
0.0
 30
0.0
  0
VERTEX
  5
195
330
194
100
AcDbEntity
  8
STANDARDEBENE
 62
     7
100
AcDbVertex
100
AcDb2dVertex
 10
39.07376794270519
 20
228.7300450627178
 30
0.0
  0
VERTEX
  5
196
330
194
100
AcDbEntity
  8
STANDARDEBENE
 62
     7
100
AcDbVertex
100
AcDb2dVertex
 10
40.07354016467741
 20
228.7300450627178
 30
0.0
  0
SEQEND
  5
197
330
194
100
AcDbEntity
  8
STANDARDEBENE
 62
     7
  0
POLYLINE
  5
198
330
1F
100
AcDbEntity
  8
STANDARDEBENE
 62
     7
100
AcDb2dPolyline
 66
     1
 10
0.0
 20
0.0
 30
0.0
  0
VERTEX
  5
199
330
198
100
AcDbEntity
  8
STANDARDEBENE
 62
     7
100
AcDbVertex
100
AcDb2dVertex
 10
41.07331238664995
 20
228.7300450627178
 30
0.0
  0
VERTEX
  5
19A
330
198
100
AcDbEntity
  8
STANDARDEBENE
 62
     7
100
AcDbVertex
100
AcDb2dVertex
 10
42.07343738639994
 20
228.7300450627178
 30
0.0
  0
SEQEND
  5
19B
330
198
100
AcDbEntity
  8
STANDARDEBENE
 62
     7
  0
POLYLINE
  5
19C
330
1F
100
AcDbEntity
  8
STANDARDEBENE
 62
     7
100
AcDb2dPolyline
 66
     1
 10
0.0
 20
0.0
 30
0.0
  0
VERTEX
  5
19D
330
19C
100
AcDbEntity
  8
STANDARDEBENE
 62
     7
100
AcDbVertex
100
AcDb2dVertex
 10
43.07320960837215
 20
228.7300450627178
 30
0.0
  0
VERTEX
  5
19E
330
19C
100
AcDbEntity
  8
STANDARDEBENE
 62
     7
100
AcDbVertex
100
AcDb2dVertex
 10
44.07368738589989
 20
228.7300450627178
 30
0.0
  0
SEQEND
  5
19F
330
19C
100
AcDbEntity
  8
STANDARDEBENE
 62
     7
  0
POLYLINE
  5
1A0
330
1F
100
AcDbEntity
  8
STANDARDEBENE
 62
     7
100
AcDb2dPolyline
 66
     1
 10
0.0
 20
0.0
 30
0.0
  0
VERTEX
  5
1A1
330
1A0
100
AcDbEntity
  8
STANDARDEBENE
 62
     7
100
AcDbVertex
100
AcDb2dVertex
 10
45.07345960787212
 20
228.7300450627178
 30
0.0
  0
VERTEX
  5
1A2
330
1A0
100
AcDbEntity
  8
STANDARDEBENE
 62
     7
100
AcDbVertex
100
AcDb2dVertex
 10
46.07323182984434
 20
228.7300450627178
 30
0.0
  0
SEQEND
  5
1A3
330
1A0
100
AcDbEntity
  8
STANDARDEBENE
 62
     7
  0
POLYLINE
  5
1A4
330
1F
100
AcDbEntity
  8
STANDARDEBENE
 62
     7
100
AcDb2dPolyline
 66
     1
 10
0.0
 20
0.0
 30
0.0
  0
VERTEX
  5
1A5
330
1A4
100
AcDbEntity
  8
STANDARDEBENE
 62
     7
100
AcDbVertex
100
AcDb2dVertex
 10
47.07335682959432
 20
228.7300450627178
 30
0.0
  0
VERTEX
  5
1A6
330
1A4
100
AcDbEntity
  8
STANDARDEBENE
 62
     7
100
AcDbVertex
100
AcDb2dVertex
 10
48.07312905156654
 20
228.7300450627178
 30
0.0
  0
SEQEND
  5
1A7
330
1A4
100
AcDbEntity
  8
STANDARDEBENE
 62
     7
  0
POLYLINE
  5
1A8
330
1F
100
AcDbEntity
  8
STANDARDEBENE
 62
     7
100
AcDb2dPolyline
 66
     1
 10
0.0
 20
0.0
 30
0.0
  0
VERTEX
  5
1A9
330
1A8
100
AcDbEntity
  8
STANDARDEBENE
 62
     7
100
AcDbVertex
100
AcDb2dVertex
 10
49.07360682909428
 20
228.7300450627178
 30
0.0
  0
VERTEX
  5
1AA
330
1A8
100
AcDbEntity
  8
STANDARDEBENE
 62
     7
100
AcDbVertex
100
AcDb2dVertex
 10
50.0733790510665
 20
228.7300450627178
 30
0.0
  0
SEQEND
  5
1AB
330
1A8
100
AcDbEntity
  8
STANDARDEBENE
 62
     7
  0
POLYLINE
  5
1AC
330
1F
100
AcDbEntity
  8
STANDARDEBENE
 62
     7
100
AcDb2dPolyline
 66
     1
 10
0.0
 20
0.0
 30
0.0
  0
VERTEX
  5
1AD
330
1AC
100
AcDbEntity
  8
STANDARDEBENE
 62
     7
100
AcDbVertex
100
AcDb2dVertex
 10
51.07350405081649
 20
228.7300450627178
 30
0.0
  0
VERTEX
  5
1AE
330
1AC
100
AcDbEntity
  8
STANDARDEBENE
 62
     7
100
AcDbVertex
100
AcDb2dVertex
 10
52.0732762727887
 20
228.7300450627178
 30
0.0
  0
SEQEND
  5
1AF
330
1AC
100
AcDbEntity
  8
STANDARDEBENE
 62
     7
  0
POLYLINE
  5
1B0
330
1F
100
AcDbEntity
  8
STANDARDEBENE
 62
     7
100
AcDb2dPolyline
 66
     1
 10
0.0
 20
0.0
 30
0.0
  0
VERTEX
  5
1B1
330
1B0
100
AcDbEntity
  8
STANDARDEBENE
 62
     7
100
AcDbVertex
100
AcDb2dVertex
 10
53.07375405031645
 20
228.7300450627178
 30
0.0
  0
VERTEX
  5
1B2
330
1B0
100
AcDbEntity
  8
STANDARDEBENE
 62
     7
100
AcDbVertex
100
AcDb2dVertex
 10
54.07352627228867
 20
228.7300450627178
 30
0.0
  0
SEQEND
  5
1B3
330
1B0
100
AcDbEntity
  8
STANDARDEBENE
 62
     7
  0
POLYLINE
  5
1B4
330
1F
100
AcDbEntity
  8
STANDARDEBENE
 62
     7
100
AcDb2dPolyline
 66
     1
 10
0.0
 20
0.0
 30
0.0
  0
VERTEX
  5
1B5
330
1B4
100
AcDbEntity
  8
STANDARDEBENE
 62
     7
100
AcDbVertex
100
AcDb2dVertex
 10
55.07365127203865
 20
228.7300450627178
 30
0.0
  0
VERTEX
  5
1B6
330
1B4
100
AcDbEntity
  8
STANDARDEBENE
 62
     7
100
AcDbVertex
100
AcDb2dVertex
 10
56.07342349401087
 20
228.7300450627178
 30
0.0
  0
SEQEND
  5
1B7
330
1B4
100
AcDbEntity
  8
STANDARDEBENE
 62
     7
  0
POLYLINE
  5
1B8
330
1F
100
AcDbEntity
  8
STANDARDEBENE
 62
     7
100
AcDb2dPolyline
 66
     1
 10
0.0
 20
0.0
 30
0.0
  0
VERTEX
  5
1B9
330
1B8
100
AcDbEntity
  8
STANDARDEBENE
 62
     7
100
AcDbVertex
100
AcDb2dVertex
 10
57.07319571598309
 20
228.7300450627178
 30
0.0
  0
VERTEX
  5
1BA
330
1B8
100
AcDbEntity
  8
STANDARDEBENE
 62
     7
100
AcDbVertex
100
AcDb2dVertex
 10
58.07367349351083
 20
228.7300450627178
 30
0.0
  0
SEQEND
  5
1BB
330
1B8
100
AcDbEntity
  8
STANDARDEBENE
 62
     7
  0
POLYLINE
  5
1BC
330
1F
100
AcDbEntity
  8
STANDARDEBENE
 62
     7
100
AcDb2dPolyline
 66
     1
 10
0.0
 20
0.0
 30
0.0
  0
VERTEX
  5
1BD
330
1BC
100
AcDbEntity
  8
STANDARDEBENE
 62
     7
100
AcDbVertex
100
AcDb2dVertex
 10
59.07344571548305
 20
228.7300450627178
 30
0.0
  0
VERTEX
  5
1BE
330
1BC
100
AcDbEntity
  8
STANDARDEBENE
 62
     7
100
AcDbVertex
100
AcDb2dVertex
 10
60.07357071523303
 20
228.7300450627178
 30
0.0
  0
SEQEND
  5
1BF
330
1BC
100
AcDbEntity
  8
STANDARDEBENE
 62
     7
  0
POLYLINE
  5
1C0
330
1F
100
AcDbEntity
  8
STANDARDEBENE
 62
     7
100
AcDb2dPolyline
 66
     1
 10
0.0
 20
0.0
 30
0.0
  0
VERTEX
  5
1C1
330
1C0
100
AcDbEntity
  8
STANDARDEBENE
 62
     7
100
AcDbVertex
100
AcDb2dVertex
 10
61.07369571498302
 20
228.7300450627178
 30
0.0
  0
VERTEX
  5
1C2
330
1C0
100
AcDbEntity
  8
STANDARDEBENE
 62
     7
100
AcDbVertex
100
AcDb2dVertex
 10
62.0731151591778
 20
228.7300450627178
 30
0.0
  0
SEQEND
  5
1C3
330
1C0
100
AcDbEntity
  8
STANDARDEBENE
 62
     7
  0
POLYLINE
  5
1C4
330
1F
100
AcDbEntity
  8
STANDARDEBENE
 62
     7
100
AcDb2dPolyline
 66
     1
 10
0.0
 20
0.0
 30
0.0
  0
VERTEX
  5
1C5
330
1C4
100
AcDbEntity
  8
STANDARDEBENE
 62
     7
100
AcDbVertex
100
AcDb2dVertex
 10
63.07359293670522
 20
228.7300450627178
 30
0.0
  0
VERTEX
  5
1C6
330
1C4
100
AcDbEntity
  8
STANDARDEBENE
 62
     7
100
AcDbVertex
100
AcDb2dVertex
 10
64.07336515867776
 20
228.7300450627178
 30
0.0
  0
SEQEND
  5
1C7
330
1C4
100
AcDbEntity
  8
STANDARDEBENE
 62
     7
  0
POLYLINE
  5
1C8
330
1F
100
AcDbEntity
  8
STANDARDEBENE
 62
     7
100
AcDb2dPolyline
 66
     1
 10
0.0
 20
0.0
 30
0.0
  0
VERTEX
  5
1C9
330
1C8
100
AcDbEntity
  8
STANDARDEBENE
 62
     7
100
AcDbVertex
100
AcDb2dVertex
 10
65.07349015842742
 20
228.7300450627178
 30
0.0
  0
VERTEX
  5
1CA
330
1C8
100
AcDbEntity
  8
STANDARDEBENE
 62
     7
100
AcDbVertex
100
AcDb2dVertex
 10
66.07361515817772
 20
228.7300450627178
 30
0.0
  0
SEQEND
  5
1CB
330
1C8
100
AcDbEntity
  8
STANDARDEBENE
 62
     7
  0
POLYLINE
  5
1CC
330
1F
100
AcDbEntity
  8
STANDARDEBENE
 62
     7
100
AcDb2dPolyline
 66
     1
 10
0.0
 20
0.0
 30
0.0
  0
VERTEX
  5
1CD
330
1CC
100
AcDbEntity
  8
STANDARDEBENE
 62
     7
100
AcDbVertex
100
AcDb2dVertex
 10
67.07338738014994
 20
228.7300450627178
 30
0.0
  0
VERTEX
  5
1CE
330
1CC
100
AcDbEntity
  8
STANDARDEBENE
 62
     7
100
AcDbVertex
100
AcDb2dVertex
 10
68.07351237989992
 20
228.7300450627178
 30
0.0
  0
SEQEND
  5
1CF
330
1CC
100
AcDbEntity
  8
STANDARDEBENE
 62
     7
  0
POLYLINE
  5
1D0
330
1F
100
AcDbEntity
  8
STANDARDEBENE
 62
     7
100
AcDb2dPolyline
 66
     1
 10
0.0
 20
0.0
 30
0.0
  0
VERTEX
  5
1D1
330
1D0
100
AcDbEntity
  8
STANDARDEBENE
 62
     7
100
AcDbVertex
100
AcDb2dVertex
 10
69.07328460187215
 20
228.7300450627178
 30
0.0
  0
VERTEX
  5
1D2
330
1D0
100
AcDbEntity
  8
STANDARDEBENE
 62
     7
100
AcDbVertex
100
AcDb2dVertex
 10
70.07340960162213
 20
228.7300450627178
 30
0.0
  0
SEQEND
  5
1D3
330
1D0
100
AcDbEntity
  8
STANDARDEBENE
 62
     7
  0
POLYLINE
  5
1D4
330
1F
100
AcDbEntity
  8
STANDARDEBENE
 62
     7
100
AcDb2dPolyline
 66
     1
 10
0.0
 20
0.0
 30
0.0
  0
VERTEX
  5
1D5
330
1D4
100
AcDbEntity
  8
STANDARDEBENE
 62
     7
100
AcDbVertex
100
AcDb2dVertex
 10
71.0735346013721
 20
228.7300450627178
 30
0.0
  0
VERTEX
  5
1D6
330
1D4
100
AcDbEntity
  8
STANDARDEBENE
 62
     7
100
AcDbVertex
100
AcDb2dVertex
 10
72.07330682334432
 20
228.7300450627178
 30
0.0
  0
SEQEND
  5
1D7
330
1D4
100
AcDbEntity
  8
STANDARDEBENE
 62
     7
  0
POLYLINE
  5
1D8
330
1F
100
AcDbEntity
  8
STANDARDEBENE
 62
     7
100
AcDb2dPolyline
 66
     1
 10
0.0
 20
0.0
 30
0.0
  0
VERTEX
  5
1D9
330
1D8
100
AcDbEntity
  8
STANDARDEBENE
 62
     7
100
AcDbVertex
100
AcDb2dVertex
 10
73.07343182309431
 20
228.7300450627178
 30
0.0
  0
VERTEX
  5
1DA
330
1D8
100
AcDbEntity
  8
STANDARDEBENE
 62
     7
100
AcDbVertex
100
AcDb2dVertex
 10
74.07320404506653
 20
228.7300450627178
 30
0.0
  0
SEQEND
  5
1DB
330
1D8
100
AcDbEntity
  8
STANDARDEBENE
 62
     7
  0
POLYLINE
  5
1DC
330
1F
100
AcDbEntity
  8
STANDARDEBENE
 62
     7
100
AcDb2dPolyline
 66
     1
 10
0.0
 20
0.0
 30
0.0
  0
VERTEX
  5
1DD
330
1DC
100
AcDbEntity
  8
STANDARDEBENE
 62
     7
100
AcDbVertex
100
AcDb2dVertex
 10
75.07332904481652
 20
228.7300450627178
 30
0.0
  0
VERTEX
  5
1DE
330
1DC
100
AcDbEntity
  8
STANDARDEBENE
 62
     7
100
AcDbVertex
100
AcDb2dVertex
 10
76.07345404456649
 20
228.7300450627178
 30
0.0
  0
SEQEND
  5
1DF
330
1DC
100
AcDbEntity
  8
STANDARDEBENE
 62
     7
  0
POLYLINE
  5
1E0
330
1F
100
AcDbEntity
  8
STANDARDEBENE
 62
     7
100
AcDb2dPolyline
 66
     1
 10
0.0
 20
0.0
 30
0.0
  0
VERTEX
  5
1E1
330
1E0
100
AcDbEntity
  8
STANDARDEBENE
 62
     7
100
AcDbVertex
100
AcDb2dVertex
 10
77.07322626653871
 20
228.7300450627178
 30
0.0
  0
VERTEX
  5
1E2
330
1E0
100
AcDbEntity
  8
STANDARDEBENE
 62
     7
100
AcDbVertex
100
AcDb2dVertex
 10
78.07370404406646
 20
228.7300450627178
 30
0.0
  0
SEQEND
  5
1E3
330
1E0
100
AcDbEntity
  8
STANDARDEBENE
 62
     7
  0
POLYLINE
  5
1E4
330
1F
100
AcDbEntity
  8
STANDARDEBENE
 62
     7
100
AcDb2dPolyline
 66
     1
 10
0.0
 20
0.0
 30
0.0
  0
VERTEX
  5
1E5
330
1E4
100
AcDbEntity
  8
STANDARDEBENE
 62
     7
100
AcDbVertex
100
AcDb2dVertex
 10
79.07312348826092
 20
228.7300450627178
 30
0.0
  0
VERTEX
  5
1E6
330
1E4
100
AcDbEntity
  8
STANDARDEBENE
 62
     7
100
AcDbVertex
100
AcDb2dVertex
 10
80.0732484880109
 20
228.7300450627178
 30
0.0
  0
SEQEND
  5
1E7
330
1E4
100
AcDbEntity
  8
STANDARDEBENE
 62
     7
  0
POLYLINE
  5
1E8
330
1F
100
AcDbEntity
  8
STANDARDEBENE
 62
     7
100
AcDb2dPolyline
 66
     1
 10
0.0
 20
0.0
 30
0.0
  0
VERTEX
  5
1E9
330
1E8
100
AcDbEntity
  8
STANDARDEBENE
 62
     7
100
AcDbVertex
100
AcDb2dVertex
 10
81.07372626553864
 20
228.7300450627178
 30
0.0
  0
VERTEX
  5
1EA
330
1E8
100
AcDbEntity
  8
STANDARDEBENE
 62
     7
100
AcDbVertex
100
AcDb2dVertex
 10
82.0731457097331
 20
228.7300450627178
 30
0.0
  0
SEQEND
  5
1EB
330
1E8
100
AcDbEntity
  8
STANDARDEBENE
 62
     7
  0
POLYLINE
  5
1EC
330
1F
100
AcDbEntity
  8
STANDARDEBENE
 62
     7
100
AcDb2dPolyline
 66
     1
 10
0.0
 20
0.0
 30
0.0
  0
VERTEX
  5
1ED
330
1EC
100
AcDbEntity
  8
STANDARDEBENE
 62
     7
100
AcDbVertex
100
AcDb2dVertex
 10
83.07362348726085
 20
228.7300450627178
 30
0.0
  0
VERTEX
  5
1EE
330
1EC
100
AcDbEntity
  8
STANDARDEBENE
 62
     7
100
AcDbVertex
100
AcDb2dVertex
 10
84.07374848701082
 20
228.7300450627178
 30
0.0
  0
SEQEND
  5
1EF
330
1EC
100
AcDbEntity
  8
STANDARDEBENE
 62
     7
  0
POLYLINE
  5
1F0
330
1F
100
AcDbEntity
  8
STANDARDEBENE
 62
     7
100
AcDb2dPolyline
 66
     1
 10
0.0
 20
0.0
 30
0.0
  0
VERTEX
  5
1F1
330
1F0
100
AcDbEntity
  8
STANDARDEBENE
 62
     7
100
AcDbVertex
100
AcDb2dVertex
 10
85.0731679312056
 20
228.7300450627178
 30
0.0
  0
VERTEX
  5
1F2
330
1F0
100
AcDbEntity
  8
STANDARDEBENE
 62
     7
100
AcDbVertex
100
AcDb2dVertex
 10
86.07364570873303
 20
228.7300450627178
 30
0.0
  0
SEQEND
  5
1F3
330
1F0
100
AcDbEntity
  8
STANDARDEBENE
 62
     7
  0
POLYLINE
  5
1F4
330
1F
100
AcDbEntity
  8
STANDARDEBENE
 62
     7
100
AcDb2dPolyline
 66
     1
 10
0.0
 20
0.0
 30
0.0
  0
VERTEX
  5
1F5
330
1F4
100
AcDbEntity
  8
STANDARDEBENE
 62
     7
100
AcDbVertex
100
AcDb2dVertex
 10
87.07306515292781
 20
228.7300450627178
 30
0.0
  0
VERTEX
  5
1F6
330
1F4
100
AcDbEntity
  8
STANDARDEBENE
 62
     7
100
AcDbVertex
100
AcDb2dVertex
 10
88.07354293045523
 20
228.7300450627178
 30
0.0
  0
SEQEND
  5
1F7
330
1F4
100
AcDbEntity
  8
STANDARDEBENE
 62
     7
  0
POLYLINE
  5
1F8
330
1F
100
AcDbEntity
  8
STANDARDEBENE
 62
     7
100
AcDb2dPolyline
 66
     1
 10
0.0
 20
0.0
 30
0.0
  0
VERTEX
  5
1F9
330
1F8
100
AcDbEntity
  8
STANDARDEBENE
 62
     7
100
AcDbVertex
100
AcDb2dVertex
 10
89.0736679302052
 20
228.7300450627178
 30
0.0
  0
VERTEX
  5
1FA
330
1F8
100
AcDbEntity
  8
STANDARDEBENE
 62
     7
100
AcDbVertex
100
AcDb2dVertex
 10
90.07344015217743
 20
228.7300450627178
 30
0.0
  0
SEQEND
  5
1FB
330
1F8
100
AcDbEntity
  8
STANDARDEBENE
 62
     7
  0
POLYLINE
  5
1FC
330
1F
100
AcDbEntity
  8
STANDARDEBENE
 62
     7
100
AcDb2dPolyline
 66
     1
 10
0.0
 20
0.0
 30
0.0
  0
VERTEX
  5
1FD
330
1FC
100
AcDbEntity
  8
STANDARDEBENE
 62
     7
100
AcDbVertex
100
AcDb2dVertex
 10
91.07356515192774
 20
228.7300450627178
 30
0.0
  0
VERTEX
  5
1FE
330
1FC
100
AcDbEntity
  8
STANDARDEBENE
 62
     7
100
AcDbVertex
100
AcDb2dVertex
 10
92.07333737389995
 20
228.7300450627178
 30
0.0
  0
SEQEND
  5
1FF
330
1FC
100
AcDbEntity
  8
STANDARDEBENE
 62
     7
  0
POLYLINE
  5
200
330
1F
100
AcDbEntity
  8
STANDARDEBENE
 62
     7
100
AcDb2dPolyline
 66
     1
 10
0.0
 20
0.0
 30
0.0
  0
VERTEX
  5
201
330
200
100
AcDbEntity
  8
STANDARDEBENE
 62
     7
100
AcDbVertex
100
AcDb2dVertex
 10
93.07346237364993
 20
228.7300450627178
 30
0.0
  0
VERTEX
  5
202
330
200
100
AcDbEntity
  8
STANDARDEBENE
 62
     7
100
AcDbVertex
100
AcDb2dVertex
 10
94.07358737339992
 20
228.7300450627178
 30
0.0
  0
SEQEND
  5
203
330
200
100
AcDbEntity
  8
STANDARDEBENE
 62
     7
  0
POLYLINE
  5
204
330
1F
100
AcDbEntity
  8
STANDARDEBENE
 62
     7
100
AcDb2dPolyline
 66
     1
 10
0.0
 20
0.0
 30
0.0
  0
VERTEX
  5
205
330
204
100
AcDbEntity
  8
STANDARDEBENE
 62
     7
100
AcDbVertex
100
AcDb2dVertex
 10
95.07335959537214
 20
228.7300450627178
 30
0.0
  0
VERTEX
  5
206
330
204
100
AcDbEntity
  8
STANDARDEBENE
 62
     7
100
AcDbVertex
100
AcDb2dVertex
 10
96.07348459512211
 20
228.7300450627178
 30
0.0
  0
SEQEND
  5
207
330
204
100
AcDbEntity
  8
STANDARDEBENE
 62
     7
  0
POLYLINE
  5
208
330
1F
100
AcDbEntity
  8
STANDARDEBENE
 62
     7
100
AcDb2dPolyline
 66
     1
 10
0.0
 20
0.0
 30
0.0
  0
VERTEX
  5
209
330
208
100
AcDbEntity
  8
STANDARDEBENE
 62
     7
100
AcDbVertex
100
AcDb2dVertex
 10
97.07325681709433
 20
228.7300450627178
 30
0.0
  0
VERTEX
  5
20A
330
208
100
AcDbEntity
  8
STANDARDEBENE
 62
     7
100
AcDbVertex
100
AcDb2dVertex
 10
98.07338181684432
 20
228.7300450627178
 30
0.0
  0
SEQEND
  5
20B
330
208
100
AcDbEntity
  8
STANDARDEBENE
 62
     7
  0
POLYLINE
  5
20C
330
1F
100
AcDbEntity
  8
STANDARDEBENE
 62
     7
100
AcDb2dPolyline
 66
     1
 10
0.0
 20
0.0
 30
0.0
  0
VERTEX
  5
20D
330
20C
100
AcDbEntity
  8
STANDARDEBENE
 62
     7
100
AcDbVertex
100
AcDb2dVertex
 10
99.0735068165943
 20
228.7300450627178
 30
0.0
  0
VERTEX
  5
20E
330
20C
100
AcDbEntity
  8
STANDARDEBENE
 62
     7
100
AcDbVertex
100
AcDb2dVertex
 10
100.0732790385665
 20
228.7300450627178
 30
0.0
  0
SEQEND
  5
20F
330
20C
100
AcDbEntity
  8
STANDARDEBENE
 62
     7
  0
POLYLINE
  5
210
330
1F
100
AcDbEntity
  8
STANDARDEBENE
 62
     7
100
AcDb2dPolyline
 66
     1
 10
0.0
 20
0.0
 30
0.0
  0
VERTEX
  5
211
330
210
100
AcDbEntity
  8
STANDARDEBENE
 62
     7
100
AcDbVertex
100
AcDb2dVertex
 10
101.0737568160943
 20
228.7300450627178
 30
0.0
  0
VERTEX
  5
212
330
210
100
AcDbEntity
  8
STANDARDEBENE
 62
     7
100
AcDbVertex
100
AcDb2dVertex
 10
102.0731762602887
 20
228.7300450627178
 30
0.0
  0
SEQEND
  5
213
330
210
100
AcDbEntity
  8
STANDARDEBENE
 62
     7
  0
POLYLINE
  5
214
330
1F
100
AcDbEntity
  8
STANDARDEBENE
 62
     7
100
AcDb2dPolyline
 66
     1
 10
0.0
 20
0.0
 30
0.0
  0
VERTEX
  5
215
330
214
100
AcDbEntity
  8
STANDARDEBENE
 62
     7
100
AcDbVertex
100
AcDb2dVertex
 10
103.0733012600387
 20
228.7300450627178
 30
0.0
  0
VERTEX
  5
216
330
214
100
AcDbEntity
  8
STANDARDEBENE
 62
     7
100
AcDbVertex
100
AcDb2dVertex
 10
104.0737790375665
 20
228.7300450627178
 30
0.0
  0
SEQEND
  5
217
330
214
100
AcDbEntity
  8
STANDARDEBENE
 62
     7
  0
POLYLINE
  5
218
330
1F
100
AcDbEntity
  8
STANDARDEBENE
 62
     7
100
AcDb2dPolyline
 66
     1
 10
0.0
 20
0.0
 30
0.0
  0
VERTEX
  5
219
330
218
100
AcDbEntity
  8
STANDARDEBENE
 62
     7
100
AcDbVertex
100
AcDb2dVertex
 10
105.0731984817609
 20
228.7300450627178
 30
0.0
  0
VERTEX
  5
21A
330
218
100
AcDbEntity
  8
STANDARDEBENE
 62
     7
100
AcDbVertex
100
AcDb2dVertex
 10
106.0736762592886
 20
228.7300450627178
 30
0.0
  0
SEQEND
  5
21B
330
218
100
AcDbEntity
  8
STANDARDEBENE
 62
     7
  0
POLYLINE
  5
21C
330
1F
100
AcDbEntity
  8
STANDARDEBENE
 62
     7
100
AcDb2dPolyline
 66
     1
 10
0.0
 20
0.0
 30
0.0
  0
VERTEX
  5
21D
330
21C
100
AcDbEntity
  8
STANDARDEBENE
 62
     7
100
AcDbVertex
100
AcDb2dVertex
 10
107.0730957034831
 20
228.7300450627178
 30
0.0
  0
VERTEX
  5
21E
330
21C
100
AcDbEntity
  8
STANDARDEBENE
 62
     7
100
AcDbVertex
100
AcDb2dVertex
 10
108.0732207032331
 20
228.7300450627178
 30
0.0
  0
SEQEND
  5
21F
330
21C
100
AcDbEntity
  8
STANDARDEBENE
 62
     7
  0
POLYLINE
  5
220
330
1F
100
AcDbEntity
  8
STANDARDEBENE
 62
     7
100
AcDb2dPolyline
 66
     1
 10
0.0
 20
0.0
 30
0.0
  0
VERTEX
  5
221
330
220
100
AcDbEntity
  8
STANDARDEBENE
 62
     7
100
AcDbVertex
100
AcDb2dVertex
 10
109.0736984807608
 20
228.7300450627178
 30
0.0
  0
VERTEX
  5
222
330
220
100
AcDbEntity
  8
STANDARDEBENE
 62
     7
100
AcDbVertex
100
AcDb2dVertex
 10
110.0731179249556
 20
228.7300450627178
 30
0.0
  0
SEQEND
  5
223
330
220
100
AcDbEntity
  8
STANDARDEBENE
 62
     7
  0
POLYLINE
  5
224
330
1F
100
AcDbEntity
  8
STANDARDEBENE
 62
     7
100
AcDb2dPolyline
 66
     1
 10
0.0
 20
0.0
 30
0.0
  0
VERTEX
  5
225
330
224
100
AcDbEntity
  8
STANDARDEBENE
 62
     7
100
AcDbVertex
100
AcDb2dVertex
 10
111.073595702483
 20
228.7300450627178
 30
0.0
  0
VERTEX
  5
226
330
224
100
AcDbEntity
  8
STANDARDEBENE
 62
     7
100
AcDbVertex
100
AcDb2dVertex
 10
112.073720702233
 20
228.7300450627178
 30
0.0
  0
SEQEND
  5
227
330
224
100
AcDbEntity
  8
STANDARDEBENE
 62
     7
  0
POLYLINE
  5
228
330
1F
100
AcDbEntity
  8
STANDARDEBENE
 62
     7
100
AcDb2dPolyline
 66
     1
 10
0.0
 20
0.0
 30
0.0
  0
VERTEX
  5
229
330
228
100
AcDbEntity
  8
STANDARDEBENE
 62
     7
100
AcDbVertex
100
AcDb2dVertex
 10
113.0731401464278
 20
228.7300450627178
 30
0.0
  0
VERTEX
  5
22A
330
228
100
AcDbEntity
  8
STANDARDEBENE
 62
     7
100
AcDbVertex
100
AcDb2dVertex
 10
114.0736179239552
 20
228.7300450627178
 30
0.0
  0
SEQEND
  5
22B
330
228
100
AcDbEntity
  8
STANDARDEBENE
 62
     7
  0
POLYLINE
  5
22C
330
1F
100
AcDbEntity
  8
STANDARDEBENE
 62
     7
100
AcDb2dPolyline
 66
     1
 10
0.0
 20
0.0
 30
0.0
  0
VERTEX
  5
22D
330
22C
100
AcDbEntity
  8
STANDARDEBENE
 62
     7
100
AcDbVertex
100
AcDb2dVertex
 10
115.0733901459274
 20
228.7300450627178
 30
0.0
  0
VERTEX
  5
22E
330
22C
100
AcDbEntity
  8
STANDARDEBENE
 62
     7
100
AcDbVertex
100
AcDb2dVertex
 10
116.0735151456777
 20
228.7300450627178
 30
0.0
  0
SEQEND
  5
22F
330
22C
100
AcDbEntity
  8
STANDARDEBENE
 62
     7
  0
POLYLINE
  5
230
330
1F
100
AcDbEntity
  8
STANDARDEBENE
 62
     7
100
AcDb2dPolyline
 66
     1
 10
0.0
 20
0.0
 30
0.0
  0
VERTEX
  5
231
330
230
100
AcDbEntity
  8
STANDARDEBENE
 62
     7
100
AcDbVertex
100
AcDb2dVertex
 10
117.0736401454274
 20
228.7300450627178
 30
0.0
  0
VERTEX
  5
232
330
230
100
AcDbEntity
  8
STANDARDEBENE
 62
     7
100
AcDbVertex
100
AcDb2dVertex
 10
118.0734123673999
 20
228.7300450627178
 30
0.0
  0
SEQEND
  5
233
330
230
100
AcDbEntity
  8
STANDARDEBENE
 62
     7
  0
POLYLINE
  5
234
330
1F
100
AcDbEntity
  8
STANDARDEBENE
 62
     7
100
AcDb2dPolyline
 66
     1
 10
0.0
 20
0.0
 30
0.0
  0
VERTEX
  5
235
330
234
100
AcDbEntity
  8
STANDARDEBENE
 62
     7
100
AcDbVertex
100
AcDb2dVertex
 10
119.0735373671499
 20
228.7300450627178
 30
0.0
  0
VERTEX
  5
236
330
234
100
AcDbEntity
  8
STANDARDEBENE
 62
     7
100
AcDbVertex
100
AcDb2dVertex
 10
120.0733095891221
 20
228.7300450627178
 30
0.0
  0
SEQEND
  5
237
330
234
100
AcDbEntity
  8
STANDARDEBENE
 62
     7
  0
POLYLINE
  5
238
330
1F
100
AcDbEntity
  8
STANDARDEBENE
 62
     7
100
AcDb2dPolyline
 66
     1
 10
0.0
 20
0.0
 30
0.0
  0
VERTEX
  5
239
330
238
100
AcDbEntity
  8
STANDARDEBENE
 62
     7
100
AcDbVertex
100
AcDb2dVertex
 10
121.0734345888721
 20
228.7300450627178
 30
0.0
  0
VERTEX
  5
23A
330
238
100
AcDbEntity
  8
STANDARDEBENE
 62
     7
100
AcDbVertex
100
AcDb2dVertex
 10
122.0735595886221
 20
228.7300450627178
 30
0.0
  0
SEQEND
  5
23B
330
238
100
AcDbEntity
  8
STANDARDEBENE
 62
     7
  0
POLYLINE
  5
23C
330
1F
100
AcDbEntity
  8
STANDARDEBENE
 62
     7
100
AcDb2dPolyline
 66
     1
 10
0.0
 20
0.0
 30
0.0
  0
VERTEX
  5
23D
330
23C
100
AcDbEntity
  8
STANDARDEBENE
 62
     7
100
AcDbVertex
100
AcDb2dVertex
 10
123.0733318105943
 20
228.7300450627178
 30
0.0
  0
VERTEX
  5
23E
330
23C
100
AcDbEntity
  8
STANDARDEBENE
 62
     7
100
AcDbVertex
100
AcDb2dVertex
 10
124.0734568103443
 20
228.7300450627178
 30
0.0
  0
SEQEND
  5
23F
330
23C
100
AcDbEntity
  8
STANDARDEBENE
 62
     7
  0
POLYLINE
  5
240
330
1F
100
AcDbEntity
  8
STANDARDEBENE
 62
     7
100
AcDb2dPolyline
 66
     1
 10
0.0
 20
0.0
 30
0.0
  0
VERTEX
  5
241
330
240
100
AcDbEntity
  8
STANDARDEBENE
 62
     7
100
AcDbVertex
100
AcDb2dVertex
 10
125.0732290323165
 20
228.7300450627178
 30
0.0
  0
VERTEX
  5
242
330
240
100
AcDbEntity
  8
STANDARDEBENE
 62
     7
100
AcDbVertex
100
AcDb2dVertex
 10
126.0733540320665
 20
228.7300450627178
 30
0.0
  0
SEQEND
  5
243
330
240
100
AcDbEntity
  8
STANDARDEBENE
 62
     7
  0
POLYLINE
  5
244
330
1F
100
AcDbEntity
  8
STANDARDEBENE
 62
     7
100
AcDb2dPolyline
 66
     1
 10
0.0
 20
0.0
 30
0.0
  0
VERTEX
  5
245
330
244
100
AcDbEntity
  8
STANDARDEBENE
 62
     7
100
AcDbVertex
100
AcDb2dVertex
 10
127.0734790318165
 20
228.7300450627178
 30
0.0
  0
VERTEX
  5
246
330
244
100
AcDbEntity
  8
STANDARDEBENE
 62
     7
100
AcDbVertex
100
AcDb2dVertex
 10
128.0732512537887
 20
228.7300450627178
 30
0.0
  0
SEQEND
  5
247
330
244
100
AcDbEntity
  8
STANDARDEBENE
 62
     7
  0
POLYLINE
  5
248
330
1F
100
AcDbEntity
  8
STANDARDEBENE
 62
     7
100
AcDb2dPolyline
 66
     1
 10
0.0
 20
0.0
 30
0.0
  0
VERTEX
  5
249
330
248
100
AcDbEntity
  8
STANDARDEBENE
 62
     7
100
AcDbVertex
100
AcDb2dVertex
 10
129.0737290313164
 20
228.7300450627178
 30
0.0
  0
VERTEX
  5
24A
330
248
100
AcDbEntity
  8
STANDARDEBENE
 62
     7
100
AcDbVertex
100
AcDb2dVertex
 10
130.0731484755109
 20
228.7300450627178
 30
0.0
  0
SEQEND
  5
24B
330
248
100
AcDbEntity
  8
STANDARDEBENE
 62
     7
  0
POLYLINE
  5
24C
330
1F
100
AcDbEntity
  8
STANDARDEBENE
 62
     7
100
AcDb2dPolyline
 66
     1
 10
0.0
 20
0.0
 30
0.0
  0
VERTEX
  5
24D
330
24C
100
AcDbEntity
  8
STANDARDEBENE
 62
     7
100
AcDbVertex
100
AcDb2dVertex
 10
131.0732734752609
 20
228.7300450627178
 30
0.0
  0
VERTEX
  5
24E
330
24C
100
AcDbEntity
  8
STANDARDEBENE
 62
     7
100
AcDbVertex
100
AcDb2dVertex
 10
132.0737512527886
 20
228.7300450627178
 30
0.0
  0
SEQEND
  5
24F
330
24C
100
AcDbEntity
  8
STANDARDEBENE
 62
     7
  0
POLYLINE
  5
250
330
1F
100
AcDbEntity
  8
STANDARDEBENE
 62
     7
100
AcDb2dPolyline
 66
     1
 10
0.0
 20
0.0
 30
0.0
  0
VERTEX
  5
251
330
250
100
AcDbEntity
  8
STANDARDEBENE
 62
     7
100
AcDbVertex
100
AcDb2dVertex
 10
133.0731706969831
 20
228.7300450627178
 30
0.0
  0
VERTEX
  5
252
330
250
100
AcDbEntity
  8
STANDARDEBENE
 62
     7
100
AcDbVertex
100
AcDb2dVertex
 10
134.0736484745108
 20
228.7300450627178
 30
0.0
  0
SEQEND
  5
253
330
250
100
AcDbEntity
  8
STANDARDEBENE
 62
     7
  0
POLYLINE
  5
254
330
1F
100
AcDbEntity
  8
STANDARDEBENE
 62
     7
100
AcDb2dPolyline
 66
     1
 10
0.0
 20
0.0
 30
0.0
  0
VERTEX
  5
255
330
254
100
AcDbEntity
  8
STANDARDEBENE
 62
     7
100
AcDbVertex
100
AcDb2dVertex
 10
135.0737734742608
 20
228.7300450627178
 30
0.0
  0
VERTEX
  5
256
330
254
100
AcDbEntity
  8
STANDARDEBENE
 62
     7
100
AcDbVertex
100
AcDb2dVertex
 10
136.0731929184553
 20
228.7300450627178
 30
0.0
  0
SEQEND
  5
257
330
254
100
AcDbEntity
  8
STANDARDEBENE
 62
     7
  0
POLYLINE
  5
258
330
1F
100
AcDbEntity
  8
STANDARDEBENE
 62
     7
100
AcDb2dPolyline
 66
     1
 10
0.0
 20
0.0
 30
0.0
  0
VERTEX
  5
259
330
258
100
AcDbEntity
  8
STANDARDEBENE
 62
     7
100
AcDbVertex
100
AcDb2dVertex
 10
137.073670695983
 20
228.7300450627178
 30
0.0
  0
VERTEX
  5
25A
330
258
100
AcDbEntity
  8
STANDARDEBENE
 62
     7
100
AcDbVertex
100
AcDb2dVertex
 10
138.0734429179552
 20
228.7300450627178
 30
0.0
  0
SEQEND
  5
25B
330
258
100
AcDbEntity
  8
STANDARDEBENE
 62
     7
  0
POLYLINE
  5
25C
330
1F
100
AcDbEntity
  8
STANDARDEBENE
 62
     7
100
AcDb2dPolyline
 66
     1
 10
0.0
 20
0.0
 30
0.0
  0
VERTEX
  5
25D
330
25C
100
AcDbEntity
  8
STANDARDEBENE
 62
     7
100
AcDbVertex
100
AcDb2dVertex
 10
139.0735679177052
 20
228.7300450627178
 30
0.0
  0
VERTEX
  5
25E
330
25C
100
AcDbEntity
  8
STANDARDEBENE
 62
     7
100
AcDbVertex
100
AcDb2dVertex
 10
140.0736929174552
 20
228.7300450627178
 30
0.0
  0
SEQEND
  5
25F
330
25C
100
AcDbEntity
  8
STANDARDEBENE
 62
     7
  0
POLYLINE
  5
260
330
1F
100
AcDbEntity
  8
STANDARDEBENE
 62
     7
100
AcDb2dPolyline
 66
     1
 10
0.0
 20
0.0
 30
0.0
  0
VERTEX
  5
261
330
260
100
AcDbEntity
  8
STANDARDEBENE
 62
     7
100
AcDbVertex
100
AcDb2dVertex
 10
141.07311236165
 20
228.7300450627178
 30
0.0
  0
VERTEX
  5
262
330
260
100
AcDbEntity
  8
STANDARDEBENE
 62
     7
100
AcDbVertex
100
AcDb2dVertex
 10
142.0735901391774
 20
228.7300450627178
 30
0.0
  0
SEQEND
  5
263
330
260
100
AcDbEntity
  8
STANDARDEBENE
 62
     7
  0
POLYLINE
  5
264
330
1F
100
AcDbEntity
  8
STANDARDEBENE
 62
     7
100
AcDb2dPolyline
 66
     1
 10
0.0
 20
0.0
 30
0.0
  0
VERTEX
  5
265
330
264
100
AcDbEntity
  8
STANDARDEBENE
 62
     7
100
AcDbVertex
100
AcDb2dVertex
 10
143.0733623611499
 20
228.7300450627178
 30
0.0
  0
VERTEX
  5
266
330
264
100
AcDbEntity
  8
STANDARDEBENE
 62
     7
100
AcDbVertex
100
AcDb2dVertex
 10
144.0734873608999
 20
228.7300450627178
 30
0.0
  0
SEQEND
  5
267
330
264
100
AcDbEntity
  8
STANDARDEBENE
 62
     7
  0
POLYLINE
  5
268
330
1F
100
AcDbEntity
  8
STANDARDEBENE
 62
     7
100
AcDb2dPolyline
 66
     1
 10
0.0
 20
0.0
 30
0.0
  0
VERTEX
  5
269
330
268
100
AcDbEntity
  8
STANDARDEBENE
 62
     7
100
AcDbVertex
100
AcDb2dVertex
 10
145.0736123606499
 20
228.7300450627178
 30
0.0
  0
VERTEX
  5
26A
330
268
100
AcDbEntity
  8
STANDARDEBENE
 62
     7
100
AcDbVertex
100
AcDb2dVertex
 10
146.0733845826221
 20
228.7300450627178
 30
0.0
  0
SEQEND
  5
26B
330
268
100
AcDbEntity
  8
STANDARDEBENE
 62
     7
  0
POLYLINE
  5
26C
330
1F
100
AcDbEntity
  8
STANDARDEBENE
 62
     7
100
AcDb2dPolyline
 66
     1
 10
0.0
 20
0.0
 30
0.0
  0
VERTEX
  5
26D
330
26C
100
AcDbEntity
  8
STANDARDEBENE
 62
     7
100
AcDbVertex
100
AcDb2dVertex
 10
147.0735095823721
 20
228.7300450627178
 30
0.0
  0
VERTEX
  5
26E
330
26C
100
AcDbEntity
  8
STANDARDEBENE
 62
     7
100
AcDbVertex
100
AcDb2dVertex
 10
148.0732818043443
 20
228.7300450627178
 30
0.0
  0
SEQEND
  5
26F
330
26C
100
AcDbEntity
  8
STANDARDEBENE
 62
     7
  0
POLYLINE
  5
270
330
1F
100
AcDbEntity
  8
STANDARDEBENE
 62
     7
100
AcDb2dPolyline
 66
     1
 10
0.0
 20
0.0
 30
0.0
  0
VERTEX
  5
271
330
270
100
AcDbEntity
  8
STANDARDEBENE
 62
     7
100
AcDbVertex
100
AcDb2dVertex
 10
149.0734068040943
 20
228.7300450627178
 30
0.0
  0
VERTEX
  5
272
330
270
100
AcDbEntity
  8
STANDARDEBENE
 62
     7
100
AcDbVertex
100
AcDb2dVertex
 10
150.0735318038443
 20
228.7300450627178
 30
0.0
  0
SEQEND
  5
273
330
270
100
AcDbEntity
  8
STANDARDEBENE
 62
     7
  0
POLYLINE
  5
274
330
1F
100
AcDbEntity
  8
STANDARDEBENE
 62
     7
100
AcDb2dPolyline
 66
     1
 10
0.0
 20
0.0
 30
0.0
  0
VERTEX
  5
275
330
274
100
AcDbEntity
  8
STANDARDEBENE
 62
     7
100
AcDbVertex
100
AcDb2dVertex
 10
151.0733040258165
 20
228.7300450627178
 30
0.0
  0
VERTEX
  5
276
330
274
100
AcDbEntity
  8
STANDARDEBENE
 62
     7
100
AcDbVertex
100
AcDb2dVertex
 10
152.0737818033443
 20
228.7300450627178
 30
0.0
  0
SEQEND
  5
277
330
274
100
AcDbEntity
  8
STANDARDEBENE
 62
     7
  0
POLYLINE
  5
278
330
1F
100
AcDbEntity
  8
STANDARDEBENE
 62
     7
100
AcDb2dPolyline
 66
     1
 10
0.0
 20
0.0
 30
0.0
  0
VERTEX
  5
279
330
278
100
AcDbEntity
  8
STANDARDEBENE
 62
     7
100
AcDbVertex
100
AcDb2dVertex
 10
153.0732012475387
 20
228.7300450627178
 30
0.0
  0
VERTEX
  5
27A
330
278
100
AcDbEntity
  8
STANDARDEBENE
 62
     7
100
AcDbVertex
100
AcDb2dVertex
 10
154.0733262472887
 20
228.7300450627178
 30
0.0
  0
SEQEND
  5
27B
330
278
100
AcDbEntity
  8
STANDARDEBENE
 62
     7
  0
POLYLINE
  5
27C
330
1F
100
AcDbEntity
  8
STANDARDEBENE
 62
     7
100
AcDb2dPolyline
 66
     1
 10
0.0
 20
0.0
 30
0.0
  0
VERTEX
  5
27D
330
27C
100
AcDbEntity
  8
STANDARDEBENE
 62
     7
100
AcDbVertex
100
AcDb2dVertex
 10
155.0734512470387
 20
228.7300450627178
 30
0.0
  0
VERTEX
  5
27E
330
27C
100
AcDbEntity
  8
STANDARDEBENE
 62
     7
100
AcDbVertex
100
AcDb2dVertex
 10
156.0732234690109
 20
228.7300450627178
 30
0.0
  0
SEQEND
  5
27F
330
27C
100
AcDbEntity
  8
STANDARDEBENE
 62
     7
  0
POLYLINE
  5
280
330
1F
100
AcDbEntity
  8
STANDARDEBENE
 62
     7
100
AcDb2dPolyline
 66
     1
 10
0.0
 20
0.0
 30
0.0
  0
VERTEX
  5
281
330
280
100
AcDbEntity
  8
STANDARDEBENE
 62
     7
100
AcDbVertex
100
AcDb2dVertex
 10
157.0737012465387
 20
228.7300450627178
 30
0.0
  0
VERTEX
  5
282
330
280
100
AcDbEntity
  8
STANDARDEBENE
 62
     7
100
AcDbVertex
100
AcDb2dVertex
 10
158.0731206907331
 20
228.7300450627178
 30
0.0
  0
SEQEND
  5
283
330
280
100
AcDbEntity
  8
STANDARDEBENE
 62
     7
  0
POLYLINE
  5
284
330
1F
100
AcDbEntity
  8
STANDARDEBENE
 62
     7
100
AcDb2dPolyline
 66
     1
 10
0.0
 20
0.0
 30
0.0
  0
VERTEX
  5
285
330
284
100
AcDbEntity
  8
STANDARDEBENE
 62
     7
100
AcDbVertex
100
AcDb2dVertex
 10
159.0732456904831
 20
228.7300450627178
 30
0.0
  0
VERTEX
  5
286
330
284
100
AcDbEntity
  8
STANDARDEBENE
 62
     7
100
AcDbVertex
100
AcDb2dVertex
 10
160.0737234680108
 20
228.7300450627178
 30
0.0
  0
SEQEND
  5
287
330
284
100
AcDbEntity
  8
STANDARDEBENE
 62
     7
  0
POLYLINE
  5
288
330
1F
100
AcDbEntity
  8
STANDARDEBENE
 62
     7
100
AcDb2dPolyline
 66
     1
 10
0.0
 20
0.0
 30
0.0
  0
VERTEX
  5
289
330
288
100
AcDbEntity
  8
STANDARDEBENE
 62
     7
100
AcDbVertex
100
AcDb2dVertex
 10
161.0731429122053
 20
228.7300450627178
 30
0.0
  0
VERTEX
  5
28A
330
288
100
AcDbEntity
  8
STANDARDEBENE
 62
     7
100
AcDbVertex
100
AcDb2dVertex
 10
162.073620689733
 20
228.7300450627178
 30
0.0
  0
SEQEND
  5
28B
330
288
100
AcDbEntity
  8
STANDARDEBENE
 62
     7
  0
POLYLINE
  5
28C
330
1F
100
AcDbEntity
  8
STANDARDEBENE
 62
     7
100
AcDb2dPolyline
 66
     1
 10
0.0
 20
0.0
 30
0.0
  0
VERTEX
  5
28D
330
28C
100
AcDbEntity
  8
STANDARDEBENE
 62
     7
100
AcDbVertex
100
AcDb2dVertex
 10
163.073745689483
 20
228.7300450627178
 30
0.0
  0
VERTEX
  5
28E
330
28C
100
AcDbEntity
  8
STANDARDEBENE
 62
     7
100
AcDbVertex
100
AcDb2dVertex
 10
164.0731651336778
 20
228.7300450627178
 30
0.0
  0
SEQEND
  5
28F
330
28C
100
AcDbEntity
  8
STANDARDEBENE
 62
     7
  0
POLYLINE
  5
290
330
1F
100
AcDbEntity
  8
STANDARDEBENE
 62
     7
100
AcDb2dPolyline
 66
     1
 10
0.0
 20
0.0
 30
0.0
  0
VERTEX
  5
291
330
290
100
AcDbEntity
  8
STANDARDEBENE
 62
     7
100
AcDbVertex
100
AcDb2dVertex
 10
165.0736429112052
 20
228.7300450627178
 30
0.0
  0
VERTEX
  5
292
330
290
100
AcDbEntity
  8
STANDARDEBENE
 62
     7
100
AcDbVertex
100
AcDb2dVertex
 10
166.0734151331777
 20
228.7300450627178
 30
0.0
  0
SEQEND
  5
293
330
290
100
AcDbEntity
  8
STANDARDEBENE
 62
     7
  0
POLYLINE
  5
294
330
1F
100
AcDbEntity
  8
STANDARDEBENE
 62
     7
100
AcDb2dPolyline
 66
     1
 10
0.0
 20
0.0
 30
0.0
  0
VERTEX
  5
295
330
294
100
AcDbEntity
  8
STANDARDEBENE
 62
     7
100
AcDbVertex
100
AcDb2dVertex
 10
167.0735401329274
 20
228.7300450627178
 30
0.0
  0
VERTEX
  5
296
330
294
100
AcDbEntity
  8
STANDARDEBENE
 62
     7
100
AcDbVertex
100
AcDb2dVertex
 10
168.0736651326777
 20
228.7300450627178
 30
0.0
  0
SEQEND
  5
297
330
294
100
AcDbEntity
  8
STANDARDEBENE
 62
     7
  0
POLYLINE
  5
298
330
1F
100
AcDbEntity
  8
STANDARDEBENE
 62
     7
100
AcDb2dPolyline
 66
     1
 10
0.0
 20
0.0
 30
0.0
  0
VERTEX
  5
299
330
298
100
AcDbEntity
  8
STANDARDEBENE
 62
     7
100
AcDbVertex
100
AcDb2dVertex
 10
169.0734373546499
 20
228.7300450627178
 30
0.0
  0
VERTEX
  5
29A
330
298
100
AcDbEntity
  8
STANDARDEBENE
 62
     7
100
AcDbVertex
100
AcDb2dVertex
 10
170.0735623543999
 20
228.7300450627178
 30
0.0
  0
SEQEND
  5
29B
330
298
100
AcDbEntity
  8
STANDARDEBENE
 62
     7
  0
POLYLINE
  5
29C
330
1F
100
AcDbEntity
  8
STANDARDEBENE
 62
     7
100
AcDb2dPolyline
 66
     1
 10
0.0
 20
0.0
 30
0.0
  0
VERTEX
  5
29D
330
29C
100
AcDbEntity
  8
STANDARDEBENE
 62
     7
100
AcDbVertex
100
AcDb2dVertex
 10
171.0733345763721
 20
228.7300450627178
 30
0.0
  0
VERTEX
  5
29E
330
29C
100
AcDbEntity
  8
STANDARDEBENE
 62
     7
100
AcDbVertex
100
AcDb2dVertex
 10
172.0734595761221
 20
228.7300450627178
 30
0.0
  0
SEQEND
  5
29F
330
29C
100
AcDbEntity
  8
STANDARDEBENE
 62
     7
  0
POLYLINE
  5
2A0
330
1F
100
AcDbEntity
  8
STANDARDEBENE
 62
     7
100
AcDb2dPolyline
 66
     1
 10
0.0
 20
0.0
 30
0.0
  0
VERTEX
  5
2A1
330
2A0
100
AcDbEntity
  8
STANDARDEBENE
 62
     7
100
AcDbVertex
100
AcDb2dVertex
 10
173.0735845758721
 20
228.7300450627178
 30
0.0
  0
VERTEX
  5
2A2
330
2A0
100
AcDbEntity
  8
STANDARDEBENE
 62
     7
100
AcDbVertex
100
AcDb2dVertex
 10
174.0733567978443
 20
228.7300450627178
 30
0.0
  0
SEQEND
  5
2A3
330
2A0
100
AcDbEntity
  8
STANDARDEBENE
 62
     7
  0
POLYLINE
  5
2A4
330
1F
100
AcDbEntity
  8
STANDARDEBENE
 62
     7
100
AcDb2dPolyline
 66
     1
 10
0.0
 20
0.0
 30
0.0
  0
VERTEX
  5
2A5
330
2A4
100
AcDbEntity
  8
STANDARDEBENE
 62
     7
100
AcDbVertex
100
AcDb2dVertex
 10
175.0734817975943
 20
228.7300450627178
 30
0.0
  0
VERTEX
  5
2A6
330
2A4
100
AcDbEntity
  8
STANDARDEBENE
 62
     7
100
AcDbVertex
100
AcDb2dVertex
 10
176.0732540195665
 20
228.7300450627178
 30
0.0
  0
SEQEND
  5
2A7
330
2A4
100
AcDbEntity
  8
STANDARDEBENE
 62
     7
  0
POLYLINE
  5
2A8
330
1F
100
AcDbEntity
  8
STANDARDEBENE
 62
     7
100
AcDb2dPolyline
 66
     1
 10
0.0
 20
0.0
 30
0.0
  0
VERTEX
  5
2A9
330
2A8
100
AcDbEntity
  8
STANDARDEBENE
 62
     7
100
AcDbVertex
100
AcDb2dVertex
 10
177.0733790193165
 20
228.7300450627178
 30
0.0
  0
VERTEX
  5
2AA
330
2A8
100
AcDbEntity
  8
STANDARDEBENE
 62
     7
100
AcDbVertex
100
AcDb2dVertex
 10
177.5736179080802
 20
228.7300450627178
 30
0.0
  0
SEQEND
  5
2AB
330
2A8
100
AcDbEntity
  8
STANDARDEBENE
 62
     7
  0
POLYLINE
  5
2AC
330
1F
100
AcDbEntity
  8
STANDARDEBENE
 62
     7
100
AcDb2dPolyline
 66
     1
 10
0.0
 20
0.0
 30
0.0
  0
VERTEX
  5
2AD
330
2AC
100
AcDbEntity
  8
STANDARDEBENE
 62
     7
100
AcDbVertex
100
AcDb2dVertex
 10
172.9710534864774
 20
230.226998967881
 30
0.0
  0
VERTEX
  5
2AE
330
2AC
100
AcDbEntity
  8
STANDARDEBENE
 62
     7
100
AcDbVertex
100
AcDb2dVertex
 10
173.9708257084496
 20
230.226998967881
 30
0.0
  0
SEQEND
  5
2AF
330
2AC
100
AcDbEntity
  8
STANDARDEBENE
 62
     7
  0
POLYLINE
  5
2B0
330
1F
100
AcDbEntity
  8
STANDARDEBENE
 62
     7
100
AcDb2dPolyline
 66
     1
 10
0.0
 20
0.0
 30
0.0
  0
VERTEX
  5
2B1
330
2B0
100
AcDbEntity
  8
STANDARDEBENE
 62
     7
100
AcDbVertex
100
AcDb2dVertex
 10
174.9709507081996
 20
230.226998967881
 30
0.0
  0
VERTEX
  5
2B2
330
2B0
100
AcDbEntity
  8
STANDARDEBENE
 62
     7
100
AcDbVertex
100
AcDb2dVertex
 10
175.9707229301718
 20
230.226998967881
 30
0.0
  0
SEQEND
  5
2B3
330
2B0
100
AcDbEntity
  8
STANDARDEBENE
 62
     7
  0
POLYLINE
  5
2B4
330
1F
100
AcDbEntity
  8
STANDARDEBENE
 62
     7
100
AcDb2dPolyline
 66
     1
 10
0.0
 20
0.0
 30
0.0
  0
VERTEX
  5
2B5
330
2B4
100
AcDbEntity
  8
STANDARDEBENE
 62
     7
100
AcDbVertex
100
AcDb2dVertex
 10
176.9708479299218
 20
230.226998967881
 30
0.0
  0
VERTEX
  5
2B6
330
2B4
100
AcDbEntity
  8
STANDARDEBENE
 62
     7
100
AcDbVertex
100
AcDb2dVertex
 10
177.4710868186855
 20
230.226998967881
 30
0.0
  0
SEQEND
  5
2B7
330
2B4
100
AcDbEntity
  8
STANDARDEBENE
 62
     7
  0
POLYLINE
  5
2B8
330
1F
100
AcDbEntity
  8
STANDARDEBENE
 62
     7
100
AcDb2dPolyline
 66
     1
 10
0.0
 20
0.0
 30
0.0
  0
VERTEX
  5
2B9
330
2B8
100
AcDbEntity
  8
STANDARDEBENE
 62
     7
100
AcDbVertex
100
AcDb2dVertex
 10
27.57356516780273
 20
227.9800395073496
 30
0.0
  0
VERTEX
  5
2BA
330
2B8
100
AcDbEntity
  8
STANDARDEBENE
 62
     7
100
AcDbVertex
100
AcDb2dVertex
 10
27.57356516780273
 20
228.0943395073213
 30
0.0
  0
VERTEX
  5
2BB
330
2B8
100
AcDbEntity
  8
STANDARDEBENE
 62
     7
100
AcDbVertex
100
AcDb2dVertex
 10
27.57356516780273
 20
228.4196006183509
 30
0.0
  0
VERTEX
  5
2BC
330
2B8
100
AcDbEntity
  8
STANDARDEBENE
 62
     7
100
AcDbVertex
100
AcDb2dVertex
 10
27.57356516780273
 20
228.9060811737848
 30
0.0
  0
VERTEX
  5
2BD
330
2B8
100
AcDbEntity
  8
STANDARDEBENE
 62
     7
100
AcDbVertex
100
AcDb2dVertex
 10
27.57356516780273
 20
229.4800506180859
 30
0.0
  0
VERTEX
  5
2BE
330
2B8
100
AcDbEntity
  8
STANDARDEBENE
 62
     7
100
AcDbVertex
100
AcDb2dVertex
 10
27.57356516780273
 20
230.0543728401644
 30
0.0
  0
VERTEX
  5
2BF
330
2B8
100
AcDbEntity
  8
STANDARDEBENE
 62
     7
100
AcDbVertex
100
AcDb2dVertex
 10
27.57356516780273
 20
230.5405006178206
 30
0.0
  0
VERTEX
  5
2C0
330
2B8
100
AcDbEntity
  8
STANDARDEBENE
 62
     7
100
AcDbVertex
100
AcDb2dVertex
 10
27.57356516780273
 20
230.8657617288505
 30
0.0
  0
VERTEX
  5
2C1
330
2B8
100
AcDbEntity
  8
STANDARDEBENE
 62
     7
100
AcDbVertex
100
AcDb2dVertex
 10
27.57356516780273
 20
230.9797089510444
 30
0.0
  0
SEQEND
  5
2C2
330
2B8
100
AcDbEntity
  8
STANDARDEBENE
 62
     7
  0
POLYLINE
  5
2C3
330
1F
100
AcDbEntity
  8
STANDARDEBENE
 62
     7
100
AcDb2dPolyline
 66
     1
 10
0.0
 20
0.0
 30
0.0
  0
VERTEX
  5
2C4
330
2C3
100
AcDbEntity
  8
STANDARDEBENE
 62
     7
100
AcDbVertex
100
AcDb2dVertex
 10
174.5679512421652
 20
231.2185395065401
 30
0.0
  0
VERTEX
  5
2C5
330
2C3
100
AcDbEntity
  8
STANDARDEBENE
 62
     7
100
AcDbVertex
100
AcDb2dVertex
 10
174.5679512421652
 20
227.5923315033856
 30
0.0
  0
SEQEND
  5
2C6
330
2C3
100
AcDbEntity
  8
STANDARDEBENE
 62
     7
  0
POLYLINE
  5
2C7
330
1F
100
AcDbEntity
  8
STANDARDEBENE
 62
     7
100
AcDb2dPolyline
 66
     1
 10
0.0
 20
0.0
 30
0.0
  0
VERTEX
  5
2C8
330
2C7
100
AcDbEntity
  8
STANDARDEBENE
 62
     7
100
AcDbVertex
100
AcDb2dVertex
 10
174.6268764338849
 20
230.9587322117638
 30
0.0
  0
VERTEX
  5
2C9
330
2C7
100
AcDbEntity
  8
STANDARDEBENE
 62
     7
100
AcDbVertex
100
AcDb2dVertex
 10
177.6048462912965
 20
230.9587322117638
 30
0.0
  0
SEQEND
  5
2CA
330
2C7
100
AcDbEntity
  8
STANDARDEBENE
 62
     7
  0
POLYLINE
  5
2CB
330
1F
100
AcDbEntity
  8
STANDARDEBENE
 62
     7
100
AcDb2dPolyline
 66
     1
 10
0.0
 20
0.0
 30
0.0
  0
VERTEX
  5
2CC
330
2CB
100
AcDbEntity
  8
STANDARDEBENE
 62
     7
100
AcDbVertex
100
AcDb2dVertex
 10
174.6857790199134
 20
227.9800395073496
 30
0.0
  0
VERTEX
  5
2CD
330
2CB
100
AcDbEntity
  8
STANDARDEBENE
 62
     7
100
AcDbVertex
100
AcDb2dVertex
 10
177.5429225324468
 20
227.9800395073496
 30
0.0
  0
SEQEND
  5
2CE
330
2CB
100
AcDbEntity
  8
STANDARDEBENE
 62
     7
  0
POLYLINE
  5
2CF
330
1F
100
AcDbEntity
  8
STANDARDEBENE
 62
     7
100
AcDb2dPolyline
 66
     1
 10
0.0
 20
0.0
 30
0.0
  0
VERTEX
  5
2D0
330
2CF
100
AcDbEntity
  8
STANDARDEBENE
 62
     7
100
AcDbVertex
100
AcDb2dVertex
 10
174.5874704055266
 20
231.3246453322382
 30
0.0
  0
VERTEX
  5
2D1
330
2CF
100
AcDbEntity
  8
STANDARDEBENE
 62
     7
100
AcDbVertex
100
AcDb2dVertex
 10
177.5598108303153
 20
231.3246453322382
 30
0.0
  0
SEQEND
  5
2D2
330
2CF
100
AcDbEntity
  8
STANDARDEBENE
 62
     7
  0
POLYLINE
  5
2D3
330
1F
100
AcDbEntity
  8
STANDARDEBENE
 62
     7
100
AcDb2dPolyline
 66
     1
 10
0.0
 20
0.0
 30
0.0
  0
VERTEX
  5
2D4
330
2D3
100
AcDbEntity
  8
STANDARDEBENE
 62
     7
100
AcDbVertex
100
AcDb2dVertex
 10
177.5823285608061
 20
231.3139077546093
 30
0.0
  0
VERTEX
  5
2D5
330
2D3
100
AcDbEntity
  8
STANDARDEBENE
 62
     7
100
AcDbVertex
100
AcDb2dVertex
 10
177.5823285608061
 20
227.6092198012522
 30
0.0
  0
SEQEND
  5
2D6
330
2D3
100
AcDbEntity
  8
STANDARDEBENE
 62
     7
  0
POLYLINE
  5
2D7
330
1F
100
AcDbEntity
  8
STANDARDEBENE
 62
     7
100
AcDb2dPolyline
 66
     1
 10
0.0
 20
0.0
 30
0.0
  0
VERTEX
  5
2D8
330
2D7
100
AcDbEntity
  8
STANDARDEBENE
 62
     7
100
AcDbVertex
100
AcDb2dVertex
 10
174.5292384580586
 20
227.5471991547088
 30
0.0
  0
VERTEX
  5
2D9
330
2D7
100
AcDbEntity
  8
STANDARDEBENE
 62
     7
100
AcDbVertex
100
AcDb2dVertex
 10
177.5908049266975
 20
227.5471991547088
 30
0.0
  0
SEQEND
  5
2DA
330
2D7
100
AcDbEntity
  8
STANDARDEBENE
 62
     7
  0
MTEXT
  5
2DC
330
1F
100
AcDbEntity
  8
TEXT
 62
     7
100
AcDbMText
 10
186.7927327006977
 20
232.952528195953
 30
0.0
 40
3.447529173370601
 41
0.0
 71
     7
 72
     1
  1
\fINDEX Univers 45 Light|b0|i0|c0|p34;\W1;ø6
 11
6.123233995736766E-17
 21
1.0
 31
0.0
  0
MTEXT
  5
2DD
330
1F
100
AcDbEntity
  8
TEXT
 62
     7
100
AcDbMText
 10
98.69049841214921
 20
198.639705523528
 30
0.0
 40
3.447529173370601
 41
0.0
 71
     7
 72
     1
  1
\fINDEX Univers 45 Light|b0|i0|c0|p34;\W1;300
  0
MTEXT
  5
2DE
330
1F
100
AcDbEntity
  8
TEXT
 62
     7
100
AcDbMText
 10
16.65049098976099
 20
235.1746094009774
 30
0.0
 40
3.447529173370601
 41
0.0
 71
     7
 72
     1
  1
\fINDEX Univers 45 Light|b0|i0|c0|p34;\W1;ø3
 11
6.123233995736766E-17
 21
1.0
 31
0.0
  0
POLYLINE
  5
2E0
330
1F
100
AcDbEntity
  8
BEMA_U_00DFUNG
 62
     7
100
AcDb2dPolyline
 66
     1
 10
0.0
 20
0.0
 30
0.0
  0
VERTEX
  5
2E1
330
2E0
100
AcDbEntity
  8
BEMA_U_00DFUNG
 62
     7
100
AcDbVertex
100
AcDb2dVertex
 10
177.5736179080802
 20
230.9797089510444
 30
0.0
  0
VERTEX
  5
2E2
330
2E0
100
AcDbEntity
  8
BEMA_U_00DFUNG
 62
     7
100
AcDbVertex
100
AcDb2dVertex
 10
189.5733540161915
 20
230.9797089510444
 30
0.0
  0
SEQEND
  5
2E3
330
2E0
100
AcDbEntity
  8
BEMA_U_00DFUNG
 62
     7
  0
POLYLINE
  5
2E4
330
1F
100
AcDbEntity
  8
BEMA_U_00DFUNG
 62
     7
100
AcDb2dPolyline
 66
     1
 10
0.0
 20
0.0
 30
0.0
  0
VERTEX
  5
2E5
330
2E4
100
AcDbEntity
  8
BEMA_U_00DFUNG
 62
     7
100
AcDbVertex
100
AcDb2dVertex
 10
177.5736179080802
 20
227.9800395073496
 30
0.0
  0
VERTEX
  5
2E6
330
2E4
100
AcDbEntity
  8
BEMA_U_00DFUNG
 62
     7
100
AcDbVertex
100
AcDb2dVertex
 10
189.5733540161915
 20
227.9800395073496
 30
0.0
  0
SEQEND
  5
2E7
330
2E4
100
AcDbEntity
  8
BEMA_U_00DFUNG
 62
     7
  0
POLYLINE
  5
2E8
330
1F
100
AcDbEntity
  8
BEMA_U_00DFUNG
 62
     7
100
AcDb2dPolyline
 66
     1
 10
0.0
 20
0.0
 30
0.0
  0
VERTEX
  5
2E9
330
2E8
100
AcDbEntity
  8
BEMA_U_00DFUNG
 62
     7
100
AcDbVertex
100
AcDb2dVertex
 10
187.5734567944693
 20
219.230092287315
 30
0.0
  0
VERTEX
  5
2EA
330
2E8
100
AcDbEntity
  8
BEMA_U_00DFUNG
 62
     7
100
AcDbVertex
100
AcDb2dVertex
 10
187.5734567944693
 20
238.6014728380277
 30
0.0
  0
SEQEND
  5
2EB
330
2E8
100
AcDbEntity
  8
BEMA_U_00DFUNG
 62
     7
  0
POLYLINE
  5
2EC
330
1F
100
AcDbEntity
  8
BEMA_U_00DFUNG
 62
     7
100
AcDb2dPolyline
 66
     1
 10
0.0
 20
0.0
 30
0.0
  0
VERTEX
  5
2ED
330
2EC
100
AcDbEntity
  8
BEMA_U_00DFUNG
 62
     7
100
AcDbVertex
100
AcDb2dVertex
 10
187.5734567944693
 20
230.9797089510444
 30
0.0
  0
VERTEX
  5
2EE
330
2EC
100
AcDbEntity
  8
BEMA_U_00DFUNG
 62
     7
100
AcDbVertex
100
AcDb2dVertex
 10
188.0345373499095
 20
234.4799700612803
 30
0.0
  0
VERTEX
  5
2EF
330
2EC
100
AcDbEntity
  8
BEMA_U_00DFUNG
 62
     7
100
AcDbVertex
100
AcDb2dVertex
 10
187.1123762390291
 20
234.4799700612803
 30
0.0
  0
VERTEX
  5
2F0
330
2EC
100
AcDbEntity
  8
BEMA_U_00DFUNG
 62
     7
100
AcDbVertex
100
AcDb2dVertex
 10
187.5734567944693
 20
230.9797089510444
 30
0.0
  0
SEQEND
  5
2F1
330
2EC
100
AcDbEntity
  8
BEMA_U_00DFUNG
 62
     7
  0
POLYLINE
  5
2F2
330
1F
100
AcDbEntity
  8
BEMA_U_00DFUNG
 62
     7
100
AcDb2dPolyline
 66
     1
 10
0.0
 20
0.0
 30
0.0
  0
VERTEX
  5
2F3
330
2F2
100
AcDbEntity
  8
BEMA_U_00DFUNG
 62
     7
100
AcDbVertex
100
AcDb2dVertex
 10
188.0303040165774
 20
234.4799700612803
 30
0.0
  0
VERTEX
  5
2F4
330
2F2
100
AcDbEntity
  8
BEMA_U_00DFUNG
 62
     7
100
AcDbVertex
100
AcDb2dVertex
 10
188.0303040165774
 20
234.4528061723981
 30
0.0
  0
SEQEND
  5
2F5
330
2F2
100
AcDbEntity
  8
BEMA_U_00DFUNG
 62
     7
  0
POLYLINE
  5
2F6
330
1F
100
AcDbEntity
  8
BEMA_U_00DFUNG
 62
     7
100
AcDb2dPolyline
 66
     1
 10
0.0
 20
0.0
 30
0.0
  0
VERTEX
  5
2F7
330
2F6
100
AcDbEntity
  8
BEMA_U_00DFUNG
 62
     7
100
AcDbVertex
100
AcDb2dVertex
 10
188.0303040165774
 20
234.4799700612803
 30
0.0
  0
VERTEX
  5
2F8
330
2F6
100
AcDbEntity
  8
BEMA_U_00DFUNG
 62
     7
100
AcDbVertex
100
AcDb2dVertex
 10
188.0303040165774
 20
234.4528061723981
 30
0.0
  0
SEQEND
  5
2F9
330
2F6
100
AcDbEntity
  8
BEMA_U_00DFUNG
 62
     7
  0
POLYLINE
  5
2FA
330
1F
100
AcDbEntity
  8
BEMA_U_00DFUNG
 62
     7
100
AcDb2dPolyline
 66
     1
 10
0.0
 20
0.0
 30
0.0
  0
VERTEX
  5
2FB
330
2FA
100
AcDbEntity
  8
BEMA_U_00DFUNG
 62
     7
100
AcDbVertex
100
AcDb2dVertex
 10
187.97950401659
 20
234.4799700612803
 30
0.0
  0
VERTEX
  5
2FC
330
2FA
100
AcDbEntity
  8
BEMA_U_00DFUNG
 62
     7
100
AcDbVertex
100
AcDb2dVertex
 10
187.97950401659
 20
234.0672200613834
 30
0.0
  0
SEQEND
  5
2FD
330
2FA
100
AcDbEntity
  8
BEMA_U_00DFUNG
 62
     7
  0
POLYLINE
  5
2FE
330
1F
100
AcDbEntity
  8
BEMA_U_00DFUNG
 62
     7
100
AcDb2dPolyline
 66
     1
 10
0.0
 20
0.0
 30
0.0
  0
VERTEX
  5
2FF
330
2FE
100
AcDbEntity
  8
BEMA_U_00DFUNG
 62
     7
100
AcDbVertex
100
AcDb2dVertex
 10
187.9287040166026
 20
234.4799700612803
 30
0.0
  0
VERTEX
  5
300
330
2FE
100
AcDbEntity
  8
BEMA_U_00DFUNG
 62
     7
100
AcDbVertex
100
AcDb2dVertex
 10
187.9287040166026
 20
233.6809283948133
 30
0.0
  0
SEQEND
  5
301
330
2FE
100
AcDbEntity
  8
BEMA_U_00DFUNG
 62
     7
  0
POLYLINE
  5
302
330
1F
100
AcDbEntity
  8
BEMA_U_00DFUNG
 62
     7
100
AcDb2dPolyline
 66
     1
 10
0.0
 20
0.0
 30
0.0
  0
VERTEX
  5
303
330
302
100
AcDbEntity
  8
BEMA_U_00DFUNG
 62
     7
100
AcDbVertex
100
AcDb2dVertex
 10
187.8779040166152
 20
234.4799700612803
 30
0.0
  0
VERTEX
  5
304
330
302
100
AcDbEntity
  8
BEMA_U_00DFUNG
 62
     7
100
AcDbVertex
100
AcDb2dVertex
 10
187.8779040166152
 20
233.2949895060212
 30
0.0
  0
SEQEND
  5
305
330
302
100
AcDbEntity
  8
BEMA_U_00DFUNG
 62
     7
  0
POLYLINE
  5
306
330
1F
100
AcDbEntity
  8
BEMA_U_00DFUNG
 62
     7
100
AcDb2dPolyline
 66
     1
 10
0.0
 20
0.0
 30
0.0
  0
VERTEX
  5
307
330
306
100
AcDbEntity
  8
BEMA_U_00DFUNG
 62
     7
100
AcDbVertex
100
AcDb2dVertex
 10
187.8271040166281
 20
234.4799700612803
 30
0.0
  0
VERTEX
  5
308
330
306
100
AcDbEntity
  8
BEMA_U_00DFUNG
 62
     7
100
AcDbVertex
100
AcDb2dVertex
 10
187.8271040166281
 20
232.9094033950062
 30
0.0
  0
SEQEND
  5
309
330
306
100
AcDbEntity
  8
BEMA_U_00DFUNG
 62
     7
  0
POLYLINE
  5
30A
330
1F
100
AcDbEntity
  8
BEMA_U_00DFUNG
 62
     7
100
AcDb2dPolyline
 66
     1
 10
0.0
 20
0.0
 30
0.0
  0
VERTEX
  5
30B
330
30A
100
AcDbEntity
  8
BEMA_U_00DFUNG
 62
     7
100
AcDbVertex
100
AcDb2dVertex
 10
187.7766567944185
 20
234.4799700612803
 30
0.0
  0
VERTEX
  5
30C
330
30A
100
AcDbEntity
  8
BEMA_U_00DFUNG
 62
     7
100
AcDbVertex
100
AcDb2dVertex
 10
187.7766567944185
 20
232.5238172839915
 30
0.0
  0
SEQEND
  5
30D
330
30A
100
AcDbEntity
  8
BEMA_U_00DFUNG
 62
     7
  0
POLYLINE
  5
30E
330
1F
100
AcDbEntity
  8
BEMA_U_00DFUNG
 62
     7
100
AcDb2dPolyline
 66
     1
 10
0.0
 20
0.0
 30
0.0
  0
VERTEX
  5
30F
330
30E
100
AcDbEntity
  8
BEMA_U_00DFUNG
 62
     7
100
AcDbVertex
100
AcDb2dVertex
 10
187.7258567944311
 20
234.4799700612803
 30
0.0
  0
VERTEX
  5
310
330
30E
100
AcDbEntity
  8
BEMA_U_00DFUNG
 62
     7
100
AcDbVertex
100
AcDb2dVertex
 10
187.7258567944311
 20
232.1375256174213
 30
0.0
  0
SEQEND
  5
311
330
30E
100
AcDbEntity
  8
BEMA_U_00DFUNG
 62
     7
  0
POLYLINE
  5
312
330
1F
100
AcDbEntity
  8
BEMA_U_00DFUNG
 62
     7
100
AcDb2dPolyline
 66
     1
 10
0.0
 20
0.0
 30
0.0
  0
VERTEX
  5
313
330
312
100
AcDbEntity
  8
BEMA_U_00DFUNG
 62
     7
100
AcDbVertex
100
AcDb2dVertex
 10
187.6750567944437
 20
234.4799700612803
 30
0.0
  0
VERTEX
  5
314
330
312
100
AcDbEntity
  8
BEMA_U_00DFUNG
 62
     7
100
AcDbVertex
100
AcDb2dVertex
 10
187.6750567944437
 20
231.7515867286292
 30
0.0
  0
SEQEND
  5
315
330
312
100
AcDbEntity
  8
BEMA_U_00DFUNG
 62
     7
  0
POLYLINE
  5
316
330
1F
100
AcDbEntity
  8
BEMA_U_00DFUNG
 62
     7
100
AcDb2dPolyline
 66
     1
 10
0.0
 20
0.0
 30
0.0
  0
VERTEX
  5
317
330
316
100
AcDbEntity
  8
BEMA_U_00DFUNG
 62
     7
100
AcDbVertex
100
AcDb2dVertex
 10
187.6242567944567
 20
234.4799700612803
 30
0.0
  0
VERTEX
  5
318
330
316
100
AcDbEntity
  8
BEMA_U_00DFUNG
 62
     7
100
AcDbVertex
100
AcDb2dVertex
 10
187.6242567944567
 20
231.3660006176142
 30
0.0
  0
SEQEND
  5
319
330
316
100
AcDbEntity
  8
BEMA_U_00DFUNG
 62
     7
  0
POLYLINE
  5
31A
330
1F
100
AcDbEntity
  8
BEMA_U_00DFUNG
 62
     7
100
AcDb2dPolyline
 66
     1
 10
0.0
 20
0.0
 30
0.0
  0
VERTEX
  5
31B
330
31A
100
AcDbEntity
  8
BEMA_U_00DFUNG
 62
     7
100
AcDbVertex
100
AcDb2dVertex
 10
187.5734567944693
 20
234.4799700612803
 30
0.0
  0
VERTEX
  5
31C
330
31A
100
AcDbEntity
  8
BEMA_U_00DFUNG
 62
     7
100
AcDbVertex
100
AcDb2dVertex
 10
187.5734567944693
 20
230.9797089510444
 30
0.0
  0
SEQEND
  5
31D
330
31A
100
AcDbEntity
  8
BEMA_U_00DFUNG
 62
     7
  0
POLYLINE
  5
31E
330
1F
100
AcDbEntity
  8
BEMA_U_00DFUNG
 62
     7
100
AcDb2dPolyline
 66
     1
 10
0.0
 20
0.0
 30
0.0
  0
VERTEX
  5
31F
330
31E
100
AcDbEntity
  8
BEMA_U_00DFUNG
 62
     7
100
AcDbVertex
100
AcDb2dVertex
 10
187.1159040168058
 20
234.4799700612803
 30
0.0
  0
VERTEX
  5
320
330
31E
100
AcDbEntity
  8
BEMA_U_00DFUNG
 62
     7
100
AcDbVertex
100
AcDb2dVertex
 10
187.1159040168058
 20
234.4528061723981
 30
0.0
  0
SEQEND
  5
321
330
31E
100
AcDbEntity
  8
BEMA_U_00DFUNG
 62
     7
  0
POLYLINE
  5
322
330
1F
100
AcDbEntity
  8
BEMA_U_00DFUNG
 62
     7
100
AcDb2dPolyline
 66
     1
 10
0.0
 20
0.0
 30
0.0
  0
VERTEX
  5
323
330
322
100
AcDbEntity
  8
BEMA_U_00DFUNG
 62
     7
100
AcDbVertex
100
AcDb2dVertex
 10
187.1159040168058
 20
234.4799700612803
 30
0.0
  0
VERTEX
  5
324
330
322
100
AcDbEntity
  8
BEMA_U_00DFUNG
 62
     7
100
AcDbVertex
100
AcDb2dVertex
 10
187.1159040168058
 20
234.4528061723981
 30
0.0
  0
SEQEND
  5
325
330
322
100
AcDbEntity
  8
BEMA_U_00DFUNG
 62
     7
  0
POLYLINE
  5
326
330
1F
100
AcDbEntity
  8
BEMA_U_00DFUNG
 62
     7
100
AcDb2dPolyline
 66
     1
 10
0.0
 20
0.0
 30
0.0
  0
VERTEX
  5
327
330
326
100
AcDbEntity
  8
BEMA_U_00DFUNG
 62
     7
100
AcDbVertex
100
AcDb2dVertex
 10
187.1667040167931
 20
234.4799700612803
 30
0.0
  0
VERTEX
  5
328
330
326
100
AcDbEntity
  8
BEMA_U_00DFUNG
 62
     7
100
AcDbVertex
100
AcDb2dVertex
 10
187.1667040167931
 20
234.0672200613834
 30
0.0
  0
SEQEND
  5
329
330
326
100
AcDbEntity
  8
BEMA_U_00DFUNG
 62
     7
  0
POLYLINE
  5
32A
330
1F
100
AcDbEntity
  8
BEMA_U_00DFUNG
 62
     7
100
AcDb2dPolyline
 66
     1
 10
0.0
 20
0.0
 30
0.0
  0
VERTEX
  5
32B
330
32A
100
AcDbEntity
  8
BEMA_U_00DFUNG
 62
     7
100
AcDbVertex
100
AcDb2dVertex
 10
187.2175040167805
 20
234.4799700612803
 30
0.0
  0
VERTEX
  5
32C
330
32A
100
AcDbEntity
  8
BEMA_U_00DFUNG
 62
     7
100
AcDbVertex
100
AcDb2dVertex
 10
187.2175040167805
 20
233.6809283948133
 30
0.0
  0
SEQEND
  5
32D
330
32A
100
AcDbEntity
  8
BEMA_U_00DFUNG
 62
     7
  0
POLYLINE
  5
32E
330
1F
100
AcDbEntity
  8
BEMA_U_00DFUNG
 62
     7
100
AcDb2dPolyline
 66
     1
 10
0.0
 20
0.0
 30
0.0
  0
VERTEX
  5
32F
330
32E
100
AcDbEntity
  8
BEMA_U_00DFUNG
 62
     7
100
AcDbVertex
100
AcDb2dVertex
 10
187.2683040167679
 20
234.4799700612803
 30
0.0
  0
VERTEX
  5
330
330
32E
100
AcDbEntity
  8
BEMA_U_00DFUNG
 62
     7
100
AcDbVertex
100
AcDb2dVertex
 10
187.2683040167679
 20
233.2949895060212
 30
0.0
  0
SEQEND
  5
331
330
32E
100
AcDbEntity
  8
BEMA_U_00DFUNG
 62
     7
  0
POLYLINE
  5
332
330
1F
100
AcDbEntity
  8
BEMA_U_00DFUNG
 62
     7
100
AcDb2dPolyline
 66
     1
 10
0.0
 20
0.0
 30
0.0
  0
VERTEX
  5
333
330
332
100
AcDbEntity
  8
BEMA_U_00DFUNG
 62
     7
100
AcDbVertex
100
AcDb2dVertex
 10
187.3194567945327
 20
234.4799700612803
 30
0.0
  0
VERTEX
  5
334
330
332
100
AcDbEntity
  8
BEMA_U_00DFUNG
 62
     7
100
AcDbVertex
100
AcDb2dVertex
 10
187.3194567945327
 20
232.9094033950062
 30
0.0
  0
SEQEND
  5
335
330
332
100
AcDbEntity
  8
BEMA_U_00DFUNG
 62
     7
  0
POLYLINE
  5
336
330
1F
100
AcDbEntity
  8
BEMA_U_00DFUNG
 62
     7
100
AcDb2dPolyline
 66
     1
 10
0.0
 20
0.0
 30
0.0
  0
VERTEX
  5
337
330
336
100
AcDbEntity
  8
BEMA_U_00DFUNG
 62
     7
100
AcDbVertex
100
AcDb2dVertex
 10
187.3702567945201
 20
234.4799700612803
 30
0.0
  0
VERTEX
  5
338
330
336
100
AcDbEntity
  8
BEMA_U_00DFUNG
 62
     7
100
AcDbVertex
100
AcDb2dVertex
 10
187.3702567945201
 20
232.5238172839915
 30
0.0
  0
SEQEND
  5
339
330
336
100
AcDbEntity
  8
BEMA_U_00DFUNG
 62
     7
  0
POLYLINE
  5
33A
330
1F
100
AcDbEntity
  8
BEMA_U_00DFUNG
 62
     7
100
AcDb2dPolyline
 66
     1
 10
0.0
 20
0.0
 30
0.0
  0
VERTEX
  5
33B
330
33A
100
AcDbEntity
  8
BEMA_U_00DFUNG
 62
     7
100
AcDbVertex
100
AcDb2dVertex
 10
187.4210567945075
 20
234.4799700612803
 30
0.0
  0
VERTEX
  5
33C
330
33A
100
AcDbEntity
  8
BEMA_U_00DFUNG
 62
     7
100
AcDbVertex
100
AcDb2dVertex
 10
187.4210567945075
 20
232.1375256174213
 30
0.0
  0
SEQEND
  5
33D
330
33A
100
AcDbEntity
  8
BEMA_U_00DFUNG
 62
     7
  0
POLYLINE
  5
33E
330
1F
100
AcDbEntity
  8
BEMA_U_00DFUNG
 62
     7
100
AcDb2dPolyline
 66
     1
 10
0.0
 20
0.0
 30
0.0
  0
VERTEX
  5
33F
330
33E
100
AcDbEntity
  8
BEMA_U_00DFUNG
 62
     7
100
AcDbVertex
100
AcDb2dVertex
 10
187.4718567944946
 20
234.4799700612803
 30
0.0
  0
VERTEX
  5
340
330
33E
100
AcDbEntity
  8
BEMA_U_00DFUNG
 62
     7
100
AcDbVertex
100
AcDb2dVertex
 10
187.4718567944946
 20
231.7515867286292
 30
0.0
  0
SEQEND
  5
341
330
33E
100
AcDbEntity
  8
BEMA_U_00DFUNG
 62
     7
  0
POLYLINE
  5
342
330
1F
100
AcDbEntity
  8
BEMA_U_00DFUNG
 62
     7
100
AcDb2dPolyline
 66
     1
 10
0.0
 20
0.0
 30
0.0
  0
VERTEX
  5
343
330
342
100
AcDbEntity
  8
BEMA_U_00DFUNG
 62
     7
100
AcDbVertex
100
AcDb2dVertex
 10
187.5226567944819
 20
234.4799700612803
 30
0.0
  0
VERTEX
  5
344
330
342
100
AcDbEntity
  8
BEMA_U_00DFUNG
 62
     7
100
AcDbVertex
100
AcDb2dVertex
 10
187.5226567944819
 20
231.3660006176142
 30
0.0
  0
SEQEND
  5
345
330
342
100
AcDbEntity
  8
BEMA_U_00DFUNG
 62
     7
  0
POLYLINE
  5
346
330
1F
100
AcDbEntity
  8
BEMA_U_00DFUNG
 62
     7
100
AcDb2dPolyline
 66
     1
 10
0.0
 20
0.0
 30
0.0
  0
VERTEX
  5
347
330
346
100
AcDbEntity
  8
BEMA_U_00DFUNG
 62
     7
100
AcDbVertex
100
AcDb2dVertex
 10
187.5734567944693
 20
234.4799700612803
 30
0.0
  0
VERTEX
  5
348
330
346
100
AcDbEntity
  8
BEMA_U_00DFUNG
 62
     7
100
AcDbVertex
100
AcDb2dVertex
 10
187.5734567944693
 20
230.9797089510444
 30
0.0
  0
SEQEND
  5
349
330
346
100
AcDbEntity
  8
BEMA_U_00DFUNG
 62
     7
  0
POLYLINE
  5
34A
330
1F
100
AcDbEntity
  8
BEMA_U_00DFUNG
 62
     7
100
AcDb2dPolyline
 66
     1
 10
0.0
 20
0.0
 30
0.0
  0
VERTEX
  5
34B
330
34A
100
AcDbEntity
  8
BEMA_U_00DFUNG
 62
     7
100
AcDbVertex
100
AcDb2dVertex
 10
187.5734567944693
 20
227.9800395073496
 30
0.0
  0
VERTEX
  5
34C
330
34A
100
AcDbEntity
  8
BEMA_U_00DFUNG
 62
     7
100
AcDbVertex
100
AcDb2dVertex
 10
187.1123762390291
 20
224.4801311748912
 30
0.0
  0
VERTEX
  5
34D
330
34A
100
AcDbEntity
  8
BEMA_U_00DFUNG
 62
     7
100
AcDbVertex
100
AcDb2dVertex
 10
188.0345373499095
 20
224.4801311748912
 30
0.0
  0
VERTEX
  5
34E
330
34A
100
AcDbEntity
  8
BEMA_U_00DFUNG
 62
     7
100
AcDbVertex
100
AcDb2dVertex
 10
187.5734567944693
 20
227.9800395073496
 30
0.0
  0
SEQEND
  5
34F
330
34A
100
AcDbEntity
  8
BEMA_U_00DFUNG
 62
     7
  0
POLYLINE
  5
350
330
1F
100
AcDbEntity
  8
BEMA_U_00DFUNG
 62
     7
100
AcDb2dPolyline
 66
     1
 10
0.0
 20
0.0
 30
0.0
  0
VERTEX
  5
351
330
350
100
AcDbEntity
  8
BEMA_U_00DFUNG
 62
     7
100
AcDbVertex
100
AcDb2dVertex
 10
187.1159040168058
 20
224.4801311748912
 30
0.0
  0
VERTEX
  5
352
330
350
100
AcDbEntity
  8
BEMA_U_00DFUNG
 62
     7
100
AcDbVertex
100
AcDb2dVertex
 10
187.1159040168058
 20
224.5072950637734
 30
0.0
  0
SEQEND
  5
353
330
350
100
AcDbEntity
  8
BEMA_U_00DFUNG
 62
     7
  0
POLYLINE
  5
354
330
1F
100
AcDbEntity
  8
BEMA_U_00DFUNG
 62
     7
100
AcDb2dPolyline
 66
     1
 10
0.0
 20
0.0
 30
0.0
  0
VERTEX
  5
355
330
354
100
AcDbEntity
  8
BEMA_U_00DFUNG
 62
     7
100
AcDbVertex
100
AcDb2dVertex
 10
187.1159040168058
 20
224.4801311748912
 30
0.0
  0
VERTEX
  5
356
330
354
100
AcDbEntity
  8
BEMA_U_00DFUNG
 62
     7
100
AcDbVertex
100
AcDb2dVertex
 10
187.1159040168058
 20
224.5072950637734
 30
0.0
  0
SEQEND
  5
357
330
354
100
AcDbEntity
  8
BEMA_U_00DFUNG
 62
     7
  0
POLYLINE
  5
358
330
1F
100
AcDbEntity
  8
BEMA_U_00DFUNG
 62
     7
100
AcDb2dPolyline
 66
     1
 10
0.0
 20
0.0
 30
0.0
  0
VERTEX
  5
359
330
358
100
AcDbEntity
  8
BEMA_U_00DFUNG
 62
     7
100
AcDbVertex
100
AcDb2dVertex
 10
187.1667040167931
 20
224.4801311748912
 30
0.0
  0
VERTEX
  5
35A
330
358
100
AcDbEntity
  8
BEMA_U_00DFUNG
 62
     7
100
AcDbVertex
100
AcDb2dVertex
 10
187.1667040167931
 20
224.8932339525658
 30
0.0
  0
SEQEND
  5
35B
330
358
100
AcDbEntity
  8
BEMA_U_00DFUNG
 62
     7
  0
POLYLINE
  5
35C
330
1F
100
AcDbEntity
  8
BEMA_U_00DFUNG
 62
     7
100
AcDb2dPolyline
 66
     1
 10
0.0
 20
0.0
 30
0.0
  0
VERTEX
  5
35D
330
35C
100
AcDbEntity
  8
BEMA_U_00DFUNG
 62
     7
100
AcDbVertex
100
AcDb2dVertex
 10
187.2175040167805
 20
224.4801311748912
 30
0.0
  0
VERTEX
  5
35E
330
35C
100
AcDbEntity
  8
BEMA_U_00DFUNG
 62
     7
100
AcDbVertex
100
AcDb2dVertex
 10
187.2175040167805
 20
225.2788200635808
 30
0.0
  0
SEQEND
  5
35F
330
35C
100
AcDbEntity
  8
BEMA_U_00DFUNG
 62
     7
  0
POLYLINE
  5
360
330
1F
100
AcDbEntity
  8
BEMA_U_00DFUNG
 62
     7
100
AcDb2dPolyline
 66
     1
 10
0.0
 20
0.0
 30
0.0
  0
VERTEX
  5
361
330
360
100
AcDbEntity
  8
BEMA_U_00DFUNG
 62
     7
100
AcDbVertex
100
AcDb2dVertex
 10
187.2683040167679
 20
224.4801311748912
 30
0.0
  0
VERTEX
  5
362
330
360
100
AcDbEntity
  8
BEMA_U_00DFUNG
 62
     7
100
AcDbVertex
100
AcDb2dVertex
 10
187.2683040167679
 20
225.6651117301506
 30
0.0
  0
SEQEND
  5
363
330
360
100
AcDbEntity
  8
BEMA_U_00DFUNG
 62
     7
  0
POLYLINE
  5
364
330
1F
100
AcDbEntity
  8
BEMA_U_00DFUNG
 62
     7
100
AcDb2dPolyline
 66
     1
 10
0.0
 20
0.0
 30
0.0
  0
VERTEX
  5
365
330
364
100
AcDbEntity
  8
BEMA_U_00DFUNG
 62
     7
100
AcDbVertex
100
AcDb2dVertex
 10
187.3194567945327
 20
224.4801311748912
 30
0.0
  0
VERTEX
  5
366
330
364
100
AcDbEntity
  8
BEMA_U_00DFUNG
 62
     7
100
AcDbVertex
100
AcDb2dVertex
 10
187.3194567945327
 20
226.0506978411653
 30
0.0
  0
SEQEND
  5
367
330
364
100
AcDbEntity
  8
BEMA_U_00DFUNG
 62
     7
  0
POLYLINE
  5
368
330
1F
100
AcDbEntity
  8
BEMA_U_00DFUNG
 62
     7
100
AcDb2dPolyline
 66
     1
 10
0.0
 20
0.0
 30
0.0
  0
VERTEX
  5
369
330
368
100
AcDbEntity
  8
BEMA_U_00DFUNG
 62
     7
100
AcDbVertex
100
AcDb2dVertex
 10
187.3702567945201
 20
224.4801311748912
 30
0.0
  0
VERTEX
  5
36A
330
368
100
AcDbEntity
  8
BEMA_U_00DFUNG
 62
     7
100
AcDbVertex
100
AcDb2dVertex
 10
187.3702567945201
 20
226.4366367299577
 30
0.0
  0
SEQEND
  5
36B
330
368
100
AcDbEntity
  8
BEMA_U_00DFUNG
 62
     7
  0
POLYLINE
  5
36C
330
1F
100
AcDbEntity
  8
BEMA_U_00DFUNG
 62
     7
100
AcDb2dPolyline
 66
     1
 10
0.0
 20
0.0
 30
0.0
  0
VERTEX
  5
36D
330
36C
100
AcDbEntity
  8
BEMA_U_00DFUNG
 62
     7
100
AcDbVertex
100
AcDb2dVertex
 10
187.4210567945075
 20
224.4801311748912
 30
0.0
  0
VERTEX
  5
36E
330
36C
100
AcDbEntity
  8
BEMA_U_00DFUNG
 62
     7
100
AcDbVertex
100
AcDb2dVertex
 10
187.4210567945075
 20
226.8222228409727
 30
0.0
  0
SEQEND
  5
36F
330
36C
100
AcDbEntity
  8
BEMA_U_00DFUNG
 62
     7
  0
POLYLINE
  5
370
330
1F
100
AcDbEntity
  8
BEMA_U_00DFUNG
 62
     7
100
AcDb2dPolyline
 66
     1
 10
0.0
 20
0.0
 30
0.0
  0
VERTEX
  5
371
330
370
100
AcDbEntity
  8
BEMA_U_00DFUNG
 62
     7
100
AcDbVertex
100
AcDb2dVertex
 10
187.4718567944946
 20
224.4801311748912
 30
0.0
  0
VERTEX
  5
372
330
370
100
AcDbEntity
  8
BEMA_U_00DFUNG
 62
     7
100
AcDbVertex
100
AcDb2dVertex
 10
187.4718567944946
 20
227.2085145075426
 30
0.0
  0
SEQEND
  5
373
330
370
100
AcDbEntity
  8
BEMA_U_00DFUNG
 62
     7
  0
POLYLINE
  5
374
330
1F
100
AcDbEntity
  8
BEMA_U_00DFUNG
 62
     7
100
AcDb2dPolyline
 66
     1
 10
0.0
 20
0.0
 30
0.0
  0
VERTEX
  5
375
330
374
100
AcDbEntity
  8
BEMA_U_00DFUNG
 62
     7
100
AcDbVertex
100
AcDb2dVertex
 10
187.5226567944819
 20
224.4801311748912
 30
0.0
  0
VERTEX
  5
376
330
374
100
AcDbEntity
  8
BEMA_U_00DFUNG
 62
     7
100
AcDbVertex
100
AcDb2dVertex
 10
187.5226567944819
 20
227.5941006185572
 30
0.0
  0
SEQEND
  5
377
330
374
100
AcDbEntity
  8
BEMA_U_00DFUNG
 62
     7
  0
POLYLINE
  5
378
330
1F
100
AcDbEntity
  8
BEMA_U_00DFUNG
 62
     7
100
AcDb2dPolyline
 66
     1
 10
0.0
 20
0.0
 30
0.0
  0
VERTEX
  5
379
330
378
100
AcDbEntity
  8
BEMA_U_00DFUNG
 62
     7
100
AcDbVertex
100
AcDb2dVertex
 10
187.5734567944693
 20
224.4801311748912
 30
0.0
  0
VERTEX
  5
37A
330
378
100
AcDbEntity
  8
BEMA_U_00DFUNG
 62
     7
100
AcDbVertex
100
AcDb2dVertex
 10
187.5734567944693
 20
227.9800395073496
 30
0.0
  0
SEQEND
  5
37B
330
378
100
AcDbEntity
  8
BEMA_U_00DFUNG
 62
     7
  0
POLYLINE
  5
37C
330
1F
100
AcDbEntity
  8
BEMA_U_00DFUNG
 62
     7
100
AcDb2dPolyline
 66
     1
 10
0.0
 20
0.0
 30
0.0
  0
VERTEX
  5
37D
330
37C
100
AcDbEntity
  8
BEMA_U_00DFUNG
 62
     7
100
AcDbVertex
100
AcDb2dVertex
 10
188.0303040165774
 20
224.4801311748912
 30
0.0
  0
VERTEX
  5
37E
330
37C
100
AcDbEntity
  8
BEMA_U_00DFUNG
 62
     7
100
AcDbVertex
100
AcDb2dVertex
 10
188.0303040165774
 20
224.5072950637734
 30
0.0
  0
SEQEND
  5
37F
330
37C
100
AcDbEntity
  8
BEMA_U_00DFUNG
 62
     7
  0
POLYLINE
  5
380
330
1F
100
AcDbEntity
  8
BEMA_U_00DFUNG
 62
     7
100
AcDb2dPolyline
 66
     1
 10
0.0
 20
0.0
 30
0.0
  0
VERTEX
  5
381
330
380
100
AcDbEntity
  8
BEMA_U_00DFUNG
 62
     7
100
AcDbVertex
100
AcDb2dVertex
 10
188.0303040165774
 20
224.4801311748912
 30
0.0
  0
VERTEX
  5
382
330
380
100
AcDbEntity
  8
BEMA_U_00DFUNG
 62
     7
100
AcDbVertex
100
AcDb2dVertex
 10
188.0303040165774
 20
224.5072950637734
 30
0.0
  0
SEQEND
  5
383
330
380
100
AcDbEntity
  8
BEMA_U_00DFUNG
 62
     7
  0
POLYLINE
  5
384
330
1F
100
AcDbEntity
  8
BEMA_U_00DFUNG
 62
     7
100
AcDb2dPolyline
 66
     1
 10
0.0
 20
0.0
 30
0.0
  0
VERTEX
  5
385
330
384
100
AcDbEntity
  8
BEMA_U_00DFUNG
 62
     7
100
AcDbVertex
100
AcDb2dVertex
 10
187.97950401659
 20
224.4801311748912
 30
0.0
  0
VERTEX
  5
386
330
384
100
AcDbEntity
  8
BEMA_U_00DFUNG
 62
     7
100
AcDbVertex
100
AcDb2dVertex
 10
187.97950401659
 20
224.8932339525658
 30
0.0
  0
SEQEND
  5
387
330
384
100
AcDbEntity
  8
BEMA_U_00DFUNG
 62
     7
  0
POLYLINE
  5
388
330
1F
100
AcDbEntity
  8
BEMA_U_00DFUNG
 62
     7
100
AcDb2dPolyline
 66
     1
 10
0.0
 20
0.0
 30
0.0
  0
VERTEX
  5
389
330
388
100
AcDbEntity
  8
BEMA_U_00DFUNG
 62
     7
100
AcDbVertex
100
AcDb2dVertex
 10
187.9287040166026
 20
224.4801311748912
 30
0.0
  0
VERTEX
  5
38A
330
388
100
AcDbEntity
  8
BEMA_U_00DFUNG
 62
     7
100
AcDbVertex
100
AcDb2dVertex
 10
187.9287040166026
 20
225.2788200635808
 30
0.0
  0
SEQEND
  5
38B
330
388
100
AcDbEntity
  8
BEMA_U_00DFUNG
 62
     7
  0
POLYLINE
  5
38C
330
1F
100
AcDbEntity
  8
BEMA_U_00DFUNG
 62
     7
100
AcDb2dPolyline
 66
     1
 10
0.0
 20
0.0
 30
0.0
  0
VERTEX
  5
38D
330
38C
100
AcDbEntity
  8
BEMA_U_00DFUNG
 62
     7
100
AcDbVertex
100
AcDb2dVertex
 10
187.8779040166152
 20
224.4801311748912
 30
0.0
  0
VERTEX
  5
38E
330
38C
100
AcDbEntity
  8
BEMA_U_00DFUNG
 62
     7
100
AcDbVertex
100
AcDb2dVertex
 10
187.8779040166152
 20
225.6651117301506
 30
0.0
  0
SEQEND
  5
38F
330
38C
100
AcDbEntity
  8
BEMA_U_00DFUNG
 62
     7
  0
POLYLINE
  5
390
330
1F
100
AcDbEntity
  8
BEMA_U_00DFUNG
 62
     7
100
AcDb2dPolyline
 66
     1
 10
0.0
 20
0.0
 30
0.0
  0
VERTEX
  5
391
330
390
100
AcDbEntity
  8
BEMA_U_00DFUNG
 62
     7
100
AcDbVertex
100
AcDb2dVertex
 10
187.8271040166281
 20
224.4801311748912
 30
0.0
  0
VERTEX
  5
392
330
390
100
AcDbEntity
  8
BEMA_U_00DFUNG
 62
     7
100
AcDbVertex
100
AcDb2dVertex
 10
187.8271040166281
 20
226.0506978411653
 30
0.0
  0
SEQEND
  5
393
330
390
100
AcDbEntity
  8
BEMA_U_00DFUNG
 62
     7
  0
POLYLINE
  5
394
330
1F
100
AcDbEntity
  8
BEMA_U_00DFUNG
 62
     7
100
AcDb2dPolyline
 66
     1
 10
0.0
 20
0.0
 30
0.0
  0
VERTEX
  5
395
330
394
100
AcDbEntity
  8
BEMA_U_00DFUNG
 62
     7
100
AcDbVertex
100
AcDb2dVertex
 10
187.7766567944185
 20
224.4801311748912
 30
0.0
  0
VERTEX
  5
396
330
394
100
AcDbEntity
  8
BEMA_U_00DFUNG
 62
     7
100
AcDbVertex
100
AcDb2dVertex
 10
187.7766567944185
 20
226.4366367299577
 30
0.0
  0
SEQEND
  5
397
330
394
100
AcDbEntity
  8
BEMA_U_00DFUNG
 62
     7
  0
POLYLINE
  5
398
330
1F
100
AcDbEntity
  8
BEMA_U_00DFUNG
 62
     7
100
AcDb2dPolyline
 66
     1
 10
0.0
 20
0.0
 30
0.0
  0
VERTEX
  5
399
330
398
100
AcDbEntity
  8
BEMA_U_00DFUNG
 62
     7
100
AcDbVertex
100
AcDb2dVertex
 10
187.7258567944311
 20
224.4801311748912
 30
0.0
  0
VERTEX
  5
39A
330
398
100
AcDbEntity
  8
BEMA_U_00DFUNG
 62
     7
100
AcDbVertex
100
AcDb2dVertex
 10
187.7258567944311
 20
226.8222228409727
 30
0.0
  0
SEQEND
  5
39B
330
398
100
AcDbEntity
  8
BEMA_U_00DFUNG
 62
     7
  0
POLYLINE
  5
39C
330
1F
100
AcDbEntity
  8
BEMA_U_00DFUNG
 62
     7
100
AcDb2dPolyline
 66
     1
 10
0.0
 20
0.0
 30
0.0
  0
VERTEX
  5
39D
330
39C
100
AcDbEntity
  8
BEMA_U_00DFUNG
 62
     7
100
AcDbVertex
100
AcDb2dVertex
 10
187.6750567944437
 20
224.4801311748912
 30
0.0
  0
VERTEX
  5
39E
330
39C
100
AcDbEntity
  8
BEMA_U_00DFUNG
 62
     7
100
AcDbVertex
100
AcDb2dVertex
 10
187.6750567944437
 20
227.2085145075426
 30
0.0
  0
SEQEND
  5
39F
330
39C
100
AcDbEntity
  8
BEMA_U_00DFUNG
 62
     7
  0
POLYLINE
  5
3A0
330
1F
100
AcDbEntity
  8
BEMA_U_00DFUNG
 62
     7
100
AcDb2dPolyline
 66
     1
 10
0.0
 20
0.0
 30
0.0
  0
VERTEX
  5
3A1
330
3A0
100
AcDbEntity
  8
BEMA_U_00DFUNG
 62
     7
100
AcDbVertex
100
AcDb2dVertex
 10
187.6242567944567
 20
224.4801311748912
 30
0.0
  0
VERTEX
  5
3A2
330
3A0
100
AcDbEntity
  8
BEMA_U_00DFUNG
 62
     7
100
AcDbVertex
100
AcDb2dVertex
 10
187.6242567944567
 20
227.5941006185572
 30
0.0
  0
SEQEND
  5
3A3
330
3A0
100
AcDbEntity
  8
BEMA_U_00DFUNG
 62
     7
  0
POLYLINE
  5
3A4
330
1F
100
AcDbEntity
  8
BEMA_U_00DFUNG
 62
     7
100
AcDb2dPolyline
 66
     1
 10
0.0
 20
0.0
 30
0.0
  0
VERTEX
  5
3A5
330
3A4
100
AcDbEntity
  8
BEMA_U_00DFUNG
 62
     7
100
AcDbVertex
100
AcDb2dVertex
 10
187.5734567944693
 20
224.4801311748912
 30
0.0
  0
VERTEX
  5
3A6
330
3A4
100
AcDbEntity
  8
BEMA_U_00DFUNG
 62
     7
100
AcDbVertex
100
AcDb2dVertex
 10
187.5734567944693
 20
227.9800395073496
 30
0.0
  0
SEQEND
  5
3A7
330
3A4
100
AcDbEntity
  8
BEMA_U_00DFUNG
 62
     7
  0
POLYLINE
  5
3A8
330
1F
100
AcDbEntity
  8
BEMA_U_00DFUNG
 62
     7
100
AcDb2dPolyline
 66
     1
 10
0.0
 20
0.0
 30
0.0
  0
VERTEX
  5
3A9
330
3A8
100
AcDbEntity
  8
BEMA_U_00DFUNG
 62
     7
100
AcDbVertex
100
AcDb2dVertex
 10
177.5736179080802
 20
230.9797089510444
 30
0.0
  0
VERTEX
  5
3AA
330
3A8
100
AcDbEntity
  8
BEMA_U_00DFUNG
 62
     7
100
AcDbVertex
100
AcDb2dVertex
 10
177.5736179080802
 20
195.6049172932212
 30
0.0
  0
SEQEND
  5
3AB
330
3A8
100
AcDbEntity
  8
BEMA_U_00DFUNG
 62
     7
  0
POLYLINE
  5
3AC
330
1F
100
AcDbEntity
  8
BEMA_U_00DFUNG
 62
     7
100
AcDb2dPolyline
 66
     1
 10
0.0
 20
0.0
 30
0.0
  0
VERTEX
  5
3AD
330
3AC
100
AcDbEntity
  8
BEMA_U_00DFUNG
 62
     7
100
AcDbVertex
100
AcDb2dVertex
 10
27.57356516780273
 20
230.9797089510444
 30
0.0
  0
VERTEX
  5
3AE
330
3AC
100
AcDbEntity
  8
BEMA_U_00DFUNG
 62
     7
100
AcDbVertex
100
AcDb2dVertex
 10
27.57356516780273
 20
195.6049172932212
 30
0.0
  0
SEQEND
  5
3AF
330
3AC
100
AcDbEntity
  8
BEMA_U_00DFUNG
 62
     7
  0
POLYLINE
  5
3B0
330
1F
100
AcDbEntity
  8
BEMA_U_00DFUNG
 62
     7
100
AcDb2dPolyline
 66
     1
 10
0.0
 20
0.0
 30
0.0
  0
VERTEX
  5
3B1
330
3B0
100
AcDbEntity
  8
BEMA_U_00DFUNG
 62
     7
100
AcDbVertex
100
AcDb2dVertex
 10
177.5736179080802
 20
197.604461737166
 30
0.0
  0
VERTEX
  5
3B2
330
3B0
100
AcDbEntity
  8
BEMA_U_00DFUNG
 62
     7
100
AcDbVertex
100
AcDb2dVertex
 10
27.57356516780273
 20
197.604461737166
 30
0.0
  0
SEQEND
  5
3B3
330
3B0
100
AcDbEntity
  8
BEMA_U_00DFUNG
 62
     7
  0
POLYLINE
  5
3B4
330
1F
100
AcDbEntity
  8
BEMA_U_00DFUNG
 62
     7
100
AcDb2dPolyline
 66
     1
 10
0.0
 20
0.0
 30
0.0
  0
VERTEX
  5
3B5
330
3B4
100
AcDbEntity
  8
BEMA_U_00DFUNG
 62
     7
100
AcDbVertex
100
AcDb2dVertex
 10
177.5736179080802
 20
197.604461737166
 30
0.0
  0
VERTEX
  5
3B6
330
3B4
100
AcDbEntity
  8
BEMA_U_00DFUNG
 62
     7
100
AcDbVertex
100
AcDb2dVertex
 10
174.0733567978443
 20
198.0655422926062
 30
0.0
  0
VERTEX
  5
3B7
330
3B4
100
AcDbEntity
  8
BEMA_U_00DFUNG
 62
     7
100
AcDbVertex
100
AcDb2dVertex
 10
174.0733567978443
 20
197.1437339595032
 30
0.0
  0
VERTEX
  5
3B8
330
3B4
100
AcDbEntity
  8
BEMA_U_00DFUNG
 62
     7
100
AcDbVertex
100
AcDb2dVertex
 10
177.5736179080802
 20
197.604461737166
 30
0.0
  0
SEQEND
  5
3B9
330
3B4
100
AcDbEntity
  8
BEMA_U_00DFUNG
 62
     7
  0
POLYLINE
  5
3BA
330
1F
100
AcDbEntity
  8
BEMA_U_00DFUNG
 62
     7
100
AcDb2dPolyline
 66
     1
 10
0.0
 20
0.0
 30
0.0
  0
VERTEX
  5
3BB
330
3BA
100
AcDbEntity
  8
BEMA_U_00DFUNG
 62
     7
100
AcDbVertex
100
AcDb2dVertex
 10
174.0733567978443
 20
198.0620145148292
 30
0.0
  0
VERTEX
  5
3BC
330
3BA
100
AcDbEntity
  8
BEMA_U_00DFUNG
 62
     7
100
AcDbVertex
100
AcDb2dVertex
 10
174.1005206867265
 20
198.0620145148292
 30
0.0
  0
SEQEND
  5
3BD
330
3BA
100
AcDbEntity
  8
BEMA_U_00DFUNG
 62
     7
  0
POLYLINE
  5
3BE
330
1F
100
AcDbEntity
  8
BEMA_U_00DFUNG
 62
     7
100
AcDb2dPolyline
 66
     1
 10
0.0
 20
0.0
 30
0.0
  0
VERTEX
  5
3BF
330
3BE
100
AcDbEntity
  8
BEMA_U_00DFUNG
 62
     7
100
AcDbVertex
100
AcDb2dVertex
 10
174.0733567978443
 20
198.0620145148292
 30
0.0
  0
VERTEX
  5
3C0
330
3BE
100
AcDbEntity
  8
BEMA_U_00DFUNG
 62
     7
100
AcDbVertex
100
AcDb2dVertex
 10
174.1005206867265
 20
198.0620145148292
 30
0.0
  0
SEQEND
  5
3C1
330
3BE
100
AcDbEntity
  8
BEMA_U_00DFUNG
 62
     7
  0
POLYLINE
  5
3C2
330
1F
100
AcDbEntity
  8
BEMA_U_00DFUNG
 62
     7
100
AcDb2dPolyline
 66
     1
 10
0.0
 20
0.0
 30
0.0
  0
VERTEX
  5
3C3
330
3C2
100
AcDbEntity
  8
BEMA_U_00DFUNG
 62
     7
100
AcDbVertex
100
AcDb2dVertex
 10
174.0733567978443
 20
198.0112145148418
 30
0.0
  0
VERTEX
  5
3C4
330
3C2
100
AcDbEntity
  8
BEMA_U_00DFUNG
 62
     7
100
AcDbVertex
100
AcDb2dVertex
 10
174.4868123532964
 20
198.0112145148418
 30
0.0
  0
SEQEND
  5
3C5
330
3C2
100
AcDbEntity
  8
BEMA_U_00DFUNG
 62
     7
  0
POLYLINE
  5
3C6
330
1F
100
AcDbEntity
  8
BEMA_U_00DFUNG
 62
     7
100
AcDb2dPolyline
 66
     1
 10
0.0
 20
0.0
 30
0.0
  0
VERTEX
  5
3C7
330
3C6
100
AcDbEntity
  8
BEMA_U_00DFUNG
 62
     7
100
AcDbVertex
100
AcDb2dVertex
 10
174.0733567978443
 20
197.9604145148548
 30
0.0
  0
VERTEX
  5
3C8
330
3C6
100
AcDbEntity
  8
BEMA_U_00DFUNG
 62
     7
100
AcDbVertex
100
AcDb2dVertex
 10
174.8720456865336
 20
197.9604145148548
 30
0.0
  0
SEQEND
  5
3C9
330
3C6
100
AcDbEntity
  8
BEMA_U_00DFUNG
 62
     7
  0
POLYLINE
  5
3CA
330
1F
100
AcDbEntity
  8
BEMA_U_00DFUNG
 62
     7
100
AcDb2dPolyline
 66
     1
 10
0.0
 20
0.0
 30
0.0
  0
VERTEX
  5
3CB
330
3CA
100
AcDbEntity
  8
BEMA_U_00DFUNG
 62
     7
100
AcDbVertex
100
AcDb2dVertex
 10
174.0733567978443
 20
197.9096145148674
 30
0.0
  0
VERTEX
  5
3CC
330
3CA
100
AcDbEntity
  8
BEMA_U_00DFUNG
 62
     7
100
AcDbVertex
100
AcDb2dVertex
 10
175.2583373531038
 20
197.9096145148674
 30
0.0
  0
SEQEND
  5
3CD
330
3CA
100
AcDbEntity
  8
BEMA_U_00DFUNG
 62
     7
  0
POLYLINE
  5
3CE
330
1F
100
AcDbEntity
  8
BEMA_U_00DFUNG
 62
     7
100
AcDb2dPolyline
 66
     1
 10
0.0
 20
0.0
 30
0.0
  0
VERTEX
  5
3CF
330
3CE
100
AcDbEntity
  8
BEMA_U_00DFUNG
 62
     7
100
AcDbVertex
100
AcDb2dVertex
 10
174.0733567978443
 20
197.85881451488
 30
0.0
  0
VERTEX
  5
3D0
330
3CE
100
AcDbEntity
  8
BEMA_U_00DFUNG
 62
     7
100
AcDbVertex
100
AcDb2dVertex
 10
175.6439234641184
 20
197.85881451488
 30
0.0
  0
SEQEND
  5
3D1
330
3CE
100
AcDbEntity
  8
BEMA_U_00DFUNG
 62
     7
  0
POLYLINE
  5
3D2
330
1F
100
AcDbEntity
  8
BEMA_U_00DFUNG
 62
     7
100
AcDb2dPolyline
 66
     1
 10
0.0
 20
0.0
 30
0.0
  0
VERTEX
  5
3D3
330
3D2
100
AcDbEntity
  8
BEMA_U_00DFUNG
 62
     7
100
AcDbVertex
100
AcDb2dVertex
 10
174.0733567978443
 20
197.8080145148926
 30
0.0
  0
VERTEX
  5
3D4
330
3D2
100
AcDbEntity
  8
BEMA_U_00DFUNG
 62
     7
100
AcDbVertex
100
AcDb2dVertex
 10
176.0302151306883
 20
197.8080145148926
 30
0.0
  0
SEQEND
  5
3D5
330
3D2
100
AcDbEntity
  8
BEMA_U_00DFUNG
 62
     7
  0
POLYLINE
  5
3D6
330
1F
100
AcDbEntity
  8
BEMA_U_00DFUNG
 62
     7
100
AcDb2dPolyline
 66
     1
 10
0.0
 20
0.0
 30
0.0
  0
VERTEX
  5
3D7
330
3D6
100
AcDbEntity
  8
BEMA_U_00DFUNG
 62
     7
100
AcDbVertex
100
AcDb2dVertex
 10
174.0733567978443
 20
197.7572145149053
 30
0.0
  0
VERTEX
  5
3D8
330
3D6
100
AcDbEntity
  8
BEMA_U_00DFUNG
 62
     7
100
AcDbVertex
100
AcDb2dVertex
 10
176.415801241703
 20
197.7572145149053
 30
0.0
  0
SEQEND
  5
3D9
330
3D6
100
AcDbEntity
  8
BEMA_U_00DFUNG
 62
     7
  0
POLYLINE
  5
3DA
330
1F
100
AcDbEntity
  8
BEMA_U_00DFUNG
 62
     7
100
AcDb2dPolyline
 66
     1
 10
0.0
 20
0.0
 30
0.0
  0
VERTEX
  5
3DB
330
3DA
100
AcDbEntity
  8
BEMA_U_00DFUNG
 62
     7
100
AcDbVertex
100
AcDb2dVertex
 10
174.0733567978443
 20
197.7060617371404
 30
0.0
  0
VERTEX
  5
3DC
330
3DA
100
AcDbEntity
  8
BEMA_U_00DFUNG
 62
     7
100
AcDbVertex
100
AcDb2dVertex
 10
176.8017401304957
 20
197.7060617371404
 30
0.0
  0
SEQEND
  5
3DD
330
3DA
100
AcDbEntity
  8
BEMA_U_00DFUNG
 62
     7
  0
POLYLINE
  5
3DE
330
1F
100
AcDbEntity
  8
BEMA_U_00DFUNG
 62
     7
100
AcDb2dPolyline
 66
     1
 10
0.0
 20
0.0
 30
0.0
  0
VERTEX
  5
3DF
330
3DE
100
AcDbEntity
  8
BEMA_U_00DFUNG
 62
     7
100
AcDbVertex
100
AcDb2dVertex
 10
174.0733567978443
 20
197.655261737153
 30
0.0
  0
VERTEX
  5
3E0
330
3DE
100
AcDbEntity
  8
BEMA_U_00DFUNG
 62
     7
100
AcDbVertex
100
AcDb2dVertex
 10
177.1873262415104
 20
197.655261737153
 30
0.0
  0
SEQEND
  5
3E1
330
3DE
100
AcDbEntity
  8
BEMA_U_00DFUNG
 62
     7
  0
POLYLINE
  5
3E2
330
1F
100
AcDbEntity
  8
BEMA_U_00DFUNG
 62
     7
100
AcDb2dPolyline
 66
     1
 10
0.0
 20
0.0
 30
0.0
  0
VERTEX
  5
3E3
330
3E2
100
AcDbEntity
  8
BEMA_U_00DFUNG
 62
     7
100
AcDbVertex
100
AcDb2dVertex
 10
174.0733567978443
 20
197.604461737166
 30
0.0
  0
VERTEX
  5
3E4
330
3E2
100
AcDbEntity
  8
BEMA_U_00DFUNG
 62
     7
100
AcDbVertex
100
AcDb2dVertex
 10
177.5736179080802
 20
197.604461737166
 30
0.0
  0
SEQEND
  5
3E5
330
3E2
100
AcDbEntity
  8
BEMA_U_00DFUNG
 62
     7
  0
POLYLINE
  5
3E6
330
1F
100
AcDbEntity
  8
BEMA_U_00DFUNG
 62
     7
100
AcDb2dPolyline
 66
     1
 10
0.0
 20
0.0
 30
0.0
  0
VERTEX
  5
3E7
330
3E6
100
AcDbEntity
  8
BEMA_U_00DFUNG
 62
     7
100
AcDbVertex
100
AcDb2dVertex
 10
174.0733567978443
 20
197.1476145150579
 30
0.0
  0
VERTEX
  5
3E8
330
3E6
100
AcDbEntity
  8
BEMA_U_00DFUNG
 62
     7
100
AcDbVertex
100
AcDb2dVertex
 10
174.1005206867265
 20
197.1476145150579
 30
0.0
  0
SEQEND
  5
3E9
330
3E6
100
AcDbEntity
  8
BEMA_U_00DFUNG
 62
     7
  0
POLYLINE
  5
3EA
330
1F
100
AcDbEntity
  8
BEMA_U_00DFUNG
 62
     7
100
AcDb2dPolyline
 66
     1
 10
0.0
 20
0.0
 30
0.0
  0
VERTEX
  5
3EB
330
3EA
100
AcDbEntity
  8
BEMA_U_00DFUNG
 62
     7
100
AcDbVertex
100
AcDb2dVertex
 10
174.0733567978443
 20
197.1476145150579
 30
0.0
  0
VERTEX
  5
3EC
330
3EA
100
AcDbEntity
  8
BEMA_U_00DFUNG
 62
     7
100
AcDbVertex
100
AcDb2dVertex
 10
174.1005206867265
 20
197.1476145150579
 30
0.0
  0
SEQEND
  5
3ED
330
3EA
100
AcDbEntity
  8
BEMA_U_00DFUNG
 62
     7
  0
POLYLINE
  5
3EE
330
1F
100
AcDbEntity
  8
BEMA_U_00DFUNG
 62
     7
100
AcDb2dPolyline
 66
     1
 10
0.0
 20
0.0
 30
0.0
  0
VERTEX
  5
3EF
330
3EE
100
AcDbEntity
  8
BEMA_U_00DFUNG
 62
     7
100
AcDbVertex
100
AcDb2dVertex
 10
174.0733567978443
 20
197.1980617372676
 30
0.0
  0
VERTEX
  5
3F0
330
3EE
100
AcDbEntity
  8
BEMA_U_00DFUNG
 62
     7
100
AcDbVertex
100
AcDb2dVertex
 10
174.4868123532964
 20
197.1980617372676
 30
0.0
  0
SEQEND
  5
3F1
330
3EE
100
AcDbEntity
  8
BEMA_U_00DFUNG
 62
     7
  0
POLYLINE
  5
3F2
330
1F
100
AcDbEntity
  8
BEMA_U_00DFUNG
 62
     7
100
AcDb2dPolyline
 66
     1
 10
0.0
 20
0.0
 30
0.0
  0
VERTEX
  5
3F3
330
3F2
100
AcDbEntity
  8
BEMA_U_00DFUNG
 62
     7
100
AcDbVertex
100
AcDb2dVertex
 10
174.0733567978443
 20
197.2488617372546
 30
0.0
  0
VERTEX
  5
3F4
330
3F2
100
AcDbEntity
  8
BEMA_U_00DFUNG
 62
     7
100
AcDbVertex
100
AcDb2dVertex
 10
174.8720456865336
 20
197.2488617372546
 30
0.0
  0
SEQEND
  5
3F5
330
3F2
100
AcDbEntity
  8
BEMA_U_00DFUNG
 62
     7
  0
POLYLINE
  5
3F6
330
1F
100
AcDbEntity
  8
BEMA_U_00DFUNG
 62
     7
100
AcDb2dPolyline
 66
     1
 10
0.0
 20
0.0
 30
0.0
  0
VERTEX
  5
3F7
330
3F6
100
AcDbEntity
  8
BEMA_U_00DFUNG
 62
     7
100
AcDbVertex
100
AcDb2dVertex
 10
174.0733567978443
 20
197.299661737242
 30
0.0
  0
VERTEX
  5
3F8
330
3F6
100
AcDbEntity
  8
BEMA_U_00DFUNG
 62
     7
100
AcDbVertex
100
AcDb2dVertex
 10
175.2583373531038
 20
197.299661737242
 30
0.0
  0
SEQEND
  5
3F9
330
3F6
100
AcDbEntity
  8
BEMA_U_00DFUNG
 62
     7
  0
POLYLINE
  5
3FA
330
1F
100
AcDbEntity
  8
BEMA_U_00DFUNG
 62
     7
100
AcDb2dPolyline
 66
     1
 10
0.0
 20
0.0
 30
0.0
  0
VERTEX
  5
3FB
330
3FA
100
AcDbEntity
  8
BEMA_U_00DFUNG
 62
     7
100
AcDbVertex
100
AcDb2dVertex
 10
174.0733567978443
 20
197.3504617372294
 30
0.0
  0
VERTEX
  5
3FC
330
3FA
100
AcDbEntity
  8
BEMA_U_00DFUNG
 62
     7
100
AcDbVertex
100
AcDb2dVertex
 10
175.6439234641184
 20
197.3504617372294
 30
0.0
  0
SEQEND
  5
3FD
330
3FA
100
AcDbEntity
  8
BEMA_U_00DFUNG
 62
     7
  0
POLYLINE
  5
3FE
330
1F
100
AcDbEntity
  8
BEMA_U_00DFUNG
 62
     7
100
AcDb2dPolyline
 66
     1
 10
0.0
 20
0.0
 30
0.0
  0
VERTEX
  5
3FF
330
3FE
100
AcDbEntity
  8
BEMA_U_00DFUNG
 62
     7
100
AcDbVertex
100
AcDb2dVertex
 10
174.0733567978443
 20
197.4012617372165
 30
0.0
  0
VERTEX
  5
400
330
3FE
100
AcDbEntity
  8
BEMA_U_00DFUNG
 62
     7
100
AcDbVertex
100
AcDb2dVertex
 10
176.0302151306883
 20
197.4012617372165
 30
0.0
  0
SEQEND
  5
401
330
3FE
100
AcDbEntity
  8
BEMA_U_00DFUNG
 62
     7
  0
POLYLINE
  5
402
330
1F
100
AcDbEntity
  8
BEMA_U_00DFUNG
 62
     7
100
AcDb2dPolyline
 66
     1
 10
0.0
 20
0.0
 30
0.0
  0
VERTEX
  5
403
330
402
100
AcDbEntity
  8
BEMA_U_00DFUNG
 62
     7
100
AcDbVertex
100
AcDb2dVertex
 10
174.0733567978443
 20
197.4520617372038
 30
0.0
  0
VERTEX
  5
404
330
402
100
AcDbEntity
  8
BEMA_U_00DFUNG
 62
     7
100
AcDbVertex
100
AcDb2dVertex
 10
176.415801241703
 20
197.4520617372038
 30
0.0
  0
SEQEND
  5
405
330
402
100
AcDbEntity
  8
BEMA_U_00DFUNG
 62
     7
  0
POLYLINE
  5
406
330
1F
100
AcDbEntity
  8
BEMA_U_00DFUNG
 62
     7
100
AcDb2dPolyline
 66
     1
 10
0.0
 20
0.0
 30
0.0
  0
VERTEX
  5
407
330
406
100
AcDbEntity
  8
BEMA_U_00DFUNG
 62
     7
100
AcDbVertex
100
AcDb2dVertex
 10
174.0733567978443
 20
197.5028617371912
 30
0.0
  0
VERTEX
  5
408
330
406
100
AcDbEntity
  8
BEMA_U_00DFUNG
 62
     7
100
AcDbVertex
100
AcDb2dVertex
 10
176.8017401304957
 20
197.5028617371912
 30
0.0
  0
SEQEND
  5
409
330
406
100
AcDbEntity
  8
BEMA_U_00DFUNG
 62
     7
  0
POLYLINE
  5
40A
330
1F
100
AcDbEntity
  8
BEMA_U_00DFUNG
 62
     7
100
AcDb2dPolyline
 66
     1
 10
0.0
 20
0.0
 30
0.0
  0
VERTEX
  5
40B
330
40A
100
AcDbEntity
  8
BEMA_U_00DFUNG
 62
     7
100
AcDbVertex
100
AcDb2dVertex
 10
174.0733567978443
 20
197.5536617371786
 30
0.0
  0
VERTEX
  5
40C
330
40A
100
AcDbEntity
  8
BEMA_U_00DFUNG
 62
     7
100
AcDbVertex
100
AcDb2dVertex
 10
177.1873262415104
 20
197.5536617371786
 30
0.0
  0
SEQEND
  5
40D
330
40A
100
AcDbEntity
  8
BEMA_U_00DFUNG
 62
     7
  0
POLYLINE
  5
40E
330
1F
100
AcDbEntity
  8
BEMA_U_00DFUNG
 62
     7
100
AcDb2dPolyline
 66
     1
 10
0.0
 20
0.0
 30
0.0
  0
VERTEX
  5
40F
330
40E
100
AcDbEntity
  8
BEMA_U_00DFUNG
 62
     7
100
AcDbVertex
100
AcDb2dVertex
 10
174.0733567978443
 20
197.604461737166
 30
0.0
  0
VERTEX
  5
410
330
40E
100
AcDbEntity
  8
BEMA_U_00DFUNG
 62
     7
100
AcDbVertex
100
AcDb2dVertex
 10
177.5736179080802
 20
197.604461737166
 30
0.0
  0
SEQEND
  5
411
330
40E
100
AcDbEntity
  8
BEMA_U_00DFUNG
 62
     7
  0
POLYLINE
  5
412
330
1F
100
AcDbEntity
  8
BEMA_U_00DFUNG
 62
     7
100
AcDb2dPolyline
 66
     1
 10
0.0
 20
0.0
 30
0.0
  0
VERTEX
  5
413
330
412
100
AcDbEntity
  8
BEMA_U_00DFUNG
 62
     7
100
AcDbVertex
100
AcDb2dVertex
 10
27.57356516780273
 20
197.604461737166
 30
0.0
  0
VERTEX
  5
414
330
412
100
AcDbEntity
  8
BEMA_U_00DFUNG
 62
     7
100
AcDbVertex
100
AcDb2dVertex
 10
31.07347350026086
 20
197.1437339595032
 30
0.0
  0
VERTEX
  5
415
330
412
100
AcDbEntity
  8
BEMA_U_00DFUNG
 62
     7
100
AcDbVertex
100
AcDb2dVertex
 10
31.07347350026086
 20
198.0655422926062
 30
0.0
  0
VERTEX
  5
416
330
412
100
AcDbEntity
  8
BEMA_U_00DFUNG
 62
     7
100
AcDbVertex
100
AcDb2dVertex
 10
27.57356516780273
 20
197.604461737166
 30
0.0
  0
SEQEND
  5
417
330
412
100
AcDbEntity
  8
BEMA_U_00DFUNG
 62
     7
  0
POLYLINE
  5
418
330
1F
100
AcDbEntity
  8
BEMA_U_00DFUNG
 62
     7
100
AcDb2dPolyline
 66
     1
 10
0.0
 20
0.0
 30
0.0
  0
VERTEX
  5
419
330
418
100
AcDbEntity
  8
BEMA_U_00DFUNG
 62
     7
100
AcDbVertex
100
AcDb2dVertex
 10
31.07347350026086
 20
197.1476145150579
 30
0.0
  0
VERTEX
  5
41A
330
418
100
AcDbEntity
  8
BEMA_U_00DFUNG
 62
     7
100
AcDbVertex
100
AcDb2dVertex
 10
31.04630961137869
 20
197.1476145150579
 30
0.0
  0
SEQEND
  5
41B
330
418
100
AcDbEntity
  8
BEMA_U_00DFUNG
 62
     7
  0
POLYLINE
  5
41C
330
1F
100
AcDbEntity
  8
BEMA_U_00DFUNG
 62
     7
100
AcDb2dPolyline
 66
     1
 10
0.0
 20
0.0
 30
0.0
  0
VERTEX
  5
41D
330
41C
100
AcDbEntity
  8
BEMA_U_00DFUNG
 62
     7
100
AcDbVertex
100
AcDb2dVertex
 10
31.07347350026086
 20
197.1476145150579
 30
0.0
  0
VERTEX
  5
41E
330
41C
100
AcDbEntity
  8
BEMA_U_00DFUNG
 62
     7
100
AcDbVertex
100
AcDb2dVertex
 10
31.04630961137869
 20
197.1476145150579
 30
0.0
  0
SEQEND
  5
41F
330
41C
100
AcDbEntity
  8
BEMA_U_00DFUNG
 62
     7
  0
POLYLINE
  5
420
330
1F
100
AcDbEntity
  8
BEMA_U_00DFUNG
 62
     7
100
AcDb2dPolyline
 66
     1
 10
0.0
 20
0.0
 30
0.0
  0
VERTEX
  5
421
330
420
100
AcDbEntity
  8
BEMA_U_00DFUNG
 62
     7
100
AcDbVertex
100
AcDb2dVertex
 10
31.07347350026086
 20
197.1980617372676
 30
0.0
  0
VERTEX
  5
422
330
420
100
AcDbEntity
  8
BEMA_U_00DFUNG
 62
     7
100
AcDbVertex
100
AcDb2dVertex
 10
30.66037072258658
 20
197.1980617372676
 30
0.0
  0
SEQEND
  5
423
330
420
100
AcDbEntity
  8
BEMA_U_00DFUNG
 62
     7
  0
POLYLINE
  5
424
330
1F
100
AcDbEntity
  8
BEMA_U_00DFUNG
 62
     7
100
AcDb2dPolyline
 66
     1
 10
0.0
 20
0.0
 30
0.0
  0
VERTEX
  5
425
330
424
100
AcDbEntity
  8
BEMA_U_00DFUNG
 62
     7
100
AcDbVertex
100
AcDb2dVertex
 10
31.07347350026086
 20
197.2488617372546
 30
0.0
  0
VERTEX
  5
426
330
424
100
AcDbEntity
  8
BEMA_U_00DFUNG
 62
     7
100
AcDbVertex
100
AcDb2dVertex
 10
30.2747846115716
 20
197.2488617372546
 30
0.0
  0
SEQEND
  5
427
330
424
100
AcDbEntity
  8
BEMA_U_00DFUNG
 62
     7
  0
POLYLINE
  5
428
330
1F
100
AcDbEntity
  8
BEMA_U_00DFUNG
 62
     7
100
AcDb2dPolyline
 66
     1
 10
0.0
 20
0.0
 30
0.0
  0
VERTEX
  5
429
330
428
100
AcDbEntity
  8
BEMA_U_00DFUNG
 62
     7
100
AcDbVertex
100
AcDb2dVertex
 10
31.07347350026086
 20
197.299661737242
 30
0.0
  0
VERTEX
  5
42A
330
428
100
AcDbEntity
  8
BEMA_U_00DFUNG
 62
     7
100
AcDbVertex
100
AcDb2dVertex
 10
29.88884572277918
 20
197.299661737242
 30
0.0
  0
SEQEND
  5
42B
330
428
100
AcDbEntity
  8
BEMA_U_00DFUNG
 62
     7
  0
POLYLINE
  5
42C
330
1F
100
AcDbEntity
  8
BEMA_U_00DFUNG
 62
     7
100
AcDb2dPolyline
 66
     1
 10
0.0
 20
0.0
 30
0.0
  0
VERTEX
  5
42D
330
42C
100
AcDbEntity
  8
BEMA_U_00DFUNG
 62
     7
100
AcDbVertex
100
AcDb2dVertex
 10
31.07347350026086
 20
197.3504617372294
 30
0.0
  0
VERTEX
  5
42E
330
42C
100
AcDbEntity
  8
BEMA_U_00DFUNG
 62
     7
100
AcDbVertex
100
AcDb2dVertex
 10
29.50290683398676
 20
197.3504617372294
 30
0.0
  0
SEQEND
  5
42F
330
42C
100
AcDbEntity
  8
BEMA_U_00DFUNG
 62
     7
  0
POLYLINE
  5
430
330
1F
100
AcDbEntity
  8
BEMA_U_00DFUNG
 62
     7
100
AcDb2dPolyline
 66
     1
 10
0.0
 20
0.0
 30
0.0
  0
VERTEX
  5
431
330
430
100
AcDbEntity
  8
BEMA_U_00DFUNG
 62
     7
100
AcDbVertex
100
AcDb2dVertex
 10
31.07347350026086
 20
197.4012617372165
 30
0.0
  0
VERTEX
  5
432
330
430
100
AcDbEntity
  8
BEMA_U_00DFUNG
 62
     7
100
AcDbVertex
100
AcDb2dVertex
 10
29.11696794519466
 20
197.4012617372165
 30
0.0
  0
SEQEND
  5
433
330
430
100
AcDbEntity
  8
BEMA_U_00DFUNG
 62
     7
  0
POLYLINE
  5
434
330
1F
100
AcDbEntity
  8
BEMA_U_00DFUNG
 62
     7
100
AcDb2dPolyline
 66
     1
 10
0.0
 20
0.0
 30
0.0
  0
VERTEX
  5
435
330
434
100
AcDbEntity
  8
BEMA_U_00DFUNG
 62
     7
100
AcDbVertex
100
AcDb2dVertex
 10
31.07347350026086
 20
197.4520617372038
 30
0.0
  0
VERTEX
  5
436
330
434
100
AcDbEntity
  8
BEMA_U_00DFUNG
 62
     7
100
AcDbVertex
100
AcDb2dVertex
 10
28.73067627862447
 20
197.4520617372038
 30
0.0
  0
SEQEND
  5
437
330
434
100
AcDbEntity
  8
BEMA_U_00DFUNG
 62
     7
  0
POLYLINE
  5
438
330
1F
100
AcDbEntity
  8
BEMA_U_00DFUNG
 62
     7
100
AcDb2dPolyline
 66
     1
 10
0.0
 20
0.0
 30
0.0
  0
VERTEX
  5
439
330
438
100
AcDbEntity
  8
BEMA_U_00DFUNG
 62
     7
100
AcDbVertex
100
AcDb2dVertex
 10
31.07347350026086
 20
197.5028617371912
 30
0.0
  0
VERTEX
  5
43A
330
438
100
AcDbEntity
  8
BEMA_U_00DFUNG
 62
     7
100
AcDbVertex
100
AcDb2dVertex
 10
28.34544294538725
 20
197.5028617371912
 30
0.0
  0
SEQEND
  5
43B
330
438
100
AcDbEntity
  8
BEMA_U_00DFUNG
 62
     7
  0
POLYLINE
  5
43C
330
1F
100
AcDbEntity
  8
BEMA_U_00DFUNG
 62
     7
100
AcDb2dPolyline
 66
     1
 10
0.0
 20
0.0
 30
0.0
  0
VERTEX
  5
43D
330
43C
100
AcDbEntity
  8
BEMA_U_00DFUNG
 62
     7
100
AcDbVertex
100
AcDb2dVertex
 10
31.07347350026086
 20
197.5536617371786
 30
0.0
  0
VERTEX
  5
43E
330
43C
100
AcDbEntity
  8
BEMA_U_00DFUNG
 62
     7
100
AcDbVertex
100
AcDb2dVertex
 10
27.95950405659483
 20
197.5536617371786
 30
0.0
  0
SEQEND
  5
43F
330
43C
100
AcDbEntity
  8
BEMA_U_00DFUNG
 62
     7
  0
POLYLINE
  5
440
330
1F
100
AcDbEntity
  8
BEMA_U_00DFUNG
 62
     7
100
AcDb2dPolyline
 66
     1
 10
0.0
 20
0.0
 30
0.0
  0
VERTEX
  5
441
330
440
100
AcDbEntity
  8
BEMA_U_00DFUNG
 62
     7
100
AcDbVertex
100
AcDb2dVertex
 10
31.07347350026086
 20
197.604461737166
 30
0.0
  0
VERTEX
  5
442
330
440
100
AcDbEntity
  8
BEMA_U_00DFUNG
 62
     7
100
AcDbVertex
100
AcDb2dVertex
 10
27.57356516780273
 20
197.604461737166
 30
0.0
  0
SEQEND
  5
443
330
440
100
AcDbEntity
  8
BEMA_U_00DFUNG
 62
     7
  0
POLYLINE
  5
444
330
1F
100
AcDbEntity
  8
BEMA_U_00DFUNG
 62
     7
100
AcDb2dPolyline
 66
     1
 10
0.0
 20
0.0
 30
0.0
  0
VERTEX
  5
445
330
444
100
AcDbEntity
  8
BEMA_U_00DFUNG
 62
     7
100
AcDbVertex
100
AcDb2dVertex
 10
31.07347350026086
 20
198.0620145148292
 30
0.0
  0
VERTEX
  5
446
330
444
100
AcDbEntity
  8
BEMA_U_00DFUNG
 62
     7
100
AcDbVertex
100
AcDb2dVertex
 10
31.04630961137869
 20
198.0620145148292
 30
0.0
  0
SEQEND
  5
447
330
444
100
AcDbEntity
  8
BEMA_U_00DFUNG
 62
     7
  0
POLYLINE
  5
448
330
1F
100
AcDbEntity
  8
BEMA_U_00DFUNG
 62
     7
100
AcDb2dPolyline
 66
     1
 10
0.0
 20
0.0
 30
0.0
  0
VERTEX
  5
449
330
448
100
AcDbEntity
  8
BEMA_U_00DFUNG
 62
     7
100
AcDbVertex
100
AcDb2dVertex
 10
31.07347350026086
 20
198.0620145148292
 30
0.0
  0
VERTEX
  5
44A
330
448
100
AcDbEntity
  8
BEMA_U_00DFUNG
 62
     7
100
AcDbVertex
100
AcDb2dVertex
 10
31.04630961137869
 20
198.0620145148292
 30
0.0
  0
SEQEND
  5
44B
330
448
100
AcDbEntity
  8
BEMA_U_00DFUNG
 62
     7
  0
POLYLINE
  5
44C
330
1F
100
AcDbEntity
  8
BEMA_U_00DFUNG
 62
     7
100
AcDb2dPolyline
 66
     1
 10
0.0
 20
0.0
 30
0.0
  0
VERTEX
  5
44D
330
44C
100
AcDbEntity
  8
BEMA_U_00DFUNG
 62
     7
100
AcDbVertex
100
AcDb2dVertex
 10
31.07347350026086
 20
198.0112145148418
 30
0.0
  0
VERTEX
  5
44E
330
44C
100
AcDbEntity
  8
BEMA_U_00DFUNG
 62
     7
100
AcDbVertex
100
AcDb2dVertex
 10
30.66037072258658
 20
198.0112145148418
 30
0.0
  0
SEQEND
  5
44F
330
44C
100
AcDbEntity
  8
BEMA_U_00DFUNG
 62
     7
  0
POLYLINE
  5
450
330
1F
100
AcDbEntity
  8
BEMA_U_00DFUNG
 62
     7
100
AcDb2dPolyline
 66
     1
 10
0.0
 20
0.0
 30
0.0
  0
VERTEX
  5
451
330
450
100
AcDbEntity
  8
BEMA_U_00DFUNG
 62
     7
100
AcDbVertex
100
AcDb2dVertex
 10
31.07347350026086
 20
197.9604145148548
 30
0.0
  0
VERTEX
  5
452
330
450
100
AcDbEntity
  8
BEMA_U_00DFUNG
 62
     7
100
AcDbVertex
100
AcDb2dVertex
 10
30.2747846115716
 20
197.9604145148548
 30
0.0
  0
SEQEND
  5
453
330
450
100
AcDbEntity
  8
BEMA_U_00DFUNG
 62
     7
  0
POLYLINE
  5
454
330
1F
100
AcDbEntity
  8
BEMA_U_00DFUNG
 62
     7
100
AcDb2dPolyline
 66
     1
 10
0.0
 20
0.0
 30
0.0
  0
VERTEX
  5
455
330
454
100
AcDbEntity
  8
BEMA_U_00DFUNG
 62
     7
100
AcDbVertex
100
AcDb2dVertex
 10
31.07347350026086
 20
197.9096145148674
 30
0.0
  0
VERTEX
  5
456
330
454
100
AcDbEntity
  8
BEMA_U_00DFUNG
 62
     7
100
AcDbVertex
100
AcDb2dVertex
 10
29.88884572277918
 20
197.9096145148674
 30
0.0
  0
SEQEND
  5
457
330
454
100
AcDbEntity
  8
BEMA_U_00DFUNG
 62
     7
  0
POLYLINE
  5
458
330
1F
100
AcDbEntity
  8
BEMA_U_00DFUNG
 62
     7
100
AcDb2dPolyline
 66
     1
 10
0.0
 20
0.0
 30
0.0
  0
VERTEX
  5
459
330
458
100
AcDbEntity
  8
BEMA_U_00DFUNG
 62
     7
100
AcDbVertex
100
AcDb2dVertex
 10
31.07347350026086
 20
197.85881451488
 30
0.0
  0
VERTEX
  5
45A
330
458
100
AcDbEntity
  8
BEMA_U_00DFUNG
 62
     7
100
AcDbVertex
100
AcDb2dVertex
 10
29.50290683398676
 20
197.85881451488
 30
0.0
  0
SEQEND
  5
45B
330
458
100
AcDbEntity
  8
BEMA_U_00DFUNG
 62
     7
  0
POLYLINE
  5
45C
330
1F
100
AcDbEntity
  8
BEMA_U_00DFUNG
 62
     7
100
AcDb2dPolyline
 66
     1
 10
0.0
 20
0.0
 30
0.0
  0
VERTEX
  5
45D
330
45C
100
AcDbEntity
  8
BEMA_U_00DFUNG
 62
     7
100
AcDbVertex
100
AcDb2dVertex
 10
31.07347350026086
 20
197.8080145148926
 30
0.0
  0
VERTEX
  5
45E
330
45C
100
AcDbEntity
  8
BEMA_U_00DFUNG
 62
     7
100
AcDbVertex
100
AcDb2dVertex
 10
29.11696794519466
 20
197.8080145148926
 30
0.0
  0
SEQEND
  5
45F
330
45C
100
AcDbEntity
  8
BEMA_U_00DFUNG
 62
     7
  0
POLYLINE
  5
460
330
1F
100
AcDbEntity
  8
BEMA_U_00DFUNG
 62
     7
100
AcDb2dPolyline
 66
     1
 10
0.0
 20
0.0
 30
0.0
  0
VERTEX
  5
461
330
460
100
AcDbEntity
  8
BEMA_U_00DFUNG
 62
     7
100
AcDbVertex
100
AcDb2dVertex
 10
31.07347350026086
 20
197.7572145149053
 30
0.0
  0
VERTEX
  5
462
330
460
100
AcDbEntity
  8
BEMA_U_00DFUNG
 62
     7
100
AcDbVertex
100
AcDb2dVertex
 10
28.73067627862447
 20
197.7572145149053
 30
0.0
  0
SEQEND
  5
463
330
460
100
AcDbEntity
  8
BEMA_U_00DFUNG
 62
     7
  0
POLYLINE
  5
464
330
1F
100
AcDbEntity
  8
BEMA_U_00DFUNG
 62
     7
100
AcDb2dPolyline
 66
     1
 10
0.0
 20
0.0
 30
0.0
  0
VERTEX
  5
465
330
464
100
AcDbEntity
  8
BEMA_U_00DFUNG
 62
     7
100
AcDbVertex
100
AcDb2dVertex
 10
31.07347350026086
 20
197.7060617371404
 30
0.0
  0
VERTEX
  5
466
330
464
100
AcDbEntity
  8
BEMA_U_00DFUNG
 62
     7
100
AcDbVertex
100
AcDb2dVertex
 10
28.34544294538725
 20
197.7060617371404
 30
0.0
  0
SEQEND
  5
467
330
464
100
AcDbEntity
  8
BEMA_U_00DFUNG
 62
     7
  0
POLYLINE
  5
468
330
1F
100
AcDbEntity
  8
BEMA_U_00DFUNG
 62
     7
100
AcDb2dPolyline
 66
     1
 10
0.0
 20
0.0
 30
0.0
  0
VERTEX
  5
469
330
468
100
AcDbEntity
  8
BEMA_U_00DFUNG
 62
     7
100
AcDbVertex
100
AcDb2dVertex
 10
31.07347350026086
 20
197.655261737153
 30
0.0
  0
VERTEX
  5
46A
330
468
100
AcDbEntity
  8
BEMA_U_00DFUNG
 62
     7
100
AcDbVertex
100
AcDb2dVertex
 10
27.95950405659483
 20
197.655261737153
 30
0.0
  0
SEQEND
  5
46B
330
468
100
AcDbEntity
  8
BEMA_U_00DFUNG
 62
     7
  0
POLYLINE
  5
46C
330
1F
100
AcDbEntity
  8
BEMA_U_00DFUNG
 62
     7
100
AcDb2dPolyline
 66
     1
 10
0.0
 20
0.0
 30
0.0
  0
VERTEX
  5
46D
330
46C
100
AcDbEntity
  8
BEMA_U_00DFUNG
 62
     7
100
AcDbVertex
100
AcDb2dVertex
 10
31.07347350026086
 20
197.604461737166
 30
0.0
  0
VERTEX
  5
46E
330
46C
100
AcDbEntity
  8
BEMA_U_00DFUNG
 62
     7
100
AcDbVertex
100
AcDb2dVertex
 10
27.57356516780273
 20
197.604461737166
 30
0.0
  0
SEQEND
  5
46F
330
46C
100
AcDbEntity
  8
BEMA_U_00DFUNG
 62
     7
  0
POLYLINE
  5
470
330
1F
100
AcDbEntity
  8
BEMA_U_00DFUNG
 62
     7
100
AcDb2dPolyline
 66
     1
 10
0.0
 20
0.0
 30
0.0
  0
VERTEX
  5
471
330
470
100
AcDbEntity
  8
BEMA_U_00DFUNG
 62
     7
100
AcDbVertex
100
AcDb2dVertex
 10
27.57356516780273
 20
230.2297033956763
 30
0.0
  0
VERTEX
  5
472
330
470
100
AcDbEntity
  8
BEMA_U_00DFUNG
 62
     7
100
AcDbVertex
100
AcDb2dVertex
 10
15.57347628191367
 20
230.2297033956763
 30
0.0
  0
SEQEND
  5
473
330
470
100
AcDbEntity
  8
BEMA_U_00DFUNG
 62
     7
  0
POLYLINE
  5
474
330
1F
100
AcDbEntity
  8
BEMA_U_00DFUNG
 62
     7
100
AcDb2dPolyline
 66
     1
 10
0.0
 20
0.0
 30
0.0
  0
VERTEX
  5
475
330
474
100
AcDbEntity
  8
BEMA_U_00DFUNG
 62
     7
100
AcDbVertex
100
AcDb2dVertex
 10
27.57356516780273
 20
228.7300450627178
 30
0.0
  0
VERTEX
  5
476
330
474
100
AcDbEntity
  8
BEMA_U_00DFUNG
 62
     7
100
AcDbVertex
100
AcDb2dVertex
 10
15.57347628191367
 20
228.7300450627178
 30
0.0
  0
SEQEND
  5
477
330
474
100
AcDbEntity
  8
BEMA_U_00DFUNG
 62
     7
  0
POLYLINE
  5
478
330
1F
100
AcDbEntity
  8
BEMA_U_00DFUNG
 62
     7
100
AcDb2dPolyline
 66
     1
 10
0.0
 20
0.0
 30
0.0
  0
VERTEX
  5
479
330
478
100
AcDbEntity
  8
BEMA_U_00DFUNG
 62
     7
100
AcDbVertex
100
AcDb2dVertex
 10
17.57372628141364
 20
219.9800978426831
 30
0.0
  0
VERTEX
  5
47A
330
478
100
AcDbEntity
  8
BEMA_U_00DFUNG
 62
     7
100
AcDbVertex
100
AcDb2dVertex
 10
17.57372628141364
 20
240.057429513658
 30
0.0
  0
SEQEND
  5
47B
330
478
100
AcDbEntity
  8
BEMA_U_00DFUNG
 62
     7
  0
POLYLINE
  5
47C
330
1F
100
AcDbEntity
  8
BEMA_U_00DFUNG
 62
     7
100
AcDb2dPolyline
 66
     1
 10
0.0
 20
0.0
 30
0.0
  0
VERTEX
  5
47D
330
47C
100
AcDbEntity
  8
BEMA_U_00DFUNG
 62
     7
100
AcDbVertex
100
AcDb2dVertex
 10
17.57372628141364
 20
230.2297033956763
 30
0.0
  0
VERTEX
  5
47E
330
47C
100
AcDbEntity
  8
BEMA_U_00DFUNG
 62
     7
100
AcDbVertex
100
AcDb2dVertex
 10
18.03445405907609
 20
233.7303172836899
 30
0.0
  0
VERTEX
  5
47F
330
47C
100
AcDbEntity
  8
BEMA_U_00DFUNG
 62
     7
100
AcDbVertex
100
AcDb2dVertex
 10
17.11264572597343
 20
233.7303172836899
 30
0.0
  0
VERTEX
  5
480
330
47C
100
AcDbEntity
  8
BEMA_U_00DFUNG
 62
     7
100
AcDbVertex
100
AcDb2dVertex
 10
17.57372628141364
 20
230.2297033956763
 30
0.0
  0
SEQEND
  5
481
330
47C
100
AcDbEntity
  8
BEMA_U_00DFUNG
 62
     7
  0
POLYLINE
  5
482
330
1F
100
AcDbEntity
  8
BEMA_U_00DFUNG
 62
     7
100
AcDb2dPolyline
 66
     1
 10
0.0
 20
0.0
 30
0.0
  0
VERTEX
  5
483
330
482
100
AcDbEntity
  8
BEMA_U_00DFUNG
 62
     7
100
AcDbVertex
100
AcDb2dVertex
 10
18.03092628129944
 20
233.7303172836899
 30
0.0
  0
VERTEX
  5
484
330
482
100
AcDbEntity
  8
BEMA_U_00DFUNG
 62
     7
100
AcDbVertex
100
AcDb2dVertex
 10
18.03092628129944
 20
233.7031533948077
 30
0.0
  0
SEQEND
  5
485
330
482
100
AcDbEntity
  8
BEMA_U_00DFUNG
 62
     7
  0
POLYLINE
  5
486
330
1F
100
AcDbEntity
  8
BEMA_U_00DFUNG
 62
     7
100
AcDb2dPolyline
 66
     1
 10
0.0
 20
0.0
 30
0.0
  0
VERTEX
  5
487
330
486
100
AcDbEntity
  8
BEMA_U_00DFUNG
 62
     7
100
AcDbVertex
100
AcDb2dVertex
 10
18.03092628129944
 20
233.7303172836899
 30
0.0
  0
VERTEX
  5
488
330
486
100
AcDbEntity
  8
BEMA_U_00DFUNG
 62
     7
100
AcDbVertex
100
AcDb2dVertex
 10
18.03092628129944
 20
233.7031533948077
 30
0.0
  0
SEQEND
  5
489
330
486
100
AcDbEntity
  8
BEMA_U_00DFUNG
 62
     7
  0
POLYLINE
  5
48A
330
1F
100
AcDbEntity
  8
BEMA_U_00DFUNG
 62
     7
100
AcDb2dPolyline
 66
     1
 10
0.0
 20
0.0
 30
0.0
  0
VERTEX
  5
48B
330
48A
100
AcDbEntity
  8
BEMA_U_00DFUNG
 62
     7
100
AcDbVertex
100
AcDb2dVertex
 10
17.98012628131205
 20
233.7303172836899
 30
0.0
  0
VERTEX
  5
48C
330
48A
100
AcDbEntity
  8
BEMA_U_00DFUNG
 62
     7
100
AcDbVertex
100
AcDb2dVertex
 10
17.98012628131205
 20
233.3168617282379
 30
0.0
  0
SEQEND
  5
48D
330
48A
100
AcDbEntity
  8
BEMA_U_00DFUNG
 62
     7
  0
POLYLINE
  5
48E
330
1F
100
AcDbEntity
  8
BEMA_U_00DFUNG
 62
     7
100
AcDb2dPolyline
 66
     1
 10
0.0
 20
0.0
 30
0.0
  0
VERTEX
  5
48F
330
48E
100
AcDbEntity
  8
BEMA_U_00DFUNG
 62
     7
100
AcDbVertex
100
AcDb2dVertex
 10
17.92932628132467
 20
233.7303172836899
 30
0.0
  0
VERTEX
  5
490
330
48E
100
AcDbEntity
  8
BEMA_U_00DFUNG
 62
     7
100
AcDbVertex
100
AcDb2dVertex
 10
17.92932628132467
 20
232.9312756172229
 30
0.0
  0
SEQEND
  5
491
330
48E
100
AcDbEntity
  8
BEMA_U_00DFUNG
 62
     7
  0
POLYLINE
  5
492
330
1F
100
AcDbEntity
  8
BEMA_U_00DFUNG
 62
     7
100
AcDb2dPolyline
 66
     1
 10
0.0
 20
0.0
 30
0.0
  0
VERTEX
  5
493
330
492
100
AcDbEntity
  8
BEMA_U_00DFUNG
 62
     7
100
AcDbVertex
100
AcDb2dVertex
 10
17.87817350355985
 20
233.7303172836899
 30
0.0
  0
VERTEX
  5
494
330
492
100
AcDbEntity
  8
BEMA_U_00DFUNG
 62
     7
100
AcDbVertex
100
AcDb2dVertex
 10
17.87817350355985
 20
232.544983950653
 30
0.0
  0
SEQEND
  5
495
330
492
100
AcDbEntity
  8
BEMA_U_00DFUNG
 62
     7
  0
POLYLINE
  5
496
330
1F
100
AcDbEntity
  8
BEMA_U_00DFUNG
 62
     7
100
AcDb2dPolyline
 66
     1
 10
0.0
 20
0.0
 30
0.0
  0
VERTEX
  5
497
330
496
100
AcDbEntity
  8
BEMA_U_00DFUNG
 62
     7
100
AcDbVertex
100
AcDb2dVertex
 10
17.82737350357247
 20
233.7303172836899
 30
0.0
  0
VERTEX
  5
498
330
496
100
AcDbEntity
  8
BEMA_U_00DFUNG
 62
     7
100
AcDbVertex
100
AcDb2dVertex
 10
17.82737350357247
 20
232.159397839638
 30
0.0
  0
SEQEND
  5
499
330
496
100
AcDbEntity
  8
BEMA_U_00DFUNG
 62
     7
  0
POLYLINE
  5
49A
330
1F
100
AcDbEntity
  8
BEMA_U_00DFUNG
 62
     7
100
AcDb2dPolyline
 66
     1
 10
0.0
 20
0.0
 30
0.0
  0
VERTEX
  5
49B
330
49A
100
AcDbEntity
  8
BEMA_U_00DFUNG
 62
     7
100
AcDbVertex
100
AcDb2dVertex
 10
17.77657350358508
 20
233.7303172836899
 30
0.0
  0
VERTEX
  5
49C
330
49A
100
AcDbEntity
  8
BEMA_U_00DFUNG
 62
     7
100
AcDbVertex
100
AcDb2dVertex
 10
17.77657350358508
 20
231.773458950846
 30
0.0
  0
SEQEND
  5
49D
330
49A
100
AcDbEntity
  8
BEMA_U_00DFUNG
 62
     7
  0
POLYLINE
  5
49E
330
1F
100
AcDbEntity
  8
BEMA_U_00DFUNG
 62
     7
100
AcDb2dPolyline
 66
     1
 10
0.0
 20
0.0
 30
0.0
  0
VERTEX
  5
49F
330
49E
100
AcDbEntity
  8
BEMA_U_00DFUNG
 62
     7
100
AcDbVertex
100
AcDb2dVertex
 10
17.7257735035977
 20
233.7303172836899
 30
0.0
  0
VERTEX
  5
4A0
330
49E
100
AcDbEntity
  8
BEMA_U_00DFUNG
 62
     7
100
AcDbVertex
100
AcDb2dVertex
 10
17.7257735035977
 20
231.387872839831
 30
0.0
  0
SEQEND
  5
4A1
330
49E
100
AcDbEntity
  8
BEMA_U_00DFUNG
 62
     7
  0
POLYLINE
  5
4A2
330
1F
100
AcDbEntity
  8
BEMA_U_00DFUNG
 62
     7
100
AcDb2dPolyline
 66
     1
 10
0.0
 20
0.0
 30
0.0
  0
VERTEX
  5
4A3
330
4A2
100
AcDbEntity
  8
BEMA_U_00DFUNG
 62
     7
100
AcDbVertex
100
AcDb2dVertex
 10
17.67497350361064
 20
233.7303172836899
 30
0.0
  0
VERTEX
  5
4A4
330
4A2
100
AcDbEntity
  8
BEMA_U_00DFUNG
 62
     7
100
AcDbVertex
100
AcDb2dVertex
 10
17.67497350361064
 20
231.0015811732611
 30
0.0
  0
SEQEND
  5
4A5
330
4A2
100
AcDbEntity
  8
BEMA_U_00DFUNG
 62
     7
  0
POLYLINE
  5
4A6
330
1F
100
AcDbEntity
  8
BEMA_U_00DFUNG
 62
     7
100
AcDb2dPolyline
 66
     1
 10
0.0
 20
0.0
 30
0.0
  0
VERTEX
  5
4A7
330
4A6
100
AcDbEntity
  8
BEMA_U_00DFUNG
 62
     7
100
AcDbVertex
100
AcDb2dVertex
 10
17.62452628140102
 20
233.7303172836899
 30
0.0
  0
VERTEX
  5
4A8
330
4A6
100
AcDbEntity
  8
BEMA_U_00DFUNG
 62
     7
100
AcDbVertex
100
AcDb2dVertex
 10
17.62452628140102
 20
230.6159950622461
 30
0.0
  0
SEQEND
  5
4A9
330
4A6
100
AcDbEntity
  8
BEMA_U_00DFUNG
 62
     7
  0
POLYLINE
  5
4AA
330
1F
100
AcDbEntity
  8
BEMA_U_00DFUNG
 62
     7
100
AcDb2dPolyline
 66
     1
 10
0.0
 20
0.0
 30
0.0
  0
VERTEX
  5
4AB
330
4AA
100
AcDbEntity
  8
BEMA_U_00DFUNG
 62
     7
100
AcDbVertex
100
AcDb2dVertex
 10
17.57372628141364
 20
233.7303172836899
 30
0.0
  0
VERTEX
  5
4AC
330
4AA
100
AcDbEntity
  8
BEMA_U_00DFUNG
 62
     7
100
AcDbVertex
100
AcDb2dVertex
 10
17.57372628141364
 20
230.2297033956763
 30
0.0
  0
SEQEND
  5
4AD
330
4AA
100
AcDbEntity
  8
BEMA_U_00DFUNG
 62
     7
  0
POLYLINE
  5
4AE
330
1F
100
AcDbEntity
  8
BEMA_U_00DFUNG
 62
     7
100
AcDb2dPolyline
 66
     1
 10
0.0
 20
0.0
 30
0.0
  0
VERTEX
  5
4AF
330
4AE
100
AcDbEntity
  8
BEMA_U_00DFUNG
 62
     7
100
AcDbVertex
100
AcDb2dVertex
 10
17.1161735037504
 20
233.7303172836899
 30
0.0
  0
VERTEX
  5
4B0
330
4AE
100
AcDbEntity
  8
BEMA_U_00DFUNG
 62
     7
100
AcDbVertex
100
AcDb2dVertex
 10
17.1161735037504
 20
233.7031533948077
 30
0.0
  0
SEQEND
  5
4B1
330
4AE
100
AcDbEntity
  8
BEMA_U_00DFUNG
 62
     7
  0
POLYLINE
  5
4B2
330
1F
100
AcDbEntity
  8
BEMA_U_00DFUNG
 62
     7
100
AcDb2dPolyline
 66
     1
 10
0.0
 20
0.0
 30
0.0
  0
VERTEX
  5
4B3
330
4B2
100
AcDbEntity
  8
BEMA_U_00DFUNG
 62
     7
100
AcDbVertex
100
AcDb2dVertex
 10
17.1161735037504
 20
233.7303172836899
 30
0.0
  0
VERTEX
  5
4B4
330
4B2
100
AcDbEntity
  8
BEMA_U_00DFUNG
 62
     7
100
AcDbVertex
100
AcDb2dVertex
 10
17.1161735037504
 20
233.7031533948077
 30
0.0
  0
SEQEND
  5
4B5
330
4B2
100
AcDbEntity
  8
BEMA_U_00DFUNG
 62
     7
  0
POLYLINE
  5
4B6
330
1F
100
AcDbEntity
  8
BEMA_U_00DFUNG
 62
     7
100
AcDb2dPolyline
 66
     1
 10
0.0
 20
0.0
 30
0.0
  0
VERTEX
  5
4B7
330
4B6
100
AcDbEntity
  8
BEMA_U_00DFUNG
 62
     7
100
AcDbVertex
100
AcDb2dVertex
 10
17.16697350373746
 20
233.7303172836899
 30
0.0
  0
VERTEX
  5
4B8
330
4B6
100
AcDbEntity
  8
BEMA_U_00DFUNG
 62
     7
100
AcDbVertex
100
AcDb2dVertex
 10
17.16697350373746
 20
233.3168617282379
 30
0.0
  0
SEQEND
  5
4B9
330
4B6
100
AcDbEntity
  8
BEMA_U_00DFUNG
 62
     7
  0
POLYLINE
  5
4BA
330
1F
100
AcDbEntity
  8
BEMA_U_00DFUNG
 62
     7
100
AcDb2dPolyline
 66
     1
 10
0.0
 20
0.0
 30
0.0
  0
VERTEX
  5
4BB
330
4BA
100
AcDbEntity
  8
BEMA_U_00DFUNG
 62
     7
100
AcDbVertex
100
AcDb2dVertex
 10
17.21777350372484
 20
233.7303172836899
 30
0.0
  0
VERTEX
  5
4BC
330
4BA
100
AcDbEntity
  8
BEMA_U_00DFUNG
 62
     7
100
AcDbVertex
100
AcDb2dVertex
 10
17.21777350372484
 20
232.9312756172229
 30
0.0
  0
SEQEND
  5
4BD
330
4BA
100
AcDbEntity
  8
BEMA_U_00DFUNG
 62
     7
  0
POLYLINE
  5
4BE
330
1F
100
AcDbEntity
  8
BEMA_U_00DFUNG
 62
     7
100
AcDb2dPolyline
 66
     1
 10
0.0
 20
0.0
 30
0.0
  0
VERTEX
  5
4BF
330
4BE
100
AcDbEntity
  8
BEMA_U_00DFUNG
 62
     7
100
AcDbVertex
100
AcDb2dVertex
 10
17.26857350371223
 20
233.7303172836899
 30
0.0
  0
VERTEX
  5
4C0
330
4BE
100
AcDbEntity
  8
BEMA_U_00DFUNG
 62
     7
100
AcDbVertex
100
AcDb2dVertex
 10
17.26857350371223
 20
232.544983950653
 30
0.0
  0
SEQEND
  5
4C1
330
4BE
100
AcDbEntity
  8
BEMA_U_00DFUNG
 62
     7
  0
POLYLINE
  5
4C2
330
1F
100
AcDbEntity
  8
BEMA_U_00DFUNG
 62
     7
100
AcDb2dPolyline
 66
     1
 10
0.0
 20
0.0
 30
0.0
  0
VERTEX
  5
4C3
330
4C2
100
AcDbEntity
  8
BEMA_U_00DFUNG
 62
     7
100
AcDbVertex
100
AcDb2dVertex
 10
17.31937350369929
 20
233.7303172836899
 30
0.0
  0
VERTEX
  5
4C4
330
4C2
100
AcDbEntity
  8
BEMA_U_00DFUNG
 62
     7
100
AcDbVertex
100
AcDb2dVertex
 10
17.31937350369929
 20
232.159397839638
 30
0.0
  0
SEQEND
  5
4C5
330
4C2
100
AcDbEntity
  8
BEMA_U_00DFUNG
 62
     7
  0
POLYLINE
  5
4C6
330
1F
100
AcDbEntity
  8
BEMA_U_00DFUNG
 62
     7
100
AcDb2dPolyline
 66
     1
 10
0.0
 20
0.0
 30
0.0
  0
VERTEX
  5
4C7
330
4C6
100
AcDbEntity
  8
BEMA_U_00DFUNG
 62
     7
100
AcDbVertex
100
AcDb2dVertex
 10
17.37052628146443
 20
233.7303172836899
 30
0.0
  0
VERTEX
  5
4C8
330
4C6
100
AcDbEntity
  8
BEMA_U_00DFUNG
 62
     7
100
AcDbVertex
100
AcDb2dVertex
 10
17.37052628146443
 20
231.773458950846
 30
0.0
  0
SEQEND
  5
4C9
330
4C6
100
AcDbEntity
  8
BEMA_U_00DFUNG
 62
     7
  0
POLYLINE
  5
4CA
330
1F
100
AcDbEntity
  8
BEMA_U_00DFUNG
 62
     7
100
AcDb2dPolyline
 66
     1
 10
0.0
 20
0.0
 30
0.0
  0
VERTEX
  5
4CB
330
4CA
100
AcDbEntity
  8
BEMA_U_00DFUNG
 62
     7
100
AcDbVertex
100
AcDb2dVertex
 10
17.42132628145181
 20
233.7303172836899
 30
0.0
  0
VERTEX
  5
4CC
330
4CA
100
AcDbEntity
  8
BEMA_U_00DFUNG
 62
     7
100
AcDbVertex
100
AcDb2dVertex
 10
17.42132628145181
 20
231.387872839831
 30
0.0
  0
SEQEND
  5
4CD
330
4CA
100
AcDbEntity
  8
BEMA_U_00DFUNG
 62
     7
  0
POLYLINE
  5
4CE
330
1F
100
AcDbEntity
  8
BEMA_U_00DFUNG
 62
     7
100
AcDb2dPolyline
 66
     1
 10
0.0
 20
0.0
 30
0.0
  0
VERTEX
  5
4CF
330
4CE
100
AcDbEntity
  8
BEMA_U_00DFUNG
 62
     7
100
AcDbVertex
100
AcDb2dVertex
 10
17.47212628143919
 20
233.7303172836899
 30
0.0
  0
VERTEX
  5
4D0
330
4CE
100
AcDbEntity
  8
BEMA_U_00DFUNG
 62
     7
100
AcDbVertex
100
AcDb2dVertex
 10
17.47212628143919
 20
231.0015811732611
 30
0.0
  0
SEQEND
  5
4D1
330
4CE
100
AcDbEntity
  8
BEMA_U_00DFUNG
 62
     7
  0
POLYLINE
  5
4D2
330
1F
100
AcDbEntity
  8
BEMA_U_00DFUNG
 62
     7
100
AcDb2dPolyline
 66
     1
 10
0.0
 20
0.0
 30
0.0
  0
VERTEX
  5
4D3
330
4D2
100
AcDbEntity
  8
BEMA_U_00DFUNG
 62
     7
100
AcDbVertex
100
AcDb2dVertex
 10
17.52292628142625
 20
233.7303172836899
 30
0.0
  0
VERTEX
  5
4D4
330
4D2
100
AcDbEntity
  8
BEMA_U_00DFUNG
 62
     7
100
AcDbVertex
100
AcDb2dVertex
 10
17.52292628142625
 20
230.6159950622461
 30
0.0
  0
SEQEND
  5
4D5
330
4D2
100
AcDbEntity
  8
BEMA_U_00DFUNG
 62
     7
  0
POLYLINE
  5
4D6
330
1F
100
AcDbEntity
  8
BEMA_U_00DFUNG
 62
     7
100
AcDb2dPolyline
 66
     1
 10
0.0
 20
0.0
 30
0.0
  0
VERTEX
  5
4D7
330
4D6
100
AcDbEntity
  8
BEMA_U_00DFUNG
 62
     7
100
AcDbVertex
100
AcDb2dVertex
 10
17.57372628141364
 20
233.7303172836899
 30
0.0
  0
VERTEX
  5
4D8
330
4D6
100
AcDbEntity
  8
BEMA_U_00DFUNG
 62
     7
100
AcDbVertex
100
AcDb2dVertex
 10
17.57372628141364
 20
230.2297033956763
 30
0.0
  0
SEQEND
  5
4D9
330
4D6
100
AcDbEntity
  8
BEMA_U_00DFUNG
 62
     7
  0
POLYLINE
  5
4DA
330
1F
100
AcDbEntity
  8
BEMA_U_00DFUNG
 62
     7
100
AcDb2dPolyline
 66
     1
 10
0.0
 20
0.0
 30
0.0
  0
VERTEX
  5
4DB
330
4DA
100
AcDbEntity
  8
BEMA_U_00DFUNG
 62
     7
100
AcDbVertex
100
AcDb2dVertex
 10
17.57372628141364
 20
228.7300450627178
 30
0.0
  0
VERTEX
  5
4DC
330
4DA
100
AcDbEntity
  8
BEMA_U_00DFUNG
 62
     7
100
AcDbVertex
100
AcDb2dVertex
 10
17.11264572597343
 20
225.2297839524816
 30
0.0
  0
VERTEX
  5
4DD
330
4DA
100
AcDbEntity
  8
BEMA_U_00DFUNG
 62
     7
100
AcDbVertex
100
AcDb2dVertex
 10
18.03445405907609
 20
225.2297839524816
 30
0.0
  0
VERTEX
  5
4DE
330
4DA
100
AcDbEntity
  8
BEMA_U_00DFUNG
 62
     7
100
AcDbVertex
100
AcDb2dVertex
 10
17.57372628141364
 20
228.7300450627178
 30
0.0
  0
SEQEND
  5
4DF
330
4DA
100
AcDbEntity
  8
BEMA_U_00DFUNG
 62
     7
  0
POLYLINE
  5
4E0
330
1F
100
AcDbEntity
  8
BEMA_U_00DFUNG
 62
     7
100
AcDb2dPolyline
 66
     1
 10
0.0
 20
0.0
 30
0.0
  0
VERTEX
  5
4E1
330
4E0
100
AcDbEntity
  8
BEMA_U_00DFUNG
 62
     7
100
AcDbVertex
100
AcDb2dVertex
 10
17.1161735037504
 20
225.2297839524816
 30
0.0
  0
VERTEX
  5
4E2
330
4E0
100
AcDbEntity
  8
BEMA_U_00DFUNG
 62
     7
100
AcDbVertex
100
AcDb2dVertex
 10
17.1161735037504
 20
225.2569478413637
 30
0.0
  0
SEQEND
  5
4E3
330
4E0
100
AcDbEntity
  8
BEMA_U_00DFUNG
 62
     7
  0
POLYLINE
  5
4E4
330
1F
100
AcDbEntity
  8
BEMA_U_00DFUNG
 62
     7
100
AcDb2dPolyline
 66
     1
 10
0.0
 20
0.0
 30
0.0
  0
VERTEX
  5
4E5
330
4E4
100
AcDbEntity
  8
BEMA_U_00DFUNG
 62
     7
100
AcDbVertex
100
AcDb2dVertex
 10
17.1161735037504
 20
225.2297839524816
 30
0.0
  0
VERTEX
  5
4E6
330
4E4
100
AcDbEntity
  8
BEMA_U_00DFUNG
 62
     7
100
AcDbVertex
100
AcDb2dVertex
 10
17.1161735037504
 20
225.2569478413637
 30
0.0
  0
SEQEND
  5
4E7
330
4E4
100
AcDbEntity
  8
BEMA_U_00DFUNG
 62
     7
  0
POLYLINE
  5
4E8
330
1F
100
AcDbEntity
  8
BEMA_U_00DFUNG
 62
     7
100
AcDb2dPolyline
 66
     1
 10
0.0
 20
0.0
 30
0.0
  0
VERTEX
  5
4E9
330
4E8
100
AcDbEntity
  8
BEMA_U_00DFUNG
 62
     7
100
AcDbVertex
100
AcDb2dVertex
 10
17.16697350373746
 20
225.2297839524816
 30
0.0
  0
VERTEX
  5
4EA
330
4E8
100
AcDbEntity
  8
BEMA_U_00DFUNG
 62
     7
100
AcDbVertex
100
AcDb2dVertex
 10
17.16697350373746
 20
225.6432395079339
 30
0.0
  0
SEQEND
  5
4EB
330
4E8
100
AcDbEntity
  8
BEMA_U_00DFUNG
 62
     7
  0
POLYLINE
  5
4EC
330
1F
100
AcDbEntity
  8
BEMA_U_00DFUNG
 62
     7
100
AcDb2dPolyline
 66
     1
 10
0.0
 20
0.0
 30
0.0
  0
VERTEX
  5
4ED
330
4EC
100
AcDbEntity
  8
BEMA_U_00DFUNG
 62
     7
100
AcDbVertex
100
AcDb2dVertex
 10
17.21777350372484
 20
225.2297839524816
 30
0.0
  0
VERTEX
  5
4EE
330
4EC
100
AcDbEntity
  8
BEMA_U_00DFUNG
 62
     7
100
AcDbVertex
100
AcDb2dVertex
 10
17.21777350372484
 20
226.0288256189486
 30
0.0
  0
SEQEND
  5
4EF
330
4EC
100
AcDbEntity
  8
BEMA_U_00DFUNG
 62
     7
  0
POLYLINE
  5
4F0
330
1F
100
AcDbEntity
  8
BEMA_U_00DFUNG
 62
     7
100
AcDb2dPolyline
 66
     1
 10
0.0
 20
0.0
 30
0.0
  0
VERTEX
  5
4F1
330
4F0
100
AcDbEntity
  8
BEMA_U_00DFUNG
 62
     7
100
AcDbVertex
100
AcDb2dVertex
 10
17.26857350371223
 20
225.2297839524816
 30
0.0
  0
VERTEX
  5
4F2
330
4F0
100
AcDbEntity
  8
BEMA_U_00DFUNG
 62
     7
100
AcDbVertex
100
AcDb2dVertex
 10
17.26857350371223
 20
226.4151172855188
 30
0.0
  0
SEQEND
  5
4F3
330
4F0
100
AcDbEntity
  8
BEMA_U_00DFUNG
 62
     7
  0
POLYLINE
  5
4F4
330
1F
100
AcDbEntity
  8
BEMA_U_00DFUNG
 62
     7
100
AcDb2dPolyline
 66
     1
 10
0.0
 20
0.0
 30
0.0
  0
VERTEX
  5
4F5
330
4F4
100
AcDbEntity
  8
BEMA_U_00DFUNG
 62
     7
100
AcDbVertex
100
AcDb2dVertex
 10
17.31937350369929
 20
225.2297839524816
 30
0.0
  0
VERTEX
  5
4F6
330
4F4
100
AcDbEntity
  8
BEMA_U_00DFUNG
 62
     7
100
AcDbVertex
100
AcDb2dVertex
 10
17.31937350369929
 20
226.8003506187557
 30
0.0
  0
SEQEND
  5
4F7
330
4F4
100
AcDbEntity
  8
BEMA_U_00DFUNG
 62
     7
  0
POLYLINE
  5
4F8
330
1F
100
AcDbEntity
  8
BEMA_U_00DFUNG
 62
     7
100
AcDb2dPolyline
 66
     1
 10
0.0
 20
0.0
 30
0.0
  0
VERTEX
  5
4F9
330
4F8
100
AcDbEntity
  8
BEMA_U_00DFUNG
 62
     7
100
AcDbVertex
100
AcDb2dVertex
 10
17.37052628146443
 20
225.2297839524816
 30
0.0
  0
VERTEX
  5
4FA
330
4F8
100
AcDbEntity
  8
BEMA_U_00DFUNG
 62
     7
100
AcDbVertex
100
AcDb2dVertex
 10
17.37052628146443
 20
227.1866422853258
 30
0.0
  0
SEQEND
  5
4FB
330
4F8
100
AcDbEntity
  8
BEMA_U_00DFUNG
 62
     7
  0
POLYLINE
  5
4FC
330
1F
100
AcDbEntity
  8
BEMA_U_00DFUNG
 62
     7
100
AcDb2dPolyline
 66
     1
 10
0.0
 20
0.0
 30
0.0
  0
VERTEX
  5
4FD
330
4FC
100
AcDbEntity
  8
BEMA_U_00DFUNG
 62
     7
100
AcDbVertex
100
AcDb2dVertex
 10
17.42132628145181
 20
225.2297839524816
 30
0.0
  0
VERTEX
  5
4FE
330
4FC
100
AcDbEntity
  8
BEMA_U_00DFUNG
 62
     7
100
AcDbVertex
100
AcDb2dVertex
 10
17.42132628145181
 20
227.5722283963405
 30
0.0
  0
SEQEND
  5
4FF
330
4FC
100
AcDbEntity
  8
BEMA_U_00DFUNG
 62
     7
  0
POLYLINE
  5
500
330
1F
100
AcDbEntity
  8
BEMA_U_00DFUNG
 62
     7
100
AcDb2dPolyline
 66
     1
 10
0.0
 20
0.0
 30
0.0
  0
VERTEX
  5
501
330
500
100
AcDbEntity
  8
BEMA_U_00DFUNG
 62
     7
100
AcDbVertex
100
AcDb2dVertex
 10
17.47212628143919
 20
225.2297839524816
 30
0.0
  0
VERTEX
  5
502
330
500
100
AcDbEntity
  8
BEMA_U_00DFUNG
 62
     7
100
AcDbVertex
100
AcDb2dVertex
 10
17.47212628143919
 20
227.9585200629107
 30
0.0
  0
SEQEND
  5
503
330
500
100
AcDbEntity
  8
BEMA_U_00DFUNG
 62
     7
  0
POLYLINE
  5
504
330
1F
100
AcDbEntity
  8
BEMA_U_00DFUNG
 62
     7
100
AcDb2dPolyline
 66
     1
 10
0.0
 20
0.0
 30
0.0
  0
VERTEX
  5
505
330
504
100
AcDbEntity
  8
BEMA_U_00DFUNG
 62
     7
100
AcDbVertex
100
AcDb2dVertex
 10
17.52292628142625
 20
225.2297839524816
 30
0.0
  0
VERTEX
  5
506
330
504
100
AcDbEntity
  8
BEMA_U_00DFUNG
 62
     7
100
AcDbVertex
100
AcDb2dVertex
 10
17.52292628142625
 20
228.3441061739254
 30
0.0
  0
SEQEND
  5
507
330
504
100
AcDbEntity
  8
BEMA_U_00DFUNG
 62
     7
  0
POLYLINE
  5
508
330
1F
100
AcDbEntity
  8
BEMA_U_00DFUNG
 62
     7
100
AcDb2dPolyline
 66
     1
 10
0.0
 20
0.0
 30
0.0
  0
VERTEX
  5
509
330
508
100
AcDbEntity
  8
BEMA_U_00DFUNG
 62
     7
100
AcDbVertex
100
AcDb2dVertex
 10
17.57372628141364
 20
225.2297839524816
 30
0.0
  0
VERTEX
  5
50A
330
508
100
AcDbEntity
  8
BEMA_U_00DFUNG
 62
     7
100
AcDbVertex
100
AcDb2dVertex
 10
17.57372628141364
 20
228.7300450627178
 30
0.0
  0
SEQEND
  5
50B
330
508
100
AcDbEntity
  8
BEMA_U_00DFUNG
 62
     7
  0
POLYLINE
  5
50C
330
1F
100
AcDbEntity
  8
BEMA_U_00DFUNG
 62
     7
100
AcDb2dPolyline
 66
     1
 10
0.0
 20
0.0
 30
0.0
  0
VERTEX
  5
50D
330
50C
100
AcDbEntity
  8
BEMA_U_00DFUNG
 62
     7
100
AcDbVertex
100
AcDb2dVertex
 10
18.03092628129944
 20
225.2297839524816
 30
0.0
  0
VERTEX
  5
50E
330
50C
100
AcDbEntity
  8
BEMA_U_00DFUNG
 62
     7
100
AcDbVertex
100
AcDb2dVertex
 10
18.03092628129944
 20
225.2569478413637
 30
0.0
  0
SEQEND
  5
50F
330
50C
100
AcDbEntity
  8
BEMA_U_00DFUNG
 62
     7
  0
POLYLINE
  5
510
330
1F
100
AcDbEntity
  8
BEMA_U_00DFUNG
 62
     7
100
AcDb2dPolyline
 66
     1
 10
0.0
 20
0.0
 30
0.0
  0
VERTEX
  5
511
330
510
100
AcDbEntity
  8
BEMA_U_00DFUNG
 62
     7
100
AcDbVertex
100
AcDb2dVertex
 10
18.03092628129944
 20
225.2297839524816
 30
0.0
  0
VERTEX
  5
512
330
510
100
AcDbEntity
  8
BEMA_U_00DFUNG
 62
     7
100
AcDbVertex
100
AcDb2dVertex
 10
18.03092628129944
 20
225.2569478413637
 30
0.0
  0
SEQEND
  5
513
330
510
100
AcDbEntity
  8
BEMA_U_00DFUNG
 62
     7
  0
POLYLINE
  5
514
330
1F
100
AcDbEntity
  8
BEMA_U_00DFUNG
 62
     7
100
AcDb2dPolyline
 66
     1
 10
0.0
 20
0.0
 30
0.0
  0
VERTEX
  5
515
330
514
100
AcDbEntity
  8
BEMA_U_00DFUNG
 62
     7
100
AcDbVertex
100
AcDb2dVertex
 10
17.98012628131205
 20
225.2297839524816
 30
0.0
  0
VERTEX
  5
516
330
514
100
AcDbEntity
  8
BEMA_U_00DFUNG
 62
     7
100
AcDbVertex
100
AcDb2dVertex
 10
17.98012628131205
 20
225.6432395079339
 30
0.0
  0
SEQEND
  5
517
330
514
100
AcDbEntity
  8
BEMA_U_00DFUNG
 62
     7
  0
POLYLINE
  5
518
330
1F
100
AcDbEntity
  8
BEMA_U_00DFUNG
 62
     7
100
AcDb2dPolyline
 66
     1
 10
0.0
 20
0.0
 30
0.0
  0
VERTEX
  5
519
330
518
100
AcDbEntity
  8
BEMA_U_00DFUNG
 62
     7
100
AcDbVertex
100
AcDb2dVertex
 10
17.92932628132467
 20
225.2297839524816
 30
0.0
  0
VERTEX
  5
51A
330
518
100
AcDbEntity
  8
BEMA_U_00DFUNG
 62
     7
100
AcDbVertex
100
AcDb2dVertex
 10
17.92932628132467
 20
226.0288256189486
 30
0.0
  0
SEQEND
  5
51B
330
518
100
AcDbEntity
  8
BEMA_U_00DFUNG
 62
     7
  0
POLYLINE
  5
51C
330
1F
100
AcDbEntity
  8
BEMA_U_00DFUNG
 62
     7
100
AcDb2dPolyline
 66
     1
 10
0.0
 20
0.0
 30
0.0
  0
VERTEX
  5
51D
330
51C
100
AcDbEntity
  8
BEMA_U_00DFUNG
 62
     7
100
AcDbVertex
100
AcDb2dVertex
 10
17.87817350355985
 20
225.2297839524816
 30
0.0
  0
VERTEX
  5
51E
330
51C
100
AcDbEntity
  8
BEMA_U_00DFUNG
 62
     7
100
AcDbVertex
100
AcDb2dVertex
 10
17.87817350355985
 20
226.4151172855188
 30
0.0
  0
SEQEND
  5
51F
330
51C
100
AcDbEntity
  8
BEMA_U_00DFUNG
 62
     7
  0
POLYLINE
  5
520
330
1F
100
AcDbEntity
  8
BEMA_U_00DFUNG
 62
     7
100
AcDb2dPolyline
 66
     1
 10
0.0
 20
0.0
 30
0.0
  0
VERTEX
  5
521
330
520
100
AcDbEntity
  8
BEMA_U_00DFUNG
 62
     7
100
AcDbVertex
100
AcDb2dVertex
 10
17.82737350357247
 20
225.2297839524816
 30
0.0
  0
VERTEX
  5
522
330
520
100
AcDbEntity
  8
BEMA_U_00DFUNG
 62
     7
100
AcDbVertex
100
AcDb2dVertex
 10
17.82737350357247
 20
226.8003506187557
 30
0.0
  0
SEQEND
  5
523
330
520
100
AcDbEntity
  8
BEMA_U_00DFUNG
 62
     7
  0
POLYLINE
  5
524
330
1F
100
AcDbEntity
  8
BEMA_U_00DFUNG
 62
     7
100
AcDb2dPolyline
 66
     1
 10
0.0
 20
0.0
 30
0.0
  0
VERTEX
  5
525
330
524
100
AcDbEntity
  8
BEMA_U_00DFUNG
 62
     7
100
AcDbVertex
100
AcDb2dVertex
 10
17.77657350358508
 20
225.2297839524816
 30
0.0
  0
VERTEX
  5
526
330
524
100
AcDbEntity
  8
BEMA_U_00DFUNG
 62
     7
100
AcDbVertex
100
AcDb2dVertex
 10
17.77657350358508
 20
227.1866422853258
 30
0.0
  0
SEQEND
  5
527
330
524
100
AcDbEntity
  8
BEMA_U_00DFUNG
 62
     7
  0
POLYLINE
  5
528
330
1F
100
AcDbEntity
  8
BEMA_U_00DFUNG
 62
     7
100
AcDb2dPolyline
 66
     1
 10
0.0
 20
0.0
 30
0.0
  0
VERTEX
  5
529
330
528
100
AcDbEntity
  8
BEMA_U_00DFUNG
 62
     7
100
AcDbVertex
100
AcDb2dVertex
 10
17.7257735035977
 20
225.2297839524816
 30
0.0
  0
VERTEX
  5
52A
330
528
100
AcDbEntity
  8
BEMA_U_00DFUNG
 62
     7
100
AcDbVertex
100
AcDb2dVertex
 10
17.7257735035977
 20
227.5722283963405
 30
0.0
  0
SEQEND
  5
52B
330
528
100
AcDbEntity
  8
BEMA_U_00DFUNG
 62
     7
  0
POLYLINE
  5
52C
330
1F
100
AcDbEntity
  8
BEMA_U_00DFUNG
 62
     7
100
AcDb2dPolyline
 66
     1
 10
0.0
 20
0.0
 30
0.0
  0
VERTEX
  5
52D
330
52C
100
AcDbEntity
  8
BEMA_U_00DFUNG
 62
     7
100
AcDbVertex
100
AcDb2dVertex
 10
17.67497350361064
 20
225.2297839524816
 30
0.0
  0
VERTEX
  5
52E
330
52C
100
AcDbEntity
  8
BEMA_U_00DFUNG
 62
     7
100
AcDbVertex
100
AcDb2dVertex
 10
17.67497350361064
 20
227.9585200629107
 30
0.0
  0
SEQEND
  5
52F
330
52C
100
AcDbEntity
  8
BEMA_U_00DFUNG
 62
     7
  0
POLYLINE
  5
530
330
1F
100
AcDbEntity
  8
BEMA_U_00DFUNG
 62
     7
100
AcDb2dPolyline
 66
     1
 10
0.0
 20
0.0
 30
0.0
  0
VERTEX
  5
531
330
530
100
AcDbEntity
  8
BEMA_U_00DFUNG
 62
     7
100
AcDbVertex
100
AcDb2dVertex
 10
17.62452628140102
 20
225.2297839524816
 30
0.0
  0
VERTEX
  5
532
330
530
100
AcDbEntity
  8
BEMA_U_00DFUNG
 62
     7
100
AcDbVertex
100
AcDb2dVertex
 10
17.62452628140102
 20
228.3441061739254
 30
0.0
  0
SEQEND
  5
533
330
530
100
AcDbEntity
  8
BEMA_U_00DFUNG
 62
     7
  0
POLYLINE
  5
534
330
1F
100
AcDbEntity
  8
BEMA_U_00DFUNG
 62
     7
100
AcDb2dPolyline
 66
     1
 10
0.0
 20
0.0
 30
0.0
  0
VERTEX
  5
535
330
534
100
AcDbEntity
  8
BEMA_U_00DFUNG
 62
     7
100
AcDbVertex
100
AcDb2dVertex
 10
17.57372628141364
 20
225.2297839524816
 30
0.0
  0
VERTEX
  5
536
330
534
100
AcDbEntity
  8
BEMA_U_00DFUNG
 62
     7
100
AcDbVertex
100
AcDb2dVertex
 10
17.57372628141364
 20
228.7300450627178
 30
0.0
  0
SEQEND
  5
537
330
534
100
AcDbEntity
  8
BEMA_U_00DFUNG
 62
     7
  0
ENDSEC
  0
SECTION
  2
OBJECTS
  0
DICTIONARY
  5
C
330
0
100
AcDbDictionary
  3
ACAD_GROUP
350
D
  3
ACAD_LAYOUT
350
1A
  3
ACAD_MATERIAL
350
3B
  3
ACAD_MLEADERSTYLE
350
55A
  3
ACAD_MLINESTYLE
350
17
  3
ACAD_PLOTSETTINGS
350
19
  3
ACAD_VISUALSTYLE
350
2A
  3
ACDBHEADERROUNDTRIPXREC
350
538
  3
ACDBVARIABLEDICTIONARY
350
558
  0
DICTIONARY
  5
D
102
{ACAD_REACTORS
330
C
102
}
330
C
100
AcDbDictionary
  0
DICTIONARY
  5
1A
102
{ACAD_REACTORS
330
C
102
}
330
C
100
AcDbDictionary
  0
DICTIONARY
  5
3B
102
{ACAD_REACTORS
330
C
102
}
330
C
100
AcDbDictionary
  3
BYBLOCK
350
3D
  3
BYLAYER
350
3C
  3
GLOBAL
350
3E
  0
DICTIONARY
  5
55A
102
{ACAD_REACTORS
330
C
102
}
330
C
100
AcDbDictionary
  0
DICTIONARY
  5
17
102
{ACAD_REACTORS
330
C
102
}
330
C
100
AcDbDictionary
  3
STANDARD
350
18
  0
DICTIONARY
  5
19
102
{ACAD_REACTORS
330
C
102
}
330
C
100
AcDbDictionary
  0
DICTIONARY
  5
2A
102
{ACAD_REACTORS
330
C
102
}
330
C
100
AcDbDictionary
  3
2DWIREFRAME
350
2F
  3
3D_HIDDEN
350
31
  3
3DWIREFRAME
350
30
  3
BASIC
350
32
  3
BRIGHTEN
350
36
  3
COLORCHANGE
350
3A
  3
CONCEPTUAL
350
34
  3
DIM
350
35
  3
FACEPATTERN
350
39
  3
FLAT
350
2B
  3
FLATWITHEDGES
350
2C
  3
GOURAUD
350
2D
  3
GOURAUDWITHEDGES
350
2E
  3
LINEPATTERN
350
38
  3
REALISTIC
350
33
  3
THICKEN
350
37
  0
DICTIONARY
  5
538
102
{ACAD_REACTORS
330
C
102
}
330
C
100
AcDbDictionary
  3
CEPSNTYPE
350
541
  3
DIMSTYLEDATA
350
557
  3
FINGERPRINTGUID
350
542
  3
HYPERLINKBASE
350
53B
  3
INSUNITS
350
540
  3
LAYOUTDICT
350
53D
  3
LWETCUNION
350
53F
  3
PLOTSETDICT
350
53E
  3
PSVPSCALE
350
544
  3
PUCSBASE
350
547
  3
PUCSORGBACK
350
54D
  3
PUCSORGBOTTOM
350
549
  3
PUCSORGFRONT
350
54C
  3
PUCSORGLEFT
350
54A
  3
PUCSORGRIGHT
350
54B
  3
PUCSORGTOP
350
548
  3
PUCSORTHOREF
350
545
  3
PUCSORTHOVIEW
350
546
  3
STYLESHEET
350
53C
  3
TSTACKALIGN
350
539
  3
TSTACKSIZE
350
53A
  3
UCSBASE
350
550
  3
UCSORGBACK
350
556
  3
UCSORGBOTTOM
350
552
  3
UCSORGFRONT
350
555
  3
UCSORGLEFT
350
553
  3
UCSORGRIGHT
350
554
  3
UCSORGTOP
350
551
  3
UCSORTHOREF
350
54E
  3
UCSORTHOVIEW
350
54F
  3
VERSIONGUID
350
543
  0
DICTIONARY
  5
558
102
{ACAD_REACTORS
330
C
102
}
330
C
100
AcDbDictionary
  3
DIMASSOC
350
55B
  3
HIDETEXT
350
55C
  0
MATERIAL
  5
3D
102
{ACAD_REACTORS
330
3B
102
}
102
{ACAD_XDICTIONARY
360
55F
102
}
330
3B
100
AcDbMaterial
  1
ByBlock
  0
MATERIAL
  5
3C
102
{ACAD_REACTORS
330
3B
102
}
102
{ACAD_XDICTIONARY
360
55D
102
}
330
3B
100
AcDbMaterial
  1
ByLayer
  0
MATERIAL
  5
3E
102
{ACAD_REACTORS
330
3B
102
}
102
{ACAD_XDICTIONARY
360
561
102
}
330
3B
100
AcDbMaterial
  1
Global
  0
MLINESTYLE
  5
18
102
{ACAD_REACTORS
330
17
102
}
330
17
100
AcDbMlineStyle
  2
Standard
 70
     0
  3

 62
   256
 51
90.0
 52
90.0
 71
     2
 49
0.5
 62
   256
  6
BYLAYER
 49
-0.5
 62
   256
  6
BYLAYER
  0
ACAD_PROXY_OBJECT
  5
2F
102
{ACAD_REACTORS
330
2A
102
}
330
2A
100
AcDbProxyObject
 90
      499
 91
      501
 93
      436
310
42CC9915DA5C99599C985B595049028333333333333E3BF0000000000000FB0107901411070040501600405405064090741402480A0340
1001
ACAD
1000
AcDbSavedByObjectVersion
1070
     0
  0
ACAD_PROXY_OBJECT
  5
31
102
{ACAD_REACTORS
330
2A
102
}
330
2A
100
AcDbProxyObject
 90
      499
 91
      501
 93
      500
310
424CD108121A5919195B90640502408333333333333E3BF0000000000000FB01079024090700405020000000000001110200405405064090740C02480A0340
1001
ACAD
1000
AcDbSavedByObjectVersion
1070
     0
  0
ACAD_PROXY_OBJECT
  5
30
102
{ACAD_REACTORS
330
2A
102
}
330
2A
100
AcDbProxyObject
 90
      499
 91
      501
 93
      436
310
42CCD915DA5C99599C985B595059028333333333333E3BF0000000000000FB0107901411070040501600405405064090741402480A0340
1001
ACAD
1000
AcDbSavedByObjectVersion
1070
     0
  0
ACAD_PROXY_OBJECT
  5
32
102
{ACAD_REACTORS
330
2A
102
}
330
2A
100
AcDbProxyObject
 90
      499
 91
      501
 93
      388
310
4150985CDA58D07406404333333333333E3BF0000000000000FB0107A41107004050150841D405064090741402480A0350
1001
ACAD
1000
AcDbSavedByObjectVersion
1070
     0
  0
ACAD_PROXY_OBJECT
  5
36
102
{ACAD_REACTORS
330
2A
102
}
330
2A
100
AcDbProxyObject
 90
      499
 91
      501
 93
      428
310
42109C9A59DA1D195B90C409028333333333333E3BF0000000000000FB010790141107004050150841D405064090741402480A029950
1001
ACAD
1000
AcDbSavedByObjectVersion
1070
     0
  0
ACAD_PROXY_OBJECT
  5
3A
102
{ACAD_REACTORS
330
2A
102
}
330
2A
100
AcDbProxyObject
 90
      499
 91
      501
 93
      452
310
42D0DBDB1BDC90DA185B99D95104090240C333333333333E3BF0000000000000FB0108901411070040501508421405064090741402480A0350
1001
ACAD
1000
AcDbSavedByObjectVersion
1070
     0
  0
ACAD_PROXY_OBJECT
  5
34
102
{ACAD_REACTORS
330
2A
102
}
330
2A
100
AcDbProxyObject
 90
      499
 91
      501
 93
      500
310
4290DBDB98D95C1D1D585B10940D028333333333333E3BF0000000000000FB0107902409070040501000000000000111010841D405064090740C02480A0340
1001
ACAD
1000
AcDbSavedByObjectVersion
1070
     0
  0
ACAD_PROXY_OBJECT
  5
35
102
{ACAD_REACTORS
330
2A
102
}
330
2A
100
AcDbProxyObject
 90
      499
 91
      501
 93
      412
310
40D11A5B50B409028333333333333E3BF0000000000000FB010790141107004050150841D405064090741402480A02677FFFFFD0
1001
ACAD
1000
AcDbSavedByObjectVersion
1070
     0
  0
ACAD_PROXY_OBJECT
  5
39
102
{ACAD_REACTORS
330
2A
102
}
330
2A
100
AcDbProxyObject
 90
      499
 91
      501
 93
      444
310
42D19858D95C185D1D195C9B90F409028333333333333E3BF0000000000000FB010790141107004050150841D405064090741402480A0350
1001
ACAD
1000
AcDbSavedByObjectVersion
1070
     0
  0
ACAD_PROXY_OBJECT
  5
2B
102
{ACAD_REACTORS
330
2A
102
}
330
2A
100
AcDbProxyObject
 90
      499
 91
      501
 93
      388
310
41119B185D240901404333333333333E3BF0000000000000F9010740A41107004050150841D405064090741402480A1B50
1001
ACAD
1000
AcDbSavedByObjectVersion
1070
     0
  0
ACAD_PROXY_OBJECT
  5
2C
102
{ACAD_REACTORS
330
2A
102
}
330
2A
100
AcDbProxyObject
 90
      499
 91
      501
 93
      476
310
43519B185D15DA5D1A115919D95CD0140901404333333333333E3BF0000000000000F9010740901411070040501600405405064090741402480A1B50
1001
ACAD
1000
AcDbSavedByObjectVersion
1070
     0
  0
ACAD_PROXY_OBJECT
  5
2D
102
{ACAD_REACTORS
330
2A
102
}
330
2A
100
AcDbProxyObject
 90
      499
 91
      501
 93
      412
310
41D1DBDD5C985D5910240902404333333333333E3BF0000000000000F9010740A411070040501641D405064090741402480A1B50
1001
ACAD
1000
AcDbSavedByObjectVersion
1070
     0
  0
ACAD_PROXY_OBJECT
  5
2E
102
{ACAD_REACTORS
330
2A
102
}
330
2A
100
AcDbProxyObject
 90
      499
 91
      501
 93
      500
310
4411DBDD5C985D5915DA5D1A115919D95CD0340902404333333333333E3BF0000000000000F9010740901411070040501600405405064090741402480A1B50
1001
ACAD
1000
AcDbSavedByObjectVersion
1070
     0
  0
ACAD_PROXY_OBJECT
  5
38
102
{ACAD_REACTORS
330
2A
102
}
330
2A
100
AcDbProxyObject
 90
      499
 91
      501
 93
      444
310
42D31A5B995C185D1D195C9B90E409028333333333333E3BF0000000000000FB010790141107004050750841D405064090741402483A0350
1001
ACAD
1000
AcDbSavedByObjectVersion
1070
     0
  0
ACAD_PROXY_OBJECT
  5
33
102
{ACAD_REACTORS
330
2A
102
}
330
2A
100
AcDbProxyObject
 90
      499
 91
      501
 93
      420
310
425499585B1A5CDD1A58D08409028333333333333E3BF0000000000000FB01079019070040501508421405064090741402480A1B40
1001
ACAD
1000
AcDbSavedByObjectVersion
1070
     0
  0
ACAD_PROXY_OBJECT
  5
37
102
{ACAD_REACTORS
330
2A
102
}
330
2A
100
AcDbProxyObject
 90
      499
 91
      501
 93
      412
310
41D51A1A58DAD95B90D409028333333333333E3BF0000000000000FB010790141107004050150C41D405064090741402480A0350
1001
ACAD
1000
AcDbSavedByObjectVersion
1070
     0
  0
XRECORD
  5
541
102
{ACAD_REACTORS
330
538
102
}
330
538
100
AcDbXrecord
 90
        0
  0
XRECORD
  5
557
102
{ACAD_REACTORS
330
538
102
}
330
538
100
AcDbXrecord
1000
DSTYLE
1002
{
1070
   340
340
11
1002
}
  0
XRECORD
  5
542
102
{ACAD_REACTORS
330
538
102
}
330
538
100
AcDbXrecord
  1
{5E895B2E-415A-4771-8A33-A2AEEC0F91C1}
  0
XRECORD
  5
53B
102
{ACAD_REACTORS
330
538
102
}
330
538
100
AcDbXrecord
  1

  0
XRECORD
  5
540
102
{ACAD_REACTORS
330
538
102
}
330
538
100
AcDbXrecord
 90
        4
  0
XRECORD
  5
53D
102
{ACAD_REACTORS
330
538
102
}
330
538
100
AcDbXrecord
340
1A
  0
XRECORD
  5
53F
102
{ACAD_REACTORS
330
538
102
}
330
538
100
AcDbXrecord
 90
    10269
  0
XRECORD
  5
53E
102
{ACAD_REACTORS
330
538
102
}
330
538
100
AcDbXrecord
340
19
  0
XRECORD
  5
544
102
{ACAD_REACTORS
330
538
102
}
330
538
100
AcDbXrecord
 40
0.0
  0
XRECORD
  5
547
102
{ACAD_REACTORS
330
538
102
}
330
538
100
AcDbXrecord
340
0
  0
XRECORD
  5
54D
102
{ACAD_REACTORS
330
538
102
}
330
538
100
AcDbXrecord
 10
0.0
 20
0.0
 30
0.0
  0
XRECORD
  5
549
102
{ACAD_REACTORS
330
538
102
}
330
538
100
AcDbXrecord
 10
0.0
 20
0.0
 30
0.0
  0
XRECORD
  5
54C
102
{ACAD_REACTORS
330
538
102
}
330
538
100
AcDbXrecord
 10
0.0
 20
0.0
 30
0.0
  0
XRECORD
  5
54A
102
{ACAD_REACTORS
330
538
102
}
330
538
100
AcDbXrecord
 10
0.0
 20
0.0
 30
0.0
  0
XRECORD
  5
54B
102
{ACAD_REACTORS
330
538
102
}
330
538
100
AcDbXrecord
 10
0.0
 20
0.0
 30
0.0
  0
XRECORD
  5
548
102
{ACAD_REACTORS
330
538
102
}
330
538
100
AcDbXrecord
 10
0.0
 20
0.0
 30
0.0
  0
XRECORD
  5
545
102
{ACAD_REACTORS
330
538
102
}
330
538
100
AcDbXrecord
340
0
  0
XRECORD
  5
546
102
{ACAD_REACTORS
330
538
102
}
330
538
100
AcDbXrecord
 70
     0
  0
XRECORD
  5
53C
102
{ACAD_REACTORS
330
538
102
}
330
538
100
AcDbXrecord
  1

  0
XRECORD
  5
539
102
{ACAD_REACTORS
330
538
102
}
330
538
100
AcDbXrecord
 90
        1
  0
XRECORD
  5
53A
102
{ACAD_REACTORS
330
538
102
}
330
538
100
AcDbXrecord
 90
       70
  0
XRECORD
  5
550
102
{ACAD_REACTORS
330
538
102
}
330
538
100
AcDbXrecord
340
0
  0
XRECORD
  5
556
102
{ACAD_REACTORS
330
538
102
}
330
538
100
AcDbXrecord
 10
0.0
 20
0.0
 30
0.0
  0
XRECORD
  5
552
102
{ACAD_REACTORS
330
538
102
}
330
538
100
AcDbXrecord
 10
0.0
 20
0.0
 30
0.0
  0
XRECORD
  5
555
102
{ACAD_REACTORS
330
538
102
}
330
538
100
AcDbXrecord
 10
0.0
 20
0.0
 30
0.0
  0
XRECORD
  5
553
102
{ACAD_REACTORS
330
538
102
}
330
538
100
AcDbXrecord
 10
0.0
 20
0.0
 30
0.0
  0
XRECORD
  5
554
102
{ACAD_REACTORS
330
538
102
}
330
538
100
AcDbXrecord
 10
0.0
 20
0.0
 30
0.0
  0
XRECORD
  5
551
102
{ACAD_REACTORS
330
538
102
}
330
538
100
AcDbXrecord
 10
0.0
 20
0.0
 30
0.0
  0
XRECORD
  5
54E
102
{ACAD_REACTORS
330
538
102
}
330
538
100
AcDbXrecord
340
0
  0
XRECORD
  5
54F
102
{ACAD_REACTORS
330
538
102
}
330
538
100
AcDbXrecord
 70
     0
  0
XRECORD
  5
543
102
{ACAD_REACTORS
330
538
102
}
330
538
100
AcDbXrecord
  1
{FAEB1C32-E019-11D5-929B-00C0DF256EC4}
  0
DICTIONARYVAR
  5
55B
102
{ACAD_REACTORS
330
558
102
}
330
558
100
DictionaryVariables
280
     0
  1
2
  0
DICTIONARYVAR
  5
55C
102
{ACAD_REACTORS
330
558
102
}
330
558
100
DictionaryVariables
280
     0
  1
1
  0
DICTIONARY
  5
55F
330
3D
100
AcDbDictionary
280
     1
  3
ACAD_XREC_ROUNDTRIP
360
560
  0
DICTIONARY
  5
55D
330
3C
100
AcDbDictionary
280
     1
  3
ACAD_XREC_ROUNDTRIP
360
55E
  0
DICTIONARY
  5
561
330
3E
100
AcDbDictionary
280
     1
  3
ACAD_XREC_ROUNDTRIP
360
562
  0
XRECORD
  5
560
102
{ACAD_REACTORS
330
55F
102
}
330
55F
100
AcDbXrecord
102
MATERIAL
148
0.0
149
0.0
149
0.0
 93
        0
 94
      127
282
     0
 72
     1
 77
     1
171
     1
175
     1
179
     1
273
     0
  0
XRECORD
  5
55E
102
{ACAD_REACTORS
330
55D
102
}
330
55D
100
AcDbXrecord
102
MATERIAL
148
0.0
149
0.0
149
0.0
 93
        0
 94
      127
282
     0
 72
     1
 77
     1
171
     1
175
     1
179
     1
273
     0
  0
XRECORD
  5
562
102
{ACAD_REACTORS
330
561
102
}
330
561
100
AcDbXrecord
102
MATERIAL
148
0.0
149
0.0
149
0.0
 93
        0
 94
      127
282
     0
 72
     1
 77
     1
171
     1
175
     1
179
     1
273
     0
  0
ENDSEC
  0
EOF
