  0
SECTION
  2
HEADER
  9
$ACADVER
  1
AC1014
  9
$ACADMAINTVER
 70
     9
  9
$DWGCODEPAGE
  3
ANSI_1252
  9
$INSBASE
 10
0.0
 20
0.0
 30
0.0
  9
$EXTMIN
 10
1.000000000000000E+20
 20
1.000000000000000E+20
 30
1.000000000000000E+20
  9
$EXTMAX
 10
-1.000000000000000E+20
 20
-1.000000000000000E+20
 30
-1.000000000000000E+20
  9
$LIMMIN
 10
0.0
 20
0.0
  9
$LIMMAX
 10
12.0
 20
9.0
  9
$ORTHOMODE
 70
     0
  9
$REGENMODE
 70
     1
  9
$FILLMODE
 70
     1
  9
$QTEXTMODE
 70
     0
  9
$MIRRTEXT
 70
     1
  9
$DRAGMODE
 70
     2
  9
$LTSCALE
 40
1.0
  9
$OSMODE
 70
    37
  9
$ATTMODE
 70
     1
  9
$TEXTSIZE
 40
0.2
  9
$TRACEWID
 40
0.05
  9
$TEXTSTYLE
  7
STANDARD
  9
$CLAYER
  8
0
  9
$CELTYPE
  6
BYLAYER
  9
$CECOLOR
 62
   256
  9
$CELTSCALE
 40
1.0
  9
$DELOBJ
 70
     1
  9
$DISPSILH
 70
     0
  9
$DIMSCALE
 40
1.0
  9
$DIMASZ
 40
0.18
  9
$DIMEXO
 40
0.0625
  9
$DIMDLI
 40
0.38
  9
$DIMRND
 40
0.0
  9
$DIMDLE
 40
0.0
  9
$DIMEXE
 40
0.18
  9
$DIMTP
 40
0.0
  9
$DIMTM
 40
0.0
  9
$DIMTXT
 40
0.18
  9
$DIMCEN
 40
0.09
  9
$DIMTSZ
 40
0.0
  9
$DIMTOL
 70
     0
  9
$DIMLIM
 70
     0
  9
$DIMTIH
 70
     1
  9
$DIMTOH
 70
     1
  9
$DIMSE1
 70
     0
  9
$DIMSE2
 70
     0
  9
$DIMTAD
 70
     0
  9
$DIMZIN
 70
     0
  9
$DIMBLK
  1

  9
$DIMASO
 70
     1
  9
$DIMSHO
 70
     1
  9
$DIMPOST
  1

  9
$DIMAPOST
  1

  9
$DIMALT
 70
     0
  9
$DIMALTD
 70
     2
  9
$DIMALTF
 40
25.4
  9
$DIMLFAC
 40
1.0
  9
$DIMTOFL
 70
     0
  9
$DIMTVP
 40
0.0
  9
$DIMTIX
 70
     0
  9
$DIMSOXD
 70
     0
  9
$DIMSAH
 70
     0
  9
$DIMBLK1
  1

  9
$DIMBLK2
  1

  9
$DIMSTYLE
  2
STANDARD
  9
$DIMCLRD
 70
     0
  9
$DIMCLRE
 70
     0
  9
$DIMCLRT
 70
     0
  9
$DIMTFAC
 40
1.0
  9
$DIMGAP
 40
0.09
  9
$DIMJUST
 70
     0
  9
$DIMSD1
 70
     0
  9
$DIMSD2
 70
     0
  9
$DIMTOLJ
 70
     1
  9
$DIMTZIN
 70
     0
  9
$DIMALTZ
 70
     0
  9
$DIMALTTZ
 70
     0
  9
$DIMFIT
 70
     3
  9
$DIMUPT
 70
     0
  9
$DIMUNIT
 70
     2
  9
$DIMDEC
 70
     4
  9
$DIMTDEC
 70
     4
  9
$DIMALTU
 70
     2
  9
$DIMALTTD
 70
     2
  9
$DIMTXSTY
  7
STANDARD
  9
$DIMAUNIT
 70
     0
  9
$LUNITS
 70
     2
  9
$LUPREC
 70
     4
  9
$SKETCHINC
 40
0.1
  9
$FILLETRAD
 40
0.5
  9
$AUNITS
 70
     0
  9
$AUPREC
 70
     0
  9
$MENU
  1
.
  9
$ELEVATION
 40
0.0
  9
$PELEVATION
 40
0.0
  9
$THICKNESS
 40
0.0
  9
$LIMCHECK
 70
     0
  9
$CHAMFERA
 40
0.5
  9
$CHAMFERB
 40
0.5
  9
$CHAMFERC
 40
1.0
  9
$CHAMFERD
 40
0.0
  9
$SKPOLY
 70
     0
  9
$TDCREATE
 40
2458890.417584109
  9
$TDUPDATE
 40
2458890.417584375
  9
$TDINDWG
 40
0.0000000116
  9
$TDUSRTIMER
 40
0.0000000116
  9
$USRTIMER
 70
     1
  9
$ANGBASE
 50
0.0
  9
$ANGDIR
 70
     0
  9
$PDMODE
 70
     0
  9
$PDSIZE
 40
0.0
  9
$PLINEWID
 40
0.0
  9
$COORDS
 70
     1
  9
$SPLFRAME
 70
     0
  9
$SPLINETYPE
 70
     6
  9
$SPLINESEGS
 70
     8
  9
$ATTDIA
 70
     0
  9
$ATTREQ
 70
     1
  9
$HANDLING
 70
     1
  9
$HANDSEED
  5
774
  9
$SURFTAB1
 70
     6
  9
$SURFTAB2
 70
     6
  9
$SURFTYPE
 70
     6
  9
$SURFU
 70
     6
  9
$SURFV
 70
     6
  9
$UCSNAME
  2

  9
$UCSORG
 10
0.0
 20
0.0
 30
0.0
  9
$UCSXDIR
 10
1.0
 20
0.0
 30
0.0
  9
$UCSYDIR
 10
0.0
 20
1.0
 30
0.0
  9
$PUCSNAME
  2

  9
$PUCSORG
 10
0.0
 20
0.0
 30
0.0
  9
$PUCSXDIR
 10
1.0
 20
0.0
 30
0.0
  9
$PUCSYDIR
 10
0.0
 20
1.0
 30
0.0
  9
$USERI1
 70
     0
  9
$USERI2
 70
     0
  9
$USERI3
 70
     0
  9
$USERI4
 70
     0
  9
$USERI5
 70
     0
  9
$USERR1
 40
0.0
  9
$USERR2
 40
0.0
  9
$USERR3
 40
0.0
  9
$USERR4
 40
0.0
  9
$USERR5
 40
0.0
  9
$WORLDVIEW
 70
     1
  9
$SHADEDGE
 70
     3
  9
$SHADEDIF
 70
    70
  9
$TILEMODE
 70
     1
  9
$MAXACTVP
 70
    64
  9
$PINSBASE
 10
0.0
 20
0.0
 30
0.0
  9
$PLIMCHECK
 70
     0
  9
$PEXTMIN
 10
1.000000000000000E+20
 20
1.000000000000000E+20
 30
1.000000000000000E+20
  9
$PEXTMAX
 10
-1.000000000000000E+20
 20
-1.000000000000000E+20
 30
-1.000000000000000E+20
  9
$PLIMMIN
 10
0.0
 20
0.0
  9
$PLIMMAX
 10
12.0
 20
9.0
  9
$UNITMODE
 70
     0
  9
$VISRETAIN
 70
     1
  9
$PLINEGEN
 70
     0
  9
$PSLTSCALE
 70
     1
  9
$TREEDEPTH
 70
  3020
  9
$PICKSTYLE
 70
     1
  9
$CMLSTYLE
  2
STANDARD
  9
$CMLJUST
 70
     0
  9
$CMLSCALE
 40
1.0
  9
$PROXYGRAPHICS
 70
     1
  9
$MEASUREMENT
 70
     0
  0
ENDSEC
  0
SECTION
  2
CLASSES
  0
CLASS
  1
ACDBDICTIONARYWDFLT
  2
AcDbDictionaryWithDefault
  3
ObjectDBX Classes
 90
        0
280
     0
281
     0
  0
CLASS
  1
VISUALSTYLE
  2
AcDbVisualStyle
  3
ObjectDBX Classes
 90
     4095
280
     0
281
     0
  0
CLASS
  1
MATERIAL
  2
AcDbMaterial
  3
ObjectDBX Classes
 90
     1153
280
     0
281
     0
  0
CLASS
  1
SUN
  2
AcDbSun
  3
SCENEOE
 90
     1024
280
     0
281
     0
  0
CLASS
  1
DICTIONARYVAR
  2
AcDbDictionaryVar
  3
ObjectDBX Classes
 90
        0
280
     0
281
     0
  0
CLASS
  1
XRECORD
  2
AcDbXrecord
  3
AutoCAD 2000
 90
        0
280
     0
281
     0
  0
CLASS
  1
LWPOLYLINE
  2
AcDbPolyline
  3
AutoCAD 2000
 90
        0
280
     0
281
     1
  0
CLASS
  1
HATCH
  2
AcDbHatch
  3
AutoCAD 2000
 90
        0
280
     0
281
     1
  0
CLASS
  1
ACDBPLACEHOLDER
  2
AcDbPlaceHolder
  3
ObjectDBX Classes
 90
        0
280
     0
281
     0
  0
CLASS
  1
LAYOUT
  2
AcDbLayout
  3
ObjectDBX Classes
 90
        0
280
     0
281
     0
  0
ENDSEC
  0
SECTION
  2
TABLES
  0
TABLE
  2
VPORT
  5
8
330
0
100
AcDbSymbolTable
 70
     1
  0
VPORT
  5
29
330
8
100
AcDbSymbolTableRecord
100
AcDbViewportTableRecord
  2
*ACTIVE
 70
     0
 10
0.0
 20
0.0
 11
1.0
 21
1.0
 12
0.0
 22
0.0
 13
0.0
 23
0.0
 14
0.5
 24
0.5
 15
0.5
 25
0.5
 16
0.0
 26
0.0
 36
1.0
 17
100.0611110860992
 27
127.0194444126945
 37
0.0
 40
296.9999999257403
 41
0.7070707070707531
 42
50.0
 43
0.0
 44
0.0
 50
0.0
 51
0.0
 71
     0
 72
   100
 73
     1
 74
     3
 75
     0
 76
     0
 77
     0
 78
     0
  0
ENDTAB
  0
TABLE
  2
LTYPE
  5
5
330
0
100
AcDbSymbolTable
 70
     1
  0
LTYPE
  5
14
330
5
100
AcDbSymbolTableRecord
100
AcDbLinetypeTableRecord
  2
BYBLOCK
 70
     0
  3

 72
    65
 73
     0
 40
0.0
  0
LTYPE
  5
15
330
5
100
AcDbSymbolTableRecord
100
AcDbLinetypeTableRecord
  2
BYLAYER
 70
     0
  3

 72
    65
 73
     0
 40
0.0
  0
LTYPE
  5
16
330
5
100
AcDbSymbolTableRecord
100
AcDbLinetypeTableRecord
  2
CONTINUOUS
 70
     0
  3
Solid line
 72
    65
 73
     0
 40
0.0
  0
ENDTAB
  0
TABLE
  2
LAYER
  5
2
330
0
100
AcDbSymbolTable
 70
     5
  0
LAYER
  5
10
330
2
100
AcDbSymbolTableRecord
100
AcDbLayerTableRecord
  2
0
 70
     0
 62
     7
  6
CONTINUOUS
  0
LAYER
  5
40
330
2
100
AcDbSymbolTableRecord
100
AcDbLayerTableRecord
  2
GRAU_10_
 70
     0
 62
     7
  6
CONTINUOUS
  0
LAYER
  5
3DA
330
2
100
AcDbSymbolTableRecord
100
AcDbLayerTableRecord
  2
STANDARDEBENE
 70
     0
 62
     7
  6
CONTINUOUS
  0
LAYER
  5
423
330
2
100
AcDbSymbolTableRecord
100
AcDbLayerTableRecord
  2
BEMA_U_00DFUNG
 70
     1
 62
     7
  6
CONTINUOUS
  0
LAYER
  5
744
330
2
100
AcDbSymbolTableRecord
100
AcDbLayerTableRecord
  2
TEXT
 70
     1
 62
     7
  6
CONTINUOUS
  0
ENDTAB
  0
TABLE
  2
STYLE
  5
3
330
0
100
AcDbSymbolTable
 70
     1
  0
STYLE
  5
11
330
3
100
AcDbSymbolTableRecord
100
AcDbTextStyleTableRecord
  2
STANDARD
 70
     0
 40
0.0
 41
1.0
 50
0.0
 71
     0
 42
0.2
  3
txt
  4

  0
ENDTAB
  0
TABLE
  2
VIEW
  5
6
330
0
100
AcDbSymbolTable
 70
     0
  0
ENDTAB
  0
TABLE
  2
UCS
  5
7
330
0
100
AcDbSymbolTable
 70
     0
  0
ENDTAB
  0
TABLE
  2
APPID
  5
9
330
0
100
AcDbSymbolTable
 70
     1
  0
APPID
  5
12
330
9
100
AcDbSymbolTableRecord
100
AcDbRegAppTableRecord
  2
ACAD
 70
     0
  0
ENDTAB
  0
TABLE
  2
DIMSTYLE
  5
A
330
0
100
AcDbSymbolTable
 70
     1
  0
DIMSTYLE
105
27
330
A
100
AcDbSymbolTableRecord
100
AcDbDimStyleTableRecord
  2
STANDARD
 70
     0
  3

  4

  5

  6

  7

 40
1.0
 41
0.18
 42
0.0625
 43
0.38
 44
0.18
 45
0.0
 46
0.0
 47
0.0
 48
0.0
140
0.18
141
0.09
142
0.0
143
25.4
144
1.0
145
0.0
146
1.0
147
0.09
 71
     0
 72
     0
 73
     1
 74
     1
 75
     0
 76
     0
 77
     0
 78
     0
170
     0
171
     2
172
     0
173
     0
174
     0
175
     0
176
     0
177
     0
178
     0
270
     2
271
     4
272
     4
273
     2
274
     2
340
11
275
     0
280
     0
281
     0
282
     0
283
     1
284
     0
285
     0
286
     0
287
     3
288
     0
  0
ENDTAB
  0
TABLE
  2
BLOCK_RECORD
  5
1
330
0
100
AcDbSymbolTable
 70
     1
  0
BLOCK_RECORD
  5
1F
330
1
100
AcDbSymbolTableRecord
100
AcDbBlockTableRecord
  2
*MODEL_SPACE
  0
BLOCK_RECORD
  5
1B
330
1
100
AcDbSymbolTableRecord
100
AcDbBlockTableRecord
  2
*PAPER_SPACE
  0
ENDTAB
  0
ENDSEC
  0
SECTION
  2
BLOCKS
  0
BLOCK
  5
20
330
1F
100
AcDbEntity
  8
0
100
AcDbBlockBegin
  2
*MODEL_SPACE
 70
     0
 10
0.0
 20
0.0
 30
0.0
  3
*MODEL_SPACE
  1

  0
ENDBLK
  5
21
330
1F
100
AcDbEntity
  8
0
100
AcDbBlockEnd
  0
BLOCK
  5
1C
330
1B
100
AcDbEntity
 67
     1
  8
0
100
AcDbBlockBegin
  2
*PAPER_SPACE
 70
     0
 10
0.0
 20
0.0
 30
0.0
  3
*PAPER_SPACE
  1

  0
ENDBLK
  5
1D
330
1B
100
AcDbEntity
 67
     1
  8
0
100
AcDbBlockEnd
  0
ENDSEC
  0
SECTION
  2
ENTITIES
  0
POLYLINE
  5
41
330
1F
100
AcDbEntity
  8
GRAU_10_
 62
     7
100
AcDb2dPolyline
 66
     1
 10
0.0
 20
0.0
 30
0.0
  0
VERTEX
  5
42
330
41
100
AcDbEntity
  8
GRAU_10_
 62
     7
100
AcDbVertex
100
AcDb2dVertex
 10
61.10288876510653
 20
207.7524614335221
 30
0.0
  0
VERTEX
  5
43
330
41
100
AcDbEntity
  8
GRAU_10_
 62
     7
100
AcDbVertex
100
AcDb2dVertex
 10
62.35242765368316
 20
207.6427475446607
 30
0.0
  0
VERTEX
  5
44
330
41
100
AcDbEntity
  8
GRAU_10_
 62
     7
100
AcDbVertex
100
AcDb2dVertex
 10
63.76741931999592
 20
207.8921614334874
 30
0.0
  0
SEQEND
  5
45
330
41
100
AcDbEntity
  8
GRAU_10_
 62
     7
  0
POLYLINE
  5
46
330
1F
100
AcDbEntity
  8
GRAU_10_
 62
     7
100
AcDb2dPolyline
 66
     1
 10
0.0
 20
0.0
 30
0.0
  0
VERTEX
  5
47
330
46
100
AcDbEntity
  8
GRAU_10_
 62
     7
100
AcDbVertex
100
AcDb2dVertex
 10
64.65324431977461
 20
208.5649086555415
 30
0.0
  0
VERTEX
  5
48
330
46
100
AcDbEntity
  8
GRAU_10_
 62
     7
100
AcDbVertex
100
AcDb2dVertex
 10
65.40289709736497
 20
208.5649086555415
 30
0.0
  0
SEQEND
  5
49
330
46
100
AcDbEntity
  8
GRAU_10_
 62
     7
  0
POLYLINE
  5
4A
330
1F
100
AcDbEntity
  8
GRAU_10_
 62
     7
100
AcDb2dPolyline
 66
     1
 10
0.0
 20
0.0
 30
0.0
  0
VERTEX
  5
4B
330
4A
100
AcDbEntity
  8
GRAU_10_
 62
     7
100
AcDbVertex
100
AcDb2dVertex
 10
60.40297765417058
 20
207.4645947669278
 30
0.0
  0
VERTEX
  5
4C
330
4A
100
AcDbEntity
  8
GRAU_10_
 62
     7
100
AcDbVertex
100
AcDb2dVertex
 10
65.40289709736497
 20
207.4645947669278
 30
0.0
  0
SEQEND
  5
4D
330
4A
100
AcDbEntity
  8
GRAU_10_
 62
     7
  0
POLYLINE
  5
4E
330
1F
100
AcDbEntity
  8
GRAU_10_
 62
     7
100
AcDb2dPolyline
 66
     1
 10
0.0
 20
0.0
 30
0.0
  0
VERTEX
  5
4F
330
4E
100
AcDbEntity
  8
GRAU_10_
 62
     7
100
AcDbVertex
100
AcDb2dVertex
 10
60.40297765417058
 20
207.5647836557915
 30
0.0
  0
VERTEX
  5
50
330
4E
100
AcDbEntity
  8
GRAU_10_
 62
     7
100
AcDbVertex
100
AcDb2dVertex
 10
61.10288876510653
 20
207.7524614335221
 30
0.0
  0
SEQEND
  5
51
330
4E
100
AcDbEntity
  8
GRAU_10_
 62
     7
  0
POLYLINE
  5
52
330
1F
100
AcDbEntity
  8
GRAU_10_
 62
     7
100
AcDb2dPolyline
 66
     1
 10
0.0
 20
0.0
 30
0.0
  0
VERTEX
  5
53
330
52
100
AcDbEntity
  8
GRAU_10_
 62
     7
100
AcDbVertex
100
AcDb2dVertex
 10
65.40289709736497
 20
208.5649086555415
 30
0.0
  0
VERTEX
  5
54
330
52
100
AcDbEntity
  8
GRAU_10_
 62
     7
100
AcDbVertex
100
AcDb2dVertex
 10
65.40289709736497
 20
207.4645947669278
 30
0.0
  0
SEQEND
  5
55
330
52
100
AcDbEntity
  8
GRAU_10_
 62
     7
  0
POLYLINE
  5
56
330
1F
100
AcDbEntity
  8
GRAU_10_
 62
     7
100
AcDb2dPolyline
 66
     1
 10
0.0
 20
0.0
 30
0.0
  0
VERTEX
  5
57
330
56
100
AcDbEntity
  8
GRAU_10_
 62
     7
100
AcDbVertex
100
AcDb2dVertex
 10
60.40297765417058
 20
207.4645947669278
 30
0.0
  0
VERTEX
  5
58
330
56
100
AcDbEntity
  8
GRAU_10_
 62
     7
100
AcDbVertex
100
AcDb2dVertex
 10
60.40297765417058
 20
207.5647836557915
 30
0.0
  0
SEQEND
  5
59
330
56
100
AcDbEntity
  8
GRAU_10_
 62
     7
  0
POLYLINE
  5
5A
330
1F
100
AcDbEntity
  8
GRAU_10_
 62
     7
100
AcDb2dPolyline
 66
     1
 10
0.0
 20
0.0
 30
0.0
  0
VERTEX
  5
5B
330
5A
100
AcDbEntity
  8
GRAU_10_
 62
     7
100
AcDbVertex
100
AcDb2dVertex
 10
61.22883043174171
 20
203.8860169900446
 30
0.0
  0
VERTEX
  5
5C
330
5A
100
AcDbEntity
  8
GRAU_10_
 62
     7
100
AcDbVertex
100
AcDb2dVertex
 10
61.38687487614675
 20
203.8860169900446
 30
0.0
  0
SEQEND
  5
5D
330
5A
100
AcDbEntity
  8
GRAU_10_
 62
     7
  0
POLYLINE
  5
5E
330
1F
100
AcDbEntity
  8
GRAU_10_
 62
     7
100
AcDb2dPolyline
 66
     1
 10
0.0
 20
0.0
 30
0.0
  0
VERTEX
  5
5F
330
5E
100
AcDbEntity
  8
GRAU_10_
 62
     7
100
AcDbVertex
100
AcDb2dVertex
 10
61.22883043174171
 20
203.8860169900446
 30
0.0
  0
VERTEX
  5
60
330
5E
100
AcDbEntity
  8
GRAU_10_
 62
     7
100
AcDbVertex
100
AcDb2dVertex
 10
60.40297765417058
 20
207.4645947669278
 30
0.0
  0
SEQEND
  5
61
330
5E
100
AcDbEntity
  8
GRAU_10_
 62
     7
  0
POLYLINE
  5
62
330
1F
100
AcDbEntity
  8
GRAU_10_
 62
     7
100
AcDb2dPolyline
 66
     1
 10
0.0
 20
0.0
 30
0.0
  0
VERTEX
  5
63
330
62
100
AcDbEntity
  8
GRAU_10_
 62
     7
100
AcDbVertex
100
AcDb2dVertex
 10
65.40289709736497
 20
207.4645947669278
 30
0.0
  0
VERTEX
  5
64
330
62
100
AcDbEntity
  8
GRAU_10_
 62
     7
100
AcDbVertex
100
AcDb2dVertex
 10
65.40289709736497
 20
205.6287392118309
 30
0.0
  0
SEQEND
  5
65
330
62
100
AcDbEntity
  8
GRAU_10_
 62
     7
  0
POLYLINE
  5
66
330
1F
100
AcDbEntity
  8
GRAU_10_
 62
     7
100
AcDb2dPolyline
 66
     1
 10
0.0
 20
0.0
 30
0.0
  0
VERTEX
  5
67
330
66
100
AcDbEntity
  8
GRAU_10_
 62
     7
100
AcDbVertex
100
AcDb2dVertex
 10
68.69501931876397
 20
201.7725253239063
 30
0.0
  0
VERTEX
  5
68
330
66
100
AcDbEntity
  8
GRAU_10_
 62
     7
100
AcDbVertex
100
AcDb2dVertex
 10
68.54896931880056
 20
201.9185753238697
 30
0.0
  0
SEQEND
  5
69
330
66
100
AcDbEntity
  8
GRAU_10_
 62
     7
  0
POLYLINE
  5
6A
330
1F
100
AcDbEntity
  8
GRAU_10_
 62
     7
100
AcDb2dPolyline
 66
     1
 10
0.0
 20
0.0
 30
0.0
  0
VERTEX
  5
6B
330
6A
100
AcDbEntity
  8
GRAU_10_
 62
     7
100
AcDbVertex
100
AcDb2dVertex
 10
68.19548598555578
 20
202.0646253238331
 30
0.0
  0
VERTEX
  5
6C
330
6A
100
AcDbEntity
  8
GRAU_10_
 62
     7
100
AcDbVertex
100
AcDb2dVertex
 10
65.60962487509116
 20
202.0646253238331
 30
0.0
  0
SEQEND
  5
6D
330
6A
100
AcDbEntity
  8
GRAU_10_
 62
     7
  0
POLYLINE
  5
6E
330
1F
100
AcDbEntity
  8
GRAU_10_
 62
     7
100
AcDb2dPolyline
 66
     1
 10
0.0
 20
0.0
 30
0.0
  0
VERTEX
  5
6F
330
6E
100
AcDbEntity
  8
GRAU_10_
 62
     7
100
AcDbVertex
100
AcDb2dVertex
 10
66.11303876385408
 20
207.5647836557915
 30
0.0
  0
VERTEX
  5
70
330
6E
100
AcDbEntity
  8
GRAU_10_
 62
     7
100
AcDbVertex
100
AcDb2dVertex
 10
70.90305542932308
 20
207.4815281002565
 30
0.0
  0
SEQEND
  5
71
330
6E
100
AcDbEntity
  8
GRAU_10_
 62
     7
  0
POLYLINE
  5
72
330
1F
100
AcDbEntity
  8
GRAU_10_
 62
     7
100
AcDb2dPolyline
 66
     1
 10
0.0
 20
0.0
 30
0.0
  0
VERTEX
  5
73
330
72
100
AcDbEntity
  8
GRAU_10_
 62
     7
100
AcDbVertex
100
AcDb2dVertex
 10
71.90282765129561
 20
207.2134169892126
 30
0.0
  0
VERTEX
  5
74
330
72
100
AcDbEntity
  8
GRAU_10_
 62
     7
100
AcDbVertex
100
AcDb2dVertex
 10
72.90259987326783
 20
206.6362725449127
 30
0.0
  0
VERTEX
  5
75
330
72
100
AcDbEntity
  8
GRAU_10_
 62
     7
100
AcDbVertex
100
AcDb2dVertex
 10
72.90259987326783
 20
202.0646253238331
 30
0.0
  0
VERTEX
  5
76
330
72
100
AcDbEntity
  8
GRAU_10_
 62
     7
100
AcDbVertex
100
AcDb2dVertex
 10
72.80276376218156
 20
202.0646253238331
 30
0.0
  0
VERTEX
  5
77
330
72
100
AcDbEntity
  8
GRAU_10_
 62
     7
100
AcDbVertex
100
AcDb2dVertex
 10
72.50995820669922
 20
201.7725253239063
 30
0.0
  0
SEQEND
  5
78
330
72
100
AcDbEntity
  8
GRAU_10_
 62
     7
  0
POLYLINE
  5
79
330
1F
100
AcDbEntity
  8
GRAU_10_
 62
     7
100
AcDb2dPolyline
 66
     1
 10
0.0
 20
0.0
 30
0.0
  0
VERTEX
  5
7A
330
79
100
AcDbEntity
  8
GRAU_10_
 62
     7
100
AcDbVertex
100
AcDb2dVertex
 10
65.40289709736497
 20
208.5649086555415
 30
0.0
  0
VERTEX
  5
7B
330
79
100
AcDbEntity
  8
GRAU_10_
 62
     7
100
AcDbVertex
100
AcDb2dVertex
 10
65.64208043063847
 20
207.8967475445973
 30
0.0
  0
SEQEND
  5
7C
330
79
100
AcDbEntity
  8
GRAU_10_
 62
     7
  0
POLYLINE
  5
7D
330
1F
100
AcDbEntity
  8
GRAU_10_
 62
     7
100
AcDb2dPolyline
 66
     1
 10
0.0
 20
0.0
 30
0.0
  0
VERTEX
  5
7E
330
7D
100
AcDbEntity
  8
GRAU_10_
 62
     7
100
AcDbVertex
100
AcDb2dVertex
 10
68.69501931876397
 20
201.7725253239063
 30
0.0
  0
VERTEX
  5
7F
330
7D
100
AcDbEntity
  8
GRAU_10_
 62
     7
100
AcDbVertex
100
AcDb2dVertex
 10
72.50995820669922
 20
201.7725253239063
 30
0.0
  0
SEQEND
  5
80
330
7D
100
AcDbEntity
  8
GRAU_10_
 62
     7
  0
POLYLINE
  5
81
330
1F
100
AcDbEntity
  8
GRAU_10_
 62
     7
100
AcDb2dPolyline
 66
     1
 10
0.0
 20
0.0
 30
0.0
  0
VERTEX
  5
82
330
81
100
AcDbEntity
  8
GRAU_10_
 62
     7
100
AcDbVertex
100
AcDb2dVertex
 10
72.30252487341784
 20
201.5650919906249
 30
0.0
  0
VERTEX
  5
83
330
81
100
AcDbEntity
  8
GRAU_10_
 62
     7
100
AcDbVertex
100
AcDb2dVertex
 10
72.50995820669922
 20
201.7725253239063
 30
0.0
  0
SEQEND
  5
84
330
81
100
AcDbEntity
  8
GRAU_10_
 62
     7
  0
POLYLINE
  5
85
330
1F
100
AcDbEntity
  8
GRAU_10_
 62
     7
100
AcDb2dPolyline
 66
     1
 10
0.0
 20
0.0
 30
0.0
  0
VERTEX
  5
86
330
85
100
AcDbEntity
  8
GRAU_10_
 62
     7
100
AcDbVertex
100
AcDb2dVertex
 10
68.69501931876397
 20
201.7725253239063
 30
0.0
  0
VERTEX
  5
87
330
85
100
AcDbEntity
  8
GRAU_10_
 62
     7
100
AcDbVertex
100
AcDb2dVertex
 10
68.90245265204567
 20
201.5650919906249
 30
0.0
  0
VERTEX
  5
88
330
85
100
AcDbEntity
  8
GRAU_10_
 62
     7
100
AcDbVertex
100
AcDb2dVertex
 10
72.30252487341784
 20
201.5650919906249
 30
0.0
  0
SEQEND
  5
89
330
85
100
AcDbEntity
  8
GRAU_10_
 62
     7
  0
POLYLINE
  5
8A
330
1F
100
AcDbEntity
  8
GRAU_10_
 62
     7
100
AcDb2dPolyline
 66
     1
 10
0.0
 20
0.0
 30
0.0
  0
VERTEX
  5
8B
330
8A
100
AcDbEntity
  8
GRAU_10_
 62
     7
100
AcDbVertex
100
AcDb2dVertex
 10
61.40310265392057
 20
201.5650919906249
 30
0.0
  0
VERTEX
  5
8C
330
8A
100
AcDbEntity
  8
GRAU_10_
 62
     7
100
AcDbVertex
100
AcDb2dVertex
 10
64.9030109863787
 20
201.5650919906249
 30
0.0
  0
SEQEND
  5
8D
330
8A
100
AcDbEntity
  8
GRAU_10_
 62
     7
  0
POLYLINE
  5
8E
330
1F
100
AcDbEntity
  8
GRAU_10_
 62
     7
100
AcDb2dPolyline
 66
     1
 10
0.0
 20
0.0
 30
0.0
  0
VERTEX
  5
8F
330
8E
100
AcDbEntity
  8
GRAU_10_
 62
     7
100
AcDbVertex
100
AcDb2dVertex
 10
61.40310265392057
 20
201.5650919906249
 30
0.0
  0
VERTEX
  5
90
330
8E
100
AcDbEntity
  8
GRAU_10_
 62
     7
100
AcDbVertex
100
AcDb2dVertex
 10
61.40310265392057
 20
203.133189212455
 30
0.0
  0
SEQEND
  5
91
330
8E
100
AcDbEntity
  8
GRAU_10_
 62
     7
  0
POLYLINE
  5
92
330
1F
100
AcDbEntity
  8
GRAU_10_
 62
     7
100
AcDb2dPolyline
 66
     1
 10
0.0
 20
0.0
 30
0.0
  0
VERTEX
  5
93
330
92
100
AcDbEntity
  8
GRAU_10_
 62
     7
100
AcDbVertex
100
AcDb2dVertex
 10
65.25649431962381
 20
201.9185753238697
 30
0.0
  0
VERTEX
  5
94
330
92
100
AcDbEntity
  8
GRAU_10_
 62
     7
100
AcDbVertex
100
AcDb2dVertex
 10
64.9030109863787
 20
201.5650919906249
 30
0.0
  0
SEQEND
  5
95
330
92
100
AcDbEntity
  8
GRAU_10_
 62
     7
  0
POLYLINE
  5
96
330
1F
100
AcDbEntity
  8
GRAU_10_
 62
     7
100
AcDb2dPolyline
 66
     1
 10
0.0
 20
0.0
 30
0.0
  0
VERTEX
  5
97
330
96
100
AcDbEntity
  8
GRAU_10_
 62
     7
100
AcDbVertex
100
AcDb2dVertex
 10
61.40310265392057
 20
203.133189212455
 30
0.0
  0
VERTEX
  5
98
330
96
100
AcDbEntity
  8
GRAU_10_
 62
     7
100
AcDbVertex
100
AcDb2dVertex
 10
61.22883043174171
 20
203.8860169900446
 30
0.0
  0
SEQEND
  5
99
330
96
100
AcDbEntity
  8
GRAU_10_
 62
     7
  0
POLYLINE
  5
9A
330
1F
100
AcDbEntity
  8
GRAU_10_
 62
     7
100
AcDb2dPolyline
 66
     1
 10
0.0
 20
0.0
 30
0.0
  0
VERTEX
  5
9B
330
9A
100
AcDbEntity
  8
GRAU_10_
 62
     7
100
AcDbVertex
100
AcDb2dVertex
 10
65.40289709736497
 20
205.6287392118309
 30
0.0
  0
VERTEX
  5
9C
330
9A
100
AcDbEntity
  8
GRAU_10_
 62
     7
100
AcDbVertex
100
AcDb2dVertex
 10
65.40289709736497
 20
202.0201753238441
 30
0.0
  0
SEQEND
  5
9D
330
9A
100
AcDbEntity
  8
GRAU_10_
 62
     7
  0
SPLINE
  5
9E
330
1F
100
AcDbEntity
  8
GRAU_10_
 62
     7
100
AcDbSpline
210
0.0
220
0.0
230
1.0
 70
     8
 71
     3
 72
     8
 73
     4
 74
     0
 42
0.0000000001
 43
0.0000000001
 12
1.0
 22
0.0
 32
0.0
 13
1.0
 23
0.0
 33
0.0
 40
0.0
 40
0.0
 40
0.0
 40
0.0
 40
1.0
 40
1.0
 40
1.0
 40
1.0
 10
63.76741931999592
 20
207.8921614334874
 30
0.0
 10
63.96074154217005
 20
208.0427975445607
 30
0.0
 10
64.13113320879386
 20
208.2114253222964
 30
0.0
 10
64.26448320876074
 20
208.378994766699
 30
0.0
  0
SPLINE
  5
9F
330
1F
100
AcDbEntity
  8
GRAU_10_
 62
     7
100
AcDbSpline
210
0.0
220
0.0
230
1.0
 70
     8
 71
     3
 72
     8
 73
     4
 74
     0
 42
0.0000000001
 43
0.0000000001
 12
1.0
 22
0.0
 32
0.0
 13
1.0
 23
0.0
 33
0.0
 40
0.0
 40
0.0
 40
0.0
 40
0.0
 40
1.0
 40
1.0
 40
1.0
 40
1.0
 10
64.65324431977461
 20
208.5649086555415
 30
0.0
 10
64.49625820870284
 20
208.5649086555415
 30
0.0
 10
64.3569109865153
 20
208.4925892111148
 30
0.0
 10
64.26448320876074
 20
208.378994766699
 30
0.0
  0
POLYLINE
  5
A0
330
1F
100
AcDbEntity
  8
GRAU_10_
 62
     7
100
AcDb2dPolyline
 66
     1
 10
0.0
 20
0.0
 30
0.0
  0
VERTEX
  5
A1
330
A0
100
AcDbEntity
  8
GRAU_10_
 62
     7
100
AcDbVertex
100
AcDb2dVertex
 10
68.54896931880056
 20
201.9185753238697
 30
0.0
  0
VERTEX
  5
A2
330
A0
100
AcDbEntity
  8
GRAU_10_
 62
     7
100
AcDbVertex
100
AcDb2dVertex
 10
68.3870443188411
 20
202.0268781016203
 30
0.0
  0
VERTEX
  5
A3
330
A0
100
AcDbEntity
  8
GRAU_10_
 62
     7
100
AcDbVertex
100
AcDb2dVertex
 10
68.19548598555578
 20
202.0646253238331
 30
0.0
  0
SEQEND
  5
A4
330
A0
100
AcDbEntity
  8
GRAU_10_
 62
     7
  0
POLYLINE
  5
A5
330
1F
100
AcDbEntity
  8
GRAU_10_
 62
     7
100
AcDb2dPolyline
 66
     1
 10
0.0
 20
0.0
 30
0.0
  0
VERTEX
  5
A6
330
A5
100
AcDbEntity
  8
GRAU_10_
 62
     7
100
AcDbVertex
100
AcDb2dVertex
 10
65.60962487509116
 20
202.0646253238331
 30
0.0
  0
VERTEX
  5
A7
330
A5
100
AcDbEntity
  8
GRAU_10_
 62
     7
100
AcDbVertex
100
AcDb2dVertex
 10
65.50414431956197
 20
202.0536892127247
 30
0.0
  0
VERTEX
  5
A8
330
A5
100
AcDbEntity
  8
GRAU_10_
 62
     7
100
AcDbVertex
100
AcDb2dVertex
 10
65.40289709736497
 20
202.0201753238441
 30
0.0
  0
SEQEND
  5
A9
330
A5
100
AcDbEntity
  8
GRAU_10_
 62
     7
  0
POLYLINE
  5
AA
330
1F
100
AcDbEntity
  8
GRAU_10_
 62
     7
100
AcDb2dPolyline
 66
     1
 10
0.0
 20
0.0
 30
0.0
  0
VERTEX
  5
AB
330
AA
100
AcDbEntity
  8
GRAU_10_
 62
     7
100
AcDbVertex
100
AcDb2dVertex
 10
65.64208043063847
 20
207.8967475445973
 30
0.0
  0
VERTEX
  5
AC
330
AA
100
AcDbEntity
  8
GRAU_10_
 62
     7
100
AcDbVertex
100
AcDb2dVertex
 10
65.82517209725944
 20
207.6561531002131
 30
0.0
  0
VERTEX
  5
AD
330
AA
100
AcDbEntity
  8
GRAU_10_
 62
     7
100
AcDbVertex
100
AcDb2dVertex
 10
66.11303876385408
 20
207.5647836557915
 30
0.0
  0
SEQEND
  5
AE
330
AA
100
AcDbEntity
  8
GRAU_10_
 62
     7
  0
POLYLINE
  5
AF
330
1F
100
AcDbEntity
  8
GRAU_10_
 62
     7
100
AcDb2dPolyline
 66
     1
 10
0.0
 20
0.0
 30
0.0
  0
VERTEX
  5
B0
330
AF
100
AcDbEntity
  8
GRAU_10_
 62
     7
100
AcDbVertex
100
AcDb2dVertex
 10
70.90305542932308
 20
207.4815281002565
 30
0.0
  0
VERTEX
  5
B1
330
AF
100
AcDbEntity
  8
GRAU_10_
 62
     7
100
AcDbVertex
100
AcDb2dVertex
 10
71.42022765141613
 20
207.4134419891626
 30
0.0
  0
VERTEX
  5
B2
330
AF
100
AcDbEntity
  8
GRAU_10_
 62
     7
100
AcDbVertex
100
AcDb2dVertex
 10
71.90282765129561
 20
207.2134169892126
 30
0.0
  0
SEQEND
  5
B3
330
AF
100
AcDbEntity
  8
GRAU_10_
 62
     7
  0
SPLINE
  5
B4
330
1F
100
AcDbEntity
  8
GRAU_10_
 62
     7
100
AcDbSpline
210
0.0
220
0.0
230
1.0
 70
     8
 71
     3
 72
     8
 73
     4
 74
     0
 42
0.0000000001
 43
0.0000000001
 12
1.0
 22
0.0
 32
0.0
 13
1.0
 23
0.0
 33
0.0
 40
0.0
 40
0.0
 40
0.0
 40
0.0
 40
1.0
 40
1.0
 40
1.0
 40
1.0
 10
65.40289709736497
 20
202.0201753238441
 30
0.0
 10
65.34539431960141
 20
201.9937169905175
 30
0.0
 10
65.29565265294731
 20
201.9580864349709
 30
0.0
 10
65.25649431962381
 20
201.9185753238697
 30
0.0
  0
POLYLINE
  5
B5
330
1F
100
AcDbEntity
  8
GRAU_10_
 62
     7
100
AcDb2dPolyline
 66
     1
 10
0.0
 20
0.0
 30
0.0
  0
VERTEX
  5
B6
330
B5
100
AcDbEntity
  8
GRAU_10_
 62
     7
100
AcDbVertex
100
AcDb2dVertex
 10
61.38687487614675
 20
203.8860169900446
 30
0.0
  0
VERTEX
  5
B7
330
B5
100
AcDbEntity
  8
GRAU_10_
 62
     7
100
AcDbVertex
100
AcDb2dVertex
 10
62.49106932031518
 20
204.046883656671
 30
0.0
  0
VERTEX
  5
B8
330
B5
100
AcDbEntity
  8
GRAU_10_
 62
     7
100
AcDbVertex
100
AcDb2dVertex
 10
63.54975543116137
 20
204.3996614343606
 30
0.0
  0
VERTEX
  5
B9
330
B5
100
AcDbEntity
  8
GRAU_10_
 62
     7
100
AcDbVertex
100
AcDb2dVertex
 10
64.53047765313865
 20
204.9323558786717
 30
0.0
  0
VERTEX
  5
BA
330
B5
100
AcDbEntity
  8
GRAU_10_
 62
     7
100
AcDbVertex
100
AcDb2dVertex
 10
65.40289709736497
 20
205.6287392118309
 30
0.0
  0
SEQEND
  5
BB
330
B5
100
AcDbEntity
  8
GRAU_10_
 62
     7
  0
POLYLINE
  5
BC
330
1F
100
AcDbEntity
  8
GRAU_10_
 62
     7
100
AcDb2dPolyline
 66
     1
 10
0.0
 20
0.0
 30
0.0
  0
VERTEX
  5
BD
330
BC
100
AcDbEntity
  8
GRAU_10_
 62
     7
100
AcDbVertex
100
AcDb2dVertex
 10
118.8413025291102
 20
207.4645947669278
 30
0.0
  0
VERTEX
  5
BE
330
BC
100
AcDbEntity
  8
GRAU_10_
 62
     7
100
AcDbVertex
100
AcDb2dVertex
 10
121.8416775283602
 20
207.4645947669278
 30
0.0
  0
SEQEND
  5
BF
330
BC
100
AcDbEntity
  8
GRAU_10_
 62
     7
  0
POLYLINE
  5
C0
330
1F
100
AcDbEntity
  8
GRAU_10_
 62
     7
100
AcDb2dPolyline
 66
     1
 10
0.0
 20
0.0
 30
0.0
  0
VERTEX
  5
C1
330
C0
100
AcDbEntity
  8
GRAU_10_
 62
     7
100
AcDbVertex
100
AcDb2dVertex
 10
121.5912053062005
 20
203.8860169900446
 30
0.0
  0
VERTEX
  5
C2
330
C0
100
AcDbEntity
  8
GRAU_10_
 62
     7
100
AcDbVertex
100
AcDb2dVertex
 10
121.8416775283602
 20
207.4645947669278
 30
0.0
  0
SEQEND
  5
C3
330
C0
100
AcDbEntity
  8
GRAU_10_
 62
     7
  0
POLYLINE
  5
C4
330
1F
100
AcDbEntity
  8
GRAU_10_
 62
     7
100
AcDb2dPolyline
 66
     1
 10
0.0
 20
0.0
 30
0.0
  0
VERTEX
  5
C5
330
C4
100
AcDbEntity
  8
GRAU_10_
 62
     7
100
AcDbVertex
100
AcDb2dVertex
 10
121.5912053062005
 20
203.133189212455
 30
0.0
  0
VERTEX
  5
C6
330
C4
100
AcDbEntity
  8
GRAU_10_
 62
     7
100
AcDbVertex
100
AcDb2dVertex
 10
121.5912053062005
 20
203.8860169900446
 30
0.0
  0
SEQEND
  5
C7
330
C4
100
AcDbEntity
  8
GRAU_10_
 62
     7
  0
POLYLINE
  5
C8
330
1F
100
AcDbEntity
  8
GRAU_10_
 62
     7
100
AcDb2dPolyline
 66
     1
 10
0.0
 20
0.0
 30
0.0
  0
VERTEX
  5
C9
330
C8
100
AcDbEntity
  8
GRAU_10_
 62
     7
100
AcDbVertex
100
AcDb2dVertex
 10
119.0914219734921
 20
203.133189212455
 30
0.0
  0
VERTEX
  5
CA
330
C8
100
AcDbEntity
  8
GRAU_10_
 62
     7
100
AcDbVertex
100
AcDb2dVertex
 10
121.5912053062005
 20
203.133189212455
 30
0.0
  0
SEQEND
  5
CB
330
C8
100
AcDbEntity
  8
GRAU_10_
 62
     7
  0
POLYLINE
  5
CC
330
1F
100
AcDbEntity
  8
GRAU_10_
 62
     7
100
AcDb2dPolyline
 66
     1
 10
0.0
 20
0.0
 30
0.0
  0
VERTEX
  5
CD
330
CC
100
AcDbEntity
  8
GRAU_10_
 62
     7
100
AcDbVertex
100
AcDb2dVertex
 10
119.0914219734921
 20
203.8839003233783
 30
0.0
  0
VERTEX
  5
CE
330
CC
100
AcDbEntity
  8
GRAU_10_
 62
     7
100
AcDbVertex
100
AcDb2dVertex
 10
119.0914219734921
 20
203.133189212455
 30
0.0
  0
SEQEND
  5
CF
330
CC
100
AcDbEntity
  8
GRAU_10_
 62
     7
  0
POLYLINE
  5
D0
330
1F
100
AcDbEntity
  8
GRAU_10_
 62
     7
100
AcDb2dPolyline
 66
     1
 10
0.0
 20
0.0
 30
0.0
  0
VERTEX
  5
D1
330
D0
100
AcDbEntity
  8
GRAU_10_
 62
     7
100
AcDbVertex
100
AcDb2dVertex
 10
119.0914219734921
 20
203.8860169900446
 30
0.0
  0
VERTEX
  5
D2
330
D0
100
AcDbEntity
  8
GRAU_10_
 62
     7
100
AcDbVertex
100
AcDb2dVertex
 10
119.0914219734921
 20
203.8839003233783
 30
0.0
  0
SEQEND
  5
D3
330
D0
100
AcDbEntity
  8
GRAU_10_
 62
     7
  0
POLYLINE
  5
D4
330
1F
100
AcDbEntity
  8
GRAU_10_
 62
     7
100
AcDb2dPolyline
 66
     1
 10
0.0
 20
0.0
 30
0.0
  0
VERTEX
  5
D5
330
D4
100
AcDbEntity
  8
GRAU_10_
 62
     7
100
AcDbVertex
100
AcDb2dVertex
 10
118.8413025291102
 20
207.4645947669278
 30
0.0
  0
VERTEX
  5
D6
330
D4
100
AcDbEntity
  8
GRAU_10_
 62
     7
100
AcDbVertex
100
AcDb2dVertex
 10
119.0914219734921
 20
203.8860169900446
 30
0.0
  0
SEQEND
  5
D7
330
D4
100
AcDbEntity
  8
GRAU_10_
 62
     7
  0
POLYLINE
  5
D8
330
1F
100
AcDbEntity
  8
GRAU_10_
 62
     7
100
AcDb2dPolyline
 66
     1
 10
0.0
 20
0.0
 30
0.0
  0
VERTEX
  5
D9
330
D8
100
AcDbEntity
  8
GRAU_10_
 62
     7
100
AcDbVertex
100
AcDb2dVertex
 10
118.8413025291102
 20
207.7524614335221
 30
0.0
  0
VERTEX
  5
DA
330
D8
100
AcDbEntity
  8
GRAU_10_
 62
     7
100
AcDbVertex
100
AcDb2dVertex
 10
121.8416775283602
 20
207.7524614335221
 30
0.0
  0
SEQEND
  5
DB
330
D8
100
AcDbEntity
  8
GRAU_10_
 62
     7
  0
POLYLINE
  5
DC
330
1F
100
AcDbEntity
  8
GRAU_10_
 62
     7
100
AcDb2dPolyline
 66
     1
 10
0.0
 20
0.0
 30
0.0
  0
VERTEX
  5
DD
330
DC
100
AcDbEntity
  8
GRAU_10_
 62
     7
100
AcDbVertex
100
AcDb2dVertex
 10
121.8416775283602
 20
207.5647836557915
 30
0.0
  0
VERTEX
  5
DE
330
DC
100
AcDbEntity
  8
GRAU_10_
 62
     7
100
AcDbVertex
100
AcDb2dVertex
 10
121.8416775283602
 20
207.7524614335221
 30
0.0
  0
SEQEND
  5
DF
330
DC
100
AcDbEntity
  8
GRAU_10_
 62
     7
  0
POLYLINE
  5
E0
330
1F
100
AcDbEntity
  8
GRAU_10_
 62
     7
100
AcDb2dPolyline
 66
     1
 10
0.0
 20
0.0
 30
0.0
  0
VERTEX
  5
E1
330
E0
100
AcDbEntity
  8
GRAU_10_
 62
     7
100
AcDbVertex
100
AcDb2dVertex
 10
118.8413025291102
 20
207.5647836557915
 30
0.0
  0
VERTEX
  5
E2
330
E0
100
AcDbEntity
  8
GRAU_10_
 62
     7
100
AcDbVertex
100
AcDb2dVertex
 10
121.8416775283602
 20
207.5647836557915
 30
0.0
  0
SEQEND
  5
E3
330
E0
100
AcDbEntity
  8
GRAU_10_
 62
     7
  0
POLYLINE
  5
E4
330
1F
100
AcDbEntity
  8
GRAU_10_
 62
     7
100
AcDb2dPolyline
 66
     1
 10
0.0
 20
0.0
 30
0.0
  0
VERTEX
  5
E5
330
E4
100
AcDbEntity
  8
GRAU_10_
 62
     7
100
AcDbVertex
100
AcDb2dVertex
 10
118.8413025291102
 20
207.7524614335221
 30
0.0
  0
VERTEX
  5
E6
330
E4
100
AcDbEntity
  8
GRAU_10_
 62
     7
100
AcDbVertex
100
AcDb2dVertex
 10
118.8413025291102
 20
207.5647836557915
 30
0.0
  0
SEQEND
  5
E7
330
E4
100
AcDbEntity
  8
GRAU_10_
 62
     7
  0
POLYLINE
  5
E8
330
1F
100
AcDbEntity
  8
GRAU_10_
 62
     7
100
AcDb2dPolyline
 66
     1
 10
0.0
 20
0.0
 30
0.0
  0
VERTEX
  5
E9
330
E8
100
AcDbEntity
  8
GRAU_10_
 62
     7
100
AcDbVertex
100
AcDb2dVertex
 10
121.8416775283602
 20
207.4645947669278
 30
0.0
  0
VERTEX
  5
EA
330
E8
100
AcDbEntity
  8
GRAU_10_
 62
     7
100
AcDbVertex
100
AcDb2dVertex
 10
121.8416775283602
 20
207.5647836557915
 30
0.0
  0
SEQEND
  5
EB
330
E8
100
AcDbEntity
  8
GRAU_10_
 62
     7
  0
POLYLINE
  5
EC
330
1F
100
AcDbEntity
  8
GRAU_10_
 62
     7
100
AcDb2dPolyline
 66
     1
 10
0.0
 20
0.0
 30
0.0
  0
VERTEX
  5
ED
330
EC
100
AcDbEntity
  8
GRAU_10_
 62
     7
100
AcDbVertex
100
AcDb2dVertex
 10
118.8413025291102
 20
207.5647836557915
 30
0.0
  0
VERTEX
  5
EE
330
EC
100
AcDbEntity
  8
GRAU_10_
 62
     7
100
AcDbVertex
100
AcDb2dVertex
 10
118.8413025291102
 20
207.4645947669278
 30
0.0
  0
SEQEND
  5
EF
330
EC
100
AcDbEntity
  8
GRAU_10_
 62
     7
  0
POLYLINE
  5
F0
330
1F
100
AcDbEntity
  8
GRAU_10_
 62
     7
100
AcDb2dPolyline
 66
     1
 10
0.0
 20
0.0
 30
0.0
  0
VERTEX
  5
F1
330
F0
100
AcDbEntity
  8
GRAU_10_
 62
     7
100
AcDbVertex
100
AcDb2dVertex
 10
120.1063636399051
 20
201.7291336572503
 30
0.0
  0
VERTEX
  5
F2
330
F0
100
AcDbEntity
  8
GRAU_10_
 62
     7
100
AcDbVertex
100
AcDb2dVertex
 10
120.0767303065793
 20
201.8102725461191
 30
0.0
  0
SEQEND
  5
F3
330
F0
100
AcDbEntity
  8
GRAU_10_
 62
     7
  0
POLYLINE
  5
F4
330
1F
100
AcDbEntity
  8
GRAU_10_
 62
     7
100
AcDb2dPolyline
 66
     1
 10
0.0
 20
0.0
 30
0.0
  0
VERTEX
  5
F5
330
F4
100
AcDbEntity
  8
GRAU_10_
 62
     7
100
AcDbVertex
100
AcDb2dVertex
 10
119.6068303066966
 20
201.8102725461191
 30
0.0
  0
VERTEX
  5
F6
330
F4
100
AcDbEntity
  8
GRAU_10_
 62
     7
100
AcDbVertex
100
AcDb2dVertex
 10
119.5771969733708
 20
201.7291336572503
 30
0.0
  0
SEQEND
  5
F7
330
F4
100
AcDbEntity
  8
GRAU_10_
 62
     7
  0
POLYLINE
  5
F8
330
1F
100
AcDbEntity
  8
GRAU_10_
 62
     7
100
AcDb2dPolyline
 66
     1
 10
0.0
 20
0.0
 30
0.0
  0
VERTEX
  5
F9
330
F8
100
AcDbEntity
  8
GRAU_10_
 62
     7
100
AcDbVertex
100
AcDb2dVertex
 10
119.0914219734921
 20
201.5650919906249
 30
0.0
  0
VERTEX
  5
FA
330
F8
100
AcDbEntity
  8
GRAU_10_
 62
     7
100
AcDbVertex
100
AcDb2dVertex
 10
119.3422469734295
 20
201.5650919906249
 30
0.0
  0
SEQEND
  5
FB
330
F8
100
AcDbEntity
  8
GRAU_10_
 62
     7
  0
POLYLINE
  5
FC
330
1F
100
AcDbEntity
  8
GRAU_10_
 62
     7
100
AcDb2dPolyline
 66
     1
 10
0.0
 20
0.0
 30
0.0
  0
VERTEX
  5
FD
330
FC
100
AcDbEntity
  8
GRAU_10_
 62
     7
100
AcDbVertex
100
AcDb2dVertex
 10
121.3400275284857
 20
201.5650919906249
 30
0.0
  0
VERTEX
  5
FE
330
FC
100
AcDbEntity
  8
GRAU_10_
 62
     7
100
AcDbVertex
100
AcDb2dVertex
 10
121.5912053062005
 20
201.5650919906249
 30
0.0
  0
SEQEND
  5
FF
330
FC
100
AcDbEntity
  8
GRAU_10_
 62
     7
  0
POLYLINE
  5
100
330
1F
100
AcDbEntity
  8
GRAU_10_
 62
     7
100
AcDb2dPolyline
 66
     1
 10
0.0
 20
0.0
 30
0.0
  0
VERTEX
  5
101
330
100
100
AcDbEntity
  8
GRAU_10_
 62
     7
100
AcDbVertex
100
AcDb2dVertex
 10
121.1047247507666
 20
201.7291336572503
 30
0.0
  0
VERTEX
  5
102
330
100
100
AcDbEntity
  8
GRAU_10_
 62
     7
100
AcDbVertex
100
AcDb2dVertex
 10
121.075796972996
 20
201.8102725461191
 30
0.0
  0
SEQEND
  5
103
330
100
100
AcDbEntity
  8
GRAU_10_
 62
     7
  0
POLYLINE
  5
104
330
1F
100
AcDbEntity
  8
GRAU_10_
 62
     7
100
AcDb2dPolyline
 66
     1
 10
0.0
 20
0.0
 30
0.0
  0
VERTEX
  5
105
330
104
100
AcDbEntity
  8
GRAU_10_
 62
     7
100
AcDbVertex
100
AcDb2dVertex
 10
120.6058969731137
 20
201.8102725461191
 30
0.0
  0
VERTEX
  5
106
330
104
100
AcDbEntity
  8
GRAU_10_
 62
     7
100
AcDbVertex
100
AcDb2dVertex
 10
120.5762636397878
 20
201.7291336572503
 30
0.0
  0
SEQEND
  5
107
330
104
100
AcDbEntity
  8
GRAU_10_
 62
     7
  0
POLYLINE
  5
108
330
1F
100
AcDbEntity
  8
GRAU_10_
 62
     7
100
AcDb2dPolyline
 66
     1
 10
0.0
 20
0.0
 30
0.0
  0
VERTEX
  5
109
330
108
100
AcDbEntity
  8
GRAU_10_
 62
     7
100
AcDbVertex
100
AcDb2dVertex
 10
121.5912053062005
 20
201.5650919906249
 30
0.0
  0
VERTEX
  5
10A
330
108
100
AcDbEntity
  8
GRAU_10_
 62
     7
100
AcDbVertex
100
AcDb2dVertex
 10
121.5912053062005
 20
203.133189212455
 30
0.0
  0
SEQEND
  5
10B
330
108
100
AcDbEntity
  8
GRAU_10_
 62
     7
  0
POLYLINE
  5
10C
330
1F
100
AcDbEntity
  8
GRAU_10_
 62
     7
100
AcDb2dPolyline
 66
     1
 10
0.0
 20
0.0
 30
0.0
  0
VERTEX
  5
10D
330
10C
100
AcDbEntity
  8
GRAU_10_
 62
     7
100
AcDbVertex
100
AcDb2dVertex
 10
119.0914219734921
 20
203.133189212455
 30
0.0
  0
VERTEX
  5
10E
330
10C
100
AcDbEntity
  8
GRAU_10_
 62
     7
100
AcDbVertex
100
AcDb2dVertex
 10
119.0914219734921
 20
201.5650919906249
 30
0.0
  0
SEQEND
  5
10F
330
10C
100
AcDbEntity
  8
GRAU_10_
 62
     7
  0
POLYLINE
  5
110
330
1F
100
AcDbEntity
  8
GRAU_10_
 62
     7
100
AcDb2dPolyline
 66
     1
 10
0.0
 20
0.0
 30
0.0
  0
VERTEX
  5
111
330
110
100
AcDbEntity
  8
GRAU_10_
 62
     7
100
AcDbVertex
100
AcDb2dVertex
 10
118.8413025291102
 20
207.8921614334874
 30
0.0
  0
VERTEX
  5
112
330
110
100
AcDbEntity
  8
GRAU_10_
 62
     7
100
AcDbVertex
100
AcDb2dVertex
 10
121.8416775283602
 20
207.8921614334874
 30
0.0
  0
SEQEND
  5
113
330
110
100
AcDbEntity
  8
GRAU_10_
 62
     7
  0
POLYLINE
  5
114
330
1F
100
AcDbEntity
  8
GRAU_10_
 62
     7
100
AcDb2dPolyline
 66
     1
 10
0.0
 20
0.0
 30
0.0
  0
VERTEX
  5
115
330
114
100
AcDbEntity
  8
GRAU_10_
 62
     7
100
AcDbVertex
100
AcDb2dVertex
 10
121.8416775283602
 20
207.7524614335221
 30
0.0
  0
VERTEX
  5
116
330
114
100
AcDbEntity
  8
GRAU_10_
 62
     7
100
AcDbVertex
100
AcDb2dVertex
 10
121.8416775283602
 20
207.8921614334874
 30
0.0
  0
SEQEND
  5
117
330
114
100
AcDbEntity
  8
GRAU_10_
 62
     7
  0
POLYLINE
  5
118
330
1F
100
AcDbEntity
  8
GRAU_10_
 62
     7
100
AcDb2dPolyline
 66
     1
 10
0.0
 20
0.0
 30
0.0
  0
VERTEX
  5
119
330
118
100
AcDbEntity
  8
GRAU_10_
 62
     7
100
AcDbVertex
100
AcDb2dVertex
 10
118.8413025291102
 20
207.8921614334874
 30
0.0
  0
VERTEX
  5
11A
330
118
100
AcDbEntity
  8
GRAU_10_
 62
     7
100
AcDbVertex
100
AcDb2dVertex
 10
118.8413025291102
 20
207.7524614335221
 30
0.0
  0
SEQEND
  5
11B
330
118
100
AcDbEntity
  8
GRAU_10_
 62
     7
  0
POLYLINE
  5
11C
330
1F
100
AcDbEntity
  8
GRAU_10_
 62
     7
100
AcDb2dPolyline
 66
     1
 10
0.0
 20
0.0
 30
0.0
  0
VERTEX
  5
11D
330
11C
100
AcDbEntity
  8
GRAU_10_
 62
     7
100
AcDbVertex
100
AcDb2dVertex
 10
118.8413025291102
 20
208.5649086555415
 30
0.0
  0
VERTEX
  5
11E
330
11C
100
AcDbEntity
  8
GRAU_10_
 62
     7
100
AcDbVertex
100
AcDb2dVertex
 10
121.8416775283602
 20
208.5649086555415
 30
0.0
  0
SEQEND
  5
11F
330
11C
100
AcDbEntity
  8
GRAU_10_
 62
     7
  0
SPLINE
  5
120
330
1F
100
AcDbEntity
  8
GRAU_10_
 62
     7
100
AcDbSpline
210
0.0
220
0.0
230
1.0
 70
     8
 71
     3
 72
     8
 73
     4
 74
     0
 42
0.0000000001
 43
0.0000000001
 12
1.0
 22
0.0
 32
0.0
 13
1.0
 23
0.0
 33
0.0
 40
0.0
 40
0.0
 40
0.0
 40
0.0
 40
1.0
 40
1.0
 40
1.0
 40
1.0
 10
120.1063636399051
 20
201.7291336572503
 30
0.0
 10
120.1426997510072
 20
201.6285919906088
 30
0.0
 10
120.2379497509832
 20
201.5657975461801
 30
0.0
 10
120.3413136398465
 20
201.5650919906249
 30
0.0
  0
SPLINE
  5
121
330
1F
100
AcDbEntity
  8
GRAU_10_
 62
     7
100
AcDbSpline
210
0.0
220
0.0
230
1.0
 70
     8
 71
     3
 72
     8
 73
     4
 74
     0
 42
0.0000000001
 43
0.0000000001
 12
1.0
 22
0.0
 32
0.0
 13
1.0
 23
0.0
 33
0.0
 40
0.0
 40
0.0
 40
0.0
 40
0.0
 40
1.0
 40
1.0
 40
1.0
 40
1.0
 10
120.0767303065793
 20
201.8102725461191
 30
0.0
 10
120.0400414176995
 20
201.9115197683161
 30
0.0
 10
119.9451441955009
 20
201.9743142127448
 30
0.0
 10
119.841780306638
 20
201.9746669905222
 30
0.0
  0
SPLINE
  5
122
330
1F
100
AcDbEntity
  8
GRAU_10_
 62
     7
100
AcDbSpline
210
0.0
220
0.0
230
1.0
 70
     8
 71
     3
 72
     8
 73
     4
 74
     0
 42
0.0000000001
 43
0.0000000001
 12
1.0
 22
0.0
 32
0.0
 13
1.0
 23
0.0
 33
0.0
 40
0.0
 40
0.0
 40
0.0
 40
0.0
 40
1.0
 40
1.0
 40
1.0
 40
1.0
 10
119.841780306638
 20
201.9746669905222
 30
0.0
 10
119.7341830844425
 20
201.9746669905222
 30
0.0
 10
119.6424608622435
 20
201.9069336572058
 30
0.0
 10
119.6068303066966
 20
201.8102725461191
 30
0.0
  0
SPLINE
  5
123
330
1F
100
AcDbEntity
  8
GRAU_10_
 62
     7
100
AcDbSpline
210
0.0
220
0.0
230
1.0
 70
     8
 71
     3
 72
     8
 73
     4
 74
     0
 42
0.0000000001
 43
0.0000000001
 12
1.0
 22
0.0
 32
0.0
 13
1.0
 23
0.0
 33
0.0
 40
0.0
 40
0.0
 40
0.0
 40
0.0
 40
1.0
 40
1.0
 40
1.0
 40
1.0
 10
119.3422469734295
 20
201.5650919906249
 30
0.0
 10
119.4498441956249
 20
201.5650919906249
 30
0.0
 10
119.5415664178242
 20
201.6324725461632
 30
0.0
 10
119.5771969733708
 20
201.7291336572503
 30
0.0
  0
SPLINE
  5
124
330
1F
100
AcDbEntity
  8
GRAU_10_
 62
     7
100
AcDbSpline
210
0.0
220
0.0
230
1.0
 70
     8
 71
     3
 72
     8
 73
     4
 74
     0
 42
0.0000000001
 43
0.0000000001
 12
1.0
 22
0.0
 32
0.0
 13
1.0
 23
0.0
 33
0.0
 40
0.0
 40
0.0
 40
0.0
 40
0.0
 40
1.0
 40
1.0
 40
1.0
 40
1.0
 10
121.1047247507666
 20
201.7291336572503
 30
0.0
 10
121.1417664174242
 20
201.6285919906088
 30
0.0
 10
121.2366636396225
 20
201.5657975461801
 30
0.0
 10
121.3400275284857
 20
201.5650919906249
 30
0.0
  0
SPLINE
  5
125
330
1F
100
AcDbEntity
  8
GRAU_10_
 62
     7
100
AcDbSpline
210
0.0
220
0.0
230
1.0
 70
     8
 71
     3
 72
     8
 73
     4
 74
     0
 42
0.0000000001
 43
0.0000000001
 12
1.0
 22
0.0
 32
0.0
 13
1.0
 23
0.0
 33
0.0
 40
0.0
 40
0.0
 40
0.0
 40
0.0
 40
1.0
 40
1.0
 40
1.0
 40
1.0
 10
121.075796972996
 20
201.8102725461191
 30
0.0
 10
121.0391080841165
 20
201.9115197683161
 30
0.0
 10
120.9442108619179
 20
201.9743142127448
 30
0.0
 10
120.840846973055
 20
201.9746669905222
 30
0.0
  0
SPLINE
  5
126
330
1F
100
AcDbEntity
  8
GRAU_10_
 62
     7
100
AcDbSpline
210
0.0
220
0.0
230
1.0
 70
     8
 71
     3
 72
     8
 73
     4
 74
     0
 42
0.0000000001
 43
0.0000000001
 12
1.0
 22
0.0
 32
0.0
 13
1.0
 23
0.0
 33
0.0
 40
0.0
 40
0.0
 40
0.0
 40
0.0
 40
1.0
 40
1.0
 40
1.0
 40
1.0
 10
120.840846973055
 20
201.9746669905222
 30
0.0
 10
120.7332497508596
 20
201.9746669905222
 30
0.0
 10
120.6415275286602
 20
201.9069336572058
 30
0.0
 10
120.6058969731137
 20
201.8102725461191
 30
0.0
  0
SPLINE
  5
127
330
1F
100
AcDbEntity
  8
GRAU_10_
 62
     7
100
AcDbSpline
210
0.0
220
0.0
230
1.0
 70
     8
 71
     3
 72
     8
 73
     4
 74
     0
 42
0.0000000001
 43
0.0000000001
 12
1.0
 22
0.0
 32
0.0
 13
1.0
 23
0.0
 33
0.0
 40
0.0
 40
0.0
 40
0.0
 40
0.0
 40
1.0
 40
1.0
 40
1.0
 40
1.0
 10
120.3413136398465
 20
201.5650919906249
 30
0.0
 10
120.4489108620419
 20
201.5650919906249
 30
0.0
 10
120.5406330842409
 20
201.6324725461632
 30
0.0
 10
120.5762636397878
 20
201.7291336572503
 30
0.0
  0
POLYLINE
  5
128
330
1F
100
AcDbEntity
  8
GRAU_10_
 62
     7
100
AcDb2dPolyline
 66
     1
 10
0.0
 20
0.0
 30
0.0
  0
VERTEX
  5
129
330
128
100
AcDbEntity
  8
GRAU_10_
 62
     7
100
AcDbVertex
100
AcDb2dVertex
 10
121.8416775283602
 20
207.8921614334874
 30
0.0
  0
VERTEX
  5
12A
330
128
100
AcDbEntity
  8
GRAU_10_
 62
     7
100
AcDbVertex
100
AcDb2dVertex
 10
121.8416775283602
 20
208.1211142112077
 30
0.0
  0
VERTEX
  5
12B
330
128
100
AcDbEntity
  8
GRAU_10_
 62
     7
100
AcDbVertex
100
AcDb2dVertex
 10
121.8416775283602
 20
208.378994766699
 30
0.0
  0
SEQEND
  5
12C
330
128
100
AcDbEntity
  8
GRAU_10_
 62
     7
  0
POLYLINE
  5
12D
330
1F
100
AcDbEntity
  8
GRAU_10_
 62
     7
100
AcDb2dPolyline
 66
     1
 10
0.0
 20
0.0
 30
0.0
  0
VERTEX
  5
12E
330
12D
100
AcDbEntity
  8
GRAU_10_
 62
     7
100
AcDbVertex
100
AcDb2dVertex
 10
118.8413025291102
 20
208.378994766699
 30
0.0
  0
VERTEX
  5
12F
330
12D
100
AcDbEntity
  8
GRAU_10_
 62
     7
100
AcDbVertex
100
AcDb2dVertex
 10
118.8413025291102
 20
208.1211142112077
 30
0.0
  0
VERTEX
  5
130
330
12D
100
AcDbEntity
  8
GRAU_10_
 62
     7
100
AcDbVertex
100
AcDb2dVertex
 10
118.8413025291102
 20
207.8921614334874
 30
0.0
  0
SEQEND
  5
131
330
12D
100
AcDbEntity
  8
GRAU_10_
 62
     7
  0
POLYLINE
  5
132
330
1F
100
AcDbEntity
  8
GRAU_10_
 62
     7
100
AcDb2dPolyline
 66
     1
 10
0.0
 20
0.0
 30
0.0
  0
VERTEX
  5
133
330
132
100
AcDbEntity
  8
GRAU_10_
 62
     7
100
AcDbVertex
100
AcDb2dVertex
 10
121.8416775283602
 20
208.378994766699
 30
0.0
  0
VERTEX
  5
134
330
132
100
AcDbEntity
  8
GRAU_10_
 62
     7
100
AcDbVertex
100
AcDb2dVertex
 10
121.8416775283602
 20
208.5162253222204
 30
0.0
  0
VERTEX
  5
135
330
132
100
AcDbEntity
  8
GRAU_10_
 62
     7
100
AcDbVertex
100
AcDb2dVertex
 10
121.8416775283602
 20
208.5649086555415
 30
0.0
  0
SEQEND
  5
136
330
132
100
AcDbEntity
  8
GRAU_10_
 62
     7
  0
POLYLINE
  5
137
330
1F
100
AcDbEntity
  8
GRAU_10_
 62
     7
100
AcDb2dPolyline
 66
     1
 10
0.0
 20
0.0
 30
0.0
  0
VERTEX
  5
138
330
137
100
AcDbEntity
  8
GRAU_10_
 62
     7
100
AcDbVertex
100
AcDb2dVertex
 10
118.8413025291102
 20
208.5649086555415
 30
0.0
  0
VERTEX
  5
139
330
137
100
AcDbEntity
  8
GRAU_10_
 62
     7
100
AcDbVertex
100
AcDb2dVertex
 10
118.8413025291102
 20
208.5162253222204
 30
0.0
  0
VERTEX
  5
13A
330
137
100
AcDbEntity
  8
GRAU_10_
 62
     7
100
AcDbVertex
100
AcDb2dVertex
 10
118.8413025291102
 20
208.378994766699
 30
0.0
  0
SEQEND
  5
13B
330
137
100
AcDbEntity
  8
GRAU_10_
 62
     7
  0
POLYLINE
  5
13C
330
1F
100
AcDbEntity
  8
GRAU_10_
 62
     7
100
AcDb2dPolyline
 66
     1
 10
0.0
 20
0.0
 30
0.0
  0
VERTEX
  5
13D
330
13C
100
AcDbEntity
  8
GRAU_10_
 62
     7
100
AcDbVertex
100
AcDb2dVertex
 10
72.90259987326783
 20
170.7942085861432
 30
0.0
  0
VERTEX
  5
13E
330
13C
100
AcDbEntity
  8
GRAU_10_
 62
     7
100
AcDbVertex
100
AcDb2dVertex
 10
72.90259987326783
 20
170.7942085861432
 30
0.0
  0
VERTEX
  5
13F
330
13C
100
AcDbEntity
  8
GRAU_10_
 62
     7
100
AcDbVertex
100
AcDb2dVertex
 10
71.79946376243235
 20
170.7942085861432
 30
0.0
  0
SEQEND
  5
140
330
13C
100
AcDbEntity
  8
GRAU_10_
 62
     7
  0
POLYLINE
  5
141
330
1F
100
AcDbEntity
  8
GRAU_10_
 62
     7
100
AcDb2dPolyline
 66
     1
 10
0.0
 20
0.0
 30
0.0
  0
VERTEX
  5
142
330
141
100
AcDbEntity
  8
GRAU_10_
 62
     7
100
AcDbVertex
100
AcDb2dVertex
 10
70.9012915404349
 20
170.7942085861432
 30
0.0
  0
VERTEX
  5
143
330
141
100
AcDbEntity
  8
GRAU_10_
 62
     7
100
AcDbVertex
100
AcDb2dVertex
 10
65.85304154169683
 20
170.7942085861432
 30
0.0
  0
SEQEND
  5
144
330
141
100
AcDbEntity
  8
GRAU_10_
 62
     7
  0
POLYLINE
  5
145
330
1F
100
AcDbEntity
  8
GRAU_10_
 62
     7
100
AcDb2dPolyline
 66
     1
 10
0.0
 20
0.0
 30
0.0
  0
VERTEX
  5
146
330
145
100
AcDbEntity
  8
GRAU_10_
 62
     7
100
AcDbVertex
100
AcDb2dVertex
 10
65.78989431949036
 20
170.7942085861432
 30
0.0
  0
VERTEX
  5
147
330
145
100
AcDbEntity
  8
GRAU_10_
 62
     7
100
AcDbVertex
100
AcDb2dVertex
 10
65.40289709736497
 20
170.7938558083654
 30
0.0
  0
SEQEND
  5
148
330
145
100
AcDbEntity
  8
GRAU_10_
 62
     7
  0
POLYLINE
  5
149
330
1F
100
AcDbEntity
  8
GRAU_10_
 62
     7
100
AcDb2dPolyline
 66
     1
 10
0.0
 20
0.0
 30
0.0
  0
VERTEX
  5
14A
330
149
100
AcDbEntity
  8
GRAU_10_
 62
     7
100
AcDbVertex
100
AcDb2dVertex
 10
72.90259987326783
 20
170.7942085861432
 30
0.0
  0
VERTEX
  5
14B
330
149
100
AcDbEntity
  8
GRAU_10_
 62
     7
100
AcDbVertex
100
AcDb2dVertex
 10
65.40289709736497
 20
170.7942085861432
 30
0.0
  0
VERTEX
  5
14C
330
149
100
AcDbEntity
  8
GRAU_10_
 62
     7
100
AcDbVertex
100
AcDb2dVertex
 10
65.40289709736497
 20
168.2940724756573
 30
0.0
  0
VERTEX
  5
14D
330
149
100
AcDbEntity
  8
GRAU_10_
 62
     7
100
AcDbVertex
100
AcDb2dVertex
 10
65.40289709736497
 20
168.0439530312751
 30
0.0
  0
SEQEND
  5
14E
330
149
100
AcDbEntity
  8
GRAU_10_
 62
     7
  0
POLYLINE
  5
14F
330
1F
100
AcDbEntity
  8
GRAU_10_
 62
     7
100
AcDb2dPolyline
 66
     1
 10
0.0
 20
0.0
 30
0.0
  0
VERTEX
  5
150
330
14F
100
AcDbEntity
  8
GRAU_10_
 62
     7
100
AcDbVertex
100
AcDb2dVertex
 10
64.65324431977461
 20
168.0439530312751
 30
0.0
  0
VERTEX
  5
151
330
14F
100
AcDbEntity
  8
GRAU_10_
 62
     7
100
AcDbVertex
100
AcDb2dVertex
 10
65.40289709736497
 20
168.0439530312751
 30
0.0
  0
SEQEND
  5
152
330
14F
100
AcDbEntity
  8
GRAU_10_
 62
     7
  0
POLYLINE
  5
153
330
1F
100
AcDbEntity
  8
GRAU_10_
 62
     7
100
AcDb2dPolyline
 66
     1
 10
0.0
 20
0.0
 30
0.0
  0
VERTEX
  5
154
330
153
100
AcDbEntity
  8
GRAU_10_
 62
     7
100
AcDbVertex
100
AcDb2dVertex
 10
65.40289709736497
 20
171.0446808083028
 30
0.0
  0
VERTEX
  5
155
330
153
100
AcDbEntity
  8
GRAU_10_
 62
     7
100
AcDbVertex
100
AcDb2dVertex
 10
64.65324431977461
 20
171.0446808083028
 30
0.0
  0
SEQEND
  5
156
330
153
100
AcDbEntity
  8
GRAU_10_
 62
     7
  0
POLYLINE
  5
157
330
1F
100
AcDbEntity
  8
GRAU_10_
 62
     7
100
AcDb2dPolyline
 66
     1
 10
0.0
 20
0.0
 30
0.0
  0
VERTEX
  5
158
330
157
100
AcDbEntity
  8
GRAU_10_
 62
     7
100
AcDbVertex
100
AcDb2dVertex
 10
65.40289709736497
 20
171.0446808083028
 30
0.0
  0
VERTEX
  5
159
330
157
100
AcDbEntity
  8
GRAU_10_
 62
     7
100
AcDbVertex
100
AcDb2dVertex
 10
65.40289709736497
 20
170.7938558083654
 30
0.0
  0
SEQEND
  5
15A
330
157
100
AcDbEntity
  8
GRAU_10_
 62
     7
  0
POLYLINE
  5
15B
330
1F
100
AcDbEntity
  8
GRAU_10_
 62
     7
100
AcDb2dPolyline
 66
     1
 10
0.0
 20
0.0
 30
0.0
  0
VERTEX
  5
15C
330
15B
100
AcDbEntity
  8
GRAU_10_
 62
     7
100
AcDbVertex
100
AcDb2dVertex
 10
65.78742487504667
 20
170.7476419194883
 30
0.0
  0
VERTEX
  5
15D
330
15B
100
AcDbEntity
  8
GRAU_10_
 62
     7
100
AcDbVertex
100
AcDb2dVertex
 10
65.78989431949036
 20
170.750111363932
 30
0.0
  0
SEQEND
  5
15E
330
15B
100
AcDbEntity
  8
GRAU_10_
 62
     7
  0
POLYLINE
  5
15F
330
1F
100
AcDbEntity
  8
GRAU_10_
 62
     7
100
AcDb2dPolyline
 66
     1
 10
0.0
 20
0.0
 30
0.0
  0
VERTEX
  5
160
330
15F
100
AcDbEntity
  8
GRAU_10_
 62
     7
100
AcDbVertex
100
AcDb2dVertex
 10
65.78989431949036
 20
170.3363030307022
 30
0.0
  0
VERTEX
  5
161
330
15F
100
AcDbEntity
  8
GRAU_10_
 62
     7
100
AcDbVertex
100
AcDb2dVertex
 10
65.78742487504667
 20
170.3391252529236
 30
0.0
  0
SEQEND
  5
162
330
15F
100
AcDbEntity
  8
GRAU_10_
 62
     7
  0
POLYLINE
  5
163
330
1F
100
AcDbEntity
  8
GRAU_10_
 62
     7
100
AcDb2dPolyline
 66
     1
 10
0.0
 20
0.0
 30
0.0
  0
VERTEX
  5
164
330
163
100
AcDbEntity
  8
GRAU_10_
 62
     7
100
AcDbVertex
100
AcDb2dVertex
 10
65.78742487504667
 20
169.7482224752935
 30
0.0
  0
VERTEX
  5
165
330
163
100
AcDbEntity
  8
GRAU_10_
 62
     7
100
AcDbVertex
100
AcDb2dVertex
 10
65.78989431949036
 20
169.7510446975153
 30
0.0
  0
SEQEND
  5
166
330
163
100
AcDbEntity
  8
GRAU_10_
 62
     7
  0
POLYLINE
  5
167
330
1F
100
AcDbEntity
  8
GRAU_10_
 62
     7
100
AcDb2dPolyline
 66
     1
 10
0.0
 20
0.0
 30
0.0
  0
VERTEX
  5
168
330
167
100
AcDbEntity
  8
GRAU_10_
 62
     7
100
AcDbVertex
100
AcDb2dVertex
 10
65.78989431949036
 20
169.3372363642852
 30
0.0
  0
VERTEX
  5
169
330
167
100
AcDbEntity
  8
GRAU_10_
 62
     7
100
AcDbVertex
100
AcDb2dVertex
 10
65.78742487504667
 20
169.3400585865066
 30
0.0
  0
SEQEND
  5
16A
330
167
100
AcDbEntity
  8
GRAU_10_
 62
     7
  0
POLYLINE
  5
16B
330
1F
100
AcDbEntity
  8
GRAU_10_
 62
     7
100
AcDb2dPolyline
 66
     1
 10
0.0
 20
0.0
 30
0.0
  0
VERTEX
  5
16C
330
16B
100
AcDbEntity
  8
GRAU_10_
 62
     7
100
AcDbVertex
100
AcDb2dVertex
 10
65.78742487504667
 20
168.7495085866542
 30
0.0
  0
VERTEX
  5
16D
330
16B
100
AcDbEntity
  8
GRAU_10_
 62
     7
100
AcDbVertex
100
AcDb2dVertex
 10
65.78989431949036
 20
168.7519780310982
 30
0.0
  0
SEQEND
  5
16E
330
16B
100
AcDbEntity
  8
GRAU_10_
 62
     7
  0
POLYLINE
  5
16F
330
1F
100
AcDbEntity
  8
GRAU_10_
 62
     7
100
AcDb2dPolyline
 66
     1
 10
0.0
 20
0.0
 30
0.0
  0
VERTEX
  5
170
330
16F
100
AcDbEntity
  8
GRAU_10_
 62
     7
100
AcDbVertex
100
AcDb2dVertex
 10
65.40289709736497
 20
168.2940724756573
 30
0.0
  0
VERTEX
  5
171
330
16F
100
AcDbEntity
  8
GRAU_10_
 62
     7
100
AcDbVertex
100
AcDb2dVertex
 10
65.64208043063847
 20
168.2940724756573
 30
0.0
  0
SEQEND
  5
172
330
16F
100
AcDbEntity
  8
GRAU_10_
 62
     7
  0
POLYLINE
  5
173
330
1F
100
AcDbEntity
  8
GRAU_10_
 62
     7
100
AcDb2dPolyline
 66
     1
 10
0.0
 20
0.0
 30
0.0
  0
VERTEX
  5
174
330
173
100
AcDbEntity
  8
GRAU_10_
 62
     7
100
AcDbVertex
100
AcDb2dVertex
 10
63.76741931999592
 20
171.0446808083028
 30
0.0
  0
VERTEX
  5
175
330
173
100
AcDbEntity
  8
GRAU_10_
 62
     7
100
AcDbVertex
100
AcDb2dVertex
 10
63.76741931999592
 20
168.0439530312751
 30
0.0
  0
SEQEND
  5
176
330
173
100
AcDbEntity
  8
GRAU_10_
 62
     7
  0
POLYLINE
  5
177
330
1F
100
AcDbEntity
  8
GRAU_10_
 62
     7
100
AcDb2dPolyline
 66
     1
 10
0.0
 20
0.0
 30
0.0
  0
VERTEX
  5
178
330
177
100
AcDbEntity
  8
GRAU_10_
 62
     7
100
AcDbVertex
100
AcDb2dVertex
 10
66.11303876385408
 20
168.5597141422574
 30
0.0
  0
VERTEX
  5
179
330
177
100
AcDbEntity
  8
GRAU_10_
 62
     7
100
AcDbVertex
100
AcDb2dVertex
 10
66.11303876385408
 20
168.2940724756573
 30
0.0
  0
SEQEND
  5
17A
330
177
100
AcDbEntity
  8
GRAU_10_
 62
     7
  0
POLYLINE
  5
17B
330
1F
100
AcDbEntity
  8
GRAU_10_
 62
     7
100
AcDb2dPolyline
 66
     1
 10
0.0
 20
0.0
 30
0.0
  0
VERTEX
  5
17C
330
17B
100
AcDbEntity
  8
GRAU_10_
 62
     7
100
AcDbVertex
100
AcDb2dVertex
 10
62.35242765368316
 20
171.0446808083028
 30
0.0
  0
VERTEX
  5
17D
330
17B
100
AcDbEntity
  8
GRAU_10_
 62
     7
100
AcDbVertex
100
AcDb2dVertex
 10
62.35242765368316
 20
168.0439530312751
 30
0.0
  0
SEQEND
  5
17E
330
17B
100
AcDbEntity
  8
GRAU_10_
 62
     7
  0
POLYLINE
  5
17F
330
1F
100
AcDbEntity
  8
GRAU_10_
 62
     7
100
AcDb2dPolyline
 66
     1
 10
0.0
 20
0.0
 30
0.0
  0
VERTEX
  5
180
330
17F
100
AcDbEntity
  8
GRAU_10_
 62
     7
100
AcDbVertex
100
AcDb2dVertex
 10
63.76741931999592
 20
171.0446808083028
 30
0.0
  0
VERTEX
  5
181
330
17F
100
AcDbEntity
  8
GRAU_10_
 62
     7
100
AcDbVertex
100
AcDb2dVertex
 10
62.35242765368316
 20
171.0446808083028
 30
0.0
  0
SEQEND
  5
182
330
17F
100
AcDbEntity
  8
GRAU_10_
 62
     7
  0
POLYLINE
  5
183
330
1F
100
AcDbEntity
  8
GRAU_10_
 62
     7
100
AcDb2dPolyline
 66
     1
 10
0.0
 20
0.0
 30
0.0
  0
VERTEX
  5
184
330
183
100
AcDbEntity
  8
GRAU_10_
 62
     7
100
AcDbVertex
100
AcDb2dVertex
 10
62.35242765368316
 20
168.0439530312751
 30
0.0
  0
VERTEX
  5
185
330
183
100
AcDbEntity
  8
GRAU_10_
 62
     7
100
AcDbVertex
100
AcDb2dVertex
 10
63.76741931999592
 20
168.0439530312751
 30
0.0
  0
SEQEND
  5
186
330
183
100
AcDbEntity
  8
GRAU_10_
 62
     7
  0
POLYLINE
  5
187
330
1F
100
AcDbEntity
  8
GRAU_10_
 62
     7
100
AcDb2dPolyline
 66
     1
 10
0.0
 20
0.0
 30
0.0
  0
VERTEX
  5
188
330
187
100
AcDbEntity
  8
GRAU_10_
 62
     7
100
AcDbVertex
100
AcDb2dVertex
 10
61.10288876510653
 20
171.0446808083028
 30
0.0
  0
VERTEX
  5
189
330
187
100
AcDbEntity
  8
GRAU_10_
 62
     7
100
AcDbVertex
100
AcDb2dVertex
 10
61.10288876510653
 20
168.0439530312751
 30
0.0
  0
SEQEND
  5
18A
330
187
100
AcDbEntity
  8
GRAU_10_
 62
     7
  0
POLYLINE
  5
18B
330
1F
100
AcDbEntity
  8
GRAU_10_
 62
     7
100
AcDb2dPolyline
 66
     1
 10
0.0
 20
0.0
 30
0.0
  0
VERTEX
  5
18C
330
18B
100
AcDbEntity
  8
GRAU_10_
 62
     7
100
AcDbVertex
100
AcDb2dVertex
 10
60.40297765417058
 20
171.0446808083028
 30
0.0
  0
VERTEX
  5
18D
330
18B
100
AcDbEntity
  8
GRAU_10_
 62
     7
100
AcDbVertex
100
AcDb2dVertex
 10
60.40297765417058
 20
168.0439530312751
 30
0.0
  0
SEQEND
  5
18E
330
18B
100
AcDbEntity
  8
GRAU_10_
 62
     7
  0
POLYLINE
  5
18F
330
1F
100
AcDbEntity
  8
GRAU_10_
 62
     7
100
AcDb2dPolyline
 66
     1
 10
0.0
 20
0.0
 30
0.0
  0
VERTEX
  5
190
330
18F
100
AcDbEntity
  8
GRAU_10_
 62
     7
100
AcDbVertex
100
AcDb2dVertex
 10
61.10288876510653
 20
171.0446808083028
 30
0.0
  0
VERTEX
  5
191
330
18F
100
AcDbEntity
  8
GRAU_10_
 62
     7
100
AcDbVertex
100
AcDb2dVertex
 10
60.40297765417058
 20
171.0446808083028
 30
0.0
  0
SEQEND
  5
192
330
18F
100
AcDbEntity
  8
GRAU_10_
 62
     7
  0
POLYLINE
  5
193
330
1F
100
AcDbEntity
  8
GRAU_10_
 62
     7
100
AcDb2dPolyline
 66
     1
 10
0.0
 20
0.0
 30
0.0
  0
VERTEX
  5
194
330
193
100
AcDbEntity
  8
GRAU_10_
 62
     7
100
AcDbVertex
100
AcDb2dVertex
 10
60.40297765417058
 20
168.0439530312751
 30
0.0
  0
VERTEX
  5
195
330
193
100
AcDbEntity
  8
GRAU_10_
 62
     7
100
AcDbVertex
100
AcDb2dVertex
 10
61.10288876510653
 20
168.0439530312751
 30
0.0
  0
SEQEND
  5
196
330
193
100
AcDbEntity
  8
GRAU_10_
 62
     7
  0
POLYLINE
  5
197
330
1F
100
AcDbEntity
  8
GRAU_10_
 62
     7
100
AcDb2dPolyline
 66
     1
 10
0.0
 20
0.0
 30
0.0
  0
VERTEX
  5
198
330
197
100
AcDbEntity
  8
GRAU_10_
 62
     7
100
AcDbVertex
100
AcDb2dVertex
 10
62.35242765368316
 20
171.0446808083028
 30
0.0
  0
VERTEX
  5
199
330
197
100
AcDbEntity
  8
GRAU_10_
 62
     7
100
AcDbVertex
100
AcDb2dVertex
 10
61.10288876510653
 20
171.0446808083028
 30
0.0
  0
SEQEND
  5
19A
330
197
100
AcDbEntity
  8
GRAU_10_
 62
     7
  0
POLYLINE
  5
19B
330
1F
100
AcDbEntity
  8
GRAU_10_
 62
     7
100
AcDb2dPolyline
 66
     1
 10
0.0
 20
0.0
 30
0.0
  0
VERTEX
  5
19C
330
19B
100
AcDbEntity
  8
GRAU_10_
 62
     7
100
AcDbVertex
100
AcDb2dVertex
 10
61.10288876510653
 20
168.0439530312751
 30
0.0
  0
VERTEX
  5
19D
330
19B
100
AcDbEntity
  8
GRAU_10_
 62
     7
100
AcDbVertex
100
AcDb2dVertex
 10
62.35242765368316
 20
168.0439530312751
 30
0.0
  0
SEQEND
  5
19E
330
19B
100
AcDbEntity
  8
GRAU_10_
 62
     7
  0
POLYLINE
  5
19F
330
1F
100
AcDbEntity
  8
GRAU_10_
 62
     7
100
AcDb2dPolyline
 66
     1
 10
0.0
 20
0.0
 30
0.0
  0
VERTEX
  5
1A0
330
19F
100
AcDbEntity
  8
GRAU_10_
 62
     7
100
AcDbVertex
100
AcDb2dVertex
 10
66.11303876385408
 20
169.5580752531189
 30
0.0
  0
VERTEX
  5
1A1
330
19F
100
AcDbEntity
  8
GRAU_10_
 62
     7
100
AcDbVertex
100
AcDb2dVertex
 10
66.11303876385408
 20
169.5302058086815
 30
0.0
  0
SEQEND
  5
1A2
330
19F
100
AcDbEntity
  8
GRAU_10_
 62
     7
  0
POLYLINE
  5
1A3
330
1F
100
AcDbEntity
  8
GRAU_10_
 62
     7
100
AcDb2dPolyline
 66
     1
 10
0.0
 20
0.0
 30
0.0
  0
VERTEX
  5
1A4
330
1A3
100
AcDbEntity
  8
GRAU_10_
 62
     7
100
AcDbVertex
100
AcDb2dVertex
 10
66.11303876385408
 20
170.5571419195359
 30
0.0
  0
VERTEX
  5
1A5
330
1A3
100
AcDbEntity
  8
GRAU_10_
 62
     7
100
AcDbVertex
100
AcDb2dVertex
 10
66.11303876385408
 20
170.5292724750982
 30
0.0
  0
SEQEND
  5
1A6
330
1A3
100
AcDbEntity
  8
GRAU_10_
 62
     7
  0
POLYLINE
  5
1A7
330
1F
100
AcDbEntity
  8
GRAU_10_
 62
     7
100
AcDb2dPolyline
 66
     1
 10
0.0
 20
0.0
 30
0.0
  0
VERTEX
  5
1A8
330
1A7
100
AcDbEntity
  8
GRAU_10_
 62
     7
100
AcDbVertex
100
AcDb2dVertex
 10
70.90305542932308
 20
168.5597141422574
 30
0.0
  0
VERTEX
  5
1A9
330
1A7
100
AcDbEntity
  8
GRAU_10_
 62
     7
100
AcDbVertex
100
AcDb2dVertex
 10
70.90305542932308
 20
168.2940724756573
 30
0.0
  0
SEQEND
  5
1AA
330
1A7
100
AcDbEntity
  8
GRAU_10_
 62
     7
  0
POLYLINE
  5
1AB
330
1F
100
AcDbEntity
  8
GRAU_10_
 62
     7
100
AcDb2dPolyline
 66
     1
 10
0.0
 20
0.0
 30
0.0
  0
VERTEX
  5
1AC
330
1AB
100
AcDbEntity
  8
GRAU_10_
 62
     7
100
AcDbVertex
100
AcDb2dVertex
 10
66.11303876385408
 20
168.2940724756573
 30
0.0
  0
VERTEX
  5
1AD
330
1AB
100
AcDbEntity
  8
GRAU_10_
 62
     7
100
AcDbVertex
100
AcDb2dVertex
 10
70.90305542932308
 20
168.2940724756573
 30
0.0
  0
SEQEND
  5
1AE
330
1AB
100
AcDbEntity
  8
GRAU_10_
 62
     7
  0
POLYLINE
  5
1AF
330
1F
100
AcDbEntity
  8
GRAU_10_
 62
     7
100
AcDb2dPolyline
 66
     1
 10
0.0
 20
0.0
 30
0.0
  0
VERTEX
  5
1B0
330
1AF
100
AcDbEntity
  8
GRAU_10_
 62
     7
100
AcDbVertex
100
AcDb2dVertex
 10
70.90305542932308
 20
170.5571419195359
 30
0.0
  0
VERTEX
  5
1B1
330
1AF
100
AcDbEntity
  8
GRAU_10_
 62
     7
100
AcDbVertex
100
AcDb2dVertex
 10
70.90305542932308
 20
170.5292724750982
 30
0.0
  0
SEQEND
  5
1B2
330
1AF
100
AcDbEntity
  8
GRAU_10_
 62
     7
  0
POLYLINE
  5
1B3
330
1F
100
AcDbEntity
  8
GRAU_10_
 62
     7
100
AcDb2dPolyline
 66
     1
 10
0.0
 20
0.0
 30
0.0
  0
VERTEX
  5
1B4
330
1B3
100
AcDbEntity
  8
GRAU_10_
 62
     7
100
AcDbVertex
100
AcDb2dVertex
 10
70.90305542932308
 20
169.5580752531189
 30
0.0
  0
VERTEX
  5
1B5
330
1B3
100
AcDbEntity
  8
GRAU_10_
 62
     7
100
AcDbVertex
100
AcDb2dVertex
 10
70.90305542932308
 20
169.5302058086815
 30
0.0
  0
SEQEND
  5
1B6
330
1B3
100
AcDbEntity
  8
GRAU_10_
 62
     7
  0
POLYLINE
  5
1B7
330
1F
100
AcDbEntity
  8
GRAU_10_
 62
     7
100
AcDb2dPolyline
 66
     1
 10
0.0
 20
0.0
 30
0.0
  0
VERTEX
  5
1B8
330
1B7
100
AcDbEntity
  8
GRAU_10_
 62
     7
100
AcDbVertex
100
AcDb2dVertex
 10
66.25168043048609
 20
168.8698058088465
 30
0.0
  0
VERTEX
  5
1B9
330
1B7
100
AcDbEntity
  8
GRAU_10_
 62
     7
100
AcDbVertex
100
AcDb2dVertex
 10
70.89952765154642
 20
168.8698058088465
 30
0.0
  0
SEQEND
  5
1BA
330
1B7
100
AcDbEntity
  8
GRAU_10_
 62
     7
  0
POLYLINE
  5
1BB
330
1F
100
AcDbEntity
  8
GRAU_10_
 62
     7
100
AcDb2dPolyline
 66
     1
 10
0.0
 20
0.0
 30
0.0
  0
VERTEX
  5
1BC
330
1BB
100
AcDbEntity
  8
GRAU_10_
 62
     7
100
AcDbVertex
100
AcDb2dVertex
 10
66.25168043048609
 20
169.2197613643146
 30
0.0
  0
VERTEX
  5
1BD
330
1BB
100
AcDbEntity
  8
GRAU_10_
 62
     7
100
AcDbVertex
100
AcDb2dVertex
 10
70.89952765154642
 20
169.2197613643146
 30
0.0
  0
SEQEND
  5
1BE
330
1BB
100
AcDbEntity
  8
GRAU_10_
 62
     7
  0
POLYLINE
  5
1BF
330
1F
100
AcDbEntity
  8
GRAU_10_
 62
     7
100
AcDb2dPolyline
 66
     1
 10
0.0
 20
0.0
 30
0.0
  0
VERTEX
  5
1C0
330
1BF
100
AcDbEntity
  8
GRAU_10_
 62
     7
100
AcDbVertex
100
AcDb2dVertex
 10
66.25168043048609
 20
170.2188280307313
 30
0.0
  0
VERTEX
  5
1C1
330
1BF
100
AcDbEntity
  8
GRAU_10_
 62
     7
100
AcDbVertex
100
AcDb2dVertex
 10
70.89952765154642
 20
170.2188280307313
 30
0.0
  0
SEQEND
  5
1C2
330
1BF
100
AcDbEntity
  8
GRAU_10_
 62
     7
  0
POLYLINE
  5
1C3
330
1F
100
AcDbEntity
  8
GRAU_10_
 62
     7
100
AcDb2dPolyline
 66
     1
 10
0.0
 20
0.0
 30
0.0
  0
VERTEX
  5
1C4
330
1C3
100
AcDbEntity
  8
GRAU_10_
 62
     7
100
AcDbVertex
100
AcDb2dVertex
 10
66.25168043048609
 20
169.8685196974858
 30
0.0
  0
VERTEX
  5
1C5
330
1C3
100
AcDbEntity
  8
GRAU_10_
 62
     7
100
AcDbVertex
100
AcDb2dVertex
 10
70.89952765154642
 20
169.8685196974858
 30
0.0
  0
SEQEND
  5
1C6
330
1C3
100
AcDbEntity
  8
GRAU_10_
 62
     7
  0
POLYLINE
  5
1C7
330
1F
100
AcDbEntity
  8
GRAU_10_
 62
     7
100
AcDb2dPolyline
 66
     1
 10
0.0
 20
0.0
 30
0.0
  0
VERTEX
  5
1C8
330
1C7
100
AcDbEntity
  8
GRAU_10_
 62
     7
100
AcDbVertex
100
AcDb2dVertex
 10
70.9012915404349
 20
170.7942085861432
 30
0.0
  0
VERTEX
  5
1C9
330
1C7
100
AcDbEntity
  8
GRAU_10_
 62
     7
100
AcDbVertex
100
AcDb2dVertex
 10
70.9012915404349
 20
170.7737474750372
 30
0.0
  0
SEQEND
  5
1CA
330
1C7
100
AcDbEntity
  8
GRAU_10_
 62
     7
  0
POLYLINE
  5
1CB
330
1F
100
AcDbEntity
  8
GRAU_10_
 62
     7
100
AcDb2dPolyline
 66
     1
 10
0.0
 20
0.0
 30
0.0
  0
VERTEX
  5
1CC
330
1CB
100
AcDbEntity
  8
GRAU_10_
 62
     7
100
AcDbVertex
100
AcDb2dVertex
 10
72.90259987326783
 20
169.5580752531189
 30
0.0
  0
VERTEX
  5
1CD
330
1CB
100
AcDbEntity
  8
GRAU_10_
 62
     7
100
AcDbVertex
100
AcDb2dVertex
 10
72.90259987326783
 20
169.5302058086815
 30
0.0
  0
SEQEND
  5
1CE
330
1CB
100
AcDbEntity
  8
GRAU_10_
 62
     7
  0
POLYLINE
  5
1CF
330
1F
100
AcDbEntity
  8
GRAU_10_
 62
     7
100
AcDb2dPolyline
 66
     1
 10
0.0
 20
0.0
 30
0.0
  0
VERTEX
  5
1D0
330
1CF
100
AcDbEntity
  8
GRAU_10_
 62
     7
100
AcDbVertex
100
AcDb2dVertex
 10
72.90259987326783
 20
168.5597141422574
 30
0.0
  0
VERTEX
  5
1D1
330
1CF
100
AcDbEntity
  8
GRAU_10_
 62
     7
100
AcDbVertex
100
AcDb2dVertex
 10
72.90259987326783
 20
168.2940724756573
 30
0.0
  0
SEQEND
  5
1D2
330
1CF
100
AcDbEntity
  8
GRAU_10_
 62
     7
  0
POLYLINE
  5
1D3
330
1F
100
AcDbEntity
  8
GRAU_10_
 62
     7
100
AcDb2dPolyline
 66
     1
 10
0.0
 20
0.0
 30
0.0
  0
VERTEX
  5
1D4
330
1D3
100
AcDbEntity
  8
GRAU_10_
 62
     7
100
AcDbVertex
100
AcDb2dVertex
 10
71.90282765129561
 20
168.2940724756573
 30
0.0
  0
VERTEX
  5
1D5
330
1D3
100
AcDbEntity
  8
GRAU_10_
 62
     7
100
AcDbVertex
100
AcDb2dVertex
 10
72.90259987326783
 20
168.2940724756573
 30
0.0
  0
SEQEND
  5
1D6
330
1D3
100
AcDbEntity
  8
GRAU_10_
 62
     7
  0
POLYLINE
  5
1D7
330
1F
100
AcDbEntity
  8
GRAU_10_
 62
     7
100
AcDb2dPolyline
 66
     1
 10
0.0
 20
0.0
 30
0.0
  0
VERTEX
  5
1D8
330
1D7
100
AcDbEntity
  8
GRAU_10_
 62
     7
100
AcDbVertex
100
AcDb2dVertex
 10
72.90259987326783
 20
170.5571419195359
 30
0.0
  0
VERTEX
  5
1D9
330
1D7
100
AcDbEntity
  8
GRAU_10_
 62
     7
100
AcDbVertex
100
AcDb2dVertex
 10
72.90259987326783
 20
170.5292724750982
 30
0.0
  0
SEQEND
  5
1DA
330
1D7
100
AcDbEntity
  8
GRAU_10_
 62
     7
  0
POLYLINE
  5
1DB
330
1F
100
AcDbEntity
  8
GRAU_10_
 62
     7
100
AcDb2dPolyline
 66
     1
 10
0.0
 20
0.0
 30
0.0
  0
VERTEX
  5
1DC
330
1DB
100
AcDbEntity
  8
GRAU_10_
 62
     7
100
AcDbVertex
100
AcDb2dVertex
 10
70.89952765154642
 20
168.8698058088465
 30
0.0
  0
VERTEX
  5
1DD
330
1DB
100
AcDbEntity
  8
GRAU_10_
 62
     7
100
AcDbVertex
100
AcDb2dVertex
 10
70.89952765154642
 20
169.0447835865806
 30
0.0
  0
SEQEND
  5
1DE
330
1DB
100
AcDbEntity
  8
GRAU_10_
 62
     7
  0
POLYLINE
  5
1DF
330
1F
100
AcDbEntity
  8
GRAU_10_
 62
     7
100
AcDb2dPolyline
 66
     1
 10
0.0
 20
0.0
 30
0.0
  0
VERTEX
  5
1E0
330
1DF
100
AcDbEntity
  8
GRAU_10_
 62
     7
100
AcDbVertex
100
AcDb2dVertex
 10
70.9616165404196
 20
169.2197613643146
 30
0.0
  0
VERTEX
  5
1E1
330
1DF
100
AcDbEntity
  8
GRAU_10_
 62
     7
100
AcDbVertex
100
AcDb2dVertex
 10
70.9616165404196
 20
169.0447835865806
 30
0.0
  0
SEQEND
  5
1E2
330
1DF
100
AcDbEntity
  8
GRAU_10_
 62
     7
  0
POLYLINE
  5
1E3
330
1F
100
AcDbEntity
  8
GRAU_10_
 62
     7
100
AcDb2dPolyline
 66
     1
 10
0.0
 20
0.0
 30
0.0
  0
VERTEX
  5
1E4
330
1E3
100
AcDbEntity
  8
GRAU_10_
 62
     7
100
AcDbVertex
100
AcDb2dVertex
 10
70.9616165404196
 20
170.2188280307313
 30
0.0
  0
VERTEX
  5
1E5
330
1E3
100
AcDbEntity
  8
GRAU_10_
 62
     7
100
AcDbVertex
100
AcDb2dVertex
 10
70.9616165404196
 20
169.8685196974858
 30
0.0
  0
SEQEND
  5
1E6
330
1E3
100
AcDbEntity
  8
GRAU_10_
 62
     7
  0
POLYLINE
  5
1E7
330
1F
100
AcDbEntity
  8
GRAU_10_
 62
     7
100
AcDb2dPolyline
 66
     1
 10
0.0
 20
0.0
 30
0.0
  0
VERTEX
  5
1E8
330
1E7
100
AcDbEntity
  8
GRAU_10_
 62
     7
100
AcDbVertex
100
AcDb2dVertex
 10
72.90259987326783
 20
170.7737474750372
 30
0.0
  0
VERTEX
  5
1E9
330
1E7
100
AcDbEntity
  8
GRAU_10_
 62
     7
100
AcDbVertex
100
AcDb2dVertex
 10
72.90259987326783
 20
170.7942085861432
 30
0.0
  0
SEQEND
  5
1EA
330
1E7
100
AcDbEntity
  8
GRAU_10_
 62
     7
  0
POLYLINE
  5
1EB
330
1F
100
AcDbEntity
  8
GRAU_10_
 62
     7
100
AcDb2dPolyline
 66
     1
 10
0.0
 20
0.0
 30
0.0
  0
VERTEX
  5
1EC
330
1EB
100
AcDbEntity
  8
GRAU_10_
 62
     7
100
AcDbVertex
100
AcDb2dVertex
 10
72.90259987326783
 20
169.2197613643146
 30
0.0
  0
VERTEX
  5
1ED
330
1EB
100
AcDbEntity
  8
GRAU_10_
 62
     7
100
AcDbVertex
100
AcDb2dVertex
 10
72.90259987326783
 20
169.3136002531799
 30
0.0
  0
SEQEND
  5
1EE
330
1EB
100
AcDbEntity
  8
GRAU_10_
 62
     7
  0
POLYLINE
  5
1EF
330
1F
100
AcDbEntity
  8
GRAU_10_
 62
     7
100
AcDb2dPolyline
 66
     1
 10
0.0
 20
0.0
 30
0.0
  0
VERTEX
  5
1F0
330
1EF
100
AcDbEntity
  8
GRAU_10_
 62
     7
100
AcDbVertex
100
AcDb2dVertex
 10
71.69751098468015
 20
169.2197613643146
 30
0.0
  0
VERTEX
  5
1F1
330
1EF
100
AcDbEntity
  8
GRAU_10_
 62
     7
100
AcDbVertex
100
AcDb2dVertex
 10
72.90259987326783
 20
169.2197613643146
 30
0.0
  0
SEQEND
  5
1F2
330
1EF
100
AcDbEntity
  8
GRAU_10_
 62
     7
  0
POLYLINE
  5
1F3
330
1F
100
AcDbEntity
  8
GRAU_10_
 62
     7
100
AcDb2dPolyline
 66
     1
 10
0.0
 20
0.0
 30
0.0
  0
VERTEX
  5
1F4
330
1F3
100
AcDbEntity
  8
GRAU_10_
 62
     7
100
AcDbVertex
100
AcDb2dVertex
 10
72.90259987326783
 20
170.2188280307313
 30
0.0
  0
VERTEX
  5
1F5
330
1F3
100
AcDbEntity
  8
GRAU_10_
 62
     7
100
AcDbVertex
100
AcDb2dVertex
 10
72.90259987326783
 20
170.3126669195969
 30
0.0
  0
SEQEND
  5
1F6
330
1F3
100
AcDbEntity
  8
GRAU_10_
 62
     7
  0
POLYLINE
  5
1F7
330
1F
100
AcDbEntity
  8
GRAU_10_
 62
     7
100
AcDb2dPolyline
 66
     1
 10
0.0
 20
0.0
 30
0.0
  0
VERTEX
  5
1F8
330
1F7
100
AcDbEntity
  8
GRAU_10_
 62
     7
100
AcDbVertex
100
AcDb2dVertex
 10
71.69751098468015
 20
170.2188280307313
 30
0.0
  0
VERTEX
  5
1F9
330
1F7
100
AcDbEntity
  8
GRAU_10_
 62
     7
100
AcDbVertex
100
AcDb2dVertex
 10
72.90259987326783
 20
170.2188280307313
 30
0.0
  0
SEQEND
  5
1FA
330
1F7
100
AcDbEntity
  8
GRAU_10_
 62
     7
  0
POLYLINE
  5
1FB
330
1F
100
AcDbEntity
  8
GRAU_10_
 62
     7
100
AcDb2dPolyline
 66
     1
 10
0.0
 20
0.0
 30
0.0
  0
VERTEX
  5
1FC
330
1FB
100
AcDbEntity
  8
GRAU_10_
 62
     7
100
AcDbVertex
100
AcDb2dVertex
 10
71.69751098468015
 20
168.8698058088465
 30
0.0
  0
VERTEX
  5
1FD
330
1FB
100
AcDbEntity
  8
GRAU_10_
 62
     7
100
AcDbVertex
100
AcDb2dVertex
 10
72.90259987326783
 20
168.8698058088465
 30
0.0
  0
SEQEND
  5
1FE
330
1FB
100
AcDbEntity
  8
GRAU_10_
 62
     7
  0
POLYLINE
  5
1FF
330
1F
100
AcDbEntity
  8
GRAU_10_
 62
     7
100
AcDb2dPolyline
 66
     1
 10
0.0
 20
0.0
 30
0.0
  0
VERTEX
  5
200
330
1FF
100
AcDbEntity
  8
GRAU_10_
 62
     7
100
AcDbVertex
100
AcDb2dVertex
 10
72.90259987326783
 20
168.7756141422035
 30
0.0
  0
VERTEX
  5
201
330
1FF
100
AcDbEntity
  8
GRAU_10_
 62
     7
100
AcDbVertex
100
AcDb2dVertex
 10
72.90259987326783
 20
168.8698058088465
 30
0.0
  0
SEQEND
  5
202
330
1FF
100
AcDbEntity
  8
GRAU_10_
 62
     7
  0
POLYLINE
  5
203
330
1F
100
AcDbEntity
  8
GRAU_10_
 62
     7
100
AcDb2dPolyline
 66
     1
 10
0.0
 20
0.0
 30
0.0
  0
VERTEX
  5
204
330
203
100
AcDbEntity
  8
GRAU_10_
 62
     7
100
AcDbVertex
100
AcDb2dVertex
 10
71.69751098468015
 20
169.8685196974858
 30
0.0
  0
VERTEX
  5
205
330
203
100
AcDbEntity
  8
GRAU_10_
 62
     7
100
AcDbVertex
100
AcDb2dVertex
 10
72.90259987326783
 20
169.8685196974858
 30
0.0
  0
SEQEND
  5
206
330
203
100
AcDbEntity
  8
GRAU_10_
 62
     7
  0
POLYLINE
  5
207
330
1F
100
AcDbEntity
  8
GRAU_10_
 62
     7
100
AcDb2dPolyline
 66
     1
 10
0.0
 20
0.0
 30
0.0
  0
VERTEX
  5
208
330
207
100
AcDbEntity
  8
GRAU_10_
 62
     7
100
AcDbVertex
100
AcDb2dVertex
 10
72.90259987326783
 20
169.7746808086202
 30
0.0
  0
VERTEX
  5
209
330
207
100
AcDbEntity
  8
GRAU_10_
 62
     7
100
AcDbVertex
100
AcDb2dVertex
 10
72.90259987326783
 20
169.8685196974858
 30
0.0
  0
SEQEND
  5
20A
330
207
100
AcDbEntity
  8
GRAU_10_
 62
     7
  0
POLYLINE
  5
20B
330
1F
100
AcDbEntity
  8
GRAU_10_
 62
     7
100
AcDb2dPolyline
 66
     1
 10
0.0
 20
0.0
 30
0.0
  0
VERTEX
  5
20C
330
20B
100
AcDbEntity
  8
GRAU_10_
 62
     7
100
AcDbVertex
100
AcDb2dVertex
 10
72.90259987326783
 20
170.2188280307313
 30
0.0
  0
VERTEX
  5
20D
330
20B
100
AcDbEntity
  8
GRAU_10_
 62
     7
100
AcDbVertex
100
AcDb2dVertex
 10
72.90259987326783
 20
169.8685196974858
 30
0.0
  0
SEQEND
  5
20E
330
20B
100
AcDbEntity
  8
GRAU_10_
 62
     7
  0
POLYLINE
  5
20F
330
1F
100
AcDbEntity
  8
GRAU_10_
 62
     7
100
AcDb2dPolyline
 66
     1
 10
0.0
 20
0.0
 30
0.0
  0
VERTEX
  5
210
330
20F
100
AcDbEntity
  8
GRAU_10_
 62
     7
100
AcDbVertex
100
AcDb2dVertex
 10
72.90259987326783
 20
169.2197613643146
 30
0.0
  0
VERTEX
  5
211
330
20F
100
AcDbEntity
  8
GRAU_10_
 62
     7
100
AcDbVertex
100
AcDb2dVertex
 10
72.90259987326783
 20
168.8698058088465
 30
0.0
  0
SEQEND
  5
212
330
20F
100
AcDbEntity
  8
GRAU_10_
 62
     7
  0
POLYLINE
  5
213
330
1F
100
AcDbEntity
  8
GRAU_10_
 62
     7
100
AcDb2dPolyline
 66
     1
 10
0.0
 20
0.0
 30
0.0
  0
VERTEX
  5
214
330
213
100
AcDbEntity
  8
GRAU_10_
 62
     7
100
AcDbVertex
100
AcDb2dVertex
 10
71.79946376243235
 20
170.7942085861432
 30
0.0
  0
VERTEX
  5
215
330
213
100
AcDbEntity
  8
GRAU_10_
 62
     7
100
AcDbVertex
100
AcDb2dVertex
 10
71.36625265142953
 20
170.7942085861432
 30
0.0
  0
VERTEX
  5
216
330
213
100
AcDbEntity
  8
GRAU_10_
 62
     7
100
AcDbVertex
100
AcDb2dVertex
 10
70.9012915404349
 20
170.7942085861432
 30
0.0
  0
SEQEND
  5
217
330
213
100
AcDbEntity
  8
GRAU_10_
 62
     7
  0
POLYLINE
  5
218
330
1F
100
AcDbEntity
  8
GRAU_10_
 62
     7
100
AcDb2dPolyline
 66
     1
 10
0.0
 20
0.0
 30
0.0
  0
VERTEX
  5
219
330
218
100
AcDbEntity
  8
GRAU_10_
 62
     7
100
AcDbVertex
100
AcDb2dVertex
 10
65.85304154169683
 20
170.7942085861432
 30
0.0
  0
VERTEX
  5
21A
330
218
100
AcDbEntity
  8
GRAU_10_
 62
     7
100
AcDbVertex
100
AcDb2dVertex
 10
65.81705820837253
 20
170.7942085861432
 30
0.0
  0
VERTEX
  5
21B
330
218
100
AcDbEntity
  8
GRAU_10_
 62
     7
100
AcDbVertex
100
AcDb2dVertex
 10
65.78989431949036
 20
170.7942085861432
 30
0.0
  0
SEQEND
  5
21C
330
218
100
AcDbEntity
  8
GRAU_10_
 62
     7
  0
POLYLINE
  5
21D
330
1F
100
AcDbEntity
  8
GRAU_10_
 62
     7
100
AcDb2dPolyline
 66
     1
 10
0.0
 20
0.0
 30
0.0
  0
VERTEX
  5
21E
330
21D
100
AcDbEntity
  8
GRAU_10_
 62
     7
100
AcDbVertex
100
AcDb2dVertex
 10
64.65324431977461
 20
171.0446808083028
 30
0.0
  0
VERTEX
  5
21F
330
21D
100
AcDbEntity
  8
GRAU_10_
 62
     7
100
AcDbVertex
100
AcDb2dVertex
 10
64.43769709760632
 20
171.0446808083028
 30
0.0
  0
VERTEX
  5
220
330
21D
100
AcDbEntity
  8
GRAU_10_
 62
     7
100
AcDbVertex
100
AcDb2dVertex
 10
64.26448320876074
 20
171.0446808083028
 30
0.0
  0
SEQEND
  5
221
330
21D
100
AcDbEntity
  8
GRAU_10_
 62
     7
  0
POLYLINE
  5
222
330
1F
100
AcDbEntity
  8
GRAU_10_
 62
     7
100
AcDb2dPolyline
 66
     1
 10
0.0
 20
0.0
 30
0.0
  0
VERTEX
  5
223
330
222
100
AcDbEntity
  8
GRAU_10_
 62
     7
100
AcDbVertex
100
AcDb2dVertex
 10
64.26448320876074
 20
168.0439530312751
 30
0.0
  0
VERTEX
  5
224
330
222
100
AcDbEntity
  8
GRAU_10_
 62
     7
100
AcDbVertex
100
AcDb2dVertex
 10
64.43769709760632
 20
168.0439530312751
 30
0.0
  0
VERTEX
  5
225
330
222
100
AcDbEntity
  8
GRAU_10_
 62
     7
100
AcDbVertex
100
AcDb2dVertex
 10
64.65324431977461
 20
168.0439530312751
 30
0.0
  0
SEQEND
  5
226
330
222
100
AcDbEntity
  8
GRAU_10_
 62
     7
  0
POLYLINE
  5
227
330
1F
100
AcDbEntity
  8
GRAU_10_
 62
     7
100
AcDb2dPolyline
 66
     1
 10
0.0
 20
0.0
 30
0.0
  0
VERTEX
  5
228
330
227
100
AcDbEntity
  8
GRAU_10_
 62
     7
100
AcDbVertex
100
AcDb2dVertex
 10
64.26448320876074
 20
171.0446808083028
 30
0.0
  0
VERTEX
  5
229
330
227
100
AcDbEntity
  8
GRAU_10_
 62
     7
100
AcDbVertex
100
AcDb2dVertex
 10
64.02988598659718
 20
171.0446808083028
 30
0.0
  0
VERTEX
  5
22A
330
227
100
AcDbEntity
  8
GRAU_10_
 62
     7
100
AcDbVertex
100
AcDb2dVertex
 10
63.76741931999592
 20
171.0446808083028
 30
0.0
  0
SEQEND
  5
22B
330
227
100
AcDbEntity
  8
GRAU_10_
 62
     7
  0
POLYLINE
  5
22C
330
1F
100
AcDbEntity
  8
GRAU_10_
 62
     7
100
AcDb2dPolyline
 66
     1
 10
0.0
 20
0.0
 30
0.0
  0
VERTEX
  5
22D
330
22C
100
AcDbEntity
  8
GRAU_10_
 62
     7
100
AcDbVertex
100
AcDb2dVertex
 10
63.76741931999592
 20
168.0439530312751
 30
0.0
  0
VERTEX
  5
22E
330
22C
100
AcDbEntity
  8
GRAU_10_
 62
     7
100
AcDbVertex
100
AcDb2dVertex
 10
64.02988598659718
 20
168.0439530312751
 30
0.0
  0
VERTEX
  5
22F
330
22C
100
AcDbEntity
  8
GRAU_10_
 62
     7
100
AcDbVertex
100
AcDb2dVertex
 10
64.26448320876074
 20
168.0439530312751
 30
0.0
  0
SEQEND
  5
230
330
22C
100
AcDbEntity
  8
GRAU_10_
 62
     7
  0
POLYLINE
  5
231
330
1F
100
AcDbEntity
  8
GRAU_10_
 62
     7
100
AcDb2dPolyline
 66
     1
 10
0.0
 20
0.0
 30
0.0
  0
VERTEX
  5
232
330
231
100
AcDbEntity
  8
GRAU_10_
 62
     7
100
AcDbVertex
100
AcDb2dVertex
 10
65.64208043063847
 20
168.2940724756573
 30
0.0
  0
VERTEX
  5
233
330
231
100
AcDbEntity
  8
GRAU_10_
 62
     7
100
AcDbVertex
100
AcDb2dVertex
 10
65.82517209725944
 20
168.2940724756573
 30
0.0
  0
VERTEX
  5
234
330
231
100
AcDbEntity
  8
GRAU_10_
 62
     7
100
AcDbVertex
100
AcDb2dVertex
 10
66.11303876385408
 20
168.2940724756573
 30
0.0
  0
SEQEND
  5
235
330
231
100
AcDbEntity
  8
GRAU_10_
 62
     7
  0
POLYLINE
  5
236
330
1F
100
AcDbEntity
  8
GRAU_10_
 62
     7
100
AcDb2dPolyline
 66
     1
 10
0.0
 20
0.0
 30
0.0
  0
VERTEX
  5
237
330
236
100
AcDbEntity
  8
GRAU_10_
 62
     7
100
AcDbVertex
100
AcDb2dVertex
 10
70.90305542932308
 20
168.2940724756573
 30
0.0
  0
VERTEX
  5
238
330
236
100
AcDbEntity
  8
GRAU_10_
 62
     7
100
AcDbVertex
100
AcDb2dVertex
 10
71.42022765141613
 20
168.2940724756573
 30
0.0
  0
VERTEX
  5
239
330
236
100
AcDbEntity
  8
GRAU_10_
 62
     7
100
AcDbVertex
100
AcDb2dVertex
 10
71.90282765129561
 20
168.2940724756573
 30
0.0
  0
SEQEND
  5
23A
330
236
100
AcDbEntity
  8
GRAU_10_
 62
     7
  0
POLYLINE
  5
23B
330
1F
100
AcDbEntity
  8
GRAU_10_
 62
     7
100
AcDb2dPolyline
 66
     1
 10
0.0
 20
0.0
 30
0.0
  0
VERTEX
  5
23C
330
23B
100
AcDbEntity
  8
GRAU_10_
 62
     7
100
AcDbVertex
100
AcDb2dVertex
 10
70.9616165404196
 20
169.8685196974858
 30
0.0
  0
VERTEX
  5
23D
330
23B
100
AcDbEntity
  8
GRAU_10_
 62
     7
100
AcDbVertex
100
AcDb2dVertex
 10
71.34296931810208
 20
169.8685196974858
 30
0.0
  0
VERTEX
  5
23E
330
23B
100
AcDbEntity
  8
GRAU_10_
 62
     7
100
AcDbVertex
100
AcDb2dVertex
 10
71.69751098468015
 20
169.8685196974858
 30
0.0
  0
SEQEND
  5
23F
330
23B
100
AcDbEntity
  8
GRAU_10_
 62
     7
  0
POLYLINE
  5
240
330
1F
100
AcDbEntity
  8
GRAU_10_
 62
     7
100
AcDb2dPolyline
 66
     1
 10
0.0
 20
0.0
 30
0.0
  0
VERTEX
  5
241
330
240
100
AcDbEntity
  8
GRAU_10_
 62
     7
100
AcDbVertex
100
AcDb2dVertex
 10
70.9616165404196
 20
170.2188280307313
 30
0.0
  0
VERTEX
  5
242
330
240
100
AcDbEntity
  8
GRAU_10_
 62
     7
100
AcDbVertex
100
AcDb2dVertex
 10
71.34296931810208
 20
170.2188280307313
 30
0.0
  0
VERTEX
  5
243
330
240
100
AcDbEntity
  8
GRAU_10_
 62
     7
100
AcDbVertex
100
AcDb2dVertex
 10
71.69751098468015
 20
170.2188280307313
 30
0.0
  0
SEQEND
  5
244
330
240
100
AcDbEntity
  8
GRAU_10_
 62
     7
  0
POLYLINE
  5
245
330
1F
100
AcDbEntity
  8
GRAU_10_
 62
     7
100
AcDb2dPolyline
 66
     1
 10
0.0
 20
0.0
 30
0.0
  0
VERTEX
  5
246
330
245
100
AcDbEntity
  8
GRAU_10_
 62
     7
100
AcDbVertex
100
AcDb2dVertex
 10
70.9616165404196
 20
169.2197613643146
 30
0.0
  0
VERTEX
  5
247
330
245
100
AcDbEntity
  8
GRAU_10_
 62
     7
100
AcDbVertex
100
AcDb2dVertex
 10
71.34296931810208
 20
169.2197613643146
 30
0.0
  0
VERTEX
  5
248
330
245
100
AcDbEntity
  8
GRAU_10_
 62
     7
100
AcDbVertex
100
AcDb2dVertex
 10
71.69751098468015
 20
169.2197613643146
 30
0.0
  0
SEQEND
  5
249
330
245
100
AcDbEntity
  8
GRAU_10_
 62
     7
  0
POLYLINE
  5
24A
330
1F
100
AcDbEntity
  8
GRAU_10_
 62
     7
100
AcDb2dPolyline
 66
     1
 10
0.0
 20
0.0
 30
0.0
  0
VERTEX
  5
24B
330
24A
100
AcDbEntity
  8
GRAU_10_
 62
     7
100
AcDbVertex
100
AcDb2dVertex
 10
70.89952765154642
 20
168.8698058088465
 30
0.0
  0
VERTEX
  5
24C
330
24A
100
AcDbEntity
  8
GRAU_10_
 62
     7
100
AcDbVertex
100
AcDb2dVertex
 10
71.31263042922069
 20
168.8698058088465
 30
0.0
  0
VERTEX
  5
24D
330
24A
100
AcDbEntity
  8
GRAU_10_
 62
     7
100
AcDbVertex
100
AcDb2dVertex
 10
71.69751098468015
 20
168.8698058088465
 30
0.0
  0
SEQEND
  5
24E
330
24A
100
AcDbEntity
  8
GRAU_10_
 62
     7
  0
POLYLINE
  5
24F
330
1F
100
AcDbEntity
  8
GRAU_10_
 62
     7
100
AcDb2dPolyline
 66
     1
 10
0.0
 20
0.0
 30
0.0
  0
VERTEX
  5
250
330
24F
100
AcDbEntity
  8
GRAU_10_
 62
     7
100
AcDbVertex
100
AcDb2dVertex
 10
66.11162765274335
 20
168.7756141422035
 30
0.0
  0
VERTEX
  5
251
330
24F
100
AcDbEntity
  8
GRAU_10_
 62
     7
100
AcDbVertex
100
AcDb2dVertex
 10
65.78742487504667
 20
168.7495085866542
 30
0.0
  0
SEQEND
  5
252
330
24F
100
AcDbEntity
  8
GRAU_10_
 62
     7
  0
POLYLINE
  5
253
330
1F
100
AcDbEntity
  8
GRAU_10_
 62
     7
100
AcDb2dPolyline
 66
     1
 10
0.0
 20
0.0
 30
0.0
  0
VERTEX
  5
254
330
253
100
AcDbEntity
  8
GRAU_10_
 62
     7
100
AcDbVertex
100
AcDb2dVertex
 10
66.11162765274335
 20
170.7737474750372
 30
0.0
  0
VERTEX
  5
255
330
253
100
AcDbEntity
  8
GRAU_10_
 62
     7
100
AcDbVertex
100
AcDb2dVertex
 10
65.78742487504667
 20
170.7476419194883
 30
0.0
  0
SEQEND
  5
256
330
253
100
AcDbEntity
  8
GRAU_10_
 62
     7
  0
POLYLINE
  5
257
330
1F
100
AcDbEntity
  8
GRAU_10_
 62
     7
100
AcDb2dPolyline
 66
     1
 10
0.0
 20
0.0
 30
0.0
  0
VERTEX
  5
258
330
257
100
AcDbEntity
  8
GRAU_10_
 62
     7
100
AcDbVertex
100
AcDb2dVertex
 10
65.78742487504667
 20
170.3391252529236
 30
0.0
  0
VERTEX
  5
259
330
257
100
AcDbEntity
  8
GRAU_10_
 62
     7
100
AcDbVertex
100
AcDb2dVertex
 10
66.11162765274335
 20
170.3126669195969
 30
0.0
  0
SEQEND
  5
25A
330
257
100
AcDbEntity
  8
GRAU_10_
 62
     7
  0
POLYLINE
  5
25B
330
1F
100
AcDbEntity
  8
GRAU_10_
 62
     7
100
AcDb2dPolyline
 66
     1
 10
0.0
 20
0.0
 30
0.0
  0
VERTEX
  5
25C
330
25B
100
AcDbEntity
  8
GRAU_10_
 62
     7
100
AcDbVertex
100
AcDb2dVertex
 10
66.11303876385408
 20
170.5292724750982
 30
0.0
  0
VERTEX
  5
25D
330
25B
100
AcDbEntity
  8
GRAU_10_
 62
     7
100
AcDbVertex
100
AcDb2dVertex
 10
65.9429998750077
 20
170.5430308084283
 30
0.0
  0
SEQEND
  5
25E
330
25B
100
AcDbEntity
  8
GRAU_10_
 62
     7
  0
POLYLINE
  5
25F
330
1F
100
AcDbEntity
  8
GRAU_10_
 62
     7
100
AcDb2dPolyline
 66
     1
 10
0.0
 20
0.0
 30
0.0
  0
VERTEX
  5
260
330
25F
100
AcDbEntity
  8
GRAU_10_
 62
     7
100
AcDbVertex
100
AcDb2dVertex
 10
66.11162765274335
 20
169.7746808086202
 30
0.0
  0
VERTEX
  5
261
330
25F
100
AcDbEntity
  8
GRAU_10_
 62
     7
100
AcDbVertex
100
AcDb2dVertex
 10
65.78742487504667
 20
169.7482224752935
 30
0.0
  0
SEQEND
  5
262
330
25F
100
AcDbEntity
  8
GRAU_10_
 62
     7
  0
POLYLINE
  5
263
330
1F
100
AcDbEntity
  8
GRAU_10_
 62
     7
100
AcDb2dPolyline
 66
     1
 10
0.0
 20
0.0
 30
0.0
  0
VERTEX
  5
264
330
263
100
AcDbEntity
  8
GRAU_10_
 62
     7
100
AcDbVertex
100
AcDb2dVertex
 10
65.78742487504667
 20
169.3400585865066
 30
0.0
  0
VERTEX
  5
265
330
263
100
AcDbEntity
  8
GRAU_10_
 62
     7
100
AcDbVertex
100
AcDb2dVertex
 10
66.11162765274335
 20
169.3136002531799
 30
0.0
  0
SEQEND
  5
266
330
263
100
AcDbEntity
  8
GRAU_10_
 62
     7
  0
POLYLINE
  5
267
330
1F
100
AcDbEntity
  8
GRAU_10_
 62
     7
100
AcDb2dPolyline
 66
     1
 10
0.0
 20
0.0
 30
0.0
  0
VERTEX
  5
268
330
267
100
AcDbEntity
  8
GRAU_10_
 62
     7
100
AcDbVertex
100
AcDb2dVertex
 10
66.11303876385408
 20
169.5302058086815
 30
0.0
  0
VERTEX
  5
269
330
267
100
AcDbEntity
  8
GRAU_10_
 62
     7
100
AcDbVertex
100
AcDb2dVertex
 10
65.9429998750077
 20
169.5439641420113
 30
0.0
  0
SEQEND
  5
26A
330
267
100
AcDbEntity
  8
GRAU_10_
 62
     7
  0
POLYLINE
  5
26B
330
1F
100
AcDbEntity
  8
GRAU_10_
 62
     7
100
AcDb2dPolyline
 66
     1
 10
0.0
 20
0.0
 30
0.0
  0
VERTEX
  5
26C
330
26B
100
AcDbEntity
  8
GRAU_10_
 62
     7
100
AcDbVertex
100
AcDb2dVertex
 10
66.25168043048609
 20
168.8698058088465
 30
0.0
  0
VERTEX
  5
26D
330
26B
100
AcDbEntity
  8
GRAU_10_
 62
     7
100
AcDbVertex
100
AcDb2dVertex
 10
65.96875265277916
 20
168.8377030310766
 30
0.0
  0
VERTEX
  5
26E
330
26B
100
AcDbEntity
  8
GRAU_10_
 62
     7
100
AcDbVertex
100
AcDb2dVertex
 10
65.78989431949036
 20
168.7519780310982
 30
0.0
  0
SEQEND
  5
26F
330
26B
100
AcDbEntity
  8
GRAU_10_
 62
     7
  0
POLYLINE
  5
270
330
1F
100
AcDbEntity
  8
GRAU_10_
 62
     7
100
AcDb2dPolyline
 66
     1
 10
0.0
 20
0.0
 30
0.0
  0
VERTEX
  5
271
330
270
100
AcDbEntity
  8
GRAU_10_
 62
     7
100
AcDbVertex
100
AcDb2dVertex
 10
66.25168043048609
 20
169.2197613643146
 30
0.0
  0
VERTEX
  5
272
330
270
100
AcDbEntity
  8
GRAU_10_
 62
     7
100
AcDbVertex
100
AcDb2dVertex
 10
65.96875265277916
 20
169.252216919862
 30
0.0
  0
VERTEX
  5
273
330
270
100
AcDbEntity
  8
GRAU_10_
 62
     7
100
AcDbVertex
100
AcDb2dVertex
 10
65.78989431949036
 20
169.3372363642852
 30
0.0
  0
SEQEND
  5
274
330
270
100
AcDbEntity
  8
GRAU_10_
 62
     7
  0
POLYLINE
  5
275
330
1F
100
AcDbEntity
  8
GRAU_10_
 62
     7
100
AcDb2dPolyline
 66
     1
 10
0.0
 20
0.0
 30
0.0
  0
VERTEX
  5
276
330
275
100
AcDbEntity
  8
GRAU_10_
 62
     7
100
AcDbVertex
100
AcDb2dVertex
 10
66.25168043048609
 20
170.2188280307313
 30
0.0
  0
VERTEX
  5
277
330
275
100
AcDbEntity
  8
GRAU_10_
 62
     7
100
AcDbVertex
100
AcDb2dVertex
 10
65.96875265277916
 20
170.251283586279
 30
0.0
  0
VERTEX
  5
278
330
275
100
AcDbEntity
  8
GRAU_10_
 62
     7
100
AcDbVertex
100
AcDb2dVertex
 10
65.78989431949036
 20
170.3363030307022
 30
0.0
  0
SEQEND
  5
279
330
275
100
AcDbEntity
  8
GRAU_10_
 62
     7
  0
POLYLINE
  5
27A
330
1F
100
AcDbEntity
  8
GRAU_10_
 62
     7
100
AcDb2dPolyline
 66
     1
 10
0.0
 20
0.0
 30
0.0
  0
VERTEX
  5
27B
330
27A
100
AcDbEntity
  8
GRAU_10_
 62
     7
100
AcDbVertex
100
AcDb2dVertex
 10
66.25168043048609
 20
169.8685196974858
 30
0.0
  0
VERTEX
  5
27C
330
27A
100
AcDbEntity
  8
GRAU_10_
 62
     7
100
AcDbVertex
100
AcDb2dVertex
 10
65.96875265277916
 20
169.8364169197159
 30
0.0
  0
VERTEX
  5
27D
330
27A
100
AcDbEntity
  8
GRAU_10_
 62
     7
100
AcDbVertex
100
AcDb2dVertex
 10
65.78989431949036
 20
169.7510446975153
 30
0.0
  0
SEQEND
  5
27E
330
27A
100
AcDbEntity
  8
GRAU_10_
 62
     7
  0
POLYLINE
  5
27F
330
1F
100
AcDbEntity
  8
GRAU_10_
 62
     7
100
AcDb2dPolyline
 66
     1
 10
0.0
 20
0.0
 30
0.0
  0
VERTEX
  5
280
330
27F
100
AcDbEntity
  8
GRAU_10_
 62
     7
100
AcDbVertex
100
AcDb2dVertex
 10
65.85304154169683
 20
170.7942085861432
 30
0.0
  0
VERTEX
  5
281
330
27F
100
AcDbEntity
  8
GRAU_10_
 62
     7
100
AcDbVertex
100
AcDb2dVertex
 10
65.78989431949036
 20
170.750111363932
 30
0.0
  0
SEQEND
  5
282
330
27F
100
AcDbEntity
  8
GRAU_10_
 62
     7
  0
POLYLINE
  5
283
330
1F
100
AcDbEntity
  8
GRAU_10_
 62
     7
100
AcDb2dPolyline
 66
     1
 10
0.0
 20
0.0
 30
0.0
  0
VERTEX
  5
284
330
283
100
AcDbEntity
  8
GRAU_10_
 62
     7
100
AcDbVertex
100
AcDb2dVertex
 10
72.90259987326783
 20
168.5597141422574
 30
0.0
  0
VERTEX
  5
285
330
283
100
AcDbEntity
  8
GRAU_10_
 62
     7
100
AcDbVertex
100
AcDb2dVertex
 10
72.90259987326783
 20
168.7756141422035
 30
0.0
  0
SEQEND
  5
286
330
283
100
AcDbEntity
  8
GRAU_10_
 62
     7
  0
POLYLINE
  5
287
330
1F
100
AcDbEntity
  8
GRAU_10_
 62
     7
100
AcDb2dPolyline
 66
     1
 10
0.0
 20
0.0
 30
0.0
  0
VERTEX
  5
288
330
287
100
AcDbEntity
  8
GRAU_10_
 62
     7
100
AcDbVertex
100
AcDb2dVertex
 10
72.90259987326783
 20
170.3126669195969
 30
0.0
  0
VERTEX
  5
289
330
287
100
AcDbEntity
  8
GRAU_10_
 62
     7
100
AcDbVertex
100
AcDb2dVertex
 10
72.90259987326783
 20
170.5292724750982
 30
0.0
  0
SEQEND
  5
28A
330
287
100
AcDbEntity
  8
GRAU_10_
 62
     7
  0
POLYLINE
  5
28B
330
1F
100
AcDbEntity
  8
GRAU_10_
 62
     7
100
AcDb2dPolyline
 66
     1
 10
0.0
 20
0.0
 30
0.0
  0
VERTEX
  5
28C
330
28B
100
AcDbEntity
  8
GRAU_10_
 62
     7
100
AcDbVertex
100
AcDb2dVertex
 10
72.90259987326783
 20
169.5580752531189
 30
0.0
  0
VERTEX
  5
28D
330
28B
100
AcDbEntity
  8
GRAU_10_
 62
     7
100
AcDbVertex
100
AcDb2dVertex
 10
72.90259987326783
 20
169.7746808086202
 30
0.0
  0
SEQEND
  5
28E
330
28B
100
AcDbEntity
  8
GRAU_10_
 62
     7
  0
POLYLINE
  5
28F
330
1F
100
AcDbEntity
  8
GRAU_10_
 62
     7
100
AcDb2dPolyline
 66
     1
 10
0.0
 20
0.0
 30
0.0
  0
VERTEX
  5
290
330
28F
100
AcDbEntity
  8
GRAU_10_
 62
     7
100
AcDbVertex
100
AcDb2dVertex
 10
72.90259987326783
 20
170.5571419195359
 30
0.0
  0
VERTEX
  5
291
330
28F
100
AcDbEntity
  8
GRAU_10_
 62
     7
100
AcDbVertex
100
AcDb2dVertex
 10
72.90259987326783
 20
170.7737474750372
 30
0.0
  0
SEQEND
  5
292
330
28F
100
AcDbEntity
  8
GRAU_10_
 62
     7
  0
POLYLINE
  5
293
330
1F
100
AcDbEntity
  8
GRAU_10_
 62
     7
100
AcDb2dPolyline
 66
     1
 10
0.0
 20
0.0
 30
0.0
  0
VERTEX
  5
294
330
293
100
AcDbEntity
  8
GRAU_10_
 62
     7
100
AcDbVertex
100
AcDb2dVertex
 10
72.90259987326783
 20
169.3136002531799
 30
0.0
  0
VERTEX
  5
295
330
293
100
AcDbEntity
  8
GRAU_10_
 62
     7
100
AcDbVertex
100
AcDb2dVertex
 10
72.90259987326783
 20
169.5302058086815
 30
0.0
  0
SEQEND
  5
296
330
293
100
AcDbEntity
  8
GRAU_10_
 62
     7
  0
POLYLINE
  5
297
330
1F
100
AcDbEntity
  8
GRAU_10_
 62
     7
100
AcDb2dPolyline
 66
     1
 10
0.0
 20
0.0
 30
0.0
  0
VERTEX
  5
298
330
297
100
AcDbEntity
  8
GRAU_10_
 62
     7
100
AcDbVertex
100
AcDb2dVertex
 10
65.78742487504667
 20
170.7476419194883
 30
0.0
  0
VERTEX
  5
299
330
297
100
AcDbEntity
  8
GRAU_10_
 62
     7
100
AcDbVertex
100
AcDb2dVertex
 10
65.77296098616134
 20
170.7310613639367
 30
0.0
  0
VERTEX
  5
29A
330
297
100
AcDbEntity
  8
GRAU_10_
 62
     7
100
AcDbVertex
100
AcDb2dVertex
 10
65.75920265283153
 20
170.7109530306085
 30
0.0
  0
VERTEX
  5
29B
330
297
100
AcDbEntity
  8
GRAU_10_
 62
     7
100
AcDbVertex
100
AcDb2dVertex
 10
65.74614987505691
 20
170.6883752528362
 30
0.0
  0
VERTEX
  5
29C
330
297
100
AcDbEntity
  8
GRAU_10_
 62
     7
100
AcDbVertex
100
AcDb2dVertex
 10
65.73344987506007
 20
170.6633280306203
 30
0.0
  0
VERTEX
  5
29D
330
297
100
AcDbEntity
  8
GRAU_10_
 62
     7
100
AcDbVertex
100
AcDb2dVertex
 10
65.7218082083962
 20
170.6351058084051
 30
0.0
  0
VERTEX
  5
29E
330
297
100
AcDbEntity
  8
GRAU_10_
 62
     7
100
AcDbVertex
100
AcDb2dVertex
 10
65.71016654173263
 20
170.605825252857
 30
0.0
  0
VERTEX
  5
29F
330
297
100
AcDbEntity
  8
GRAU_10_
 62
     7
100
AcDbVertex
100
AcDb2dVertex
 10
65.6988776528465
 20
170.5754863639757
 30
0.0
  0
VERTEX
  5
2A0
330
297
100
AcDbEntity
  8
GRAU_10_
 62
     7
100
AcDbVertex
100
AcDb2dVertex
 10
65.68829431951592
 20
170.5430308084283
 30
0.0
  0
SEQEND
  5
2A1
330
297
100
AcDbEntity
  8
GRAU_10_
 62
     7
  0
POLYLINE
  5
2A2
330
1F
100
AcDbEntity
  8
GRAU_10_
 62
     7
100
AcDb2dPolyline
 66
     1
 10
0.0
 20
0.0
 30
0.0
  0
VERTEX
  5
2A3
330
2A2
100
AcDbEntity
  8
GRAU_10_
 62
     7
100
AcDbVertex
100
AcDb2dVertex
 10
65.78742487504667
 20
170.3391252529236
 30
0.0
  0
VERTEX
  5
2A4
330
2A2
100
AcDbEntity
  8
GRAU_10_
 62
     7
100
AcDbVertex
100
AcDb2dVertex
 10
65.77296098616134
 20
170.3553530306974
 30
0.0
  0
VERTEX
  5
2A5
330
2A2
100
AcDbEntity
  8
GRAU_10_
 62
     7
100
AcDbVertex
100
AcDb2dVertex
 10
65.75920265283153
 20
170.3751085862479
 30
0.0
  0
VERTEX
  5
2A6
330
2A2
100
AcDbEntity
  8
GRAU_10_
 62
     7
100
AcDbVertex
100
AcDb2dVertex
 10
65.74614987505691
 20
170.3976863640202
 30
0.0
  0
VERTEX
  5
2A7
330
2A2
100
AcDbEntity
  8
GRAU_10_
 62
     7
100
AcDbVertex
100
AcDb2dVertex
 10
65.73344987506007
 20
170.4230863640138
 30
0.0
  0
VERTEX
  5
2A8
330
2A2
100
AcDbEntity
  8
GRAU_10_
 62
     7
100
AcDbVertex
100
AcDb2dVertex
 10
65.7218082083962
 20
170.4509558084512
 30
0.0
  0
VERTEX
  5
2A9
330
2A2
100
AcDbEntity
  8
GRAU_10_
 62
     7
100
AcDbVertex
100
AcDb2dVertex
 10
65.71016654173263
 20
170.4802363639993
 30
0.0
  0
VERTEX
  5
2AA
330
2A2
100
AcDbEntity
  8
GRAU_10_
 62
     7
100
AcDbVertex
100
AcDb2dVertex
 10
65.69923043062427
 20
170.5109280306585
 30
0.0
  0
VERTEX
  5
2AB
330
2A2
100
AcDbEntity
  8
GRAU_10_
 62
     7
100
AcDbVertex
100
AcDb2dVertex
 10
65.68829431951592
 20
170.5430308084283
 30
0.0
  0
SEQEND
  5
2AC
330
2A2
100
AcDbEntity
  8
GRAU_10_
 62
     7
  0
POLYLINE
  5
2AD
330
1F
100
AcDbEntity
  8
GRAU_10_
 62
     7
100
AcDb2dPolyline
 66
     1
 10
0.0
 20
0.0
 30
0.0
  0
VERTEX
  5
2AE
330
2AD
100
AcDbEntity
  8
GRAU_10_
 62
     7
100
AcDbVertex
100
AcDb2dVertex
 10
65.78742487504667
 20
169.7482224752935
 30
0.0
  0
VERTEX
  5
2AF
330
2AD
100
AcDbEntity
  8
GRAU_10_
 62
     7
100
AcDbVertex
100
AcDb2dVertex
 10
65.77296098616134
 20
169.73199469752
 30
0.0
  0
VERTEX
  5
2B0
330
2AD
100
AcDbEntity
  8
GRAU_10_
 62
     7
100
AcDbVertex
100
AcDb2dVertex
 10
65.75920265283153
 20
169.7118863641915
 30
0.0
  0
VERTEX
  5
2B1
330
2AD
100
AcDbEntity
  8
GRAU_10_
 62
     7
100
AcDbVertex
100
AcDb2dVertex
 10
65.74614987505691
 20
169.689661364197
 30
0.0
  0
VERTEX
  5
2B2
330
2AD
100
AcDbEntity
  8
GRAU_10_
 62
     7
100
AcDbVertex
100
AcDb2dVertex
 10
65.73344987506007
 20
169.6642613642036
 30
0.0
  0
VERTEX
  5
2B3
330
2AD
100
AcDbEntity
  8
GRAU_10_
 62
     7
100
AcDbVertex
100
AcDb2dVertex
 10
65.7218082083962
 20
169.6367446975437
 30
0.0
  0
VERTEX
  5
2B4
330
2AD
100
AcDbEntity
  8
GRAU_10_
 62
     7
100
AcDbVertex
100
AcDb2dVertex
 10
65.71016654173263
 20
169.60675858644
 30
0.0
  0
VERTEX
  5
2B5
330
2AD
100
AcDbEntity
  8
GRAU_10_
 62
     7
100
AcDbVertex
100
AcDb2dVertex
 10
65.6988776528465
 20
169.5764196975586
 30
0.0
  0
VERTEX
  5
2B6
330
2AD
100
AcDbEntity
  8
GRAU_10_
 62
     7
100
AcDbVertex
100
AcDb2dVertex
 10
65.68829431951592
 20
169.5439641420113
 30
0.0
  0
SEQEND
  5
2B7
330
2AD
100
AcDbEntity
  8
GRAU_10_
 62
     7
  0
POLYLINE
  5
2B8
330
1F
100
AcDbEntity
  8
GRAU_10_
 62
     7
100
AcDb2dPolyline
 66
     1
 10
0.0
 20
0.0
 30
0.0
  0
VERTEX
  5
2B9
330
2B8
100
AcDbEntity
  8
GRAU_10_
 62
     7
100
AcDbVertex
100
AcDb2dVertex
 10
65.78742487504667
 20
169.3400585865066
 30
0.0
  0
VERTEX
  5
2BA
330
2B8
100
AcDbEntity
  8
GRAU_10_
 62
     7
100
AcDbVertex
100
AcDb2dVertex
 10
65.77296098616134
 20
169.3562863642804
 30
0.0
  0
VERTEX
  5
2BB
330
2B8
100
AcDbEntity
  8
GRAU_10_
 62
     7
100
AcDbVertex
100
AcDb2dVertex
 10
65.75920265283153
 20
169.3760419198312
 30
0.0
  0
VERTEX
  5
2BC
330
2B8
100
AcDbEntity
  8
GRAU_10_
 62
     7
100
AcDbVertex
100
AcDb2dVertex
 10
65.74614987505691
 20
169.3993252531587
 30
0.0
  0
VERTEX
  5
2BD
330
2B8
100
AcDbEntity
  8
GRAU_10_
 62
     7
100
AcDbVertex
100
AcDb2dVertex
 10
65.73344987506007
 20
169.4247252531523
 30
0.0
  0
VERTEX
  5
2BE
330
2B8
100
AcDbEntity
  8
GRAU_10_
 62
     7
100
AcDbVertex
100
AcDb2dVertex
 10
65.7218082083962
 20
169.452241919812
 30
0.0
  0
VERTEX
  5
2BF
330
2B8
100
AcDbEntity
  8
GRAU_10_
 62
     7
100
AcDbVertex
100
AcDb2dVertex
 10
65.71016654173263
 20
169.4815224753604
 30
0.0
  0
VERTEX
  5
2C0
330
2B8
100
AcDbEntity
  8
GRAU_10_
 62
     7
100
AcDbVertex
100
AcDb2dVertex
 10
65.69923043062427
 20
169.5118613642414
 30
0.0
  0
VERTEX
  5
2C1
330
2B8
100
AcDbEntity
  8
GRAU_10_
 62
     7
100
AcDbVertex
100
AcDb2dVertex
 10
65.68829431951592
 20
169.5439641420113
 30
0.0
  0
SEQEND
  5
2C2
330
2B8
100
AcDbEntity
  8
GRAU_10_
 62
     7
  0
POLYLINE
  5
2C3
330
1F
100
AcDbEntity
  8
GRAU_10_
 62
     7
100
AcDb2dPolyline
 66
     1
 10
0.0
 20
0.0
 30
0.0
  0
VERTEX
  5
2C4
330
2C3
100
AcDbEntity
  8
GRAU_10_
 62
     7
100
AcDbVertex
100
AcDb2dVertex
 10
65.78742487504667
 20
168.7495085866542
 30
0.0
  0
VERTEX
  5
2C5
330
2C3
100
AcDbEntity
  8
GRAU_10_
 62
     7
100
AcDbVertex
100
AcDb2dVertex
 10
65.77578320838279
 20
168.7361030311022
 30
0.0
  0
VERTEX
  5
2C6
330
2C3
100
AcDbEntity
  8
GRAU_10_
 62
     7
100
AcDbVertex
100
AcDb2dVertex
 10
65.76449431949666
 20
168.7216391422169
 30
0.0
  0
VERTEX
  5
2C7
330
2C3
100
AcDbEntity
  8
GRAU_10_
 62
     7
100
AcDbVertex
100
AcDb2dVertex
 10
65.75391098616608
 20
168.7043530311101
 30
0.0
  0
VERTEX
  5
2C8
330
2C3
100
AcDbEntity
  8
GRAU_10_
 62
     7
100
AcDbVertex
100
AcDb2dVertex
 10
65.74368043061291
 20
168.6849502533371
 30
0.0
  0
VERTEX
  5
2C9
330
2C3
100
AcDbEntity
  8
GRAU_10_
 62
     7
100
AcDbVertex
100
AcDb2dVertex
 10
65.73309709728231
 20
168.6630780311203
 30
0.0
  0
VERTEX
  5
2CA
330
2C3
100
AcDbEntity
  8
GRAU_10_
 62
     7
100
AcDbVertex
100
AcDb2dVertex
 10
65.72251376395171
 20
168.6401474755706
 30
0.0
  0
VERTEX
  5
2CB
330
2C3
100
AcDbEntity
  8
GRAU_10_
 62
     7
100
AcDbVertex
100
AcDb2dVertex
 10
65.71263598617632
 20
168.6154530311325
 30
0.0
  0
VERTEX
  5
2CC
330
2C3
100
AcDbEntity
  8
GRAU_10_
 62
     7
100
AcDbVertex
100
AcDb2dVertex
 10
65.70311098617869
 20
168.5893474755833
 30
0.0
  0
VERTEX
  5
2CD
330
2C3
100
AcDbEntity
  8
GRAU_10_
 62
     7
100
AcDbVertex
100
AcDb2dVertex
 10
65.68829431951592
 20
168.5452502533721
 30
0.0
  0
VERTEX
  5
2CE
330
2C3
100
AcDbEntity
  8
GRAU_10_
 62
     7
100
AcDbVertex
100
AcDb2dVertex
 10
65.67383043063059
 20
168.4993891422724
 30
0.0
  0
VERTEX
  5
2CF
330
2C3
100
AcDbEntity
  8
GRAU_10_
 62
     7
100
AcDbVertex
100
AcDb2dVertex
 10
65.65760265285677
 20
168.4440030311751
 30
0.0
  0
VERTEX
  5
2D0
330
2C3
100
AcDbEntity
  8
GRAU_10_
 62
     7
100
AcDbVertex
100
AcDb2dVertex
 10
65.64208043063847
 20
168.3875585867448
 30
0.0
  0
SEQEND
  5
2D1
330
2C3
100
AcDbEntity
  8
GRAU_10_
 62
     7
  0
POLYLINE
  5
2D2
330
1F
100
AcDbEntity
  8
GRAU_10_
 62
     7
100
AcDb2dPolyline
 66
     1
 10
0.0
 20
0.0
 30
0.0
  0
VERTEX
  5
2D3
330
2D2
100
AcDbEntity
  8
GRAU_10_
 62
     7
100
AcDbVertex
100
AcDb2dVertex
 10
66.11162765274335
 20
168.7756141422035
 30
0.0
  0
VERTEX
  5
2D4
330
2D2
100
AcDbEntity
  8
GRAU_10_
 62
     7
100
AcDbVertex
100
AcDb2dVertex
 10
66.11198043052111
 20
168.7611502533181
 30
0.0
  0
VERTEX
  5
2D5
330
2D2
100
AcDbEntity
  8
GRAU_10_
 62
     7
100
AcDbVertex
100
AcDb2dVertex
 10
66.11268598607631
 20
168.7417474755451
 30
0.0
  0
VERTEX
  5
2D6
330
2D2
100
AcDbEntity
  8
GRAU_10_
 62
     7
100
AcDbVertex
100
AcDb2dVertex
 10
66.11303876385408
 20
168.7188169199954
 30
0.0
  0
VERTEX
  5
2D7
330
2D2
100
AcDbEntity
  8
GRAU_10_
 62
     7
100
AcDbVertex
100
AcDb2dVertex
 10
66.11303876385408
 20
168.6916530311132
 30
0.0
  0
VERTEX
  5
2D8
330
2D2
100
AcDbEntity
  8
GRAU_10_
 62
     7
100
AcDbVertex
100
AcDb2dVertex
 10
66.11303876385408
 20
168.6613141422318
 30
0.0
  0
VERTEX
  5
2D9
330
2D2
100
AcDbEntity
  8
GRAU_10_
 62
     7
100
AcDbVertex
100
AcDb2dVertex
 10
66.11303876385408
 20
168.6288585866845
 30
0.0
  0
VERTEX
  5
2DA
330
2D2
100
AcDbEntity
  8
GRAU_10_
 62
     7
100
AcDbVertex
100
AcDb2dVertex
 10
66.11303876385408
 20
168.594286364471
 30
0.0
  0
VERTEX
  5
2DB
330
2D2
100
AcDbEntity
  8
GRAU_10_
 62
     7
100
AcDbVertex
100
AcDb2dVertex
 10
66.11303876385408
 20
168.5597141422574
 30
0.0
  0
SEQEND
  5
2DC
330
2D2
100
AcDbEntity
  8
GRAU_10_
 62
     7
  0
POLYLINE
  5
2DD
330
1F
100
AcDbEntity
  8
GRAU_10_
 62
     7
100
AcDb2dPolyline
 66
     1
 10
0.0
 20
0.0
 30
0.0
  0
VERTEX
  5
2DE
330
2DD
100
AcDbEntity
  8
GRAU_10_
 62
     7
100
AcDbVertex
100
AcDb2dVertex
 10
65.68829431951592
 20
170.5430308084283
 30
0.0
  0
VERTEX
  5
2DF
330
2DD
100
AcDbEntity
  8
GRAU_10_
 62
     7
100
AcDbVertex
100
AcDb2dVertex
 10
65.69358598618105
 20
170.5430308084283
 30
0.0
  0
VERTEX
  5
2E0
330
2DD
100
AcDbEntity
  8
GRAU_10_
 62
     7
100
AcDbVertex
100
AcDb2dVertex
 10
65.69958320840172
 20
170.5430308084283
 30
0.0
  0
VERTEX
  5
2E1
330
2DD
100
AcDbEntity
  8
GRAU_10_
 62
     7
100
AcDbVertex
100
AcDb2dVertex
 10
65.70522765284494
 20
170.5430308084283
 30
0.0
  0
VERTEX
  5
2E2
330
2DD
100
AcDbEntity
  8
GRAU_10_
 62
     7
100
AcDbVertex
100
AcDb2dVertex
 10
65.71051931951007
 20
170.5430308084283
 30
0.0
  0
VERTEX
  5
2E3
330
2DD
100
AcDbEntity
  8
GRAU_10_
 62
     7
100
AcDbVertex
100
AcDb2dVertex
 10
65.71651654173105
 20
170.5430308084283
 30
0.0
  0
VERTEX
  5
2E4
330
2DD
100
AcDbEntity
  8
GRAU_10_
 62
     7
100
AcDbVertex
100
AcDb2dVertex
 10
65.72216098617396
 20
170.5430308084283
 30
0.0
  0
VERTEX
  5
2E5
330
2DD
100
AcDbEntity
  8
GRAU_10_
 62
     7
100
AcDbVertex
100
AcDb2dVertex
 10
65.72745265283942
 20
170.5430308084283
 30
0.0
  0
VERTEX
  5
2E6
330
2DD
100
AcDbEntity
  8
GRAU_10_
 62
     7
100
AcDbVertex
100
AcDb2dVertex
 10
65.73344987506007
 20
170.5430308084283
 30
0.0
  0
VERTEX
  5
2E7
330
2DD
100
AcDbEntity
  8
GRAU_10_
 62
     7
100
AcDbVertex
100
AcDb2dVertex
 10
65.73944709728073
 20
170.5430308084283
 30
0.0
  0
VERTEX
  5
2E8
330
2DD
100
AcDbEntity
  8
GRAU_10_
 62
     7
100
AcDbVertex
100
AcDb2dVertex
 10
65.74509154172395
 20
170.5430308084283
 30
0.0
  0
VERTEX
  5
2E9
330
2DD
100
AcDbEntity
  8
GRAU_10_
 62
     7
100
AcDbVertex
100
AcDb2dVertex
 10
65.7503832083891
 20
170.5430308084283
 30
0.0
  0
VERTEX
  5
2EA
330
2DD
100
AcDbEntity
  8
GRAU_10_
 62
     7
100
AcDbVertex
100
AcDb2dVertex
 10
65.75638043060975
 20
170.5430308084283
 30
0.0
  0
VERTEX
  5
2EB
330
2DD
100
AcDbEntity
  8
GRAU_10_
 62
     7
100
AcDbVertex
100
AcDb2dVertex
 10
65.76237765283074
 20
170.5430308084283
 30
0.0
  0
VERTEX
  5
2EC
330
2DD
100
AcDbEntity
  8
GRAU_10_
 62
     7
100
AcDbVertex
100
AcDb2dVertex
 10
65.76802209727364
 20
170.5430308084283
 30
0.0
  0
VERTEX
  5
2ED
330
2DD
100
AcDbEntity
  8
GRAU_10_
 62
     7
100
AcDbVertex
100
AcDb2dVertex
 10
65.7733137639391
 20
170.5430308084283
 30
0.0
  0
VERTEX
  5
2EE
330
2DD
100
AcDbEntity
  8
GRAU_10_
 62
     7
100
AcDbVertex
100
AcDb2dVertex
 10
65.77931098615976
 20
170.5430308084283
 30
0.0
  0
VERTEX
  5
2EF
330
2DD
100
AcDbEntity
  8
GRAU_10_
 62
     7
100
AcDbVertex
100
AcDb2dVertex
 10
65.78530820838043
 20
170.5430308084283
 30
0.0
  0
VERTEX
  5
2F0
330
2DD
100
AcDbEntity
  8
GRAU_10_
 62
     7
100
AcDbVertex
100
AcDb2dVertex
 10
65.79059987504588
 20
170.5430308084283
 30
0.0
  0
VERTEX
  5
2F1
330
2DD
100
AcDbEntity
  8
GRAU_10_
 62
     7
100
AcDbVertex
100
AcDb2dVertex
 10
65.79659709726654
 20
170.5430308084283
 30
0.0
  0
VERTEX
  5
2F2
330
2DD
100
AcDbEntity
  8
GRAU_10_
 62
     7
100
AcDbVertex
100
AcDb2dVertex
 10
65.8025943194872
 20
170.5430308084283
 30
0.0
  0
VERTEX
  5
2F3
330
2DD
100
AcDbEntity
  8
GRAU_10_
 62
     7
100
AcDbVertex
100
AcDb2dVertex
 10
65.80859154170787
 20
170.5430308084283
 30
0.0
  0
VERTEX
  5
2F4
330
2DD
100
AcDbEntity
  8
GRAU_10_
 62
     7
100
AcDbVertex
100
AcDb2dVertex
 10
65.81423598615109
 20
170.5430308084283
 30
0.0
  0
VERTEX
  5
2F5
330
2DD
100
AcDbEntity
  8
GRAU_10_
 62
     7
100
AcDbVertex
100
AcDb2dVertex
 10
65.81952765281622
 20
170.5430308084283
 30
0.0
  0
VERTEX
  5
2F6
330
2DD
100
AcDbEntity
  8
GRAU_10_
 62
     7
100
AcDbVertex
100
AcDb2dVertex
 10
65.82552487503689
 20
170.5430308084283
 30
0.0
  0
VERTEX
  5
2F7
330
2DD
100
AcDbEntity
  8
GRAU_10_
 62
     7
100
AcDbVertex
100
AcDb2dVertex
 10
65.83152209725787
 20
170.5430308084283
 30
0.0
  0
VERTEX
  5
2F8
330
2DD
100
AcDbEntity
  8
GRAU_10_
 62
     7
100
AcDbVertex
100
AcDb2dVertex
 10
65.83751931947853
 20
170.5430308084283
 30
0.0
  0
VERTEX
  5
2F9
330
2DD
100
AcDbEntity
  8
GRAU_10_
 62
     7
100
AcDbVertex
100
AcDb2dVertex
 10
65.84316376392142
 20
170.5430308084283
 30
0.0
  0
VERTEX
  5
2FA
330
2DD
100
AcDbEntity
  8
GRAU_10_
 62
     7
100
AcDbVertex
100
AcDb2dVertex
 10
65.84880820836464
 20
170.5430308084283
 30
0.0
  0
VERTEX
  5
2FB
330
2DD
100
AcDbEntity
  8
GRAU_10_
 62
     7
100
AcDbVertex
100
AcDb2dVertex
 10
65.85480543058532
 20
170.5430308084283
 30
0.0
  0
VERTEX
  5
2FC
330
2DD
100
AcDbEntity
  8
GRAU_10_
 62
     7
100
AcDbVertex
100
AcDb2dVertex
 10
65.86080265280597
 20
170.5430308084283
 30
0.0
  0
VERTEX
  5
2FD
330
2DD
100
AcDbEntity
  8
GRAU_10_
 62
     7
100
AcDbVertex
100
AcDb2dVertex
 10
65.86679987502663
 20
170.5430308084283
 30
0.0
  0
VERTEX
  5
2FE
330
2DD
100
AcDbEntity
  8
GRAU_10_
 62
     7
100
AcDbVertex
100
AcDb2dVertex
 10
65.87244431946985
 20
170.5430308084283
 30
0.0
  0
VERTEX
  5
2FF
330
2DD
100
AcDbEntity
  8
GRAU_10_
 62
     7
100
AcDbVertex
100
AcDb2dVertex
 10
65.87808876391276
 20
170.5430308084283
 30
0.0
  0
VERTEX
  5
300
330
2DD
100
AcDbEntity
  8
GRAU_10_
 62
     7
100
AcDbVertex
100
AcDb2dVertex
 10
65.88443876391118
 20
170.5430308084283
 30
0.0
  0
VERTEX
  5
301
330
2DD
100
AcDbEntity
  8
GRAU_10_
 62
     7
100
AcDbVertex
100
AcDb2dVertex
 10
65.89008320835407
 20
170.5430308084283
 30
0.0
  0
VERTEX
  5
302
330
2DD
100
AcDbEntity
  8
GRAU_10_
 62
     7
100
AcDbVertex
100
AcDb2dVertex
 10
65.89608043057505
 20
170.5430308084283
 30
0.0
  0
VERTEX
  5
303
330
2DD
100
AcDbEntity
  8
GRAU_10_
 62
     7
100
AcDbVertex
100
AcDb2dVertex
 10
65.90172487501796
 20
170.5430308084283
 30
0.0
  0
VERTEX
  5
304
330
2DD
100
AcDbEntity
  8
GRAU_10_
 62
     7
100
AcDbVertex
100
AcDb2dVertex
 10
65.90736931946118
 20
170.5430308084283
 30
0.0
  0
VERTEX
  5
305
330
2DD
100
AcDbEntity
  8
GRAU_10_
 62
     7
100
AcDbVertex
100
AcDb2dVertex
 10
65.91371931945928
 20
170.5430308084283
 30
0.0
  0
VERTEX
  5
306
330
2DD
100
AcDbEntity
  8
GRAU_10_
 62
     7
100
AcDbVertex
100
AcDb2dVertex
 10
65.91971654168026
 20
170.5430308084283
 30
0.0
  0
VERTEX
  5
307
330
2DD
100
AcDbEntity
  8
GRAU_10_
 62
     7
100
AcDbVertex
100
AcDb2dVertex
 10
65.9250082083454
 20
170.5430308084283
 30
0.0
  0
VERTEX
  5
308
330
2DD
100
AcDbEntity
  8
GRAU_10_
 62
     7
100
AcDbVertex
100
AcDb2dVertex
 10
65.93100543056606
 20
170.5430308084283
 30
0.0
  0
VERTEX
  5
309
330
2DD
100
AcDbEntity
  8
GRAU_10_
 62
     7
100
AcDbVertex
100
AcDb2dVertex
 10
65.93700265278704
 20
170.5430308084283
 30
0.0
  0
VERTEX
  5
30A
330
2DD
100
AcDbEntity
  8
GRAU_10_
 62
     7
100
AcDbVertex
100
AcDb2dVertex
 10
65.9429998750077
 20
170.5430308084283
 30
0.0
  0
SEQEND
  5
30B
330
2DD
100
AcDbEntity
  8
GRAU_10_
 62
     7
  0
POLYLINE
  5
30C
330
1F
100
AcDbEntity
  8
GRAU_10_
 62
     7
100
AcDb2dPolyline
 66
     1
 10
0.0
 20
0.0
 30
0.0
  0
VERTEX
  5
30D
330
30C
100
AcDbEntity
  8
GRAU_10_
 62
     7
100
AcDbVertex
100
AcDb2dVertex
 10
66.11162765274335
 20
170.7737474750372
 30
0.0
  0
VERTEX
  5
30E
330
30C
100
AcDbEntity
  8
GRAU_10_
 62
     7
100
AcDbVertex
100
AcDb2dVertex
 10
66.11198043052111
 20
170.7589308083744
 30
0.0
  0
VERTEX
  5
30F
330
30C
100
AcDbEntity
  8
GRAU_10_
 62
     7
100
AcDbVertex
100
AcDb2dVertex
 10
66.11268598607631
 20
170.7398808083791
 30
0.0
  0
VERTEX
  5
310
330
30C
100
AcDbEntity
  8
GRAU_10_
 62
     7
100
AcDbVertex
100
AcDb2dVertex
 10
66.11303876385408
 20
170.7162446972739
 30
0.0
  0
VERTEX
  5
311
330
30C
100
AcDbEntity
  8
GRAU_10_
 62
     7
100
AcDbVertex
100
AcDb2dVertex
 10
66.11303876385408
 20
170.6890808083917
 30
0.0
  0
VERTEX
  5
312
330
30C
100
AcDbEntity
  8
GRAU_10_
 62
     7
100
AcDbVertex
100
AcDb2dVertex
 10
66.11303876385408
 20
170.6594474750659
 30
0.0
  0
VERTEX
  5
313
330
30C
100
AcDbEntity
  8
GRAU_10_
 62
     7
100
AcDbVertex
100
AcDb2dVertex
 10
66.11303876385408
 20
170.626286363963
 30
0.0
  0
VERTEX
  5
314
330
30C
100
AcDbEntity
  8
GRAU_10_
 62
     7
100
AcDbVertex
100
AcDb2dVertex
 10
66.11303876385408
 20
170.5924196973047
 30
0.0
  0
VERTEX
  5
315
330
30C
100
AcDbEntity
  8
GRAU_10_
 62
     7
100
AcDbVertex
100
AcDb2dVertex
 10
66.11303876385408
 20
170.5571419195359
 30
0.0
  0
SEQEND
  5
316
330
30C
100
AcDbEntity
  8
GRAU_10_
 62
     7
  0
POLYLINE
  5
317
330
1F
100
AcDbEntity
  8
GRAU_10_
 62
     7
100
AcDb2dPolyline
 66
     1
 10
0.0
 20
0.0
 30
0.0
  0
VERTEX
  5
318
330
317
100
AcDbEntity
  8
GRAU_10_
 62
     7
100
AcDbVertex
100
AcDb2dVertex
 10
66.11162765274335
 20
170.3126669195969
 30
0.0
  0
VERTEX
  5
319
330
317
100
AcDbEntity
  8
GRAU_10_
 62
     7
100
AcDbVertex
100
AcDb2dVertex
 10
66.11198043052111
 20
170.3274835862601
 30
0.0
  0
VERTEX
  5
31A
330
317
100
AcDbEntity
  8
GRAU_10_
 62
     7
100
AcDbVertex
100
AcDb2dVertex
 10
66.11268598607631
 20
170.3461808084776
 30
0.0
  0
VERTEX
  5
31B
330
317
100
AcDbEntity
  8
GRAU_10_
 62
     7
100
AcDbVertex
100
AcDb2dVertex
 10
66.11268598607631
 20
170.3701696973602
 30
0.0
  0
VERTEX
  5
31C
330
317
100
AcDbEntity
  8
GRAU_10_
 62
     7
100
AcDbVertex
100
AcDb2dVertex
 10
66.11303876385408
 20
170.3973335862424
 30
0.0
  0
VERTEX
  5
31D
330
317
100
AcDbEntity
  8
GRAU_10_
 62
     7
100
AcDbVertex
100
AcDb2dVertex
 10
66.11303876385408
 20
170.427319697346
 30
0.0
  0
VERTEX
  5
31E
330
317
100
AcDbEntity
  8
GRAU_10_
 62
     7
100
AcDbVertex
100
AcDb2dVertex
 10
66.11303876385408
 20
170.4601280306711
 30
0.0
  0
VERTEX
  5
31F
330
317
100
AcDbEntity
  8
GRAU_10_
 62
     7
100
AcDbVertex
100
AcDb2dVertex
 10
66.11303876385408
 20
170.4939946973294
 30
0.0
  0
VERTEX
  5
320
330
317
100
AcDbEntity
  8
GRAU_10_
 62
     7
100
AcDbVertex
100
AcDb2dVertex
 10
66.11303876385408
 20
170.5292724750982
 30
0.0
  0
SEQEND
  5
321
330
317
100
AcDbEntity
  8
GRAU_10_
 62
     7
  0
POLYLINE
  5
322
330
1F
100
AcDbEntity
  8
GRAU_10_
 62
     7
100
AcDb2dPolyline
 66
     1
 10
0.0
 20
0.0
 30
0.0
  0
VERTEX
  5
323
330
322
100
AcDbEntity
  8
GRAU_10_
 62
     7
100
AcDbVertex
100
AcDb2dVertex
 10
65.9429998750077
 20
169.5439641420113
 30
0.0
  0
VERTEX
  5
324
330
322
100
AcDbEntity
  8
GRAU_10_
 62
     7
100
AcDbVertex
100
AcDb2dVertex
 10
65.93700265278704
 20
169.5439641420113
 30
0.0
  0
VERTEX
  5
325
330
322
100
AcDbEntity
  8
GRAU_10_
 62
     7
100
AcDbVertex
100
AcDb2dVertex
 10
65.93206376389935
 20
169.5439641420113
 30
0.0
  0
VERTEX
  5
326
330
322
100
AcDbEntity
  8
GRAU_10_
 62
     7
100
AcDbVertex
100
AcDb2dVertex
 10
65.92641931945613
 20
169.5439641420113
 30
0.0
  0
VERTEX
  5
327
330
322
100
AcDbEntity
  8
GRAU_10_
 62
     7
100
AcDbVertex
100
AcDb2dVertex
 10
65.92042209723546
 20
169.5439641420113
 30
0.0
  0
VERTEX
  5
328
330
322
100
AcDbEntity
  8
GRAU_10_
 62
     7
100
AcDbVertex
100
AcDb2dVertex
 10
65.91513043057033
 20
169.5439641420113
 30
0.0
  0
VERTEX
  5
329
330
322
100
AcDbEntity
  8
GRAU_10_
 62
     7
100
AcDbVertex
100
AcDb2dVertex
 10
65.90948598612711
 20
169.5439641420113
 30
0.0
  0
VERTEX
  5
32A
330
322
100
AcDbEntity
  8
GRAU_10_
 62
     7
100
AcDbVertex
100
AcDb2dVertex
 10
65.90348876390644
 20
169.5439641420113
 30
0.0
  0
VERTEX
  5
32B
330
322
100
AcDbEntity
  8
GRAU_10_
 62
     7
100
AcDbVertex
100
AcDb2dVertex
 10
65.89819709724098
 20
169.5439641420113
 30
0.0
  0
VERTEX
  5
32C
330
322
100
AcDbEntity
  8
GRAU_10_
 62
     7
100
AcDbVertex
100
AcDb2dVertex
 10
65.89255265279809
 20
169.5439641420113
 30
0.0
  0
VERTEX
  5
32D
330
322
100
AcDbEntity
  8
GRAU_10_
 62
     7
100
AcDbVertex
100
AcDb2dVertex
 10
65.88655543057743
 20
169.5439641420113
 30
0.0
  0
VERTEX
  5
32E
330
322
100
AcDbEntity
  8
GRAU_10_
 62
     7
100
AcDbVertex
100
AcDb2dVertex
 10
65.88091098613421
 20
169.5439641420113
 30
0.0
  0
VERTEX
  5
32F
330
322
100
AcDbEntity
  8
GRAU_10_
 62
     7
100
AcDbVertex
100
AcDb2dVertex
 10
65.87561931946907
 20
169.5439641420113
 30
0.0
  0
VERTEX
  5
330
330
322
100
AcDbEntity
  8
GRAU_10_
 62
     7
100
AcDbVertex
100
AcDb2dVertex
 10
65.86962209724808
 20
169.5439641420113
 30
0.0
  0
VERTEX
  5
331
330
322
100
AcDbEntity
  8
GRAU_10_
 62
     7
100
AcDbVertex
100
AcDb2dVertex
 10
65.86397765280519
 20
169.5439641420113
 30
0.0
  0
VERTEX
  5
332
330
322
100
AcDbEntity
  8
GRAU_10_
 62
     7
100
AcDbVertex
100
AcDb2dVertex
 10
65.85868598613972
 20
169.5439641420113
 30
0.0
  0
VERTEX
  5
333
330
322
100
AcDbEntity
  8
GRAU_10_
 62
     7
100
AcDbVertex
100
AcDb2dVertex
 10
65.85304154169683
 20
169.5439641420113
 30
0.0
  0
VERTEX
  5
334
330
322
100
AcDbEntity
  8
GRAU_10_
 62
     7
100
AcDbVertex
100
AcDb2dVertex
 10
65.84739709725392
 20
169.5439641420113
 30
0.0
  0
VERTEX
  5
335
330
322
100
AcDbEntity
  8
GRAU_10_
 62
     7
100
AcDbVertex
100
AcDb2dVertex
 10
65.84210543058846
 20
169.5439641420113
 30
0.0
  0
VERTEX
  5
336
330
322
100
AcDbEntity
  8
GRAU_10_
 62
     7
100
AcDbVertex
100
AcDb2dVertex
 10
65.8361082083678
 20
169.5439641420113
 30
0.0
  0
VERTEX
  5
337
330
322
100
AcDbEntity
  8
GRAU_10_
 62
     7
100
AcDbVertex
100
AcDb2dVertex
 10
65.83046376392458
 20
169.5443169197891
 30
0.0
  0
VERTEX
  5
338
330
322
100
AcDbEntity
  8
GRAU_10_
 62
     7
100
AcDbVertex
100
AcDb2dVertex
 10
65.82552487503689
 20
169.5443169197891
 30
0.0
  0
VERTEX
  5
339
330
322
100
AcDbEntity
  8
GRAU_10_
 62
     7
100
AcDbVertex
100
AcDb2dVertex
 10
65.81952765281622
 20
169.5443169197891
 30
0.0
  0
VERTEX
  5
33A
330
322
100
AcDbEntity
  8
GRAU_10_
 62
     7
100
AcDbVertex
100
AcDb2dVertex
 10
65.81423598615109
 20
169.5443169197891
 30
0.0
  0
VERTEX
  5
33B
330
322
100
AcDbEntity
  8
GRAU_10_
 62
     7
100
AcDbVertex
100
AcDb2dVertex
 10
65.80859154170787
 20
169.5443169197891
 30
0.0
  0
VERTEX
  5
33C
330
322
100
AcDbEntity
  8
GRAU_10_
 62
     7
100
AcDbVertex
100
AcDb2dVertex
 10
65.80294709726496
 20
169.5443169197891
 30
0.0
  0
VERTEX
  5
33D
330
322
100
AcDbEntity
  8
GRAU_10_
 62
     7
100
AcDbVertex
100
AcDb2dVertex
 10
65.7976554305995
 20
169.5443169197891
 30
0.0
  0
VERTEX
  5
33E
330
322
100
AcDbEntity
  8
GRAU_10_
 62
     7
100
AcDbVertex
100
AcDb2dVertex
 10
65.79201098615661
 20
169.5443169197891
 30
0.0
  0
VERTEX
  5
33F
330
322
100
AcDbEntity
  8
GRAU_10_
 62
     7
100
AcDbVertex
100
AcDb2dVertex
 10
65.78636654171339
 20
169.5443169197891
 30
0.0
  0
VERTEX
  5
340
330
322
100
AcDbEntity
  8
GRAU_10_
 62
     7
100
AcDbVertex
100
AcDb2dVertex
 10
65.78107487504825
 20
169.5443169197891
 30
0.0
  0
VERTEX
  5
341
330
322
100
AcDbEntity
  8
GRAU_10_
 62
     7
100
AcDbVertex
100
AcDb2dVertex
 10
65.77507765282759
 20
169.5443169197891
 30
0.0
  0
VERTEX
  5
342
330
322
100
AcDbEntity
  8
GRAU_10_
 62
     7
100
AcDbVertex
100
AcDb2dVertex
 10
65.77013876393988
 20
169.5443169197891
 30
0.0
  0
VERTEX
  5
343
330
322
100
AcDbEntity
  8
GRAU_10_
 62
     7
100
AcDbVertex
100
AcDb2dVertex
 10
65.76449431949666
 20
169.5443169197891
 30
0.0
  0
VERTEX
  5
344
330
322
100
AcDbEntity
  8
GRAU_10_
 62
     7
100
AcDbVertex
100
AcDb2dVertex
 10
65.758497097276
 20
169.5443169197891
 30
0.0
  0
VERTEX
  5
345
330
322
100
AcDbEntity
  8
GRAU_10_
 62
     7
100
AcDbVertex
100
AcDb2dVertex
 10
65.75355820838831
 20
169.5443169197891
 30
0.0
  0
VERTEX
  5
346
330
322
100
AcDbEntity
  8
GRAU_10_
 62
     7
100
AcDbVertex
100
AcDb2dVertex
 10
65.7479137639454
 20
169.5439641420113
 30
0.0
  0
VERTEX
  5
347
330
322
100
AcDbEntity
  8
GRAU_10_
 62
     7
100
AcDbVertex
100
AcDb2dVertex
 10
65.74226931950218
 20
169.5439641420113
 30
0.0
  0
VERTEX
  5
348
330
322
100
AcDbEntity
  8
GRAU_10_
 62
     7
100
AcDbVertex
100
AcDb2dVertex
 10
65.73697765283706
 20
169.5439641420113
 30
0.0
  0
VERTEX
  5
349
330
322
100
AcDbEntity
  8
GRAU_10_
 62
     7
100
AcDbVertex
100
AcDb2dVertex
 10
65.73133320839383
 20
169.5439641420113
 30
0.0
  0
VERTEX
  5
34A
330
322
100
AcDbEntity
  8
GRAU_10_
 62
     7
100
AcDbVertex
100
AcDb2dVertex
 10
65.72604154172869
 20
169.5439641420113
 30
0.0
  0
VERTEX
  5
34B
330
322
100
AcDbEntity
  8
GRAU_10_
 62
     7
100
AcDbVertex
100
AcDb2dVertex
 10
65.72039709728547
 20
169.5439641420113
 30
0.0
  0
VERTEX
  5
34C
330
322
100
AcDbEntity
  8
GRAU_10_
 62
     7
100
AcDbVertex
100
AcDb2dVertex
 10
65.71510543062033
 20
169.5439641420113
 30
0.0
  0
VERTEX
  5
34D
330
322
100
AcDbEntity
  8
GRAU_10_
 62
     7
100
AcDbVertex
100
AcDb2dVertex
 10
65.70981376395487
 20
169.5439641420113
 30
0.0
  0
VERTEX
  5
34E
330
322
100
AcDbEntity
  8
GRAU_10_
 62
     7
100
AcDbVertex
100
AcDb2dVertex
 10
65.70416931951198
 20
169.5439641420113
 30
0.0
  0
VERTEX
  5
34F
330
322
100
AcDbEntity
  8
GRAU_10_
 62
     7
100
AcDbVertex
100
AcDb2dVertex
 10
65.69923043062427
 20
169.5439641420113
 30
0.0
  0
VERTEX
  5
350
330
322
100
AcDbEntity
  8
GRAU_10_
 62
     7
100
AcDbVertex
100
AcDb2dVertex
 10
65.69323320840329
 20
169.5439641420113
 30
0.0
  0
VERTEX
  5
351
330
322
100
AcDbEntity
  8
GRAU_10_
 62
     7
100
AcDbVertex
100
AcDb2dVertex
 10
65.68829431951592
 20
169.5439641420113
 30
0.0
  0
SEQEND
  5
352
330
322
100
AcDbEntity
  8
GRAU_10_
 62
     7
  0
POLYLINE
  5
353
330
1F
100
AcDbEntity
  8
GRAU_10_
 62
     7
100
AcDb2dPolyline
 66
     1
 10
0.0
 20
0.0
 30
0.0
  0
VERTEX
  5
354
330
353
100
AcDbEntity
  8
GRAU_10_
 62
     7
100
AcDbVertex
100
AcDb2dVertex
 10
66.11162765274335
 20
169.7746808086202
 30
0.0
  0
VERTEX
  5
355
330
353
100
AcDbEntity
  8
GRAU_10_
 62
     7
100
AcDbVertex
100
AcDb2dVertex
 10
66.11198043052111
 20
169.7598641419574
 30
0.0
  0
VERTEX
  5
356
330
353
100
AcDbEntity
  8
GRAU_10_
 62
     7
100
AcDbVertex
100
AcDb2dVertex
 10
66.11268598607631
 20
169.7408141419621
 30
0.0
  0
VERTEX
  5
357
330
353
100
AcDbEntity
  8
GRAU_10_
 62
     7
100
AcDbVertex
100
AcDb2dVertex
 10
66.11303876385408
 20
169.7171780308569
 30
0.0
  0
VERTEX
  5
358
330
353
100
AcDbEntity
  8
GRAU_10_
 62
     7
100
AcDbVertex
100
AcDb2dVertex
 10
66.11303876385408
 20
169.6900141419747
 30
0.0
  0
VERTEX
  5
359
330
353
100
AcDbEntity
  8
GRAU_10_
 62
     7
100
AcDbVertex
100
AcDb2dVertex
 10
66.11303876385408
 20
169.6600280308711
 30
0.0
  0
VERTEX
  5
35A
330
353
100
AcDbEntity
  8
GRAU_10_
 62
     7
100
AcDbVertex
100
AcDb2dVertex
 10
66.11303876385408
 20
169.6275724753238
 30
0.0
  0
VERTEX
  5
35B
330
353
100
AcDbEntity
  8
GRAU_10_
 62
     7
100
AcDbVertex
100
AcDb2dVertex
 10
66.11303876385408
 20
169.593353030888
 30
0.0
  0
VERTEX
  5
35C
330
353
100
AcDbEntity
  8
GRAU_10_
 62
     7
100
AcDbVertex
100
AcDb2dVertex
 10
66.11303876385408
 20
169.5580752531189
 30
0.0
  0
SEQEND
  5
35D
330
353
100
AcDbEntity
  8
GRAU_10_
 62
     7
  0
POLYLINE
  5
35E
330
1F
100
AcDbEntity
  8
GRAU_10_
 62
     7
100
AcDb2dPolyline
 66
     1
 10
0.0
 20
0.0
 30
0.0
  0
VERTEX
  5
35F
330
35E
100
AcDbEntity
  8
GRAU_10_
 62
     7
100
AcDbVertex
100
AcDb2dVertex
 10
66.11162765274335
 20
169.3136002531799
 30
0.0
  0
VERTEX
  5
360
330
35E
100
AcDbEntity
  8
GRAU_10_
 62
     7
100
AcDbVertex
100
AcDb2dVertex
 10
66.11198043052111
 20
169.3284169198431
 30
0.0
  0
VERTEX
  5
361
330
35E
100
AcDbEntity
  8
GRAU_10_
 62
     7
100
AcDbVertex
100
AcDb2dVertex
 10
66.11268598607631
 20
169.3474669198383
 30
0.0
  0
VERTEX
  5
362
330
35E
100
AcDbEntity
  8
GRAU_10_
 62
     7
100
AcDbVertex
100
AcDb2dVertex
 10
66.11268598607631
 20
169.3711030309435
 30
0.0
  0
VERTEX
  5
363
330
35E
100
AcDbEntity
  8
GRAU_10_
 62
     7
100
AcDbVertex
100
AcDb2dVertex
 10
66.11303876385408
 20
169.3982669198257
 30
0.0
  0
VERTEX
  5
364
330
35E
100
AcDbEntity
  8
GRAU_10_
 62
     7
100
AcDbVertex
100
AcDb2dVertex
 10
66.11303876385408
 20
169.4286058087067
 30
0.0
  0
VERTEX
  5
365
330
35E
100
AcDbEntity
  8
GRAU_10_
 62
     7
100
AcDbVertex
100
AcDb2dVertex
 10
66.11303876385408
 20
169.4610613642544
 30
0.0
  0
VERTEX
  5
366
330
35E
100
AcDbEntity
  8
GRAU_10_
 62
     7
100
AcDbVertex
100
AcDb2dVertex
 10
66.11303876385408
 20
169.4949280309124
 30
0.0
  0
VERTEX
  5
367
330
35E
100
AcDbEntity
  8
GRAU_10_
 62
     7
100
AcDbVertex
100
AcDb2dVertex
 10
66.11303876385408
 20
169.5302058086815
 30
0.0
  0
SEQEND
  5
368
330
35E
100
AcDbEntity
  8
GRAU_10_
 62
     7
  0
POLYLINE
  5
369
330
1F
100
AcDbEntity
  8
GRAU_10_
 62
     7
100
AcDb2dPolyline
 66
     1
 10
0.0
 20
0.0
 30
0.0
  0
VERTEX
  5
36A
330
369
100
AcDbEntity
  8
GRAU_10_
 62
     7
100
AcDbVertex
100
AcDb2dVertex
 10
70.9012915404349
 20
169.7746808086202
 30
0.0
  0
VERTEX
  5
36B
330
369
100
AcDbEntity
  8
GRAU_10_
 62
     7
100
AcDbVertex
100
AcDb2dVertex
 10
70.9012915404349
 20
169.7658613641781
 30
0.0
  0
VERTEX
  5
36C
330
369
100
AcDbEntity
  8
GRAU_10_
 62
     7
100
AcDbVertex
100
AcDb2dVertex
 10
70.90199709599011
 20
169.7545724752919
 30
0.0
  0
VERTEX
  5
36D
330
369
100
AcDbEntity
  8
GRAU_10_
 62
     7
100
AcDbVertex
100
AcDb2dVertex
 10
70.90234987376786
 20
169.7390502530736
 30
0.0
  0
VERTEX
  5
36E
330
369
100
AcDbEntity
  8
GRAU_10_
 62
     7
100
AcDbVertex
100
AcDb2dVertex
 10
70.90234987376786
 20
169.7210585864113
 30
0.0
  0
VERTEX
  5
36F
330
369
100
AcDbEntity
  8
GRAU_10_
 62
     7
100
AcDbVertex
100
AcDb2dVertex
 10
70.90234987376786
 20
169.6864863641977
 30
0.0
  0
VERTEX
  5
370
330
369
100
AcDbEntity
  8
GRAU_10_
 62
     7
100
AcDbVertex
100
AcDb2dVertex
 10
70.90234987376786
 20
169.647680808652
 30
0.0
  0
VERTEX
  5
371
330
369
100
AcDbEntity
  8
GRAU_10_
 62
     7
100
AcDbVertex
100
AcDb2dVertex
 10
70.90305542932308
 20
169.6035835864408
 30
0.0
  0
VERTEX
  5
372
330
369
100
AcDbEntity
  8
GRAU_10_
 62
     7
100
AcDbVertex
100
AcDb2dVertex
 10
70.90305542932308
 20
169.5580752531189
 30
0.0
  0
SEQEND
  5
373
330
369
100
AcDbEntity
  8
GRAU_10_
 62
     7
  0
POLYLINE
  5
374
330
1F
100
AcDbEntity
  8
GRAU_10_
 62
     7
100
AcDb2dPolyline
 66
     1
 10
0.0
 20
0.0
 30
0.0
  0
VERTEX
  5
375
330
374
100
AcDbEntity
  8
GRAU_10_
 62
     7
100
AcDbVertex
100
AcDb2dVertex
 10
70.9012915404349
 20
170.3126669195969
 30
0.0
  0
VERTEX
  5
376
330
374
100
AcDbEntity
  8
GRAU_10_
 62
     7
100
AcDbVertex
100
AcDb2dVertex
 10
70.9012915404349
 20
170.3214863640391
 30
0.0
  0
VERTEX
  5
377
330
374
100
AcDbEntity
  8
GRAU_10_
 62
     7
100
AcDbVertex
100
AcDb2dVertex
 10
70.90199709599011
 20
170.3327752529252
 30
0.0
  0
VERTEX
  5
378
330
374
100
AcDbEntity
  8
GRAU_10_
 62
     7
100
AcDbVertex
100
AcDb2dVertex
 10
70.90234987376786
 20
170.3479446973657
 30
0.0
  0
VERTEX
  5
379
330
374
100
AcDbEntity
  8
GRAU_10_
 62
     7
100
AcDbVertex
100
AcDb2dVertex
 10
70.90234987376786
 20
170.3662891418058
 30
0.0
  0
VERTEX
  5
37A
330
374
100
AcDbEntity
  8
GRAU_10_
 62
     7
100
AcDbVertex
100
AcDb2dVertex
 10
70.90234987376786
 20
170.4005085862416
 30
0.0
  0
VERTEX
  5
37B
330
374
100
AcDbEntity
  8
GRAU_10_
 62
     7
100
AcDbVertex
100
AcDb2dVertex
 10
70.90234987376786
 20
170.4396669195651
 30
0.0
  0
VERTEX
  5
37C
330
374
100
AcDbEntity
  8
GRAU_10_
 62
     7
100
AcDbVertex
100
AcDb2dVertex
 10
70.90305542932308
 20
170.4837641417763
 30
0.0
  0
VERTEX
  5
37D
330
374
100
AcDbEntity
  8
GRAU_10_
 62
     7
100
AcDbVertex
100
AcDb2dVertex
 10
70.90305542932308
 20
170.5292724750982
 30
0.0
  0
SEQEND
  5
37E
330
374
100
AcDbEntity
  8
GRAU_10_
 62
     7
  0
POLYLINE
  5
37F
330
1F
100
AcDbEntity
  8
GRAU_10_
 62
     7
100
AcDb2dPolyline
 66
     1
 10
0.0
 20
0.0
 30
0.0
  0
VERTEX
  5
380
330
37F
100
AcDbEntity
  8
GRAU_10_
 62
     7
100
AcDbVertex
100
AcDb2dVertex
 10
70.9012915404349
 20
170.7737474750372
 30
0.0
  0
VERTEX
  5
381
330
37F
100
AcDbEntity
  8
GRAU_10_
 62
     7
100
AcDbVertex
100
AcDb2dVertex
 10
70.9012915404349
 20
170.7649280305951
 30
0.0
  0
VERTEX
  5
382
330
37F
100
AcDbEntity
  8
GRAU_10_
 62
     7
100
AcDbVertex
100
AcDb2dVertex
 10
70.90199709599011
 20
170.7536391417089
 30
0.0
  0
VERTEX
  5
383
330
37F
100
AcDbEntity
  8
GRAU_10_
 62
     7
100
AcDbVertex
100
AcDb2dVertex
 10
70.90234987376786
 20
170.7381169194906
 30
0.0
  0
VERTEX
  5
384
330
37F
100
AcDbEntity
  8
GRAU_10_
 62
     7
100
AcDbVertex
100
AcDb2dVertex
 10
70.90234987376786
 20
170.7201252528284
 30
0.0
  0
VERTEX
  5
385
330
37F
100
AcDbEntity
  8
GRAU_10_
 62
     7
100
AcDbVertex
100
AcDb2dVertex
 10
70.90234987376786
 20
170.6855530306148
 30
0.0
  0
VERTEX
  5
386
330
37F
100
AcDbEntity
  8
GRAU_10_
 62
     7
100
AcDbVertex
100
AcDb2dVertex
 10
70.90234987376786
 20
170.6463946972913
 30
0.0
  0
VERTEX
  5
387
330
37F
100
AcDbEntity
  8
GRAU_10_
 62
     7
100
AcDbVertex
100
AcDb2dVertex
 10
70.90305542932308
 20
170.6026502528578
 30
0.0
  0
VERTEX
  5
388
330
37F
100
AcDbEntity
  8
GRAU_10_
 62
     7
100
AcDbVertex
100
AcDb2dVertex
 10
70.90305542932308
 20
170.5571419195359
 30
0.0
  0
SEQEND
  5
389
330
37F
100
AcDbEntity
  8
GRAU_10_
 62
     7
  0
POLYLINE
  5
38A
330
1F
100
AcDbEntity
  8
GRAU_10_
 62
     7
100
AcDb2dPolyline
 66
     1
 10
0.0
 20
0.0
 30
0.0
  0
VERTEX
  5
38B
330
38A
100
AcDbEntity
  8
GRAU_10_
 62
     7
100
AcDbVertex
100
AcDb2dVertex
 10
70.9012915404349
 20
168.7756141422035
 30
0.0
  0
VERTEX
  5
38C
330
38A
100
AcDbEntity
  8
GRAU_10_
 62
     7
100
AcDbVertex
100
AcDb2dVertex
 10
70.9012915404349
 20
168.7664419199836
 30
0.0
  0
VERTEX
  5
38D
330
38A
100
AcDbEntity
  8
GRAU_10_
 62
     7
100
AcDbVertex
100
AcDb2dVertex
 10
70.90199709599011
 20
168.7555058088752
 30
0.0
  0
VERTEX
  5
38E
330
38A
100
AcDbEntity
  8
GRAU_10_
 62
     7
100
AcDbVertex
100
AcDb2dVertex
 10
70.90234987376786
 20
168.7403363644344
 30
0.0
  0
VERTEX
  5
38F
330
38A
100
AcDbEntity
  8
GRAU_10_
 62
     7
100
AcDbVertex
100
AcDb2dVertex
 10
70.90234987376786
 20
168.7223446977724
 30
0.0
  0
VERTEX
  5
390
330
38A
100
AcDbEntity
  8
GRAU_10_
 62
     7
100
AcDbVertex
100
AcDb2dVertex
 10
70.90234987376786
 20
168.6877724755588
 30
0.0
  0
VERTEX
  5
391
330
38A
100
AcDbEntity
  8
GRAU_10_
 62
     7
100
AcDbVertex
100
AcDb2dVertex
 10
70.90234987376786
 20
168.6486141422353
 30
0.0
  0
VERTEX
  5
392
330
38A
100
AcDbEntity
  8
GRAU_10_
 62
     7
100
AcDbVertex
100
AcDb2dVertex
 10
70.90305542932308
 20
168.6045169200241
 30
0.0
  0
VERTEX
  5
393
330
38A
100
AcDbEntity
  8
GRAU_10_
 62
     7
100
AcDbVertex
100
AcDb2dVertex
 10
70.90305542932308
 20
168.5597141422574
 30
0.0
  0
SEQEND
  5
394
330
38A
100
AcDbEntity
  8
GRAU_10_
 62
     7
  0
POLYLINE
  5
395
330
1F
100
AcDbEntity
  8
GRAU_10_
 62
     7
100
AcDb2dPolyline
 66
     1
 10
0.0
 20
0.0
 30
0.0
  0
VERTEX
  5
396
330
395
100
AcDbEntity
  8
GRAU_10_
 62
     7
100
AcDbVertex
100
AcDb2dVertex
 10
70.9012915404349
 20
169.3136002531799
 30
0.0
  0
VERTEX
  5
397
330
395
100
AcDbEntity
  8
GRAU_10_
 62
     7
100
AcDbVertex
100
AcDb2dVertex
 10
70.9012915404349
 20
169.3224196976224
 30
0.0
  0
VERTEX
  5
398
330
395
100
AcDbEntity
  8
GRAU_10_
 62
     7
100
AcDbVertex
100
AcDb2dVertex
 10
70.90199709599011
 20
169.3337085865082
 30
0.0
  0
VERTEX
  5
399
330
395
100
AcDbEntity
  8
GRAU_10_
 62
     7
100
AcDbVertex
100
AcDb2dVertex
 10
70.90234987376786
 20
169.3492308087268
 30
0.0
  0
VERTEX
  5
39A
330
395
100
AcDbEntity
  8
GRAU_10_
 62
     7
100
AcDbVertex
100
AcDb2dVertex
 10
70.90234987376786
 20
169.3672224753888
 30
0.0
  0
VERTEX
  5
39B
330
395
100
AcDbEntity
  8
GRAU_10_
 62
     7
100
AcDbVertex
100
AcDb2dVertex
 10
70.90234987376786
 20
169.4017946976023
 30
0.0
  0
VERTEX
  5
39C
330
395
100
AcDbEntity
  8
GRAU_10_
 62
     7
100
AcDbVertex
100
AcDb2dVertex
 10
70.90234987376786
 20
169.4409530309258
 30
0.0
  0
VERTEX
  5
39D
330
395
100
AcDbEntity
  8
GRAU_10_
 62
     7
100
AcDbVertex
100
AcDb2dVertex
 10
70.90305542932308
 20
169.4846974753596
 30
0.0
  0
VERTEX
  5
39E
330
395
100
AcDbEntity
  8
GRAU_10_
 62
     7
100
AcDbVertex
100
AcDb2dVertex
 10
70.90305542932308
 20
169.5302058086815
 30
0.0
  0
SEQEND
  5
39F
330
395
100
AcDbEntity
  8
GRAU_10_
 62
     7
  0
POLYLINE
  5
3A0
330
1F
100
AcDbEntity
  8
GRAU_10_
 62
     7
100
AcDb2dPolyline
 66
     1
 10
0.0
 20
0.0
 30
0.0
  0
VERTEX
  5
3A1
330
3A0
100
AcDbEntity
  8
GRAU_10_
 62
     7
100
AcDbVertex
100
AcDb2dVertex
 10
70.89952765154642
 20
168.8698058088465
 30
0.0
  0
VERTEX
  5
3A2
330
3A0
100
AcDbEntity
  8
GRAU_10_
 62
     7
100
AcDbVertex
100
AcDb2dVertex
 10
70.90058598487938
 20
168.8225335866361
 30
0.0
  0
VERTEX
  5
3A3
330
3A0
100
AcDbEntity
  8
GRAU_10_
 62
     7
100
AcDbVertex
100
AcDb2dVertex
 10
70.9012915404349
 20
168.7756141422035
 30
0.0
  0
SEQEND
  5
3A4
330
3A0
100
AcDbEntity
  8
GRAU_10_
 62
     7
  0
POLYLINE
  5
3A5
330
1F
100
AcDbEntity
  8
GRAU_10_
 62
     7
100
AcDb2dPolyline
 66
     1
 10
0.0
 20
0.0
 30
0.0
  0
VERTEX
  5
3A6
330
3A5
100
AcDbEntity
  8
GRAU_10_
 62
     7
100
AcDbVertex
100
AcDb2dVertex
 10
70.89952765154642
 20
169.2197613643146
 30
0.0
  0
VERTEX
  5
3A7
330
3A5
100
AcDbEntity
  8
GRAU_10_
 62
     7
100
AcDbVertex
100
AcDb2dVertex
 10
70.90058598487938
 20
169.2670335865251
 30
0.0
  0
VERTEX
  5
3A8
330
3A5
100
AcDbEntity
  8
GRAU_10_
 62
     7
100
AcDbVertex
100
AcDb2dVertex
 10
70.9012915404349
 20
169.3136002531799
 30
0.0
  0
SEQEND
  5
3A9
330
3A5
100
AcDbEntity
  8
GRAU_10_
 62
     7
  0
POLYLINE
  5
3AA
330
1F
100
AcDbEntity
  8
GRAU_10_
 62
     7
100
AcDb2dPolyline
 66
     1
 10
0.0
 20
0.0
 30
0.0
  0
VERTEX
  5
3AB
330
3AA
100
AcDbEntity
  8
GRAU_10_
 62
     7
100
AcDbVertex
100
AcDb2dVertex
 10
70.89952765154642
 20
170.2188280307313
 30
0.0
  0
VERTEX
  5
3AC
330
3AA
100
AcDbEntity
  8
GRAU_10_
 62
     7
100
AcDbVertex
100
AcDb2dVertex
 10
70.90058598487938
 20
170.2653946973865
 30
0.0
  0
VERTEX
  5
3AD
330
3AA
100
AcDbEntity
  8
GRAU_10_
 62
     7
100
AcDbVertex
100
AcDb2dVertex
 10
70.9012915404349
 20
170.3126669195969
 30
0.0
  0
SEQEND
  5
3AE
330
3AA
100
AcDbEntity
  8
GRAU_10_
 62
     7
  0
POLYLINE
  5
3AF
330
1F
100
AcDbEntity
  8
GRAU_10_
 62
     7
100
AcDb2dPolyline
 66
     1
 10
0.0
 20
0.0
 30
0.0
  0
VERTEX
  5
3B0
330
3AF
100
AcDbEntity
  8
GRAU_10_
 62
     7
100
AcDbVertex
100
AcDb2dVertex
 10
70.89952765154642
 20
169.8685196974858
 30
0.0
  0
VERTEX
  5
3B1
330
3AF
100
AcDbEntity
  8
GRAU_10_
 62
     7
100
AcDbVertex
100
AcDb2dVertex
 10
70.90058598487938
 20
169.8219530308306
 30
0.0
  0
VERTEX
  5
3B2
330
3AF
100
AcDbEntity
  8
GRAU_10_
 62
     7
100
AcDbVertex
100
AcDb2dVertex
 10
70.9012915404349
 20
169.7746808086202
 30
0.0
  0
SEQEND
  5
3B3
330
3AF
100
AcDbEntity
  8
GRAU_10_
 62
     7
  0
POLYLINE
  5
3B4
330
1F
100
AcDbEntity
  8
GRAU_10_
 62
     7
100
AcDb2dPolyline
 66
     1
 10
0.0
 20
0.0
 30
0.0
  0
VERTEX
  5
3B5
330
3B4
100
AcDbEntity
  8
GRAU_10_
 62
     7
100
AcDbVertex
100
AcDb2dVertex
 10
70.9616165404196
 20
169.8685196974858
 30
0.0
  0
VERTEX
  5
3B6
330
3B4
100
AcDbEntity
  8
GRAU_10_
 62
     7
100
AcDbVertex
100
AcDb2dVertex
 10
70.93021931820525
 20
169.8685196974858
 30
0.0
  0
VERTEX
  5
3B7
330
3B4
100
AcDbEntity
  8
GRAU_10_
 62
     7
100
AcDbVertex
100
AcDb2dVertex
 10
70.89952765154642
 20
169.8685196974858
 30
0.0
  0
SEQEND
  5
3B8
330
3B4
100
AcDbEntity
  8
GRAU_10_
 62
     7
  0
POLYLINE
  5
3B9
330
1F
100
AcDbEntity
  8
GRAU_10_
 62
     7
100
AcDb2dPolyline
 66
     1
 10
0.0
 20
0.0
 30
0.0
  0
VERTEX
  5
3BA
330
3B9
100
AcDbEntity
  8
GRAU_10_
 62
     7
100
AcDbVertex
100
AcDb2dVertex
 10
70.89952765154642
 20
170.2188280307313
 30
0.0
  0
VERTEX
  5
3BB
330
3B9
100
AcDbEntity
  8
GRAU_10_
 62
     7
100
AcDbVertex
100
AcDb2dVertex
 10
70.93021931820525
 20
170.2188280307313
 30
0.0
  0
VERTEX
  5
3BC
330
3B9
100
AcDbEntity
  8
GRAU_10_
 62
     7
100
AcDbVertex
100
AcDb2dVertex
 10
70.9616165404196
 20
170.2188280307313
 30
0.0
  0
SEQEND
  5
3BD
330
3B9
100
AcDbEntity
  8
GRAU_10_
 62
     7
  0
POLYLINE
  5
3BE
330
1F
100
AcDbEntity
  8
GRAU_10_
 62
     7
100
AcDb2dPolyline
 66
     1
 10
0.0
 20
0.0
 30
0.0
  0
VERTEX
  5
3BF
330
3BE
100
AcDbEntity
  8
GRAU_10_
 62
     7
100
AcDbVertex
100
AcDb2dVertex
 10
70.89952765154642
 20
169.2197613643146
 30
0.0
  0
VERTEX
  5
3C0
330
3BE
100
AcDbEntity
  8
GRAU_10_
 62
     7
100
AcDbVertex
100
AcDb2dVertex
 10
70.93021931820525
 20
169.2197613643146
 30
0.0
  0
VERTEX
  5
3C1
330
3BE
100
AcDbEntity
  8
GRAU_10_
 62
     7
100
AcDbVertex
100
AcDb2dVertex
 10
70.9616165404196
 20
169.2197613643146
 30
0.0
  0
SEQEND
  5
3C2
330
3BE
100
AcDbEntity
  8
GRAU_10_
 62
     7
  0
POLYLINE
  5
3C3
330
1F
100
AcDbEntity
  8
GRAU_10_
 62
     7
100
AcDb2dPolyline
 66
     1
 10
0.0
 20
0.0
 30
0.0
  0
VERTEX
  5
3C4
330
3C3
100
AcDbEntity
  8
GRAU_10_
 62
     7
100
AcDbVertex
100
AcDb2dVertex
 10
70.89952765154642
 20
169.0447835865806
 30
0.0
  0
VERTEX
  5
3C5
330
3C3
100
AcDbEntity
  8
GRAU_10_
 62
     7
100
AcDbVertex
100
AcDb2dVertex
 10
70.89952765154642
 20
169.0437252532476
 30
0.0
  0
VERTEX
  5
3C6
330
3C3
100
AcDbEntity
  8
GRAU_10_
 62
     7
100
AcDbVertex
100
AcDb2dVertex
 10
70.89988042932386
 20
169.0419613643591
 30
0.0
  0
VERTEX
  5
3C7
330
3C3
100
AcDbEntity
  8
GRAU_10_
 62
     7
100
AcDbVertex
100
AcDb2dVertex
 10
70.90058598487938
 20
169.0412558088036
 30
0.0
  0
VERTEX
  5
3C8
330
3C3
100
AcDbEntity
  8
GRAU_10_
 62
     7
100
AcDbVertex
100
AcDb2dVertex
 10
70.90199709599011
 20
169.0401974754706
 30
0.0
  0
VERTEX
  5
3C9
330
3C3
100
AcDbEntity
  8
GRAU_10_
 62
     7
100
AcDbVertex
100
AcDb2dVertex
 10
70.90481931821155
 20
169.0377280310266
 30
0.0
  0
VERTEX
  5
3CA
330
3C3
100
AcDbEntity
  8
GRAU_10_
 62
     7
100
AcDbVertex
100
AcDb2dVertex
 10
70.90799431821077
 20
169.0363169199159
 30
0.0
  0
VERTEX
  5
3CB
330
3C3
100
AcDbEntity
  8
GRAU_10_
 62
     7
100
AcDbVertex
100
AcDb2dVertex
 10
70.91152209598773
 20
169.035258586583
 30
0.0
  0
VERTEX
  5
3CC
330
3C3
100
AcDbEntity
  8
GRAU_10_
 62
     7
100
AcDbVertex
100
AcDb2dVertex
 10
70.91504987376472
 20
169.0338474754722
 30
0.0
  0
VERTEX
  5
3CD
330
3C3
100
AcDbEntity
  8
GRAU_10_
 62
     7
100
AcDbVertex
100
AcDb2dVertex
 10
70.92281098487386
 20
169.0327891421393
 30
0.0
  0
VERTEX
  5
3CE
330
3C3
100
AcDbEntity
  8
GRAU_10_
 62
     7
100
AcDbVertex
100
AcDb2dVertex
 10
70.93021931820525
 20
169.0320835865837
 30
0.0
  0
VERTEX
  5
3CF
330
3C3
100
AcDbEntity
  8
GRAU_10_
 62
     7
100
AcDbVertex
100
AcDb2dVertex
 10
70.9379804293144
 20
169.0327891421393
 30
0.0
  0
VERTEX
  5
3D0
330
3C3
100
AcDbEntity
  8
GRAU_10_
 62
     7
100
AcDbVertex
100
AcDb2dVertex
 10
70.9453887626461
 20
169.0338474754722
 30
0.0
  0
VERTEX
  5
3D1
330
3C3
100
AcDbEntity
  8
GRAU_10_
 62
     7
100
AcDbVertex
100
AcDb2dVertex
 10
70.94962209597827
 20
169.035258586583
 30
0.0
  0
VERTEX
  5
3D2
330
3C3
100
AcDbEntity
  8
GRAU_10_
 62
     7
100
AcDbVertex
100
AcDb2dVertex
 10
70.95314987375525
 20
169.0363169199159
 30
0.0
  0
VERTEX
  5
3D3
330
3C3
100
AcDbEntity
  8
GRAU_10_
 62
     7
100
AcDbVertex
100
AcDb2dVertex
 10
70.95632487375445
 20
169.0377280310266
 30
0.0
  0
VERTEX
  5
3D4
330
3C3
100
AcDbEntity
  8
GRAU_10_
 62
     7
100
AcDbVertex
100
AcDb2dVertex
 10
70.95914709597591
 20
169.0401974754706
 30
0.0
  0
VERTEX
  5
3D5
330
3C3
100
AcDbEntity
  8
GRAU_10_
 62
     7
100
AcDbVertex
100
AcDb2dVertex
 10
70.95985265153111
 20
169.0412558088036
 30
0.0
  0
VERTEX
  5
3D6
330
3C3
100
AcDbEntity
  8
GRAU_10_
 62
     7
100
AcDbVertex
100
AcDb2dVertex
 10
70.96055820708663
 20
169.0419613643591
 30
0.0
  0
VERTEX
  5
3D7
330
3C3
100
AcDbEntity
  8
GRAU_10_
 62
     7
100
AcDbVertex
100
AcDb2dVertex
 10
70.9616165404196
 20
169.0437252532476
 30
0.0
  0
VERTEX
  5
3D8
330
3C3
100
AcDbEntity
  8
GRAU_10_
 62
     7
100
AcDbVertex
100
AcDb2dVertex
 10
70.9616165404196
 20
169.0447835865806
 30
0.0
  0
SEQEND
  5
3D9
330
3C3
100
AcDbEntity
  8
GRAU_10_
 62
     7
  0
POLYLINE
  5
3DB
330
1F
100
AcDbEntity
  8
STANDARDEBENE
 62
     7
100
AcDb2dPolyline
 66
     1
 10
0.0
 20
0.0
 30
0.0
  0
VERTEX
  5
3DC
330
3DB
100
AcDbEntity
  8
STANDARDEBENE
 62
     7
100
AcDbVertex
100
AcDb2dVertex
 10
70.90234987376786
 20
170.7183613639399
 30
0.0
  0
VERTEX
  5
3DD
330
3DB
100
AcDbEntity
  8
STANDARDEBENE
 62
     7
100
AcDbVertex
100
AcDb2dVertex
 10
66.11303876385408
 20
170.7183613639399
 30
0.0
  0
SEQEND
  5
3DE
330
3DB
100
AcDbEntity
  8
STANDARDEBENE
 62
     7
  0
POLYLINE
  5
3DF
330
1F
100
AcDbEntity
  8
STANDARDEBENE
 62
     7
100
AcDb2dPolyline
 66
     1
 10
0.0
 20
0.0
 30
0.0
  0
VERTEX
  5
3E0
330
3DF
100
AcDbEntity
  8
STANDARDEBENE
 62
     7
100
AcDbVertex
100
AcDb2dVertex
 10
66.11268598607631
 20
170.3680530306943
 30
0.0
  0
VERTEX
  5
3E1
330
3DF
100
AcDbEntity
  8
STANDARDEBENE
 62
     7
100
AcDbVertex
100
AcDb2dVertex
 10
70.90234987376786
 20
170.3680530306943
 30
0.0
  0
SEQEND
  5
3E2
330
3DF
100
AcDbEntity
  8
STANDARDEBENE
 62
     7
  0
POLYLINE
  5
3E3
330
1F
100
AcDbEntity
  8
STANDARDEBENE
 62
     7
100
AcDb2dPolyline
 66
     1
 10
0.0
 20
0.0
 30
0.0
  0
VERTEX
  5
3E4
330
3E3
100
AcDbEntity
  8
STANDARDEBENE
 62
     7
100
AcDbVertex
100
AcDb2dVertex
 10
66.11268598607631
 20
169.3689863642773
 30
0.0
  0
VERTEX
  5
3E5
330
3E3
100
AcDbEntity
  8
STANDARDEBENE
 62
     7
100
AcDbVertex
100
AcDb2dVertex
 10
70.90234987376786
 20
169.3689863642773
 30
0.0
  0
SEQEND
  5
3E6
330
3E3
100
AcDbEntity
  8
STANDARDEBENE
 62
     7
  0
POLYLINE
  5
3E7
330
1F
100
AcDbEntity
  8
STANDARDEBENE
 62
     7
100
AcDb2dPolyline
 66
     1
 10
0.0
 20
0.0
 30
0.0
  0
VERTEX
  5
3E8
330
3E7
100
AcDbEntity
  8
STANDARDEBENE
 62
     7
100
AcDbVertex
100
AcDb2dVertex
 10
70.90234987376786
 20
168.7205808088839
 30
0.0
  0
VERTEX
  5
3E9
330
3E7
100
AcDbEntity
  8
STANDARDEBENE
 62
     7
100
AcDbVertex
100
AcDb2dVertex
 10
66.11303876385408
 20
168.7205808088839
 30
0.0
  0
SEQEND
  5
3EA
330
3E7
100
AcDbEntity
  8
STANDARDEBENE
 62
     7
  0
POLYLINE
  5
3EB
330
1F
100
AcDbEntity
  8
STANDARDEBENE
 62
     7
100
AcDb2dPolyline
 66
     1
 10
0.0
 20
0.0
 30
0.0
  0
VERTEX
  5
3EC
330
3EB
100
AcDbEntity
  8
STANDARDEBENE
 62
     7
100
AcDbVertex
100
AcDb2dVertex
 10
65.90595820835013
 20
168.8183002533039
 30
0.0
  0
VERTEX
  5
3ED
330
3EB
100
AcDbEntity
  8
STANDARDEBENE
 62
     7
100
AcDbVertex
100
AcDb2dVertex
 10
65.90595820835013
 20
169.2709141420795
 30
0.0
  0
SEQEND
  5
3EE
330
3EB
100
AcDbEntity
  8
STANDARDEBENE
 62
     7
  0
POLYLINE
  5
3EF
330
1F
100
AcDbEntity
  8
STANDARDEBENE
 62
     7
100
AcDb2dPolyline
 66
     1
 10
0.0
 20
0.0
 30
0.0
  0
VERTEX
  5
3F0
330
3EF
100
AcDbEntity
  8
STANDARDEBENE
 62
     7
100
AcDbVertex
100
AcDb2dVertex
 10
71.86966654019277
 20
170.3680530306943
 30
0.0
  0
VERTEX
  5
3F1
330
3EF
100
AcDbEntity
  8
STANDARDEBENE
 62
     7
100
AcDbVertex
100
AcDb2dVertex
 10
72.90259987326783
 20
170.3680530306943
 30
0.0
  0
SEQEND
  5
3F2
330
3EF
100
AcDbEntity
  8
STANDARDEBENE
 62
     7
  0
POLYLINE
  5
3F3
330
1F
100
AcDbEntity
  8
STANDARDEBENE
 62
     7
100
AcDb2dPolyline
 66
     1
 10
0.0
 20
0.0
 30
0.0
  0
VERTEX
  5
3F4
330
3F3
100
AcDbEntity
  8
STANDARDEBENE
 62
     7
100
AcDbVertex
100
AcDb2dVertex
 10
71.86966654019277
 20
168.7205808088839
 30
0.0
  0
VERTEX
  5
3F5
330
3F3
100
AcDbEntity
  8
STANDARDEBENE
 62
     7
100
AcDbVertex
100
AcDb2dVertex
 10
70.90234987376786
 20
168.7205808088839
 30
0.0
  0
SEQEND
  5
3F6
330
3F3
100
AcDbEntity
  8
STANDARDEBENE
 62
     7
  0
POLYLINE
  5
3F7
330
1F
100
AcDbEntity
  8
STANDARDEBENE
 62
     7
100
AcDb2dPolyline
 66
     1
 10
0.0
 20
0.0
 30
0.0
  0
VERTEX
  5
3F8
330
3F7
100
AcDbEntity
  8
STANDARDEBENE
 62
     7
100
AcDbVertex
100
AcDb2dVertex
 10
70.90234987376786
 20
169.3689863642773
 30
0.0
  0
VERTEX
  5
3F9
330
3F7
100
AcDbEntity
  8
STANDARDEBENE
 62
     7
100
AcDbVertex
100
AcDb2dVertex
 10
71.86966654019277
 20
169.3689863642773
 30
0.0
  0
SEQEND
  5
3FA
330
3F7
100
AcDbEntity
  8
STANDARDEBENE
 62
     7
  0
POLYLINE
  5
3FB
330
1F
100
AcDbEntity
  8
STANDARDEBENE
 62
     7
100
AcDb2dPolyline
 66
     1
 10
0.0
 20
0.0
 30
0.0
  0
VERTEX
  5
3FC
330
3FB
100
AcDbEntity
  8
STANDARDEBENE
 62
     7
100
AcDbVertex
100
AcDb2dVertex
 10
70.90234987376786
 20
170.3680530306943
 30
0.0
  0
VERTEX
  5
3FD
330
3FB
100
AcDbEntity
  8
STANDARDEBENE
 62
     7
100
AcDbVertex
100
AcDb2dVertex
 10
71.86966654019277
 20
170.3680530306943
 30
0.0
  0
SEQEND
  5
3FE
330
3FB
100
AcDbEntity
  8
STANDARDEBENE
 62
     7
  0
POLYLINE
  5
3FF
330
1F
100
AcDbEntity
  8
STANDARDEBENE
 62
     7
100
AcDb2dPolyline
 66
     1
 10
0.0
 20
0.0
 30
0.0
  0
VERTEX
  5
400
330
3FF
100
AcDbEntity
  8
STANDARDEBENE
 62
     7
100
AcDbVertex
100
AcDb2dVertex
 10
65.90595820835013
 20
169.8173669197206
 30
0.0
  0
VERTEX
  5
401
330
3FF
100
AcDbEntity
  8
STANDARDEBENE
 62
     7
100
AcDbVertex
100
AcDb2dVertex
 10
65.90595820835013
 20
170.2699808084965
 30
0.0
  0
SEQEND
  5
402
330
3FF
100
AcDbEntity
  8
STANDARDEBENE
 62
     7
  0
POLYLINE
  5
403
330
1F
100
AcDbEntity
  8
STANDARDEBENE
 62
     7
100
AcDb2dPolyline
 66
     1
 10
0.0
 20
0.0
 30
0.0
  0
VERTEX
  5
404
330
403
100
AcDbEntity
  8
STANDARDEBENE
 62
     7
100
AcDbVertex
100
AcDb2dVertex
 10
71.86966654019277
 20
170.7183613639399
 30
0.0
  0
VERTEX
  5
405
330
403
100
AcDbEntity
  8
STANDARDEBENE
 62
     7
100
AcDbVertex
100
AcDb2dVertex
 10
72.90259987326783
 20
170.7183613639399
 30
0.0
  0
SEQEND
  5
406
330
403
100
AcDbEntity
  8
STANDARDEBENE
 62
     7
  0
POLYLINE
  5
407
330
1F
100
AcDbEntity
  8
STANDARDEBENE
 62
     7
100
AcDb2dPolyline
 66
     1
 10
0.0
 20
0.0
 30
0.0
  0
VERTEX
  5
408
330
407
100
AcDbEntity
  8
STANDARDEBENE
 62
     7
100
AcDbVertex
100
AcDb2dVertex
 10
70.90234987376786
 20
169.7192946975232
 30
0.0
  0
VERTEX
  5
409
330
407
100
AcDbEntity
  8
STANDARDEBENE
 62
     7
100
AcDbVertex
100
AcDb2dVertex
 10
66.11303876385408
 20
169.7192946975232
 30
0.0
  0
SEQEND
  5
40A
330
407
100
AcDbEntity
  8
STANDARDEBENE
 62
     7
  0
POLYLINE
  5
40B
330
1F
100
AcDbEntity
  8
STANDARDEBENE
 62
     7
100
AcDb2dPolyline
 66
     1
 10
0.0
 20
0.0
 30
0.0
  0
VERTEX
  5
40C
330
40B
100
AcDbEntity
  8
STANDARDEBENE
 62
     7
100
AcDbVertex
100
AcDb2dVertex
 10
71.86966654019277
 20
169.7192946975232
 30
0.0
  0
VERTEX
  5
40D
330
40B
100
AcDbEntity
  8
STANDARDEBENE
 62
     7
100
AcDbVertex
100
AcDb2dVertex
 10
70.90234987376786
 20
169.7192946975232
 30
0.0
  0
SEQEND
  5
40E
330
40B
100
AcDbEntity
  8
STANDARDEBENE
 62
     7
  0
POLYLINE
  5
40F
330
1F
100
AcDbEntity
  8
STANDARDEBENE
 62
     7
100
AcDb2dPolyline
 66
     1
 10
0.0
 20
0.0
 30
0.0
  0
VERTEX
  5
410
330
40F
100
AcDbEntity
  8
STANDARDEBENE
 62
     7
100
AcDbVertex
100
AcDb2dVertex
 10
72.90259987326783
 20
169.3689863642773
 30
0.0
  0
VERTEX
  5
411
330
40F
100
AcDbEntity
  8
STANDARDEBENE
 62
     7
100
AcDbVertex
100
AcDb2dVertex
 10
71.86966654019277
 20
169.3689863642773
 30
0.0
  0
SEQEND
  5
412
330
40F
100
AcDbEntity
  8
STANDARDEBENE
 62
     7
  0
POLYLINE
  5
413
330
1F
100
AcDbEntity
  8
STANDARDEBENE
 62
     7
100
AcDb2dPolyline
 66
     1
 10
0.0
 20
0.0
 30
0.0
  0
VERTEX
  5
414
330
413
100
AcDbEntity
  8
STANDARDEBENE
 62
     7
100
AcDbVertex
100
AcDb2dVertex
 10
64.40241931983724
 20
171.0446808083028
 30
0.0
  0
VERTEX
  5
415
330
413
100
AcDbEntity
  8
STANDARDEBENE
 62
     7
100
AcDbVertex
100
AcDb2dVertex
 10
64.40241931983724
 20
168.0439530312751
 30
0.0
  0
SEQEND
  5
416
330
413
100
AcDbEntity
  8
STANDARDEBENE
 62
     7
  0
POLYLINE
  5
417
330
1F
100
AcDbEntity
  8
STANDARDEBENE
 62
     7
100
AcDb2dPolyline
 66
     1
 10
0.0
 20
0.0
 30
0.0
  0
VERTEX
  5
418
330
417
100
AcDbEntity
  8
STANDARDEBENE
 62
     7
100
AcDbVertex
100
AcDb2dVertex
 10
71.86966654019277
 20
170.7183613639399
 30
0.0
  0
VERTEX
  5
419
330
417
100
AcDbEntity
  8
STANDARDEBENE
 62
     7
100
AcDbVertex
100
AcDb2dVertex
 10
70.90234987376786
 20
170.7183613639399
 30
0.0
  0
SEQEND
  5
41A
330
417
100
AcDbEntity
  8
STANDARDEBENE
 62
     7
  0
POLYLINE
  5
41B
330
1F
100
AcDbEntity
  8
STANDARDEBENE
 62
     7
100
AcDb2dPolyline
 66
     1
 10
0.0
 20
0.0
 30
0.0
  0
VERTEX
  5
41C
330
41B
100
AcDbEntity
  8
STANDARDEBENE
 62
     7
100
AcDbVertex
100
AcDb2dVertex
 10
71.86966654019277
 20
168.7205808088839
 30
0.0
  0
VERTEX
  5
41D
330
41B
100
AcDbEntity
  8
STANDARDEBENE
 62
     7
100
AcDbVertex
100
AcDb2dVertex
 10
72.90259987326783
 20
168.7205808088839
 30
0.0
  0
SEQEND
  5
41E
330
41B
100
AcDbEntity
  8
STANDARDEBENE
 62
     7
  0
POLYLINE
  5
41F
330
1F
100
AcDbEntity
  8
STANDARDEBENE
 62
     7
100
AcDb2dPolyline
 66
     1
 10
0.0
 20
0.0
 30
0.0
  0
VERTEX
  5
420
330
41F
100
AcDbEntity
  8
STANDARDEBENE
 62
     7
100
AcDbVertex
100
AcDb2dVertex
 10
71.86966654019277
 20
169.7192946975232
 30
0.0
  0
VERTEX
  5
421
330
41F
100
AcDbEntity
  8
STANDARDEBENE
 62
     7
100
AcDbVertex
100
AcDb2dVertex
 10
72.90259987326783
 20
169.7192946975232
 30
0.0
  0
SEQEND
  5
422
330
41F
100
AcDbEntity
  8
STANDARDEBENE
 62
     7
  0
POLYLINE
  5
424
330
1F
100
AcDbEntity
  8
BEMA_U_00DFUNG
 62
     7
100
AcDb2dPolyline
 66
     1
 10
0.0
 20
0.0
 30
0.0
  0
VERTEX
  5
425
330
424
100
AcDbEntity
  8
BEMA_U_00DFUNG
 62
     7
100
AcDbVertex
100
AcDb2dVertex
 10
64.65324431977461
 20
208.5649086555415
 30
0.0
  0
VERTEX
  5
426
330
424
100
AcDbEntity
  8
BEMA_U_00DFUNG
 62
     7
100
AcDbVertex
100
AcDb2dVertex
 10
43.44552600553757
 20
208.5649086555415
 30
0.0
  0
SEQEND
  5
427
330
424
100
AcDbEntity
  8
BEMA_U_00DFUNG
 62
     7
  0
POLYLINE
  5
428
330
1F
100
AcDbEntity
  8
BEMA_U_00DFUNG
 62
     7
100
AcDb2dPolyline
 66
     1
 10
0.0
 20
0.0
 30
0.0
  0
VERTEX
  5
429
330
428
100
AcDbEntity
  8
BEMA_U_00DFUNG
 62
     7
100
AcDbVertex
100
AcDb2dVertex
 10
61.40310265392057
 20
201.5650919906249
 30
0.0
  0
VERTEX
  5
42A
330
428
100
AcDbEntity
  8
BEMA_U_00DFUNG
 62
     7
100
AcDbVertex
100
AcDb2dVertex
 10
43.44552600553757
 20
201.5650919906249
 30
0.0
  0
SEQEND
  5
42B
330
428
100
AcDbEntity
  8
BEMA_U_00DFUNG
 62
     7
  0
POLYLINE
  5
42C
330
1F
100
AcDbEntity
  8
BEMA_U_00DFUNG
 62
     7
100
AcDb2dPolyline
 66
     1
 10
0.0
 20
0.0
 30
0.0
  0
VERTEX
  5
42D
330
42C
100
AcDbEntity
  8
BEMA_U_00DFUNG
 62
     7
100
AcDbVertex
100
AcDb2dVertex
 10
45.44507044948201
 20
217.3152086533536
 30
0.0
  0
VERTEX
  5
42E
330
42C
100
AcDbEntity
  8
BEMA_U_00DFUNG
 62
     7
100
AcDbVertex
100
AcDb2dVertex
 10
45.44507044948201
 20
192.8151447705899
 30
0.0
  0
SEQEND
  5
42F
330
42C
100
AcDbEntity
  8
BEMA_U_00DFUNG
 62
     7
  0
POLYLINE
  5
430
330
1F
100
AcDbEntity
  8
BEMA_U_00DFUNG
 62
     7
100
AcDb2dPolyline
 66
     1
 10
0.0
 20
0.0
 30
0.0
  0
VERTEX
  5
431
330
430
100
AcDbEntity
  8
BEMA_U_00DFUNG
 62
     7
100
AcDbVertex
100
AcDb2dVertex
 10
45.44507044948201
 20
208.5649086555415
 30
0.0
  0
VERTEX
  5
432
330
430
100
AcDbEntity
  8
BEMA_U_00DFUNG
 62
     7
100
AcDbVertex
100
AcDb2dVertex
 10
45.90615100492222
 20
212.0648169879996
 30
0.0
  0
VERTEX
  5
433
330
430
100
AcDbEntity
  8
BEMA_U_00DFUNG
 62
     7
100
AcDbVertex
100
AcDb2dVertex
 10
44.98469544959701
 20
212.0648169879996
 30
0.0
  0
VERTEX
  5
434
330
430
100
AcDbEntity
  8
BEMA_U_00DFUNG
 62
     7
100
AcDbVertex
100
AcDb2dVertex
 10
45.44507044948201
 20
208.5649086555415
 30
0.0
  0
SEQEND
  5
435
330
430
100
AcDbEntity
  8
BEMA_U_00DFUNG
 62
     7
  0
POLYLINE
  5
436
330
1F
100
AcDbEntity
  8
BEMA_U_00DFUNG
 62
     7
100
AcDb2dPolyline
 66
     1
 10
0.0
 20
0.0
 30
0.0
  0
VERTEX
  5
437
330
436
100
AcDbEntity
  8
BEMA_U_00DFUNG
 62
     7
100
AcDbVertex
100
AcDb2dVertex
 10
45.90262322714557
 20
212.0648169879996
 30
0.0
  0
VERTEX
  5
438
330
436
100
AcDbEntity
  8
BEMA_U_00DFUNG
 62
     7
100
AcDbVertex
100
AcDb2dVertex
 10
45.90262322714557
 20
212.03730032134
 30
0.0
  0
SEQEND
  5
439
330
436
100
AcDbEntity
  8
BEMA_U_00DFUNG
 62
     7
  0
POLYLINE
  5
43A
330
1F
100
AcDbEntity
  8
BEMA_U_00DFUNG
 62
     7
100
AcDb2dPolyline
 66
     1
 10
0.0
 20
0.0
 30
0.0
  0
VERTEX
  5
43B
330
43A
100
AcDbEntity
  8
BEMA_U_00DFUNG
 62
     7
100
AcDbVertex
100
AcDb2dVertex
 10
45.90262322714557
 20
212.0648169879996
 30
0.0
  0
VERTEX
  5
43C
330
43A
100
AcDbEntity
  8
BEMA_U_00DFUNG
 62
     7
100
AcDbVertex
100
AcDb2dVertex
 10
45.90262322714557
 20
212.03730032134
 30
0.0
  0
SEQEND
  5
43D
330
43A
100
AcDbEntity
  8
BEMA_U_00DFUNG
 62
     7
  0
POLYLINE
  5
43E
330
1F
100
AcDbEntity
  8
BEMA_U_00DFUNG
 62
     7
100
AcDb2dPolyline
 66
     1
 10
0.0
 20
0.0
 30
0.0
  0
VERTEX
  5
43F
330
43E
100
AcDbEntity
  8
BEMA_U_00DFUNG
 62
     7
100
AcDbVertex
100
AcDb2dVertex
 10
45.85182322715819
 20
212.0648169879996
 30
0.0
  0
VERTEX
  5
440
330
43E
100
AcDbEntity
  8
BEMA_U_00DFUNG
 62
     7
100
AcDbVertex
100
AcDb2dVertex
 10
45.85182322715819
 20
211.6520669881028
 30
0.0
  0
SEQEND
  5
441
330
43E
100
AcDbEntity
  8
BEMA_U_00DFUNG
 62
     7
  0
POLYLINE
  5
442
330
1F
100
AcDbEntity
  8
BEMA_U_00DFUNG
 62
     7
100
AcDb2dPolyline
 66
     1
 10
0.0
 20
0.0
 30
0.0
  0
VERTEX
  5
443
330
442
100
AcDbEntity
  8
BEMA_U_00DFUNG
 62
     7
100
AcDbVertex
100
AcDb2dVertex
 10
45.80102322717081
 20
212.0648169879996
 30
0.0
  0
VERTEX
  5
444
330
442
100
AcDbEntity
  8
BEMA_U_00DFUNG
 62
     7
100
AcDbVertex
100
AcDb2dVertex
 10
45.80102322717081
 20
211.2657753215329
 30
0.0
  0
SEQEND
  5
445
330
442
100
AcDbEntity
  8
BEMA_U_00DFUNG
 62
     7
  0
POLYLINE
  5
446
330
1F
100
AcDbEntity
  8
BEMA_U_00DFUNG
 62
     7
100
AcDb2dPolyline
 66
     1
 10
0.0
 20
0.0
 30
0.0
  0
VERTEX
  5
447
330
446
100
AcDbEntity
  8
BEMA_U_00DFUNG
 62
     7
100
AcDbVertex
100
AcDb2dVertex
 10
45.74987044940566
 20
212.0648169879996
 30
0.0
  0
VERTEX
  5
448
330
446
100
AcDbEntity
  8
BEMA_U_00DFUNG
 62
     7
100
AcDbVertex
100
AcDb2dVertex
 10
45.74987044940566
 20
210.8801892105179
 30
0.0
  0
SEQEND
  5
449
330
446
100
AcDbEntity
  8
BEMA_U_00DFUNG
 62
     7
  0
POLYLINE
  5
44A
330
1F
100
AcDbEntity
  8
BEMA_U_00DFUNG
 62
     7
100
AcDb2dPolyline
 66
     1
 10
0.0
 20
0.0
 30
0.0
  0
VERTEX
  5
44B
330
44A
100
AcDbEntity
  8
BEMA_U_00DFUNG
 62
     7
100
AcDbVertex
100
AcDb2dVertex
 10
45.6990704494186
 20
212.0648169879996
 30
0.0
  0
VERTEX
  5
44C
330
44A
100
AcDbEntity
  8
BEMA_U_00DFUNG
 62
     7
100
AcDbVertex
100
AcDb2dVertex
 10
45.6990704494186
 20
210.4938975439481
 30
0.0
  0
SEQEND
  5
44D
330
44A
100
AcDbEntity
  8
BEMA_U_00DFUNG
 62
     7
  0
POLYLINE
  5
44E
330
1F
100
AcDbEntity
  8
BEMA_U_00DFUNG
 62
     7
100
AcDb2dPolyline
 66
     1
 10
0.0
 20
0.0
 30
0.0
  0
VERTEX
  5
44F
330
44E
100
AcDbEntity
  8
BEMA_U_00DFUNG
 62
     7
100
AcDbVertex
100
AcDb2dVertex
 10
45.64862322720898
 20
212.0648169879996
 30
0.0
  0
VERTEX
  5
450
330
44E
100
AcDbEntity
  8
BEMA_U_00DFUNG
 62
     7
100
AcDbVertex
100
AcDb2dVertex
 10
45.64862322720898
 20
210.1086642107109
 30
0.0
  0
SEQEND
  5
451
330
44E
100
AcDbEntity
  8
BEMA_U_00DFUNG
 62
     7
  0
POLYLINE
  5
452
330
1F
100
AcDbEntity
  8
BEMA_U_00DFUNG
 62
     7
100
AcDb2dPolyline
 66
     1
 10
0.0
 20
0.0
 30
0.0
  0
VERTEX
  5
453
330
452
100
AcDbEntity
  8
BEMA_U_00DFUNG
 62
     7
100
AcDbVertex
100
AcDb2dVertex
 10
45.5978232272216
 20
212.0648169879996
 30
0.0
  0
VERTEX
  5
454
330
452
100
AcDbEntity
  8
BEMA_U_00DFUNG
 62
     7
100
AcDbVertex
100
AcDb2dVertex
 10
45.5978232272216
 20
209.722372544141
 30
0.0
  0
SEQEND
  5
455
330
452
100
AcDbEntity
  8
BEMA_U_00DFUNG
 62
     7
  0
POLYLINE
  5
456
330
1F
100
AcDbEntity
  8
BEMA_U_00DFUNG
 62
     7
100
AcDb2dPolyline
 66
     1
 10
0.0
 20
0.0
 30
0.0
  0
VERTEX
  5
457
330
456
100
AcDbEntity
  8
BEMA_U_00DFUNG
 62
     7
100
AcDbVertex
100
AcDb2dVertex
 10
45.54702322723421
 20
212.0648169879996
 30
0.0
  0
VERTEX
  5
458
330
456
100
AcDbEntity
  8
BEMA_U_00DFUNG
 62
     7
100
AcDbVertex
100
AcDb2dVertex
 10
45.54702322723421
 20
209.336786433126
 30
0.0
  0
SEQEND
  5
459
330
456
100
AcDbEntity
  8
BEMA_U_00DFUNG
 62
     7
  0
POLYLINE
  5
45A
330
1F
100
AcDbEntity
  8
BEMA_U_00DFUNG
 62
     7
100
AcDb2dPolyline
 66
     1
 10
0.0
 20
0.0
 30
0.0
  0
VERTEX
  5
45B
330
45A
100
AcDbEntity
  8
BEMA_U_00DFUNG
 62
     7
100
AcDbVertex
100
AcDb2dVertex
 10
45.49587044946939
 20
212.0648169879996
 30
0.0
  0
VERTEX
  5
45C
330
45A
100
AcDbEntity
  8
BEMA_U_00DFUNG
 62
     7
100
AcDbVertex
100
AcDb2dVertex
 10
45.49587044946939
 20
208.9504947665561
 30
0.0
  0
SEQEND
  5
45D
330
45A
100
AcDbEntity
  8
BEMA_U_00DFUNG
 62
     7
  0
POLYLINE
  5
45E
330
1F
100
AcDbEntity
  8
BEMA_U_00DFUNG
 62
     7
100
AcDb2dPolyline
 66
     1
 10
0.0
 20
0.0
 30
0.0
  0
VERTEX
  5
45F
330
45E
100
AcDbEntity
  8
BEMA_U_00DFUNG
 62
     7
100
AcDbVertex
100
AcDb2dVertex
 10
45.44507044948201
 20
212.0648169879996
 30
0.0
  0
VERTEX
  5
460
330
45E
100
AcDbEntity
  8
BEMA_U_00DFUNG
 62
     7
100
AcDbVertex
100
AcDb2dVertex
 10
45.44507044948201
 20
208.5649086555415
 30
0.0
  0
SEQEND
  5
461
330
45E
100
AcDbEntity
  8
BEMA_U_00DFUNG
 62
     7
  0
POLYLINE
  5
462
330
1F
100
AcDbEntity
  8
BEMA_U_00DFUNG
 62
     7
100
AcDb2dPolyline
 66
     1
 10
0.0
 20
0.0
 30
0.0
  0
VERTEX
  5
463
330
462
100
AcDbEntity
  8
BEMA_U_00DFUNG
 62
     7
100
AcDbVertex
100
AcDb2dVertex
 10
44.98787044959622
 20
212.0648169879996
 30
0.0
  0
VERTEX
  5
464
330
462
100
AcDbEntity
  8
BEMA_U_00DFUNG
 62
     7
100
AcDbVertex
100
AcDb2dVertex
 10
44.98787044959622
 20
212.03730032134
 30
0.0
  0
SEQEND
  5
465
330
462
100
AcDbEntity
  8
BEMA_U_00DFUNG
 62
     7
  0
POLYLINE
  5
466
330
1F
100
AcDbEntity
  8
BEMA_U_00DFUNG
 62
     7
100
AcDb2dPolyline
 66
     1
 10
0.0
 20
0.0
 30
0.0
  0
VERTEX
  5
467
330
466
100
AcDbEntity
  8
BEMA_U_00DFUNG
 62
     7
100
AcDbVertex
100
AcDb2dVertex
 10
44.98787044959622
 20
212.0648169879996
 30
0.0
  0
VERTEX
  5
468
330
466
100
AcDbEntity
  8
BEMA_U_00DFUNG
 62
     7
100
AcDbVertex
100
AcDb2dVertex
 10
44.98787044959622
 20
212.03730032134
 30
0.0
  0
SEQEND
  5
469
330
466
100
AcDbEntity
  8
BEMA_U_00DFUNG
 62
     7
  0
POLYLINE
  5
46A
330
1F
100
AcDbEntity
  8
BEMA_U_00DFUNG
 62
     7
100
AcDb2dPolyline
 66
     1
 10
0.0
 20
0.0
 30
0.0
  0
VERTEX
  5
46B
330
46A
100
AcDbEntity
  8
BEMA_U_00DFUNG
 62
     7
100
AcDbVertex
100
AcDb2dVertex
 10
45.03902322736135
 20
212.0648169879996
 30
0.0
  0
VERTEX
  5
46C
330
46A
100
AcDbEntity
  8
BEMA_U_00DFUNG
 62
     7
100
AcDbVertex
100
AcDb2dVertex
 10
45.03902322736135
 20
211.6520669881028
 30
0.0
  0
SEQEND
  5
46D
330
46A
100
AcDbEntity
  8
BEMA_U_00DFUNG
 62
     7
  0
POLYLINE
  5
46E
330
1F
100
AcDbEntity
  8
BEMA_U_00DFUNG
 62
     7
100
AcDb2dPolyline
 66
     1
 10
0.0
 20
0.0
 30
0.0
  0
VERTEX
  5
46F
330
46E
100
AcDbEntity
  8
BEMA_U_00DFUNG
 62
     7
100
AcDbVertex
100
AcDb2dVertex
 10
45.08982322734874
 20
212.0648169879996
 30
0.0
  0
VERTEX
  5
470
330
46E
100
AcDbEntity
  8
BEMA_U_00DFUNG
 62
     7
100
AcDbVertex
100
AcDb2dVertex
 10
45.08982322734874
 20
211.2657753215329
 30
0.0
  0
SEQEND
  5
471
330
46E
100
AcDbEntity
  8
BEMA_U_00DFUNG
 62
     7
  0
POLYLINE
  5
472
330
1F
100
AcDbEntity
  8
BEMA_U_00DFUNG
 62
     7
100
AcDb2dPolyline
 66
     1
 10
0.0
 20
0.0
 30
0.0
  0
VERTEX
  5
473
330
472
100
AcDbEntity
  8
BEMA_U_00DFUNG
 62
     7
100
AcDbVertex
100
AcDb2dVertex
 10
45.14027044955836
 20
212.0648169879996
 30
0.0
  0
VERTEX
  5
474
330
472
100
AcDbEntity
  8
BEMA_U_00DFUNG
 62
     7
100
AcDbVertex
100
AcDb2dVertex
 10
45.14027044955836
 20
210.8801892105179
 30
0.0
  0
SEQEND
  5
475
330
472
100
AcDbEntity
  8
BEMA_U_00DFUNG
 62
     7
  0
POLYLINE
  5
476
330
1F
100
AcDbEntity
  8
BEMA_U_00DFUNG
 62
     7
100
AcDb2dPolyline
 66
     1
 10
0.0
 20
0.0
 30
0.0
  0
VERTEX
  5
477
330
476
100
AcDbEntity
  8
BEMA_U_00DFUNG
 62
     7
100
AcDbVertex
100
AcDb2dVertex
 10
45.19107044954542
 20
212.0648169879996
 30
0.0
  0
VERTEX
  5
478
330
476
100
AcDbEntity
  8
BEMA_U_00DFUNG
 62
     7
100
AcDbVertex
100
AcDb2dVertex
 10
45.19107044954542
 20
210.4938975439481
 30
0.0
  0
SEQEND
  5
479
330
476
100
AcDbEntity
  8
BEMA_U_00DFUNG
 62
     7
  0
POLYLINE
  5
47A
330
1F
100
AcDbEntity
  8
BEMA_U_00DFUNG
 62
     7
100
AcDb2dPolyline
 66
     1
 10
0.0
 20
0.0
 30
0.0
  0
VERTEX
  5
47B
330
47A
100
AcDbEntity
  8
BEMA_U_00DFUNG
 62
     7
100
AcDbVertex
100
AcDb2dVertex
 10
45.2418704495328
 20
212.0648169879996
 30
0.0
  0
VERTEX
  5
47C
330
47A
100
AcDbEntity
  8
BEMA_U_00DFUNG
 62
     7
100
AcDbVertex
100
AcDb2dVertex
 10
45.2418704495328
 20
210.1086642107109
 30
0.0
  0
SEQEND
  5
47D
330
47A
100
AcDbEntity
  8
BEMA_U_00DFUNG
 62
     7
  0
POLYLINE
  5
47E
330
1F
100
AcDbEntity
  8
BEMA_U_00DFUNG
 62
     7
100
AcDb2dPolyline
 66
     1
 10
0.0
 20
0.0
 30
0.0
  0
VERTEX
  5
47F
330
47E
100
AcDbEntity
  8
BEMA_U_00DFUNG
 62
     7
100
AcDbVertex
100
AcDb2dVertex
 10
45.29302322729794
 20
212.0648169879996
 30
0.0
  0
VERTEX
  5
480
330
47E
100
AcDbEntity
  8
BEMA_U_00DFUNG
 62
     7
100
AcDbVertex
100
AcDb2dVertex
 10
45.29302322729794
 20
209.722372544141
 30
0.0
  0
SEQEND
  5
481
330
47E
100
AcDbEntity
  8
BEMA_U_00DFUNG
 62
     7
  0
POLYLINE
  5
482
330
1F
100
AcDbEntity
  8
BEMA_U_00DFUNG
 62
     7
100
AcDb2dPolyline
 66
     1
 10
0.0
 20
0.0
 30
0.0
  0
VERTEX
  5
483
330
482
100
AcDbEntity
  8
BEMA_U_00DFUNG
 62
     7
100
AcDbVertex
100
AcDb2dVertex
 10
45.34382322728501
 20
212.0648169879996
 30
0.0
  0
VERTEX
  5
484
330
482
100
AcDbEntity
  8
BEMA_U_00DFUNG
 62
     7
100
AcDbVertex
100
AcDb2dVertex
 10
45.34382322728501
 20
209.336786433126
 30
0.0
  0
SEQEND
  5
485
330
482
100
AcDbEntity
  8
BEMA_U_00DFUNG
 62
     7
  0
POLYLINE
  5
486
330
1F
100
AcDbEntity
  8
BEMA_U_00DFUNG
 62
     7
100
AcDb2dPolyline
 66
     1
 10
0.0
 20
0.0
 30
0.0
  0
VERTEX
  5
487
330
486
100
AcDbEntity
  8
BEMA_U_00DFUNG
 62
     7
100
AcDbVertex
100
AcDb2dVertex
 10
45.39462322727239
 20
212.0648169879996
 30
0.0
  0
VERTEX
  5
488
330
486
100
AcDbEntity
  8
BEMA_U_00DFUNG
 62
     7
100
AcDbVertex
100
AcDb2dVertex
 10
45.39462322727239
 20
208.9504947665561
 30
0.0
  0
SEQEND
  5
489
330
486
100
AcDbEntity
  8
BEMA_U_00DFUNG
 62
     7
  0
POLYLINE
  5
48A
330
1F
100
AcDbEntity
  8
BEMA_U_00DFUNG
 62
     7
100
AcDb2dPolyline
 66
     1
 10
0.0
 20
0.0
 30
0.0
  0
VERTEX
  5
48B
330
48A
100
AcDbEntity
  8
BEMA_U_00DFUNG
 62
     7
100
AcDbVertex
100
AcDb2dVertex
 10
45.44507044948201
 20
212.0648169879996
 30
0.0
  0
VERTEX
  5
48C
330
48A
100
AcDbEntity
  8
BEMA_U_00DFUNG
 62
     7
100
AcDbVertex
100
AcDb2dVertex
 10
45.44507044948201
 20
208.5649086555415
 30
0.0
  0
SEQEND
  5
48D
330
48A
100
AcDbEntity
  8
BEMA_U_00DFUNG
 62
     7
  0
POLYLINE
  5
48E
330
1F
100
AcDbEntity
  8
BEMA_U_00DFUNG
 62
     7
100
AcDb2dPolyline
 66
     1
 10
0.0
 20
0.0
 30
0.0
  0
VERTEX
  5
48F
330
48E
100
AcDbEntity
  8
BEMA_U_00DFUNG
 62
     7
100
AcDbVertex
100
AcDb2dVertex
 10
45.44507044948201
 20
201.5650919906249
 30
0.0
  0
VERTEX
  5
490
330
48E
100
AcDbEntity
  8
BEMA_U_00DFUNG
 62
     7
100
AcDbVertex
100
AcDb2dVertex
 10
44.98469544959701
 20
198.0651836581664
 30
0.0
  0
VERTEX
  5
491
330
48E
100
AcDbEntity
  8
BEMA_U_00DFUNG
 62
     7
100
AcDbVertex
100
AcDb2dVertex
 10
45.90615100492222
 20
198.0651836581664
 30
0.0
  0
VERTEX
  5
492
330
48E
100
AcDbEntity
  8
BEMA_U_00DFUNG
 62
     7
100
AcDbVertex
100
AcDb2dVertex
 10
45.44507044948201
 20
201.5650919906249
 30
0.0
  0
SEQEND
  5
493
330
48E
100
AcDbEntity
  8
BEMA_U_00DFUNG
 62
     7
  0
POLYLINE
  5
494
330
1F
100
AcDbEntity
  8
BEMA_U_00DFUNG
 62
     7
100
AcDb2dPolyline
 66
     1
 10
0.0
 20
0.0
 30
0.0
  0
VERTEX
  5
495
330
494
100
AcDbEntity
  8
BEMA_U_00DFUNG
 62
     7
100
AcDbVertex
100
AcDb2dVertex
 10
44.98787044959622
 20
198.0651836581664
 30
0.0
  0
VERTEX
  5
496
330
494
100
AcDbEntity
  8
BEMA_U_00DFUNG
 62
     7
100
AcDbVertex
100
AcDb2dVertex
 10
44.98787044959622
 20
198.0919947692705
 30
0.0
  0
SEQEND
  5
497
330
494
100
AcDbEntity
  8
BEMA_U_00DFUNG
 62
     7
  0
POLYLINE
  5
498
330
1F
100
AcDbEntity
  8
BEMA_U_00DFUNG
 62
     7
100
AcDb2dPolyline
 66
     1
 10
0.0
 20
0.0
 30
0.0
  0
VERTEX
  5
499
330
498
100
AcDbEntity
  8
BEMA_U_00DFUNG
 62
     7
100
AcDbVertex
100
AcDb2dVertex
 10
44.98787044959622
 20
198.0651836581664
 30
0.0
  0
VERTEX
  5
49A
330
498
100
AcDbEntity
  8
BEMA_U_00DFUNG
 62
     7
100
AcDbVertex
100
AcDb2dVertex
 10
44.98787044959622
 20
198.0919947692705
 30
0.0
  0
SEQEND
  5
49B
330
498
100
AcDbEntity
  8
BEMA_U_00DFUNG
 62
     7
  0
POLYLINE
  5
49C
330
1F
100
AcDbEntity
  8
BEMA_U_00DFUNG
 62
     7
100
AcDb2dPolyline
 66
     1
 10
0.0
 20
0.0
 30
0.0
  0
VERTEX
  5
49D
330
49C
100
AcDbEntity
  8
BEMA_U_00DFUNG
 62
     7
100
AcDbVertex
100
AcDb2dVertex
 10
45.03902322736135
 20
198.0651836581664
 30
0.0
  0
VERTEX
  5
49E
330
49C
100
AcDbEntity
  8
BEMA_U_00DFUNG
 62
     7
100
AcDbVertex
100
AcDb2dVertex
 10
45.03902322736135
 20
198.478286435841
 30
0.0
  0
SEQEND
  5
49F
330
49C
100
AcDbEntity
  8
BEMA_U_00DFUNG
 62
     7
  0
POLYLINE
  5
4A0
330
1F
100
AcDbEntity
  8
BEMA_U_00DFUNG
 62
     7
100
AcDb2dPolyline
 66
     1
 10
0.0
 20
0.0
 30
0.0
  0
VERTEX
  5
4A1
330
4A0
100
AcDbEntity
  8
BEMA_U_00DFUNG
 62
     7
100
AcDbVertex
100
AcDb2dVertex
 10
45.08982322734874
 20
198.0651836581664
 30
0.0
  0
VERTEX
  5
4A2
330
4A0
100
AcDbEntity
  8
BEMA_U_00DFUNG
 62
     7
100
AcDbVertex
100
AcDb2dVertex
 10
45.08982322734874
 20
198.8638725468554
 30
0.0
  0
SEQEND
  5
4A3
330
4A0
100
AcDbEntity
  8
BEMA_U_00DFUNG
 62
     7
  0
POLYLINE
  5
4A4
330
1F
100
AcDbEntity
  8
BEMA_U_00DFUNG
 62
     7
100
AcDb2dPolyline
 66
     1
 10
0.0
 20
0.0
 30
0.0
  0
VERTEX
  5
4A5
330
4A4
100
AcDbEntity
  8
BEMA_U_00DFUNG
 62
     7
100
AcDbVertex
100
AcDb2dVertex
 10
45.14027044955836
 20
198.0651836581664
 30
0.0
  0
VERTEX
  5
4A6
330
4A4
100
AcDbEntity
  8
BEMA_U_00DFUNG
 62
     7
100
AcDbVertex
100
AcDb2dVertex
 10
45.14027044955836
 20
199.2494586578703
 30
0.0
  0
SEQEND
  5
4A7
330
4A4
100
AcDbEntity
  8
BEMA_U_00DFUNG
 62
     7
  0
POLYLINE
  5
4A8
330
1F
100
AcDbEntity
  8
BEMA_U_00DFUNG
 62
     7
100
AcDb2dPolyline
 66
     1
 10
0.0
 20
0.0
 30
0.0
  0
VERTEX
  5
4A9
330
4A8
100
AcDbEntity
  8
BEMA_U_00DFUNG
 62
     7
100
AcDbVertex
100
AcDb2dVertex
 10
45.19107044954542
 20
198.0651836581664
 30
0.0
  0
VERTEX
  5
4AA
330
4A8
100
AcDbEntity
  8
BEMA_U_00DFUNG
 62
     7
100
AcDbVertex
100
AcDb2dVertex
 10
45.19107044954542
 20
199.6353975466625
 30
0.0
  0
SEQEND
  5
4AB
330
4A8
100
AcDbEntity
  8
BEMA_U_00DFUNG
 62
     7
  0
POLYLINE
  5
4AC
330
1F
100
AcDbEntity
  8
BEMA_U_00DFUNG
 62
     7
100
AcDb2dPolyline
 66
     1
 10
0.0
 20
0.0
 30
0.0
  0
VERTEX
  5
4AD
330
4AC
100
AcDbEntity
  8
BEMA_U_00DFUNG
 62
     7
100
AcDbVertex
100
AcDb2dVertex
 10
45.2418704495328
 20
198.0651836581664
 30
0.0
  0
VERTEX
  5
4AE
330
4AC
100
AcDbEntity
  8
BEMA_U_00DFUNG
 62
     7
100
AcDbVertex
100
AcDb2dVertex
 10
45.2418704495328
 20
200.0216892132329
 30
0.0
  0
SEQEND
  5
4AF
330
4AC
100
AcDbEntity
  8
BEMA_U_00DFUNG
 62
     7
  0
POLYLINE
  5
4B0
330
1F
100
AcDbEntity
  8
BEMA_U_00DFUNG
 62
     7
100
AcDb2dPolyline
 66
     1
 10
0.0
 20
0.0
 30
0.0
  0
VERTEX
  5
4B1
330
4B0
100
AcDbEntity
  8
BEMA_U_00DFUNG
 62
     7
100
AcDbVertex
100
AcDb2dVertex
 10
45.29302322729794
 20
198.0651836581664
 30
0.0
  0
VERTEX
  5
4B2
330
4B0
100
AcDbEntity
  8
BEMA_U_00DFUNG
 62
     7
100
AcDbVertex
100
AcDb2dVertex
 10
45.29302322729794
 20
200.4072753242473
 30
0.0
  0
SEQEND
  5
4B3
330
4B0
100
AcDbEntity
  8
BEMA_U_00DFUNG
 62
     7
  0
POLYLINE
  5
4B4
330
1F
100
AcDbEntity
  8
BEMA_U_00DFUNG
 62
     7
100
AcDb2dPolyline
 66
     1
 10
0.0
 20
0.0
 30
0.0
  0
VERTEX
  5
4B5
330
4B4
100
AcDbEntity
  8
BEMA_U_00DFUNG
 62
     7
100
AcDbVertex
100
AcDb2dVertex
 10
45.34382322728501
 20
198.0651836581664
 30
0.0
  0
VERTEX
  5
4B6
330
4B4
100
AcDbEntity
  8
BEMA_U_00DFUNG
 62
     7
100
AcDbVertex
100
AcDb2dVertex
 10
45.34382322728501
 20
200.7928614352623
 30
0.0
  0
SEQEND
  5
4B7
330
4B4
100
AcDbEntity
  8
BEMA_U_00DFUNG
 62
     7
  0
POLYLINE
  5
4B8
330
1F
100
AcDbEntity
  8
BEMA_U_00DFUNG
 62
     7
100
AcDb2dPolyline
 66
     1
 10
0.0
 20
0.0
 30
0.0
  0
VERTEX
  5
4B9
330
4B8
100
AcDbEntity
  8
BEMA_U_00DFUNG
 62
     7
100
AcDbVertex
100
AcDb2dVertex
 10
45.39462322727239
 20
198.0651836581664
 30
0.0
  0
VERTEX
  5
4BA
330
4B8
100
AcDbEntity
  8
BEMA_U_00DFUNG
 62
     7
100
AcDbVertex
100
AcDb2dVertex
 10
45.39462322727239
 20
201.1788003240544
 30
0.0
  0
SEQEND
  5
4BB
330
4B8
100
AcDbEntity
  8
BEMA_U_00DFUNG
 62
     7
  0
POLYLINE
  5
4BC
330
1F
100
AcDbEntity
  8
BEMA_U_00DFUNG
 62
     7
100
AcDb2dPolyline
 66
     1
 10
0.0
 20
0.0
 30
0.0
  0
VERTEX
  5
4BD
330
4BC
100
AcDbEntity
  8
BEMA_U_00DFUNG
 62
     7
100
AcDbVertex
100
AcDb2dVertex
 10
45.44507044948201
 20
198.0651836581664
 30
0.0
  0
VERTEX
  5
4BE
330
4BC
100
AcDbEntity
  8
BEMA_U_00DFUNG
 62
     7
100
AcDbVertex
100
AcDb2dVertex
 10
45.44507044948201
 20
201.5650919906249
 30
0.0
  0
SEQEND
  5
4BF
330
4BC
100
AcDbEntity
  8
BEMA_U_00DFUNG
 62
     7
  0
POLYLINE
  5
4C0
330
1F
100
AcDbEntity
  8
BEMA_U_00DFUNG
 62
     7
100
AcDb2dPolyline
 66
     1
 10
0.0
 20
0.0
 30
0.0
  0
VERTEX
  5
4C1
330
4C0
100
AcDbEntity
  8
BEMA_U_00DFUNG
 62
     7
100
AcDbVertex
100
AcDb2dVertex
 10
45.90262322714557
 20
198.0651836581664
 30
0.0
  0
VERTEX
  5
4C2
330
4C0
100
AcDbEntity
  8
BEMA_U_00DFUNG
 62
     7
100
AcDbVertex
100
AcDb2dVertex
 10
45.90262322714557
 20
198.0919947692705
 30
0.0
  0
SEQEND
  5
4C3
330
4C0
100
AcDbEntity
  8
BEMA_U_00DFUNG
 62
     7
  0
POLYLINE
  5
4C4
330
1F
100
AcDbEntity
  8
BEMA_U_00DFUNG
 62
     7
100
AcDb2dPolyline
 66
     1
 10
0.0
 20
0.0
 30
0.0
  0
VERTEX
  5
4C5
330
4C4
100
AcDbEntity
  8
BEMA_U_00DFUNG
 62
     7
100
AcDbVertex
100
AcDb2dVertex
 10
45.90262322714557
 20
198.0651836581664
 30
0.0
  0
VERTEX
  5
4C6
330
4C4
100
AcDbEntity
  8
BEMA_U_00DFUNG
 62
     7
100
AcDbVertex
100
AcDb2dVertex
 10
45.90262322714557
 20
198.0919947692705
 30
0.0
  0
SEQEND
  5
4C7
330
4C4
100
AcDbEntity
  8
BEMA_U_00DFUNG
 62
     7
  0
POLYLINE
  5
4C8
330
1F
100
AcDbEntity
  8
BEMA_U_00DFUNG
 62
     7
100
AcDb2dPolyline
 66
     1
 10
0.0
 20
0.0
 30
0.0
  0
VERTEX
  5
4C9
330
4C8
100
AcDbEntity
  8
BEMA_U_00DFUNG
 62
     7
100
AcDbVertex
100
AcDb2dVertex
 10
45.85182322715819
 20
198.0651836581664
 30
0.0
  0
VERTEX
  5
4CA
330
4C8
100
AcDbEntity
  8
BEMA_U_00DFUNG
 62
     7
100
AcDbVertex
100
AcDb2dVertex
 10
45.85182322715819
 20
198.478286435841
 30
0.0
  0
SEQEND
  5
4CB
330
4C8
100
AcDbEntity
  8
BEMA_U_00DFUNG
 62
     7
  0
POLYLINE
  5
4CC
330
1F
100
AcDbEntity
  8
BEMA_U_00DFUNG
 62
     7
100
AcDb2dPolyline
 66
     1
 10
0.0
 20
0.0
 30
0.0
  0
VERTEX
  5
4CD
330
4CC
100
AcDbEntity
  8
BEMA_U_00DFUNG
 62
     7
100
AcDbVertex
100
AcDb2dVertex
 10
45.80102322717081
 20
198.0651836581664
 30
0.0
  0
VERTEX
  5
4CE
330
4CC
100
AcDbEntity
  8
BEMA_U_00DFUNG
 62
     7
100
AcDbVertex
100
AcDb2dVertex
 10
45.80102322717081
 20
198.8638725468554
 30
0.0
  0
SEQEND
  5
4CF
330
4CC
100
AcDbEntity
  8
BEMA_U_00DFUNG
 62
     7
  0
POLYLINE
  5
4D0
330
1F
100
AcDbEntity
  8
BEMA_U_00DFUNG
 62
     7
100
AcDb2dPolyline
 66
     1
 10
0.0
 20
0.0
 30
0.0
  0
VERTEX
  5
4D1
330
4D0
100
AcDbEntity
  8
BEMA_U_00DFUNG
 62
     7
100
AcDbVertex
100
AcDb2dVertex
 10
45.74987044940566
 20
198.0651836581664
 30
0.0
  0
VERTEX
  5
4D2
330
4D0
100
AcDbEntity
  8
BEMA_U_00DFUNG
 62
     7
100
AcDbVertex
100
AcDb2dVertex
 10
45.74987044940566
 20
199.2494586578703
 30
0.0
  0
SEQEND
  5
4D3
330
4D0
100
AcDbEntity
  8
BEMA_U_00DFUNG
 62
     7
  0
POLYLINE
  5
4D4
330
1F
100
AcDbEntity
  8
BEMA_U_00DFUNG
 62
     7
100
AcDb2dPolyline
 66
     1
 10
0.0
 20
0.0
 30
0.0
  0
VERTEX
  5
4D5
330
4D4
100
AcDbEntity
  8
BEMA_U_00DFUNG
 62
     7
100
AcDbVertex
100
AcDb2dVertex
 10
45.6990704494186
 20
198.0651836581664
 30
0.0
  0
VERTEX
  5
4D6
330
4D4
100
AcDbEntity
  8
BEMA_U_00DFUNG
 62
     7
100
AcDbVertex
100
AcDb2dVertex
 10
45.6990704494186
 20
199.6353975466625
 30
0.0
  0
SEQEND
  5
4D7
330
4D4
100
AcDbEntity
  8
BEMA_U_00DFUNG
 62
     7
  0
POLYLINE
  5
4D8
330
1F
100
AcDbEntity
  8
BEMA_U_00DFUNG
 62
     7
100
AcDb2dPolyline
 66
     1
 10
0.0
 20
0.0
 30
0.0
  0
VERTEX
  5
4D9
330
4D8
100
AcDbEntity
  8
BEMA_U_00DFUNG
 62
     7
100
AcDbVertex
100
AcDb2dVertex
 10
45.64862322720898
 20
198.0651836581664
 30
0.0
  0
VERTEX
  5
4DA
330
4D8
100
AcDbEntity
  8
BEMA_U_00DFUNG
 62
     7
100
AcDbVertex
100
AcDb2dVertex
 10
45.64862322720898
 20
200.0216892132329
 30
0.0
  0
SEQEND
  5
4DB
330
4D8
100
AcDbEntity
  8
BEMA_U_00DFUNG
 62
     7
  0
POLYLINE
  5
4DC
330
1F
100
AcDbEntity
  8
BEMA_U_00DFUNG
 62
     7
100
AcDb2dPolyline
 66
     1
 10
0.0
 20
0.0
 30
0.0
  0
VERTEX
  5
4DD
330
4DC
100
AcDbEntity
  8
BEMA_U_00DFUNG
 62
     7
100
AcDbVertex
100
AcDb2dVertex
 10
45.5978232272216
 20
198.0651836581664
 30
0.0
  0
VERTEX
  5
4DE
330
4DC
100
AcDbEntity
  8
BEMA_U_00DFUNG
 62
     7
100
AcDbVertex
100
AcDb2dVertex
 10
45.5978232272216
 20
200.4072753242473
 30
0.0
  0
SEQEND
  5
4DF
330
4DC
100
AcDbEntity
  8
BEMA_U_00DFUNG
 62
     7
  0
POLYLINE
  5
4E0
330
1F
100
AcDbEntity
  8
BEMA_U_00DFUNG
 62
     7
100
AcDb2dPolyline
 66
     1
 10
0.0
 20
0.0
 30
0.0
  0
VERTEX
  5
4E1
330
4E0
100
AcDbEntity
  8
BEMA_U_00DFUNG
 62
     7
100
AcDbVertex
100
AcDb2dVertex
 10
45.54702322723421
 20
198.0651836581664
 30
0.0
  0
VERTEX
  5
4E2
330
4E0
100
AcDbEntity
  8
BEMA_U_00DFUNG
 62
     7
100
AcDbVertex
100
AcDb2dVertex
 10
45.54702322723421
 20
200.7928614352623
 30
0.0
  0
SEQEND
  5
4E3
330
4E0
100
AcDbEntity
  8
BEMA_U_00DFUNG
 62
     7
  0
POLYLINE
  5
4E4
330
1F
100
AcDbEntity
  8
BEMA_U_00DFUNG
 62
     7
100
AcDb2dPolyline
 66
     1
 10
0.0
 20
0.0
 30
0.0
  0
VERTEX
  5
4E5
330
4E4
100
AcDbEntity
  8
BEMA_U_00DFUNG
 62
     7
100
AcDbVertex
100
AcDb2dVertex
 10
45.49587044946939
 20
198.0651836581664
 30
0.0
  0
VERTEX
  5
4E6
330
4E4
100
AcDbEntity
  8
BEMA_U_00DFUNG
 62
     7
100
AcDbVertex
100
AcDb2dVertex
 10
45.49587044946939
 20
201.1788003240544
 30
0.0
  0
SEQEND
  5
4E7
330
4E4
100
AcDbEntity
  8
BEMA_U_00DFUNG
 62
     7
  0
POLYLINE
  5
4E8
330
1F
100
AcDbEntity
  8
BEMA_U_00DFUNG
 62
     7
100
AcDb2dPolyline
 66
     1
 10
0.0
 20
0.0
 30
0.0
  0
VERTEX
  5
4E9
330
4E8
100
AcDbEntity
  8
BEMA_U_00DFUNG
 62
     7
100
AcDbVertex
100
AcDb2dVertex
 10
45.44507044948201
 20
198.0651836581664
 30
0.0
  0
VERTEX
  5
4EA
330
4E8
100
AcDbEntity
  8
BEMA_U_00DFUNG
 62
     7
100
AcDbVertex
100
AcDb2dVertex
 10
45.44507044948201
 20
201.5650919906249
 30
0.0
  0
SEQEND
  5
4EB
330
4E8
100
AcDbEntity
  8
BEMA_U_00DFUNG
 62
     7
  0
POLYLINE
  5
4EC
330
1F
100
AcDbEntity
  8
BEMA_U_00DFUNG
 62
     7
100
AcDb2dPolyline
 66
     1
 10
0.0
 20
0.0
 30
0.0
  0
VERTEX
  5
4ED
330
4EC
100
AcDbEntity
  8
BEMA_U_00DFUNG
 62
     7
100
AcDbVertex
100
AcDb2dVertex
 10
60.40297765417058
 20
207.5647836557915
 30
0.0
  0
VERTEX
  5
4EE
330
4EC
100
AcDbEntity
  8
BEMA_U_00DFUNG
 62
     7
100
AcDbVertex
100
AcDb2dVertex
 10
60.40297765417058
 20
230.5648364278193
 30
0.0
  0
SEQEND
  5
4EF
330
4EC
100
AcDbEntity
  8
BEMA_U_00DFUNG
 62
     7
  0
POLYLINE
  5
4F0
330
1F
100
AcDbEntity
  8
BEMA_U_00DFUNG
 62
     7
100
AcDb2dPolyline
 66
     1
 10
0.0
 20
0.0
 30
0.0
  0
VERTEX
  5
4F1
330
4F0
100
AcDbEntity
  8
BEMA_U_00DFUNG
 62
     7
100
AcDbVertex
100
AcDb2dVertex
 10
72.90259987326783
 20
206.6362725449127
 30
0.0
  0
VERTEX
  5
4F2
330
4F0
100
AcDbEntity
  8
BEMA_U_00DFUNG
 62
     7
100
AcDbVertex
100
AcDb2dVertex
 10
72.90259987326783
 20
230.5648364278193
 30
0.0
  0
SEQEND
  5
4F3
330
4F0
100
AcDbEntity
  8
BEMA_U_00DFUNG
 62
     7
  0
POLYLINE
  5
4F4
330
1F
100
AcDbEntity
  8
BEMA_U_00DFUNG
 62
     7
100
AcDb2dPolyline
 66
     1
 10
0.0
 20
0.0
 30
0.0
  0
VERTEX
  5
4F5
330
4F4
100
AcDbEntity
  8
BEMA_U_00DFUNG
 62
     7
100
AcDbVertex
100
AcDb2dVertex
 10
60.40297765417058
 20
228.5649392060971
 30
0.0
  0
VERTEX
  5
4F6
330
4F4
100
AcDbEntity
  8
BEMA_U_00DFUNG
 62
     7
100
AcDbVertex
100
AcDb2dVertex
 10
72.90259987326783
 20
228.5649392060971
 30
0.0
  0
SEQEND
  5
4F7
330
4F4
100
AcDbEntity
  8
BEMA_U_00DFUNG
 62
     7
  0
POLYLINE
  5
4F8
330
1F
100
AcDbEntity
  8
BEMA_U_00DFUNG
 62
     7
100
AcDb2dPolyline
 66
     1
 10
0.0
 20
0.0
 30
0.0
  0
VERTEX
  5
4F9
330
4F8
100
AcDbEntity
  8
BEMA_U_00DFUNG
 62
     7
100
AcDbVertex
100
AcDb2dVertex
 10
60.40297765417058
 20
228.5649392060971
 30
0.0
  0
VERTEX
  5
4FA
330
4F8
100
AcDbEntity
  8
BEMA_U_00DFUNG
 62
     7
100
AcDbVertex
100
AcDb2dVertex
 10
63.90253320885096
 20
228.1038586506566
 30
0.0
  0
VERTEX
  5
4FB
330
4F8
100
AcDbEntity
  8
BEMA_U_00DFUNG
 62
     7
100
AcDbVertex
100
AcDb2dVertex
 10
63.90253320885096
 20
229.0260197615373
 30
0.0
  0
VERTEX
  5
4FC
330
4F8
100
AcDbEntity
  8
BEMA_U_00DFUNG
 62
     7
100
AcDbVertex
100
AcDb2dVertex
 10
60.40297765417058
 20
228.5649392060971
 30
0.0
  0
SEQEND
  5
4FD
330
4F8
100
AcDbEntity
  8
BEMA_U_00DFUNG
 62
     7
  0
POLYLINE
  5
4FE
330
1F
100
AcDbEntity
  8
BEMA_U_00DFUNG
 62
     7
100
AcDb2dPolyline
 66
     1
 10
0.0
 20
0.0
 30
0.0
  0
VERTEX
  5
4FF
330
4FE
100
AcDbEntity
  8
BEMA_U_00DFUNG
 62
     7
100
AcDbVertex
100
AcDb2dVertex
 10
63.90253320885096
 20
228.1073864284335
 30
0.0
  0
VERTEX
  5
500
330
4FE
100
AcDbEntity
  8
BEMA_U_00DFUNG
 62
     7
100
AcDbVertex
100
AcDb2dVertex
 10
63.8753693199691
 20
228.1073864284335
 30
0.0
  0
SEQEND
  5
501
330
4FE
100
AcDbEntity
  8
BEMA_U_00DFUNG
 62
     7
  0
POLYLINE
  5
502
330
1F
100
AcDbEntity
  8
BEMA_U_00DFUNG
 62
     7
100
AcDb2dPolyline
 66
     1
 10
0.0
 20
0.0
 30
0.0
  0
VERTEX
  5
503
330
502
100
AcDbEntity
  8
BEMA_U_00DFUNG
 62
     7
100
AcDbVertex
100
AcDb2dVertex
 10
63.90253320885096
 20
228.1073864284335
 30
0.0
  0
VERTEX
  5
504
330
502
100
AcDbEntity
  8
BEMA_U_00DFUNG
 62
     7
100
AcDbVertex
100
AcDb2dVertex
 10
63.8753693199691
 20
228.1073864284335
 30
0.0
  0
SEQEND
  5
505
330
502
100
AcDbEntity
  8
BEMA_U_00DFUNG
 62
     7
  0
POLYLINE
  5
506
330
1F
100
AcDbEntity
  8
BEMA_U_00DFUNG
 62
     7
100
AcDb2dPolyline
 66
     1
 10
0.0
 20
0.0
 30
0.0
  0
VERTEX
  5
507
330
506
100
AcDbEntity
  8
BEMA_U_00DFUNG
 62
     7
100
AcDbVertex
100
AcDb2dVertex
 10
63.90253320885096
 20
228.1581864284209
 30
0.0
  0
VERTEX
  5
508
330
506
100
AcDbEntity
  8
BEMA_U_00DFUNG
 62
     7
100
AcDbVertex
100
AcDb2dVertex
 10
63.48978320895444
 20
228.1581864284209
 30
0.0
  0
SEQEND
  5
509
330
506
100
AcDbEntity
  8
BEMA_U_00DFUNG
 62
     7
  0
POLYLINE
  5
50A
330
1F
100
AcDbEntity
  8
BEMA_U_00DFUNG
 62
     7
100
AcDb2dPolyline
 66
     1
 10
0.0
 20
0.0
 30
0.0
  0
VERTEX
  5
50B
330
50A
100
AcDbEntity
  8
BEMA_U_00DFUNG
 62
     7
100
AcDbVertex
100
AcDb2dVertex
 10
63.90253320885096
 20
228.2089864284083
 30
0.0
  0
VERTEX
  5
50C
330
50A
100
AcDbEntity
  8
BEMA_U_00DFUNG
 62
     7
100
AcDbVertex
100
AcDb2dVertex
 10
63.10384432016202
 20
228.2089864284083
 30
0.0
  0
SEQEND
  5
50D
330
50A
100
AcDbEntity
  8
BEMA_U_00DFUNG
 62
     7
  0
POLYLINE
  5
50E
330
1F
100
AcDbEntity
  8
BEMA_U_00DFUNG
 62
     7
100
AcDb2dPolyline
 66
     1
 10
0.0
 20
0.0
 30
0.0
  0
VERTEX
  5
50F
330
50E
100
AcDbEntity
  8
BEMA_U_00DFUNG
 62
     7
100
AcDbVertex
100
AcDb2dVertex
 10
63.90253320885096
 20
228.2597864283954
 30
0.0
  0
VERTEX
  5
510
330
50E
100
AcDbEntity
  8
BEMA_U_00DFUNG
 62
     7
100
AcDbVertex
100
AcDb2dVertex
 10
62.71790543136959
 20
228.2597864283954
 30
0.0
  0
SEQEND
  5
511
330
50E
100
AcDbEntity
  8
BEMA_U_00DFUNG
 62
     7
  0
POLYLINE
  5
512
330
1F
100
AcDbEntity
  8
BEMA_U_00DFUNG
 62
     7
100
AcDb2dPolyline
 66
     1
 10
0.0
 20
0.0
 30
0.0
  0
VERTEX
  5
513
330
512
100
AcDbEntity
  8
BEMA_U_00DFUNG
 62
     7
100
AcDbVertex
100
AcDb2dVertex
 10
63.90253320885096
 20
228.3105864283827
 30
0.0
  0
VERTEX
  5
514
330
512
100
AcDbEntity
  8
BEMA_U_00DFUNG
 62
     7
100
AcDbVertex
100
AcDb2dVertex
 10
62.33196654257718
 20
228.3105864283827
 30
0.0
  0
SEQEND
  5
515
330
512
100
AcDbEntity
  8
BEMA_U_00DFUNG
 62
     7
  0
POLYLINE
  5
516
330
1F
100
AcDbEntity
  8
BEMA_U_00DFUNG
 62
     7
100
AcDb2dPolyline
 66
     1
 10
0.0
 20
0.0
 30
0.0
  0
VERTEX
  5
517
330
516
100
AcDbEntity
  8
BEMA_U_00DFUNG
 62
     7
100
AcDbVertex
100
AcDb2dVertex
 10
63.90253320885096
 20
228.3613864283701
 30
0.0
  0
VERTEX
  5
518
330
516
100
AcDbEntity
  8
BEMA_U_00DFUNG
 62
     7
100
AcDbVertex
100
AcDb2dVertex
 10
61.94638043156252
 20
228.3613864283701
 30
0.0
  0
SEQEND
  5
519
330
516
100
AcDbEntity
  8
BEMA_U_00DFUNG
 62
     7
  0
POLYLINE
  5
51A
330
1F
100
AcDbEntity
  8
BEMA_U_00DFUNG
 62
     7
100
AcDb2dPolyline
 66
     1
 10
0.0
 20
0.0
 30
0.0
  0
VERTEX
  5
51B
330
51A
100
AcDbEntity
  8
BEMA_U_00DFUNG
 62
     7
100
AcDbVertex
100
AcDb2dVertex
 10
63.90253320885096
 20
228.4125392061349
 30
0.0
  0
VERTEX
  5
51C
330
51A
100
AcDbEntity
  8
BEMA_U_00DFUNG
 62
     7
100
AcDbVertex
100
AcDb2dVertex
 10
61.56044154277009
 20
228.4125392061349
 30
0.0
  0
SEQEND
  5
51D
330
51A
100
AcDbEntity
  8
BEMA_U_00DFUNG
 62
     7
  0
POLYLINE
  5
51E
330
1F
100
AcDbEntity
  8
BEMA_U_00DFUNG
 62
     7
100
AcDb2dPolyline
 66
     1
 10
0.0
 20
0.0
 30
0.0
  0
VERTEX
  5
51F
330
51E
100
AcDbEntity
  8
BEMA_U_00DFUNG
 62
     7
100
AcDbVertex
100
AcDb2dVertex
 10
63.90253320885096
 20
228.4633392061223
 30
0.0
  0
VERTEX
  5
520
330
51E
100
AcDbEntity
  8
BEMA_U_00DFUNG
 62
     7
100
AcDbVertex
100
AcDb2dVertex
 10
61.17450265397767
 20
228.4633392061223
 30
0.0
  0
SEQEND
  5
521
330
51E
100
AcDbEntity
  8
BEMA_U_00DFUNG
 62
     7
  0
POLYLINE
  5
522
330
1F
100
AcDbEntity
  8
BEMA_U_00DFUNG
 62
     7
100
AcDb2dPolyline
 66
     1
 10
0.0
 20
0.0
 30
0.0
  0
VERTEX
  5
523
330
522
100
AcDbEntity
  8
BEMA_U_00DFUNG
 62
     7
100
AcDbVertex
100
AcDb2dVertex
 10
63.90253320885096
 20
228.5141392061097
 30
0.0
  0
VERTEX
  5
524
330
522
100
AcDbEntity
  8
BEMA_U_00DFUNG
 62
     7
100
AcDbVertex
100
AcDb2dVertex
 10
60.78856376518524
 20
228.5141392061097
 30
0.0
  0
SEQEND
  5
525
330
522
100
AcDbEntity
  8
BEMA_U_00DFUNG
 62
     7
  0
POLYLINE
  5
526
330
1F
100
AcDbEntity
  8
BEMA_U_00DFUNG
 62
     7
100
AcDb2dPolyline
 66
     1
 10
0.0
 20
0.0
 30
0.0
  0
VERTEX
  5
527
330
526
100
AcDbEntity
  8
BEMA_U_00DFUNG
 62
     7
100
AcDbVertex
100
AcDb2dVertex
 10
63.90253320885096
 20
228.5649392060971
 30
0.0
  0
VERTEX
  5
528
330
526
100
AcDbEntity
  8
BEMA_U_00DFUNG
 62
     7
100
AcDbVertex
100
AcDb2dVertex
 10
60.40297765417058
 20
228.5649392060971
 30
0.0
  0
SEQEND
  5
529
330
526
100
AcDbEntity
  8
BEMA_U_00DFUNG
 62
     7
  0
POLYLINE
  5
52A
330
1F
100
AcDbEntity
  8
BEMA_U_00DFUNG
 62
     7
100
AcDb2dPolyline
 66
     1
 10
0.0
 20
0.0
 30
0.0
  0
VERTEX
  5
52B
330
52A
100
AcDbEntity
  8
BEMA_U_00DFUNG
 62
     7
100
AcDbVertex
100
AcDb2dVertex
 10
63.90253320885096
 20
229.0217864282051
 30
0.0
  0
VERTEX
  5
52C
330
52A
100
AcDbEntity
  8
BEMA_U_00DFUNG
 62
     7
100
AcDbVertex
100
AcDb2dVertex
 10
63.8753693199691
 20
229.0217864282051
 30
0.0
  0
SEQEND
  5
52D
330
52A
100
AcDbEntity
  8
BEMA_U_00DFUNG
 62
     7
  0
POLYLINE
  5
52E
330
1F
100
AcDbEntity
  8
BEMA_U_00DFUNG
 62
     7
100
AcDb2dPolyline
 66
     1
 10
0.0
 20
0.0
 30
0.0
  0
VERTEX
  5
52F
330
52E
100
AcDbEntity
  8
BEMA_U_00DFUNG
 62
     7
100
AcDbVertex
100
AcDb2dVertex
 10
63.90253320885096
 20
229.0217864282051
 30
0.0
  0
VERTEX
  5
530
330
52E
100
AcDbEntity
  8
BEMA_U_00DFUNG
 62
     7
100
AcDbVertex
100
AcDb2dVertex
 10
63.8753693199691
 20
229.0217864282051
 30
0.0
  0
SEQEND
  5
531
330
52E
100
AcDbEntity
  8
BEMA_U_00DFUNG
 62
     7
  0
POLYLINE
  5
532
330
1F
100
AcDbEntity
  8
BEMA_U_00DFUNG
 62
     7
100
AcDb2dPolyline
 66
     1
 10
0.0
 20
0.0
 30
0.0
  0
VERTEX
  5
533
330
532
100
AcDbEntity
  8
BEMA_U_00DFUNG
 62
     7
100
AcDbVertex
100
AcDb2dVertex
 10
63.90253320885096
 20
228.9709864282177
 30
0.0
  0
VERTEX
  5
534
330
532
100
AcDbEntity
  8
BEMA_U_00DFUNG
 62
     7
100
AcDbVertex
100
AcDb2dVertex
 10
63.48978320895444
 20
228.9709864282177
 30
0.0
  0
SEQEND
  5
535
330
532
100
AcDbEntity
  8
BEMA_U_00DFUNG
 62
     7
  0
POLYLINE
  5
536
330
1F
100
AcDbEntity
  8
BEMA_U_00DFUNG
 62
     7
100
AcDb2dPolyline
 66
     1
 10
0.0
 20
0.0
 30
0.0
  0
VERTEX
  5
537
330
536
100
AcDbEntity
  8
BEMA_U_00DFUNG
 62
     7
100
AcDbVertex
100
AcDb2dVertex
 10
63.90253320885096
 20
228.9205392060081
 30
0.0
  0
VERTEX
  5
538
330
536
100
AcDbEntity
  8
BEMA_U_00DFUNG
 62
     7
100
AcDbVertex
100
AcDb2dVertex
 10
63.10384432016202
 20
228.9205392060081
 30
0.0
  0
SEQEND
  5
539
330
536
100
AcDbEntity
  8
BEMA_U_00DFUNG
 62
     7
  0
POLYLINE
  5
53A
330
1F
100
AcDbEntity
  8
BEMA_U_00DFUNG
 62
     7
100
AcDb2dPolyline
 66
     1
 10
0.0
 20
0.0
 30
0.0
  0
VERTEX
  5
53B
330
53A
100
AcDbEntity
  8
BEMA_U_00DFUNG
 62
     7
100
AcDbVertex
100
AcDb2dVertex
 10
63.90253320885096
 20
228.8697392060207
 30
0.0
  0
VERTEX
  5
53C
330
53A
100
AcDbEntity
  8
BEMA_U_00DFUNG
 62
     7
100
AcDbVertex
100
AcDb2dVertex
 10
62.71790543136959
 20
228.8697392060207
 30
0.0
  0
SEQEND
  5
53D
330
53A
100
AcDbEntity
  8
BEMA_U_00DFUNG
 62
     7
  0
POLYLINE
  5
53E
330
1F
100
AcDbEntity
  8
BEMA_U_00DFUNG
 62
     7
100
AcDb2dPolyline
 66
     1
 10
0.0
 20
0.0
 30
0.0
  0
VERTEX
  5
53F
330
53E
100
AcDbEntity
  8
BEMA_U_00DFUNG
 62
     7
100
AcDbVertex
100
AcDb2dVertex
 10
63.90253320885096
 20
228.8189392060334
 30
0.0
  0
VERTEX
  5
540
330
53E
100
AcDbEntity
  8
BEMA_U_00DFUNG
 62
     7
100
AcDbVertex
100
AcDb2dVertex
 10
62.33196654257718
 20
228.8189392060334
 30
0.0
  0
SEQEND
  5
541
330
53E
100
AcDbEntity
  8
BEMA_U_00DFUNG
 62
     7
  0
POLYLINE
  5
542
330
1F
100
AcDbEntity
  8
BEMA_U_00DFUNG
 62
     7
100
AcDb2dPolyline
 66
     1
 10
0.0
 20
0.0
 30
0.0
  0
VERTEX
  5
543
330
542
100
AcDbEntity
  8
BEMA_U_00DFUNG
 62
     7
100
AcDbVertex
100
AcDb2dVertex
 10
63.90253320885096
 20
228.768139206046
 30
0.0
  0
VERTEX
  5
544
330
542
100
AcDbEntity
  8
BEMA_U_00DFUNG
 62
     7
100
AcDbVertex
100
AcDb2dVertex
 10
61.94638043156252
 20
228.768139206046
 30
0.0
  0
SEQEND
  5
545
330
542
100
AcDbEntity
  8
BEMA_U_00DFUNG
 62
     7
  0
POLYLINE
  5
546
330
1F
100
AcDbEntity
  8
BEMA_U_00DFUNG
 62
     7
100
AcDb2dPolyline
 66
     1
 10
0.0
 20
0.0
 30
0.0
  0
VERTEX
  5
547
330
546
100
AcDbEntity
  8
BEMA_U_00DFUNG
 62
     7
100
AcDbVertex
100
AcDb2dVertex
 10
63.90253320885096
 20
228.7173392060589
 30
0.0
  0
VERTEX
  5
548
330
546
100
AcDbEntity
  8
BEMA_U_00DFUNG
 62
     7
100
AcDbVertex
100
AcDb2dVertex
 10
61.56044154277009
 20
228.7173392060589
 30
0.0
  0
SEQEND
  5
549
330
546
100
AcDbEntity
  8
BEMA_U_00DFUNG
 62
     7
  0
POLYLINE
  5
54A
330
1F
100
AcDbEntity
  8
BEMA_U_00DFUNG
 62
     7
100
AcDb2dPolyline
 66
     1
 10
0.0
 20
0.0
 30
0.0
  0
VERTEX
  5
54B
330
54A
100
AcDbEntity
  8
BEMA_U_00DFUNG
 62
     7
100
AcDbVertex
100
AcDb2dVertex
 10
63.90253320885096
 20
228.6665392060715
 30
0.0
  0
VERTEX
  5
54C
330
54A
100
AcDbEntity
  8
BEMA_U_00DFUNG
 62
     7
100
AcDbVertex
100
AcDb2dVertex
 10
61.17450265397767
 20
228.6665392060715
 30
0.0
  0
SEQEND
  5
54D
330
54A
100
AcDbEntity
  8
BEMA_U_00DFUNG
 62
     7
  0
POLYLINE
  5
54E
330
1F
100
AcDbEntity
  8
BEMA_U_00DFUNG
 62
     7
100
AcDb2dPolyline
 66
     1
 10
0.0
 20
0.0
 30
0.0
  0
VERTEX
  5
54F
330
54E
100
AcDbEntity
  8
BEMA_U_00DFUNG
 62
     7
100
AcDbVertex
100
AcDb2dVertex
 10
63.90253320885096
 20
228.6157392060842
 30
0.0
  0
VERTEX
  5
550
330
54E
100
AcDbEntity
  8
BEMA_U_00DFUNG
 62
     7
100
AcDbVertex
100
AcDb2dVertex
 10
60.78856376518524
 20
228.6157392060842
 30
0.0
  0
SEQEND
  5
551
330
54E
100
AcDbEntity
  8
BEMA_U_00DFUNG
 62
     7
  0
POLYLINE
  5
552
330
1F
100
AcDbEntity
  8
BEMA_U_00DFUNG
 62
     7
100
AcDb2dPolyline
 66
     1
 10
0.0
 20
0.0
 30
0.0
  0
VERTEX
  5
553
330
552
100
AcDbEntity
  8
BEMA_U_00DFUNG
 62
     7
100
AcDbVertex
100
AcDb2dVertex
 10
63.90253320885096
 20
228.5649392060971
 30
0.0
  0
VERTEX
  5
554
330
552
100
AcDbEntity
  8
BEMA_U_00DFUNG
 62
     7
100
AcDbVertex
100
AcDb2dVertex
 10
60.40297765417058
 20
228.5649392060971
 30
0.0
  0
SEQEND
  5
555
330
552
100
AcDbEntity
  8
BEMA_U_00DFUNG
 62
     7
  0
POLYLINE
  5
556
330
1F
100
AcDbEntity
  8
BEMA_U_00DFUNG
 62
     7
100
AcDb2dPolyline
 66
     1
 10
0.0
 20
0.0
 30
0.0
  0
VERTEX
  5
557
330
556
100
AcDbEntity
  8
BEMA_U_00DFUNG
 62
     7
100
AcDbVertex
100
AcDb2dVertex
 10
72.90259987326783
 20
228.5649392060971
 30
0.0
  0
VERTEX
  5
558
330
556
100
AcDbEntity
  8
BEMA_U_00DFUNG
 62
     7
100
AcDbVertex
100
AcDb2dVertex
 10
69.40304431858713
 20
229.0260197615373
 30
0.0
  0
VERTEX
  5
559
330
556
100
AcDbEntity
  8
BEMA_U_00DFUNG
 62
     7
100
AcDbVertex
100
AcDb2dVertex
 10
69.40304431858713
 20
228.1038586506566
 30
0.0
  0
VERTEX
  5
55A
330
556
100
AcDbEntity
  8
BEMA_U_00DFUNG
 62
     7
100
AcDbVertex
100
AcDb2dVertex
 10
72.90259987326783
 20
228.5649392060971
 30
0.0
  0
SEQEND
  5
55B
330
556
100
AcDbEntity
  8
BEMA_U_00DFUNG
 62
     7
  0
POLYLINE
  5
55C
330
1F
100
AcDbEntity
  8
BEMA_U_00DFUNG
 62
     7
100
AcDb2dPolyline
 66
     1
 10
0.0
 20
0.0
 30
0.0
  0
VERTEX
  5
55D
330
55C
100
AcDbEntity
  8
BEMA_U_00DFUNG
 62
     7
100
AcDbVertex
100
AcDb2dVertex
 10
69.40304431858713
 20
229.0217864282051
 30
0.0
  0
VERTEX
  5
55E
330
55C
100
AcDbEntity
  8
BEMA_U_00DFUNG
 62
     7
100
AcDbVertex
100
AcDb2dVertex
 10
69.43020820746932
 20
229.0217864282051
 30
0.0
  0
SEQEND
  5
55F
330
55C
100
AcDbEntity
  8
BEMA_U_00DFUNG
 62
     7
  0
POLYLINE
  5
560
330
1F
100
AcDbEntity
  8
BEMA_U_00DFUNG
 62
     7
100
AcDb2dPolyline
 66
     1
 10
0.0
 20
0.0
 30
0.0
  0
VERTEX
  5
561
330
560
100
AcDbEntity
  8
BEMA_U_00DFUNG
 62
     7
100
AcDbVertex
100
AcDb2dVertex
 10
69.40304431858713
 20
229.0217864282051
 30
0.0
  0
VERTEX
  5
562
330
560
100
AcDbEntity
  8
BEMA_U_00DFUNG
 62
     7
100
AcDbVertex
100
AcDb2dVertex
 10
69.43020820746932
 20
229.0217864282051
 30
0.0
  0
SEQEND
  5
563
330
560
100
AcDbEntity
  8
BEMA_U_00DFUNG
 62
     7
  0
POLYLINE
  5
564
330
1F
100
AcDbEntity
  8
BEMA_U_00DFUNG
 62
     7
100
AcDb2dPolyline
 66
     1
 10
0.0
 20
0.0
 30
0.0
  0
VERTEX
  5
565
330
564
100
AcDbEntity
  8
BEMA_U_00DFUNG
 62
     7
100
AcDbVertex
100
AcDb2dVertex
 10
69.40304431858713
 20
228.9709864282177
 30
0.0
  0
VERTEX
  5
566
330
564
100
AcDbEntity
  8
BEMA_U_00DFUNG
 62
     7
100
AcDbVertex
100
AcDb2dVertex
 10
69.81579431848398
 20
228.9709864282177
 30
0.0
  0
SEQEND
  5
567
330
564
100
AcDbEntity
  8
BEMA_U_00DFUNG
 62
     7
  0
POLYLINE
  5
568
330
1F
100
AcDbEntity
  8
BEMA_U_00DFUNG
 62
     7
100
AcDb2dPolyline
 66
     1
 10
0.0
 20
0.0
 30
0.0
  0
VERTEX
  5
569
330
568
100
AcDbEntity
  8
BEMA_U_00DFUNG
 62
     7
100
AcDbVertex
100
AcDb2dVertex
 10
69.40304431858713
 20
228.9205392060081
 30
0.0
  0
VERTEX
  5
56A
330
568
100
AcDbEntity
  8
BEMA_U_00DFUNG
 62
     7
100
AcDbVertex
100
AcDb2dVertex
 10
70.20173320727639
 20
228.9205392060081
 30
0.0
  0
SEQEND
  5
56B
330
568
100
AcDbEntity
  8
BEMA_U_00DFUNG
 62
     7
  0
POLYLINE
  5
56C
330
1F
100
AcDbEntity
  8
BEMA_U_00DFUNG
 62
     7
100
AcDb2dPolyline
 66
     1
 10
0.0
 20
0.0
 30
0.0
  0
VERTEX
  5
56D
330
56C
100
AcDbEntity
  8
BEMA_U_00DFUNG
 62
     7
100
AcDbVertex
100
AcDb2dVertex
 10
69.40304431858713
 20
228.8697392060207
 30
0.0
  0
VERTEX
  5
56E
330
56C
100
AcDbEntity
  8
BEMA_U_00DFUNG
 62
     7
100
AcDbVertex
100
AcDb2dVertex
 10
70.58767209606881
 20
228.8697392060207
 30
0.0
  0
SEQEND
  5
56F
330
56C
100
AcDbEntity
  8
BEMA_U_00DFUNG
 62
     7
  0
POLYLINE
  5
570
330
1F
100
AcDbEntity
  8
BEMA_U_00DFUNG
 62
     7
100
AcDb2dPolyline
 66
     1
 10
0.0
 20
0.0
 30
0.0
  0
VERTEX
  5
571
330
570
100
AcDbEntity
  8
BEMA_U_00DFUNG
 62
     7
100
AcDbVertex
100
AcDb2dVertex
 10
69.40304431858713
 20
228.8189392060334
 30
0.0
  0
VERTEX
  5
572
330
570
100
AcDbEntity
  8
BEMA_U_00DFUNG
 62
     7
100
AcDbVertex
100
AcDb2dVertex
 10
70.97361098486124
 20
228.8189392060334
 30
0.0
  0
SEQEND
  5
573
330
570
100
AcDbEntity
  8
BEMA_U_00DFUNG
 62
     7
  0
POLYLINE
  5
574
330
1F
100
AcDbEntity
  8
BEMA_U_00DFUNG
 62
     7
100
AcDb2dPolyline
 66
     1
 10
0.0
 20
0.0
 30
0.0
  0
VERTEX
  5
575
330
574
100
AcDbEntity
  8
BEMA_U_00DFUNG
 62
     7
100
AcDbVertex
100
AcDb2dVertex
 10
69.40304431858713
 20
228.768139206046
 30
0.0
  0
VERTEX
  5
576
330
574
100
AcDbEntity
  8
BEMA_U_00DFUNG
 62
     7
100
AcDbVertex
100
AcDb2dVertex
 10
71.3591970958759
 20
228.768139206046
 30
0.0
  0
SEQEND
  5
577
330
574
100
AcDbEntity
  8
BEMA_U_00DFUNG
 62
     7
  0
POLYLINE
  5
578
330
1F
100
AcDbEntity
  8
BEMA_U_00DFUNG
 62
     7
100
AcDb2dPolyline
 66
     1
 10
0.0
 20
0.0
 30
0.0
  0
VERTEX
  5
579
330
578
100
AcDbEntity
  8
BEMA_U_00DFUNG
 62
     7
100
AcDbVertex
100
AcDb2dVertex
 10
69.40304431858713
 20
228.7173392060589
 30
0.0
  0
VERTEX
  5
57A
330
578
100
AcDbEntity
  8
BEMA_U_00DFUNG
 62
     7
100
AcDbVertex
100
AcDb2dVertex
 10
71.74513598466832
 20
228.7173392060589
 30
0.0
  0
SEQEND
  5
57B
330
578
100
AcDbEntity
  8
BEMA_U_00DFUNG
 62
     7
  0
POLYLINE
  5
57C
330
1F
100
AcDbEntity
  8
BEMA_U_00DFUNG
 62
     7
100
AcDb2dPolyline
 66
     1
 10
0.0
 20
0.0
 30
0.0
  0
VERTEX
  5
57D
330
57C
100
AcDbEntity
  8
BEMA_U_00DFUNG
 62
     7
100
AcDbVertex
100
AcDb2dVertex
 10
69.40304431858713
 20
228.6665392060715
 30
0.0
  0
VERTEX
  5
57E
330
57C
100
AcDbEntity
  8
BEMA_U_00DFUNG
 62
     7
100
AcDbVertex
100
AcDb2dVertex
 10
72.13107487346075
 20
228.6665392060715
 30
0.0
  0
SEQEND
  5
57F
330
57C
100
AcDbEntity
  8
BEMA_U_00DFUNG
 62
     7
  0
POLYLINE
  5
580
330
1F
100
AcDbEntity
  8
BEMA_U_00DFUNG
 62
     7
100
AcDb2dPolyline
 66
     1
 10
0.0
 20
0.0
 30
0.0
  0
VERTEX
  5
581
330
580
100
AcDbEntity
  8
BEMA_U_00DFUNG
 62
     7
100
AcDbVertex
100
AcDb2dVertex
 10
69.40304431858713
 20
228.6157392060842
 30
0.0
  0
VERTEX
  5
582
330
580
100
AcDbEntity
  8
BEMA_U_00DFUNG
 62
     7
100
AcDbVertex
100
AcDb2dVertex
 10
72.51701376225317
 20
228.6157392060842
 30
0.0
  0
SEQEND
  5
583
330
580
100
AcDbEntity
  8
BEMA_U_00DFUNG
 62
     7
  0
POLYLINE
  5
584
330
1F
100
AcDbEntity
  8
BEMA_U_00DFUNG
 62
     7
100
AcDb2dPolyline
 66
     1
 10
0.0
 20
0.0
 30
0.0
  0
VERTEX
  5
585
330
584
100
AcDbEntity
  8
BEMA_U_00DFUNG
 62
     7
100
AcDbVertex
100
AcDb2dVertex
 10
69.40304431858713
 20
228.5649392060971
 30
0.0
  0
VERTEX
  5
586
330
584
100
AcDbEntity
  8
BEMA_U_00DFUNG
 62
     7
100
AcDbVertex
100
AcDb2dVertex
 10
72.90259987326783
 20
228.5649392060971
 30
0.0
  0
SEQEND
  5
587
330
584
100
AcDbEntity
  8
BEMA_U_00DFUNG
 62
     7
  0
POLYLINE
  5
588
330
1F
100
AcDbEntity
  8
BEMA_U_00DFUNG
 62
     7
100
AcDb2dPolyline
 66
     1
 10
0.0
 20
0.0
 30
0.0
  0
VERTEX
  5
589
330
588
100
AcDbEntity
  8
BEMA_U_00DFUNG
 62
     7
100
AcDbVertex
100
AcDb2dVertex
 10
69.40304431858713
 20
228.1073864284335
 30
0.0
  0
VERTEX
  5
58A
330
588
100
AcDbEntity
  8
BEMA_U_00DFUNG
 62
     7
100
AcDbVertex
100
AcDb2dVertex
 10
69.43020820746932
 20
228.1073864284335
 30
0.0
  0
SEQEND
  5
58B
330
588
100
AcDbEntity
  8
BEMA_U_00DFUNG
 62
     7
  0
POLYLINE
  5
58C
330
1F
100
AcDbEntity
  8
BEMA_U_00DFUNG
 62
     7
100
AcDb2dPolyline
 66
     1
 10
0.0
 20
0.0
 30
0.0
  0
VERTEX
  5
58D
330
58C
100
AcDbEntity
  8
BEMA_U_00DFUNG
 62
     7
100
AcDbVertex
100
AcDb2dVertex
 10
69.40304431858713
 20
228.1073864284335
 30
0.0
  0
VERTEX
  5
58E
330
58C
100
AcDbEntity
  8
BEMA_U_00DFUNG
 62
     7
100
AcDbVertex
100
AcDb2dVertex
 10
69.43020820746932
 20
228.1073864284335
 30
0.0
  0
SEQEND
  5
58F
330
58C
100
AcDbEntity
  8
BEMA_U_00DFUNG
 62
     7
  0
POLYLINE
  5
590
330
1F
100
AcDbEntity
  8
BEMA_U_00DFUNG
 62
     7
100
AcDb2dPolyline
 66
     1
 10
0.0
 20
0.0
 30
0.0
  0
VERTEX
  5
591
330
590
100
AcDbEntity
  8
BEMA_U_00DFUNG
 62
     7
100
AcDbVertex
100
AcDb2dVertex
 10
69.40304431858713
 20
228.1581864284209
 30
0.0
  0
VERTEX
  5
592
330
590
100
AcDbEntity
  8
BEMA_U_00DFUNG
 62
     7
100
AcDbVertex
100
AcDb2dVertex
 10
69.81579431848398
 20
228.1581864284209
 30
0.0
  0
SEQEND
  5
593
330
590
100
AcDbEntity
  8
BEMA_U_00DFUNG
 62
     7
  0
POLYLINE
  5
594
330
1F
100
AcDbEntity
  8
BEMA_U_00DFUNG
 62
     7
100
AcDb2dPolyline
 66
     1
 10
0.0
 20
0.0
 30
0.0
  0
VERTEX
  5
595
330
594
100
AcDbEntity
  8
BEMA_U_00DFUNG
 62
     7
100
AcDbVertex
100
AcDb2dVertex
 10
69.40304431858713
 20
228.2089864284083
 30
0.0
  0
VERTEX
  5
596
330
594
100
AcDbEntity
  8
BEMA_U_00DFUNG
 62
     7
100
AcDbVertex
100
AcDb2dVertex
 10
70.20173320727639
 20
228.2089864284083
 30
0.0
  0
SEQEND
  5
597
330
594
100
AcDbEntity
  8
BEMA_U_00DFUNG
 62
     7
  0
POLYLINE
  5
598
330
1F
100
AcDbEntity
  8
BEMA_U_00DFUNG
 62
     7
100
AcDb2dPolyline
 66
     1
 10
0.0
 20
0.0
 30
0.0
  0
VERTEX
  5
599
330
598
100
AcDbEntity
  8
BEMA_U_00DFUNG
 62
     7
100
AcDbVertex
100
AcDb2dVertex
 10
69.40304431858713
 20
228.2597864283954
 30
0.0
  0
VERTEX
  5
59A
330
598
100
AcDbEntity
  8
BEMA_U_00DFUNG
 62
     7
100
AcDbVertex
100
AcDb2dVertex
 10
70.58767209606881
 20
228.2597864283954
 30
0.0
  0
SEQEND
  5
59B
330
598
100
AcDbEntity
  8
BEMA_U_00DFUNG
 62
     7
  0
POLYLINE
  5
59C
330
1F
100
AcDbEntity
  8
BEMA_U_00DFUNG
 62
     7
100
AcDb2dPolyline
 66
     1
 10
0.0
 20
0.0
 30
0.0
  0
VERTEX
  5
59D
330
59C
100
AcDbEntity
  8
BEMA_U_00DFUNG
 62
     7
100
AcDbVertex
100
AcDb2dVertex
 10
69.40304431858713
 20
228.3105864283827
 30
0.0
  0
VERTEX
  5
59E
330
59C
100
AcDbEntity
  8
BEMA_U_00DFUNG
 62
     7
100
AcDbVertex
100
AcDb2dVertex
 10
70.97361098486124
 20
228.3105864283827
 30
0.0
  0
SEQEND
  5
59F
330
59C
100
AcDbEntity
  8
BEMA_U_00DFUNG
 62
     7
  0
POLYLINE
  5
5A0
330
1F
100
AcDbEntity
  8
BEMA_U_00DFUNG
 62
     7
100
AcDb2dPolyline
 66
     1
 10
0.0
 20
0.0
 30
0.0
  0
VERTEX
  5
5A1
330
5A0
100
AcDbEntity
  8
BEMA_U_00DFUNG
 62
     7
100
AcDbVertex
100
AcDb2dVertex
 10
69.40304431858713
 20
228.3613864283701
 30
0.0
  0
VERTEX
  5
5A2
330
5A0
100
AcDbEntity
  8
BEMA_U_00DFUNG
 62
     7
100
AcDbVertex
100
AcDb2dVertex
 10
71.3591970958759
 20
228.3613864283701
 30
0.0
  0
SEQEND
  5
5A3
330
5A0
100
AcDbEntity
  8
BEMA_U_00DFUNG
 62
     7
  0
POLYLINE
  5
5A4
330
1F
100
AcDbEntity
  8
BEMA_U_00DFUNG
 62
     7
100
AcDb2dPolyline
 66
     1
 10
0.0
 20
0.0
 30
0.0
  0
VERTEX
  5
5A5
330
5A4
100
AcDbEntity
  8
BEMA_U_00DFUNG
 62
     7
100
AcDbVertex
100
AcDb2dVertex
 10
69.40304431858713
 20
228.4125392061349
 30
0.0
  0
VERTEX
  5
5A6
330
5A4
100
AcDbEntity
  8
BEMA_U_00DFUNG
 62
     7
100
AcDbVertex
100
AcDb2dVertex
 10
71.74513598466832
 20
228.4125392061349
 30
0.0
  0
SEQEND
  5
5A7
330
5A4
100
AcDbEntity
  8
BEMA_U_00DFUNG
 62
     7
  0
POLYLINE
  5
5A8
330
1F
100
AcDbEntity
  8
BEMA_U_00DFUNG
 62
     7
100
AcDb2dPolyline
 66
     1
 10
0.0
 20
0.0
 30
0.0
  0
VERTEX
  5
5A9
330
5A8
100
AcDbEntity
  8
BEMA_U_00DFUNG
 62
     7
100
AcDbVertex
100
AcDb2dVertex
 10
69.40304431858713
 20
228.4633392061223
 30
0.0
  0
VERTEX
  5
5AA
330
5A8
100
AcDbEntity
  8
BEMA_U_00DFUNG
 62
     7
100
AcDbVertex
100
AcDb2dVertex
 10
72.13107487346075
 20
228.4633392061223
 30
0.0
  0
SEQEND
  5
5AB
330
5A8
100
AcDbEntity
  8
BEMA_U_00DFUNG
 62
     7
  0
POLYLINE
  5
5AC
330
1F
100
AcDbEntity
  8
BEMA_U_00DFUNG
 62
     7
100
AcDb2dPolyline
 66
     1
 10
0.0
 20
0.0
 30
0.0
  0
VERTEX
  5
5AD
330
5AC
100
AcDbEntity
  8
BEMA_U_00DFUNG
 62
     7
100
AcDbVertex
100
AcDb2dVertex
 10
69.40304431858713
 20
228.5141392061097
 30
0.0
  0
VERTEX
  5
5AE
330
5AC
100
AcDbEntity
  8
BEMA_U_00DFUNG
 62
     7
100
AcDbVertex
100
AcDb2dVertex
 10
72.51701376225317
 20
228.5141392061097
 30
0.0
  0
SEQEND
  5
5AF
330
5AC
100
AcDbEntity
  8
BEMA_U_00DFUNG
 62
     7
  0
POLYLINE
  5
5B0
330
1F
100
AcDbEntity
  8
BEMA_U_00DFUNG
 62
     7
100
AcDb2dPolyline
 66
     1
 10
0.0
 20
0.0
 30
0.0
  0
VERTEX
  5
5B1
330
5B0
100
AcDbEntity
  8
BEMA_U_00DFUNG
 62
     7
100
AcDbVertex
100
AcDb2dVertex
 10
69.40304431858713
 20
228.5649392060971
 30
0.0
  0
VERTEX
  5
5B2
330
5B0
100
AcDbEntity
  8
BEMA_U_00DFUNG
 62
     7
100
AcDbVertex
100
AcDb2dVertex
 10
72.90259987326783
 20
228.5649392060971
 30
0.0
  0
SEQEND
  5
5B3
330
5B0
100
AcDbEntity
  8
BEMA_U_00DFUNG
 62
     7
  0
POLYLINE
  5
5B4
330
1F
100
AcDbEntity
  8
BEMA_U_00DFUNG
 62
     7
100
AcDb2dPolyline
 66
     1
 10
0.0
 20
0.0
 30
0.0
  0
VERTEX
  5
5B5
330
5B4
100
AcDbEntity
  8
BEMA_U_00DFUNG
 62
     7
100
AcDbVertex
100
AcDb2dVertex
 10
60.40297765417058
 20
207.5647836557915
 30
0.0
  0
VERTEX
  5
5B6
330
5B4
100
AcDbEntity
  8
BEMA_U_00DFUNG
 62
     7
100
AcDbVertex
100
AcDb2dVertex
 10
60.40297765417058
 20
220.5646447636528
 30
0.0
  0
SEQEND
  5
5B7
330
5B4
100
AcDbEntity
  8
BEMA_U_00DFUNG
 62
     7
  0
POLYLINE
  5
5B8
330
1F
100
AcDbEntity
  8
BEMA_U_00DFUNG
 62
     7
100
AcDb2dPolyline
 66
     1
 10
0.0
 20
0.0
 30
0.0
  0
VERTEX
  5
5B9
330
5B8
100
AcDbEntity
  8
BEMA_U_00DFUNG
 62
     7
100
AcDbVertex
100
AcDb2dVertex
 10
65.40289709736497
 20
207.4645947669278
 30
0.0
  0
VERTEX
  5
5BA
330
5B8
100
AcDbEntity
  8
BEMA_U_00DFUNG
 62
     7
100
AcDbVertex
100
AcDb2dVertex
 10
65.40289709736497
 20
220.5646447636528
 30
0.0
  0
SEQEND
  5
5BB
330
5B8
100
AcDbEntity
  8
BEMA_U_00DFUNG
 62
     7
  0
POLYLINE
  5
5BC
330
1F
100
AcDbEntity
  8
BEMA_U_00DFUNG
 62
     7
100
AcDb2dPolyline
 66
     1
 10
0.0
 20
0.0
 30
0.0
  0
VERTEX
  5
5BD
330
5BC
100
AcDbEntity
  8
BEMA_U_00DFUNG
 62
     7
100
AcDbVertex
100
AcDb2dVertex
 10
51.65303043413557
 20
218.565100319708
 30
0.0
  0
VERTEX
  5
5BE
330
5BC
100
AcDbEntity
  8
BEMA_U_00DFUNG
 62
     7
100
AcDbVertex
100
AcDb2dVertex
 10
74.15284431739967
 20
218.565100319708
 30
0.0
  0
SEQEND
  5
5BF
330
5BC
100
AcDbEntity
  8
BEMA_U_00DFUNG
 62
     7
  0
POLYLINE
  5
5C0
330
1F
100
AcDbEntity
  8
BEMA_U_00DFUNG
 62
     7
100
AcDb2dPolyline
 66
     1
 10
0.0
 20
0.0
 30
0.0
  0
VERTEX
  5
5C1
330
5C0
100
AcDbEntity
  8
BEMA_U_00DFUNG
 62
     7
100
AcDbVertex
100
AcDb2dVertex
 10
60.40297765417058
 20
218.565100319708
 30
0.0
  0
VERTEX
  5
5C2
330
5C0
100
AcDbEntity
  8
BEMA_U_00DFUNG
 62
     7
100
AcDbVertex
100
AcDb2dVertex
 10
56.90306932171213
 20
219.0258280973705
 30
0.0
  0
VERTEX
  5
5C3
330
5C0
100
AcDbEntity
  8
BEMA_U_00DFUNG
 62
     7
100
AcDbVertex
100
AcDb2dVertex
 10
56.90306932171213
 20
218.1040197642678
 30
0.0
  0
VERTEX
  5
5C4
330
5C0
100
AcDbEntity
  8
BEMA_U_00DFUNG
 62
     7
100
AcDbVertex
100
AcDb2dVertex
 10
60.40297765417058
 20
218.565100319708
 30
0.0
  0
SEQEND
  5
5C5
330
5C0
100
AcDbEntity
  8
BEMA_U_00DFUNG
 62
     7
  0
POLYLINE
  5
5C6
330
1F
100
AcDbEntity
  8
BEMA_U_00DFUNG
 62
     7
100
AcDb2dPolyline
 66
     1
 10
0.0
 20
0.0
 30
0.0
  0
VERTEX
  5
5C7
330
5C6
100
AcDbEntity
  8
BEMA_U_00DFUNG
 62
     7
100
AcDbVertex
100
AcDb2dVertex
 10
56.90306932171213
 20
219.021947541816
 30
0.0
  0
VERTEX
  5
5C8
330
5C6
100
AcDbEntity
  8
BEMA_U_00DFUNG
 62
     7
100
AcDbVertex
100
AcDb2dVertex
 10
56.93023321059431
 20
219.021947541816
 30
0.0
  0
SEQEND
  5
5C9
330
5C6
100
AcDbEntity
  8
BEMA_U_00DFUNG
 62
     7
  0
POLYLINE
  5
5CA
330
1F
100
AcDbEntity
  8
BEMA_U_00DFUNG
 62
     7
100
AcDb2dPolyline
 66
     1
 10
0.0
 20
0.0
 30
0.0
  0
VERTEX
  5
5CB
330
5CA
100
AcDbEntity
  8
BEMA_U_00DFUNG
 62
     7
100
AcDbVertex
100
AcDb2dVertex
 10
56.90306932171213
 20
219.021947541816
 30
0.0
  0
VERTEX
  5
5CC
330
5CA
100
AcDbEntity
  8
BEMA_U_00DFUNG
 62
     7
100
AcDbVertex
100
AcDb2dVertex
 10
56.93023321059431
 20
219.021947541816
 30
0.0
  0
SEQEND
  5
5CD
330
5CA
100
AcDbEntity
  8
BEMA_U_00DFUNG
 62
     7
  0
POLYLINE
  5
5CE
330
1F
100
AcDbEntity
  8
BEMA_U_00DFUNG
 62
     7
100
AcDb2dPolyline
 66
     1
 10
0.0
 20
0.0
 30
0.0
  0
VERTEX
  5
5CF
330
5CE
100
AcDbEntity
  8
BEMA_U_00DFUNG
 62
     7
100
AcDbVertex
100
AcDb2dVertex
 10
56.90306932171213
 20
218.9711475418287
 30
0.0
  0
VERTEX
  5
5D0
330
5CE
100
AcDbEntity
  8
BEMA_U_00DFUNG
 62
     7
100
AcDbVertex
100
AcDb2dVertex
 10
57.31617209938673
 20
218.9711475418287
 30
0.0
  0
SEQEND
  5
5D1
330
5CE
100
AcDbEntity
  8
BEMA_U_00DFUNG
 62
     7
  0
POLYLINE
  5
5D2
330
1F
100
AcDbEntity
  8
BEMA_U_00DFUNG
 62
     7
100
AcDb2dPolyline
 66
     1
 10
0.0
 20
0.0
 30
0.0
  0
VERTEX
  5
5D3
330
5D2
100
AcDbEntity
  8
BEMA_U_00DFUNG
 62
     7
100
AcDbVertex
100
AcDb2dVertex
 10
56.90306932171213
 20
218.920700319619
 30
0.0
  0
VERTEX
  5
5D4
330
5D2
100
AcDbEntity
  8
BEMA_U_00DFUNG
 62
     7
100
AcDbVertex
100
AcDb2dVertex
 10
57.70140543262363
 20
218.920700319619
 30
0.0
  0
SEQEND
  5
5D5
330
5D2
100
AcDbEntity
  8
BEMA_U_00DFUNG
 62
     7
  0
POLYLINE
  5
5D6
330
1F
100
AcDbEntity
  8
BEMA_U_00DFUNG
 62
     7
100
AcDb2dPolyline
 66
     1
 10
0.0
 20
0.0
 30
0.0
  0
VERTEX
  5
5D7
330
5D6
100
AcDbEntity
  8
BEMA_U_00DFUNG
 62
     7
100
AcDbVertex
100
AcDb2dVertex
 10
56.90306932171213
 20
218.869900319632
 30
0.0
  0
VERTEX
  5
5D8
330
5D6
100
AcDbEntity
  8
BEMA_U_00DFUNG
 62
     7
100
AcDbVertex
100
AcDb2dVertex
 10
58.08769709919382
 20
218.869900319632
 30
0.0
  0
SEQEND
  5
5D9
330
5D6
100
AcDbEntity
  8
BEMA_U_00DFUNG
 62
     7
  0
POLYLINE
  5
5DA
330
1F
100
AcDbEntity
  8
BEMA_U_00DFUNG
 62
     7
100
AcDb2dPolyline
 66
     1
 10
0.0
 20
0.0
 30
0.0
  0
VERTEX
  5
5DB
330
5DA
100
AcDbEntity
  8
BEMA_U_00DFUNG
 62
     7
100
AcDbVertex
100
AcDb2dVertex
 10
56.90306932171213
 20
218.8191003196446
 30
0.0
  0
VERTEX
  5
5DC
330
5DA
100
AcDbEntity
  8
BEMA_U_00DFUNG
 62
     7
100
AcDbVertex
100
AcDb2dVertex
 10
58.47363598798623
 20
218.8191003196446
 30
0.0
  0
SEQEND
  5
5DD
330
5DA
100
AcDbEntity
  8
BEMA_U_00DFUNG
 62
     7
  0
POLYLINE
  5
5DE
330
1F
100
AcDbEntity
  8
BEMA_U_00DFUNG
 62
     7
100
AcDb2dPolyline
 66
     1
 10
0.0
 20
0.0
 30
0.0
  0
VERTEX
  5
5DF
330
5DE
100
AcDbEntity
  8
BEMA_U_00DFUNG
 62
     7
100
AcDbVertex
100
AcDb2dVertex
 10
56.90306932171213
 20
218.7683003196572
 30
0.0
  0
VERTEX
  5
5E0
330
5DE
100
AcDbEntity
  8
BEMA_U_00DFUNG
 62
     7
100
AcDbVertex
100
AcDb2dVertex
 10
58.85957487677866
 20
218.7683003196572
 30
0.0
  0
SEQEND
  5
5E1
330
5DE
100
AcDbEntity
  8
BEMA_U_00DFUNG
 62
     7
  0
POLYLINE
  5
5E2
330
1F
100
AcDbEntity
  8
BEMA_U_00DFUNG
 62
     7
100
AcDb2dPolyline
 66
     1
 10
0.0
 20
0.0
 30
0.0
  0
VERTEX
  5
5E3
330
5E2
100
AcDbEntity
  8
BEMA_U_00DFUNG
 62
     7
100
AcDbVertex
100
AcDb2dVertex
 10
56.90306932171213
 20
218.7175003196698
 30
0.0
  0
VERTEX
  5
5E4
330
5E2
100
AcDbEntity
  8
BEMA_U_00DFUNG
 62
     7
100
AcDbVertex
100
AcDb2dVertex
 10
59.24516098779332
 20
218.7175003196698
 30
0.0
  0
SEQEND
  5
5E5
330
5E2
100
AcDbEntity
  8
BEMA_U_00DFUNG
 62
     7
  0
POLYLINE
  5
5E6
330
1F
100
AcDbEntity
  8
BEMA_U_00DFUNG
 62
     7
100
AcDb2dPolyline
 66
     1
 10
0.0
 20
0.0
 30
0.0
  0
VERTEX
  5
5E7
330
5E6
100
AcDbEntity
  8
BEMA_U_00DFUNG
 62
     7
100
AcDbVertex
100
AcDb2dVertex
 10
56.90306932171213
 20
218.6667003196825
 30
0.0
  0
VERTEX
  5
5E8
330
5E6
100
AcDbEntity
  8
BEMA_U_00DFUNG
 62
     7
100
AcDbVertex
100
AcDb2dVertex
 10
59.63109987658574
 20
218.6667003196825
 30
0.0
  0
SEQEND
  5
5E9
330
5E6
100
AcDbEntity
  8
BEMA_U_00DFUNG
 62
     7
  0
POLYLINE
  5
5EA
330
1F
100
AcDbEntity
  8
BEMA_U_00DFUNG
 62
     7
100
AcDb2dPolyline
 66
     1
 10
0.0
 20
0.0
 30
0.0
  0
VERTEX
  5
5EB
330
5EA
100
AcDbEntity
  8
BEMA_U_00DFUNG
 62
     7
100
AcDbVertex
100
AcDb2dVertex
 10
56.90306932171213
 20
218.6159003196954
 30
0.0
  0
VERTEX
  5
5EC
330
5EA
100
AcDbEntity
  8
BEMA_U_00DFUNG
 62
     7
100
AcDbVertex
100
AcDb2dVertex
 10
60.01703876537817
 20
218.6159003196954
 30
0.0
  0
SEQEND
  5
5ED
330
5EA
100
AcDbEntity
  8
BEMA_U_00DFUNG
 62
     7
  0
POLYLINE
  5
5EE
330
1F
100
AcDbEntity
  8
BEMA_U_00DFUNG
 62
     7
100
AcDb2dPolyline
 66
     1
 10
0.0
 20
0.0
 30
0.0
  0
VERTEX
  5
5EF
330
5EE
100
AcDbEntity
  8
BEMA_U_00DFUNG
 62
     7
100
AcDbVertex
100
AcDb2dVertex
 10
56.90306932171213
 20
218.565100319708
 30
0.0
  0
VERTEX
  5
5F0
330
5EE
100
AcDbEntity
  8
BEMA_U_00DFUNG
 62
     7
100
AcDbVertex
100
AcDb2dVertex
 10
60.40297765417058
 20
218.565100319708
 30
0.0
  0
SEQEND
  5
5F1
330
5EE
100
AcDbEntity
  8
BEMA_U_00DFUNG
 62
     7
  0
POLYLINE
  5
5F2
330
1F
100
AcDbEntity
  8
BEMA_U_00DFUNG
 62
     7
100
AcDb2dPolyline
 66
     1
 10
0.0
 20
0.0
 30
0.0
  0
VERTEX
  5
5F3
330
5F2
100
AcDbEntity
  8
BEMA_U_00DFUNG
 62
     7
100
AcDbVertex
100
AcDb2dVertex
 10
56.90306932171213
 20
218.1075475420448
 30
0.0
  0
VERTEX
  5
5F4
330
5F2
100
AcDbEntity
  8
BEMA_U_00DFUNG
 62
     7
100
AcDbVertex
100
AcDb2dVertex
 10
56.93023321059431
 20
218.1075475420448
 30
0.0
  0
SEQEND
  5
5F5
330
5F2
100
AcDbEntity
  8
BEMA_U_00DFUNG
 62
     7
  0
POLYLINE
  5
5F6
330
1F
100
AcDbEntity
  8
BEMA_U_00DFUNG
 62
     7
100
AcDb2dPolyline
 66
     1
 10
0.0
 20
0.0
 30
0.0
  0
VERTEX
  5
5F7
330
5F6
100
AcDbEntity
  8
BEMA_U_00DFUNG
 62
     7
100
AcDbVertex
100
AcDb2dVertex
 10
56.90306932171213
 20
218.1075475420448
 30
0.0
  0
VERTEX
  5
5F8
330
5F6
100
AcDbEntity
  8
BEMA_U_00DFUNG
 62
     7
100
AcDbVertex
100
AcDb2dVertex
 10
56.93023321059431
 20
218.1075475420448
 30
0.0
  0
SEQEND
  5
5F9
330
5F6
100
AcDbEntity
  8
BEMA_U_00DFUNG
 62
     7
  0
POLYLINE
  5
5FA
330
1F
100
AcDbEntity
  8
BEMA_U_00DFUNG
 62
     7
100
AcDb2dPolyline
 66
     1
 10
0.0
 20
0.0
 30
0.0
  0
VERTEX
  5
5FB
330
5FA
100
AcDbEntity
  8
BEMA_U_00DFUNG
 62
     7
100
AcDbVertex
100
AcDb2dVertex
 10
56.90306932171213
 20
218.1583475420318
 30
0.0
  0
VERTEX
  5
5FC
330
5FA
100
AcDbEntity
  8
BEMA_U_00DFUNG
 62
     7
100
AcDbVertex
100
AcDb2dVertex
 10
57.31617209938673
 20
218.1583475420318
 30
0.0
  0
SEQEND
  5
5FD
330
5FA
100
AcDbEntity
  8
BEMA_U_00DFUNG
 62
     7
  0
POLYLINE
  5
5FE
330
1F
100
AcDbEntity
  8
BEMA_U_00DFUNG
 62
     7
100
AcDb2dPolyline
 66
     1
 10
0.0
 20
0.0
 30
0.0
  0
VERTEX
  5
5FF
330
5FE
100
AcDbEntity
  8
BEMA_U_00DFUNG
 62
     7
100
AcDbVertex
100
AcDb2dVertex
 10
56.90306932171213
 20
218.2091475420192
 30
0.0
  0
VERTEX
  5
600
330
5FE
100
AcDbEntity
  8
BEMA_U_00DFUNG
 62
     7
100
AcDbVertex
100
AcDb2dVertex
 10
57.70140543262363
 20
218.2091475420192
 30
0.0
  0
SEQEND
  5
601
330
5FE
100
AcDbEntity
  8
BEMA_U_00DFUNG
 62
     7
  0
POLYLINE
  5
602
330
1F
100
AcDbEntity
  8
BEMA_U_00DFUNG
 62
     7
100
AcDb2dPolyline
 66
     1
 10
0.0
 20
0.0
 30
0.0
  0
VERTEX
  5
603
330
602
100
AcDbEntity
  8
BEMA_U_00DFUNG
 62
     7
100
AcDbVertex
100
AcDb2dVertex
 10
56.90306932171213
 20
218.2599475420066
 30
0.0
  0
VERTEX
  5
604
330
602
100
AcDbEntity
  8
BEMA_U_00DFUNG
 62
     7
100
AcDbVertex
100
AcDb2dVertex
 10
58.08769709919382
 20
218.2599475420066
 30
0.0
  0
SEQEND
  5
605
330
602
100
AcDbEntity
  8
BEMA_U_00DFUNG
 62
     7
  0
POLYLINE
  5
606
330
1F
100
AcDbEntity
  8
BEMA_U_00DFUNG
 62
     7
100
AcDb2dPolyline
 66
     1
 10
0.0
 20
0.0
 30
0.0
  0
VERTEX
  5
607
330
606
100
AcDbEntity
  8
BEMA_U_00DFUNG
 62
     7
100
AcDbVertex
100
AcDb2dVertex
 10
56.90306932171213
 20
218.3107475419937
 30
0.0
  0
VERTEX
  5
608
330
606
100
AcDbEntity
  8
BEMA_U_00DFUNG
 62
     7
100
AcDbVertex
100
AcDb2dVertex
 10
58.47363598798623
 20
218.3107475419937
 30
0.0
  0
SEQEND
  5
609
330
606
100
AcDbEntity
  8
BEMA_U_00DFUNG
 62
     7
  0
POLYLINE
  5
60A
330
1F
100
AcDbEntity
  8
BEMA_U_00DFUNG
 62
     7
100
AcDb2dPolyline
 66
     1
 10
0.0
 20
0.0
 30
0.0
  0
VERTEX
  5
60B
330
60A
100
AcDbEntity
  8
BEMA_U_00DFUNG
 62
     7
100
AcDbVertex
100
AcDb2dVertex
 10
56.90306932171213
 20
218.361547541981
 30
0.0
  0
VERTEX
  5
60C
330
60A
100
AcDbEntity
  8
BEMA_U_00DFUNG
 62
     7
100
AcDbVertex
100
AcDb2dVertex
 10
58.85957487677866
 20
218.361547541981
 30
0.0
  0
SEQEND
  5
60D
330
60A
100
AcDbEntity
  8
BEMA_U_00DFUNG
 62
     7
  0
POLYLINE
  5
60E
330
1F
100
AcDbEntity
  8
BEMA_U_00DFUNG
 62
     7
100
AcDb2dPolyline
 66
     1
 10
0.0
 20
0.0
 30
0.0
  0
VERTEX
  5
60F
330
60E
100
AcDbEntity
  8
BEMA_U_00DFUNG
 62
     7
100
AcDbVertex
100
AcDb2dVertex
 10
56.90306932171213
 20
218.4123475419684
 30
0.0
  0
VERTEX
  5
610
330
60E
100
AcDbEntity
  8
BEMA_U_00DFUNG
 62
     7
100
AcDbVertex
100
AcDb2dVertex
 10
59.24516098779332
 20
218.4123475419684
 30
0.0
  0
SEQEND
  5
611
330
60E
100
AcDbEntity
  8
BEMA_U_00DFUNG
 62
     7
  0
POLYLINE
  5
612
330
1F
100
AcDbEntity
  8
BEMA_U_00DFUNG
 62
     7
100
AcDb2dPolyline
 66
     1
 10
0.0
 20
0.0
 30
0.0
  0
VERTEX
  5
613
330
612
100
AcDbEntity
  8
BEMA_U_00DFUNG
 62
     7
100
AcDbVertex
100
AcDb2dVertex
 10
56.90306932171213
 20
218.4635003197336
 30
0.0
  0
VERTEX
  5
614
330
612
100
AcDbEntity
  8
BEMA_U_00DFUNG
 62
     7
100
AcDbVertex
100
AcDb2dVertex
 10
59.63109987658574
 20
218.4635003197336
 30
0.0
  0
SEQEND
  5
615
330
612
100
AcDbEntity
  8
BEMA_U_00DFUNG
 62
     7
  0
POLYLINE
  5
616
330
1F
100
AcDbEntity
  8
BEMA_U_00DFUNG
 62
     7
100
AcDb2dPolyline
 66
     1
 10
0.0
 20
0.0
 30
0.0
  0
VERTEX
  5
617
330
616
100
AcDbEntity
  8
BEMA_U_00DFUNG
 62
     7
100
AcDbVertex
100
AcDb2dVertex
 10
56.90306932171213
 20
218.5143003197206
 30
0.0
  0
VERTEX
  5
618
330
616
100
AcDbEntity
  8
BEMA_U_00DFUNG
 62
     7
100
AcDbVertex
100
AcDb2dVertex
 10
60.01703876537817
 20
218.5143003197206
 30
0.0
  0
SEQEND
  5
619
330
616
100
AcDbEntity
  8
BEMA_U_00DFUNG
 62
     7
  0
POLYLINE
  5
61A
330
1F
100
AcDbEntity
  8
BEMA_U_00DFUNG
 62
     7
100
AcDb2dPolyline
 66
     1
 10
0.0
 20
0.0
 30
0.0
  0
VERTEX
  5
61B
330
61A
100
AcDbEntity
  8
BEMA_U_00DFUNG
 62
     7
100
AcDbVertex
100
AcDb2dVertex
 10
56.90306932171213
 20
218.565100319708
 30
0.0
  0
VERTEX
  5
61C
330
61A
100
AcDbEntity
  8
BEMA_U_00DFUNG
 62
     7
100
AcDbVertex
100
AcDb2dVertex
 10
60.40297765417058
 20
218.565100319708
 30
0.0
  0
SEQEND
  5
61D
330
61A
100
AcDbEntity
  8
BEMA_U_00DFUNG
 62
     7
  0
POLYLINE
  5
61E
330
1F
100
AcDbEntity
  8
BEMA_U_00DFUNG
 62
     7
100
AcDb2dPolyline
 66
     1
 10
0.0
 20
0.0
 30
0.0
  0
VERTEX
  5
61F
330
61E
100
AcDbEntity
  8
BEMA_U_00DFUNG
 62
     7
100
AcDbVertex
100
AcDb2dVertex
 10
65.40289709736497
 20
218.565100319708
 30
0.0
  0
VERTEX
  5
620
330
61E
100
AcDbEntity
  8
BEMA_U_00DFUNG
 62
     7
100
AcDbVertex
100
AcDb2dVertex
 10
68.90245265204567
 20
218.1040197642678
 30
0.0
  0
VERTEX
  5
621
330
61E
100
AcDbEntity
  8
BEMA_U_00DFUNG
 62
     7
100
AcDbVertex
100
AcDb2dVertex
 10
68.90245265204567
 20
219.0258280973705
 30
0.0
  0
VERTEX
  5
622
330
61E
100
AcDbEntity
  8
BEMA_U_00DFUNG
 62
     7
100
AcDbVertex
100
AcDb2dVertex
 10
65.40289709736497
 20
218.565100319708
 30
0.0
  0
SEQEND
  5
623
330
61E
100
AcDbEntity
  8
BEMA_U_00DFUNG
 62
     7
  0
POLYLINE
  5
624
330
1F
100
AcDbEntity
  8
BEMA_U_00DFUNG
 62
     7
100
AcDb2dPolyline
 66
     1
 10
0.0
 20
0.0
 30
0.0
  0
VERTEX
  5
625
330
624
100
AcDbEntity
  8
BEMA_U_00DFUNG
 62
     7
100
AcDbVertex
100
AcDb2dVertex
 10
68.90245265204567
 20
218.1075475420448
 30
0.0
  0
VERTEX
  5
626
330
624
100
AcDbEntity
  8
BEMA_U_00DFUNG
 62
     7
100
AcDbVertex
100
AcDb2dVertex
 10
68.87528876316348
 20
218.1075475420448
 30
0.0
  0
SEQEND
  5
627
330
624
100
AcDbEntity
  8
BEMA_U_00DFUNG
 62
     7
  0
POLYLINE
  5
628
330
1F
100
AcDbEntity
  8
BEMA_U_00DFUNG
 62
     7
100
AcDb2dPolyline
 66
     1
 10
0.0
 20
0.0
 30
0.0
  0
VERTEX
  5
629
330
628
100
AcDbEntity
  8
BEMA_U_00DFUNG
 62
     7
100
AcDbVertex
100
AcDb2dVertex
 10
68.90245265204567
 20
218.1075475420448
 30
0.0
  0
VERTEX
  5
62A
330
628
100
AcDbEntity
  8
BEMA_U_00DFUNG
 62
     7
100
AcDbVertex
100
AcDb2dVertex
 10
68.87528876316348
 20
218.1075475420448
 30
0.0
  0
SEQEND
  5
62B
330
628
100
AcDbEntity
  8
BEMA_U_00DFUNG
 62
     7
  0
POLYLINE
  5
62C
330
1F
100
AcDbEntity
  8
BEMA_U_00DFUNG
 62
     7
100
AcDb2dPolyline
 66
     1
 10
0.0
 20
0.0
 30
0.0
  0
VERTEX
  5
62D
330
62C
100
AcDbEntity
  8
BEMA_U_00DFUNG
 62
     7
100
AcDbVertex
100
AcDb2dVertex
 10
68.90245265204567
 20
218.1583475420318
 30
0.0
  0
VERTEX
  5
62E
330
62C
100
AcDbEntity
  8
BEMA_U_00DFUNG
 62
     7
100
AcDbVertex
100
AcDb2dVertex
 10
68.48970265214882
 20
218.1583475420318
 30
0.0
  0
SEQEND
  5
62F
330
62C
100
AcDbEntity
  8
BEMA_U_00DFUNG
 62
     7
  0
POLYLINE
  5
630
330
1F
100
AcDbEntity
  8
BEMA_U_00DFUNG
 62
     7
100
AcDb2dPolyline
 66
     1
 10
0.0
 20
0.0
 30
0.0
  0
VERTEX
  5
631
330
630
100
AcDbEntity
  8
BEMA_U_00DFUNG
 62
     7
100
AcDbVertex
100
AcDb2dVertex
 10
68.90245265204567
 20
218.2091475420192
 30
0.0
  0
VERTEX
  5
632
330
630
100
AcDbEntity
  8
BEMA_U_00DFUNG
 62
     7
100
AcDbVertex
100
AcDb2dVertex
 10
68.1037637633564
 20
218.2091475420192
 30
0.0
  0
SEQEND
  5
633
330
630
100
AcDbEntity
  8
BEMA_U_00DFUNG
 62
     7
  0
POLYLINE
  5
634
330
1F
100
AcDbEntity
  8
BEMA_U_00DFUNG
 62
     7
100
AcDb2dPolyline
 66
     1
 10
0.0
 20
0.0
 30
0.0
  0
VERTEX
  5
635
330
634
100
AcDbEntity
  8
BEMA_U_00DFUNG
 62
     7
100
AcDbVertex
100
AcDb2dVertex
 10
68.90245265204567
 20
218.2599475420066
 30
0.0
  0
VERTEX
  5
636
330
634
100
AcDbEntity
  8
BEMA_U_00DFUNG
 62
     7
100
AcDbVertex
100
AcDb2dVertex
 10
67.71782487456399
 20
218.2599475420066
 30
0.0
  0
SEQEND
  5
637
330
634
100
AcDbEntity
  8
BEMA_U_00DFUNG
 62
     7
  0
POLYLINE
  5
638
330
1F
100
AcDbEntity
  8
BEMA_U_00DFUNG
 62
     7
100
AcDb2dPolyline
 66
     1
 10
0.0
 20
0.0
 30
0.0
  0
VERTEX
  5
639
330
638
100
AcDbEntity
  8
BEMA_U_00DFUNG
 62
     7
100
AcDbVertex
100
AcDb2dVertex
 10
68.90245265204567
 20
218.3107475419937
 30
0.0
  0
VERTEX
  5
63A
330
638
100
AcDbEntity
  8
BEMA_U_00DFUNG
 62
     7
100
AcDbVertex
100
AcDb2dVertex
 10
67.33188598577156
 20
218.3107475419937
 30
0.0
  0
SEQEND
  5
63B
330
638
100
AcDbEntity
  8
BEMA_U_00DFUNG
 62
     7
  0
POLYLINE
  5
63C
330
1F
100
AcDbEntity
  8
BEMA_U_00DFUNG
 62
     7
100
AcDb2dPolyline
 66
     1
 10
0.0
 20
0.0
 30
0.0
  0
VERTEX
  5
63D
330
63C
100
AcDbEntity
  8
BEMA_U_00DFUNG
 62
     7
100
AcDbVertex
100
AcDb2dVertex
 10
68.90245265204567
 20
218.361547541981
 30
0.0
  0
VERTEX
  5
63E
330
63C
100
AcDbEntity
  8
BEMA_U_00DFUNG
 62
     7
100
AcDbVertex
100
AcDb2dVertex
 10
66.9462998747569
 20
218.361547541981
 30
0.0
  0
SEQEND
  5
63F
330
63C
100
AcDbEntity
  8
BEMA_U_00DFUNG
 62
     7
  0
POLYLINE
  5
640
330
1F
100
AcDbEntity
  8
BEMA_U_00DFUNG
 62
     7
100
AcDb2dPolyline
 66
     1
 10
0.0
 20
0.0
 30
0.0
  0
VERTEX
  5
641
330
640
100
AcDbEntity
  8
BEMA_U_00DFUNG
 62
     7
100
AcDbVertex
100
AcDb2dVertex
 10
68.90245265204567
 20
218.4123475419684
 30
0.0
  0
VERTEX
  5
642
330
640
100
AcDbEntity
  8
BEMA_U_00DFUNG
 62
     7
100
AcDbVertex
100
AcDb2dVertex
 10
66.56036098596448
 20
218.4123475419684
 30
0.0
  0
SEQEND
  5
643
330
640
100
AcDbEntity
  8
BEMA_U_00DFUNG
 62
     7
  0
POLYLINE
  5
644
330
1F
100
AcDbEntity
  8
BEMA_U_00DFUNG
 62
     7
100
AcDb2dPolyline
 66
     1
 10
0.0
 20
0.0
 30
0.0
  0
VERTEX
  5
645
330
644
100
AcDbEntity
  8
BEMA_U_00DFUNG
 62
     7
100
AcDbVertex
100
AcDb2dVertex
 10
68.90245265204567
 20
218.4635003197336
 30
0.0
  0
VERTEX
  5
646
330
644
100
AcDbEntity
  8
BEMA_U_00DFUNG
 62
     7
100
AcDbVertex
100
AcDb2dVertex
 10
66.17442209717206
 20
218.4635003197336
 30
0.0
  0
SEQEND
  5
647
330
644
100
AcDbEntity
  8
BEMA_U_00DFUNG
 62
     7
  0
POLYLINE
  5
648
330
1F
100
AcDbEntity
  8
BEMA_U_00DFUNG
 62
     7
100
AcDb2dPolyline
 66
     1
 10
0.0
 20
0.0
 30
0.0
  0
VERTEX
  5
649
330
648
100
AcDbEntity
  8
BEMA_U_00DFUNG
 62
     7
100
AcDbVertex
100
AcDb2dVertex
 10
68.90245265204567
 20
218.5143003197206
 30
0.0
  0
VERTEX
  5
64A
330
648
100
AcDbEntity
  8
BEMA_U_00DFUNG
 62
     7
100
AcDbVertex
100
AcDb2dVertex
 10
65.78848320837963
 20
218.5143003197206
 30
0.0
  0
SEQEND
  5
64B
330
648
100
AcDbEntity
  8
BEMA_U_00DFUNG
 62
     7
  0
POLYLINE
  5
64C
330
1F
100
AcDbEntity
  8
BEMA_U_00DFUNG
 62
     7
100
AcDb2dPolyline
 66
     1
 10
0.0
 20
0.0
 30
0.0
  0
VERTEX
  5
64D
330
64C
100
AcDbEntity
  8
BEMA_U_00DFUNG
 62
     7
100
AcDbVertex
100
AcDb2dVertex
 10
68.90245265204567
 20
218.565100319708
 30
0.0
  0
VERTEX
  5
64E
330
64C
100
AcDbEntity
  8
BEMA_U_00DFUNG
 62
     7
100
AcDbVertex
100
AcDb2dVertex
 10
65.40289709736497
 20
218.565100319708
 30
0.0
  0
SEQEND
  5
64F
330
64C
100
AcDbEntity
  8
BEMA_U_00DFUNG
 62
     7
  0
POLYLINE
  5
650
330
1F
100
AcDbEntity
  8
BEMA_U_00DFUNG
 62
     7
100
AcDb2dPolyline
 66
     1
 10
0.0
 20
0.0
 30
0.0
  0
VERTEX
  5
651
330
650
100
AcDbEntity
  8
BEMA_U_00DFUNG
 62
     7
100
AcDbVertex
100
AcDb2dVertex
 10
68.90245265204567
 20
219.021947541816
 30
0.0
  0
VERTEX
  5
652
330
650
100
AcDbEntity
  8
BEMA_U_00DFUNG
 62
     7
100
AcDbVertex
100
AcDb2dVertex
 10
68.87528876316348
 20
219.021947541816
 30
0.0
  0
SEQEND
  5
653
330
650
100
AcDbEntity
  8
BEMA_U_00DFUNG
 62
     7
  0
POLYLINE
  5
654
330
1F
100
AcDbEntity
  8
BEMA_U_00DFUNG
 62
     7
100
AcDb2dPolyline
 66
     1
 10
0.0
 20
0.0
 30
0.0
  0
VERTEX
  5
655
330
654
100
AcDbEntity
  8
BEMA_U_00DFUNG
 62
     7
100
AcDbVertex
100
AcDb2dVertex
 10
68.90245265204567
 20
219.021947541816
 30
0.0
  0
VERTEX
  5
656
330
654
100
AcDbEntity
  8
BEMA_U_00DFUNG
 62
     7
100
AcDbVertex
100
AcDb2dVertex
 10
68.87528876316348
 20
219.021947541816
 30
0.0
  0
SEQEND
  5
657
330
654
100
AcDbEntity
  8
BEMA_U_00DFUNG
 62
     7
  0
POLYLINE
  5
658
330
1F
100
AcDbEntity
  8
BEMA_U_00DFUNG
 62
     7
100
AcDb2dPolyline
 66
     1
 10
0.0
 20
0.0
 30
0.0
  0
VERTEX
  5
659
330
658
100
AcDbEntity
  8
BEMA_U_00DFUNG
 62
     7
100
AcDbVertex
100
AcDb2dVertex
 10
68.90245265204567
 20
218.9711475418287
 30
0.0
  0
VERTEX
  5
65A
330
658
100
AcDbEntity
  8
BEMA_U_00DFUNG
 62
     7
100
AcDbVertex
100
AcDb2dVertex
 10
68.48970265214882
 20
218.9711475418287
 30
0.0
  0
SEQEND
  5
65B
330
658
100
AcDbEntity
  8
BEMA_U_00DFUNG
 62
     7
  0
POLYLINE
  5
65C
330
1F
100
AcDbEntity
  8
BEMA_U_00DFUNG
 62
     7
100
AcDb2dPolyline
 66
     1
 10
0.0
 20
0.0
 30
0.0
  0
VERTEX
  5
65D
330
65C
100
AcDbEntity
  8
BEMA_U_00DFUNG
 62
     7
100
AcDbVertex
100
AcDb2dVertex
 10
68.90245265204567
 20
218.920700319619
 30
0.0
  0
VERTEX
  5
65E
330
65C
100
AcDbEntity
  8
BEMA_U_00DFUNG
 62
     7
100
AcDbVertex
100
AcDb2dVertex
 10
68.1037637633564
 20
218.920700319619
 30
0.0
  0
SEQEND
  5
65F
330
65C
100
AcDbEntity
  8
BEMA_U_00DFUNG
 62
     7
  0
POLYLINE
  5
660
330
1F
100
AcDbEntity
  8
BEMA_U_00DFUNG
 62
     7
100
AcDb2dPolyline
 66
     1
 10
0.0
 20
0.0
 30
0.0
  0
VERTEX
  5
661
330
660
100
AcDbEntity
  8
BEMA_U_00DFUNG
 62
     7
100
AcDbVertex
100
AcDb2dVertex
 10
68.90245265204567
 20
218.869900319632
 30
0.0
  0
VERTEX
  5
662
330
660
100
AcDbEntity
  8
BEMA_U_00DFUNG
 62
     7
100
AcDbVertex
100
AcDb2dVertex
 10
67.71782487456399
 20
218.869900319632
 30
0.0
  0
SEQEND
  5
663
330
660
100
AcDbEntity
  8
BEMA_U_00DFUNG
 62
     7
  0
POLYLINE
  5
664
330
1F
100
AcDbEntity
  8
BEMA_U_00DFUNG
 62
     7
100
AcDb2dPolyline
 66
     1
 10
0.0
 20
0.0
 30
0.0
  0
VERTEX
  5
665
330
664
100
AcDbEntity
  8
BEMA_U_00DFUNG
 62
     7
100
AcDbVertex
100
AcDb2dVertex
 10
68.90245265204567
 20
218.8191003196446
 30
0.0
  0
VERTEX
  5
666
330
664
100
AcDbEntity
  8
BEMA_U_00DFUNG
 62
     7
100
AcDbVertex
100
AcDb2dVertex
 10
67.33188598577156
 20
218.8191003196446
 30
0.0
  0
SEQEND
  5
667
330
664
100
AcDbEntity
  8
BEMA_U_00DFUNG
 62
     7
  0
POLYLINE
  5
668
330
1F
100
AcDbEntity
  8
BEMA_U_00DFUNG
 62
     7
100
AcDb2dPolyline
 66
     1
 10
0.0
 20
0.0
 30
0.0
  0
VERTEX
  5
669
330
668
100
AcDbEntity
  8
BEMA_U_00DFUNG
 62
     7
100
AcDbVertex
100
AcDb2dVertex
 10
68.90245265204567
 20
218.7683003196572
 30
0.0
  0
VERTEX
  5
66A
330
668
100
AcDbEntity
  8
BEMA_U_00DFUNG
 62
     7
100
AcDbVertex
100
AcDb2dVertex
 10
66.9462998747569
 20
218.7683003196572
 30
0.0
  0
SEQEND
  5
66B
330
668
100
AcDbEntity
  8
BEMA_U_00DFUNG
 62
     7
  0
POLYLINE
  5
66C
330
1F
100
AcDbEntity
  8
BEMA_U_00DFUNG
 62
     7
100
AcDb2dPolyline
 66
     1
 10
0.0
 20
0.0
 30
0.0
  0
VERTEX
  5
66D
330
66C
100
AcDbEntity
  8
BEMA_U_00DFUNG
 62
     7
100
AcDbVertex
100
AcDb2dVertex
 10
68.90245265204567
 20
218.7175003196698
 30
0.0
  0
VERTEX
  5
66E
330
66C
100
AcDbEntity
  8
BEMA_U_00DFUNG
 62
     7
100
AcDbVertex
100
AcDb2dVertex
 10
66.56036098596448
 20
218.7175003196698
 30
0.0
  0
SEQEND
  5
66F
330
66C
100
AcDbEntity
  8
BEMA_U_00DFUNG
 62
     7
  0
POLYLINE
  5
670
330
1F
100
AcDbEntity
  8
BEMA_U_00DFUNG
 62
     7
100
AcDb2dPolyline
 66
     1
 10
0.0
 20
0.0
 30
0.0
  0
VERTEX
  5
671
330
670
100
AcDbEntity
  8
BEMA_U_00DFUNG
 62
     7
100
AcDbVertex
100
AcDb2dVertex
 10
68.90245265204567
 20
218.6667003196825
 30
0.0
  0
VERTEX
  5
672
330
670
100
AcDbEntity
  8
BEMA_U_00DFUNG
 62
     7
100
AcDbVertex
100
AcDb2dVertex
 10
66.17442209717206
 20
218.6667003196825
 30
0.0
  0
SEQEND
  5
673
330
670
100
AcDbEntity
  8
BEMA_U_00DFUNG
 62
     7
  0
POLYLINE
  5
674
330
1F
100
AcDbEntity
  8
BEMA_U_00DFUNG
 62
     7
100
AcDb2dPolyline
 66
     1
 10
0.0
 20
0.0
 30
0.0
  0
VERTEX
  5
675
330
674
100
AcDbEntity
  8
BEMA_U_00DFUNG
 62
     7
100
AcDbVertex
100
AcDb2dVertex
 10
68.90245265204567
 20
218.6159003196954
 30
0.0
  0
VERTEX
  5
676
330
674
100
AcDbEntity
  8
BEMA_U_00DFUNG
 62
     7
100
AcDbVertex
100
AcDb2dVertex
 10
65.78848320837963
 20
218.6159003196954
 30
0.0
  0
SEQEND
  5
677
330
674
100
AcDbEntity
  8
BEMA_U_00DFUNG
 62
     7
  0
POLYLINE
  5
678
330
1F
100
AcDbEntity
  8
BEMA_U_00DFUNG
 62
     7
100
AcDb2dPolyline
 66
     1
 10
0.0
 20
0.0
 30
0.0
  0
VERTEX
  5
679
330
678
100
AcDbEntity
  8
BEMA_U_00DFUNG
 62
     7
100
AcDbVertex
100
AcDb2dVertex
 10
68.90245265204567
 20
218.565100319708
 30
0.0
  0
VERTEX
  5
67A
330
678
100
AcDbEntity
  8
BEMA_U_00DFUNG
 62
     7
100
AcDbVertex
100
AcDb2dVertex
 10
65.40289709736497
 20
218.565100319708
 30
0.0
  0
SEQEND
  5
67B
330
678
100
AcDbEntity
  8
BEMA_U_00DFUNG
 62
     7
  0
POLYLINE
  5
67C
330
1F
100
AcDbEntity
  8
BEMA_U_00DFUNG
 62
     7
100
AcDb2dPolyline
 66
     1
 10
0.0
 20
0.0
 30
0.0
  0
VERTEX
  5
67D
330
67C
100
AcDbEntity
  8
BEMA_U_00DFUNG
 62
     7
100
AcDbVertex
100
AcDb2dVertex
 10
62.35242765368316
 20
171.0446808083028
 30
0.0
  0
VERTEX
  5
67E
330
67C
100
AcDbEntity
  8
BEMA_U_00DFUNG
 62
     7
100
AcDbVertex
100
AcDb2dVertex
 10
43.46396877056736
 20
171.0446808083028
 30
0.0
  0
SEQEND
  5
67F
330
67C
100
AcDbEntity
  8
BEMA_U_00DFUNG
 62
     7
  0
POLYLINE
  5
680
330
1F
100
AcDbEntity
  8
BEMA_U_00DFUNG
 62
     7
100
AcDb2dPolyline
 66
     1
 10
0.0
 20
0.0
 30
0.0
  0
VERTEX
  5
681
330
680
100
AcDbEntity
  8
BEMA_U_00DFUNG
 62
     7
100
AcDbVertex
100
AcDb2dVertex
 10
62.35242765368316
 20
168.0439530312751
 30
0.0
  0
VERTEX
  5
682
330
680
100
AcDbEntity
  8
BEMA_U_00DFUNG
 62
     7
100
AcDbVertex
100
AcDb2dVertex
 10
43.46396877056736
 20
168.0439530312751
 30
0.0
  0
SEQEND
  5
683
330
680
100
AcDbEntity
  8
BEMA_U_00DFUNG
 62
     7
  0
POLYLINE
  5
684
330
1F
100
AcDbEntity
  8
BEMA_U_00DFUNG
 62
     7
100
AcDb2dPolyline
 66
     1
 10
0.0
 20
0.0
 30
0.0
  0
VERTEX
  5
685
330
684
100
AcDbEntity
  8
BEMA_U_00DFUNG
 62
     7
100
AcDbVertex
100
AcDb2dVertex
 10
45.46351321451212
 20
179.7946280283375
 30
0.0
  0
VERTEX
  5
686
330
684
100
AcDbEntity
  8
BEMA_U_00DFUNG
 62
     7
100
AcDbVertex
100
AcDb2dVertex
 10
45.46351321451212
 20
159.2940058112404
 30
0.0
  0
SEQEND
  5
687
330
684
100
AcDbEntity
  8
BEMA_U_00DFUNG
 62
     7
  0
POLYLINE
  5
688
330
1F
100
AcDbEntity
  8
BEMA_U_00DFUNG
 62
     7
100
AcDb2dPolyline
 66
     1
 10
0.0
 20
0.0
 30
0.0
  0
VERTEX
  5
689
330
688
100
AcDbEntity
  8
BEMA_U_00DFUNG
 62
     7
100
AcDbVertex
100
AcDb2dVertex
 10
45.46351321451212
 20
171.0446808083028
 30
0.0
  0
VERTEX
  5
68A
330
688
100
AcDbEntity
  8
BEMA_U_00DFUNG
 62
     7
100
AcDbVertex
100
AcDb2dVertex
 10
45.92494654773009
 20
174.5442363629835
 30
0.0
  0
VERTEX
  5
68B
330
688
100
AcDbEntity
  8
BEMA_U_00DFUNG
 62
     7
100
AcDbVertex
100
AcDb2dVertex
 10
45.00313821462711
 20
174.5442363629835
 30
0.0
  0
VERTEX
  5
68C
330
688
100
AcDbEntity
  8
BEMA_U_00DFUNG
 62
     7
100
AcDbVertex
100
AcDb2dVertex
 10
45.46351321451212
 20
171.0446808083028
 30
0.0
  0
SEQEND
  5
68D
330
688
100
AcDbEntity
  8
BEMA_U_00DFUNG
 62
     7
  0
POLYLINE
  5
68E
330
1F
100
AcDbEntity
  8
BEMA_U_00DFUNG
 62
     7
100
AcDb2dPolyline
 66
     1
 10
0.0
 20
0.0
 30
0.0
  0
VERTEX
  5
68F
330
68E
100
AcDbEntity
  8
BEMA_U_00DFUNG
 62
     7
100
AcDbVertex
100
AcDb2dVertex
 10
45.92071321439759
 20
174.5442363629835
 30
0.0
  0
VERTEX
  5
690
330
68E
100
AcDbEntity
  8
BEMA_U_00DFUNG
 62
     7
100
AcDbVertex
100
AcDb2dVertex
 10
45.92071321439759
 20
174.5170724741013
 30
0.0
  0
SEQEND
  5
691
330
68E
100
AcDbEntity
  8
BEMA_U_00DFUNG
 62
     7
  0
POLYLINE
  5
692
330
1F
100
AcDbEntity
  8
BEMA_U_00DFUNG
 62
     7
100
AcDb2dPolyline
 66
     1
 10
0.0
 20
0.0
 30
0.0
  0
VERTEX
  5
693
330
692
100
AcDbEntity
  8
BEMA_U_00DFUNG
 62
     7
100
AcDbVertex
100
AcDb2dVertex
 10
45.92071321439759
 20
174.5442363629835
 30
0.0
  0
VERTEX
  5
694
330
692
100
AcDbEntity
  8
BEMA_U_00DFUNG
 62
     7
100
AcDbVertex
100
AcDb2dVertex
 10
45.92071321439759
 20
174.5170724741013
 30
0.0
  0
SEQEND
  5
695
330
692
100
AcDbEntity
  8
BEMA_U_00DFUNG
 62
     7
  0
POLYLINE
  5
696
330
1F
100
AcDbEntity
  8
BEMA_U_00DFUNG
 62
     7
100
AcDb2dPolyline
 66
     1
 10
0.0
 20
0.0
 30
0.0
  0
VERTEX
  5
697
330
696
100
AcDbEntity
  8
BEMA_U_00DFUNG
 62
     7
100
AcDbVertex
100
AcDb2dVertex
 10
45.87026599218797
 20
174.5442363629835
 30
0.0
  0
VERTEX
  5
698
330
696
100
AcDbEntity
  8
BEMA_U_00DFUNG
 62
     7
100
AcDbVertex
100
AcDb2dVertex
 10
45.87026599218797
 20
174.1314863630867
 30
0.0
  0
SEQEND
  5
699
330
696
100
AcDbEntity
  8
BEMA_U_00DFUNG
 62
     7
  0
POLYLINE
  5
69A
330
1F
100
AcDbEntity
  8
BEMA_U_00DFUNG
 62
     7
100
AcDb2dPolyline
 66
     1
 10
0.0
 20
0.0
 30
0.0
  0
VERTEX
  5
69B
330
69A
100
AcDbEntity
  8
BEMA_U_00DFUNG
 62
     7
100
AcDbVertex
100
AcDb2dVertex
 10
45.81946599220059
 20
174.5442363629835
 30
0.0
  0
VERTEX
  5
69C
330
69A
100
AcDbEntity
  8
BEMA_U_00DFUNG
 62
     7
100
AcDbVertex
100
AcDb2dVertex
 10
45.81946599220059
 20
173.7451946965164
 30
0.0
  0
SEQEND
  5
69D
330
69A
100
AcDbEntity
  8
BEMA_U_00DFUNG
 62
     7
  0
POLYLINE
  5
69E
330
1F
100
AcDbEntity
  8
BEMA_U_00DFUNG
 62
     7
100
AcDb2dPolyline
 66
     1
 10
0.0
 20
0.0
 30
0.0
  0
VERTEX
  5
69F
330
69E
100
AcDbEntity
  8
BEMA_U_00DFUNG
 62
     7
100
AcDbVertex
100
AcDb2dVertex
 10
45.76831321443576
 20
174.5442363629835
 30
0.0
  0
VERTEX
  5
6A0
330
69E
100
AcDbEntity
  8
BEMA_U_00DFUNG
 62
     7
100
AcDbVertex
100
AcDb2dVertex
 10
45.76831321443576
 20
173.3596085855018
 30
0.0
  0
SEQEND
  5
6A1
330
69E
100
AcDbEntity
  8
BEMA_U_00DFUNG
 62
     7
  0
POLYLINE
  5
6A2
330
1F
100
AcDbEntity
  8
BEMA_U_00DFUNG
 62
     7
100
AcDb2dPolyline
 66
     1
 10
0.0
 20
0.0
 30
0.0
  0
VERTEX
  5
6A3
330
6A2
100
AcDbEntity
  8
BEMA_U_00DFUNG
 62
     7
100
AcDbVertex
100
AcDb2dVertex
 10
45.71751321444839
 20
174.5442363629835
 30
0.0
  0
VERTEX
  5
6A4
330
6A2
100
AcDbEntity
  8
BEMA_U_00DFUNG
 62
     7
100
AcDbVertex
100
AcDb2dVertex
 10
45.71751321444839
 20
172.9736696967094
 30
0.0
  0
SEQEND
  5
6A5
330
6A2
100
AcDbEntity
  8
BEMA_U_00DFUNG
 62
     7
  0
POLYLINE
  5
6A6
330
1F
100
AcDbEntity
  8
BEMA_U_00DFUNG
 62
     7
100
AcDb2dPolyline
 66
     1
 10
0.0
 20
0.0
 30
0.0
  0
VERTEX
  5
6A7
330
6A6
100
AcDbEntity
  8
BEMA_U_00DFUNG
 62
     7
100
AcDbVertex
100
AcDb2dVertex
 10
45.66671321446132
 20
174.5442363629835
 30
0.0
  0
VERTEX
  5
6A8
330
6A6
100
AcDbEntity
  8
BEMA_U_00DFUNG
 62
     7
100
AcDbVertex
100
AcDb2dVertex
 10
45.66671321446132
 20
172.5880835856947
 30
0.0
  0
SEQEND
  5
6A9
330
6A6
100
AcDbEntity
  8
BEMA_U_00DFUNG
 62
     7
  0
POLYLINE
  5
6AA
330
1F
100
AcDbEntity
  8
BEMA_U_00DFUNG
 62
     7
100
AcDb2dPolyline
 66
     1
 10
0.0
 20
0.0
 30
0.0
  0
VERTEX
  5
6AB
330
6AA
100
AcDbEntity
  8
BEMA_U_00DFUNG
 62
     7
100
AcDbVertex
100
AcDb2dVertex
 10
45.61626599225171
 20
174.5442363629835
 30
0.0
  0
VERTEX
  5
6AC
330
6AA
100
AcDbEntity
  8
BEMA_U_00DFUNG
 62
     7
100
AcDbVertex
100
AcDb2dVertex
 10
45.61626599225171
 20
172.2017919191245
 30
0.0
  0
SEQEND
  5
6AD
330
6AA
100
AcDbEntity
  8
BEMA_U_00DFUNG
 62
     7
  0
POLYLINE
  5
6AE
330
1F
100
AcDbEntity
  8
BEMA_U_00DFUNG
 62
     7
100
AcDb2dPolyline
 66
     1
 10
0.0
 20
0.0
 30
0.0
  0
VERTEX
  5
6AF
330
6AE
100
AcDbEntity
  8
BEMA_U_00DFUNG
 62
     7
100
AcDbVertex
100
AcDb2dVertex
 10
45.56546599226432
 20
174.5442363629835
 30
0.0
  0
VERTEX
  5
6B0
330
6AE
100
AcDbEntity
  8
BEMA_U_00DFUNG
 62
     7
100
AcDbVertex
100
AcDb2dVertex
 10
45.56546599226432
 20
171.8162058081099
 30
0.0
  0
SEQEND
  5
6B1
330
6AE
100
AcDbEntity
  8
BEMA_U_00DFUNG
 62
     7
  0
POLYLINE
  5
6B2
330
1F
100
AcDbEntity
  8
BEMA_U_00DFUNG
 62
     7
100
AcDb2dPolyline
 66
     1
 10
0.0
 20
0.0
 30
0.0
  0
VERTEX
  5
6B3
330
6B2
100
AcDbEntity
  8
BEMA_U_00DFUNG
 62
     7
100
AcDbVertex
100
AcDb2dVertex
 10
45.51431321449918
 20
174.5442363629835
 30
0.0
  0
VERTEX
  5
6B4
330
6B2
100
AcDbEntity
  8
BEMA_U_00DFUNG
 62
     7
100
AcDbVertex
100
AcDb2dVertex
 10
45.51431321449918
 20
171.4302669193174
 30
0.0
  0
SEQEND
  5
6B5
330
6B2
100
AcDbEntity
  8
BEMA_U_00DFUNG
 62
     7
  0
POLYLINE
  5
6B6
330
1F
100
AcDbEntity
  8
BEMA_U_00DFUNG
 62
     7
100
AcDb2dPolyline
 66
     1
 10
0.0
 20
0.0
 30
0.0
  0
VERTEX
  5
6B7
330
6B6
100
AcDbEntity
  8
BEMA_U_00DFUNG
 62
     7
100
AcDbVertex
100
AcDb2dVertex
 10
45.46351321451212
 20
174.5442363629835
 30
0.0
  0
VERTEX
  5
6B8
330
6B6
100
AcDbEntity
  8
BEMA_U_00DFUNG
 62
     7
100
AcDbVertex
100
AcDb2dVertex
 10
45.46351321451212
 20
171.0446808083028
 30
0.0
  0
SEQEND
  5
6B9
330
6B6
100
AcDbEntity
  8
BEMA_U_00DFUNG
 62
     7
  0
POLYLINE
  5
6BA
330
1F
100
AcDbEntity
  8
BEMA_U_00DFUNG
 62
     7
100
AcDb2dPolyline
 66
     1
 10
0.0
 20
0.0
 30
0.0
  0
VERTEX
  5
6BB
330
6BA
100
AcDbEntity
  8
BEMA_U_00DFUNG
 62
     7
100
AcDbVertex
100
AcDb2dVertex
 10
45.00666599240408
 20
174.5442363629835
 30
0.0
  0
VERTEX
  5
6BC
330
6BA
100
AcDbEntity
  8
BEMA_U_00DFUNG
 62
     7
100
AcDbVertex
100
AcDb2dVertex
 10
45.00666599240408
 20
174.5170724741013
 30
0.0
  0
SEQEND
  5
6BD
330
6BA
100
AcDbEntity
  8
BEMA_U_00DFUNG
 62
     7
  0
POLYLINE
  5
6BE
330
1F
100
AcDbEntity
  8
BEMA_U_00DFUNG
 62
     7
100
AcDb2dPolyline
 66
     1
 10
0.0
 20
0.0
 30
0.0
  0
VERTEX
  5
6BF
330
6BE
100
AcDbEntity
  8
BEMA_U_00DFUNG
 62
     7
100
AcDbVertex
100
AcDb2dVertex
 10
45.00666599240408
 20
174.5442363629835
 30
0.0
  0
VERTEX
  5
6C0
330
6BE
100
AcDbEntity
  8
BEMA_U_00DFUNG
 62
     7
100
AcDbVertex
100
AcDb2dVertex
 10
45.00666599240408
 20
174.5170724741013
 30
0.0
  0
SEQEND
  5
6C1
330
6BE
100
AcDbEntity
  8
BEMA_U_00DFUNG
 62
     7
  0
POLYLINE
  5
6C2
330
1F
100
AcDbEntity
  8
BEMA_U_00DFUNG
 62
     7
100
AcDb2dPolyline
 66
     1
 10
0.0
 20
0.0
 30
0.0
  0
VERTEX
  5
6C3
330
6C2
100
AcDbEntity
  8
BEMA_U_00DFUNG
 62
     7
100
AcDbVertex
100
AcDb2dVertex
 10
45.05746599239114
 20
174.5442363629835
 30
0.0
  0
VERTEX
  5
6C4
330
6C2
100
AcDbEntity
  8
BEMA_U_00DFUNG
 62
     7
100
AcDbVertex
100
AcDb2dVertex
 10
45.05746599239114
 20
174.1314863630867
 30
0.0
  0
SEQEND
  5
6C5
330
6C2
100
AcDbEntity
  8
BEMA_U_00DFUNG
 62
     7
  0
POLYLINE
  5
6C6
330
1F
100
AcDbEntity
  8
BEMA_U_00DFUNG
 62
     7
100
AcDb2dPolyline
 66
     1
 10
0.0
 20
0.0
 30
0.0
  0
VERTEX
  5
6C7
330
6C6
100
AcDbEntity
  8
BEMA_U_00DFUNG
 62
     7
100
AcDbVertex
100
AcDb2dVertex
 10
45.10826599237853
 20
174.5442363629835
 30
0.0
  0
VERTEX
  5
6C8
330
6C6
100
AcDbEntity
  8
BEMA_U_00DFUNG
 62
     7
100
AcDbVertex
100
AcDb2dVertex
 10
45.10826599237853
 20
173.7451946965164
 30
0.0
  0
SEQEND
  5
6C9
330
6C6
100
AcDbEntity
  8
BEMA_U_00DFUNG
 62
     7
  0
POLYLINE
  5
6CA
330
1F
100
AcDbEntity
  8
BEMA_U_00DFUNG
 62
     7
100
AcDb2dPolyline
 66
     1
 10
0.0
 20
0.0
 30
0.0
  0
VERTEX
  5
6CB
330
6CA
100
AcDbEntity
  8
BEMA_U_00DFUNG
 62
     7
100
AcDbVertex
100
AcDb2dVertex
 10
45.15871321458815
 20
174.5442363629835
 30
0.0
  0
VERTEX
  5
6CC
330
6CA
100
AcDbEntity
  8
BEMA_U_00DFUNG
 62
     7
100
AcDbVertex
100
AcDb2dVertex
 10
45.15871321458815
 20
173.3596085855018
 30
0.0
  0
SEQEND
  5
6CD
330
6CA
100
AcDbEntity
  8
BEMA_U_00DFUNG
 62
     7
  0
POLYLINE
  5
6CE
330
1F
100
AcDbEntity
  8
BEMA_U_00DFUNG
 62
     7
100
AcDb2dPolyline
 66
     1
 10
0.0
 20
0.0
 30
0.0
  0
VERTEX
  5
6CF
330
6CE
100
AcDbEntity
  8
BEMA_U_00DFUNG
 62
     7
100
AcDbVertex
100
AcDb2dVertex
 10
45.20951321457553
 20
174.5442363629835
 30
0.0
  0
VERTEX
  5
6D0
330
6CE
100
AcDbEntity
  8
BEMA_U_00DFUNG
 62
     7
100
AcDbVertex
100
AcDb2dVertex
 10
45.20951321457553
 20
172.9736696967094
 30
0.0
  0
SEQEND
  5
6D1
330
6CE
100
AcDbEntity
  8
BEMA_U_00DFUNG
 62
     7
  0
POLYLINE
  5
6D2
330
1F
100
AcDbEntity
  8
BEMA_U_00DFUNG
 62
     7
100
AcDb2dPolyline
 66
     1
 10
0.0
 20
0.0
 30
0.0
  0
VERTEX
  5
6D3
330
6D2
100
AcDbEntity
  8
BEMA_U_00DFUNG
 62
     7
100
AcDbVertex
100
AcDb2dVertex
 10
45.26066599234035
 20
174.5442363629835
 30
0.0
  0
VERTEX
  5
6D4
330
6D2
100
AcDbEntity
  8
BEMA_U_00DFUNG
 62
     7
100
AcDbVertex
100
AcDb2dVertex
 10
45.26066599234035
 20
172.5880835856947
 30
0.0
  0
SEQEND
  5
6D5
330
6D2
100
AcDbEntity
  8
BEMA_U_00DFUNG
 62
     7
  0
POLYLINE
  5
6D6
330
1F
100
AcDbEntity
  8
BEMA_U_00DFUNG
 62
     7
100
AcDb2dPolyline
 66
     1
 10
0.0
 20
0.0
 30
0.0
  0
VERTEX
  5
6D7
330
6D6
100
AcDbEntity
  8
BEMA_U_00DFUNG
 62
     7
100
AcDbVertex
100
AcDb2dVertex
 10
45.31146599232773
 20
174.5442363629835
 30
0.0
  0
VERTEX
  5
6D8
330
6D6
100
AcDbEntity
  8
BEMA_U_00DFUNG
 62
     7
100
AcDbVertex
100
AcDb2dVertex
 10
45.31146599232773
 20
172.2017919191245
 30
0.0
  0
SEQEND
  5
6D9
330
6D6
100
AcDbEntity
  8
BEMA_U_00DFUNG
 62
     7
  0
POLYLINE
  5
6DA
330
1F
100
AcDbEntity
  8
BEMA_U_00DFUNG
 62
     7
100
AcDb2dPolyline
 66
     1
 10
0.0
 20
0.0
 30
0.0
  0
VERTEX
  5
6DB
330
6DA
100
AcDbEntity
  8
BEMA_U_00DFUNG
 62
     7
100
AcDbVertex
100
AcDb2dVertex
 10
45.36226599231512
 20
174.5442363629835
 30
0.0
  0
VERTEX
  5
6DC
330
6DA
100
AcDbEntity
  8
BEMA_U_00DFUNG
 62
     7
100
AcDbVertex
100
AcDb2dVertex
 10
45.36226599231512
 20
171.8162058081099
 30
0.0
  0
SEQEND
  5
6DD
330
6DA
100
AcDbEntity
  8
BEMA_U_00DFUNG
 62
     7
  0
POLYLINE
  5
6DE
330
1F
100
AcDbEntity
  8
BEMA_U_00DFUNG
 62
     7
100
AcDb2dPolyline
 66
     1
 10
0.0
 20
0.0
 30
0.0
  0
VERTEX
  5
6DF
330
6DE
100
AcDbEntity
  8
BEMA_U_00DFUNG
 62
     7
100
AcDbVertex
100
AcDb2dVertex
 10
45.41271321452474
 20
174.5442363629835
 30
0.0
  0
VERTEX
  5
6E0
330
6DE
100
AcDbEntity
  8
BEMA_U_00DFUNG
 62
     7
100
AcDbVertex
100
AcDb2dVertex
 10
45.41271321452474
 20
171.4302669193174
 30
0.0
  0
SEQEND
  5
6E1
330
6DE
100
AcDbEntity
  8
BEMA_U_00DFUNG
 62
     7
  0
POLYLINE
  5
6E2
330
1F
100
AcDbEntity
  8
BEMA_U_00DFUNG
 62
     7
100
AcDb2dPolyline
 66
     1
 10
0.0
 20
0.0
 30
0.0
  0
VERTEX
  5
6E3
330
6E2
100
AcDbEntity
  8
BEMA_U_00DFUNG
 62
     7
100
AcDbVertex
100
AcDb2dVertex
 10
45.46351321451212
 20
174.5442363629835
 30
0.0
  0
VERTEX
  5
6E4
330
6E2
100
AcDbEntity
  8
BEMA_U_00DFUNG
 62
     7
100
AcDbVertex
100
AcDb2dVertex
 10
45.46351321451212
 20
171.0446808083028
 30
0.0
  0
SEQEND
  5
6E5
330
6E2
100
AcDbEntity
  8
BEMA_U_00DFUNG
 62
     7
  0
POLYLINE
  5
6E6
330
1F
100
AcDbEntity
  8
BEMA_U_00DFUNG
 62
     7
100
AcDb2dPolyline
 66
     1
 10
0.0
 20
0.0
 30
0.0
  0
VERTEX
  5
6E7
330
6E6
100
AcDbEntity
  8
BEMA_U_00DFUNG
 62
     7
100
AcDbVertex
100
AcDb2dVertex
 10
45.46351321451212
 20
168.0439530312751
 30
0.0
  0
VERTEX
  5
6E8
330
6E6
100
AcDbEntity
  8
BEMA_U_00DFUNG
 62
     7
100
AcDbVertex
100
AcDb2dVertex
 10
45.00313821462711
 20
164.5433391432614
 30
0.0
  0
VERTEX
  5
6E9
330
6E6
100
AcDbEntity
  8
BEMA_U_00DFUNG
 62
     7
100
AcDbVertex
100
AcDb2dVertex
 10
45.92494654773009
 20
164.5433391432614
 30
0.0
  0
VERTEX
  5
6EA
330
6E6
100
AcDbEntity
  8
BEMA_U_00DFUNG
 62
     7
100
AcDbVertex
100
AcDb2dVertex
 10
45.46351321451212
 20
168.0439530312751
 30
0.0
  0
SEQEND
  5
6EB
330
6E6
100
AcDbEntity
  8
BEMA_U_00DFUNG
 62
     7
  0
POLYLINE
  5
6EC
330
1F
100
AcDbEntity
  8
BEMA_U_00DFUNG
 62
     7
100
AcDb2dPolyline
 66
     1
 10
0.0
 20
0.0
 30
0.0
  0
VERTEX
  5
6ED
330
6EC
100
AcDbEntity
  8
BEMA_U_00DFUNG
 62
     7
100
AcDbVertex
100
AcDb2dVertex
 10
45.00666599240408
 20
164.5433391432614
 30
0.0
  0
VERTEX
  5
6EE
330
6EC
100
AcDbEntity
  8
BEMA_U_00DFUNG
 62
     7
100
AcDbVertex
100
AcDb2dVertex
 10
45.00666599240408
 20
164.5712085876988
 30
0.0
  0
SEQEND
  5
6EF
330
6EC
100
AcDbEntity
  8
BEMA_U_00DFUNG
 62
     7
  0
POLYLINE
  5
6F0
330
1F
100
AcDbEntity
  8
BEMA_U_00DFUNG
 62
     7
100
AcDb2dPolyline
 66
     1
 10
0.0
 20
0.0
 30
0.0
  0
VERTEX
  5
6F1
330
6F0
100
AcDbEntity
  8
BEMA_U_00DFUNG
 62
     7
100
AcDbVertex
100
AcDb2dVertex
 10
45.00666599240408
 20
164.5433391432614
 30
0.0
  0
VERTEX
  5
6F2
330
6F0
100
AcDbEntity
  8
BEMA_U_00DFUNG
 62
     7
100
AcDbVertex
100
AcDb2dVertex
 10
45.00666599240408
 20
164.5712085876988
 30
0.0
  0
SEQEND
  5
6F3
330
6F0
100
AcDbEntity
  8
BEMA_U_00DFUNG
 62
     7
  0
POLYLINE
  5
6F4
330
1F
100
AcDbEntity
  8
BEMA_U_00DFUNG
 62
     7
100
AcDb2dPolyline
 66
     1
 10
0.0
 20
0.0
 30
0.0
  0
VERTEX
  5
6F5
330
6F4
100
AcDbEntity
  8
BEMA_U_00DFUNG
 62
     7
100
AcDbVertex
100
AcDb2dVertex
 10
45.05746599239114
 20
164.5433391432614
 30
0.0
  0
VERTEX
  5
6F6
330
6F4
100
AcDbEntity
  8
BEMA_U_00DFUNG
 62
     7
100
AcDbVertex
100
AcDb2dVertex
 10
45.05746599239114
 20
164.956441920936
 30
0.0
  0
SEQEND
  5
6F7
330
6F4
100
AcDbEntity
  8
BEMA_U_00DFUNG
 62
     7
  0
POLYLINE
  5
6F8
330
1F
100
AcDbEntity
  8
BEMA_U_00DFUNG
 62
     7
100
AcDb2dPolyline
 66
     1
 10
0.0
 20
0.0
 30
0.0
  0
VERTEX
  5
6F9
330
6F8
100
AcDbEntity
  8
BEMA_U_00DFUNG
 62
     7
100
AcDbVertex
100
AcDb2dVertex
 10
45.10826599237853
 20
164.5433391432614
 30
0.0
  0
VERTEX
  5
6FA
330
6F8
100
AcDbEntity
  8
BEMA_U_00DFUNG
 62
     7
100
AcDbVertex
100
AcDb2dVertex
 10
45.10826599237853
 20
165.3423808097284
 30
0.0
  0
SEQEND
  5
6FB
330
6F8
100
AcDbEntity
  8
BEMA_U_00DFUNG
 62
     7
  0
POLYLINE
  5
6FC
330
1F
100
AcDbEntity
  8
BEMA_U_00DFUNG
 62
     7
100
AcDb2dPolyline
 66
     1
 10
0.0
 20
0.0
 30
0.0
  0
VERTEX
  5
6FD
330
6FC
100
AcDbEntity
  8
BEMA_U_00DFUNG
 62
     7
100
AcDbVertex
100
AcDb2dVertex
 10
45.15871321458815
 20
164.5433391432614
 30
0.0
  0
VERTEX
  5
6FE
330
6FC
100
AcDbEntity
  8
BEMA_U_00DFUNG
 62
     7
100
AcDbVertex
100
AcDb2dVertex
 10
45.15871321458815
 20
165.7286724762986
 30
0.0
  0
SEQEND
  5
6FF
330
6FC
100
AcDbEntity
  8
BEMA_U_00DFUNG
 62
     7
  0
POLYLINE
  5
700
330
1F
100
AcDbEntity
  8
BEMA_U_00DFUNG
 62
     7
100
AcDb2dPolyline
 66
     1
 10
0.0
 20
0.0
 30
0.0
  0
VERTEX
  5
701
330
700
100
AcDbEntity
  8
BEMA_U_00DFUNG
 62
     7
100
AcDbVertex
100
AcDb2dVertex
 10
45.20951321457553
 20
164.5433391432614
 30
0.0
  0
VERTEX
  5
702
330
700
100
AcDbEntity
  8
BEMA_U_00DFUNG
 62
     7
100
AcDbVertex
100
AcDb2dVertex
 10
45.20951321457553
 20
166.1146113650907
 30
0.0
  0
SEQEND
  5
703
330
700
100
AcDbEntity
  8
BEMA_U_00DFUNG
 62
     7
  0
POLYLINE
  5
704
330
1F
100
AcDbEntity
  8
BEMA_U_00DFUNG
 62
     7
100
AcDb2dPolyline
 66
     1
 10
0.0
 20
0.0
 30
0.0
  0
VERTEX
  5
705
330
704
100
AcDbEntity
  8
BEMA_U_00DFUNG
 62
     7
100
AcDbVertex
100
AcDb2dVertex
 10
45.26066599234035
 20
164.5433391432614
 30
0.0
  0
VERTEX
  5
706
330
704
100
AcDbEntity
  8
BEMA_U_00DFUNG
 62
     7
100
AcDbVertex
100
AcDb2dVertex
 10
45.26066599234035
 20
166.5005502538831
 30
0.0
  0
SEQEND
  5
707
330
704
100
AcDbEntity
  8
BEMA_U_00DFUNG
 62
     7
  0
POLYLINE
  5
708
330
1F
100
AcDbEntity
  8
BEMA_U_00DFUNG
 62
     7
100
AcDb2dPolyline
 66
     1
 10
0.0
 20
0.0
 30
0.0
  0
VERTEX
  5
709
330
708
100
AcDbEntity
  8
BEMA_U_00DFUNG
 62
     7
100
AcDbVertex
100
AcDb2dVertex
 10
45.31146599232773
 20
164.5433391432614
 30
0.0
  0
VERTEX
  5
70A
330
708
100
AcDbEntity
  8
BEMA_U_00DFUNG
 62
     7
100
AcDbVertex
100
AcDb2dVertex
 10
45.31146599232773
 20
166.8857835871204
 30
0.0
  0
SEQEND
  5
70B
330
708
100
AcDbEntity
  8
BEMA_U_00DFUNG
 62
     7
  0
POLYLINE
  5
70C
330
1F
100
AcDbEntity
  8
BEMA_U_00DFUNG
 62
     7
100
AcDb2dPolyline
 66
     1
 10
0.0
 20
0.0
 30
0.0
  0
VERTEX
  5
70D
330
70C
100
AcDbEntity
  8
BEMA_U_00DFUNG
 62
     7
100
AcDbVertex
100
AcDb2dVertex
 10
45.36226599231512
 20
164.5433391432614
 30
0.0
  0
VERTEX
  5
70E
330
70C
100
AcDbEntity
  8
BEMA_U_00DFUNG
 62
     7
100
AcDbVertex
100
AcDb2dVertex
 10
45.36226599231512
 20
167.2720752536906
 30
0.0
  0
SEQEND
  5
70F
330
70C
100
AcDbEntity
  8
BEMA_U_00DFUNG
 62
     7
  0
POLYLINE
  5
710
330
1F
100
AcDbEntity
  8
BEMA_U_00DFUNG
 62
     7
100
AcDb2dPolyline
 66
     1
 10
0.0
 20
0.0
 30
0.0
  0
VERTEX
  5
711
330
710
100
AcDbEntity
  8
BEMA_U_00DFUNG
 62
     7
100
AcDbVertex
100
AcDb2dVertex
 10
45.41271321452474
 20
164.5433391432614
 30
0.0
  0
VERTEX
  5
712
330
710
100
AcDbEntity
  8
BEMA_U_00DFUNG
 62
     7
100
AcDbVertex
100
AcDb2dVertex
 10
45.41271321452474
 20
167.6580141424826
 30
0.0
  0
SEQEND
  5
713
330
710
100
AcDbEntity
  8
BEMA_U_00DFUNG
 62
     7
  0
POLYLINE
  5
714
330
1F
100
AcDbEntity
  8
BEMA_U_00DFUNG
 62
     7
100
AcDb2dPolyline
 66
     1
 10
0.0
 20
0.0
 30
0.0
  0
VERTEX
  5
715
330
714
100
AcDbEntity
  8
BEMA_U_00DFUNG
 62
     7
100
AcDbVertex
100
AcDb2dVertex
 10
45.46351321451212
 20
164.5433391432614
 30
0.0
  0
VERTEX
  5
716
330
714
100
AcDbEntity
  8
BEMA_U_00DFUNG
 62
     7
100
AcDbVertex
100
AcDb2dVertex
 10
45.46351321451212
 20
168.0439530312751
 30
0.0
  0
SEQEND
  5
717
330
714
100
AcDbEntity
  8
BEMA_U_00DFUNG
 62
     7
  0
POLYLINE
  5
718
330
1F
100
AcDbEntity
  8
BEMA_U_00DFUNG
 62
     7
100
AcDb2dPolyline
 66
     1
 10
0.0
 20
0.0
 30
0.0
  0
VERTEX
  5
719
330
718
100
AcDbEntity
  8
BEMA_U_00DFUNG
 62
     7
100
AcDbVertex
100
AcDb2dVertex
 10
45.92071321439759
 20
164.5433391432614
 30
0.0
  0
VERTEX
  5
71A
330
718
100
AcDbEntity
  8
BEMA_U_00DFUNG
 62
     7
100
AcDbVertex
100
AcDb2dVertex
 10
45.92071321439759
 20
164.5712085876988
 30
0.0
  0
SEQEND
  5
71B
330
718
100
AcDbEntity
  8
BEMA_U_00DFUNG
 62
     7
  0
POLYLINE
  5
71C
330
1F
100
AcDbEntity
  8
BEMA_U_00DFUNG
 62
     7
100
AcDb2dPolyline
 66
     1
 10
0.0
 20
0.0
 30
0.0
  0
VERTEX
  5
71D
330
71C
100
AcDbEntity
  8
BEMA_U_00DFUNG
 62
     7
100
AcDbVertex
100
AcDb2dVertex
 10
45.92071321439759
 20
164.5433391432614
 30
0.0
  0
VERTEX
  5
71E
330
71C
100
AcDbEntity
  8
BEMA_U_00DFUNG
 62
     7
100
AcDbVertex
100
AcDb2dVertex
 10
45.92071321439759
 20
164.5712085876988
 30
0.0
  0
SEQEND
  5
71F
330
71C
100
AcDbEntity
  8
BEMA_U_00DFUNG
 62
     7
  0
POLYLINE
  5
720
330
1F
100
AcDbEntity
  8
BEMA_U_00DFUNG
 62
     7
100
AcDb2dPolyline
 66
     1
 10
0.0
 20
0.0
 30
0.0
  0
VERTEX
  5
721
330
720
100
AcDbEntity
  8
BEMA_U_00DFUNG
 62
     7
100
AcDbVertex
100
AcDb2dVertex
 10
45.87026599218797
 20
164.5433391432614
 30
0.0
  0
VERTEX
  5
722
330
720
100
AcDbEntity
  8
BEMA_U_00DFUNG
 62
     7
100
AcDbVertex
100
AcDb2dVertex
 10
45.87026599218797
 20
164.956441920936
 30
0.0
  0
SEQEND
  5
723
330
720
100
AcDbEntity
  8
BEMA_U_00DFUNG
 62
     7
  0
POLYLINE
  5
724
330
1F
100
AcDbEntity
  8
BEMA_U_00DFUNG
 62
     7
100
AcDb2dPolyline
 66
     1
 10
0.0
 20
0.0
 30
0.0
  0
VERTEX
  5
725
330
724
100
AcDbEntity
  8
BEMA_U_00DFUNG
 62
     7
100
AcDbVertex
100
AcDb2dVertex
 10
45.81946599220059
 20
164.5433391432614
 30
0.0
  0
VERTEX
  5
726
330
724
100
AcDbEntity
  8
BEMA_U_00DFUNG
 62
     7
100
AcDbVertex
100
AcDb2dVertex
 10
45.81946599220059
 20
165.3423808097284
 30
0.0
  0
SEQEND
  5
727
330
724
100
AcDbEntity
  8
BEMA_U_00DFUNG
 62
     7
  0
POLYLINE
  5
728
330
1F
100
AcDbEntity
  8
BEMA_U_00DFUNG
 62
     7
100
AcDb2dPolyline
 66
     1
 10
0.0
 20
0.0
 30
0.0
  0
VERTEX
  5
729
330
728
100
AcDbEntity
  8
BEMA_U_00DFUNG
 62
     7
100
AcDbVertex
100
AcDb2dVertex
 10
45.76831321443576
 20
164.5433391432614
 30
0.0
  0
VERTEX
  5
72A
330
728
100
AcDbEntity
  8
BEMA_U_00DFUNG
 62
     7
100
AcDbVertex
100
AcDb2dVertex
 10
45.76831321443576
 20
165.7286724762986
 30
0.0
  0
SEQEND
  5
72B
330
728
100
AcDbEntity
  8
BEMA_U_00DFUNG
 62
     7
  0
POLYLINE
  5
72C
330
1F
100
AcDbEntity
  8
BEMA_U_00DFUNG
 62
     7
100
AcDb2dPolyline
 66
     1
 10
0.0
 20
0.0
 30
0.0
  0
VERTEX
  5
72D
330
72C
100
AcDbEntity
  8
BEMA_U_00DFUNG
 62
     7
100
AcDbVertex
100
AcDb2dVertex
 10
45.71751321444839
 20
164.5433391432614
 30
0.0
  0
VERTEX
  5
72E
330
72C
100
AcDbEntity
  8
BEMA_U_00DFUNG
 62
     7
100
AcDbVertex
100
AcDb2dVertex
 10
45.71751321444839
 20
166.1146113650907
 30
0.0
  0
SEQEND
  5
72F
330
72C
100
AcDbEntity
  8
BEMA_U_00DFUNG
 62
     7
  0
POLYLINE
  5
730
330
1F
100
AcDbEntity
  8
BEMA_U_00DFUNG
 62
     7
100
AcDb2dPolyline
 66
     1
 10
0.0
 20
0.0
 30
0.0
  0
VERTEX
  5
731
330
730
100
AcDbEntity
  8
BEMA_U_00DFUNG
 62
     7
100
AcDbVertex
100
AcDb2dVertex
 10
45.66671321446132
 20
164.5433391432614
 30
0.0
  0
VERTEX
  5
732
330
730
100
AcDbEntity
  8
BEMA_U_00DFUNG
 62
     7
100
AcDbVertex
100
AcDb2dVertex
 10
45.66671321446132
 20
166.5005502538831
 30
0.0
  0
SEQEND
  5
733
330
730
100
AcDbEntity
  8
BEMA_U_00DFUNG
 62
     7
  0
POLYLINE
  5
734
330
1F
100
AcDbEntity
  8
BEMA_U_00DFUNG
 62
     7
100
AcDb2dPolyline
 66
     1
 10
0.0
 20
0.0
 30
0.0
  0
VERTEX
  5
735
330
734
100
AcDbEntity
  8
BEMA_U_00DFUNG
 62
     7
100
AcDbVertex
100
AcDb2dVertex
 10
45.61626599225171
 20
164.5433391432614
 30
0.0
  0
VERTEX
  5
736
330
734
100
AcDbEntity
  8
BEMA_U_00DFUNG
 62
     7
100
AcDbVertex
100
AcDb2dVertex
 10
45.61626599225171
 20
166.8857835871204
 30
0.0
  0
SEQEND
  5
737
330
734
100
AcDbEntity
  8
BEMA_U_00DFUNG
 62
     7
  0
POLYLINE
  5
738
330
1F
100
AcDbEntity
  8
BEMA_U_00DFUNG
 62
     7
100
AcDb2dPolyline
 66
     1
 10
0.0
 20
0.0
 30
0.0
  0
VERTEX
  5
739
330
738
100
AcDbEntity
  8
BEMA_U_00DFUNG
 62
     7
100
AcDbVertex
100
AcDb2dVertex
 10
45.56546599226432
 20
164.5433391432614
 30
0.0
  0
VERTEX
  5
73A
330
738
100
AcDbEntity
  8
BEMA_U_00DFUNG
 62
     7
100
AcDbVertex
100
AcDb2dVertex
 10
45.56546599226432
 20
167.2720752536906
 30
0.0
  0
SEQEND
  5
73B
330
738
100
AcDbEntity
  8
BEMA_U_00DFUNG
 62
     7
  0
POLYLINE
  5
73C
330
1F
100
AcDbEntity
  8
BEMA_U_00DFUNG
 62
     7
100
AcDb2dPolyline
 66
     1
 10
0.0
 20
0.0
 30
0.0
  0
VERTEX
  5
73D
330
73C
100
AcDbEntity
  8
BEMA_U_00DFUNG
 62
     7
100
AcDbVertex
100
AcDb2dVertex
 10
45.51431321449918
 20
164.5433391432614
 30
0.0
  0
VERTEX
  5
73E
330
73C
100
AcDbEntity
  8
BEMA_U_00DFUNG
 62
     7
100
AcDbVertex
100
AcDb2dVertex
 10
45.51431321449918
 20
167.6580141424826
 30
0.0
  0
SEQEND
  5
73F
330
73C
100
AcDbEntity
  8
BEMA_U_00DFUNG
 62
     7
  0
POLYLINE
  5
740
330
1F
100
AcDbEntity
  8
BEMA_U_00DFUNG
 62
     7
100
AcDb2dPolyline
 66
     1
 10
0.0
 20
0.0
 30
0.0
  0
VERTEX
  5
741
330
740
100
AcDbEntity
  8
BEMA_U_00DFUNG
 62
     7
100
AcDbVertex
100
AcDb2dVertex
 10
45.46351321451212
 20
164.5433391432614
 30
0.0
  0
VERTEX
  5
742
330
740
100
AcDbEntity
  8
BEMA_U_00DFUNG
 62
     7
100
AcDbVertex
100
AcDb2dVertex
 10
45.46351321451212
 20
168.0439530312751
 30
0.0
  0
SEQEND
  5
743
330
740
100
AcDbEntity
  8
BEMA_U_00DFUNG
 62
     7
  0
MTEXT
  5
745
330
1F
100
AcDbEntity
  8
TEXT
 62
     7
100
AcDbMText
 10
43.68975354267999
 20
204.4459537206916
 30
0.0
 40
3.447529173370601
 41
0.0
 71
     7
 72
     1
  1
\fINDEX Univers 45 Light|b0|i0|c0|p34;\W1;7
 11
6.123233995736766E-17
 21
1.0
 31
0.0
  0
MTEXT
  5
746
330
1F
100
AcDbEntity
  8
TEXT
 62
     7
100
AcDbMText
 10
62.53853842973212
 20
229.3721292770008
 30
0.0
 40
3.447529173370601
 41
0.0
 71
     7
 72
     1
  1
\fINDEX Univers 45 Light|b0|i0|c0|p34;\W1;12,5
  0
MTEXT
  5
747
330
1F
100
AcDbEntity
  8
TEXT
 62
     7
100
AcDbMText
 10
61.72768137766162
 20
219.2198904337137
 30
0.0
 40
3.447529173370601
 41
0.0
 71
     7
 72
     1
  1
\fINDEX Univers 45 Light|b0|i0|c0|p34;\W1;5
  0
MTEXT
  5
748
330
1F
100
AcDbEntity
  8
TEXT
 62
     7
100
AcDbMText
 10
44.38425249473619
 20
175.9506081035275
 30
0.0
 40
3.447529173370601
 41
0.0
 71
     7
 72
     1
  1
\fINDEX Univers 45 Light|b0|i0|c0|p34;\W1;3
 11
6.123233995736766E-17
 21
1.0
 31
0.0
  0
ENDSEC
  0
SECTION
  2
OBJECTS
  0
DICTIONARY
  5
C
330
0
100
AcDbDictionary
  3
ACAD_GROUP
350
D
  3
ACAD_LAYOUT
350
1A
  3
ACAD_MATERIAL
350
3B
  3
ACAD_MLEADERSTYLE
350
76B
  3
ACAD_MLINESTYLE
350
17
  3
ACAD_PLOTSETTINGS
350
19
  3
ACAD_VISUALSTYLE
350
2A
  3
ACDBHEADERROUNDTRIPXREC
350
749
  3
ACDBVARIABLEDICTIONARY
350
769
  0
DICTIONARY
  5
D
102
{ACAD_REACTORS
330
C
102
}
330
C
100
AcDbDictionary
  0
DICTIONARY
  5
1A
102
{ACAD_REACTORS
330
C
102
}
330
C
100
AcDbDictionary
  0
DICTIONARY
  5
3B
102
{ACAD_REACTORS
330
C
102
}
330
C
100
AcDbDictionary
  3
BYBLOCK
350
3D
  3
BYLAYER
350
3C
  3
GLOBAL
350
3E
  0
DICTIONARY
  5
76B
102
{ACAD_REACTORS
330
C
102
}
330
C
100
AcDbDictionary
  0
DICTIONARY
  5
17
102
{ACAD_REACTORS
330
C
102
}
330
C
100
AcDbDictionary
  3
STANDARD
350
18
  0
DICTIONARY
  5
19
102
{ACAD_REACTORS
330
C
102
}
330
C
100
AcDbDictionary
  0
DICTIONARY
  5
2A
102
{ACAD_REACTORS
330
C
102
}
330
C
100
AcDbDictionary
  3
2DWIREFRAME
350
2F
  3
3D_HIDDEN
350
31
  3
3DWIREFRAME
350
30
  3
BASIC
350
32
  3
BRIGHTEN
350
36
  3
COLORCHANGE
350
3A
  3
CONCEPTUAL
350
34
  3
DIM
350
35
  3
FACEPATTERN
350
39
  3
FLAT
350
2B
  3
FLATWITHEDGES
350
2C
  3
GOURAUD
350
2D
  3
GOURAUDWITHEDGES
350
2E
  3
LINEPATTERN
350
38
  3
REALISTIC
350
33
  3
THICKEN
350
37
  0
DICTIONARY
  5
749
102
{ACAD_REACTORS
330
C
102
}
330
C
100
AcDbDictionary
  3
CEPSNTYPE
350
752
  3
DIMSTYLEDATA
350
768
  3
FINGERPRINTGUID
350
753
  3
HYPERLINKBASE
350
74C
  3
INSUNITS
350
751
  3
LAYOUTDICT
350
74E
  3
LWETCUNION
350
750
  3
PLOTSETDICT
350
74F
  3
PSVPSCALE
350
755
  3
PUCSBASE
350
758
  3
PUCSORGBACK
350
75E
  3
PUCSORGBOTTOM
350
75A
  3
PUCSORGFRONT
350
75D
  3
PUCSORGLEFT
350
75B
  3
PUCSORGRIGHT
350
75C
  3
PUCSORGTOP
350
759
  3
PUCSORTHOREF
350
756
  3
PUCSORTHOVIEW
350
757
  3
STYLESHEET
350
74D
  3
TSTACKALIGN
350
74A
  3
TSTACKSIZE
350
74B
  3
UCSBASE
350
761
  3
UCSORGBACK
350
767
  3
UCSORGBOTTOM
350
763
  3
UCSORGFRONT
350
766
  3
UCSORGLEFT
350
764
  3
UCSORGRIGHT
350
765
  3
UCSORGTOP
350
762
  3
UCSORTHOREF
350
75F
  3
UCSORTHOVIEW
350
760
  3
VERSIONGUID
350
754
  0
DICTIONARY
  5
769
102
{ACAD_REACTORS
330
C
102
}
330
C
100
AcDbDictionary
  3
DIMASSOC
350
76C
  3
HIDETEXT
350
76D
  0
MATERIAL
  5
3D
102
{ACAD_REACTORS
330
3B
102
}
102
{ACAD_XDICTIONARY
360
770
102
}
330
3B
100
AcDbMaterial
  1
ByBlock
  0
MATERIAL
  5
3C
102
{ACAD_REACTORS
330
3B
102
}
102
{ACAD_XDICTIONARY
360
76E
102
}
330
3B
100
AcDbMaterial
  1
ByLayer
  0
MATERIAL
  5
3E
102
{ACAD_REACTORS
330
3B
102
}
102
{ACAD_XDICTIONARY
360
772
102
}
330
3B
100
AcDbMaterial
  1
Global
  0
MLINESTYLE
  5
18
102
{ACAD_REACTORS
330
17
102
}
330
17
100
AcDbMlineStyle
  2
Standard
 70
     0
  3

 62
   256
 51
90.0
 52
90.0
 71
     2
 49
0.5
 62
   256
  6
BYLAYER
 49
-0.5
 62
   256
  6
BYLAYER
  0
ACAD_PROXY_OBJECT
  5
2F
102
{ACAD_REACTORS
330
2A
102
}
330
2A
100
AcDbProxyObject
 90
      499
 91
      501
 93
      436
310
42CC9915DA5C99599C985B595049028333333333333E3BF0000000000000FB0107901411070040501600405405064090741402480A0340
1001
ACAD
1000
AcDbSavedByObjectVersion
1070
     0
  0
ACAD_PROXY_OBJECT
  5
31
102
{ACAD_REACTORS
330
2A
102
}
330
2A
100
AcDbProxyObject
 90
      499
 91
      501
 93
      500
310
424CD108121A5919195B90640502408333333333333E3BF0000000000000FB01079024090700405020000000000001110200405405064090740C02480A0340
1001
ACAD
1000
AcDbSavedByObjectVersion
1070
     0
  0
ACAD_PROXY_OBJECT
  5
30
102
{ACAD_REACTORS
330
2A
102
}
330
2A
100
AcDbProxyObject
 90
      499
 91
      501
 93
      436
310
42CCD915DA5C99599C985B595059028333333333333E3BF0000000000000FB0107901411070040501600405405064090741402480A0340
1001
ACAD
1000
AcDbSavedByObjectVersion
1070
     0
  0
ACAD_PROXY_OBJECT
  5
32
102
{ACAD_REACTORS
330
2A
102
}
330
2A
100
AcDbProxyObject
 90
      499
 91
      501
 93
      388
310
4150985CDA58D07406404333333333333E3BF0000000000000FB0107A41107004050150841D405064090741402480A0350
1001
ACAD
1000
AcDbSavedByObjectVersion
1070
     0
  0
ACAD_PROXY_OBJECT
  5
36
102
{ACAD_REACTORS
330
2A
102
}
330
2A
100
AcDbProxyObject
 90
      499
 91
      501
 93
      428
310
42109C9A59DA1D195B90C409028333333333333E3BF0000000000000FB010790141107004050150841D405064090741402480A029950
1001
ACAD
1000
AcDbSavedByObjectVersion
1070
     0
  0
ACAD_PROXY_OBJECT
  5
3A
102
{ACAD_REACTORS
330
2A
102
}
330
2A
100
AcDbProxyObject
 90
      499
 91
      501
 93
      452
310
42D0DBDB1BDC90DA185B99D95104090240C333333333333E3BF0000000000000FB0108901411070040501508421405064090741402480A0350
1001
ACAD
1000
AcDbSavedByObjectVersion
1070
     0
  0
ACAD_PROXY_OBJECT
  5
34
102
{ACAD_REACTORS
330
2A
102
}
330
2A
100
AcDbProxyObject
 90
      499
 91
      501
 93
      500
310
4290DBDB98D95C1D1D585B10940D028333333333333E3BF0000000000000FB0107902409070040501000000000000111010841D405064090740C02480A0340
1001
ACAD
1000
AcDbSavedByObjectVersion
1070
     0
  0
ACAD_PROXY_OBJECT
  5
35
102
{ACAD_REACTORS
330
2A
102
}
330
2A
100
AcDbProxyObject
 90
      499
 91
      501
 93
      412
310
40D11A5B50B409028333333333333E3BF0000000000000FB010790141107004050150841D405064090741402480A02677FFFFFD0
1001
ACAD
1000
AcDbSavedByObjectVersion
1070
     0
  0
ACAD_PROXY_OBJECT
  5
39
102
{ACAD_REACTORS
330
2A
102
}
330
2A
100
AcDbProxyObject
 90
      499
 91
      501
 93
      444
310
42D19858D95C185D1D195C9B90F409028333333333333E3BF0000000000000FB010790141107004050150841D405064090741402480A0350
1001
ACAD
1000
AcDbSavedByObjectVersion
1070
     0
  0
ACAD_PROXY_OBJECT
  5
2B
102
{ACAD_REACTORS
330
2A
102
}
330
2A
100
AcDbProxyObject
 90
      499
 91
      501
 93
      388
310
41119B185D240901404333333333333E3BF0000000000000F9010740A41107004050150841D405064090741402480A1B50
1001
ACAD
1000
AcDbSavedByObjectVersion
1070
     0
  0
ACAD_PROXY_OBJECT
  5
2C
102
{ACAD_REACTORS
330
2A
102
}
330
2A
100
AcDbProxyObject
 90
      499
 91
      501
 93
      476
310
43519B185D15DA5D1A115919D95CD0140901404333333333333E3BF0000000000000F9010740901411070040501600405405064090741402480A1B50
1001
ACAD
1000
AcDbSavedByObjectVersion
1070
     0
  0
ACAD_PROXY_OBJECT
  5
2D
102
{ACAD_REACTORS
330
2A
102
}
330
2A
100
AcDbProxyObject
 90
      499
 91
      501
 93
      412
310
41D1DBDD5C985D5910240902404333333333333E3BF0000000000000F9010740A411070040501641D405064090741402480A1B50
1001
ACAD
1000
AcDbSavedByObjectVersion
1070
     0
  0
ACAD_PROXY_OBJECT
  5
2E
102
{ACAD_REACTORS
330
2A
102
}
330
2A
100
AcDbProxyObject
 90
      499
 91
      501
 93
      500
310
4411DBDD5C985D5915DA5D1A115919D95CD0340902404333333333333E3BF0000000000000F9010740901411070040501600405405064090741402480A1B50
1001
ACAD
1000
AcDbSavedByObjectVersion
1070
     0
  0
ACAD_PROXY_OBJECT
  5
38
102
{ACAD_REACTORS
330
2A
102
}
330
2A
100
AcDbProxyObject
 90
      499
 91
      501
 93
      444
310
42D31A5B995C185D1D195C9B90E409028333333333333E3BF0000000000000FB010790141107004050750841D405064090741402483A0350
1001
ACAD
1000
AcDbSavedByObjectVersion
1070
     0
  0
ACAD_PROXY_OBJECT
  5
33
102
{ACAD_REACTORS
330
2A
102
}
330
2A
100
AcDbProxyObject
 90
      499
 91
      501
 93
      420
310
425499585B1A5CDD1A58D08409028333333333333E3BF0000000000000FB01079019070040501508421405064090741402480A1B40
1001
ACAD
1000
AcDbSavedByObjectVersion
1070
     0
  0
ACAD_PROXY_OBJECT
  5
37
102
{ACAD_REACTORS
330
2A
102
}
330
2A
100
AcDbProxyObject
 90
      499
 91
      501
 93
      412
310
41D51A1A58DAD95B90D409028333333333333E3BF0000000000000FB010790141107004050150C41D405064090741402480A0350
1001
ACAD
1000
AcDbSavedByObjectVersion
1070
     0
  0
XRECORD
  5
752
102
{ACAD_REACTORS
330
749
102
}
330
749
100
AcDbXrecord
 90
        0
  0
XRECORD
  5
768
102
{ACAD_REACTORS
330
749
102
}
330
749
100
AcDbXrecord
1000
DSTYLE
1002
{
1070
   340
340
11
1002
}
  0
XRECORD
  5
753
102
{ACAD_REACTORS
330
749
102
}
330
749
100
AcDbXrecord
  1
{59FFEFC6-C46A-45F7-B082-E05FE0E780F6}
  0
XRECORD
  5
74C
102
{ACAD_REACTORS
330
749
102
}
330
749
100
AcDbXrecord
  1

  0
XRECORD
  5
751
102
{ACAD_REACTORS
330
749
102
}
330
749
100
AcDbXrecord
 90
        4
  0
XRECORD
  5
74E
102
{ACAD_REACTORS
330
749
102
}
330
749
100
AcDbXrecord
340
1A
  0
XRECORD
  5
750
102
{ACAD_REACTORS
330
749
102
}
330
749
100
AcDbXrecord
 90
    10269
  0
XRECORD
  5
74F
102
{ACAD_REACTORS
330
749
102
}
330
749
100
AcDbXrecord
340
19
  0
XRECORD
  5
755
102
{ACAD_REACTORS
330
749
102
}
330
749
100
AcDbXrecord
 40
0.0
  0
XRECORD
  5
758
102
{ACAD_REACTORS
330
749
102
}
330
749
100
AcDbXrecord
340
0
  0
XRECORD
  5
75E
102
{ACAD_REACTORS
330
749
102
}
330
749
100
AcDbXrecord
 10
0.0
 20
0.0
 30
0.0
  0
XRECORD
  5
75A
102
{ACAD_REACTORS
330
749
102
}
330
749
100
AcDbXrecord
 10
0.0
 20
0.0
 30
0.0
  0
XRECORD
  5
75D
102
{ACAD_REACTORS
330
749
102
}
330
749
100
AcDbXrecord
 10
0.0
 20
0.0
 30
0.0
  0
XRECORD
  5
75B
102
{ACAD_REACTORS
330
749
102
}
330
749
100
AcDbXrecord
 10
0.0
 20
0.0
 30
0.0
  0
XRECORD
  5
75C
102
{ACAD_REACTORS
330
749
102
}
330
749
100
AcDbXrecord
 10
0.0
 20
0.0
 30
0.0
  0
XRECORD
  5
759
102
{ACAD_REACTORS
330
749
102
}
330
749
100
AcDbXrecord
 10
0.0
 20
0.0
 30
0.0
  0
XRECORD
  5
756
102
{ACAD_REACTORS
330
749
102
}
330
749
100
AcDbXrecord
340
0
  0
XRECORD
  5
757
102
{ACAD_REACTORS
330
749
102
}
330
749
100
AcDbXrecord
 70
     0
  0
XRECORD
  5
74D
102
{ACAD_REACTORS
330
749
102
}
330
749
100
AcDbXrecord
  1

  0
XRECORD
  5
74A
102
{ACAD_REACTORS
330
749
102
}
330
749
100
AcDbXrecord
 90
        1
  0
XRECORD
  5
74B
102
{ACAD_REACTORS
330
749
102
}
330
749
100
AcDbXrecord
 90
       70
  0
XRECORD
  5
761
102
{ACAD_REACTORS
330
749
102
}
330
749
100
AcDbXrecord
340
0
  0
XRECORD
  5
767
102
{ACAD_REACTORS
330
749
102
}
330
749
100
AcDbXrecord
 10
0.0
 20
0.0
 30
0.0
  0
XRECORD
  5
763
102
{ACAD_REACTORS
330
749
102
}
330
749
100
AcDbXrecord
 10
0.0
 20
0.0
 30
0.0
  0
XRECORD
  5
766
102
{ACAD_REACTORS
330
749
102
}
330
749
100
AcDbXrecord
 10
0.0
 20
0.0
 30
0.0
  0
XRECORD
  5
764
102
{ACAD_REACTORS
330
749
102
}
330
749
100
AcDbXrecord
 10
0.0
 20
0.0
 30
0.0
  0
XRECORD
  5
765
102
{ACAD_REACTORS
330
749
102
}
330
749
100
AcDbXrecord
 10
0.0
 20
0.0
 30
0.0
  0
XRECORD
  5
762
102
{ACAD_REACTORS
330
749
102
}
330
749
100
AcDbXrecord
 10
0.0
 20
0.0
 30
0.0
  0
XRECORD
  5
75F
102
{ACAD_REACTORS
330
749
102
}
330
749
100
AcDbXrecord
340
0
  0
XRECORD
  5
760
102
{ACAD_REACTORS
330
749
102
}
330
749
100
AcDbXrecord
 70
     0
  0
XRECORD
  5
754
102
{ACAD_REACTORS
330
749
102
}
330
749
100
AcDbXrecord
  1
{FAEB1C32-E019-11D5-929B-00C0DF256EC4}
  0
DICTIONARYVAR
  5
76C
102
{ACAD_REACTORS
330
769
102
}
330
769
100
DictionaryVariables
280
     0
  1
2
  0
DICTIONARYVAR
  5
76D
102
{ACAD_REACTORS
330
769
102
}
330
769
100
DictionaryVariables
280
     0
  1
1
  0
DICTIONARY
  5
770
330
3D
100
AcDbDictionary
280
     1
  3
ACAD_XREC_ROUNDTRIP
360
771
  0
DICTIONARY
  5
76E
330
3C
100
AcDbDictionary
280
     1
  3
ACAD_XREC_ROUNDTRIP
360
76F
  0
DICTIONARY
  5
772
330
3E
100
AcDbDictionary
280
     1
  3
ACAD_XREC_ROUNDTRIP
360
773
  0
XRECORD
  5
771
102
{ACAD_REACTORS
330
770
102
}
330
770
100
AcDbXrecord
102
MATERIAL
148
0.0
149
0.0
149
0.0
 93
        0
 94
      127
282
     0
 72
     1
 77
     1
171
     1
175
     1
179
     1
273
     0
  0
XRECORD
  5
76F
102
{ACAD_REACTORS
330
76E
102
}
330
76E
100
AcDbXrecord
102
MATERIAL
148
0.0
149
0.0
149
0.0
 93
        0
 94
      127
282
     0
 72
     1
 77
     1
171
     1
175
     1
179
     1
273
     0
  0
XRECORD
  5
773
102
{ACAD_REACTORS
330
772
102
}
330
772
100
AcDbXrecord
102
MATERIAL
148
0.0
149
0.0
149
0.0
 93
        0
 94
      127
282
     0
 72
     1
 77
     1
171
     1
175
     1
179
     1
273
     0
  0
ENDSEC
  0
EOF
