  0
SECTION
  2
HEADER
  9
$ACADVER
  1
AC1014
  9
$ACADMAINTVER
 70
     9
  9
$DWGCODEPAGE
  3
ANSI_1252
  9
$INSBASE
 10
0.0
 20
0.0
 30
0.0
  9
$EXTMIN
 10
1.000000000000000E+20
 20
1.000000000000000E+20
 30
1.000000000000000E+20
  9
$EXTMAX
 10
-1.000000000000000E+20
 20
-1.000000000000000E+20
 30
-1.000000000000000E+20
  9
$LIMMIN
 10
0.0
 20
0.0
  9
$LIMMAX
 10
12.0
 20
9.0
  9
$ORTHOMODE
 70
     0
  9
$REGENMODE
 70
     1
  9
$FILLMODE
 70
     1
  9
$QTEXTMODE
 70
     0
  9
$MIRRTEXT
 70
     1
  9
$DRAGMODE
 70
     2
  9
$LTSCALE
 40
1.0
  9
$OSMODE
 70
    37
  9
$ATTMODE
 70
     1
  9
$TEXTSIZE
 40
0.2
  9
$TRACEWID
 40
0.05
  9
$TEXTSTYLE
  7
STANDARD
  9
$CLAYER
  8
0
  9
$CELTYPE
  6
BYLAYER
  9
$CECOLOR
 62
   256
  9
$CELTSCALE
 40
1.0
  9
$DELOBJ
 70
     1
  9
$DISPSILH
 70
     0
  9
$DIMSCALE
 40
1.0
  9
$DIMASZ
 40
0.18
  9
$DIMEXO
 40
0.0625
  9
$DIMDLI
 40
0.38
  9
$DIMRND
 40
0.0
  9
$DIMDLE
 40
0.0
  9
$DIMEXE
 40
0.18
  9
$DIMTP
 40
0.0
  9
$DIMTM
 40
0.0
  9
$DIMTXT
 40
0.18
  9
$DIMCEN
 40
0.09
  9
$DIMTSZ
 40
0.0
  9
$DIMTOL
 70
     0
  9
$DIMLIM
 70
     0
  9
$DIMTIH
 70
     1
  9
$DIMTOH
 70
     1
  9
$DIMSE1
 70
     0
  9
$DIMSE2
 70
     0
  9
$DIMTAD
 70
     0
  9
$DIMZIN
 70
     0
  9
$DIMBLK
  1

  9
$DIMASO
 70
     1
  9
$DIMSHO
 70
     1
  9
$DIMPOST
  1

  9
$DIMAPOST
  1

  9
$DIMALT
 70
     0
  9
$DIMALTD
 70
     2
  9
$DIMALTF
 40
25.4
  9
$DIMLFAC
 40
1.0
  9
$DIMTOFL
 70
     0
  9
$DIMTVP
 40
0.0
  9
$DIMTIX
 70
     0
  9
$DIMSOXD
 70
     0
  9
$DIMSAH
 70
     0
  9
$DIMBLK1
  1

  9
$DIMBLK2
  1

  9
$DIMSTYLE
  2
STANDARD
  9
$DIMCLRD
 70
     0
  9
$DIMCLRE
 70
     0
  9
$DIMCLRT
 70
     0
  9
$DIMTFAC
 40
1.0
  9
$DIMGAP
 40
0.09
  9
$DIMJUST
 70
     0
  9
$DIMSD1
 70
     0
  9
$DIMSD2
 70
     0
  9
$DIMTOLJ
 70
     1
  9
$DIMTZIN
 70
     0
  9
$DIMALTZ
 70
     0
  9
$DIMALTTZ
 70
     0
  9
$DIMFIT
 70
     3
  9
$DIMUPT
 70
     0
  9
$DIMUNIT
 70
     2
  9
$DIMDEC
 70
     4
  9
$DIMTDEC
 70
     4
  9
$DIMALTU
 70
     2
  9
$DIMALTTD
 70
     2
  9
$DIMTXSTY
  7
STANDARD
  9
$DIMAUNIT
 70
     0
  9
$LUNITS
 70
     2
  9
$LUPREC
 70
     4
  9
$SKETCHINC
 40
0.1
  9
$FILLETRAD
 40
0.5
  9
$AUNITS
 70
     0
  9
$AUPREC
 70
     0
  9
$MENU
  1
.
  9
$ELEVATION
 40
0.0
  9
$PELEVATION
 40
0.0
  9
$THICKNESS
 40
0.0
  9
$LIMCHECK
 70
     0
  9
$CHAMFERA
 40
0.5
  9
$CHAMFERB
 40
0.5
  9
$CHAMFERC
 40
1.0
  9
$CHAMFERD
 40
0.0
  9
$SKPOLY
 70
     0
  9
$TDCREATE
 40
2458890.45833213
  9
$TDUPDATE
 40
2458890.458332465
  9
$TDINDWG
 40
0.0000000116
  9
$TDUSRTIMER
 40
0.0000000116
  9
$USRTIMER
 70
     1
  9
$ANGBASE
 50
0.0
  9
$ANGDIR
 70
     0
  9
$PDMODE
 70
     0
  9
$PDSIZE
 40
0.0
  9
$PLINEWID
 40
0.0
  9
$COORDS
 70
     1
  9
$SPLFRAME
 70
     0
  9
$SPLINETYPE
 70
     6
  9
$SPLINESEGS
 70
     8
  9
$ATTDIA
 70
     0
  9
$ATTREQ
 70
     1
  9
$HANDLING
 70
     1
  9
$HANDSEED
  5
789
  9
$SURFTAB1
 70
     6
  9
$SURFTAB2
 70
     6
  9
$SURFTYPE
 70
     6
  9
$SURFU
 70
     6
  9
$SURFV
 70
     6
  9
$UCSNAME
  2

  9
$UCSORG
 10
0.0
 20
0.0
 30
0.0
  9
$UCSXDIR
 10
1.0
 20
0.0
 30
0.0
  9
$UCSYDIR
 10
0.0
 20
1.0
 30
0.0
  9
$PUCSNAME
  2

  9
$PUCSORG
 10
0.0
 20
0.0
 30
0.0
  9
$PUCSXDIR
 10
1.0
 20
0.0
 30
0.0
  9
$PUCSYDIR
 10
0.0
 20
1.0
 30
0.0
  9
$USERI1
 70
     0
  9
$USERI2
 70
     0
  9
$USERI3
 70
     0
  9
$USERI4
 70
     0
  9
$USERI5
 70
     0
  9
$USERR1
 40
0.0
  9
$USERR2
 40
0.0
  9
$USERR3
 40
0.0
  9
$USERR4
 40
0.0
  9
$USERR5
 40
0.0
  9
$WORLDVIEW
 70
     1
  9
$SHADEDGE
 70
     3
  9
$SHADEDIF
 70
    70
  9
$TILEMODE
 70
     1
  9
$MAXACTVP
 70
    64
  9
$PINSBASE
 10
0.0
 20
0.0
 30
0.0
  9
$PLIMCHECK
 70
     0
  9
$PEXTMIN
 10
1.000000000000000E+20
 20
1.000000000000000E+20
 30
1.000000000000000E+20
  9
$PEXTMAX
 10
-1.000000000000000E+20
 20
-1.000000000000000E+20
 30
-1.000000000000000E+20
  9
$PLIMMIN
 10
0.0
 20
0.0
  9
$PLIMMAX
 10
12.0
 20
9.0
  9
$UNITMODE
 70
     0
  9
$VISRETAIN
 70
     1
  9
$PLINEGEN
 70
     0
  9
$PSLTSCALE
 70
     1
  9
$TREEDEPTH
 70
  3020
  9
$PICKSTYLE
 70
     1
  9
$CMLSTYLE
  2
STANDARD
  9
$CMLJUST
 70
     0
  9
$CMLSCALE
 40
1.0
  9
$PROXYGRAPHICS
 70
     1
  9
$MEASUREMENT
 70
     0
  0
ENDSEC
  0
SECTION
  2
CLASSES
  0
CLASS
  1
ACDBDICTIONARYWDFLT
  2
AcDbDictionaryWithDefault
  3
ObjectDBX Classes
 90
        0
280
     0
281
     0
  0
CLASS
  1
VISUALSTYLE
  2
AcDbVisualStyle
  3
ObjectDBX Classes
 90
     4095
280
     0
281
     0
  0
CLASS
  1
MATERIAL
  2
AcDbMaterial
  3
ObjectDBX Classes
 90
     1153
280
     0
281
     0
  0
CLASS
  1
SUN
  2
AcDbSun
  3
SCENEOE
 90
     1024
280
     0
281
     0
  0
CLASS
  1
DICTIONARYVAR
  2
AcDbDictionaryVar
  3
ObjectDBX Classes
 90
        0
280
     0
281
     0
  0
CLASS
  1
XRECORD
  2
AcDbXrecord
  3
AutoCAD 2000
 90
        0
280
     0
281
     0
  0
CLASS
  1
LWPOLYLINE
  2
AcDbPolyline
  3
AutoCAD 2000
 90
        0
280
     0
281
     1
  0
CLASS
  1
HATCH
  2
AcDbHatch
  3
AutoCAD 2000
 90
        0
280
     0
281
     1
  0
CLASS
  1
ACDBPLACEHOLDER
  2
AcDbPlaceHolder
  3
ObjectDBX Classes
 90
        0
280
     0
281
     0
  0
CLASS
  1
LAYOUT
  2
AcDbLayout
  3
ObjectDBX Classes
 90
        0
280
     0
281
     0
  0
ENDSEC
  0
SECTION
  2
TABLES
  0
TABLE
  2
VPORT
  5
8
330
0
100
AcDbSymbolTable
 70
     1
  0
VPORT
  5
29
330
8
100
AcDbSymbolTableRecord
100
AcDbViewportTableRecord
  2
*ACTIVE
 70
     0
 10
0.0
 20
0.0
 11
1.0
 21
1.0
 12
0.0
 22
0.0
 13
0.0
 23
0.0
 14
0.5
 24
0.5
 15
0.5
 25
0.5
 16
0.0
 26
0.0
 36
1.0
 17
100.0611110860992
 27
127.0194444126945
 37
0.0
 40
296.9999999257403
 41
0.7070707070707531
 42
50.0
 43
0.0
 44
0.0
 50
0.0
 51
0.0
 71
     0
 72
   100
 73
     1
 74
     3
 75
     0
 76
     0
 77
     0
 78
     0
  0
ENDTAB
  0
TABLE
  2
LTYPE
  5
5
330
0
100
AcDbSymbolTable
 70
     1
  0
LTYPE
  5
14
330
5
100
AcDbSymbolTableRecord
100
AcDbLinetypeTableRecord
  2
BYBLOCK
 70
     0
  3

 72
    65
 73
     0
 40
0.0
  0
LTYPE
  5
15
330
5
100
AcDbSymbolTableRecord
100
AcDbLinetypeTableRecord
  2
BYLAYER
 70
     0
  3

 72
    65
 73
     0
 40
0.0
  0
LTYPE
  5
16
330
5
100
AcDbSymbolTableRecord
100
AcDbLinetypeTableRecord
  2
CONTINUOUS
 70
     0
  3
Solid line
 72
    65
 73
     0
 40
0.0
  0
ENDTAB
  0
TABLE
  2
LAYER
  5
2
330
0
100
AcDbSymbolTable
 70
     5
  0
LAYER
  5
10
330
2
100
AcDbSymbolTableRecord
100
AcDbLayerTableRecord
  2
0
 70
     0
 62
     7
  6
CONTINUOUS
  0
LAYER
  5
40
330
2
100
AcDbSymbolTableRecord
100
AcDbLayerTableRecord
  2
GRAU_10_
 70
     0
 62
     7
  6
CONTINUOUS
  0
LAYER
  5
41
330
2
100
AcDbSymbolTableRecord
100
AcDbLayerTableRecord
  2
STANDARDEBENE
 70
     0
 62
     7
  6
CONTINUOUS
  0
LAYER
  5
438
330
2
100
AcDbSymbolTableRecord
100
AcDbLayerTableRecord
  2
BEMA_U_00DFUNG
 70
     1
 62
     7
  6
CONTINUOUS
  0
LAYER
  5
759
330
2
100
AcDbSymbolTableRecord
100
AcDbLayerTableRecord
  2
TEXT
 70
     1
 62
     7
  6
CONTINUOUS
  0
ENDTAB
  0
TABLE
  2
STYLE
  5
3
330
0
100
AcDbSymbolTable
 70
     1
  0
STYLE
  5
11
330
3
100
AcDbSymbolTableRecord
100
AcDbTextStyleTableRecord
  2
STANDARD
 70
     0
 40
0.0
 41
1.0
 50
0.0
 71
     0
 42
0.2
  3
txt
  4

  0
ENDTAB
  0
TABLE
  2
VIEW
  5
6
330
0
100
AcDbSymbolTable
 70
     0
  0
ENDTAB
  0
TABLE
  2
UCS
  5
7
330
0
100
AcDbSymbolTable
 70
     0
  0
ENDTAB
  0
TABLE
  2
APPID
  5
9
330
0
100
AcDbSymbolTable
 70
     1
  0
APPID
  5
12
330
9
100
AcDbSymbolTableRecord
100
AcDbRegAppTableRecord
  2
ACAD
 70
     0
  0
ENDTAB
  0
TABLE
  2
DIMSTYLE
  5
A
330
0
100
AcDbSymbolTable
 70
     1
  0
DIMSTYLE
105
27
330
A
100
AcDbSymbolTableRecord
100
AcDbDimStyleTableRecord
  2
STANDARD
 70
     0
  3

  4

  5

  6

  7

 40
1.0
 41
0.18
 42
0.0625
 43
0.38
 44
0.18
 45
0.0
 46
0.0
 47
0.0
 48
0.0
140
0.18
141
0.09
142
0.0
143
25.4
144
1.0
145
0.0
146
1.0
147
0.09
 71
     0
 72
     0
 73
     1
 74
     1
 75
     0
 76
     0
 77
     0
 78
     0
170
     0
171
     2
172
     0
173
     0
174
     0
175
     0
176
     0
177
     0
178
     0
270
     2
271
     4
272
     4
273
     2
274
     2
340
11
275
     0
280
     0
281
     0
282
     0
283
     1
284
     0
285
     0
286
     0
287
     3
288
     0
  0
ENDTAB
  0
TABLE
  2
BLOCK_RECORD
  5
1
330
0
100
AcDbSymbolTable
 70
     4
  0
BLOCK_RECORD
  5
1F
330
1
100
AcDbSymbolTableRecord
100
AcDbBlockTableRecord
  2
*MODEL_SPACE
  0
BLOCK_RECORD
  5
1B
330
1
100
AcDbSymbolTableRecord
100
AcDbBlockTableRecord
  2
*PAPER_SPACE
  0
BLOCK_RECORD
  5
42
330
1
100
AcDbSymbolTableRecord
100
AcDbBlockTableRecord
  2
BLOCK_2
  0
BLOCK_RECORD
  5
46
330
1
100
AcDbSymbolTableRecord
100
AcDbBlockTableRecord
  2
BLOCK_3
  0
BLOCK_RECORD
  5
4A
330
1
100
AcDbSymbolTableRecord
100
AcDbBlockTableRecord
  2
BLOCK_4
  0
ENDTAB
  0
ENDSEC
  0
SECTION
  2
BLOCKS
  0
BLOCK
  5
20
330
1F
100
AcDbEntity
  8
0
100
AcDbBlockBegin
  2
*MODEL_SPACE
 70
     0
 10
0.0
 20
0.0
 30
0.0
  3
*MODEL_SPACE
  1

  0
ENDBLK
  5
21
330
1F
100
AcDbEntity
  8
0
100
AcDbBlockEnd
  0
BLOCK
  5
1C
330
1B
100
AcDbEntity
 67
     1
  8
0
100
AcDbBlockBegin
  2
*PAPER_SPACE
 70
     0
 10
0.0
 20
0.0
 30
0.0
  3
*PAPER_SPACE
  1

  0
ENDBLK
  5
1D
330
1B
100
AcDbEntity
 67
     1
  8
0
100
AcDbBlockEnd
  0
BLOCK
  5
44
330
42
100
AcDbEntity
  8
0
100
AcDbBlockBegin
  2
BLOCK_2
 70
     0
 10
0.0
 20
0.0
 30
0.0
  3
BLOCK_2
  1

  0
INSERT
  5
47
330
42
100
AcDbEntity
  8
STANDARDEBENE
100
AcDbBlockReference
  2
BLOCK_3
 10
0.0
 20
0.0
 30
0.0
  0
INSERT
  5
4B
330
42
100
AcDbEntity
  8
STANDARDEBENE
100
AcDbBlockReference
  2
BLOCK_4
 10
0.0
 20
0.0
 30
0.0
  0
ENDBLK
  5
45
330
42
100
AcDbEntity
  8
0
100
AcDbBlockEnd
  0
BLOCK
  5
48
330
46
100
AcDbEntity
  8
0
100
AcDbBlockBegin
  2
BLOCK_3
 70
     0
 10
0.0
 20
0.0
 30
0.0
  3
BLOCK_3
  1

  0
ENDBLK
  5
49
330
46
100
AcDbEntity
  8
0
100
AcDbBlockEnd
  0
BLOCK
  5
4C
330
4A
100
AcDbEntity
  8
0
100
AcDbBlockBegin
  2
BLOCK_4
 70
     0
 10
0.0
 20
0.0
 30
0.0
  3
BLOCK_4
  1

  0
POLYLINE
  5
4E
330
4A
100
AcDbEntity
  8
STANDARDEBENE
 62
     7
100
AcDb2dPolyline
 66
     1
 10
0.0
 20
0.0
 30
0.0
  0
VERTEX
  5
4F
330
4E
100
AcDbEntity
  8
STANDARDEBENE
 62
     7
100
AcDbVertex
100
AcDb2dVertex
 10
67.61691664976247
 20
217.5404166122816
 30
0.0
  0
VERTEX
  5
50
330
4E
100
AcDbEntity
  8
STANDARDEBENE
 62
     7
100
AcDbVertex
100
AcDb2dVertex
 10
68.86574998278358
 20
217.4310555011977
 30
0.0
  0
VERTEX
  5
51
330
4E
100
AcDbEntity
  8
STANDARDEBENE
 62
     7
100
AcDbVertex
100
AcDb2dVertex
 10
70.28038887131889
 20
217.6815277233573
 30
0.0
  0
SEQEND
  5
52
330
4E
100
AcDbEntity
  8
STANDARDEBENE
 62
     7
  0
POLYLINE
  5
53
330
4A
100
AcDbEntity
  8
STANDARDEBENE
 62
     7
100
AcDb2dPolyline
 66
     1
 10
0.0
 20
0.0
 30
0.0
  0
VERTEX
  5
54
330
53
100
AcDbEntity
  8
STANDARDEBENE
 62
     7
100
AcDbVertex
100
AcDb2dVertex
 10
71.16586109331982
 20
218.3518055009675
 30
0.0
  0
VERTEX
  5
55
330
53
100
AcDbEntity
  8
STANDARDEBENE
 62
     7
100
AcDbVertex
100
AcDb2dVertex
 10
71.91727775979835
 20
218.3518055009675
 30
0.0
  0
SEQEND
  5
56
330
53
100
AcDbEntity
  8
STANDARDEBENE
 62
     7
  0
POLYLINE
  5
57
330
4A
100
AcDbEntity
  8
STANDARDEBENE
 62
     7
100
AcDb2dPolyline
 66
     1
 10
0.0
 20
0.0
 30
0.0
  0
VERTEX
  5
58
330
57
100
AcDbEntity
  8
STANDARDEBENE
 62
     7
100
AcDbVertex
100
AcDb2dVertex
 10
66.91488887216028
 20
217.2546666123529
 30
0.0
  0
VERTEX
  5
59
330
57
100
AcDbEntity
  8
STANDARDEBENE
 62
     7
100
AcDbVertex
100
AcDb2dVertex
 10
71.91727775979835
 20
217.2546666123529
 30
0.0
  0
SEQEND
  5
5A
330
57
100
AcDbEntity
  8
STANDARDEBENE
 62
     7
  0
POLYLINE
  5
5B
330
4A
100
AcDbEntity
  8
STANDARDEBENE
 62
     7
100
AcDb2dPolyline
 66
     1
 10
0.0
 20
0.0
 30
0.0
  0
VERTEX
  5
5C
330
5B
100
AcDbEntity
  8
STANDARDEBENE
 62
     7
100
AcDbVertex
100
AcDb2dVertex
 10
66.91488887216028
 20
217.3534443901061
 30
0.0
  0
VERTEX
  5
5D
330
5B
100
AcDbEntity
  8
STANDARDEBENE
 62
     7
100
AcDbVertex
100
AcDb2dVertex
 10
67.61691664976247
 20
217.5404166122816
 30
0.0
  0
SEQEND
  5
5E
330
5B
100
AcDbEntity
  8
STANDARDEBENE
 62
     7
  0
POLYLINE
  5
5F
330
4A
100
AcDbEntity
  8
STANDARDEBENE
 62
     7
100
AcDb2dPolyline
 66
     1
 10
0.0
 20
0.0
 30
0.0
  0
VERTEX
  5
60
330
5F
100
AcDbEntity
  8
STANDARDEBENE
 62
     7
100
AcDbVertex
100
AcDb2dVertex
 10
71.91727775979835
 20
218.3518055009675
 30
0.0
  0
VERTEX
  5
61
330
5F
100
AcDbEntity
  8
STANDARDEBENE
 62
     7
100
AcDbVertex
100
AcDb2dVertex
 10
71.91727775979835
 20
217.2546666123529
 30
0.0
  0
SEQEND
  5
62
330
5F
100
AcDbEntity
  8
STANDARDEBENE
 62
     7
  0
POLYLINE
  5
63
330
4A
100
AcDbEntity
  8
STANDARDEBENE
 62
     7
100
AcDb2dPolyline
 66
     1
 10
0.0
 20
0.0
 30
0.0
  0
VERTEX
  5
64
330
63
100
AcDbEntity
  8
STANDARDEBENE
 62
     7
100
AcDbVertex
100
AcDb2dVertex
 10
66.91488887216028
 20
217.2546666123529
 30
0.0
  0
VERTEX
  5
65
330
63
100
AcDbEntity
  8
STANDARDEBENE
 62
     7
100
AcDbVertex
100
AcDb2dVertex
 10
66.91488887216028
 20
217.3534443901061
 30
0.0
  0
SEQEND
  5
66
330
63
100
AcDbEntity
  8
STANDARDEBENE
 62
     7
  0
POLYLINE
  5
67
330
4A
100
AcDbEntity
  8
STANDARDEBENE
 62
     7
100
AcDb2dPolyline
 66
     1
 10
0.0
 20
0.0
 30
0.0
  0
VERTEX
  5
68
330
67
100
AcDbEntity
  8
STANDARDEBENE
 62
     7
100
AcDbVertex
100
AcDb2dVertex
 10
67.74391664973061
 20
213.6739721688038
 30
0.0
  0
VERTEX
  5
69
330
67
100
AcDbEntity
  8
STANDARDEBENE
 62
     7
100
AcDbVertex
100
AcDb2dVertex
 10
67.8991388719142
 20
213.6739721688038
 30
0.0
  0
SEQEND
  5
6A
330
67
100
AcDbEntity
  8
STANDARDEBENE
 62
     7
  0
POLYLINE
  5
6B
330
4A
100
AcDbEntity
  8
STANDARDEBENE
 62
     7
100
AcDb2dPolyline
 66
     1
 10
0.0
 20
0.0
 30
0.0
  0
VERTEX
  5
6C
330
6B
100
AcDbEntity
  8
STANDARDEBENE
 62
     7
100
AcDbVertex
100
AcDb2dVertex
 10
67.74391664973061
 20
213.6739721688038
 30
0.0
  0
VERTEX
  5
6D
330
6B
100
AcDbEntity
  8
STANDARDEBENE
 62
     7
100
AcDbVertex
100
AcDb2dVertex
 10
66.91488887216028
 20
217.2546666123529
 30
0.0
  0
SEQEND
  5
6E
330
6B
100
AcDbEntity
  8
STANDARDEBENE
 62
     7
  0
POLYLINE
  5
6F
330
4A
100
AcDbEntity
  8
STANDARDEBENE
 62
     7
100
AcDb2dPolyline
 66
     1
 10
0.0
 20
0.0
 30
0.0
  0
VERTEX
  5
70
330
6F
100
AcDbEntity
  8
STANDARDEBENE
 62
     7
100
AcDbVertex
100
AcDb2dVertex
 10
71.91727775979835
 20
217.2546666123529
 30
0.0
  0
VERTEX
  5
71
330
6F
100
AcDbEntity
  8
STANDARDEBENE
 62
     7
100
AcDbVertex
100
AcDb2dVertex
 10
71.91727775979835
 20
215.4166943905903
 30
0.0
  0
SEQEND
  5
72
330
6F
100
AcDbEntity
  8
STANDARDEBENE
 62
     7
  0
POLYLINE
  5
73
330
4A
100
AcDbEntity
  8
STANDARDEBENE
 62
     7
100
AcDb2dPolyline
 66
     1
 10
0.0
 20
0.0
 30
0.0
  0
VERTEX
  5
74
330
73
100
AcDbEntity
  8
STANDARDEBENE
 62
     7
100
AcDbVertex
100
AcDb2dVertex
 10
75.20869442564245
 20
211.5608332804431
 30
0.0
  0
VERTEX
  5
75
330
73
100
AcDbEntity
  8
STANDARDEBENE
 62
     7
100
AcDbVertex
100
AcDb2dVertex
 10
75.06405553678945
 20
211.7054721692959
 30
0.0
  0
SEQEND
  5
76
330
73
100
AcDbEntity
  8
STANDARDEBENE
 62
     7
  0
POLYLINE
  5
77
330
4A
100
AcDbEntity
  8
STANDARDEBENE
 62
     7
100
AcDb2dPolyline
 66
     1
 10
0.0
 20
0.0
 30
0.0
  0
VERTEX
  5
78
330
77
100
AcDbEntity
  8
STANDARDEBENE
 62
     7
100
AcDbVertex
100
AcDb2dVertex
 10
74.70774998132322
 20
211.8536388359254
 30
0.0
  0
VERTEX
  5
79
330
77
100
AcDbEntity
  8
STANDARDEBENE
 62
     7
100
AcDbVertex
100
AcDb2dVertex
 10
72.1218888708586
 20
211.8536388359254
 30
0.0
  0
SEQEND
  5
7A
330
77
100
AcDbEntity
  8
STANDARDEBENE
 62
     7
  0
POLYLINE
  5
7B
330
4A
100
AcDbEntity
  8
STANDARDEBENE
 62
     7
100
AcDb2dPolyline
 66
     1
 10
0.0
 20
0.0
 30
0.0
  0
VERTEX
  5
7C
330
7B
100
AcDbEntity
  8
STANDARDEBENE
 62
     7
100
AcDbVertex
100
AcDb2dVertex
 10
72.62636109295448
 20
217.3534443901061
 30
0.0
  0
VERTEX
  5
7D
330
7B
100
AcDbEntity
  8
STANDARDEBENE
 62
     7
100
AcDbVertex
100
AcDb2dVertex
 10
77.417083313979
 20
217.2687777234606
 30
0.0
  0
SEQEND
  5
7E
330
7B
100
AcDbEntity
  8
STANDARDEBENE
 62
     7
  0
POLYLINE
  5
7F
330
4A
100
AcDbEntity
  8
STANDARDEBENE
 62
     7
100
AcDb2dPolyline
 66
     1
 10
0.0
 20
0.0
 30
0.0
  0
VERTEX
  5
80
330
7F
100
AcDbEntity
  8
STANDARDEBENE
 62
     7
100
AcDbVertex
100
AcDb2dVertex
 10
78.4154444248405
 20
217.0006666124165
 30
0.0
  0
VERTEX
  5
81
330
7F
100
AcDbEntity
  8
STANDARDEBENE
 62
     7
100
AcDbVertex
100
AcDb2dVertex
 10
79.41733331347896
 20
216.4256388347824
 30
0.0
  0
VERTEX
  5
82
330
7F
100
AcDbEntity
  8
STANDARDEBENE
 62
     7
100
AcDbVertex
100
AcDb2dVertex
 10
79.41733331347896
 20
211.8536388359254
 30
0.0
  0
VERTEX
  5
83
330
7F
100
AcDbEntity
  8
STANDARDEBENE
 62
     7
100
AcDbVertex
100
AcDb2dVertex
 10
79.315027757949
 20
211.8536388359254
 30
0.0
  0
VERTEX
  5
84
330
7F
100
AcDbEntity
  8
STANDARDEBENE
 62
     7
100
AcDbVertex
100
AcDb2dVertex
 10
79.02222220246666
 20
211.5608332804431
 30
0.0
  0
SEQEND
  5
85
330
7F
100
AcDbEntity
  8
STANDARDEBENE
 62
     7
  0
POLYLINE
  5
86
330
4A
100
AcDbEntity
  8
STANDARDEBENE
 62
     7
100
AcDb2dPolyline
 66
     1
 10
0.0
 20
0.0
 30
0.0
  0
VERTEX
  5
87
330
86
100
AcDbEntity
  8
STANDARDEBENE
 62
     7
100
AcDbVertex
100
AcDb2dVertex
 10
71.91727775979835
 20
218.3518055009675
 30
0.0
  0
VERTEX
  5
88
330
86
100
AcDbEntity
  8
STANDARDEBENE
 62
     7
100
AcDbVertex
100
AcDb2dVertex
 10
72.15363887085039
 20
217.6850555011343
 30
0.0
  0
SEQEND
  5
89
330
86
100
AcDbEntity
  8
STANDARDEBENE
 62
     7
  0
POLYLINE
  5
8A
330
4A
100
AcDbEntity
  8
STANDARDEBENE
 62
     7
100
AcDb2dPolyline
 66
     1
 10
0.0
 20
0.0
 30
0.0
  0
VERTEX
  5
8B
330
8A
100
AcDbEntity
  8
STANDARDEBENE
 62
     7
100
AcDbVertex
100
AcDb2dVertex
 10
75.20869442564245
 20
211.5608332804431
 30
0.0
  0
VERTEX
  5
8C
330
8A
100
AcDbEntity
  8
STANDARDEBENE
 62
     7
100
AcDbVertex
100
AcDb2dVertex
 10
79.02222220246666
 20
211.5608332804431
 30
0.0
  0
SEQEND
  5
8D
330
8A
100
AcDbEntity
  8
STANDARDEBENE
 62
     7
  0
POLYLINE
  5
8E
330
4A
100
AcDbEntity
  8
STANDARDEBENE
 62
     7
100
AcDb2dPolyline
 66
     1
 10
0.0
 20
0.0
 30
0.0
  0
VERTEX
  5
8F
330
8E
100
AcDbEntity
  8
STANDARDEBENE
 62
     7
100
AcDbVertex
100
AcDb2dVertex
 10
78.81408331362977
 20
211.3526943916063
 30
0.0
  0
VERTEX
  5
90
330
8E
100
AcDbEntity
  8
STANDARDEBENE
 62
     7
100
AcDbVertex
100
AcDb2dVertex
 10
79.02222220246666
 20
211.5608332804431
 30
0.0
  0
SEQEND
  5
91
330
8E
100
AcDbEntity
  8
STANDARDEBENE
 62
     7
  0
POLYLINE
  5
92
330
4A
100
AcDbEntity
  8
STANDARDEBENE
 62
     7
100
AcDb2dPolyline
 66
     1
 10
0.0
 20
0.0
 30
0.0
  0
VERTEX
  5
93
330
92
100
AcDbEntity
  8
STANDARDEBENE
 62
     7
100
AcDbVertex
100
AcDb2dVertex
 10
75.20869442564245
 20
211.5608332804431
 30
0.0
  0
VERTEX
  5
94
330
92
100
AcDbEntity
  8
STANDARDEBENE
 62
     7
100
AcDbVertex
100
AcDb2dVertex
 10
75.41683331447904
 20
211.3526943916063
 30
0.0
  0
VERTEX
  5
95
330
92
100
AcDbEntity
  8
STANDARDEBENE
 62
     7
100
AcDbVertex
100
AcDb2dVertex
 10
78.81408331362977
 20
211.3526943916063
 30
0.0
  0
SEQEND
  5
96
330
92
100
AcDbEntity
  8
STANDARDEBENE
 62
     7
  0
POLYLINE
  5
97
330
4A
100
AcDbEntity
  8
STANDARDEBENE
 62
     7
100
AcDb2dPolyline
 66
     1
 10
0.0
 20
0.0
 30
0.0
  0
VERTEX
  5
98
330
97
100
AcDbEntity
  8
STANDARDEBENE
 62
     7
100
AcDbVertex
100
AcDb2dVertex
 10
67.91677776079874
 20
211.3526943916063
 30
0.0
  0
VERTEX
  5
99
330
97
100
AcDbEntity
  8
STANDARDEBENE
 62
     7
100
AcDbVertex
100
AcDb2dVertex
 10
71.41633331547943
 20
211.3526943916063
 30
0.0
  0
SEQEND
  5
9A
330
97
100
AcDbEntity
  8
STANDARDEBENE
 62
     7
  0
POLYLINE
  5
9B
330
4A
100
AcDbEntity
  8
STANDARDEBENE
 62
     7
100
AcDb2dPolyline
 66
     1
 10
0.0
 20
0.0
 30
0.0
  0
VERTEX
  5
9C
330
9B
100
AcDbEntity
  8
STANDARDEBENE
 62
     7
100
AcDbVertex
100
AcDb2dVertex
 10
67.91677776079874
 20
211.3526943916063
 30
0.0
  0
VERTEX
  5
9D
330
9B
100
AcDbEntity
  8
STANDARDEBENE
 62
     7
100
AcDbVertex
100
AcDb2dVertex
 10
67.91677776079874
 20
212.9225555023249
 30
0.0
  0
SEQEND
  5
9E
330
9B
100
AcDbEntity
  8
STANDARDEBENE
 62
     7
  0
POLYLINE
  5
9F
330
4A
100
AcDbEntity
  8
STANDARDEBENE
 62
     7
100
AcDb2dPolyline
 66
     1
 10
0.0
 20
0.0
 30
0.0
  0
VERTEX
  5
A0
330
9F
100
AcDbEntity
  8
STANDARDEBENE
 62
     7
100
AcDbVertex
100
AcDb2dVertex
 10
71.76911109316902
 20
211.7054721692959
 30
0.0
  0
VERTEX
  5
A1
330
9F
100
AcDbEntity
  8
STANDARDEBENE
 62
     7
100
AcDbVertex
100
AcDb2dVertex
 10
71.41633331547943
 20
211.3526943916063
 30
0.0
  0
SEQEND
  5
A2
330
9F
100
AcDbEntity
  8
STANDARDEBENE
 62
     7
  0
POLYLINE
  5
A3
330
4A
100
AcDbEntity
  8
STANDARDEBENE
 62
     7
100
AcDb2dPolyline
 66
     1
 10
0.0
 20
0.0
 30
0.0
  0
VERTEX
  5
A4
330
A3
100
AcDbEntity
  8
STANDARDEBENE
 62
     7
100
AcDbVertex
100
AcDb2dVertex
 10
67.91677776079874
 20
212.9225555023249
 30
0.0
  0
VERTEX
  5
A5
330
A3
100
AcDbEntity
  8
STANDARDEBENE
 62
     7
100
AcDbVertex
100
AcDb2dVertex
 10
67.74391664973061
 20
213.6739721688038
 30
0.0
  0
SEQEND
  5
A6
330
A3
100
AcDbEntity
  8
STANDARDEBENE
 62
     7
  0
POLYLINE
  5
A7
330
4A
100
AcDbEntity
  8
STANDARDEBENE
 62
     7
100
AcDb2dPolyline
 66
     1
 10
0.0
 20
0.0
 30
0.0
  0
VERTEX
  5
A8
330
A7
100
AcDbEntity
  8
STANDARDEBENE
 62
     7
100
AcDbVertex
100
AcDb2dVertex
 10
71.91727775979835
 20
215.4166943905903
 30
0.0
  0
VERTEX
  5
A9
330
A7
100
AcDbEntity
  8
STANDARDEBENE
 62
     7
100
AcDbVertex
100
AcDb2dVertex
 10
71.91727775979835
 20
211.8077777248259
 30
0.0
  0
SEQEND
  5
AA
330
A7
100
AcDbEntity
  8
STANDARDEBENE
 62
     7
  0
SPLINE
  5
AB
330
4A
100
AcDbEntity
  8
STANDARDEBENE
 62
     7
100
AcDbSpline
210
0.0
220
0.0
230
1.0
 70
     8
 71
     3
 72
     8
 73
     4
 74
     0
 42
0.0000000001
 43
0.0000000001
 12
1.0
 22
0.0
 32
0.0
 13
1.0
 23
0.0
 33
0.0
 40
0.0
 40
0.0
 40
0.0
 40
0.0
 40
1.0
 40
1.0
 40
1.0
 40
1.0
 10
70.28038887131889
 20
217.6815277233573
 30
0.0
 10
70.47441664904822
 20
217.829694389987
 30
0.0
 10
70.64374998233906
 20
217.999027723278
 30
0.0
 10
70.77780553786114
 20
218.168361056569
 30
0.0
  0
SPLINE
  5
AC
330
4A
100
AcDbEntity
  8
STANDARDEBENE
 62
     7
100
AcDbSpline
210
0.0
220
0.0
230
1.0
 70
     8
 71
     3
 72
     8
 73
     4
 74
     0
 42
0.0000000001
 43
0.0000000001
 12
1.0
 22
0.0
 32
0.0
 13
1.0
 23
0.0
 33
0.0
 40
0.0
 40
0.0
 40
0.0
 40
0.0
 40
1.0
 40
1.0
 40
1.0
 40
1.0
 10
71.16586109331982
 20
218.3518055009675
 30
0.0
 10
71.01063887113622
 20
218.3518055009675
 30
0.0
 10
70.86952776006052
 20
218.2812499454297
 30
0.0
 10
70.77780553786114
 20
218.168361056569
 30
0.0
  0
POLYLINE
  5
AD
330
4A
100
AcDbEntity
  8
STANDARDEBENE
 62
     7
100
AcDb2dPolyline
 66
     1
 10
0.0
 20
0.0
 30
0.0
  0
VERTEX
  5
AE
330
AD
100
AcDbEntity
  8
STANDARDEBENE
 62
     7
100
AcDbVertex
100
AcDb2dVertex
 10
75.06405553678945
 20
211.7054721692959
 30
0.0
  0
VERTEX
  5
AF
330
AD
100
AcDbEntity
  8
STANDARDEBENE
 62
     7
100
AcDbVertex
100
AcDb2dVertex
 10
74.89824998127558
 20
211.8148332803797
 30
0.0
  0
VERTEX
  5
B0
330
AD
100
AcDbEntity
  8
STANDARDEBENE
 62
     7
100
AcDbVertex
100
AcDb2dVertex
 10
74.70774998132322
 20
211.8536388359254
 30
0.0
  0
SEQEND
  5
B1
330
AD
100
AcDbEntity
  8
STANDARDEBENE
 62
     7
  0
POLYLINE
  5
B2
330
4A
100
AcDbEntity
  8
STANDARDEBENE
 62
     7
100
AcDb2dPolyline
 66
     1
 10
0.0
 20
0.0
 30
0.0
  0
VERTEX
  5
B3
330
B2
100
AcDbEntity
  8
STANDARDEBENE
 62
     7
100
AcDbVertex
100
AcDb2dVertex
 10
72.1218888708586
 20
211.8536388359254
 30
0.0
  0
VERTEX
  5
B4
330
B2
100
AcDbEntity
  8
STANDARDEBENE
 62
     7
100
AcDbVertex
100
AcDb2dVertex
 10
72.01605553755167
 20
211.8430555025948
 30
0.0
  0
VERTEX
  5
B5
330
B2
100
AcDbEntity
  8
STANDARDEBENE
 62
     7
100
AcDbVertex
100
AcDb2dVertex
 10
71.91727775979835
 20
211.8077777248259
 30
0.0
  0
SEQEND
  5
B6
330
B2
100
AcDbEntity
  8
STANDARDEBENE
 62
     7
  0
POLYLINE
  5
B7
330
4A
100
AcDbEntity
  8
STANDARDEBENE
 62
     7
100
AcDb2dPolyline
 66
     1
 10
0.0
 20
0.0
 30
0.0
  0
VERTEX
  5
B8
330
B7
100
AcDbEntity
  8
STANDARDEBENE
 62
     7
100
AcDbVertex
100
AcDb2dVertex
 10
72.15363887085039
 20
217.6850555011343
 30
0.0
  0
VERTEX
  5
B9
330
B7
100
AcDbEntity
  8
STANDARDEBENE
 62
     7
100
AcDbVertex
100
AcDb2dVertex
 10
72.33708331524913
 20
217.4451666123054
 30
0.0
  0
VERTEX
  5
BA
330
B7
100
AcDbEntity
  8
STANDARDEBENE
 62
     7
100
AcDbVertex
100
AcDb2dVertex
 10
72.62636109295448
 20
217.3534443901061
 30
0.0
  0
SEQEND
  5
BB
330
B7
100
AcDbEntity
  8
STANDARDEBENE
 62
     7
  0
POLYLINE
  5
BC
330
4A
100
AcDbEntity
  8
STANDARDEBENE
 62
     7
100
AcDb2dPolyline
 66
     1
 10
0.0
 20
0.0
 30
0.0
  0
VERTEX
  5
BD
330
BC
100
AcDbEntity
  8
STANDARDEBENE
 62
     7
100
AcDbVertex
100
AcDb2dVertex
 10
77.417083313979
 20
217.2687777234606
 30
0.0
  0
VERTEX
  5
BE
330
BC
100
AcDbEntity
  8
STANDARDEBENE
 62
     7
100
AcDbVertex
100
AcDb2dVertex
 10
77.9321388694058
 20
217.2017499456996
 30
0.0
  0
VERTEX
  5
BF
330
BC
100
AcDbEntity
  8
STANDARDEBENE
 62
     7
100
AcDbVertex
100
AcDb2dVertex
 10
78.4154444248405
 20
217.0006666124165
 30
0.0
  0
SEQEND
  5
C0
330
BC
100
AcDbEntity
  8
STANDARDEBENE
 62
     7
  0
SPLINE
  5
C1
330
4A
100
AcDbEntity
  8
STANDARDEBENE
 62
     7
100
AcDbSpline
210
0.0
220
0.0
230
1.0
 70
     8
 71
     3
 72
     8
 73
     4
 74
     0
 42
0.0000000001
 43
0.0000000001
 12
1.0
 22
0.0
 32
0.0
 13
1.0
 23
0.0
 33
0.0
 40
0.0
 40
0.0
 40
0.0
 40
0.0
 40
1.0
 40
1.0
 40
1.0
 40
1.0
 10
71.91727775979835
 20
211.8077777248259
 30
0.0
 10
71.85730553759142
 20
211.7830832803876
 30
0.0
 10
71.80791664871475
 20
211.7478055026186
 30
0.0
 10
71.76911109316902
 20
211.7054721692959
 30
0.0
  0
POLYLINE
  5
C2
330
4A
100
AcDbEntity
  8
STANDARDEBENE
 62
     7
100
AcDb2dPolyline
 66
     1
 10
0.0
 20
0.0
 30
0.0
  0
VERTEX
  5
C3
330
C2
100
AcDbEntity
  8
STANDARDEBENE
 62
     7
100
AcDbVertex
100
AcDb2dVertex
 10
67.8991388719142
 20
213.6739721688038
 30
0.0
  0
VERTEX
  5
C4
330
C2
100
AcDbEntity
  8
STANDARDEBENE
 62
     7
100
AcDbVertex
100
AcDb2dVertex
 10
69.00333331608263
 20
213.836249946541
 30
0.0
  0
VERTEX
  5
C5
330
C2
100
AcDbEntity
  8
STANDARDEBENE
 62
     7
100
AcDbVertex
100
AcDb2dVertex
 10
70.06166664915138
 20
214.1890277242306
 30
0.0
  0
VERTEX
  5
C6
330
C2
100
AcDbEntity
  8
STANDARDEBENE
 62
     7
100
AcDbVertex
100
AcDb2dVertex
 10
71.04238887112834
 20
214.7217221685418
 30
0.0
  0
VERTEX
  5
C7
330
C2
100
AcDbEntity
  8
STANDARDEBENE
 62
     7
100
AcDbVertex
100
AcDb2dVertex
 10
71.91727775979835
 20
215.4166943905903
 30
0.0
  0
SEQEND
  5
C8
330
C2
100
AcDbEntity
  8
STANDARDEBENE
 62
     7
  0
POLYLINE
  5
C9
330
4A
100
AcDbEntity
  8
STANDARDEBENE
 62
     7
100
AcDb2dPolyline
 66
     1
 10
0.0
 20
0.0
 30
0.0
  0
VERTEX
  5
CA
330
C9
100
AcDbEntity
  8
STANDARDEBENE
 62
     7
100
AcDbVertex
100
AcDb2dVertex
 10
72.30180553748005
 20
180.7598055103657
 30
0.0
  0
VERTEX
  5
CB
330
C9
100
AcDbEntity
  8
STANDARDEBENE
 62
     7
100
AcDbVertex
100
AcDb2dVertex
 10
71.91727775979835
 20
180.7598055103657
 30
0.0
  0
VERTEX
  5
CC
330
C9
100
AcDbEntity
  8
STANDARDEBENE
 62
     7
100
AcDbVertex
100
AcDb2dVertex
 10
71.91727775979835
 20
178.2586110665465
 30
0.0
  0
VERTEX
  5
CD
330
C9
100
AcDbEntity
  8
STANDARDEBENE
 62
     7
100
AcDbVertex
100
AcDb2dVertex
 10
71.91727775979835
 20
178.0081388443869
 30
0.0
  0
SEQEND
  5
CE
330
C9
100
AcDbEntity
  8
STANDARDEBENE
 62
     7
  0
POLYLINE
  5
CF
330
4A
100
AcDbEntity
  8
STANDARDEBENE
 62
     7
100
AcDb2dPolyline
 66
     1
 10
0.0
 20
0.0
 30
0.0
  0
VERTEX
  5
D0
330
CF
100
AcDbEntity
  8
STANDARDEBENE
 62
     7
100
AcDbVertex
100
AcDb2dVertex
 10
77.41355553620235
 20
180.7598055103657
 30
0.0
  0
VERTEX
  5
D1
330
CF
100
AcDbEntity
  8
STANDARDEBENE
 62
     7
100
AcDbVertex
100
AcDb2dVertex
 10
72.36530553746427
 20
180.7598055103657
 30
0.0
  0
SEQEND
  5
D2
330
CF
100
AcDbEntity
  8
STANDARDEBENE
 62
     7
  0
POLYLINE
  5
D3
330
4A
100
AcDbEntity
  8
STANDARDEBENE
 62
     7
100
AcDb2dPolyline
 66
     1
 10
0.0
 20
0.0
 30
0.0
  0
VERTEX
  5
D4
330
D3
100
AcDbEntity
  8
STANDARDEBENE
 62
     7
100
AcDbVertex
100
AcDb2dVertex
 10
79.41733331347896
 20
180.7598055103657
 30
0.0
  0
VERTEX
  5
D5
330
D3
100
AcDbEntity
  8
STANDARDEBENE
 62
     7
100
AcDbVertex
100
AcDb2dVertex
 10
78.31313886931054
 20
180.7598055103657
 30
0.0
  0
SEQEND
  5
D6
330
D3
100
AcDbEntity
  8
STANDARDEBENE
 62
     7
  0
POLYLINE
  5
D7
330
4A
100
AcDbEntity
  8
STANDARDEBENE
 62
     7
100
AcDb2dPolyline
 66
     1
 10
0.0
 20
0.0
 30
0.0
  0
VERTEX
  5
D8
330
D7
100
AcDbEntity
  8
STANDARDEBENE
 62
     7
100
AcDbVertex
100
AcDb2dVertex
 10
71.16586109331982
 20
178.0081388443869
 30
0.0
  0
VERTEX
  5
D9
330
D7
100
AcDbEntity
  8
STANDARDEBENE
 62
     7
100
AcDbVertex
100
AcDb2dVertex
 10
71.91727775979835
 20
178.0081388443869
 30
0.0
  0
SEQEND
  5
DA
330
D7
100
AcDbEntity
  8
STANDARDEBENE
 62
     7
  0
POLYLINE
  5
DB
330
4A
100
AcDbEntity
  8
STANDARDEBENE
 62
     7
100
AcDb2dPolyline
 66
     1
 10
0.0
 20
0.0
 30
0.0
  0
VERTEX
  5
DC
330
DB
100
AcDbEntity
  8
STANDARDEBENE
 62
     7
100
AcDbVertex
100
AcDb2dVertex
 10
71.91727775979835
 20
181.0102777325253
 30
0.0
  0
VERTEX
  5
DD
330
DB
100
AcDbEntity
  8
STANDARDEBENE
 62
     7
100
AcDbVertex
100
AcDb2dVertex
 10
71.16586109331982
 20
181.0102777325253
 30
0.0
  0
SEQEND
  5
DE
330
DB
100
AcDbEntity
  8
STANDARDEBENE
 62
     7
  0
POLYLINE
  5
DF
330
4A
100
AcDbEntity
  8
STANDARDEBENE
 62
     7
100
AcDb2dPolyline
 66
     1
 10
0.0
 20
0.0
 30
0.0
  0
VERTEX
  5
E0
330
DF
100
AcDbEntity
  8
STANDARDEBENE
 62
     7
100
AcDbVertex
100
AcDb2dVertex
 10
71.91727775979835
 20
181.0102777325253
 30
0.0
  0
VERTEX
  5
E1
330
DF
100
AcDbEntity
  8
STANDARDEBENE
 62
     7
100
AcDbVertex
100
AcDb2dVertex
 10
71.91727775979835
 20
180.7598055103657
 30
0.0
  0
SEQEND
  5
E2
330
DF
100
AcDbEntity
  8
STANDARDEBENE
 62
     7
  0
POLYLINE
  5
E3
330
4A
100
AcDbEntity
  8
STANDARDEBENE
 62
     7
100
AcDb2dPolyline
 66
     1
 10
0.0
 20
0.0
 30
0.0
  0
VERTEX
  5
E4
330
E3
100
AcDbEntity
  8
STANDARDEBENE
 62
     7
100
AcDbVertex
100
AcDb2dVertex
 10
72.30180553748005
 20
180.3011943993692
 30
0.0
  0
VERTEX
  5
E5
330
E3
100
AcDbEntity
  8
STANDARDEBENE
 62
     7
100
AcDbVertex
100
AcDb2dVertex
 10
72.2982777597034
 20
180.3047221771462
 30
0.0
  0
SEQEND
  5
E6
330
E3
100
AcDbEntity
  8
STANDARDEBENE
 62
     7
  0
POLYLINE
  5
E7
330
4A
100
AcDbEntity
  8
STANDARDEBENE
 62
     7
100
AcDb2dPolyline
 66
     1
 10
0.0
 20
0.0
 30
0.0
  0
VERTEX
  5
E8
330
E7
100
AcDbEntity
  8
STANDARDEBENE
 62
     7
100
AcDbVertex
100
AcDb2dVertex
 10
72.30180553748005
 20
179.7120555106276
 30
0.0
  0
VERTEX
  5
E9
330
E7
100
AcDbEntity
  8
STANDARDEBENE
 62
     7
100
AcDbVertex
100
AcDb2dVertex
 10
72.30180553748005
 20
179.7155832884046
 30
0.0
  0
SEQEND
  5
EA
330
E7
100
AcDbEntity
  8
STANDARDEBENE
 62
     7
  0
POLYLINE
  5
EB
330
4A
100
AcDbEntity
  8
STANDARDEBENE
 62
     7
100
AcDb2dPolyline
 66
     1
 10
0.0
 20
0.0
 30
0.0
  0
VERTEX
  5
EC
330
EB
100
AcDbEntity
  8
STANDARDEBENE
 62
     7
100
AcDbVertex
100
AcDb2dVertex
 10
72.30180553748005
 20
179.3028332885077
 30
0.0
  0
VERTEX
  5
ED
330
EB
100
AcDbEntity
  8
STANDARDEBENE
 62
     7
100
AcDbVertex
100
AcDb2dVertex
 10
72.2982777597034
 20
179.3063610662844
 30
0.0
  0
SEQEND
  5
EE
330
EB
100
AcDbEntity
  8
STANDARDEBENE
 62
     7
  0
POLYLINE
  5
EF
330
4A
100
AcDbEntity
  8
STANDARDEBENE
 62
     7
100
AcDb2dPolyline
 66
     1
 10
0.0
 20
0.0
 30
0.0
  0
VERTEX
  5
F0
330
EF
100
AcDbEntity
  8
STANDARDEBENE
 62
     7
100
AcDbVertex
100
AcDb2dVertex
 10
72.30180553748005
 20
178.7136943997661
 30
0.0
  0
VERTEX
  5
F1
330
EF
100
AcDbEntity
  8
STANDARDEBENE
 62
     7
100
AcDbVertex
100
AcDb2dVertex
 10
72.30180553748005
 20
178.7172221775431
 30
0.0
  0
SEQEND
  5
F2
330
EF
100
AcDbEntity
  8
STANDARDEBENE
 62
     7
  0
POLYLINE
  5
F3
330
4A
100
AcDbEntity
  8
STANDARDEBENE
 62
     7
100
AcDb2dPolyline
 66
     1
 10
0.0
 20
0.0
 30
0.0
  0
VERTEX
  5
F4
330
F3
100
AcDbEntity
  8
STANDARDEBENE
 62
     7
100
AcDbVertex
100
AcDb2dVertex
 10
71.91727775979835
 20
178.2586110665465
 30
0.0
  0
VERTEX
  5
F5
330
F3
100
AcDbEntity
  8
STANDARDEBENE
 62
     7
100
AcDbVertex
100
AcDb2dVertex
 10
72.15363887085039
 20
178.2586110665465
 30
0.0
  0
SEQEND
  5
F6
330
F3
100
AcDbEntity
  8
STANDARDEBENE
 62
     7
  0
POLYLINE
  5
F7
330
4A
100
AcDbEntity
  8
STANDARDEBENE
 62
     7
100
AcDb2dPolyline
 66
     1
 10
0.0
 20
0.0
 30
0.0
  0
VERTEX
  5
F8
330
F7
100
AcDbEntity
  8
STANDARDEBENE
 62
     7
100
AcDbVertex
100
AcDb2dVertex
 10
70.28038887131889
 20
181.0102777325253
 30
0.0
  0
VERTEX
  5
F9
330
F7
100
AcDbEntity
  8
STANDARDEBENE
 62
     7
100
AcDbVertex
100
AcDb2dVertex
 10
70.28038887131889
 20
178.0081388443869
 30
0.0
  0
SEQEND
  5
FA
330
F7
100
AcDbEntity
  8
STANDARDEBENE
 62
     7
  0
POLYLINE
  5
FB
330
4A
100
AcDbEntity
  8
STANDARDEBENE
 62
     7
100
AcDb2dPolyline
 66
     1
 10
0.0
 20
0.0
 30
0.0
  0
VERTEX
  5
FC
330
FB
100
AcDbEntity
  8
STANDARDEBENE
 62
     7
100
AcDbVertex
100
AcDb2dVertex
 10
72.62636109295448
 20
178.5267221775904
 30
0.0
  0
VERTEX
  5
FD
330
FB
100
AcDbEntity
  8
STANDARDEBENE
 62
     7
100
AcDbVertex
100
AcDb2dVertex
 10
72.62636109295448
 20
178.2586110665465
 30
0.0
  0
SEQEND
  5
FE
330
FB
100
AcDbEntity
  8
STANDARDEBENE
 62
     7
  0
POLYLINE
  5
FF
330
4A
100
AcDbEntity
  8
STANDARDEBENE
 62
     7
100
AcDb2dPolyline
 66
     1
 10
0.0
 20
0.0
 30
0.0
  0
VERTEX
  5
100
330
FF
100
AcDbEntity
  8
STANDARDEBENE
 62
     7
100
AcDbVertex
100
AcDb2dVertex
 10
68.86574998278358
 20
181.0102777325253
 30
0.0
  0
VERTEX
  5
101
330
FF
100
AcDbEntity
  8
STANDARDEBENE
 62
     7
100
AcDbVertex
100
AcDb2dVertex
 10
68.86574998278358
 20
178.0081388443869
 30
0.0
  0
SEQEND
  5
102
330
FF
100
AcDbEntity
  8
STANDARDEBENE
 62
     7
  0
POLYLINE
  5
103
330
4A
100
AcDbEntity
  8
STANDARDEBENE
 62
     7
100
AcDb2dPolyline
 66
     1
 10
0.0
 20
0.0
 30
0.0
  0
VERTEX
  5
104
330
103
100
AcDbEntity
  8
STANDARDEBENE
 62
     7
100
AcDbVertex
100
AcDb2dVertex
 10
70.28038887131889
 20
181.0102777325253
 30
0.0
  0
VERTEX
  5
105
330
103
100
AcDbEntity
  8
STANDARDEBENE
 62
     7
100
AcDbVertex
100
AcDb2dVertex
 10
68.86574998278358
 20
181.0102777325253
 30
0.0
  0
SEQEND
  5
106
330
103
100
AcDbEntity
  8
STANDARDEBENE
 62
     7
  0
POLYLINE
  5
107
330
4A
100
AcDbEntity
  8
STANDARDEBENE
 62
     7
100
AcDb2dPolyline
 66
     1
 10
0.0
 20
0.0
 30
0.0
  0
VERTEX
  5
108
330
107
100
AcDbEntity
  8
STANDARDEBENE
 62
     7
100
AcDbVertex
100
AcDb2dVertex
 10
68.86574998278358
 20
178.0081388443869
 30
0.0
  0
VERTEX
  5
109
330
107
100
AcDbEntity
  8
STANDARDEBENE
 62
     7
100
AcDbVertex
100
AcDb2dVertex
 10
70.28038887131889
 20
178.0081388443869
 30
0.0
  0
SEQEND
  5
10A
330
107
100
AcDbEntity
  8
STANDARDEBENE
 62
     7
  0
POLYLINE
  5
10B
330
4A
100
AcDbEntity
  8
STANDARDEBENE
 62
     7
100
AcDb2dPolyline
 66
     1
 10
0.0
 20
0.0
 30
0.0
  0
VERTEX
  5
10C
330
10B
100
AcDbEntity
  8
STANDARDEBENE
 62
     7
100
AcDbVertex
100
AcDb2dVertex
 10
67.61691664976247
 20
181.0102777325253
 30
0.0
  0
VERTEX
  5
10D
330
10B
100
AcDbEntity
  8
STANDARDEBENE
 62
     7
100
AcDbVertex
100
AcDb2dVertex
 10
67.61691664976247
 20
178.0081388443869
 30
0.0
  0
SEQEND
  5
10E
330
10B
100
AcDbEntity
  8
STANDARDEBENE
 62
     7
  0
POLYLINE
  5
10F
330
4A
100
AcDbEntity
  8
STANDARDEBENE
 62
     7
100
AcDb2dPolyline
 66
     1
 10
0.0
 20
0.0
 30
0.0
  0
VERTEX
  5
110
330
10F
100
AcDbEntity
  8
STANDARDEBENE
 62
     7
100
AcDbVertex
100
AcDb2dVertex
 10
66.91488887216028
 20
181.0102777325253
 30
0.0
  0
VERTEX
  5
111
330
10F
100
AcDbEntity
  8
STANDARDEBENE
 62
     7
100
AcDbVertex
100
AcDb2dVertex
 10
66.91488887216028
 20
178.0081388443869
 30
0.0
  0
SEQEND
  5
112
330
10F
100
AcDbEntity
  8
STANDARDEBENE
 62
     7
  0
POLYLINE
  5
113
330
4A
100
AcDbEntity
  8
STANDARDEBENE
 62
     7
100
AcDb2dPolyline
 66
     1
 10
0.0
 20
0.0
 30
0.0
  0
VERTEX
  5
114
330
113
100
AcDbEntity
  8
STANDARDEBENE
 62
     7
100
AcDbVertex
100
AcDb2dVertex
 10
67.61691664976247
 20
181.0102777325253
 30
0.0
  0
VERTEX
  5
115
330
113
100
AcDbEntity
  8
STANDARDEBENE
 62
     7
100
AcDbVertex
100
AcDb2dVertex
 10
66.91488887216028
 20
181.0102777325253
 30
0.0
  0
SEQEND
  5
116
330
113
100
AcDbEntity
  8
STANDARDEBENE
 62
     7
  0
POLYLINE
  5
117
330
4A
100
AcDbEntity
  8
STANDARDEBENE
 62
     7
100
AcDb2dPolyline
 66
     1
 10
0.0
 20
0.0
 30
0.0
  0
VERTEX
  5
118
330
117
100
AcDbEntity
  8
STANDARDEBENE
 62
     7
100
AcDbVertex
100
AcDb2dVertex
 10
66.91488887216028
 20
178.0081388443869
 30
0.0
  0
VERTEX
  5
119
330
117
100
AcDbEntity
  8
STANDARDEBENE
 62
     7
100
AcDbVertex
100
AcDb2dVertex
 10
67.61691664976247
 20
178.0081388443869
 30
0.0
  0
SEQEND
  5
11A
330
117
100
AcDbEntity
  8
STANDARDEBENE
 62
     7
  0
POLYLINE
  5
11B
330
4A
100
AcDbEntity
  8
STANDARDEBENE
 62
     7
100
AcDb2dPolyline
 66
     1
 10
0.0
 20
0.0
 30
0.0
  0
VERTEX
  5
11C
330
11B
100
AcDbEntity
  8
STANDARDEBENE
 62
     7
100
AcDbVertex
100
AcDb2dVertex
 10
68.86574998278358
 20
181.0102777325253
 30
0.0
  0
VERTEX
  5
11D
330
11B
100
AcDbEntity
  8
STANDARDEBENE
 62
     7
100
AcDbVertex
100
AcDb2dVertex
 10
67.61691664976247
 20
181.0102777325253
 30
0.0
  0
SEQEND
  5
11E
330
11B
100
AcDbEntity
  8
STANDARDEBENE
 62
     7
  0
POLYLINE
  5
11F
330
4A
100
AcDbEntity
  8
STANDARDEBENE
 62
     7
100
AcDb2dPolyline
 66
     1
 10
0.0
 20
0.0
 30
0.0
  0
VERTEX
  5
120
330
11F
100
AcDbEntity
  8
STANDARDEBENE
 62
     7
100
AcDbVertex
100
AcDb2dVertex
 10
67.61691664976247
 20
178.0081388443869
 30
0.0
  0
VERTEX
  5
121
330
11F
100
AcDbEntity
  8
STANDARDEBENE
 62
     7
100
AcDbVertex
100
AcDb2dVertex
 10
68.86574998278358
 20
178.0081388443869
 30
0.0
  0
SEQEND
  5
122
330
11F
100
AcDbEntity
  8
STANDARDEBENE
 62
     7
  0
POLYLINE
  5
123
330
4A
100
AcDbEntity
  8
STANDARDEBENE
 62
     7
100
AcDb2dPolyline
 66
     1
 10
0.0
 20
0.0
 30
0.0
  0
VERTEX
  5
124
330
123
100
AcDbEntity
  8
STANDARDEBENE
 62
     7
100
AcDbVertex
100
AcDb2dVertex
 10
72.62636109295448
 20
179.5250832884522
 30
0.0
  0
VERTEX
  5
125
330
123
100
AcDbEntity
  8
STANDARDEBENE
 62
     7
100
AcDbVertex
100
AcDb2dVertex
 10
72.62636109295448
 20
179.4968610662367
 30
0.0
  0
SEQEND
  5
126
330
123
100
AcDbEntity
  8
STANDARDEBENE
 62
     7
  0
POLYLINE
  5
127
330
4A
100
AcDbEntity
  8
STANDARDEBENE
 62
     7
100
AcDb2dPolyline
 66
     1
 10
0.0
 20
0.0
 30
0.0
  0
VERTEX
  5
128
330
127
100
AcDbEntity
  8
STANDARDEBENE
 62
     7
100
AcDbVertex
100
AcDb2dVertex
 10
72.62636109295448
 20
180.5234443993137
 30
0.0
  0
VERTEX
  5
129
330
127
100
AcDbEntity
  8
STANDARDEBENE
 62
     7
100
AcDbVertex
100
AcDb2dVertex
 10
72.62636109295448
 20
180.4952221770986
 30
0.0
  0
SEQEND
  5
12A
330
127
100
AcDbEntity
  8
STANDARDEBENE
 62
     7
  0
POLYLINE
  5
12B
330
4A
100
AcDbEntity
  8
STANDARDEBENE
 62
     7
100
AcDb2dPolyline
 66
     1
 10
0.0
 20
0.0
 30
0.0
  0
VERTEX
  5
12C
330
12B
100
AcDbEntity
  8
STANDARDEBENE
 62
     7
100
AcDbVertex
100
AcDb2dVertex
 10
77.417083313979
 20
178.5267221775904
 30
0.0
  0
VERTEX
  5
12D
330
12B
100
AcDbEntity
  8
STANDARDEBENE
 62
     7
100
AcDbVertex
100
AcDb2dVertex
 10
77.417083313979
 20
178.2586110665465
 30
0.0
  0
SEQEND
  5
12E
330
12B
100
AcDbEntity
  8
STANDARDEBENE
 62
     7
  0
POLYLINE
  5
12F
330
4A
100
AcDbEntity
  8
STANDARDEBENE
 62
     7
100
AcDb2dPolyline
 66
     1
 10
0.0
 20
0.0
 30
0.0
  0
VERTEX
  5
130
330
12F
100
AcDbEntity
  8
STANDARDEBENE
 62
     7
100
AcDbVertex
100
AcDb2dVertex
 10
72.62636109295448
 20
178.2586110665465
 30
0.0
  0
VERTEX
  5
131
330
12F
100
AcDbEntity
  8
STANDARDEBENE
 62
     7
100
AcDbVertex
100
AcDb2dVertex
 10
77.417083313979
 20
178.2586110665465
 30
0.0
  0
SEQEND
  5
132
330
12F
100
AcDbEntity
  8
STANDARDEBENE
 62
     7
  0
POLYLINE
  5
133
330
4A
100
AcDbEntity
  8
STANDARDEBENE
 62
     7
100
AcDb2dPolyline
 66
     1
 10
0.0
 20
0.0
 30
0.0
  0
VERTEX
  5
134
330
133
100
AcDbEntity
  8
STANDARDEBENE
 62
     7
100
AcDbVertex
100
AcDb2dVertex
 10
77.417083313979
 20
180.5234443993137
 30
0.0
  0
VERTEX
  5
135
330
133
100
AcDbEntity
  8
STANDARDEBENE
 62
     7
100
AcDbVertex
100
AcDb2dVertex
 10
77.417083313979
 20
180.4952221770986
 30
0.0
  0
SEQEND
  5
136
330
133
100
AcDbEntity
  8
STANDARDEBENE
 62
     7
  0
POLYLINE
  5
137
330
4A
100
AcDbEntity
  8
STANDARDEBENE
 62
     7
100
AcDb2dPolyline
 66
     1
 10
0.0
 20
0.0
 30
0.0
  0
VERTEX
  5
138
330
137
100
AcDbEntity
  8
STANDARDEBENE
 62
     7
100
AcDbVertex
100
AcDb2dVertex
 10
77.417083313979
 20
179.5250832884522
 30
0.0
  0
VERTEX
  5
139
330
137
100
AcDbEntity
  8
STANDARDEBENE
 62
     7
100
AcDbVertex
100
AcDb2dVertex
 10
77.417083313979
 20
179.4968610662367
 30
0.0
  0
SEQEND
  5
13A
330
137
100
AcDbEntity
  8
STANDARDEBENE
 62
     7
  0
POLYLINE
  5
13B
330
4A
100
AcDbEntity
  8
STANDARDEBENE
 62
     7
100
AcDb2dPolyline
 66
     1
 10
0.0
 20
0.0
 30
0.0
  0
VERTEX
  5
13C
330
13B
100
AcDbEntity
  8
STANDARDEBENE
 62
     7
100
AcDbVertex
100
AcDb2dVertex
 10
72.76394442625354
 20
178.8336388441806
 30
0.0
  0
VERTEX
  5
13D
330
13B
100
AcDbEntity
  8
STANDARDEBENE
 62
     7
100
AcDbVertex
100
AcDb2dVertex
 10
77.41355553620235
 20
178.8336388441806
 30
0.0
  0
SEQEND
  5
13E
330
13B
100
AcDbEntity
  8
STANDARDEBENE
 62
     7
  0
POLYLINE
  5
13F
330
4A
100
AcDbEntity
  8
STANDARDEBENE
 62
     7
100
AcDb2dPolyline
 66
     1
 10
0.0
 20
0.0
 30
0.0
  0
VERTEX
  5
140
330
13F
100
AcDbEntity
  8
STANDARDEBENE
 62
     7
100
AcDbVertex
100
AcDb2dVertex
 10
72.76394442625354
 20
179.1864166218702
 30
0.0
  0
VERTEX
  5
141
330
13F
100
AcDbEntity
  8
STANDARDEBENE
 62
     7
100
AcDbVertex
100
AcDb2dVertex
 10
77.41355553620235
 20
179.1864166218702
 30
0.0
  0
SEQEND
  5
142
330
13F
100
AcDbEntity
  8
STANDARDEBENE
 62
     7
  0
POLYLINE
  5
143
330
4A
100
AcDbEntity
  8
STANDARDEBENE
 62
     7
100
AcDb2dPolyline
 66
     1
 10
0.0
 20
0.0
 30
0.0
  0
VERTEX
  5
144
330
143
100
AcDbEntity
  8
STANDARDEBENE
 62
     7
100
AcDbVertex
100
AcDb2dVertex
 10
72.76394442625354
 20
180.1847777327317
 30
0.0
  0
VERTEX
  5
145
330
143
100
AcDbEntity
  8
STANDARDEBENE
 62
     7
100
AcDbVertex
100
AcDb2dVertex
 10
77.41355553620235
 20
180.1847777327317
 30
0.0
  0
SEQEND
  5
146
330
143
100
AcDbEntity
  8
STANDARDEBENE
 62
     7
  0
POLYLINE
  5
147
330
4A
100
AcDbEntity
  8
STANDARDEBENE
 62
     7
100
AcDb2dPolyline
 66
     1
 10
0.0
 20
0.0
 30
0.0
  0
VERTEX
  5
148
330
147
100
AcDbEntity
  8
STANDARDEBENE
 62
     7
100
AcDbVertex
100
AcDb2dVertex
 10
72.76394442625354
 20
179.8355277328187
 30
0.0
  0
VERTEX
  5
149
330
147
100
AcDbEntity
  8
STANDARDEBENE
 62
     7
100
AcDbVertex
100
AcDb2dVertex
 10
77.41355553620235
 20
179.8355277328187
 30
0.0
  0
SEQEND
  5
14A
330
147
100
AcDbEntity
  8
STANDARDEBENE
 62
     7
  0
POLYLINE
  5
14B
330
4A
100
AcDbEntity
  8
STANDARDEBENE
 62
     7
100
AcDb2dPolyline
 66
     1
 10
0.0
 20
0.0
 30
0.0
  0
VERTEX
  5
14C
330
14B
100
AcDbEntity
  8
STANDARDEBENE
 62
     7
100
AcDbVertex
100
AcDb2dVertex
 10
77.41355553620235
 20
180.7598055103657
 30
0.0
  0
VERTEX
  5
14D
330
14B
100
AcDbEntity
  8
STANDARDEBENE
 62
     7
100
AcDbVertex
100
AcDb2dVertex
 10
77.41355553620235
 20
180.7386388437042
 30
0.0
  0
SEQEND
  5
14E
330
14B
100
AcDbEntity
  8
STANDARDEBENE
 62
     7
  0
POLYLINE
  5
14F
330
4A
100
AcDbEntity
  8
STANDARDEBENE
 62
     7
100
AcDb2dPolyline
 66
     1
 10
0.0
 20
0.0
 30
0.0
  0
VERTEX
  5
150
330
14F
100
AcDbEntity
  8
STANDARDEBENE
 62
     7
100
AcDbVertex
100
AcDb2dVertex
 10
79.41733331347896
 20
179.5250832884522
 30
0.0
  0
VERTEX
  5
151
330
14F
100
AcDbEntity
  8
STANDARDEBENE
 62
     7
100
AcDbVertex
100
AcDb2dVertex
 10
79.41733331347896
 20
179.4968610662367
 30
0.0
  0
SEQEND
  5
152
330
14F
100
AcDbEntity
  8
STANDARDEBENE
 62
     7
  0
POLYLINE
  5
153
330
4A
100
AcDbEntity
  8
STANDARDEBENE
 62
     7
100
AcDb2dPolyline
 66
     1
 10
0.0
 20
0.0
 30
0.0
  0
VERTEX
  5
154
330
153
100
AcDbEntity
  8
STANDARDEBENE
 62
     7
100
AcDbVertex
100
AcDb2dVertex
 10
79.41733331347896
 20
178.5267221775904
 30
0.0
  0
VERTEX
  5
155
330
153
100
AcDbEntity
  8
STANDARDEBENE
 62
     7
100
AcDbVertex
100
AcDb2dVertex
 10
79.41733331347896
 20
178.2586110665465
 30
0.0
  0
SEQEND
  5
156
330
153
100
AcDbEntity
  8
STANDARDEBENE
 62
     7
  0
POLYLINE
  5
157
330
4A
100
AcDbEntity
  8
STANDARDEBENE
 62
     7
100
AcDb2dPolyline
 66
     1
 10
0.0
 20
0.0
 30
0.0
  0
VERTEX
  5
158
330
157
100
AcDbEntity
  8
STANDARDEBENE
 62
     7
100
AcDbVertex
100
AcDb2dVertex
 10
78.4154444248405
 20
178.2586110665465
 30
0.0
  0
VERTEX
  5
159
330
157
100
AcDbEntity
  8
STANDARDEBENE
 62
     7
100
AcDbVertex
100
AcDb2dVertex
 10
79.41733331347896
 20
178.2586110665465
 30
0.0
  0
SEQEND
  5
15A
330
157
100
AcDbEntity
  8
STANDARDEBENE
 62
     7
  0
POLYLINE
  5
15B
330
4A
100
AcDbEntity
  8
STANDARDEBENE
 62
     7
100
AcDb2dPolyline
 66
     1
 10
0.0
 20
0.0
 30
0.0
  0
VERTEX
  5
15C
330
15B
100
AcDbEntity
  8
STANDARDEBENE
 62
     7
100
AcDbVertex
100
AcDb2dVertex
 10
79.41733331347896
 20
180.5234443993137
 30
0.0
  0
VERTEX
  5
15D
330
15B
100
AcDbEntity
  8
STANDARDEBENE
 62
     7
100
AcDbVertex
100
AcDb2dVertex
 10
79.41733331347896
 20
180.4952221770986
 30
0.0
  0
SEQEND
  5
15E
330
15B
100
AcDbEntity
  8
STANDARDEBENE
 62
     7
  0
POLYLINE
  5
15F
330
4A
100
AcDbEntity
  8
STANDARDEBENE
 62
     7
100
AcDb2dPolyline
 66
     1
 10
0.0
 20
0.0
 30
0.0
  0
VERTEX
  5
160
330
15F
100
AcDbEntity
  8
STANDARDEBENE
 62
     7
100
AcDbVertex
100
AcDb2dVertex
 10
77.41355553620235
 20
178.8336388441806
 30
0.0
  0
VERTEX
  5
161
330
15F
100
AcDbEntity
  8
STANDARDEBENE
 62
     7
100
AcDbVertex
100
AcDb2dVertex
 10
77.41355553620235
 20
179.0029721774714
 30
0.0
  0
SEQEND
  5
162
330
15F
100
AcDbEntity
  8
STANDARDEBENE
 62
     7
  0
POLYLINE
  5
163
330
4A
100
AcDbEntity
  8
STANDARDEBENE
 62
     7
100
AcDb2dPolyline
 66
     1
 10
0.0
 20
0.0
 30
0.0
  0
VERTEX
  5
164
330
163
100
AcDbEntity
  8
STANDARDEBENE
 62
     7
100
AcDbVertex
100
AcDb2dVertex
 10
77.47352775840929
 20
179.1864166218702
 30
0.0
  0
VERTEX
  5
165
330
163
100
AcDbEntity
  8
STANDARDEBENE
 62
     7
100
AcDbVertex
100
AcDb2dVertex
 10
77.47352775840929
 20
179.0100277330254
 30
0.0
  0
SEQEND
  5
166
330
163
100
AcDbEntity
  8
STANDARDEBENE
 62
     7
  0
POLYLINE
  5
167
330
4A
100
AcDbEntity
  8
STANDARDEBENE
 62
     7
100
AcDb2dPolyline
 66
     1
 10
0.0
 20
0.0
 30
0.0
  0
VERTEX
  5
168
330
167
100
AcDbEntity
  8
STANDARDEBENE
 62
     7
100
AcDbVertex
100
AcDb2dVertex
 10
77.47352775840929
 20
180.1847777327317
 30
0.0
  0
VERTEX
  5
169
330
167
100
AcDbEntity
  8
STANDARDEBENE
 62
     7
100
AcDbVertex
100
AcDb2dVertex
 10
77.47352775840929
 20
179.8355277328187
 30
0.0
  0
SEQEND
  5
16A
330
167
100
AcDbEntity
  8
STANDARDEBENE
 62
     7
  0
POLYLINE
  5
16B
330
4A
100
AcDbEntity
  8
STANDARDEBENE
 62
     7
100
AcDb2dPolyline
 66
     1
 10
0.0
 20
0.0
 30
0.0
  0
VERTEX
  5
16C
330
16B
100
AcDbEntity
  8
STANDARDEBENE
 62
     7
100
AcDbVertex
100
AcDb2dVertex
 10
79.41733331347896
 20
180.7386388437042
 30
0.0
  0
VERTEX
  5
16D
330
16B
100
AcDbEntity
  8
STANDARDEBENE
 62
     7
100
AcDbVertex
100
AcDb2dVertex
 10
79.41733331347896
 20
180.7598055103657
 30
0.0
  0
SEQEND
  5
16E
330
16B
100
AcDbEntity
  8
STANDARDEBENE
 62
     7
  0
POLYLINE
  5
16F
330
4A
100
AcDbEntity
  8
STANDARDEBENE
 62
     7
100
AcDb2dPolyline
 66
     1
 10
0.0
 20
0.0
 30
0.0
  0
VERTEX
  5
170
330
16F
100
AcDbEntity
  8
STANDARDEBENE
 62
     7
100
AcDbVertex
100
AcDb2dVertex
 10
79.41733331347896
 20
179.1864166218702
 30
0.0
  0
VERTEX
  5
171
330
16F
100
AcDbEntity
  8
STANDARDEBENE
 62
     7
100
AcDbVertex
100
AcDb2dVertex
 10
79.41733331347896
 20
179.2781388440692
 30
0.0
  0
SEQEND
  5
172
330
16F
100
AcDbEntity
  8
STANDARDEBENE
 62
     7
  0
POLYLINE
  5
173
330
4A
100
AcDbEntity
  8
STANDARDEBENE
 62
     7
100
AcDb2dPolyline
 66
     1
 10
0.0
 20
0.0
 30
0.0
  0
VERTEX
  5
174
330
173
100
AcDbEntity
  8
STANDARDEBENE
 62
     7
100
AcDbVertex
100
AcDb2dVertex
 10
78.21083331378057
 20
179.1864166218702
 30
0.0
  0
VERTEX
  5
175
330
173
100
AcDbEntity
  8
STANDARDEBENE
 62
     7
100
AcDbVertex
100
AcDb2dVertex
 10
79.41733331347896
 20
179.1864166218702
 30
0.0
  0
SEQEND
  5
176
330
173
100
AcDbEntity
  8
STANDARDEBENE
 62
     7
  0
POLYLINE
  5
177
330
4A
100
AcDbEntity
  8
STANDARDEBENE
 62
     7
100
AcDb2dPolyline
 66
     1
 10
0.0
 20
0.0
 30
0.0
  0
VERTEX
  5
178
330
177
100
AcDbEntity
  8
STANDARDEBENE
 62
     7
100
AcDbVertex
100
AcDb2dVertex
 10
79.41733331347896
 20
180.1847777327317
 30
0.0
  0
VERTEX
  5
179
330
177
100
AcDbEntity
  8
STANDARDEBENE
 62
     7
100
AcDbVertex
100
AcDb2dVertex
 10
79.41733331347896
 20
180.2764999549307
 30
0.0
  0
SEQEND
  5
17A
330
177
100
AcDbEntity
  8
STANDARDEBENE
 62
     7
  0
POLYLINE
  5
17B
330
4A
100
AcDbEntity
  8
STANDARDEBENE
 62
     7
100
AcDb2dPolyline
 66
     1
 10
0.0
 20
0.0
 30
0.0
  0
VERTEX
  5
17C
330
17B
100
AcDbEntity
  8
STANDARDEBENE
 62
     7
100
AcDbVertex
100
AcDb2dVertex
 10
78.21083331378057
 20
180.1847777327317
 30
0.0
  0
VERTEX
  5
17D
330
17B
100
AcDbEntity
  8
STANDARDEBENE
 62
     7
100
AcDbVertex
100
AcDb2dVertex
 10
79.41733331347896
 20
180.1847777327317
 30
0.0
  0
SEQEND
  5
17E
330
17B
100
AcDbEntity
  8
STANDARDEBENE
 62
     7
  0
POLYLINE
  5
17F
330
4A
100
AcDbEntity
  8
STANDARDEBENE
 62
     7
100
AcDb2dPolyline
 66
     1
 10
0.0
 20
0.0
 30
0.0
  0
VERTEX
  5
180
330
17F
100
AcDbEntity
  8
STANDARDEBENE
 62
     7
100
AcDbVertex
100
AcDb2dVertex
 10
78.21083331378057
 20
178.8336388441806
 30
0.0
  0
VERTEX
  5
181
330
17F
100
AcDbEntity
  8
STANDARDEBENE
 62
     7
100
AcDbVertex
100
AcDb2dVertex
 10
79.41733331347896
 20
178.8336388441806
 30
0.0
  0
SEQEND
  5
182
330
17F
100
AcDbEntity
  8
STANDARDEBENE
 62
     7
  0
POLYLINE
  5
183
330
4A
100
AcDbEntity
  8
STANDARDEBENE
 62
     7
100
AcDb2dPolyline
 66
     1
 10
0.0
 20
0.0
 30
0.0
  0
VERTEX
  5
184
330
183
100
AcDbEntity
  8
STANDARDEBENE
 62
     7
100
AcDbVertex
100
AcDb2dVertex
 10
79.41733331347896
 20
178.7419166219812
 30
0.0
  0
VERTEX
  5
185
330
183
100
AcDbEntity
  8
STANDARDEBENE
 62
     7
100
AcDbVertex
100
AcDb2dVertex
 10
79.41733331347896
 20
178.8336388441806
 30
0.0
  0
SEQEND
  5
186
330
183
100
AcDbEntity
  8
STANDARDEBENE
 62
     7
  0
POLYLINE
  5
187
330
4A
100
AcDbEntity
  8
STANDARDEBENE
 62
     7
100
AcDb2dPolyline
 66
     1
 10
0.0
 20
0.0
 30
0.0
  0
VERTEX
  5
188
330
187
100
AcDbEntity
  8
STANDARDEBENE
 62
     7
100
AcDbVertex
100
AcDb2dVertex
 10
78.21083331378057
 20
179.8355277328187
 30
0.0
  0
VERTEX
  5
189
330
187
100
AcDbEntity
  8
STANDARDEBENE
 62
     7
100
AcDbVertex
100
AcDb2dVertex
 10
79.41733331347896
 20
179.8355277328187
 30
0.0
  0
SEQEND
  5
18A
330
187
100
AcDbEntity
  8
STANDARDEBENE
 62
     7
  0
POLYLINE
  5
18B
330
4A
100
AcDbEntity
  8
STANDARDEBENE
 62
     7
100
AcDb2dPolyline
 66
     1
 10
0.0
 20
0.0
 30
0.0
  0
VERTEX
  5
18C
330
18B
100
AcDbEntity
  8
STANDARDEBENE
 62
     7
100
AcDbVertex
100
AcDb2dVertex
 10
79.41733331347896
 20
179.7402777328427
 30
0.0
  0
VERTEX
  5
18D
330
18B
100
AcDbEntity
  8
STANDARDEBENE
 62
     7
100
AcDbVertex
100
AcDb2dVertex
 10
79.41733331347896
 20
179.8355277328187
 30
0.0
  0
SEQEND
  5
18E
330
18B
100
AcDbEntity
  8
STANDARDEBENE
 62
     7
  0
POLYLINE
  5
18F
330
4A
100
AcDbEntity
  8
STANDARDEBENE
 62
     7
100
AcDb2dPolyline
 66
     1
 10
0.0
 20
0.0
 30
0.0
  0
VERTEX
  5
190
330
18F
100
AcDbEntity
  8
STANDARDEBENE
 62
     7
100
AcDbVertex
100
AcDb2dVertex
 10
79.41733331347896
 20
180.1847777327317
 30
0.0
  0
VERTEX
  5
191
330
18F
100
AcDbEntity
  8
STANDARDEBENE
 62
     7
100
AcDbVertex
100
AcDb2dVertex
 10
79.41733331347896
 20
179.8355277328187
 30
0.0
  0
SEQEND
  5
192
330
18F
100
AcDbEntity
  8
STANDARDEBENE
 62
     7
  0
POLYLINE
  5
193
330
4A
100
AcDbEntity
  8
STANDARDEBENE
 62
     7
100
AcDb2dPolyline
 66
     1
 10
0.0
 20
0.0
 30
0.0
  0
VERTEX
  5
194
330
193
100
AcDbEntity
  8
STANDARDEBENE
 62
     7
100
AcDbVertex
100
AcDb2dVertex
 10
79.41733331347896
 20
179.1864166218702
 30
0.0
  0
VERTEX
  5
195
330
193
100
AcDbEntity
  8
STANDARDEBENE
 62
     7
100
AcDbVertex
100
AcDb2dVertex
 10
79.41733331347896
 20
178.8336388441806
 30
0.0
  0
SEQEND
  5
196
330
193
100
AcDbEntity
  8
STANDARDEBENE
 62
     7
  0
POLYLINE
  5
197
330
4A
100
AcDbEntity
  8
STANDARDEBENE
 62
     7
100
AcDb2dPolyline
 66
     1
 10
0.0
 20
0.0
 30
0.0
  0
VERTEX
  5
198
330
197
100
AcDbEntity
  8
STANDARDEBENE
 62
     7
100
AcDbVertex
100
AcDb2dVertex
 10
78.31313886931054
 20
180.7598055103657
 30
0.0
  0
VERTEX
  5
199
330
197
100
AcDbEntity
  8
STANDARDEBENE
 62
     7
100
AcDbVertex
100
AcDb2dVertex
 10
77.8792222027525
 20
180.7598055103657
 30
0.0
  0
VERTEX
  5
19A
330
197
100
AcDbEntity
  8
STANDARDEBENE
 62
     7
100
AcDbVertex
100
AcDb2dVertex
 10
77.41355553620235
 20
180.7598055103657
 30
0.0
  0
SEQEND
  5
19B
330
197
100
AcDbEntity
  8
STANDARDEBENE
 62
     7
  0
POLYLINE
  5
19C
330
4A
100
AcDbEntity
  8
STANDARDEBENE
 62
     7
100
AcDb2dPolyline
 66
     1
 10
0.0
 20
0.0
 30
0.0
  0
VERTEX
  5
19D
330
19C
100
AcDbEntity
  8
STANDARDEBENE
 62
     7
100
AcDbVertex
100
AcDb2dVertex
 10
72.36530553746427
 20
180.7598055103657
 30
0.0
  0
VERTEX
  5
19E
330
19C
100
AcDbEntity
  8
STANDARDEBENE
 62
     7
100
AcDbVertex
100
AcDb2dVertex
 10
72.33002775969518
 20
180.7598055103657
 30
0.0
  0
VERTEX
  5
19F
330
19C
100
AcDbEntity
  8
STANDARDEBENE
 62
     7
100
AcDbVertex
100
AcDb2dVertex
 10
72.30180553748005
 20
180.7598055103657
 30
0.0
  0
SEQEND
  5
1A0
330
19C
100
AcDbEntity
  8
STANDARDEBENE
 62
     7
  0
POLYLINE
  5
1A1
330
4A
100
AcDbEntity
  8
STANDARDEBENE
 62
     7
100
AcDb2dPolyline
 66
     1
 10
0.0
 20
0.0
 30
0.0
  0
VERTEX
  5
1A2
330
1A1
100
AcDbEntity
  8
STANDARDEBENE
 62
     7
100
AcDbVertex
100
AcDb2dVertex
 10
71.16586109331982
 20
181.0102777325253
 30
0.0
  0
VERTEX
  5
1A3
330
1A1
100
AcDbEntity
  8
STANDARDEBENE
 62
     7
100
AcDbVertex
100
AcDb2dVertex
 10
70.95066664892896
 20
181.0102777325253
 30
0.0
  0
VERTEX
  5
1A4
330
1A1
100
AcDbEntity
  8
STANDARDEBENE
 62
     7
100
AcDbVertex
100
AcDb2dVertex
 10
70.9153888711602
 20
181.0102777325253
 30
0.0
  0
VERTEX
  5
1A5
330
1A1
100
AcDbEntity
  8
STANDARDEBENE
 62
     7
100
AcDbVertex
100
AcDb2dVertex
 10
70.77780553786114
 20
181.0102777325253
 30
0.0
  0
SEQEND
  5
1A6
330
1A1
100
AcDbEntity
  8
STANDARDEBENE
 62
     7
  0
POLYLINE
  5
1A7
330
4A
100
AcDbEntity
  8
STANDARDEBENE
 62
     7
100
AcDb2dPolyline
 66
     1
 10
0.0
 20
0.0
 30
0.0
  0
VERTEX
  5
1A8
330
1A7
100
AcDbEntity
  8
STANDARDEBENE
 62
     7
100
AcDbVertex
100
AcDb2dVertex
 10
70.77780553786114
 20
178.0081388443869
 30
0.0
  0
VERTEX
  5
1A9
330
1A7
100
AcDbEntity
  8
STANDARDEBENE
 62
     7
100
AcDbVertex
100
AcDb2dVertex
 10
70.9153888711602
 20
178.0081388443869
 30
0.0
  0
VERTEX
  5
1AA
330
1A7
100
AcDbEntity
  8
STANDARDEBENE
 62
     7
100
AcDbVertex
100
AcDb2dVertex
 10
70.95066664892896
 20
178.0081388443869
 30
0.0
  0
VERTEX
  5
1AB
330
1A7
100
AcDbEntity
  8
STANDARDEBENE
 62
     7
100
AcDbVertex
100
AcDb2dVertex
 10
71.16586109331982
 20
178.0081388443869
 30
0.0
  0
SEQEND
  5
1AC
330
1A7
100
AcDbEntity
  8
STANDARDEBENE
 62
     7
  0
POLYLINE
  5
1AD
330
4A
100
AcDbEntity
  8
STANDARDEBENE
 62
     7
100
AcDb2dPolyline
 66
     1
 10
0.0
 20
0.0
 30
0.0
  0
VERTEX
  5
1AE
330
1AD
100
AcDbEntity
  8
STANDARDEBENE
 62
     7
100
AcDbVertex
100
AcDb2dVertex
 10
70.77780553786114
 20
181.0102777325253
 30
0.0
  0
VERTEX
  5
1AF
330
1AD
100
AcDbEntity
  8
STANDARDEBENE
 62
     7
100
AcDbVertex
100
AcDb2dVertex
 10
70.5414444268091
 20
181.0102777325253
 30
0.0
  0
VERTEX
  5
1B0
330
1AD
100
AcDbEntity
  8
STANDARDEBENE
 62
     7
100
AcDbVertex
100
AcDb2dVertex
 10
70.28038887131889
 20
181.0102777325253
 30
0.0
  0
SEQEND
  5
1B1
330
1AD
100
AcDbEntity
  8
STANDARDEBENE
 62
     7
  0
POLYLINE
  5
1B2
330
4A
100
AcDbEntity
  8
STANDARDEBENE
 62
     7
100
AcDb2dPolyline
 66
     1
 10
0.0
 20
0.0
 30
0.0
  0
VERTEX
  5
1B3
330
1B2
100
AcDbEntity
  8
STANDARDEBENE
 62
     7
100
AcDbVertex
100
AcDb2dVertex
 10
70.28038887131889
 20
178.0081388443869
 30
0.0
  0
VERTEX
  5
1B4
330
1B2
100
AcDbEntity
  8
STANDARDEBENE
 62
     7
100
AcDbVertex
100
AcDb2dVertex
 10
70.5414444268091
 20
178.0081388443869
 30
0.0
  0
VERTEX
  5
1B5
330
1B2
100
AcDbEntity
  8
STANDARDEBENE
 62
     7
100
AcDbVertex
100
AcDb2dVertex
 10
70.77780553786114
 20
178.0081388443869
 30
0.0
  0
SEQEND
  5
1B6
330
1B2
100
AcDbEntity
  8
STANDARDEBENE
 62
     7
  0
POLYLINE
  5
1B7
330
4A
100
AcDbEntity
  8
STANDARDEBENE
 62
     7
100
AcDb2dPolyline
 66
     1
 10
0.0
 20
0.0
 30
0.0
  0
VERTEX
  5
1B8
330
1B7
100
AcDbEntity
  8
STANDARDEBENE
 62
     7
100
AcDbVertex
100
AcDb2dVertex
 10
72.15363887085039
 20
178.2586110665465
 30
0.0
  0
VERTEX
  5
1B9
330
1B7
100
AcDbEntity
  8
STANDARDEBENE
 62
     7
100
AcDbVertex
100
AcDb2dVertex
 10
72.33708331524913
 20
178.2586110665465
 30
0.0
  0
VERTEX
  5
1BA
330
1B7
100
AcDbEntity
  8
STANDARDEBENE
 62
     7
100
AcDbVertex
100
AcDb2dVertex
 10
72.62636109295448
 20
178.2586110665465
 30
0.0
  0
SEQEND
  5
1BB
330
1B7
100
AcDbEntity
  8
STANDARDEBENE
 62
     7
  0
POLYLINE
  5
1BC
330
4A
100
AcDbEntity
  8
STANDARDEBENE
 62
     7
100
AcDb2dPolyline
 66
     1
 10
0.0
 20
0.0
 30
0.0
  0
VERTEX
  5
1BD
330
1BC
100
AcDbEntity
  8
STANDARDEBENE
 62
     7
100
AcDbVertex
100
AcDb2dVertex
 10
77.417083313979
 20
178.2586110665465
 30
0.0
  0
VERTEX
  5
1BE
330
1BC
100
AcDbEntity
  8
STANDARDEBENE
 62
     7
100
AcDbVertex
100
AcDb2dVertex
 10
77.9321388694058
 20
178.2586110665465
 30
0.0
  0
VERTEX
  5
1BF
330
1BC
100
AcDbEntity
  8
STANDARDEBENE
 62
     7
100
AcDbVertex
100
AcDb2dVertex
 10
78.4154444248405
 20
178.2586110665465
 30
0.0
  0
SEQEND
  5
1C0
330
1BC
100
AcDbEntity
  8
STANDARDEBENE
 62
     7
  0
POLYLINE
  5
1C1
330
4A
100
AcDbEntity
  8
STANDARDEBENE
 62
     7
100
AcDb2dPolyline
 66
     1
 10
0.0
 20
0.0
 30
0.0
  0
VERTEX
  5
1C2
330
1C1
100
AcDbEntity
  8
STANDARDEBENE
 62
     7
100
AcDbVertex
100
AcDb2dVertex
 10
77.47352775840929
 20
179.8355277328187
 30
0.0
  0
VERTEX
  5
1C3
330
1C1
100
AcDbEntity
  8
STANDARDEBENE
 62
     7
100
AcDbVertex
100
AcDb2dVertex
 10
77.85452775831433
 20
179.8355277328187
 30
0.0
  0
VERTEX
  5
1C4
330
1C1
100
AcDbEntity
  8
STANDARDEBENE
 62
     7
100
AcDbVertex
100
AcDb2dVertex
 10
78.21083331378057
 20
179.8355277328187
 30
0.0
  0
SEQEND
  5
1C5
330
1C1
100
AcDbEntity
  8
STANDARDEBENE
 62
     7
  0
POLYLINE
  5
1C6
330
4A
100
AcDbEntity
  8
STANDARDEBENE
 62
     7
100
AcDb2dPolyline
 66
     1
 10
0.0
 20
0.0
 30
0.0
  0
VERTEX
  5
1C7
330
1C6
100
AcDbEntity
  8
STANDARDEBENE
 62
     7
100
AcDbVertex
100
AcDb2dVertex
 10
77.47352775840929
 20
180.1847777327317
 30
0.0
  0
VERTEX
  5
1C8
330
1C6
100
AcDbEntity
  8
STANDARDEBENE
 62
     7
100
AcDbVertex
100
AcDb2dVertex
 10
77.85452775831433
 20
180.1847777327317
 30
0.0
  0
VERTEX
  5
1C9
330
1C6
100
AcDbEntity
  8
STANDARDEBENE
 62
     7
100
AcDbVertex
100
AcDb2dVertex
 10
78.21083331378057
 20
180.1847777327317
 30
0.0
  0
SEQEND
  5
1CA
330
1C6
100
AcDbEntity
  8
STANDARDEBENE
 62
     7
  0
POLYLINE
  5
1CB
330
4A
100
AcDbEntity
  8
STANDARDEBENE
 62
     7
100
AcDb2dPolyline
 66
     1
 10
0.0
 20
0.0
 30
0.0
  0
VERTEX
  5
1CC
330
1CB
100
AcDbEntity
  8
STANDARDEBENE
 62
     7
100
AcDbVertex
100
AcDb2dVertex
 10
77.47352775840929
 20
179.1864166218702
 30
0.0
  0
VERTEX
  5
1CD
330
1CB
100
AcDbEntity
  8
STANDARDEBENE
 62
     7
100
AcDbVertex
100
AcDb2dVertex
 10
77.85452775831433
 20
179.1864166218702
 30
0.0
  0
VERTEX
  5
1CE
330
1CB
100
AcDbEntity
  8
STANDARDEBENE
 62
     7
100
AcDbVertex
100
AcDb2dVertex
 10
78.21083331378057
 20
179.1864166218702
 30
0.0
  0
SEQEND
  5
1CF
330
1CB
100
AcDbEntity
  8
STANDARDEBENE
 62
     7
  0
POLYLINE
  5
1D0
330
4A
100
AcDbEntity
  8
STANDARDEBENE
 62
     7
100
AcDb2dPolyline
 66
     1
 10
0.0
 20
0.0
 30
0.0
  0
VERTEX
  5
1D1
330
1D0
100
AcDbEntity
  8
STANDARDEBENE
 62
     7
100
AcDbVertex
100
AcDb2dVertex
 10
77.41355553620235
 20
178.8336388441806
 30
0.0
  0
VERTEX
  5
1D2
330
1D0
100
AcDbEntity
  8
STANDARDEBENE
 62
     7
100
AcDbVertex
100
AcDb2dVertex
 10
77.82630553609887
 20
178.8336388441806
 30
0.0
  0
VERTEX
  5
1D3
330
1D0
100
AcDbEntity
  8
STANDARDEBENE
 62
     7
100
AcDbVertex
100
AcDb2dVertex
 10
78.21083331378057
 20
178.8336388441806
 30
0.0
  0
SEQEND
  5
1D4
330
1D0
100
AcDbEntity
  8
STANDARDEBENE
 62
     7
  0
POLYLINE
  5
1D5
330
4A
100
AcDbEntity
  8
STANDARDEBENE
 62
     7
100
AcDb2dPolyline
 66
     1
 10
0.0
 20
0.0
 30
0.0
  0
VERTEX
  5
1D6
330
1D5
100
AcDbEntity
  8
STANDARDEBENE
 62
     7
100
AcDbVertex
100
AcDb2dVertex
 10
72.62636109295448
 20
178.7419166219812
 30
0.0
  0
VERTEX
  5
1D7
330
1D5
100
AcDbEntity
  8
STANDARDEBENE
 62
     7
100
AcDbVertex
100
AcDb2dVertex
 10
72.30180553748005
 20
178.7136943997661
 30
0.0
  0
VERTEX
  5
1D8
330
1D5
100
AcDbEntity
  8
STANDARDEBENE
 62
     7
100
AcDbVertex
100
AcDb2dVertex
 10
72.2982777597034
 20
178.7136943997661
 30
0.0
  0
SEQEND
  5
1D9
330
1D5
100
AcDbEntity
  8
STANDARDEBENE
 62
     7
  0
POLYLINE
  5
1DA
330
4A
100
AcDbEntity
  8
STANDARDEBENE
 62
     7
100
AcDb2dPolyline
 66
     1
 10
0.0
 20
0.0
 30
0.0
  0
VERTEX
  5
1DB
330
1DA
100
AcDbEntity
  8
STANDARDEBENE
 62
     7
100
AcDbVertex
100
AcDb2dVertex
 10
72.30180553748005
 20
180.713944399266
 30
0.0
  0
VERTEX
  5
1DC
330
1DA
100
AcDbEntity
  8
STANDARDEBENE
 62
     7
100
AcDbVertex
100
AcDb2dVertex
 10
72.2982777597034
 20
180.713944399266
 30
0.0
  0
SEQEND
  5
1DD
330
1DA
100
AcDbEntity
  8
STANDARDEBENE
 62
     7
  0
POLYLINE
  5
1DE
330
4A
100
AcDbEntity
  8
STANDARDEBENE
 62
     7
100
AcDb2dPolyline
 66
     1
 10
0.0
 20
0.0
 30
0.0
  0
VERTEX
  5
1DF
330
1DE
100
AcDbEntity
  8
STANDARDEBENE
 62
     7
100
AcDbVertex
100
AcDb2dVertex
 10
72.62636109295448
 20
180.7386388437042
 30
0.0
  0
VERTEX
  5
1E0
330
1DE
100
AcDbEntity
  8
STANDARDEBENE
 62
     7
100
AcDbVertex
100
AcDb2dVertex
 10
72.30533331525702
 20
180.713944399266
 30
0.0
  0
SEQEND
  5
1E1
330
1DE
100
AcDbEntity
  8
STANDARDEBENE
 62
     7
  0
POLYLINE
  5
1E2
330
4A
100
AcDbEntity
  8
STANDARDEBENE
 62
     7
100
AcDb2dPolyline
 66
     1
 10
0.0
 20
0.0
 30
0.0
  0
VERTEX
  5
1E3
330
1E2
100
AcDbEntity
  8
STANDARDEBENE
 62
     7
100
AcDbVertex
100
AcDb2dVertex
 10
72.2982777597034
 20
180.3047221771462
 30
0.0
  0
VERTEX
  5
1E4
330
1E2
100
AcDbEntity
  8
STANDARDEBENE
 62
     7
100
AcDbVertex
100
AcDb2dVertex
 10
72.62636109295448
 20
180.2764999549307
 30
0.0
  0
SEQEND
  5
1E5
330
1E2
100
AcDbEntity
  8
STANDARDEBENE
 62
     7
  0
POLYLINE
  5
1E6
330
4A
100
AcDbEntity
  8
STANDARDEBENE
 62
     7
100
AcDb2dPolyline
 66
     1
 10
0.0
 20
0.0
 30
0.0
  0
VERTEX
  5
1E7
330
1E6
100
AcDbEntity
  8
STANDARDEBENE
 62
     7
100
AcDbVertex
100
AcDb2dVertex
 10
72.62636109295448
 20
180.4952221770986
 30
0.0
  0
VERTEX
  5
1E8
330
1E6
100
AcDbEntity
  8
STANDARDEBENE
 62
     7
100
AcDbVertex
100
AcDb2dVertex
 10
72.45702775966365
 20
180.5093332882061
 30
0.0
  0
SEQEND
  5
1E9
330
1E6
100
AcDbEntity
  8
STANDARDEBENE
 62
     7
  0
POLYLINE
  5
1EA
330
4A
100
AcDbEntity
  8
STANDARDEBENE
 62
     7
100
AcDb2dPolyline
 66
     1
 10
0.0
 20
0.0
 30
0.0
  0
VERTEX
  5
1EB
330
1EA
100
AcDbEntity
  8
STANDARDEBENE
 62
     7
100
AcDbVertex
100
AcDb2dVertex
 10
72.62636109295448
 20
179.7402777328427
 30
0.0
  0
VERTEX
  5
1EC
330
1EA
100
AcDbEntity
  8
STANDARDEBENE
 62
     7
100
AcDbVertex
100
AcDb2dVertex
 10
72.30180553748005
 20
179.7120555106276
 30
0.0
  0
VERTEX
  5
1ED
330
1EA
100
AcDbEntity
  8
STANDARDEBENE
 62
     7
100
AcDbVertex
100
AcDb2dVertex
 10
72.2982777597034
 20
179.7120555106276
 30
0.0
  0
SEQEND
  5
1EE
330
1EA
100
AcDbEntity
  8
STANDARDEBENE
 62
     7
  0
POLYLINE
  5
1EF
330
4A
100
AcDbEntity
  8
STANDARDEBENE
 62
     7
100
AcDb2dPolyline
 66
     1
 10
0.0
 20
0.0
 30
0.0
  0
VERTEX
  5
1F0
330
1EF
100
AcDbEntity
  8
STANDARDEBENE
 62
     7
100
AcDbVertex
100
AcDb2dVertex
 10
72.2982777597034
 20
179.3063610662844
 30
0.0
  0
VERTEX
  5
1F1
330
1EF
100
AcDbEntity
  8
STANDARDEBENE
 62
     7
100
AcDbVertex
100
AcDb2dVertex
 10
72.62636109295448
 20
179.2781388440692
 30
0.0
  0
SEQEND
  5
1F2
330
1EF
100
AcDbEntity
  8
STANDARDEBENE
 62
     7
  0
POLYLINE
  5
1F3
330
4A
100
AcDbEntity
  8
STANDARDEBENE
 62
     7
100
AcDb2dPolyline
 66
     1
 10
0.0
 20
0.0
 30
0.0
  0
VERTEX
  5
1F4
330
1F3
100
AcDbEntity
  8
STANDARDEBENE
 62
     7
100
AcDbVertex
100
AcDb2dVertex
 10
72.62636109295448
 20
179.4968610662367
 30
0.0
  0
VERTEX
  5
1F5
330
1F3
100
AcDbEntity
  8
STANDARDEBENE
 62
     7
100
AcDbVertex
100
AcDb2dVertex
 10
72.45702775966365
 20
179.5109721773446
 30
0.0
  0
SEQEND
  5
1F6
330
1F3
100
AcDbEntity
  8
STANDARDEBENE
 62
     7
  0
POLYLINE
  5
1F7
330
4A
100
AcDbEntity
  8
STANDARDEBENE
 62
     7
100
AcDb2dPolyline
 66
     1
 10
0.0
 20
0.0
 30
0.0
  0
VERTEX
  5
1F8
330
1F7
100
AcDbEntity
  8
STANDARDEBENE
 62
     7
100
AcDbVertex
100
AcDb2dVertex
 10
72.76394442625354
 20
178.8336388441806
 30
0.0
  0
VERTEX
  5
1F9
330
1F7
100
AcDbEntity
  8
STANDARDEBENE
 62
     7
100
AcDbVertex
100
AcDb2dVertex
 10
72.48172220410181
 20
178.8018888441885
 30
0.0
  0
VERTEX
  5
1FA
330
1F7
100
AcDbEntity
  8
STANDARDEBENE
 62
     7
100
AcDbVertex
100
AcDb2dVertex
 10
72.42174998189455
 20
178.7736666219733
 30
0.0
  0
VERTEX
  5
1FB
330
1F7
100
AcDbEntity
  8
STANDARDEBENE
 62
     7
100
AcDbVertex
100
AcDb2dVertex
 10
72.30180553748005
 20
178.7172221775431
 30
0.0
  0
SEQEND
  5
1FC
330
1F7
100
AcDbEntity
  8
STANDARDEBENE
 62
     7
  0
POLYLINE
  5
1FD
330
4A
100
AcDbEntity
  8
STANDARDEBENE
 62
     7
100
AcDb2dPolyline
 66
     1
 10
0.0
 20
0.0
 30
0.0
  0
VERTEX
  5
1FE
330
1FD
100
AcDbEntity
  8
STANDARDEBENE
 62
     7
100
AcDbVertex
100
AcDb2dVertex
 10
72.76394442625354
 20
179.1864166218702
 30
0.0
  0
VERTEX
  5
1FF
330
1FD
100
AcDbEntity
  8
STANDARDEBENE
 62
     7
100
AcDbVertex
100
AcDb2dVertex
 10
72.48172220410181
 20
179.218166621862
 30
0.0
  0
VERTEX
  5
200
330
1FD
100
AcDbEntity
  8
STANDARDEBENE
 62
     7
100
AcDbVertex
100
AcDb2dVertex
 10
72.42174998189455
 20
179.2463888440774
 30
0.0
  0
VERTEX
  5
201
330
1FD
100
AcDbEntity
  8
STANDARDEBENE
 62
     7
100
AcDbVertex
100
AcDb2dVertex
 10
72.30180553748005
 20
179.3028332885077
 30
0.0
  0
SEQEND
  5
202
330
1FD
100
AcDbEntity
  8
STANDARDEBENE
 62
     7
  0
POLYLINE
  5
203
330
4A
100
AcDbEntity
  8
STANDARDEBENE
 62
     7
100
AcDb2dPolyline
 66
     1
 10
0.0
 20
0.0
 30
0.0
  0
VERTEX
  5
204
330
203
100
AcDbEntity
  8
STANDARDEBENE
 62
     7
100
AcDbVertex
100
AcDb2dVertex
 10
72.76394442625354
 20
180.1847777327317
 30
0.0
  0
VERTEX
  5
205
330
203
100
AcDbEntity
  8
STANDARDEBENE
 62
     7
100
AcDbVertex
100
AcDb2dVertex
 10
72.48172220410181
 20
180.2165277327238
 30
0.0
  0
VERTEX
  5
206
330
203
100
AcDbEntity
  8
STANDARDEBENE
 62
     7
100
AcDbVertex
100
AcDb2dVertex
 10
72.42174998189455
 20
180.2447499549389
 30
0.0
  0
VERTEX
  5
207
330
203
100
AcDbEntity
  8
STANDARDEBENE
 62
     7
100
AcDbVertex
100
AcDb2dVertex
 10
72.30180553748005
 20
180.3011943993692
 30
0.0
  0
SEQEND
  5
208
330
203
100
AcDbEntity
  8
STANDARDEBENE
 62
     7
  0
POLYLINE
  5
209
330
4A
100
AcDbEntity
  8
STANDARDEBENE
 62
     7
100
AcDb2dPolyline
 66
     1
 10
0.0
 20
0.0
 30
0.0
  0
VERTEX
  5
20A
330
209
100
AcDbEntity
  8
STANDARDEBENE
 62
     7
100
AcDbVertex
100
AcDb2dVertex
 10
72.76394442625354
 20
179.8355277328187
 30
0.0
  0
VERTEX
  5
20B
330
209
100
AcDbEntity
  8
STANDARDEBENE
 62
     7
100
AcDbVertex
100
AcDb2dVertex
 10
72.48172220410181
 20
179.80024995505
 30
0.0
  0
VERTEX
  5
20C
330
209
100
AcDbEntity
  8
STANDARDEBENE
 62
     7
100
AcDbVertex
100
AcDb2dVertex
 10
72.42174998189455
 20
179.7720277328348
 30
0.0
  0
VERTEX
  5
20D
330
209
100
AcDbEntity
  8
STANDARDEBENE
 62
     7
100
AcDbVertex
100
AcDb2dVertex
 10
72.30180553748005
 20
179.7155832884046
 30
0.0
  0
SEQEND
  5
20E
330
209
100
AcDbEntity
  8
STANDARDEBENE
 62
     7
  0
POLYLINE
  5
20F
330
4A
100
AcDbEntity
  8
STANDARDEBENE
 62
     7
100
AcDb2dPolyline
 66
     1
 10
0.0
 20
0.0
 30
0.0
  0
VERTEX
  5
210
330
20F
100
AcDbEntity
  8
STANDARDEBENE
 62
     7
100
AcDbVertex
100
AcDb2dVertex
 10
72.36530553746427
 20
180.7598055103657
 30
0.0
  0
VERTEX
  5
211
330
20F
100
AcDbEntity
  8
STANDARDEBENE
 62
     7
100
AcDbVertex
100
AcDb2dVertex
 10
72.30533331525702
 20
180.713944399266
 30
0.0
  0
VERTEX
  5
212
330
20F
100
AcDbEntity
  8
STANDARDEBENE
 62
     7
100
AcDbVertex
100
AcDb2dVertex
 10
72.30180553748005
 20
180.713944399266
 30
0.0
  0
SEQEND
  5
213
330
20F
100
AcDbEntity
  8
STANDARDEBENE
 62
     7
  0
POLYLINE
  5
214
330
4A
100
AcDbEntity
  8
STANDARDEBENE
 62
     7
100
AcDb2dPolyline
 66
     1
 10
0.0
 20
0.0
 30
0.0
  0
VERTEX
  5
215
330
214
100
AcDbEntity
  8
STANDARDEBENE
 62
     7
100
AcDbVertex
100
AcDb2dVertex
 10
79.41733331347896
 20
178.5267221775904
 30
0.0
  0
VERTEX
  5
216
330
214
100
AcDbEntity
  8
STANDARDEBENE
 62
     7
100
AcDbVertex
100
AcDb2dVertex
 10
79.41733331347896
 20
178.6854721775509
 30
0.0
  0
VERTEX
  5
217
330
214
100
AcDbEntity
  8
STANDARDEBENE
 62
     7
100
AcDbVertex
100
AcDb2dVertex
 10
79.41733331347896
 20
178.7419166219812
 30
0.0
  0
SEQEND
  5
218
330
214
100
AcDbEntity
  8
STANDARDEBENE
 62
     7
  0
POLYLINE
  5
219
330
4A
100
AcDbEntity
  8
STANDARDEBENE
 62
     7
100
AcDb2dPolyline
 66
     1
 10
0.0
 20
0.0
 30
0.0
  0
VERTEX
  5
21A
330
219
100
AcDbEntity
  8
STANDARDEBENE
 62
     7
100
AcDbVertex
100
AcDb2dVertex
 10
79.41733331347896
 20
180.2764999549307
 30
0.0
  0
VERTEX
  5
21B
330
219
100
AcDbEntity
  8
STANDARDEBENE
 62
     7
100
AcDbVertex
100
AcDb2dVertex
 10
79.41733331347896
 20
180.3329443993613
 30
0.0
  0
VERTEX
  5
21C
330
219
100
AcDbEntity
  8
STANDARDEBENE
 62
     7
100
AcDbVertex
100
AcDb2dVertex
 10
79.41733331347896
 20
180.4952221770986
 30
0.0
  0
SEQEND
  5
21D
330
219
100
AcDbEntity
  8
STANDARDEBENE
 62
     7
  0
POLYLINE
  5
21E
330
4A
100
AcDbEntity
  8
STANDARDEBENE
 62
     7
100
AcDb2dPolyline
 66
     1
 10
0.0
 20
0.0
 30
0.0
  0
VERTEX
  5
21F
330
21E
100
AcDbEntity
  8
STANDARDEBENE
 62
     7
100
AcDbVertex
100
AcDb2dVertex
 10
79.41733331347896
 20
179.5250832884522
 30
0.0
  0
VERTEX
  5
220
330
21E
100
AcDbEntity
  8
STANDARDEBENE
 62
     7
100
AcDbVertex
100
AcDb2dVertex
 10
79.41733331347896
 20
179.6838332884124
 30
0.0
  0
VERTEX
  5
221
330
21E
100
AcDbEntity
  8
STANDARDEBENE
 62
     7
100
AcDbVertex
100
AcDb2dVertex
 10
79.41733331347896
 20
179.7402777328427
 30
0.0
  0
SEQEND
  5
222
330
21E
100
AcDbEntity
  8
STANDARDEBENE
 62
     7
  0
POLYLINE
  5
223
330
4A
100
AcDbEntity
  8
STANDARDEBENE
 62
     7
100
AcDb2dPolyline
 66
     1
 10
0.0
 20
0.0
 30
0.0
  0
VERTEX
  5
224
330
223
100
AcDbEntity
  8
STANDARDEBENE
 62
     7
100
AcDbVertex
100
AcDb2dVertex
 10
79.41733331347896
 20
180.5234443993137
 30
0.0
  0
VERTEX
  5
225
330
223
100
AcDbEntity
  8
STANDARDEBENE
 62
     7
100
AcDbVertex
100
AcDb2dVertex
 10
79.41733331347896
 20
180.6857221770509
 30
0.0
  0
VERTEX
  5
226
330
223
100
AcDbEntity
  8
STANDARDEBENE
 62
     7
100
AcDbVertex
100
AcDb2dVertex
 10
79.41733331347896
 20
180.7386388437042
 30
0.0
  0
SEQEND
  5
227
330
223
100
AcDbEntity
  8
STANDARDEBENE
 62
     7
  0
POLYLINE
  5
228
330
4A
100
AcDbEntity
  8
STANDARDEBENE
 62
     7
100
AcDb2dPolyline
 66
     1
 10
0.0
 20
0.0
 30
0.0
  0
VERTEX
  5
229
330
228
100
AcDbEntity
  8
STANDARDEBENE
 62
     7
100
AcDbVertex
100
AcDb2dVertex
 10
79.41733331347896
 20
179.2781388440692
 30
0.0
  0
VERTEX
  5
22A
330
228
100
AcDbEntity
  8
STANDARDEBENE
 62
     7
100
AcDbVertex
100
AcDb2dVertex
 10
79.41733331347896
 20
179.3345832884998
 30
0.0
  0
VERTEX
  5
22B
330
228
100
AcDbEntity
  8
STANDARDEBENE
 62
     7
100
AcDbVertex
100
AcDb2dVertex
 10
79.41733331347896
 20
179.4968610662367
 30
0.0
  0
SEQEND
  5
22C
330
228
100
AcDbEntity
  8
STANDARDEBENE
 62
     7
  0
POLYLINE
  5
22D
330
4A
100
AcDbEntity
  8
STANDARDEBENE
 62
     7
100
AcDb2dPolyline
 66
     1
 10
0.0
 20
0.0
 30
0.0
  0
VERTEX
  5
22E
330
22D
100
AcDbEntity
  8
STANDARDEBENE
 62
     7
100
AcDbVertex
100
AcDb2dVertex
 10
72.2982777597034
 20
180.713944399266
 30
0.0
  0
VERTEX
  5
22F
330
22D
100
AcDbEntity
  8
STANDARDEBENE
 62
     7
100
AcDbVertex
100
AcDb2dVertex
 10
72.2841666485955
 20
180.6963055103815
 30
0.0
  0
VERTEX
  5
230
330
22D
100
AcDbEntity
  8
STANDARDEBENE
 62
     7
100
AcDbVertex
100
AcDb2dVertex
 10
72.2735833152649
 20
180.67513884372
 30
0.0
  0
VERTEX
  5
231
330
22D
100
AcDbEntity
  8
STANDARDEBENE
 62
     7
100
AcDbVertex
100
AcDb2dVertex
 10
72.25947220415733
 20
180.6539721770588
 30
0.0
  0
VERTEX
  5
232
330
22D
100
AcDbEntity
  8
STANDARDEBENE
 62
     7
100
AcDbVertex
100
AcDb2dVertex
 10
72.24536109304977
 20
180.6292777326203
 30
0.0
  0
VERTEX
  5
233
330
22D
100
AcDbEntity
  8
STANDARDEBENE
 62
     7
100
AcDbVertex
100
AcDb2dVertex
 10
72.23477775971917
 20
180.6010555104052
 30
0.0
  0
VERTEX
  5
234
330
22D
100
AcDbEntity
  8
STANDARDEBENE
 62
     7
100
AcDbVertex
100
AcDb2dVertex
 10
72.22419442638856
 20
180.57283328819
 30
0.0
  0
VERTEX
  5
235
330
22D
100
AcDbEntity
  8
STANDARDEBENE
 62
     7
100
AcDbVertex
100
AcDb2dVertex
 10
72.210083315281
 20
180.5410832881979
 30
0.0
  0
VERTEX
  5
236
330
22D
100
AcDbEntity
  8
STANDARDEBENE
 62
     7
100
AcDbVertex
100
AcDb2dVertex
 10
72.19949998195008
 20
180.5093332882061
 30
0.0
  0
SEQEND
  5
237
330
22D
100
AcDbEntity
  8
STANDARDEBENE
 62
     7
  0
POLYLINE
  5
238
330
4A
100
AcDbEntity
  8
STANDARDEBENE
 62
     7
100
AcDb2dPolyline
 66
     1
 10
0.0
 20
0.0
 30
0.0
  0
VERTEX
  5
239
330
238
100
AcDbEntity
  8
STANDARDEBENE
 62
     7
100
AcDbVertex
100
AcDb2dVertex
 10
72.2982777597034
 20
180.3047221771462
 30
0.0
  0
VERTEX
  5
23A
330
238
100
AcDbEntity
  8
STANDARDEBENE
 62
     7
100
AcDbVertex
100
AcDb2dVertex
 10
72.2841666485955
 20
180.3223610660304
 30
0.0
  0
VERTEX
  5
23B
330
238
100
AcDbEntity
  8
STANDARDEBENE
 62
     7
100
AcDbVertex
100
AcDb2dVertex
 10
72.2735833152649
 20
180.3399999549149
 30
0.0
  0
VERTEX
  5
23C
330
238
100
AcDbEntity
  8
STANDARDEBENE
 62
     7
100
AcDbVertex
100
AcDb2dVertex
 10
72.25947220415733
 20
180.3646943993531
 30
0.0
  0
VERTEX
  5
23D
330
238
100
AcDbEntity
  8
STANDARDEBENE
 62
     7
100
AcDbVertex
100
AcDb2dVertex
 10
72.24536109304977
 20
180.3893888437916
 30
0.0
  0
VERTEX
  5
23E
330
238
100
AcDbEntity
  8
STANDARDEBENE
 62
     7
100
AcDbVertex
100
AcDb2dVertex
 10
72.23477775971917
 20
180.4176110660067
 30
0.0
  0
VERTEX
  5
23F
330
238
100
AcDbEntity
  8
STANDARDEBENE
 62
     7
100
AcDbVertex
100
AcDb2dVertex
 10
72.22419442638856
 20
180.4458332882219
 30
0.0
  0
VERTEX
  5
240
330
238
100
AcDbEntity
  8
STANDARDEBENE
 62
     7
100
AcDbVertex
100
AcDb2dVertex
 10
72.210083315281
 20
180.477583288214
 30
0.0
  0
VERTEX
  5
241
330
238
100
AcDbEntity
  8
STANDARDEBENE
 62
     7
100
AcDbVertex
100
AcDb2dVertex
 10
72.19949998195008
 20
180.5093332882061
 30
0.0
  0
SEQEND
  5
242
330
238
100
AcDbEntity
  8
STANDARDEBENE
 62
     7
  0
POLYLINE
  5
243
330
4A
100
AcDbEntity
  8
STANDARDEBENE
 62
     7
100
AcDb2dPolyline
 66
     1
 10
0.0
 20
0.0
 30
0.0
  0
VERTEX
  5
244
330
243
100
AcDbEntity
  8
STANDARDEBENE
 62
     7
100
AcDbVertex
100
AcDb2dVertex
 10
72.2982777597034
 20
179.7120555106276
 30
0.0
  0
VERTEX
  5
245
330
243
100
AcDbEntity
  8
STANDARDEBENE
 62
     7
100
AcDbVertex
100
AcDb2dVertex
 10
72.2841666485955
 20
179.69794439952
 30
0.0
  0
VERTEX
  5
246
330
243
100
AcDbEntity
  8
STANDARDEBENE
 62
     7
100
AcDbVertex
100
AcDb2dVertex
 10
72.2735833152649
 20
179.6767777328585
 30
0.0
  0
VERTEX
  5
247
330
243
100
AcDbEntity
  8
STANDARDEBENE
 62
     7
100
AcDbVertex
100
AcDb2dVertex
 10
72.25947220415733
 20
179.6556110661973
 30
0.0
  0
VERTEX
  5
248
330
243
100
AcDbEntity
  8
STANDARDEBENE
 62
     7
100
AcDbVertex
100
AcDb2dVertex
 10
72.24536109304977
 20
179.6309166217588
 30
0.0
  0
VERTEX
  5
249
330
243
100
AcDbEntity
  8
STANDARDEBENE
 62
     7
100
AcDbVertex
100
AcDb2dVertex
 10
72.23477775971917
 20
179.6026943995437
 30
0.0
  0
VERTEX
  5
24A
330
243
100
AcDbEntity
  8
STANDARDEBENE
 62
     7
100
AcDbVertex
100
AcDb2dVertex
 10
72.22419442638856
 20
179.5709443995515
 30
0.0
  0
VERTEX
  5
24B
330
243
100
AcDbEntity
  8
STANDARDEBENE
 62
     7
100
AcDbVertex
100
AcDb2dVertex
 10
72.210083315281
 20
179.5427221773364
 30
0.0
  0
VERTEX
  5
24C
330
243
100
AcDbEntity
  8
STANDARDEBENE
 62
     7
100
AcDbVertex
100
AcDb2dVertex
 10
72.19949998195008
 20
179.5109721773446
 30
0.0
  0
SEQEND
  5
24D
330
243
100
AcDbEntity
  8
STANDARDEBENE
 62
     7
  0
POLYLINE
  5
24E
330
4A
100
AcDbEntity
  8
STANDARDEBENE
 62
     7
100
AcDb2dPolyline
 66
     1
 10
0.0
 20
0.0
 30
0.0
  0
VERTEX
  5
24F
330
24E
100
AcDbEntity
  8
STANDARDEBENE
 62
     7
100
AcDbVertex
100
AcDb2dVertex
 10
72.2982777597034
 20
179.3063610662844
 30
0.0
  0
VERTEX
  5
250
330
24E
100
AcDbEntity
  8
STANDARDEBENE
 62
     7
100
AcDbVertex
100
AcDb2dVertex
 10
72.2841666485955
 20
179.3204721773919
 30
0.0
  0
VERTEX
  5
251
330
24E
100
AcDbEntity
  8
STANDARDEBENE
 62
     7
100
AcDbVertex
100
AcDb2dVertex
 10
72.2735833152649
 20
179.3416388440534
 30
0.0
  0
VERTEX
  5
252
330
24E
100
AcDbEntity
  8
STANDARDEBENE
 62
     7
100
AcDbVertex
100
AcDb2dVertex
 10
72.25947220415733
 20
179.3663332884916
 30
0.0
  0
VERTEX
  5
253
330
24E
100
AcDbEntity
  8
STANDARDEBENE
 62
     7
100
AcDbVertex
100
AcDb2dVertex
 10
72.24536109304977
 20
179.3910277329301
 30
0.0
  0
VERTEX
  5
254
330
24E
100
AcDbEntity
  8
STANDARDEBENE
 62
     7
100
AcDbVertex
100
AcDb2dVertex
 10
72.23477775971917
 20
179.4157221773683
 30
0.0
  0
VERTEX
  5
255
330
24E
100
AcDbEntity
  8
STANDARDEBENE
 62
     7
100
AcDbVertex
100
AcDb2dVertex
 10
72.22419442638856
 20
179.4474721773604
 30
0.0
  0
VERTEX
  5
256
330
24E
100
AcDbEntity
  8
STANDARDEBENE
 62
     7
100
AcDbVertex
100
AcDb2dVertex
 10
72.210083315281
 20
179.4792221773525
 30
0.0
  0
VERTEX
  5
257
330
24E
100
AcDbEntity
  8
STANDARDEBENE
 62
     7
100
AcDbVertex
100
AcDb2dVertex
 10
72.19949998195008
 20
179.5109721773446
 30
0.0
  0
SEQEND
  5
258
330
24E
100
AcDbEntity
  8
STANDARDEBENE
 62
     7
  0
POLYLINE
  5
259
330
4A
100
AcDbEntity
  8
STANDARDEBENE
 62
     7
100
AcDb2dPolyline
 66
     1
 10
0.0
 20
0.0
 30
0.0
  0
VERTEX
  5
25A
330
259
100
AcDbEntity
  8
STANDARDEBENE
 62
     7
100
AcDbVertex
100
AcDb2dVertex
 10
72.2982777597034
 20
178.7136943997661
 30
0.0
  0
VERTEX
  5
25B
330
259
100
AcDbEntity
  8
STANDARDEBENE
 62
     7
100
AcDbVertex
100
AcDb2dVertex
 10
72.28769442637247
 20
178.7031110664352
 30
0.0
  0
VERTEX
  5
25C
330
259
100
AcDbEntity
  8
STANDARDEBENE
 62
     7
100
AcDbVertex
100
AcDb2dVertex
 10
72.27711109304188
 20
178.6889999553276
 30
0.0
  0
VERTEX
  5
25D
330
259
100
AcDbEntity
  8
STANDARDEBENE
 62
     7
100
AcDbVertex
100
AcDb2dVertex
 10
72.26652775971128
 20
178.6678332886664
 30
0.0
  0
VERTEX
  5
25E
330
259
100
AcDbEntity
  8
STANDARDEBENE
 62
     7
100
AcDbVertex
100
AcDb2dVertex
 10
72.25594442638035
 20
178.6501943997818
 30
0.0
  0
VERTEX
  5
25F
330
259
100
AcDbEntity
  8
STANDARDEBENE
 62
     7
100
AcDbVertex
100
AcDb2dVertex
 10
72.24536109304977
 20
178.6290277331207
 30
0.0
  0
VERTEX
  5
260
330
259
100
AcDbEntity
  8
STANDARDEBENE
 62
     7
100
AcDbVertex
100
AcDb2dVertex
 10
72.23477775971917
 20
178.6043332886822
 30
0.0
  0
VERTEX
  5
261
330
259
100
AcDbEntity
  8
STANDARDEBENE
 62
     7
100
AcDbVertex
100
AcDb2dVertex
 10
72.22772220416522
 20
178.579638844244
 30
0.0
  0
VERTEX
  5
262
330
259
100
AcDbEntity
  8
STANDARDEBENE
 62
     7
100
AcDbVertex
100
AcDb2dVertex
 10
72.21713887083462
 20
178.5549443998058
 30
0.0
  0
VERTEX
  5
263
330
259
100
AcDbEntity
  8
STANDARDEBENE
 62
     7
100
AcDbVertex
100
AcDb2dVertex
 10
72.19949998195008
 20
178.5090832887061
 30
0.0
  0
VERTEX
  5
264
330
259
100
AcDbEntity
  8
STANDARDEBENE
 62
     7
100
AcDbVertex
100
AcDb2dVertex
 10
72.1853888708425
 20
178.4632221776065
 30
0.0
  0
VERTEX
  5
265
330
259
100
AcDbEntity
  8
STANDARDEBENE
 62
     7
100
AcDbVertex
100
AcDb2dVertex
 10
72.17127775973493
 20
178.4103055109528
 30
0.0
  0
VERTEX
  5
266
330
259
100
AcDbEntity
  8
STANDARDEBENE
 62
     7
100
AcDbVertex
100
AcDb2dVertex
 10
72.15363887085039
 20
178.3538610665225
 30
0.0
  0
SEQEND
  5
267
330
259
100
AcDbEntity
  8
STANDARDEBENE
 62
     7
  0
POLYLINE
  5
268
330
4A
100
AcDbEntity
  8
STANDARDEBENE
 62
     7
100
AcDb2dPolyline
 66
     1
 10
0.0
 20
0.0
 30
0.0
  0
VERTEX
  5
269
330
268
100
AcDbEntity
  8
STANDARDEBENE
 62
     7
100
AcDbVertex
100
AcDb2dVertex
 10
72.62636109295448
 20
178.7419166219812
 30
0.0
  0
VERTEX
  5
26A
330
268
100
AcDbEntity
  8
STANDARDEBENE
 62
     7
100
AcDbVertex
100
AcDb2dVertex
 10
72.62636109295448
 20
178.7278055108737
 30
0.0
  0
VERTEX
  5
26B
330
268
100
AcDbEntity
  8
STANDARDEBENE
 62
     7
100
AcDbVertex
100
AcDb2dVertex
 10
72.62636109295448
 20
178.7066388442121
 30
0.0
  0
VERTEX
  5
26C
330
268
100
AcDbEntity
  8
STANDARDEBENE
 62
     7
100
AcDbVertex
100
AcDb2dVertex
 10
72.62636109295448
 20
178.6854721775509
 30
0.0
  0
VERTEX
  5
26D
330
268
100
AcDbEntity
  8
STANDARDEBENE
 62
     7
100
AcDbVertex
100
AcDb2dVertex
 10
72.62636109295448
 20
178.6572499553358
 30
0.0
  0
VERTEX
  5
26E
330
268
100
AcDbEntity
  8
STANDARDEBENE
 62
     7
100
AcDbVertex
100
AcDb2dVertex
 10
72.62636109295448
 20
178.6254999553437
 30
0.0
  0
VERTEX
  5
26F
330
268
100
AcDbEntity
  8
STANDARDEBENE
 62
     7
100
AcDbVertex
100
AcDb2dVertex
 10
72.62636109295448
 20
178.5937499553516
 30
0.0
  0
VERTEX
  5
270
330
268
100
AcDbEntity
  8
STANDARDEBENE
 62
     7
100
AcDbVertex
100
AcDb2dVertex
 10
72.62636109295448
 20
178.5584721775825
 30
0.0
  0
VERTEX
  5
271
330
268
100
AcDbEntity
  8
STANDARDEBENE
 62
     7
100
AcDbVertex
100
AcDb2dVertex
 10
72.62636109295448
 20
178.5267221775904
 30
0.0
  0
SEQEND
  5
272
330
268
100
AcDbEntity
  8
STANDARDEBENE
 62
     7
  0
POLYLINE
  5
273
330
4A
100
AcDbEntity
  8
STANDARDEBENE
 62
     7
100
AcDb2dPolyline
 66
     1
 10
0.0
 20
0.0
 30
0.0
  0
VERTEX
  5
274
330
273
100
AcDbEntity
  8
STANDARDEBENE
 62
     7
100
AcDbVertex
100
AcDb2dVertex
 10
72.19949998195008
 20
180.5093332882061
 30
0.0
  0
VERTEX
  5
275
330
273
100
AcDbEntity
  8
STANDARDEBENE
 62
     7
100
AcDbVertex
100
AcDb2dVertex
 10
72.20655553750402
 20
180.5093332882061
 30
0.0
  0
VERTEX
  5
276
330
273
100
AcDbEntity
  8
STANDARDEBENE
 62
     7
100
AcDbVertex
100
AcDb2dVertex
 10
72.21361109305765
 20
180.5093332882061
 30
0.0
  0
VERTEX
  5
277
330
273
100
AcDbEntity
  8
STANDARDEBENE
 62
     7
100
AcDbVertex
100
AcDb2dVertex
 10
72.21713887083462
 20
180.5093332882061
 30
0.0
  0
VERTEX
  5
278
330
273
100
AcDbEntity
  8
STANDARDEBENE
 62
     7
100
AcDbVertex
100
AcDb2dVertex
 10
72.22419442638856
 20
180.5093332882061
 30
0.0
  0
VERTEX
  5
279
330
273
100
AcDbEntity
  8
STANDARDEBENE
 62
     7
100
AcDbVertex
100
AcDb2dVertex
 10
72.23124998194218
 20
180.5093332882061
 30
0.0
  0
VERTEX
  5
27A
330
273
100
AcDbEntity
  8
STANDARDEBENE
 62
     7
100
AcDbVertex
100
AcDb2dVertex
 10
72.23477775971917
 20
180.5093332882061
 30
0.0
  0
VERTEX
  5
27B
330
273
100
AcDbEntity
  8
STANDARDEBENE
 62
     7
100
AcDbVertex
100
AcDb2dVertex
 10
72.24183331527279
 20
180.5093332882061
 30
0.0
  0
VERTEX
  5
27C
330
273
100
AcDbEntity
  8
STANDARDEBENE
 62
     7
100
AcDbVertex
100
AcDb2dVertex
 10
72.24536109304977
 20
180.5093332882061
 30
0.0
  0
VERTEX
  5
27D
330
273
100
AcDbEntity
  8
STANDARDEBENE
 62
     7
100
AcDbVertex
100
AcDb2dVertex
 10
72.25241664860371
 20
180.5093332882061
 30
0.0
  0
VERTEX
  5
27E
330
273
100
AcDbEntity
  8
STANDARDEBENE
 62
     7
100
AcDbVertex
100
AcDb2dVertex
 10
72.25947220415733
 20
180.5093332882061
 30
0.0
  0
VERTEX
  5
27F
330
273
100
AcDbEntity
  8
STANDARDEBENE
 62
     7
100
AcDbVertex
100
AcDb2dVertex
 10
72.2629999819343
 20
180.5093332882061
 30
0.0
  0
VERTEX
  5
280
330
273
100
AcDbEntity
  8
STANDARDEBENE
 62
     7
100
AcDbVertex
100
AcDb2dVertex
 10
72.27005553748793
 20
180.5093332882061
 30
0.0
  0
VERTEX
  5
281
330
273
100
AcDbEntity
  8
STANDARDEBENE
 62
     7
100
AcDbVertex
100
AcDb2dVertex
 10
72.2735833152649
 20
180.5093332882061
 30
0.0
  0
VERTEX
  5
282
330
273
100
AcDbEntity
  8
STANDARDEBENE
 62
     7
100
AcDbVertex
100
AcDb2dVertex
 10
72.28063887081885
 20
180.5093332882061
 30
0.0
  0
VERTEX
  5
283
330
273
100
AcDbEntity
  8
STANDARDEBENE
 62
     7
100
AcDbVertex
100
AcDb2dVertex
 10
72.28769442637247
 20
180.5093332882061
 30
0.0
  0
VERTEX
  5
284
330
273
100
AcDbEntity
  8
STANDARDEBENE
 62
     7
100
AcDbVertex
100
AcDb2dVertex
 10
72.29122220414945
 20
180.5093332882061
 30
0.0
  0
VERTEX
  5
285
330
273
100
AcDbEntity
  8
STANDARDEBENE
 62
     7
100
AcDbVertex
100
AcDb2dVertex
 10
72.2982777597034
 20
180.5093332882061
 30
0.0
  0
VERTEX
  5
286
330
273
100
AcDbEntity
  8
STANDARDEBENE
 62
     7
100
AcDbVertex
100
AcDb2dVertex
 10
72.30533331525702
 20
180.5093332882061
 30
0.0
  0
VERTEX
  5
287
330
273
100
AcDbEntity
  8
STANDARDEBENE
 62
     7
100
AcDbVertex
100
AcDb2dVertex
 10
72.30886109303398
 20
180.5093332882061
 30
0.0
  0
VERTEX
  5
288
330
273
100
AcDbEntity
  8
STANDARDEBENE
 62
     7
100
AcDbVertex
100
AcDb2dVertex
 10
72.31591664858762
 20
180.5093332882061
 30
0.0
  0
VERTEX
  5
289
330
273
100
AcDbEntity
  8
STANDARDEBENE
 62
     7
100
AcDbVertex
100
AcDb2dVertex
 10
72.31944442636458
 20
180.5093332882061
 30
0.0
  0
VERTEX
  5
28A
330
273
100
AcDbEntity
  8
STANDARDEBENE
 62
     7
100
AcDbVertex
100
AcDb2dVertex
 10
72.32649998191853
 20
180.5093332882061
 30
0.0
  0
VERTEX
  5
28B
330
273
100
AcDbEntity
  8
STANDARDEBENE
 62
     7
100
AcDbVertex
100
AcDb2dVertex
 10
72.33355553747215
 20
180.5093332882061
 30
0.0
  0
VERTEX
  5
28C
330
273
100
AcDbEntity
  8
STANDARDEBENE
 62
     7
100
AcDbVertex
100
AcDb2dVertex
 10
72.3406110930261
 20
180.5093332882061
 30
0.0
  0
VERTEX
  5
28D
330
273
100
AcDbEntity
  8
STANDARDEBENE
 62
     7
100
AcDbVertex
100
AcDb2dVertex
 10
72.34413887080275
 20
180.5093332882061
 30
0.0
  0
VERTEX
  5
28E
330
273
100
AcDbEntity
  8
STANDARDEBENE
 62
     7
100
AcDbVertex
100
AcDb2dVertex
 10
72.3511944263567
 20
180.5093332882061
 30
0.0
  0
VERTEX
  5
28F
330
273
100
AcDbEntity
  8
STANDARDEBENE
 62
     7
100
AcDbVertex
100
AcDb2dVertex
 10
72.35472220413368
 20
180.5093332882061
 30
0.0
  0
VERTEX
  5
290
330
273
100
AcDbEntity
  8
STANDARDEBENE
 62
     7
100
AcDbVertex
100
AcDb2dVertex
 10
72.3617777596873
 20
180.5093332882061
 30
0.0
  0
VERTEX
  5
291
330
273
100
AcDbEntity
  8
STANDARDEBENE
 62
     7
100
AcDbVertex
100
AcDb2dVertex
 10
72.36883331524125
 20
180.5093332882061
 30
0.0
  0
VERTEX
  5
292
330
273
100
AcDbEntity
  8
STANDARDEBENE
 62
     7
100
AcDbVertex
100
AcDb2dVertex
 10
72.3723610930179
 20
180.5093332882061
 30
0.0
  0
VERTEX
  5
293
330
273
100
AcDbEntity
  8
STANDARDEBENE
 62
     7
100
AcDbVertex
100
AcDb2dVertex
 10
72.37941664857185
 20
180.5093332882061
 30
0.0
  0
VERTEX
  5
294
330
273
100
AcDbEntity
  8
STANDARDEBENE
 62
     7
100
AcDbVertex
100
AcDb2dVertex
 10
72.38647220412578
 20
180.5093332882061
 30
0.0
  0
VERTEX
  5
295
330
273
100
AcDbEntity
  8
STANDARDEBENE
 62
     7
100
AcDbVertex
100
AcDb2dVertex
 10
72.38999998190243
 20
180.5093332882061
 30
0.0
  0
VERTEX
  5
296
330
273
100
AcDbEntity
  8
STANDARDEBENE
 62
     7
100
AcDbVertex
100
AcDb2dVertex
 10
72.39705553745638
 20
180.5093332882061
 30
0.0
  0
VERTEX
  5
297
330
273
100
AcDbEntity
  8
STANDARDEBENE
 62
     7
100
AcDbVertex
100
AcDb2dVertex
 10
72.40411109301002
 20
180.5093332882061
 30
0.0
  0
VERTEX
  5
298
330
273
100
AcDbEntity
  8
STANDARDEBENE
 62
     7
100
AcDbVertex
100
AcDb2dVertex
 10
72.40763887078698
 20
180.5093332882061
 30
0.0
  0
VERTEX
  5
299
330
273
100
AcDbEntity
  8
STANDARDEBENE
 62
     7
100
AcDbVertex
100
AcDb2dVertex
 10
72.41469442634093
 20
180.5093332882061
 30
0.0
  0
VERTEX
  5
29A
330
273
100
AcDbEntity
  8
STANDARDEBENE
 62
     7
100
AcDbVertex
100
AcDb2dVertex
 10
72.42174998189455
 20
180.5093332882061
 30
0.0
  0
VERTEX
  5
29B
330
273
100
AcDbEntity
  8
STANDARDEBENE
 62
     7
100
AcDbVertex
100
AcDb2dVertex
 10
72.42527775967153
 20
180.5093332882061
 30
0.0
  0
VERTEX
  5
29C
330
273
100
AcDbEntity
  8
STANDARDEBENE
 62
     7
100
AcDbVertex
100
AcDb2dVertex
 10
72.43233331522515
 20
180.5093332882061
 30
0.0
  0
VERTEX
  5
29D
330
273
100
AcDbEntity
  8
STANDARDEBENE
 62
     7
100
AcDbVertex
100
AcDb2dVertex
 10
72.4393888707791
 20
180.5093332882061
 30
0.0
  0
VERTEX
  5
29E
330
273
100
AcDbEntity
  8
STANDARDEBENE
 62
     7
100
AcDbVertex
100
AcDb2dVertex
 10
72.44291664855606
 20
180.5093332882061
 30
0.0
  0
VERTEX
  5
29F
330
273
100
AcDbEntity
  8
STANDARDEBENE
 62
     7
100
AcDbVertex
100
AcDb2dVertex
 10
72.4499722041097
 20
180.5093332882061
 30
0.0
  0
VERTEX
  5
2A0
330
273
100
AcDbEntity
  8
STANDARDEBENE
 62
     7
100
AcDbVertex
100
AcDb2dVertex
 10
72.45702775966365
 20
180.5093332882061
 30
0.0
  0
SEQEND
  5
2A1
330
273
100
AcDbEntity
  8
STANDARDEBENE
 62
     7
  0
POLYLINE
  5
2A2
330
4A
100
AcDbEntity
  8
STANDARDEBENE
 62
     7
100
AcDb2dPolyline
 66
     1
 10
0.0
 20
0.0
 30
0.0
  0
VERTEX
  5
2A3
330
2A2
100
AcDbEntity
  8
STANDARDEBENE
 62
     7
100
AcDbVertex
100
AcDb2dVertex
 10
72.62636109295448
 20
180.7386388437042
 30
0.0
  0
VERTEX
  5
2A4
330
2A2
100
AcDbEntity
  8
STANDARDEBENE
 62
     7
100
AcDbVertex
100
AcDb2dVertex
 10
72.62636109295448
 20
180.7245277325966
 30
0.0
  0
VERTEX
  5
2A5
330
2A2
100
AcDbEntity
  8
STANDARDEBENE
 62
     7
100
AcDbVertex
100
AcDb2dVertex
 10
72.62636109295448
 20
180.7033610659351
 30
0.0
  0
VERTEX
  5
2A6
330
2A2
100
AcDbEntity
  8
STANDARDEBENE
 62
     7
100
AcDbVertex
100
AcDb2dVertex
 10
72.62636109295448
 20
180.6857221770509
 30
0.0
  0
VERTEX
  5
2A7
330
2A2
100
AcDbEntity
  8
STANDARDEBENE
 62
     7
100
AcDbVertex
100
AcDb2dVertex
 10
72.62636109295448
 20
180.6821943992739
 30
0.0
  0
VERTEX
  5
2A8
330
2A2
100
AcDbEntity
  8
STANDARDEBENE
 62
     7
100
AcDbVertex
100
AcDb2dVertex
 10
72.62636109295448
 20
180.6539721770588
 30
0.0
  0
VERTEX
  5
2A9
330
2A2
100
AcDbEntity
  8
STANDARDEBENE
 62
     7
100
AcDbVertex
100
AcDb2dVertex
 10
72.62636109295448
 20
180.6257499548437
 30
0.0
  0
VERTEX
  5
2AA
330
2A2
100
AcDbEntity
  8
STANDARDEBENE
 62
     7
100
AcDbVertex
100
AcDb2dVertex
 10
72.62636109295448
 20
180.5904721770746
 30
0.0
  0
VERTEX
  5
2AB
330
2A2
100
AcDbEntity
  8
STANDARDEBENE
 62
     7
100
AcDbVertex
100
AcDb2dVertex
 10
72.62636109295448
 20
180.5587221770824
 30
0.0
  0
VERTEX
  5
2AC
330
2A2
100
AcDbEntity
  8
STANDARDEBENE
 62
     7
100
AcDbVertex
100
AcDb2dVertex
 10
72.62636109295448
 20
180.5234443993137
 30
0.0
  0
SEQEND
  5
2AD
330
2A2
100
AcDbEntity
  8
STANDARDEBENE
 62
     7
  0
POLYLINE
  5
2AE
330
4A
100
AcDbEntity
  8
STANDARDEBENE
 62
     7
100
AcDb2dPolyline
 66
     1
 10
0.0
 20
0.0
 30
0.0
  0
VERTEX
  5
2AF
330
2AE
100
AcDbEntity
  8
STANDARDEBENE
 62
     7
100
AcDbVertex
100
AcDb2dVertex
 10
72.62636109295448
 20
180.2764999549307
 30
0.0
  0
VERTEX
  5
2B0
330
2AE
100
AcDbEntity
  8
STANDARDEBENE
 62
     7
100
AcDbVertex
100
AcDb2dVertex
 10
72.62636109295448
 20
180.2941388438153
 30
0.0
  0
VERTEX
  5
2B1
330
2AE
100
AcDbEntity
  8
STANDARDEBENE
 62
     7
100
AcDbVertex
100
AcDb2dVertex
 10
72.62636109295448
 20
180.3117777326998
 30
0.0
  0
VERTEX
  5
2B2
330
2AE
100
AcDbEntity
  8
STANDARDEBENE
 62
     7
100
AcDbVertex
100
AcDb2dVertex
 10
72.62636109295448
 20
180.3329443993613
 30
0.0
  0
VERTEX
  5
2B3
330
2AE
100
AcDbEntity
  8
STANDARDEBENE
 62
     7
100
AcDbVertex
100
AcDb2dVertex
 10
72.62636109295448
 20
180.336472177138
 30
0.0
  0
VERTEX
  5
2B4
330
2AE
100
AcDbEntity
  8
STANDARDEBENE
 62
     7
100
AcDbVertex
100
AcDb2dVertex
 10
72.62636109295448
 20
180.3611666215765
 30
0.0
  0
VERTEX
  5
2B5
330
2AE
100
AcDbEntity
  8
STANDARDEBENE
 62
     7
100
AcDbVertex
100
AcDb2dVertex
 10
72.62636109295448
 20
180.3929166215686
 30
0.0
  0
VERTEX
  5
2B6
330
2AE
100
AcDbEntity
  8
STANDARDEBENE
 62
     7
100
AcDbVertex
100
AcDb2dVertex
 10
72.62636109295448
 20
180.4246666215604
 30
0.0
  0
VERTEX
  5
2B7
330
2AE
100
AcDbEntity
  8
STANDARDEBENE
 62
     7
100
AcDbVertex
100
AcDb2dVertex
 10
72.62636109295448
 20
180.4599443993295
 30
0.0
  0
VERTEX
  5
2B8
330
2AE
100
AcDbEntity
  8
STANDARDEBENE
 62
     7
100
AcDbVertex
100
AcDb2dVertex
 10
72.62636109295448
 20
180.4952221770986
 30
0.0
  0
SEQEND
  5
2B9
330
2AE
100
AcDbEntity
  8
STANDARDEBENE
 62
     7
  0
POLYLINE
  5
2BA
330
4A
100
AcDbEntity
  8
STANDARDEBENE
 62
     7
100
AcDb2dPolyline
 66
     1
 10
0.0
 20
0.0
 30
0.0
  0
VERTEX
  5
2BB
330
2BA
100
AcDbEntity
  8
STANDARDEBENE
 62
     7
100
AcDbVertex
100
AcDb2dVertex
 10
72.45702775966365
 20
179.5109721773446
 30
0.0
  0
VERTEX
  5
2BC
330
2BA
100
AcDbEntity
  8
STANDARDEBENE
 62
     7
100
AcDbVertex
100
AcDb2dVertex
 10
72.4499722041097
 20
179.5109721773446
 30
0.0
  0
VERTEX
  5
2BD
330
2BA
100
AcDbEntity
  8
STANDARDEBENE
 62
     7
100
AcDbVertex
100
AcDb2dVertex
 10
72.44291664855606
 20
179.5109721773446
 30
0.0
  0
VERTEX
  5
2BE
330
2BA
100
AcDbEntity
  8
STANDARDEBENE
 62
     7
100
AcDbVertex
100
AcDb2dVertex
 10
72.4393888707791
 20
179.5109721773446
 30
0.0
  0
VERTEX
  5
2BF
330
2BA
100
AcDbEntity
  8
STANDARDEBENE
 62
     7
100
AcDbVertex
100
AcDb2dVertex
 10
72.43233331522515
 20
179.5109721773446
 30
0.0
  0
VERTEX
  5
2C0
330
2BA
100
AcDbEntity
  8
STANDARDEBENE
 62
     7
100
AcDbVertex
100
AcDb2dVertex
 10
72.4288055374485
 20
179.5109721773446
 30
0.0
  0
VERTEX
  5
2C1
330
2BA
100
AcDbEntity
  8
STANDARDEBENE
 62
     7
100
AcDbVertex
100
AcDb2dVertex
 10
72.42174998189455
 20
179.5109721773446
 30
0.0
  0
VERTEX
  5
2C2
330
2BA
100
AcDbEntity
  8
STANDARDEBENE
 62
     7
100
AcDbVertex
100
AcDb2dVertex
 10
72.41822220411758
 20
179.5109721773446
 30
0.0
  0
VERTEX
  5
2C3
330
2BA
100
AcDbEntity
  8
STANDARDEBENE
 62
     7
100
AcDbVertex
100
AcDb2dVertex
 10
72.41116664856395
 20
179.5109721773446
 30
0.0
  0
VERTEX
  5
2C4
330
2BA
100
AcDbEntity
  8
STANDARDEBENE
 62
     7
100
AcDbVertex
100
AcDb2dVertex
 10
72.40411109301002
 20
179.5109721773446
 30
0.0
  0
VERTEX
  5
2C5
330
2BA
100
AcDbEntity
  8
STANDARDEBENE
 62
     7
100
AcDbVertex
100
AcDb2dVertex
 10
72.40058331523336
 20
179.5109721773446
 30
0.0
  0
VERTEX
  5
2C6
330
2BA
100
AcDbEntity
  8
STANDARDEBENE
 62
     7
100
AcDbVertex
100
AcDb2dVertex
 10
72.39352775967942
 20
179.5109721773446
 30
0.0
  0
VERTEX
  5
2C7
330
2BA
100
AcDbEntity
  8
STANDARDEBENE
 62
     7
100
AcDbVertex
100
AcDb2dVertex
 10
72.38999998190243
 20
179.5109721773446
 30
0.0
  0
VERTEX
  5
2C8
330
2BA
100
AcDbEntity
  8
STANDARDEBENE
 62
     7
100
AcDbVertex
100
AcDb2dVertex
 10
72.38294442634881
 20
179.5109721773446
 30
0.0
  0
VERTEX
  5
2C9
330
2BA
100
AcDbEntity
  8
STANDARDEBENE
 62
     7
100
AcDbVertex
100
AcDb2dVertex
 10
72.37588887079487
 20
179.5109721773446
 30
0.0
  0
VERTEX
  5
2CA
330
2BA
100
AcDbEntity
  8
STANDARDEBENE
 62
     7
100
AcDbVertex
100
AcDb2dVertex
 10
72.3723610930179
 20
179.5109721773446
 30
0.0
  0
VERTEX
  5
2CB
330
2BA
100
AcDbEntity
  8
STANDARDEBENE
 62
     7
100
AcDbVertex
100
AcDb2dVertex
 10
72.36530553746427
 20
179.5109721773446
 30
0.0
  0
VERTEX
  5
2CC
330
2BA
100
AcDbEntity
  8
STANDARDEBENE
 62
     7
100
AcDbVertex
100
AcDb2dVertex
 10
72.3617777596873
 20
179.5109721773446
 30
0.0
  0
VERTEX
  5
2CD
330
2BA
100
AcDbEntity
  8
STANDARDEBENE
 62
     7
100
AcDbVertex
100
AcDb2dVertex
 10
72.35472220413368
 20
179.5109721773446
 30
0.0
  0
VERTEX
  5
2CE
330
2BA
100
AcDbEntity
  8
STANDARDEBENE
 62
     7
100
AcDbVertex
100
AcDb2dVertex
 10
72.3511944263567
 20
179.5109721773446
 30
0.0
  0
VERTEX
  5
2CF
330
2BA
100
AcDbEntity
  8
STANDARDEBENE
 62
     7
100
AcDbVertex
100
AcDb2dVertex
 10
72.34413887080275
 20
179.5109721773446
 30
0.0
  0
VERTEX
  5
2D0
330
2BA
100
AcDbEntity
  8
STANDARDEBENE
 62
     7
100
AcDbVertex
100
AcDb2dVertex
 10
72.33708331524913
 20
179.5109721773446
 30
0.0
  0
VERTEX
  5
2D1
330
2BA
100
AcDbEntity
  8
STANDARDEBENE
 62
     7
100
AcDbVertex
100
AcDb2dVertex
 10
72.33355553747215
 20
179.5109721773446
 30
0.0
  0
VERTEX
  5
2D2
330
2BA
100
AcDbEntity
  8
STANDARDEBENE
 62
     7
100
AcDbVertex
100
AcDb2dVertex
 10
72.32649998191853
 20
179.5109721773446
 30
0.0
  0
VERTEX
  5
2D3
330
2BA
100
AcDbEntity
  8
STANDARDEBENE
 62
     7
100
AcDbVertex
100
AcDb2dVertex
 10
72.32297220414156
 20
179.5109721773446
 30
0.0
  0
VERTEX
  5
2D4
330
2BA
100
AcDbEntity
  8
STANDARDEBENE
 62
     7
100
AcDbVertex
100
AcDb2dVertex
 10
72.31591664858762
 20
179.5109721773446
 30
0.0
  0
VERTEX
  5
2D5
330
2BA
100
AcDbEntity
  8
STANDARDEBENE
 62
     7
100
AcDbVertex
100
AcDb2dVertex
 10
72.30886109303398
 20
179.5109721773446
 30
0.0
  0
VERTEX
  5
2D6
330
2BA
100
AcDbEntity
  8
STANDARDEBENE
 62
     7
100
AcDbVertex
100
AcDb2dVertex
 10
72.30533331525702
 20
179.5109721773446
 30
0.0
  0
VERTEX
  5
2D7
330
2BA
100
AcDbEntity
  8
STANDARDEBENE
 62
     7
100
AcDbVertex
100
AcDb2dVertex
 10
72.2982777597034
 20
179.5109721773446
 30
0.0
  0
VERTEX
  5
2D8
330
2BA
100
AcDbEntity
  8
STANDARDEBENE
 62
     7
100
AcDbVertex
100
AcDb2dVertex
 10
72.29474998192642
 20
179.5109721773446
 30
0.0
  0
VERTEX
  5
2D9
330
2BA
100
AcDbEntity
  8
STANDARDEBENE
 62
     7
100
AcDbVertex
100
AcDb2dVertex
 10
72.28769442637247
 20
179.5109721773446
 30
0.0
  0
VERTEX
  5
2DA
330
2BA
100
AcDbEntity
  8
STANDARDEBENE
 62
     7
100
AcDbVertex
100
AcDb2dVertex
 10
72.2841666485955
 20
179.5109721773446
 30
0.0
  0
VERTEX
  5
2DB
330
2BA
100
AcDbEntity
  8
STANDARDEBENE
 62
     7
100
AcDbVertex
100
AcDb2dVertex
 10
72.27711109304188
 20
179.5109721773446
 30
0.0
  0
VERTEX
  5
2DC
330
2BA
100
AcDbEntity
  8
STANDARDEBENE
 62
     7
100
AcDbVertex
100
AcDb2dVertex
 10
72.2735833152649
 20
179.5109721773446
 30
0.0
  0
VERTEX
  5
2DD
330
2BA
100
AcDbEntity
  8
STANDARDEBENE
 62
     7
100
AcDbVertex
100
AcDb2dVertex
 10
72.26652775971128
 20
179.5109721773446
 30
0.0
  0
VERTEX
  5
2DE
330
2BA
100
AcDbEntity
  8
STANDARDEBENE
 62
     7
100
AcDbVertex
100
AcDb2dVertex
 10
72.25947220415733
 20
179.5109721773446
 30
0.0
  0
VERTEX
  5
2DF
330
2BA
100
AcDbEntity
  8
STANDARDEBENE
 62
     7
100
AcDbVertex
100
AcDb2dVertex
 10
72.25594442638035
 20
179.5109721773446
 30
0.0
  0
VERTEX
  5
2E0
330
2BA
100
AcDbEntity
  8
STANDARDEBENE
 62
     7
100
AcDbVertex
100
AcDb2dVertex
 10
72.24888887082673
 20
179.5109721773446
 30
0.0
  0
VERTEX
  5
2E1
330
2BA
100
AcDbEntity
  8
STANDARDEBENE
 62
     7
100
AcDbVertex
100
AcDb2dVertex
 10
72.24536109304977
 20
179.5109721773446
 30
0.0
  0
VERTEX
  5
2E2
330
2BA
100
AcDbEntity
  8
STANDARDEBENE
 62
     7
100
AcDbVertex
100
AcDb2dVertex
 10
72.23830553749613
 20
179.5109721773446
 30
0.0
  0
VERTEX
  5
2E3
330
2BA
100
AcDbEntity
  8
STANDARDEBENE
 62
     7
100
AcDbVertex
100
AcDb2dVertex
 10
72.23477775971917
 20
179.5109721773446
 30
0.0
  0
VERTEX
  5
2E4
330
2BA
100
AcDbEntity
  8
STANDARDEBENE
 62
     7
100
AcDbVertex
100
AcDb2dVertex
 10
72.22772220416522
 20
179.5109721773446
 30
0.0
  0
VERTEX
  5
2E5
330
2BA
100
AcDbEntity
  8
STANDARDEBENE
 62
     7
100
AcDbVertex
100
AcDb2dVertex
 10
72.22419442638856
 20
179.5109721773446
 30
0.0
  0
VERTEX
  5
2E6
330
2BA
100
AcDbEntity
  8
STANDARDEBENE
 62
     7
100
AcDbVertex
100
AcDb2dVertex
 10
72.21713887083462
 20
179.5109721773446
 30
0.0
  0
VERTEX
  5
2E7
330
2BA
100
AcDbEntity
  8
STANDARDEBENE
 62
     7
100
AcDbVertex
100
AcDb2dVertex
 10
72.210083315281
 20
179.5109721773446
 30
0.0
  0
VERTEX
  5
2E8
330
2BA
100
AcDbEntity
  8
STANDARDEBENE
 62
     7
100
AcDbVertex
100
AcDb2dVertex
 10
72.20655553750402
 20
179.5109721773446
 30
0.0
  0
VERTEX
  5
2E9
330
2BA
100
AcDbEntity
  8
STANDARDEBENE
 62
     7
100
AcDbVertex
100
AcDb2dVertex
 10
72.19949998195008
 20
179.5109721773446
 30
0.0
  0
SEQEND
  5
2EA
330
2BA
100
AcDbEntity
  8
STANDARDEBENE
 62
     7
  0
POLYLINE
  5
2EB
330
4A
100
AcDbEntity
  8
STANDARDEBENE
 62
     7
100
AcDb2dPolyline
 66
     1
 10
0.0
 20
0.0
 30
0.0
  0
VERTEX
  5
2EC
330
2EB
100
AcDbEntity
  8
STANDARDEBENE
 62
     7
100
AcDbVertex
100
AcDb2dVertex
 10
72.62636109295448
 20
179.7402777328427
 30
0.0
  0
VERTEX
  5
2ED
330
2EB
100
AcDbEntity
  8
STANDARDEBENE
 62
     7
100
AcDbVertex
100
AcDb2dVertex
 10
72.62636109295448
 20
179.7261666217351
 30
0.0
  0
VERTEX
  5
2EE
330
2EB
100
AcDbEntity
  8
STANDARDEBENE
 62
     7
100
AcDbVertex
100
AcDb2dVertex
 10
72.62636109295448
 20
179.7049999550736
 30
0.0
  0
VERTEX
  5
2EF
330
2EB
100
AcDbEntity
  8
STANDARDEBENE
 62
     7
100
AcDbVertex
100
AcDb2dVertex
 10
72.62636109295448
 20
179.6838332884124
 30
0.0
  0
VERTEX
  5
2F0
330
2EB
100
AcDbEntity
  8
STANDARDEBENE
 62
     7
100
AcDbVertex
100
AcDb2dVertex
 10
72.62636109295448
 20
179.6556110661973
 30
0.0
  0
VERTEX
  5
2F1
330
2EB
100
AcDbEntity
  8
STANDARDEBENE
 62
     7
100
AcDbVertex
100
AcDb2dVertex
 10
72.62636109295448
 20
179.6238610662052
 30
0.0
  0
VERTEX
  5
2F2
330
2EB
100
AcDbEntity
  8
STANDARDEBENE
 62
     7
100
AcDbVertex
100
AcDb2dVertex
 10
72.62636109295448
 20
179.5921110662131
 30
0.0
  0
VERTEX
  5
2F3
330
2EB
100
AcDbEntity
  8
STANDARDEBENE
 62
     7
100
AcDbVertex
100
AcDb2dVertex
 10
72.62636109295448
 20
179.560361066221
 30
0.0
  0
VERTEX
  5
2F4
330
2EB
100
AcDbEntity
  8
STANDARDEBENE
 62
     7
100
AcDbVertex
100
AcDb2dVertex
 10
72.62636109295448
 20
179.5250832884522
 30
0.0
  0
SEQEND
  5
2F5
330
2EB
100
AcDbEntity
  8
STANDARDEBENE
 62
     7
  0
POLYLINE
  5
2F6
330
4A
100
AcDbEntity
  8
STANDARDEBENE
 62
     7
100
AcDb2dPolyline
 66
     1
 10
0.0
 20
0.0
 30
0.0
  0
VERTEX
  5
2F7
330
2F6
100
AcDbEntity
  8
STANDARDEBENE
 62
     7
100
AcDbVertex
100
AcDb2dVertex
 10
72.62636109295448
 20
179.2781388440692
 30
0.0
  0
VERTEX
  5
2F8
330
2F6
100
AcDbEntity
  8
STANDARDEBENE
 62
     7
100
AcDbVertex
100
AcDb2dVertex
 10
72.62636109295448
 20
179.2922499551768
 30
0.0
  0
VERTEX
  5
2F9
330
2F6
100
AcDbEntity
  8
STANDARDEBENE
 62
     7
100
AcDbVertex
100
AcDb2dVertex
 10
72.62636109295448
 20
179.3134166218383
 30
0.0
  0
VERTEX
  5
2FA
330
2F6
100
AcDbEntity
  8
STANDARDEBENE
 62
     7
100
AcDbVertex
100
AcDb2dVertex
 10
72.62636109295448
 20
179.3345832884998
 30
0.0
  0
VERTEX
  5
2FB
330
2F6
100
AcDbEntity
  8
STANDARDEBENE
 62
     7
100
AcDbVertex
100
AcDb2dVertex
 10
72.62636109295448
 20
179.362805510715
 30
0.0
  0
VERTEX
  5
2FC
330
2F6
100
AcDbEntity
  8
STANDARDEBENE
 62
     7
100
AcDbVertex
100
AcDb2dVertex
 10
72.62636109295448
 20
179.3945555107068
 30
0.0
  0
VERTEX
  5
2FD
330
2F6
100
AcDbEntity
  8
STANDARDEBENE
 62
     7
100
AcDbVertex
100
AcDb2dVertex
 10
72.62636109295448
 20
179.4263055106989
 30
0.0
  0
VERTEX
  5
2FE
330
2F6
100
AcDbEntity
  8
STANDARDEBENE
 62
     7
100
AcDbVertex
100
AcDb2dVertex
 10
72.62636109295448
 20
179.4615832884679
 30
0.0
  0
VERTEX
  5
2FF
330
2F6
100
AcDbEntity
  8
STANDARDEBENE
 62
     7
100
AcDbVertex
100
AcDb2dVertex
 10
72.62636109295448
 20
179.4968610662367
 30
0.0
  0
SEQEND
  5
300
330
2F6
100
AcDbEntity
  8
STANDARDEBENE
 62
     7
  0
POLYLINE
  5
301
330
4A
100
AcDbEntity
  8
STANDARDEBENE
 62
     7
100
AcDb2dPolyline
 66
     1
 10
0.0
 20
0.0
 30
0.0
  0
VERTEX
  5
302
330
301
100
AcDbEntity
  8
STANDARDEBENE
 62
     7
100
AcDbVertex
100
AcDb2dVertex
 10
77.41355553620235
 20
179.7402777328427
 30
0.0
  0
VERTEX
  5
303
330
301
100
AcDbEntity
  8
STANDARDEBENE
 62
     7
100
AcDbVertex
100
AcDb2dVertex
 10
77.41355553620235
 20
179.7296943995121
 30
0.0
  0
VERTEX
  5
304
330
301
100
AcDbEntity
  8
STANDARDEBENE
 62
     7
100
AcDbVertex
100
AcDb2dVertex
 10
77.41355553620235
 20
179.7191110661812
 30
0.0
  0
VERTEX
  5
305
330
301
100
AcDbEntity
  8
STANDARDEBENE
 62
     7
100
AcDbVertex
100
AcDb2dVertex
 10
77.41355553620235
 20
179.7049999550736
 30
0.0
  0
VERTEX
  5
306
330
301
100
AcDbEntity
  8
STANDARDEBENE
 62
     7
100
AcDbVertex
100
AcDb2dVertex
 10
77.41355553620235
 20
179.6873610661894
 30
0.0
  0
VERTEX
  5
307
330
301
100
AcDbEntity
  8
STANDARDEBENE
 62
     7
100
AcDbVertex
100
AcDb2dVertex
 10
77.41355553620235
 20
179.6838332884124
 30
0.0
  0
VERTEX
  5
308
330
301
100
AcDbEntity
  8
STANDARDEBENE
 62
     7
100
AcDbVertex
100
AcDb2dVertex
 10
77.41355553620235
 20
179.6520832884203
 30
0.0
  0
VERTEX
  5
309
330
301
100
AcDbEntity
  8
STANDARDEBENE
 62
     7
100
AcDbVertex
100
AcDb2dVertex
 10
77.417083313979
 20
179.6132777328746
 30
0.0
  0
VERTEX
  5
30A
330
301
100
AcDbEntity
  8
STANDARDEBENE
 62
     7
100
AcDbVertex
100
AcDb2dVertex
 10
77.417083313979
 20
179.5709443995515
 30
0.0
  0
VERTEX
  5
30B
330
301
100
AcDbEntity
  8
STANDARDEBENE
 62
     7
100
AcDbVertex
100
AcDb2dVertex
 10
77.417083313979
 20
179.5250832884522
 30
0.0
  0
SEQEND
  5
30C
330
301
100
AcDbEntity
  8
STANDARDEBENE
 62
     7
  0
POLYLINE
  5
30D
330
4A
100
AcDbEntity
  8
STANDARDEBENE
 62
     7
100
AcDb2dPolyline
 66
     1
 10
0.0
 20
0.0
 30
0.0
  0
VERTEX
  5
30E
330
30D
100
AcDbEntity
  8
STANDARDEBENE
 62
     7
100
AcDbVertex
100
AcDb2dVertex
 10
77.41355553620235
 20
180.2764999549307
 30
0.0
  0
VERTEX
  5
30F
330
30D
100
AcDbEntity
  8
STANDARDEBENE
 62
     7
100
AcDbVertex
100
AcDb2dVertex
 10
77.41355553620235
 20
180.2870832882616
 30
0.0
  0
VERTEX
  5
310
330
30D
100
AcDbEntity
  8
STANDARDEBENE
 62
     7
100
AcDbVertex
100
AcDb2dVertex
 10
77.41355553620235
 20
180.2976666215922
 30
0.0
  0
VERTEX
  5
311
330
30D
100
AcDbEntity
  8
STANDARDEBENE
 62
     7
100
AcDbVertex
100
AcDb2dVertex
 10
77.41355553620235
 20
180.3153055104768
 30
0.0
  0
VERTEX
  5
312
330
30D
100
AcDbEntity
  8
STANDARDEBENE
 62
     7
100
AcDbVertex
100
AcDb2dVertex
 10
77.41355553620235
 20
180.3329443993613
 30
0.0
  0
VERTEX
  5
313
330
30D
100
AcDbEntity
  8
STANDARDEBENE
 62
     7
100
AcDbVertex
100
AcDb2dVertex
 10
77.41355553620235
 20
180.3646943993531
 30
0.0
  0
VERTEX
  5
314
330
30D
100
AcDbEntity
  8
STANDARDEBENE
 62
     7
100
AcDbVertex
100
AcDb2dVertex
 10
77.417083313979
 20
180.4070277326761
 30
0.0
  0
VERTEX
  5
315
330
30D
100
AcDbEntity
  8
STANDARDEBENE
 62
     7
100
AcDbVertex
100
AcDb2dVertex
 10
77.417083313979
 20
180.4493610659989
 30
0.0
  0
VERTEX
  5
316
330
30D
100
AcDbEntity
  8
STANDARDEBENE
 62
     7
100
AcDbVertex
100
AcDb2dVertex
 10
77.417083313979
 20
180.4952221770986
 30
0.0
  0
SEQEND
  5
317
330
30D
100
AcDbEntity
  8
STANDARDEBENE
 62
     7
  0
POLYLINE
  5
318
330
4A
100
AcDbEntity
  8
STANDARDEBENE
 62
     7
100
AcDb2dPolyline
 66
     1
 10
0.0
 20
0.0
 30
0.0
  0
VERTEX
  5
319
330
318
100
AcDbEntity
  8
STANDARDEBENE
 62
     7
100
AcDbVertex
100
AcDb2dVertex
 10
77.41355553620235
 20
180.7386388437042
 30
0.0
  0
VERTEX
  5
31A
330
318
100
AcDbEntity
  8
STANDARDEBENE
 62
     7
100
AcDbVertex
100
AcDb2dVertex
 10
77.41355553620235
 20
180.7315832881503
 30
0.0
  0
VERTEX
  5
31B
330
318
100
AcDbEntity
  8
STANDARDEBENE
 62
     7
100
AcDbVertex
100
AcDb2dVertex
 10
77.41355553620235
 20
180.7209999548197
 30
0.0
  0
VERTEX
  5
31C
330
318
100
AcDbEntity
  8
STANDARDEBENE
 62
     7
100
AcDbVertex
100
AcDb2dVertex
 10
77.41355553620235
 20
180.7033610659351
 30
0.0
  0
VERTEX
  5
31D
330
318
100
AcDbEntity
  8
STANDARDEBENE
 62
     7
100
AcDbVertex
100
AcDb2dVertex
 10
77.41355553620235
 20
180.6857221770509
 30
0.0
  0
VERTEX
  5
31E
330
318
100
AcDbEntity
  8
STANDARDEBENE
 62
     7
100
AcDbVertex
100
AcDb2dVertex
 10
77.41355553620235
 20
180.6504443992818
 30
0.0
  0
VERTEX
  5
31F
330
318
100
AcDbEntity
  8
STANDARDEBENE
 62
     7
100
AcDbVertex
100
AcDb2dVertex
 10
77.417083313979
 20
180.6116388437361
 30
0.0
  0
VERTEX
  5
320
330
318
100
AcDbEntity
  8
STANDARDEBENE
 62
     7
100
AcDbVertex
100
AcDb2dVertex
 10
77.417083313979
 20
180.5693055104134
 30
0.0
  0
VERTEX
  5
321
330
318
100
AcDbEntity
  8
STANDARDEBENE
 62
     7
100
AcDbVertex
100
AcDb2dVertex
 10
77.417083313979
 20
180.5234443993137
 30
0.0
  0
SEQEND
  5
322
330
318
100
AcDbEntity
  8
STANDARDEBENE
 62
     7
  0
POLYLINE
  5
323
330
4A
100
AcDbEntity
  8
STANDARDEBENE
 62
     7
100
AcDb2dPolyline
 66
     1
 10
0.0
 20
0.0
 30
0.0
  0
VERTEX
  5
324
330
323
100
AcDbEntity
  8
STANDARDEBENE
 62
     7
100
AcDbVertex
100
AcDb2dVertex
 10
77.41355553620235
 20
178.7419166219812
 30
0.0
  0
VERTEX
  5
325
330
323
100
AcDbEntity
  8
STANDARDEBENE
 62
     7
100
AcDbVertex
100
AcDb2dVertex
 10
77.41355553620235
 20
178.7313332886506
 30
0.0
  0
VERTEX
  5
326
330
323
100
AcDbEntity
  8
STANDARDEBENE
 62
     7
100
AcDbVertex
100
AcDb2dVertex
 10
77.41355553620235
 20
178.7207499553197
 30
0.0
  0
VERTEX
  5
327
330
323
100
AcDbEntity
  8
STANDARDEBENE
 62
     7
100
AcDbVertex
100
AcDb2dVertex
 10
77.41355553620235
 20
178.7066388442121
 30
0.0
  0
VERTEX
  5
328
330
323
100
AcDbEntity
  8
STANDARDEBENE
 62
     7
100
AcDbVertex
100
AcDb2dVertex
 10
77.41355553620235
 20
178.6889999553276
 30
0.0
  0
VERTEX
  5
329
330
323
100
AcDbEntity
  8
STANDARDEBENE
 62
     7
100
AcDbVertex
100
AcDb2dVertex
 10
77.41355553620235
 20
178.6854721775509
 30
0.0
  0
VERTEX
  5
32A
330
323
100
AcDbEntity
  8
STANDARDEBENE
 62
     7
100
AcDbVertex
100
AcDb2dVertex
 10
77.41355553620235
 20
178.6537221775588
 30
0.0
  0
VERTEX
  5
32B
330
323
100
AcDbEntity
  8
STANDARDEBENE
 62
     7
100
AcDbVertex
100
AcDb2dVertex
 10
77.417083313979
 20
178.6149166220128
 30
0.0
  0
VERTEX
  5
32C
330
323
100
AcDbEntity
  8
STANDARDEBENE
 62
     7
100
AcDbVertex
100
AcDb2dVertex
 10
77.417083313979
 20
178.5690555109134
 30
0.0
  0
VERTEX
  5
32D
330
323
100
AcDbEntity
  8
STANDARDEBENE
 62
     7
100
AcDbVertex
100
AcDb2dVertex
 10
77.417083313979
 20
178.5267221775904
 30
0.0
  0
SEQEND
  5
32E
330
323
100
AcDbEntity
  8
STANDARDEBENE
 62
     7
  0
POLYLINE
  5
32F
330
4A
100
AcDbEntity
  8
STANDARDEBENE
 62
     7
100
AcDb2dPolyline
 66
     1
 10
0.0
 20
0.0
 30
0.0
  0
VERTEX
  5
330
330
32F
100
AcDbEntity
  8
STANDARDEBENE
 62
     7
100
AcDbVertex
100
AcDb2dVertex
 10
77.41355553620235
 20
179.2781388440692
 30
0.0
  0
VERTEX
  5
331
330
32F
100
AcDbEntity
  8
STANDARDEBENE
 62
     7
100
AcDbVertex
100
AcDb2dVertex
 10
77.41355553620235
 20
179.2887221774001
 30
0.0
  0
VERTEX
  5
332
330
32F
100
AcDbEntity
  8
STANDARDEBENE
 62
     7
100
AcDbVertex
100
AcDb2dVertex
 10
77.41355553620235
 20
179.2993055107307
 30
0.0
  0
VERTEX
  5
333
330
32F
100
AcDbEntity
  8
STANDARDEBENE
 62
     7
100
AcDbVertex
100
AcDb2dVertex
 10
77.41355553620235
 20
179.3134166218383
 30
0.0
  0
VERTEX
  5
334
330
32F
100
AcDbEntity
  8
STANDARDEBENE
 62
     7
100
AcDbVertex
100
AcDb2dVertex
 10
77.41355553620235
 20
179.3310555107228
 30
0.0
  0
VERTEX
  5
335
330
32F
100
AcDbEntity
  8
STANDARDEBENE
 62
     7
100
AcDbVertex
100
AcDb2dVertex
 10
77.41355553620235
 20
179.3345832884998
 30
0.0
  0
VERTEX
  5
336
330
32F
100
AcDbEntity
  8
STANDARDEBENE
 62
     7
100
AcDbVertex
100
AcDb2dVertex
 10
77.41355553620235
 20
179.3663332884916
 30
0.0
  0
VERTEX
  5
337
330
32F
100
AcDbEntity
  8
STANDARDEBENE
 62
     7
100
AcDbVertex
100
AcDb2dVertex
 10
77.417083313979
 20
179.4051388440377
 30
0.0
  0
VERTEX
  5
338
330
32F
100
AcDbEntity
  8
STANDARDEBENE
 62
     7
100
AcDbVertex
100
AcDb2dVertex
 10
77.417083313979
 20
179.4509999551373
 30
0.0
  0
VERTEX
  5
339
330
32F
100
AcDbEntity
  8
STANDARDEBENE
 62
     7
100
AcDbVertex
100
AcDb2dVertex
 10
77.417083313979
 20
179.4968610662367
 30
0.0
  0
SEQEND
  5
33A
330
32F
100
AcDbEntity
  8
STANDARDEBENE
 62
     7
  0
POLYLINE
  5
33B
330
4A
100
AcDbEntity
  8
STANDARDEBENE
 62
     7
100
AcDb2dPolyline
 66
     1
 10
0.0
 20
0.0
 30
0.0
  0
VERTEX
  5
33C
330
33B
100
AcDbEntity
  8
STANDARDEBENE
 62
     7
100
AcDbVertex
100
AcDb2dVertex
 10
77.41355553620235
 20
178.8336388441806
 30
0.0
  0
VERTEX
  5
33D
330
33B
100
AcDbEntity
  8
STANDARDEBENE
 62
     7
100
AcDbVertex
100
AcDb2dVertex
 10
77.41355553620235
 20
178.7877777330809
 30
0.0
  0
VERTEX
  5
33E
330
33B
100
AcDbEntity
  8
STANDARDEBENE
 62
     7
100
AcDbVertex
100
AcDb2dVertex
 10
77.41355553620235
 20
178.7419166219812
 30
0.0
  0
SEQEND
  5
33F
330
33B
100
AcDbEntity
  8
STANDARDEBENE
 62
     7
  0
POLYLINE
  5
340
330
4A
100
AcDbEntity
  8
STANDARDEBENE
 62
     7
100
AcDb2dPolyline
 66
     1
 10
0.0
 20
0.0
 30
0.0
  0
VERTEX
  5
341
330
340
100
AcDbEntity
  8
STANDARDEBENE
 62
     7
100
AcDbVertex
100
AcDb2dVertex
 10
77.41355553620235
 20
179.1864166218702
 30
0.0
  0
VERTEX
  5
342
330
340
100
AcDbEntity
  8
STANDARDEBENE
 62
     7
100
AcDbVertex
100
AcDb2dVertex
 10
77.41355553620235
 20
179.2322777329695
 30
0.0
  0
VERTEX
  5
343
330
340
100
AcDbEntity
  8
STANDARDEBENE
 62
     7
100
AcDbVertex
100
AcDb2dVertex
 10
77.41355553620235
 20
179.2781388440692
 30
0.0
  0
SEQEND
  5
344
330
340
100
AcDbEntity
  8
STANDARDEBENE
 62
     7
  0
POLYLINE
  5
345
330
4A
100
AcDbEntity
  8
STANDARDEBENE
 62
     7
100
AcDb2dPolyline
 66
     1
 10
0.0
 20
0.0
 30
0.0
  0
VERTEX
  5
346
330
345
100
AcDbEntity
  8
STANDARDEBENE
 62
     7
100
AcDbVertex
100
AcDb2dVertex
 10
77.41355553620235
 20
180.1847777327317
 30
0.0
  0
VERTEX
  5
347
330
345
100
AcDbEntity
  8
STANDARDEBENE
 62
     7
100
AcDbVertex
100
AcDb2dVertex
 10
77.41355553620235
 20
180.2306388438313
 30
0.0
  0
VERTEX
  5
348
330
345
100
AcDbEntity
  8
STANDARDEBENE
 62
     7
100
AcDbVertex
100
AcDb2dVertex
 10
77.41355553620235
 20
180.2764999549307
 30
0.0
  0
SEQEND
  5
349
330
345
100
AcDbEntity
  8
STANDARDEBENE
 62
     7
  0
POLYLINE
  5
34A
330
4A
100
AcDbEntity
  8
STANDARDEBENE
 62
     7
100
AcDb2dPolyline
 66
     1
 10
0.0
 20
0.0
 30
0.0
  0
VERTEX
  5
34B
330
34A
100
AcDbEntity
  8
STANDARDEBENE
 62
     7
100
AcDbVertex
100
AcDb2dVertex
 10
77.41355553620235
 20
179.8355277328187
 30
0.0
  0
VERTEX
  5
34C
330
34A
100
AcDbEntity
  8
STANDARDEBENE
 62
     7
100
AcDbVertex
100
AcDb2dVertex
 10
77.41355553620235
 20
179.7861388439424
 30
0.0
  0
VERTEX
  5
34D
330
34A
100
AcDbEntity
  8
STANDARDEBENE
 62
     7
100
AcDbVertex
100
AcDb2dVertex
 10
77.41355553620235
 20
179.7402777328427
 30
0.0
  0
SEQEND
  5
34E
330
34A
100
AcDbEntity
  8
STANDARDEBENE
 62
     7
  0
POLYLINE
  5
34F
330
4A
100
AcDbEntity
  8
STANDARDEBENE
 62
     7
100
AcDb2dPolyline
 66
     1
 10
0.0
 20
0.0
 30
0.0
  0
VERTEX
  5
350
330
34F
100
AcDbEntity
  8
STANDARDEBENE
 62
     7
100
AcDbVertex
100
AcDb2dVertex
 10
77.47352775840929
 20
179.8355277328187
 30
0.0
  0
VERTEX
  5
351
330
34F
100
AcDbEntity
  8
STANDARDEBENE
 62
     7
100
AcDbVertex
100
AcDb2dVertex
 10
77.44530553619414
 20
179.8355277328187
 30
0.0
  0
VERTEX
  5
352
330
34F
100
AcDbEntity
  8
STANDARDEBENE
 62
     7
100
AcDbVertex
100
AcDb2dVertex
 10
77.41355553620235
 20
179.8355277328187
 30
0.0
  0
SEQEND
  5
353
330
34F
100
AcDbEntity
  8
STANDARDEBENE
 62
     7
  0
POLYLINE
  5
354
330
4A
100
AcDbEntity
  8
STANDARDEBENE
 62
     7
100
AcDb2dPolyline
 66
     1
 10
0.0
 20
0.0
 30
0.0
  0
VERTEX
  5
355
330
354
100
AcDbEntity
  8
STANDARDEBENE
 62
     7
100
AcDbVertex
100
AcDb2dVertex
 10
77.41355553620235
 20
180.1847777327317
 30
0.0
  0
VERTEX
  5
356
330
354
100
AcDbEntity
  8
STANDARDEBENE
 62
     7
100
AcDbVertex
100
AcDb2dVertex
 10
77.44530553619414
 20
180.1847777327317
 30
0.0
  0
VERTEX
  5
357
330
354
100
AcDbEntity
  8
STANDARDEBENE
 62
     7
100
AcDbVertex
100
AcDb2dVertex
 10
77.47352775840929
 20
180.1847777327317
 30
0.0
  0
SEQEND
  5
358
330
354
100
AcDbEntity
  8
STANDARDEBENE
 62
     7
  0
POLYLINE
  5
359
330
4A
100
AcDbEntity
  8
STANDARDEBENE
 62
     7
100
AcDb2dPolyline
 66
     1
 10
0.0
 20
0.0
 30
0.0
  0
VERTEX
  5
35A
330
359
100
AcDbEntity
  8
STANDARDEBENE
 62
     7
100
AcDbVertex
100
AcDb2dVertex
 10
77.41355553620235
 20
179.1864166218702
 30
0.0
  0
VERTEX
  5
35B
330
359
100
AcDbEntity
  8
STANDARDEBENE
 62
     7
100
AcDbVertex
100
AcDb2dVertex
 10
77.44530553619414
 20
179.1864166218702
 30
0.0
  0
VERTEX
  5
35C
330
359
100
AcDbEntity
  8
STANDARDEBENE
 62
     7
100
AcDbVertex
100
AcDb2dVertex
 10
77.47352775840929
 20
179.1864166218702
 30
0.0
  0
SEQEND
  5
35D
330
359
100
AcDbEntity
  8
STANDARDEBENE
 62
     7
  0
POLYLINE
  5
35E
330
4A
100
AcDbEntity
  8
STANDARDEBENE
 62
     7
100
AcDb2dPolyline
 66
     1
 10
0.0
 20
0.0
 30
0.0
  0
VERTEX
  5
35F
330
35E
100
AcDbEntity
  8
STANDARDEBENE
 62
     7
100
AcDbVertex
100
AcDb2dVertex
 10
77.41355553620235
 20
179.0100277330254
 30
0.0
  0
VERTEX
  5
360
330
35E
100
AcDbEntity
  8
STANDARDEBENE
 62
     7
100
AcDbVertex
100
AcDb2dVertex
 10
77.41355553620235
 20
179.0064999552484
 30
0.0
  0
VERTEX
  5
361
330
35E
100
AcDbEntity
  8
STANDARDEBENE
 62
     7
100
AcDbVertex
100
AcDb2dVertex
 10
77.41355553620235
 20
179.0029721774714
 30
0.0
  0
VERTEX
  5
362
330
35E
100
AcDbEntity
  8
STANDARDEBENE
 62
     7
100
AcDbVertex
100
AcDb2dVertex
 10
77.417083313979
 20
179.0029721774714
 30
0.0
  0
VERTEX
  5
363
330
35E
100
AcDbEntity
  8
STANDARDEBENE
 62
     7
100
AcDbVertex
100
AcDb2dVertex
 10
77.42061109175597
 20
179.0029721774714
 30
0.0
  0
VERTEX
  5
364
330
35E
100
AcDbEntity
  8
STANDARDEBENE
 62
     7
100
AcDbVertex
100
AcDb2dVertex
 10
77.42413886953295
 20
178.9994443996945
 30
0.0
  0
VERTEX
  5
365
330
35E
100
AcDbEntity
  8
STANDARDEBENE
 62
     7
100
AcDbVertex
100
AcDb2dVertex
 10
77.42766664730992
 20
178.9994443996945
 30
0.0
  0
VERTEX
  5
366
330
35E
100
AcDbEntity
  8
STANDARDEBENE
 62
     7
100
AcDbVertex
100
AcDb2dVertex
 10
77.43472220286354
 20
178.9994443996945
 30
0.0
  0
VERTEX
  5
367
330
35E
100
AcDbEntity
  8
STANDARDEBENE
 62
     7
100
AcDbVertex
100
AcDb2dVertex
 10
77.44530553619414
 20
178.9994443996945
 30
0.0
  0
VERTEX
  5
368
330
35E
100
AcDbEntity
  8
STANDARDEBENE
 62
     7
100
AcDbVertex
100
AcDb2dVertex
 10
77.45236109174809
 20
178.9994443996945
 30
0.0
  0
VERTEX
  5
369
330
35E
100
AcDbEntity
  8
STANDARDEBENE
 62
     7
100
AcDbVertex
100
AcDb2dVertex
 10
77.45941664730171
 20
178.9994443996945
 30
0.0
  0
VERTEX
  5
36A
330
35E
100
AcDbEntity
  8
STANDARDEBENE
 62
     7
100
AcDbVertex
100
AcDb2dVertex
 10
77.46294442507869
 20
178.9994443996945
 30
0.0
  0
VERTEX
  5
36B
330
35E
100
AcDbEntity
  8
STANDARDEBENE
 62
     7
100
AcDbVertex
100
AcDb2dVertex
 10
77.46647220285566
 20
179.0029721774714
 30
0.0
  0
VERTEX
  5
36C
330
35E
100
AcDbEntity
  8
STANDARDEBENE
 62
     7
100
AcDbVertex
100
AcDb2dVertex
 10
77.46999998063264
 20
179.0029721774714
 30
0.0
  0
VERTEX
  5
36D
330
35E
100
AcDbEntity
  8
STANDARDEBENE
 62
     7
100
AcDbVertex
100
AcDb2dVertex
 10
77.47352775840929
 20
179.0064999552484
 30
0.0
  0
VERTEX
  5
36E
330
35E
100
AcDbEntity
  8
STANDARDEBENE
 62
     7
100
AcDbVertex
100
AcDb2dVertex
 10
77.47352775840929
 20
179.0100277330254
 30
0.0
  0
SEQEND
  5
36F
330
35E
100
AcDbEntity
  8
STANDARDEBENE
 62
     7
  0
POLYLINE
  5
370
330
4A
100
AcDbEntity
  8
STANDARDEBENE
 62
     7
100
AcDb2dPolyline
 66
     1
 10
0.0
 20
0.0
 30
0.0
  0
VERTEX
  5
371
330
370
100
AcDbEntity
  8
STANDARDEBENE
 62
     7
100
AcDbVertex
100
AcDb2dVertex
 10
124.5340833021999
 20
217.2546666123529
 30
0.0
  0
VERTEX
  5
372
330
370
100
AcDbEntity
  8
STANDARDEBENE
 62
     7
100
AcDbVertex
100
AcDb2dVertex
 10
127.5362221903383
 20
217.2546666123529
 30
0.0
  0
SEQEND
  5
373
330
370
100
AcDbEntity
  8
STANDARDEBENE
 62
     7
  0
POLYLINE
  5
374
330
4A
100
AcDbEntity
  8
STANDARDEBENE
 62
     7
100
AcDb2dPolyline
 66
     1
 10
0.0
 20
0.0
 30
0.0
  0
VERTEX
  5
375
330
374
100
AcDbEntity
  8
STANDARDEBENE
 62
     7
100
AcDbVertex
100
AcDb2dVertex
 10
127.2857499681787
 20
213.6739721688038
 30
0.0
  0
VERTEX
  5
376
330
374
100
AcDbEntity
  8
STANDARDEBENE
 62
     7
100
AcDbVertex
100
AcDb2dVertex
 10
127.5362221903383
 20
217.2546666123529
 30
0.0
  0
SEQEND
  5
377
330
374
100
AcDbEntity
  8
STANDARDEBENE
 62
     7
  0
POLYLINE
  5
378
330
4A
100
AcDbEntity
  8
STANDARDEBENE
 62
     7
100
AcDb2dPolyline
 66
     1
 10
0.0
 20
0.0
 30
0.0
  0
VERTEX
  5
379
330
378
100
AcDbEntity
  8
STANDARDEBENE
 62
     7
100
AcDbVertex
100
AcDb2dVertex
 10
127.2857499681787
 20
212.9225555023249
 30
0.0
  0
VERTEX
  5
37A
330
378
100
AcDbEntity
  8
STANDARDEBENE
 62
     7
100
AcDbVertex
100
AcDb2dVertex
 10
127.2857499681787
 20
213.6739721688038
 30
0.0
  0
SEQEND
  5
37B
330
378
100
AcDbEntity
  8
STANDARDEBENE
 62
     7
  0
POLYLINE
  5
37C
330
4A
100
AcDbEntity
  8
STANDARDEBENE
 62
     7
100
AcDb2dPolyline
 66
     1
 10
0.0
 20
0.0
 30
0.0
  0
VERTEX
  5
37D
330
37C
100
AcDbEntity
  8
STANDARDEBENE
 62
     7
100
AcDbVertex
100
AcDb2dVertex
 10
124.7845555243595
 20
212.9225555023249
 30
0.0
  0
VERTEX
  5
37E
330
37C
100
AcDbEntity
  8
STANDARDEBENE
 62
     7
100
AcDbVertex
100
AcDb2dVertex
 10
127.2857499681787
 20
212.9225555023249
 30
0.0
  0
SEQEND
  5
37F
330
37C
100
AcDbEntity
  8
STANDARDEBENE
 62
     7
  0
POLYLINE
  5
380
330
4A
100
AcDbEntity
  8
STANDARDEBENE
 62
     7
100
AcDb2dPolyline
 66
     1
 10
0.0
 20
0.0
 30
0.0
  0
VERTEX
  5
381
330
380
100
AcDbEntity
  8
STANDARDEBENE
 62
     7
100
AcDbVertex
100
AcDb2dVertex
 10
124.7845555243595
 20
213.6704443910268
 30
0.0
  0
VERTEX
  5
382
330
380
100
AcDbEntity
  8
STANDARDEBENE
 62
     7
100
AcDbVertex
100
AcDb2dVertex
 10
124.7845555243595
 20
212.9225555023249
 30
0.0
  0
SEQEND
  5
383
330
380
100
AcDbEntity
  8
STANDARDEBENE
 62
     7
  0
POLYLINE
  5
384
330
4A
100
AcDbEntity
  8
STANDARDEBENE
 62
     7
100
AcDb2dPolyline
 66
     1
 10
0.0
 20
0.0
 30
0.0
  0
VERTEX
  5
385
330
384
100
AcDbEntity
  8
STANDARDEBENE
 62
     7
100
AcDbVertex
100
AcDb2dVertex
 10
124.7845555243595
 20
213.6739721688038
 30
0.0
  0
VERTEX
  5
386
330
384
100
AcDbEntity
  8
STANDARDEBENE
 62
     7
100
AcDbVertex
100
AcDb2dVertex
 10
124.7845555243595
 20
213.6704443910268
 30
0.0
  0
SEQEND
  5
387
330
384
100
AcDbEntity
  8
STANDARDEBENE
 62
     7
  0
POLYLINE
  5
388
330
4A
100
AcDbEntity
  8
STANDARDEBENE
 62
     7
100
AcDb2dPolyline
 66
     1
 10
0.0
 20
0.0
 30
0.0
  0
VERTEX
  5
389
330
388
100
AcDbEntity
  8
STANDARDEBENE
 62
     7
100
AcDbVertex
100
AcDb2dVertex
 10
124.5340833021999
 20
217.2546666123529
 30
0.0
  0
VERTEX
  5
38A
330
388
100
AcDbEntity
  8
STANDARDEBENE
 62
     7
100
AcDbVertex
100
AcDb2dVertex
 10
124.7845555243595
 20
213.6739721688038
 30
0.0
  0
SEQEND
  5
38B
330
388
100
AcDbEntity
  8
STANDARDEBENE
 62
     7
  0
POLYLINE
  5
38C
330
4A
100
AcDbEntity
  8
STANDARDEBENE
 62
     7
100
AcDb2dPolyline
 66
     1
 10
0.0
 20
0.0
 30
0.0
  0
VERTEX
  5
38D
330
38C
100
AcDbEntity
  8
STANDARDEBENE
 62
     7
100
AcDbVertex
100
AcDb2dVertex
 10
124.5340833021999
 20
217.5404166122816
 30
0.0
  0
VERTEX
  5
38E
330
38C
100
AcDbEntity
  8
STANDARDEBENE
 62
     7
100
AcDbVertex
100
AcDb2dVertex
 10
127.5362221903383
 20
217.5404166122816
 30
0.0
  0
SEQEND
  5
38F
330
38C
100
AcDbEntity
  8
STANDARDEBENE
 62
     7
  0
POLYLINE
  5
390
330
4A
100
AcDbEntity
  8
STANDARDEBENE
 62
     7
100
AcDb2dPolyline
 66
     1
 10
0.0
 20
0.0
 30
0.0
  0
VERTEX
  5
391
330
390
100
AcDbEntity
  8
STANDARDEBENE
 62
     7
100
AcDbVertex
100
AcDb2dVertex
 10
127.5362221903383
 20
217.3534443901061
 30
0.0
  0
VERTEX
  5
392
330
390
100
AcDbEntity
  8
STANDARDEBENE
 62
     7
100
AcDbVertex
100
AcDb2dVertex
 10
127.5362221903383
 20
217.5404166122816
 30
0.0
  0
SEQEND
  5
393
330
390
100
AcDbEntity
  8
STANDARDEBENE
 62
     7
  0
POLYLINE
  5
394
330
4A
100
AcDbEntity
  8
STANDARDEBENE
 62
     7
100
AcDb2dPolyline
 66
     1
 10
0.0
 20
0.0
 30
0.0
  0
VERTEX
  5
395
330
394
100
AcDbEntity
  8
STANDARDEBENE
 62
     7
100
AcDbVertex
100
AcDb2dVertex
 10
124.5340833021999
 20
217.3534443901061
 30
0.0
  0
VERTEX
  5
396
330
394
100
AcDbEntity
  8
STANDARDEBENE
 62
     7
100
AcDbVertex
100
AcDb2dVertex
 10
127.5362221903383
 20
217.3534443901061
 30
0.0
  0
SEQEND
  5
397
330
394
100
AcDbEntity
  8
STANDARDEBENE
 62
     7
  0
POLYLINE
  5
398
330
4A
100
AcDbEntity
  8
STANDARDEBENE
 62
     7
100
AcDb2dPolyline
 66
     1
 10
0.0
 20
0.0
 30
0.0
  0
VERTEX
  5
399
330
398
100
AcDbEntity
  8
STANDARDEBENE
 62
     7
100
AcDbVertex
100
AcDb2dVertex
 10
124.5340833021999
 20
217.5404166122816
 30
0.0
  0
VERTEX
  5
39A
330
398
100
AcDbEntity
  8
STANDARDEBENE
 62
     7
100
AcDbVertex
100
AcDb2dVertex
 10
124.5340833021999
 20
217.3534443901061
 30
0.0
  0
SEQEND
  5
39B
330
398
100
AcDbEntity
  8
STANDARDEBENE
 62
     7
  0
POLYLINE
  5
39C
330
4A
100
AcDbEntity
  8
STANDARDEBENE
 62
     7
100
AcDb2dPolyline
 66
     1
 10
0.0
 20
0.0
 30
0.0
  0
VERTEX
  5
39D
330
39C
100
AcDbEntity
  8
STANDARDEBENE
 62
     7
100
AcDbVertex
100
AcDb2dVertex
 10
127.5362221903383
 20
217.2546666123529
 30
0.0
  0
VERTEX
  5
39E
330
39C
100
AcDbEntity
  8
STANDARDEBENE
 62
     7
100
AcDbVertex
100
AcDb2dVertex
 10
127.5362221903383
 20
217.3534443901061
 30
0.0
  0
SEQEND
  5
39F
330
39C
100
AcDbEntity
  8
STANDARDEBENE
 62
     7
  0
POLYLINE
  5
3A0
330
4A
100
AcDbEntity
  8
STANDARDEBENE
 62
     7
100
AcDb2dPolyline
 66
     1
 10
0.0
 20
0.0
 30
0.0
  0
VERTEX
  5
3A1
330
3A0
100
AcDbEntity
  8
STANDARDEBENE
 62
     7
100
AcDbVertex
100
AcDb2dVertex
 10
124.5340833021999
 20
217.3534443901061
 30
0.0
  0
VERTEX
  5
3A2
330
3A0
100
AcDbEntity
  8
STANDARDEBENE
 62
     7
100
AcDbVertex
100
AcDb2dVertex
 10
124.5340833021999
 20
217.2546666123529
 30
0.0
  0
SEQEND
  5
3A3
330
3A0
100
AcDbEntity
  8
STANDARDEBENE
 62
     7
  0
POLYLINE
  5
3A4
330
4A
100
AcDbEntity
  8
STANDARDEBENE
 62
     7
100
AcDb2dPolyline
 66
     1
 10
0.0
 20
0.0
 30
0.0
  0
VERTEX
  5
3A5
330
3A4
100
AcDbEntity
  8
STANDARDEBENE
 62
     7
100
AcDbVertex
100
AcDb2dVertex
 10
125.8005555241055
 20
211.5184999471203
 30
0.0
  0
VERTEX
  5
3A6
330
3A4
100
AcDbEntity
  8
STANDARDEBENE
 62
     7
100
AcDbVertex
100
AcDb2dVertex
 10
125.7688055241134
 20
211.599638835989
 30
0.0
  0
SEQEND
  5
3A7
330
3A4
100
AcDbEntity
  8
STANDARDEBENE
 62
     7
  0
POLYLINE
  5
3A8
330
4A
100
AcDbEntity
  8
STANDARDEBENE
 62
     7
100
AcDb2dPolyline
 66
     1
 10
0.0
 20
0.0
 30
0.0
  0
VERTEX
  5
3A9
330
3A8
100
AcDbEntity
  8
STANDARDEBENE
 62
     7
100
AcDbVertex
100
AcDb2dVertex
 10
125.2996110797863
 20
211.599638835989
 30
0.0
  0
VERTEX
  5
3AA
330
3A8
100
AcDbEntity
  8
STANDARDEBENE
 62
     7
100
AcDbVertex
100
AcDb2dVertex
 10
125.2713888575712
 20
211.5184999471203
 30
0.0
  0
SEQEND
  5
3AB
330
3A8
100
AcDbEntity
  8
STANDARDEBENE
 62
     7
  0
POLYLINE
  5
3AC
330
4A
100
AcDbEntity
  8
STANDARDEBENE
 62
     7
100
AcDb2dPolyline
 66
     1
 10
0.0
 20
0.0
 30
0.0
  0
VERTEX
  5
3AD
330
3AC
100
AcDbEntity
  8
STANDARDEBENE
 62
     7
100
AcDbVertex
100
AcDb2dVertex
 10
124.7845555243595
 20
211.3526943916063
 30
0.0
  0
VERTEX
  5
3AE
330
3AC
100
AcDbEntity
  8
STANDARDEBENE
 62
     7
100
AcDbVertex
100
AcDb2dVertex
 10
125.0350277465191
 20
211.3526943916063
 30
0.0
  0
SEQEND
  5
3AF
330
3AC
100
AcDbEntity
  8
STANDARDEBENE
 62
     7
  0
POLYLINE
  5
3B0
330
4A
100
AcDbEntity
  8
STANDARDEBENE
 62
     7
100
AcDb2dPolyline
 66
     1
 10
0.0
 20
0.0
 30
0.0
  0
VERTEX
  5
3B1
330
3B0
100
AcDbEntity
  8
STANDARDEBENE
 62
     7
100
AcDbVertex
100
AcDb2dVertex
 10
127.0352777460191
 20
211.3526943916063
 30
0.0
  0
VERTEX
  5
3B2
330
3B0
100
AcDbEntity
  8
STANDARDEBENE
 62
     7
100
AcDbVertex
100
AcDb2dVertex
 10
127.2857499681787
 20
211.3526943916063
 30
0.0
  0
SEQEND
  5
3B3
330
3B0
100
AcDbEntity
  8
STANDARDEBENE
 62
     7
  0
POLYLINE
  5
3B4
330
4A
100
AcDbEntity
  8
STANDARDEBENE
 62
     7
100
AcDb2dPolyline
 66
     1
 10
0.0
 20
0.0
 30
0.0
  0
VERTEX
  5
3B5
330
3B4
100
AcDbEntity
  8
STANDARDEBENE
 62
     7
100
AcDbVertex
100
AcDb2dVertex
 10
126.798916634967
 20
211.5184999471203
 30
0.0
  0
VERTEX
  5
3B6
330
3B4
100
AcDbEntity
  8
STANDARDEBENE
 62
     7
100
AcDbVertex
100
AcDb2dVertex
 10
126.7706944127519
 20
211.599638835989
 30
0.0
  0
SEQEND
  5
3B7
330
3B4
100
AcDbEntity
  8
STANDARDEBENE
 62
     7
  0
POLYLINE
  5
3B8
330
4A
100
AcDbEntity
  8
STANDARDEBENE
 62
     7
100
AcDb2dPolyline
 66
     1
 10
0.0
 20
0.0
 30
0.0
  0
VERTEX
  5
3B9
330
3B8
100
AcDbEntity
  8
STANDARDEBENE
 62
     7
100
AcDbVertex
100
AcDb2dVertex
 10
126.2979721906478
 20
211.599638835989
 30
0.0
  0
VERTEX
  5
3BA
330
3B8
100
AcDbEntity
  8
STANDARDEBENE
 62
     7
100
AcDbVertex
100
AcDb2dVertex
 10
126.2697499684327
 20
211.5184999471203
 30
0.0
  0
SEQEND
  5
3BB
330
3B8
100
AcDbEntity
  8
STANDARDEBENE
 62
     7
  0
POLYLINE
  5
3BC
330
4A
100
AcDbEntity
  8
STANDARDEBENE
 62
     7
100
AcDb2dPolyline
 66
     1
 10
0.0
 20
0.0
 30
0.0
  0
VERTEX
  5
3BD
330
3BC
100
AcDbEntity
  8
STANDARDEBENE
 62
     7
100
AcDbVertex
100
AcDb2dVertex
 10
127.2857499681787
 20
211.3526943916063
 30
0.0
  0
VERTEX
  5
3BE
330
3BC
100
AcDbEntity
  8
STANDARDEBENE
 62
     7
100
AcDbVertex
100
AcDb2dVertex
 10
127.2857499681787
 20
212.9225555023249
 30
0.0
  0
SEQEND
  5
3BF
330
3BC
100
AcDbEntity
  8
STANDARDEBENE
 62
     7
  0
POLYLINE
  5
3C0
330
4A
100
AcDbEntity
  8
STANDARDEBENE
 62
     7
100
AcDb2dPolyline
 66
     1
 10
0.0
 20
0.0
 30
0.0
  0
VERTEX
  5
3C1
330
3C0
100
AcDbEntity
  8
STANDARDEBENE
 62
     7
100
AcDbVertex
100
AcDb2dVertex
 10
124.7845555243595
 20
212.9225555023249
 30
0.0
  0
VERTEX
  5
3C2
330
3C0
100
AcDbEntity
  8
STANDARDEBENE
 62
     7
100
AcDbVertex
100
AcDb2dVertex
 10
124.7845555243595
 20
211.3526943916063
 30
0.0
  0
SEQEND
  5
3C3
330
3C0
100
AcDbEntity
  8
STANDARDEBENE
 62
     7
  0
POLYLINE
  5
3C4
330
4A
100
AcDbEntity
  8
STANDARDEBENE
 62
     7
100
AcDb2dPolyline
 66
     1
 10
0.0
 20
0.0
 30
0.0
  0
VERTEX
  5
3C5
330
3C4
100
AcDbEntity
  8
STANDARDEBENE
 62
     7
100
AcDbVertex
100
AcDb2dVertex
 10
124.5340833021999
 20
217.6815277233573
 30
0.0
  0
VERTEX
  5
3C6
330
3C4
100
AcDbEntity
  8
STANDARDEBENE
 62
     7
100
AcDbVertex
100
AcDb2dVertex
 10
127.5362221903383
 20
217.6815277233573
 30
0.0
  0
SEQEND
  5
3C7
330
3C4
100
AcDbEntity
  8
STANDARDEBENE
 62
     7
  0
POLYLINE
  5
3C8
330
4A
100
AcDbEntity
  8
STANDARDEBENE
 62
     7
100
AcDb2dPolyline
 66
     1
 10
0.0
 20
0.0
 30
0.0
  0
VERTEX
  5
3C9
330
3C8
100
AcDbEntity
  8
STANDARDEBENE
 62
     7
100
AcDbVertex
100
AcDb2dVertex
 10
127.5362221903383
 20
217.5404166122816
 30
0.0
  0
VERTEX
  5
3CA
330
3C8
100
AcDbEntity
  8
STANDARDEBENE
 62
     7
100
AcDbVertex
100
AcDb2dVertex
 10
127.5362221903383
 20
217.6815277233573
 30
0.0
  0
SEQEND
  5
3CB
330
3C8
100
AcDbEntity
  8
STANDARDEBENE
 62
     7
  0
POLYLINE
  5
3CC
330
4A
100
AcDbEntity
  8
STANDARDEBENE
 62
     7
100
AcDb2dPolyline
 66
     1
 10
0.0
 20
0.0
 30
0.0
  0
VERTEX
  5
3CD
330
3CC
100
AcDbEntity
  8
STANDARDEBENE
 62
     7
100
AcDbVertex
100
AcDb2dVertex
 10
124.5340833021999
 20
217.6815277233573
 30
0.0
  0
VERTEX
  5
3CE
330
3CC
100
AcDbEntity
  8
STANDARDEBENE
 62
     7
100
AcDbVertex
100
AcDb2dVertex
 10
124.5340833021999
 20
217.5404166122816
 30
0.0
  0
SEQEND
  5
3CF
330
3CC
100
AcDbEntity
  8
STANDARDEBENE
 62
     7
  0
POLYLINE
  5
3D0
330
4A
100
AcDbEntity
  8
STANDARDEBENE
 62
     7
100
AcDb2dPolyline
 66
     1
 10
0.0
 20
0.0
 30
0.0
  0
VERTEX
  5
3D1
330
3D0
100
AcDbEntity
  8
STANDARDEBENE
 62
     7
100
AcDbVertex
100
AcDb2dVertex
 10
124.5340833021999
 20
218.3518055009675
 30
0.0
  0
VERTEX
  5
3D2
330
3D0
100
AcDbEntity
  8
STANDARDEBENE
 62
     7
100
AcDbVertex
100
AcDb2dVertex
 10
127.5362221903383
 20
218.3518055009675
 30
0.0
  0
SEQEND
  5
3D3
330
3D0
100
AcDbEntity
  8
STANDARDEBENE
 62
     7
  0
SPLINE
  5
3D4
330
4A
100
AcDbEntity
  8
STANDARDEBENE
 62
     7
100
AcDbSpline
210
0.0
220
0.0
230
1.0
 70
     8
 71
     3
 72
     8
 73
     4
 74
     0
 42
0.0000000001
 43
0.0000000001
 12
1.0
 22
0.0
 32
0.0
 13
1.0
 23
0.0
 33
0.0
 40
0.0
 40
0.0
 40
0.0
 40
0.0
 40
1.0
 40
1.0
 40
1.0
 40
1.0
 10
125.8005555241055
 20
211.5184999471203
 30
0.0
 10
125.8358333018743
 20
211.4161943915904
 30
0.0
 10
125.9310833018507
 20
211.3526943916063
 30
0.0
 10
126.0333888573806
 20
211.3526943916063
 30
0.0
  0
SPLINE
  5
3D5
330
4A
100
AcDbEntity
  8
STANDARDEBENE
 62
     7
100
AcDbSpline
210
0.0
220
0.0
230
1.0
 70
     8
 71
     3
 72
     8
 73
     4
 74
     0
 42
0.0000000001
 43
0.0000000001
 12
1.0
 22
0.0
 32
0.0
 13
1.0
 23
0.0
 33
0.0
 40
0.0
 40
0.0
 40
0.0
 40
0.0
 40
1.0
 40
1.0
 40
1.0
 40
1.0
 10
125.7688055241134
 20
211.599638835989
 30
0.0
 10
125.7335277463444
 20
211.698416613742
 30
0.0
 10
125.6382777463683
 20
211.7619166137262
 30
0.0
 10
125.5359721908384
 20
211.7619166137262
 30
0.0
  0
SPLINE
  5
3D6
330
4A
100
AcDbEntity
  8
STANDARDEBENE
 62
     7
100
AcDbSpline
210
0.0
220
0.0
230
1.0
 70
     8
 71
     3
 72
     8
 73
     4
 74
     0
 42
0.0000000001
 43
0.0000000001
 12
1.0
 22
0.0
 32
0.0
 13
1.0
 23
0.0
 33
0.0
 40
0.0
 40
0.0
 40
0.0
 40
0.0
 40
1.0
 40
1.0
 40
1.0
 40
1.0
 10
125.5359721908384
 20
211.7619166137262
 30
0.0
 10
125.4266110797545
 20
211.7619166137262
 30
0.0
 10
125.3348888575551
 20
211.6948888359651
 30
0.0
 10
125.2996110797863
 20
211.599638835989
 30
0.0
  0
SPLINE
  5
3D7
330
4A
100
AcDbEntity
  8
STANDARDEBENE
 62
     7
100
AcDbSpline
210
0.0
220
0.0
230
1.0
 70
     8
 71
     3
 72
     8
 73
     4
 74
     0
 42
0.0000000001
 43
0.0000000001
 12
1.0
 22
0.0
 32
0.0
 13
1.0
 23
0.0
 33
0.0
 40
0.0
 40
0.0
 40
0.0
 40
0.0
 40
1.0
 40
1.0
 40
1.0
 40
1.0
 10
125.0350277465191
 20
211.3526943916063
 30
0.0
 10
125.1443888576027
 20
211.3526943916063
 30
0.0
 10
125.2361110798021
 20
211.4197221693672
 30
0.0
 10
125.2713888575712
 20
211.5184999471203
 30
0.0
  0
SPLINE
  5
3D8
330
4A
100
AcDbEntity
  8
STANDARDEBENE
 62
     7
100
AcDbSpline
210
0.0
220
0.0
230
1.0
 70
     8
 71
     3
 72
     8
 73
     4
 74
     0
 42
0.0000000001
 43
0.0000000001
 12
1.0
 22
0.0
 32
0.0
 13
1.0
 23
0.0
 33
0.0
 40
0.0
 40
0.0
 40
0.0
 40
0.0
 40
1.0
 40
1.0
 40
1.0
 40
1.0
 10
126.798916634967
 20
211.5184999471203
 30
0.0
 10
126.8341944127358
 20
211.4161943915904
 30
0.0
 10
126.9294444127122
 20
211.3526943916063
 30
0.0
 10
127.0352777460191
 20
211.3526943916063
 30
0.0
  0
SPLINE
  5
3D9
330
4A
100
AcDbEntity
  8
STANDARDEBENE
 62
     7
100
AcDbSpline
210
0.0
220
0.0
230
1.0
 70
     8
 71
     3
 72
     8
 73
     4
 74
     0
 42
0.0000000001
 43
0.0000000001
 12
1.0
 22
0.0
 32
0.0
 13
1.0
 23
0.0
 33
0.0
 40
0.0
 40
0.0
 40
0.0
 40
0.0
 40
1.0
 40
1.0
 40
1.0
 40
1.0
 10
126.7706944127519
 20
211.599638835989
 30
0.0
 10
126.7318888572058
 20
211.698416613742
 30
0.0
 10
126.6366388572298
 20
211.7619166137262
 30
0.0
 10
126.5343333016999
 20
211.7619166137262
 30
0.0
  0
SPLINE
  5
3DA
330
4A
100
AcDbEntity
  8
STANDARDEBENE
 62
     7
100
AcDbSpline
210
0.0
220
0.0
230
1.0
 70
     8
 71
     3
 72
     8
 73
     4
 74
     0
 42
0.0000000001
 43
0.0000000001
 12
1.0
 22
0.0
 32
0.0
 13
1.0
 23
0.0
 33
0.0
 40
0.0
 40
0.0
 40
0.0
 40
0.0
 40
1.0
 40
1.0
 40
1.0
 40
1.0
 10
126.5343333016999
 20
211.7619166137262
 30
0.0
 10
126.4284999683929
 20
211.7619166137262
 30
0.0
 10
126.3367777461935
 20
211.6948888359651
 30
0.0
 10
126.2979721906478
 20
211.599638835989
 30
0.0
  0
SPLINE
  5
3DB
330
4A
100
AcDbEntity
  8
STANDARDEBENE
 62
     7
100
AcDbSpline
210
0.0
220
0.0
230
1.0
 70
     8
 71
     3
 72
     8
 73
     4
 74
     0
 42
0.0000000001
 43
0.0000000001
 12
1.0
 22
0.0
 32
0.0
 13
1.0
 23
0.0
 33
0.0
 40
0.0
 40
0.0
 40
0.0
 40
0.0
 40
1.0
 40
1.0
 40
1.0
 40
1.0
 10
126.0333888573806
 20
211.3526943916063
 30
0.0
 10
126.1427499684642
 20
211.3526943916063
 30
0.0
 10
126.2344721906636
 20
211.4197221693672
 30
0.0
 10
126.2697499684327
 20
211.5184999471203
 30
0.0
  0
POLYLINE
  5
3DC
330
4A
100
AcDbEntity
  8
STANDARDEBENE
 62
     7
100
AcDb2dPolyline
 66
     1
 10
0.0
 20
0.0
 30
0.0
  0
VERTEX
  5
3DD
330
3DC
100
AcDbEntity
  8
STANDARDEBENE
 62
     7
100
AcDbVertex
100
AcDb2dVertex
 10
127.5362221903383
 20
217.6815277233573
 30
0.0
  0
VERTEX
  5
3DE
330
3DC
100
AcDbEntity
  8
STANDARDEBENE
 62
     7
100
AcDbVertex
100
AcDb2dVertex
 10
127.5362221903383
 20
217.9108332788556
 30
0.0
  0
VERTEX
  5
3DF
330
3DC
100
AcDbEntity
  8
STANDARDEBENE
 62
     7
100
AcDbVertex
100
AcDb2dVertex
 10
127.5362221903383
 20
218.168361056569
 30
0.0
  0
SEQEND
  5
3E0
330
3DC
100
AcDbEntity
  8
STANDARDEBENE
 62
     7
  0
POLYLINE
  5
3E1
330
4A
100
AcDbEntity
  8
STANDARDEBENE
 62
     7
100
AcDb2dPolyline
 66
     1
 10
0.0
 20
0.0
 30
0.0
  0
VERTEX
  5
3E2
330
3E1
100
AcDbEntity
  8
STANDARDEBENE
 62
     7
100
AcDbVertex
100
AcDb2dVertex
 10
124.5340833021999
 20
218.168361056569
 30
0.0
  0
VERTEX
  5
3E3
330
3E1
100
AcDbEntity
  8
STANDARDEBENE
 62
     7
100
AcDbVertex
100
AcDb2dVertex
 10
124.5340833021999
 20
217.9108332788556
 30
0.0
  0
VERTEX
  5
3E4
330
3E1
100
AcDbEntity
  8
STANDARDEBENE
 62
     7
100
AcDbVertex
100
AcDb2dVertex
 10
124.5340833021999
 20
217.6815277233573
 30
0.0
  0
SEQEND
  5
3E5
330
3E1
100
AcDbEntity
  8
STANDARDEBENE
 62
     7
  0
POLYLINE
  5
3E6
330
4A
100
AcDbEntity
  8
STANDARDEBENE
 62
     7
100
AcDb2dPolyline
 66
     1
 10
0.0
 20
0.0
 30
0.0
  0
VERTEX
  5
3E7
330
3E6
100
AcDbEntity
  8
STANDARDEBENE
 62
     7
100
AcDbVertex
100
AcDb2dVertex
 10
127.5362221903383
 20
218.168361056569
 30
0.0
  0
VERTEX
  5
3E8
330
3E6
100
AcDbEntity
  8
STANDARDEBENE
 62
     7
100
AcDbVertex
100
AcDb2dVertex
 10
127.5362221903383
 20
218.3059443898679
 30
0.0
  0
VERTEX
  5
3E9
330
3E6
100
AcDbEntity
  8
STANDARDEBENE
 62
     7
100
AcDbVertex
100
AcDb2dVertex
 10
127.5362221903383
 20
218.3518055009675
 30
0.0
  0
SEQEND
  5
3EA
330
3E6
100
AcDbEntity
  8
STANDARDEBENE
 62
     7
  0
POLYLINE
  5
3EB
330
4A
100
AcDbEntity
  8
STANDARDEBENE
 62
     7
100
AcDb2dPolyline
 66
     1
 10
0.0
 20
0.0
 30
0.0
  0
VERTEX
  5
3EC
330
3EB
100
AcDbEntity
  8
STANDARDEBENE
 62
     7
100
AcDbVertex
100
AcDb2dVertex
 10
124.5340833021999
 20
218.3518055009675
 30
0.0
  0
VERTEX
  5
3ED
330
3EB
100
AcDbEntity
  8
STANDARDEBENE
 62
     7
100
AcDbVertex
100
AcDb2dVertex
 10
124.5340833021999
 20
218.3059443898679
 30
0.0
  0
VERTEX
  5
3EE
330
3EB
100
AcDbEntity
  8
STANDARDEBENE
 62
     7
100
AcDbVertex
100
AcDb2dVertex
 10
124.5340833021999
 20
218.168361056569
 30
0.0
  0
SEQEND
  5
3EF
330
3EB
100
AcDbEntity
  8
STANDARDEBENE
 62
     7
  0
POLYLINE
  5
3F0
330
4A
100
AcDbEntity
  8
STANDARDEBENE
 62
     7
100
AcDb2dPolyline
 66
     1
 10
0.0
 20
0.0
 30
0.0
  0
VERTEX
  5
3F1
330
3F0
100
AcDbEntity
  8
STANDARDEBENE
 62
     7
100
AcDbVertex
100
AcDb2dVertex
 10
77.41355553620235
 20
180.3329443993613
 30
0.0
  0
VERTEX
  5
3F2
330
3F0
100
AcDbEntity
  8
STANDARDEBENE
 62
     7
100
AcDbVertex
100
AcDb2dVertex
 10
78.3836944248487
 20
180.3329443993613
 30
0.0
  0
SEQEND
  5
3F3
330
3F0
100
AcDbEntity
  8
STANDARDEBENE
 62
     7
  0
POLYLINE
  5
3F4
330
4A
100
AcDbEntity
  8
STANDARDEBENE
 62
     7
100
AcDb2dPolyline
 66
     1
 10
0.0
 20
0.0
 30
0.0
  0
VERTEX
  5
3F5
330
3F4
100
AcDbEntity
  8
STANDARDEBENE
 62
     7
100
AcDbVertex
100
AcDb2dVertex
 10
79.41733331347896
 20
179.3345832884998
 30
0.0
  0
VERTEX
  5
3F6
330
3F4
100
AcDbEntity
  8
STANDARDEBENE
 62
     7
100
AcDbVertex
100
AcDb2dVertex
 10
78.3836944248487
 20
179.3345832884998
 30
0.0
  0
SEQEND
  5
3F7
330
3F4
100
AcDbEntity
  8
STANDARDEBENE
 62
     7
  0
POLYLINE
  5
3F8
330
4A
100
AcDbEntity
  8
STANDARDEBENE
 62
     7
100
AcDb2dPolyline
 66
     1
 10
0.0
 20
0.0
 30
0.0
  0
VERTEX
  5
3F9
330
3F8
100
AcDbEntity
  8
STANDARDEBENE
 62
     7
100
AcDbVertex
100
AcDb2dVertex
 10
78.3836944248487
 20
180.6857221770509
 30
0.0
  0
VERTEX
  5
3FA
330
3F8
100
AcDbEntity
  8
STANDARDEBENE
 62
     7
100
AcDbVertex
100
AcDb2dVertex
 10
79.41733331347896
 20
180.6857221770509
 30
0.0
  0
SEQEND
  5
3FB
330
3F8
100
AcDbEntity
  8
STANDARDEBENE
 62
     7
  0
POLYLINE
  5
3FC
330
4A
100
AcDbEntity
  8
STANDARDEBENE
 62
     7
100
AcDb2dPolyline
 66
     1
 10
0.0
 20
0.0
 30
0.0
  0
VERTEX
  5
3FD
330
3FC
100
AcDbEntity
  8
STANDARDEBENE
 62
     7
100
AcDbVertex
100
AcDb2dVertex
 10
78.3836944248487
 20
179.6838332884124
 30
0.0
  0
VERTEX
  5
3FE
330
3FC
100
AcDbEntity
  8
STANDARDEBENE
 62
     7
100
AcDbVertex
100
AcDb2dVertex
 10
77.41355553620235
 20
179.6838332884124
 30
0.0
  0
SEQEND
  5
3FF
330
3FC
100
AcDbEntity
  8
STANDARDEBENE
 62
     7
  0
POLYLINE
  5
400
330
4A
100
AcDbEntity
  8
STANDARDEBENE
 62
     7
100
AcDb2dPolyline
 66
     1
 10
0.0
 20
0.0
 30
0.0
  0
VERTEX
  5
401
330
400
100
AcDbEntity
  8
STANDARDEBENE
 62
     7
100
AcDbVertex
100
AcDb2dVertex
 10
70.9153888711602
 20
181.0102777325253
 30
0.0
  0
VERTEX
  5
402
330
400
100
AcDbEntity
  8
STANDARDEBENE
 62
     7
100
AcDbVertex
100
AcDb2dVertex
 10
70.9153888711602
 20
178.0081388443869
 30
0.0
  0
SEQEND
  5
403
330
400
100
AcDbEntity
  8
STANDARDEBENE
 62
     7
  0
POLYLINE
  5
404
330
4A
100
AcDbEntity
  8
STANDARDEBENE
 62
     7
100
AcDb2dPolyline
 66
     1
 10
0.0
 20
0.0
 30
0.0
  0
VERTEX
  5
405
330
404
100
AcDbEntity
  8
STANDARDEBENE
 62
     7
100
AcDbVertex
100
AcDb2dVertex
 10
72.62636109295448
 20
179.3345832884998
 30
0.0
  0
VERTEX
  5
406
330
404
100
AcDbEntity
  8
STANDARDEBENE
 62
     7
100
AcDbVertex
100
AcDb2dVertex
 10
77.41355553620235
 20
179.3345832884998
 30
0.0
  0
SEQEND
  5
407
330
404
100
AcDbEntity
  8
STANDARDEBENE
 62
     7
  0
POLYLINE
  5
408
330
4A
100
AcDbEntity
  8
STANDARDEBENE
 62
     7
100
AcDb2dPolyline
 66
     1
 10
0.0
 20
0.0
 30
0.0
  0
VERTEX
  5
409
330
408
100
AcDbEntity
  8
STANDARDEBENE
 62
     7
100
AcDbVertex
100
AcDb2dVertex
 10
78.3836944248487
 20
180.3329443993613
 30
0.0
  0
VERTEX
  5
40A
330
408
100
AcDbEntity
  8
STANDARDEBENE
 62
     7
100
AcDbVertex
100
AcDb2dVertex
 10
79.41733331347896
 20
180.3329443993613
 30
0.0
  0
SEQEND
  5
40B
330
408
100
AcDbEntity
  8
STANDARDEBENE
 62
     7
  0
POLYLINE
  5
40C
330
4A
100
AcDbEntity
  8
STANDARDEBENE
 62
     7
100
AcDb2dPolyline
 66
     1
 10
0.0
 20
0.0
 30
0.0
  0
VERTEX
  5
40D
330
40C
100
AcDbEntity
  8
STANDARDEBENE
 62
     7
100
AcDbVertex
100
AcDb2dVertex
 10
72.62636109295448
 20
180.3329443993613
 30
0.0
  0
VERTEX
  5
40E
330
40C
100
AcDbEntity
  8
STANDARDEBENE
 62
     7
100
AcDbVertex
100
AcDb2dVertex
 10
77.41355553620235
 20
180.3329443993613
 30
0.0
  0
SEQEND
  5
40F
330
40C
100
AcDbEntity
  8
STANDARDEBENE
 62
     7
  0
POLYLINE
  5
410
330
4A
100
AcDbEntity
  8
STANDARDEBENE
 62
     7
100
AcDb2dPolyline
 66
     1
 10
0.0
 20
0.0
 30
0.0
  0
VERTEX
  5
411
330
410
100
AcDbEntity
  8
STANDARDEBENE
 62
     7
100
AcDbVertex
100
AcDb2dVertex
 10
77.41355553620235
 20
179.6838332884124
 30
0.0
  0
VERTEX
  5
412
330
410
100
AcDbEntity
  8
STANDARDEBENE
 62
     7
100
AcDbVertex
100
AcDb2dVertex
 10
72.62636109295448
 20
179.6838332884124
 30
0.0
  0
SEQEND
  5
413
330
410
100
AcDbEntity
  8
STANDARDEBENE
 62
     7
  0
POLYLINE
  5
414
330
4A
100
AcDbEntity
  8
STANDARDEBENE
 62
     7
100
AcDb2dPolyline
 66
     1
 10
0.0
 20
0.0
 30
0.0
  0
VERTEX
  5
415
330
414
100
AcDbEntity
  8
STANDARDEBENE
 62
     7
100
AcDbVertex
100
AcDb2dVertex
 10
78.3836944248487
 20
178.6854721775509
 30
0.0
  0
VERTEX
  5
416
330
414
100
AcDbEntity
  8
STANDARDEBENE
 62
     7
100
AcDbVertex
100
AcDb2dVertex
 10
77.41355553620235
 20
178.6854721775509
 30
0.0
  0
SEQEND
  5
417
330
414
100
AcDbEntity
  8
STANDARDEBENE
 62
     7
  0
POLYLINE
  5
418
330
4A
100
AcDbEntity
  8
STANDARDEBENE
 62
     7
100
AcDb2dPolyline
 66
     1
 10
0.0
 20
0.0
 30
0.0
  0
VERTEX
  5
419
330
418
100
AcDbEntity
  8
STANDARDEBENE
 62
     7
100
AcDbVertex
100
AcDb2dVertex
 10
72.41822220411758
 20
179.7826110661654
 30
0.0
  0
VERTEX
  5
41A
330
418
100
AcDbEntity
  8
STANDARDEBENE
 62
     7
100
AcDbVertex
100
AcDb2dVertex
 10
72.41822220411758
 20
180.234166621608
 30
0.0
  0
SEQEND
  5
41B
330
418
100
AcDbEntity
  8
STANDARDEBENE
 62
     7
  0
POLYLINE
  5
41C
330
4A
100
AcDbEntity
  8
STANDARDEBENE
 62
     7
100
AcDb2dPolyline
 66
     1
 10
0.0
 20
0.0
 30
0.0
  0
VERTEX
  5
41D
330
41C
100
AcDbEntity
  8
STANDARDEBENE
 62
     7
100
AcDbVertex
100
AcDb2dVertex
 10
78.3836944248487
 20
180.6857221770509
 30
0.0
  0
VERTEX
  5
41E
330
41C
100
AcDbEntity
  8
STANDARDEBENE
 62
     7
100
AcDbVertex
100
AcDb2dVertex
 10
77.41355553620235
 20
180.6857221770509
 30
0.0
  0
SEQEND
  5
41F
330
41C
100
AcDbEntity
  8
STANDARDEBENE
 62
     7
  0
POLYLINE
  5
420
330
4A
100
AcDbEntity
  8
STANDARDEBENE
 62
     7
100
AcDb2dPolyline
 66
     1
 10
0.0
 20
0.0
 30
0.0
  0
VERTEX
  5
421
330
420
100
AcDbEntity
  8
STANDARDEBENE
 62
     7
100
AcDbVertex
100
AcDb2dVertex
 10
72.41822220411758
 20
178.7842499553039
 30
0.0
  0
VERTEX
  5
422
330
420
100
AcDbEntity
  8
STANDARDEBENE
 62
     7
100
AcDbVertex
100
AcDb2dVertex
 10
72.41822220411758
 20
179.2358055107465
 30
0.0
  0
SEQEND
  5
423
330
420
100
AcDbEntity
  8
STANDARDEBENE
 62
     7
  0
POLYLINE
  5
424
330
4A
100
AcDbEntity
  8
STANDARDEBENE
 62
     7
100
AcDb2dPolyline
 66
     1
 10
0.0
 20
0.0
 30
0.0
  0
VERTEX
  5
425
330
424
100
AcDbEntity
  8
STANDARDEBENE
 62
     7
100
AcDbVertex
100
AcDb2dVertex
 10
77.41355553620235
 20
180.6857221770509
 30
0.0
  0
VERTEX
  5
426
330
424
100
AcDbEntity
  8
STANDARDEBENE
 62
     7
100
AcDbVertex
100
AcDb2dVertex
 10
72.62636109295448
 20
180.6857221770509
 30
0.0
  0
SEQEND
  5
427
330
424
100
AcDbEntity
  8
STANDARDEBENE
 62
     7
  0
POLYLINE
  5
428
330
4A
100
AcDbEntity
  8
STANDARDEBENE
 62
     7
100
AcDb2dPolyline
 66
     1
 10
0.0
 20
0.0
 30
0.0
  0
VERTEX
  5
429
330
428
100
AcDbEntity
  8
STANDARDEBENE
 62
     7
100
AcDbVertex
100
AcDb2dVertex
 10
77.41355553620235
 20
179.3345832884998
 30
0.0
  0
VERTEX
  5
42A
330
428
100
AcDbEntity
  8
STANDARDEBENE
 62
     7
100
AcDbVertex
100
AcDb2dVertex
 10
78.3836944248487
 20
179.3345832884998
 30
0.0
  0
SEQEND
  5
42B
330
428
100
AcDbEntity
  8
STANDARDEBENE
 62
     7
  0
POLYLINE
  5
42C
330
4A
100
AcDbEntity
  8
STANDARDEBENE
 62
     7
100
AcDb2dPolyline
 66
     1
 10
0.0
 20
0.0
 30
0.0
  0
VERTEX
  5
42D
330
42C
100
AcDbEntity
  8
STANDARDEBENE
 62
     7
100
AcDbVertex
100
AcDb2dVertex
 10
77.41355553620235
 20
178.6854721775509
 30
0.0
  0
VERTEX
  5
42E
330
42C
100
AcDbEntity
  8
STANDARDEBENE
 62
     7
100
AcDbVertex
100
AcDb2dVertex
 10
72.62636109295448
 20
178.6854721775509
 30
0.0
  0
SEQEND
  5
42F
330
42C
100
AcDbEntity
  8
STANDARDEBENE
 62
     7
  0
POLYLINE
  5
430
330
4A
100
AcDbEntity
  8
STANDARDEBENE
 62
     7
100
AcDb2dPolyline
 66
     1
 10
0.0
 20
0.0
 30
0.0
  0
VERTEX
  5
431
330
430
100
AcDbEntity
  8
STANDARDEBENE
 62
     7
100
AcDbVertex
100
AcDb2dVertex
 10
78.3836944248487
 20
178.6854721775509
 30
0.0
  0
VERTEX
  5
432
330
430
100
AcDbEntity
  8
STANDARDEBENE
 62
     7
100
AcDbVertex
100
AcDb2dVertex
 10
79.41733331347896
 20
178.6854721775509
 30
0.0
  0
SEQEND
  5
433
330
430
100
AcDbEntity
  8
STANDARDEBENE
 62
     7
  0
POLYLINE
  5
434
330
4A
100
AcDbEntity
  8
STANDARDEBENE
 62
     7
100
AcDb2dPolyline
 66
     1
 10
0.0
 20
0.0
 30
0.0
  0
VERTEX
  5
435
330
434
100
AcDbEntity
  8
STANDARDEBENE
 62
     7
100
AcDbVertex
100
AcDb2dVertex
 10
78.3836944248487
 20
179.6838332884124
 30
0.0
  0
VERTEX
  5
436
330
434
100
AcDbEntity
  8
STANDARDEBENE
 62
     7
100
AcDbVertex
100
AcDb2dVertex
 10
79.41733331347896
 20
179.6838332884124
 30
0.0
  0
SEQEND
  5
437
330
434
100
AcDbEntity
  8
STANDARDEBENE
 62
     7
  0
ENDBLK
  5
4D
330
4A
100
AcDbEntity
  8
0
100
AcDbBlockEnd
  0
ENDSEC
  0
SECTION
  2
ENTITIES
  0
INSERT
  5
43
330
1F
100
AcDbEntity
  8
STANDARDEBENE
100
AcDbBlockReference
  2
BLOCK_2
 10
0.0
 20
0.0
 30
0.0
  0
POLYLINE
  5
439
330
1F
100
AcDbEntity
  8
BEMA_U_00DFUNG
 62
     7
100
AcDb2dPolyline
 66
     1
 10
0.0
 20
0.0
 30
0.0
  0
VERTEX
  5
43A
330
439
100
AcDbEntity
  8
BEMA_U_00DFUNG
 62
     7
100
AcDbVertex
100
AcDb2dVertex
 10
71.91569301587526
 20
217.2531142523274
 30
0.0
  0
VERTEX
  5
43B
330
439
100
AcDbEntity
  8
BEMA_U_00DFUNG
 62
     7
100
AcDbVertex
100
AcDb2dVertex
 10
71.91569301587526
 20
230.3531642490524
 30
0.0
  0
SEQEND
  5
43C
330
439
100
AcDbEntity
  8
BEMA_U_00DFUNG
 62
     7
  0
POLYLINE
  5
43D
330
1F
100
AcDbEntity
  8
BEMA_U_00DFUNG
 62
     7
100
AcDb2dPolyline
 66
     1
 10
0.0
 20
0.0
 30
0.0
  0
VERTEX
  5
43E
330
43D
100
AcDbEntity
  8
BEMA_U_00DFUNG
 62
     7
100
AcDbVertex
100
AcDb2dVertex
 10
66.91577357268088
 20
217.3533031411911
 30
0.0
  0
VERTEX
  5
43F
330
43D
100
AcDbEntity
  8
BEMA_U_00DFUNG
 62
     7
100
AcDbVertex
100
AcDb2dVertex
 10
66.91577357268088
 20
230.3531642490524
 30
0.0
  0
SEQEND
  5
440
330
43D
100
AcDbEntity
  8
BEMA_U_00DFUNG
 62
     7
  0
POLYLINE
  5
441
330
1F
100
AcDbEntity
  8
BEMA_U_00DFUNG
 62
     7
100
AcDb2dPolyline
 66
     1
 10
0.0
 20
0.0
 30
0.0
  0
VERTEX
  5
442
330
441
100
AcDbEntity
  8
BEMA_U_00DFUNG
 62
     7
100
AcDbVertex
100
AcDb2dVertex
 10
80.66564023590995
 20
228.3532670273302
 30
0.0
  0
VERTEX
  5
443
330
441
100
AcDbEntity
  8
BEMA_U_00DFUNG
 62
     7
100
AcDbVertex
100
AcDb2dVertex
 10
58.16547357486841
 20
228.3532670273302
 30
0.0
  0
SEQEND
  5
444
330
441
100
AcDbEntity
  8
BEMA_U_00DFUNG
 62
     7
  0
POLYLINE
  5
445
330
1F
100
AcDbEntity
  8
BEMA_U_00DFUNG
 62
     7
100
AcDb2dPolyline
 66
     1
 10
0.0
 20
0.0
 30
0.0
  0
VERTEX
  5
446
330
445
100
AcDbEntity
  8
BEMA_U_00DFUNG
 62
     7
100
AcDbVertex
100
AcDb2dVertex
 10
71.91569301587526
 20
228.3532670273302
 30
0.0
  0
VERTEX
  5
447
330
445
100
AcDbEntity
  8
BEMA_U_00DFUNG
 62
     7
100
AcDbVertex
100
AcDb2dVertex
 10
75.41595412611147
 20
227.8925392496674
 30
0.0
  0
VERTEX
  5
448
330
445
100
AcDbEntity
  8
BEMA_U_00DFUNG
 62
     7
100
AcDbVertex
100
AcDb2dVertex
 10
75.41595412611147
 20
228.8143475827707
 30
0.0
  0
VERTEX
  5
449
330
445
100
AcDbEntity
  8
BEMA_U_00DFUNG
 62
     7
100
AcDbVertex
100
AcDb2dVertex
 10
71.91569301587526
 20
228.3532670273302
 30
0.0
  0
SEQEND
  5
44A
330
445
100
AcDbEntity
  8
BEMA_U_00DFUNG
 62
     7
  0
POLYLINE
  5
44B
330
1F
100
AcDbEntity
  8
BEMA_U_00DFUNG
 62
     7
100
AcDb2dPolyline
 66
     1
 10
0.0
 20
0.0
 30
0.0
  0
VERTEX
  5
44C
330
44B
100
AcDbEntity
  8
BEMA_U_00DFUNG
 62
     7
100
AcDbVertex
100
AcDb2dVertex
 10
75.41595412611147
 20
227.8964198052221
 30
0.0
  0
VERTEX
  5
44D
330
44B
100
AcDbEntity
  8
BEMA_U_00DFUNG
 62
     7
100
AcDbVertex
100
AcDb2dVertex
 10
75.3887902372293
 20
227.8964198052221
 30
0.0
  0
SEQEND
  5
44E
330
44B
100
AcDbEntity
  8
BEMA_U_00DFUNG
 62
     7
  0
POLYLINE
  5
44F
330
1F
100
AcDbEntity
  8
BEMA_U_00DFUNG
 62
     7
100
AcDb2dPolyline
 66
     1
 10
0.0
 20
0.0
 30
0.0
  0
VERTEX
  5
450
330
44F
100
AcDbEntity
  8
BEMA_U_00DFUNG
 62
     7
100
AcDbVertex
100
AcDb2dVertex
 10
75.41595412611147
 20
227.8964198052221
 30
0.0
  0
VERTEX
  5
451
330
44F
100
AcDbEntity
  8
BEMA_U_00DFUNG
 62
     7
100
AcDbVertex
100
AcDb2dVertex
 10
75.3887902372293
 20
227.8964198052221
 30
0.0
  0
SEQEND
  5
452
330
44F
100
AcDbEntity
  8
BEMA_U_00DFUNG
 62
     7
  0
POLYLINE
  5
453
330
1F
100
AcDbEntity
  8
BEMA_U_00DFUNG
 62
     7
100
AcDb2dPolyline
 66
     1
 10
0.0
 20
0.0
 30
0.0
  0
VERTEX
  5
454
330
453
100
AcDbEntity
  8
BEMA_U_00DFUNG
 62
     7
100
AcDbVertex
100
AcDb2dVertex
 10
75.41595412611147
 20
227.9472198052095
 30
0.0
  0
VERTEX
  5
455
330
453
100
AcDbEntity
  8
BEMA_U_00DFUNG
 62
     7
100
AcDbVertex
100
AcDb2dVertex
 10
75.00249857065911
 20
227.9472198052095
 30
0.0
  0
SEQEND
  5
456
330
453
100
AcDbEntity
  8
BEMA_U_00DFUNG
 62
     7
  0
POLYLINE
  5
457
330
1F
100
AcDbEntity
  8
BEMA_U_00DFUNG
 62
     7
100
AcDb2dPolyline
 66
     1
 10
0.0
 20
0.0
 30
0.0
  0
VERTEX
  5
458
330
457
100
AcDbEntity
  8
BEMA_U_00DFUNG
 62
     7
100
AcDbVertex
100
AcDb2dVertex
 10
75.41595412611147
 20
227.9976670274191
 30
0.0
  0
VERTEX
  5
459
330
457
100
AcDbEntity
  8
BEMA_U_00DFUNG
 62
     7
100
AcDbVertex
100
AcDb2dVertex
 10
74.61655968186669
 20
227.9976670274191
 30
0.0
  0
SEQEND
  5
45A
330
457
100
AcDbEntity
  8
BEMA_U_00DFUNG
 62
     7
  0
POLYLINE
  5
45B
330
1F
100
AcDbEntity
  8
BEMA_U_00DFUNG
 62
     7
100
AcDb2dPolyline
 66
     1
 10
0.0
 20
0.0
 30
0.0
  0
VERTEX
  5
45C
330
45B
100
AcDbEntity
  8
BEMA_U_00DFUNG
 62
     7
100
AcDbVertex
100
AcDb2dVertex
 10
75.41595412611147
 20
228.0484670274065
 30
0.0
  0
VERTEX
  5
45D
330
45B
100
AcDbEntity
  8
BEMA_U_00DFUNG
 62
     7
100
AcDbVertex
100
AcDb2dVertex
 10
74.23132634862979
 20
228.0484670274065
 30
0.0
  0
SEQEND
  5
45E
330
45B
100
AcDbEntity
  8
BEMA_U_00DFUNG
 62
     7
  0
POLYLINE
  5
45F
330
1F
100
AcDbEntity
  8
BEMA_U_00DFUNG
 62
     7
100
AcDb2dPolyline
 66
     1
 10
0.0
 20
0.0
 30
0.0
  0
VERTEX
  5
460
330
45F
100
AcDbEntity
  8
BEMA_U_00DFUNG
 62
     7
100
AcDbVertex
100
AcDb2dVertex
 10
75.41595412611147
 20
228.0992670273939
 30
0.0
  0
VERTEX
  5
461
330
45F
100
AcDbEntity
  8
BEMA_U_00DFUNG
 62
     7
100
AcDbVertex
100
AcDb2dVertex
 10
73.84538745983737
 20
228.0992670273939
 30
0.0
  0
SEQEND
  5
462
330
45F
100
AcDbEntity
  8
BEMA_U_00DFUNG
 62
     7
  0
POLYLINE
  5
463
330
1F
100
AcDbEntity
  8
BEMA_U_00DFUNG
 62
     7
100
AcDb2dPolyline
 66
     1
 10
0.0
 20
0.0
 30
0.0
  0
VERTEX
  5
464
330
463
100
AcDbEntity
  8
BEMA_U_00DFUNG
 62
     7
100
AcDbVertex
100
AcDb2dVertex
 10
75.41595412611147
 20
228.150067027381
 30
0.0
  0
VERTEX
  5
465
330
463
100
AcDbEntity
  8
BEMA_U_00DFUNG
 62
     7
100
AcDbVertex
100
AcDb2dVertex
 10
73.45909579326718
 20
228.150067027381
 30
0.0
  0
SEQEND
  5
466
330
463
100
AcDbEntity
  8
BEMA_U_00DFUNG
 62
     7
  0
POLYLINE
  5
467
330
1F
100
AcDbEntity
  8
BEMA_U_00DFUNG
 62
     7
100
AcDb2dPolyline
 66
     1
 10
0.0
 20
0.0
 30
0.0
  0
VERTEX
  5
468
330
467
100
AcDbEntity
  8
BEMA_U_00DFUNG
 62
     7
100
AcDbVertex
100
AcDb2dVertex
 10
75.41595412611147
 20
228.2008670273684
 30
0.0
  0
VERTEX
  5
469
330
467
100
AcDbEntity
  8
BEMA_U_00DFUNG
 62
     7
100
AcDbVertex
100
AcDb2dVertex
 10
73.07315690447477
 20
228.2008670273684
 30
0.0
  0
SEQEND
  5
46A
330
467
100
AcDbEntity
  8
BEMA_U_00DFUNG
 62
     7
  0
POLYLINE
  5
46B
330
1F
100
AcDbEntity
  8
BEMA_U_00DFUNG
 62
     7
100
AcDb2dPolyline
 66
     1
 10
0.0
 20
0.0
 30
0.0
  0
VERTEX
  5
46C
330
46B
100
AcDbEntity
  8
BEMA_U_00DFUNG
 62
     7
100
AcDbVertex
100
AcDb2dVertex
 10
75.41595412611147
 20
228.2516670273554
 30
0.0
  0
VERTEX
  5
46D
330
46B
100
AcDbEntity
  8
BEMA_U_00DFUNG
 62
     7
100
AcDbVertex
100
AcDb2dVertex
 10
72.6875707934601
 20
228.2516670273554
 30
0.0
  0
SEQEND
  5
46E
330
46B
100
AcDbEntity
  8
BEMA_U_00DFUNG
 62
     7
  0
POLYLINE
  5
46F
330
1F
100
AcDbEntity
  8
BEMA_U_00DFUNG
 62
     7
100
AcDb2dPolyline
 66
     1
 10
0.0
 20
0.0
 30
0.0
  0
VERTEX
  5
470
330
46F
100
AcDbEntity
  8
BEMA_U_00DFUNG
 62
     7
100
AcDbVertex
100
AcDb2dVertex
 10
75.41595412611147
 20
228.3024670273428
 30
0.0
  0
VERTEX
  5
471
330
46F
100
AcDbEntity
  8
BEMA_U_00DFUNG
 62
     7
100
AcDbVertex
100
AcDb2dVertex
 10
72.30198468244544
 20
228.3024670273428
 30
0.0
  0
SEQEND
  5
472
330
46F
100
AcDbEntity
  8
BEMA_U_00DFUNG
 62
     7
  0
POLYLINE
  5
473
330
1F
100
AcDbEntity
  8
BEMA_U_00DFUNG
 62
     7
100
AcDb2dPolyline
 66
     1
 10
0.0
 20
0.0
 30
0.0
  0
VERTEX
  5
474
330
473
100
AcDbEntity
  8
BEMA_U_00DFUNG
 62
     7
100
AcDbVertex
100
AcDb2dVertex
 10
75.41595412611147
 20
228.3532670273302
 30
0.0
  0
VERTEX
  5
475
330
473
100
AcDbEntity
  8
BEMA_U_00DFUNG
 62
     7
100
AcDbVertex
100
AcDb2dVertex
 10
71.91569301587526
 20
228.3532670273302
 30
0.0
  0
SEQEND
  5
476
330
473
100
AcDbEntity
  8
BEMA_U_00DFUNG
 62
     7
  0
POLYLINE
  5
477
330
1F
100
AcDbEntity
  8
BEMA_U_00DFUNG
 62
     7
100
AcDb2dPolyline
 66
     1
 10
0.0
 20
0.0
 30
0.0
  0
VERTEX
  5
478
330
477
100
AcDbEntity
  8
BEMA_U_00DFUNG
 62
     7
100
AcDbVertex
100
AcDb2dVertex
 10
75.41595412611147
 20
228.8108198049937
 30
0.0
  0
VERTEX
  5
479
330
477
100
AcDbEntity
  8
BEMA_U_00DFUNG
 62
     7
100
AcDbVertex
100
AcDb2dVertex
 10
75.3887902372293
 20
228.8108198049937
 30
0.0
  0
SEQEND
  5
47A
330
477
100
AcDbEntity
  8
BEMA_U_00DFUNG
 62
     7
  0
POLYLINE
  5
47B
330
1F
100
AcDbEntity
  8
BEMA_U_00DFUNG
 62
     7
100
AcDb2dPolyline
 66
     1
 10
0.0
 20
0.0
 30
0.0
  0
VERTEX
  5
47C
330
47B
100
AcDbEntity
  8
BEMA_U_00DFUNG
 62
     7
100
AcDbVertex
100
AcDb2dVertex
 10
75.41595412611147
 20
228.8108198049937
 30
0.0
  0
VERTEX
  5
47D
330
47B
100
AcDbEntity
  8
BEMA_U_00DFUNG
 62
     7
100
AcDbVertex
100
AcDb2dVertex
 10
75.3887902372293
 20
228.8108198049937
 30
0.0
  0
SEQEND
  5
47E
330
47B
100
AcDbEntity
  8
BEMA_U_00DFUNG
 62
     7
  0
POLYLINE
  5
47F
330
1F
100
AcDbEntity
  8
BEMA_U_00DFUNG
 62
     7
100
AcDb2dPolyline
 66
     1
 10
0.0
 20
0.0
 30
0.0
  0
VERTEX
  5
480
330
47F
100
AcDbEntity
  8
BEMA_U_00DFUNG
 62
     7
100
AcDbVertex
100
AcDb2dVertex
 10
75.41595412611147
 20
228.7600198050064
 30
0.0
  0
VERTEX
  5
481
330
47F
100
AcDbEntity
  8
BEMA_U_00DFUNG
 62
     7
100
AcDbVertex
100
AcDb2dVertex
 10
75.00249857065911
 20
228.7600198050064
 30
0.0
  0
SEQEND
  5
482
330
47F
100
AcDbEntity
  8
BEMA_U_00DFUNG
 62
     7
  0
POLYLINE
  5
483
330
1F
100
AcDbEntity
  8
BEMA_U_00DFUNG
 62
     7
100
AcDb2dPolyline
 66
     1
 10
0.0
 20
0.0
 30
0.0
  0
VERTEX
  5
484
330
483
100
AcDbEntity
  8
BEMA_U_00DFUNG
 62
     7
100
AcDbVertex
100
AcDb2dVertex
 10
75.41595412611147
 20
228.709219805019
 30
0.0
  0
VERTEX
  5
485
330
483
100
AcDbEntity
  8
BEMA_U_00DFUNG
 62
     7
100
AcDbVertex
100
AcDb2dVertex
 10
74.61655968186669
 20
228.709219805019
 30
0.0
  0
SEQEND
  5
486
330
483
100
AcDbEntity
  8
BEMA_U_00DFUNG
 62
     7
  0
POLYLINE
  5
487
330
1F
100
AcDbEntity
  8
BEMA_U_00DFUNG
 62
     7
100
AcDb2dPolyline
 66
     1
 10
0.0
 20
0.0
 30
0.0
  0
VERTEX
  5
488
330
487
100
AcDbEntity
  8
BEMA_U_00DFUNG
 62
     7
100
AcDbVertex
100
AcDb2dVertex
 10
75.41595412611147
 20
228.6584198050316
 30
0.0
  0
VERTEX
  5
489
330
487
100
AcDbEntity
  8
BEMA_U_00DFUNG
 62
     7
100
AcDbVertex
100
AcDb2dVertex
 10
74.23132634862979
 20
228.6584198050316
 30
0.0
  0
SEQEND
  5
48A
330
487
100
AcDbEntity
  8
BEMA_U_00DFUNG
 62
     7
  0
POLYLINE
  5
48B
330
1F
100
AcDbEntity
  8
BEMA_U_00DFUNG
 62
     7
100
AcDb2dPolyline
 66
     1
 10
0.0
 20
0.0
 30
0.0
  0
VERTEX
  5
48C
330
48B
100
AcDbEntity
  8
BEMA_U_00DFUNG
 62
     7
100
AcDbVertex
100
AcDb2dVertex
 10
75.41595412611147
 20
228.6076198050442
 30
0.0
  0
VERTEX
  5
48D
330
48B
100
AcDbEntity
  8
BEMA_U_00DFUNG
 62
     7
100
AcDbVertex
100
AcDb2dVertex
 10
73.84538745983737
 20
228.6076198050442
 30
0.0
  0
SEQEND
  5
48E
330
48B
100
AcDbEntity
  8
BEMA_U_00DFUNG
 62
     7
  0
POLYLINE
  5
48F
330
1F
100
AcDbEntity
  8
BEMA_U_00DFUNG
 62
     7
100
AcDb2dPolyline
 66
     1
 10
0.0
 20
0.0
 30
0.0
  0
VERTEX
  5
490
330
48F
100
AcDbEntity
  8
BEMA_U_00DFUNG
 62
     7
100
AcDbVertex
100
AcDb2dVertex
 10
75.41595412611147
 20
228.5568198050572
 30
0.0
  0
VERTEX
  5
491
330
48F
100
AcDbEntity
  8
BEMA_U_00DFUNG
 62
     7
100
AcDbVertex
100
AcDb2dVertex
 10
73.45909579326718
 20
228.5568198050572
 30
0.0
  0
SEQEND
  5
492
330
48F
100
AcDbEntity
  8
BEMA_U_00DFUNG
 62
     7
  0
POLYLINE
  5
493
330
1F
100
AcDbEntity
  8
BEMA_U_00DFUNG
 62
     7
100
AcDb2dPolyline
 66
     1
 10
0.0
 20
0.0
 30
0.0
  0
VERTEX
  5
494
330
493
100
AcDbEntity
  8
BEMA_U_00DFUNG
 62
     7
100
AcDbVertex
100
AcDb2dVertex
 10
75.41595412611147
 20
228.5060198050698
 30
0.0
  0
VERTEX
  5
495
330
493
100
AcDbEntity
  8
BEMA_U_00DFUNG
 62
     7
100
AcDbVertex
100
AcDb2dVertex
 10
73.07315690447477
 20
228.5060198050698
 30
0.0
  0
SEQEND
  5
496
330
493
100
AcDbEntity
  8
BEMA_U_00DFUNG
 62
     7
  0
POLYLINE
  5
497
330
1F
100
AcDbEntity
  8
BEMA_U_00DFUNG
 62
     7
100
AcDb2dPolyline
 66
     1
 10
0.0
 20
0.0
 30
0.0
  0
VERTEX
  5
498
330
497
100
AcDbEntity
  8
BEMA_U_00DFUNG
 62
     7
100
AcDbVertex
100
AcDb2dVertex
 10
75.41595412611147
 20
228.4548670273049
 30
0.0
  0
VERTEX
  5
499
330
497
100
AcDbEntity
  8
BEMA_U_00DFUNG
 62
     7
100
AcDbVertex
100
AcDb2dVertex
 10
72.6875707934601
 20
228.4548670273049
 30
0.0
  0
SEQEND
  5
49A
330
497
100
AcDbEntity
  8
BEMA_U_00DFUNG
 62
     7
  0
POLYLINE
  5
49B
330
1F
100
AcDbEntity
  8
BEMA_U_00DFUNG
 62
     7
100
AcDb2dPolyline
 66
     1
 10
0.0
 20
0.0
 30
0.0
  0
VERTEX
  5
49C
330
49B
100
AcDbEntity
  8
BEMA_U_00DFUNG
 62
     7
100
AcDbVertex
100
AcDb2dVertex
 10
75.41595412611147
 20
228.4040670273176
 30
0.0
  0
VERTEX
  5
49D
330
49B
100
AcDbEntity
  8
BEMA_U_00DFUNG
 62
     7
100
AcDbVertex
100
AcDb2dVertex
 10
72.30198468244544
 20
228.4040670273176
 30
0.0
  0
SEQEND
  5
49E
330
49B
100
AcDbEntity
  8
BEMA_U_00DFUNG
 62
     7
  0
POLYLINE
  5
49F
330
1F
100
AcDbEntity
  8
BEMA_U_00DFUNG
 62
     7
100
AcDb2dPolyline
 66
     1
 10
0.0
 20
0.0
 30
0.0
  0
VERTEX
  5
4A0
330
49F
100
AcDbEntity
  8
BEMA_U_00DFUNG
 62
     7
100
AcDbVertex
100
AcDb2dVertex
 10
75.41595412611147
 20
228.3532670273302
 30
0.0
  0
VERTEX
  5
4A1
330
49F
100
AcDbEntity
  8
BEMA_U_00DFUNG
 62
     7
100
AcDbVertex
100
AcDb2dVertex
 10
71.91569301587526
 20
228.3532670273302
 30
0.0
  0
SEQEND
  5
4A2
330
49F
100
AcDbEntity
  8
BEMA_U_00DFUNG
 62
     7
  0
POLYLINE
  5
4A3
330
1F
100
AcDbEntity
  8
BEMA_U_00DFUNG
 62
     7
100
AcDb2dPolyline
 66
     1
 10
0.0
 20
0.0
 30
0.0
  0
VERTEX
  5
4A4
330
4A3
100
AcDbEntity
  8
BEMA_U_00DFUNG
 62
     7
100
AcDbVertex
100
AcDb2dVertex
 10
66.91577357268088
 20
228.3532670273302
 30
0.0
  0
VERTEX
  5
4A5
330
4A3
100
AcDbEntity
  8
BEMA_U_00DFUNG
 62
     7
100
AcDbVertex
100
AcDb2dVertex
 10
63.41551246244498
 20
228.8143475827707
 30
0.0
  0
VERTEX
  5
4A6
330
4A3
100
AcDbEntity
  8
BEMA_U_00DFUNG
 62
     7
100
AcDbVertex
100
AcDb2dVertex
 10
63.41551246244498
 20
227.8925392496674
 30
0.0
  0
VERTEX
  5
4A7
330
4A3
100
AcDbEntity
  8
BEMA_U_00DFUNG
 62
     7
100
AcDbVertex
100
AcDb2dVertex
 10
66.91577357268088
 20
228.3532670273302
 30
0.0
  0
SEQEND
  5
4A8
330
4A3
100
AcDbEntity
  8
BEMA_U_00DFUNG
 62
     7
  0
POLYLINE
  5
4A9
330
1F
100
AcDbEntity
  8
BEMA_U_00DFUNG
 62
     7
100
AcDb2dPolyline
 66
     1
 10
0.0
 20
0.0
 30
0.0
  0
VERTEX
  5
4AA
330
4A9
100
AcDbEntity
  8
BEMA_U_00DFUNG
 62
     7
100
AcDbVertex
100
AcDb2dVertex
 10
63.41551246244498
 20
228.8108198049937
 30
0.0
  0
VERTEX
  5
4AB
330
4A9
100
AcDbEntity
  8
BEMA_U_00DFUNG
 62
     7
100
AcDbVertex
100
AcDb2dVertex
 10
63.44267635132684
 20
228.8108198049937
 30
0.0
  0
SEQEND
  5
4AC
330
4A9
100
AcDbEntity
  8
BEMA_U_00DFUNG
 62
     7
  0
POLYLINE
  5
4AD
330
1F
100
AcDbEntity
  8
BEMA_U_00DFUNG
 62
     7
100
AcDb2dPolyline
 66
     1
 10
0.0
 20
0.0
 30
0.0
  0
VERTEX
  5
4AE
330
4AD
100
AcDbEntity
  8
BEMA_U_00DFUNG
 62
     7
100
AcDbVertex
100
AcDb2dVertex
 10
63.41551246244498
 20
228.8108198049937
 30
0.0
  0
VERTEX
  5
4AF
330
4AD
100
AcDbEntity
  8
BEMA_U_00DFUNG
 62
     7
100
AcDbVertex
100
AcDb2dVertex
 10
63.44267635132684
 20
228.8108198049937
 30
0.0
  0
SEQEND
  5
4B0
330
4AD
100
AcDbEntity
  8
BEMA_U_00DFUNG
 62
     7
  0
POLYLINE
  5
4B1
330
1F
100
AcDbEntity
  8
BEMA_U_00DFUNG
 62
     7
100
AcDb2dPolyline
 66
     1
 10
0.0
 20
0.0
 30
0.0
  0
VERTEX
  5
4B2
330
4B1
100
AcDbEntity
  8
BEMA_U_00DFUNG
 62
     7
100
AcDbVertex
100
AcDb2dVertex
 10
63.41551246244498
 20
228.7600198050064
 30
0.0
  0
VERTEX
  5
4B3
330
4B1
100
AcDbEntity
  8
BEMA_U_00DFUNG
 62
     7
100
AcDbVertex
100
AcDb2dVertex
 10
63.82896801789702
 20
228.7600198050064
 30
0.0
  0
SEQEND
  5
4B4
330
4B1
100
AcDbEntity
  8
BEMA_U_00DFUNG
 62
     7
  0
POLYLINE
  5
4B5
330
1F
100
AcDbEntity
  8
BEMA_U_00DFUNG
 62
     7
100
AcDb2dPolyline
 66
     1
 10
0.0
 20
0.0
 30
0.0
  0
VERTEX
  5
4B6
330
4B5
100
AcDbEntity
  8
BEMA_U_00DFUNG
 62
     7
100
AcDbVertex
100
AcDb2dVertex
 10
63.41551246244498
 20
228.709219805019
 30
0.0
  0
VERTEX
  5
4B7
330
4B5
100
AcDbEntity
  8
BEMA_U_00DFUNG
 62
     7
100
AcDbVertex
100
AcDb2dVertex
 10
64.21490690668944
 20
228.709219805019
 30
0.0
  0
SEQEND
  5
4B8
330
4B5
100
AcDbEntity
  8
BEMA_U_00DFUNG
 62
     7
  0
POLYLINE
  5
4B9
330
1F
100
AcDbEntity
  8
BEMA_U_00DFUNG
 62
     7
100
AcDb2dPolyline
 66
     1
 10
0.0
 20
0.0
 30
0.0
  0
VERTEX
  5
4BA
330
4B9
100
AcDbEntity
  8
BEMA_U_00DFUNG
 62
     7
100
AcDbVertex
100
AcDb2dVertex
 10
63.41551246244498
 20
228.6584198050316
 30
0.0
  0
VERTEX
  5
4BB
330
4B9
100
AcDbEntity
  8
BEMA_U_00DFUNG
 62
     7
100
AcDbVertex
100
AcDb2dVertex
 10
64.60084579548186
 20
228.6584198050316
 30
0.0
  0
SEQEND
  5
4BC
330
4B9
100
AcDbEntity
  8
BEMA_U_00DFUNG
 62
     7
  0
POLYLINE
  5
4BD
330
1F
100
AcDbEntity
  8
BEMA_U_00DFUNG
 62
     7
100
AcDb2dPolyline
 66
     1
 10
0.0
 20
0.0
 30
0.0
  0
VERTEX
  5
4BE
330
4BD
100
AcDbEntity
  8
BEMA_U_00DFUNG
 62
     7
100
AcDbVertex
100
AcDb2dVertex
 10
63.41551246244498
 20
228.6076198050442
 30
0.0
  0
VERTEX
  5
4BF
330
4BD
100
AcDbEntity
  8
BEMA_U_00DFUNG
 62
     7
100
AcDbVertex
100
AcDb2dVertex
 10
64.98643190649652
 20
228.6076198050442
 30
0.0
  0
SEQEND
  5
4C0
330
4BD
100
AcDbEntity
  8
BEMA_U_00DFUNG
 62
     7
  0
POLYLINE
  5
4C1
330
1F
100
AcDbEntity
  8
BEMA_U_00DFUNG
 62
     7
100
AcDb2dPolyline
 66
     1
 10
0.0
 20
0.0
 30
0.0
  0
VERTEX
  5
4C2
330
4C1
100
AcDbEntity
  8
BEMA_U_00DFUNG
 62
     7
100
AcDbVertex
100
AcDb2dVertex
 10
63.41551246244498
 20
228.5568198050572
 30
0.0
  0
VERTEX
  5
4C3
330
4C1
100
AcDbEntity
  8
BEMA_U_00DFUNG
 62
     7
100
AcDbVertex
100
AcDb2dVertex
 10
65.37237079528894
 20
228.5568198050572
 30
0.0
  0
SEQEND
  5
4C4
330
4C1
100
AcDbEntity
  8
BEMA_U_00DFUNG
 62
     7
  0
POLYLINE
  5
4C5
330
1F
100
AcDbEntity
  8
BEMA_U_00DFUNG
 62
     7
100
AcDb2dPolyline
 66
     1
 10
0.0
 20
0.0
 30
0.0
  0
VERTEX
  5
4C6
330
4C5
100
AcDbEntity
  8
BEMA_U_00DFUNG
 62
     7
100
AcDbVertex
100
AcDb2dVertex
 10
63.41551246244498
 20
228.5060198050698
 30
0.0
  0
VERTEX
  5
4C7
330
4C5
100
AcDbEntity
  8
BEMA_U_00DFUNG
 62
     7
100
AcDbVertex
100
AcDb2dVertex
 10
65.75830968408137
 20
228.5060198050698
 30
0.0
  0
SEQEND
  5
4C8
330
4C5
100
AcDbEntity
  8
BEMA_U_00DFUNG
 62
     7
  0
POLYLINE
  5
4C9
330
1F
100
AcDbEntity
  8
BEMA_U_00DFUNG
 62
     7
100
AcDb2dPolyline
 66
     1
 10
0.0
 20
0.0
 30
0.0
  0
VERTEX
  5
4CA
330
4C9
100
AcDbEntity
  8
BEMA_U_00DFUNG
 62
     7
100
AcDbVertex
100
AcDb2dVertex
 10
63.41551246244498
 20
228.4548670273049
 30
0.0
  0
VERTEX
  5
4CB
330
4C9
100
AcDbEntity
  8
BEMA_U_00DFUNG
 62
     7
100
AcDbVertex
100
AcDb2dVertex
 10
66.14424857287379
 20
228.4548670273049
 30
0.0
  0
SEQEND
  5
4CC
330
4C9
100
AcDbEntity
  8
BEMA_U_00DFUNG
 62
     7
  0
POLYLINE
  5
4CD
330
1F
100
AcDbEntity
  8
BEMA_U_00DFUNG
 62
     7
100
AcDb2dPolyline
 66
     1
 10
0.0
 20
0.0
 30
0.0
  0
VERTEX
  5
4CE
330
4CD
100
AcDbEntity
  8
BEMA_U_00DFUNG
 62
     7
100
AcDbVertex
100
AcDb2dVertex
 10
63.41551246244498
 20
228.4040670273176
 30
0.0
  0
VERTEX
  5
4CF
330
4CD
100
AcDbEntity
  8
BEMA_U_00DFUNG
 62
     7
100
AcDbVertex
100
AcDb2dVertex
 10
66.52983468388845
 20
228.4040670273176
 30
0.0
  0
SEQEND
  5
4D0
330
4CD
100
AcDbEntity
  8
BEMA_U_00DFUNG
 62
     7
  0
POLYLINE
  5
4D1
330
1F
100
AcDbEntity
  8
BEMA_U_00DFUNG
 62
     7
100
AcDb2dPolyline
 66
     1
 10
0.0
 20
0.0
 30
0.0
  0
VERTEX
  5
4D2
330
4D1
100
AcDbEntity
  8
BEMA_U_00DFUNG
 62
     7
100
AcDbVertex
100
AcDb2dVertex
 10
63.41551246244498
 20
228.3532670273302
 30
0.0
  0
VERTEX
  5
4D3
330
4D1
100
AcDbEntity
  8
BEMA_U_00DFUNG
 62
     7
100
AcDbVertex
100
AcDb2dVertex
 10
66.91577357268088
 20
228.3532670273302
 30
0.0
  0
SEQEND
  5
4D4
330
4D1
100
AcDbEntity
  8
BEMA_U_00DFUNG
 62
     7
  0
POLYLINE
  5
4D5
330
1F
100
AcDbEntity
  8
BEMA_U_00DFUNG
 62
     7
100
AcDb2dPolyline
 66
     1
 10
0.0
 20
0.0
 30
0.0
  0
VERTEX
  5
4D6
330
4D5
100
AcDbEntity
  8
BEMA_U_00DFUNG
 62
     7
100
AcDbVertex
100
AcDb2dVertex
 10
63.41551246244498
 20
227.8964198052221
 30
0.0
  0
VERTEX
  5
4D7
330
4D5
100
AcDbEntity
  8
BEMA_U_00DFUNG
 62
     7
100
AcDbVertex
100
AcDb2dVertex
 10
63.44267635132684
 20
227.8964198052221
 30
0.0
  0
SEQEND
  5
4D8
330
4D5
100
AcDbEntity
  8
BEMA_U_00DFUNG
 62
     7
  0
POLYLINE
  5
4D9
330
1F
100
AcDbEntity
  8
BEMA_U_00DFUNG
 62
     7
100
AcDb2dPolyline
 66
     1
 10
0.0
 20
0.0
 30
0.0
  0
VERTEX
  5
4DA
330
4D9
100
AcDbEntity
  8
BEMA_U_00DFUNG
 62
     7
100
AcDbVertex
100
AcDb2dVertex
 10
63.41551246244498
 20
227.8964198052221
 30
0.0
  0
VERTEX
  5
4DB
330
4D9
100
AcDbEntity
  8
BEMA_U_00DFUNG
 62
     7
100
AcDbVertex
100
AcDb2dVertex
 10
63.44267635132684
 20
227.8964198052221
 30
0.0
  0
SEQEND
  5
4DC
330
4D9
100
AcDbEntity
  8
BEMA_U_00DFUNG
 62
     7
  0
POLYLINE
  5
4DD
330
1F
100
AcDbEntity
  8
BEMA_U_00DFUNG
 62
     7
100
AcDb2dPolyline
 66
     1
 10
0.0
 20
0.0
 30
0.0
  0
VERTEX
  5
4DE
330
4DD
100
AcDbEntity
  8
BEMA_U_00DFUNG
 62
     7
100
AcDbVertex
100
AcDb2dVertex
 10
63.41551246244498
 20
227.9472198052095
 30
0.0
  0
VERTEX
  5
4DF
330
4DD
100
AcDbEntity
  8
BEMA_U_00DFUNG
 62
     7
100
AcDbVertex
100
AcDb2dVertex
 10
63.82896801789702
 20
227.9472198052095
 30
0.0
  0
SEQEND
  5
4E0
330
4DD
100
AcDbEntity
  8
BEMA_U_00DFUNG
 62
     7
  0
POLYLINE
  5
4E1
330
1F
100
AcDbEntity
  8
BEMA_U_00DFUNG
 62
     7
100
AcDb2dPolyline
 66
     1
 10
0.0
 20
0.0
 30
0.0
  0
VERTEX
  5
4E2
330
4E1
100
AcDbEntity
  8
BEMA_U_00DFUNG
 62
     7
100
AcDbVertex
100
AcDb2dVertex
 10
63.41551246244498
 20
227.9976670274191
 30
0.0
  0
VERTEX
  5
4E3
330
4E1
100
AcDbEntity
  8
BEMA_U_00DFUNG
 62
     7
100
AcDbVertex
100
AcDb2dVertex
 10
64.21490690668944
 20
227.9976670274191
 30
0.0
  0
SEQEND
  5
4E4
330
4E1
100
AcDbEntity
  8
BEMA_U_00DFUNG
 62
     7
  0
POLYLINE
  5
4E5
330
1F
100
AcDbEntity
  8
BEMA_U_00DFUNG
 62
     7
100
AcDb2dPolyline
 66
     1
 10
0.0
 20
0.0
 30
0.0
  0
VERTEX
  5
4E6
330
4E5
100
AcDbEntity
  8
BEMA_U_00DFUNG
 62
     7
100
AcDbVertex
100
AcDb2dVertex
 10
63.41551246244498
 20
228.0484670274065
 30
0.0
  0
VERTEX
  5
4E7
330
4E5
100
AcDbEntity
  8
BEMA_U_00DFUNG
 62
     7
100
AcDbVertex
100
AcDb2dVertex
 10
64.60084579548186
 20
228.0484670274065
 30
0.0
  0
SEQEND
  5
4E8
330
4E5
100
AcDbEntity
  8
BEMA_U_00DFUNG
 62
     7
  0
POLYLINE
  5
4E9
330
1F
100
AcDbEntity
  8
BEMA_U_00DFUNG
 62
     7
100
AcDb2dPolyline
 66
     1
 10
0.0
 20
0.0
 30
0.0
  0
VERTEX
  5
4EA
330
4E9
100
AcDbEntity
  8
BEMA_U_00DFUNG
 62
     7
100
AcDbVertex
100
AcDb2dVertex
 10
63.41551246244498
 20
228.0992670273939
 30
0.0
  0
VERTEX
  5
4EB
330
4E9
100
AcDbEntity
  8
BEMA_U_00DFUNG
 62
     7
100
AcDbVertex
100
AcDb2dVertex
 10
64.98643190649652
 20
228.0992670273939
 30
0.0
  0
SEQEND
  5
4EC
330
4E9
100
AcDbEntity
  8
BEMA_U_00DFUNG
 62
     7
  0
POLYLINE
  5
4ED
330
1F
100
AcDbEntity
  8
BEMA_U_00DFUNG
 62
     7
100
AcDb2dPolyline
 66
     1
 10
0.0
 20
0.0
 30
0.0
  0
VERTEX
  5
4EE
330
4ED
100
AcDbEntity
  8
BEMA_U_00DFUNG
 62
     7
100
AcDbVertex
100
AcDb2dVertex
 10
63.41551246244498
 20
228.150067027381
 30
0.0
  0
VERTEX
  5
4EF
330
4ED
100
AcDbEntity
  8
BEMA_U_00DFUNG
 62
     7
100
AcDbVertex
100
AcDb2dVertex
 10
65.37237079528894
 20
228.150067027381
 30
0.0
  0
SEQEND
  5
4F0
330
4ED
100
AcDbEntity
  8
BEMA_U_00DFUNG
 62
     7
  0
POLYLINE
  5
4F1
330
1F
100
AcDbEntity
  8
BEMA_U_00DFUNG
 62
     7
100
AcDb2dPolyline
 66
     1
 10
0.0
 20
0.0
 30
0.0
  0
VERTEX
  5
4F2
330
4F1
100
AcDbEntity
  8
BEMA_U_00DFUNG
 62
     7
100
AcDbVertex
100
AcDb2dVertex
 10
63.41551246244498
 20
228.2008670273684
 30
0.0
  0
VERTEX
  5
4F3
330
4F1
100
AcDbEntity
  8
BEMA_U_00DFUNG
 62
     7
100
AcDbVertex
100
AcDb2dVertex
 10
65.75830968408137
 20
228.2008670273684
 30
0.0
  0
SEQEND
  5
4F4
330
4F1
100
AcDbEntity
  8
BEMA_U_00DFUNG
 62
     7
  0
POLYLINE
  5
4F5
330
1F
100
AcDbEntity
  8
BEMA_U_00DFUNG
 62
     7
100
AcDb2dPolyline
 66
     1
 10
0.0
 20
0.0
 30
0.0
  0
VERTEX
  5
4F6
330
4F5
100
AcDbEntity
  8
BEMA_U_00DFUNG
 62
     7
100
AcDbVertex
100
AcDb2dVertex
 10
63.41551246244498
 20
228.2516670273554
 30
0.0
  0
VERTEX
  5
4F7
330
4F5
100
AcDbEntity
  8
BEMA_U_00DFUNG
 62
     7
100
AcDbVertex
100
AcDb2dVertex
 10
66.14424857287379
 20
228.2516670273554
 30
0.0
  0
SEQEND
  5
4F8
330
4F5
100
AcDbEntity
  8
BEMA_U_00DFUNG
 62
     7
  0
POLYLINE
  5
4F9
330
1F
100
AcDbEntity
  8
BEMA_U_00DFUNG
 62
     7
100
AcDb2dPolyline
 66
     1
 10
0.0
 20
0.0
 30
0.0
  0
VERTEX
  5
4FA
330
4F9
100
AcDbEntity
  8
BEMA_U_00DFUNG
 62
     7
100
AcDbVertex
100
AcDb2dVertex
 10
63.41551246244498
 20
228.3024670273428
 30
0.0
  0
VERTEX
  5
4FB
330
4F9
100
AcDbEntity
  8
BEMA_U_00DFUNG
 62
     7
100
AcDbVertex
100
AcDb2dVertex
 10
66.52983468388845
 20
228.3024670273428
 30
0.0
  0
SEQEND
  5
4FC
330
4F9
100
AcDbEntity
  8
BEMA_U_00DFUNG
 62
     7
  0
POLYLINE
  5
4FD
330
1F
100
AcDbEntity
  8
BEMA_U_00DFUNG
 62
     7
100
AcDb2dPolyline
 66
     1
 10
0.0
 20
0.0
 30
0.0
  0
VERTEX
  5
4FE
330
4FD
100
AcDbEntity
  8
BEMA_U_00DFUNG
 62
     7
100
AcDbVertex
100
AcDb2dVertex
 10
63.41551246244498
 20
228.3532670273302
 30
0.0
  0
VERTEX
  5
4FF
330
4FD
100
AcDbEntity
  8
BEMA_U_00DFUNG
 62
     7
100
AcDbVertex
100
AcDb2dVertex
 10
66.91577357268088
 20
228.3532670273302
 30
0.0
  0
SEQEND
  5
500
330
4FD
100
AcDbEntity
  8
BEMA_U_00DFUNG
 62
     7
  0
POLYLINE
  5
501
330
1F
100
AcDbEntity
  8
BEMA_U_00DFUNG
 62
     7
100
AcDb2dPolyline
 66
     1
 10
0.0
 20
0.0
 30
0.0
  0
VERTEX
  5
502
330
501
100
AcDbEntity
  8
BEMA_U_00DFUNG
 62
     7
100
AcDbVertex
100
AcDb2dVertex
 10
66.91577357268088
 20
217.3533031411911
 30
0.0
  0
VERTEX
  5
503
330
501
100
AcDbEntity
  8
BEMA_U_00DFUNG
 62
     7
100
AcDbVertex
100
AcDb2dVertex
 10
66.91577357268088
 20
240.3530031354412
 30
0.0
  0
SEQEND
  5
504
330
501
100
AcDbEntity
  8
BEMA_U_00DFUNG
 62
     7
  0
POLYLINE
  5
505
330
1F
100
AcDbEntity
  8
BEMA_U_00DFUNG
 62
     7
100
AcDb2dPolyline
 66
     1
 10
0.0
 20
0.0
 30
0.0
  0
VERTEX
  5
506
330
505
100
AcDbEntity
  8
BEMA_U_00DFUNG
 62
     7
100
AcDbVertex
100
AcDb2dVertex
 10
79.41610134733364
 20
216.4244392525345
 30
0.0
  0
VERTEX
  5
507
330
505
100
AcDbEntity
  8
BEMA_U_00DFUNG
 62
     7
100
AcDbVertex
100
AcDb2dVertex
 10
79.41610134733364
 20
240.3530031354412
 30
0.0
  0
SEQEND
  5
508
330
505
100
AcDbEntity
  8
BEMA_U_00DFUNG
 62
     7
  0
POLYLINE
  5
509
330
1F
100
AcDbEntity
  8
BEMA_U_00DFUNG
 62
     7
100
AcDb2dPolyline
 66
     1
 10
0.0
 20
0.0
 30
0.0
  0
VERTEX
  5
50A
330
509
100
AcDbEntity
  8
BEMA_U_00DFUNG
 62
     7
100
AcDbVertex
100
AcDb2dVertex
 10
66.91577357268088
 20
238.353105913719
 30
0.0
  0
VERTEX
  5
50B
330
509
100
AcDbEntity
  8
BEMA_U_00DFUNG
 62
     7
100
AcDbVertex
100
AcDb2dVertex
 10
79.41610134733364
 20
238.353105913719
 30
0.0
  0
SEQEND
  5
50C
330
509
100
AcDbEntity
  8
BEMA_U_00DFUNG
 62
     7
  0
POLYLINE
  5
50D
330
1F
100
AcDbEntity
  8
BEMA_U_00DFUNG
 62
     7
100
AcDb2dPolyline
 66
     1
 10
0.0
 20
0.0
 30
0.0
  0
VERTEX
  5
50E
330
50D
100
AcDbEntity
  8
BEMA_U_00DFUNG
 62
     7
100
AcDbVertex
100
AcDb2dVertex
 10
66.91577357268088
 20
238.353105913719
 30
0.0
  0
VERTEX
  5
50F
330
50D
100
AcDbEntity
  8
BEMA_U_00DFUNG
 62
     7
100
AcDbVertex
100
AcDb2dVertex
 10
70.41603468291709
 20
237.8923781360565
 30
0.0
  0
VERTEX
  5
510
330
50D
100
AcDbEntity
  8
BEMA_U_00DFUNG
 62
     7
100
AcDbVertex
100
AcDb2dVertex
 10
70.41603468291709
 20
238.8141864691595
 30
0.0
  0
VERTEX
  5
511
330
50D
100
AcDbEntity
  8
BEMA_U_00DFUNG
 62
     7
100
AcDbVertex
100
AcDb2dVertex
 10
66.91577357268088
 20
238.353105913719
 30
0.0
  0
SEQEND
  5
512
330
50D
100
AcDbEntity
  8
BEMA_U_00DFUNG
 62
     7
  0
POLYLINE
  5
513
330
1F
100
AcDbEntity
  8
BEMA_U_00DFUNG
 62
     7
100
AcDb2dPolyline
 66
     1
 10
0.0
 20
0.0
 30
0.0
  0
VERTEX
  5
514
330
513
100
AcDbEntity
  8
BEMA_U_00DFUNG
 62
     7
100
AcDbVertex
100
AcDb2dVertex
 10
70.41603468291709
 20
237.8962586916109
 30
0.0
  0
VERTEX
  5
515
330
513
100
AcDbEntity
  8
BEMA_U_00DFUNG
 62
     7
100
AcDbVertex
100
AcDb2dVertex
 10
70.38887079403491
 20
237.8962586916109
 30
0.0
  0
SEQEND
  5
516
330
513
100
AcDbEntity
  8
BEMA_U_00DFUNG
 62
     7
  0
POLYLINE
  5
517
330
1F
100
AcDbEntity
  8
BEMA_U_00DFUNG
 62
     7
100
AcDb2dPolyline
 66
     1
 10
0.0
 20
0.0
 30
0.0
  0
VERTEX
  5
518
330
517
100
AcDbEntity
  8
BEMA_U_00DFUNG
 62
     7
100
AcDbVertex
100
AcDb2dVertex
 10
70.41603468291709
 20
237.8962586916109
 30
0.0
  0
VERTEX
  5
519
330
517
100
AcDbEntity
  8
BEMA_U_00DFUNG
 62
     7
100
AcDbVertex
100
AcDb2dVertex
 10
70.38887079403491
 20
237.8962586916109
 30
0.0
  0
SEQEND
  5
51A
330
517
100
AcDbEntity
  8
BEMA_U_00DFUNG
 62
     7
  0
POLYLINE
  5
51B
330
1F
100
AcDbEntity
  8
BEMA_U_00DFUNG
 62
     7
100
AcDb2dPolyline
 66
     1
 10
0.0
 20
0.0
 30
0.0
  0
VERTEX
  5
51C
330
51B
100
AcDbEntity
  8
BEMA_U_00DFUNG
 62
     7
100
AcDbVertex
100
AcDb2dVertex
 10
70.41603468291709
 20
237.9467059138205
 30
0.0
  0
VERTEX
  5
51D
330
51B
100
AcDbEntity
  8
BEMA_U_00DFUNG
 62
     7
100
AcDbVertex
100
AcDb2dVertex
 10
70.00257912746473
 20
237.9467059138205
 30
0.0
  0
SEQEND
  5
51E
330
51B
100
AcDbEntity
  8
BEMA_U_00DFUNG
 62
     7
  0
POLYLINE
  5
51F
330
1F
100
AcDbEntity
  8
BEMA_U_00DFUNG
 62
     7
100
AcDb2dPolyline
 66
     1
 10
0.0
 20
0.0
 30
0.0
  0
VERTEX
  5
520
330
51F
100
AcDbEntity
  8
BEMA_U_00DFUNG
 62
     7
100
AcDbVertex
100
AcDb2dVertex
 10
70.41603468291709
 20
237.9975059138079
 30
0.0
  0
VERTEX
  5
521
330
51F
100
AcDbEntity
  8
BEMA_U_00DFUNG
 62
     7
100
AcDbVertex
100
AcDb2dVertex
 10
69.6166402386723
 20
237.9975059138079
 30
0.0
  0
SEQEND
  5
522
330
51F
100
AcDbEntity
  8
BEMA_U_00DFUNG
 62
     7
  0
POLYLINE
  5
523
330
1F
100
AcDbEntity
  8
BEMA_U_00DFUNG
 62
     7
100
AcDb2dPolyline
 66
     1
 10
0.0
 20
0.0
 30
0.0
  0
VERTEX
  5
524
330
523
100
AcDbEntity
  8
BEMA_U_00DFUNG
 62
     7
100
AcDbVertex
100
AcDb2dVertex
 10
70.41603468291709
 20
238.0483059137953
 30
0.0
  0
VERTEX
  5
525
330
523
100
AcDbEntity
  8
BEMA_U_00DFUNG
 62
     7
100
AcDbVertex
100
AcDb2dVertex
 10
69.23105412765764
 20
238.0483059137953
 30
0.0
  0
SEQEND
  5
526
330
523
100
AcDbEntity
  8
BEMA_U_00DFUNG
 62
     7
  0
POLYLINE
  5
527
330
1F
100
AcDbEntity
  8
BEMA_U_00DFUNG
 62
     7
100
AcDb2dPolyline
 66
     1
 10
0.0
 20
0.0
 30
0.0
  0
VERTEX
  5
528
330
527
100
AcDbEntity
  8
BEMA_U_00DFUNG
 62
     7
100
AcDbVertex
100
AcDb2dVertex
 10
70.41603468291709
 20
238.0991059137827
 30
0.0
  0
VERTEX
  5
529
330
527
100
AcDbEntity
  8
BEMA_U_00DFUNG
 62
     7
100
AcDbVertex
100
AcDb2dVertex
 10
68.84511523886522
 20
238.0991059137827
 30
0.0
  0
SEQEND
  5
52A
330
527
100
AcDbEntity
  8
BEMA_U_00DFUNG
 62
     7
  0
POLYLINE
  5
52B
330
1F
100
AcDbEntity
  8
BEMA_U_00DFUNG
 62
     7
100
AcDb2dPolyline
 66
     1
 10
0.0
 20
0.0
 30
0.0
  0
VERTEX
  5
52C
330
52B
100
AcDbEntity
  8
BEMA_U_00DFUNG
 62
     7
100
AcDbVertex
100
AcDb2dVertex
 10
70.41603468291709
 20
238.1499059137701
 30
0.0
  0
VERTEX
  5
52D
330
52B
100
AcDbEntity
  8
BEMA_U_00DFUNG
 62
     7
100
AcDbVertex
100
AcDb2dVertex
 10
68.4591763500728
 20
238.1499059137701
 30
0.0
  0
SEQEND
  5
52E
330
52B
100
AcDbEntity
  8
BEMA_U_00DFUNG
 62
     7
  0
POLYLINE
  5
52F
330
1F
100
AcDbEntity
  8
BEMA_U_00DFUNG
 62
     7
100
AcDb2dPolyline
 66
     1
 10
0.0
 20
0.0
 30
0.0
  0
VERTEX
  5
530
330
52F
100
AcDbEntity
  8
BEMA_U_00DFUNG
 62
     7
100
AcDbVertex
100
AcDb2dVertex
 10
70.41603468291709
 20
238.2007059137574
 30
0.0
  0
VERTEX
  5
531
330
52F
100
AcDbEntity
  8
BEMA_U_00DFUNG
 62
     7
100
AcDbVertex
100
AcDb2dVertex
 10
68.07323746128039
 20
238.2007059137574
 30
0.0
  0
SEQEND
  5
532
330
52F
100
AcDbEntity
  8
BEMA_U_00DFUNG
 62
     7
  0
POLYLINE
  5
533
330
1F
100
AcDbEntity
  8
BEMA_U_00DFUNG
 62
     7
100
AcDb2dPolyline
 66
     1
 10
0.0
 20
0.0
 30
0.0
  0
VERTEX
  5
534
330
533
100
AcDbEntity
  8
BEMA_U_00DFUNG
 62
     7
100
AcDbVertex
100
AcDb2dVertex
 10
70.41603468291709
 20
238.2515059137445
 30
0.0
  0
VERTEX
  5
535
330
533
100
AcDbEntity
  8
BEMA_U_00DFUNG
 62
     7
100
AcDbVertex
100
AcDb2dVertex
 10
67.68765135026572
 20
238.2515059137445
 30
0.0
  0
SEQEND
  5
536
330
533
100
AcDbEntity
  8
BEMA_U_00DFUNG
 62
     7
  0
POLYLINE
  5
537
330
1F
100
AcDbEntity
  8
BEMA_U_00DFUNG
 62
     7
100
AcDb2dPolyline
 66
     1
 10
0.0
 20
0.0
 30
0.0
  0
VERTEX
  5
538
330
537
100
AcDbEntity
  8
BEMA_U_00DFUNG
 62
     7
100
AcDbVertex
100
AcDb2dVertex
 10
70.41603468291709
 20
238.3023059137319
 30
0.0
  0
VERTEX
  5
539
330
537
100
AcDbEntity
  8
BEMA_U_00DFUNG
 62
     7
100
AcDbVertex
100
AcDb2dVertex
 10
67.3017124614733
 20
238.3023059137319
 30
0.0
  0
SEQEND
  5
53A
330
537
100
AcDbEntity
  8
BEMA_U_00DFUNG
 62
     7
  0
POLYLINE
  5
53B
330
1F
100
AcDbEntity
  8
BEMA_U_00DFUNG
 62
     7
100
AcDb2dPolyline
 66
     1
 10
0.0
 20
0.0
 30
0.0
  0
VERTEX
  5
53C
330
53B
100
AcDbEntity
  8
BEMA_U_00DFUNG
 62
     7
100
AcDbVertex
100
AcDb2dVertex
 10
70.41603468291709
 20
238.353105913719
 30
0.0
  0
VERTEX
  5
53D
330
53B
100
AcDbEntity
  8
BEMA_U_00DFUNG
 62
     7
100
AcDbVertex
100
AcDb2dVertex
 10
66.91577357268088
 20
238.353105913719
 30
0.0
  0
SEQEND
  5
53E
330
53B
100
AcDbEntity
  8
BEMA_U_00DFUNG
 62
     7
  0
POLYLINE
  5
53F
330
1F
100
AcDbEntity
  8
BEMA_U_00DFUNG
 62
     7
100
AcDb2dPolyline
 66
     1
 10
0.0
 20
0.0
 30
0.0
  0
VERTEX
  5
540
330
53F
100
AcDbEntity
  8
BEMA_U_00DFUNG
 62
     7
100
AcDbVertex
100
AcDb2dVertex
 10
70.41603468291709
 20
238.8106586913825
 30
0.0
  0
VERTEX
  5
541
330
53F
100
AcDbEntity
  8
BEMA_U_00DFUNG
 62
     7
100
AcDbVertex
100
AcDb2dVertex
 10
70.38887079403491
 20
238.8106586913825
 30
0.0
  0
SEQEND
  5
542
330
53F
100
AcDbEntity
  8
BEMA_U_00DFUNG
 62
     7
  0
POLYLINE
  5
543
330
1F
100
AcDbEntity
  8
BEMA_U_00DFUNG
 62
     7
100
AcDb2dPolyline
 66
     1
 10
0.0
 20
0.0
 30
0.0
  0
VERTEX
  5
544
330
543
100
AcDbEntity
  8
BEMA_U_00DFUNG
 62
     7
100
AcDbVertex
100
AcDb2dVertex
 10
70.41603468291709
 20
238.8106586913825
 30
0.0
  0
VERTEX
  5
545
330
543
100
AcDbEntity
  8
BEMA_U_00DFUNG
 62
     7
100
AcDbVertex
100
AcDb2dVertex
 10
70.38887079403491
 20
238.8106586913825
 30
0.0
  0
SEQEND
  5
546
330
543
100
AcDbEntity
  8
BEMA_U_00DFUNG
 62
     7
  0
POLYLINE
  5
547
330
1F
100
AcDbEntity
  8
BEMA_U_00DFUNG
 62
     7
100
AcDb2dPolyline
 66
     1
 10
0.0
 20
0.0
 30
0.0
  0
VERTEX
  5
548
330
547
100
AcDbEntity
  8
BEMA_U_00DFUNG
 62
     7
100
AcDbVertex
100
AcDb2dVertex
 10
70.41603468291709
 20
238.7598586913951
 30
0.0
  0
VERTEX
  5
549
330
547
100
AcDbEntity
  8
BEMA_U_00DFUNG
 62
     7
100
AcDbVertex
100
AcDb2dVertex
 10
70.00257912746473
 20
238.7598586913951
 30
0.0
  0
SEQEND
  5
54A
330
547
100
AcDbEntity
  8
BEMA_U_00DFUNG
 62
     7
  0
POLYLINE
  5
54B
330
1F
100
AcDbEntity
  8
BEMA_U_00DFUNG
 62
     7
100
AcDb2dPolyline
 66
     1
 10
0.0
 20
0.0
 30
0.0
  0
VERTEX
  5
54C
330
54B
100
AcDbEntity
  8
BEMA_U_00DFUNG
 62
     7
100
AcDbVertex
100
AcDb2dVertex
 10
70.41603468291709
 20
238.7090586914077
 30
0.0
  0
VERTEX
  5
54D
330
54B
100
AcDbEntity
  8
BEMA_U_00DFUNG
 62
     7
100
AcDbVertex
100
AcDb2dVertex
 10
69.6166402386723
 20
238.7090586914077
 30
0.0
  0
SEQEND
  5
54E
330
54B
100
AcDbEntity
  8
BEMA_U_00DFUNG
 62
     7
  0
POLYLINE
  5
54F
330
1F
100
AcDbEntity
  8
BEMA_U_00DFUNG
 62
     7
100
AcDb2dPolyline
 66
     1
 10
0.0
 20
0.0
 30
0.0
  0
VERTEX
  5
550
330
54F
100
AcDbEntity
  8
BEMA_U_00DFUNG
 62
     7
100
AcDbVertex
100
AcDb2dVertex
 10
70.41603468291709
 20
238.6582586914207
 30
0.0
  0
VERTEX
  5
551
330
54F
100
AcDbEntity
  8
BEMA_U_00DFUNG
 62
     7
100
AcDbVertex
100
AcDb2dVertex
 10
69.23105412765764
 20
238.6582586914207
 30
0.0
  0
SEQEND
  5
552
330
54F
100
AcDbEntity
  8
BEMA_U_00DFUNG
 62
     7
  0
POLYLINE
  5
553
330
1F
100
AcDbEntity
  8
BEMA_U_00DFUNG
 62
     7
100
AcDb2dPolyline
 66
     1
 10
0.0
 20
0.0
 30
0.0
  0
VERTEX
  5
554
330
553
100
AcDbEntity
  8
BEMA_U_00DFUNG
 62
     7
100
AcDbVertex
100
AcDb2dVertex
 10
70.41603468291709
 20
238.6074586914333
 30
0.0
  0
VERTEX
  5
555
330
553
100
AcDbEntity
  8
BEMA_U_00DFUNG
 62
     7
100
AcDbVertex
100
AcDb2dVertex
 10
68.84511523886522
 20
238.6074586914333
 30
0.0
  0
SEQEND
  5
556
330
553
100
AcDbEntity
  8
BEMA_U_00DFUNG
 62
     7
  0
POLYLINE
  5
557
330
1F
100
AcDbEntity
  8
BEMA_U_00DFUNG
 62
     7
100
AcDb2dPolyline
 66
     1
 10
0.0
 20
0.0
 30
0.0
  0
VERTEX
  5
558
330
557
100
AcDbEntity
  8
BEMA_U_00DFUNG
 62
     7
100
AcDbVertex
100
AcDb2dVertex
 10
70.41603468291709
 20
238.5566586914462
 30
0.0
  0
VERTEX
  5
559
330
557
100
AcDbEntity
  8
BEMA_U_00DFUNG
 62
     7
100
AcDbVertex
100
AcDb2dVertex
 10
68.4591763500728
 20
238.5566586914462
 30
0.0
  0
SEQEND
  5
55A
330
557
100
AcDbEntity
  8
BEMA_U_00DFUNG
 62
     7
  0
POLYLINE
  5
55B
330
1F
100
AcDbEntity
  8
BEMA_U_00DFUNG
 62
     7
100
AcDb2dPolyline
 66
     1
 10
0.0
 20
0.0
 30
0.0
  0
VERTEX
  5
55C
330
55B
100
AcDbEntity
  8
BEMA_U_00DFUNG
 62
     7
100
AcDbVertex
100
AcDb2dVertex
 10
70.41603468291709
 20
238.5058586914589
 30
0.0
  0
VERTEX
  5
55D
330
55B
100
AcDbEntity
  8
BEMA_U_00DFUNG
 62
     7
100
AcDbVertex
100
AcDb2dVertex
 10
68.07323746128039
 20
238.5058586914589
 30
0.0
  0
SEQEND
  5
55E
330
55B
100
AcDbEntity
  8
BEMA_U_00DFUNG
 62
     7
  0
POLYLINE
  5
55F
330
1F
100
AcDbEntity
  8
BEMA_U_00DFUNG
 62
     7
100
AcDb2dPolyline
 66
     1
 10
0.0
 20
0.0
 30
0.0
  0
VERTEX
  5
560
330
55F
100
AcDbEntity
  8
BEMA_U_00DFUNG
 62
     7
100
AcDbVertex
100
AcDb2dVertex
 10
70.41603468291709
 20
238.4547059136937
 30
0.0
  0
VERTEX
  5
561
330
55F
100
AcDbEntity
  8
BEMA_U_00DFUNG
 62
     7
100
AcDbVertex
100
AcDb2dVertex
 10
67.68765135026572
 20
238.4547059136937
 30
0.0
  0
SEQEND
  5
562
330
55F
100
AcDbEntity
  8
BEMA_U_00DFUNG
 62
     7
  0
POLYLINE
  5
563
330
1F
100
AcDbEntity
  8
BEMA_U_00DFUNG
 62
     7
100
AcDb2dPolyline
 66
     1
 10
0.0
 20
0.0
 30
0.0
  0
VERTEX
  5
564
330
563
100
AcDbEntity
  8
BEMA_U_00DFUNG
 62
     7
100
AcDbVertex
100
AcDb2dVertex
 10
70.41603468291709
 20
238.4039059137063
 30
0.0
  0
VERTEX
  5
565
330
563
100
AcDbEntity
  8
BEMA_U_00DFUNG
 62
     7
100
AcDbVertex
100
AcDb2dVertex
 10
67.3017124614733
 20
238.4039059137063
 30
0.0
  0
SEQEND
  5
566
330
563
100
AcDbEntity
  8
BEMA_U_00DFUNG
 62
     7
  0
POLYLINE
  5
567
330
1F
100
AcDbEntity
  8
BEMA_U_00DFUNG
 62
     7
100
AcDb2dPolyline
 66
     1
 10
0.0
 20
0.0
 30
0.0
  0
VERTEX
  5
568
330
567
100
AcDbEntity
  8
BEMA_U_00DFUNG
 62
     7
100
AcDbVertex
100
AcDb2dVertex
 10
70.41603468291709
 20
238.353105913719
 30
0.0
  0
VERTEX
  5
569
330
567
100
AcDbEntity
  8
BEMA_U_00DFUNG
 62
     7
100
AcDbVertex
100
AcDb2dVertex
 10
66.91577357268088
 20
238.353105913719
 30
0.0
  0
SEQEND
  5
56A
330
567
100
AcDbEntity
  8
BEMA_U_00DFUNG
 62
     7
  0
POLYLINE
  5
56B
330
1F
100
AcDbEntity
  8
BEMA_U_00DFUNG
 62
     7
100
AcDb2dPolyline
 66
     1
 10
0.0
 20
0.0
 30
0.0
  0
VERTEX
  5
56C
330
56B
100
AcDbEntity
  8
BEMA_U_00DFUNG
 62
     7
100
AcDbVertex
100
AcDb2dVertex
 10
79.41610134733364
 20
238.353105913719
 30
0.0
  0
VERTEX
  5
56D
330
56B
100
AcDbEntity
  8
BEMA_U_00DFUNG
 62
     7
100
AcDbVertex
100
AcDb2dVertex
 10
75.91584023709743
 20
238.8141864691595
 30
0.0
  0
VERTEX
  5
56E
330
56B
100
AcDbEntity
  8
BEMA_U_00DFUNG
 62
     7
100
AcDbVertex
100
AcDb2dVertex
 10
75.91584023709743
 20
237.8923781360565
 30
0.0
  0
VERTEX
  5
56F
330
56B
100
AcDbEntity
  8
BEMA_U_00DFUNG
 62
     7
100
AcDbVertex
100
AcDb2dVertex
 10
79.41610134733364
 20
238.353105913719
 30
0.0
  0
SEQEND
  5
570
330
56B
100
AcDbEntity
  8
BEMA_U_00DFUNG
 62
     7
  0
POLYLINE
  5
571
330
1F
100
AcDbEntity
  8
BEMA_U_00DFUNG
 62
     7
100
AcDb2dPolyline
 66
     1
 10
0.0
 20
0.0
 30
0.0
  0
VERTEX
  5
572
330
571
100
AcDbEntity
  8
BEMA_U_00DFUNG
 62
     7
100
AcDbVertex
100
AcDb2dVertex
 10
75.91584023709743
 20
238.8106586913825
 30
0.0
  0
VERTEX
  5
573
330
571
100
AcDbEntity
  8
BEMA_U_00DFUNG
 62
     7
100
AcDbVertex
100
AcDb2dVertex
 10
75.9430041259796
 20
238.8106586913825
 30
0.0
  0
SEQEND
  5
574
330
571
100
AcDbEntity
  8
BEMA_U_00DFUNG
 62
     7
  0
POLYLINE
  5
575
330
1F
100
AcDbEntity
  8
BEMA_U_00DFUNG
 62
     7
100
AcDb2dPolyline
 66
     1
 10
0.0
 20
0.0
 30
0.0
  0
VERTEX
  5
576
330
575
100
AcDbEntity
  8
BEMA_U_00DFUNG
 62
     7
100
AcDbVertex
100
AcDb2dVertex
 10
75.91584023709743
 20
238.8106586913825
 30
0.0
  0
VERTEX
  5
577
330
575
100
AcDbEntity
  8
BEMA_U_00DFUNG
 62
     7
100
AcDbVertex
100
AcDb2dVertex
 10
75.9430041259796
 20
238.8106586913825
 30
0.0
  0
SEQEND
  5
578
330
575
100
AcDbEntity
  8
BEMA_U_00DFUNG
 62
     7
  0
POLYLINE
  5
579
330
1F
100
AcDbEntity
  8
BEMA_U_00DFUNG
 62
     7
100
AcDb2dPolyline
 66
     1
 10
0.0
 20
0.0
 30
0.0
  0
VERTEX
  5
57A
330
579
100
AcDbEntity
  8
BEMA_U_00DFUNG
 62
     7
100
AcDbVertex
100
AcDb2dVertex
 10
75.91584023709743
 20
238.7598586913951
 30
0.0
  0
VERTEX
  5
57B
330
579
100
AcDbEntity
  8
BEMA_U_00DFUNG
 62
     7
100
AcDbVertex
100
AcDb2dVertex
 10
76.32894301477202
 20
238.7598586913951
 30
0.0
  0
SEQEND
  5
57C
330
579
100
AcDbEntity
  8
BEMA_U_00DFUNG
 62
     7
  0
POLYLINE
  5
57D
330
1F
100
AcDbEntity
  8
BEMA_U_00DFUNG
 62
     7
100
AcDb2dPolyline
 66
     1
 10
0.0
 20
0.0
 30
0.0
  0
VERTEX
  5
57E
330
57D
100
AcDbEntity
  8
BEMA_U_00DFUNG
 62
     7
100
AcDbVertex
100
AcDb2dVertex
 10
75.91584023709743
 20
238.7090586914077
 30
0.0
  0
VERTEX
  5
57F
330
57D
100
AcDbEntity
  8
BEMA_U_00DFUNG
 62
     7
100
AcDbVertex
100
AcDb2dVertex
 10
76.71488190356445
 20
238.7090586914077
 30
0.0
  0
SEQEND
  5
580
330
57D
100
AcDbEntity
  8
BEMA_U_00DFUNG
 62
     7
  0
POLYLINE
  5
581
330
1F
100
AcDbEntity
  8
BEMA_U_00DFUNG
 62
     7
100
AcDb2dPolyline
 66
     1
 10
0.0
 20
0.0
 30
0.0
  0
VERTEX
  5
582
330
581
100
AcDbEntity
  8
BEMA_U_00DFUNG
 62
     7
100
AcDbVertex
100
AcDb2dVertex
 10
75.91584023709743
 20
238.6582586914207
 30
0.0
  0
VERTEX
  5
583
330
581
100
AcDbEntity
  8
BEMA_U_00DFUNG
 62
     7
100
AcDbVertex
100
AcDb2dVertex
 10
77.1004680145791
 20
238.6582586914207
 30
0.0
  0
SEQEND
  5
584
330
581
100
AcDbEntity
  8
BEMA_U_00DFUNG
 62
     7
  0
POLYLINE
  5
585
330
1F
100
AcDbEntity
  8
BEMA_U_00DFUNG
 62
     7
100
AcDb2dPolyline
 66
     1
 10
0.0
 20
0.0
 30
0.0
  0
VERTEX
  5
586
330
585
100
AcDbEntity
  8
BEMA_U_00DFUNG
 62
     7
100
AcDbVertex
100
AcDb2dVertex
 10
75.91584023709743
 20
238.6074586914333
 30
0.0
  0
VERTEX
  5
587
330
585
100
AcDbEntity
  8
BEMA_U_00DFUNG
 62
     7
100
AcDbVertex
100
AcDb2dVertex
 10
77.48640690337153
 20
238.6074586914333
 30
0.0
  0
SEQEND
  5
588
330
585
100
AcDbEntity
  8
BEMA_U_00DFUNG
 62
     7
  0
POLYLINE
  5
589
330
1F
100
AcDbEntity
  8
BEMA_U_00DFUNG
 62
     7
100
AcDb2dPolyline
 66
     1
 10
0.0
 20
0.0
 30
0.0
  0
VERTEX
  5
58A
330
589
100
AcDbEntity
  8
BEMA_U_00DFUNG
 62
     7
100
AcDbVertex
100
AcDb2dVertex
 10
75.91584023709743
 20
238.5566586914462
 30
0.0
  0
VERTEX
  5
58B
330
589
100
AcDbEntity
  8
BEMA_U_00DFUNG
 62
     7
100
AcDbVertex
100
AcDb2dVertex
 10
77.87234579216396
 20
238.5566586914462
 30
0.0
  0
SEQEND
  5
58C
330
589
100
AcDbEntity
  8
BEMA_U_00DFUNG
 62
     7
  0
POLYLINE
  5
58D
330
1F
100
AcDbEntity
  8
BEMA_U_00DFUNG
 62
     7
100
AcDb2dPolyline
 66
     1
 10
0.0
 20
0.0
 30
0.0
  0
VERTEX
  5
58E
330
58D
100
AcDbEntity
  8
BEMA_U_00DFUNG
 62
     7
100
AcDbVertex
100
AcDb2dVertex
 10
75.91584023709743
 20
238.5058586914589
 30
0.0
  0
VERTEX
  5
58F
330
58D
100
AcDbEntity
  8
BEMA_U_00DFUNG
 62
     7
100
AcDbVertex
100
AcDb2dVertex
 10
78.25828468095638
 20
238.5058586914589
 30
0.0
  0
SEQEND
  5
590
330
58D
100
AcDbEntity
  8
BEMA_U_00DFUNG
 62
     7
  0
POLYLINE
  5
591
330
1F
100
AcDbEntity
  8
BEMA_U_00DFUNG
 62
     7
100
AcDb2dPolyline
 66
     1
 10
0.0
 20
0.0
 30
0.0
  0
VERTEX
  5
592
330
591
100
AcDbEntity
  8
BEMA_U_00DFUNG
 62
     7
100
AcDbVertex
100
AcDb2dVertex
 10
75.91584023709743
 20
238.4547059136937
 30
0.0
  0
VERTEX
  5
593
330
591
100
AcDbEntity
  8
BEMA_U_00DFUNG
 62
     7
100
AcDbVertex
100
AcDb2dVertex
 10
78.64387079197104
 20
238.4547059136937
 30
0.0
  0
SEQEND
  5
594
330
591
100
AcDbEntity
  8
BEMA_U_00DFUNG
 62
     7
  0
POLYLINE
  5
595
330
1F
100
AcDbEntity
  8
BEMA_U_00DFUNG
 62
     7
100
AcDb2dPolyline
 66
     1
 10
0.0
 20
0.0
 30
0.0
  0
VERTEX
  5
596
330
595
100
AcDbEntity
  8
BEMA_U_00DFUNG
 62
     7
100
AcDbVertex
100
AcDb2dVertex
 10
75.91584023709743
 20
238.4039059137063
 30
0.0
  0
VERTEX
  5
597
330
595
100
AcDbEntity
  8
BEMA_U_00DFUNG
 62
     7
100
AcDbVertex
100
AcDb2dVertex
 10
79.02980968076345
 20
238.4039059137063
 30
0.0
  0
SEQEND
  5
598
330
595
100
AcDbEntity
  8
BEMA_U_00DFUNG
 62
     7
  0
POLYLINE
  5
599
330
1F
100
AcDbEntity
  8
BEMA_U_00DFUNG
 62
     7
100
AcDb2dPolyline
 66
     1
 10
0.0
 20
0.0
 30
0.0
  0
VERTEX
  5
59A
330
599
100
AcDbEntity
  8
BEMA_U_00DFUNG
 62
     7
100
AcDbVertex
100
AcDb2dVertex
 10
75.91584023709743
 20
238.353105913719
 30
0.0
  0
VERTEX
  5
59B
330
599
100
AcDbEntity
  8
BEMA_U_00DFUNG
 62
     7
100
AcDbVertex
100
AcDb2dVertex
 10
79.41610134733364
 20
238.353105913719
 30
0.0
  0
SEQEND
  5
59C
330
599
100
AcDbEntity
  8
BEMA_U_00DFUNG
 62
     7
  0
POLYLINE
  5
59D
330
1F
100
AcDbEntity
  8
BEMA_U_00DFUNG
 62
     7
100
AcDb2dPolyline
 66
     1
 10
0.0
 20
0.0
 30
0.0
  0
VERTEX
  5
59E
330
59D
100
AcDbEntity
  8
BEMA_U_00DFUNG
 62
     7
100
AcDbVertex
100
AcDb2dVertex
 10
75.91584023709743
 20
237.8962586916109
 30
0.0
  0
VERTEX
  5
59F
330
59D
100
AcDbEntity
  8
BEMA_U_00DFUNG
 62
     7
100
AcDbVertex
100
AcDb2dVertex
 10
75.9430041259796
 20
237.8962586916109
 30
0.0
  0
SEQEND
  5
5A0
330
59D
100
AcDbEntity
  8
BEMA_U_00DFUNG
 62
     7
  0
POLYLINE
  5
5A1
330
1F
100
AcDbEntity
  8
BEMA_U_00DFUNG
 62
     7
100
AcDb2dPolyline
 66
     1
 10
0.0
 20
0.0
 30
0.0
  0
VERTEX
  5
5A2
330
5A1
100
AcDbEntity
  8
BEMA_U_00DFUNG
 62
     7
100
AcDbVertex
100
AcDb2dVertex
 10
75.91584023709743
 20
237.8962586916109
 30
0.0
  0
VERTEX
  5
5A3
330
5A1
100
AcDbEntity
  8
BEMA_U_00DFUNG
 62
     7
100
AcDbVertex
100
AcDb2dVertex
 10
75.9430041259796
 20
237.8962586916109
 30
0.0
  0
SEQEND
  5
5A4
330
5A1
100
AcDbEntity
  8
BEMA_U_00DFUNG
 62
     7
  0
POLYLINE
  5
5A5
330
1F
100
AcDbEntity
  8
BEMA_U_00DFUNG
 62
     7
100
AcDb2dPolyline
 66
     1
 10
0.0
 20
0.0
 30
0.0
  0
VERTEX
  5
5A6
330
5A5
100
AcDbEntity
  8
BEMA_U_00DFUNG
 62
     7
100
AcDbVertex
100
AcDb2dVertex
 10
75.91584023709743
 20
237.9467059138205
 30
0.0
  0
VERTEX
  5
5A7
330
5A5
100
AcDbEntity
  8
BEMA_U_00DFUNG
 62
     7
100
AcDbVertex
100
AcDb2dVertex
 10
76.32894301477202
 20
237.9467059138205
 30
0.0
  0
SEQEND
  5
5A8
330
5A5
100
AcDbEntity
  8
BEMA_U_00DFUNG
 62
     7
  0
POLYLINE
  5
5A9
330
1F
100
AcDbEntity
  8
BEMA_U_00DFUNG
 62
     7
100
AcDb2dPolyline
 66
     1
 10
0.0
 20
0.0
 30
0.0
  0
VERTEX
  5
5AA
330
5A9
100
AcDbEntity
  8
BEMA_U_00DFUNG
 62
     7
100
AcDbVertex
100
AcDb2dVertex
 10
75.91584023709743
 20
237.9975059138079
 30
0.0
  0
VERTEX
  5
5AB
330
5A9
100
AcDbEntity
  8
BEMA_U_00DFUNG
 62
     7
100
AcDbVertex
100
AcDb2dVertex
 10
76.71488190356445
 20
237.9975059138079
 30
0.0
  0
SEQEND
  5
5AC
330
5A9
100
AcDbEntity
  8
BEMA_U_00DFUNG
 62
     7
  0
POLYLINE
  5
5AD
330
1F
100
AcDbEntity
  8
BEMA_U_00DFUNG
 62
     7
100
AcDb2dPolyline
 66
     1
 10
0.0
 20
0.0
 30
0.0
  0
VERTEX
  5
5AE
330
5AD
100
AcDbEntity
  8
BEMA_U_00DFUNG
 62
     7
100
AcDbVertex
100
AcDb2dVertex
 10
75.91584023709743
 20
238.0483059137953
 30
0.0
  0
VERTEX
  5
5AF
330
5AD
100
AcDbEntity
  8
BEMA_U_00DFUNG
 62
     7
100
AcDbVertex
100
AcDb2dVertex
 10
77.1004680145791
 20
238.0483059137953
 30
0.0
  0
SEQEND
  5
5B0
330
5AD
100
AcDbEntity
  8
BEMA_U_00DFUNG
 62
     7
  0
POLYLINE
  5
5B1
330
1F
100
AcDbEntity
  8
BEMA_U_00DFUNG
 62
     7
100
AcDb2dPolyline
 66
     1
 10
0.0
 20
0.0
 30
0.0
  0
VERTEX
  5
5B2
330
5B1
100
AcDbEntity
  8
BEMA_U_00DFUNG
 62
     7
100
AcDbVertex
100
AcDb2dVertex
 10
75.91584023709743
 20
238.0991059137827
 30
0.0
  0
VERTEX
  5
5B3
330
5B1
100
AcDbEntity
  8
BEMA_U_00DFUNG
 62
     7
100
AcDbVertex
100
AcDb2dVertex
 10
77.48640690337153
 20
238.0991059137827
 30
0.0
  0
SEQEND
  5
5B4
330
5B1
100
AcDbEntity
  8
BEMA_U_00DFUNG
 62
     7
  0
POLYLINE
  5
5B5
330
1F
100
AcDbEntity
  8
BEMA_U_00DFUNG
 62
     7
100
AcDb2dPolyline
 66
     1
 10
0.0
 20
0.0
 30
0.0
  0
VERTEX
  5
5B6
330
5B5
100
AcDbEntity
  8
BEMA_U_00DFUNG
 62
     7
100
AcDbVertex
100
AcDb2dVertex
 10
75.91584023709743
 20
238.1499059137701
 30
0.0
  0
VERTEX
  5
5B7
330
5B5
100
AcDbEntity
  8
BEMA_U_00DFUNG
 62
     7
100
AcDbVertex
100
AcDb2dVertex
 10
77.87234579216396
 20
238.1499059137701
 30
0.0
  0
SEQEND
  5
5B8
330
5B5
100
AcDbEntity
  8
BEMA_U_00DFUNG
 62
     7
  0
POLYLINE
  5
5B9
330
1F
100
AcDbEntity
  8
BEMA_U_00DFUNG
 62
     7
100
AcDb2dPolyline
 66
     1
 10
0.0
 20
0.0
 30
0.0
  0
VERTEX
  5
5BA
330
5B9
100
AcDbEntity
  8
BEMA_U_00DFUNG
 62
     7
100
AcDbVertex
100
AcDb2dVertex
 10
75.91584023709743
 20
238.2007059137574
 30
0.0
  0
VERTEX
  5
5BB
330
5B9
100
AcDbEntity
  8
BEMA_U_00DFUNG
 62
     7
100
AcDbVertex
100
AcDb2dVertex
 10
78.25828468095638
 20
238.2007059137574
 30
0.0
  0
SEQEND
  5
5BC
330
5B9
100
AcDbEntity
  8
BEMA_U_00DFUNG
 62
     7
  0
POLYLINE
  5
5BD
330
1F
100
AcDbEntity
  8
BEMA_U_00DFUNG
 62
     7
100
AcDb2dPolyline
 66
     1
 10
0.0
 20
0.0
 30
0.0
  0
VERTEX
  5
5BE
330
5BD
100
AcDbEntity
  8
BEMA_U_00DFUNG
 62
     7
100
AcDbVertex
100
AcDb2dVertex
 10
75.91584023709743
 20
238.2515059137445
 30
0.0
  0
VERTEX
  5
5BF
330
5BD
100
AcDbEntity
  8
BEMA_U_00DFUNG
 62
     7
100
AcDbVertex
100
AcDb2dVertex
 10
78.64387079197104
 20
238.2515059137445
 30
0.0
  0
SEQEND
  5
5C0
330
5BD
100
AcDbEntity
  8
BEMA_U_00DFUNG
 62
     7
  0
POLYLINE
  5
5C1
330
1F
100
AcDbEntity
  8
BEMA_U_00DFUNG
 62
     7
100
AcDb2dPolyline
 66
     1
 10
0.0
 20
0.0
 30
0.0
  0
VERTEX
  5
5C2
330
5C1
100
AcDbEntity
  8
BEMA_U_00DFUNG
 62
     7
100
AcDbVertex
100
AcDb2dVertex
 10
75.91584023709743
 20
238.3023059137319
 30
0.0
  0
VERTEX
  5
5C3
330
5C1
100
AcDbEntity
  8
BEMA_U_00DFUNG
 62
     7
100
AcDbVertex
100
AcDb2dVertex
 10
79.02980968076345
 20
238.3023059137319
 30
0.0
  0
SEQEND
  5
5C4
330
5C1
100
AcDbEntity
  8
BEMA_U_00DFUNG
 62
     7
  0
POLYLINE
  5
5C5
330
1F
100
AcDbEntity
  8
BEMA_U_00DFUNG
 62
     7
100
AcDb2dPolyline
 66
     1
 10
0.0
 20
0.0
 30
0.0
  0
VERTEX
  5
5C6
330
5C5
100
AcDbEntity
  8
BEMA_U_00DFUNG
 62
     7
100
AcDbVertex
100
AcDb2dVertex
 10
75.91584023709743
 20
238.353105913719
 30
0.0
  0
VERTEX
  5
5C7
330
5C5
100
AcDbEntity
  8
BEMA_U_00DFUNG
 62
     7
100
AcDbVertex
100
AcDb2dVertex
 10
79.41610134733364
 20
238.353105913719
 30
0.0
  0
SEQEND
  5
5C8
330
5C5
100
AcDbEntity
  8
BEMA_U_00DFUNG
 62
     7
  0
POLYLINE
  5
5C9
330
1F
100
AcDbEntity
  8
BEMA_U_00DFUNG
 62
     7
100
AcDb2dPolyline
 66
     1
 10
0.0
 20
0.0
 30
0.0
  0
VERTEX
  5
5CA
330
5C9
100
AcDbEntity
  8
BEMA_U_00DFUNG
 62
     7
100
AcDbVertex
100
AcDb2dVertex
 10
71.16604023828489
 20
218.3534281409414
 30
0.0
  0
VERTEX
  5
5CB
330
5C9
100
AcDbEntity
  8
BEMA_U_00DFUNG
 62
     7
100
AcDbVertex
100
AcDb2dVertex
 10
54.6355563075487
 20
218.3534281409414
 30
0.0
  0
SEQEND
  5
5CC
330
5C9
100
AcDbEntity
  8
BEMA_U_00DFUNG
 62
     7
  0
POLYLINE
  5
5CD
330
1F
100
AcDbEntity
  8
BEMA_U_00DFUNG
 62
     7
100
AcDb2dPolyline
 66
     1
 10
0.0
 20
0.0
 30
0.0
  0
VERTEX
  5
5CE
330
5CD
100
AcDbEntity
  8
BEMA_U_00DFUNG
 62
     7
100
AcDbVertex
100
AcDb2dVertex
 10
67.9155457946531
 20
211.3536114760245
 30
0.0
  0
VERTEX
  5
5CF
330
5CD
100
AcDbEntity
  8
BEMA_U_00DFUNG
 62
     7
100
AcDbVertex
100
AcDb2dVertex
 10
54.6355563075487
 20
211.3536114760245
 30
0.0
  0
SEQEND
  5
5D0
330
5CD
100
AcDbEntity
  8
BEMA_U_00DFUNG
 62
     7
  0
POLYLINE
  5
5D1
330
1F
100
AcDbEntity
  8
BEMA_U_00DFUNG
 62
     7
100
AcDb2dPolyline
 66
     1
 10
0.0
 20
0.0
 30
0.0
  0
VERTEX
  5
5D2
330
5D1
100
AcDbEntity
  8
BEMA_U_00DFUNG
 62
     7
100
AcDbVertex
100
AcDb2dVertex
 10
56.63615908482642
 20
227.1033753609761
 30
0.0
  0
VERTEX
  5
5D3
330
5D1
100
AcDbEntity
  8
BEMA_U_00DFUNG
 62
     7
100
AcDbVertex
100
AcDb2dVertex
 10
56.63615908482642
 20
202.603311478212
 30
0.0
  0
SEQEND
  5
5D4
330
5D1
100
AcDbEntity
  8
BEMA_U_00DFUNG
 62
     7
  0
POLYLINE
  5
5D5
330
1F
100
AcDbEntity
  8
BEMA_U_00DFUNG
 62
     7
100
AcDb2dPolyline
 66
     1
 10
0.0
 20
0.0
 30
0.0
  0
VERTEX
  5
5D6
330
5D5
100
AcDbEntity
  8
BEMA_U_00DFUNG
 62
     7
100
AcDbVertex
100
AcDb2dVertex
 10
56.63615908482642
 20
218.3534281409414
 30
0.0
  0
VERTEX
  5
5D7
330
5D5
100
AcDbEntity
  8
BEMA_U_00DFUNG
 62
     7
100
AcDbVertex
100
AcDb2dVertex
 10
57.09653408471143
 20
221.8533364733999
 30
0.0
  0
VERTEX
  5
5D8
330
5D5
100
AcDbEntity
  8
BEMA_U_00DFUNG
 62
     7
100
AcDbVertex
100
AcDb2dVertex
 10
56.17472575160845
 20
221.8533364733999
 30
0.0
  0
VERTEX
  5
5D9
330
5D5
100
AcDbEntity
  8
BEMA_U_00DFUNG
 62
     7
100
AcDbVertex
100
AcDb2dVertex
 10
56.63615908482642
 20
218.3534281409414
 30
0.0
  0
SEQEND
  5
5DA
330
5D5
100
AcDbEntity
  8
BEMA_U_00DFUNG
 62
     7
  0
POLYLINE
  5
5DB
330
1F
100
AcDbEntity
  8
BEMA_U_00DFUNG
 62
     7
100
AcDb2dPolyline
 66
     1
 10
0.0
 20
0.0
 30
0.0
  0
VERTEX
  5
5DC
330
5DB
100
AcDbEntity
  8
BEMA_U_00DFUNG
 62
     7
100
AcDbVertex
100
AcDb2dVertex
 10
57.09300630693446
 20
221.8533364733999
 30
0.0
  0
VERTEX
  5
5DD
330
5DB
100
AcDbEntity
  8
BEMA_U_00DFUNG
 62
     7
100
AcDbVertex
100
AcDb2dVertex
 10
57.09300630693446
 20
221.8261725845174
 30
0.0
  0
SEQEND
  5
5DE
330
5DB
100
AcDbEntity
  8
BEMA_U_00DFUNG
 62
     7
  0
POLYLINE
  5
5DF
330
1F
100
AcDbEntity
  8
BEMA_U_00DFUNG
 62
     7
100
AcDb2dPolyline
 66
     1
 10
0.0
 20
0.0
 30
0.0
  0
VERTEX
  5
5E0
330
5DF
100
AcDbEntity
  8
BEMA_U_00DFUNG
 62
     7
100
AcDbVertex
100
AcDb2dVertex
 10
57.09300630693446
 20
221.8533364733999
 30
0.0
  0
VERTEX
  5
5E1
330
5DF
100
AcDbEntity
  8
BEMA_U_00DFUNG
 62
     7
100
AcDbVertex
100
AcDb2dVertex
 10
57.09300630693446
 20
221.8261725845174
 30
0.0
  0
SEQEND
  5
5E2
330
5DF
100
AcDbEntity
  8
BEMA_U_00DFUNG
 62
     7
  0
POLYLINE
  5
5E3
330
1F
100
AcDbEntity
  8
BEMA_U_00DFUNG
 62
     7
100
AcDb2dPolyline
 66
     1
 10
0.0
 20
0.0
 30
0.0
  0
VERTEX
  5
5E4
330
5E3
100
AcDbEntity
  8
BEMA_U_00DFUNG
 62
     7
100
AcDbVertex
100
AcDb2dVertex
 10
57.04220630694707
 20
221.8533364733999
 30
0.0
  0
VERTEX
  5
5E5
330
5E3
100
AcDbEntity
  8
BEMA_U_00DFUNG
 62
     7
100
AcDbVertex
100
AcDb2dVertex
 10
57.04220630694707
 20
221.4402336957253
 30
0.0
  0
SEQEND
  5
5E6
330
5E3
100
AcDbEntity
  8
BEMA_U_00DFUNG
 62
     7
  0
POLYLINE
  5
5E7
330
1F
100
AcDbEntity
  8
BEMA_U_00DFUNG
 62
     7
100
AcDb2dPolyline
 66
     1
 10
0.0
 20
0.0
 30
0.0
  0
VERTEX
  5
5E8
330
5E7
100
AcDbEntity
  8
BEMA_U_00DFUNG
 62
     7
100
AcDbVertex
100
AcDb2dVertex
 10
56.99140630696002
 20
221.8533364733999
 30
0.0
  0
VERTEX
  5
5E9
330
5E7
100
AcDbEntity
  8
BEMA_U_00DFUNG
 62
     7
100
AcDbVertex
100
AcDb2dVertex
 10
56.99140630696002
 20
221.0546475847103
 30
0.0
  0
SEQEND
  5
5EA
330
5E7
100
AcDbEntity
  8
BEMA_U_00DFUNG
 62
     7
  0
POLYLINE
  5
5EB
330
1F
100
AcDbEntity
  8
BEMA_U_00DFUNG
 62
     7
100
AcDb2dPolyline
 66
     1
 10
0.0
 20
0.0
 30
0.0
  0
VERTEX
  5
5EC
330
5EB
100
AcDbEntity
  8
BEMA_U_00DFUNG
 62
     7
100
AcDbVertex
100
AcDb2dVertex
 10
56.94095908475039
 20
221.8533364733999
 30
0.0
  0
VERTEX
  5
5ED
330
5EB
100
AcDbEntity
  8
BEMA_U_00DFUNG
 62
     7
100
AcDbVertex
100
AcDb2dVertex
 10
56.94095908475039
 20
220.6683559181404
 30
0.0
  0
SEQEND
  5
5EE
330
5EB
100
AcDbEntity
  8
BEMA_U_00DFUNG
 62
     7
  0
POLYLINE
  5
5EF
330
1F
100
AcDbEntity
  8
BEMA_U_00DFUNG
 62
     7
100
AcDb2dPolyline
 66
     1
 10
0.0
 20
0.0
 30
0.0
  0
VERTEX
  5
5F0
330
5EF
100
AcDbEntity
  8
BEMA_U_00DFUNG
 62
     7
100
AcDbVertex
100
AcDb2dVertex
 10
56.89015908476301
 20
221.8533364733999
 30
0.0
  0
VERTEX
  5
5F1
330
5EF
100
AcDbEntity
  8
BEMA_U_00DFUNG
 62
     7
100
AcDbVertex
100
AcDb2dVertex
 10
56.89015908476301
 20
220.2827698071254
 30
0.0
  0
SEQEND
  5
5F2
330
5EF
100
AcDbEntity
  8
BEMA_U_00DFUNG
 62
     7
  0
POLYLINE
  5
5F3
330
1F
100
AcDbEntity
  8
BEMA_U_00DFUNG
 62
     7
100
AcDb2dPolyline
 66
     1
 10
0.0
 20
0.0
 30
0.0
  0
VERTEX
  5
5F4
330
5F3
100
AcDbEntity
  8
BEMA_U_00DFUNG
 62
     7
100
AcDbVertex
100
AcDb2dVertex
 10
56.83900630699787
 20
221.8533364733999
 30
0.0
  0
VERTEX
  5
5F5
330
5F3
100
AcDbEntity
  8
BEMA_U_00DFUNG
 62
     7
100
AcDbVertex
100
AcDb2dVertex
 10
56.83900630699787
 20
219.8968309183333
 30
0.0
  0
SEQEND
  5
5F6
330
5F3
100
AcDbEntity
  8
BEMA_U_00DFUNG
 62
     7
  0
POLYLINE
  5
5F7
330
1F
100
AcDbEntity
  8
BEMA_U_00DFUNG
 62
     7
100
AcDb2dPolyline
 66
     1
 10
0.0
 20
0.0
 30
0.0
  0
VERTEX
  5
5F8
330
5F7
100
AcDbEntity
  8
BEMA_U_00DFUNG
 62
     7
100
AcDbVertex
100
AcDb2dVertex
 10
56.7882063070108
 20
221.8533364733999
 30
0.0
  0
VERTEX
  5
5F9
330
5F7
100
AcDbEntity
  8
BEMA_U_00DFUNG
 62
     7
100
AcDbVertex
100
AcDb2dVertex
 10
56.7882063070108
 20
219.5112448073183
 30
0.0
  0
SEQEND
  5
5FA
330
5F7
100
AcDbEntity
  8
BEMA_U_00DFUNG
 62
     7
  0
POLYLINE
  5
5FB
330
1F
100
AcDbEntity
  8
BEMA_U_00DFUNG
 62
     7
100
AcDb2dPolyline
 66
     1
 10
0.0
 20
0.0
 30
0.0
  0
VERTEX
  5
5FC
330
5FB
100
AcDbEntity
  8
BEMA_U_00DFUNG
 62
     7
100
AcDbVertex
100
AcDb2dVertex
 10
56.73740630702342
 20
221.8533364733999
 30
0.0
  0
VERTEX
  5
5FD
330
5FB
100
AcDbEntity
  8
BEMA_U_00DFUNG
 62
     7
100
AcDbVertex
100
AcDb2dVertex
 10
56.73740630702342
 20
219.1249531407485
 30
0.0
  0
SEQEND
  5
5FE
330
5FB
100
AcDbEntity
  8
BEMA_U_00DFUNG
 62
     7
  0
POLYLINE
  5
5FF
330
1F
100
AcDbEntity
  8
BEMA_U_00DFUNG
 62
     7
100
AcDb2dPolyline
 66
     1
 10
0.0
 20
0.0
 30
0.0
  0
VERTEX
  5
600
330
5FF
100
AcDbEntity
  8
BEMA_U_00DFUNG
 62
     7
100
AcDbVertex
100
AcDb2dVertex
 10
56.6869590848138
 20
221.8533364733999
 30
0.0
  0
VERTEX
  5
601
330
5FF
100
AcDbEntity
  8
BEMA_U_00DFUNG
 62
     7
100
AcDbVertex
100
AcDb2dVertex
 10
56.6869590848138
 20
218.7393670297335
 30
0.0
  0
SEQEND
  5
602
330
5FF
100
AcDbEntity
  8
BEMA_U_00DFUNG
 62
     7
  0
POLYLINE
  5
603
330
1F
100
AcDbEntity
  8
BEMA_U_00DFUNG
 62
     7
100
AcDb2dPolyline
 66
     1
 10
0.0
 20
0.0
 30
0.0
  0
VERTEX
  5
604
330
603
100
AcDbEntity
  8
BEMA_U_00DFUNG
 62
     7
100
AcDbVertex
100
AcDb2dVertex
 10
56.63615908482642
 20
221.8533364733999
 30
0.0
  0
VERTEX
  5
605
330
603
100
AcDbEntity
  8
BEMA_U_00DFUNG
 62
     7
100
AcDbVertex
100
AcDb2dVertex
 10
56.63615908482642
 20
218.3534281409414
 30
0.0
  0
SEQEND
  5
606
330
603
100
AcDbEntity
  8
BEMA_U_00DFUNG
 62
     7
  0
POLYLINE
  5
607
330
1F
100
AcDbEntity
  8
BEMA_U_00DFUNG
 62
     7
100
AcDb2dPolyline
 66
     1
 10
0.0
 20
0.0
 30
0.0
  0
VERTEX
  5
608
330
607
100
AcDbEntity
  8
BEMA_U_00DFUNG
 62
     7
100
AcDbVertex
100
AcDb2dVertex
 10
56.17895908494062
 20
221.8533364733999
 30
0.0
  0
VERTEX
  5
609
330
607
100
AcDbEntity
  8
BEMA_U_00DFUNG
 62
     7
100
AcDbVertex
100
AcDb2dVertex
 10
56.17895908494062
 20
221.8261725845174
 30
0.0
  0
SEQEND
  5
60A
330
607
100
AcDbEntity
  8
BEMA_U_00DFUNG
 62
     7
  0
POLYLINE
  5
60B
330
1F
100
AcDbEntity
  8
BEMA_U_00DFUNG
 62
     7
100
AcDb2dPolyline
 66
     1
 10
0.0
 20
0.0
 30
0.0
  0
VERTEX
  5
60C
330
60B
100
AcDbEntity
  8
BEMA_U_00DFUNG
 62
     7
100
AcDbVertex
100
AcDb2dVertex
 10
56.17895908494062
 20
221.8533364733999
 30
0.0
  0
VERTEX
  5
60D
330
60B
100
AcDbEntity
  8
BEMA_U_00DFUNG
 62
     7
100
AcDbVertex
100
AcDb2dVertex
 10
56.17895908494062
 20
221.8261725845174
 30
0.0
  0
SEQEND
  5
60E
330
60B
100
AcDbEntity
  8
BEMA_U_00DFUNG
 62
     7
  0
POLYLINE
  5
60F
330
1F
100
AcDbEntity
  8
BEMA_U_00DFUNG
 62
     7
100
AcDb2dPolyline
 66
     1
 10
0.0
 20
0.0
 30
0.0
  0
VERTEX
  5
610
330
60F
100
AcDbEntity
  8
BEMA_U_00DFUNG
 62
     7
100
AcDbVertex
100
AcDb2dVertex
 10
56.22940630715024
 20
221.8533364733999
 30
0.0
  0
VERTEX
  5
611
330
60F
100
AcDbEntity
  8
BEMA_U_00DFUNG
 62
     7
100
AcDbVertex
100
AcDb2dVertex
 10
56.22940630715024
 20
221.4402336957253
 30
0.0
  0
SEQEND
  5
612
330
60F
100
AcDbEntity
  8
BEMA_U_00DFUNG
 62
     7
  0
POLYLINE
  5
613
330
1F
100
AcDbEntity
  8
BEMA_U_00DFUNG
 62
     7
100
AcDb2dPolyline
 66
     1
 10
0.0
 20
0.0
 30
0.0
  0
VERTEX
  5
614
330
613
100
AcDbEntity
  8
BEMA_U_00DFUNG
 62
     7
100
AcDbVertex
100
AcDb2dVertex
 10
56.28020630713763
 20
221.8533364733999
 30
0.0
  0
VERTEX
  5
615
330
613
100
AcDbEntity
  8
BEMA_U_00DFUNG
 62
     7
100
AcDbVertex
100
AcDb2dVertex
 10
56.28020630713763
 20
221.0546475847103
 30
0.0
  0
SEQEND
  5
616
330
613
100
AcDbEntity
  8
BEMA_U_00DFUNG
 62
     7
  0
POLYLINE
  5
617
330
1F
100
AcDbEntity
  8
BEMA_U_00DFUNG
 62
     7
100
AcDb2dPolyline
 66
     1
 10
0.0
 20
0.0
 30
0.0
  0
VERTEX
  5
618
330
617
100
AcDbEntity
  8
BEMA_U_00DFUNG
 62
     7
100
AcDbVertex
100
AcDb2dVertex
 10
56.33135908490277
 20
221.8533364733999
 30
0.0
  0
VERTEX
  5
619
330
617
100
AcDbEntity
  8
BEMA_U_00DFUNG
 62
     7
100
AcDbVertex
100
AcDb2dVertex
 10
56.33135908490277
 20
220.6683559181404
 30
0.0
  0
SEQEND
  5
61A
330
617
100
AcDbEntity
  8
BEMA_U_00DFUNG
 62
     7
  0
POLYLINE
  5
61B
330
1F
100
AcDbEntity
  8
BEMA_U_00DFUNG
 62
     7
100
AcDb2dPolyline
 66
     1
 10
0.0
 20
0.0
 30
0.0
  0
VERTEX
  5
61C
330
61B
100
AcDbEntity
  8
BEMA_U_00DFUNG
 62
     7
100
AcDbVertex
100
AcDb2dVertex
 10
56.38215908488983
 20
221.8533364733999
 30
0.0
  0
VERTEX
  5
61D
330
61B
100
AcDbEntity
  8
BEMA_U_00DFUNG
 62
     7
100
AcDbVertex
100
AcDb2dVertex
 10
56.38215908488983
 20
220.2827698071254
 30
0.0
  0
SEQEND
  5
61E
330
61B
100
AcDbEntity
  8
BEMA_U_00DFUNG
 62
     7
  0
POLYLINE
  5
61F
330
1F
100
AcDbEntity
  8
BEMA_U_00DFUNG
 62
     7
100
AcDb2dPolyline
 66
     1
 10
0.0
 20
0.0
 30
0.0
  0
VERTEX
  5
620
330
61F
100
AcDbEntity
  8
BEMA_U_00DFUNG
 62
     7
100
AcDbVertex
100
AcDb2dVertex
 10
56.43295908487721
 20
221.8533364733999
 30
0.0
  0
VERTEX
  5
621
330
61F
100
AcDbEntity
  8
BEMA_U_00DFUNG
 62
     7
100
AcDbVertex
100
AcDb2dVertex
 10
56.43295908487721
 20
219.8968309183333
 30
0.0
  0
SEQEND
  5
622
330
61F
100
AcDbEntity
  8
BEMA_U_00DFUNG
 62
     7
  0
POLYLINE
  5
623
330
1F
100
AcDbEntity
  8
BEMA_U_00DFUNG
 62
     7
100
AcDb2dPolyline
 66
     1
 10
0.0
 20
0.0
 30
0.0
  0
VERTEX
  5
624
330
623
100
AcDbEntity
  8
BEMA_U_00DFUNG
 62
     7
100
AcDbVertex
100
AcDb2dVertex
 10
56.48340630708683
 20
221.8533364733999
 30
0.0
  0
VERTEX
  5
625
330
623
100
AcDbEntity
  8
BEMA_U_00DFUNG
 62
     7
100
AcDbVertex
100
AcDb2dVertex
 10
56.48340630708683
 20
219.5112448073183
 30
0.0
  0
SEQEND
  5
626
330
623
100
AcDbEntity
  8
BEMA_U_00DFUNG
 62
     7
  0
POLYLINE
  5
627
330
1F
100
AcDbEntity
  8
BEMA_U_00DFUNG
 62
     7
100
AcDb2dPolyline
 66
     1
 10
0.0
 20
0.0
 30
0.0
  0
VERTEX
  5
628
330
627
100
AcDbEntity
  8
BEMA_U_00DFUNG
 62
     7
100
AcDbVertex
100
AcDb2dVertex
 10
56.53420630707421
 20
221.8533364733999
 30
0.0
  0
VERTEX
  5
629
330
627
100
AcDbEntity
  8
BEMA_U_00DFUNG
 62
     7
100
AcDbVertex
100
AcDb2dVertex
 10
56.53420630707421
 20
219.1249531407485
 30
0.0
  0
SEQEND
  5
62A
330
627
100
AcDbEntity
  8
BEMA_U_00DFUNG
 62
     7
  0
POLYLINE
  5
62B
330
1F
100
AcDbEntity
  8
BEMA_U_00DFUNG
 62
     7
100
AcDb2dPolyline
 66
     1
 10
0.0
 20
0.0
 30
0.0
  0
VERTEX
  5
62C
330
62B
100
AcDbEntity
  8
BEMA_U_00DFUNG
 62
     7
100
AcDbVertex
100
AcDb2dVertex
 10
56.58535908483904
 20
221.8533364733999
 30
0.0
  0
VERTEX
  5
62D
330
62B
100
AcDbEntity
  8
BEMA_U_00DFUNG
 62
     7
100
AcDbVertex
100
AcDb2dVertex
 10
56.58535908483904
 20
218.7393670297335
 30
0.0
  0
SEQEND
  5
62E
330
62B
100
AcDbEntity
  8
BEMA_U_00DFUNG
 62
     7
  0
POLYLINE
  5
62F
330
1F
100
AcDbEntity
  8
BEMA_U_00DFUNG
 62
     7
100
AcDb2dPolyline
 66
     1
 10
0.0
 20
0.0
 30
0.0
  0
VERTEX
  5
630
330
62F
100
AcDbEntity
  8
BEMA_U_00DFUNG
 62
     7
100
AcDbVertex
100
AcDb2dVertex
 10
56.63615908482642
 20
221.8533364733999
 30
0.0
  0
VERTEX
  5
631
330
62F
100
AcDbEntity
  8
BEMA_U_00DFUNG
 62
     7
100
AcDbVertex
100
AcDb2dVertex
 10
56.63615908482642
 20
218.3534281409414
 30
0.0
  0
SEQEND
  5
632
330
62F
100
AcDbEntity
  8
BEMA_U_00DFUNG
 62
     7
  0
POLYLINE
  5
633
330
1F
100
AcDbEntity
  8
BEMA_U_00DFUNG
 62
     7
100
AcDb2dPolyline
 66
     1
 10
0.0
 20
0.0
 30
0.0
  0
VERTEX
  5
634
330
633
100
AcDbEntity
  8
BEMA_U_00DFUNG
 62
     7
100
AcDbVertex
100
AcDb2dVertex
 10
56.63615908482642
 20
211.3536114760245
 30
0.0
  0
VERTEX
  5
635
330
633
100
AcDbEntity
  8
BEMA_U_00DFUNG
 62
     7
100
AcDbVertex
100
AcDb2dVertex
 10
56.17472575160845
 20
207.8529975880109
 30
0.0
  0
VERTEX
  5
636
330
633
100
AcDbEntity
  8
BEMA_U_00DFUNG
 62
     7
100
AcDbVertex
100
AcDb2dVertex
 10
57.09653408471143
 20
207.8529975880109
 30
0.0
  0
VERTEX
  5
637
330
633
100
AcDbEntity
  8
BEMA_U_00DFUNG
 62
     7
100
AcDbVertex
100
AcDb2dVertex
 10
56.63615908482642
 20
211.3536114760245
 30
0.0
  0
SEQEND
  5
638
330
633
100
AcDbEntity
  8
BEMA_U_00DFUNG
 62
     7
  0
POLYLINE
  5
639
330
1F
100
AcDbEntity
  8
BEMA_U_00DFUNG
 62
     7
100
AcDb2dPolyline
 66
     1
 10
0.0
 20
0.0
 30
0.0
  0
VERTEX
  5
63A
330
639
100
AcDbEntity
  8
BEMA_U_00DFUNG
 62
     7
100
AcDbVertex
100
AcDb2dVertex
 10
56.17895908494062
 20
207.8529975880109
 30
0.0
  0
VERTEX
  5
63B
330
639
100
AcDbEntity
  8
BEMA_U_00DFUNG
 62
     7
100
AcDbVertex
100
AcDb2dVertex
 10
56.17895908494062
 20
207.8805142546708
 30
0.0
  0
SEQEND
  5
63C
330
639
100
AcDbEntity
  8
BEMA_U_00DFUNG
 62
     7
  0
POLYLINE
  5
63D
330
1F
100
AcDbEntity
  8
BEMA_U_00DFUNG
 62
     7
100
AcDb2dPolyline
 66
     1
 10
0.0
 20
0.0
 30
0.0
  0
VERTEX
  5
63E
330
63D
100
AcDbEntity
  8
BEMA_U_00DFUNG
 62
     7
100
AcDbVertex
100
AcDb2dVertex
 10
56.17895908494062
 20
207.8529975880109
 30
0.0
  0
VERTEX
  5
63F
330
63D
100
AcDbEntity
  8
BEMA_U_00DFUNG
 62
     7
100
AcDbVertex
100
AcDb2dVertex
 10
56.17895908494062
 20
207.8805142546708
 30
0.0
  0
SEQEND
  5
640
330
63D
100
AcDbEntity
  8
BEMA_U_00DFUNG
 62
     7
  0
POLYLINE
  5
641
330
1F
100
AcDbEntity
  8
BEMA_U_00DFUNG
 62
     7
100
AcDb2dPolyline
 66
     1
 10
0.0
 20
0.0
 30
0.0
  0
VERTEX
  5
642
330
641
100
AcDbEntity
  8
BEMA_U_00DFUNG
 62
     7
100
AcDbVertex
100
AcDb2dVertex
 10
56.22940630715024
 20
207.8529975880109
 30
0.0
  0
VERTEX
  5
643
330
641
100
AcDbEntity
  8
BEMA_U_00DFUNG
 62
     7
100
AcDbVertex
100
AcDb2dVertex
 10
56.22940630715024
 20
208.2664531434629
 30
0.0
  0
SEQEND
  5
644
330
641
100
AcDbEntity
  8
BEMA_U_00DFUNG
 62
     7
  0
POLYLINE
  5
645
330
1F
100
AcDbEntity
  8
BEMA_U_00DFUNG
 62
     7
100
AcDb2dPolyline
 66
     1
 10
0.0
 20
0.0
 30
0.0
  0
VERTEX
  5
646
330
645
100
AcDbEntity
  8
BEMA_U_00DFUNG
 62
     7
100
AcDbVertex
100
AcDb2dVertex
 10
56.28020630713763
 20
207.8529975880109
 30
0.0
  0
VERTEX
  5
647
330
645
100
AcDbEntity
  8
BEMA_U_00DFUNG
 62
     7
100
AcDbVertex
100
AcDb2dVertex
 10
56.28020630713763
 20
208.6520392544779
 30
0.0
  0
SEQEND
  5
648
330
645
100
AcDbEntity
  8
BEMA_U_00DFUNG
 62
     7
  0
POLYLINE
  5
649
330
1F
100
AcDbEntity
  8
BEMA_U_00DFUNG
 62
     7
100
AcDb2dPolyline
 66
     1
 10
0.0
 20
0.0
 30
0.0
  0
VERTEX
  5
64A
330
649
100
AcDbEntity
  8
BEMA_U_00DFUNG
 62
     7
100
AcDbVertex
100
AcDb2dVertex
 10
56.33135908490277
 20
207.8529975880109
 30
0.0
  0
VERTEX
  5
64B
330
649
100
AcDbEntity
  8
BEMA_U_00DFUNG
 62
     7
100
AcDbVertex
100
AcDb2dVertex
 10
56.33135908490277
 20
209.0383309210477
 30
0.0
  0
SEQEND
  5
64C
330
649
100
AcDbEntity
  8
BEMA_U_00DFUNG
 62
     7
  0
POLYLINE
  5
64D
330
1F
100
AcDbEntity
  8
BEMA_U_00DFUNG
 62
     7
100
AcDb2dPolyline
 66
     1
 10
0.0
 20
0.0
 30
0.0
  0
VERTEX
  5
64E
330
64D
100
AcDbEntity
  8
BEMA_U_00DFUNG
 62
     7
100
AcDbVertex
100
AcDb2dVertex
 10
56.38215908488983
 20
207.8529975880109
 30
0.0
  0
VERTEX
  5
64F
330
64D
100
AcDbEntity
  8
BEMA_U_00DFUNG
 62
     7
100
AcDbVertex
100
AcDb2dVertex
 10
56.38215908488983
 20
209.4239170320627
 30
0.0
  0
SEQEND
  5
650
330
64D
100
AcDbEntity
  8
BEMA_U_00DFUNG
 62
     7
  0
POLYLINE
  5
651
330
1F
100
AcDbEntity
  8
BEMA_U_00DFUNG
 62
     7
100
AcDb2dPolyline
 66
     1
 10
0.0
 20
0.0
 30
0.0
  0
VERTEX
  5
652
330
651
100
AcDbEntity
  8
BEMA_U_00DFUNG
 62
     7
100
AcDbVertex
100
AcDb2dVertex
 10
56.43295908487721
 20
207.8529975880109
 30
0.0
  0
VERTEX
  5
653
330
651
100
AcDbEntity
  8
BEMA_U_00DFUNG
 62
     7
100
AcDbVertex
100
AcDb2dVertex
 10
56.43295908487721
 20
209.8102086986326
 30
0.0
  0
SEQEND
  5
654
330
651
100
AcDbEntity
  8
BEMA_U_00DFUNG
 62
     7
  0
POLYLINE
  5
655
330
1F
100
AcDbEntity
  8
BEMA_U_00DFUNG
 62
     7
100
AcDb2dPolyline
 66
     1
 10
0.0
 20
0.0
 30
0.0
  0
VERTEX
  5
656
330
655
100
AcDbEntity
  8
BEMA_U_00DFUNG
 62
     7
100
AcDbVertex
100
AcDb2dVertex
 10
56.48340630708683
 20
207.8529975880109
 30
0.0
  0
VERTEX
  5
657
330
655
100
AcDbEntity
  8
BEMA_U_00DFUNG
 62
     7
100
AcDbVertex
100
AcDb2dVertex
 10
56.48340630708683
 20
210.1954420318698
 30
0.0
  0
SEQEND
  5
658
330
655
100
AcDbEntity
  8
BEMA_U_00DFUNG
 62
     7
  0
POLYLINE
  5
659
330
1F
100
AcDbEntity
  8
BEMA_U_00DFUNG
 62
     7
100
AcDb2dPolyline
 66
     1
 10
0.0
 20
0.0
 30
0.0
  0
VERTEX
  5
65A
330
659
100
AcDbEntity
  8
BEMA_U_00DFUNG
 62
     7
100
AcDbVertex
100
AcDb2dVertex
 10
56.53420630707421
 20
207.8529975880109
 30
0.0
  0
VERTEX
  5
65B
330
659
100
AcDbEntity
  8
BEMA_U_00DFUNG
 62
     7
100
AcDbVertex
100
AcDb2dVertex
 10
56.53420630707421
 20
210.5817336984396
 30
0.0
  0
SEQEND
  5
65C
330
659
100
AcDbEntity
  8
BEMA_U_00DFUNG
 62
     7
  0
POLYLINE
  5
65D
330
1F
100
AcDbEntity
  8
BEMA_U_00DFUNG
 62
     7
100
AcDb2dPolyline
 66
     1
 10
0.0
 20
0.0
 30
0.0
  0
VERTEX
  5
65E
330
65D
100
AcDbEntity
  8
BEMA_U_00DFUNG
 62
     7
100
AcDbVertex
100
AcDb2dVertex
 10
56.58535908483904
 20
207.8529975880109
 30
0.0
  0
VERTEX
  5
65F
330
65D
100
AcDbEntity
  8
BEMA_U_00DFUNG
 62
     7
100
AcDbVertex
100
AcDb2dVertex
 10
56.58535908483904
 20
210.9673198094546
 30
0.0
  0
SEQEND
  5
660
330
65D
100
AcDbEntity
  8
BEMA_U_00DFUNG
 62
     7
  0
POLYLINE
  5
661
330
1F
100
AcDbEntity
  8
BEMA_U_00DFUNG
 62
     7
100
AcDb2dPolyline
 66
     1
 10
0.0
 20
0.0
 30
0.0
  0
VERTEX
  5
662
330
661
100
AcDbEntity
  8
BEMA_U_00DFUNG
 62
     7
100
AcDbVertex
100
AcDb2dVertex
 10
56.63615908482642
 20
207.8529975880109
 30
0.0
  0
VERTEX
  5
663
330
661
100
AcDbEntity
  8
BEMA_U_00DFUNG
 62
     7
100
AcDbVertex
100
AcDb2dVertex
 10
56.63615908482642
 20
211.3536114760245
 30
0.0
  0
SEQEND
  5
664
330
661
100
AcDbEntity
  8
BEMA_U_00DFUNG
 62
     7
  0
POLYLINE
  5
665
330
1F
100
AcDbEntity
  8
BEMA_U_00DFUNG
 62
     7
100
AcDb2dPolyline
 66
     1
 10
0.0
 20
0.0
 30
0.0
  0
VERTEX
  5
666
330
665
100
AcDbEntity
  8
BEMA_U_00DFUNG
 62
     7
100
AcDbVertex
100
AcDb2dVertex
 10
57.09300630693446
 20
207.8529975880109
 30
0.0
  0
VERTEX
  5
667
330
665
100
AcDbEntity
  8
BEMA_U_00DFUNG
 62
     7
100
AcDbVertex
100
AcDb2dVertex
 10
57.09300630693446
 20
207.8805142546708
 30
0.0
  0
SEQEND
  5
668
330
665
100
AcDbEntity
  8
BEMA_U_00DFUNG
 62
     7
  0
POLYLINE
  5
669
330
1F
100
AcDbEntity
  8
BEMA_U_00DFUNG
 62
     7
100
AcDb2dPolyline
 66
     1
 10
0.0
 20
0.0
 30
0.0
  0
VERTEX
  5
66A
330
669
100
AcDbEntity
  8
BEMA_U_00DFUNG
 62
     7
100
AcDbVertex
100
AcDb2dVertex
 10
57.09300630693446
 20
207.8529975880109
 30
0.0
  0
VERTEX
  5
66B
330
669
100
AcDbEntity
  8
BEMA_U_00DFUNG
 62
     7
100
AcDbVertex
100
AcDb2dVertex
 10
57.09300630693446
 20
207.8805142546708
 30
0.0
  0
SEQEND
  5
66C
330
669
100
AcDbEntity
  8
BEMA_U_00DFUNG
 62
     7
  0
POLYLINE
  5
66D
330
1F
100
AcDbEntity
  8
BEMA_U_00DFUNG
 62
     7
100
AcDb2dPolyline
 66
     1
 10
0.0
 20
0.0
 30
0.0
  0
VERTEX
  5
66E
330
66D
100
AcDbEntity
  8
BEMA_U_00DFUNG
 62
     7
100
AcDbVertex
100
AcDb2dVertex
 10
57.04220630694707
 20
207.8529975880109
 30
0.0
  0
VERTEX
  5
66F
330
66D
100
AcDbEntity
  8
BEMA_U_00DFUNG
 62
     7
100
AcDbVertex
100
AcDb2dVertex
 10
57.04220630694707
 20
208.2664531434629
 30
0.0
  0
SEQEND
  5
670
330
66D
100
AcDbEntity
  8
BEMA_U_00DFUNG
 62
     7
  0
POLYLINE
  5
671
330
1F
100
AcDbEntity
  8
BEMA_U_00DFUNG
 62
     7
100
AcDb2dPolyline
 66
     1
 10
0.0
 20
0.0
 30
0.0
  0
VERTEX
  5
672
330
671
100
AcDbEntity
  8
BEMA_U_00DFUNG
 62
     7
100
AcDbVertex
100
AcDb2dVertex
 10
56.99140630696002
 20
207.8529975880109
 30
0.0
  0
VERTEX
  5
673
330
671
100
AcDbEntity
  8
BEMA_U_00DFUNG
 62
     7
100
AcDbVertex
100
AcDb2dVertex
 10
56.99140630696002
 20
208.6520392544779
 30
0.0
  0
SEQEND
  5
674
330
671
100
AcDbEntity
  8
BEMA_U_00DFUNG
 62
     7
  0
POLYLINE
  5
675
330
1F
100
AcDbEntity
  8
BEMA_U_00DFUNG
 62
     7
100
AcDb2dPolyline
 66
     1
 10
0.0
 20
0.0
 30
0.0
  0
VERTEX
  5
676
330
675
100
AcDbEntity
  8
BEMA_U_00DFUNG
 62
     7
100
AcDbVertex
100
AcDb2dVertex
 10
56.94095908475039
 20
207.8529975880109
 30
0.0
  0
VERTEX
  5
677
330
675
100
AcDbEntity
  8
BEMA_U_00DFUNG
 62
     7
100
AcDbVertex
100
AcDb2dVertex
 10
56.94095908475039
 20
209.0383309210477
 30
0.0
  0
SEQEND
  5
678
330
675
100
AcDbEntity
  8
BEMA_U_00DFUNG
 62
     7
  0
POLYLINE
  5
679
330
1F
100
AcDbEntity
  8
BEMA_U_00DFUNG
 62
     7
100
AcDb2dPolyline
 66
     1
 10
0.0
 20
0.0
 30
0.0
  0
VERTEX
  5
67A
330
679
100
AcDbEntity
  8
BEMA_U_00DFUNG
 62
     7
100
AcDbVertex
100
AcDb2dVertex
 10
56.89015908476301
 20
207.8529975880109
 30
0.0
  0
VERTEX
  5
67B
330
679
100
AcDbEntity
  8
BEMA_U_00DFUNG
 62
     7
100
AcDbVertex
100
AcDb2dVertex
 10
56.89015908476301
 20
209.4239170320627
 30
0.0
  0
SEQEND
  5
67C
330
679
100
AcDbEntity
  8
BEMA_U_00DFUNG
 62
     7
  0
POLYLINE
  5
67D
330
1F
100
AcDbEntity
  8
BEMA_U_00DFUNG
 62
     7
100
AcDb2dPolyline
 66
     1
 10
0.0
 20
0.0
 30
0.0
  0
VERTEX
  5
67E
330
67D
100
AcDbEntity
  8
BEMA_U_00DFUNG
 62
     7
100
AcDbVertex
100
AcDb2dVertex
 10
56.83900630699787
 20
207.8529975880109
 30
0.0
  0
VERTEX
  5
67F
330
67D
100
AcDbEntity
  8
BEMA_U_00DFUNG
 62
     7
100
AcDbVertex
100
AcDb2dVertex
 10
56.83900630699787
 20
209.8102086986326
 30
0.0
  0
SEQEND
  5
680
330
67D
100
AcDbEntity
  8
BEMA_U_00DFUNG
 62
     7
  0
POLYLINE
  5
681
330
1F
100
AcDbEntity
  8
BEMA_U_00DFUNG
 62
     7
100
AcDb2dPolyline
 66
     1
 10
0.0
 20
0.0
 30
0.0
  0
VERTEX
  5
682
330
681
100
AcDbEntity
  8
BEMA_U_00DFUNG
 62
     7
100
AcDbVertex
100
AcDb2dVertex
 10
56.7882063070108
 20
207.8529975880109
 30
0.0
  0
VERTEX
  5
683
330
681
100
AcDbEntity
  8
BEMA_U_00DFUNG
 62
     7
100
AcDbVertex
100
AcDb2dVertex
 10
56.7882063070108
 20
210.1954420318698
 30
0.0
  0
SEQEND
  5
684
330
681
100
AcDbEntity
  8
BEMA_U_00DFUNG
 62
     7
  0
POLYLINE
  5
685
330
1F
100
AcDbEntity
  8
BEMA_U_00DFUNG
 62
     7
100
AcDb2dPolyline
 66
     1
 10
0.0
 20
0.0
 30
0.0
  0
VERTEX
  5
686
330
685
100
AcDbEntity
  8
BEMA_U_00DFUNG
 62
     7
100
AcDbVertex
100
AcDb2dVertex
 10
56.73740630702342
 20
207.8529975880109
 30
0.0
  0
VERTEX
  5
687
330
685
100
AcDbEntity
  8
BEMA_U_00DFUNG
 62
     7
100
AcDbVertex
100
AcDb2dVertex
 10
56.73740630702342
 20
210.5817336984396
 30
0.0
  0
SEQEND
  5
688
330
685
100
AcDbEntity
  8
BEMA_U_00DFUNG
 62
     7
  0
POLYLINE
  5
689
330
1F
100
AcDbEntity
  8
BEMA_U_00DFUNG
 62
     7
100
AcDb2dPolyline
 66
     1
 10
0.0
 20
0.0
 30
0.0
  0
VERTEX
  5
68A
330
689
100
AcDbEntity
  8
BEMA_U_00DFUNG
 62
     7
100
AcDbVertex
100
AcDb2dVertex
 10
56.6869590848138
 20
207.8529975880109
 30
0.0
  0
VERTEX
  5
68B
330
689
100
AcDbEntity
  8
BEMA_U_00DFUNG
 62
     7
100
AcDbVertex
100
AcDb2dVertex
 10
56.6869590848138
 20
210.9673198094546
 30
0.0
  0
SEQEND
  5
68C
330
689
100
AcDbEntity
  8
BEMA_U_00DFUNG
 62
     7
  0
POLYLINE
  5
68D
330
1F
100
AcDbEntity
  8
BEMA_U_00DFUNG
 62
     7
100
AcDb2dPolyline
 66
     1
 10
0.0
 20
0.0
 30
0.0
  0
VERTEX
  5
68E
330
68D
100
AcDbEntity
  8
BEMA_U_00DFUNG
 62
     7
100
AcDbVertex
100
AcDb2dVertex
 10
56.63615908482642
 20
207.8529975880109
 30
0.0
  0
VERTEX
  5
68F
330
68D
100
AcDbEntity
  8
BEMA_U_00DFUNG
 62
     7
100
AcDbVertex
100
AcDb2dVertex
 10
56.63615908482642
 20
211.3536114760245
 30
0.0
  0
SEQEND
  5
690
330
68D
100
AcDbEntity
  8
BEMA_U_00DFUNG
 62
     7
  0
POLYLINE
  5
691
330
1F
100
AcDbEntity
  8
BEMA_U_00DFUNG
 62
     7
100
AcDb2dPolyline
 66
     1
 10
0.0
 20
0.0
 30
0.0
  0
VERTEX
  5
692
330
691
100
AcDbEntity
  8
BEMA_U_00DFUNG
 62
     7
100
AcDbVertex
100
AcDb2dVertex
 10
68.86592912774898
 20
181.0102645766398
 30
0.0
  0
VERTEX
  5
693
330
691
100
AcDbEntity
  8
BEMA_U_00DFUNG
 62
     7
100
AcDbVertex
100
AcDb2dVertex
 10
54.91568468679214
 20
181.0102645766398
 30
0.0
  0
SEQEND
  5
694
330
691
100
AcDbEntity
  8
BEMA_U_00DFUNG
 62
     7
  0
POLYLINE
  5
695
330
1F
100
AcDbEntity
  8
BEMA_U_00DFUNG
 62
     7
100
AcDb2dPolyline
 66
     1
 10
0.0
 20
0.0
 30
0.0
  0
VERTEX
  5
696
330
695
100
AcDbEntity
  8
BEMA_U_00DFUNG
 62
     7
100
AcDbVertex
100
AcDb2dVertex
 10
67.61568468361715
 20
178.0091840218346
 30
0.0
  0
VERTEX
  5
697
330
695
100
AcDbEntity
  8
BEMA_U_00DFUNG
 62
     7
100
AcDbVertex
100
AcDb2dVertex
 10
54.91568468679214
 20
178.0091840218346
 30
0.0
  0
SEQEND
  5
698
330
695
100
AcDbEntity
  8
BEMA_U_00DFUNG
 62
     7
  0
POLYLINE
  5
699
330
1F
100
AcDbEntity
  8
BEMA_U_00DFUNG
 62
     7
100
AcDb2dPolyline
 66
     1
 10
0.0
 20
0.0
 30
0.0
  0
VERTEX
  5
69A
330
699
100
AcDbEntity
  8
BEMA_U_00DFUNG
 62
     7
100
AcDbVertex
100
AcDb2dVertex
 10
56.9159346862921
 20
189.7602117966745
 30
0.0
  0
VERTEX
  5
69B
330
699
100
AcDbEntity
  8
BEMA_U_00DFUNG
 62
     7
100
AcDbVertex
100
AcDb2dVertex
 10
56.9159346862921
 20
169.2592368017999
 30
0.0
  0
SEQEND
  5
69C
330
699
100
AcDbEntity
  8
BEMA_U_00DFUNG
 62
     7
  0
POLYLINE
  5
69D
330
1F
100
AcDbEntity
  8
BEMA_U_00DFUNG
 62
     7
100
AcDb2dPolyline
 66
     1
 10
0.0
 20
0.0
 30
0.0
  0
VERTEX
  5
69E
330
69D
100
AcDbEntity
  8
BEMA_U_00DFUNG
 62
     7
100
AcDbVertex
100
AcDb2dVertex
 10
56.9159346862921
 20
181.0102645766398
 30
0.0
  0
VERTEX
  5
69F
330
69D
100
AcDbEntity
  8
BEMA_U_00DFUNG
 62
     7
100
AcDbVertex
100
AcDb2dVertex
 10
57.37630968617679
 20
184.5098201313205
 30
0.0
  0
VERTEX
  5
6A0
330
69D
100
AcDbEntity
  8
BEMA_U_00DFUNG
 62
     7
100
AcDbVertex
100
AcDb2dVertex
 10
56.45485413085157
 20
184.5098201313205
 30
0.0
  0
VERTEX
  5
6A1
330
69D
100
AcDbEntity
  8
BEMA_U_00DFUNG
 62
     7
100
AcDbVertex
100
AcDb2dVertex
 10
56.9159346862921
 20
181.0102645766398
 30
0.0
  0
SEQEND
  5
6A2
330
69D
100
AcDbEntity
  8
BEMA_U_00DFUNG
 62
     7
  0
POLYLINE
  5
6A3
330
1F
100
AcDbEntity
  8
BEMA_U_00DFUNG
 62
     7
100
AcDb2dPolyline
 66
     1
 10
0.0
 20
0.0
 30
0.0
  0
VERTEX
  5
6A4
330
6A3
100
AcDbEntity
  8
BEMA_U_00DFUNG
 62
     7
100
AcDbVertex
100
AcDb2dVertex
 10
57.37313468617758
 20
184.5098201313205
 30
0.0
  0
VERTEX
  5
6A5
330
6A3
100
AcDbEntity
  8
BEMA_U_00DFUNG
 62
     7
100
AcDbVertex
100
AcDb2dVertex
 10
57.37313468617758
 20
184.4826562424386
 30
0.0
  0
SEQEND
  5
6A6
330
6A3
100
AcDbEntity
  8
BEMA_U_00DFUNG
 62
     7
  0
POLYLINE
  5
6A7
330
1F
100
AcDbEntity
  8
BEMA_U_00DFUNG
 62
     7
100
AcDb2dPolyline
 66
     1
 10
0.0
 20
0.0
 30
0.0
  0
VERTEX
  5
6A8
330
6A7
100
AcDbEntity
  8
BEMA_U_00DFUNG
 62
     7
100
AcDbVertex
100
AcDb2dVertex
 10
57.37313468617758
 20
184.5098201313205
 30
0.0
  0
VERTEX
  5
6A9
330
6A7
100
AcDbEntity
  8
BEMA_U_00DFUNG
 62
     7
100
AcDbVertex
100
AcDb2dVertex
 10
57.37313468617758
 20
184.4826562424386
 30
0.0
  0
SEQEND
  5
6AA
330
6A7
100
AcDbEntity
  8
BEMA_U_00DFUNG
 62
     7
  0
POLYLINE
  5
6AB
330
1F
100
AcDbEntity
  8
BEMA_U_00DFUNG
 62
     7
100
AcDb2dPolyline
 66
     1
 10
0.0
 20
0.0
 30
0.0
  0
VERTEX
  5
6AC
330
6AB
100
AcDbEntity
  8
BEMA_U_00DFUNG
 62
     7
100
AcDbVertex
100
AcDb2dVertex
 10
57.32198190841276
 20
184.5098201313205
 30
0.0
  0
VERTEX
  5
6AD
330
6AB
100
AcDbEntity
  8
BEMA_U_00DFUNG
 62
     7
100
AcDbVertex
100
AcDb2dVertex
 10
57.32198190841276
 20
184.0970701314236
 30
0.0
  0
SEQEND
  5
6AE
330
6AB
100
AcDbEntity
  8
BEMA_U_00DFUNG
 62
     7
  0
POLYLINE
  5
6AF
330
1F
100
AcDbEntity
  8
BEMA_U_00DFUNG
 62
     7
100
AcDb2dPolyline
 66
     1
 10
0.0
 20
0.0
 30
0.0
  0
VERTEX
  5
6B0
330
6AF
100
AcDbEntity
  8
BEMA_U_00DFUNG
 62
     7
100
AcDbVertex
100
AcDb2dVertex
 10
57.27118190842538
 20
184.5098201313205
 30
0.0
  0
VERTEX
  5
6B1
330
6AF
100
AcDbEntity
  8
BEMA_U_00DFUNG
 62
     7
100
AcDbVertex
100
AcDb2dVertex
 10
57.27118190842538
 20
183.7107784648537
 30
0.0
  0
SEQEND
  5
6B2
330
6AF
100
AcDbEntity
  8
BEMA_U_00DFUNG
 62
     7
  0
POLYLINE
  5
6B3
330
1F
100
AcDbEntity
  8
BEMA_U_00DFUNG
 62
     7
100
AcDb2dPolyline
 66
     1
 10
0.0
 20
0.0
 30
0.0
  0
VERTEX
  5
6B4
330
6B3
100
AcDbEntity
  8
BEMA_U_00DFUNG
 62
     7
100
AcDbVertex
100
AcDb2dVertex
 10
57.22073468621576
 20
184.5098201313205
 30
0.0
  0
VERTEX
  5
6B5
330
6B3
100
AcDbEntity
  8
BEMA_U_00DFUNG
 62
     7
100
AcDbVertex
100
AcDb2dVertex
 10
57.22073468621576
 20
183.3251923538388
 30
0.0
  0
SEQEND
  5
6B6
330
6B3
100
AcDbEntity
  8
BEMA_U_00DFUNG
 62
     7
  0
POLYLINE
  5
6B7
330
1F
100
AcDbEntity
  8
BEMA_U_00DFUNG
 62
     7
100
AcDb2dPolyline
 66
     1
 10
0.0
 20
0.0
 30
0.0
  0
VERTEX
  5
6B8
330
6B7
100
AcDbEntity
  8
BEMA_U_00DFUNG
 62
     7
100
AcDbVertex
100
AcDb2dVertex
 10
57.16993468622837
 20
184.5098201313205
 30
0.0
  0
VERTEX
  5
6B9
330
6B7
100
AcDbEntity
  8
BEMA_U_00DFUNG
 62
     7
100
AcDbVertex
100
AcDb2dVertex
 10
57.16993468622837
 20
182.9392534650467
 30
0.0
  0
SEQEND
  5
6BA
330
6B7
100
AcDbEntity
  8
BEMA_U_00DFUNG
 62
     7
  0
POLYLINE
  5
6BB
330
1F
100
AcDbEntity
  8
BEMA_U_00DFUNG
 62
     7
100
AcDb2dPolyline
 66
     1
 10
0.0
 20
0.0
 30
0.0
  0
VERTEX
  5
6BC
330
6BB
100
AcDbEntity
  8
BEMA_U_00DFUNG
 62
     7
100
AcDbVertex
100
AcDb2dVertex
 10
57.11913468624131
 20
184.5098201313205
 30
0.0
  0
VERTEX
  5
6BD
330
6BB
100
AcDbEntity
  8
BEMA_U_00DFUNG
 62
     7
100
AcDbVertex
100
AcDb2dVertex
 10
57.11913468624131
 20
182.5536673540317
 30
0.0
  0
SEQEND
  5
6BE
330
6BB
100
AcDbEntity
  8
BEMA_U_00DFUNG
 62
     7
  0
POLYLINE
  5
6BF
330
1F
100
AcDbEntity
  8
BEMA_U_00DFUNG
 62
     7
100
AcDb2dPolyline
 66
     1
 10
0.0
 20
0.0
 30
0.0
  0
VERTEX
  5
6C0
330
6BF
100
AcDbEntity
  8
BEMA_U_00DFUNG
 62
     7
100
AcDbVertex
100
AcDb2dVertex
 10
57.06798190847617
 20
184.5098201313205
 30
0.0
  0
VERTEX
  5
6C1
330
6BF
100
AcDbEntity
  8
BEMA_U_00DFUNG
 62
     7
100
AcDbVertex
100
AcDb2dVertex
 10
57.06798190847617
 20
182.1673756874618
 30
0.0
  0
SEQEND
  5
6C2
330
6BF
100
AcDbEntity
  8
BEMA_U_00DFUNG
 62
     7
  0
POLYLINE
  5
6C3
330
1F
100
AcDbEntity
  8
BEMA_U_00DFUNG
 62
     7
100
AcDb2dPolyline
 66
     1
 10
0.0
 20
0.0
 30
0.0
  0
VERTEX
  5
6C4
330
6C3
100
AcDbEntity
  8
BEMA_U_00DFUNG
 62
     7
100
AcDbVertex
100
AcDb2dVertex
 10
57.01718190848879
 20
184.5098201313205
 30
0.0
  0
VERTEX
  5
6C5
330
6C3
100
AcDbEntity
  8
BEMA_U_00DFUNG
 62
     7
100
AcDbVertex
100
AcDb2dVertex
 10
57.01718190848879
 20
181.7817895764468
 30
0.0
  0
SEQEND
  5
6C6
330
6C3
100
AcDbEntity
  8
BEMA_U_00DFUNG
 62
     7
  0
POLYLINE
  5
6C7
330
1F
100
AcDbEntity
  8
BEMA_U_00DFUNG
 62
     7
100
AcDb2dPolyline
 66
     1
 10
0.0
 20
0.0
 30
0.0
  0
VERTEX
  5
6C8
330
6C7
100
AcDbEntity
  8
BEMA_U_00DFUNG
 62
     7
100
AcDbVertex
100
AcDb2dVertex
 10
56.96638190850172
 20
184.5098201313205
 30
0.0
  0
VERTEX
  5
6C9
330
6C7
100
AcDbEntity
  8
BEMA_U_00DFUNG
 62
     7
100
AcDbVertex
100
AcDb2dVertex
 10
56.96638190850172
 20
181.395497909877
 30
0.0
  0
SEQEND
  5
6CA
330
6C7
100
AcDbEntity
  8
BEMA_U_00DFUNG
 62
     7
  0
POLYLINE
  5
6CB
330
1F
100
AcDbEntity
  8
BEMA_U_00DFUNG
 62
     7
100
AcDb2dPolyline
 66
     1
 10
0.0
 20
0.0
 30
0.0
  0
VERTEX
  5
6CC
330
6CB
100
AcDbEntity
  8
BEMA_U_00DFUNG
 62
     7
100
AcDbVertex
100
AcDb2dVertex
 10
56.9159346862921
 20
184.5098201313205
 30
0.0
  0
VERTEX
  5
6CD
330
6CB
100
AcDbEntity
  8
BEMA_U_00DFUNG
 62
     7
100
AcDbVertex
100
AcDb2dVertex
 10
56.9159346862921
 20
181.0102645766398
 30
0.0
  0
SEQEND
  5
6CE
330
6CB
100
AcDbEntity
  8
BEMA_U_00DFUNG
 62
     7
  0
POLYLINE
  5
6CF
330
1F
100
AcDbEntity
  8
BEMA_U_00DFUNG
 62
     7
100
AcDb2dPolyline
 66
     1
 10
0.0
 20
0.0
 30
0.0
  0
VERTEX
  5
6D0
330
6CF
100
AcDbEntity
  8
BEMA_U_00DFUNG
 62
     7
100
AcDbVertex
100
AcDb2dVertex
 10
56.45838190862855
 20
184.5098201313205
 30
0.0
  0
VERTEX
  5
6D1
330
6CF
100
AcDbEntity
  8
BEMA_U_00DFUNG
 62
     7
100
AcDbVertex
100
AcDb2dVertex
 10
56.45838190862855
 20
184.4826562424386
 30
0.0
  0
SEQEND
  5
6D2
330
6CF
100
AcDbEntity
  8
BEMA_U_00DFUNG
 62
     7
  0
POLYLINE
  5
6D3
330
1F
100
AcDbEntity
  8
BEMA_U_00DFUNG
 62
     7
100
AcDb2dPolyline
 66
     1
 10
0.0
 20
0.0
 30
0.0
  0
VERTEX
  5
6D4
330
6D3
100
AcDbEntity
  8
BEMA_U_00DFUNG
 62
     7
100
AcDbVertex
100
AcDb2dVertex
 10
56.45838190862855
 20
184.5098201313205
 30
0.0
  0
VERTEX
  5
6D5
330
6D3
100
AcDbEntity
  8
BEMA_U_00DFUNG
 62
     7
100
AcDbVertex
100
AcDb2dVertex
 10
56.45838190862855
 20
184.4826562424386
 30
0.0
  0
SEQEND
  5
6D6
330
6D3
100
AcDbEntity
  8
BEMA_U_00DFUNG
 62
     7
  0
POLYLINE
  5
6D7
330
1F
100
AcDbEntity
  8
BEMA_U_00DFUNG
 62
     7
100
AcDb2dPolyline
 66
     1
 10
0.0
 20
0.0
 30
0.0
  0
VERTEX
  5
6D8
330
6D7
100
AcDbEntity
  8
BEMA_U_00DFUNG
 62
     7
100
AcDbVertex
100
AcDb2dVertex
 10
56.50918190861593
 20
184.5098201313205
 30
0.0
  0
VERTEX
  5
6D9
330
6D7
100
AcDbEntity
  8
BEMA_U_00DFUNG
 62
     7
100
AcDbVertex
100
AcDb2dVertex
 10
56.50918190861593
 20
184.0970701314236
 30
0.0
  0
SEQEND
  5
6DA
330
6D7
100
AcDbEntity
  8
BEMA_U_00DFUNG
 62
     7
  0
POLYLINE
  5
6DB
330
1F
100
AcDbEntity
  8
BEMA_U_00DFUNG
 62
     7
100
AcDb2dPolyline
 66
     1
 10
0.0
 20
0.0
 30
0.0
  0
VERTEX
  5
6DC
330
6DB
100
AcDbEntity
  8
BEMA_U_00DFUNG
 62
     7
100
AcDbVertex
100
AcDb2dVertex
 10
56.55998190860331
 20
184.5098201313205
 30
0.0
  0
VERTEX
  5
6DD
330
6DB
100
AcDbEntity
  8
BEMA_U_00DFUNG
 62
     7
100
AcDbVertex
100
AcDb2dVertex
 10
56.55998190860331
 20
183.7107784648537
 30
0.0
  0
SEQEND
  5
6DE
330
6DB
100
AcDbEntity
  8
BEMA_U_00DFUNG
 62
     7
  0
POLYLINE
  5
6DF
330
1F
100
AcDbEntity
  8
BEMA_U_00DFUNG
 62
     7
100
AcDb2dPolyline
 66
     1
 10
0.0
 20
0.0
 30
0.0
  0
VERTEX
  5
6E0
330
6DF
100
AcDbEntity
  8
BEMA_U_00DFUNG
 62
     7
100
AcDbVertex
100
AcDb2dVertex
 10
56.61113468636813
 20
184.5098201313205
 30
0.0
  0
VERTEX
  5
6E1
330
6DF
100
AcDbEntity
  8
BEMA_U_00DFUNG
 62
     7
100
AcDbVertex
100
AcDb2dVertex
 10
56.61113468636813
 20
183.3251923538388
 30
0.0
  0
SEQEND
  5
6E2
330
6DF
100
AcDbEntity
  8
BEMA_U_00DFUNG
 62
     7
  0
POLYLINE
  5
6E3
330
1F
100
AcDbEntity
  8
BEMA_U_00DFUNG
 62
     7
100
AcDb2dPolyline
 66
     1
 10
0.0
 20
0.0
 30
0.0
  0
VERTEX
  5
6E4
330
6E3
100
AcDbEntity
  8
BEMA_U_00DFUNG
 62
     7
100
AcDbVertex
100
AcDb2dVertex
 10
56.66193468635552
 20
184.5098201313205
 30
0.0
  0
VERTEX
  5
6E5
330
6E3
100
AcDbEntity
  8
BEMA_U_00DFUNG
 62
     7
100
AcDbVertex
100
AcDb2dVertex
 10
56.66193468635552
 20
182.9392534650467
 30
0.0
  0
SEQEND
  5
6E6
330
6E3
100
AcDbEntity
  8
BEMA_U_00DFUNG
 62
     7
  0
POLYLINE
  5
6E7
330
1F
100
AcDbEntity
  8
BEMA_U_00DFUNG
 62
     7
100
AcDb2dPolyline
 66
     1
 10
0.0
 20
0.0
 30
0.0
  0
VERTEX
  5
6E8
330
6E7
100
AcDbEntity
  8
BEMA_U_00DFUNG
 62
     7
100
AcDbVertex
100
AcDb2dVertex
 10
56.71238190856513
 20
184.5098201313205
 30
0.0
  0
VERTEX
  5
6E9
330
6E7
100
AcDbEntity
  8
BEMA_U_00DFUNG
 62
     7
100
AcDbVertex
100
AcDb2dVertex
 10
56.71238190856513
 20
182.5536673540317
 30
0.0
  0
SEQEND
  5
6EA
330
6E7
100
AcDbEntity
  8
BEMA_U_00DFUNG
 62
     7
  0
POLYLINE
  5
6EB
330
1F
100
AcDbEntity
  8
BEMA_U_00DFUNG
 62
     7
100
AcDb2dPolyline
 66
     1
 10
0.0
 20
0.0
 30
0.0
  0
VERTEX
  5
6EC
330
6EB
100
AcDbEntity
  8
BEMA_U_00DFUNG
 62
     7
100
AcDbVertex
100
AcDb2dVertex
 10
56.76318190855252
 20
184.5098201313205
 30
0.0
  0
VERTEX
  5
6ED
330
6EB
100
AcDbEntity
  8
BEMA_U_00DFUNG
 62
     7
100
AcDbVertex
100
AcDb2dVertex
 10
56.76318190855252
 20
182.1673756874618
 30
0.0
  0
SEQEND
  5
6EE
330
6EB
100
AcDbEntity
  8
BEMA_U_00DFUNG
 62
     7
  0
POLYLINE
  5
6EF
330
1F
100
AcDbEntity
  8
BEMA_U_00DFUNG
 62
     7
100
AcDb2dPolyline
 66
     1
 10
0.0
 20
0.0
 30
0.0
  0
VERTEX
  5
6F0
330
6EF
100
AcDbEntity
  8
BEMA_U_00DFUNG
 62
     7
100
AcDbVertex
100
AcDb2dVertex
 10
56.81398190853958
 20
184.5098201313205
 30
0.0
  0
VERTEX
  5
6F1
330
6EF
100
AcDbEntity
  8
BEMA_U_00DFUNG
 62
     7
100
AcDbVertex
100
AcDb2dVertex
 10
56.81398190853958
 20
181.7817895764468
 30
0.0
  0
SEQEND
  5
6F2
330
6EF
100
AcDbEntity
  8
BEMA_U_00DFUNG
 62
     7
  0
POLYLINE
  5
6F3
330
1F
100
AcDbEntity
  8
BEMA_U_00DFUNG
 62
     7
100
AcDb2dPolyline
 66
     1
 10
0.0
 20
0.0
 30
0.0
  0
VERTEX
  5
6F4
330
6F3
100
AcDbEntity
  8
BEMA_U_00DFUNG
 62
     7
100
AcDbVertex
100
AcDb2dVertex
 10
56.86513468630472
 20
184.5098201313205
 30
0.0
  0
VERTEX
  5
6F5
330
6F3
100
AcDbEntity
  8
BEMA_U_00DFUNG
 62
     7
100
AcDbVertex
100
AcDb2dVertex
 10
56.86513468630472
 20
181.395497909877
 30
0.0
  0
SEQEND
  5
6F6
330
6F3
100
AcDbEntity
  8
BEMA_U_00DFUNG
 62
     7
  0
POLYLINE
  5
6F7
330
1F
100
AcDbEntity
  8
BEMA_U_00DFUNG
 62
     7
100
AcDb2dPolyline
 66
     1
 10
0.0
 20
0.0
 30
0.0
  0
VERTEX
  5
6F8
330
6F7
100
AcDbEntity
  8
BEMA_U_00DFUNG
 62
     7
100
AcDbVertex
100
AcDb2dVertex
 10
56.9159346862921
 20
184.5098201313205
 30
0.0
  0
VERTEX
  5
6F9
330
6F7
100
AcDbEntity
  8
BEMA_U_00DFUNG
 62
     7
100
AcDbVertex
100
AcDb2dVertex
 10
56.9159346862921
 20
181.0102645766398
 30
0.0
  0
SEQEND
  5
6FA
330
6F7
100
AcDbEntity
  8
BEMA_U_00DFUNG
 62
     7
  0
POLYLINE
  5
6FB
330
1F
100
AcDbEntity
  8
BEMA_U_00DFUNG
 62
     7
100
AcDb2dPolyline
 66
     1
 10
0.0
 20
0.0
 30
0.0
  0
VERTEX
  5
6FC
330
6FB
100
AcDbEntity
  8
BEMA_U_00DFUNG
 62
     7
100
AcDbVertex
100
AcDb2dVertex
 10
56.9159346862921
 20
178.0091840218346
 30
0.0
  0
VERTEX
  5
6FD
330
6FB
100
AcDbEntity
  8
BEMA_U_00DFUNG
 62
     7
100
AcDbVertex
100
AcDb2dVertex
 10
56.45485413085157
 20
174.5092756893762
 30
0.0
  0
VERTEX
  5
6FE
330
6FB
100
AcDbEntity
  8
BEMA_U_00DFUNG
 62
     7
100
AcDbVertex
100
AcDb2dVertex
 10
57.37630968617679
 20
174.5092756893762
 30
0.0
  0
VERTEX
  5
6FF
330
6FB
100
AcDbEntity
  8
BEMA_U_00DFUNG
 62
     7
100
AcDbVertex
100
AcDb2dVertex
 10
56.9159346862921
 20
178.0091840218346
 30
0.0
  0
SEQEND
  5
700
330
6FB
100
AcDbEntity
  8
BEMA_U_00DFUNG
 62
     7
  0
POLYLINE
  5
701
330
1F
100
AcDbEntity
  8
BEMA_U_00DFUNG
 62
     7
100
AcDb2dPolyline
 66
     1
 10
0.0
 20
0.0
 30
0.0
  0
VERTEX
  5
702
330
701
100
AcDbEntity
  8
BEMA_U_00DFUNG
 62
     7
100
AcDbVertex
100
AcDb2dVertex
 10
56.45838190862855
 20
174.5092756893762
 30
0.0
  0
VERTEX
  5
703
330
701
100
AcDbEntity
  8
BEMA_U_00DFUNG
 62
     7
100
AcDbVertex
100
AcDb2dVertex
 10
56.45838190862855
 20
174.5364395782587
 30
0.0
  0
SEQEND
  5
704
330
701
100
AcDbEntity
  8
BEMA_U_00DFUNG
 62
     7
  0
POLYLINE
  5
705
330
1F
100
AcDbEntity
  8
BEMA_U_00DFUNG
 62
     7
100
AcDb2dPolyline
 66
     1
 10
0.0
 20
0.0
 30
0.0
  0
VERTEX
  5
706
330
705
100
AcDbEntity
  8
BEMA_U_00DFUNG
 62
     7
100
AcDbVertex
100
AcDb2dVertex
 10
56.45838190862855
 20
174.5092756893762
 30
0.0
  0
VERTEX
  5
707
330
705
100
AcDbEntity
  8
BEMA_U_00DFUNG
 62
     7
100
AcDbVertex
100
AcDb2dVertex
 10
56.45838190862855
 20
174.5364395782587
 30
0.0
  0
SEQEND
  5
708
330
705
100
AcDbEntity
  8
BEMA_U_00DFUNG
 62
     7
  0
POLYLINE
  5
709
330
1F
100
AcDbEntity
  8
BEMA_U_00DFUNG
 62
     7
100
AcDb2dPolyline
 66
     1
 10
0.0
 20
0.0
 30
0.0
  0
VERTEX
  5
70A
330
709
100
AcDbEntity
  8
BEMA_U_00DFUNG
 62
     7
100
AcDbVertex
100
AcDb2dVertex
 10
56.50918190861593
 20
174.5092756893762
 30
0.0
  0
VERTEX
  5
70B
330
709
100
AcDbEntity
  8
BEMA_U_00DFUNG
 62
     7
100
AcDbVertex
100
AcDb2dVertex
 10
56.50918190861593
 20
174.9223784670507
 30
0.0
  0
SEQEND
  5
70C
330
709
100
AcDbEntity
  8
BEMA_U_00DFUNG
 62
     7
  0
POLYLINE
  5
70D
330
1F
100
AcDbEntity
  8
BEMA_U_00DFUNG
 62
     7
100
AcDb2dPolyline
 66
     1
 10
0.0
 20
0.0
 30
0.0
  0
VERTEX
  5
70E
330
70D
100
AcDbEntity
  8
BEMA_U_00DFUNG
 62
     7
100
AcDbVertex
100
AcDb2dVertex
 10
56.55998190860331
 20
174.5092756893762
 30
0.0
  0
VERTEX
  5
70F
330
70D
100
AcDbEntity
  8
BEMA_U_00DFUNG
 62
     7
100
AcDbVertex
100
AcDb2dVertex
 10
56.55998190860331
 20
175.3079645780657
 30
0.0
  0
SEQEND
  5
710
330
70D
100
AcDbEntity
  8
BEMA_U_00DFUNG
 62
     7
  0
POLYLINE
  5
711
330
1F
100
AcDbEntity
  8
BEMA_U_00DFUNG
 62
     7
100
AcDb2dPolyline
 66
     1
 10
0.0
 20
0.0
 30
0.0
  0
VERTEX
  5
712
330
711
100
AcDbEntity
  8
BEMA_U_00DFUNG
 62
     7
100
AcDbVertex
100
AcDb2dVertex
 10
56.61113468636813
 20
174.5092756893762
 30
0.0
  0
VERTEX
  5
713
330
711
100
AcDbEntity
  8
BEMA_U_00DFUNG
 62
     7
100
AcDbVertex
100
AcDb2dVertex
 10
56.61113468636813
 20
175.6939034668578
 30
0.0
  0
SEQEND
  5
714
330
711
100
AcDbEntity
  8
BEMA_U_00DFUNG
 62
     7
  0
POLYLINE
  5
715
330
1F
100
AcDbEntity
  8
BEMA_U_00DFUNG
 62
     7
100
AcDb2dPolyline
 66
     1
 10
0.0
 20
0.0
 30
0.0
  0
VERTEX
  5
716
330
715
100
AcDbEntity
  8
BEMA_U_00DFUNG
 62
     7
100
AcDbVertex
100
AcDb2dVertex
 10
56.66193468635552
 20
174.5092756893762
 30
0.0
  0
VERTEX
  5
717
330
715
100
AcDbEntity
  8
BEMA_U_00DFUNG
 62
     7
100
AcDbVertex
100
AcDb2dVertex
 10
56.66193468635552
 20
176.0798423556506
 30
0.0
  0
SEQEND
  5
718
330
715
100
AcDbEntity
  8
BEMA_U_00DFUNG
 62
     7
  0
POLYLINE
  5
719
330
1F
100
AcDbEntity
  8
BEMA_U_00DFUNG
 62
     7
100
AcDb2dPolyline
 66
     1
 10
0.0
 20
0.0
 30
0.0
  0
VERTEX
  5
71A
330
719
100
AcDbEntity
  8
BEMA_U_00DFUNG
 62
     7
100
AcDbVertex
100
AcDb2dVertex
 10
56.71238190856513
 20
174.5092756893762
 30
0.0
  0
VERTEX
  5
71B
330
719
100
AcDbEntity
  8
BEMA_U_00DFUNG
 62
     7
100
AcDbVertex
100
AcDb2dVertex
 10
56.71238190856513
 20
176.4657812444427
 30
0.0
  0
SEQEND
  5
71C
330
719
100
AcDbEntity
  8
BEMA_U_00DFUNG
 62
     7
  0
POLYLINE
  5
71D
330
1F
100
AcDbEntity
  8
BEMA_U_00DFUNG
 62
     7
100
AcDb2dPolyline
 66
     1
 10
0.0
 20
0.0
 30
0.0
  0
VERTEX
  5
71E
330
71D
100
AcDbEntity
  8
BEMA_U_00DFUNG
 62
     7
100
AcDbVertex
100
AcDb2dVertex
 10
56.76318190855252
 20
174.5092756893762
 30
0.0
  0
VERTEX
  5
71F
330
71D
100
AcDbEntity
  8
BEMA_U_00DFUNG
 62
     7
100
AcDbVertex
100
AcDb2dVertex
 10
56.76318190855252
 20
176.8513673554577
 30
0.0
  0
SEQEND
  5
720
330
71D
100
AcDbEntity
  8
BEMA_U_00DFUNG
 62
     7
  0
POLYLINE
  5
721
330
1F
100
AcDbEntity
  8
BEMA_U_00DFUNG
 62
     7
100
AcDb2dPolyline
 66
     1
 10
0.0
 20
0.0
 30
0.0
  0
VERTEX
  5
722
330
721
100
AcDbEntity
  8
BEMA_U_00DFUNG
 62
     7
100
AcDbVertex
100
AcDb2dVertex
 10
56.81398190853958
 20
174.5092756893762
 30
0.0
  0
VERTEX
  5
723
330
721
100
AcDbEntity
  8
BEMA_U_00DFUNG
 62
     7
100
AcDbVertex
100
AcDb2dVertex
 10
56.81398190853958
 20
177.2373062442498
 30
0.0
  0
SEQEND
  5
724
330
721
100
AcDbEntity
  8
BEMA_U_00DFUNG
 62
     7
  0
POLYLINE
  5
725
330
1F
100
AcDbEntity
  8
BEMA_U_00DFUNG
 62
     7
100
AcDb2dPolyline
 66
     1
 10
0.0
 20
0.0
 30
0.0
  0
VERTEX
  5
726
330
725
100
AcDbEntity
  8
BEMA_U_00DFUNG
 62
     7
100
AcDbVertex
100
AcDb2dVertex
 10
56.86513468630472
 20
174.5092756893762
 30
0.0
  0
VERTEX
  5
727
330
725
100
AcDbEntity
  8
BEMA_U_00DFUNG
 62
     7
100
AcDbVertex
100
AcDb2dVertex
 10
56.86513468630472
 20
177.6232451330425
 30
0.0
  0
SEQEND
  5
728
330
725
100
AcDbEntity
  8
BEMA_U_00DFUNG
 62
     7
  0
POLYLINE
  5
729
330
1F
100
AcDbEntity
  8
BEMA_U_00DFUNG
 62
     7
100
AcDb2dPolyline
 66
     1
 10
0.0
 20
0.0
 30
0.0
  0
VERTEX
  5
72A
330
729
100
AcDbEntity
  8
BEMA_U_00DFUNG
 62
     7
100
AcDbVertex
100
AcDb2dVertex
 10
56.9159346862921
 20
174.5092756893762
 30
0.0
  0
VERTEX
  5
72B
330
729
100
AcDbEntity
  8
BEMA_U_00DFUNG
 62
     7
100
AcDbVertex
100
AcDb2dVertex
 10
56.9159346862921
 20
178.0091840218346
 30
0.0
  0
SEQEND
  5
72C
330
729
100
AcDbEntity
  8
BEMA_U_00DFUNG
 62
     7
  0
POLYLINE
  5
72D
330
1F
100
AcDbEntity
  8
BEMA_U_00DFUNG
 62
     7
100
AcDb2dPolyline
 66
     1
 10
0.0
 20
0.0
 30
0.0
  0
VERTEX
  5
72E
330
72D
100
AcDbEntity
  8
BEMA_U_00DFUNG
 62
     7
100
AcDbVertex
100
AcDb2dVertex
 10
57.37313468617758
 20
174.5092756893762
 30
0.0
  0
VERTEX
  5
72F
330
72D
100
AcDbEntity
  8
BEMA_U_00DFUNG
 62
     7
100
AcDbVertex
100
AcDb2dVertex
 10
57.37313468617758
 20
174.5364395782587
 30
0.0
  0
SEQEND
  5
730
330
72D
100
AcDbEntity
  8
BEMA_U_00DFUNG
 62
     7
  0
POLYLINE
  5
731
330
1F
100
AcDbEntity
  8
BEMA_U_00DFUNG
 62
     7
100
AcDb2dPolyline
 66
     1
 10
0.0
 20
0.0
 30
0.0
  0
VERTEX
  5
732
330
731
100
AcDbEntity
  8
BEMA_U_00DFUNG
 62
     7
100
AcDbVertex
100
AcDb2dVertex
 10
57.37313468617758
 20
174.5092756893762
 30
0.0
  0
VERTEX
  5
733
330
731
100
AcDbEntity
  8
BEMA_U_00DFUNG
 62
     7
100
AcDbVertex
100
AcDb2dVertex
 10
57.37313468617758
 20
174.5364395782587
 30
0.0
  0
SEQEND
  5
734
330
731
100
AcDbEntity
  8
BEMA_U_00DFUNG
 62
     7
  0
POLYLINE
  5
735
330
1F
100
AcDbEntity
  8
BEMA_U_00DFUNG
 62
     7
100
AcDb2dPolyline
 66
     1
 10
0.0
 20
0.0
 30
0.0
  0
VERTEX
  5
736
330
735
100
AcDbEntity
  8
BEMA_U_00DFUNG
 62
     7
100
AcDbVertex
100
AcDb2dVertex
 10
57.32198190841276
 20
174.5092756893762
 30
0.0
  0
VERTEX
  5
737
330
735
100
AcDbEntity
  8
BEMA_U_00DFUNG
 62
     7
100
AcDbVertex
100
AcDb2dVertex
 10
57.32198190841276
 20
174.9223784670507
 30
0.0
  0
SEQEND
  5
738
330
735
100
AcDbEntity
  8
BEMA_U_00DFUNG
 62
     7
  0
POLYLINE
  5
739
330
1F
100
AcDbEntity
  8
BEMA_U_00DFUNG
 62
     7
100
AcDb2dPolyline
 66
     1
 10
0.0
 20
0.0
 30
0.0
  0
VERTEX
  5
73A
330
739
100
AcDbEntity
  8
BEMA_U_00DFUNG
 62
     7
100
AcDbVertex
100
AcDb2dVertex
 10
57.27118190842538
 20
174.5092756893762
 30
0.0
  0
VERTEX
  5
73B
330
739
100
AcDbEntity
  8
BEMA_U_00DFUNG
 62
     7
100
AcDbVertex
100
AcDb2dVertex
 10
57.27118190842538
 20
175.3079645780657
 30
0.0
  0
SEQEND
  5
73C
330
739
100
AcDbEntity
  8
BEMA_U_00DFUNG
 62
     7
  0
POLYLINE
  5
73D
330
1F
100
AcDbEntity
  8
BEMA_U_00DFUNG
 62
     7
100
AcDb2dPolyline
 66
     1
 10
0.0
 20
0.0
 30
0.0
  0
VERTEX
  5
73E
330
73D
100
AcDbEntity
  8
BEMA_U_00DFUNG
 62
     7
100
AcDbVertex
100
AcDb2dVertex
 10
57.22073468621576
 20
174.5092756893762
 30
0.0
  0
VERTEX
  5
73F
330
73D
100
AcDbEntity
  8
BEMA_U_00DFUNG
 62
     7
100
AcDbVertex
100
AcDb2dVertex
 10
57.22073468621576
 20
175.6939034668578
 30
0.0
  0
SEQEND
  5
740
330
73D
100
AcDbEntity
  8
BEMA_U_00DFUNG
 62
     7
  0
POLYLINE
  5
741
330
1F
100
AcDbEntity
  8
BEMA_U_00DFUNG
 62
     7
100
AcDb2dPolyline
 66
     1
 10
0.0
 20
0.0
 30
0.0
  0
VERTEX
  5
742
330
741
100
AcDbEntity
  8
BEMA_U_00DFUNG
 62
     7
100
AcDbVertex
100
AcDb2dVertex
 10
57.16993468622837
 20
174.5092756893762
 30
0.0
  0
VERTEX
  5
743
330
741
100
AcDbEntity
  8
BEMA_U_00DFUNG
 62
     7
100
AcDbVertex
100
AcDb2dVertex
 10
57.16993468622837
 20
176.0798423556506
 30
0.0
  0
SEQEND
  5
744
330
741
100
AcDbEntity
  8
BEMA_U_00DFUNG
 62
     7
  0
POLYLINE
  5
745
330
1F
100
AcDbEntity
  8
BEMA_U_00DFUNG
 62
     7
100
AcDb2dPolyline
 66
     1
 10
0.0
 20
0.0
 30
0.0
  0
VERTEX
  5
746
330
745
100
AcDbEntity
  8
BEMA_U_00DFUNG
 62
     7
100
AcDbVertex
100
AcDb2dVertex
 10
57.11913468624131
 20
174.5092756893762
 30
0.0
  0
VERTEX
  5
747
330
745
100
AcDbEntity
  8
BEMA_U_00DFUNG
 62
     7
100
AcDbVertex
100
AcDb2dVertex
 10
57.11913468624131
 20
176.4657812444427
 30
0.0
  0
SEQEND
  5
748
330
745
100
AcDbEntity
  8
BEMA_U_00DFUNG
 62
     7
  0
POLYLINE
  5
749
330
1F
100
AcDbEntity
  8
BEMA_U_00DFUNG
 62
     7
100
AcDb2dPolyline
 66
     1
 10
0.0
 20
0.0
 30
0.0
  0
VERTEX
  5
74A
330
749
100
AcDbEntity
  8
BEMA_U_00DFUNG
 62
     7
100
AcDbVertex
100
AcDb2dVertex
 10
57.06798190847617
 20
174.5092756893762
 30
0.0
  0
VERTEX
  5
74B
330
749
100
AcDbEntity
  8
BEMA_U_00DFUNG
 62
     7
100
AcDbVertex
100
AcDb2dVertex
 10
57.06798190847617
 20
176.8513673554577
 30
0.0
  0
SEQEND
  5
74C
330
749
100
AcDbEntity
  8
BEMA_U_00DFUNG
 62
     7
  0
POLYLINE
  5
74D
330
1F
100
AcDbEntity
  8
BEMA_U_00DFUNG
 62
     7
100
AcDb2dPolyline
 66
     1
 10
0.0
 20
0.0
 30
0.0
  0
VERTEX
  5
74E
330
74D
100
AcDbEntity
  8
BEMA_U_00DFUNG
 62
     7
100
AcDbVertex
100
AcDb2dVertex
 10
57.01718190848879
 20
174.5092756893762
 30
0.0
  0
VERTEX
  5
74F
330
74D
100
AcDbEntity
  8
BEMA_U_00DFUNG
 62
     7
100
AcDbVertex
100
AcDb2dVertex
 10
57.01718190848879
 20
177.2373062442498
 30
0.0
  0
SEQEND
  5
750
330
74D
100
AcDbEntity
  8
BEMA_U_00DFUNG
 62
     7
  0
POLYLINE
  5
751
330
1F
100
AcDbEntity
  8
BEMA_U_00DFUNG
 62
     7
100
AcDb2dPolyline
 66
     1
 10
0.0
 20
0.0
 30
0.0
  0
VERTEX
  5
752
330
751
100
AcDbEntity
  8
BEMA_U_00DFUNG
 62
     7
100
AcDbVertex
100
AcDb2dVertex
 10
56.96638190850172
 20
174.5092756893762
 30
0.0
  0
VERTEX
  5
753
330
751
100
AcDbEntity
  8
BEMA_U_00DFUNG
 62
     7
100
AcDbVertex
100
AcDb2dVertex
 10
56.96638190850172
 20
177.6232451330425
 30
0.0
  0
SEQEND
  5
754
330
751
100
AcDbEntity
  8
BEMA_U_00DFUNG
 62
     7
  0
POLYLINE
  5
755
330
1F
100
AcDbEntity
  8
BEMA_U_00DFUNG
 62
     7
100
AcDb2dPolyline
 66
     1
 10
0.0
 20
0.0
 30
0.0
  0
VERTEX
  5
756
330
755
100
AcDbEntity
  8
BEMA_U_00DFUNG
 62
     7
100
AcDbVertex
100
AcDb2dVertex
 10
56.9159346862921
 20
174.5092756893762
 30
0.0
  0
VERTEX
  5
757
330
755
100
AcDbEntity
  8
BEMA_U_00DFUNG
 62
     7
100
AcDbVertex
100
AcDb2dVertex
 10
56.9159346862921
 20
178.0091840218346
 30
0.0
  0
SEQEND
  5
758
330
755
100
AcDbEntity
  8
BEMA_U_00DFUNG
 62
     7
  0
MTEXT
  5
75A
330
1F
100
AcDbEntity
  8
TEXT
 62
     7
100
AcDbMText
 10
67.82129898495033
 20
229.0079961416141
 30
0.0
 40
2.49766666604225
 41
0.0
 71
     7
 72
     1
  1
\fINDEX Univers 45 Light|b0|i0|c0|p34;\W1;5
  0
MTEXT
  5
75B
330
1F
100
AcDbEntity
  8
TEXT
 62
     7
100
AcDbMText
 10
68.79707114301124
 20
239.2113892698955
 30
0.0
 40
2.49766666604225
 41
0.0
 71
     7
 72
     1
  1
\fINDEX Univers 45 Light|b0|i0|c0|p34;\W1;12,5
  0
MTEXT
  5
75C
330
1F
100
AcDbEntity
  8
TEXT
 62
     7
100
AcDbMText
 10
55.85356749091942
 20
212.8384350986323
 30
0.0
 40
2.49766666604225
 41
0.0
 71
     7
 72
     1
  1
\fINDEX Univers 45 Light|b0|i0|c0|p34;\W1;7
 11
6.123233995736766E-17
 21
1.0
 31
0.0
  0
MTEXT
  5
75D
330
1F
100
AcDbEntity
  8
TEXT
 62
     7
100
AcDbMText
 10
55.98143705451999
 20
184.9254317351136
 30
0.0
 40
2.49766666604225
 41
0.0
 71
     7
 72
     1
  1
\fINDEX Univers 45 Light|b0|i0|c0|p34;\W1;3
 11
6.123233995736766E-17
 21
1.0
 31
0.0
  0
ENDSEC
  0
SECTION
  2
OBJECTS
  0
DICTIONARY
  5
C
330
0
100
AcDbDictionary
  3
ACAD_GROUP
350
D
  3
ACAD_LAYOUT
350
1A
  3
ACAD_MATERIAL
350
3B
  3
ACAD_MLEADERSTYLE
350
780
  3
ACAD_MLINESTYLE
350
17
  3
ACAD_PLOTSETTINGS
350
19
  3
ACAD_VISUALSTYLE
350
2A
  3
ACDBHEADERROUNDTRIPXREC
350
75E
  3
ACDBVARIABLEDICTIONARY
350
77E
  0
DICTIONARY
  5
D
102
{ACAD_REACTORS
330
C
102
}
330
C
100
AcDbDictionary
  0
DICTIONARY
  5
1A
102
{ACAD_REACTORS
330
C
102
}
330
C
100
AcDbDictionary
  0
DICTIONARY
  5
3B
102
{ACAD_REACTORS
330
C
102
}
330
C
100
AcDbDictionary
  3
BYBLOCK
350
3D
  3
BYLAYER
350
3C
  3
GLOBAL
350
3E
  0
DICTIONARY
  5
780
102
{ACAD_REACTORS
330
C
102
}
330
C
100
AcDbDictionary
  0
DICTIONARY
  5
17
102
{ACAD_REACTORS
330
C
102
}
330
C
100
AcDbDictionary
  3
STANDARD
350
18
  0
DICTIONARY
  5
19
102
{ACAD_REACTORS
330
C
102
}
330
C
100
AcDbDictionary
  0
DICTIONARY
  5
2A
102
{ACAD_REACTORS
330
C
102
}
330
C
100
AcDbDictionary
  3
2DWIREFRAME
350
2F
  3
3D_HIDDEN
350
31
  3
3DWIREFRAME
350
30
  3
BASIC
350
32
  3
BRIGHTEN
350
36
  3
COLORCHANGE
350
3A
  3
CONCEPTUAL
350
34
  3
DIM
350
35
  3
FACEPATTERN
350
39
  3
FLAT
350
2B
  3
FLATWITHEDGES
350
2C
  3
GOURAUD
350
2D
  3
GOURAUDWITHEDGES
350
2E
  3
LINEPATTERN
350
38
  3
REALISTIC
350
33
  3
THICKEN
350
37
  0
DICTIONARY
  5
75E
102
{ACAD_REACTORS
330
C
102
}
330
C
100
AcDbDictionary
  3
CEPSNTYPE
350
767
  3
DIMSTYLEDATA
350
77D
  3
FINGERPRINTGUID
350
768
  3
HYPERLINKBASE
350
761
  3
INSUNITS
350
766
  3
LAYOUTDICT
350
763
  3
LWETCUNION
350
765
  3
PLOTSETDICT
350
764
  3
PSVPSCALE
350
76A
  3
PUCSBASE
350
76D
  3
PUCSORGBACK
350
773
  3
PUCSORGBOTTOM
350
76F
  3
PUCSORGFRONT
350
772
  3
PUCSORGLEFT
350
770
  3
PUCSORGRIGHT
350
771
  3
PUCSORGTOP
350
76E
  3
PUCSORTHOREF
350
76B
  3
PUCSORTHOVIEW
350
76C
  3
STYLESHEET
350
762
  3
TSTACKALIGN
350
75F
  3
TSTACKSIZE
350
760
  3
UCSBASE
350
776
  3
UCSORGBACK
350
77C
  3
UCSORGBOTTOM
350
778
  3
UCSORGFRONT
350
77B
  3
UCSORGLEFT
350
779
  3
UCSORGRIGHT
350
77A
  3
UCSORGTOP
350
777
  3
UCSORTHOREF
350
774
  3
UCSORTHOVIEW
350
775
  3
VERSIONGUID
350
769
  0
DICTIONARY
  5
77E
102
{ACAD_REACTORS
330
C
102
}
330
C
100
AcDbDictionary
  3
DIMASSOC
350
781
  3
HIDETEXT
350
782
  0
MATERIAL
  5
3D
102
{ACAD_REACTORS
330
3B
102
}
102
{ACAD_XDICTIONARY
360
785
102
}
330
3B
100
AcDbMaterial
  1
ByBlock
  0
MATERIAL
  5
3C
102
{ACAD_REACTORS
330
3B
102
}
102
{ACAD_XDICTIONARY
360
783
102
}
330
3B
100
AcDbMaterial
  1
ByLayer
  0
MATERIAL
  5
3E
102
{ACAD_REACTORS
330
3B
102
}
102
{ACAD_XDICTIONARY
360
787
102
}
330
3B
100
AcDbMaterial
  1
Global
  0
MLINESTYLE
  5
18
102
{ACAD_REACTORS
330
17
102
}
330
17
100
AcDbMlineStyle
  2
Standard
 70
     0
  3

 62
   256
 51
90.0
 52
90.0
 71
     2
 49
0.5
 62
   256
  6
BYLAYER
 49
-0.5
 62
   256
  6
BYLAYER
  0
ACAD_PROXY_OBJECT
  5
2F
102
{ACAD_REACTORS
330
2A
102
}
330
2A
100
AcDbProxyObject
 90
      499
 91
      501
 93
      436
310
42CC9915DA5C99599C985B595049028333333333333E3BF0000000000000FB0107901411070040501600405405064090741402480A0340
1001
ACAD
1000
AcDbSavedByObjectVersion
1070
     0
  0
ACAD_PROXY_OBJECT
  5
31
102
{ACAD_REACTORS
330
2A
102
}
330
2A
100
AcDbProxyObject
 90
      499
 91
      501
 93
      500
310
424CD108121A5919195B90640502408333333333333E3BF0000000000000FB01079024090700405020000000000001110200405405064090740C02480A0340
1001
ACAD
1000
AcDbSavedByObjectVersion
1070
     0
  0
ACAD_PROXY_OBJECT
  5
30
102
{ACAD_REACTORS
330
2A
102
}
330
2A
100
AcDbProxyObject
 90
      499
 91
      501
 93
      436
310
42CCD915DA5C99599C985B595059028333333333333E3BF0000000000000FB0107901411070040501600405405064090741402480A0340
1001
ACAD
1000
AcDbSavedByObjectVersion
1070
     0
  0
ACAD_PROXY_OBJECT
  5
32
102
{ACAD_REACTORS
330
2A
102
}
330
2A
100
AcDbProxyObject
 90
      499
 91
      501
 93
      388
310
4150985CDA58D07406404333333333333E3BF0000000000000FB0107A41107004050150841D405064090741402480A0350
1001
ACAD
1000
AcDbSavedByObjectVersion
1070
     0
  0
ACAD_PROXY_OBJECT
  5
36
102
{ACAD_REACTORS
330
2A
102
}
330
2A
100
AcDbProxyObject
 90
      499
 91
      501
 93
      428
310
42109C9A59DA1D195B90C409028333333333333E3BF0000000000000FB010790141107004050150841D405064090741402480A029950
1001
ACAD
1000
AcDbSavedByObjectVersion
1070
     0
  0
ACAD_PROXY_OBJECT
  5
3A
102
{ACAD_REACTORS
330
2A
102
}
330
2A
100
AcDbProxyObject
 90
      499
 91
      501
 93
      452
310
42D0DBDB1BDC90DA185B99D95104090240C333333333333E3BF0000000000000FB0108901411070040501508421405064090741402480A0350
1001
ACAD
1000
AcDbSavedByObjectVersion
1070
     0
  0
ACAD_PROXY_OBJECT
  5
34
102
{ACAD_REACTORS
330
2A
102
}
330
2A
100
AcDbProxyObject
 90
      499
 91
      501
 93
      500
310
4290DBDB98D95C1D1D585B10940D028333333333333E3BF0000000000000FB0107902409070040501000000000000111010841D405064090740C02480A0340
1001
ACAD
1000
AcDbSavedByObjectVersion
1070
     0
  0
ACAD_PROXY_OBJECT
  5
35
102
{ACAD_REACTORS
330
2A
102
}
330
2A
100
AcDbProxyObject
 90
      499
 91
      501
 93
      412
310
40D11A5B50B409028333333333333E3BF0000000000000FB010790141107004050150841D405064090741402480A02677FFFFFD0
1001
ACAD
1000
AcDbSavedByObjectVersion
1070
     0
  0
ACAD_PROXY_OBJECT
  5
39
102
{ACAD_REACTORS
330
2A
102
}
330
2A
100
AcDbProxyObject
 90
      499
 91
      501
 93
      444
310
42D19858D95C185D1D195C9B90F409028333333333333E3BF0000000000000FB010790141107004050150841D405064090741402480A0350
1001
ACAD
1000
AcDbSavedByObjectVersion
1070
     0
  0
ACAD_PROXY_OBJECT
  5
2B
102
{ACAD_REACTORS
330
2A
102
}
330
2A
100
AcDbProxyObject
 90
      499
 91
      501
 93
      388
310
41119B185D240901404333333333333E3BF0000000000000F9010740A41107004050150841D405064090741402480A1B50
1001
ACAD
1000
AcDbSavedByObjectVersion
1070
     0
  0
ACAD_PROXY_OBJECT
  5
2C
102
{ACAD_REACTORS
330
2A
102
}
330
2A
100
AcDbProxyObject
 90
      499
 91
      501
 93
      476
310
43519B185D15DA5D1A115919D95CD0140901404333333333333E3BF0000000000000F9010740901411070040501600405405064090741402480A1B50
1001
ACAD
1000
AcDbSavedByObjectVersion
1070
     0
  0
ACAD_PROXY_OBJECT
  5
2D
102
{ACAD_REACTORS
330
2A
102
}
330
2A
100
AcDbProxyObject
 90
      499
 91
      501
 93
      412
310
41D1DBDD5C985D5910240902404333333333333E3BF0000000000000F9010740A411070040501641D405064090741402480A1B50
1001
ACAD
1000
AcDbSavedByObjectVersion
1070
     0
  0
ACAD_PROXY_OBJECT
  5
2E
102
{ACAD_REACTORS
330
2A
102
}
330
2A
100
AcDbProxyObject
 90
      499
 91
      501
 93
      500
310
4411DBDD5C985D5915DA5D1A115919D95CD0340902404333333333333E3BF0000000000000F9010740901411070040501600405405064090741402480A1B50
1001
ACAD
1000
AcDbSavedByObjectVersion
1070
     0
  0
ACAD_PROXY_OBJECT
  5
38
102
{ACAD_REACTORS
330
2A
102
}
330
2A
100
AcDbProxyObject
 90
      499
 91
      501
 93
      444
310
42D31A5B995C185D1D195C9B90E409028333333333333E3BF0000000000000FB010790141107004050750841D405064090741402483A0350
1001
ACAD
1000
AcDbSavedByObjectVersion
1070
     0
  0
ACAD_PROXY_OBJECT
  5
33
102
{ACAD_REACTORS
330
2A
102
}
330
2A
100
AcDbProxyObject
 90
      499
 91
      501
 93
      420
310
425499585B1A5CDD1A58D08409028333333333333E3BF0000000000000FB01079019070040501508421405064090741402480A1B40
1001
ACAD
1000
AcDbSavedByObjectVersion
1070
     0
  0
ACAD_PROXY_OBJECT
  5
37
102
{ACAD_REACTORS
330
2A
102
}
330
2A
100
AcDbProxyObject
 90
      499
 91
      501
 93
      412
310
41D51A1A58DAD95B90D409028333333333333E3BF0000000000000FB010790141107004050150C41D405064090741402480A0350
1001
ACAD
1000
AcDbSavedByObjectVersion
1070
     0
  0
XRECORD
  5
767
102
{ACAD_REACTORS
330
75E
102
}
330
75E
100
AcDbXrecord
 90
        0
  0
XRECORD
  5
77D
102
{ACAD_REACTORS
330
75E
102
}
330
75E
100
AcDbXrecord
1000
DSTYLE
1002
{
1070
   340
340
11
1002
}
  0
XRECORD
  5
768
102
{ACAD_REACTORS
330
75E
102
}
330
75E
100
AcDbXrecord
  1
{23D25C1C-981F-41F8-B92E-E519D9EEBF5F}
  0
XRECORD
  5
761
102
{ACAD_REACTORS
330
75E
102
}
330
75E
100
AcDbXrecord
  1

  0
XRECORD
  5
766
102
{ACAD_REACTORS
330
75E
102
}
330
75E
100
AcDbXrecord
 90
        4
  0
XRECORD
  5
763
102
{ACAD_REACTORS
330
75E
102
}
330
75E
100
AcDbXrecord
340
1A
  0
XRECORD
  5
765
102
{ACAD_REACTORS
330
75E
102
}
330
75E
100
AcDbXrecord
 90
    10269
  0
XRECORD
  5
764
102
{ACAD_REACTORS
330
75E
102
}
330
75E
100
AcDbXrecord
340
19
  0
XRECORD
  5
76A
102
{ACAD_REACTORS
330
75E
102
}
330
75E
100
AcDbXrecord
 40
0.0
  0
XRECORD
  5
76D
102
{ACAD_REACTORS
330
75E
102
}
330
75E
100
AcDbXrecord
340
0
  0
XRECORD
  5
773
102
{ACAD_REACTORS
330
75E
102
}
330
75E
100
AcDbXrecord
 10
0.0
 20
0.0
 30
0.0
  0
XRECORD
  5
76F
102
{ACAD_REACTORS
330
75E
102
}
330
75E
100
AcDbXrecord
 10
0.0
 20
0.0
 30
0.0
  0
XRECORD
  5
772
102
{ACAD_REACTORS
330
75E
102
}
330
75E
100
AcDbXrecord
 10
0.0
 20
0.0
 30
0.0
  0
XRECORD
  5
770
102
{ACAD_REACTORS
330
75E
102
}
330
75E
100
AcDbXrecord
 10
0.0
 20
0.0
 30
0.0
  0
XRECORD
  5
771
102
{ACAD_REACTORS
330
75E
102
}
330
75E
100
AcDbXrecord
 10
0.0
 20
0.0
 30
0.0
  0
XRECORD
  5
76E
102
{ACAD_REACTORS
330
75E
102
}
330
75E
100
AcDbXrecord
 10
0.0
 20
0.0
 30
0.0
  0
XRECORD
  5
76B
102
{ACAD_REACTORS
330
75E
102
}
330
75E
100
AcDbXrecord
340
0
  0
XRECORD
  5
76C
102
{ACAD_REACTORS
330
75E
102
}
330
75E
100
AcDbXrecord
 70
     0
  0
XRECORD
  5
762
102
{ACAD_REACTORS
330
75E
102
}
330
75E
100
AcDbXrecord
  1

  0
XRECORD
  5
75F
102
{ACAD_REACTORS
330
75E
102
}
330
75E
100
AcDbXrecord
 90
        1
  0
XRECORD
  5
760
102
{ACAD_REACTORS
330
75E
102
}
330
75E
100
AcDbXrecord
 90
       70
  0
XRECORD
  5
776
102
{ACAD_REACTORS
330
75E
102
}
330
75E
100
AcDbXrecord
340
0
  0
XRECORD
  5
77C
102
{ACAD_REACTORS
330
75E
102
}
330
75E
100
AcDbXrecord
 10
0.0
 20
0.0
 30
0.0
  0
XRECORD
  5
778
102
{ACAD_REACTORS
330
75E
102
}
330
75E
100
AcDbXrecord
 10
0.0
 20
0.0
 30
0.0
  0
XRECORD
  5
77B
102
{ACAD_REACTORS
330
75E
102
}
330
75E
100
AcDbXrecord
 10
0.0
 20
0.0
 30
0.0
  0
XRECORD
  5
779
102
{ACAD_REACTORS
330
75E
102
}
330
75E
100
AcDbXrecord
 10
0.0
 20
0.0
 30
0.0
  0
XRECORD
  5
77A
102
{ACAD_REACTORS
330
75E
102
}
330
75E
100
AcDbXrecord
 10
0.0
 20
0.0
 30
0.0
  0
XRECORD
  5
777
102
{ACAD_REACTORS
330
75E
102
}
330
75E
100
AcDbXrecord
 10
0.0
 20
0.0
 30
0.0
  0
XRECORD
  5
774
102
{ACAD_REACTORS
330
75E
102
}
330
75E
100
AcDbXrecord
340
0
  0
XRECORD
  5
775
102
{ACAD_REACTORS
330
75E
102
}
330
75E
100
AcDbXrecord
 70
     0
  0
XRECORD
  5
769
102
{ACAD_REACTORS
330
75E
102
}
330
75E
100
AcDbXrecord
  1
{FAEB1C32-E019-11D5-929B-00C0DF256EC4}
  0
DICTIONARYVAR
  5
781
102
{ACAD_REACTORS
330
77E
102
}
330
77E
100
DictionaryVariables
280
     0
  1
2
  0
DICTIONARYVAR
  5
782
102
{ACAD_REACTORS
330
77E
102
}
330
77E
100
DictionaryVariables
280
     0
  1
1
  0
DICTIONARY
  5
785
330
3D
100
AcDbDictionary
280
     1
  3
ACAD_XREC_ROUNDTRIP
360
786
  0
DICTIONARY
  5
783
330
3C
100
AcDbDictionary
280
     1
  3
ACAD_XREC_ROUNDTRIP
360
784
  0
DICTIONARY
  5
787
330
3E
100
AcDbDictionary
280
     1
  3
ACAD_XREC_ROUNDTRIP
360
788
  0
XRECORD
  5
786
102
{ACAD_REACTORS
330
785
102
}
330
785
100
AcDbXrecord
102
MATERIAL
148
0.0
149
0.0
149
0.0
 93
        0
 94
      127
282
     0
 72
     1
 77
     1
171
     1
175
     1
179
     1
273
     0
  0
XRECORD
  5
784
102
{ACAD_REACTORS
330
783
102
}
330
783
100
AcDbXrecord
102
MATERIAL
148
0.0
149
0.0
149
0.0
 93
        0
 94
      127
282
     0
 72
     1
 77
     1
171
     1
175
     1
179
     1
273
     0
  0
XRECORD
  5
788
102
{ACAD_REACTORS
330
787
102
}
330
787
100
AcDbXrecord
102
MATERIAL
148
0.0
149
0.0
149
0.0
 93
        0
 94
      127
282
     0
 72
     1
 77
     1
171
     1
175
     1
179
     1
273
     0
  0
ENDSEC
  0
EOF
