ISO-10303-21;
HEADER;
/* Generated by software containing ST-Developer
 * from STEP Tools, Inc. (www.steptools.com) 
 */
/* OPTION: using custom schema-name function */

FILE_DESCRIPTION(
/* description */ (''),
/* implementation_level */ '2;1');

FILE_NAME(
/* name */ '10001217686nxv000_00_214.stp',
/* time_stamp */ '2023-07-20T12:36:36+02:00',
/* author */ (''),
/* organization */ (''),
/* preprocessor_version */ 'ST-DEVELOPER v18.1',
/* originating_system */ 'SIEMENS PLM Software NX 2000',
/* authorisation */ '');

FILE_SCHEMA (('AUTOMOTIVE_DESIGN { 1 0 10303 214 3 1 1 1 }'));
ENDSEC;

DATA;
#10=GEOMETRICALLY_BOUNDED_WIREFRAME_SHAPE_REPRESENTATION(
'10001217686nxv000_00-None',(#25),#175);
#11=SHAPE_REPRESENTATION_RELATIONSHIP('None',
'relationship between 10001217686nxv000_00-None and 10001217686nxv000_
00-None',#24,#13);
#12=SHAPE_REPRESENTATION_RELATIONSHIP('None',
'relationship between 10001217686nxv000_00-None and 10001217686nxv000_
00-None',#24,#10);
#13=ADVANCED_BREP_SHAPE_REPRESENTATION('10001217686nxv000_00-None',(#31),
#175);
#14=SHAPE_DEFINITION_REPRESENTATION(#15,#24);
#15=PRODUCT_DEFINITION_SHAPE('','',#16);
#16=PRODUCT_DEFINITION(' ','',#18,#17);
#17=PRODUCT_DEFINITION_CONTEXT('part definition',#23,'design');
#18=PRODUCT_DEFINITION_FORMATION_WITH_SPECIFIED_SOURCE(' ',' ',#20,
 .NOT_KNOWN.);
#19=PRODUCT_RELATED_PRODUCT_CATEGORY('part','',(#20));
#20=PRODUCT('10001217686nxv000_00','10001217686nxv000_00',' ',(#21));
#21=PRODUCT_CONTEXT(' ',#23,'mechanical');
#22=APPLICATION_PROTOCOL_DEFINITION('international standard',
'automotive_design',2010,#23);
#23=APPLICATION_CONTEXT(
'core data for automotive mechanical design processes');
#24=SHAPE_REPRESENTATION('10001217686nxv000_00-None',(#111),#175);
#25=GEOMETRIC_CURVE_SET('None',(#154));
#26=SURFACE_STYLE_USAGE(.BOTH.,#27);
#27=SURFACE_SIDE_STYLE('',(#28));
#28=SURFACE_STYLE_FILL_AREA(#29);
#29=FILL_AREA_STYLE('',(#30));
#30=FILL_AREA_STYLE_COLOUR('',#110);
#31=MANIFOLD_SOLID_BREP('',#32);
#32=CLOSED_SHELL('',(#48,#49,#50,#51,#52,#53,#54));
#33=SPHERICAL_SURFACE('',#124,3.);
#34=CONICAL_SURFACE('',#121,2.25,8.24868787906998);
#35=CYLINDRICAL_SURFACE('',#115,2.);
#36=CYLINDRICAL_SURFACE('',#119,3.5);
#37=CYLINDRICAL_SURFACE('',#123,2.24999999999708);
#38=FACE_BOUND('',#60,.T.);
#39=FACE_BOUND('',#61,.T.);
#40=FACE_BOUND('',#62,.T.);
#41=FACE_BOUND('',#63,.T.);
#42=FACE_BOUND('',#64,.T.);
#43=FACE_BOUND('',#65,.T.);
#44=FACE_BOUND('',#66,.T.);
#45=FACE_BOUND('',#67,.T.);
#46=FACE_BOUND('',#68,.T.);
#47=FACE_BOUND('',#69,.T.);
#48=ADVANCED_FACE('',(#57),#55,.F.);
#49=ADVANCED_FACE('',(#38,#39),#35,.T.);
#50=ADVANCED_FACE('',(#40,#41),#56,.T.);
#51=ADVANCED_FACE('',(#42,#43),#36,.T.);
#52=ADVANCED_FACE('',(#44,#45),#34,.T.);
#53=ADVANCED_FACE('',(#46,#47),#37,.T.);
#54=ADVANCED_FACE('',(#58),#33,.T.);
#55=PLANE('',#113);
#56=PLANE('',#117);
#57=FACE_OUTER_BOUND('',#59,.T.);
#58=FACE_OUTER_BOUND('',#70,.T.);
#59=EDGE_LOOP('',(#71));
#60=EDGE_LOOP('',(#72));
#61=EDGE_LOOP('',(#73));
#62=EDGE_LOOP('',(#74));
#63=EDGE_LOOP('',(#75));
#64=EDGE_LOOP('',(#76));
#65=EDGE_LOOP('',(#77));
#66=EDGE_LOOP('',(#78));
#67=EDGE_LOOP('',(#79));
#68=EDGE_LOOP('',(#80));
#69=EDGE_LOOP('',(#81));
#70=EDGE_LOOP('',(#82));
#71=ORIENTED_EDGE('',*,*,#89,.F.);
#72=ORIENTED_EDGE('',*,*,#89,.T.);
#73=ORIENTED_EDGE('',*,*,#90,.F.);
#74=ORIENTED_EDGE('',*,*,#90,.T.);
#75=ORIENTED_EDGE('',*,*,#91,.F.);
#76=ORIENTED_EDGE('',*,*,#91,.T.);
#77=ORIENTED_EDGE('',*,*,#92,.F.);
#78=ORIENTED_EDGE('',*,*,#92,.T.);
#79=ORIENTED_EDGE('',*,*,#93,.F.);
#80=ORIENTED_EDGE('',*,*,#93,.T.);
#81=ORIENTED_EDGE('',*,*,#94,.F.);
#82=ORIENTED_EDGE('',*,*,#94,.T.);
#83=VERTEX_POINT('',#156);
#84=VERTEX_POINT('',#159);
#85=VERTEX_POINT('',#162);
#86=VERTEX_POINT('',#165);
#87=VERTEX_POINT('',#168);
#88=VERTEX_POINT('',#171);
#89=EDGE_CURVE('',#83,#83,#95,.T.);
#90=EDGE_CURVE('',#84,#84,#96,.T.);
#91=EDGE_CURVE('',#85,#85,#97,.T.);
#92=EDGE_CURVE('',#86,#86,#98,.T.);
#93=EDGE_CURVE('',#87,#87,#99,.T.);
#94=EDGE_CURVE('',#88,#88,#100,.T.);
#95=CIRCLE('',#112,2.);
#96=CIRCLE('',#114,2.);
#97=CIRCLE('',#116,3.5);
#98=CIRCLE('',#118,3.5);
#99=CIRCLE('',#120,2.25);
#100=CIRCLE('',#122,2.24999999999416);
#101=PRESENTATION_LAYER_ASSIGNMENT('70','Layer 70',(#154));
#102=PRESENTATION_LAYER_ASSIGNMENT('10','Layer 10',(#31));
#103=STYLED_ITEM('',(#105),#154);
#104=STYLED_ITEM('',(#106),#31);
#105=PRESENTATION_STYLE_ASSIGNMENT((#107));
#106=PRESENTATION_STYLE_ASSIGNMENT((#26));
#107=POINT_STYLE('',#108,POSITIVE_LENGTH_MEASURE(3.),#109);
#108=PRE_DEFINED_POINT_MARKER_SYMBOL('plus');
#109=COLOUR_RGB('Medium Weak Red',0.6,0.4,0.4);
#110=COLOUR_RGB('orange',1.,0.500007629510948,0.);
#111=AXIS2_PLACEMENT_3D('',#153,#125,#126);
#112=AXIS2_PLACEMENT_3D('',#155,#127,#128);
#113=AXIS2_PLACEMENT_3D('',#157,#129,#130);
#114=AXIS2_PLACEMENT_3D('',#158,#131,#132);
#115=AXIS2_PLACEMENT_3D('',#160,#133,#134);
#116=AXIS2_PLACEMENT_3D('',#161,#135,#136);
#117=AXIS2_PLACEMENT_3D('',#163,#137,#138);
#118=AXIS2_PLACEMENT_3D('',#164,#139,#140);
#119=AXIS2_PLACEMENT_3D('',#166,#141,#142);
#120=AXIS2_PLACEMENT_3D('',#167,#143,#144);
#121=AXIS2_PLACEMENT_3D('',#169,#145,#146);
#122=AXIS2_PLACEMENT_3D('',#170,#147,#148);
#123=AXIS2_PLACEMENT_3D('',#172,#149,#150);
#124=AXIS2_PLACEMENT_3D('',#173,#151,#152);
#125=DIRECTION('',(0.,0.,1.));
#126=DIRECTION('',(1.,0.,0.));
#127=DIRECTION('',(1.,0.,0.));
#128=DIRECTION('',(0.,0.,-1.));
#129=DIRECTION('',(1.,0.,0.));
#130=DIRECTION('',(0.,0.,-1.));
#131=DIRECTION('',(1.,0.,0.));
#132=DIRECTION('',(0.,0.,-1.));
#133=DIRECTION('',(1.,0.,0.));
#134=DIRECTION('',(0.,0.,-1.));
#135=DIRECTION('',(1.,0.,0.));
#136=DIRECTION('',(0.,0.,-1.));
#137=DIRECTION('',(-1.,0.,0.));
#138=DIRECTION('',(0.,0.,1.));
#139=DIRECTION('',(1.,0.,0.));
#140=DIRECTION('',(0.,0.,-1.));
#141=DIRECTION('',(1.,0.,0.));
#142=DIRECTION('',(0.,0.,-1.));
#143=DIRECTION('',(1.,0.,0.));
#144=DIRECTION('',(0.,0.,-1.));
#145=DIRECTION('',(-1.,0.,0.));
#146=DIRECTION('',(-3.29930380385882E-16,0.,1.));
#147=DIRECTION('',(1.,0.,0.));
#148=DIRECTION('',(0.,0.,-1.));
#149=DIRECTION('',(1.,0.,0.));
#150=DIRECTION('',(0.,0.,-1.));
#151=DIRECTION('',(1.,0.,-6.12323399573677E-17));
#152=DIRECTION('',(0.,0.,-1.));
#153=CARTESIAN_POINT('',(0.,0.,0.));
#154=CARTESIAN_POINT('',(0.,0.,0.));
#155=CARTESIAN_POINT('',(-4.,0.,0.));
#156=CARTESIAN_POINT('',(-4.,0.,-2.));
#157=CARTESIAN_POINT('',(-4.,0.,0.));
#158=CARTESIAN_POINT('',(0.,0.,0.));
#159=CARTESIAN_POINT('',(0.,0.,-2.));
#160=CARTESIAN_POINT('',(0.,0.,0.));
#161=CARTESIAN_POINT('',(0.,0.,0.));
#162=CARTESIAN_POINT('',(0.,0.,-3.5));
#163=CARTESIAN_POINT('',(0.,0.,3.5));
#164=CARTESIAN_POINT('',(7.18875478504681,0.,0.));
#165=CARTESIAN_POINT('',(7.18875478504681,0.,-3.5));
#166=CARTESIAN_POINT('',(0.,0.,0.));
#167=CARTESIAN_POINT('',(15.8112452149532,0.,0.));
#168=CARTESIAN_POINT('',(15.8112452149532,0.,-2.25));
#169=CARTESIAN_POINT('',(15.8112452149532,0.,0.));
#170=CARTESIAN_POINT('',(48.0156865166949,0.,0.));
#171=CARTESIAN_POINT('',(48.0156865166949,0.,-2.24999999999416));
#172=CARTESIAN_POINT('',(0.,0.,0.));
#173=CARTESIAN_POINT('',(50.,0.,0.));
#174=MECHANICAL_DESIGN_GEOMETRIC_PRESENTATION_REPRESENTATION('',(#103,#104),
#175);
#175=(
GEOMETRIC_REPRESENTATION_CONTEXT(3)
GLOBAL_UNCERTAINTY_ASSIGNED_CONTEXT((#176))
GLOBAL_UNIT_ASSIGNED_CONTEXT((#182,#178,#177))
REPRESENTATION_CONTEXT('10001217686nxv000_00_214',
'TOP_LEVEL_ASSEMBLY_PART')
);
#176=UNCERTAINTY_MEASURE_WITH_UNIT(LENGTH_MEASURE(2.E-5),#182,
'DISTANCE_ACCURACY_VALUE','Maximum Tolerance applied to model');
#177=(
NAMED_UNIT(*)
SI_UNIT($,.STERADIAN.)
SOLID_ANGLE_UNIT()
);
#178=(
CONVERSION_BASED_UNIT('DEGREE',#180)
NAMED_UNIT(#179)
PLANE_ANGLE_UNIT()
);
#179=DIMENSIONAL_EXPONENTS(0.,0.,0.,0.,0.,0.,0.);
#180=PLANE_ANGLE_MEASURE_WITH_UNIT(PLANE_ANGLE_MEASURE(0.0174532925),#181);
#181=(
NAMED_UNIT(*)
PLANE_ANGLE_UNIT()
SI_UNIT($,.RADIAN.)
);
#182=(
LENGTH_UNIT()
NAMED_UNIT(*)
SI_UNIT(.MILLI.,.METRE.)
);
ENDSEC;
END-ISO-10303-21;
