  0
SECTION
  2
HEADER
  9
$ACADVER
  1
AC1014
  9
$ACADMAINTVER
 70
     9
  9
$DWGCODEPAGE
  3
ANSI_1252
  9
$INSBASE
 10
0.0
 20
0.0
 30
0.0
  9
$EXTMIN
 10
1.000000000000000E+20
 20
1.000000000000000E+20
 30
1.000000000000000E+20
  9
$EXTMAX
 10
-1.000000000000000E+20
 20
-1.000000000000000E+20
 30
-1.000000000000000E+20
  9
$LIMMIN
 10
0.0
 20
0.0
  9
$LIMMAX
 10
12.0
 20
9.0
  9
$ORTHOMODE
 70
     0
  9
$REGENMODE
 70
     1
  9
$FILLMODE
 70
     1
  9
$QTEXTMODE
 70
     0
  9
$MIRRTEXT
 70
     1
  9
$DRAGMODE
 70
     2
  9
$LTSCALE
 40
1.0
  9
$OSMODE
 70
    37
  9
$ATTMODE
 70
     1
  9
$TEXTSIZE
 40
0.2
  9
$TRACEWID
 40
0.05
  9
$TEXTSTYLE
  7
STANDARD
  9
$CLAYER
  8
0
  9
$CELTYPE
  6
BYLAYER
  9
$CECOLOR
 62
   256
  9
$CELTSCALE
 40
1.0
  9
$DELOBJ
 70
     1
  9
$DISPSILH
 70
     0
  9
$DIMSCALE
 40
1.0
  9
$DIMASZ
 40
0.18
  9
$DIMEXO
 40
0.0625
  9
$DIMDLI
 40
0.38
  9
$DIMRND
 40
0.0
  9
$DIMDLE
 40
0.0
  9
$DIMEXE
 40
0.18
  9
$DIMTP
 40
0.0
  9
$DIMTM
 40
0.0
  9
$DIMTXT
 40
0.18
  9
$DIMCEN
 40
0.09
  9
$DIMTSZ
 40
0.0
  9
$DIMTOL
 70
     0
  9
$DIMLIM
 70
     0
  9
$DIMTIH
 70
     1
  9
$DIMTOH
 70
     1
  9
$DIMSE1
 70
     0
  9
$DIMSE2
 70
     0
  9
$DIMTAD
 70
     0
  9
$DIMZIN
 70
     0
  9
$DIMBLK
  1

  9
$DIMASO
 70
     1
  9
$DIMSHO
 70
     1
  9
$DIMPOST
  1

  9
$DIMAPOST
  1

  9
$DIMALT
 70
     0
  9
$DIMALTD
 70
     2
  9
$DIMALTF
 40
25.4
  9
$DIMLFAC
 40
1.0
  9
$DIMTOFL
 70
     0
  9
$DIMTVP
 40
0.0
  9
$DIMTIX
 70
     0
  9
$DIMSOXD
 70
     0
  9
$DIMSAH
 70
     0
  9
$DIMBLK1
  1

  9
$DIMBLK2
  1

  9
$DIMSTYLE
  2
STANDARD
  9
$DIMCLRD
 70
     0
  9
$DIMCLRE
 70
     0
  9
$DIMCLRT
 70
     0
  9
$DIMTFAC
 40
1.0
  9
$DIMGAP
 40
0.09
  9
$DIMJUST
 70
     0
  9
$DIMSD1
 70
     0
  9
$DIMSD2
 70
     0
  9
$DIMTOLJ
 70
     1
  9
$DIMTZIN
 70
     0
  9
$DIMALTZ
 70
     0
  9
$DIMALTTZ
 70
     0
  9
$DIMFIT
 70
     3
  9
$DIMUPT
 70
     0
  9
$DIMUNIT
 70
     2
  9
$DIMDEC
 70
     4
  9
$DIMTDEC
 70
     4
  9
$DIMALTU
 70
     2
  9
$DIMALTTD
 70
     2
  9
$DIMTXSTY
  7
STANDARD
  9
$DIMAUNIT
 70
     0
  9
$LUNITS
 70
     2
  9
$LUPREC
 70
     4
  9
$SKETCHINC
 40
0.1
  9
$FILLETRAD
 40
0.5
  9
$AUNITS
 70
     0
  9
$AUPREC
 70
     0
  9
$MENU
  1
.
  9
$ELEVATION
 40
0.0
  9
$PELEVATION
 40
0.0
  9
$THICKNESS
 40
0.0
  9
$LIMCHECK
 70
     0
  9
$CHAMFERA
 40
0.5
  9
$CHAMFERB
 40
0.5
  9
$CHAMFERC
 40
1.0
  9
$CHAMFERD
 40
0.0
  9
$SKPOLY
 70
     0
  9
$TDCREATE
 40
2457723.403362164
  9
$TDUPDATE
 40
2457723.403362176
  9
$TDINDWG
 40
0.0000000116
  9
$TDUSRTIMER
 40
0.0000000116
  9
$USRTIMER
 70
     1
  9
$ANGBASE
 50
0.0
  9
$ANGDIR
 70
     0
  9
$PDMODE
 70
     0
  9
$PDSIZE
 40
0.0
  9
$PLINEWID
 40
0.0
  9
$COORDS
 70
     1
  9
$SPLFRAME
 70
     0
  9
$SPLINETYPE
 70
     6
  9
$SPLINESEGS
 70
     8
  9
$ATTDIA
 70
     0
  9
$ATTREQ
 70
     1
  9
$HANDLING
 70
     1
  9
$HANDSEED
  5
622
  9
$SURFTAB1
 70
     6
  9
$SURFTAB2
 70
     6
  9
$SURFTYPE
 70
     6
  9
$SURFU
 70
     6
  9
$SURFV
 70
     6
  9
$UCSNAME
  2

  9
$UCSORG
 10
0.0
 20
0.0
 30
0.0
  9
$UCSXDIR
 10
1.0
 20
0.0
 30
0.0
  9
$UCSYDIR
 10
0.0
 20
1.0
 30
0.0
  9
$PUCSNAME
  2

  9
$PUCSORG
 10
0.0
 20
0.0
 30
0.0
  9
$PUCSXDIR
 10
1.0
 20
0.0
 30
0.0
  9
$PUCSYDIR
 10
0.0
 20
1.0
 30
0.0
  9
$USERI1
 70
     0
  9
$USERI2
 70
     0
  9
$USERI3
 70
     0
  9
$USERI4
 70
     0
  9
$USERI5
 70
     0
  9
$USERR1
 40
0.0
  9
$USERR2
 40
0.0
  9
$USERR3
 40
0.0
  9
$USERR4
 40
0.0
  9
$USERR5
 40
0.0
  9
$WORLDVIEW
 70
     1
  9
$SHADEDGE
 70
     3
  9
$SHADEDIF
 70
    70
  9
$TILEMODE
 70
     1
  9
$MAXACTVP
 70
    64
  9
$PINSBASE
 10
0.0
 20
0.0
 30
0.0
  9
$PLIMCHECK
 70
     0
  9
$PEXTMIN
 10
1.000000000000000E+20
 20
1.000000000000000E+20
 30
1.000000000000000E+20
  9
$PEXTMAX
 10
-1.000000000000000E+20
 20
-1.000000000000000E+20
 30
-1.000000000000000E+20
  9
$PLIMMIN
 10
0.0
 20
0.0
  9
$PLIMMAX
 10
12.0
 20
9.0
  9
$UNITMODE
 70
     0
  9
$VISRETAIN
 70
     1
  9
$PLINEGEN
 70
     0
  9
$PSLTSCALE
 70
     1
  9
$TREEDEPTH
 70
  3020
  9
$PICKSTYLE
 70
     1
  9
$CMLSTYLE
  2
STANDARD
  9
$CMLJUST
 70
     0
  9
$CMLSCALE
 40
1.0
  9
$PROXYGRAPHICS
 70
     1
  9
$MEASUREMENT
 70
     0
  0
ENDSEC
  0
SECTION
  2
CLASSES
  0
CLASS
  1
ACDBDICTIONARYWDFLT
  2
AcDbDictionaryWithDefault
  3
ObjectDBX Classes
 90
        0
280
     0
281
     0
  0
CLASS
  1
VISUALSTYLE
  2
AcDbVisualStyle
  3
ObjectDBX Classes
 90
     4095
280
     0
281
     0
  0
CLASS
  1
XRECORD
  2
AcDbXrecord
  3
AutoCAD 2000
 90
        0
280
     0
281
     0
  0
CLASS
  1
LWPOLYLINE
  2
AcDbPolyline
  3
AutoCAD 2000
 90
        0
280
     0
281
     1
  0
CLASS
  1
HATCH
  2
AcDbHatch
  3
AutoCAD 2000
 90
        0
280
     0
281
     1
  0
CLASS
  1
ACDBPLACEHOLDER
  2
AcDbPlaceHolder
  3
ObjectDBX Classes
 90
        0
280
     0
281
     0
  0
CLASS
  1
LAYOUT
  2
AcDbLayout
  3
ObjectDBX Classes
 90
        0
280
     0
281
     0
  0
ENDSEC
  0
SECTION
  2
TABLES
  0
TABLE
  2
VPORT
  5
8
330
0
100
AcDbSymbolTable
 70
     1
  0
VPORT
  5
29
330
8
100
AcDbSymbolTableRecord
100
AcDbViewportTableRecord
  2
*ACTIVE
 70
     0
 10
0.0
 20
0.0
 11
1.0
 21
1.0
 12
0.0
 22
0.0
 13
0.0
 23
0.0
 14
0.5
 24
0.5
 15
0.5
 25
0.5
 16
0.0
 26
0.0
 36
1.0
 17
78.59528874445708
 27
113.9057087931382
 37
0.0
 40
32.89480522181101
 41
1.307086078150038
 42
50.0
 43
0.0
 44
0.0
 50
0.0
 51
0.0
 71
     0
 72
   100
 73
     1
 74
     3
 75
     0
 76
     0
 77
     0
 78
     0
  0
ENDTAB
  0
TABLE
  2
LTYPE
  5
5
330
0
100
AcDbSymbolTable
 70
     1
  0
LTYPE
  5
14
330
5
100
AcDbSymbolTableRecord
100
AcDbLinetypeTableRecord
  2
BYBLOCK
 70
     0
  3

 72
    65
 73
     0
 40
0.0
  0
LTYPE
  5
15
330
5
100
AcDbSymbolTableRecord
100
AcDbLinetypeTableRecord
  2
BYLAYER
 70
     0
  3

 72
    65
 73
     0
 40
0.0
  0
LTYPE
  5
16
330
5
100
AcDbSymbolTableRecord
100
AcDbLinetypeTableRecord
  2
CONTINUOUS
 70
     0
  3
Solid line
 72
    65
 73
     0
 40
0.0
  0
ENDTAB
  0
TABLE
  2
LAYER
  5
2
330
0
100
AcDbSymbolTable
 70
     5
  0
LAYER
  5
10
330
2
100
AcDbSymbolTableRecord
100
AcDbLayerTableRecord
  2
0
 70
     0
 62
     7
  6
CONTINUOUS
  0
LAYER
  5
3B
330
2
100
AcDbSymbolTableRecord
100
AcDbLayerTableRecord
  2
GRAU_10_
 70
     0
 62
     7
  6
CONTINUOUS
  0
LAYER
  5
37E
330
2
100
AcDbSymbolTableRecord
100
AcDbLayerTableRecord
  2
STANDARDEBENE
 70
     0
 62
     7
  6
CONTINUOUS
  0
LAYER
  5
37F
330
2
100
AcDbSymbolTableRecord
100
AcDbLayerTableRecord
  2
BEMAßUNG
 70
     1
 62
     7
  6
CONTINUOUS
  0
LAYER
  5
5D5
330
2
100
AcDbSymbolTableRecord
100
AcDbLayerTableRecord
  2
TEXT
 70
     1
 62
     7
  6
CONTINUOUS
  0
ENDTAB
  0
TABLE
  2
STYLE
  5
3
330
0
100
AcDbSymbolTable
 70
     1
  0
STYLE
  5
11
330
3
100
AcDbSymbolTableRecord
100
AcDbTextStyleTableRecord
  2
STANDARD
 70
     0
 40
0.0
 41
1.0
 50
0.0
 71
     0
 42
0.2
  3
txt
  4

  0
ENDTAB
  0
TABLE
  2
VIEW
  5
6
330
0
100
AcDbSymbolTable
 70
     0
  0
ENDTAB
  0
TABLE
  2
UCS
  5
7
330
0
100
AcDbSymbolTable
 70
     0
  0
ENDTAB
  0
TABLE
  2
APPID
  5
9
330
0
100
AcDbSymbolTable
 70
     1
  0
APPID
  5
12
330
9
100
AcDbSymbolTableRecord
100
AcDbRegAppTableRecord
  2
ACAD
 70
     0
  0
ENDTAB
  0
TABLE
  2
DIMSTYLE
  5
A
330
0
100
AcDbSymbolTable
 70
     1
  0
DIMSTYLE
105
27
330
A
100
AcDbSymbolTableRecord
100
AcDbDimStyleTableRecord
  2
STANDARD
 70
     0
  3

  4

  5

  6

  7

 40
1.0
 41
0.18
 42
0.0625
 43
0.38
 44
0.18
 45
0.0
 46
0.0
 47
0.0
 48
0.0
140
0.18
141
0.09
142
0.0
143
25.4
144
1.0
145
0.0
146
1.0
147
0.09
 71
     0
 72
     0
 73
     1
 74
     1
 75
     0
 76
     0
 77
     0
 78
     0
170
     0
171
     2
172
     0
173
     0
174
     0
175
     0
176
     0
177
     0
178
     0
270
     2
271
     4
272
     4
273
     2
274
     2
340
11
275
     0
280
     0
281
     0
282
     0
283
     1
284
     0
285
     0
286
     0
287
     3
288
     0
  0
ENDTAB
  0
TABLE
  2
BLOCK_RECORD
  5
1
330
0
100
AcDbSymbolTable
 70
     7
  0
BLOCK_RECORD
  5
1F
330
1
100
AcDbSymbolTableRecord
100
AcDbBlockTableRecord
  2
*MODEL_SPACE
  0
BLOCK_RECORD
  5
1B
330
1
100
AcDbSymbolTableRecord
100
AcDbBlockTableRecord
  2
*PAPER_SPACE
  0
BLOCK_RECORD
  5
3C
330
1
100
AcDbSymbolTableRecord
100
AcDbBlockTableRecord
  2
BLOCK_2
  0
BLOCK_RECORD
  5
40
330
1
100
AcDbSymbolTableRecord
100
AcDbBlockTableRecord
  2
BLOCK_3
  0
BLOCK_RECORD
  5
44
330
1
100
AcDbSymbolTableRecord
100
AcDbBlockTableRecord
  2
BLOCK_4
  0
BLOCK_RECORD
  5
5D6
330
1
100
AcDbSymbolTableRecord
100
AcDbBlockTableRecord
  2
BLOCK_5
  0
BLOCK_RECORD
  5
5E0
330
1
100
AcDbSymbolTableRecord
100
AcDbBlockTableRecord
  2
BLOCK_6
  0
BLOCK_RECORD
  5
5F5
330
1
100
AcDbSymbolTableRecord
100
AcDbBlockTableRecord
  2
BLOCK_7
  0
ENDTAB
  0
ENDSEC
  0
SECTION
  2
BLOCKS
  0
BLOCK
  5
20
330
1F
100
AcDbEntity
  8
0
100
AcDbBlockBegin
  2
*MODEL_SPACE
 70
     0
 71
     0
 10
0.0
 20
0.0
 30
0.0
  3
*MODEL_SPACE
  1

  0
ENDBLK
  5
21
330
1F
100
AcDbEntity
  8
0
100
AcDbBlockEnd
  0
BLOCK
  5
1C
330
1B
100
AcDbEntity
 67
     1
  8
0
100
AcDbBlockBegin
  2
*PAPER_SPACE
 70
     0
 71
     0
 10
0.0
 20
0.0
 30
0.0
  3
*PAPER_SPACE
  1

  0
ENDBLK
  5
1D
330
1B
100
AcDbEntity
 67
     1
  8
0
100
AcDbBlockEnd
  0
BLOCK
  5
3E
330
3C
100
AcDbEntity
  8
0
100
AcDbBlockBegin
  2
BLOCK_2
 70
     0
 71
     0
 10
0.0
 20
0.0
 30
0.0
  3
BLOCK_2
  1

  0
INSERT
  5
41
330
3C
100
AcDbEntity
  8
GRAU_10_
100
AcDbBlockReference
  2
BLOCK_3
 10
0.0
 20
0.0
 30
0.0
  0
INSERT
  5
45
330
3C
100
AcDbEntity
  8
GRAU_10_
100
AcDbBlockReference
  2
BLOCK_4
 10
0.0
 20
0.0
 30
0.0
  0
ENDBLK
  5
3F
330
3C
100
AcDbEntity
  8
0
100
AcDbBlockEnd
  0
BLOCK
  5
42
330
40
100
AcDbEntity
  8
0
100
AcDbBlockBegin
  2
BLOCK_3
 70
     0
 71
     0
 10
0.0
 20
0.0
 30
0.0
  3
BLOCK_3
  1

  0
ENDBLK
  5
43
330
40
100
AcDbEntity
  8
0
100
AcDbBlockEnd
  0
BLOCK
  5
46
330
44
100
AcDbEntity
  8
0
100
AcDbBlockBegin
  2
BLOCK_4
 70
     0
 71
     0
 10
0.0
 20
0.0
 30
0.0
  3
BLOCK_4
  1

  0
POLYLINE
  5
48
330
44
100
AcDbEntity
  8
GRAU_10_
 62
     7
100
AcDb2dPolyline
 66
     1
 10
0.0
 20
0.0
 30
0.0
  0
VERTEX
  5
49
330
48
100
AcDbEntity
  8
GRAU_10_
 62
     7
100
AcDbVertex
100
AcDb2dVertex
 10
56.77689614465994
 20
113.2127278362802
 30
0.0
  0
VERTEX
  5
4A
330
48
100
AcDbEntity
  8
GRAU_10_
 62
     7
100
AcDbVertex
100
AcDb2dVertex
 10
66.59696857059035
 20
113.2127278362802
 30
0.0
  0
VERTEX
  5
4B
330
48
100
AcDbEntity
  8
GRAU_10_
 62
     7
100
AcDbVertex
100
AcDb2dVertex
 10
74.77493623347641
 20
113.2127278362802
 30
0.0
  0
SEQEND
  5
4C
330
48
100
AcDbEntity
  8
GRAU_10_
  0
POLYLINE
  5
4D
330
44
100
AcDbEntity
  8
GRAU_10_
 62
     7
100
AcDb2dPolyline
 66
     1
 10
0.0
 20
0.0
 30
0.0
  0
VERTEX
  5
4E
330
4D
100
AcDbEntity
  8
GRAU_10_
 62
     7
100
AcDbVertex
100
AcDb2dVertex
 10
44.57729626706748
 20
91.66124400920275
 30
0.0
  0
VERTEX
  5
4F
330
4D
100
AcDbEntity
  8
GRAU_10_
 62
     7
100
AcDbVertex
100
AcDb2dVertex
 10
91.323452396874
 20
91.66124400920275
 30
0.0
  0
VERTEX
  5
50
330
4D
100
AcDbEntity
  8
GRAU_10_
 62
     7
100
AcDbVertex
100
AcDb2dVertex
 10
91.34911835823911
 20
91.66124400920275
 30
0.0
  0
SEQEND
  5
51
330
4D
100
AcDbEntity
  8
GRAU_10_
  0
POLYLINE
  5
52
330
44
100
AcDbEntity
  8
GRAU_10_
 62
     7
100
AcDb2dPolyline
 66
     1
 10
0.0
 20
0.0
 30
0.0
  0
VERTEX
  5
53
330
52
100
AcDbEntity
  8
GRAU_10_
 62
     7
100
AcDbVertex
100
AcDb2dVertex
 10
92.60623370080678
 20
92.99552949064001
 30
0.0
  0
VERTEX
  5
54
330
52
100
AcDbEntity
  8
GRAU_10_
 62
     7
100
AcDbVertex
100
AcDb2dVertex
 10
43.77545029287558
 20
92.99552949064001
 30
0.0
  0
SEQEND
  5
55
330
52
100
AcDbEntity
  8
GRAU_10_
  0
POLYLINE
  5
56
330
44
100
AcDbEntity
  8
GRAU_10_
 62
     7
100
AcDb2dPolyline
 66
     1
 10
0.0
 20
0.0
 30
0.0
  0
VERTEX
  5
57
330
56
100
AcDbEntity
  8
GRAU_10_
 62
     7
100
AcDbVertex
100
AcDb2dVertex
 10
43.77545029287558
 20
92.46326223816891
 30
0.0
  0
VERTEX
  5
58
330
56
100
AcDbEntity
  8
GRAU_10_
 62
     7
100
AcDbVertex
100
AcDb2dVertex
 10
44.57729626706748
 20
91.66124400920275
 30
0.0
  0
SEQEND
  5
59
330
56
100
AcDbEntity
  8
GRAU_10_
  0
POLYLINE
  5
5A
330
44
100
AcDbEntity
  8
GRAU_10_
 62
     7
100
AcDb2dPolyline
 66
     1
 10
0.0
 20
0.0
 30
0.0
  0
VERTEX
  5
5B
330
5A
100
AcDbEntity
  8
GRAU_10_
 62
     7
100
AcDbVertex
100
AcDb2dVertex
 10
83.55596786105545
 20
108.4216335449432
 30
0.0
  0
VERTEX
  5
5C
330
5A
100
AcDbEntity
  8
GRAU_10_
 62
     7
100
AcDbVertex
100
AcDb2dVertex
 10
83.35718585155654
 20
108.273838948626
 30
0.0
  0
SEQEND
  5
5D
330
5A
100
AcDbEntity
  8
GRAU_10_
  0
POLYLINE
  5
5E
330
44
100
AcDbEntity
  8
GRAU_10_
 62
     7
100
AcDb2dPolyline
 66
     1
 10
0.0
 20
0.0
 30
0.0
  0
VERTEX
  5
5F
330
5E
100
AcDbEntity
  8
GRAU_10_
 62
     7
100
AcDbVertex
100
AcDb2dVertex
 10
79.53433564634906
 20
108.8319444172365
 30
0.0
  0
VERTEX
  5
60
330
5E
100
AcDbEntity
  8
GRAU_10_
 62
     7
100
AcDbVertex
100
AcDb2dVertex
 10
83.33151989019143
 20
109.0372721081574
 30
0.0
  0
SEQEND
  5
61
330
5E
100
AcDbEntity
  8
GRAU_10_
  0
POLYLINE
  5
62
330
44
100
AcDbEntity
  8
GRAU_10_
 62
     7
100
AcDb2dPolyline
 66
     1
 10
0.0
 20
0.0
 30
0.0
  0
VERTEX
  5
63
330
62
100
AcDbEntity
  8
GRAU_10_
 62
     7
100
AcDbVertex
100
AcDb2dVertex
 10
79.5727484610096
 20
108.2676377767525
 30
0.0
  0
VERTEX
  5
64
330
62
100
AcDbEntity
  8
GRAU_10_
 62
     7
100
AcDbVertex
100
AcDb2dVertex
 10
83.60092635713796
 20
108.4919134928423
 30
0.0
  0
SEQEND
  5
65
330
62
100
AcDbEntity
  8
GRAU_10_
  0
POLYLINE
  5
66
330
44
100
AcDbEntity
  8
GRAU_10_
 62
     7
100
AcDb2dPolyline
 66
     1
 10
0.0
 20
0.0
 30
0.0
  0
VERTEX
  5
67
330
66
100
AcDbEntity
  8
GRAU_10_
 62
     7
100
AcDbVertex
100
AcDb2dVertex
 10
79.27130260605023
 20
108.0557644044097
 30
0.0
  0
VERTEX
  5
68
330
66
100
AcDbEntity
  8
GRAU_10_
 62
     7
100
AcDbVertex
100
AcDb2dVertex
 10
83.35718585155654
 20
108.273838948626
 30
0.0
  0
SEQEND
  5
69
330
66
100
AcDbEntity
  8
GRAU_10_
  0
POLYLINE
  5
6A
330
44
100
AcDbEntity
  8
GRAU_10_
 62
     7
100
AcDb2dPolyline
 66
     1
 10
0.0
 20
0.0
 30
0.0
  0
VERTEX
  5
6B
330
6A
100
AcDbEntity
  8
GRAU_10_
 62
     7
100
AcDbVertex
100
AcDb2dVertex
 10
84.13319360960907
 20
109.5953775767678
 30
0.0
  0
VERTEX
  5
6C
330
6A
100
AcDbEntity
  8
GRAU_10_
 62
     7
100
AcDbVertex
100
AcDb2dVertex
 10
80.32963593911899
 20
109.383504204425
 30
0.0
  0
SEQEND
  5
6D
330
6A
100
AcDbEntity
  8
GRAU_10_
  0
POLYLINE
  5
6E
330
44
100
AcDbEntity
  8
GRAU_10_
 62
     7
100
AcDb2dPolyline
 66
     1
 10
0.0
 20
0.0
 30
0.0
  0
VERTEX
  5
6F
330
6E
100
AcDbEntity
  8
GRAU_10_
 62
     7
100
AcDbVertex
100
AcDb2dVertex
 10
93.395160566929
 20
93.68833819272375
 30
0.0
  0
VERTEX
  5
70
330
6E
100
AcDbEntity
  8
GRAU_10_
 62
     7
100
AcDbVertex
100
AcDb2dVertex
 10
92.79881453843224
 20
93.09164765467848
 30
0.0
  0
SEQEND
  5
71
330
6E
100
AcDbEntity
  8
GRAU_10_
  0
POLYLINE
  5
72
330
44
100
AcDbEntity
  8
GRAU_10_
 62
     7
100
AcDb2dPolyline
 66
     1
 10
0.0
 20
0.0
 30
0.0
  0
VERTEX
  5
73
330
72
100
AcDbEntity
  8
GRAU_10_
 62
     7
100
AcDbVertex
100
AcDb2dVertex
 10
80.84915633829466
 20
102.2252848051728
 30
0.0
  0
VERTEX
  5
74
330
72
100
AcDbEntity
  8
GRAU_10_
 62
     7
100
AcDbVertex
100
AcDb2dVertex
 10
80.83003605835152
 20
102.2125379518774
 30
0.0
  0
SEQEND
  5
75
330
72
100
AcDbEntity
  8
GRAU_10_
  0
POLYLINE
  5
76
330
44
100
AcDbEntity
  8
GRAU_10_
 62
     7
100
AcDb2dPolyline
 66
     1
 10
0.0
 20
0.0
 30
0.0
  0
VERTEX
  5
77
330
76
100
AcDbEntity
  8
GRAU_10_
 62
     7
100
AcDbVertex
100
AcDb2dVertex
 10
78.58503958538847
 20
96.51056041424042
 30
0.0
  0
VERTEX
  5
78
330
76
100
AcDbEntity
  8
GRAU_10_
 62
     7
100
AcDbVertex
100
AcDb2dVertex
 10
43.77545029287558
 20
96.51056041424042
 30
0.0
  0
SEQEND
  5
79
330
76
100
AcDbEntity
  8
GRAU_10_
  0
POLYLINE
  5
7A
330
44
100
AcDbEntity
  8
GRAU_10_
 62
     7
100
AcDb2dPolyline
 66
     1
 10
0.0
 20
0.0
 30
0.0
  0
VERTEX
  5
7B
330
7A
100
AcDbEntity
  8
GRAU_10_
 62
     7
100
AcDbVertex
100
AcDb2dVertex
 10
81.36230331082263
 20
100.1410020365967
 30
0.0
  0
VERTEX
  5
7C
330
7A
100
AcDbEntity
  8
GRAU_10_
 62
     7
100
AcDbVertex
100
AcDb2dVertex
 10
81.5162990790133
 20
100.2498670539306
 30
0.0
  0
VERTEX
  5
7D
330
7A
100
AcDbEntity
  8
GRAU_10_
 62
     7
100
AcDbVertex
100
AcDb2dVertex
 10
82.21548120774474
 20
100.7438937465154
 30
0.0
  0
VERTEX
  5
7E
330
7A
100
AcDbEntity
  8
GRAU_10_
 62
     7
100
AcDbVertex
100
AcDb2dVertex
 10
82.76066756828553
 20
101.1349120840913
 30
0.0
  0
SEQEND
  5
7F
330
7A
100
AcDbEntity
  8
GRAU_10_
  0
POLYLINE
  5
80
330
44
100
AcDbEntity
  8
GRAU_10_
 62
     7
100
AcDb2dPolyline
 66
     1
 10
0.0
 20
0.0
 30
0.0
  0
VERTEX
  5
81
330
80
100
AcDbEntity
  8
GRAU_10_
 62
     7
100
AcDbVertex
100
AcDb2dVertex
 10
78.58503958538847
 20
96.51056041424042
 30
0.0
  0
VERTEX
  5
82
330
80
100
AcDbEntity
  8
GRAU_10_
 62
     7
100
AcDbVertex
100
AcDb2dVertex
 10
80.10518796825495
 20
96.23460826587191
 30
0.0
  0
SEQEND
  5
83
330
80
100
AcDbEntity
  8
GRAU_10_
  0
POLYLINE
  5
84
330
44
100
AcDbEntity
  8
GRAU_10_
 62
     7
100
AcDb2dPolyline
 66
     1
 10
0.0
 20
0.0
 30
0.0
  0
VERTEX
  5
85
330
84
100
AcDbEntity
  8
GRAU_10_
 62
     7
100
AcDbVertex
100
AcDb2dVertex
 10
95.7621134200699
 20
105.0347601733941
 30
0.0
  0
VERTEX
  5
86
330
84
100
AcDbEntity
  8
GRAU_10_
 62
     7
100
AcDbVertex
100
AcDb2dVertex
 10
82.72208249885074
 20
104.3230034461415
 30
0.0
  0
VERTEX
  5
87
330
84
100
AcDbEntity
  8
GRAU_10_
 62
     7
100
AcDbVertex
100
AcDb2dVertex
 10
80.66312118209117
 20
104.2137939192591
 30
0.0
  0
SEQEND
  5
88
330
84
100
AcDbEntity
  8
GRAU_10_
  0
POLYLINE
  5
89
330
44
100
AcDbEntity
  8
GRAU_10_
 62
     7
100
AcDb2dPolyline
 66
     1
 10
0.0
 20
0.0
 30
0.0
  0
VERTEX
  5
8A
330
89
100
AcDbEntity
  8
GRAU_10_
 62
     7
100
AcDbVertex
100
AcDb2dVertex
 10
74.77493623347641
 20
113.2127278362802
 30
0.0
  0
VERTEX
  5
8B
330
89
100
AcDbEntity
  8
GRAU_10_
 62
     7
100
AcDbVertex
100
AcDb2dVertex
 10
77.48174775623721
 20
116.4328585863432
 30
0.0
  0
SEQEND
  5
8C
330
89
100
AcDbEntity
  8
GRAU_10_
  0
POLYLINE
  5
8D
330
44
100
AcDbEntity
  8
GRAU_10_
 62
     7
100
AcDb2dPolyline
 66
     1
 10
0.0
 20
0.0
 30
0.0
  0
VERTEX
  5
8E
330
8D
100
AcDbEntity
  8
GRAU_10_
 62
     7
100
AcDbVertex
100
AcDb2dVertex
 10
43.77545029287558
 20
100.2112819844958
 30
0.0
  0
VERTEX
  5
8F
330
8D
100
AcDbEntity
  8
GRAU_10_
 62
     7
100
AcDbVertex
100
AcDb2dVertex
 10
56.77689614465994
 20
113.2127278362802
 30
0.0
  0
SEQEND
  5
90
330
8D
100
AcDbEntity
  8
GRAU_10_
  0
POLYLINE
  5
91
330
44
100
AcDbEntity
  8
GRAU_10_
 62
     7
100
AcDb2dPolyline
 66
     1
 10
0.0
 20
0.0
 30
0.0
  0
VERTEX
  5
92
330
91
100
AcDbEntity
  8
GRAU_10_
 62
     7
100
AcDbVertex
100
AcDb2dVertex
 10
43.77545029287558
 20
92.46326223816891
 30
0.0
  0
VERTEX
  5
93
330
91
100
AcDbEntity
  8
GRAU_10_
 62
     7
100
AcDbVertex
100
AcDb2dVertex
 10
43.77545029287558
 20
92.99552949064001
 30
0.0
  0
VERTEX
  5
94
330
91
100
AcDbEntity
  8
GRAU_10_
 62
     7
100
AcDbVertex
100
AcDb2dVertex
 10
43.77545029287558
 20
93.09164765467848
 30
0.0
  0
VERTEX
  5
95
330
91
100
AcDbEntity
  8
GRAU_10_
 62
     7
100
AcDbVertex
100
AcDb2dVertex
 10
43.77545029287558
 20
96.51056041424042
 30
0.0
  0
VERTEX
  5
96
330
91
100
AcDbEntity
  8
GRAU_10_
 62
     7
100
AcDbVertex
100
AcDb2dVertex
 10
43.77545029287558
 20
100.2112819844958
 30
0.0
  0
SEQEND
  5
97
330
91
100
AcDbEntity
  8
GRAU_10_
  0
POLYLINE
  5
98
330
44
100
AcDbEntity
  8
GRAU_10_
 62
     7
100
AcDb2dPolyline
 66
     1
 10
0.0
 20
0.0
 30
0.0
  0
VERTEX
  5
99
330
98
100
AcDbEntity
  8
GRAU_10_
 62
     7
100
AcDbVertex
100
AcDb2dVertex
 10
83.00440807386695
 20
100.3780246059819
 30
0.0
  0
VERTEX
  5
9A
330
98
100
AcDbEntity
  8
GRAU_10_
 62
     7
100
AcDbVertex
100
AcDb2dVertex
 10
83.7867892585672
 20
100.0124999749969
 30
0.0
  0
SEQEND
  5
9B
330
98
100
AcDbEntity
  8
GRAU_10_
  0
POLYLINE
  5
9C
330
44
100
AcDbEntity
  8
GRAU_10_
 62
     7
100
AcDb2dPolyline
 66
     1
 10
0.0
 20
0.0
 30
0.0
  0
VERTEX
  5
9D
330
9C
100
AcDbEntity
  8
GRAU_10_
 62
     7
100
AcDbVertex
100
AcDb2dVertex
 10
82.21548120774474
 20
100.7438937465154
 30
0.0
  0
VERTEX
  5
9E
330
9C
100
AcDbEntity
  8
GRAU_10_
 62
     7
100
AcDbVertex
100
AcDb2dVertex
 10
82.91449108170194
 20
100.4166096754167
 30
0.0
  0
SEQEND
  5
9F
330
9C
100
AcDbEntity
  8
GRAU_10_
  0
POLYLINE
  5
A0
330
44
100
AcDbEntity
  8
GRAU_10_
 62
     7
100
AcDb2dPolyline
 66
     1
 10
0.0
 20
0.0
 30
0.0
  0
VERTEX
  5
A1
330
A0
100
AcDbEntity
  8
GRAU_10_
 62
     7
100
AcDbVertex
100
AcDb2dVertex
 10
84.32560219246027
 20
100.4038628221213
 30
0.0
  0
VERTEX
  5
A2
330
A0
100
AcDbEntity
  8
GRAU_10_
 62
     7
100
AcDbVertex
100
AcDb2dVertex
 10
83.7867892585672
 20
100.0124999749969
 30
0.0
  0
SEQEND
  5
A3
330
A0
100
AcDbEntity
  8
GRAU_10_
  0
POLYLINE
  5
A4
330
44
100
AcDbEntity
  8
GRAU_10_
 62
     7
100
AcDb2dPolyline
 66
     1
 10
0.0
 20
0.0
 30
0.0
  0
VERTEX
  5
A5
330
A4
100
AcDbEntity
  8
GRAU_10_
 62
     7
100
AcDbVertex
100
AcDb2dVertex
 10
43.77545029287558
 20
93.09164765467848
 30
0.0
  0
VERTEX
  5
A6
330
A4
100
AcDbEntity
  8
GRAU_10_
 62
     7
100
AcDbVertex
100
AcDb2dVertex
 10
92.68977726632409
 20
93.09164765467848
 30
0.0
  0
SEQEND
  5
A7
330
A4
100
AcDbEntity
  8
GRAU_10_
  0
POLYLINE
  5
A8
330
44
100
AcDbEntity
  8
GRAU_10_
 62
     7
100
AcDb2dPolyline
 66
     1
 10
0.0
 20
0.0
 30
0.0
  0
VERTEX
  5
A9
330
A8
100
AcDbEntity
  8
GRAU_10_
 62
     7
100
AcDbVertex
100
AcDb2dVertex
 10
84.4411851459904
 20
95.43293454645428
 30
0.0
  0
VERTEX
  5
AA
330
A8
100
AcDbEntity
  8
GRAU_10_
 62
     7
100
AcDbVertex
100
AcDb2dVertex
 10
93.35037432562075
 20
93.7910020381842
 30
0.0
  0
SEQEND
  5
AB
330
A8
100
AcDbEntity
  8
GRAU_10_
  0
POLYLINE
  5
AC
330
44
100
AcDbEntity
  8
GRAU_10_
 62
     7
100
AcDb2dPolyline
 66
     1
 10
0.0
 20
0.0
 30
0.0
  0
VERTEX
  5
AD
330
AC
100
AcDbEntity
  8
GRAU_10_
 62
     7
100
AcDbVertex
100
AcDb2dVertex
 10
84.17815210569158
 20
109.4861680498854
 30
0.0
  0
VERTEX
  5
AE
330
AC
100
AcDbEntity
  8
GRAU_10_
 62
     7
100
AcDbVertex
100
AcDb2dVertex
 10
83.33151989019143
 20
109.0372721081574
 30
0.0
  0
SEQEND
  5
AF
330
AC
100
AcDbEntity
  8
GRAU_10_
  0
POLYLINE
  5
B0
330
44
100
AcDbEntity
  8
GRAU_10_
 62
     7
100
AcDb2dPolyline
 66
     1
 10
0.0
 20
0.0
 30
0.0
  0
VERTEX
  5
B1
330
B0
100
AcDbEntity
  8
GRAU_10_
 62
     7
100
AcDbVertex
100
AcDb2dVertex
 10
83.86378714266253
 20
99.15294865142704
 30
0.0
  0
VERTEX
  5
B2
330
B0
100
AcDbEntity
  8
GRAU_10_
 62
     7
100
AcDbVertex
100
AcDb2dVertex
 10
83.94715845340558
 20
98.29994300927919
 30
0.0
  0
SEQEND
  5
B3
330
B0
100
AcDbEntity
  8
GRAU_10_
  0
POLYLINE
  5
B4
330
44
100
AcDbEntity
  8
GRAU_10_
 62
     7
100
AcDb2dPolyline
 66
     1
 10
0.0
 20
0.0
 30
0.0
  0
VERTEX
  5
B5
330
B4
100
AcDbEntity
  8
GRAU_10_
 62
     7
100
AcDbVertex
100
AcDb2dVertex
 10
83.7867892585672
 20
100.0124999749969
 30
0.0
  0
VERTEX
  5
B6
330
B4
100
AcDbEntity
  8
GRAU_10_
 62
     7
100
AcDbVertex
100
AcDb2dVertex
 10
83.86378714266253
 20
99.16604001427099
 30
0.0
  0
SEQEND
  5
B7
330
B4
100
AcDbEntity
  8
GRAU_10_
  0
POLYLINE
  5
B8
330
44
100
AcDbEntity
  8
GRAU_10_
 62
     7
100
AcDb2dPolyline
 66
     1
 10
0.0
 20
0.0
 30
0.0
  0
VERTEX
  5
B9
330
B8
100
AcDbEntity
  8
GRAU_10_
 62
     7
100
AcDbVertex
100
AcDb2dVertex
 10
78.58503958538847
 20
96.51056041424042
 30
0.0
  0
VERTEX
  5
BA
330
B8
100
AcDbEntity
  8
GRAU_10_
 62
     7
100
AcDbVertex
100
AcDb2dVertex
 10
66.59696857059035
 20
113.2127278362802
 30
0.0
  0
SEQEND
  5
BB
330
B8
100
AcDbEntity
  8
GRAU_10_
  0
POLYLINE
  5
BC
330
44
100
AcDbEntity
  8
GRAU_10_
 62
     7
100
AcDb2dPolyline
 66
     1
 10
0.0
 20
0.0
 30
0.0
  0
VERTEX
  5
BD
330
BC
100
AcDbEntity
  8
GRAU_10_
 62
     7
100
AcDbVertex
100
AcDb2dVertex
 10
95.24259302089422
 20
103.6622341320706
 30
0.0
  0
VERTEX
  5
BE
330
BC
100
AcDbEntity
  8
GRAU_10_
 62
     7
100
AcDbVertex
100
AcDb2dVertex
 10
95.62741018659662
 20
104.2971652300021
 30
0.0
  0
SEQEND
  5
BF
330
BC
100
AcDbEntity
  8
GRAU_10_
  0
POLYLINE
  5
C0
330
44
100
AcDbEntity
  8
GRAU_10_
 62
     7
100
AcDb2dPolyline
 66
     1
 10
0.0
 20
0.0
 30
0.0
  0
VERTEX
  5
C1
330
C0
100
AcDbEntity
  8
GRAU_10_
 62
     7
100
AcDbVertex
100
AcDb2dVertex
 10
93.74793834461858
 20
94.1758192038866
 30
0.0
  0
VERTEX
  5
C2
330
C0
100
AcDbEntity
  8
GRAU_10_
 62
     7
100
AcDbVertex
100
AcDb2dVertex
 10
93.77360430598368
 20
98.50527070020007
 30
0.0
  0
SEQEND
  5
C3
330
C0
100
AcDbEntity
  8
GRAU_10_
  0
POLYLINE
  5
C4
330
44
100
AcDbEntity
  8
GRAU_10_
 62
     7
100
AcDb2dPolyline
 66
     1
 10
0.0
 20
0.0
 30
0.0
  0
VERTEX
  5
C5
330
C4
100
AcDbEntity
  8
GRAU_10_
 62
     7
100
AcDbVertex
100
AcDb2dVertex
 10
84.13319360960907
 20
109.5953775767678
 30
0.0
  0
VERTEX
  5
C6
330
C4
100
AcDbEntity
  8
GRAU_10_
 62
     7
100
AcDbVertex
100
AcDb2dVertex
 10
88.64230683547832
 20
116.9458333040969
 30
0.0
  0
SEQEND
  5
C7
330
C4
100
AcDbEntity
  8
GRAU_10_
  0
POLYLINE
  5
C8
330
44
100
AcDbEntity
  8
GRAU_10_
 62
     7
100
AcDb2dPolyline
 66
     1
 10
0.0
 20
0.0
 30
0.0
  0
VERTEX
  5
C9
330
C8
100
AcDbEntity
  8
GRAU_10_
 62
     7
100
AcDbVertex
100
AcDb2dVertex
 10
83.10052623790543
 20
97.70359698078244
 30
0.0
  0
VERTEX
  5
CA
330
C8
100
AcDbEntity
  8
GRAU_10_
 62
     7
100
AcDbVertex
100
AcDb2dVertex
 10
83.09415281125771
 20
97.69705129936047
 30
0.0
  0
SEQEND
  5
CB
330
C8
100
AcDbEntity
  8
GRAU_10_
  0
POLYLINE
  5
CC
330
44
100
AcDbEntity
  8
GRAU_10_
 62
     7
100
AcDb2dPolyline
 66
     1
 10
0.0
 20
0.0
 30
0.0
  0
VERTEX
  5
CD
330
CC
100
AcDbEntity
  8
GRAU_10_
 62
     7
100
AcDbVertex
100
AcDb2dVertex
 10
83.31860078212175
 20
97.85104706755114
 30
0.0
  0
VERTEX
  5
CE
330
CC
100
AcDbEntity
  8
GRAU_10_
 62
     7
100
AcDbVertex
100
AcDb2dVertex
 10
83.11981877262282
 20
97.71634383407786
 30
0.0
  0
SEQEND
  5
CF
330
CC
100
AcDbEntity
  8
GRAU_10_
  0
POLYLINE
  5
D0
330
44
100
AcDbEntity
  8
GRAU_10_
 62
     7
100
AcDb2dPolyline
 66
     1
 10
0.0
 20
0.0
 30
0.0
  0
VERTEX
  5
D1
330
D0
100
AcDbEntity
  8
GRAU_10_
 62
     7
100
AcDbVertex
100
AcDb2dVertex
 10
84.49234481394636
 20
98.68476017498159
 30
0.0
  0
VERTEX
  5
D2
330
D0
100
AcDbEntity
  8
GRAU_10_
 62
     7
100
AcDbVertex
100
AcDb2dVertex
 10
83.94715845340558
 20
98.29994300927919
 30
0.0
  0
VERTEX
  5
D3
330
D0
100
AcDbEntity
  8
GRAU_10_
 62
     7
100
AcDbVertex
100
AcDb2dVertex
 10
83.40851777428676
 20
97.92167152499876
 30
0.0
  0
SEQEND
  5
D4
330
D0
100
AcDbEntity
  8
GRAU_10_
  0
POLYLINE
  5
D5
330
44
100
AcDbEntity
  8
GRAU_10_
 62
     7
100
AcDb2dPolyline
 66
     1
 10
0.0
 20
0.0
 30
0.0
  0
VERTEX
  5
D6
330
D5
100
AcDbEntity
  8
GRAU_10_
 62
     7
100
AcDbVertex
100
AcDb2dVertex
 10
85.5635972550848
 20
102.6231933337192
 30
0.0
  0
VERTEX
  5
D7
330
D5
100
AcDbEntity
  8
GRAU_10_
 62
     7
100
AcDbVertex
100
AcDb2dVertex
 10
85.9227484594221
 20
102.289708090747
 30
0.0
  0
VERTEX
  5
D8
330
D5
100
AcDbEntity
  8
GRAU_10_
 62
     7
100
AcDbVertex
100
AcDb2dVertex
 10
86.23711342245115
 20
101.91763777834
 30
0.0
  0
VERTEX
  5
D9
330
D5
100
AcDbEntity
  8
GRAU_10_
 62
     7
100
AcDbVertex
100
AcDb2dVertex
 10
86.51289331604539
 20
101.5135280779202
 30
0.0
  0
VERTEX
  5
DA
330
D5
100
AcDbEntity
  8
GRAU_10_
 62
     7
100
AcDbVertex
100
AcDb2dVertex
 10
86.73734128690941
 20
101.0773789894876
 30
0.0
  0
VERTEX
  5
DB
330
D5
100
AcDbEntity
  8
GRAU_10_
 62
     7
100
AcDbVertex
100
AcDb2dVertex
 10
86.91062958981749
 20
100.6153916849156
 30
0.0
  0
VERTEX
  5
DC
330
D5
100
AcDbEntity
  8
GRAU_10_
 62
     7
100
AcDbVertex
100
AcDb2dVertex
 10
87.02604028857336
 20
100.1410020365967
 30
0.0
  0
VERTEX
  5
DD
330
D5
100
AcDbEntity
  8
GRAU_10_
 62
     7
100
AcDbVertex
100
AcDb2dVertex
 10
87.09011906459901
 20
99.6597221973073
 30
0.0
  0
VERTEX
  5
DE
330
D5
100
AcDbEntity
  8
GRAU_10_
 62
     7
100
AcDbVertex
100
AcDb2dVertex
 10
87.10303817266869
 20
99.17224118614445
 30
0.0
  0
VERTEX
  5
DF
330
D5
100
AcDbEntity
  8
GRAU_10_
 62
     7
100
AcDbVertex
100
AcDb2dVertex
 10
87.05170624993846
 20
98.68476017498159
 30
0.0
  0
VERTEX
  5
E0
330
D5
100
AcDbEntity
  8
GRAU_10_
 62
     7
100
AcDbVertex
100
AcDb2dVertex
 10
86.94904240447802
 20
98.21002601711416
 30
0.0
  0
VERTEX
  5
E1
330
D5
100
AcDbEntity
  8
GRAU_10_
 62
     7
100
AcDbVertex
100
AcDb2dVertex
 10
86.79504663628735
 20
97.74838322209068
 30
0.0
  0
VERTEX
  5
E2
330
D5
100
AcDbEntity
  8
GRAU_10_
 62
     7
100
AcDbVertex
100
AcDb2dVertex
 10
86.58989120014073
 20
97.31223413365805
 30
0.0
  0
VERTEX
  5
E3
330
D5
100
AcDbEntity
  8
GRAU_10_
 62
     7
100
AcDbVertex
100
AcDb2dVertex
 10
86.3268581598419
 20
96.90157875181627
 30
0.0
  0
VERTEX
  5
E4
330
D5
100
AcDbEntity
  8
GRAU_10_
 62
     7
100
AcDbVertex
100
AcDb2dVertex
 10
86.02541230488254
 20
96.52330726753584
 30
0.0
  0
VERTEX
  5
E5
330
D5
100
AcDbEntity
  8
GRAU_10_
 62
     7
100
AcDbVertex
100
AcDb2dVertex
 10
85.67900795384067
 20
96.18327634314169
 30
0.0
  0
VERTEX
  5
E6
330
D5
100
AcDbEntity
  8
GRAU_10_
 62
     7
100
AcDbVertex
100
AcDb2dVertex
 10
85.30056421478598
 20
95.88183048818233
 30
0.0
  0
VERTEX
  5
E7
330
D5
100
AcDbEntity
  8
GRAU_10_
 62
     7
100
AcDbVertex
100
AcDb2dVertex
 10
84.88370766107074
 20
95.63171655595319
 30
0.0
  0
VERTEX
  5
E8
330
D5
100
AcDbEntity
  8
GRAU_10_
 62
     7
100
AcDbVertex
100
AcDb2dVertex
 10
84.4411851459904
 20
95.43293454645428
 30
0.0
  0
SEQEND
  5
E9
330
D5
100
AcDbEntity
  8
GRAU_10_
  0
POLYLINE
  5
EA
330
44
100
AcDbEntity
  8
GRAU_10_
 62
     7
100
AcDb2dPolyline
 66
     1
 10
0.0
 20
0.0
 30
0.0
  0
VERTEX
  5
EB
330
EA
100
AcDbEntity
  8
GRAU_10_
 62
     7
100
AcDbVertex
100
AcDb2dVertex
 10
78.10393200087333
 20
107.5042046172212
 30
0.0
  0
VERTEX
  5
EC
330
EA
100
AcDbEntity
  8
GRAU_10_
 62
     7
100
AcDbVertex
100
AcDb2dVertex
 10
78.13597138888615
 20
107.5493353680779
 30
0.0
  0
VERTEX
  5
ED
330
EA
100
AcDbEntity
  8
GRAU_10_
 62
     7
100
AcDbVertex
100
AcDb2dVertex
 10
78.17455645832095
 20
107.5941216093862
 30
0.0
  0
VERTEX
  5
EE
330
EA
100
AcDbEntity
  8
GRAU_10_
 62
     7
100
AcDbVertex
100
AcDb2dVertex
 10
78.33492565315933
 20
107.7543185494503
 30
0.0
  0
VERTEX
  5
EF
330
EA
100
AcDbEntity
  8
GRAU_10_
 62
     7
100
AcDbVertex
100
AcDb2dVertex
 10
78.38608532111529
 20
107.7929036188851
 30
0.0
  0
VERTEX
  5
F0
330
EA
100
AcDbEntity
  8
GRAU_10_
 62
     7
100
AcDbVertex
100
AcDb2dVertex
 10
78.50804170129314
 20
107.8955674643456
 30
0.0
  0
SEQEND
  5
F1
330
EA
100
AcDbEntity
  8
GRAU_10_
  0
POLYLINE
  5
F2
330
44
100
AcDbEntity
  8
GRAU_10_
 62
     7
100
AcDb2dPolyline
 66
     1
 10
0.0
 20
0.0
 30
0.0
  0
VERTEX
  5
F3
330
F2
100
AcDbEntity
  8
GRAU_10_
 62
     7
100
AcDbVertex
100
AcDb2dVertex
 10
80.83003605835152
 20
102.2125379518774
 30
0.0
  0
VERTEX
  5
F4
330
F2
100
AcDbEntity
  8
GRAU_10_
 62
     7
100
AcDbVertex
100
AcDb2dVertex
 10
80.60541583271323
 20
102.0203016238005
 30
0.0
  0
VERTEX
  5
F5
330
F2
100
AcDbEntity
  8
GRAU_10_
 62
     7
100
AcDbVertex
100
AcDb2dVertex
 10
80.3809678618492
 20
101.827720786175
 30
0.0
  0
VERTEX
  5
F6
330
F2
100
AcDbEntity
  8
GRAU_10_
 62
     7
100
AcDbVertex
100
AcDb2dVertex
 10
80.188559278998
 20
101.5968993886633
 30
0.0
  0
VERTEX
  5
F7
330
F2
100
AcDbEntity
  8
GRAU_10_
 62
     7
100
AcDbVertex
100
AcDb2dVertex
 10
79.9961506961468
 20
101.3595323097296
 30
0.0
  0
VERTEX
  5
F8
330
F2
100
AcDbEntity
  8
GRAU_10_
 62
     7
100
AcDbVertex
100
AcDb2dVertex
 10
79.85507403602581
 20
101.1028726960784
 30
0.0
  0
VERTEX
  5
F9
330
F2
100
AcDbEntity
  8
GRAU_10_
 62
     7
100
AcDbVertex
100
AcDb2dVertex
 10
79.70745169448286
 20
100.8465575919759
 30
0.0
  0
VERTEX
  5
FA
330
F2
100
AcDbEntity
  8
GRAU_10_
 62
     7
100
AcDbVertex
100
AcDb2dVertex
 10
79.60478784902242
 20
100.5578585903119
 30
0.0
  0
VERTEX
  5
FB
330
F2
100
AcDbEntity
  8
GRAU_10_
 62
     7
100
AcDbVertex
100
AcDb2dVertex
 10
79.50866968498394
 20
100.27570527007
 30
0.0
  0
VERTEX
  5
FC
330
F2
100
AcDbEntity
  8
GRAU_10_
 62
     7
100
AcDbVertex
100
AcDb2dVertex
 10
79.45733776225373
 20
99.97391490556208
 30
0.0
  0
VERTEX
  5
FD
330
F2
100
AcDbEntity
  8
GRAU_10_
 62
     7
100
AcDbVertex
100
AcDb2dVertex
 10
79.4060058395235
 20
99.6790147320247
 30
0.0
  0
VERTEX
  5
FE
330
F2
100
AcDbEntity
  8
GRAU_10_
 62
     7
100
AcDbVertex
100
AcDb2dVertex
 10
79.41237926617121
 20
99.37102319564336
 30
0.0
  0
VERTEX
  5
FF
330
F2
100
AcDbEntity
  8
GRAU_10_
 62
     7
100
AcDbVertex
100
AcDb2dVertex
 10
79.41237926617121
 20
99.069577340684
 30
0.0
  0
SEQEND
  5
100
330
F2
100
AcDbEntity
  8
GRAU_10_
  0
POLYLINE
  5
101
330
44
100
AcDbEntity
  8
GRAU_10_
 62
     7
100
AcDb2dPolyline
 66
     1
 10
0.0
 20
0.0
 30
0.0
  0
VERTEX
  5
102
330
101
100
AcDbEntity
  8
GRAU_10_
 62
     7
100
AcDbVertex
100
AcDb2dVertex
 10
92.79881453843224
 20
93.09164765467848
 30
0.0
  0
VERTEX
  5
103
330
101
100
AcDbEntity
  8
GRAU_10_
 62
     7
100
AcDbVertex
100
AcDb2dVertex
 10
92.79226885701027
 20
93.09164765467848
 30
0.0
  0
VERTEX
  5
104
330
101
100
AcDbEntity
  8
GRAU_10_
 62
     7
100
AcDbVertex
100
AcDb2dVertex
 10
92.79226885701027
 20
93.08544648280503
 30
0.0
  0
SEQEND
  5
105
330
101
100
AcDbEntity
  8
GRAU_10_
  0
POLYLINE
  5
106
330
44
100
AcDbEntity
  8
GRAU_10_
 62
     7
100
AcDb2dPolyline
 66
     1
 10
0.0
 20
0.0
 30
0.0
  0
VERTEX
  5
107
330
106
100
AcDbEntity
  8
GRAU_10_
 62
     7
100
AcDbVertex
100
AcDb2dVertex
 10
92.78589543036256
 20
93.08544648280503
 30
0.0
  0
VERTEX
  5
108
330
106
100
AcDbEntity
  8
GRAU_10_
 62
     7
100
AcDbVertex
100
AcDb2dVertex
 10
92.77952200371485
 20
93.07235511996109
 30
0.0
  0
VERTEX
  5
109
330
106
100
AcDbEntity
  8
GRAU_10_
 62
     7
100
AcDbVertex
100
AcDb2dVertex
 10
92.77314857706713
 20
93.06615394808763
 30
0.0
  0
SEQEND
  5
10A
330
106
100
AcDbEntity
  8
GRAU_10_
  0
POLYLINE
  5
10B
330
44
100
AcDbEntity
  8
GRAU_10_
 62
     7
100
AcDb2dPolyline
 66
     1
 10
0.0
 20
0.0
 30
0.0
  0
VERTEX
  5
10C
330
10B
100
AcDbEntity
  8
GRAU_10_
 62
     7
100
AcDbVertex
100
AcDb2dVertex
 10
92.72819008098462
 20
93.02102319723086
 30
0.0
  0
VERTEX
  5
10D
330
10B
100
AcDbEntity
  8
GRAU_10_
 62
     7
100
AcDbVertex
100
AcDb2dVertex
 10
92.74093693428004
 20
93.03411456007481
 30
0.0
  0
VERTEX
  5
10E
330
10B
100
AcDbEntity
  8
GRAU_10_
 62
     7
100
AcDbVertex
100
AcDb2dVertex
 10
92.75385604234974
 20
93.04686141337024
 30
0.0
  0
VERTEX
  5
10F
330
10B
100
AcDbEntity
  8
GRAU_10_
 62
     7
100
AcDbVertex
100
AcDb2dVertex
 10
92.76660289564516
 20
93.06615394808763
 30
0.0
  0
VERTEX
  5
110
330
10B
100
AcDbEntity
  8
GRAU_10_
 62
     7
100
AcDbVertex
100
AcDb2dVertex
 10
92.77314857706713
 20
93.06615394808763
 30
0.0
  0
SEQEND
  5
111
330
10B
100
AcDbEntity
  8
GRAU_10_
  0
POLYLINE
  5
112
330
44
100
AcDbEntity
  8
GRAU_10_
 62
     7
100
AcDb2dPolyline
 66
     1
 10
0.0
 20
0.0
 30
0.0
  0
VERTEX
  5
113
330
112
100
AcDbEntity
  8
GRAU_10_
 62
     7
100
AcDbVertex
100
AcDb2dVertex
 10
85.89708249805699
 20
99.67246905060271
 30
0.0
  0
VERTEX
  5
114
330
112
100
AcDbEntity
  8
GRAU_10_
 62
     7
100
AcDbVertex
100
AcDb2dVertex
 10
85.91000160612667
 20
99.39686141178274
 30
0.0
  0
VERTEX
  5
115
330
112
100
AcDbEntity
  8
GRAU_10_
 62
     7
100
AcDbVertex
100
AcDb2dVertex
 10
85.89708249805699
 20
99.12090926341422
 30
0.0
  0
VERTEX
  5
116
330
112
100
AcDbEntity
  8
GRAU_10_
 62
     7
100
AcDbVertex
100
AcDb2dVertex
 10
85.85866968339644
 20
98.85150279646768
 30
0.0
  0
VERTEX
  5
117
330
112
100
AcDbEntity
  8
GRAU_10_
 62
     7
100
AcDbVertex
100
AcDb2dVertex
 10
85.80096433401852
 20
98.58209632952115
 30
0.0
  0
VERTEX
  5
118
330
112
100
AcDbEntity
  8
GRAU_10_
 62
     7
100
AcDbVertex
100
AcDb2dVertex
 10
85.71104734185349
 20
98.31923554399658
 30
0.0
  0
VERTEX
  5
119
330
112
100
AcDbEntity
  8
GRAU_10_
 62
     7
100
AcDbVertex
100
AcDb2dVertex
 10
85.60201006974533
 20
98.06912161176744
 30
0.0
  0
VERTEX
  5
11A
330
112
100
AcDbEntity
  8
GRAU_10_
 62
     7
100
AcDbVertex
100
AcDb2dVertex
 10
85.46730683627207
 20
97.82520885141176
 30
0.0
  0
VERTEX
  5
11B
330
112
100
AcDbEntity
  8
GRAU_10_
 62
     7
100
AcDbVertex
100
AcDb2dVertex
 10
85.31348332285566
 20
97.600933135322
 30
0.0
  0
VERTEX
  5
11C
330
112
100
AcDbEntity
  8
GRAU_10_
 62
     7
100
AcDbVertex
100
AcDb2dVertex
 10
85.1401950199476
 20
97.38905976297913
 30
0.0
  0
VERTEX
  5
11D
330
112
100
AcDbEntity
  8
GRAU_10_
 62
     7
100
AcDbVertex
100
AcDb2dVertex
 10
84.9477864370964
 20
97.19682343490219
 30
0.0
  0
VERTEX
  5
11E
330
112
100
AcDbEntity
  8
GRAU_10_
 62
     7
100
AcDbVertex
100
AcDb2dVertex
 10
84.73608531952779
 20
97.01698945057214
 30
0.0
  0
VERTEX
  5
11F
330
112
100
AcDbEntity
  8
GRAU_10_
 62
     7
100
AcDbVertex
100
AcDb2dVertex
 10
84.51163734866375
 20
96.86333819193
 30
0.0
  0
VERTEX
  5
120
330
112
100
AcDbEntity
  8
GRAU_10_
 62
     7
100
AcDbVertex
100
AcDb2dVertex
 10
84.27427026973005
 20
96.72863495845674
 30
0.0
  0
VERTEX
  5
121
330
112
100
AcDbEntity
  8
GRAU_10_
 62
     7
100
AcDbVertex
100
AcDb2dVertex
 10
84.0177829108532
 20
96.61942543157431
 30
0.0
  0
VERTEX
  5
122
330
112
100
AcDbEntity
  8
GRAU_10_
 62
     7
100
AcDbVertex
100
AcDb2dVertex
 10
83.76129555197635
 20
96.53605412083127
 30
0.0
  0
VERTEX
  5
123
330
112
100
AcDbEntity
  8
GRAU_10_
 62
     7
100
AcDbVertex
100
AcDb2dVertex
 10
83.49188908502981
 20
96.47197534480563
 30
0.0
  0
VERTEX
  5
124
330
112
100
AcDbEntity
  8
GRAU_10_
 62
     7
100
AcDbVertex
100
AcDb2dVertex
 10
83.22248261808328
 20
96.4399359567928
 30
0.0
  0
VERTEX
  5
125
330
112
100
AcDbEntity
  8
GRAU_10_
 62
     7
100
AcDbVertex
100
AcDb2dVertex
 10
82.94670272448903
 20
96.42718910349737
 30
0.0
  0
VERTEX
  5
126
330
112
100
AcDbEntity
  8
GRAU_10_
 62
     7
100
AcDbVertex
100
AcDb2dVertex
 10
82.67075057612051
 20
96.4399359567928
 30
0.0
  0
VERTEX
  5
127
330
112
100
AcDbEntity
  8
GRAU_10_
 62
     7
100
AcDbVertex
100
AcDb2dVertex
 10
82.39497068252626
 20
96.4785210262276
 30
0.0
  0
VERTEX
  5
128
330
112
100
AcDbEntity
  8
GRAU_10_
 62
     7
100
AcDbVertex
100
AcDb2dVertex
 10
82.1321098970017
 20
96.54259980225325
 30
0.0
  0
VERTEX
  5
129
330
112
100
AcDbEntity
  8
GRAU_10_
 62
     7
100
AcDbVertex
100
AcDb2dVertex
 10
81.86907685670288
 20
96.63217228486974
 30
0.0
  0
VERTEX
  5
12A
330
112
100
AcDbEntity
  8
GRAU_10_
 62
     7
100
AcDbVertex
100
AcDb2dVertex
 10
81.61896292447373
 20
96.74792749317413
 30
0.0
  0
VERTEX
  5
12B
330
112
100
AcDbEntity
  8
GRAU_10_
 62
     7
100
AcDbVertex
100
AcDb2dVertex
 10
81.3752224188923
 20
96.8826307266474
 30
0.0
  0
VERTEX
  5
12C
330
112
100
AcDbEntity
  8
GRAU_10_
 62
     7
100
AcDbVertex
100
AcDb2dVertex
 10
81.15060219325402
 20
97.04282766671152
 30
0.0
  0
VERTEX
  5
12D
330
112
100
AcDbEntity
  8
GRAU_10_
 62
     7
100
AcDbVertex
100
AcDb2dVertex
 10
80.93907333045968
 20
97.21611596961958
 30
0.0
  0
VERTEX
  5
12E
330
112
100
AcDbEntity
  8
GRAU_10_
 62
     7
100
AcDbVertex
100
AcDb2dVertex
 10
80.74011906618651
 20
97.4148979791185
 30
0.0
  0
VERTEX
  5
12F
330
112
100
AcDbEntity
  8
GRAU_10_
 62
     7
100
AcDbVertex
100
AcDb2dVertex
 10
80.5670030180527
 20
97.62642684191285
 30
0.0
  0
VERTEX
  5
130
330
112
100
AcDbEntity
  8
GRAU_10_
 62
     7
100
AcDbVertex
100
AcDb2dVertex
 10
80.40663382321432
 20
97.85724823942458
 30
0.0
  0
VERTEX
  5
131
330
112
100
AcDbEntity
  8
GRAU_10_
 62
     7
100
AcDbVertex
100
AcDb2dVertex
 10
80.27193058974105
 20
98.0946153183583
 30
0.0
  0
VERTEX
  5
132
330
112
100
AcDbEntity
  8
GRAU_10_
 62
     7
100
AcDbVertex
100
AcDb2dVertex
 10
80.16289331763289
 20
98.3512749320094
 30
0.0
  0
VERTEX
  5
133
330
112
100
AcDbEntity
  8
GRAU_10_
 62
     7
100
AcDbVertex
100
AcDb2dVertex
 10
80.07314858024213
 20
98.61413571753397
 30
0.0
  0
VERTEX
  5
134
330
112
100
AcDbEntity
  8
GRAU_10_
 62
     7
100
AcDbVertex
100
AcDb2dVertex
 10
80.00889754944222
 20
98.8835421844805
 30
0.0
  0
VERTEX
  5
135
330
112
100
AcDbEntity
  8
GRAU_10_
 62
     7
100
AcDbVertex
100
AcDb2dVertex
 10
79.97048473478169
 20
99.15294865142704
 30
0.0
  0
SEQEND
  5
136
330
112
100
AcDbEntity
  8
GRAU_10_
  0
POLYLINE
  5
137
330
44
100
AcDbEntity
  8
GRAU_10_
 62
     7
100
AcDb2dPolyline
 66
     1
 10
0.0
 20
0.0
 30
0.0
  0
VERTEX
  5
138
330
137
100
AcDbEntity
  8
GRAU_10_
 62
     7
100
AcDbVertex
100
AcDb2dVertex
 10
83.86378714266253
 20
99.15294865142704
 30
0.0
  0
VERTEX
  5
139
330
137
100
AcDbEntity
  8
GRAU_10_
 62
     7
100
AcDbVertex
100
AcDb2dVertex
 10
83.86378714266253
 20
99.16604001427099
 30
0.0
  0
VERTEX
  5
13A
330
137
100
AcDbEntity
  8
GRAU_10_
 62
     7
100
AcDbVertex
100
AcDb2dVertex
 10
83.8446668627194
 20
99.30694441961771
 30
0.0
  0
VERTEX
  5
13B
330
137
100
AcDbEntity
  8
GRAU_10_
 62
     7
100
AcDbVertex
100
AcDb2dVertex
 10
83.80608179328459
 20
99.46094018780838
 30
0.0
  0
VERTEX
  5
13C
330
137
100
AcDbEntity
  8
GRAU_10_
 62
     7
100
AcDbVertex
100
AcDb2dVertex
 10
83.74837644390666
 20
99.60218910270362
 30
0.0
  0
VERTEX
  5
13D
330
137
100
AcDbEntity
  8
GRAU_10_
 62
     7
100
AcDbVertex
100
AcDb2dVertex
 10
83.67775198645904
 20
99.74309350805034
 30
0.0
  0
VERTEX
  5
13E
330
137
100
AcDbEntity
  8
GRAU_10_
 62
     7
100
AcDbVertex
100
AcDb2dVertex
 10
83.594380675716
 20
99.87779674152361
 30
0.0
  0
VERTEX
  5
13F
330
137
100
AcDbEntity
  8
GRAU_10_
 62
     7
100
AcDbVertex
100
AcDb2dVertex
 10
83.49826251167752
 20
99.99975312170146
 30
0.0
  0
VERTEX
  5
140
330
137
100
AcDbEntity
  8
GRAU_10_
 62
     7
100
AcDbVertex
100
AcDb2dVertex
 10
83.38922523956937
 20
100.1151638204573
 30
0.0
  0
VERTEX
  5
141
330
137
100
AcDbEntity
  8
GRAU_10_
 62
     7
100
AcDbVertex
100
AcDb2dVertex
 10
83.26726885939152
 20
100.2178276659178
 30
0.0
  0
VERTEX
  5
142
330
137
100
AcDbEntity
  8
GRAU_10_
 62
     7
100
AcDbVertex
100
AcDb2dVertex
 10
83.13911130734023
 20
100.3011989766608
 30
0.0
  0
VERTEX
  5
143
330
137
100
AcDbEntity
  8
GRAU_10_
 62
     7
100
AcDbVertex
100
AcDb2dVertex
 10
83.00440807386695
 20
100.3780246059819
 30
0.0
  0
VERTEX
  5
144
330
137
100
AcDbEntity
  8
GRAU_10_
 62
     7
100
AcDbVertex
100
AcDb2dVertex
 10
82.99786239244499
 20
100.3780246059819
 30
0.0
  0
SEQEND
  5
145
330
137
100
AcDbEntity
  8
GRAU_10_
  0
POLYLINE
  5
146
330
44
100
AcDbEntity
  8
GRAU_10_
 62
     7
100
AcDb2dPolyline
 66
     1
 10
0.0
 20
0.0
 30
0.0
  0
VERTEX
  5
147
330
146
100
AcDbEntity
  8
GRAU_10_
 62
     7
100
AcDbVertex
100
AcDb2dVertex
 10
83.10052623790543
 20
97.67775876464306
 30
0.0
  0
VERTEX
  5
148
330
146
100
AcDbEntity
  8
GRAU_10_
 62
     7
100
AcDbVertex
100
AcDb2dVertex
 10
83.26726885939152
 20
97.70359698078244
 30
0.0
  0
VERTEX
  5
149
330
146
100
AcDbEntity
  8
GRAU_10_
 62
     7
100
AcDbVertex
100
AcDb2dVertex
 10
83.43401148087761
 20
97.74183754066871
 30
0.0
  0
VERTEX
  5
14A
330
146
100
AcDbEntity
  8
GRAU_10_
 62
     7
100
AcDbVertex
100
AcDb2dVertex
 10
83.594380675716
 20
97.79971514482091
 30
0.0
  0
VERTEX
  5
14B
330
146
100
AcDbEntity
  8
GRAU_10_
 62
     7
100
AcDbVertex
100
AcDb2dVertex
 10
83.74837644390666
 20
97.87033960226853
 30
0.0
  0
VERTEX
  5
14C
330
146
100
AcDbEntity
  8
GRAU_10_
 62
     7
100
AcDbVertex
100
AcDb2dVertex
 10
83.89582653067535
 20
97.95371091301158
 30
0.0
  0
VERTEX
  5
14D
330
146
100
AcDbEntity
  8
GRAU_10_
 62
     7
100
AcDbVertex
100
AcDb2dVertex
 10
84.03052976414862
 20
98.05637475847202
 30
0.0
  0
VERTEX
  5
14E
330
146
100
AcDbEntity
  8
GRAU_10_
 62
     7
100
AcDbVertex
100
AcDb2dVertex
 10
84.15885957097417
 20
98.16523977580592
 30
0.0
  0
VERTEX
  5
14F
330
146
100
AcDbEntity
  8
GRAU_10_
 62
     7
100
AcDbVertex
100
AcDb2dVertex
 10
84.27427026973005
 20
98.29374183740573
 30
0.0
  0
VERTEX
  5
150
330
146
100
AcDbEntity
  8
GRAU_10_
 62
     7
100
AcDbVertex
100
AcDb2dVertex
 10
84.3769341151905
 20
98.42810056133048
 30
0.0
  0
VERTEX
  5
151
330
146
100
AcDbEntity
  8
GRAU_10_
 62
     7
100
AcDbVertex
100
AcDb2dVertex
 10
84.46030542593354
 20
98.5758951576477
 30
0.0
  0
VERTEX
  5
152
330
146
100
AcDbEntity
  8
GRAU_10_
 62
     7
100
AcDbVertex
100
AcDb2dVertex
 10
84.48597138729865
 20
98.62722708037792
 30
0.0
  0
VERTEX
  5
153
330
146
100
AcDbEntity
  8
GRAU_10_
 62
     7
100
AcDbVertex
100
AcDb2dVertex
 10
84.51163734866375
 20
98.67855900310815
 30
0.0
  0
SEQEND
  5
154
330
146
100
AcDbEntity
  8
GRAU_10_
  0
POLYLINE
  5
155
330
44
100
AcDbEntity
  8
GRAU_10_
 62
     7
100
AcDb2dPolyline
 66
     1
 10
0.0
 20
0.0
 30
0.0
  0
VERTEX
  5
156
330
155
100
AcDbEntity
  8
GRAU_10_
 62
     7
100
AcDbVertex
100
AcDb2dVertex
 10
82.76066756828553
 20
101.1349120840913
 30
0.0
  0
VERTEX
  5
157
330
155
100
AcDbEntity
  8
GRAU_10_
 62
     7
100
AcDbVertex
100
AcDb2dVertex
 10
82.8953708017588
 20
101.0646321361922
 30
0.0
  0
VERTEX
  5
158
330
155
100
AcDbEntity
  8
GRAU_10_
 62
     7
100
AcDbVertex
100
AcDb2dVertex
 10
83.0235283538101
 20
101.000208850618
 30
0.0
  0
VERTEX
  5
159
330
155
100
AcDbEntity
  8
GRAU_10_
 62
     7
100
AcDbVertex
100
AcDb2dVertex
 10
83.15185816063565
 20
100.9361300745924
 30
0.0
  0
VERTEX
  5
15A
330
155
100
AcDbEntity
  8
GRAU_10_
 62
     7
100
AcDbVertex
100
AcDb2dVertex
 10
83.27381454081349
 20
100.8785969799887
 30
0.0
  0
VERTEX
  5
15B
330
155
100
AcDbEntity
  8
GRAU_10_
 62
     7
100
AcDbVertex
100
AcDb2dVertex
 10
83.4019720928648
 20
100.8141736944145
 30
0.0
  0
VERTEX
  5
15C
330
155
100
AcDbEntity
  8
GRAU_10_
 62
     7
100
AcDbVertex
100
AcDb2dVertex
 10
83.53030189969034
 20
100.7566405998109
 30
0.0
  0
VERTEX
  5
15D
330
155
100
AcDbEntity
  8
GRAU_10_
 62
     7
100
AcDbVertex
100
AcDb2dVertex
 10
83.6586317065159
 20
100.6987629956586
 30
0.0
  0
VERTEX
  5
15E
330
155
100
AcDbEntity
  8
GRAU_10_
 62
     7
100
AcDbVertex
100
AcDb2dVertex
 10
83.7867892585672
 20
100.634684219633
 30
0.0
  0
VERTEX
  5
15F
330
155
100
AcDbEntity
  8
GRAU_10_
 62
     7
100
AcDbVertex
100
AcDb2dVertex
 10
83.92149249204046
 20
100.5771511250293
 30
0.0
  0
VERTEX
  5
160
330
155
100
AcDbEntity
  8
GRAU_10_
 62
     7
100
AcDbVertex
100
AcDb2dVertex
 10
84.04982229886602
 20
100.5192735208771
 30
0.0
  0
VERTEX
  5
161
330
155
100
AcDbEntity
  8
GRAU_10_
 62
     7
100
AcDbVertex
100
AcDb2dVertex
 10
84.190898958987
 20
100.4613959167249
 30
0.0
  0
VERTEX
  5
162
330
155
100
AcDbEntity
  8
GRAU_10_
 62
     7
100
AcDbVertex
100
AcDb2dVertex
 10
84.32560219246027
 20
100.4038628221213
 30
0.0
  0
SEQEND
  5
163
330
155
100
AcDbEntity
  8
GRAU_10_
  0
POLYLINE
  5
164
330
44
100
AcDbEntity
  8
GRAU_10_
 62
     7
100
AcDb2dPolyline
 66
     1
 10
0.0
 20
0.0
 30
0.0
  0
VERTEX
  5
165
330
164
100
AcDbEntity
  8
GRAU_10_
 62
     7
100
AcDbVertex
100
AcDb2dVertex
 10
78.52078855458856
 20
107.8635280763327
 30
0.0
  0
VERTEX
  5
166
330
164
100
AcDbEntity
  8
GRAU_10_
 62
     7
100
AcDbVertex
100
AcDb2dVertex
 10
78.89285886699554
 20
107.9596462403712
 30
0.0
  0
VERTEX
  5
167
330
164
100
AcDbEntity
  8
GRAU_10_
 62
     7
100
AcDbVertex
100
AcDb2dVertex
 10
79.27130260605023
 20
108.0557644044097
 30
0.0
  0
SEQEND
  5
168
330
164
100
AcDbEntity
  8
GRAU_10_
  0
POLYLINE
  5
169
330
44
100
AcDbEntity
  8
GRAU_10_
 62
     7
100
AcDb2dPolyline
 66
     1
 10
0.0
 20
0.0
 30
0.0
  0
VERTEX
  5
16A
330
169
100
AcDbEntity
  8
GRAU_10_
 62
     7
100
AcDbVertex
100
AcDb2dVertex
 10
83.08777938461
 20
97.69705129936047
 30
0.0
  0
VERTEX
  5
16B
330
169
100
AcDbEntity
  8
GRAU_10_
 62
     7
100
AcDbVertex
100
AcDb2dVertex
 10
82.95944957778444
 20
97.75492890351266
 30
0.0
  0
VERTEX
  5
16C
330
169
100
AcDbEntity
  8
GRAU_10_
 62
     7
100
AcDbVertex
100
AcDb2dVertex
 10
82.81837291766347
 20
97.81246199811633
 30
0.0
  0
VERTEX
  5
16D
330
169
100
AcDbEntity
  8
GRAU_10_
 62
     7
100
AcDbVertex
100
AcDb2dVertex
 10
82.6900431108379
 20
97.87033960226853
 30
0.0
  0
VERTEX
  5
16E
330
169
100
AcDbEntity
  8
GRAU_10_
 62
     7
100
AcDbVertex
100
AcDb2dVertex
 10
82.55533987736464
 20
97.9278726968722
 30
0.0
  0
VERTEX
  5
16F
330
169
100
AcDbEntity
  8
GRAU_10_
 62
     7
100
AcDbVertex
100
AcDb2dVertex
 10
82.42701007053908
 20
97.9857503010244
 30
0.0
  0
VERTEX
  5
170
330
169
100
AcDbEntity
  8
GRAU_10_
 62
     7
100
AcDbVertex
100
AcDb2dVertex
 10
82.29885251848779
 20
98.04982907705005
 30
0.0
  0
VERTEX
  5
171
330
169
100
AcDbEntity
  8
GRAU_10_
 62
     7
100
AcDbVertex
100
AcDb2dVertex
 10
82.17052271166223
 20
98.10770668120225
 30
0.0
  0
VERTEX
  5
172
330
169
100
AcDbEntity
  8
GRAU_10_
 62
     7
100
AcDbVertex
100
AcDb2dVertex
 10
82.04219290483668
 20
98.1717854572279
 30
0.0
  0
VERTEX
  5
173
330
169
100
AcDbEntity
  8
GRAU_10_
 62
     7
100
AcDbVertex
100
AcDb2dVertex
 10
81.9204087794331
 20
98.22931855183157
 30
0.0
  0
VERTEX
  5
174
330
169
100
AcDbEntity
  8
GRAU_10_
 62
     7
100
AcDbVertex
100
AcDb2dVertex
 10
81.79207897260754
 20
98.29374183740573
 30
0.0
  0
VERTEX
  5
175
330
169
100
AcDbEntity
  8
GRAU_10_
 62
     7
100
AcDbVertex
100
AcDb2dVertex
 10
81.66374916578198
 20
98.35782061343139
 30
0.0
  0
VERTEX
  5
176
330
169
100
AcDbEntity
  8
GRAU_10_
 62
     7
100
AcDbVertex
100
AcDb2dVertex
 10
81.52904593230872
 20
98.42810056133048
 30
0.0
  0
SEQEND
  5
177
330
169
100
AcDbEntity
  8
GRAU_10_
  0
POLYLINE
  5
178
330
44
100
AcDbEntity
  8
GRAU_10_
 62
     7
100
AcDb2dPolyline
 66
     1
 10
0.0
 20
0.0
 30
0.0
  0
VERTEX
  5
179
330
178
100
AcDbEntity
  8
GRAU_10_
 62
     7
100
AcDbVertex
100
AcDb2dVertex
 10
93.35037432562075
 20
93.7910020381842
 30
0.0
  0
VERTEX
  5
17A
330
178
100
AcDbEntity
  8
GRAU_10_
 62
     7
100
AcDbVertex
100
AcDb2dVertex
 10
93.33745521755105
 20
93.7717095034668
 30
0.0
  0
VERTEX
  5
17B
330
178
100
AcDbEntity
  8
GRAU_10_
 62
     7
100
AcDbVertex
100
AcDb2dVertex
 10
93.32470836425563
 20
93.75861814062284
 30
0.0
  0
SEQEND
  5
17C
330
178
100
AcDbEntity
  8
GRAU_10_
  0
POLYLINE
  5
17D
330
44
100
AcDbEntity
  8
GRAU_10_
 62
     7
100
AcDb2dPolyline
 66
     1
 10
0.0
 20
0.0
 30
0.0
  0
VERTEX
  5
17E
330
17D
100
AcDbEntity
  8
GRAU_10_
 62
     7
100
AcDbVertex
100
AcDb2dVertex
 10
81.5162990790133
 20
98.41535370803506
 30
0.0
  0
VERTEX
  5
17F
330
17D
100
AcDbEntity
  8
GRAU_10_
 62
     7
100
AcDbVertex
100
AcDb2dVertex
 10
81.55471189367383
 20
98.37056746672681
 30
0.0
  0
VERTEX
  5
180
330
17D
100
AcDbEntity
  8
GRAU_10_
 62
     7
100
AcDbVertex
100
AcDb2dVertex
 10
81.58675128168665
 20
98.32578122541855
 30
0.0
  0
VERTEX
  5
181
330
17D
100
AcDbEntity
  8
GRAU_10_
 62
     7
100
AcDbVertex
100
AcDb2dVertex
 10
81.70233423521678
 20
98.19727916381873
 30
0.0
  0
VERTEX
  5
182
330
17D
100
AcDbEntity
  8
GRAU_10_
 62
     7
100
AcDbVertex
100
AcDb2dVertex
 10
81.83049178726807
 20
98.08186846506287
 30
0.0
  0
VERTEX
  5
183
330
17D
100
AcDbEntity
  8
GRAU_10_
 62
     7
100
AcDbVertex
100
AcDb2dVertex
 10
81.96519502074135
 20
97.97920461960243
 30
0.0
  0
VERTEX
  5
184
330
17D
100
AcDbEntity
  8
GRAU_10_
 62
     7
100
AcDbVertex
100
AcDb2dVertex
 10
82.1128173622843
 20
97.88308645556396
 30
0.0
  0
VERTEX
  5
185
330
17D
100
AcDbEntity
  8
GRAU_10_
 62
     7
100
AcDbVertex
100
AcDb2dVertex
 10
82.2666408757007
 20
97.81246199811633
 30
0.0
  0
VERTEX
  5
186
330
17D
100
AcDbEntity
  8
GRAU_10_
 62
     7
100
AcDbVertex
100
AcDb2dVertex
 10
82.42701007053908
 20
97.75492890351266
 30
0.0
  0
VERTEX
  5
187
330
17D
100
AcDbEntity
  8
GRAU_10_
 62
     7
100
AcDbVertex
100
AcDb2dVertex
 10
82.59392494679943
 20
97.70979815265589
 30
0.0
  0
VERTEX
  5
188
330
17D
100
AcDbEntity
  8
GRAU_10_
 62
     7
100
AcDbVertex
100
AcDb2dVertex
 10
82.76066756828553
 20
97.68430444606504
 30
0.0
  0
VERTEX
  5
189
330
17D
100
AcDbEntity
  8
GRAU_10_
 62
     7
100
AcDbVertex
100
AcDb2dVertex
 10
82.92741018977162
 20
97.67155759276962
 30
0.0
  0
VERTEX
  5
18A
330
17D
100
AcDbEntity
  8
GRAU_10_
 62
     7
100
AcDbVertex
100
AcDb2dVertex
 10
83.10052623790543
 20
97.67775876464306
 30
0.0
  0
SEQEND
  5
18B
330
17D
100
AcDbEntity
  8
GRAU_10_
  0
POLYLINE
  5
18C
330
44
100
AcDbEntity
  8
GRAU_10_
 62
     7
100
AcDb2dPolyline
 66
     1
 10
0.0
 20
0.0
 30
0.0
  0
VERTEX
  5
18D
330
18C
100
AcDbEntity
  8
GRAU_10_
 62
     7
100
AcDbVertex
100
AcDb2dVertex
 10
78.87356633227814
 20
108.7037868651852
 30
0.0
  0
VERTEX
  5
18E
330
18C
100
AcDbEntity
  8
GRAU_10_
 62
     7
100
AcDbVertex
100
AcDb2dVertex
 10
79.20722383002459
 20
108.7678656412108
 30
0.0
  0
VERTEX
  5
18F
330
18C
100
AcDbEntity
  8
GRAU_10_
 62
     7
100
AcDbVertex
100
AcDb2dVertex
 10
79.53433564634906
 20
108.8319444172365
 30
0.0
  0
SEQEND
  5
190
330
18C
100
AcDbEntity
  8
GRAU_10_
  0
POLYLINE
  5
191
330
44
100
AcDbEntity
  8
GRAU_10_
 62
     7
100
AcDb2dPolyline
 66
     1
 10
0.0
 20
0.0
 30
0.0
  0
VERTEX
  5
192
330
191
100
AcDbEntity
  8
GRAU_10_
 62
     7
100
AcDbVertex
100
AcDb2dVertex
 10
80.64400090214804
 20
104.2137939192591
 30
0.0
  0
VERTEX
  5
193
330
191
100
AcDbEntity
  8
GRAU_10_
 62
     7
100
AcDbVertex
100
AcDb2dVertex
 10
80.31688908582356
 20
104.220339600681
 30
0.0
  0
VERTEX
  5
194
330
191
100
AcDbEntity
  8
GRAU_10_
 62
     7
100
AcDbVertex
100
AcDb2dVertex
 10
79.98977726949909
 20
104.2651258419893
 30
0.0
  0
VERTEX
  5
195
330
191
100
AcDbEntity
  8
GRAU_10_
 62
     7
100
AcDbVertex
100
AcDb2dVertex
 10
79.66903887982232
 20
104.3550428341543
 30
0.0
  0
VERTEX
  5
196
330
191
100
AcDbEntity
  8
GRAU_10_
 62
     7
100
AcDbVertex
100
AcDb2dVertex
 10
79.35467391679327
 20
104.4897460676276
 30
0.0
  0
VERTEX
  5
197
330
191
100
AcDbEntity
  8
GRAU_10_
 62
     7
100
AcDbVertex
100
AcDb2dVertex
 10
79.05960148848163
 20
104.6626898609871
 30
0.0
  0
VERTEX
  5
198
330
191
100
AcDbEntity
  8
GRAU_10_
 62
     7
100
AcDbVertex
100
AcDb2dVertex
 10
78.79674070295707
 20
104.87456323333
 30
0.0
  0
VERTEX
  5
199
330
191
100
AcDbEntity
  8
GRAU_10_
 62
     7
100
AcDbVertex
100
AcDb2dVertex
 10
78.55300019737564
 20
105.1119303122637
 30
0.0
  0
VERTEX
  5
19A
330
191
100
AcDbEntity
  8
GRAU_10_
 62
     7
100
AcDbVertex
100
AcDb2dVertex
 10
78.34767250645476
 20
105.3875379510837
 30
0.0
  0
VERTEX
  5
19B
330
191
100
AcDbEntity
  8
GRAU_10_
 62
     7
100
AcDbVertex
100
AcDb2dVertex
 10
78.18092988496866
 20
105.6827826341696
 30
0.0
  0
VERTEX
  5
19C
330
191
100
AcDbEntity
  8
GRAU_10_
 62
     7
100
AcDbVertex
100
AcDb2dVertex
 10
78.0526000781431
 20
105.9969753424244
 30
0.0
  0
VERTEX
  5
19D
330
191
100
AcDbEntity
  8
GRAU_10_
 62
     7
100
AcDbVertex
100
AcDb2dVertex
 10
77.96285534075234
 20
106.3239149039746
 30
0.0
  0
VERTEX
  5
19E
330
191
100
AcDbEntity
  8
GRAU_10_
 62
     7
100
AcDbVertex
100
AcDb2dVertex
 10
77.92427027131755
 20
106.6577446564953
 30
0.0
  0
VERTEX
  5
19F
330
191
100
AcDbEntity
  8
GRAU_10_
 62
     7
100
AcDbVertex
100
AcDb2dVertex
 10
77.92427027131755
 20
106.9974310713409
 30
0.0
  0
VERTEX
  5
1A0
330
191
100
AcDbEntity
  8
GRAU_10_
 62
     7
100
AcDbVertex
100
AcDb2dVertex
 10
77.96285534075234
 20
107.3374619957351
 30
0.0
  0
VERTEX
  5
1A1
330
191
100
AcDbEntity
  8
GRAU_10_
 62
     7
100
AcDbVertex
100
AcDb2dVertex
 10
78.0526000781431
 20
107.6582003854118
 30
0.0
  0
VERTEX
  5
1A2
330
191
100
AcDbEntity
  8
GRAU_10_
 62
     7
100
AcDbVertex
100
AcDb2dVertex
 10
78.18092988496866
 20
107.9723930936666
 30
0.0
  0
VERTEX
  5
1A3
330
191
100
AcDbEntity
  8
GRAU_10_
 62
     7
100
AcDbVertex
100
AcDb2dVertex
 10
78.35404593310247
 20
108.2610920953306
 30
0.0
  0
VERTEX
  5
1A4
330
191
100
AcDbEntity
  8
GRAU_10_
 62
     7
100
AcDbVertex
100
AcDb2dVertex
 10
78.55937362402335
 20
108.5304985622771
 30
0.0
  0
VERTEX
  5
1A5
330
191
100
AcDbEntity
  8
GRAU_10_
 62
     7
100
AcDbVertex
100
AcDb2dVertex
 10
78.79674070295707
 20
108.7678656412108
 30
0.0
  0
VERTEX
  5
1A6
330
191
100
AcDbEntity
  8
GRAU_10_
 62
     7
100
AcDbVertex
100
AcDb2dVertex
 10
79.0661471699036
 20
108.9731933321317
 30
0.0
  0
VERTEX
  5
1A7
330
191
100
AcDbEntity
  8
GRAU_10_
 62
     7
100
AcDbVertex
100
AcDb2dVertex
 10
79.14297279922468
 20
109.01797957344
 30
0.0
  0
VERTEX
  5
1A8
330
191
100
AcDbEntity
  8
GRAU_10_
 62
     7
100
AcDbVertex
100
AcDb2dVertex
 10
79.21997068332001
 20
109.0627658147482
 30
0.0
  0
SEQEND
  5
1A9
330
191
100
AcDbEntity
  8
GRAU_10_
  0
POLYLINE
  5
1AA
330
44
100
AcDbEntity
  8
GRAU_10_
 62
     7
100
AcDb2dPolyline
 66
     1
 10
0.0
 20
0.0
 30
0.0
  0
VERTEX
  5
1AB
330
1AA
100
AcDbEntity
  8
GRAU_10_
 62
     7
100
AcDbVertex
100
AcDb2dVertex
 10
79.41237926617121
 20
99.069577340684
 30
0.0
  0
VERTEX
  5
1AC
330
1AA
100
AcDbEntity
  8
GRAU_10_
 62
     7
100
AcDbVertex
100
AcDb2dVertex
 10
79.47663029697112
 20
98.73609209771182
 30
0.0
  0
VERTEX
  5
1AD
330
1AA
100
AcDbEntity
  8
GRAU_10_
 62
     7
100
AcDbVertex
100
AcDb2dVertex
 10
79.54708249964449
 20
98.40260685473963
 30
0.0
  0
VERTEX
  5
1AE
330
1AA
100
AcDbEntity
  8
GRAU_10_
 62
     7
100
AcDbVertex
100
AcDb2dVertex
 10
79.67541230647004
 20
98.08186846506287
 30
0.0
  0
VERTEX
  5
1AF
330
1AA
100
AcDbEntity
  8
GRAU_10_
 62
     7
100
AcDbVertex
100
AcDb2dVertex
 10
79.8037421132956
 20
97.76767575680809
 30
0.0
  0
VERTEX
  5
1B0
330
1AA
100
AcDbEntity
  8
GRAU_10_
 62
     7
100
AcDbVertex
100
AcDb2dVertex
 10
79.98977726949909
 20
97.48552243656613
 30
0.0
  0
VERTEX
  5
1B1
330
1AA
100
AcDbEntity
  8
GRAU_10_
 62
     7
100
AcDbVertex
100
AcDb2dVertex
 10
80.17564017092832
 20
97.19682343490219
 30
0.0
  0
VERTEX
  5
1B2
330
1AA
100
AcDbEntity
  8
GRAU_10_
 62
     7
100
AcDbVertex
100
AcDb2dVertex
 10
80.41938067650975
 20
96.94670950267304
 30
0.0
  0
VERTEX
  5
1B3
330
1AA
100
AcDbEntity
  8
GRAU_10_
 62
     7
100
AcDbVertex
100
AcDb2dVertex
 10
80.66312118209117
 20
96.70279674231736
 30
0.0
  0
VERTEX
  5
1B4
330
1AA
100
AcDbEntity
  8
GRAU_10_
 62
     7
100
AcDbVertex
100
AcDb2dVertex
 10
80.94544675710739
 20
96.51056041424042
 30
0.0
  0
VERTEX
  5
1B5
330
1AA
100
AcDbEntity
  8
GRAU_10_
 62
     7
100
AcDbVertex
100
AcDb2dVertex
 10
81.22760007734935
 20
96.31797957661496
 30
0.0
  0
VERTEX
  5
1B6
330
1AA
100
AcDbEntity
  8
GRAU_10_
 62
     7
100
AcDbVertex
100
AcDb2dVertex
 10
81.5419650403784
 20
96.18327634314169
 30
0.0
  0
VERTEX
  5
1B7
330
1AA
100
AcDbEntity
  8
GRAU_10_
 62
     7
100
AcDbVertex
100
AcDb2dVertex
 10
81.85615774863318
 20
96.04857310966841
 30
0.0
  0
VERTEX
  5
1B8
330
1AA
100
AcDbEntity
  8
GRAU_10_
 62
     7
100
AcDbVertex
100
AcDb2dVertex
 10
82.18326956495766
 20
95.97794865222079
 30
0.0
  0
VERTEX
  5
1B9
330
1AA
100
AcDbEntity
  8
GRAU_10_
 62
     7
100
AcDbVertex
100
AcDb2dVertex
 10
82.5169270627041
 20
95.9076687043217
 30
0.0
  0
VERTEX
  5
1BA
330
1AA
100
AcDbEntity
  8
GRAU_10_
 62
     7
100
AcDbVertex
100
AcDb2dVertex
 10
82.86315915897171
 20
95.90112302289972
 30
0.0
  0
VERTEX
  5
1BB
330
1AA
100
AcDbEntity
  8
GRAU_10_
 62
     7
100
AcDbVertex
100
AcDb2dVertex
 10
83.20956351001358
 20
95.89457734147774
 30
0.0
  0
VERTEX
  5
1BC
330
1AA
100
AcDbEntity
  8
GRAU_10_
 62
     7
100
AcDbVertex
100
AcDb2dVertex
 10
83.54322100776004
 20
95.9586561175034
 30
0.0
  0
VERTEX
  5
1BD
330
1AA
100
AcDbEntity
  8
GRAU_10_
 62
     7
100
AcDbVertex
100
AcDb2dVertex
 10
83.87670625073221
 20
96.02307940307757
 30
0.0
  0
VERTEX
  5
1BE
330
1AA
100
AcDbEntity
  8
GRAU_10_
 62
     7
100
AcDbVertex
100
AcDb2dVertex
 10
84.1845255323393
 20
96.14469127370688
 30
0.0
  0
VERTEX
  5
1BF
330
1AA
100
AcDbEntity
  8
GRAU_10_
 62
     7
100
AcDbVertex
100
AcDb2dVertex
 10
84.49889049536834
 20
96.2731933353067
 30
0.0
  0
VERTEX
  5
1C0
330
1AA
100
AcDbEntity
  8
GRAU_10_
 62
     7
100
AcDbVertex
100
AcDb2dVertex
 10
84.7810438156103
 20
96.4592284915102
 30
0.0
  0
VERTEX
  5
1C1
330
1AA
100
AcDbEntity
  8
GRAU_10_
 62
     7
100
AcDbVertex
100
AcDb2dVertex
 10
85.06336939062652
 20
96.64526364771369
 30
0.0
  0
VERTEX
  5
1C2
330
1AA
100
AcDbEntity
  8
GRAU_10_
 62
     7
100
AcDbVertex
100
AcDb2dVertex
 10
85.30693764143369
 20
96.88883189852085
 30
0.0
  0
VERTEX
  5
1C3
330
1AA
100
AcDbEntity
  8
GRAU_10_
 62
     7
100
AcDbVertex
100
AcDb2dVertex
 10
85.55722382843709
 20
97.12619897745456
 30
0.0
  0
VERTEX
  5
1C4
330
1AA
100
AcDbEntity
  8
GRAU_10_
 62
     7
100
AcDbVertex
100
AcDb2dVertex
 10
85.74325898464058
 20
97.40835229769652
 30
0.0
  0
VERTEX
  5
1C5
330
1AA
100
AcDbEntity
  8
GRAU_10_
 62
     7
100
AcDbVertex
100
AcDb2dVertex
 10
85.92912188606981
 20
97.69050561793848
 30
0.0
  0
VERTEX
  5
1C6
330
1AA
100
AcDbEntity
  8
GRAU_10_
 62
     7
100
AcDbVertex
100
AcDb2dVertex
 10
86.06382511954307
 20
98.0050428357418
 30
0.0
  0
VERTEX
  5
1C7
330
1AA
100
AcDbEntity
  8
GRAU_10_
 62
     7
100
AcDbVertex
100
AcDb2dVertex
 10
86.19215492636863
 20
98.31268986257462
 30
0.0
  0
VERTEX
  5
1C8
330
1AA
100
AcDbEntity
  8
GRAU_10_
 62
     7
100
AcDbVertex
100
AcDb2dVertex
 10
86.26277938381625
 20
98.64617510554679
 30
0.0
  0
VERTEX
  5
1C9
330
1AA
100
AcDbEntity
  8
GRAU_10_
 62
     7
100
AcDbVertex
100
AcDb2dVertex
 10
86.3268581598419
 20
98.9800048580675
 30
0.0
  0
VERTEX
  5
1CA
330
1AA
100
AcDbEntity
  8
GRAU_10_
 62
     7
100
AcDbVertex
100
AcDb2dVertex
 10
86.3268581598419
 20
99.32623695433512
 30
0.0
  0
VERTEX
  5
1CB
330
1AA
100
AcDbEntity
  8
GRAU_10_
 62
     7
100
AcDbVertex
100
AcDb2dVertex
 10
86.3268581598419
 20
99.67246905060271
 30
0.0
  0
SEQEND
  5
1CC
330
1AA
100
AcDbEntity
  8
GRAU_10_
  0
POLYLINE
  5
1CD
330
44
100
AcDbEntity
  8
GRAU_10_
 62
     7
100
AcDb2dPolyline
 66
     1
 10
0.0
 20
0.0
 30
0.0
  0
VERTEX
  5
1CE
330
1CD
100
AcDbEntity
  8
GRAU_10_
 62
     7
100
AcDbVertex
100
AcDb2dVertex
 10
93.32470836425563
 20
93.75861814062284
 30
0.0
  0
VERTEX
  5
1CF
330
1CD
100
AcDbEntity
  8
GRAU_10_
 62
     7
100
AcDbVertex
100
AcDb2dVertex
 10
93.17071259606496
 20
93.59842120055873
 30
0.0
  0
VERTEX
  5
1D0
330
1CD
100
AcDbEntity
  8
GRAU_10_
 62
     7
100
AcDbVertex
100
AcDb2dVertex
 10
93.01688908264856
 20
93.43822426049462
 30
0.0
  0
VERTEX
  5
1D1
330
1CD
100
AcDbEntity
  8
GRAU_10_
 62
     7
100
AcDbVertex
100
AcDb2dVertex
 10
92.84997420638821
 20
93.26493595758654
 30
0.0
  0
VERTEX
  5
1D2
330
1CD
100
AcDbEntity
  8
GRAU_10_
 62
     7
100
AcDbVertex
100
AcDb2dVertex
 10
92.68977726632409
 20
93.09164765467848
 30
0.0
  0
SEQEND
  5
1D3
330
1CD
100
AcDbEntity
  8
GRAU_10_
  0
POLYLINE
  5
1D4
330
44
100
AcDbEntity
  8
GRAU_10_
 62
     7
100
AcDb2dPolyline
 66
     1
 10
0.0
 20
0.0
 30
0.0
  0
VERTEX
  5
1D5
330
1D4
100
AcDbEntity
  8
GRAU_10_
 62
     7
100
AcDbVertex
100
AcDb2dVertex
 10
84.4411851459904
 20
95.43293454645428
 30
0.0
  0
VERTEX
  5
1D6
330
1D4
100
AcDbEntity
  8
GRAU_10_
 62
     7
100
AcDbVertex
100
AcDb2dVertex
 10
83.87670625073221
 20
95.36231008900666
 30
0.0
  0
VERTEX
  5
1D7
330
1D4
100
AcDbEntity
  8
GRAU_10_
 62
     7
100
AcDbVertex
100
AcDb2dVertex
 10
83.31222735547404
 20
95.34301755428925
 30
0.0
  0
VERTEX
  5
1D8
330
1D4
100
AcDbEntity
  8
GRAU_10_
 62
     7
100
AcDbVertex
100
AcDb2dVertex
 10
82.77978784822866
 20
95.36885577042862
 30
0.0
  0
VERTEX
  5
1D9
330
1D4
100
AcDbEntity
  8
GRAU_10_
 62
     7
100
AcDbVertex
100
AcDb2dVertex
 10
82.24752059575756
 20
95.43913571832772
 30
0.0
  0
VERTEX
  5
1DA
330
1D4
100
AcDbEntity
  8
GRAU_10_
 62
     7
100
AcDbVertex
100
AcDb2dVertex
 10
81.72800019658189
 20
95.55489092663211
 30
0.0
  0
VERTEX
  5
1DB
330
1D4
100
AcDbEntity
  8
GRAU_10_
 62
     7
100
AcDbVertex
100
AcDb2dVertex
 10
81.22122665070164
 20
95.70854218527425
 30
0.0
  0
VERTEX
  5
1DC
330
1D4
100
AcDbEntity
  8
GRAU_10_
 62
     7
100
AcDbVertex
100
AcDb2dVertex
 10
80.71445310482139
 20
95.91386987619515
 30
0.0
  0
VERTEX
  5
1DD
330
1D4
100
AcDbEntity
  8
GRAU_10_
 62
     7
100
AcDbVertex
100
AcDb2dVertex
 10
80.22697209365853
 20
96.15778263655083
 30
0.0
  0
SEQEND
  5
1DE
330
1D4
100
AcDbEntity
  8
GRAU_10_
  0
POLYLINE
  5
1DF
330
44
100
AcDbEntity
  8
GRAU_10_
 62
     7
100
AcDb2dPolyline
 66
     1
 10
0.0
 20
0.0
 30
0.0
  0
VERTEX
  5
1E0
330
1DF
100
AcDbEntity
  8
GRAU_10_
 62
     7
100
AcDbVertex
100
AcDb2dVertex
 10
93.395160566929
 20
93.68833819272375
 30
0.0
  0
VERTEX
  5
1E1
330
1DF
100
AcDbEntity
  8
GRAU_10_
 62
     7
100
AcDbVertex
100
AcDb2dVertex
 10
93.395160566929
 20
93.6945393645972
 30
0.0
  0
VERTEX
  5
1E2
330
1DF
100
AcDbEntity
  8
GRAU_10_
 62
     7
100
AcDbVertex
100
AcDb2dVertex
 10
93.40170624835096
 20
93.6945393645972
 30
0.0
  0
VERTEX
  5
1E3
330
1DF
100
AcDbEntity
  8
GRAU_10_
 62
     7
100
AcDbVertex
100
AcDb2dVertex
 10
93.41445310164639
 20
93.70763072744116
 30
0.0
  0
VERTEX
  5
1E4
330
1DF
100
AcDbEntity
  8
GRAU_10_
 62
     7
100
AcDbVertex
100
AcDb2dVertex
 10
93.42737220971608
 20
93.72037758073658
 30
0.0
  0
SEQEND
  5
1E5
330
1DF
100
AcDbEntity
  8
GRAU_10_
  0
POLYLINE
  5
1E6
330
44
100
AcDbEntity
  8
GRAU_10_
 62
     7
100
AcDb2dPolyline
 66
     1
 10
0.0
 20
0.0
 30
0.0
  0
VERTEX
  5
1E7
330
1E6
100
AcDbEntity
  8
GRAU_10_
 62
     7
100
AcDbVertex
100
AcDb2dVertex
 10
86.3268581598419
 20
99.67246905060271
 30
0.0
  0
VERTEX
  5
1E8
330
1E6
100
AcDbEntity
  8
GRAU_10_
 62
     7
100
AcDbVertex
100
AcDb2dVertex
 10
86.25623370239428
 20
100.0252468282923
 30
0.0
  0
VERTEX
  5
1E9
330
1E6
100
AcDbEntity
  8
GRAU_10_
 62
     7
100
AcDbVertex
100
AcDb2dVertex
 10
86.18578149972092
 20
100.3780246059819
 30
0.0
  0
VERTEX
  5
1EA
330
1E6
100
AcDbEntity
  8
GRAU_10_
 62
     7
100
AcDbVertex
100
AcDb2dVertex
 10
86.04470483959994
 20
100.7118543585026
 30
0.0
  0
VERTEX
  5
1EB
330
1E6
100
AcDbEntity
  8
GRAU_10_
 62
     7
100
AcDbVertex
100
AcDb2dVertex
 10
85.89708249805699
 20
101.0515407733482
 30
0.0
  0
VERTEX
  5
1EC
330
1E6
100
AcDbEntity
  8
GRAU_10_
 62
     7
100
AcDbVertex
100
AcDb2dVertex
 10
85.68538138048838
 20
101.3467854564341
 30
0.0
  0
VERTEX
  5
1ED
330
1E6
100
AcDbEntity
  8
GRAU_10_
 62
     7
100
AcDbVertex
100
AcDb2dVertex
 10
85.48022594434175
 20
101.6482313113935
 30
0.0
  0
VERTEX
  5
1EE
330
1E6
100
AcDbEntity
  8
GRAU_10_
 62
     7
100
AcDbVertex
100
AcDb2dVertex
 10
85.21081947739522
 20
101.8983452436226
 30
0.0
  0
VERTEX
  5
1EF
330
1E6
100
AcDbEntity
  8
GRAU_10_
 62
     7
100
AcDbVertex
100
AcDb2dVertex
 10
84.94141301044868
 20
102.1484591758518
 30
0.0
  0
VERTEX
  5
1F0
330
1E6
100
AcDbEntity
  8
GRAU_10_
 62
     7
100
AcDbVertex
100
AcDb2dVertex
 10
84.6335937288416
 20
102.3344943320553
 30
0.0
  0
VERTEX
  5
1F1
330
1E6
100
AcDbEntity
  8
GRAU_10_
 62
     7
100
AcDbVertex
100
AcDb2dVertex
 10
84.31922876581255
 20
102.5267306601322
 30
0.0
  0
VERTEX
  5
1F2
330
1E6
100
AcDbEntity
  8
GRAU_10_
 62
     7
100
AcDbVertex
100
AcDb2dVertex
 10
83.97282441477068
 20
102.6424858684366
 30
0.0
  0
VERTEX
  5
1F3
330
1E6
100
AcDbEntity
  8
GRAU_10_
 62
     7
100
AcDbVertex
100
AcDb2dVertex
 10
83.63296574515078
 20
102.7640977390659
 30
0.0
  0
VERTEX
  5
1F4
330
1E6
100
AcDbEntity
  8
GRAU_10_
 62
     7
100
AcDbVertex
100
AcDb2dVertex
 10
83.26726885939152
 20
102.8092284899227
 30
0.0
  0
VERTEX
  5
1F5
330
1E6
100
AcDbEntity
  8
GRAU_10_
 62
     7
100
AcDbVertex
100
AcDb2dVertex
 10
82.90811765505423
 20
102.8540147312309
 30
0.0
  0
VERTEX
  5
1F6
330
1E6
100
AcDbEntity
  8
GRAU_10_
 62
     7
100
AcDbVertex
100
AcDb2dVertex
 10
82.54896645071693
 20
102.8285210246401
 30
0.0
  0
VERTEX
  5
1F7
330
1E6
100
AcDbEntity
  8
GRAU_10_
 62
     7
100
AcDbVertex
100
AcDb2dVertex
 10
82.18326956495766
 20
102.7961371270788
 30
0.0
  0
VERTEX
  5
1F8
330
1E6
100
AcDbEntity
  8
GRAU_10_
 62
     7
100
AcDbVertex
100
AcDb2dVertex
 10
81.83703746869006
 20
102.6938177911668
 30
0.0
  0
VERTEX
  5
1F9
330
1E6
100
AcDbEntity
  8
GRAU_10_
 62
     7
100
AcDbVertex
100
AcDb2dVertex
 10
81.49063311764817
 20
102.5846082642844
 30
0.0
  0
VERTEX
  5
1FA
330
1E6
100
AcDbEntity
  8
GRAU_10_
 62
     7
100
AcDbVertex
100
AcDb2dVertex
 10
81.16989472797142
 20
102.4051187895029
 30
0.0
  0
VERTEX
  5
1FB
330
1E6
100
AcDbEntity
  8
GRAU_10_
 62
     7
100
AcDbVertex
100
AcDb2dVertex
 10
80.84915633829466
 20
102.2252848051728
 30
0.0
  0
SEQEND
  5
1FC
330
1E6
100
AcDbEntity
  8
GRAU_10_
  0
POLYLINE
  5
1FD
330
44
100
AcDbEntity
  8
GRAU_10_
 62
     7
100
AcDb2dPolyline
 66
     1
 10
0.0
 20
0.0
 30
0.0
  0
VERTEX
  5
1FE
330
1FD
100
AcDbEntity
  8
GRAU_10_
 62
     7
100
AcDbVertex
100
AcDb2dVertex
 10
95.62741018659662
 20
104.2971652300021
 30
0.0
  0
VERTEX
  5
1FF
330
1FD
100
AcDbEntity
  8
GRAU_10_
 62
     7
100
AcDbVertex
100
AcDb2dVertex
 10
95.65307614796174
 20
104.4832003862056
 30
0.0
  0
VERTEX
  5
200
330
1FD
100
AcDbEntity
  8
GRAU_10_
 62
     7
100
AcDbVertex
100
AcDb2dVertex
 10
95.69148896262227
 20
104.6692355424091
 30
0.0
  0
VERTEX
  5
201
330
1FD
100
AcDbEntity
  8
GRAU_10_
 62
     7
100
AcDbVertex
100
AcDb2dVertex
 10
95.72352835063509
 20
104.8552706986126
 30
0.0
  0
VERTEX
  5
202
330
1FD
100
AcDbEntity
  8
GRAU_10_
 62
     7
100
AcDbVertex
100
AcDb2dVertex
 10
95.7621134200699
 20
105.0347601733941
 30
0.0
  0
SEQEND
  5
203
330
1FD
100
AcDbEntity
  8
GRAU_10_
  0
POLYLINE
  5
204
330
44
100
AcDbEntity
  8
GRAU_10_
 62
     7
100
AcDb2dPolyline
 66
     1
 10
0.0
 20
0.0
 30
0.0
  0
VERTEX
  5
205
330
204
100
AcDbEntity
  8
GRAU_10_
 62
     7
100
AcDbVertex
100
AcDb2dVertex
 10
93.77360430598368
 20
98.50527070020007
 30
0.0
  0
VERTEX
  5
206
330
204
100
AcDbEntity
  8
GRAU_10_
 62
     7
100
AcDbVertex
100
AcDb2dVertex
 10
93.82493622871391
 20
99.41615394650013
 30
0.0
  0
VERTEX
  5
207
330
204
100
AcDbEntity
  8
GRAU_10_
 62
     7
100
AcDbVertex
100
AcDb2dVertex
 10
93.94689260889176
 20
100.3077446580828
 30
0.0
  0
VERTEX
  5
208
330
204
100
AcDbEntity
  8
GRAU_10_
 62
     7
100
AcDbVertex
100
AcDb2dVertex
 10
94.15859372646035
 20
101.1862440068215
 30
0.0
  0
VERTEX
  5
209
330
204
100
AcDbEntity
  8
GRAU_10_
 62
     7
100
AcDbVertex
100
AcDb2dVertex
 10
94.44074704670231
 20
102.0457953303913
 30
0.0
  0
VERTEX
  5
20A
330
204
100
AcDbEntity
  8
GRAU_10_
 62
     7
100
AcDbVertex
100
AcDb2dVertex
 10
94.80627167768732
 20
102.8733072659483
 30
0.0
  0
VERTEX
  5
20B
330
204
100
AcDbEntity
  8
GRAU_10_
 62
     7
100
AcDbVertex
100
AcDb2dVertex
 10
95.24259302089422
 20
103.6622341320706
 30
0.0
  0
SEQEND
  5
20C
330
204
100
AcDbEntity
  8
GRAU_10_
  0
POLYLINE
  5
20D
330
44
100
AcDbEntity
  8
GRAU_10_
 62
     7
100
AcDb2dPolyline
 66
     1
 10
0.0
 20
0.0
 30
0.0
  0
VERTEX
  5
20E
330
20D
100
AcDbEntity
  8
GRAU_10_
 62
     7
100
AcDbVertex
100
AcDb2dVertex
 10
81.39434269883544
 20
100.1472032084701
 30
0.0
  0
VERTEX
  5
20F
330
20D
100
AcDbEntity
  8
GRAU_10_
 62
     7
100
AcDbVertex
100
AcDb2dVertex
 10
81.38796927218773
 20
100.1410020365967
 30
0.0
  0
VERTEX
  5
210
330
20D
100
AcDbEntity
  8
GRAU_10_
 62
     7
100
AcDbVertex
100
AcDb2dVertex
 10
81.3752224188923
 20
100.1344563551747
 30
0.0
  0
SEQEND
  5
211
330
20D
100
AcDbEntity
  8
GRAU_10_
  0
POLYLINE
  5
212
330
44
100
AcDbEntity
  8
GRAU_10_
 62
     7
100
AcDb2dPolyline
 66
     1
 10
0.0
 20
0.0
 30
0.0
  0
VERTEX
  5
213
330
212
100
AcDbEntity
  8
GRAU_10_
 62
     7
100
AcDbVertex
100
AcDb2dVertex
 10
81.43292776827025
 20
99.27490503160489
 30
0.0
  0
VERTEX
  5
214
330
212
100
AcDbEntity
  8
GRAU_10_
 62
     7
100
AcDbVertex
100
AcDb2dVertex
 10
81.43930119491796
 20
99.16604001427099
 30
0.0
  0
VERTEX
  5
215
330
212
100
AcDbEntity
  8
GRAU_10_
 62
     7
100
AcDbVertex
100
AcDb2dVertex
 10
81.45204804821338
 20
99.06337616881055
 30
0.0
  0
VERTEX
  5
216
330
212
100
AcDbEntity
  8
GRAU_10_
 62
     7
100
AcDbVertex
100
AcDb2dVertex
 10
81.46496715628307
 20
98.95416664192813
 30
0.0
  0
VERTEX
  5
217
330
212
100
AcDbEntity
  8
GRAU_10_
 62
     7
100
AcDbVertex
100
AcDb2dVertex
 10
81.47771400957849
 20
98.85150279646768
 30
0.0
  0
VERTEX
  5
218
330
212
100
AcDbEntity
  8
GRAU_10_
 62
     7
100
AcDbVertex
100
AcDb2dVertex
 10
81.49063311764817
 20
98.74883895100724
 30
0.0
  0
VERTEX
  5
219
330
212
100
AcDbEntity
  8
GRAU_10_
 62
     7
100
AcDbVertex
100
AcDb2dVertex
 10
81.5033799709436
 20
98.63997393367335
 30
0.0
  0
VERTEX
  5
21A
330
212
100
AcDbEntity
  8
GRAU_10_
 62
     7
100
AcDbVertex
100
AcDb2dVertex
 10
81.5162990790133
 20
98.53076440679092
 30
0.0
  0
VERTEX
  5
21B
330
212
100
AcDbEntity
  8
GRAU_10_
 62
     7
100
AcDbVertex
100
AcDb2dVertex
 10
81.52904593230872
 20
98.42810056133048
 30
0.0
  0
SEQEND
  5
21C
330
212
100
AcDbEntity
  8
GRAU_10_
  0
POLYLINE
  5
21D
330
44
100
AcDbEntity
  8
GRAU_10_
 62
     7
100
AcDb2dPolyline
 66
     1
 10
0.0
 20
0.0
 30
0.0
  0
VERTEX
  5
21E
330
21D
100
AcDbEntity
  8
GRAU_10_
 62
     7
100
AcDbVertex
100
AcDb2dVertex
 10
81.36230331082263
 20
100.1410020365967
 30
0.0
  0
VERTEX
  5
21F
330
21D
100
AcDbEntity
  8
GRAU_10_
 62
     7
100
AcDbVertex
100
AcDb2dVertex
 10
81.36230331082263
 20
100.1217095018793
 30
0.0
  0
VERTEX
  5
220
330
21D
100
AcDbEntity
  8
GRAU_10_
 62
     7
100
AcDbVertex
100
AcDb2dVertex
 10
81.3752224188923
 20
100.0317925097143
 30
0.0
  0
VERTEX
  5
221
330
21D
100
AcDbEntity
  8
GRAU_10_
 62
     7
100
AcDbVertex
100
AcDb2dVertex
 10
81.38159584554002
 20
99.91638181095841
 30
0.0
  0
VERTEX
  5
222
330
21D
100
AcDbEntity
  8
GRAU_10_
 62
     7
100
AcDbVertex
100
AcDb2dVertex
 10
81.38796927218773
 20
99.80717228407599
 30
0.0
  0
VERTEX
  5
223
330
21D
100
AcDbEntity
  8
GRAU_10_
 62
     7
100
AcDbVertex
100
AcDb2dVertex
 10
81.39434269883544
 20
99.69830726674209
 30
0.0
  0
VERTEX
  5
224
330
21D
100
AcDbEntity
  8
GRAU_10_
 62
     7
100
AcDbVertex
100
AcDb2dVertex
 10
81.40088838025743
 20
99.58909773985967
 30
0.0
  0
VERTEX
  5
225
330
21D
100
AcDbEntity
  8
GRAU_10_
 62
     7
100
AcDbVertex
100
AcDb2dVertex
 10
81.41363523355284
 20
99.48643389439923
 30
0.0
  0
VERTEX
  5
226
330
21D
100
AcDbEntity
  8
GRAU_10_
 62
     7
100
AcDbVertex
100
AcDb2dVertex
 10
81.42000866020055
 20
99.37756887706533
 30
0.0
  0
VERTEX
  5
227
330
21D
100
AcDbEntity
  8
GRAU_10_
 62
     7
100
AcDbVertex
100
AcDb2dVertex
 10
81.43292776827025
 20
99.27490503160489
 30
0.0
  0
SEQEND
  5
228
330
21D
100
AcDbEntity
  8
GRAU_10_
  0
POLYLINE
  5
229
330
44
100
AcDbEntity
  8
GRAU_10_
 62
     7
100
AcDb2dPolyline
 66
     1
 10
0.0
 20
0.0
 30
0.0
  0
VERTEX
  5
22A
330
229
100
AcDbEntity
  8
GRAU_10_
 62
     7
100
AcDbVertex
100
AcDb2dVertex
 10
92.60623370080678
 20
92.99552949064001
 30
0.0
  0
VERTEX
  5
22B
330
229
100
AcDbEntity
  8
GRAU_10_
 62
     7
100
AcDbVertex
100
AcDb2dVertex
 10
92.38815915659046
 20
92.77090926500172
 30
0.0
  0
VERTEX
  5
22C
330
229
100
AcDbEntity
  8
GRAU_10_
 62
     7
100
AcDbVertex
100
AcDb2dVertex
 10
92.17008461237415
 20
92.54008786748999
 30
0.0
  0
VERTEX
  5
22D
330
229
100
AcDbEntity
  8
GRAU_10_
 62
     7
100
AcDbVertex
100
AcDb2dVertex
 10
91.95855574957982
 20
92.32201332327367
 30
0.0
  0
VERTEX
  5
22E
330
229
100
AcDbEntity
  8
GRAU_10_
 62
     7
100
AcDbVertex
100
AcDb2dVertex
 10
91.7468546320112
 20
92.09739309763538
 30
0.0
  0
VERTEX
  5
22F
330
229
100
AcDbEntity
  8
GRAU_10_
 62
     7
100
AcDbVertex
100
AcDb2dVertex
 10
91.5351535144426
 20
91.87931855341907
 30
0.0
  0
VERTEX
  5
230
330
229
100
AcDbEntity
  8
GRAU_10_
 62
     7
100
AcDbVertex
100
AcDb2dVertex
 10
91.323452396874
 20
91.66124400920275
 30
0.0
  0
SEQEND
  5
231
330
229
100
AcDbEntity
  8
GRAU_10_
  0
POLYLINE
  5
232
330
44
100
AcDbEntity
  8
GRAU_10_
 62
     7
100
AcDb2dPolyline
 66
     1
 10
0.0
 20
0.0
 30
0.0
  0
VERTEX
  5
233
330
232
100
AcDbEntity
  8
GRAU_10_
 62
     7
100
AcDbVertex
100
AcDb2dVertex
 10
88.64230683547832
 20
116.9458333040969
 30
0.0
  0
VERTEX
  5
234
330
232
100
AcDbEntity
  8
GRAU_10_
 62
     7
100
AcDbVertex
100
AcDb2dVertex
 10
88.48193764063994
 20
116.9906195454051
 30
0.0
  0
VERTEX
  5
235
330
232
100
AcDbEntity
  8
GRAU_10_
 62
     7
100
AcDbVertex
100
AcDb2dVertex
 10
88.32174070057582
 20
117.0419514681354
 30
0.0
  0
VERTEX
  5
236
330
232
100
AcDbEntity
  8
GRAU_10_
 62
     7
100
AcDbVertex
100
AcDb2dVertex
 10
88.15482582431547
 20
117.0932833908656
 30
0.0
  0
VERTEX
  5
237
330
232
100
AcDbEntity
  8
GRAU_10_
 62
     7
100
AcDbVertex
100
AcDb2dVertex
 10
87.99462888425134
 20
117.1511609950178
 30
0.0
  0
SEQEND
  5
238
330
232
100
AcDbEntity
  8
GRAU_10_
  0
POLYLINE
  5
239
330
44
100
AcDbEntity
  8
GRAU_10_
 62
     7
100
AcDb2dPolyline
 66
     1
 10
0.0
 20
0.0
 30
0.0
  0
VERTEX
  5
23A
330
239
100
AcDbEntity
  8
GRAU_10_
 62
     7
100
AcDbVertex
100
AcDb2dVertex
 10
82.76066756828553
 20
101.1542046188087
 30
0.0
  0
VERTEX
  5
23B
330
239
100
AcDbEntity
  8
GRAU_10_
 62
     7
100
AcDbVertex
100
AcDb2dVertex
 10
82.59392494679943
 20
101.1287109122178
 30
0.0
  0
VERTEX
  5
23C
330
239
100
AcDbEntity
  8
GRAU_10_
 62
     7
100
AcDbVertex
100
AcDb2dVertex
 10
82.42701007053908
 20
101.090125842783
 30
0.0
  0
VERTEX
  5
23D
330
239
100
AcDbEntity
  8
GRAU_10_
 62
     7
100
AcDbVertex
100
AcDb2dVertex
 10
82.2666408757007
 20
101.0322482386308
 30
0.0
  0
VERTEX
  5
23E
330
239
100
AcDbEntity
  8
GRAU_10_
 62
     7
100
AcDbVertex
100
AcDb2dVertex
 10
82.1128173622843
 20
100.9619682907317
 30
0.0
  0
VERTEX
  5
23F
330
239
100
AcDbEntity
  8
GRAU_10_
 62
     7
100
AcDbVertex
100
AcDb2dVertex
 10
81.96519502074135
 20
100.8720512985667
 30
0.0
  0
VERTEX
  5
240
330
239
100
AcDbEntity
  8
GRAU_10_
 62
     7
100
AcDbVertex
100
AcDb2dVertex
 10
81.83049178726807
 20
100.7759331345282
 30
0.0
  0
VERTEX
  5
241
330
239
100
AcDbEntity
  8
GRAU_10_
 62
     7
100
AcDbVertex
100
AcDb2dVertex
 10
81.70233423521678
 20
100.6605224357724
 30
0.0
  0
VERTEX
  5
242
330
239
100
AcDbEntity
  8
GRAU_10_
 62
     7
100
AcDbVertex
100
AcDb2dVertex
 10
81.58675128168665
 20
100.5385660555945
 30
0.0
  0
VERTEX
  5
243
330
239
100
AcDbEntity
  8
GRAU_10_
 62
     7
100
AcDbVertex
100
AcDb2dVertex
 10
81.49063311764817
 20
100.3973171406993
 30
0.0
  0
VERTEX
  5
244
330
239
100
AcDbEntity
  8
GRAU_10_
 62
     7
100
AcDbVertex
100
AcDb2dVertex
 10
81.40088838025743
 20
100.2564127353526
 30
0.0
  0
VERTEX
  5
245
330
239
100
AcDbEntity
  8
GRAU_10_
 62
     7
100
AcDbVertex
100
AcDb2dVertex
 10
81.3752224188923
 20
100.2050808126223
 30
0.0
  0
VERTEX
  5
246
330
239
100
AcDbEntity
  8
GRAU_10_
 62
     7
100
AcDbVertex
100
AcDb2dVertex
 10
81.3495564575272
 20
100.1537488898921
 30
0.0
  0
VERTEX
  5
247
330
239
100
AcDbEntity
  8
GRAU_10_
 62
     7
100
AcDbVertex
100
AcDb2dVertex
 10
81.30459796144468
 20
100.0445393630097
 30
0.0
  0
VERTEX
  5
248
330
239
100
AcDbEntity
  8
GRAU_10_
 62
     7
100
AcDbVertex
100
AcDb2dVertex
 10
81.27255857343187
 20
99.94187551754926
 30
0.0
  0
VERTEX
  5
249
330
239
100
AcDbEntity
  8
GRAU_10_
 62
     7
100
AcDbVertex
100
AcDb2dVertex
 10
81.22760007734935
 20
99.77513289606317
 30
0.0
  0
VERTEX
  5
24A
330
239
100
AcDbEntity
  8
GRAU_10_
 62
     7
100
AcDbVertex
100
AcDb2dVertex
 10
81.20193411598424
 20
99.60839027457708
 30
0.0
  0
VERTEX
  5
24B
330
239
100
AcDbEntity
  8
GRAU_10_
 62
     7
100
AcDbVertex
100
AcDb2dVertex
 10
81.19556068933653
 20
99.43544648121753
 30
0.0
  0
VERTEX
  5
24C
330
239
100
AcDbEntity
  8
GRAU_10_
 62
     7
100
AcDbVertex
100
AcDb2dVertex
 10
81.20193411598424
 20
99.26215817830946
 30
0.0
  0
SEQEND
  5
24D
330
239
100
AcDbEntity
  8
GRAU_10_
  0
POLYLINE
  5
24E
330
44
100
AcDbEntity
  8
GRAU_10_
 62
     7
100
AcDb2dPolyline
 66
     1
 10
0.0
 20
0.0
 30
0.0
  0
VERTEX
  5
24F
330
24E
100
AcDbEntity
  8
GRAU_10_
 62
     7
100
AcDbVertex
100
AcDb2dVertex
 10
87.99462888425134
 20
117.1511609950178
 30
0.0
  0
VERTEX
  5
250
330
24E
100
AcDbEntity
  8
GRAU_10_
 62
     7
100
AcDbVertex
100
AcDb2dVertex
 10
85.36481524558589
 20
116.9716715202363
 30
0.0
  0
VERTEX
  5
251
330
24E
100
AcDbEntity
  8
GRAU_10_
 62
     7
100
AcDbVertex
100
AcDb2dVertex
 10
82.73500160692042
 20
116.7983832173282
 30
0.0
  0
VERTEX
  5
252
330
24E
100
AcDbEntity
  8
GRAU_10_
 62
     7
100
AcDbVertex
100
AcDb2dVertex
 10
80.11156139490267
 20
116.6188937425467
 30
0.0
  0
VERTEX
  5
253
330
24E
100
AcDbEntity
  8
GRAU_10_
 62
     7
100
AcDbVertex
100
AcDb2dVertex
 10
77.48174775623721
 20
116.4328585863432
 30
0.0
  0
SEQEND
  5
254
330
24E
100
AcDbEntity
  8
GRAU_10_
  0
POLYLINE
  5
255
330
44
100
AcDbEntity
  8
GRAU_10_
 62
     7
100
AcDb2dPolyline
 66
     1
 10
0.0
 20
0.0
 30
0.0
  0
VERTEX
  5
256
330
255
100
AcDbEntity
  8
GRAU_10_
 62
     7
100
AcDbVertex
100
AcDb2dVertex
 10
80.10518796825495
 20
96.23460826587191
 30
0.0
  0
VERTEX
  5
257
330
255
100
AcDbEntity
  8
GRAU_10_
 62
     7
100
AcDbVertex
100
AcDb2dVertex
 10
79.74603676391766
 20
96.59393172498346
 30
0.0
  0
VERTEX
  5
258
330
255
100
AcDbEntity
  8
GRAU_10_
 62
     7
100
AcDbVertex
100
AcDb2dVertex
 10
79.43167180088861
 20
96.9914957439813
 30
0.0
  0
VERTEX
  5
259
330
255
100
AcDbEntity
  8
GRAU_10_
 62
     7
100
AcDbVertex
100
AcDb2dVertex
 10
79.16863876058979
 20
97.42109915099195
 30
0.0
  0
VERTEX
  5
25A
330
255
100
AcDbEntity
  8
GRAU_10_
 62
     7
100
AcDbVertex
100
AcDb2dVertex
 10
78.95710989779545
 20
97.88308645556396
 30
0.0
  0
VERTEX
  5
25B
330
255
100
AcDbEntity
  8
GRAU_10_
 62
     7
100
AcDbVertex
100
AcDb2dVertex
 10
78.80311412960478
 20
98.36402178530483
 30
0.0
  0
VERTEX
  5
25C
330
255
100
AcDbEntity
  8
GRAU_10_
 62
     7
100
AcDbVertex
100
AcDb2dVertex
 10
78.70682371079205
 20
98.86459415931164
 30
0.0
  0
VERTEX
  5
25D
330
255
100
AcDbEntity
  8
GRAU_10_
 62
     7
100
AcDbVertex
100
AcDb2dVertex
 10
78.66841089613152
 20
99.37102319564336
 30
0.0
  0
VERTEX
  5
25E
330
255
100
AcDbEntity
  8
GRAU_10_
 62
     7
100
AcDbVertex
100
AcDb2dVertex
 10
78.69407685749663
 20
99.87159556965017
 30
0.0
  0
VERTEX
  5
25F
330
255
100
AcDbEntity
  8
GRAU_10_
 62
     7
100
AcDbVertex
100
AcDb2dVertex
 10
78.77744816823967
 20
100.3718234341084
 30
0.0
  0
VERTEX
  5
260
330
255
100
AcDbEntity
  8
GRAU_10_
 62
     7
100
AcDbVertex
100
AcDb2dVertex
 10
78.91852482836065
 20
100.8593044452713
 30
0.0
  0
VERTEX
  5
261
330
255
100
AcDbEntity
  8
GRAU_10_
 62
     7
100
AcDbVertex
100
AcDb2dVertex
 10
79.11730683785956
 20
101.3209472402948
 30
0.0
  0
VERTEX
  5
262
330
255
100
AcDbEntity
  8
GRAU_10_
 62
     7
100
AcDbVertex
100
AcDb2dVertex
 10
79.36759302486297
 20
101.7570963287274
 30
0.0
  0
VERTEX
  5
263
330
255
100
AcDbEntity
  8
GRAU_10_
 62
     7
100
AcDbVertex
100
AcDb2dVertex
 10
79.66903887982232
 20
102.1550048572738
 30
0.0
  0
VERTEX
  5
264
330
255
100
AcDbEntity
  8
GRAU_10_
 62
     7
100
AcDbVertex
100
AcDb2dVertex
 10
80.0154432308642
 20
102.5205294882588
 30
0.0
  0
VERTEX
  5
265
330
255
100
AcDbEntity
  8
GRAU_10_
 62
     7
100
AcDbVertex
100
AcDb2dVertex
 10
80.40663382321432
 20
102.8347221965136
 30
0.0
  0
VERTEX
  5
266
330
255
100
AcDbEntity
  8
GRAU_10_
 62
     7
100
AcDbVertex
100
AcDb2dVertex
 10
80.83003605835152
 20
103.1041286634601
 30
0.0
  0
VERTEX
  5
267
330
255
100
AcDbEntity
  8
GRAU_10_
 62
     7
100
AcDbVertex
100
AcDb2dVertex
 10
81.28530542672729
 20
103.316002035803
 30
0.0
  0
VERTEX
  5
268
330
255
100
AcDbEntity
  8
GRAU_10_
 62
     7
100
AcDbVertex
100
AcDb2dVertex
 10
81.76641301124243
 20
103.4761989758671
 30
0.0
  0
VERTEX
  5
269
330
255
100
AcDbEntity
  8
GRAU_10_
 62
     7
100
AcDbVertex
100
AcDb2dVertex
 10
82.26026744905299
 20
103.5723171399055
 30
0.0
  0
VERTEX
  5
26A
330
255
100
AcDbEntity
  8
GRAU_10_
 62
     7
100
AcDbVertex
100
AcDb2dVertex
 10
82.76066756828553
 20
103.6174478907623
 30
0.0
  0
VERTEX
  5
26B
330
255
100
AcDbEntity
  8
GRAU_10_
 62
     7
100
AcDbVertex
100
AcDb2dVertex
 10
83.26089543274381
 20
103.5981553560449
 30
0.0
  0
VERTEX
  5
26C
330
255
100
AcDbEntity
  8
GRAU_10_
 62
     7
100
AcDbVertex
100
AcDb2dVertex
 10
83.76129555197635
 20
103.5147840453019
 30
0.0
  0
VERTEX
  5
26D
330
255
100
AcDbEntity
  8
GRAU_10_
 62
     7
100
AcDbVertex
100
AcDb2dVertex
 10
84.24860430836493
 20
103.3735351304066
 30
0.0
  0
VERTEX
  5
26E
330
255
100
AcDbEntity
  8
GRAU_10_
 62
     7
100
AcDbVertex
100
AcDb2dVertex
 10
84.71696503958465
 20
103.1812988023297
 30
0.0
  0
VERTEX
  5
26F
330
255
100
AcDbEntity
  8
GRAU_10_
 62
     7
100
AcDbVertex
100
AcDb2dVertex
 10
85.15311412801728
 20
102.930840360552
 30
0.0
  0
VERTEX
  5
270
330
255
100
AcDbEntity
  8
GRAU_10_
 62
     7
100
AcDbVertex
100
AcDb2dVertex
 10
85.5635972550848
 20
102.6231933337192
 30
0.0
  0
SEQEND
  5
271
330
255
100
AcDbEntity
  8
GRAU_10_
  0
POLYLINE
  5
272
330
44
100
AcDbEntity
  8
GRAU_10_
 62
     7
100
AcDb2dPolyline
 66
     1
 10
0.0
 20
0.0
 30
0.0
  0
VERTEX
  5
273
330
272
100
AcDbEntity
  8
GRAU_10_
 62
     7
100
AcDbVertex
100
AcDb2dVertex
 10
92.68977726632409
 20
93.09164765467848
 30
0.0
  0
VERTEX
  5
274
330
272
100
AcDbEntity
  8
GRAU_10_
 62
     7
100
AcDbVertex
100
AcDb2dVertex
 10
92.68977726632409
 20
93.08544648280503
 30
0.0
  0
VERTEX
  5
275
330
272
100
AcDbEntity
  8
GRAU_10_
 62
     7
100
AcDbVertex
100
AcDb2dVertex
 10
92.6768581582544
 20
93.06615394808763
 30
0.0
  0
VERTEX
  5
276
330
272
100
AcDbEntity
  8
GRAU_10_
 62
     7
100
AcDbVertex
100
AcDb2dVertex
 10
92.657565623537
 20
93.05306258524368
 30
0.0
  0
VERTEX
  5
277
330
272
100
AcDbEntity
  8
GRAU_10_
 62
     7
100
AcDbVertex
100
AcDb2dVertex
 10
92.63189966217189
 20
93.02102319723086
 30
0.0
  0
VERTEX
  5
278
330
272
100
AcDbEntity
  8
GRAU_10_
 62
     7
100
AcDbVertex
100
AcDb2dVertex
 10
92.60623370080678
 20
92.99552949064001
 30
0.0
  0
SEQEND
  5
279
330
272
100
AcDbEntity
  8
GRAU_10_
  0
POLYLINE
  5
27A
330
44
100
AcDbEntity
  8
GRAU_10_
 62
     7
100
AcDb2dPolyline
 66
     1
 10
0.0
 20
0.0
 30
0.0
  0
VERTEX
  5
27B
330
27A
100
AcDbEntity
  8
GRAU_10_
 62
     7
100
AcDbVertex
100
AcDb2dVertex
 10
92.6961506929718
 20
92.99552949064001
 30
0.0
  0
VERTEX
  5
27C
330
27A
100
AcDbEntity
  8
GRAU_10_
 62
     7
100
AcDbVertex
100
AcDb2dVertex
 10
92.71527097291494
 20
93.00827634393544
 30
0.0
  0
VERTEX
  5
27D
330
27A
100
AcDbEntity
  8
GRAU_10_
 62
     7
100
AcDbVertex
100
AcDb2dVertex
 10
92.72819008098462
 20
93.02102319723086
 30
0.0
  0
SEQEND
  5
27E
330
27A
100
AcDbEntity
  8
GRAU_10_
  0
POLYLINE
  5
27F
330
44
100
AcDbEntity
  8
GRAU_10_
 62
     7
100
AcDb2dPolyline
 66
     1
 10
0.0
 20
0.0
 30
0.0
  0
VERTEX
  5
280
330
27F
100
AcDbEntity
  8
GRAU_10_
 62
     7
100
AcDbVertex
100
AcDb2dVertex
 10
81.3752224188923
 20
100.1344563551747
 30
0.0
  0
VERTEX
  5
281
330
27F
100
AcDbEntity
  8
GRAU_10_
 62
     7
100
AcDbVertex
100
AcDb2dVertex
 10
81.36867673747034
 20
100.1279106737528
 30
0.0
  0
VERTEX
  5
282
330
27F
100
AcDbEntity
  8
GRAU_10_
 62
     7
100
AcDbVertex
100
AcDb2dVertex
 10
81.36230331082263
 20
100.1217095018793
 30
0.0
  0
SEQEND
  5
283
330
27F
100
AcDbEntity
  8
GRAU_10_
  0
POLYLINE
  5
284
330
44
100
AcDbEntity
  8
GRAU_10_
 62
     7
100
AcDb2dPolyline
 66
     1
 10
0.0
 20
0.0
 30
0.0
  0
VERTEX
  5
285
330
284
100
AcDbEntity
  8
GRAU_10_
 62
     7
100
AcDbVertex
100
AcDb2dVertex
 10
81.5162990790133
 20
100.2498670539306
 30
0.0
  0
VERTEX
  5
286
330
284
100
AcDbEntity
  8
GRAU_10_
 62
     7
100
AcDbVertex
100
AcDb2dVertex
 10
81.45859372963535
 20
100.1985351312004
 30
0.0
  0
VERTEX
  5
287
330
284
100
AcDbEntity
  8
GRAU_10_
 62
     7
100
AcDbVertex
100
AcDb2dVertex
 10
81.39434269883544
 20
100.1472032084701
 30
0.0
  0
SEQEND
  5
288
330
284
100
AcDbEntity
  8
GRAU_10_
  0
POLYLINE
  5
289
330
44
100
AcDbEntity
  8
GRAU_10_
 62
     7
100
AcDb2dPolyline
 66
     1
 10
0.0
 20
0.0
 30
0.0
  0
VERTEX
  5
28A
330
289
100
AcDbEntity
  8
GRAU_10_
 62
     7
100
AcDbVertex
100
AcDb2dVertex
 10
91.34911835823911
 20
91.66124400920275
 30
0.0
  0
VERTEX
  5
28B
330
289
100
AcDbEntity
  8
GRAU_10_
 62
     7
100
AcDbVertex
100
AcDb2dVertex
 10
91.57356632910314
 20
91.87931855341907
 30
0.0
  0
VERTEX
  5
28C
330
289
100
AcDbEntity
  8
GRAU_10_
 62
     7
100
AcDbVertex
100
AcDb2dVertex
 10
91.79164087331945
 20
92.09739309763538
 30
0.0
  0
VERTEX
  5
28D
330
289
100
AcDbEntity
  8
GRAU_10_
 62
     7
100
AcDbVertex
100
AcDb2dVertex
 10
92.01626109895774
 20
92.32201332327367
 30
0.0
  0
VERTEX
  5
28E
330
289
100
AcDbEntity
  8
GRAU_10_
 62
     7
100
AcDbVertex
100
AcDb2dVertex
 10
92.24070906982178
 20
92.54008786748999
 30
0.0
  0
SEQEND
  5
28F
330
289
100
AcDbEntity
  8
GRAU_10_
  0
POLYLINE
  5
290
330
44
100
AcDbEntity
  8
GRAU_10_
 62
     7
100
AcDb2dPolyline
 66
     1
 10
0.0
 20
0.0
 30
0.0
  0
VERTEX
  5
291
330
290
100
AcDbEntity
  8
GRAU_10_
 62
     7
100
AcDbVertex
100
AcDb2dVertex
 10
82.99786239244499
 20
100.3780246059819
 30
0.0
  0
VERTEX
  5
292
330
290
100
AcDbEntity
  8
GRAU_10_
 62
     7
100
AcDbVertex
100
AcDb2dVertex
 10
82.91449108170194
 20
100.4166096754167
 30
0.0
  0
VERTEX
  5
293
330
290
100
AcDbEntity
  8
GRAU_10_
 62
     7
100
AcDbVertex
100
AcDb2dVertex
 10
82.856785732324
 20
100.4359022101341
 30
0.0
  0
VERTEX
  5
294
330
290
100
AcDbEntity
  8
GRAU_10_
 62
     7
100
AcDbVertex
100
AcDb2dVertex
 10
82.7029622189076
 20
100.4806884514423
 30
0.0
  0
VERTEX
  5
295
330
290
100
AcDbEntity
  8
GRAU_10_
 62
     7
100
AcDbVertex
100
AcDb2dVertex
 10
82.54896645071693
 20
100.5065266675817
 30
0.0
  0
VERTEX
  5
296
330
290
100
AcDbEntity
  8
GRAU_10_
 62
     7
100
AcDbVertex
100
AcDb2dVertex
 10
82.39497068252626
 20
100.5192735208771
 30
0.0
  0
VERTEX
  5
297
330
290
100
AcDbEntity
  8
GRAU_10_
 62
     7
100
AcDbVertex
100
AcDb2dVertex
 10
82.24114716910985
 20
100.5127278394552
 30
0.0
  0
VERTEX
  5
298
330
290
100
AcDbEntity
  8
GRAU_10_
 62
     7
100
AcDbVertex
100
AcDb2dVertex
 10
82.08715140091918
 20
100.4872341328643
 30
0.0
  0
VERTEX
  5
299
330
290
100
AcDbEntity
  8
GRAU_10_
 62
     7
100
AcDbVertex
100
AcDb2dVertex
 10
81.93315563272851
 20
100.4486490634295
 30
0.0
  0
VERTEX
  5
29A
330
290
100
AcDbEntity
  8
GRAU_10_
 62
     7
100
AcDbVertex
100
AcDb2dVertex
 10
81.79207897260754
 20
100.3973171406993
 30
0.0
  0
VERTEX
  5
29B
330
290
100
AcDbEntity
  8
GRAU_10_
 62
     7
100
AcDbVertex
100
AcDb2dVertex
 10
81.65100231248655
 20
100.3266926832517
 30
0.0
  0
VERTEX
  5
29C
330
290
100
AcDbEntity
  8
GRAU_10_
 62
     7
100
AcDbVertex
100
AcDb2dVertex
 10
81.5162990790133
 20
100.2498670539306
 30
0.0
  0
SEQEND
  5
29D
330
290
100
AcDbEntity
  8
GRAU_10_
  0
POLYLINE
  5
29E
330
44
100
AcDbEntity
  8
GRAU_10_
 62
     7
100
AcDb2dPolyline
 66
     1
 10
0.0
 20
0.0
 30
0.0
  0
VERTEX
  5
29F
330
29E
100
AcDbEntity
  8
GRAU_10_
 62
     7
100
AcDbVertex
100
AcDb2dVertex
 10
85.89708249805699
 20
99.67246905060271
 30
0.0
  0
VERTEX
  5
2A0
330
29E
100
AcDbEntity
  8
GRAU_10_
 62
     7
100
AcDbVertex
100
AcDb2dVertex
 10
85.85866968339644
 20
99.94842119897123
 30
0.0
  0
VERTEX
  5
2A1
330
29E
100
AcDbEntity
  8
GRAU_10_
 62
     7
100
AcDbVertex
100
AcDb2dVertex
 10
85.79441865259653
 20
100.2178276659178
 30
0.0
  0
VERTEX
  5
2A2
330
29E
100
AcDbEntity
  8
GRAU_10_
 62
     7
100
AcDbVertex
100
AcDb2dVertex
 10
85.70467391520577
 20
100.4806884514423
 30
0.0
  0
VERTEX
  5
2A3
330
29E
100
AcDbEntity
  8
GRAU_10_
 62
     7
100
AcDbVertex
100
AcDb2dVertex
 10
85.58926321644991
 20
100.7308023836715
 30
0.0
  0
VERTEX
  5
2A4
330
29E
100
AcDbEntity
  8
GRAU_10_
 62
     7
100
AcDbVertex
100
AcDb2dVertex
 10
85.45455998297665
 20
100.9747151440272
 30
0.0
  0
VERTEX
  5
2A5
330
29E
100
AcDbEntity
  8
GRAU_10_
 62
     7
100
AcDbVertex
100
AcDb2dVertex
 10
85.30056421478598
 20
101.1993353696654
 30
0.0
  0
VERTEX
  5
2A6
330
29E
100
AcDbEntity
  8
GRAU_10_
 62
     7
100
AcDbVertex
100
AcDb2dVertex
 10
85.12107474000446
 20
101.4174099138818
 30
0.0
  0
VERTEX
  5
2A7
330
29E
100
AcDbEntity
  8
GRAU_10_
 62
     7
100
AcDbVertex
100
AcDb2dVertex
 10
84.92866615715326
 20
101.6096462419587
 30
0.0
  0
VERTEX
  5
2A8
330
29E
100
AcDbEntity
  8
GRAU_10_
 62
     7
100
AcDbVertex
100
AcDb2dVertex
 10
84.71696503958465
 20
101.7891357167402
 30
0.0
  0
VERTEX
  5
2A9
330
29E
100
AcDbEntity
  8
GRAU_10_
 62
     7
100
AcDbVertex
100
AcDb2dVertex
 10
84.48597138729865
 20
101.9431314849309
 30
0.0
  0
VERTEX
  5
2AA
330
29E
100
AcDbEntity
  8
GRAU_10_
 62
     7
100
AcDbVertex
100
AcDb2dVertex
 10
84.24860430836493
 20
102.0843803998261
 30
0.0
  0
VERTEX
  5
2AB
330
29E
100
AcDbEntity
  8
GRAU_10_
 62
     7
100
AcDbVertex
100
AcDb2dVertex
 10
83.99211694948809
 20
102.19324541716
 30
0.0
  0
VERTEX
  5
2AC
330
29E
100
AcDbEntity
  8
GRAU_10_
 62
     7
100
AcDbVertex
100
AcDb2dVertex
 10
83.73562959061124
 20
102.283162409325
 30
0.0
  0
VERTEX
  5
2AD
330
29E
100
AcDbEntity
  8
GRAU_10_
 62
     7
100
AcDbVertex
100
AcDb2dVertex
 10
83.4662231236647
 20
102.3472411853507
 30
0.0
  0
VERTEX
  5
2AE
330
29E
100
AcDbEntity
  8
GRAU_10_
 62
     7
100
AcDbVertex
100
AcDb2dVertex
 10
83.19044323007044
 20
102.3858262547855
 30
0.0
  0
VERTEX
  5
2AF
330
29E
100
AcDbEntity
  8
GRAU_10_
 62
     7
100
AcDbVertex
100
AcDb2dVertex
 10
82.91449108170194
 20
102.4051187895029
 30
0.0
  0
VERTEX
  5
2B0
330
29E
100
AcDbEntity
  8
GRAU_10_
 62
     7
100
AcDbVertex
100
AcDb2dVertex
 10
82.6450846147554
 20
102.3923719362075
 30
0.0
  0
VERTEX
  5
2B1
330
29E
100
AcDbEntity
  8
GRAU_10_
 62
     7
100
AcDbVertex
100
AcDb2dVertex
 10
82.36930472116114
 20
102.3537868667727
 30
0.0
  0
VERTEX
  5
2B2
330
29E
100
AcDbEntity
  8
GRAU_10_
 62
     7
100
AcDbVertex
100
AcDb2dVertex
 10
82.09989825421461
 20
102.2959092626205
 30
0.0
  0
VERTEX
  5
2B3
330
29E
100
AcDbEntity
  8
GRAU_10_
 62
     7
100
AcDbVertex
100
AcDb2dVertex
 10
81.84341089533777
 20
102.206336780004
 30
0.0
  0
VERTEX
  5
2B4
330
29E
100
AcDbEntity
  8
GRAU_10_
 62
     7
100
AcDbVertex
100
AcDb2dVertex
 10
81.59329696310863
 20
102.0971272531216
 30
0.0
  0
VERTEX
  5
2B5
330
29E
100
AcDbEntity
  8
GRAU_10_
 62
     7
100
AcDbVertex
100
AcDb2dVertex
 10
81.3495564575272
 20
101.9624240196483
 30
0.0
  0
VERTEX
  5
2B6
330
29E
100
AcDbEntity
  8
GRAU_10_
 62
     7
100
AcDbVertex
100
AcDb2dVertex
 10
81.12493623188891
 20
101.8084282514576
 30
0.0
  0
VERTEX
  5
2B7
330
29E
100
AcDbEntity
  8
GRAU_10_
 62
     7
100
AcDbVertex
100
AcDb2dVertex
 10
80.91340736909457
 20
101.6354844580981
 30
0.0
  0
VERTEX
  5
2B8
330
29E
100
AcDbEntity
  8
GRAU_10_
 62
     7
100
AcDbVertex
100
AcDb2dVertex
 10
80.72099878624337
 20
101.4429036204726
 30
0.0
  0
VERTEX
  5
2B9
330
29E
100
AcDbEntity
  8
GRAU_10_
 62
     7
100
AcDbVertex
100
AcDb2dVertex
 10
80.5477104833353
 20
101.2313747576783
 30
0.0
  0
VERTEX
  5
2BA
330
29E
100
AcDbEntity
  8
GRAU_10_
 62
     7
100
AcDbVertex
100
AcDb2dVertex
 10
80.39371471514463
 20
101.000208850618
 30
0.0
  0
VERTEX
  5
2BB
330
29E
100
AcDbEntity
  8
GRAU_10_
 62
     7
100
AcDbVertex
100
AcDb2dVertex
 10
80.25918373644562
 20
100.7628417716843
 30
0.0
  0
VERTEX
  5
2BC
330
29E
100
AcDbEntity
  8
GRAU_10_
 62
     7
100
AcDbVertex
100
AcDb2dVertex
 10
80.14997420956321
 20
100.5127278394552
 30
0.0
  0
VERTEX
  5
2BD
330
29E
100
AcDbEntity
  8
GRAU_10_
 62
     7
100
AcDbVertex
100
AcDb2dVertex
 10
80.06022947217245
 20
100.2498670539306
 30
0.0
  0
VERTEX
  5
2BE
330
29E
100
AcDbEntity
  8
GRAU_10_
 62
     7
100
AcDbVertex
100
AcDb2dVertex
 10
80.00252412279451
 20
99.98046058698405
 30
0.0
  0
VERTEX
  5
2BF
330
29E
100
AcDbEntity
  8
GRAU_10_
 62
     7
100
AcDbVertex
100
AcDb2dVertex
 10
79.96411130813398
 20
99.70450843861555
 30
0.0
  0
VERTEX
  5
2C0
330
29E
100
AcDbEntity
  8
GRAU_10_
 62
     7
100
AcDbVertex
100
AcDb2dVertex
 10
79.95119220006428
 20
99.43544648121753
 30
0.0
  0
VERTEX
  5
2C1
330
29E
100
AcDbEntity
  8
GRAU_10_
 62
     7
100
AcDbVertex
100
AcDb2dVertex
 10
79.97048473478169
 20
99.15294865142704
 30
0.0
  0
SEQEND
  5
2C2
330
29E
100
AcDbEntity
  8
GRAU_10_
  0
POLYLINE
  5
2C3
330
44
100
AcDbEntity
  8
GRAU_10_
 62
     7
100
AcDb2dPolyline
 66
     1
 10
0.0
 20
0.0
 30
0.0
  0
VERTEX
  5
2C4
330
2C3
100
AcDbEntity
  8
GRAU_10_
 62
     7
100
AcDbVertex
100
AcDb2dVertex
 10
78.36696504117215
 20
107.7863579374631
 30
0.0
  0
VERTEX
  5
2C5
330
2C3
100
AcDbEntity
  8
GRAU_10_
 62
     7
100
AcDbVertex
100
AcDb2dVertex
 10
78.38608532111529
 20
107.7929036188851
 30
0.0
  0
VERTEX
  5
2C6
330
2C3
100
AcDbEntity
  8
GRAU_10_
 62
     7
100
AcDbVertex
100
AcDb2dVertex
 10
78.43741724384552
 20
107.818397325476
 30
0.0
  0
VERTEX
  5
2C7
330
2C3
100
AcDbEntity
  8
GRAU_10_
 62
     7
100
AcDbVertex
100
AcDb2dVertex
 10
78.50166827464543
 20
107.8569823949108
 30
0.0
  0
SEQEND
  5
2C8
330
2C3
100
AcDbEntity
  8
GRAU_10_
  0
POLYLINE
  5
2C9
330
44
100
AcDbEntity
  8
GRAU_10_
 62
     7
100
AcDb2dPolyline
 66
     1
 10
0.0
 20
0.0
 30
0.0
  0
VERTEX
  5
2CA
330
2C9
100
AcDbEntity
  8
GRAU_10_
 62
     7
100
AcDbVertex
100
AcDb2dVertex
 10
83.08777938461
 20
97.69705129936047
 30
0.0
  0
VERTEX
  5
2CB
330
2C9
100
AcDbEntity
  8
GRAU_10_
 62
     7
100
AcDbVertex
100
AcDb2dVertex
 10
83.09415281125771
 20
97.69705129936047
 30
0.0
  0
VERTEX
  5
2CC
330
2C9
100
AcDbEntity
  8
GRAU_10_
 62
     7
100
AcDbVertex
100
AcDb2dVertex
 10
83.09415281125771
 20
97.70359698078244
 30
0.0
  0
SEQEND
  5
2CD
330
2C9
100
AcDbEntity
  8
GRAU_10_
  0
POLYLINE
  5
2CE
330
44
100
AcDbEntity
  8
GRAU_10_
 62
     7
100
AcDb2dPolyline
 66
     1
 10
0.0
 20
0.0
 30
0.0
  0
VERTEX
  5
2CF
330
2CE
100
AcDbEntity
  8
GRAU_10_
 62
     7
100
AcDbVertex
100
AcDb2dVertex
 10
78.50804170129314
 20
107.8955674643456
 30
0.0
  0
VERTEX
  5
2D0
330
2CE
100
AcDbEntity
  8
GRAU_10_
 62
     7
100
AcDbVertex
100
AcDb2dVertex
 10
78.65549178806182
 20
107.991685628384
 30
0.0
  0
VERTEX
  5
2D1
330
2CE
100
AcDbEntity
  8
GRAU_10_
 62
     7
100
AcDbVertex
100
AcDb2dVertex
 10
78.80311412960478
 20
108.0750569391271
 30
0.0
  0
VERTEX
  5
2D2
330
2CE
100
AcDbEntity
  8
GRAU_10_
 62
     7
100
AcDbVertex
100
AcDb2dVertex
 10
79.17518444201177
 20
108.2097601726003
 30
0.0
  0
VERTEX
  5
2D3
330
2CE
100
AcDbEntity
  8
GRAU_10_
 62
     7
100
AcDbVertex
100
AcDb2dVertex
 10
79.5727484610096
 20
108.2676377767525
 30
0.0
  0
SEQEND
  5
2D4
330
2CE
100
AcDbEntity
  8
GRAU_10_
  0
POLYLINE
  5
2D5
330
44
100
AcDbEntity
  8
GRAU_10_
 62
     7
100
AcDb2dPolyline
 66
     1
 10
0.0
 20
0.0
 30
0.0
  0
VERTEX
  5
2D6
330
2D5
100
AcDbEntity
  8
GRAU_10_
 62
     7
100
AcDbVertex
100
AcDb2dVertex
 10
83.31860078212175
 20
97.85104706755114
 30
0.0
  0
VERTEX
  5
2D7
330
2D5
100
AcDbEntity
  8
GRAU_10_
 62
     7
100
AcDbVertex
100
AcDb2dVertex
 10
83.40851777428676
 20
97.92167152499876
 30
0.0
  0
VERTEX
  5
2D8
330
2D5
100
AcDbEntity
  8
GRAU_10_
 62
     7
100
AcDbVertex
100
AcDb2dVertex
 10
83.48534340360783
 20
98.0050428357418
 30
0.0
  0
VERTEX
  5
2D9
330
2D5
100
AcDbEntity
  8
GRAU_10_
 62
     7
100
AcDbVertex
100
AcDb2dVertex
 10
83.58163382242057
 20
98.12045353449767
 30
0.0
  0
VERTEX
  5
2DA
330
2D5
100
AcDbEntity
  8
GRAU_10_
 62
     7
100
AcDbVertex
100
AcDb2dVertex
 10
83.67137855981133
 20
98.25515676797093
 30
0.0
  0
VERTEX
  5
2DB
330
2D5
100
AcDbEntity
  8
GRAU_10_
 62
     7
100
AcDbVertex
100
AcDb2dVertex
 10
83.74200301725895
 20
98.3898600014442
 30
0.0
  0
VERTEX
  5
2DC
330
2D5
100
AcDbEntity
  8
GRAU_10_
 62
     7
100
AcDbVertex
100
AcDb2dVertex
 10
83.79970836663688
 20
98.5373100882129
 30
0.0
  0
VERTEX
  5
2DD
330
2D5
100
AcDbEntity
  8
GRAU_10_
 62
     7
100
AcDbVertex
100
AcDb2dVertex
 10
83.83812118129742
 20
98.68476017498159
 30
0.0
  0
VERTEX
  5
2DE
330
2D5
100
AcDbEntity
  8
GRAU_10_
 62
     7
100
AcDbVertex
100
AcDb2dVertex
 10
83.86378714266253
 20
98.83875594317226
 30
0.0
  0
VERTEX
  5
2DF
330
2D5
100
AcDbEntity
  8
GRAU_10_
 62
     7
100
AcDbVertex
100
AcDb2dVertex
 10
83.87670625073221
 20
98.99275171136293
 30
0.0
  0
VERTEX
  5
2E0
330
2D5
100
AcDbEntity
  8
GRAU_10_
 62
     7
100
AcDbVertex
100
AcDb2dVertex
 10
83.86378714266253
 20
99.15294865142704
 30
0.0
  0
SEQEND
  5
2E1
330
2D5
100
AcDbEntity
  8
GRAU_10_
  0
POLYLINE
  5
2E2
330
44
100
AcDbEntity
  8
GRAU_10_
 62
     7
100
AcDb2dPolyline
 66
     1
 10
0.0
 20
0.0
 30
0.0
  0
VERTEX
  5
2E3
330
2E2
100
AcDbEntity
  8
GRAU_10_
 62
     7
100
AcDbVertex
100
AcDb2dVertex
 10
78.50166827464543
 20
107.8569823949108
 30
0.0
  0
VERTEX
  5
2E4
330
2E2
100
AcDbEntity
  8
GRAU_10_
 62
     7
100
AcDbVertex
100
AcDb2dVertex
 10
78.50804170129314
 20
107.8569823949108
 30
0.0
  0
VERTEX
  5
2E5
330
2E2
100
AcDbEntity
  8
GRAU_10_
 62
     7
100
AcDbVertex
100
AcDb2dVertex
 10
78.52078855458856
 20
107.8635280763327
 30
0.0
  0
SEQEND
  5
2E6
330
2E2
100
AcDbEntity
  8
GRAU_10_
  0
POLYLINE
  5
2E7
330
44
100
AcDbEntity
  8
GRAU_10_
 62
     7
100
AcDb2dPolyline
 66
     1
 10
0.0
 20
0.0
 30
0.0
  0
VERTEX
  5
2E8
330
2E7
100
AcDbEntity
  8
GRAU_10_
 62
     7
100
AcDbVertex
100
AcDb2dVertex
 10
84.65925969020671
 20
99.56360403326883
 30
0.0
  0
VERTEX
  5
2E9
330
2E7
100
AcDbEntity
  8
GRAU_10_
 62
     7
100
AcDbVertex
100
AcDb2dVertex
 10
84.6335937288416
 20
99.7368923361769
 30
0.0
  0
VERTEX
  5
2EA
330
2E7
100
AcDbEntity
  8
GRAU_10_
 62
     7
100
AcDbVertex
100
AcDb2dVertex
 10
84.5950086594068
 20
99.90363495766299
 30
0.0
  0
VERTEX
  5
2EB
330
2E7
100
AcDbEntity
  8
GRAU_10_
 62
     7
100
AcDbVertex
100
AcDb2dVertex
 10
84.53730331002888
 20
100.0638318977271
 30
0.0
  0
VERTEX
  5
2EC
330
2E7
100
AcDbEntity
  8
GRAU_10_
 62
     7
100
AcDbVertex
100
AcDb2dVertex
 10
84.46685110735551
 20
100.2178276659178
 30
0.0
  0
VERTEX
  5
2ED
330
2E7
100
AcDbEntity
  8
GRAU_10_
 62
     7
100
AcDbVertex
100
AcDb2dVertex
 10
84.3769341151905
 20
100.3652777526865
 30
0.0
  0
VERTEX
  5
2EE
330
2E7
100
AcDbEntity
  8
GRAU_10_
 62
     7
100
AcDbVertex
100
AcDb2dVertex
 10
84.27427026973005
 20
100.5065266675817
 30
0.0
  0
VERTEX
  5
2EF
330
2E7
100
AcDbEntity
  8
GRAU_10_
 62
     7
100
AcDbVertex
100
AcDb2dVertex
 10
84.15885957097417
 20
100.634684219633
 30
0.0
  0
VERTEX
  5
2F0
330
2E7
100
AcDbEntity
  8
GRAU_10_
 62
     7
100
AcDbVertex
100
AcDb2dVertex
 10
84.0370754455706
 20
100.7500949183889
 30
0.0
  0
VERTEX
  5
2F1
330
2E7
100
AcDbEntity
  8
GRAU_10_
 62
     7
100
AcDbVertex
100
AcDb2dVertex
 10
83.89582653067535
 20
100.8527587638493
 30
0.0
  0
VERTEX
  5
2F2
330
2E7
100
AcDbEntity
  8
GRAU_10_
 62
     7
100
AcDbVertex
100
AcDb2dVertex
 10
83.75474987055438
 20
100.9426757560143
 30
0.0
  0
VERTEX
  5
2F3
330
2E7
100
AcDbEntity
  8
GRAU_10_
 62
     7
100
AcDbVertex
100
AcDb2dVertex
 10
83.60092635713796
 20
101.0195013853354
 30
0.0
  0
VERTEX
  5
2F4
330
2E7
100
AcDbEntity
  8
GRAU_10_
 62
     7
100
AcDbVertex
100
AcDb2dVertex
 10
83.43401148087761
 20
101.0773789894876
 30
0.0
  0
VERTEX
  5
2F5
330
2E7
100
AcDbEntity
  8
GRAU_10_
 62
     7
100
AcDbVertex
100
AcDb2dVertex
 10
83.27381454081349
 20
101.1221652307959
 30
0.0
  0
VERTEX
  5
2F6
330
2E7
100
AcDbEntity
  8
GRAU_10_
 62
     7
100
AcDbVertex
100
AcDb2dVertex
 10
83.10052623790543
 20
101.1480034469352
 30
0.0
  0
VERTEX
  5
2F7
330
2E7
100
AcDbEntity
  8
GRAU_10_
 62
     7
100
AcDbVertex
100
AcDb2dVertex
 10
82.93378361641933
 20
101.1542046188087
 30
0.0
  0
VERTEX
  5
2F8
330
2E7
100
AcDbEntity
  8
GRAU_10_
 62
     7
100
AcDbVertex
100
AcDb2dVertex
 10
82.76066756828553
 20
101.1542046188087
 30
0.0
  0
SEQEND
  5
2F9
330
2E7
100
AcDbEntity
  8
GRAU_10_
  0
POLYLINE
  5
2FA
330
44
100
AcDbEntity
  8
GRAU_10_
 62
     7
100
AcDb2dPolyline
 66
     1
 10
0.0
 20
0.0
 30
0.0
  0
VERTEX
  5
2FB
330
2FA
100
AcDbEntity
  8
GRAU_10_
 62
     7
100
AcDbVertex
100
AcDb2dVertex
 10
93.42737220971608
 20
93.72037758073658
 30
0.0
  0
VERTEX
  5
2FC
330
2FA
100
AcDbEntity
  8
GRAU_10_
 62
     7
100
AcDbVertex
100
AcDb2dVertex
 10
93.58774140455446
 20
93.95119897824831
 30
0.0
  0
VERTEX
  5
2FD
330
2FA
100
AcDbEntity
  8
GRAU_10_
 62
     7
100
AcDbVertex
100
AcDb2dVertex
 10
93.74793834461858
 20
94.1758192038866
 30
0.0
  0
SEQEND
  5
2FE
330
2FA
100
AcDbEntity
  8
GRAU_10_
  0
POLYLINE
  5
2FF
330
44
100
AcDbEntity
  8
GRAU_10_
 62
     7
100
AcDb2dPolyline
 66
     1
 10
0.0
 20
0.0
 30
0.0
  0
VERTEX
  5
300
330
2FF
100
AcDbEntity
  8
GRAU_10_
 62
     7
100
AcDbVertex
100
AcDb2dVertex
 10
84.39622664990789
 20
99.531564645256
 30
0.0
  0
VERTEX
  5
301
330
2FF
100
AcDbEntity
  8
GRAU_10_
 62
     7
100
AcDbVertex
100
AcDb2dVertex
 10
84.3833075418382
 20
99.6404296625899
 30
0.0
  0
VERTEX
  5
302
330
2FF
100
AcDbEntity
  8
GRAU_10_
 62
     7
100
AcDbVertex
100
AcDb2dVertex
 10
84.3769341151905
 20
99.74309350805034
 30
0.0
  0
VERTEX
  5
303
330
2FF
100
AcDbEntity
  8
GRAU_10_
 62
     7
100
AcDbVertex
100
AcDb2dVertex
 10
84.36418726189507
 20
99.85230303493276
 30
0.0
  0
VERTEX
  5
304
330
2FF
100
AcDbEntity
  8
GRAU_10_
 62
     7
100
AcDbVertex
100
AcDb2dVertex
 10
84.35781383524736
 20
99.96116805226666
 30
0.0
  0
VERTEX
  5
305
330
2FF
100
AcDbEntity
  8
GRAU_10_
 62
     7
100
AcDbVertex
100
AcDb2dVertex
 10
84.35126815382539
 20
100.0638318977271
 30
0.0
  0
VERTEX
  5
306
330
2FF
100
AcDbEntity
  8
GRAU_10_
 62
     7
100
AcDbVertex
100
AcDb2dVertex
 10
84.34489472717767
 20
100.1730414246095
 30
0.0
  0
VERTEX
  5
307
330
2FF
100
AcDbEntity
  8
GRAU_10_
 62
     7
100
AcDbVertex
100
AcDb2dVertex
 10
84.33852130052996
 20
100.2884521233654
 30
0.0
  0
VERTEX
  5
308
330
2FF
100
AcDbEntity
  8
GRAU_10_
 62
     7
100
AcDbVertex
100
AcDb2dVertex
 10
84.32560219246027
 20
100.4038628221213
 30
0.0
  0
SEQEND
  5
309
330
2FF
100
AcDbEntity
  8
GRAU_10_
  0
POLYLINE
  5
30A
330
44
100
AcDbEntity
  8
GRAU_10_
 62
     7
100
AcDb2dPolyline
 66
     1
 10
0.0
 20
0.0
 30
0.0
  0
VERTEX
  5
30B
330
30A
100
AcDbEntity
  8
GRAU_10_
 62
     7
100
AcDbVertex
100
AcDb2dVertex
 10
81.20193411598424
 20
99.26215817830946
 30
0.0
  0
VERTEX
  5
30C
330
30A
100
AcDbEntity
  8
GRAU_10_
 62
     7
100
AcDbVertex
100
AcDb2dVertex
 10
81.22760007734935
 20
99.09541555682337
 30
0.0
  0
VERTEX
  5
30D
330
30A
100
AcDbEntity
  8
GRAU_10_
 62
     7
100
AcDbVertex
100
AcDb2dVertex
 10
81.26618514678415
 20
98.92867293533727
 30
0.0
  0
VERTEX
  5
30E
330
30A
100
AcDbEntity
  8
GRAU_10_
 62
     7
100
AcDbVertex
100
AcDb2dVertex
 10
81.3238904961621
 20
98.76813148572464
 30
0.0
  0
VERTEX
  5
30F
330
30A
100
AcDbEntity
  8
GRAU_10_
 62
     7
100
AcDbVertex
100
AcDb2dVertex
 10
81.40088838025743
 20
98.60793454566053
 30
0.0
  0
VERTEX
  5
310
330
30A
100
AcDbEntity
  8
GRAU_10_
 62
     7
100
AcDbVertex
100
AcDb2dVertex
 10
81.43930119491796
 20
98.5373100882129
 30
0.0
  0
VERTEX
  5
311
330
30A
100
AcDbEntity
  8
GRAU_10_
 62
     7
100
AcDbVertex
100
AcDb2dVertex
 10
81.48425969100046
 20
98.46048445889183
 30
0.0
  0
SEQEND
  5
312
330
30A
100
AcDbEntity
  8
GRAU_10_
  0
POLYLINE
  5
313
330
44
100
AcDbEntity
  8
GRAU_10_
 62
     7
100
AcDb2dPolyline
 66
     1
 10
0.0
 20
0.0
 30
0.0
  0
VERTEX
  5
314
330
313
100
AcDbEntity
  8
GRAU_10_
 62
     7
100
AcDbVertex
100
AcDb2dVertex
 10
93.35037432562075
 20
93.7910020381842
 30
0.0
  0
VERTEX
  5
315
330
313
100
AcDbEntity
  8
GRAU_10_
 62
     7
100
AcDbVertex
100
AcDb2dVertex
 10
93.44649248965922
 20
93.88712020222268
 30
0.0
  0
VERTEX
  5
316
330
313
100
AcDbEntity
  8
GRAU_10_
 62
     7
100
AcDbVertex
100
AcDb2dVertex
 10
93.54915633511966
 20
93.98323836626113
 30
0.0
  0
VERTEX
  5
317
330
313
100
AcDbEntity
  8
GRAU_10_
 62
     7
100
AcDbVertex
100
AcDb2dVertex
 10
93.64544675393239
 20
94.0793565302996
 30
0.0
  0
VERTEX
  5
318
330
313
100
AcDbEntity
  8
GRAU_10_
 62
     7
100
AcDbVertex
100
AcDb2dVertex
 10
93.74793834461858
 20
94.1758192038866
 30
0.0
  0
SEQEND
  5
319
330
313
100
AcDbEntity
  8
GRAU_10_
  0
POLYLINE
  5
31A
330
44
100
AcDbEntity
  8
GRAU_10_
 62
     7
100
AcDb2dPolyline
 66
     1
 10
0.0
 20
0.0
 30
0.0
  0
VERTEX
  5
31B
330
31A
100
AcDbEntity
  8
GRAU_10_
 62
     7
100
AcDbVertex
100
AcDb2dVertex
 10
84.49234481394636
 20
98.68476017498159
 30
0.0
  0
VERTEX
  5
31C
330
31A
100
AcDbEntity
  8
GRAU_10_
 62
     7
100
AcDbVertex
100
AcDb2dVertex
 10
84.47959796065093
 20
98.79396970186401
 30
0.0
  0
VERTEX
  5
31D
330
31A
100
AcDbEntity
  8
GRAU_10_
 62
     7
100
AcDbVertex
100
AcDb2dVertex
 10
84.46685110735551
 20
98.90283471919791
 30
0.0
  0
VERTEX
  5
31E
330
31A
100
AcDbEntity
  8
GRAU_10_
 62
     7
100
AcDbVertex
100
AcDb2dVertex
 10
84.45393199928583
 20
99.00549856465835
 30
0.0
  0
VERTEX
  5
31F
330
31A
100
AcDbEntity
  8
GRAU_10_
 62
     7
100
AcDbVertex
100
AcDb2dVertex
 10
84.4411851459904
 20
99.11470809154078
 30
0.0
  0
VERTEX
  5
320
330
31A
100
AcDbEntity
  8
GRAU_10_
 62
     7
100
AcDbVertex
100
AcDb2dVertex
 10
84.42826603792072
 20
99.21737193700122
 30
0.0
  0
VERTEX
  5
321
330
31A
100
AcDbEntity
  8
GRAU_10_
 62
     7
100
AcDbVertex
100
AcDb2dVertex
 10
84.4155191846253
 20
99.31969127291313
 30
0.0
  0
VERTEX
  5
322
330
31A
100
AcDbEntity
  8
GRAU_10_
 62
     7
100
AcDbVertex
100
AcDb2dVertex
 10
84.40897350320331
 20
99.42890079979556
 30
0.0
  0
VERTEX
  5
323
330
31A
100
AcDbEntity
  8
GRAU_10_
 62
     7
100
AcDbVertex
100
AcDb2dVertex
 10
84.39622664990789
 20
99.531564645256
 30
0.0
  0
SEQEND
  5
324
330
31A
100
AcDbEntity
  8
GRAU_10_
  0
POLYLINE
  5
325
330
44
100
AcDbEntity
  8
GRAU_10_
 62
     7
100
AcDb2dPolyline
 66
     1
 10
0.0
 20
0.0
 30
0.0
  0
VERTEX
  5
326
330
325
100
AcDbEntity
  8
GRAU_10_
 62
     7
100
AcDbVertex
100
AcDb2dVertex
 10
84.51163734866375
 20
98.67855900310815
 30
0.0
  0
VERTEX
  5
327
330
325
100
AcDbEntity
  8
GRAU_10_
 62
     7
100
AcDbVertex
100
AcDb2dVertex
 10
84.55659584474627
 20
98.78087833902006
 30
0.0
  0
VERTEX
  5
328
330
325
100
AcDbEntity
  8
GRAU_10_
 62
     7
100
AcDbVertex
100
AcDb2dVertex
 10
84.5950086594068
 20
98.89008786590249
 30
0.0
  0
VERTEX
  5
329
330
325
100
AcDbEntity
  8
GRAU_10_
 62
     7
100
AcDbVertex
100
AcDb2dVertex
 10
84.6335937288416
 20
99.05683048738858
 30
0.0
  0
VERTEX
  5
32A
330
325
100
AcDbEntity
  8
GRAU_10_
 62
     7
100
AcDbVertex
100
AcDb2dVertex
 10
84.65925969020671
 20
99.22357310887466
 30
0.0
  0
VERTEX
  5
32B
330
325
100
AcDbEntity
  8
GRAU_10_
 62
     7
100
AcDbVertex
100
AcDb2dVertex
 10
84.66563311685442
 20
99.39031573036075
 30
0.0
  0
VERTEX
  5
32C
330
325
100
AcDbEntity
  8
GRAU_10_
 62
     7
100
AcDbVertex
100
AcDb2dVertex
 10
84.65925969020671
 20
99.56360403326883
 30
0.0
  0
SEQEND
  5
32D
330
325
100
AcDbEntity
  8
GRAU_10_
  0
POLYLINE
  5
32E
330
44
100
AcDbEntity
  8
GRAU_10_
 62
     7
100
AcDb2dPolyline
 66
     1
 10
0.0
 20
0.0
 30
0.0
  0
VERTEX
  5
32F
330
32E
100
AcDbEntity
  8
GRAU_10_
 62
     7
100
AcDbVertex
100
AcDb2dVertex
 10
88.73222382764334
 20
116.9072482346621
 30
0.0
  0
VERTEX
  5
330
330
32E
100
AcDbEntity
  8
GRAU_10_
 62
     7
100
AcDbVertex
100
AcDb2dVertex
 10
88.70655786627823
 20
116.920339597506
 30
0.0
  0
VERTEX
  5
331
330
32E
100
AcDbEntity
  8
GRAU_10_
 62
     7
100
AcDbVertex
100
AcDb2dVertex
 10
88.68726533156082
 20
116.9265407693795
 30
0.0
  0
VERTEX
  5
332
330
32E
100
AcDbEntity
  8
GRAU_10_
 62
     7
100
AcDbVertex
100
AcDb2dVertex
 10
88.66797279684343
 20
116.9330864508015
 30
0.0
  0
VERTEX
  5
333
330
32E
100
AcDbEntity
  8
GRAU_10_
 62
     7
100
AcDbVertex
100
AcDb2dVertex
 10
88.64230683547832
 20
116.9458333040969
 30
0.0
  0
SEQEND
  5
334
330
32E
100
AcDbEntity
  8
GRAU_10_
  0
POLYLINE
  5
335
330
44
100
AcDbEntity
  8
GRAU_10_
 62
     7
100
AcDb2dPolyline
 66
     1
 10
0.0
 20
0.0
 30
0.0
  0
VERTEX
  5
336
330
335
100
AcDbEntity
  8
GRAU_10_
 62
     7
100
AcDbVertex
100
AcDb2dVertex
 10
81.48425969100046
 20
98.46048445889183
 30
0.0
  0
VERTEX
  5
337
330
335
100
AcDbEntity
  8
GRAU_10_
 62
     7
100
AcDbVertex
100
AcDb2dVertex
 10
81.5033799709436
 20
98.44119192417443
 30
0.0
  0
VERTEX
  5
338
330
335
100
AcDbEntity
  8
GRAU_10_
 62
     7
100
AcDbVertex
100
AcDb2dVertex
 10
81.5162990790133
 20
98.41535370803506
 30
0.0
  0
SEQEND
  5
339
330
335
100
AcDbEntity
  8
GRAU_10_
  0
POLYLINE
  5
33A
330
44
100
AcDbEntity
  8
GRAU_10_
 62
     7
100
AcDb2dPolyline
 66
     1
 10
0.0
 20
0.0
 30
0.0
  0
VERTEX
  5
33B
330
33A
100
AcDbEntity
  8
GRAU_10_
 62
     7
100
AcDbVertex
100
AcDb2dVertex
 10
92.6961506929718
 20
92.99552949064001
 30
0.0
  0
VERTEX
  5
33C
330
33A
100
AcDbEntity
  8
GRAU_10_
 62
     7
100
AcDbVertex
100
AcDb2dVertex
 10
92.47153046733351
 20
92.77090926500172
 30
0.0
  0
VERTEX
  5
33D
330
33A
100
AcDbEntity
  8
GRAU_10_
 62
     7
100
AcDbVertex
100
AcDb2dVertex
 10
92.24070906982178
 20
92.54008786748999
 30
0.0
  0
SEQEND
  5
33E
330
33A
100
AcDbEntity
  8
GRAU_10_
  0
POLYLINE
  5
33F
330
44
100
AcDbEntity
  8
GRAU_10_
 62
     7
100
AcDb2dPolyline
 66
     1
 10
0.0
 20
0.0
 30
0.0
  0
VERTEX
  5
340
330
33F
100
AcDbEntity
  8
GRAU_10_
 62
     7
100
AcDbVertex
100
AcDb2dVertex
 10
79.21997068332001
 20
109.0627658147482
 30
0.0
  0
VERTEX
  5
341
330
33F
100
AcDbEntity
  8
GRAU_10_
 62
     7
100
AcDbVertex
100
AcDb2dVertex
 10
79.43804522753632
 20
109.1719753416306
 30
0.0
  0
VERTEX
  5
342
330
33F
100
AcDbEntity
  8
GRAU_10_
 62
     7
100
AcDbVertex
100
AcDb2dVertex
 10
79.66903887982232
 20
109.2618923337956
 30
0.0
  0
VERTEX
  5
343
330
33F
100
AcDbEntity
  8
GRAU_10_
 62
     7
100
AcDbVertex
100
AcDb2dVertex
 10
79.98977726949909
 20
109.3452636445387
 30
0.0
  0
VERTEX
  5
344
330
33F
100
AcDbEntity
  8
GRAU_10_
 62
     7
100
AcDbVertex
100
AcDb2dVertex
 10
80.32963593911899
 20
109.383504204425
 30
0.0
  0
SEQEND
  5
345
330
33F
100
AcDbEntity
  8
GRAU_10_
  0
POLYLINE
  5
346
330
44
100
AcDbEntity
  8
GRAU_10_
 62
     7
100
AcDb2dPolyline
 66
     1
 10
0.0
 20
0.0
 30
0.0
  0
VERTEX
  5
347
330
346
100
AcDbEntity
  8
GRAU_10_
 62
     7
100
AcDbVertex
100
AcDb2dVertex
 10
92.78589543036256
 20
93.08544648280503
 30
0.0
  0
VERTEX
  5
348
330
346
100
AcDbEntity
  8
GRAU_10_
 62
     7
100
AcDbVertex
100
AcDb2dVertex
 10
92.79226885701027
 20
93.08544648280503
 30
0.0
  0
VERTEX
  5
349
330
346
100
AcDbEntity
  8
GRAU_10_
 62
     7
100
AcDbVertex
100
AcDb2dVertex
 10
92.79881453843224
 20
93.09164765467848
 30
0.0
  0
SEQEND
  5
34A
330
346
100
AcDbEntity
  8
GRAU_10_
  0
POLYLINE
  5
34B
330
44
100
AcDbEntity
  8
GRAU_10_
 62
     7
100
AcDb2dPolyline
 66
     1
 10
0.0
 20
0.0
 30
0.0
  0
VERTEX
  5
34C
330
34B
100
AcDbEntity
  8
GRAU_10_
 62
     7
100
AcDbVertex
100
AcDb2dVertex
 10
83.09415281125771
 20
97.70359698078244
 30
0.0
  0
VERTEX
  5
34D
330
34B
100
AcDbEntity
  8
GRAU_10_
 62
     7
100
AcDbVertex
100
AcDb2dVertex
 10
83.10052623790543
 20
97.70359698078244
 30
0.0
  0
VERTEX
  5
34E
330
34B
100
AcDbEntity
  8
GRAU_10_
 62
     7
100
AcDbVertex
100
AcDb2dVertex
 10
83.10689966455314
 20
97.70979815265589
 30
0.0
  0
VERTEX
  5
34F
330
34B
100
AcDbEntity
  8
GRAU_10_
 62
     7
100
AcDbVertex
100
AcDb2dVertex
 10
83.11981877262282
 20
97.71634383407786
 30
0.0
  0
SEQEND
  5
350
330
34B
100
AcDbEntity
  8
GRAU_10_
  0
POLYLINE
  5
351
330
44
100
AcDbEntity
  8
GRAU_10_
 62
     7
100
AcDb2dPolyline
 66
     1
 10
0.0
 20
0.0
 30
0.0
  0
VERTEX
  5
352
330
351
100
AcDbEntity
  8
GRAU_10_
 62
     7
100
AcDbVertex
100
AcDb2dVertex
 10
80.22697209365853
 20
96.15778263655083
 30
0.0
  0
VERTEX
  5
353
330
351
100
AcDbEntity
  8
GRAU_10_
 62
     7
100
AcDbVertex
100
AcDb2dVertex
 10
80.20785181371541
 20
96.17052948984626
 30
0.0
  0
VERTEX
  5
354
330
351
100
AcDbEntity
  8
GRAU_10_
 62
     7
100
AcDbVertex
100
AcDb2dVertex
 10
80.188559278998
 20
96.18327634314169
 30
0.0
  0
VERTEX
  5
355
330
351
100
AcDbEntity
  8
GRAU_10_
 62
     7
100
AcDbVertex
100
AcDb2dVertex
 10
80.16289331763289
 20
96.19602319643711
 30
0.0
  0
VERTEX
  5
356
330
351
100
AcDbEntity
  8
GRAU_10_
 62
     7
100
AcDbVertex
100
AcDb2dVertex
 10
80.1436007829155
 20
96.20911455928106
 30
0.0
  0
VERTEX
  5
357
330
351
100
AcDbEntity
  8
GRAU_10_
 62
     7
100
AcDbVertex
100
AcDb2dVertex
 10
80.12448050297236
 20
96.22186141257649
 30
0.0
  0
VERTEX
  5
358
330
351
100
AcDbEntity
  8
GRAU_10_
 62
     7
100
AcDbVertex
100
AcDb2dVertex
 10
80.10518796825495
 20
96.23460826587191
 30
0.0
  0
SEQEND
  5
359
330
351
100
AcDbEntity
  8
GRAU_10_
  0
POLYLINE
  5
35A
330
44
100
AcDbEntity
  8
GRAU_10_
 62
     7
100
AcDb2dPolyline
 66
     1
 10
0.0
 20
0.0
 30
0.0
  0
VERTEX
  5
35B
330
35A
100
AcDbEntity
  8
GRAU_10_
 62
     7
100
AcDbVertex
100
AcDb2dVertex
 10
89.77126462599469
 20
117.5104844541293
 30
0.0
  0
VERTEX
  5
35C
330
35A
100
AcDbEntity
  8
GRAU_10_
 62
     7
100
AcDbVertex
100
AcDb2dVertex
 10
101.1755642108172
 20
118.113376164048
 30
0.0
  0
SEQEND
  5
35D
330
35A
100
AcDbEntity
  8
GRAU_10_
  0
POLYLINE
  5
35E
330
44
100
AcDbEntity
  8
GRAU_10_
 62
     7
100
AcDb2dPolyline
 66
     1
 10
0.0
 20
0.0
 30
0.0
  0
VERTEX
  5
35F
330
35E
100
AcDbEntity
  8
GRAU_10_
 62
     7
100
AcDbVertex
100
AcDb2dVertex
 10
82.60029837344715
 20
104.4577066796147
 30
0.0
  0
VERTEX
  5
360
330
35E
100
AcDbEntity
  8
GRAU_10_
 62
     7
100
AcDbVertex
100
AcDb2dVertex
 10
82.31797279843093
 20
104.495947239501
 30
0.0
  0
VERTEX
  5
361
330
35E
100
AcDbEntity
  8
GRAU_10_
 62
     7
100
AcDbVertex
100
AcDb2dVertex
 10
82.06148543955408
 20
104.6306504729743
 30
0.0
  0
VERTEX
  5
362
330
35E
100
AcDbEntity
  8
GRAU_10_
 62
     7
100
AcDbVertex
100
AcDb2dVertex
 10
81.87545028335059
 20
104.8487250171906
 30
0.0
  0
VERTEX
  5
363
330
35E
100
AcDbEntity
  8
GRAU_10_
 62
     7
100
AcDbVertex
100
AcDb2dVertex
 10
81.77278643789015
 20
105.1119303122637
 30
0.0
  0
VERTEX
  5
364
330
35E
100
AcDbEntity
  8
GRAU_10_
 62
     7
100
AcDbVertex
100
AcDb2dVertex
 10
81.77278643789015
 20
105.4068304858011
 30
0.0
  0
VERTEX
  5
365
330
35E
100
AcDbEntity
  8
GRAU_10_
 62
     7
100
AcDbVertex
100
AcDb2dVertex
 10
81.87545028335059
 20
105.6762369527476
 30
0.0
  0
VERTEX
  5
366
330
35E
100
AcDbEntity
  8
GRAU_10_
 62
     7
100
AcDbVertex
100
AcDb2dVertex
 10
83.55596786105545
 20
108.4216335449432
 30
0.0
  0
VERTEX
  5
367
330
35E
100
AcDbEntity
  8
GRAU_10_
 62
     7
100
AcDbVertex
100
AcDb2dVertex
 10
83.60092635713796
 20
108.4919134928423
 30
0.0
  0
VERTEX
  5
368
330
35E
100
AcDbEntity
  8
GRAU_10_
 62
     7
100
AcDbVertex
100
AcDb2dVertex
 10
85.37756209888131
 20
111.397507025102
 30
0.0
  0
VERTEX
  5
369
330
35E
100
AcDbEntity
  8
GRAU_10_
 62
     7
100
AcDbVertex
100
AcDb2dVertex
 10
88.73859725429105
 20
116.9010470627886
 30
0.0
  0
VERTEX
  5
36A
330
35E
100
AcDbEntity
  8
GRAU_10_
 62
     7
100
AcDbVertex
100
AcDb2dVertex
 10
88.87330048776431
 20
117.1191216070049
 30
0.0
  0
VERTEX
  5
36B
330
35E
100
AcDbEntity
  8
GRAU_10_
 62
     7
100
AcDbVertex
100
AcDb2dVertex
 10
89.14908038135857
 20
117.3885280739515
 30
0.0
  0
VERTEX
  5
36C
330
35E
100
AcDbEntity
  8
GRAU_10_
 62
     7
100
AcDbVertex
100
AcDb2dVertex
 10
89.51477726711784
 20
117.4973930912854
 30
0.0
  0
VERTEX
  5
36D
330
35E
100
AcDbEntity
  8
GRAU_10_
 62
     7
100
AcDbVertex
100
AcDb2dVertex
 10
89.77126462599469
 20
117.5104844541293
 30
0.0
  0
VERTEX
  5
36E
330
35E
100
AcDbEntity
  8
GRAU_10_
 62
     7
100
AcDbVertex
100
AcDb2dVertex
 10
96.22392846986763
 20
117.8567165503969
 30
0.0
  0
VERTEX
  5
36F
330
35E
100
AcDbEntity
  8
GRAU_10_
 62
     7
100
AcDbVertex
100
AcDb2dVertex
 10
102.9329074178432
 20
118.2094943280865
 30
0.0
  0
VERTEX
  5
370
330
35E
100
AcDbEntity
  8
GRAU_10_
 62
     7
100
AcDbVertex
100
AcDb2dVertex
 10
103.2154052476337
 20
118.1774549400737
 30
0.0
  0
VERTEX
  5
371
330
35E
100
AcDbEntity
  8
GRAU_10_
 62
     7
100
AcDbVertex
100
AcDb2dVertex
 10
103.4782660331582
 20
118.0362060251785
 30
0.0
  0
VERTEX
  5
372
330
35E
100
AcDbEntity
  8
GRAU_10_
 62
     7
100
AcDbVertex
100
AcDb2dVertex
 10
103.6643011893617
 20
117.8246771623841
 30
0.0
  0
VERTEX
  5
373
330
35E
100
AcDbEntity
  8
GRAU_10_
 62
     7
100
AcDbVertex
100
AcDb2dVertex
 10
103.7669650348221
 20
117.5552706954376
 30
0.0
  0
VERTEX
  5
374
330
35E
100
AcDbEntity
  8
GRAU_10_
 62
     7
100
AcDbVertex
100
AcDb2dVertex
 10
103.7604193534002
 20
117.2600260123517
 30
0.0
  0
VERTEX
  5
375
330
35E
100
AcDbEntity
  8
GRAU_10_
 62
     7
100
AcDbVertex
100
AcDb2dVertex
 10
103.6577555079397
 20
116.9971652268271
 30
0.0
  0
VERTEX
  5
376
330
35E
100
AcDbEntity
  8
GRAU_10_
 62
     7
100
AcDbVertex
100
AcDb2dVertex
 10
100.162189373831
 20
111.2693494730507
 30
0.0
  0
VERTEX
  5
377
330
35E
100
AcDbEntity
  8
GRAU_10_
 62
     7
100
AcDbVertex
100
AcDb2dVertex
 10
96.66007755830026
 20
105.5480794006963
 30
0.0
  0
VERTEX
  5
378
330
35E
100
AcDbEntity
  8
GRAU_10_
 62
     7
100
AcDbVertex
100
AcDb2dVertex
 10
96.39067109135372
 20
105.2786729337498
 30
0.0
  0
VERTEX
  5
379
330
35E
100
AcDbEntity
  8
GRAU_10_
 62
     7
100
AcDbVertex
100
AcDb2dVertex
 10
96.02497420559446
 20
105.1694634068674
 30
0.0
  0
VERTEX
  5
37A
330
35E
100
AcDbEntity
  8
GRAU_10_
 62
     7
100
AcDbVertex
100
AcDb2dVertex
 10
95.75556773864791
 20
105.1567165535719
 30
0.0
  0
VERTEX
  5
37B
330
35E
100
AcDbEntity
  8
GRAU_10_
 62
     7
100
AcDbVertex
100
AcDb2dVertex
 10
89.30944957619695
 20
104.8104844573043
 30
0.0
  0
VERTEX
  5
37C
330
35E
100
AcDbEntity
  8
GRAU_10_
 62
     7
100
AcDbVertex
100
AcDb2dVertex
 10
82.60029837344715
 20
104.4577066796147
 30
0.0
  0
SEQEND
  5
37D
330
35E
100
AcDbEntity
  8
GRAU_10_
  0
ENDBLK
  5
47
330
44
100
AcDbEntity
  8
0
100
AcDbBlockEnd
  0
BLOCK
  5
5D8
330
5D6
100
AcDbEntity
  8
0
100
AcDbBlockBegin
  2
BLOCK_5
 70
     0
 71
     0
 10
0.0
 20
0.0
 30
0.0
  3
BLOCK_5
  1

  0
SPLINE
  5
5DA
330
5D6
100
AcDbEntity
  8
TEXT
100
AcDbSpline
210
0.0
220
0.0
230
1.0
 70
    11
 71
     3
 72
    35
 73
    31
 74
     0
 42
0.0000000001
 43
0.0000000001
 40
0.0
 40
0.0
 40
0.0
 40
0.0
 40
1.0
 40
1.0
 40
1.0
 40
2.0
 40
2.0
 40
2.0
 40
3.0
 40
3.0
 40
3.0
 40
4.0
 40
4.0
 40
4.0
 40
5.0
 40
5.0
 40
5.0
 40
6.0
 40
6.0
 40
6.0
 40
7.0
 40
7.0
 40
7.0
 40
8.0
 40
8.0
 40
8.0
 40
9.0
 40
9.0
 40
9.0
 40
10.0
 40
10.0
 40
10.0
 40
10.0
 10
74.35962997272954
 20
129.1790228626705
 30
0.0
 10
74.35962997272954
 20
129.1790228626705
 30
0.0
 10
74.11278888121139
 20
129.1790228626705
 30
0.0
 10
74.11278888121139
 20
129.1790228626705
 30
0.0
 10
74.10228133998137
 20
129.4329263999335
 30
0.0
 10
73.8978149229318
 20
129.5915730470292
 30
0.0
 10
73.6475287359284
 20
129.5915730470292
 30
0.0
 10
73.06220701298444
 20
129.5915730470292
 30
0.0
 10
72.99519990579634
 20
128.9533691083867
 30
0.0
 10
72.99519990579634
 20
128.4951714088484
 30
0.0
 10
72.99519990579634
 20
128.4951714088484
 30
0.0
 10
73.0022623515411
 20
128.4951714088484
 30
0.0
 10
73.0022623515411
 20
128.4951714088484
 30
0.0
 10
73.11147187842353
 20
128.7630275828266
 30
0.0
 10
73.35831296994168
 20
128.8934244469433
 30
0.0
 10
73.64391138566889
 20
128.8934244469433
 30
0.0
 10
74.12691377270092
 20
128.8934244469433
 30
0.0
 10
74.3914971059681
 20
128.5514987200323
 30
0.0
 10
74.3914971059681
 20
128.086066319975
 30
0.0
 10
74.3914971059681
 20
127.6206339199178
 30
0.0
 10
74.10228133998137
 20
127.2575208557724
 30
0.0
 10
73.6227240484346
 20
127.2575208557724
 30
0.0
 10
72.94231769009775
 20
127.2575208557724
 30
0.0
 10
72.74835881427819
 20
127.8216552414821
 30
0.0
 10
72.74835881427819
 20
128.406976964426
 30
0.0
 10
72.74835881427819
 20
129.031056011579
 30
0.0
 10
72.8470607999306
 20
129.8031019098235
 30
0.0
 10
73.63684893992412
 20
129.8031019098235
 30
0.0
 10
74.03527423279327
 20
129.8031019098235
 30
0.0
 10
74.35256752698479
 20
129.6022528430335
 30
0.0
 10
74.35962997272954
 20
129.1790228626705
 30
0.0
  0
SPLINE
  5
5DB
330
5D6
100
AcDbEntity
  8
TEXT
100
AcDbSpline
210
0.0
220
0.0
230
1.0
 70
    11
 71
     3
 72
    17
 73
    13
 74
     0
 42
0.0000000001
 43
0.0000000001
 40
0.0
 40
0.0
 40
0.0
 40
0.0
 40
1.0
 40
1.0
 40
1.0
 40
2.0
 40
2.0
 40
2.0
 40
3.0
 40
3.0
 40
3.0
 40
4.0
 40
4.0
 40
4.0
 40
4.0
 10
73.03757458026492
 20
128.0543714415107
 30
0.0
 10
73.03757458026492
 20
127.7475856885492
 30
0.0
 10
73.27011852551928
 20
127.4690497185668
 30
0.0
 10
73.58758407448505
 20
127.4690497185668
 30
0.0
 10
73.94707978837087
 20
127.4690497185668
 30
0.0
 10
74.14465601444995
 20
127.7263983513149
 30
0.0
 10
74.14465601444995
 20
128.0719414284855
 30
0.0
 10
74.14465601444995
 20
128.3928520729365
 30
0.0
 10
73.99651690858421
 20
128.699637825898
 30
0.0
 10
73.63340384443887
 20
128.699637825898
 30
0.0
 10
73.24548609279974
 20
128.699637825898
 30
0.0
 10
73.03757458026492
 20
128.4174845056561
 30
0.0
 10
73.03757458026492
 20
128.0543714415107
 30
0.0
  0
HATCH
  5
5DC
330
5D6
100
AcDbEntity
  8
TEXT
 62
     7
100
AcDbHatch
 10
0.0
 20
0.0
 30
0.0
210
0.0
220
0.0
230
1.0
  2
SOLID
 70
     1
 71
     0
 91
        2
 92
        1
 93
        1
 72
     4
 94
        3
 73
     0
 74
     1
 95
       35
 96
       31
 40
0.0
 40
0.0
 40
0.0
 40
0.0
 40
1.0
 40
1.0
 40
1.0
 40
2.0
 40
2.0
 40
2.0
 40
3.0
 40
3.0
 40
3.0
 40
4.0
 40
4.0
 40
4.0
 40
5.0
 40
5.0
 40
5.0
 40
6.0
 40
6.0
 40
6.0
 40
7.0
 40
7.0
 40
7.0
 40
8.0
 40
8.0
 40
8.0
 40
9.0
 40
9.0
 40
9.0
 40
10.0
 40
10.0
 40
10.0
 40
10.0
 10
74.35962997272954
 20
129.1790228626705
 10
74.35962997272954
 20
129.1790228626705
 10
74.11278888121139
 20
129.1790228626705
 10
74.11278888121139
 20
129.1790228626705
 10
74.10228133998137
 20
129.4329263999335
 10
73.8978149229318
 20
129.5915730470292
 10
73.6475287359284
 20
129.5915730470292
 10
73.06220701298444
 20
129.5915730470292
 10
72.99519990579634
 20
128.9533691083867
 10
72.99519990579634
 20
128.4951714088484
 10
72.99519990579634
 20
128.4951714088484
 10
73.0022623515411
 20
128.4951714088484
 10
73.0022623515411
 20
128.4951714088484
 10
73.11147187842353
 20
128.7630275828266
 10
73.35831296994168
 20
128.8934244469433
 10
73.64391138566889
 20
128.8934244469433
 10
74.12691377270092
 20
128.8934244469433
 10
74.3914971059681
 20
128.5514987200323
 10
74.3914971059681
 20
128.086066319975
 10
74.3914971059681
 20
127.6206339199178
 10
74.10228133998137
 20
127.2575208557724
 10
73.6227240484346
 20
127.2575208557724
 10
72.94231769009775
 20
127.2575208557724
 10
72.74835881427819
 20
127.8216552414821
 10
72.74835881427819
 20
128.406976964426
 10
72.74835881427819
 20
129.031056011579
 10
72.8470607999306
 20
129.8031019098235
 10
73.63684893992412
 20
129.8031019098235
 10
74.03527423279327
 20
129.8031019098235
 10
74.35256752698479
 20
129.6022528430335
 10
74.35962997272954
 20
129.1790228626705
 97
        0
 92
        1
 93
        1
 72
     4
 94
        3
 73
     0
 74
     1
 95
       17
 96
       13
 40
0.0
 40
0.0
 40
0.0
 40
0.0
 40
1.0
 40
1.0
 40
1.0
 40
2.0
 40
2.0
 40
2.0
 40
3.0
 40
3.0
 40
3.0
 40
4.0
 40
4.0
 40
4.0
 40
4.0
 10
73.03757458026492
 20
128.0543714415107
 10
73.03757458026492
 20
127.7475856885492
 10
73.27011852551928
 20
127.4690497185668
 10
73.58758407448505
 20
127.4690497185668
 10
73.94707978837087
 20
127.4690497185668
 10
74.14465601444995
 20
127.7263983513149
 10
74.14465601444995
 20
128.0719414284855
 10
74.14465601444995
 20
128.3928520729365
 10
73.99651690858421
 20
128.699637825898
 10
73.63340384443887
 20
128.699637825898
 10
73.24548609279974
 20
128.699637825898
 10
73.03757458026492
 20
128.4174845056561
 10
73.03757458026492
 20
128.0543714415107
 97
        0
 75
     2
 76
     1
 98
        0
  0
SPLINE
  5
5DD
330
5D6
100
AcDbEntity
  8
TEXT
100
AcDbSpline
210
0.0
220
0.0
230
1.0
 70
    11
 71
     3
 72
    17
 73
    13
 74
     0
 42
0.0000000001
 43
0.0000000001
 40
0.0
 40
0.0
 40
0.0
 40
0.0
 40
1.0
 40
1.0
 40
1.0
 40
2.0
 40
2.0
 40
2.0
 40
3.0
 40
3.0
 40
3.0
 40
4.0
 40
4.0
 40
4.0
 40
4.0
 10
76.34228242449082
 20
128.530311382798
 30
0.0
 10
76.34228242449082
 20
127.9098496859045
 30
0.0
 10
76.1977606688846
 20
127.2575208557724
 30
0.0
 10
75.531306947263
 20
127.2575208557724
 30
0.0
 10
74.8650254804157
 20
127.2575208557724
 30
0.0
 10
74.72050372480946
 20
127.9098496859045
 30
0.0
 10
74.72050372480946
 20
128.530311382798
 30
0.0
 10
74.72050372480946
 20
129.1509453344657
 30
0.0
 10
74.8650254804157
 20
129.8031019098235
 30
0.0
 10
75.531306947263
 20
129.8031019098235
 30
0.0
 10
76.1977606688846
 20
129.8031019098235
 30
0.0
 10
76.34228242449082
 20
129.1509453344657
 30
0.0
 10
76.34228242449082
 20
128.530311382798
 30
0.0
  0
SPLINE
  5
5DE
330
5D6
100
AcDbEntity
  8
TEXT
100
AcDbSpline
210
0.0
220
0.0
230
1.0
 70
    11
 71
     3
 72
    17
 73
    13
 74
     0
 42
0.0000000001
 43
0.0000000001
 40
0.0
 40
0.0
 40
0.0
 40
0.0
 40
1.0
 40
1.0
 40
1.0
 40
2.0
 40
2.0
 40
2.0
 40
3.0
 40
3.0
 40
3.0
 40
4.0
 40
4.0
 40
4.0
 40
4.0
 10
74.96717256155335
 20
128.530311382798
 30
0.0
 10
74.96717256155335
 20
128.1671983186527
 30
0.0
 10
75.01299233150718
 20
127.4690497185668
 30
0.0
 10
75.531306947263
 20
127.4690497185668
 30
0.0
 10
76.04962156301885
 20
127.4690497185668
 30
0.0
 10
76.09544133297267
 20
128.1671983186527
 30
0.0
 10
76.09544133297267
 20
128.530311382798
 30
0.0
 10
76.09544133297267
 20
128.8934244469433
 30
0.0
 10
76.04962156301885
 20
129.5915730470292
 30
0.0
 10
75.531306947263
 20
129.5915730470292
 30
0.0
 10
75.01299233150718
 20
129.5915730470292
 30
0.0
 10
74.96717256155335
 20
128.8934244469433
 30
0.0
 10
74.96717256155335
 20
128.530311382798
 30
0.0
  0
HATCH
  5
5DF
330
5D6
100
AcDbEntity
  8
TEXT
 62
     7
100
AcDbHatch
 10
0.0
 20
0.0
 30
0.0
210
0.0
220
0.0
230
1.0
  2
SOLID
 70
     1
 71
     0
 91
        2
 92
        1
 93
        1
 72
     4
 94
        3
 73
     0
 74
     1
 95
       17
 96
       13
 40
0.0
 40
0.0
 40
0.0
 40
0.0
 40
1.0
 40
1.0
 40
1.0
 40
2.0
 40
2.0
 40
2.0
 40
3.0
 40
3.0
 40
3.0
 40
4.0
 40
4.0
 40
4.0
 40
4.0
 10
76.34228242449082
 20
128.530311382798
 10
76.34228242449082
 20
127.9098496859045
 10
76.1977606688846
 20
127.2575208557724
 10
75.531306947263
 20
127.2575208557724
 10
74.8650254804157
 20
127.2575208557724
 10
74.72050372480946
 20
127.9098496859045
 10
74.72050372480946
 20
128.530311382798
 10
74.72050372480946
 20
129.1509453344657
 10
74.8650254804157
 20
129.8031019098235
 10
75.531306947263
 20
129.8031019098235
 10
76.1977606688846
 20
129.8031019098235
 10
76.34228242449082
 20
129.1509453344657
 10
76.34228242449082
 20
128.530311382798
 97
        0
 92
        1
 93
        1
 72
     4
 94
        3
 73
     0
 74
     1
 95
       17
 96
       13
 40
0.0
 40
0.0
 40
0.0
 40
0.0
 40
1.0
 40
1.0
 40
1.0
 40
2.0
 40
2.0
 40
2.0
 40
3.0
 40
3.0
 40
3.0
 40
4.0
 40
4.0
 40
4.0
 40
4.0
 10
74.96717256155335
 20
128.530311382798
 10
74.96717256155335
 20
128.1671983186527
 10
75.01299233150718
 20
127.4690497185668
 10
75.531306947263
 20
127.4690497185668
 10
76.04962156301885
 20
127.4690497185668
 10
76.09544133297267
 20
128.1671983186527
 10
76.09544133297267
 20
128.530311382798
 10
76.09544133297267
 20
128.8934244469433
 10
76.04962156301885
 20
129.5915730470292
 10
75.531306947263
 20
129.5915730470292
 10
75.01299233150718
 20
129.5915730470292
 10
74.96717256155335
 20
128.8934244469433
 10
74.96717256155335
 20
128.530311382798
 97
        0
 75
     2
 76
     1
 98
        0
  0
ENDBLK
  5
5D9
330
5D6
100
AcDbEntity
  8
0
100
AcDbBlockEnd
  0
BLOCK
  5
5E2
330
5E0
100
AcDbEntity
  8
0
100
AcDbBlockBegin
  2
BLOCK_6
 70
     0
 71
     0
 10
0.0
 20
0.0
 30
0.0
  3
BLOCK_6
  1

  0
SPLINE
  5
5E4
330
5E0
100
AcDbEntity
  8
TEXT
100
AcDbSpline
210
0.0
220
0.0
230
1.0
 70
    11
 71
     3
 72
    38
 73
    34
 74
     0
 42
0.0000000001
 43
0.0000000001
 40
0.0
 40
0.0
 40
0.0
 40
0.0
 40
1.0
 40
1.0
 40
1.0
 40
2.0
 40
2.0
 40
2.0
 40
3.0
 40
3.0
 40
3.0
 40
4.0
 40
4.0
 40
4.0
 40
5.0
 40
5.0
 40
5.0
 40
6.0
 40
6.0
 40
6.0
 40
7.0
 40
7.0
 40
7.0
 40
8.0
 40
8.0
 40
8.0
 40
9.0
 40
9.0
 40
9.0
 40
10.0
 40
10.0
 40
10.0
 40
11.0
 40
11.0
 40
11.0
 40
11.0
 10
98.2337971759624
 20
100.689805747397
 30
0.0
 10
98.2337971759624
 20
100.689805747397
 30
0.0
 10
97.994018530189
 20
100.689805747397
 30
0.0
 10
97.994018530189
 20
100.689805747397
 30
0.0
 10
97.70842011446179
 20
101.0070990415885
 30
0.0
 10
96.8233750843011
 20
101.9448540326735
 30
0.0
 10
96.3861924672229
 20
101.9448540326735
 30
0.0
 10
96.10059405149569
 20
101.9448540326735
 30
0.0
 10
95.95262720040421
 20
101.7192002783896
 30
0.0
 10
95.95262720040421
 20
101.4546169451225
 30
0.0
 10
95.95262720040421
 20
101.1621283384248
 30
0.0
 10
96.15347626719428
 20
100.9612792716347
 30
0.0
 10
96.43907468292149
 20
100.9612792716347
 30
0.0
 10
96.43907468292149
 20
100.9612792716347
 30
0.0
 10
96.43907468292149
 20
100.7146104348908
 30
0.0
 10
96.43907468292149
 20
100.7146104348908
 30
0.0
 10
96.00895451158804
 20
100.7146104348908
 30
0.0
 10
95.74109833760987
 20
101.0387939200528
 30
0.0
 10
95.74109833760987
 20
101.4618516456415
 30
0.0
 10
95.74109833760987
 20
101.8532144927659
 30
0.0
 10
95.94900985014469
 20
102.1918673789659
 30
0.0
 10
96.37206757573338
 20
102.1918673789659
 30
0.0
 10
96.9432644071878
 20
102.1918673789659
 30
0.0
 10
97.65915524902272
 20
101.3419623227548
 30
0.0
 10
98.02226831316806
 20
100.9647243671199
 30
0.0
 10
98.02226831316806
 20
100.9647243671199
 30
0.0
 10
98.02226831316806
 20
102.2235622574302
 30
0.0
 10
98.02226831316806
 20
102.2235622574302
 30
0.0
 10
98.02226831316806
 20
102.2235622574302
 30
0.0
 10
98.2337971759624
 20
102.2235622574302
 30
0.0
 10
98.2337971759624
 20
102.2235622574302
 30
0.0
 10
98.2337971759624
 20
102.2235622574302
 30
0.0
 10
98.2337971759624
 20
100.689805747397
 30
0.0
 10
98.2337971759624
 20
100.689805747397
 30
0.0
  0
HATCH
  5
5E5
330
5E0
100
AcDbEntity
  8
TEXT
 62
     7
100
AcDbHatch
 10
0.0
 20
0.0
 30
0.0
210
0.0
220
0.0
230
1.0
  2
SOLID
 70
     1
 71
     0
 91
        1
 92
        1
 93
        1
 72
     4
 94
        3
 73
     0
 74
     1
 95
       38
 96
       34
 40
0.0
 40
0.0
 40
0.0
 40
0.0
 40
1.0
 40
1.0
 40
1.0
 40
2.0
 40
2.0
 40
2.0
 40
3.0
 40
3.0
 40
3.0
 40
4.0
 40
4.0
 40
4.0
 40
5.0
 40
5.0
 40
5.0
 40
6.0
 40
6.0
 40
6.0
 40
7.0
 40
7.0
 40
7.0
 40
8.0
 40
8.0
 40
8.0
 40
9.0
 40
9.0
 40
9.0
 40
10.0
 40
10.0
 40
10.0
 40
11.0
 40
11.0
 40
11.0
 40
11.0
 10
98.2337971759624
 20
100.689805747397
 10
98.2337971759624
 20
100.689805747397
 10
97.994018530189
 20
100.689805747397
 10
97.994018530189
 20
100.689805747397
 10
97.70842011446179
 20
101.0070990415885
 10
96.8233750843011
 20
101.9448540326735
 10
96.3861924672229
 20
101.9448540326735
 10
96.10059405149569
 20
101.9448540326735
 10
95.95262720040421
 20
101.7192002783896
 10
95.95262720040421
 20
101.4546169451225
 10
95.95262720040421
 20
101.1621283384248
 10
96.15347626719428
 20
100.9612792716347
 10
96.43907468292149
 20
100.9612792716347
 10
96.43907468292149
 20
100.9612792716347
 10
96.43907468292149
 20
100.7146104348908
 10
96.43907468292149
 20
100.7146104348908
 10
96.00895451158804
 20
100.7146104348908
 10
95.74109833760987
 20
101.0387939200528
 10
95.74109833760987
 20
101.4618516456415
 10
95.74109833760987
 20
101.8532144927659
 10
95.94900985014469
 20
102.1918673789659
 10
96.37206757573338
 20
102.1918673789659
 10
96.9432644071878
 20
102.1918673789659
 10
97.65915524902272
 20
101.3419623227548
 10
98.02226831316806
 20
100.9647243671199
 10
98.02226831316806
 20
100.9647243671199
 10
98.02226831316806
 20
102.2235622574302
 10
98.02226831316806
 20
102.2235622574302
 10
98.02226831316806
 20
102.2235622574302
 10
98.2337971759624
 20
102.2235622574302
 10
98.2337971759624
 20
102.2235622574302
 10
98.2337971759624
 20
102.2235622574302
 10
98.2337971759624
 20
100.689805747397
 10
98.2337971759624
 20
100.689805747397
 97
        0
 75
     2
 76
     1
 98
        0
  0
SPLINE
  5
5E6
330
5E0
100
AcDbEntity
  8
TEXT
100
AcDbSpline
210
0.0
220
0.0
230
1.0
 70
    11
 71
     3
 72
    35
 73
    31
 74
     0
 42
0.0000000001
 43
0.0000000001
 40
0.0
 40
0.0
 40
0.0
 40
0.0
 40
1.0
 40
1.0
 40
1.0
 40
2.0
 40
2.0
 40
2.0
 40
3.0
 40
3.0
 40
3.0
 40
4.0
 40
4.0
 40
4.0
 40
5.0
 40
5.0
 40
5.0
 40
6.0
 40
6.0
 40
6.0
 40
7.0
 40
7.0
 40
7.0
 40
8.0
 40
8.0
 40
8.0
 40
9.0
 40
9.0
 40
9.0
 40
10.0
 40
10.0
 40
10.0
 40
10.0
 10
96.36517738476287
 20
104.2447997786263
 30
0.0
 10
96.36517738476287
 20
104.2447997786263
 30
0.0
 10
96.36517738476287
 20
103.9981309418824
 30
0.0
 10
96.36517738476287
 20
103.9981309418824
 30
0.0
 10
96.11127384749996
 20
103.9874511458781
 30
0.0
 10
95.95262720040421
 20
103.7828124740543
 30
0.0
 10
95.95262720040421
 20
103.5326985418252
 30
0.0
 10
95.95262720040421
 20
102.9473768188812
 30
0.0
 10
96.59083113904674
 20
102.8801974569189
 30
0.0
 10
97.04902883858497
 20
102.8801974569189
 30
0.0
 10
97.04902883858497
 20
102.8801974569189
 30
0.0
 10
97.04902883858497
 20
102.8874321574379
 30
0.0
 10
97.04902883858497
 20
102.8874321574379
 30
0.0
 10
96.7811726646068
 20
102.9966416843203
 30
0.0
 10
96.6507758004901
 20
103.2433105210642
 30
0.0
 10
96.6507758004901
 20
103.5292534463399
 30
0.0
 10
96.6507758004901
 20
104.0122558333719
 30
0.0
 10
96.99270152740114
 20
104.2768391666391
 30
0.0
 10
97.45813392745839
 20
104.2768391666391
 30
0.0
 10
97.92356632751564
 20
104.2768391666391
 30
0.0
 10
98.28667939166097
 20
103.9874511458781
 30
0.0
 10
98.28667939166097
 20
103.5078938543314
 30
0.0
 10
98.28667939166097
 20
102.8274874959945
 30
0.0
 10
97.72254500595132
 20
102.633528620175
 30
0.0
 10
97.13722328300736
 20
102.633528620175
 30
0.0
 10
96.51314423585436
 20
102.633528620175
 30
0.0
 10
95.74109833760987
 20
102.7320583510531
 30
0.0
 10
95.74109833760987
 20
103.5220187458209
 30
0.0
 10
95.74109833760987
 20
103.9206162934643
 30
0.0
 10
95.94194740439994
 20
104.2375650781073
 30
0.0
 10
96.36517738476287
 20
104.2447997786263
 30
0.0
  0
SPLINE
  5
5E7
330
5E0
100
AcDbEntity
  8
TEXT
100
AcDbSpline
210
0.0
220
0.0
230
1.0
 70
    11
 71
     3
 72
    17
 73
    13
 74
     0
 42
0.0000000001
 43
0.0000000001
 40
0.0
 40
0.0
 40
0.0
 40
0.0
 40
1.0
 40
1.0
 40
1.0
 40
2.0
 40
2.0
 40
2.0
 40
3.0
 40
3.0
 40
3.0
 40
4.0
 40
4.0
 40
4.0
 40
4.0
 10
97.48982880592268
 20
102.9229166409359
 30
0.0
 10
97.79661455888419
 20
102.9229166409359
 30
0.0
 10
98.07515052886663
 20
103.1551160766418
 30
0.0
 10
98.07515052886663
 20
103.4727538803818
 30
0.0
 10
98.07515052886663
 20
103.8324218490419
 30
0.0
 10
97.81780189611847
 20
104.0298258203467
 30
0.0
 10
97.4722588189479
 20
104.0298258203467
 30
0.0
 10
97.15134817449689
 20
104.0298258203467
 30
0.0
 10
96.84456242153539
 20
103.881686714481
 30
0.0
 10
96.84456242153539
 20
103.5185736503356
 30
0.0
 10
96.84456242153539
 20
103.1306558986965
 30
0.0
 10
97.12671574177736
 20
102.9229166409359
 30
0.0
 10
97.48982880592268
 20
102.9229166409359
 30
0.0
  0
HATCH
  5
5E8
330
5E0
100
AcDbEntity
  8
TEXT
 62
     7
100
AcDbHatch
 10
0.0
 20
0.0
 30
0.0
210
0.0
220
0.0
230
1.0
  2
SOLID
 70
     1
 71
     0
 91
        2
 92
        1
 93
        1
 72
     4
 94
        3
 73
     0
 74
     1
 95
       35
 96
       31
 40
0.0
 40
0.0
 40
0.0
 40
0.0
 40
1.0
 40
1.0
 40
1.0
 40
2.0
 40
2.0
 40
2.0
 40
3.0
 40
3.0
 40
3.0
 40
4.0
 40
4.0
 40
4.0
 40
5.0
 40
5.0
 40
5.0
 40
6.0
 40
6.0
 40
6.0
 40
7.0
 40
7.0
 40
7.0
 40
8.0
 40
8.0
 40
8.0
 40
9.0
 40
9.0
 40
9.0
 40
10.0
 40
10.0
 40
10.0
 40
10.0
 10
96.36517738476287
 20
104.2447997786263
 10
96.36517738476287
 20
104.2447997786263
 10
96.36517738476287
 20
103.9981309418824
 10
96.36517738476287
 20
103.9981309418824
 10
96.11127384749996
 20
103.9874511458781
 10
95.95262720040421
 20
103.7828124740543
 10
95.95262720040421
 20
103.5326985418252
 10
95.95262720040421
 20
102.9473768188812
 10
96.59083113904674
 20
102.8801974569189
 10
97.04902883858497
 20
102.8801974569189
 10
97.04902883858497
 20
102.8801974569189
 10
97.04902883858497
 20
102.8874321574379
 10
97.04902883858497
 20
102.8874321574379
 10
96.7811726646068
 20
102.9966416843203
 10
96.6507758004901
 20
103.2433105210642
 10
96.6507758004901
 20
103.5292534463399
 10
96.6507758004901
 20
104.0122558333719
 10
96.99270152740114
 20
104.2768391666391
 10
97.45813392745839
 20
104.2768391666391
 10
97.92356632751564
 20
104.2768391666391
 10
98.28667939166097
 20
103.9874511458781
 10
98.28667939166097
 20
103.5078938543314
 10
98.28667939166097
 20
102.8274874959945
 10
97.72254500595132
 20
102.633528620175
 10
97.13722328300736
 20
102.633528620175
 10
96.51314423585436
 20
102.633528620175
 10
95.74109833760987
 20
102.7320583510531
 10
95.74109833760987
 20
103.5220187458209
 10
95.74109833760987
 20
103.9206162934643
 10
95.94194740439994
 20
104.2375650781073
 10
96.36517738476287
 20
104.2447997786263
 97
        0
 92
        1
 93
        1
 72
     4
 94
        3
 73
     0
 74
     1
 95
       17
 96
       13
 40
0.0
 40
0.0
 40
0.0
 40
0.0
 40
1.0
 40
1.0
 40
1.0
 40
2.0
 40
2.0
 40
2.0
 40
3.0
 40
3.0
 40
3.0
 40
4.0
 40
4.0
 40
4.0
 40
4.0
 10
97.48982880592268
 20
102.9229166409359
 10
97.79661455888419
 20
102.9229166409359
 10
98.07515052886663
 20
103.1551160766418
 10
98.07515052886663
 20
103.4727538803818
 10
98.07515052886663
 20
103.8324218490419
 10
97.81780189611847
 20
104.0298258203467
 10
97.4722588189479
 20
104.0298258203467
 10
97.15134817449689
 20
104.0298258203467
 10
96.84456242153539
 20
103.881686714481
 10
96.84456242153539
 20
103.5185736503356
 10
96.84456242153539
 20
103.1306558986965
 10
97.12671574177736
 20
102.9229166409359
 10
97.48982880592268
 20
102.9229166409359
 97
        0
 75
     2
 76
     1
 98
        0
  0
POLYLINE
  5
5E9
330
5E0
100
AcDbEntity
  8
TEXT
100
AcDb2dPolyline
 66
     1
 10
0.0
 20
0.0
 30
0.0
  0
VERTEX
  5
5EA
330
5E9
100
AcDbEntity
  8
TEXT
100
AcDbVertex
100
AcDb2dVertex
 10
97.94819876023517
 20
105.0816134719935
 30
0.0
  0
VERTEX
  5
5EB
330
5E9
100
AcDbEntity
  8
TEXT
100
AcDbVertex
100
AcDb2dVertex
 10
98.67097979304059
 20
104.8277099347306
 30
0.0
  0
VERTEX
  5
5EC
330
5E9
100
AcDbEntity
  8
TEXT
100
AcDbVertex
100
AcDb2dVertex
 10
98.67097979304059
 20
104.6444308549153
 30
0.0
  0
VERTEX
  5
5ED
330
5E9
100
AcDbEntity
  8
TEXT
100
AcDbVertex
100
AcDb2dVertex
 10
97.94819876023517
 20
104.7960150562663
 30
0.0
  0
VERTEX
  5
5EE
330
5E9
100
AcDbEntity
  8
TEXT
100
AcDbVertex
100
AcDb2dVertex
 10
97.94819876023517
 20
105.0816134719935
 30
0.0
  0
SEQEND
  5
5EF
330
5E9
100
AcDbEntity
  8
TEXT
  0
HATCH
  5
5F0
330
5E0
100
AcDbEntity
  8
TEXT
 62
     7
100
AcDbHatch
 10
0.0
 20
0.0
 30
0.0
210
0.0
220
0.0
230
1.0
  2
SOLID
 70
     1
 71
     0
 91
        1
 92
        1
 93
        4
 72
     1
 10
97.94819876023517
 20
105.0816134719935
 11
98.67097979304059
 21
104.8277099347306
 72
     1
 10
98.67097979304059
 20
104.8277099347306
 11
98.67097979304059
 21
104.6444308549153
 72
     1
 10
98.67097979304059
 20
104.6444308549153
 11
97.94819876023517
 21
104.7960150562663
 72
     1
 10
97.94819876023517
 20
104.7960150562663
 11
97.94819876023517
 21
105.0816134719935
 97
        0
 75
     2
 76
     1
 98
        0
  0
SPLINE
  5
5F1
330
5E0
100
AcDbEntity
  8
TEXT
100
AcDbSpline
210
0.0
220
0.0
230
1.0
 70
    11
 71
     3
 72
    53
 73
    49
 74
     0
 42
0.0000000001
 43
0.0000000001
 40
0.0
 40
0.0
 40
0.0
 40
0.0
 40
1.0
 40
1.0
 40
1.0
 40
2.0
 40
2.0
 40
2.0
 40
3.0
 40
3.0
 40
3.0
 40
4.0
 40
4.0
 40
4.0
 40
5.0
 40
5.0
 40
5.0
 40
6.0
 40
6.0
 40
6.0
 40
7.0
 40
7.0
 40
7.0
 40
8.0
 40
8.0
 40
8.0
 40
9.0
 40
9.0
 40
9.0
 40
10.0
 40
10.0
 40
10.0
 40
11.0
 40
11.0
 40
11.0
 40
12.0
 40
12.0
 40
12.0
 40
13.0
 40
13.0
 40
13.0
 40
14.0
 40
14.0
 40
14.0
 40
15.0
 40
15.0
 40
15.0
 40
16.0
 40
16.0
 40
16.0
 40
16.0
 10
95.79398055330846
 20
105.7413492574188
 30
0.0
 10
95.79398055330846
 20
105.7413492574188
 30
0.0
 10
95.79398055330846
 20
107.0845919871177
 30
0.0
 10
95.79398055330846
 20
107.0845919871177
 30
0.0
 10
95.79398055330846
 20
107.0845919871177
 30
0.0
 10
96.0055094161028
 20
107.0845919871177
 30
0.0
 10
96.0055094161028
 20
107.0845919871177
 30
0.0
 10
96.0055094161028
 20
107.0845919871177
 30
0.0
 10
96.0055094161028
 20
105.9601128207322
 30
0.0
 10
96.0055094161028
 20
105.9601128207322
 30
0.0
 10
96.0055094161028
 20
105.9601128207322
 30
0.0
 10
96.87642955477395
 20
105.9211832417489
 30
0.0
 10
96.87642955477395
 20
105.9211832417489
 30
0.0
 10
96.87642955477395
 20
105.9211832417489
 30
0.0
 10
96.88331974574446
 20
105.9284179422679
 30
0.0
 10
96.88331974574446
 20
105.9284179422679
 30
0.0
 10
96.7246730986487
 20
106.0655327425808
 30
0.0
 10
96.62597111299628
 20
106.2453667269109
 30
0.0
 10
96.62597111299628
 20
106.4641302902242
 30
0.0
 10
96.62597111299628
 20
106.922672499311
 30
0.0
 10
97.00320906863115
 20
107.2079264054897
 30
0.0
 10
97.44056394048361
 20
107.2079264054897
 30
0.0
 10
97.90944143602611
 20
107.2079264054897
 30
0.0
 10
98.28667939166097
 20
106.9082030982729
 30
0.0
 10
98.28667939166097
 20
106.4252007112409
 30
0.0
 10
98.28667939166097
 20
106.0128227816565
 30
0.0
 10
98.09633786610092
 20
105.6497097175112
 30
0.0
 10
97.63435056152892
 20
105.6355848260217
 30
0.0
 10
97.63435056152892
 20
105.6355848260217
 30
0.0
 10
97.63435056152892
 20
105.8822536627655
 30
0.0
 10
97.63435056152892
 20
105.8822536627655
 30
0.0
 10
97.92701142300089
 20
105.8967230638036
 30
0.0
 10
98.07515052886663
 20
106.1220323085389
 30
0.0
 10
98.07515052886663
 20
106.4007405332956
 30
0.0
 10
98.07515052886663
 20
106.7814235844158
 30
0.0
 10
97.78248966739466
 20
106.9612575687458
 30
0.0
 10
97.42988414447935
 20
106.9612575687458
 30
0.0
 10
97.07727862156402
 20
106.9612575687458
 30
0.0
 10
96.83749997579064
 20
106.7814235844158
 30
0.0
 10
96.83749997579064
 20
106.4148654247852
 30
0.0
 10
96.83749997579064
 20
106.1819769699823
 30
0.0
 10
96.97857663591161
 20
105.9704481071879
 30
0.0
 10
97.20784774045498
 20
105.9211832417489
 30
0.0
 10
97.20784774045498
 20
105.9211832417489
 30
0.0
 10
97.20784774045498
 20
105.6851942010093
 30
0.0
 10
97.20784774045498
 20
105.6851942010093
 30
0.0
 10
97.20784774045498
 20
105.6851942010093
 30
0.0
 10
95.79398055330846
 20
105.7413492574188
 30
0.0
 10
95.79398055330846
 20
105.7413492574188
 30
0.0
  0
HATCH
  5
5F2
330
5E0
100
AcDbEntity
  8
TEXT
 62
     7
100
AcDbHatch
 10
0.0
 20
0.0
 30
0.0
210
0.0
220
0.0
230
1.0
  2
SOLID
 70
     1
 71
     0
 91
        1
 92
        1
 93
        1
 72
     4
 94
        3
 73
     0
 74
     1
 95
       53
 96
       49
 40
0.0
 40
0.0
 40
0.0
 40
0.0
 40
1.0
 40
1.0
 40
1.0
 40
2.0
 40
2.0
 40
2.0
 40
3.0
 40
3.0
 40
3.0
 40
4.0
 40
4.0
 40
4.0
 40
5.0
 40
5.0
 40
5.0
 40
6.0
 40
6.0
 40
6.0
 40
7.0
 40
7.0
 40
7.0
 40
8.0
 40
8.0
 40
8.0
 40
9.0
 40
9.0
 40
9.0
 40
10.0
 40
10.0
 40
10.0
 40
11.0
 40
11.0
 40
11.0
 40
12.0
 40
12.0
 40
12.0
 40
13.0
 40
13.0
 40
13.0
 40
14.0
 40
14.0
 40
14.0
 40
15.0
 40
15.0
 40
15.0
 40
16.0
 40
16.0
 40
16.0
 40
16.0
 10
95.79398055330846
 20
105.7413492574188
 10
95.79398055330846
 20
105.7413492574188
 10
95.79398055330846
 20
107.0845919871177
 10
95.79398055330846
 20
107.0845919871177
 10
95.79398055330846
 20
107.0845919871177
 10
96.0055094161028
 20
107.0845919871177
 10
96.0055094161028
 20
107.0845919871177
 10
96.0055094161028
 20
107.0845919871177
 10
96.0055094161028
 20
105.9601128207322
 10
96.0055094161028
 20
105.9601128207322
 10
96.0055094161028
 20
105.9601128207322
 10
96.87642955477395
 20
105.9211832417489
 10
96.87642955477395
 20
105.9211832417489
 10
96.87642955477395
 20
105.9211832417489
 10
96.88331974574446
 20
105.9284179422679
 10
96.88331974574446
 20
105.9284179422679
 10
96.7246730986487
 20
106.0655327425808
 10
96.62597111299628
 20
106.2453667269109
 10
96.62597111299628
 20
106.4641302902242
 10
96.62597111299628
 20
106.922672499311
 10
97.00320906863115
 20
107.2079264054897
 10
97.44056394048361
 20
107.2079264054897
 10
97.90944143602611
 20
107.2079264054897
 10
98.28667939166097
 20
106.9082030982729
 10
98.28667939166097
 20
106.4252007112409
 10
98.28667939166097
 20
106.0128227816565
 10
98.09633786610092
 20
105.6497097175112
 10
97.63435056152892
 20
105.6355848260217
 10
97.63435056152892
 20
105.6355848260217
 10
97.63435056152892
 20
105.8822536627655
 10
97.63435056152892
 20
105.8822536627655
 10
97.92701142300089
 20
105.8967230638036
 10
98.07515052886663
 20
106.1220323085389
 10
98.07515052886663
 20
106.4007405332956
 10
98.07515052886663
 20
106.7814235844158
 10
97.78248966739466
 20
106.9612575687458
 10
97.42988414447935
 20
106.9612575687458
 10
97.07727862156402
 20
106.9612575687458
 10
96.83749997579064
 20
106.7814235844158
 10
96.83749997579064
 20
106.4148654247852
 10
96.83749997579064
 20
106.1819769699823
 10
96.97857663591161
 20
105.9704481071879
 10
97.20784774045498
 20
105.9211832417489
 10
97.20784774045498
 20
105.9211832417489
 10
97.20784774045498
 20
105.6851942010093
 10
97.20784774045498
 20
105.6851942010093
 10
97.20784774045498
 20
105.6851942010093
 10
95.79398055330846
 20
105.7413492574188
 10
95.79398055330846
 20
105.7413492574188
 97
        0
 75
     2
 76
     1
 98
        0
  0
SPLINE
  5
5F3
330
5E0
100
AcDbEntity
  8
TEXT
100
AcDbSpline
210
0.0
220
0.0
230
1.0
 70
    11
 71
     3
 72
    53
 73
    49
 74
     0
 42
0.0000000001
 43
0.0000000001
 40
0.0
 40
0.0
 40
0.0
 40
0.0
 40
1.0
 40
1.0
 40
1.0
 40
2.0
 40
2.0
 40
2.0
 40
3.0
 40
3.0
 40
3.0
 40
4.0
 40
4.0
 40
4.0
 40
5.0
 40
5.0
 40
5.0
 40
6.0
 40
6.0
 40
6.0
 40
7.0
 40
7.0
 40
7.0
 40
8.0
 40
8.0
 40
8.0
 40
9.0
 40
9.0
 40
9.0
 40
10.0
 40
10.0
 40
10.0
 40
11.0
 40
11.0
 40
11.0
 40
12.0
 40
12.0
 40
12.0
 40
13.0
 40
13.0
 40
13.0
 40
14.0
 40
14.0
 40
14.0
 40
15.0
 40
15.0
 40
15.0
 40
16.0
 40
16.0
 40
16.0
 40
16.0
 10
95.79398055330846
 20
107.7026421171716
 30
0.0
 10
95.79398055330846
 20
107.7026421171716
 30
0.0
 10
95.79398055330846
 20
109.046229356419
 30
0.0
 10
95.79398055330846
 20
109.046229356419
 30
0.0
 10
95.79398055330846
 20
109.046229356419
 30
0.0
 10
96.0055094161028
 20
109.046229356419
 30
0.0
 10
96.0055094161028
 20
109.046229356419
 30
0.0
 10
96.0055094161028
 20
109.046229356419
 30
0.0
 10
96.0055094161028
 20
107.9214056804849
 30
0.0
 10
96.0055094161028
 20
107.9214056804849
 30
0.0
 10
96.0055094161028
 20
107.9214056804849
 30
0.0
 10
96.87642955477395
 20
107.8824761015016
 30
0.0
 10
96.87642955477395
 20
107.8824761015016
 30
0.0
 10
96.87642955477395
 20
107.8824761015016
 30
0.0
 10
96.88331974574446
 20
107.8897108020206
 30
0.0
 10
96.88331974574446
 20
107.8897108020206
 30
0.0
 10
96.7246730986487
 20
108.0271701118821
 30
0.0
 10
96.62597111299628
 20
108.2070040962121
 30
0.0
 10
96.62597111299628
 20
108.425423149977
 30
0.0
 10
96.62597111299628
 20
108.8839653590637
 30
0.0
 10
97.00320906863115
 20
109.1695637747909
 30
0.0
 10
97.44056394048361
 20
109.1695637747909
 30
0.0
 10
97.90944143602611
 20
109.1695637747909
 30
0.0
 10
98.28667939166097
 20
108.8698404675742
 30
0.0
 10
98.28667939166097
 20
108.3868380805422
 30
0.0
 10
98.28667939166097
 20
107.9741156414093
 30
0.0
 10
98.09633786610092
 20
107.6110025772639
 30
0.0
 10
97.63435056152892
 20
107.5972221953229
 30
0.0
 10
97.63435056152892
 20
107.5972221953229
 30
0.0
 10
97.63435056152892
 20
107.8438910320668
 30
0.0
 10
97.63435056152892
 20
107.8438910320668
 30
0.0
 10
97.92701142300089
 20
107.8580159235563
 30
0.0
 10
98.07515052886663
 20
108.0836696778402
 30
0.0
 10
98.07515052886663
 20
108.3620333930484
 30
0.0
 10
98.07515052886663
 20
108.743060953717
 30
0.0
 10
97.78248966739466
 20
108.9228949380471
 30
0.0
 10
97.42988414447935
 20
108.9228949380471
 30
0.0
 10
97.07727862156402
 20
108.9228949380471
 30
0.0
 10
96.83749997579064
 20
108.743060953717
 30
0.0
 10
96.83749997579064
 20
108.3765027940864
 30
0.0
 10
96.83749997579064
 20
108.1436143392835
 30
0.0
 10
96.97857663591161
 20
107.9320854764892
 30
0.0
 10
97.20784774045498
 20
107.8824761015016
 30
0.0
 10
97.20784774045498
 20
107.8824761015016
 30
0.0
 10
97.20784774045498
 20
107.646487060762
 30
0.0
 10
97.20784774045498
 20
107.646487060762
 30
0.0
 10
97.20784774045498
 20
107.646487060762
 30
0.0
 10
95.79398055330846
 20
107.7026421171716
 30
0.0
 10
95.79398055330846
 20
107.7026421171716
 30
0.0
  0
HATCH
  5
5F4
330
5E0
100
AcDbEntity
  8
TEXT
 62
     7
100
AcDbHatch
 10
0.0
 20
0.0
 30
0.0
210
0.0
220
0.0
230
1.0
  2
SOLID
 70
     1
 71
     0
 91
        1
 92
        1
 93
        1
 72
     4
 94
        3
 73
     0
 74
     1
 95
       53
 96
       49
 40
0.0
 40
0.0
 40
0.0
 40
0.0
 40
1.0
 40
1.0
 40
1.0
 40
2.0
 40
2.0
 40
2.0
 40
3.0
 40
3.0
 40
3.0
 40
4.0
 40
4.0
 40
4.0
 40
5.0
 40
5.0
 40
5.0
 40
6.0
 40
6.0
 40
6.0
 40
7.0
 40
7.0
 40
7.0
 40
8.0
 40
8.0
 40
8.0
 40
9.0
 40
9.0
 40
9.0
 40
10.0
 40
10.0
 40
10.0
 40
11.0
 40
11.0
 40
11.0
 40
12.0
 40
12.0
 40
12.0
 40
13.0
 40
13.0
 40
13.0
 40
14.0
 40
14.0
 40
14.0
 40
15.0
 40
15.0
 40
15.0
 40
16.0
 40
16.0
 40
16.0
 40
16.0
 10
95.79398055330846
 20
107.7026421171716
 10
95.79398055330846
 20
107.7026421171716
 10
95.79398055330846
 20
109.046229356419
 10
95.79398055330846
 20
109.046229356419
 10
95.79398055330846
 20
109.046229356419
 10
96.0055094161028
 20
109.046229356419
 10
96.0055094161028
 20
109.046229356419
 10
96.0055094161028
 20
109.046229356419
 10
96.0055094161028
 20
107.9214056804849
 10
96.0055094161028
 20
107.9214056804849
 10
96.0055094161028
 20
107.9214056804849
 10
96.87642955477395
 20
107.8824761015016
 10
96.87642955477395
 20
107.8824761015016
 10
96.87642955477395
 20
107.8824761015016
 10
96.88331974574446
 20
107.8897108020206
 10
96.88331974574446
 20
107.8897108020206
 10
96.7246730986487
 20
108.0271701118821
 10
96.62597111299628
 20
108.2070040962121
 10
96.62597111299628
 20
108.425423149977
 10
96.62597111299628
 20
108.8839653590637
 10
97.00320906863115
 20
109.1695637747909
 10
97.44056394048361
 20
109.1695637747909
 10
97.90944143602611
 20
109.1695637747909
 10
98.28667939166097
 20
108.8698404675742
 10
98.28667939166097
 20
108.3868380805422
 10
98.28667939166097
 20
107.9741156414093
 10
98.09633786610092
 20
107.6110025772639
 10
97.63435056152892
 20
107.5972221953229
 10
97.63435056152892
 20
107.5972221953229
 10
97.63435056152892
 20
107.8438910320668
 10
97.63435056152892
 20
107.8438910320668
 10
97.92701142300089
 20
107.8580159235563
 10
98.07515052886663
 20
108.0836696778402
 10
98.07515052886663
 20
108.3620333930484
 10
98.07515052886663
 20
108.743060953717
 10
97.78248966739466
 20
108.9228949380471
 10
97.42988414447935
 20
108.9228949380471
 10
97.07727862156402
 20
108.9228949380471
 10
96.83749997579064
 20
108.743060953717
 10
96.83749997579064
 20
108.3765027940864
 10
96.83749997579064
 20
108.1436143392835
 10
96.97857663591161
 20
107.9320854764892
 10
97.20784774045498
 20
107.8824761015016
 10
97.20784774045498
 20
107.8824761015016
 10
97.20784774045498
 20
107.646487060762
 10
97.20784774045498
 20
107.646487060762
 10
97.20784774045498
 20
107.646487060762
 10
95.79398055330846
 20
107.7026421171716
 10
95.79398055330846
 20
107.7026421171716
 97
        0
 75
     2
 76
     1
 98
        0
  0
ENDBLK
  5
5E3
330
5E0
100
AcDbEntity
  8
0
100
AcDbBlockEnd
  0
BLOCK
  5
5F7
330
5F5
100
AcDbEntity
  8
0
100
AcDbBlockBegin
  2
BLOCK_7
 70
     0
 71
     0
 10
0.0
 20
0.0
 30
0.0
  3
BLOCK_7
  1

  0
SPLINE
  5
5F9
330
5F5
100
AcDbEntity
  8
TEXT
100
AcDbSpline
210
0.0
220
0.0
230
1.0
 70
    11
 71
     3
 72
    35
 73
    31
 74
     0
 42
0.0000000001
 43
0.0000000001
 40
0.0
 40
0.0
 40
0.0
 40
0.0
 40
1.0
 40
1.0
 40
1.0
 40
2.0
 40
2.0
 40
2.0
 40
3.0
 40
3.0
 40
3.0
 40
4.0
 40
4.0
 40
4.0
 40
5.0
 40
5.0
 40
5.0
 40
6.0
 40
6.0
 40
6.0
 40
7.0
 40
7.0
 40
7.0
 40
8.0
 40
8.0
 40
8.0
 40
9.0
 40
9.0
 40
9.0
 40
10.0
 40
10.0
 40
10.0
 40
10.0
 10
80.61867945033144
 20
118.3700357776992
 30
0.0
 10
80.84726153577778
 20
118.1447265329638
 30
0.0
 10
81.08841821974526
 20
118.2088053089895
 30
0.0
 10
81.30580374486452
 20
118.4151665285559
 30
0.0
 10
81.7095689357358
 20
118.7989501656128
 30
0.0
 10
81.21364744063409
 20
119.4073540283079
 30
0.0
 10
80.9587103747256
 20
119.6757269666088
 30
0.0
 10
80.9587103747256
 20
119.6757269666088
 30
0.0
 10
80.95354273149773
 20
119.6709038329295
 30
0.0
 10
80.95354273149773
 20
119.6709038329295
 30
0.0
 10
81.02933483217322
 20
119.4173448052151
 30
0.0
 10
80.9476860691728
 20
119.1500053955597
 30
0.0
 10
80.74321965212323
 20
118.9557020101916
 30
0.0
 10
80.4236870458663
 20
118.6518445883926
 30
0.0
 10
79.98064776646318
 20
118.6732041804011
 30
0.0
 10
79.67937416627808
 20
118.9901529650441
 30
0.0
 10
79.35880803137557
 20
119.3274278130501
 30
0.0
 10
79.35260685950213
 20
119.7790798311663
 30
0.0
 10
79.69522160551023
 20
120.1046413545225
 30
0.0
 10
80.20888534236097
 20
120.5928113847824
 30
0.0
 10
80.73684622547552
 20
120.2675943709748
 30
0.0
 10
81.15473630783632
 20
119.8280001870569
 30
0.0
 10
81.60638832595258
 20
119.3525770100924
 30
0.0
 10
81.97036266396921
 20
118.754508433853
 30
0.0
 10
81.40536700438824
 20
118.2177625572511
 30
0.0
 10
81.0910020413592
 20
117.91907277868
 30
0.0
 10
80.72995603450501
 20
117.940776880237
 30
0.0
 10
80.43970673987272
 20
118.2001925702763
 30
0.0
 10
80.43970673987272
 20
118.2001925702763
 30
0.0
 10
80.61867945033144
 20
118.3700357776992
 30
0.0
 10
80.61867945033144
 20
118.3700357776992
 30
0.0
  0
SPLINE
  5
5FA
330
5F5
100
AcDbEntity
  8
TEXT
100
AcDbSpline
210
0.0
220
0.0
230
1.0
 70
    11
 71
     3
 72
    17
 73
    13
 74
     0
 42
0.0000000001
 43
0.0000000001
 40
0.0
 40
0.0
 40
0.0
 40
0.0
 40
1.0
 40
1.0
 40
1.0
 40
2.0
 40
2.0
 40
2.0
 40
3.0
 40
3.0
 40
3.0
 40
4.0
 40
4.0
 40
4.0
 40
4.0
 10
79.87023245616092
 20
119.1472493191715
 30
0.0
 10
80.09140758631396
 20
118.9147053739172
 30
0.0
 10
80.39250893172479
 20
118.8895561768748
 30
0.0
 10
80.62505287697915
 20
119.1107313070279
 30
0.0
 10
80.87051593030321
 20
119.3436197618308
 30
0.0
 10
80.88670787908389
 20
119.6901963676469
 30
0.0
 10
80.65364716950673
 20
119.9354871661967
 30
0.0
 10
80.422825771995
 20
120.1783663979068
 30
0.0
 10
80.08623994308608
 20
120.1842230602317
 30
0.0
 10
79.84353296615024
 20
119.95340166272
 30
0.0
 10
79.58015541630289
 20
119.7032877304909
 30
0.0
 10
79.63717174658376
 20
119.3925401177213
 30
0.0
 10
79.87023245616092
 20
119.1472493191715
 30
0.0
  0
HATCH
  5
5FB
330
5F5
100
AcDbEntity
  8
TEXT
 62
     7
100
AcDbHatch
 10
0.0
 20
0.0
 30
0.0
210
0.0
220
0.0
230
1.0
  2
SOLID
 70
     1
 71
     0
 91
        2
 92
        1
 93
        1
 72
     4
 94
        3
 73
     0
 74
     1
 95
       35
 96
       31
 40
0.0
 40
0.0
 40
0.0
 40
0.0
 40
1.0
 40
1.0
 40
1.0
 40
2.0
 40
2.0
 40
2.0
 40
3.0
 40
3.0
 40
3.0
 40
4.0
 40
4.0
 40
4.0
 40
5.0
 40
5.0
 40
5.0
 40
6.0
 40
6.0
 40
6.0
 40
7.0
 40
7.0
 40
7.0
 40
8.0
 40
8.0
 40
8.0
 40
9.0
 40
9.0
 40
9.0
 40
10.0
 40
10.0
 40
10.0
 40
10.0
 10
80.61867945033144
 20
118.3700357776992
 10
80.84726153577778
 20
118.1447265329638
 10
81.08841821974526
 20
118.2088053089895
 10
81.30580374486452
 20
118.4151665285559
 10
81.7095689357358
 20
118.7989501656128
 10
81.21364744063409
 20
119.4073540283079
 10
80.9587103747256
 20
119.6757269666088
 10
80.9587103747256
 20
119.6757269666088
 10
80.95354273149773
 20
119.6709038329295
 10
80.95354273149773
 20
119.6709038329295
 10
81.02933483217322
 20
119.4173448052151
 10
80.9476860691728
 20
119.1500053955597
 10
80.74321965212323
 20
118.9557020101916
 10
80.4236870458663
 20
118.6518445883926
 10
79.98064776646318
 20
118.6732041804011
 10
79.67937416627808
 20
118.9901529650441
 10
79.35880803137557
 20
119.3274278130501
 10
79.35260685950213
 20
119.7790798311663
 10
79.69522160551023
 20
120.1046413545225
 10
80.20888534236097
 20
120.5928113847824
 10
80.73684622547552
 20
120.2675943709748
 10
81.15473630783632
 20
119.8280001870569
 10
81.60638832595258
 20
119.3525770100924
 10
81.97036266396921
 20
118.754508433853
 10
81.40536700438824
 20
118.2177625572511
 10
81.0910020413592
 20
117.91907277868
 10
80.72995603450501
 20
117.940776880237
 10
80.43970673987272
 20
118.2001925702763
 10
80.43970673987272
 20
118.2001925702763
 10
80.61867945033144
 20
118.3700357776992
 10
80.61867945033144
 20
118.3700357776992
 97
        0
 92
        1
 93
        1
 72
     4
 94
        3
 73
     0
 74
     1
 95
       17
 96
       13
 40
0.0
 40
0.0
 40
0.0
 40
0.0
 40
1.0
 40
1.0
 40
1.0
 40
2.0
 40
2.0
 40
2.0
 40
3.0
 40
3.0
 40
3.0
 40
4.0
 40
4.0
 40
4.0
 40
4.0
 10
79.87023245616092
 20
119.1472493191715
 10
80.09140758631396
 20
118.9147053739172
 10
80.39250893172479
 20
118.8895561768748
 10
80.62505287697915
 20
119.1107313070279
 10
80.87051593030321
 20
119.3436197618308
 10
80.88670787908389
 20
119.6901963676469
 10
80.65364716950673
 20
119.9354871661967
 10
80.422825771995
 20
120.1783663979068
 10
80.08623994308608
 20
120.1842230602317
 10
79.84353296615024
 20
119.95340166272
 10
79.58015541630289
 20
119.7032877304909
 10
79.63717174658376
 20
119.3925401177213
 10
79.87023245616092
 20
119.1472493191715
 97
        0
 75
     2
 76
     1
 98
        0
  0
SPLINE
  5
5FC
330
5F5
100
AcDbEntity
  8
TEXT
100
AcDbSpline
210
0.0
220
0.0
230
1.0
 70
    11
 71
     3
 72
    53
 73
    49
 74
     0
 42
0.0000000001
 43
0.0000000001
 40
0.0
 40
0.0
 40
0.0
 40
0.0
 40
1.0
 40
1.0
 40
1.0
 40
2.0
 40
2.0
 40
2.0
 40
3.0
 40
3.0
 40
3.0
 40
4.0
 40
4.0
 40
4.0
 40
5.0
 40
5.0
 40
5.0
 40
6.0
 40
6.0
 40
6.0
 40
7.0
 40
7.0
 40
7.0
 40
8.0
 40
8.0
 40
8.0
 40
9.0
 40
9.0
 40
9.0
 40
10.0
 40
10.0
 40
10.0
 40
11.0
 40
11.0
 40
11.0
 40
12.0
 40
12.0
 40
12.0
 40
13.0
 40
13.0
 40
13.0
 40
14.0
 40
14.0
 40
14.0
 40
15.0
 40
15.0
 40
15.0
 40
16.0
 40
16.0
 40
16.0
 40
16.0
 10
81.77726506202096
 20
120.5511257294108
 30
0.0
 10
82.02910154199273
 20
120.7416395097452
 30
0.0
 10
82.20221759012654
 20
121.0813259245908
 30
0.0
 10
81.94951983628346
 20
121.3472872960521
 30
0.0
 10
81.75538870568963
 20
121.5519259678759
 30
0.0
 10
81.4620388251206
 20
121.4919813064326
 30
0.0
 10
81.25498858645709
 20
121.2949218446763
 30
0.0
 10
81.03019610604454
 20
121.0813259245908
 30
0.0
 10
81.00384112558238
 20
120.8325900305557
 30
0.0
 10
81.17523462597356
 20
120.6062472571748
 30
0.0
 10
81.17523462597356
 20
120.6062472571748
 30
0.0
 10
80.99626191551482
 20
120.436404049752
 30
0.0
 10
80.99626191551482
 20
120.436404049752
 30
0.0
 10
80.71204153798172
 20
120.7354383378717
 30
0.0
 10
80.81022675931133
 20
121.1643527257853
 30
0.0
 10
81.08635116245411
 20
121.4265244922128
 30
0.0
 10
81.38538545057379
 20
121.7107448697459
 30
0.0
 10
81.81274954551904
 20
121.8495822178015
 30
0.0
 10
82.13831106887515
 20
121.5071397265677
 30
0.0
 10
82.3424329763762
 20
121.2921657682881
 30
0.0
 10
82.31469995771994
 20
120.9938204992654
 30
0.0
 10
82.1569145844955
 20
120.7657551781419
 30
0.0
 10
82.1569145844955
 20
120.7657551781419
 30
0.0
 10
82.16173771817485
 20
120.7609320444625
 30
0.0
 10
82.16173771817485
 20
120.7609320444625
 30
0.0
 10
82.43286673286401
 20
120.9262966277545
 30
0.0
 10
82.7492987531842
 20
120.9200954558811
 30
0.0
 10
82.97512476224233
 20
120.6827283769474
 30
0.0
 10
83.29086776346549
 20
120.3502766626208
 30
0.0
 10
83.15185816063565
 20
119.8776095620445
 30
0.0
 10
82.85540769412991
 20
119.595800751351
 30
0.0
 10
82.5436265527148
 20
119.2995225396196
 30
0.0
 10
82.122463629643
 20
119.2206298530074
 30
0.0
 10
81.79173446305902
 20
119.5482584336546
 30
0.0
 10
81.79173446305902
 20
119.5482584336546
 30
0.0
 10
81.97053491874348
 20
119.7181016410774
 30
0.0
 10
81.97053491874348
 20
119.7181016410774
 30
0.0
 10
82.18206378153782
 20
119.5007161159582
 30
0.0
 10
82.50262991644031
 20
119.5523925482369
 30
0.0
 10
82.7070963334899
 20
119.746695933605
 30
0.0
 10
82.9422241003582
 20
119.9702826305977
 30
0.0
 10
83.0174994367109
 20
120.2799967147217
 30
0.0
 10
82.77703177184047
 20
120.532866723339
 30
0.0
 10
82.50745305011966
 20
120.8167425913236
 30
0.0
 10
82.13917234274646
 20
120.6565456512595
 30
0.0
 10
81.93022730156606
 20
120.3902397702497
 30
0.0
 10
81.93022730156606
 20
120.3902397702497
 30
0.0
 10
81.77726506202096
 20
120.5511257294108
 30
0.0
 10
81.77726506202096
 20
120.5511257294108
 30
0.0
  0
HATCH
  5
5FD
330
5F5
100
AcDbEntity
  8
TEXT
 62
     7
100
AcDbHatch
 10
0.0
 20
0.0
 30
0.0
210
0.0
220
0.0
230
1.0
  2
SOLID
 70
     1
 71
     0
 91
        1
 92
        1
 93
        1
 72
     4
 94
        3
 73
     0
 74
     1
 95
       53
 96
       49
 40
0.0
 40
0.0
 40
0.0
 40
0.0
 40
1.0
 40
1.0
 40
1.0
 40
2.0
 40
2.0
 40
2.0
 40
3.0
 40
3.0
 40
3.0
 40
4.0
 40
4.0
 40
4.0
 40
5.0
 40
5.0
 40
5.0
 40
6.0
 40
6.0
 40
6.0
 40
7.0
 40
7.0
 40
7.0
 40
8.0
 40
8.0
 40
8.0
 40
9.0
 40
9.0
 40
9.0
 40
10.0
 40
10.0
 40
10.0
 40
11.0
 40
11.0
 40
11.0
 40
12.0
 40
12.0
 40
12.0
 40
13.0
 40
13.0
 40
13.0
 40
14.0
 40
14.0
 40
14.0
 40
15.0
 40
15.0
 40
15.0
 40
16.0
 40
16.0
 40
16.0
 40
16.0
 10
81.77726506202096
 20
120.5511257294108
 10
82.02910154199273
 20
120.7416395097452
 10
82.20221759012654
 20
121.0813259245908
 10
81.94951983628346
 20
121.3472872960521
 10
81.75538870568963
 20
121.5519259678759
 10
81.4620388251206
 20
121.4919813064326
 10
81.25498858645709
 20
121.2949218446763
 10
81.03019610604454
 20
121.0813259245908
 10
81.00384112558238
 20
120.8325900305557
 10
81.17523462597356
 20
120.6062472571748
 10
81.17523462597356
 20
120.6062472571748
 10
80.99626191551482
 20
120.436404049752
 10
80.99626191551482
 20
120.436404049752
 10
80.71204153798172
 20
120.7354383378717
 10
80.81022675931133
 20
121.1643527257853
 10
81.08635116245411
 20
121.4265244922128
 10
81.38538545057379
 20
121.7107448697459
 10
81.81274954551904
 20
121.8495822178015
 10
82.13831106887515
 20
121.5071397265677
 10
82.3424329763762
 20
121.2921657682881
 10
82.31469995771994
 20
120.9938204992654
 10
82.1569145844955
 20
120.7657551781419
 10
82.1569145844955
 20
120.7657551781419
 10
82.16173771817485
 20
120.7609320444625
 10
82.16173771817485
 20
120.7609320444625
 10
82.43286673286401
 20
120.9262966277545
 10
82.7492987531842
 20
120.9200954558811
 10
82.97512476224233
 20
120.6827283769474
 10
83.29086776346549
 20
120.3502766626208
 10
83.15185816063565
 20
119.8776095620445
 10
82.85540769412991
 20
119.595800751351
 10
82.5436265527148
 20
119.2995225396196
 10
82.122463629643
 20
119.2206298530074
 10
81.79173446305902
 20
119.5482584336546
 10
81.79173446305902
 20
119.5482584336546
 10
81.97053491874348
 20
119.7181016410774
 10
81.97053491874348
 20
119.7181016410774
 10
82.18206378153782
 20
119.5007161159582
 10
82.50262991644031
 20
119.5523925482369
 10
82.7070963334899
 20
119.746695933605
 10
82.9422241003582
 20
119.9702826305977
 10
83.0174994367109
 20
120.2799967147217
 10
82.77703177184047
 20
120.532866723339
 10
82.50745305011966
 20
120.8167425913236
 10
82.13917234274646
 20
120.6565456512595
 10
81.93022730156606
 20
120.3902397702497
 10
81.93022730156606
 20
120.3902397702497
 10
81.77726506202096
 20
120.5511257294108
 10
81.77726506202096
 20
120.5511257294108
 97
        0
 75
     2
 76
     1
 98
        0
  0
SPLINE
  5
5FE
330
5F5
100
AcDbEntity
  8
TEXT
100
AcDbSpline
210
0.0
220
0.0
230
1.0
 70
    11
 71
     3
 72
    17
 73
    13
 74
     0
 42
0.0000000001
 43
0.0000000001
 40
0.0
 40
0.0
 40
0.0
 40
0.0
 40
1.0
 40
1.0
 40
1.0
 40
2.0
 40
2.0
 40
2.0
 40
3.0
 40
3.0
 40
3.0
 40
4.0
 40
4.0
 40
4.0
 40
4.0
 10
83.0988036901628
 20
121.8798990580717
 30
0.0
 10
82.88658580827142
 20
121.6783609721846
 30
0.0
 10
82.5527560557507
 20
121.6869737108977
 30
0.0
 10
82.35104571508933
 20
121.8988470832406
 30
0.0
 10
82.14933537442795
 20
122.1058973219041
 30
0.0
 10
82.15794811314107
 20
122.4448947176527
 30
0.0
 10
82.37016599503247
 20
122.6467773130883
 30
0.0
 10
82.57962780053565
 20
122.8459038321357
 30
0.0
 10
82.91862519628424
 20
122.8369465838741
 30
0.0
 10
83.11775171533168
 20
122.6274847783709
 30
0.0
 10
83.31946205599306
 20
122.4152668964795
 30
0.0
 10
83.30826549566599
 20
122.0790255771191
 30
0.0
 10
83.0988036901628
 20
121.8798990580717
 30
0.0
  0
SPLINE
  5
5FF
330
5F5
100
AcDbEntity
  8
TEXT
100
AcDbSpline
210
0.0
220
0.0
230
1.0
 70
    11
 71
     3
 72
    17
 73
    13
 74
     0
 42
0.0000000001
 43
0.0000000001
 40
0.0
 40
0.0
 40
0.0
 40
0.0
 40
1.0
 40
1.0
 40
1.0
 40
2.0
 40
2.0
 40
2.0
 40
3.0
 40
3.0
 40
3.0
 40
4.0
 40
4.0
 40
4.0
 40
4.0
 10
82.98959416328039
 20
121.994965247279
 30
0.0
 10
83.142900912374
 20
122.1403482767566
 30
0.0
 10
83.1511691415386
 20
122.3622124260067
 30
0.0
 10
83.0028577808986
 20
122.5182752514885
 30
0.0
 10
82.85713024187253
 20
122.6715820005821
 30
0.0
 10
82.63285452578276
 20
122.6770941533585
 30
0.0
 10
82.4769639550752
 20
122.5289550474928
 30
0.0
 10
82.32365720598159
 20
122.3835720180152
 30
0.0
 10
82.31780054365666
 20
122.1589517923769
 30
0.0
 10
82.46611190429667
 20
122.008056610123
 30
0.0
 10
82.61442326493668
 20
121.8523382941897
 30
0.0
 10
82.83370359257283
 20
121.8468261414133
 30
0.0
 10
82.98959416328039
 20
121.994965247279
 30
0.0
  0
HATCH
  5
600
330
5F5
100
AcDbEntity
  8
TEXT
 62
     7
100
AcDbHatch
 10
0.0
 20
0.0
 30
0.0
210
0.0
220
0.0
230
1.0
  2
SOLID
 70
     1
 71
     0
 91
        2
 92
        1
 93
        1
 72
     4
 94
        3
 73
     0
 74
     1
 95
       17
 96
       13
 40
0.0
 40
0.0
 40
0.0
 40
0.0
 40
1.0
 40
1.0
 40
1.0
 40
2.0
 40
2.0
 40
2.0
 40
3.0
 40
3.0
 40
3.0
 40
4.0
 40
4.0
 40
4.0
 40
4.0
 10
83.0988036901628
 20
121.8798990580717
 10
82.88658580827142
 20
121.6783609721846
 10
82.5527560557507
 20
121.6869737108977
 10
82.35104571508933
 20
121.8988470832406
 10
82.14933537442795
 20
122.1058973219041
 10
82.15794811314107
 20
122.4448947176527
 10
82.37016599503247
 20
122.6467773130883
 10
82.57962780053565
 20
122.8459038321357
 10
82.91862519628424
 20
122.8369465838741
 10
83.11775171533168
 20
122.6274847783709
 10
83.31946205599306
 20
122.4152668964795
 10
83.30826549566599
 20
122.0790255771191
 10
83.0988036901628
 20
121.8798990580717
 97
        0
 92
        1
 93
        1
 72
     4
 94
        3
 73
     0
 74
     1
 95
       17
 96
       13
 40
0.0
 40
0.0
 40
0.0
 40
0.0
 40
1.0
 40
1.0
 40
1.0
 40
2.0
 40
2.0
 40
2.0
 40
3.0
 40
3.0
 40
3.0
 40
4.0
 40
4.0
 40
4.0
 40
4.0
 10
82.98959416328039
 20
121.994965247279
 10
83.142900912374
 20
122.1403482767566
 10
83.1511691415386
 20
122.3622124260067
 10
83.0028577808986
 20
122.5182752514885
 10
82.85713024187253
 20
122.6715820005821
 10
82.63285452578276
 20
122.6770941533585
 10
82.4769639550752
 20
122.5289550474928
 10
82.32365720598159
 20
122.3835720180152
 10
82.31780054365666
 20
122.1589517923769
 10
82.46611190429667
 20
122.008056610123
 10
82.61442326493668
 20
121.8523382941897
 10
82.83370359257283
 20
121.8468261414133
 10
82.98959416328039
 20
121.994965247279
 97
        0
 75
     2
 76
     1
 98
        0
  0
ENDBLK
  5
5F8
330
5F5
100
AcDbEntity
  8
0
100
AcDbBlockEnd
  0
ENDSEC
  0
SECTION
  2
ENTITIES
  0
INSERT
  5
3D
330
1F
100
AcDbEntity
  8
GRAU_10_
100
AcDbBlockReference
  2
BLOCK_2
 10
0.0
 20
0.0
 30
0.0
  0
POLYLINE
  5
380
330
1F
100
AcDbEntity
  8
BEMAßUNG
 62
     7
100
AcDb2dPolyline
 66
     1
 10
0.0
 20
0.0
 30
0.0
  0
VERTEX
  5
381
330
380
100
AcDbEntity
  8
BEMAßUNG
 62
     7
100
AcDbVertex
100
AcDb2dVertex
 10
57.27281763976166
 20
102.337594917992
 30
0.0
  0
VERTEX
  5
382
330
380
100
AcDbEntity
  8
BEMAßUNG
 62
     7
100
AcDbVertex
100
AcDb2dVertex
 10
57.27281763976166
 20
127.6931531798823
 30
0.0
  0
SEQEND
  5
383
330
380
100
AcDbEntity
  8
BEMAßUNG
  0
POLYLINE
  5
384
330
1F
100
AcDbEntity
  8
BEMAßUNG
 62
     7
100
AcDb2dPolyline
 66
     1
 10
0.0
 20
0.0
 30
0.0
  0
VERTEX
  5
385
330
384
100
AcDbEntity
  8
BEMAßUNG
 62
     7
100
AcDbVertex
100
AcDb2dVertex
 10
90.21275361242945
 20
112.0231363652234
 30
0.0
  0
VERTEX
  5
386
330
384
100
AcDbEntity
  8
BEMAßUNG
 62
     7
100
AcDbVertex
100
AcDb2dVertex
 10
90.21275361242945
 20
127.6931531798823
 30
0.0
  0
SEQEND
  5
387
330
384
100
AcDbEntity
  8
BEMAßUNG
  0
POLYLINE
  5
388
330
1F
100
AcDbEntity
  8
BEMAßUNG
 62
     7
100
AcDb2dPolyline
 66
     1
 10
0.0
 20
0.0
 30
0.0
  0
VERTEX
  5
389
330
388
100
AcDbEntity
  8
BEMAßUNG
 62
     7
100
AcDbVertex
100
AcDb2dVertex
 10
57.27281763976166
 20
126.593134191442
 30
0.0
  0
VERTEX
  5
38A
330
388
100
AcDbEntity
  8
BEMAßUNG
 62
     7
100
AcDbVertex
100
AcDb2dVertex
 10
90.21275361242945
 20
126.593134191442
 30
0.0
  0
SEQEND
  5
38B
330
388
100
AcDbEntity
  8
BEMAßUNG
  0
POLYLINE
  5
38C
330
1F
100
AcDbEntity
  8
BEMAßUNG
 62
     7
100
AcDb2dPolyline
 66
     1
 10
0.0
 20
0.0
 30
0.0
  0
VERTEX
  5
38D
330
38C
100
AcDbEntity
  8
BEMAßUNG
 62
     7
100
AcDbVertex
100
AcDb2dVertex
 10
57.27281763976166
 20
126.593134191442
 30
0.0
  0
VERTEX
  5
38E
330
38C
100
AcDbEntity
  8
BEMAßUNG
 62
     7
100
AcDbVertex
100
AcDb2dVertex
 10
59.19793699691927
 20
126.3399196732761
 30
0.0
  0
VERTEX
  5
38F
330
38C
100
AcDbEntity
  8
BEMAßUNG
 62
     7
100
AcDbVertex
100
AcDb2dVertex
 10
59.19793699691927
 20
126.8468654739306
 30
0.0
  0
VERTEX
  5
390
330
38C
100
AcDbEntity
  8
BEMAßUNG
 62
     7
100
AcDbVertex
100
AcDb2dVertex
 10
57.27281763976166
 20
126.593134191442
 30
0.0
  0
SEQEND
  5
391
330
38C
100
AcDbEntity
  8
BEMAßUNG
  0
POLYLINE
  5
392
330
1F
100
AcDbEntity
  8
BEMAßUNG
 62
     7
100
AcDb2dPolyline
 66
     1
 10
0.0
 20
0.0
 30
0.0
  0
VERTEX
  5
393
330
392
100
AcDbEntity
  8
BEMAßUNG
 62
     7
100
AcDbVertex
100
AcDb2dVertex
 10
59.19793699691927
 20
126.3419867305673
 30
0.0
  0
VERTEX
  5
394
330
392
100
AcDbEntity
  8
BEMAßUNG
 62
     7
100
AcDbVertex
100
AcDb2dVertex
 10
59.18312308633269
 20
126.3419867305673
 30
0.0
  0
SEQEND
  5
395
330
392
100
AcDbEntity
  8
BEMAßUNG
  0
POLYLINE
  5
396
330
1F
100
AcDbEntity
  8
BEMAßUNG
 62
     7
100
AcDb2dPolyline
 66
     1
 10
0.0
 20
0.0
 30
0.0
  0
VERTEX
  5
397
330
396
100
AcDbEntity
  8
BEMAßUNG
 62
     7
100
AcDbVertex
100
AcDb2dVertex
 10
59.19793699691927
 20
126.3419867305673
 30
0.0
  0
VERTEX
  5
398
330
396
100
AcDbEntity
  8
BEMAßUNG
 62
     7
100
AcDbVertex
100
AcDb2dVertex
 10
59.18312308633269
 20
126.3419867305673
 30
0.0
  0
SEQEND
  5
399
330
396
100
AcDbEntity
  8
BEMAßUNG
  0
POLYLINE
  5
39A
330
1F
100
AcDbEntity
  8
BEMAßUNG
 62
     7
100
AcDb2dPolyline
 66
     1
 10
0.0
 20
0.0
 30
0.0
  0
VERTEX
  5
39B
330
39A
100
AcDbEntity
  8
BEMAßUNG
 62
     7
100
AcDbVertex
100
AcDb2dVertex
 10
59.19793699691927
 20
126.3698920039978
 30
0.0
  0
VERTEX
  5
39C
330
39A
100
AcDbEntity
  8
BEMAßUNG
 62
     7
100
AcDbVertex
100
AcDb2dVertex
 10
58.97056069489278
 20
126.3698920039978
 30
0.0
  0
SEQEND
  5
39D
330
39A
100
AcDbEntity
  8
BEMAßUNG
  0
POLYLINE
  5
39E
330
1F
100
AcDbEntity
  8
BEMAßUNG
 62
     7
100
AcDb2dPolyline
 66
     1
 10
0.0
 20
0.0
 30
0.0
  0
VERTEX
  5
39F
330
39E
100
AcDbEntity
  8
BEMAßUNG
 62
     7
100
AcDbVertex
100
AcDb2dVertex
 10
59.19793699691927
 20
126.3977972774283
 30
0.0
  0
VERTEX
  5
3A0
330
39E
100
AcDbEntity
  8
BEMAßUNG
 62
     7
100
AcDbVertex
100
AcDb2dVertex
 10
58.75834281300139
 20
126.3977972774283
 30
0.0
  0
SEQEND
  5
3A1
330
39E
100
AcDbEntity
  8
BEMAßUNG
  0
POLYLINE
  5
3A2
330
1F
100
AcDbEntity
  8
BEMAßUNG
 62
     7
100
AcDb2dPolyline
 66
     1
 10
0.0
 20
0.0
 30
0.0
  0
VERTEX
  5
3A3
330
3A2
100
AcDbEntity
  8
BEMAßUNG
 62
     7
100
AcDbVertex
100
AcDb2dVertex
 10
59.19793699691927
 20
126.4257025508589
 30
0.0
  0
VERTEX
  5
3A4
330
3A2
100
AcDbEntity
  8
BEMAßUNG
 62
     7
100
AcDbVertex
100
AcDb2dVertex
 10
58.54612493111
 20
126.4257025508589
 30
0.0
  0
SEQEND
  5
3A5
330
3A2
100
AcDbEntity
  8
BEMAßUNG
  0
POLYLINE
  5
3A6
330
1F
100
AcDbEntity
  8
BEMAßUNG
 62
     7
100
AcDb2dPolyline
 66
     1
 10
0.0
 20
0.0
 30
0.0
  0
VERTEX
  5
3A7
330
3A6
100
AcDbEntity
  8
BEMAßUNG
 62
     7
100
AcDbVertex
100
AcDb2dVertex
 10
59.19793699691927
 20
126.4536078242894
 30
0.0
  0
VERTEX
  5
3A8
330
3A6
100
AcDbEntity
  8
BEMAßUNG
 62
     7
100
AcDbVertex
100
AcDb2dVertex
 10
58.33425155876714
 20
126.4536078242894
 30
0.0
  0
SEQEND
  5
3A9
330
3A6
100
AcDbEntity
  8
BEMAßUNG
  0
POLYLINE
  5
3AA
330
1F
100
AcDbEntity
  8
BEMAßUNG
 62
     7
100
AcDb2dPolyline
 66
     1
 10
0.0
 20
0.0
 30
0.0
  0
VERTEX
  5
3AB
330
3AA
100
AcDbEntity
  8
BEMAßUNG
 62
     7
100
AcDbVertex
100
AcDb2dVertex
 10
59.19793699691927
 20
126.4815130977199
 30
0.0
  0
VERTEX
  5
3AC
330
3AA
100
AcDbEntity
  8
BEMAßUNG
 62
     7
100
AcDbVertex
100
AcDb2dVertex
 10
58.12168916732722
 20
126.4815130977199
 30
0.0
  0
SEQEND
  5
3AD
330
3AA
100
AcDbEntity
  8
BEMAßUNG
  0
POLYLINE
  5
3AE
330
1F
100
AcDbEntity
  8
BEMAßUNG
 62
     7
100
AcDb2dPolyline
 66
     1
 10
0.0
 20
0.0
 30
0.0
  0
VERTEX
  5
3AF
330
3AE
100
AcDbEntity
  8
BEMAßUNG
 62
     7
100
AcDbVertex
100
AcDb2dVertex
 10
59.19793699691927
 20
126.5094183711504
 30
0.0
  0
VERTEX
  5
3B0
330
3AE
100
AcDbEntity
  8
BEMAßUNG
 62
     7
100
AcDbVertex
100
AcDb2dVertex
 10
57.90947128543583
 20
126.5094183711504
 30
0.0
  0
SEQEND
  5
3B1
330
3AE
100
AcDbEntity
  8
BEMAßUNG
  0
POLYLINE
  5
3B2
330
1F
100
AcDbEntity
  8
BEMAßUNG
 62
     7
100
AcDb2dPolyline
 66
     1
 10
0.0
 20
0.0
 30
0.0
  0
VERTEX
  5
3B3
330
3B2
100
AcDbEntity
  8
BEMAßUNG
 62
     7
100
AcDbVertex
100
AcDb2dVertex
 10
59.19793699691927
 20
126.537323644581
 30
0.0
  0
VERTEX
  5
3B4
330
3B2
100
AcDbEntity
  8
BEMAßUNG
 62
     7
100
AcDbVertex
100
AcDb2dVertex
 10
57.69725340354444
 20
126.537323644581
 30
0.0
  0
SEQEND
  5
3B5
330
3B2
100
AcDbEntity
  8
BEMAßUNG
  0
POLYLINE
  5
3B6
330
1F
100
AcDbEntity
  8
BEMAßUNG
 62
     7
100
AcDb2dPolyline
 66
     1
 10
0.0
 20
0.0
 30
0.0
  0
VERTEX
  5
3B7
330
3B6
100
AcDbEntity
  8
BEMAßUNG
 62
     7
100
AcDbVertex
100
AcDb2dVertex
 10
59.19793699691927
 20
126.5652289180115
 30
0.0
  0
VERTEX
  5
3B8
330
3B6
100
AcDbEntity
  8
BEMAßUNG
 62
     7
100
AcDbVertex
100
AcDb2dVertex
 10
57.48538003120157
 20
126.5652289180115
 30
0.0
  0
SEQEND
  5
3B9
330
3B6
100
AcDbEntity
  8
BEMAßUNG
  0
POLYLINE
  5
3BA
330
1F
100
AcDbEntity
  8
BEMAßUNG
 62
     7
100
AcDb2dPolyline
 66
     1
 10
0.0
 20
0.0
 30
0.0
  0
VERTEX
  5
3BB
330
3BA
100
AcDbEntity
  8
BEMAßUNG
 62
     7
100
AcDbVertex
100
AcDb2dVertex
 10
59.19793699691927
 20
126.593134191442
 30
0.0
  0
VERTEX
  5
3BC
330
3BA
100
AcDbEntity
  8
BEMAßUNG
 62
     7
100
AcDbVertex
100
AcDb2dVertex
 10
57.27281763976166
 20
126.593134191442
 30
0.0
  0
SEQEND
  5
3BD
330
3BA
100
AcDbEntity
  8
BEMAßUNG
  0
POLYLINE
  5
3BE
330
1F
100
AcDbEntity
  8
BEMAßUNG
 62
     7
100
AcDb2dPolyline
 66
     1
 10
0.0
 20
0.0
 30
0.0
  0
VERTEX
  5
3BF
330
3BE
100
AcDbEntity
  8
BEMAßUNG
 62
     7
100
AcDbVertex
100
AcDb2dVertex
 10
59.19793699691927
 20
126.8449706714138
 30
0.0
  0
VERTEX
  5
3C0
330
3BE
100
AcDbEntity
  8
BEMAßUNG
 62
     7
100
AcDbVertex
100
AcDb2dVertex
 10
59.18312308633269
 20
126.8449706714138
 30
0.0
  0
SEQEND
  5
3C1
330
3BE
100
AcDbEntity
  8
BEMAßUNG
  0
POLYLINE
  5
3C2
330
1F
100
AcDbEntity
  8
BEMAßUNG
 62
     7
100
AcDb2dPolyline
 66
     1
 10
0.0
 20
0.0
 30
0.0
  0
VERTEX
  5
3C3
330
3C2
100
AcDbEntity
  8
BEMAßUNG
 62
     7
100
AcDbVertex
100
AcDb2dVertex
 10
59.19793699691927
 20
126.8449706714138
 30
0.0
  0
VERTEX
  5
3C4
330
3C2
100
AcDbEntity
  8
BEMAßUNG
 62
     7
100
AcDbVertex
100
AcDb2dVertex
 10
59.18312308633269
 20
126.8449706714138
 30
0.0
  0
SEQEND
  5
3C5
330
3C2
100
AcDbEntity
  8
BEMAßUNG
  0
POLYLINE
  5
3C6
330
1F
100
AcDbEntity
  8
BEMAßUNG
 62
     7
100
AcDb2dPolyline
 66
     1
 10
0.0
 20
0.0
 30
0.0
  0
VERTEX
  5
3C7
330
3C6
100
AcDbEntity
  8
BEMAßUNG
 62
     7
100
AcDbVertex
100
AcDb2dVertex
 10
59.19793699691927
 20
126.8170653979832
 30
0.0
  0
VERTEX
  5
3C8
330
3C6
100
AcDbEntity
  8
BEMAßUNG
 62
     7
100
AcDbVertex
100
AcDb2dVertex
 10
58.97056069489278
 20
126.8170653979832
 30
0.0
  0
SEQEND
  5
3C9
330
3C6
100
AcDbEntity
  8
BEMAßUNG
  0
POLYLINE
  5
3CA
330
1F
100
AcDbEntity
  8
BEMAßUNG
 62
     7
100
AcDb2dPolyline
 66
     1
 10
0.0
 20
0.0
 30
0.0
  0
VERTEX
  5
3CB
330
3CA
100
AcDbEntity
  8
BEMAßUNG
 62
     7
100
AcDbVertex
100
AcDb2dVertex
 10
59.19793699691927
 20
126.7891601245527
 30
0.0
  0
VERTEX
  5
3CC
330
3CA
100
AcDbEntity
  8
BEMAßUNG
 62
     7
100
AcDbVertex
100
AcDb2dVertex
 10
58.75834281300139
 20
126.7891601245527
 30
0.0
  0
SEQEND
  5
3CD
330
3CA
100
AcDbEntity
  8
BEMAßUNG
  0
POLYLINE
  5
3CE
330
1F
100
AcDbEntity
  8
BEMAßUNG
 62
     7
100
AcDb2dPolyline
 66
     1
 10
0.0
 20
0.0
 30
0.0
  0
VERTEX
  5
3CF
330
3CE
100
AcDbEntity
  8
BEMAßUNG
 62
     7
100
AcDbVertex
100
AcDb2dVertex
 10
59.19793699691927
 20
126.7612548511222
 30
0.0
  0
VERTEX
  5
3D0
330
3CE
100
AcDbEntity
  8
BEMAßUNG
 62
     7
100
AcDbVertex
100
AcDb2dVertex
 10
58.54612493111
 20
126.7612548511222
 30
0.0
  0
SEQEND
  5
3D1
330
3CE
100
AcDbEntity
  8
BEMAßUNG
  0
POLYLINE
  5
3D2
330
1F
100
AcDbEntity
  8
BEMAßUNG
 62
     7
100
AcDb2dPolyline
 66
     1
 10
0.0
 20
0.0
 30
0.0
  0
VERTEX
  5
3D3
330
3D2
100
AcDbEntity
  8
BEMAßUNG
 62
     7
100
AcDbVertex
100
AcDb2dVertex
 10
59.19793699691927
 20
126.7333495776917
 30
0.0
  0
VERTEX
  5
3D4
330
3D2
100
AcDbEntity
  8
BEMAßUNG
 62
     7
100
AcDbVertex
100
AcDb2dVertex
 10
58.33425155876714
 20
126.7333495776917
 30
0.0
  0
SEQEND
  5
3D5
330
3D2
100
AcDbEntity
  8
BEMAßUNG
  0
POLYLINE
  5
3D6
330
1F
100
AcDbEntity
  8
BEMAßUNG
 62
     7
100
AcDb2dPolyline
 66
     1
 10
0.0
 20
0.0
 30
0.0
  0
VERTEX
  5
3D7
330
3D6
100
AcDbEntity
  8
BEMAßUNG
 62
     7
100
AcDbVertex
100
AcDb2dVertex
 10
59.19793699691927
 20
126.7054443042611
 30
0.0
  0
VERTEX
  5
3D8
330
3D6
100
AcDbEntity
  8
BEMAßUNG
 62
     7
100
AcDbVertex
100
AcDb2dVertex
 10
58.12168916732722
 20
126.7054443042611
 30
0.0
  0
SEQEND
  5
3D9
330
3D6
100
AcDbEntity
  8
BEMAßUNG
  0
POLYLINE
  5
3DA
330
1F
100
AcDbEntity
  8
BEMAßUNG
 62
     7
100
AcDb2dPolyline
 66
     1
 10
0.0
 20
0.0
 30
0.0
  0
VERTEX
  5
3DB
330
3DA
100
AcDbEntity
  8
BEMAßUNG
 62
     7
100
AcDbVertex
100
AcDb2dVertex
 10
59.19793699691927
 20
126.6771945212821
 30
0.0
  0
VERTEX
  5
3DC
330
3DA
100
AcDbEntity
  8
BEMAßUNG
 62
     7
100
AcDbVertex
100
AcDb2dVertex
 10
57.90947128543583
 20
126.6771945212821
 30
0.0
  0
SEQEND
  5
3DD
330
3DA
100
AcDbEntity
  8
BEMAßUNG
  0
POLYLINE
  5
3DE
330
1F
100
AcDbEntity
  8
BEMAßUNG
 62
     7
100
AcDb2dPolyline
 66
     1
 10
0.0
 20
0.0
 30
0.0
  0
VERTEX
  5
3DF
330
3DE
100
AcDbEntity
  8
BEMAßUNG
 62
     7
100
AcDbVertex
100
AcDb2dVertex
 10
59.19793699691927
 20
126.6492892478516
 30
0.0
  0
VERTEX
  5
3E0
330
3DE
100
AcDbEntity
  8
BEMAßUNG
 62
     7
100
AcDbVertex
100
AcDb2dVertex
 10
57.69725340354444
 20
126.6492892478516
 30
0.0
  0
SEQEND
  5
3E1
330
3DE
100
AcDbEntity
  8
BEMAßUNG
  0
POLYLINE
  5
3E2
330
1F
100
AcDbEntity
  8
BEMAßUNG
 62
     7
100
AcDb2dPolyline
 66
     1
 10
0.0
 20
0.0
 30
0.0
  0
VERTEX
  5
3E3
330
3E2
100
AcDbEntity
  8
BEMAßUNG
 62
     7
100
AcDbVertex
100
AcDb2dVertex
 10
59.19793699691927
 20
126.6213839744211
 30
0.0
  0
VERTEX
  5
3E4
330
3E2
100
AcDbEntity
  8
BEMAßUNG
 62
     7
100
AcDbVertex
100
AcDb2dVertex
 10
57.48538003120157
 20
126.6213839744211
 30
0.0
  0
SEQEND
  5
3E5
330
3E2
100
AcDbEntity
  8
BEMAßUNG
  0
POLYLINE
  5
3E6
330
1F
100
AcDbEntity
  8
BEMAßUNG
 62
     7
100
AcDb2dPolyline
 66
     1
 10
0.0
 20
0.0
 30
0.0
  0
VERTEX
  5
3E7
330
3E6
100
AcDbEntity
  8
BEMAßUNG
 62
     7
100
AcDbVertex
100
AcDb2dVertex
 10
59.19793699691927
 20
126.593134191442
 30
0.0
  0
VERTEX
  5
3E8
330
3E6
100
AcDbEntity
  8
BEMAßUNG
 62
     7
100
AcDbVertex
100
AcDb2dVertex
 10
57.27281763976166
 20
126.593134191442
 30
0.0
  0
SEQEND
  5
3E9
330
3E6
100
AcDbEntity
  8
BEMAßUNG
  0
POLYLINE
  5
3EA
330
1F
100
AcDbEntity
  8
BEMAßUNG
 62
     7
100
AcDb2dPolyline
 66
     1
 10
0.0
 20
0.0
 30
0.0
  0
VERTEX
  5
3EB
330
3EA
100
AcDbEntity
  8
BEMAßUNG
 62
     7
100
AcDbVertex
100
AcDb2dVertex
 10
90.21275361242945
 20
126.593134191442
 30
0.0
  0
VERTEX
  5
3EC
330
3EA
100
AcDbEntity
  8
BEMAßUNG
 62
     7
100
AcDbVertex
100
AcDb2dVertex
 10
88.28763425527184
 20
126.8468654739306
 30
0.0
  0
VERTEX
  5
3ED
330
3EA
100
AcDbEntity
  8
BEMAßUNG
 62
     7
100
AcDbVertex
100
AcDb2dVertex
 10
88.28763425527184
 20
126.3399196732761
 30
0.0
  0
VERTEX
  5
3EE
330
3EA
100
AcDbEntity
  8
BEMAßUNG
 62
     7
100
AcDbVertex
100
AcDb2dVertex
 10
90.21275361242945
 20
126.593134191442
 30
0.0
  0
SEQEND
  5
3EF
330
3EA
100
AcDbEntity
  8
BEMAßUNG
  0
POLYLINE
  5
3F0
330
1F
100
AcDbEntity
  8
BEMAßUNG
 62
     7
100
AcDb2dPolyline
 66
     1
 10
0.0
 20
0.0
 30
0.0
  0
VERTEX
  5
3F1
330
3F0
100
AcDbEntity
  8
BEMAßUNG
 62
     7
100
AcDbVertex
100
AcDb2dVertex
 10
88.28763425527184
 20
126.8449706714138
 30
0.0
  0
VERTEX
  5
3F2
330
3F0
100
AcDbEntity
  8
BEMAßUNG
 62
     7
100
AcDbVertex
100
AcDb2dVertex
 10
88.30262042063268
 20
126.8449706714138
 30
0.0
  0
SEQEND
  5
3F3
330
3F0
100
AcDbEntity
  8
BEMAßUNG
  0
POLYLINE
  5
3F4
330
1F
100
AcDbEntity
  8
BEMAßUNG
 62
     7
100
AcDb2dPolyline
 66
     1
 10
0.0
 20
0.0
 30
0.0
  0
VERTEX
  5
3F5
330
3F4
100
AcDbEntity
  8
BEMAßUNG
 62
     7
100
AcDbVertex
100
AcDb2dVertex
 10
88.28763425527184
 20
126.8449706714138
 30
0.0
  0
VERTEX
  5
3F6
330
3F4
100
AcDbEntity
  8
BEMAßUNG
 62
     7
100
AcDbVertex
100
AcDb2dVertex
 10
88.30262042063268
 20
126.8449706714138
 30
0.0
  0
SEQEND
  5
3F7
330
3F4
100
AcDbEntity
  8
BEMAßUNG
  0
POLYLINE
  5
3F8
330
1F
100
AcDbEntity
  8
BEMAßUNG
 62
     7
100
AcDb2dPolyline
 66
     1
 10
0.0
 20
0.0
 30
0.0
  0
VERTEX
  5
3F9
330
3F8
100
AcDbEntity
  8
BEMAßUNG
 62
     7
100
AcDbVertex
100
AcDb2dVertex
 10
88.28763425527184
 20
126.8170653979832
 30
0.0
  0
VERTEX
  5
3FA
330
3F8
100
AcDbEntity
  8
BEMAßUNG
 62
     7
100
AcDbVertex
100
AcDb2dVertex
 10
88.51501055729834
 20
126.8170653979832
 30
0.0
  0
SEQEND
  5
3FB
330
3F8
100
AcDbEntity
  8
BEMAßUNG
  0
POLYLINE
  5
3FC
330
1F
100
AcDbEntity
  8
BEMAßUNG
 62
     7
100
AcDb2dPolyline
 66
     1
 10
0.0
 20
0.0
 30
0.0
  0
VERTEX
  5
3FD
330
3FC
100
AcDbEntity
  8
BEMAßUNG
 62
     7
100
AcDbVertex
100
AcDb2dVertex
 10
88.28763425527184
 20
126.7891601245527
 30
0.0
  0
VERTEX
  5
3FE
330
3FC
100
AcDbEntity
  8
BEMAßUNG
 62
     7
100
AcDbVertex
100
AcDb2dVertex
 10
88.72722843918973
 20
126.7891601245527
 30
0.0
  0
SEQEND
  5
3FF
330
3FC
100
AcDbEntity
  8
BEMAßUNG
  0
POLYLINE
  5
400
330
1F
100
AcDbEntity
  8
BEMAßUNG
 62
     7
100
AcDb2dPolyline
 66
     1
 10
0.0
 20
0.0
 30
0.0
  0
VERTEX
  5
401
330
400
100
AcDbEntity
  8
BEMAßUNG
 62
     7
100
AcDbVertex
100
AcDb2dVertex
 10
88.28763425527184
 20
126.7612548511222
 30
0.0
  0
VERTEX
  5
402
330
400
100
AcDbEntity
  8
BEMAßUNG
 62
     7
100
AcDbVertex
100
AcDb2dVertex
 10
88.93944632108112
 20
126.7612548511222
 30
0.0
  0
SEQEND
  5
403
330
400
100
AcDbEntity
  8
BEMAßUNG
  0
POLYLINE
  5
404
330
1F
100
AcDbEntity
  8
BEMAßUNG
 62
     7
100
AcDb2dPolyline
 66
     1
 10
0.0
 20
0.0
 30
0.0
  0
VERTEX
  5
405
330
404
100
AcDbEntity
  8
BEMAßUNG
 62
     7
100
AcDbVertex
100
AcDb2dVertex
 10
88.28763425527184
 20
126.7333495776917
 30
0.0
  0
VERTEX
  5
406
330
404
100
AcDbEntity
  8
BEMAßUNG
 62
     7
100
AcDbVertex
100
AcDb2dVertex
 10
89.15149194819824
 20
126.7333495776917
 30
0.0
  0
SEQEND
  5
407
330
404
100
AcDbEntity
  8
BEMAßUNG
  0
POLYLINE
  5
408
330
1F
100
AcDbEntity
  8
BEMAßUNG
 62
     7
100
AcDb2dPolyline
 66
     1
 10
0.0
 20
0.0
 30
0.0
  0
VERTEX
  5
409
330
408
100
AcDbEntity
  8
BEMAßUNG
 62
     7
100
AcDbVertex
100
AcDb2dVertex
 10
88.28763425527184
 20
126.7054443042611
 30
0.0
  0
VERTEX
  5
40A
330
408
100
AcDbEntity
  8
BEMAßUNG
 62
     7
100
AcDbVertex
100
AcDb2dVertex
 10
89.36388208486389
 20
126.7054443042611
 30
0.0
  0
SEQEND
  5
40B
330
408
100
AcDbEntity
  8
BEMAßUNG
  0
POLYLINE
  5
40C
330
1F
100
AcDbEntity
  8
BEMAßUNG
 62
     7
100
AcDb2dPolyline
 66
     1
 10
0.0
 20
0.0
 30
0.0
  0
VERTEX
  5
40D
330
40C
100
AcDbEntity
  8
BEMAßUNG
 62
     7
100
AcDbVertex
100
AcDb2dVertex
 10
88.28763425527184
 20
126.6771945212821
 30
0.0
  0
VERTEX
  5
40E
330
40C
100
AcDbEntity
  8
BEMAßUNG
 62
     7
100
AcDbVertex
100
AcDb2dVertex
 10
89.57609996675528
 20
126.6771945212821
 30
0.0
  0
SEQEND
  5
40F
330
40C
100
AcDbEntity
  8
BEMAßUNG
  0
POLYLINE
  5
410
330
1F
100
AcDbEntity
  8
BEMAßUNG
 62
     7
100
AcDb2dPolyline
 66
     1
 10
0.0
 20
0.0
 30
0.0
  0
VERTEX
  5
411
330
410
100
AcDbEntity
  8
BEMAßUNG
 62
     7
100
AcDbVertex
100
AcDb2dVertex
 10
88.28763425527184
 20
126.6492892478516
 30
0.0
  0
VERTEX
  5
412
330
410
100
AcDbEntity
  8
BEMAßUNG
 62
     7
100
AcDbVertex
100
AcDb2dVertex
 10
89.78831784864667
 20
126.6492892478516
 30
0.0
  0
SEQEND
  5
413
330
410
100
AcDbEntity
  8
BEMAßUNG
  0
POLYLINE
  5
414
330
1F
100
AcDbEntity
  8
BEMAßUNG
 62
     7
100
AcDb2dPolyline
 66
     1
 10
0.0
 20
0.0
 30
0.0
  0
VERTEX
  5
415
330
414
100
AcDbEntity
  8
BEMAßUNG
 62
     7
100
AcDbVertex
100
AcDb2dVertex
 10
88.28763425527184
 20
126.6213839744211
 30
0.0
  0
VERTEX
  5
416
330
414
100
AcDbEntity
  8
BEMAßUNG
 62
     7
100
AcDbVertex
100
AcDb2dVertex
 10
90.0003634757638
 20
126.6213839744211
 30
0.0
  0
SEQEND
  5
417
330
414
100
AcDbEntity
  8
BEMAßUNG
  0
POLYLINE
  5
418
330
1F
100
AcDbEntity
  8
BEMAßUNG
 62
     7
100
AcDb2dPolyline
 66
     1
 10
0.0
 20
0.0
 30
0.0
  0
VERTEX
  5
419
330
418
100
AcDbEntity
  8
BEMAßUNG
 62
     7
100
AcDbVertex
100
AcDb2dVertex
 10
88.28763425527184
 20
126.593134191442
 30
0.0
  0
VERTEX
  5
41A
330
418
100
AcDbEntity
  8
BEMAßUNG
 62
     7
100
AcDbVertex
100
AcDb2dVertex
 10
90.21275361242945
 20
126.593134191442
 30
0.0
  0
SEQEND
  5
41B
330
418
100
AcDbEntity
  8
BEMAßUNG
  0
POLYLINE
  5
41C
330
1F
100
AcDbEntity
  8
BEMAßUNG
 62
     7
100
AcDb2dPolyline
 66
     1
 10
0.0
 20
0.0
 30
0.0
  0
VERTEX
  5
41D
330
41C
100
AcDbEntity
  8
BEMAßUNG
 62
     7
100
AcDbVertex
100
AcDb2dVertex
 10
88.28763425527184
 20
126.3419867305673
 30
0.0
  0
VERTEX
  5
41E
330
41C
100
AcDbEntity
  8
BEMAßUNG
 62
     7
100
AcDbVertex
100
AcDb2dVertex
 10
88.30262042063268
 20
126.3419867305673
 30
0.0
  0
SEQEND
  5
41F
330
41C
100
AcDbEntity
  8
BEMAßUNG
  0
POLYLINE
  5
420
330
1F
100
AcDbEntity
  8
BEMAßUNG
 62
     7
100
AcDb2dPolyline
 66
     1
 10
0.0
 20
0.0
 30
0.0
  0
VERTEX
  5
421
330
420
100
AcDbEntity
  8
BEMAßUNG
 62
     7
100
AcDbVertex
100
AcDb2dVertex
 10
88.28763425527184
 20
126.3419867305673
 30
0.0
  0
VERTEX
  5
422
330
420
100
AcDbEntity
  8
BEMAßUNG
 62
     7
100
AcDbVertex
100
AcDb2dVertex
 10
88.30262042063268
 20
126.3419867305673
 30
0.0
  0
SEQEND
  5
423
330
420
100
AcDbEntity
  8
BEMAßUNG
  0
POLYLINE
  5
424
330
1F
100
AcDbEntity
  8
BEMAßUNG
 62
     7
100
AcDb2dPolyline
 66
     1
 10
0.0
 20
0.0
 30
0.0
  0
VERTEX
  5
425
330
424
100
AcDbEntity
  8
BEMAßUNG
 62
     7
100
AcDbVertex
100
AcDb2dVertex
 10
88.28763425527184
 20
126.3698920039978
 30
0.0
  0
VERTEX
  5
426
330
424
100
AcDbEntity
  8
BEMAßUNG
 62
     7
100
AcDbVertex
100
AcDb2dVertex
 10
88.51501055729834
 20
126.3698920039978
 30
0.0
  0
SEQEND
  5
427
330
424
100
AcDbEntity
  8
BEMAßUNG
  0
POLYLINE
  5
428
330
1F
100
AcDbEntity
  8
BEMAßUNG
 62
     7
100
AcDb2dPolyline
 66
     1
 10
0.0
 20
0.0
 30
0.0
  0
VERTEX
  5
429
330
428
100
AcDbEntity
  8
BEMAßUNG
 62
     7
100
AcDbVertex
100
AcDb2dVertex
 10
88.28763425527184
 20
126.3977972774283
 30
0.0
  0
VERTEX
  5
42A
330
428
100
AcDbEntity
  8
BEMAßUNG
 62
     7
100
AcDbVertex
100
AcDb2dVertex
 10
88.72722843918973
 20
126.3977972774283
 30
0.0
  0
SEQEND
  5
42B
330
428
100
AcDbEntity
  8
BEMAßUNG
  0
POLYLINE
  5
42C
330
1F
100
AcDbEntity
  8
BEMAßUNG
 62
     7
100
AcDb2dPolyline
 66
     1
 10
0.0
 20
0.0
 30
0.0
  0
VERTEX
  5
42D
330
42C
100
AcDbEntity
  8
BEMAßUNG
 62
     7
100
AcDbVertex
100
AcDb2dVertex
 10
88.28763425527184
 20
126.4257025508589
 30
0.0
  0
VERTEX
  5
42E
330
42C
100
AcDbEntity
  8
BEMAßUNG
 62
     7
100
AcDbVertex
100
AcDb2dVertex
 10
88.93944632108112
 20
126.4257025508589
 30
0.0
  0
SEQEND
  5
42F
330
42C
100
AcDbEntity
  8
BEMAßUNG
  0
POLYLINE
  5
430
330
1F
100
AcDbEntity
  8
BEMAßUNG
 62
     7
100
AcDb2dPolyline
 66
     1
 10
0.0
 20
0.0
 30
0.0
  0
VERTEX
  5
431
330
430
100
AcDbEntity
  8
BEMAßUNG
 62
     7
100
AcDbVertex
100
AcDb2dVertex
 10
88.28763425527184
 20
126.4536078242894
 30
0.0
  0
VERTEX
  5
432
330
430
100
AcDbEntity
  8
BEMAßUNG
 62
     7
100
AcDbVertex
100
AcDb2dVertex
 10
89.15149194819824
 20
126.4536078242894
 30
0.0
  0
SEQEND
  5
433
330
430
100
AcDbEntity
  8
BEMAßUNG
  0
POLYLINE
  5
434
330
1F
100
AcDbEntity
  8
BEMAßUNG
 62
     7
100
AcDb2dPolyline
 66
     1
 10
0.0
 20
0.0
 30
0.0
  0
VERTEX
  5
435
330
434
100
AcDbEntity
  8
BEMAßUNG
 62
     7
100
AcDbVertex
100
AcDb2dVertex
 10
88.28763425527184
 20
126.4815130977199
 30
0.0
  0
VERTEX
  5
436
330
434
100
AcDbEntity
  8
BEMAßUNG
 62
     7
100
AcDbVertex
100
AcDb2dVertex
 10
89.36388208486389
 20
126.4815130977199
 30
0.0
  0
SEQEND
  5
437
330
434
100
AcDbEntity
  8
BEMAßUNG
  0
POLYLINE
  5
438
330
1F
100
AcDbEntity
  8
BEMAßUNG
 62
     7
100
AcDb2dPolyline
 66
     1
 10
0.0
 20
0.0
 30
0.0
  0
VERTEX
  5
439
330
438
100
AcDbEntity
  8
BEMAßUNG
 62
     7
100
AcDbVertex
100
AcDb2dVertex
 10
88.28763425527184
 20
126.5094183711504
 30
0.0
  0
VERTEX
  5
43A
330
438
100
AcDbEntity
  8
BEMAßUNG
 62
     7
100
AcDbVertex
100
AcDb2dVertex
 10
89.57609996675528
 20
126.5094183711504
 30
0.0
  0
SEQEND
  5
43B
330
438
100
AcDbEntity
  8
BEMAßUNG
  0
POLYLINE
  5
43C
330
1F
100
AcDbEntity
  8
BEMAßUNG
 62
     7
100
AcDb2dPolyline
 66
     1
 10
0.0
 20
0.0
 30
0.0
  0
VERTEX
  5
43D
330
43C
100
AcDbEntity
  8
BEMAßUNG
 62
     7
100
AcDbVertex
100
AcDb2dVertex
 10
88.28763425527184
 20
126.537323644581
 30
0.0
  0
VERTEX
  5
43E
330
43C
100
AcDbEntity
  8
BEMAßUNG
 62
     7
100
AcDbVertex
100
AcDb2dVertex
 10
89.78831784864667
 20
126.537323644581
 30
0.0
  0
SEQEND
  5
43F
330
43C
100
AcDbEntity
  8
BEMAßUNG
  0
POLYLINE
  5
440
330
1F
100
AcDbEntity
  8
BEMAßUNG
 62
     7
100
AcDb2dPolyline
 66
     1
 10
0.0
 20
0.0
 30
0.0
  0
VERTEX
  5
441
330
440
100
AcDbEntity
  8
BEMAßUNG
 62
     7
100
AcDbVertex
100
AcDb2dVertex
 10
88.28763425527184
 20
126.5652289180115
 30
0.0
  0
VERTEX
  5
442
330
440
100
AcDbEntity
  8
BEMAßUNG
 62
     7
100
AcDbVertex
100
AcDb2dVertex
 10
90.0003634757638
 20
126.5652289180115
 30
0.0
  0
SEQEND
  5
443
330
440
100
AcDbEntity
  8
BEMAßUNG
  0
POLYLINE
  5
444
330
1F
100
AcDbEntity
  8
BEMAßUNG
 62
     7
100
AcDb2dPolyline
 66
     1
 10
0.0
 20
0.0
 30
0.0
  0
VERTEX
  5
445
330
444
100
AcDbEntity
  8
BEMAßUNG
 62
     7
100
AcDbVertex
100
AcDb2dVertex
 10
88.28763425527184
 20
126.593134191442
 30
0.0
  0
VERTEX
  5
446
330
444
100
AcDbEntity
  8
BEMAßUNG
 62
     7
100
AcDbVertex
100
AcDb2dVertex
 10
90.21275361242945
 20
126.593134191442
 30
0.0
  0
SEQEND
  5
447
330
444
100
AcDbEntity
  8
BEMAßUNG
  0
POLYLINE
  5
448
330
1F
100
AcDbEntity
  8
BEMAßUNG
 62
     7
100
AcDb2dPolyline
 66
     1
 10
0.0
 20
0.0
 30
0.0
  0
VERTEX
  5
449
330
448
100
AcDbEntity
  8
BEMAßUNG
 62
     7
100
AcDbVertex
100
AcDb2dVertex
 10
89.81174449794638
 20
112.2370767948574
 30
0.0
  0
VERTEX
  5
44A
330
448
100
AcDbEntity
  8
BEMAßUNG
 62
     7
100
AcDbVertex
100
AcDb2dVertex
 10
100.0493624966891
 20
112.2370767948574
 30
0.0
  0
SEQEND
  5
44B
330
448
100
AcDbEntity
  8
BEMAßUNG
  0
POLYLINE
  5
44C
330
1F
100
AcDbEntity
  8
BEMAßUNG
 62
     7
100
AcDb2dPolyline
 66
     1
 10
0.0
 20
0.0
 30
0.0
  0
VERTEX
  5
44D
330
44C
100
AcDbEntity
  8
BEMAßUNG
 62
     7
100
AcDbVertex
100
AcDb2dVertex
 10
83.4400403979768
 20
97.63503958062597
 30
0.0
  0
VERTEX
  5
44E
330
44C
100
AcDbEntity
  8
BEMAßUNG
 62
     7
100
AcDbVertex
100
AcDb2dVertex
 10
100.0493624966891
 20
97.63503958062597
 30
0.0
  0
SEQEND
  5
44F
330
44C
100
AcDbEntity
  8
BEMAßUNG
  0
POLYLINE
  5
450
330
1F
100
AcDbEntity
  8
BEMAßUNG
 62
     7
100
AcDb2dPolyline
 66
     1
 10
0.0
 20
0.0
 30
0.0
  0
VERTEX
  5
451
330
450
100
AcDbEntity
  8
BEMAßUNG
 62
     7
100
AcDbVertex
100
AcDb2dVertex
 10
98.94951576302304
 20
112.2370767948574
 30
0.0
  0
VERTEX
  5
452
330
450
100
AcDbEntity
  8
BEMAßUNG
 62
     7
100
AcDbVertex
100
AcDb2dVertex
 10
98.94951576302304
 20
97.63503958062597
 30
0.0
  0
SEQEND
  5
453
330
450
100
AcDbEntity
  8
BEMAßUNG
  0
POLYLINE
  5
454
330
1F
100
AcDbEntity
  8
BEMAßUNG
 62
     7
100
AcDb2dPolyline
 66
     1
 10
0.0
 20
0.0
 30
0.0
  0
VERTEX
  5
455
330
454
100
AcDbEntity
  8
BEMAßUNG
 62
     7
100
AcDbVertex
100
AcDb2dVertex
 10
98.94951576302304
 20
112.2370767948574
 30
0.0
  0
VERTEX
  5
456
330
454
100
AcDbEntity
  8
BEMAßUNG
 62
     7
100
AcDbVertex
100
AcDb2dVertex
 10
98.69578448053439
 20
110.3123019472483
 30
0.0
  0
VERTEX
  5
457
330
454
100
AcDbEntity
  8
BEMAßUNG
 62
     7
100
AcDbVertex
100
AcDb2dVertex
 10
99.20290253596316
 20
110.3123019472483
 30
0.0
  0
VERTEX
  5
458
330
454
100
AcDbEntity
  8
BEMAßUNG
 62
     7
100
AcDbVertex
100
AcDb2dVertex
 10
98.94951576302304
 20
112.2370767948574
 30
0.0
  0
SEQEND
  5
459
330
454
100
AcDbEntity
  8
BEMAßUNG
  0
POLYLINE
  5
45A
330
1F
100
AcDbEntity
  8
BEMAßUNG
 62
     7
100
AcDb2dPolyline
 66
     1
 10
0.0
 20
0.0
 30
0.0
  0
VERTEX
  5
45B
330
45A
100
AcDbEntity
  8
BEMAßUNG
 62
     7
100
AcDbVertex
100
AcDb2dVertex
 10
98.69785153782554
 20
110.3123019472483
 30
0.0
  0
VERTEX
  5
45C
330
45A
100
AcDbEntity
  8
BEMAßUNG
 62
     7
100
AcDbVertex
100
AcDb2dVertex
 10
98.69785153782554
 20
110.3271158578349
 30
0.0
  0
SEQEND
  5
45D
330
45A
100
AcDbEntity
  8
BEMAßUNG
  0
POLYLINE
  5
45E
330
1F
100
AcDbEntity
  8
BEMAßUNG
 62
     7
100
AcDb2dPolyline
 66
     1
 10
0.0
 20
0.0
 30
0.0
  0
VERTEX
  5
45F
330
45E
100
AcDbEntity
  8
BEMAßUNG
 62
     7
100
AcDbVertex
100
AcDb2dVertex
 10
98.69785153782554
 20
110.3123019472483
 30
0.0
  0
VERTEX
  5
460
330
45E
100
AcDbEntity
  8
BEMAßUNG
 62
     7
100
AcDbVertex
100
AcDb2dVertex
 10
98.69785153782554
 20
110.3271158578349
 30
0.0
  0
SEQEND
  5
461
330
45E
100
AcDbEntity
  8
BEMAßUNG
  0
POLYLINE
  5
462
330
1F
100
AcDbEntity
  8
BEMAßUNG
 62
     7
100
AcDb2dPolyline
 66
     1
 10
0.0
 20
0.0
 30
0.0
  0
VERTEX
  5
463
330
462
100
AcDbEntity
  8
BEMAßUNG
 62
     7
100
AcDbVertex
100
AcDb2dVertex
 10
98.72575681125606
 20
110.3123019472483
 30
0.0
  0
VERTEX
  5
464
330
462
100
AcDbEntity
  8
BEMAßUNG
 62
     7
100
AcDbVertex
100
AcDb2dVertex
 10
98.72575681125606
 20
110.5393337397263
 30
0.0
  0
SEQEND
  5
465
330
462
100
AcDbEntity
  8
BEMAßUNG
  0
POLYLINE
  5
466
330
1F
100
AcDbEntity
  8
BEMAßUNG
 62
     7
100
AcDb2dPolyline
 66
     1
 10
0.0
 20
0.0
 30
0.0
  0
VERTEX
  5
467
330
466
100
AcDbEntity
  8
BEMAßUNG
 62
     7
100
AcDbVertex
100
AcDb2dVertex
 10
98.7536620846866
 20
110.3123019472483
 30
0.0
  0
VERTEX
  5
468
330
466
100
AcDbEntity
  8
BEMAßUNG
 62
     7
100
AcDbVertex
100
AcDb2dVertex
 10
98.7536620846866
 20
110.7515516216177
 30
0.0
  0
SEQEND
  5
469
330
466
100
AcDbEntity
  8
BEMAßUNG
  0
POLYLINE
  5
46A
330
1F
100
AcDbEntity
  8
BEMAßUNG
 62
     7
100
AcDb2dPolyline
 66
     1
 10
0.0
 20
0.0
 30
0.0
  0
VERTEX
  5
46B
330
46A
100
AcDbEntity
  8
BEMAßUNG
 62
     7
100
AcDbVertex
100
AcDb2dVertex
 10
98.78173961289137
 20
110.3123019472483
 30
0.0
  0
VERTEX
  5
46C
330
46A
100
AcDbEntity
  8
BEMAßUNG
 62
     7
100
AcDbVertex
100
AcDb2dVertex
 10
98.78173961289137
 20
110.9637695035091
 30
0.0
  0
SEQEND
  5
46D
330
46A
100
AcDbEntity
  8
BEMAßUNG
  0
POLYLINE
  5
46E
330
1F
100
AcDbEntity
  8
BEMAßUNG
 62
     7
100
AcDb2dPolyline
 66
     1
 10
0.0
 20
0.0
 30
0.0
  0
VERTEX
  5
46F
330
46E
100
AcDbEntity
  8
BEMAßUNG
 62
     7
100
AcDbVertex
100
AcDb2dVertex
 10
98.80947263154764
 20
110.3123019472483
 30
0.0
  0
VERTEX
  5
470
330
46E
100
AcDbEntity
  8
BEMAßUNG
 62
     7
100
AcDbVertex
100
AcDb2dVertex
 10
98.80947263154764
 20
111.1759873854004
 30
0.0
  0
SEQEND
  5
471
330
46E
100
AcDbEntity
  8
BEMAßUNG
  0
POLYLINE
  5
472
330
1F
100
AcDbEntity
  8
BEMAßUNG
 62
     7
100
AcDb2dPolyline
 66
     1
 10
0.0
 20
0.0
 30
0.0
  0
VERTEX
  5
473
330
472
100
AcDbEntity
  8
BEMAßUNG
 62
     7
100
AcDbVertex
100
AcDb2dVertex
 10
98.83755015975242
 20
110.3123019472483
 30
0.0
  0
VERTEX
  5
474
330
472
100
AcDbEntity
  8
BEMAßUNG
 62
     7
100
AcDbVertex
100
AcDb2dVertex
 10
98.83755015975242
 20
111.3882052672918
 30
0.0
  0
SEQEND
  5
475
330
472
100
AcDbEntity
  8
BEMAßUNG
  0
POLYLINE
  5
476
330
1F
100
AcDbEntity
  8
BEMAßUNG
 62
     7
100
AcDb2dPolyline
 66
     1
 10
0.0
 20
0.0
 30
0.0
  0
VERTEX
  5
477
330
476
100
AcDbEntity
  8
BEMAßUNG
 62
     7
100
AcDbVertex
100
AcDb2dVertex
 10
98.86562768795721
 20
110.3123019472483
 30
0.0
  0
VERTEX
  5
478
330
476
100
AcDbEntity
  8
BEMAßUNG
 62
     7
100
AcDbVertex
100
AcDb2dVertex
 10
98.86562768795721
 20
111.6004231491832
 30
0.0
  0
SEQEND
  5
479
330
476
100
AcDbEntity
  8
BEMAßUNG
  0
POLYLINE
  5
47A
330
1F
100
AcDbEntity
  8
BEMAßUNG
 62
     7
100
AcDb2dPolyline
 66
     1
 10
0.0
 20
0.0
 30
0.0
  0
VERTEX
  5
47B
330
47A
100
AcDbEntity
  8
BEMAßUNG
 62
     7
100
AcDbVertex
100
AcDb2dVertex
 10
98.89353296138773
 20
110.3123019472483
 30
0.0
  0
VERTEX
  5
47C
330
47A
100
AcDbEntity
  8
BEMAßUNG
 62
     7
100
AcDbVertex
100
AcDb2dVertex
 10
98.89353296138773
 20
111.8126410310746
 30
0.0
  0
SEQEND
  5
47D
330
47A
100
AcDbEntity
  8
BEMAßUNG
  0
POLYLINE
  5
47E
330
1F
100
AcDbEntity
  8
BEMAßUNG
 62
     7
100
AcDb2dPolyline
 66
     1
 10
0.0
 20
0.0
 30
0.0
  0
VERTEX
  5
47F
330
47E
100
AcDbEntity
  8
BEMAßUNG
 62
     7
100
AcDbVertex
100
AcDb2dVertex
 10
98.92143823481825
 20
110.3123019472483
 30
0.0
  0
VERTEX
  5
480
330
47E
100
AcDbEntity
  8
BEMAßUNG
 62
     7
100
AcDbVertex
100
AcDb2dVertex
 10
98.92143823481825
 20
112.024858912966
 30
0.0
  0
SEQEND
  5
481
330
47E
100
AcDbEntity
  8
BEMAßUNG
  0
POLYLINE
  5
482
330
1F
100
AcDbEntity
  8
BEMAßUNG
 62
     7
100
AcDb2dPolyline
 66
     1
 10
0.0
 20
0.0
 30
0.0
  0
VERTEX
  5
483
330
482
100
AcDbEntity
  8
BEMAßUNG
 62
     7
100
AcDbVertex
100
AcDb2dVertex
 10
98.94951576302304
 20
110.3123019472483
 30
0.0
  0
VERTEX
  5
484
330
482
100
AcDbEntity
  8
BEMAßUNG
 62
     7
100
AcDbVertex
100
AcDb2dVertex
 10
98.94951576302304
 20
112.2370767948574
 30
0.0
  0
SEQEND
  5
485
330
482
100
AcDbEntity
  8
BEMAßUNG
  0
POLYLINE
  5
486
330
1F
100
AcDbEntity
  8
BEMAßUNG
 62
     7
100
AcDb2dPolyline
 66
     1
 10
0.0
 20
0.0
 30
0.0
  0
VERTEX
  5
487
330
486
100
AcDbEntity
  8
BEMAßUNG
 62
     7
100
AcDbVertex
100
AcDb2dVertex
 10
99.20083547867202
 20
110.3123019472483
 30
0.0
  0
VERTEX
  5
488
330
486
100
AcDbEntity
  8
BEMAßUNG
 62
     7
100
AcDbVertex
100
AcDb2dVertex
 10
99.20083547867202
 20
110.3271158578349
 30
0.0
  0
SEQEND
  5
489
330
486
100
AcDbEntity
  8
BEMAßUNG
  0
POLYLINE
  5
48A
330
1F
100
AcDbEntity
  8
BEMAßUNG
 62
     7
100
AcDb2dPolyline
 66
     1
 10
0.0
 20
0.0
 30
0.0
  0
VERTEX
  5
48B
330
48A
100
AcDbEntity
  8
BEMAßUNG
 62
     7
100
AcDbVertex
100
AcDb2dVertex
 10
99.20083547867202
 20
110.3123019472483
 30
0.0
  0
VERTEX
  5
48C
330
48A
100
AcDbEntity
  8
BEMAßUNG
 62
     7
100
AcDbVertex
100
AcDb2dVertex
 10
99.20083547867202
 20
110.3271158578349
 30
0.0
  0
SEQEND
  5
48D
330
48A
100
AcDbEntity
  8
BEMAßUNG
  0
POLYLINE
  5
48E
330
1F
100
AcDbEntity
  8
BEMAßUNG
 62
     7
100
AcDb2dPolyline
 66
     1
 10
0.0
 20
0.0
 30
0.0
  0
VERTEX
  5
48F
330
48E
100
AcDbEntity
  8
BEMAßUNG
 62
     7
100
AcDbVertex
100
AcDb2dVertex
 10
99.1729302052415
 20
110.3123019472483
 30
0.0
  0
VERTEX
  5
490
330
48E
100
AcDbEntity
  8
BEMAßUNG
 62
     7
100
AcDbVertex
100
AcDb2dVertex
 10
99.1729302052415
 20
110.5393337397263
 30
0.0
  0
SEQEND
  5
491
330
48E
100
AcDbEntity
  8
BEMAßUNG
  0
POLYLINE
  5
492
330
1F
100
AcDbEntity
  8
BEMAßUNG
 62
     7
100
AcDb2dPolyline
 66
     1
 10
0.0
 20
0.0
 30
0.0
  0
VERTEX
  5
493
330
492
100
AcDbEntity
  8
BEMAßUNG
 62
     7
100
AcDbVertex
100
AcDb2dVertex
 10
99.14502493181097
 20
110.3123019472483
 30
0.0
  0
VERTEX
  5
494
330
492
100
AcDbEntity
  8
BEMAßUNG
 62
     7
100
AcDbVertex
100
AcDb2dVertex
 10
99.14502493181097
 20
110.7515516216177
 30
0.0
  0
SEQEND
  5
495
330
492
100
AcDbEntity
  8
BEMAßUNG
  0
POLYLINE
  5
496
330
1F
100
AcDbEntity
  8
BEMAßUNG
 62
     7
100
AcDb2dPolyline
 66
     1
 10
0.0
 20
0.0
 30
0.0
  0
VERTEX
  5
497
330
496
100
AcDbEntity
  8
BEMAßUNG
 62
     7
100
AcDbVertex
100
AcDb2dVertex
 10
99.11711965838045
 20
110.3123019472483
 30
0.0
  0
VERTEX
  5
498
330
496
100
AcDbEntity
  8
BEMAßUNG
 62
     7
100
AcDbVertex
100
AcDb2dVertex
 10
99.11711965838045
 20
110.9637695035091
 30
0.0
  0
SEQEND
  5
499
330
496
100
AcDbEntity
  8
BEMAßUNG
  0
POLYLINE
  5
49A
330
1F
100
AcDbEntity
  8
BEMAßUNG
 62
     7
100
AcDb2dPolyline
 66
     1
 10
0.0
 20
0.0
 30
0.0
  0
VERTEX
  5
49B
330
49A
100
AcDbEntity
  8
BEMAßUNG
 62
     7
100
AcDbVertex
100
AcDb2dVertex
 10
99.08904213017566
 20
110.3123019472483
 30
0.0
  0
VERTEX
  5
49C
330
49A
100
AcDbEntity
  8
BEMAßUNG
 62
     7
100
AcDbVertex
100
AcDb2dVertex
 10
99.08904213017566
 20
111.1759873854004
 30
0.0
  0
SEQEND
  5
49D
330
49A
100
AcDbEntity
  8
BEMAßUNG
  0
POLYLINE
  5
49E
330
1F
100
AcDbEntity
  8
BEMAßUNG
 62
     7
100
AcDb2dPolyline
 66
     1
 10
0.0
 20
0.0
 30
0.0
  0
VERTEX
  5
49F
330
49E
100
AcDbEntity
  8
BEMAßUNG
 62
     7
100
AcDbVertex
100
AcDb2dVertex
 10
99.06113685674514
 20
110.3123019472483
 30
0.0
  0
VERTEX
  5
4A0
330
49E
100
AcDbEntity
  8
BEMAßUNG
 62
     7
100
AcDbVertex
100
AcDb2dVertex
 10
99.06113685674514
 20
111.3882052672918
 30
0.0
  0
SEQEND
  5
4A1
330
49E
100
AcDbEntity
  8
BEMAßUNG
  0
POLYLINE
  5
4A2
330
1F
100
AcDbEntity
  8
BEMAßUNG
 62
     7
100
AcDb2dPolyline
 66
     1
 10
0.0
 20
0.0
 30
0.0
  0
VERTEX
  5
4A3
330
4A2
100
AcDbEntity
  8
BEMAßUNG
 62
     7
100
AcDbVertex
100
AcDb2dVertex
 10
99.03305932854035
 20
110.3123019472483
 30
0.0
  0
VERTEX
  5
4A4
330
4A2
100
AcDbEntity
  8
BEMAßUNG
 62
     7
100
AcDbVertex
100
AcDb2dVertex
 10
99.03305932854035
 20
111.6004231491832
 30
0.0
  0
SEQEND
  5
4A5
330
4A2
100
AcDbEntity
  8
BEMAßUNG
  0
POLYLINE
  5
4A6
330
1F
100
AcDbEntity
  8
BEMAßUNG
 62
     7
100
AcDb2dPolyline
 66
     1
 10
0.0
 20
0.0
 30
0.0
  0
VERTEX
  5
4A7
330
4A6
100
AcDbEntity
  8
BEMAßUNG
 62
     7
100
AcDbVertex
100
AcDb2dVertex
 10
99.00515405510983
 20
110.3123019472483
 30
0.0
  0
VERTEX
  5
4A8
330
4A6
100
AcDbEntity
  8
BEMAßUNG
 62
     7
100
AcDbVertex
100
AcDb2dVertex
 10
99.00515405510983
 20
111.8126410310746
 30
0.0
  0
SEQEND
  5
4A9
330
4A6
100
AcDbEntity
  8
BEMAßUNG
  0
POLYLINE
  5
4AA
330
1F
100
AcDbEntity
  8
BEMAßUNG
 62
     7
100
AcDb2dPolyline
 66
     1
 10
0.0
 20
0.0
 30
0.0
  0
VERTEX
  5
4AB
330
4AA
100
AcDbEntity
  8
BEMAßUNG
 62
     7
100
AcDbVertex
100
AcDb2dVertex
 10
98.97742103645356
 20
110.3123019472483
 30
0.0
  0
VERTEX
  5
4AC
330
4AA
100
AcDbEntity
  8
BEMAßUNG
 62
     7
100
AcDbVertex
100
AcDb2dVertex
 10
98.97742103645356
 20
112.024858912966
 30
0.0
  0
SEQEND
  5
4AD
330
4AA
100
AcDbEntity
  8
BEMAßUNG
  0
POLYLINE
  5
4AE
330
1F
100
AcDbEntity
  8
BEMAßUNG
 62
     7
100
AcDb2dPolyline
 66
     1
 10
0.0
 20
0.0
 30
0.0
  0
VERTEX
  5
4AF
330
4AE
100
AcDbEntity
  8
BEMAßUNG
 62
     7
100
AcDbVertex
100
AcDb2dVertex
 10
98.94951576302304
 20
110.3123019472483
 30
0.0
  0
VERTEX
  5
4B0
330
4AE
100
AcDbEntity
  8
BEMAßUNG
 62
     7
100
AcDbVertex
100
AcDb2dVertex
 10
98.94951576302304
 20
112.2370767948574
 30
0.0
  0
SEQEND
  5
4B1
330
4AE
100
AcDbEntity
  8
BEMAßUNG
  0
POLYLINE
  5
4B2
330
1F
100
AcDbEntity
  8
BEMAßUNG
 62
     7
100
AcDb2dPolyline
 66
     1
 10
0.0
 20
0.0
 30
0.0
  0
VERTEX
  5
4B3
330
4B2
100
AcDbEntity
  8
BEMAßUNG
 62
     7
100
AcDbVertex
100
AcDb2dVertex
 10
98.94951576302304
 20
97.63503958062597
 30
0.0
  0
VERTEX
  5
4B4
330
4B2
100
AcDbEntity
  8
BEMAßUNG
 62
     7
100
AcDbVertex
100
AcDb2dVertex
 10
99.20290253596316
 20
99.56015893778357
 30
0.0
  0
VERTEX
  5
4B5
330
4B2
100
AcDbEntity
  8
BEMAßUNG
 62
     7
100
AcDbVertex
100
AcDb2dVertex
 10
98.69578448053439
 20
99.56015893778357
 30
0.0
  0
VERTEX
  5
4B6
330
4B2
100
AcDbEntity
  8
BEMAßUNG
 62
     7
100
AcDbVertex
100
AcDb2dVertex
 10
98.94951576302304
 20
97.63503958062597
 30
0.0
  0
SEQEND
  5
4B7
330
4B2
100
AcDbEntity
  8
BEMAßUNG
  0
POLYLINE
  5
4B8
330
1F
100
AcDbEntity
  8
BEMAßUNG
 62
     7
100
AcDb2dPolyline
 66
     1
 10
0.0
 20
0.0
 30
0.0
  0
VERTEX
  5
4B9
330
4B8
100
AcDbEntity
  8
BEMAßUNG
 62
     7
100
AcDbVertex
100
AcDb2dVertex
 10
99.20083547867202
 20
99.56015893778357
 30
0.0
  0
VERTEX
  5
4BA
330
4B8
100
AcDbEntity
  8
BEMAßUNG
 62
     7
100
AcDbVertex
100
AcDb2dVertex
 10
99.20083547867202
 20
99.545345027197
 30
0.0
  0
SEQEND
  5
4BB
330
4B8
100
AcDbEntity
  8
BEMAßUNG
  0
POLYLINE
  5
4BC
330
1F
100
AcDbEntity
  8
BEMAßUNG
 62
     7
100
AcDb2dPolyline
 66
     1
 10
0.0
 20
0.0
 30
0.0
  0
VERTEX
  5
4BD
330
4BC
100
AcDbEntity
  8
BEMAßUNG
 62
     7
100
AcDbVertex
100
AcDb2dVertex
 10
99.20083547867202
 20
99.56015893778357
 30
0.0
  0
VERTEX
  5
4BE
330
4BC
100
AcDbEntity
  8
BEMAßUNG
 62
     7
100
AcDbVertex
100
AcDb2dVertex
 10
99.20083547867202
 20
99.545345027197
 30
0.0
  0
SEQEND
  5
4BF
330
4BC
100
AcDbEntity
  8
BEMAßUNG
  0
POLYLINE
  5
4C0
330
1F
100
AcDbEntity
  8
BEMAßUNG
 62
     7
100
AcDb2dPolyline
 66
     1
 10
0.0
 20
0.0
 30
0.0
  0
VERTEX
  5
4C1
330
4C0
100
AcDbEntity
  8
BEMAßUNG
 62
     7
100
AcDbVertex
100
AcDb2dVertex
 10
99.1729302052415
 20
99.56015893778357
 30
0.0
  0
VERTEX
  5
4C2
330
4C0
100
AcDbEntity
  8
BEMAßUNG
 62
     7
100
AcDbVertex
100
AcDb2dVertex
 10
99.1729302052415
 20
99.33278263575708
 30
0.0
  0
SEQEND
  5
4C3
330
4C0
100
AcDbEntity
  8
BEMAßUNG
  0
POLYLINE
  5
4C4
330
1F
100
AcDbEntity
  8
BEMAßUNG
 62
     7
100
AcDb2dPolyline
 66
     1
 10
0.0
 20
0.0
 30
0.0
  0
VERTEX
  5
4C5
330
4C4
100
AcDbEntity
  8
BEMAßUNG
 62
     7
100
AcDbVertex
100
AcDb2dVertex
 10
99.14502493181097
 20
99.56015893778357
 30
0.0
  0
VERTEX
  5
4C6
330
4C4
100
AcDbEntity
  8
BEMAßUNG
 62
     7
100
AcDbVertex
100
AcDb2dVertex
 10
99.14502493181097
 20
99.1205647538657
 30
0.0
  0
SEQEND
  5
4C7
330
4C4
100
AcDbEntity
  8
BEMAßUNG
  0
POLYLINE
  5
4C8
330
1F
100
AcDbEntity
  8
BEMAßUNG
 62
     7
100
AcDb2dPolyline
 66
     1
 10
0.0
 20
0.0
 30
0.0
  0
VERTEX
  5
4C9
330
4C8
100
AcDbEntity
  8
BEMAßUNG
 62
     7
100
AcDbVertex
100
AcDb2dVertex
 10
99.11711965838045
 20
99.56015893778357
 30
0.0
  0
VERTEX
  5
4CA
330
4C8
100
AcDbEntity
  8
BEMAßUNG
 62
     7
100
AcDbVertex
100
AcDb2dVertex
 10
99.11711965838045
 20
98.90869138152283
 30
0.0
  0
SEQEND
  5
4CB
330
4C8
100
AcDbEntity
  8
BEMAßUNG
  0
POLYLINE
  5
4CC
330
1F
100
AcDbEntity
  8
BEMAßUNG
 62
     7
100
AcDb2dPolyline
 66
     1
 10
0.0
 20
0.0
 30
0.0
  0
VERTEX
  5
4CD
330
4CC
100
AcDbEntity
  8
BEMAßUNG
 62
     7
100
AcDbVertex
100
AcDb2dVertex
 10
99.08904213017566
 20
99.56015893778357
 30
0.0
  0
VERTEX
  5
4CE
330
4CC
100
AcDbEntity
  8
BEMAßUNG
 62
     7
100
AcDbVertex
100
AcDb2dVertex
 10
99.08904213017566
 20
98.69612899008291
 30
0.0
  0
SEQEND
  5
4CF
330
4CC
100
AcDbEntity
  8
BEMAßUNG
  0
POLYLINE
  5
4D0
330
1F
100
AcDbEntity
  8
BEMAßUNG
 62
     7
100
AcDb2dPolyline
 66
     1
 10
0.0
 20
0.0
 30
0.0
  0
VERTEX
  5
4D1
330
4D0
100
AcDbEntity
  8
BEMAßUNG
 62
     7
100
AcDbVertex
100
AcDb2dVertex
 10
99.06113685674514
 20
99.56015893778357
 30
0.0
  0
VERTEX
  5
4D2
330
4D0
100
AcDbEntity
  8
BEMAßUNG
 62
     7
100
AcDbVertex
100
AcDb2dVertex
 10
99.06113685674514
 20
98.48391110819152
 30
0.0
  0
SEQEND
  5
4D3
330
4D0
100
AcDbEntity
  8
BEMAßUNG
  0
POLYLINE
  5
4D4
330
1F
100
AcDbEntity
  8
BEMAßUNG
 62
     7
100
AcDb2dPolyline
 66
     1
 10
0.0
 20
0.0
 30
0.0
  0
VERTEX
  5
4D5
330
4D4
100
AcDbEntity
  8
BEMAßUNG
 62
     7
100
AcDbVertex
100
AcDb2dVertex
 10
99.03305932854035
 20
99.56015893778357
 30
0.0
  0
VERTEX
  5
4D6
330
4D4
100
AcDbEntity
  8
BEMAßUNG
 62
     7
100
AcDbVertex
100
AcDb2dVertex
 10
99.03305932854035
 20
98.27169322630013
 30
0.0
  0
SEQEND
  5
4D7
330
4D4
100
AcDbEntity
  8
BEMAßUNG
  0
POLYLINE
  5
4D8
330
1F
100
AcDbEntity
  8
BEMAßUNG
 62
     7
100
AcDb2dPolyline
 66
     1
 10
0.0
 20
0.0
 30
0.0
  0
VERTEX
  5
4D9
330
4D8
100
AcDbEntity
  8
BEMAßUNG
 62
     7
100
AcDbVertex
100
AcDb2dVertex
 10
99.00515405510983
 20
99.56015893778357
 30
0.0
  0
VERTEX
  5
4DA
330
4D8
100
AcDbEntity
  8
BEMAßUNG
 62
     7
100
AcDbVertex
100
AcDb2dVertex
 10
99.00515405510983
 20
98.05981985395726
 30
0.0
  0
SEQEND
  5
4DB
330
4D8
100
AcDbEntity
  8
BEMAßUNG
  0
POLYLINE
  5
4DC
330
1F
100
AcDbEntity
  8
BEMAßUNG
 62
     7
100
AcDb2dPolyline
 66
     1
 10
0.0
 20
0.0
 30
0.0
  0
VERTEX
  5
4DD
330
4DC
100
AcDbEntity
  8
BEMAßUNG
 62
     7
100
AcDbVertex
100
AcDb2dVertex
 10
98.97742103645356
 20
99.56015893778357
 30
0.0
  0
VERTEX
  5
4DE
330
4DC
100
AcDbEntity
  8
BEMAßUNG
 62
     7
100
AcDbVertex
100
AcDb2dVertex
 10
98.97742103645356
 20
97.84760197206589
 30
0.0
  0
SEQEND
  5
4DF
330
4DC
100
AcDbEntity
  8
BEMAßUNG
  0
POLYLINE
  5
4E0
330
1F
100
AcDbEntity
  8
BEMAßUNG
 62
     7
100
AcDb2dPolyline
 66
     1
 10
0.0
 20
0.0
 30
0.0
  0
VERTEX
  5
4E1
330
4E0
100
AcDbEntity
  8
BEMAßUNG
 62
     7
100
AcDbVertex
100
AcDb2dVertex
 10
98.94951576302304
 20
99.56015893778357
 30
0.0
  0
VERTEX
  5
4E2
330
4E0
100
AcDbEntity
  8
BEMAßUNG
 62
     7
100
AcDbVertex
100
AcDb2dVertex
 10
98.94951576302304
 20
97.63503958062597
 30
0.0
  0
SEQEND
  5
4E3
330
4E0
100
AcDbEntity
  8
BEMAßUNG
  0
POLYLINE
  5
4E4
330
1F
100
AcDbEntity
  8
BEMAßUNG
 62
     7
100
AcDb2dPolyline
 66
     1
 10
0.0
 20
0.0
 30
0.0
  0
VERTEX
  5
4E5
330
4E4
100
AcDbEntity
  8
BEMAßUNG
 62
     7
100
AcDbVertex
100
AcDb2dVertex
 10
98.69785153782554
 20
99.56015893778357
 30
0.0
  0
VERTEX
  5
4E6
330
4E4
100
AcDbEntity
  8
BEMAßUNG
 62
     7
100
AcDbVertex
100
AcDb2dVertex
 10
98.69785153782554
 20
99.545345027197
 30
0.0
  0
SEQEND
  5
4E7
330
4E4
100
AcDbEntity
  8
BEMAßUNG
  0
POLYLINE
  5
4E8
330
1F
100
AcDbEntity
  8
BEMAßUNG
 62
     7
100
AcDb2dPolyline
 66
     1
 10
0.0
 20
0.0
 30
0.0
  0
VERTEX
  5
4E9
330
4E8
100
AcDbEntity
  8
BEMAßUNG
 62
     7
100
AcDbVertex
100
AcDb2dVertex
 10
98.69785153782554
 20
99.56015893778357
 30
0.0
  0
VERTEX
  5
4EA
330
4E8
100
AcDbEntity
  8
BEMAßUNG
 62
     7
100
AcDbVertex
100
AcDb2dVertex
 10
98.69785153782554
 20
99.545345027197
 30
0.0
  0
SEQEND
  5
4EB
330
4E8
100
AcDbEntity
  8
BEMAßUNG
  0
POLYLINE
  5
4EC
330
1F
100
AcDbEntity
  8
BEMAßUNG
 62
     7
100
AcDb2dPolyline
 66
     1
 10
0.0
 20
0.0
 30
0.0
  0
VERTEX
  5
4ED
330
4EC
100
AcDbEntity
  8
BEMAßUNG
 62
     7
100
AcDbVertex
100
AcDb2dVertex
 10
98.72575681125606
 20
99.56015893778357
 30
0.0
  0
VERTEX
  5
4EE
330
4EC
100
AcDbEntity
  8
BEMAßUNG
 62
     7
100
AcDbVertex
100
AcDb2dVertex
 10
98.72575681125606
 20
99.33278263575708
 30
0.0
  0
SEQEND
  5
4EF
330
4EC
100
AcDbEntity
  8
BEMAßUNG
  0
POLYLINE
  5
4F0
330
1F
100
AcDbEntity
  8
BEMAßUNG
 62
     7
100
AcDb2dPolyline
 66
     1
 10
0.0
 20
0.0
 30
0.0
  0
VERTEX
  5
4F1
330
4F0
100
AcDbEntity
  8
BEMAßUNG
 62
     7
100
AcDbVertex
100
AcDb2dVertex
 10
98.7536620846866
 20
99.56015893778357
 30
0.0
  0
VERTEX
  5
4F2
330
4F0
100
AcDbEntity
  8
BEMAßUNG
 62
     7
100
AcDbVertex
100
AcDb2dVertex
 10
98.7536620846866
 20
99.1205647538657
 30
0.0
  0
SEQEND
  5
4F3
330
4F0
100
AcDbEntity
  8
BEMAßUNG
  0
POLYLINE
  5
4F4
330
1F
100
AcDbEntity
  8
BEMAßUNG
 62
     7
100
AcDb2dPolyline
 66
     1
 10
0.0
 20
0.0
 30
0.0
  0
VERTEX
  5
4F5
330
4F4
100
AcDbEntity
  8
BEMAßUNG
 62
     7
100
AcDbVertex
100
AcDb2dVertex
 10
98.78173961289137
 20
99.56015893778357
 30
0.0
  0
VERTEX
  5
4F6
330
4F4
100
AcDbEntity
  8
BEMAßUNG
 62
     7
100
AcDbVertex
100
AcDb2dVertex
 10
98.78173961289137
 20
98.90869138152283
 30
0.0
  0
SEQEND
  5
4F7
330
4F4
100
AcDbEntity
  8
BEMAßUNG
  0
POLYLINE
  5
4F8
330
1F
100
AcDbEntity
  8
BEMAßUNG
 62
     7
100
AcDb2dPolyline
 66
     1
 10
0.0
 20
0.0
 30
0.0
  0
VERTEX
  5
4F9
330
4F8
100
AcDbEntity
  8
BEMAßUNG
 62
     7
100
AcDbVertex
100
AcDb2dVertex
 10
98.80947263154764
 20
99.56015893778357
 30
0.0
  0
VERTEX
  5
4FA
330
4F8
100
AcDbEntity
  8
BEMAßUNG
 62
     7
100
AcDbVertex
100
AcDb2dVertex
 10
98.80947263154764
 20
98.69612899008291
 30
0.0
  0
SEQEND
  5
4FB
330
4F8
100
AcDbEntity
  8
BEMAßUNG
  0
POLYLINE
  5
4FC
330
1F
100
AcDbEntity
  8
BEMAßUNG
 62
     7
100
AcDb2dPolyline
 66
     1
 10
0.0
 20
0.0
 30
0.0
  0
VERTEX
  5
4FD
330
4FC
100
AcDbEntity
  8
BEMAßUNG
 62
     7
100
AcDbVertex
100
AcDb2dVertex
 10
98.83755015975242
 20
99.56015893778357
 30
0.0
  0
VERTEX
  5
4FE
330
4FC
100
AcDbEntity
  8
BEMAßUNG
 62
     7
100
AcDbVertex
100
AcDb2dVertex
 10
98.83755015975242
 20
98.48391110819152
 30
0.0
  0
SEQEND
  5
4FF
330
4FC
100
AcDbEntity
  8
BEMAßUNG
  0
POLYLINE
  5
500
330
1F
100
AcDbEntity
  8
BEMAßUNG
 62
     7
100
AcDb2dPolyline
 66
     1
 10
0.0
 20
0.0
 30
0.0
  0
VERTEX
  5
501
330
500
100
AcDbEntity
  8
BEMAßUNG
 62
     7
100
AcDbVertex
100
AcDb2dVertex
 10
98.86562768795721
 20
99.56015893778357
 30
0.0
  0
VERTEX
  5
502
330
500
100
AcDbEntity
  8
BEMAßUNG
 62
     7
100
AcDbVertex
100
AcDb2dVertex
 10
98.86562768795721
 20
98.27169322630013
 30
0.0
  0
SEQEND
  5
503
330
500
100
AcDbEntity
  8
BEMAßUNG
  0
POLYLINE
  5
504
330
1F
100
AcDbEntity
  8
BEMAßUNG
 62
     7
100
AcDb2dPolyline
 66
     1
 10
0.0
 20
0.0
 30
0.0
  0
VERTEX
  5
505
330
504
100
AcDbEntity
  8
BEMAßUNG
 62
     7
100
AcDbVertex
100
AcDb2dVertex
 10
98.89353296138773
 20
99.56015893778357
 30
0.0
  0
VERTEX
  5
506
330
504
100
AcDbEntity
  8
BEMAßUNG
 62
     7
100
AcDbVertex
100
AcDb2dVertex
 10
98.89353296138773
 20
98.05981985395726
 30
0.0
  0
SEQEND
  5
507
330
504
100
AcDbEntity
  8
BEMAßUNG
  0
POLYLINE
  5
508
330
1F
100
AcDbEntity
  8
BEMAßUNG
 62
     7
100
AcDb2dPolyline
 66
     1
 10
0.0
 20
0.0
 30
0.0
  0
VERTEX
  5
509
330
508
100
AcDbEntity
  8
BEMAßUNG
 62
     7
100
AcDbVertex
100
AcDb2dVertex
 10
98.92143823481825
 20
99.56015893778357
 30
0.0
  0
VERTEX
  5
50A
330
508
100
AcDbEntity
  8
BEMAßUNG
 62
     7
100
AcDbVertex
100
AcDb2dVertex
 10
98.92143823481825
 20
97.84760197206589
 30
0.0
  0
SEQEND
  5
50B
330
508
100
AcDbEntity
  8
BEMAßUNG
  0
POLYLINE
  5
50C
330
1F
100
AcDbEntity
  8
BEMAßUNG
 62
     7
100
AcDb2dPolyline
 66
     1
 10
0.0
 20
0.0
 30
0.0
  0
VERTEX
  5
50D
330
50C
100
AcDbEntity
  8
BEMAßUNG
 62
     7
100
AcDbVertex
100
AcDb2dVertex
 10
98.94951576302304
 20
99.56015893778357
 30
0.0
  0
VERTEX
  5
50E
330
50C
100
AcDbEntity
  8
BEMAßUNG
 62
     7
100
AcDbVertex
100
AcDb2dVertex
 10
98.94951576302304
 20
97.63503958062597
 30
0.0
  0
SEQEND
  5
50F
330
50C
100
AcDbEntity
  8
BEMAßUNG
  0
POLYLINE
  5
510
330
1F
100
AcDbEntity
  8
BEMAßUNG
 62
     7
100
AcDb2dPolyline
 66
     1
 10
0.0
 20
0.0
 30
0.0
  0
VERTEX
  5
511
330
510
100
AcDbEntity
  8
BEMAßUNG
 62
     7
100
AcDbVertex
100
AcDb2dVertex
 10
90.21275361242945
 20
112.0231363652234
 30
0.0
  0
VERTEX
  5
512
330
510
100
AcDbEntity
  8
BEMAßUNG
 62
     7
100
AcDbVertex
100
AcDb2dVertex
 10
90.21275361242945
 20
123.5452582156415
 30
0.0
  0
SEQEND
  5
513
330
510
100
AcDbEntity
  8
BEMAßUNG
  0
POLYLINE
  5
514
330
1F
100
AcDbEntity
  8
BEMAßUNG
 62
     7
100
AcDb2dPolyline
 66
     1
 10
0.0
 20
0.0
 30
0.0
  0
VERTEX
  5
515
330
514
100
AcDbEntity
  8
BEMAßUNG
 62
     7
100
AcDbVertex
100
AcDb2dVertex
 10
82.57290986433941
 20
111.8526041387035
 30
0.0
  0
VERTEX
  5
516
330
514
100
AcDbEntity
  8
BEMAßUNG
 62
     7
100
AcDbVertex
100
AcDb2dVertex
 10
78.93764510830378
 20
111.6610568297236
 30
0.0
  0
SEQEND
  5
517
330
514
100
AcDbEntity
  8
BEMAßUNG
  0
SPLINE
  5
518
330
1F
100
AcDbEntity
  8
BEMAßUNG
 62
     7
100
AcDbSpline
210
0.0
220
0.0
230
1.0
 70
     8
 71
     3
 72
    11
 73
     7
 74
     0
 42
0.0000000001
 43
0.0000000001
 40
0.0
 40
0.0
 40
0.0
 40
0.0
 40
1.0
 40
1.0
 40
1.0
 40
2.0
 40
2.0
 40
2.0
 40
2.0
 10
90.21275361242945
 20
122.4452392272012
 30
0.0
 10
84.58484562772531
 20
122.4452392272012
 30
0.0
 10
80.02216116706043
 20
117.8825547665363
 30
0.0
 10
80.02216116706043
 20
112.2546467818322
 30
0.0
 10
80.02216116706043
 20
112.066200058789
 30
0.0
 10
80.02750106506257
 20
111.8787868643914
 30
0.0
 10
80.03663056809849
 20
111.7189344338758
 30
0.0
  0
POLYLINE
  5
519
330
1F
100
AcDbEntity
  8
BEMAßUNG
 62
     7
100
AcDb2dPolyline
 66
     1
 10
0.0
 20
0.0
 30
0.0
  0
VERTEX
  5
51A
330
519
100
AcDbEntity
  8
BEMAßUNG
 62
     7
100
AcDbVertex
100
AcDb2dVertex
 10
90.21275361242945
 20
122.4452392272012
 30
0.0
  0
VERTEX
  5
51B
330
519
100
AcDbEntity
  8
BEMAßUNG
 62
     7
100
AcDbVertex
100
AcDb2dVertex
 10
88.27798798791315
 20
122.607847734105
 30
0.0
  0
VERTEX
  5
51C
330
519
100
AcDbEntity
  8
BEMAßUNG
 62
     7
100
AcDbVertex
100
AcDb2dVertex
 10
88.30175914676137
 20
122.1014186977733
 30
0.0
  0
VERTEX
  5
51D
330
519
100
AcDbEntity
  8
BEMAßUNG
 62
     7
100
AcDbVertex
100
AcDb2dVertex
 10
90.21275361242945
 20
122.4452392272012
 30
0.0
  0
SEQEND
  5
51E
330
519
100
AcDbEntity
  8
BEMAßUNG
  0
POLYLINE
  5
51F
330
1F
100
AcDbEntity
  8
BEMAßUNG
 62
     7
100
AcDb2dPolyline
 66
     1
 10
0.0
 20
0.0
 30
0.0
  0
VERTEX
  5
520
330
51F
100
AcDbEntity
  8
BEMAßUNG
 62
     7
100
AcDbVertex
100
AcDb2dVertex
 10
88.27798798791315
 20
122.6057806768138
 30
0.0
  0
VERTEX
  5
521
330
51F
100
AcDbEntity
  8
BEMAßUNG
 62
     7
100
AcDbVertex
100
AcDb2dVertex
 10
88.29297415327399
 20
122.6061251863624
 30
0.0
  0
SEQEND
  5
522
330
51F
100
AcDbEntity
  8
BEMAßUNG
  0
POLYLINE
  5
523
330
1F
100
AcDbEntity
  8
BEMAßUNG
 62
     7
100
AcDb2dPolyline
 66
     1
 10
0.0
 20
0.0
 30
0.0
  0
VERTEX
  5
524
330
523
100
AcDbEntity
  8
BEMAßUNG
 62
     7
100
AcDbVertex
100
AcDb2dVertex
 10
88.27798798791315
 20
122.6057806768138
 30
0.0
  0
VERTEX
  5
525
330
523
100
AcDbEntity
  8
BEMAßUNG
 62
     7
100
AcDbVertex
100
AcDb2dVertex
 10
88.29297415327399
 20
122.6061251863624
 30
0.0
  0
SEQEND
  5
526
330
523
100
AcDbEntity
  8
BEMAßUNG
  0
POLYLINE
  5
527
330
1F
100
AcDbEntity
  8
BEMAßUNG
 62
     7
100
AcDb2dPolyline
 66
     1
 10
0.0
 20
0.0
 30
0.0
  0
VERTEX
  5
528
330
527
100
AcDbEntity
  8
BEMAßUNG
 62
     7
100
AcDbVertex
100
AcDb2dVertex
 10
88.27936602610724
 20
122.5778754033833
 30
0.0
  0
VERTEX
  5
529
330
527
100
AcDbEntity
  8
BEMAßUNG
 62
     7
100
AcDbVertex
100
AcDb2dVertex
 10
88.50622556381094
 20
122.5882106898391
 30
0.0
  0
SEQEND
  5
52A
330
527
100
AcDbEntity
  8
BEMAßUNG
  0
POLYLINE
  5
52B
330
1F
100
AcDbEntity
  8
BEMAßUNG
 62
     7
100
AcDb2dPolyline
 66
     1
 10
0.0
 20
0.0
 30
0.0
  0
VERTEX
  5
52C
330
52B
100
AcDbEntity
  8
BEMAßUNG
 62
     7
100
AcDbVertex
100
AcDb2dVertex
 10
88.28074406430135
 20
122.5499701299528
 30
0.0
  0
VERTEX
  5
52D
330
52B
100
AcDbEntity
  8
BEMAßUNG
 62
     7
100
AcDbVertex
100
AcDb2dVertex
 10
88.71964922912217
 20
122.5706407028643
 30
0.0
  0
SEQEND
  5
52E
330
52B
100
AcDbEntity
  8
BEMAßUNG
  0
POLYLINE
  5
52F
330
1F
100
AcDbEntity
  8
BEMAßUNG
 62
     7
100
AcDb2dPolyline
 66
     1
 10
0.0
 20
0.0
 30
0.0
  0
VERTEX
  5
530
330
52F
100
AcDbEntity
  8
BEMAßUNG
 62
     7
100
AcDbVertex
100
AcDb2dVertex
 10
88.28212210249545
 20
122.5220648565223
 30
0.0
  0
VERTEX
  5
531
330
52F
100
AcDbEntity
  8
BEMAßUNG
 62
     7
100
AcDbVertex
100
AcDb2dVertex
 10
88.93290063965914
 20
122.552726206341
 30
0.0
  0
SEQEND
  5
532
330
52F
100
AcDbEntity
  8
BEMAßUNG
  0
POLYLINE
  5
533
330
1F
100
AcDbEntity
  8
BEMAßUNG
 62
     7
100
AcDb2dPolyline
 66
     1
 10
0.0
 20
0.0
 30
0.0
  0
VERTEX
  5
534
330
533
100
AcDbEntity
  8
BEMAßUNG
 62
     7
100
AcDbVertex
100
AcDb2dVertex
 10
88.28350014068954
 20
122.4938150735432
 30
0.0
  0
VERTEX
  5
535
330
533
100
AcDbEntity
  8
BEMAßUNG
 62
     7
100
AcDbVertex
100
AcDb2dVertex
 10
89.14615205019611
 20
122.5348117098177
 30
0.0
  0
SEQEND
  5
536
330
533
100
AcDbEntity
  8
BEMAßUNG
  0
POLYLINE
  5
537
330
1F
100
AcDbEntity
  8
BEMAßUNG
 62
     7
100
AcDb2dPolyline
 66
     1
 10
0.0
 20
0.0
 30
0.0
  0
VERTEX
  5
538
330
537
100
AcDbEntity
  8
BEMAßUNG
 62
     7
100
AcDbVertex
100
AcDb2dVertex
 10
88.28453366933512
 20
122.4659098001127
 30
0.0
  0
VERTEX
  5
539
330
537
100
AcDbEntity
  8
BEMAßUNG
 62
     7
100
AcDbVertex
100
AcDb2dVertex
 10
89.35940346073308
 20
122.5165527037459
 30
0.0
  0
SEQEND
  5
53A
330
537
100
AcDbEntity
  8
BEMAßUNG
  0
POLYLINE
  5
53B
330
1F
100
AcDbEntity
  8
BEMAßUNG
 62
     7
100
AcDb2dPolyline
 66
     1
 10
0.0
 20
0.0
 30
0.0
  0
VERTEX
  5
53C
330
53B
100
AcDbEntity
  8
BEMAßUNG
 62
     7
100
AcDbVertex
100
AcDb2dVertex
 10
88.28591170752922
 20
122.4380045266822
 30
0.0
  0
VERTEX
  5
53D
330
53B
100
AcDbEntity
  8
BEMAßUNG
 62
     7
100
AcDbVertex
100
AcDb2dVertex
 10
89.5728271260443
 20
122.4986382072226
 30
0.0
  0
SEQEND
  5
53E
330
53B
100
AcDbEntity
  8
BEMAßUNG
  0
POLYLINE
  5
53F
330
1F
100
AcDbEntity
  8
BEMAßUNG
 62
     7
100
AcDb2dPolyline
 66
     1
 10
0.0
 20
0.0
 30
0.0
  0
VERTEX
  5
540
330
53F
100
AcDbEntity
  8
BEMAßUNG
 62
     7
100
AcDbVertex
100
AcDb2dVertex
 10
88.28728974572331
 20
122.4100992532516
 30
0.0
  0
VERTEX
  5
541
330
53F
100
AcDbEntity
  8
BEMAßUNG
 62
     7
100
AcDbVertex
100
AcDb2dVertex
 10
89.785906281807
 20
122.4810682202478
 30
0.0
  0
SEQEND
  5
542
330
53F
100
AcDbEntity
  8
BEMAßUNG
  0
POLYLINE
  5
543
330
1F
100
AcDbEntity
  8
BEMAßUNG
 62
     7
100
AcDb2dPolyline
 66
     1
 10
0.0
 20
0.0
 30
0.0
  0
VERTEX
  5
544
330
543
100
AcDbEntity
  8
BEMAßUNG
 62
     7
100
AcDbVertex
100
AcDb2dVertex
 10
88.28866778391742
 20
122.3821939798211
 30
0.0
  0
VERTEX
  5
545
330
543
100
AcDbEntity
  8
BEMAßUNG
 62
     7
100
AcDbVertex
100
AcDb2dVertex
 10
89.99950220189248
 20
122.4631537237245
 30
0.0
  0
SEQEND
  5
546
330
543
100
AcDbEntity
  8
BEMAßUNG
  0
POLYLINE
  5
547
330
1F
100
AcDbEntity
  8
BEMAßUNG
 62
     7
100
AcDb2dPolyline
 66
     1
 10
0.0
 20
0.0
 30
0.0
  0
VERTEX
  5
548
330
547
100
AcDbEntity
  8
BEMAßUNG
 62
     7
100
AcDbVertex
100
AcDb2dVertex
 10
88.29004582211152
 20
122.3542887063906
 30
0.0
  0
VERTEX
  5
549
330
547
100
AcDbEntity
  8
BEMAßUNG
 62
     7
100
AcDbVertex
100
AcDb2dVertex
 10
90.21275361242945
 20
122.4452392272012
 30
0.0
  0
SEQEND
  5
54A
330
547
100
AcDbEntity
  8
BEMAßUNG
  0
POLYLINE
  5
54B
330
1F
100
AcDbEntity
  8
BEMAßUNG
 62
     7
100
AcDb2dPolyline
 66
     1
 10
0.0
 20
0.0
 30
0.0
  0
VERTEX
  5
54C
330
54B
100
AcDbEntity
  8
BEMAßUNG
 62
     7
100
AcDbVertex
100
AcDb2dVertex
 10
88.30175914676137
 20
122.1031412455159
 30
0.0
  0
VERTEX
  5
54D
330
54B
100
AcDbEntity
  8
BEMAßUNG
 62
     7
100
AcDbVertex
100
AcDb2dVertex
 10
88.31657305734794
 20
122.1041747741615
 30
0.0
  0
SEQEND
  5
54E
330
54B
100
AcDbEntity
  8
BEMAßUNG
  0
POLYLINE
  5
54F
330
1F
100
AcDbEntity
  8
BEMAßUNG
 62
     7
100
AcDb2dPolyline
 66
     1
 10
0.0
 20
0.0
 30
0.0
  0
VERTEX
  5
550
330
54F
100
AcDbEntity
  8
BEMAßUNG
 62
     7
100
AcDbVertex
100
AcDb2dVertex
 10
88.30175914676137
 20
122.1031412455159
 30
0.0
  0
VERTEX
  5
551
330
54F
100
AcDbEntity
  8
BEMAßUNG
 62
     7
100
AcDbVertex
100
AcDb2dVertex
 10
88.31657305734794
 20
122.1041747741615
 30
0.0
  0
SEQEND
  5
552
330
54F
100
AcDbEntity
  8
BEMAßUNG
  0
POLYLINE
  5
553
330
1F
100
AcDbEntity
  8
BEMAßUNG
 62
     7
100
AcDb2dPolyline
 66
     1
 10
0.0
 20
0.0
 30
0.0
  0
VERTEX
  5
554
330
553
100
AcDbEntity
  8
BEMAßUNG
 62
     7
100
AcDbVertex
100
AcDb2dVertex
 10
88.30038110856727
 20
122.1310465189464
 30
0.0
  0
VERTEX
  5
555
330
553
100
AcDbEntity
  8
BEMAßUNG
 62
     7
100
AcDbVertex
100
AcDb2dVertex
 10
88.52741290104524
 20
122.1420708244992
 30
0.0
  0
SEQEND
  5
556
330
553
100
AcDbEntity
  8
BEMAßUNG
  0
POLYLINE
  5
557
330
1F
100
AcDbEntity
  8
BEMAßUNG
 62
     7
100
AcDb2dPolyline
 66
     1
 10
0.0
 20
0.0
 30
0.0
  0
VERTEX
  5
558
330
557
100
AcDbEntity
  8
BEMAßUNG
 62
     7
100
AcDbVertex
100
AcDb2dVertex
 10
88.29900307037317
 20
122.1589517923769
 30
0.0
  0
VERTEX
  5
559
330
557
100
AcDbEntity
  8
BEMAßUNG
 62
     7
100
AcDbVertex
100
AcDb2dVertex
 10
88.737908235194
 20
122.1796223652884
 30
0.0
  0
SEQEND
  5
55A
330
557
100
AcDbEntity
  8
BEMAßUNG
  0
POLYLINE
  5
55B
330
1F
100
AcDbEntity
  8
BEMAßUNG
 62
     7
100
AcDb2dPolyline
 66
     1
 10
0.0
 20
0.0
 30
0.0
  0
VERTEX
  5
55C
330
55B
100
AcDbEntity
  8
BEMAßUNG
 62
     7
100
AcDbVertex
100
AcDb2dVertex
 10
88.29762503217907
 20
122.187201575356
 30
0.0
  0
VERTEX
  5
55D
330
55B
100
AcDbEntity
  8
BEMAßUNG
 62
     7
100
AcDbVertex
100
AcDb2dVertex
 10
88.94874807889128
 20
122.2178629251747
 30
0.0
  0
SEQEND
  5
55E
330
55B
100
AcDbEntity
  8
BEMAßUNG
  0
POLYLINE
  5
55F
330
1F
100
AcDbEntity
  8
BEMAßUNG
 62
     7
100
AcDb2dPolyline
 66
     1
 10
0.0
 20
0.0
 30
0.0
  0
VERTEX
  5
560
330
55F
100
AcDbEntity
  8
BEMAßUNG
 62
     7
100
AcDbVertex
100
AcDb2dVertex
 10
88.29659150353349
 20
122.2151068487865
 30
0.0
  0
VERTEX
  5
561
330
55F
100
AcDbEntity
  8
BEMAßUNG
 62
     7
100
AcDbVertex
100
AcDb2dVertex
 10
89.15941566781432
 20
122.2554144659639
 30
0.0
  0
SEQEND
  5
562
330
55F
100
AcDbEntity
  8
BEMAßUNG
  0
POLYLINE
  5
563
330
1F
100
AcDbEntity
  8
BEMAßUNG
 62
     7
100
AcDb2dPolyline
 66
     1
 10
0.0
 20
0.0
 30
0.0
  0
VERTEX
  5
564
330
563
100
AcDbEntity
  8
BEMAßUNG
 62
     7
100
AcDbVertex
100
AcDb2dVertex
 10
88.2952134653394
 20
122.2426676126685
 30
0.0
  0
VERTEX
  5
565
330
563
100
AcDbEntity
  8
BEMAßUNG
 62
     7
100
AcDbVertex
100
AcDb2dVertex
 10
89.3702555115116
 20
122.2936550258502
 30
0.0
  0
SEQEND
  5
566
330
563
100
AcDbEntity
  8
BEMAßUNG
  0
POLYLINE
  5
567
330
1F
100
AcDbEntity
  8
BEMAßUNG
 62
     7
100
AcDb2dPolyline
 66
     1
 10
0.0
 20
0.0
 30
0.0
  0
VERTEX
  5
568
330
567
100
AcDbEntity
  8
BEMAßUNG
 62
     7
100
AcDbVertex
100
AcDb2dVertex
 10
88.2938354271453
 20
122.2709173956476
 30
0.0
  0
VERTEX
  5
569
330
567
100
AcDbEntity
  8
BEMAßUNG
 62
     7
100
AcDbVertex
100
AcDb2dVertex
 10
89.58075084566038
 20
122.3315510761879
 30
0.0
  0
SEQEND
  5
56A
330
567
100
AcDbEntity
  8
BEMAßUNG
  0
POLYLINE
  5
56B
330
1F
100
AcDbEntity
  8
BEMAßUNG
 62
     7
100
AcDb2dPolyline
 66
     1
 10
0.0
 20
0.0
 30
0.0
  0
VERTEX
  5
56C
330
56B
100
AcDbEntity
  8
BEMAßUNG
 62
     7
100
AcDbVertex
100
AcDb2dVertex
 10
88.29245738895119
 20
122.2988226690781
 30
0.0
  0
VERTEX
  5
56D
330
56B
100
AcDbEntity
  8
BEMAßUNG
 62
     7
100
AcDbVertex
100
AcDb2dVertex
 10
89.7914184345834
 20
122.3691026169772
 30
0.0
  0
SEQEND
  5
56E
330
56B
100
AcDbEntity
  8
BEMAßUNG
  0
POLYLINE
  5
56F
330
1F
100
AcDbEntity
  8
BEMAßUNG
 62
     7
100
AcDb2dPolyline
 66
     1
 10
0.0
 20
0.0
 30
0.0
  0
VERTEX
  5
570
330
56F
100
AcDbEntity
  8
BEMAßUNG
 62
     7
100
AcDbVertex
100
AcDb2dVertex
 10
88.29142386030561
 20
122.3267279425086
 30
0.0
  0
VERTEX
  5
571
330
56F
100
AcDbEntity
  8
BEMAßUNG
 62
     7
100
AcDbVertex
100
AcDb2dVertex
 10
90.00191376873217
 20
122.4073431768634
 30
0.0
  0
SEQEND
  5
572
330
56F
100
AcDbEntity
  8
BEMAßUNG
  0
POLYLINE
  5
573
330
1F
100
AcDbEntity
  8
BEMAßUNG
 62
     7
100
AcDb2dPolyline
 66
     1
 10
0.0
 20
0.0
 30
0.0
  0
VERTEX
  5
574
330
573
100
AcDbEntity
  8
BEMAßUNG
 62
     7
100
AcDbVertex
100
AcDb2dVertex
 10
88.29004582211152
 20
122.3542887063906
 30
0.0
  0
VERTEX
  5
575
330
573
100
AcDbEntity
  8
BEMAßUNG
 62
     7
100
AcDbVertex
100
AcDb2dVertex
 10
90.21275361242945
 20
122.4452392272012
 30
0.0
  0
SEQEND
  5
576
330
573
100
AcDbEntity
  8
BEMAßUNG
  0
POLYLINE
  5
577
330
1F
100
AcDbEntity
  8
BEMAßUNG
 62
     7
100
AcDb2dPolyline
 66
     1
 10
0.0
 20
0.0
 30
0.0
  0
VERTEX
  5
578
330
577
100
AcDbEntity
  8
BEMAßUNG
 62
     7
100
AcDbVertex
100
AcDb2dVertex
 10
80.03663056809849
 20
111.7189344338758
 30
0.0
  0
VERTEX
  5
579
330
577
100
AcDbEntity
  8
BEMAßUNG
 62
     7
100
AcDbVertex
100
AcDb2dVertex
 10
80.27916529026007
 20
113.6454318292275
 30
0.0
  0
VERTEX
  5
57A
330
577
100
AcDbEntity
  8
BEMAßUNG
 62
     7
100
AcDbVertex
100
AcDb2dVertex
 10
79.77239174437982
 20
113.6423312432908
 30
0.0
  0
VERTEX
  5
57B
330
577
100
AcDbEntity
  8
BEMAßUNG
 62
     7
100
AcDbVertex
100
AcDb2dVertex
 10
80.03663056809849
 20
111.7189344338758
 30
0.0
  0
SEQEND
  5
57C
330
577
100
AcDbEntity
  8
BEMAßUNG
  0
POLYLINE
  5
57D
330
1F
100
AcDbEntity
  8
BEMAßUNG
 62
     7
100
AcDb2dPolyline
 66
     1
 10
0.0
 20
0.0
 30
0.0
  0
VERTEX
  5
57E
330
57D
100
AcDbEntity
  8
BEMAßUNG
 62
     7
100
AcDbVertex
100
AcDb2dVertex
 10
80.27709823296892
 20
113.6454318292275
 30
0.0
  0
VERTEX
  5
57F
330
57D
100
AcDbEntity
  8
BEMAßUNG
 62
     7
100
AcDbVertex
100
AcDb2dVertex
 10
80.27744274251745
 20
113.6302734090924
 30
0.0
  0
SEQEND
  5
580
330
57D
100
AcDbEntity
  8
BEMAßUNG
  0
POLYLINE
  5
581
330
1F
100
AcDbEntity
  8
BEMAßUNG
 62
     7
100
AcDb2dPolyline
 66
     1
 10
0.0
 20
0.0
 30
0.0
  0
VERTEX
  5
582
330
581
100
AcDbEntity
  8
BEMAßUNG
 62
     7
100
AcDbVertex
100
AcDb2dVertex
 10
80.27709823296892
 20
113.6454318292275
 30
0.0
  0
VERTEX
  5
583
330
581
100
AcDbEntity
  8
BEMAßUNG
 62
     7
100
AcDbVertex
100
AcDb2dVertex
 10
80.27744274251745
 20
113.6302734090924
 30
0.0
  0
SEQEND
  5
584
330
581
100
AcDbEntity
  8
BEMAßUNG
  0
POLYLINE
  5
585
330
1F
100
AcDbEntity
  8
BEMAßUNG
 62
     7
100
AcDb2dPolyline
 66
     1
 10
0.0
 20
0.0
 30
0.0
  0
VERTEX
  5
586
330
585
100
AcDbEntity
  8
BEMAßUNG
 62
     7
100
AcDbVertex
100
AcDb2dVertex
 10
80.2491929595384
 20
113.6454318292275
 30
0.0
  0
VERTEX
  5
587
330
585
100
AcDbEntity
  8
BEMAßUNG
 62
     7
100
AcDbVertex
100
AcDb2dVertex
 10
80.2505709977325
 20
113.418055527201
 30
0.0
  0
SEQEND
  5
588
330
585
100
AcDbEntity
  8
BEMAßUNG
  0
POLYLINE
  5
589
330
1F
100
AcDbEntity
  8
BEMAßUNG
 62
     7
100
AcDb2dPolyline
 66
     1
 10
0.0
 20
0.0
 30
0.0
  0
VERTEX
  5
58A
330
589
100
AcDbEntity
  8
BEMAßUNG
 62
     7
100
AcDbVertex
100
AcDb2dVertex
 10
80.22128768610787
 20
113.645087319679
 30
0.0
  0
VERTEX
  5
58B
330
589
100
AcDbEntity
  8
BEMAßUNG
 62
     7
100
AcDbVertex
100
AcDb2dVertex
 10
80.22404376249608
 20
113.2058376453097
 30
0.0
  0
SEQEND
  5
58C
330
589
100
AcDbEntity
  8
BEMAßUNG
  0
POLYLINE
  5
58D
330
1F
100
AcDbEntity
  8
BEMAßUNG
 62
     7
100
AcDb2dPolyline
 66
     1
 10
0.0
 20
0.0
 30
0.0
  0
VERTEX
  5
58E
330
58D
100
AcDbEntity
  8
BEMAßUNG
 62
     7
100
AcDbVertex
100
AcDb2dVertex
 10
80.1932101579031
 20
113.645087319679
 30
0.0
  0
VERTEX
  5
58F
330
58D
100
AcDbEntity
  8
BEMAßUNG
 62
     7
100
AcDbVertex
100
AcDb2dVertex
 10
80.1968275081626
 20
112.9932752538697
 30
0.0
  0
SEQEND
  5
590
330
58D
100
AcDbEntity
  8
BEMAßUNG
  0
POLYLINE
  5
591
330
1F
100
AcDbEntity
  8
BEMAßUNG
 62
     7
100
AcDb2dPolyline
 66
     1
 10
0.0
 20
0.0
 30
0.0
  0
VERTEX
  5
592
330
591
100
AcDbEntity
  8
BEMAßUNG
 62
     7
100
AcDbVertex
100
AcDb2dVertex
 10
80.16530488447256
 20
113.645087319679
 30
0.0
  0
VERTEX
  5
593
330
591
100
AcDbEntity
  8
BEMAßUNG
 62
     7
100
AcDbVertex
100
AcDb2dVertex
 10
80.17030027292618
 20
112.7807128624298
 30
0.0
  0
SEQEND
  5
594
330
591
100
AcDbEntity
  8
BEMAßUNG
  0
POLYLINE
  5
595
330
1F
100
AcDbEntity
  8
BEMAßUNG
 62
     7
100
AcDb2dPolyline
 66
     1
 10
0.0
 20
0.0
 30
0.0
  0
VERTEX
  5
596
330
595
100
AcDbEntity
  8
BEMAßUNG
 62
     7
100
AcDbVertex
100
AcDb2dVertex
 10
80.1375718658163
 20
113.6447428101305
 30
0.0
  0
VERTEX
  5
597
330
595
100
AcDbEntity
  8
BEMAßUNG
 62
     7
100
AcDbVertex
100
AcDb2dVertex
 10
80.14342852814123
 20
112.5684949805384
 30
0.0
  0
SEQEND
  5
598
330
595
100
AcDbEntity
  8
BEMAßUNG
  0
POLYLINE
  5
599
330
1F
100
AcDbEntity
  8
BEMAßUNG
 62
     7
100
AcDb2dPolyline
 66
     1
 10
0.0
 20
0.0
 30
0.0
  0
VERTEX
  5
59A
330
599
100
AcDbEntity
  8
BEMAßUNG
 62
     7
100
AcDbVertex
100
AcDb2dVertex
 10
80.10966659238578
 20
113.644398300582
 30
0.0
  0
VERTEX
  5
59B
330
599
100
AcDbEntity
  8
BEMAßUNG
 62
     7
100
AcDbVertex
100
AcDb2dVertex
 10
80.11655678335629
 20
112.3559325890985
 30
0.0
  0
SEQEND
  5
59C
330
599
100
AcDbEntity
  8
BEMAßUNG
  0
POLYLINE
  5
59D
330
1F
100
AcDbEntity
  8
BEMAßUNG
 62
     7
100
AcDb2dPolyline
 66
     1
 10
0.0
 20
0.0
 30
0.0
  0
VERTEX
  5
59E
330
59D
100
AcDbEntity
  8
BEMAßUNG
 62
     7
100
AcDbVertex
100
AcDb2dVertex
 10
80.08176131895526
 20
113.644398300582
 30
0.0
  0
VERTEX
  5
59F
330
59D
100
AcDbEntity
  8
BEMAßUNG
 62
     7
100
AcDbVertex
100
AcDb2dVertex
 10
80.09002954811986
 20
112.1440592167557
 30
0.0
  0
SEQEND
  5
5A0
330
59D
100
AcDbEntity
  8
BEMAßUNG
  0
POLYLINE
  5
5A1
330
1F
100
AcDbEntity
  8
BEMAßUNG
 62
     7
100
AcDb2dPolyline
 66
     1
 10
0.0
 20
0.0
 30
0.0
  0
VERTEX
  5
5A2
330
5A1
100
AcDbEntity
  8
BEMAßUNG
 62
     7
100
AcDbVertex
100
AcDb2dVertex
 10
80.05385604552474
 20
113.6440537910334
 30
0.0
  0
VERTEX
  5
5A3
330
5A1
100
AcDbEntity
  8
BEMAßUNG
 62
     7
100
AcDbVertex
100
AcDb2dVertex
 10
80.0631578033349
 20
111.9311523157672
 30
0.0
  0
SEQEND
  5
5A4
330
5A1
100
AcDbEntity
  8
BEMAßUNG
  0
POLYLINE
  5
5A5
330
1F
100
AcDbEntity
  8
BEMAßUNG
 62
     7
100
AcDb2dPolyline
 66
     1
 10
0.0
 20
0.0
 30
0.0
  0
VERTEX
  5
5A6
330
5A5
100
AcDbEntity
  8
BEMAßUNG
 62
     7
100
AcDbVertex
100
AcDb2dVertex
 10
80.0259507720942
 20
113.6440537910334
 30
0.0
  0
VERTEX
  5
5A7
330
5A5
100
AcDbEntity
  8
BEMAßUNG
 62
     7
100
AcDbVertex
100
AcDb2dVertex
 10
80.03663056809849
 20
111.7189344338758
 30
0.0
  0
SEQEND
  5
5A8
330
5A5
100
AcDbEntity
  8
BEMAßUNG
  0
POLYLINE
  5
5A9
330
1F
100
AcDbEntity
  8
BEMAßUNG
 62
     7
100
AcDb2dPolyline
 66
     1
 10
0.0
 20
0.0
 30
0.0
  0
VERTEX
  5
5AA
330
5A9
100
AcDbEntity
  8
BEMAßUNG
 62
     7
100
AcDbVertex
100
AcDb2dVertex
 10
79.77445880167097
 20
113.6426757528393
 30
0.0
  0
VERTEX
  5
5AB
330
5A9
100
AcDbEntity
  8
BEMAßUNG
 62
     7
100
AcDbVertex
100
AcDb2dVertex
 10
79.77445880167097
 20
113.6275173327042
 30
0.0
  0
SEQEND
  5
5AC
330
5A9
100
AcDbEntity
  8
BEMAßUNG
  0
POLYLINE
  5
5AD
330
1F
100
AcDbEntity
  8
BEMAßUNG
 62
     7
100
AcDb2dPolyline
 66
     1
 10
0.0
 20
0.0
 30
0.0
  0
VERTEX
  5
5AE
330
5AD
100
AcDbEntity
  8
BEMAßUNG
 62
     7
100
AcDbVertex
100
AcDb2dVertex
 10
79.77445880167097
 20
113.6426757528393
 30
0.0
  0
VERTEX
  5
5AF
330
5AD
100
AcDbEntity
  8
BEMAßUNG
 62
     7
100
AcDbVertex
100
AcDb2dVertex
 10
79.77445880167097
 20
113.6275173327042
 30
0.0
  0
SEQEND
  5
5B0
330
5AD
100
AcDbEntity
  8
BEMAßUNG
  0
POLYLINE
  5
5B1
330
1F
100
AcDbEntity
  8
BEMAßUNG
 62
     7
100
AcDb2dPolyline
 66
     1
 10
0.0
 20
0.0
 30
0.0
  0
VERTEX
  5
5B2
330
5B1
100
AcDbEntity
  8
BEMAßUNG
 62
     7
100
AcDbVertex
100
AcDb2dVertex
 10
79.8023640751015
 20
113.6426757528393
 30
0.0
  0
VERTEX
  5
5B3
330
5B1
100
AcDbEntity
  8
BEMAßUNG
 62
     7
100
AcDbVertex
100
AcDb2dVertex
 10
79.8037421132956
 20
113.4156439603614
 30
0.0
  0
SEQEND
  5
5B4
330
5B1
100
AcDbEntity
  8
BEMAßUNG
  0
POLYLINE
  5
5B5
330
1F
100
AcDbEntity
  8
BEMAßUNG
 62
     7
100
AcDb2dPolyline
 66
     1
 10
0.0
 20
0.0
 30
0.0
  0
VERTEX
  5
5B6
330
5B5
100
AcDbEntity
  8
BEMAßUNG
 62
     7
100
AcDbVertex
100
AcDb2dVertex
 10
79.83026934853201
 20
113.6430202623879
 30
0.0
  0
VERTEX
  5
5B7
330
5B5
100
AcDbEntity
  8
BEMAßUNG
 62
     7
100
AcDbVertex
100
AcDb2dVertex
 10
79.8326809153717
 20
113.20342607847
 30
0.0
  0
SEQEND
  5
5B8
330
5B5
100
AcDbEntity
  8
BEMAßUNG
  0
POLYLINE
  5
5B9
330
1F
100
AcDbEntity
  8
BEMAßUNG
 62
     7
100
AcDb2dPolyline
 66
     1
 10
0.0
 20
0.0
 30
0.0
  0
VERTEX
  5
5BA
330
5B9
100
AcDbEntity
  8
BEMAßUNG
 62
     7
100
AcDbVertex
100
AcDb2dVertex
 10
79.85817462196255
 20
113.6433647719364
 30
0.0
  0
VERTEX
  5
5BB
330
5B9
100
AcDbEntity
  8
BEMAßUNG
 62
     7
100
AcDbVertex
100
AcDb2dVertex
 10
79.8616197174478
 20
112.9912081965786
 30
0.0
  0
SEQEND
  5
5BC
330
5B9
100
AcDbEntity
  8
BEMAßUNG
  0
POLYLINE
  5
5BD
330
1F
100
AcDbEntity
  8
BEMAßUNG
 62
     7
100
AcDb2dPolyline
 66
     1
 10
0.0
 20
0.0
 30
0.0
  0
VERTEX
  5
5BE
330
5BD
100
AcDbEntity
  8
BEMAßUNG
 62
     7
100
AcDbVertex
100
AcDb2dVertex
 10
79.88590764061881
 20
113.6433647719364
 30
0.0
  0
VERTEX
  5
5BF
330
5BD
100
AcDbEntity
  8
BEMAßUNG
 62
     7
100
AcDbVertex
100
AcDb2dVertex
 10
79.89090302907242
 20
112.7793348242357
 30
0.0
  0
SEQEND
  5
5C0
330
5BD
100
AcDbEntity
  8
BEMAßUNG
  0
POLYLINE
  5
5C1
330
1F
100
AcDbEntity
  8
BEMAßUNG
 62
     7
100
AcDb2dPolyline
 66
     1
 10
0.0
 20
0.0
 30
0.0
  0
VERTEX
  5
5C2
330
5C1
100
AcDbEntity
  8
BEMAßUNG
 62
     7
100
AcDbVertex
100
AcDb2dVertex
 10
79.91381291404933
 20
113.6433647719364
 30
0.0
  0
VERTEX
  5
5C3
330
5C1
100
AcDbEntity
  8
BEMAßUNG
 62
     7
100
AcDbVertex
100
AcDb2dVertex
 10
79.91984183114852
 20
112.5671169423443
 30
0.0
  0
SEQEND
  5
5C4
330
5C1
100
AcDbEntity
  8
BEMAßUNG
  0
POLYLINE
  5
5C5
330
1F
100
AcDbEntity
  8
BEMAßUNG
 62
     7
100
AcDb2dPolyline
 66
     1
 10
0.0
 20
0.0
 30
0.0
  0
VERTEX
  5
5C6
330
5C5
100
AcDbEntity
  8
BEMAßUNG
 62
     7
100
AcDbVertex
100
AcDb2dVertex
 10
79.94189044225412
 20
113.6433647719364
 30
0.0
  0
VERTEX
  5
5C7
330
5C5
100
AcDbEntity
  8
BEMAßUNG
 62
     7
100
AcDbVertex
100
AcDb2dVertex
 10
79.94912514277314
 20
112.354899060453
 30
0.0
  0
SEQEND
  5
5C8
330
5C5
100
AcDbEntity
  8
BEMAßUNG
  0
POLYLINE
  5
5C9
330
1F
100
AcDbEntity
  8
BEMAßUNG
 62
     7
100
AcDb2dPolyline
 66
     1
 10
0.0
 20
0.0
 30
0.0
  0
VERTEX
  5
5CA
330
5C9
100
AcDbEntity
  8
BEMAßUNG
 62
     7
100
AcDbVertex
100
AcDb2dVertex
 10
79.96979571568464
 20
113.6437092814849
 30
0.0
  0
VERTEX
  5
5CB
330
5C9
100
AcDbEntity
  8
BEMAßUNG
 62
     7
100
AcDbVertex
100
AcDb2dVertex
 10
79.97806394484924
 20
112.1433701976586
 30
0.0
  0
SEQEND
  5
5CC
330
5C9
100
AcDbEntity
  8
BEMAßUNG
  0
POLYLINE
  5
5CD
330
1F
100
AcDbEntity
  8
BEMAßUNG
 62
     7
100
AcDb2dPolyline
 66
     1
 10
0.0
 20
0.0
 30
0.0
  0
VERTEX
  5
5CE
330
5CD
100
AcDbEntity
  8
BEMAßUNG
 62
     7
100
AcDbVertex
100
AcDb2dVertex
 10
79.99770098911516
 20
113.6440537910334
 30
0.0
  0
VERTEX
  5
5CF
330
5CD
100
AcDbEntity
  8
BEMAßUNG
 62
     7
100
AcDbVertex
100
AcDb2dVertex
 10
80.0071750016996
 20
111.9311523157672
 30
0.0
  0
SEQEND
  5
5D0
330
5CD
100
AcDbEntity
  8
BEMAßUNG
  0
POLYLINE
  5
5D1
330
1F
100
AcDbEntity
  8
BEMAßUNG
 62
     7
100
AcDb2dPolyline
 66
     1
 10
0.0
 20
0.0
 30
0.0
  0
VERTEX
  5
5D2
330
5D1
100
AcDbEntity
  8
BEMAßUNG
 62
     7
100
AcDbVertex
100
AcDb2dVertex
 10
80.0259507720942
 20
113.6440537910334
 30
0.0
  0
VERTEX
  5
5D3
330
5D1
100
AcDbEntity
  8
BEMAßUNG
 62
     7
100
AcDbVertex
100
AcDb2dVertex
 10
80.03663056809849
 20
111.7189344338758
 30
0.0
  0
SEQEND
  5
5D4
330
5D1
100
AcDbEntity
  8
BEMAßUNG
  0
INSERT
  5
5D7
330
1F
100
AcDbEntity
  8
TEXT
100
AcDbBlockReference
  2
BLOCK_5
 10
0.0
 20
0.0
 30
0.0
  0
INSERT
  5
5E1
330
1F
100
AcDbEntity
  8
TEXT
100
AcDbBlockReference
  2
BLOCK_6
 10
0.0
 20
0.0
 30
0.0
  0
INSERT
  5
5F6
330
1F
100
AcDbEntity
  8
TEXT
100
AcDbBlockReference
  2
BLOCK_7
 10
0.0
 20
0.0
 30
0.0
  0
ENDSEC
  0
SECTION
  2
OBJECTS
  0
DICTIONARY
  5
C
330
0
100
AcDbDictionary
  3
ACAD_GROUP
350
D
  3
ACAD_LAYOUT
350
1A
  3
ACAD_MLINESTYLE
350
17
  3
ACAD_PLOTSETTINGS
350
19
  3
ACAD_TABLESTYLE
350
621
  3
ACAD_VISUALSTYLE
350
2A
  3
ACDBHEADERROUNDTRIPXREC
350
601
  0
DICTIONARY
  5
D
102
{ACAD_REACTORS
330
C
102
}
330
C
100
AcDbDictionary
  0
DICTIONARY
  5
1A
102
{ACAD_REACTORS
330
C
102
}
330
C
100
AcDbDictionary
  0
DICTIONARY
  5
17
102
{ACAD_REACTORS
330
C
102
}
330
C
100
AcDbDictionary
  3
STANDARD
350
18
  0
DICTIONARY
  5
19
102
{ACAD_REACTORS
330
C
102
}
330
C
100
AcDbDictionary
  0
DICTIONARY
  5
621
102
{ACAD_REACTORS
330
C
102
}
330
C
100
AcDbDictionary
  0
DICTIONARY
  5
2A
102
{ACAD_REACTORS
330
C
102
}
330
C
100
AcDbDictionary
  3
2DWIREFRAME
350
2F
  3
3D_HIDDEN
350
31
  3
3DWIREFRAME
350
30
  3
BASIC
350
32
  3
BRIGHTEN
350
36
  3
COLORCHANGE
350
3A
  3
CONCEPTUAL
350
34
  3
DIM
350
35
  3
FACEPATTERN
350
39
  3
FLAT
350
2B
  3
FLATWITHEDGES
350
2C
  3
GOURAUD
350
2D
  3
GOURAUDWITHEDGES
350
2E
  3
LINEPATTERN
350
38
  3
REALISTIC
350
33
  3
THICKEN
350
37
  0
DICTIONARY
  5
601
102
{ACAD_REACTORS
330
C
102
}
330
C
100
AcDbDictionary
  3
CEPSNTYPE
350
60A
  3
DIMSTYLEDATA
350
620
  3
FINGERPRINTGUID
350
60B
  3
HYPERLINKBASE
350
604
  3
INSUNITS
350
609
  3
LAYOUTDICT
350
606
  3
LWETCUNION
350
608
  3
PLOTSETDICT
350
607
  3
PSVPSCALE
350
60D
  3
PUCSBASE
350
610
  3
PUCSORGBACK
350
616
  3
PUCSORGBOTTOM
350
612
  3
PUCSORGFRONT
350
615
  3
PUCSORGLEFT
350
613
  3
PUCSORGRIGHT
350
614
  3
PUCSORGTOP
350
611
  3
PUCSORTHOREF
350
60E
  3
PUCSORTHOVIEW
350
60F
  3
STYLESHEET
350
605
  3
TSTACKALIGN
350
602
  3
TSTACKSIZE
350
603
  3
UCSBASE
350
619
  3
UCSORGBACK
350
61F
  3
UCSORGBOTTOM
350
61B
  3
UCSORGFRONT
350
61E
  3
UCSORGLEFT
350
61C
  3
UCSORGRIGHT
350
61D
  3
UCSORGTOP
350
61A
  3
UCSORTHOREF
350
617
  3
UCSORTHOVIEW
350
618
  3
VERSIONGUID
350
60C
  0
MLINESTYLE
  5
18
102
{ACAD_REACTORS
330
17
102
}
330
17
100
AcDbMlineStyle
  2
Standard
 70
     0
  3

 62
   256
 51
90.0
 52
90.0
 71
     2
 49
0.5
 62
   256
  6
BYLAYER
 49
-0.5
 62
   256
  6
BYLAYER
  0
VISUALSTYLE
  5
2F
102
{ACAD_REACTORS
330
2A
102
}
330
2A
100
AcDbVisualStyle
  2
2dWireframe
 70
     4
 71
     0
 72
     2
 73
     0
 90
        0
 40
-0.6
 41
-30.0
 62
     5
 63
     7
 74
     1
 91
        4
 64
     7
 65
   257
 75
     1
175
     1
 42
1.0
 92
        0
 66
   257
 43
1.0
 76
     1
 77
     6
 78
     2
 67
     7
 79
     5
170
     0
171
     0
290
     0
174
     0
 93
        1
 44
0.0
173
     0
291
     0
 45
0.0
1001
ACAD
1000
AcDbSavedByObjectVersion
1070
     0
  0
VISUALSTYLE
  5
31
102
{ACAD_REACTORS
330
2A
102
}
330
2A
100
AcDbVisualStyle
  2
3D Hidden
 70
     6
 71
     1
 72
     2
 73
     2
 90
        0
 40
-0.6
 41
-30.0
 62
     5
 63
     7
 74
     2
 91
        2
 64
     7
 65
   257
 75
     2
175
     1
 42
40.0
 92
        0
 66
   257
 43
1.0
 76
     1
 77
     6
 78
     2
 67
     7
 79
     3
170
     0
171
     0
290
     0
174
     0
 93
        1
 44
0.0
173
     0
291
     0
 45
0.0
1001
ACAD
1000
AcDbSavedByObjectVersion
1070
     0
  0
VISUALSTYLE
  5
30
102
{ACAD_REACTORS
330
2A
102
}
330
2A
100
AcDbVisualStyle
  2
3dWireframe
 70
     5
 71
     0
 72
     2
 73
     0
 90
        0
 40
-0.6
 41
-30.0
 62
     5
 63
     7
 74
     1
 91
        4
 64
     7
 65
   257
 75
     1
175
     1
 42
1.0
 92
        0
 66
   257
 43
1.0
 76
     1
 77
     6
 78
     2
 67
     7
 79
     5
170
     0
171
     0
290
     0
174
     0
 93
        1
 44
0.0
173
     0
291
     0
 45
0.0
1001
ACAD
1000
AcDbSavedByObjectVersion
1070
     0
  0
VISUALSTYLE
  5
32
102
{ACAD_REACTORS
330
2A
102
}
330
2A
100
AcDbVisualStyle
  2
Basic
 70
     7
 71
     1
 72
     0
 73
     1
 90
        0
 40
-0.6
 41
-30.0
 62
     5
 63
     7
 74
     0
 91
        4
 64
     7
 65
   257
 75
     1
175
     1
 42
1.0
 92
        8
 66
     7
 43
1.0
 76
     1
 77
     6
 78
     2
 67
     7
 79
     5
170
     0
171
     0
290
     0
174
     0
 93
        1
 44
0.0
173
     0
291
     1
 45
0.0
1001
ACAD
1000
AcDbSavedByObjectVersion
1070
     0
  0
VISUALSTYLE
  5
36
102
{ACAD_REACTORS
330
2A
102
}
330
2A
100
AcDbVisualStyle
  2
Brighten
 70
    12
 71
     2
 72
     2
 73
     0
 90
        0
 40
-0.6
 41
-30.0
 62
     5
 63
     7
 74
     1
 91
        4
 64
     7
 65
   257
 75
     1
175
     1
 42
1.0
 92
        8
 66
     7
 43
1.0
 76
     1
 77
     6
 78
     2
 67
     7
 79
     5
170
     0
171
     0
290
     0
174
     0
 93
        1
 44
50.0
173
     0
291
     1
 45
0.0
1001
ACAD
1000
AcDbSavedByObjectVersion
1070
     0
  0
VISUALSTYLE
  5
3A
102
{ACAD_REACTORS
330
2A
102
}
330
2A
100
AcDbVisualStyle
  2
ColorChange
 70
    16
 71
     2
 72
     2
 73
     3
 90
        0
 40
-0.6
 41
-30.0
 62
     5
 63
     8
 74
     1
 91
        4
 64
     7
 65
   257
 75
     1
175
     1
 42
1.0
 92
        8
 66
     8
 43
1.0
 76
     1
 77
     6
 78
     2
 67
     7
 79
     5
170
     0
171
     0
290
     0
174
     0
 93
        1
 44
0.0
173
     0
291
     1
 45
0.0
1001
ACAD
1000
AcDbSavedByObjectVersion
1070
     0
  0
VISUALSTYLE
  5
34
102
{ACAD_REACTORS
330
2A
102
}
330
2A
100
AcDbVisualStyle
  2
Conceptual
 70
     9
 71
     3
 72
     2
 73
     0
 90
        0
 40
-0.6
 41
-30.0
 62
     5
 63
     7
 74
     2
 91
        2
 64
     7
 65
   257
 75
     1
175
     1
 42
40.0
 92
        8
 66
     7
 43
1.0
 76
     1
 77
     6
 78
     2
 67
     7
 79
     3
170
     0
171
     0
290
     0
174
     0
 93
        1
 44
0.0
173
     0
291
     0
 45
0.0
1001
ACAD
1000
AcDbSavedByObjectVersion
1070
     0
  0
VISUALSTYLE
  5
35
102
{ACAD_REACTORS
330
2A
102
}
330
2A
100
AcDbVisualStyle
  2
Dim
 70
    11
 71
     2
 72
     2
 73
     0
 90
        0
 40
-0.6
 41
-30.0
 62
     5
 63
     7
 74
     1
 91
        4
 64
     7
 65
   257
 75
     1
175
     1
 42
1.0
 92
        8
 66
     7
 43
1.0
 76
     1
 77
     6
 78
     2
 67
     7
 79
     5
170
     0
171
     0
290
     0
174
     0
 93
        1
 44
-50.0
173
     0
291
     1
 45
0.0
1001
ACAD
1000
AcDbSavedByObjectVersion
1070
     0
  0
VISUALSTYLE
  5
39
102
{ACAD_REACTORS
330
2A
102
}
330
2A
100
AcDbVisualStyle
  2
Facepattern
 70
    15
 71
     2
 72
     2
 73
     0
 90
        0
 40
-0.6
 41
-30.0
 62
     5
 63
     7
 74
     1
 91
        4
 64
     7
 65
   257
 75
     1
175
     1
 42
1.0
 92
        8
 66
     7
 43
1.0
 76
     1
 77
     6
 78
     2
 67
     7
 79
     5
170
     0
171
     0
290
     0
174
     0
 93
        1
 44
0.0
173
     0
291
     1
 45
0.0
1001
ACAD
1000
AcDbSavedByObjectVersion
1070
     0
  0
VISUALSTYLE
  5
2B
102
{ACAD_REACTORS
330
2A
102
}
330
2A
100
AcDbVisualStyle
  2
Flat
 70
     0
 71
     2
 72
     1
 73
     1
 90
        2
 40
-0.6
 41
30.0
 62
     5
 63
     7
 74
     0
 91
        4
 64
     7
 65
   257
 75
     1
175
     1
 42
1.0
 92
        8
 66
     7
 43
1.0
 76
     1
 77
     6
 78
     2
 67
     7
 79
     5
170
     0
171
     0
290
     0
174
     0
 93
       13
 44
0.0
173
     0
291
     1
 45
0.0
1001
ACAD
1000
AcDbSavedByObjectVersion
1070
     0
  0
VISUALSTYLE
  5
2C
102
{ACAD_REACTORS
330
2A
102
}
330
2A
100
AcDbVisualStyle
  2
FlatWithEdges
 70
     1
 71
     2
 72
     1
 73
     1
 90
        2
 40
-0.6
 41
30.0
 62
     5
 63
     7
 74
     1
 91
        4
 64
     7
 65
   257
 75
     1
175
     1
 42
1.0
 92
        0
 66
   257
 43
1.0
 76
     1
 77
     6
 78
     2
 67
     7
 79
     5
170
     0
171
     0
290
     0
174
     0
 93
       13
 44
0.0
173
     0
291
     1
 45
0.0
1001
ACAD
1000
AcDbSavedByObjectVersion
1070
     0
  0
VISUALSTYLE
  5
2D
102
{ACAD_REACTORS
330
2A
102
}
330
2A
100
AcDbVisualStyle
  2
Gouraud
 70
     2
 71
     2
 72
     2
 73
     1
 90
        2
 40
-0.6
 41
30.0
 62
     5
 63
     7
 74
     0
 91
        4
 64
     7
 65
   257
 75
     1
175
     1
 42
1.0
 92
        0
 66
     7
 43
1.0
 76
     1
 77
     6
 78
     2
 67
     7
 79
     5
170
     0
171
     0
290
     0
174
     0
 93
       13
 44
0.0
173
     0
291
     1
 45
0.0
1001
ACAD
1000
AcDbSavedByObjectVersion
1070
     0
  0
VISUALSTYLE
  5
2E
102
{ACAD_REACTORS
330
2A
102
}
330
2A
100
AcDbVisualStyle
  2
GouraudWithEdges
 70
     3
 71
     2
 72
     2
 73
     1
 90
        2
 40
-0.6
 41
30.0
 62
     5
 63
     7
 74
     1
 91
        4
 64
     7
 65
   257
 75
     1
175
     1
 42
1.0
 92
        0
 66
   257
 43
1.0
 76
     1
 77
     6
 78
     2
 67
     7
 79
     5
170
     0
171
     0
290
     0
174
     0
 93
       13
 44
0.0
173
     0
291
     1
 45
0.0
1001
ACAD
1000
AcDbSavedByObjectVersion
1070
     0
  0
VISUALSTYLE
  5
38
102
{ACAD_REACTORS
330
2A
102
}
330
2A
100
AcDbVisualStyle
  2
Linepattern
 70
    14
 71
     2
 72
     2
 73
     0
 90
        0
 40
-0.6
 41
-30.0
 62
     5
 63
     7
 74
     1
 91
        4
 64
     7
 65
   257
 75
     7
175
     7
 42
1.0
 92
        8
 66
     7
 43
1.0
 76
     1
 77
     6
 78
     2
 67
     7
 79
     5
170
     0
171
     0
290
     0
174
     0
 93
        1
 44
0.0
173
     0
291
     1
 45
0.0
1001
ACAD
1000
AcDbSavedByObjectVersion
1070
     0
  0
VISUALSTYLE
  5
33
102
{ACAD_REACTORS
330
2A
102
}
330
2A
100
AcDbVisualStyle
  2
Realistic
 70
     8
 71
     2
 72
     2
 73
     0
 90
        0
 40
-0.6
 41
-30.0
 62
     5
 63
     7
 74
     1
 91
        0
 64
     7
 65
   257
 75
     1
175
     1
 42
1.0
 92
        8
 66
     8
 43
1.0
 76
     1
 77
     6
 78
     2
 67
     7
 79
     5
170
     0
171
     0
290
     0
174
     0
 93
       13
 44
0.0
173
     0
291
     0
 45
0.0
1001
ACAD
1000
AcDbSavedByObjectVersion
1070
     0
  0
VISUALSTYLE
  5
37
102
{ACAD_REACTORS
330
2A
102
}
330
2A
100
AcDbVisualStyle
  2
Thicken
 70
    13
 71
     2
 72
     2
 73
     0
 90
        0
 40
-0.6
 41
-30.0
 62
     5
 63
     7
 74
     1
 91
        4
 64
     7
 65
   257
 75
     1
175
     1
 42
1.0
 92
       12
 66
     7
 43
1.0
 76
     1
 77
     6
 78
     2
 67
     7
 79
     5
170
     0
171
     0
290
     0
174
     0
 93
        1
 44
0.0
173
     0
291
     1
 45
0.0
1001
ACAD
1000
AcDbSavedByObjectVersion
1070
     0
  0
XRECORD
  5
60A
102
{ACAD_REACTORS
330
601
102
}
330
601
100
AcDbXrecord
 90
        0
  0
XRECORD
  5
620
102
{ACAD_REACTORS
330
601
102
}
330
601
100
AcDbXrecord
1000
DSTYLE
1002
{
1070
   340
340
11
1002
}
  0
XRECORD
  5
60B
102
{ACAD_REACTORS
330
601
102
}
330
601
100
AcDbXrecord
  1
{66A1971A-1B38-40F1-9E8D-A5ECFBC41352}
  0
XRECORD
  5
604
102
{ACAD_REACTORS
330
601
102
}
330
601
100
AcDbXrecord
  1

  0
XRECORD
  5
609
102
{ACAD_REACTORS
330
601
102
}
330
601
100
AcDbXrecord
 90
        1
  0
XRECORD
  5
606
102
{ACAD_REACTORS
330
601
102
}
330
601
100
AcDbXrecord
340
1A
  0
XRECORD
  5
608
102
{ACAD_REACTORS
330
601
102
}
330
601
100
AcDbXrecord
 90
    10269
  0
XRECORD
  5
607
102
{ACAD_REACTORS
330
601
102
}
330
601
100
AcDbXrecord
340
19
  0
XRECORD
  5
60D
102
{ACAD_REACTORS
330
601
102
}
330
601
100
AcDbXrecord
 40
0.0
  0
XRECORD
  5
610
102
{ACAD_REACTORS
330
601
102
}
330
601
100
AcDbXrecord
340
0
  0
XRECORD
  5
616
102
{ACAD_REACTORS
330
601
102
}
330
601
100
AcDbXrecord
 10
0.0
 20
0.0
 30
0.0
  0
XRECORD
  5
612
102
{ACAD_REACTORS
330
601
102
}
330
601
100
AcDbXrecord
 10
0.0
 20
0.0
 30
0.0
  0
XRECORD
  5
615
102
{ACAD_REACTORS
330
601
102
}
330
601
100
AcDbXrecord
 10
0.0
 20
0.0
 30
0.0
  0
XRECORD
  5
613
102
{ACAD_REACTORS
330
601
102
}
330
601
100
AcDbXrecord
 10
0.0
 20
0.0
 30
0.0
  0
XRECORD
  5
614
102
{ACAD_REACTORS
330
601
102
}
330
601
100
AcDbXrecord
 10
0.0
 20
0.0
 30
0.0
  0
XRECORD
  5
611
102
{ACAD_REACTORS
330
601
102
}
330
601
100
AcDbXrecord
 10
0.0
 20
0.0
 30
0.0
  0
XRECORD
  5
60E
102
{ACAD_REACTORS
330
601
102
}
330
601
100
AcDbXrecord
340
0
  0
XRECORD
  5
60F
102
{ACAD_REACTORS
330
601
102
}
330
601
100
AcDbXrecord
 70
     0
  0
XRECORD
  5
605
102
{ACAD_REACTORS
330
601
102
}
330
601
100
AcDbXrecord
  1

  0
XRECORD
  5
602
102
{ACAD_REACTORS
330
601
102
}
330
601
100
AcDbXrecord
 90
        1
  0
XRECORD
  5
603
102
{ACAD_REACTORS
330
601
102
}
330
601
100
AcDbXrecord
 90
       70
  0
XRECORD
  5
619
102
{ACAD_REACTORS
330
601
102
}
330
601
100
AcDbXrecord
340
0
  0
XRECORD
  5
61F
102
{ACAD_REACTORS
330
601
102
}
330
601
100
AcDbXrecord
 10
0.0
 20
0.0
 30
0.0
  0
XRECORD
  5
61B
102
{ACAD_REACTORS
330
601
102
}
330
601
100
AcDbXrecord
 10
0.0
 20
0.0
 30
0.0
  0
XRECORD
  5
61E
102
{ACAD_REACTORS
330
601
102
}
330
601
100
AcDbXrecord
 10
0.0
 20
0.0
 30
0.0
  0
XRECORD
  5
61C
102
{ACAD_REACTORS
330
601
102
}
330
601
100
AcDbXrecord
 10
0.0
 20
0.0
 30
0.0
  0
XRECORD
  5
61D
102
{ACAD_REACTORS
330
601
102
}
330
601
100
AcDbXrecord
 10
0.0
 20
0.0
 30
0.0
  0
XRECORD
  5
61A
102
{ACAD_REACTORS
330
601
102
}
330
601
100
AcDbXrecord
 10
0.0
 20
0.0
 30
0.0
  0
XRECORD
  5
617
102
{ACAD_REACTORS
330
601
102
}
330
601
100
AcDbXrecord
340
0
  0
XRECORD
  5
618
102
{ACAD_REACTORS
330
601
102
}
330
601
100
AcDbXrecord
 70
     0
  0
XRECORD
  5
60C
102
{ACAD_REACTORS
330
601
102
}
330
601
100
AcDbXrecord
  1
{FAEB1C32-E019-11D5-929B-00C0DF256EC4}
  0
ENDSEC
  0
EOF
