  0
SECTION
  2
HEADER
  9
$ACADVER
  1
AC1014
  9
$ACADMAINTVER
 70
     9
  9
$DWGCODEPAGE
  3
ANSI_1252
  9
$INSBASE
 10
0.0
 20
0.0
 30
0.0
  9
$EXTMIN
 10
1.000000000000000E+20
 20
1.000000000000000E+20
 30
1.000000000000000E+20
  9
$EXTMAX
 10
-1.000000000000000E+20
 20
-1.000000000000000E+20
 30
-1.000000000000000E+20
  9
$LIMMIN
 10
0.0
 20
0.0
  9
$LIMMAX
 10
12.0
 20
9.0
  9
$ORTHOMODE
 70
     0
  9
$REGENMODE
 70
     1
  9
$FILLMODE
 70
     1
  9
$QTEXTMODE
 70
     0
  9
$MIRRTEXT
 70
     1
  9
$DRAGMODE
 70
     2
  9
$LTSCALE
 40
1.0
  9
$OSMODE
 70
    37
  9
$ATTMODE
 70
     1
  9
$TEXTSIZE
 40
0.2
  9
$TRACEWID
 40
0.05
  9
$TEXTSTYLE
  7
STANDARD
  9
$CLAYER
  8
0
  9
$CELTYPE
  6
BYLAYER
  9
$CECOLOR
 62
   256
  9
$CELTSCALE
 40
1.0
  9
$DELOBJ
 70
     1
  9
$DISPSILH
 70
     0
  9
$DIMSCALE
 40
1.0
  9
$DIMASZ
 40
0.18
  9
$DIMEXO
 40
0.0625
  9
$DIMDLI
 40
0.38
  9
$DIMRND
 40
0.0
  9
$DIMDLE
 40
0.0
  9
$DIMEXE
 40
0.18
  9
$DIMTP
 40
0.0
  9
$DIMTM
 40
0.0
  9
$DIMTXT
 40
0.18
  9
$DIMCEN
 40
0.09
  9
$DIMTSZ
 40
0.0
  9
$DIMTOL
 70
     0
  9
$DIMLIM
 70
     0
  9
$DIMTIH
 70
     1
  9
$DIMTOH
 70
     1
  9
$DIMSE1
 70
     0
  9
$DIMSE2
 70
     0
  9
$DIMTAD
 70
     0
  9
$DIMZIN
 70
     0
  9
$DIMBLK
  1

  9
$DIMASO
 70
     1
  9
$DIMSHO
 70
     1
  9
$DIMPOST
  1

  9
$DIMAPOST
  1

  9
$DIMALT
 70
     0
  9
$DIMALTD
 70
     2
  9
$DIMALTF
 40
25.4
  9
$DIMLFAC
 40
1.0
  9
$DIMTOFL
 70
     0
  9
$DIMTVP
 40
0.0
  9
$DIMTIX
 70
     0
  9
$DIMSOXD
 70
     0
  9
$DIMSAH
 70
     0
  9
$DIMBLK1
  1

  9
$DIMBLK2
  1

  9
$DIMSTYLE
  2
STANDARD
  9
$DIMCLRD
 70
     0
  9
$DIMCLRE
 70
     0
  9
$DIMCLRT
 70
     0
  9
$DIMTFAC
 40
1.0
  9
$DIMGAP
 40
0.09
  9
$DIMJUST
 70
     0
  9
$DIMSD1
 70
     0
  9
$DIMSD2
 70
     0
  9
$DIMTOLJ
 70
     1
  9
$DIMTZIN
 70
     0
  9
$DIMALTZ
 70
     0
  9
$DIMALTTZ
 70
     0
  9
$DIMFIT
 70
     3
  9
$DIMUPT
 70
     0
  9
$DIMUNIT
 70
     2
  9
$DIMDEC
 70
     4
  9
$DIMTDEC
 70
     4
  9
$DIMALTU
 70
     2
  9
$DIMALTTD
 70
     2
  9
$DIMTXSTY
  7
STANDARD
  9
$DIMAUNIT
 70
     0
  9
$LUNITS
 70
     2
  9
$LUPREC
 70
     4
  9
$SKETCHINC
 40
0.1
  9
$FILLETRAD
 40
0.5
  9
$AUNITS
 70
     0
  9
$AUPREC
 70
     0
  9
$MENU
  1
.
  9
$ELEVATION
 40
0.0
  9
$PELEVATION
 40
0.0
  9
$THICKNESS
 40
0.0
  9
$LIMCHECK
 70
     0
  9
$CHAMFERA
 40
0.5
  9
$CHAMFERB
 40
0.5
  9
$CHAMFERC
 40
1.0
  9
$CHAMFERD
 40
0.0
  9
$SKPOLY
 70
     0
  9
$TDCREATE
 40
2458389.527510474
  9
$TDUPDATE
 40
2458389.527510486
  9
$TDINDWG
 40
0.0000000116
  9
$TDUSRTIMER
 40
0.0000000116
  9
$USRTIMER
 70
     1
  9
$ANGBASE
 50
0.0
  9
$ANGDIR
 70
     0
  9
$PDMODE
 70
     0
  9
$PDSIZE
 40
0.0
  9
$PLINEWID
 40
0.0
  9
$COORDS
 70
     1
  9
$SPLFRAME
 70
     0
  9
$SPLINETYPE
 70
     6
  9
$SPLINESEGS
 70
     8
  9
$ATTDIA
 70
     0
  9
$ATTREQ
 70
     1
  9
$HANDLING
 70
     1
  9
$HANDSEED
  5
9A6
  9
$SURFTAB1
 70
     6
  9
$SURFTAB2
 70
     6
  9
$SURFTYPE
 70
     6
  9
$SURFU
 70
     6
  9
$SURFV
 70
     6
  9
$UCSNAME
  2

  9
$UCSORG
 10
0.0
 20
0.0
 30
0.0
  9
$UCSXDIR
 10
1.0
 20
0.0
 30
0.0
  9
$UCSYDIR
 10
0.0
 20
1.0
 30
0.0
  9
$PUCSNAME
  2

  9
$PUCSORG
 10
0.0
 20
0.0
 30
0.0
  9
$PUCSXDIR
 10
1.0
 20
0.0
 30
0.0
  9
$PUCSYDIR
 10
0.0
 20
1.0
 30
0.0
  9
$USERI1
 70
     0
  9
$USERI2
 70
     0
  9
$USERI3
 70
     0
  9
$USERI4
 70
     0
  9
$USERI5
 70
     0
  9
$USERR1
 40
0.0
  9
$USERR2
 40
0.0
  9
$USERR3
 40
0.0
  9
$USERR4
 40
0.0
  9
$USERR5
 40
0.0
  9
$WORLDVIEW
 70
     1
  9
$SHADEDGE
 70
     3
  9
$SHADEDIF
 70
    70
  9
$TILEMODE
 70
     1
  9
$MAXACTVP
 70
    64
  9
$PINSBASE
 10
0.0
 20
0.0
 30
0.0
  9
$PLIMCHECK
 70
     0
  9
$PEXTMIN
 10
1.000000000000000E+20
 20
1.000000000000000E+20
 30
1.000000000000000E+20
  9
$PEXTMAX
 10
-1.000000000000000E+20
 20
-1.000000000000000E+20
 30
-1.000000000000000E+20
  9
$PLIMMIN
 10
0.0
 20
0.0
  9
$PLIMMAX
 10
12.0
 20
9.0
  9
$UNITMODE
 70
     0
  9
$VISRETAIN
 70
     1
  9
$PLINEGEN
 70
     0
  9
$PSLTSCALE
 70
     1
  9
$TREEDEPTH
 70
  3020
  9
$PICKSTYLE
 70
     1
  9
$CMLSTYLE
  2
STANDARD
  9
$CMLJUST
 70
     0
  9
$CMLSCALE
 40
1.0
  9
$PROXYGRAPHICS
 70
     1
  9
$MEASUREMENT
 70
     0
  0
ENDSEC
  0
SECTION
  2
CLASSES
  0
CLASS
  1
ACDBDICTIONARYWDFLT
  2
AcDbDictionaryWithDefault
  3
ObjectDBX Classes
 90
        0
280
     0
281
     0
  0
CLASS
  1
VISUALSTYLE
  2
AcDbVisualStyle
  3
ObjectDBX Classes
 90
     4095
280
     0
281
     0
  0
CLASS
  1
XRECORD
  2
AcDbXrecord
  3
AutoCAD 2000
 90
        0
280
     0
281
     0
  0
CLASS
  1
LWPOLYLINE
  2
AcDbPolyline
  3
AutoCAD 2000
 90
        0
280
     0
281
     1
  0
CLASS
  1
HATCH
  2
AcDbHatch
  3
AutoCAD 2000
 90
        0
280
     0
281
     1
  0
CLASS
  1
ACDBPLACEHOLDER
  2
AcDbPlaceHolder
  3
ObjectDBX Classes
 90
        0
280
     0
281
     0
  0
CLASS
  1
LAYOUT
  2
AcDbLayout
  3
ObjectDBX Classes
 90
        0
280
     0
281
     0
  0
ENDSEC
  0
SECTION
  2
TABLES
  0
TABLE
  2
VPORT
  5
8
330
0
100
AcDbSymbolTable
 70
     1
  0
VPORT
  5
29
330
8
100
AcDbSymbolTableRecord
100
AcDbViewportTableRecord
  2
*ACTIVE
 70
     0
 10
0.0
 20
0.0
 11
1.0
 21
1.0
 12
0.0
 22
0.0
 13
0.0
 23
0.0
 14
0.5
 24
0.5
 15
0.5
 25
0.5
 16
0.0
 26
0.0
 36
1.0
 17
100.0619370952102
 27
127.0193786303545
 37
0.0
 40
297.0001314904201
 41
0.7070759562020681
 42
50.0
 43
0.0
 44
0.0
 50
0.0
 51
0.0
 71
     0
 72
   100
 73
     1
 74
     3
 75
     0
 76
     0
 77
     0
 78
     0
  0
ENDTAB
  0
TABLE
  2
LTYPE
  5
5
330
0
100
AcDbSymbolTable
 70
     7
  0
LTYPE
  5
14
330
5
100
AcDbSymbolTableRecord
100
AcDbLinetypeTableRecord
  2
BYBLOCK
 70
     0
  3

 72
    65
 73
     0
 40
0.0
  0
LTYPE
  5
15
330
5
100
AcDbSymbolTableRecord
100
AcDbLinetypeTableRecord
  2
BYLAYER
 70
     0
  3

 72
    65
 73
     0
 40
0.0
  0
LTYPE
  5
16
330
5
100
AcDbSymbolTableRecord
100
AcDbLinetypeTableRecord
  2
CONTINUOUS
 70
     0
  3
Solid line
 72
    65
 73
     0
 40
0.0
  0
LTYPE
  5
40
330
5
100
AcDbSymbolTableRecord
100
AcDbLinetypeTableRecord
  2
AI-LINETYPE-1
 70
     0
  3
Adobe Illustrator Linetype No. 1
 72
    65
 73
     4
 40
8.819444442239584
 49
7.055555553791667
 74
     0
 49
-0.7055555553791667
 74
     0
 49
0.3527777776895833
 74
     0
 49
-0.7055555553791667
 74
     0
  0
LTYPE
  5
580
330
5
100
AcDbSymbolTableRecord
100
AcDbLinetypeTableRecord
  2
AI-LINETYPE-2
 70
     0
  3
Adobe Illustrator Linetype No. 2
 72
    65
 73
     4
 40
4.938888887654167
 49
1.763888888447917
 74
     0
 49
-0.7055555553791667
 74
     0
 49
1.763888888447917
 74
     0
 49
-0.7055555553791667
 74
     0
  0
LTYPE
  5
58D
330
5
100
AcDbSymbolTableRecord
100
AcDbLinetypeTableRecord
  2
AI-LINETYPE-3
 70
     0
  3
Adobe Illustrator Linetype No. 3
 72
    65
 73
     4
 40
4.938888887654167
 49
1.763888888447917
 74
     0
 49
-0.7055555553791667
 74
     0
 49
1.763888888447917
 74
     0
 49
-0.7055555553791667
 74
     0
  0
LTYPE
  5
592
330
5
100
AcDbSymbolTableRecord
100
AcDbLinetypeTableRecord
  2
AI-LINETYPE-4
 70
     0
  3
Adobe Illustrator Linetype No. 4
 72
    65
 73
     4
 40
4.938888887654167
 49
1.763888888447917
 74
     0
 49
-0.7055555553791667
 74
     0
 49
1.763888888447917
 74
     0
 49
-0.7055555553791667
 74
     0
  0
LTYPE
  5
597
330
5
100
AcDbSymbolTableRecord
100
AcDbLinetypeTableRecord
  2
AI-LINETYPE-5
 70
     0
  3
Adobe Illustrator Linetype No. 5
 72
    65
 73
     4
 40
4.938888887654167
 49
1.763888888447917
 74
     0
 49
-0.7055555553791667
 74
     0
 49
1.763888888447917
 74
     0
 49
-0.7055555553791667
 74
     0
  0
LTYPE
  5
59C
330
5
100
AcDbSymbolTableRecord
100
AcDbLinetypeTableRecord
  2
AI-LINETYPE-6
 70
     0
  3
Adobe Illustrator Linetype No. 6
 72
    65
 73
     4
 40
4.938888887654167
 49
1.763888888447917
 74
     0
 49
-0.7055555553791667
 74
     0
 49
1.763888888447917
 74
     0
 49
-0.7055555553791667
 74
     0
  0
ENDTAB
  0
TABLE
  2
LAYER
  5
2
330
0
100
AcDbSymbolTable
 70
     5
  0
LAYER
  5
10
330
2
100
AcDbSymbolTableRecord
100
AcDbLayerTableRecord
  2
0
 70
     0
 62
     7
  6
CONTINUOUS
  0
LAYER
  5
3B
330
2
100
AcDbSymbolTableRecord
100
AcDbLayerTableRecord
  2
GRAU_10_
 70
     0
 62
     7
  6
CONTINUOUS
  0
LAYER
  5
57A
330
2
100
AcDbSymbolTableRecord
100
AcDbLayerTableRecord
  2
STANDARDEBENE
 70
     0
 62
     7
  6
CONTINUOUS
  0
LAYER
  5
5A5
330
2
100
AcDbSymbolTableRecord
100
AcDbLayerTableRecord
  2
BEMAßUNG
 70
     1
 62
     7
  6
CONTINUOUS
  0
LAYER
  5
97F
330
2
100
AcDbSymbolTableRecord
100
AcDbLayerTableRecord
  2
TEXT
 70
     1
 62
     7
  6
CONTINUOUS
  0
ENDTAB
  0
TABLE
  2
STYLE
  5
3
330
0
100
AcDbSymbolTable
 70
     1
  0
STYLE
  5
11
330
3
100
AcDbSymbolTableRecord
100
AcDbTextStyleTableRecord
  2
STANDARD
 70
     0
 40
0.0
 41
1.0
 50
0.0
 71
     0
 42
0.2
  3
txt
  4

  0
ENDTAB
  0
TABLE
  2
VIEW
  5
6
330
0
100
AcDbSymbolTable
 70
     0
  0
ENDTAB
  0
TABLE
  2
UCS
  5
7
330
0
100
AcDbSymbolTable
 70
     0
  0
ENDTAB
  0
TABLE
  2
APPID
  5
9
330
0
100
AcDbSymbolTable
 70
     1
  0
APPID
  5
12
330
9
100
AcDbSymbolTableRecord
100
AcDbRegAppTableRecord
  2
ACAD
 70
     0
  0
ENDTAB
  0
TABLE
  2
DIMSTYLE
  5
A
330
0
100
AcDbSymbolTable
 70
     1
  0
DIMSTYLE
105
27
330
A
100
AcDbSymbolTableRecord
100
AcDbDimStyleTableRecord
  2
STANDARD
 70
     0
  3

  4

  5

  6

  7

 40
1.0
 41
0.18
 42
0.0625
 43
0.38
 44
0.18
 45
0.0
 46
0.0
 47
0.0
 48
0.0
140
0.18
141
0.09
142
0.0
143
25.4
144
1.0
145
0.0
146
1.0
147
0.09
 71
     0
 72
     0
 73
     1
 74
     1
 75
     0
 76
     0
 77
     0
 78
     0
170
     0
171
     2
172
     0
173
     0
174
     0
175
     0
176
     0
177
     0
178
     0
270
     2
271
     4
272
     4
273
     2
274
     2
340
11
275
     0
280
     0
281
     0
282
     0
283
     1
284
     0
285
     0
286
     0
287
     3
288
     0
  0
ENDTAB
  0
TABLE
  2
BLOCK_RECORD
  5
1
330
0
100
AcDbSymbolTable
 70
     1
  0
BLOCK_RECORD
  5
1F
330
1
100
AcDbSymbolTableRecord
100
AcDbBlockTableRecord
  2
*MODEL_SPACE
  0
BLOCK_RECORD
  5
1B
330
1
100
AcDbSymbolTableRecord
100
AcDbBlockTableRecord
  2
*PAPER_SPACE
  0
ENDTAB
  0
ENDSEC
  0
SECTION
  2
BLOCKS
  0
BLOCK
  5
20
330
1F
100
AcDbEntity
  8
0
100
AcDbBlockBegin
  2
*MODEL_SPACE
 70
     0
 71
     0
 10
0.0
 20
0.0
 30
0.0
  3
*MODEL_SPACE
  1

  0
ENDBLK
  5
21
330
1F
100
AcDbEntity
  8
0
100
AcDbBlockEnd
  0
BLOCK
  5
1C
330
1B
100
AcDbEntity
 67
     1
  8
0
100
AcDbBlockBegin
  2
*PAPER_SPACE
 70
     0
 71
     0
 10
0.0
 20
0.0
 30
0.0
  3
*PAPER_SPACE
  1

  0
ENDBLK
  5
1D
330
1B
100
AcDbEntity
 67
     1
  8
0
100
AcDbBlockEnd
  0
ENDSEC
  0
SECTION
  2
ENTITIES
  0
POLYLINE
  5
3C
330
1F
100
AcDbEntity
  8
GRAU_10_
  6
AI-LINETYPE-1
 62
   250
100
AcDb2dPolyline
 66
     1
 10
0.0
 20
0.0
 30
0.0
  0
VERTEX
  5
3D
330
3C
100
AcDbEntity
  8
GRAU_10_
  6
AI-LINETYPE-1
 62
   250
100
AcDbVertex
100
AcDb2dVertex
 10
103.1912895792369
 20
201.3803005138911
 30
0.0
  0
VERTEX
  5
3E
330
3C
100
AcDbEntity
  8
GRAU_10_
  6
AI-LINETYPE-1
 62
   250
100
AcDbVertex
100
AcDb2dVertex
 10
103.1912895792369
 20
190.9557860850736
 30
0.0
  0
SEQEND
  5
3F
330
3C
100
AcDbEntity
  8
GRAU_10_
  6
AI-LINETYPE-1
  0
POLYLINE
  5
41
330
1F
100
AcDbEntity
  8
GRAU_10_
 62
     7
100
AcDb2dPolyline
 66
     1
 10
0.0
 20
0.0
 30
0.0
  0
VERTEX
  5
42
330
41
100
AcDbEntity
  8
GRAU_10_
 62
     7
100
AcDbVertex
100
AcDb2dVertex
 10
110.1912068409418
 20
179.3702744777269
 30
0.0
  0
VERTEX
  5
43
330
41
100
AcDbEntity
  8
GRAU_10_
 62
     7
100
AcDbVertex
100
AcDb2dVertex
 10
110.4180663786455
 20
179.7631876178196
 30
0.0
  0
SEQEND
  5
44
330
41
100
AcDbEntity
  8
GRAU_10_
  0
POLYLINE
  5
45
330
1F
100
AcDbEntity
  8
GRAU_10_
 62
     7
100
AcDb2dPolyline
 66
     1
 10
0.0
 20
0.0
 30
0.0
  0
VERTEX
  5
46
330
45
100
AcDbEntity
  8
GRAU_10_
 62
     7
100
AcDbVertex
100
AcDb2dVertex
 10
110.1912068409418
 20
179.3702744777269
 30
0.0
  0
VERTEX
  5
47
330
45
100
AcDbEntity
  8
GRAU_10_
 62
     7
100
AcDbVertex
100
AcDb2dVertex
 10
110.1912068409418
 20
199.9809027277826
 30
0.0
  0
SEQEND
  5
48
330
45
100
AcDbEntity
  8
GRAU_10_
  0
POLYLINE
  5
49
330
1F
100
AcDbEntity
  8
GRAU_10_
 62
     7
100
AcDb2dPolyline
 66
     1
 10
0.0
 20
0.0
 30
0.0
  0
VERTEX
  5
4A
330
49
100
AcDbEntity
  8
GRAU_10_
 62
     7
100
AcDbVertex
100
AcDb2dVertex
 10
113.0582153037667
 20
199.9809027277826
 30
0.0
  0
VERTEX
  5
4B
330
49
100
AcDbEntity
  8
GRAU_10_
 62
     7
100
AcDbVertex
100
AcDb2dVertex
 10
110.1912068409418
 20
199.9809027277826
 30
0.0
  0
SEQEND
  5
4C
330
49
100
AcDbEntity
  8
GRAU_10_
  0
POLYLINE
  5
4D
330
1F
100
AcDbEntity
  8
GRAU_10_
 62
     7
100
AcDb2dPolyline
 66
     1
 10
0.0
 20
0.0
 30
0.0
  0
VERTEX
  5
4E
330
4D
100
AcDbEntity
  8
GRAU_10_
 62
     7
100
AcDbVertex
100
AcDb2dVertex
 10
113.0582153037667
 20
199.9809027277826
 30
0.0
  0
VERTEX
  5
4F
330
4D
100
AcDbEntity
  8
GRAU_10_
 62
     7
100
AcDbVertex
100
AcDb2dVertex
 10
113.5911715753349
 20
194.8759602377393
 30
0.0
  0
SEQEND
  5
50
330
4D
100
AcDbEntity
  8
GRAU_10_
  0
POLYLINE
  5
51
330
1F
100
AcDbEntity
  8
GRAU_10_
 62
     7
100
AcDb2dPolyline
 66
     1
 10
0.0
 20
0.0
 30
0.0
  0
VERTEX
  5
52
330
51
100
AcDbEntity
  8
GRAU_10_
 62
     7
100
AcDbVertex
100
AcDb2dVertex
 10
113.5911715753349
 20
185.0124796086948
 30
0.0
  0
VERTEX
  5
53
330
51
100
AcDbEntity
  8
GRAU_10_
 62
     7
100
AcDbVertex
100
AcDb2dVertex
 10
113.5911715753349
 20
194.8759602377393
 30
0.0
  0
SEQEND
  5
54
330
51
100
AcDbEntity
  8
GRAU_10_
  0
POLYLINE
  5
55
330
1F
100
AcDbEntity
  8
GRAU_10_
 62
     7
100
AcDb2dPolyline
 66
     1
 10
0.0
 20
0.0
 30
0.0
  0
VERTEX
  5
56
330
55
100
AcDbEntity
  8
GRAU_10_
 62
     7
100
AcDbVertex
100
AcDb2dVertex
 10
113.5911715753349
 20
185.0124796086948
 30
0.0
  0
VERTEX
  5
57
330
55
100
AcDbEntity
  8
GRAU_10_
 62
     7
100
AcDbVertex
100
AcDb2dVertex
 10
110.6177096620157
 20
179.8617173486978
 30
0.0
  0
SEQEND
  5
58
330
55
100
AcDbEntity
  8
GRAU_10_
  0
POLYLINE
  5
59
330
1F
100
AcDbEntity
  8
GRAU_10_
 62
     7
100
AcDb2dPolyline
 66
     1
 10
0.0
 20
0.0
 30
0.0
  0
VERTEX
  5
5A
330
59
100
AcDbEntity
  8
GRAU_10_
 62
     7
100
AcDbVertex
100
AcDb2dVertex
 10
113.5911715753349
 20
185.0124796086948
 30
0.0
  0
VERTEX
  5
5B
330
59
100
AcDbEntity
  8
GRAU_10_
 62
     7
100
AcDbVertex
100
AcDb2dVertex
 10
125.4118109495498
 20
185.0124796086948
 30
0.0
  0
SEQEND
  5
5C
330
59
100
AcDbEntity
  8
GRAU_10_
  0
POLYLINE
  5
5D
330
1F
100
AcDbEntity
  8
GRAU_10_
 62
     7
100
AcDb2dPolyline
 66
     1
 10
0.0
 20
0.0
 30
0.0
  0
VERTEX
  5
5E
330
5D
100
AcDbEntity
  8
GRAU_10_
 62
     7
100
AcDbVertex
100
AcDb2dVertex
 10
132.8521836690439
 20
183.9853243897676
 30
0.0
  0
VERTEX
  5
5F
330
5D
100
AcDbEntity
  8
GRAU_10_
 62
     7
100
AcDbVertex
100
AcDb2dVertex
 10
125.4118109495498
 20
185.0124796086948
 30
0.0
  0
SEQEND
  5
60
330
5D
100
AcDbEntity
  8
GRAU_10_
  0
POLYLINE
  5
61
330
1F
100
AcDbEntity
  8
GRAU_10_
 62
     7
100
AcDb2dPolyline
 66
     1
 10
0.0
 20
0.0
 30
0.0
  0
VERTEX
  5
62
330
61
100
AcDbEntity
  8
GRAU_10_
 62
     7
100
AcDbVertex
100
AcDb2dVertex
 10
129.3917575088847
 20
179.8617173486978
 30
0.0
  0
VERTEX
  5
63
330
61
100
AcDbEntity
  8
GRAU_10_
 62
     7
100
AcDbVertex
100
AcDb2dVertex
 10
132.8521836690439
 20
183.9853243897676
 30
0.0
  0
SEQEND
  5
64
330
61
100
AcDbEntity
  8
GRAU_10_
  0
POLYLINE
  5
65
330
1F
100
AcDbEntity
  8
GRAU_10_
 62
     7
100
AcDb2dPolyline
 66
     1
 10
0.0
 20
0.0
 30
0.0
  0
VERTEX
  5
66
330
65
100
AcDbEntity
  8
GRAU_10_
 62
     7
100
AcDbVertex
100
AcDb2dVertex
 10
129.3917575088847
 20
179.8617173486978
 30
0.0
  0
VERTEX
  5
67
330
65
100
AcDbEntity
  8
GRAU_10_
 62
     7
100
AcDbVertex
100
AcDb2dVertex
 10
110.6177096620157
 20
179.8617173486978
 30
0.0
  0
SEQEND
  5
68
330
65
100
AcDbEntity
  8
GRAU_10_
  0
POLYLINE
  5
69
330
1F
100
AcDbEntity
  8
GRAU_10_
 62
     7
100
AcDb2dPolyline
 66
     1
 10
0.0
 20
0.0
 30
0.0
  0
VERTEX
  5
6A
330
69
100
AcDbEntity
  8
GRAU_10_
 62
     7
100
AcDbVertex
100
AcDb2dVertex
 10
113.5911715753349
 20
194.8759602377393
 30
0.0
  0
VERTEX
  5
6B
330
69
100
AcDbEntity
  8
GRAU_10_
 62
     7
100
AcDbVertex
100
AcDb2dVertex
 10
125.4118109495498
 20
185.0124796086948
 30
0.0
  0
SEQEND
  5
6C
330
69
100
AcDbEntity
  8
GRAU_10_
  0
POLYLINE
  5
6D
330
1F
100
AcDbEntity
  8
GRAU_10_
 62
     7
100
AcDb2dPolyline
 66
     1
 10
0.0
 20
0.0
 30
0.0
  0
VERTEX
  5
6E
330
6D
100
AcDbEntity
  8
GRAU_10_
 62
     7
100
AcDbVertex
100
AcDb2dVertex
 10
132.8521836690439
 20
183.9853243897676
 30
0.0
  0
VERTEX
  5
6F
330
6D
100
AcDbEntity
  8
GRAU_10_
 62
     7
100
AcDbVertex
100
AcDb2dVertex
 10
135.9891153631382
 20
187.7232529912636
 30
0.0
  0
SEQEND
  5
70
330
6D
100
AcDbEntity
  8
GRAU_10_
  0
POLYLINE
  5
71
330
1F
100
AcDbEntity
  8
GRAU_10_
 62
     7
100
AcDb2dPolyline
 66
     1
 10
0.0
 20
0.0
 30
0.0
  0
VERTEX
  5
72
330
71
100
AcDbEntity
  8
GRAU_10_
 62
     7
100
AcDbVertex
100
AcDb2dVertex
 10
117.1909518478724
 20
199.9809027277826
 30
0.0
  0
VERTEX
  5
73
330
71
100
AcDbEntity
  8
GRAU_10_
 62
     7
100
AcDbVertex
100
AcDb2dVertex
 10
113.0582153037667
 20
199.9809027277826
 30
0.0
  0
SEQEND
  5
74
330
71
100
AcDbEntity
  8
GRAU_10_
  0
POLYLINE
  5
75
330
1F
100
AcDbEntity
  8
GRAU_10_
 62
     7
100
AcDb2dPolyline
 66
     1
 10
0.0
 20
0.0
 30
0.0
  0
VERTEX
  5
76
330
75
100
AcDbEntity
  8
GRAU_10_
 62
     7
100
AcDbVertex
100
AcDb2dVertex
 10
121.6494221701085
 20
202.5547335648127
 30
0.0
  0
VERTEX
  5
77
330
75
100
AcDbEntity
  8
GRAU_10_
 62
     7
100
AcDbVertex
100
AcDb2dVertex
 10
117.1909518478724
 20
199.9809027277826
 30
0.0
  0
SEQEND
  5
78
330
75
100
AcDbEntity
  8
GRAU_10_
  0
POLYLINE
  5
79
330
1F
100
AcDbEntity
  8
GRAU_10_
 62
     7
100
AcDb2dPolyline
 66
     1
 10
0.0
 20
0.0
 30
0.0
  0
VERTEX
  5
7A
330
79
100
AcDbEntity
  8
GRAU_10_
 62
     7
100
AcDbVertex
100
AcDb2dVertex
 10
78.99156085264795
 20
178.4307969388992
 30
0.0
  0
VERTEX
  5
7B
330
79
100
AcDbEntity
  8
GRAU_10_
 62
     7
100
AcDbVertex
100
AcDb2dVertex
 10
128.1909694775009
 20
178.4307969388992
 30
0.0
  0
SEQEND
  5
7C
330
79
100
AcDbEntity
  8
GRAU_10_
  0
POLYLINE
  5
7D
330
1F
100
AcDbEntity
  8
GRAU_10_
 62
     7
100
AcDb2dPolyline
 66
     1
 10
0.0
 20
0.0
 30
0.0
  0
VERTEX
  5
7E
330
7D
100
AcDbEntity
  8
GRAU_10_
 62
     7
100
AcDbVertex
100
AcDb2dVertex
 10
78.99156085264795
 20
178.4307969388992
 30
0.0
  0
VERTEX
  5
7F
330
7D
100
AcDbEntity
  8
GRAU_10_
 62
     7
100
AcDbVertex
100
AcDb2dVertex
 10
78.19143742619868
 20
179.2309203653485
 30
0.0
  0
SEQEND
  5
80
330
7D
100
AcDbEntity
  8
GRAU_10_
  0
POLYLINE
  5
81
330
1F
100
AcDbEntity
  8
GRAU_10_
 62
     7
100
AcDb2dPolyline
 66
     1
 10
0.0
 20
0.0
 30
0.0
  0
VERTEX
  5
82
330
81
100
AcDbEntity
  8
GRAU_10_
 62
     7
100
AcDbVertex
100
AcDb2dVertex
 10
78.19143742619868
 20
179.3702744777269
 30
0.0
  0
VERTEX
  5
83
330
81
100
AcDbEntity
  8
GRAU_10_
 62
     7
100
AcDbVertex
100
AcDb2dVertex
 10
78.19143742619868
 20
179.2309203653485
 30
0.0
  0
SEQEND
  5
84
330
81
100
AcDbEntity
  8
GRAU_10_
  0
POLYLINE
  5
85
330
1F
100
AcDbEntity
  8
GRAU_10_
 62
     7
100
AcDb2dPolyline
 66
     1
 10
0.0
 20
0.0
 30
0.0
  0
VERTEX
  5
86
330
85
100
AcDbEntity
  8
GRAU_10_
 62
     7
100
AcDbVertex
100
AcDb2dVertex
 10
110.1912068409418
 20
179.3702744777269
 30
0.0
  0
VERTEX
  5
87
330
85
100
AcDbEntity
  8
GRAU_10_
 62
     7
100
AcDbVertex
100
AcDb2dVertex
 10
78.19143742619868
 20
179.3702744777269
 30
0.0
  0
SEQEND
  5
88
330
85
100
AcDbEntity
  8
GRAU_10_
  0
POLYLINE
  5
89
330
1F
100
AcDbEntity
  8
GRAU_10_
 62
     7
100
AcDb2dPolyline
 66
     1
 10
0.0
 20
0.0
 30
0.0
  0
VERTEX
  5
8A
330
89
100
AcDbEntity
  8
GRAU_10_
 62
     7
100
AcDbVertex
100
AcDb2dVertex
 10
128.1909694775009
 20
178.4307969388992
 30
0.0
  0
VERTEX
  5
8B
330
89
100
AcDbEntity
  8
GRAU_10_
 62
     7
100
AcDbVertex
100
AcDb2dVertex
 10
129.309247472013
 20
179.7631876178196
 30
0.0
  0
SEQEND
  5
8C
330
89
100
AcDbEntity
  8
GRAU_10_
  0
POLYLINE
  5
8D
330
1F
100
AcDbEntity
  8
GRAU_10_
 62
     7
100
AcDb2dPolyline
 66
     1
 10
0.0
 20
0.0
 30
0.0
  0
VERTEX
  5
8E
330
8D
100
AcDbEntity
  8
GRAU_10_
 62
     7
100
AcDbVertex
100
AcDb2dVertex
 10
78.19143742619868
 20
186.980662659418
 30
0.0
  0
VERTEX
  5
8F
330
8D
100
AcDbEntity
  8
GRAU_10_
 62
     7
100
AcDbVertex
100
AcDb2dVertex
 10
78.19143742619868
 20
179.3702744777269
 30
0.0
  0
SEQEND
  5
90
330
8D
100
AcDbEntity
  8
GRAU_10_
  0
POLYLINE
  5
91
330
1F
100
AcDbEntity
  8
GRAU_10_
 62
     7
100
AcDb2dPolyline
 66
     1
 10
0.0
 20
0.0
 30
0.0
  0
VERTEX
  5
92
330
91
100
AcDbEntity
  8
GRAU_10_
 62
     7
100
AcDbVertex
100
AcDb2dVertex
 10
91.19133298501467
 20
199.9809027277826
 30
0.0
  0
VERTEX
  5
93
330
91
100
AcDbEntity
  8
GRAU_10_
 62
     7
100
AcDbVertex
100
AcDb2dVertex
 10
78.19143742619868
 20
186.980662659418
 30
0.0
  0
SEQEND
  5
94
330
91
100
AcDbEntity
  8
GRAU_10_
  0
POLYLINE
  5
95
330
1F
100
AcDbEntity
  8
GRAU_10_
 62
     7
100
AcDb2dPolyline
 66
     1
 10
0.0
 20
0.0
 30
0.0
  0
VERTEX
  5
96
330
95
100
AcDbEntity
  8
GRAU_10_
 62
     7
100
AcDbVertex
100
AcDb2dVertex
 10
91.19133298501467
 20
199.9809027277826
 30
0.0
  0
VERTEX
  5
97
330
95
100
AcDbEntity
  8
GRAU_10_
 62
     7
100
AcDbVertex
100
AcDb2dVertex
 10
110.1912068409418
 20
199.9809027277826
 30
0.0
  0
SEQEND
  5
98
330
95
100
AcDbEntity
  8
GRAU_10_
  0
POLYLINE
  5
99
330
1F
100
AcDbEntity
  8
GRAU_10_
 62
     7
100
AcDb2dPolyline
 66
     1
 10
0.0
 20
0.0
 30
0.0
  0
VERTEX
  5
9A
330
99
100
AcDbEntity
  8
GRAU_10_
 62
     7
100
AcDbVertex
100
AcDb2dVertex
 10
136.3291462875323
 20
192.1601914667169
 30
0.0
  0
VERTEX
  5
9B
330
99
100
AcDbEntity
  8
GRAU_10_
 62
     7
100
AcDbVertex
100
AcDb2dVertex
 10
135.9891153631382
 20
187.7232529912636
 30
0.0
  0
SEQEND
  5
9C
330
99
100
AcDbEntity
  8
GRAU_10_
  0
POLYLINE
  5
9D
330
1F
100
AcDbEntity
  8
GRAU_10_
 62
     7
100
AcDb2dPolyline
 66
     1
 10
0.0
 20
0.0
 30
0.0
  0
VERTEX
  5
9E
330
9D
100
AcDbEntity
  8
GRAU_10_
 62
     7
100
AcDbVertex
100
AcDb2dVertex
 10
110.6177096620157
 20
179.8617173486978
 30
0.0
  0
VERTEX
  5
9F
330
9D
100
AcDbEntity
  8
GRAU_10_
 62
     7
100
AcDbVertex
100
AcDb2dVertex
 10
110.4180663786455
 20
179.7631876178196
 30
0.0
  0
SEQEND
  5
A0
330
9D
100
AcDbEntity
  8
GRAU_10_
  0
POLYLINE
  5
A1
330
1F
100
AcDbEntity
  8
GRAU_10_
 62
     7
100
AcDb2dPolyline
 66
     1
 10
0.0
 20
0.0
 30
0.0
  0
VERTEX
  5
A2
330
A1
100
AcDbEntity
  8
GRAU_10_
 62
     7
100
AcDbVertex
100
AcDb2dVertex
 10
129.3917575088847
 20
179.8617173486978
 30
0.0
  0
VERTEX
  5
A3
330
A1
100
AcDbEntity
  8
GRAU_10_
 62
     7
100
AcDbVertex
100
AcDb2dVertex
 10
129.309247472013
 20
179.7631876178196
 30
0.0
  0
SEQEND
  5
A4
330
A1
100
AcDbEntity
  8
GRAU_10_
  0
POLYLINE
  5
A5
330
1F
100
AcDbEntity
  8
GRAU_10_
 62
     7
100
AcDb2dPolyline
 66
     1
 10
0.0
 20
0.0
 30
0.0
  0
VERTEX
  5
A6
330
A5
100
AcDbEntity
  8
GRAU_10_
 62
     7
100
AcDbVertex
100
AcDb2dVertex
 10
125.3651299057247
 20
202.9385172018696
 30
0.0
  0
VERTEX
  5
A7
330
A5
100
AcDbEntity
  8
GRAU_10_
 62
     7
100
AcDbVertex
100
AcDb2dVertex
 10
121.6494221701085
 20
202.5547335648127
 30
0.0
  0
SEQEND
  5
A8
330
A5
100
AcDbEntity
  8
GRAU_10_
  0
POLYLINE
  5
A9
330
1F
100
AcDbEntity
  8
GRAU_10_
 62
     7
100
AcDb2dPolyline
 66
     1
 10
0.0
 20
0.0
 30
0.0
  0
VERTEX
  5
AA
330
A9
100
AcDbEntity
  8
GRAU_10_
 62
     7
100
AcDbVertex
100
AcDb2dVertex
 10
20.15845946761664
 20
192.1601914667169
 30
0.0
  0
VERTEX
  5
AB
330
A9
100
AcDbEntity
  8
GRAU_10_
 62
     7
100
AcDbVertex
100
AcDb2dVertex
 10
19.61861300507799
 20
187.7232529912636
 30
0.0
  0
SEQEND
  5
AC
330
A9
100
AcDbEntity
  8
GRAU_10_
  0
POLYLINE
  5
AD
330
1F
100
AcDbEntity
  8
GRAU_10_
 62
     7
100
AcDb2dPolyline
 66
     1
 10
0.0
 20
0.0
 30
0.0
  0
VERTEX
  5
AE
330
AD
100
AcDbEntity
  8
GRAU_10_
 62
     7
100
AcDbVertex
100
AcDb2dVertex
 10
18.89118109336748
 20
183.9853243897676
 30
0.0
  0
VERTEX
  5
AF
330
AD
100
AcDbEntity
  8
GRAU_10_
 62
     7
100
AcDbVertex
100
AcDb2dVertex
 10
19.61861300507799
 20
187.7232529912636
 30
0.0
  0
SEQEND
  5
B0
330
AD
100
AcDbEntity
  8
GRAU_10_
  0
POLYLINE
  5
B1
330
1F
100
AcDbEntity
  8
GRAU_10_
 62
     7
100
AcDb2dPolyline
 66
     1
 10
0.0
 20
0.0
 30
0.0
  0
VERTEX
  5
B2
330
B1
100
AcDbEntity
  8
GRAU_10_
 62
     7
100
AcDbVertex
100
AcDb2dVertex
 10
18.89118109336748
 20
183.9853243897676
 30
0.0
  0
VERTEX
  5
B3
330
B1
100
AcDbEntity
  8
GRAU_10_
 62
     7
100
AcDbVertex
100
AcDb2dVertex
 10
18.29828016035599
 20
185.0124796086948
 30
0.0
  0
SEQEND
  5
B4
330
B1
100
AcDbEntity
  8
GRAU_10_
  0
POLYLINE
  5
B5
330
1F
100
AcDbEntity
  8
GRAU_10_
 62
     7
100
AcDb2dPolyline
 66
     1
 10
0.0
 20
0.0
 30
0.0
  0
VERTEX
  5
B6
330
B5
100
AcDbEntity
  8
GRAU_10_
 62
     7
100
AcDbVertex
100
AcDb2dVertex
 10
18.29828016035599
 20
194.8759602377393
 30
0.0
  0
VERTEX
  5
B7
330
B5
100
AcDbEntity
  8
GRAU_10_
 62
     7
100
AcDbVertex
100
AcDb2dVertex
 10
18.29828016035599
 20
185.0124796086948
 30
0.0
  0
SEQEND
  5
B8
330
B5
100
AcDbEntity
  8
GRAU_10_
  0
POLYLINE
  5
B9
330
1F
100
AcDbEntity
  8
GRAU_10_
 62
     7
100
AcDb2dPolyline
 66
     1
 10
0.0
 20
0.0
 30
0.0
  0
VERTEX
  5
BA
330
B9
100
AcDbEntity
  8
GRAU_10_
 62
     7
100
AcDbVertex
100
AcDb2dVertex
 10
18.83123643192414
 20
199.9809027277826
 30
0.0
  0
VERTEX
  5
BB
330
B9
100
AcDbEntity
  8
GRAU_10_
 62
     7
100
AcDbVertex
100
AcDb2dVertex
 10
18.29828016035599
 20
194.8759602377393
 30
0.0
  0
SEQEND
  5
BC
330
B9
100
AcDbEntity
  8
GRAU_10_
  0
POLYLINE
  5
BD
330
1F
100
AcDbEntity
  8
GRAU_10_
 62
     7
100
AcDb2dPolyline
 66
     1
 10
0.0
 20
0.0
 30
0.0
  0
VERTEX
  5
BE
330
BD
100
AcDbEntity
  8
GRAU_10_
 62
     7
100
AcDbVertex
100
AcDb2dVertex
 10
19.22604437453377
 20
199.9809027277826
 30
0.0
  0
VERTEX
  5
BF
330
BD
100
AcDbEntity
  8
GRAU_10_
 62
     7
100
AcDbVertex
100
AcDb2dVertex
 10
18.83123643192414
 20
199.9809027277826
 30
0.0
  0
SEQEND
  5
C0
330
BD
100
AcDbEntity
  8
GRAU_10_
  0
POLYLINE
  5
C1
330
1F
100
AcDbEntity
  8
GRAU_10_
 62
     7
100
AcDb2dPolyline
 66
     1
 10
0.0
 20
0.0
 30
0.0
  0
VERTEX
  5
C2
330
C1
100
AcDbEntity
  8
GRAU_10_
 62
     7
100
AcDbVertex
100
AcDb2dVertex
 10
19.6814859976838
 20
201.6090548541116
 30
0.0
  0
VERTEX
  5
C3
330
C1
100
AcDbEntity
  8
GRAU_10_
 62
     7
100
AcDbVertex
100
AcDb2dVertex
 10
19.22604437453377
 20
199.9809027277826
 30
0.0
  0
SEQEND
  5
C4
330
C1
100
AcDbEntity
  8
GRAU_10_
  0
POLYLINE
  5
C5
330
1F
100
AcDbEntity
  8
GRAU_10_
 62
     7
100
AcDb2dPolyline
 66
     1
 10
0.0
 20
0.0
 30
0.0
  0
VERTEX
  5
C6
330
C5
100
AcDbEntity
  8
GRAU_10_
 62
     7
100
AcDbVertex
100
AcDb2dVertex
 10
20.15845946761664
 20
192.1601914667169
 30
0.0
  0
VERTEX
  5
C7
330
C5
100
AcDbEntity
  8
GRAU_10_
 62
     7
100
AcDbVertex
100
AcDb2dVertex
 10
19.0059027730263
 20
191.2041774695601
 30
0.0
  0
SEQEND
  5
C8
330
C5
100
AcDbEntity
  8
GRAU_10_
  0
POLYLINE
  5
C9
330
1F
100
AcDbEntity
  8
GRAU_10_
 62
     7
100
AcDb2dPolyline
 66
     1
 10
0.0
 20
0.0
 30
0.0
  0
VERTEX
  5
CA
330
C9
100
AcDbEntity
  8
GRAU_10_
 62
     7
100
AcDbVertex
100
AcDb2dVertex
 10
31.594798440452
 20
202.7414577401132
 30
0.0
  0
VERTEX
  5
CB
330
C9
100
AcDbEntity
  8
GRAU_10_
 62
     7
100
AcDbVertex
100
AcDb2dVertex
 10
25.88506943797318
 20
203.3946478441166
 30
0.0
  0
SEQEND
  5
CC
330
C9
100
AcDbEntity
  8
GRAU_10_
  0
POLYLINE
  5
CD
330
1F
100
AcDbEntity
  8
GRAU_10_
 62
     7
100
AcDb2dPolyline
 66
     1
 10
0.0
 20
0.0
 30
0.0
  0
VERTEX
  5
CE
330
CD
100
AcDbEntity
  8
GRAU_10_
 62
     7
100
AcDbVertex
100
AcDb2dVertex
 10
28.09595946563226
 20
186.759487529265
 30
0.0
  0
VERTEX
  5
CF
330
CD
100
AcDbEntity
  8
GRAU_10_
 62
     7
100
AcDbVertex
100
AcDb2dVertex
 10
19.61861300507799
 20
187.7232529912636
 30
0.0
  0
SEQEND
  5
D0
330
CD
100
AcDbEntity
  8
GRAU_10_
  0
POLYLINE
  5
D1
330
1F
100
AcDbEntity
  8
GRAU_10_
 62
     7
100
AcDb2dPolyline
 66
     1
 10
0.0
 20
0.0
 30
0.0
  0
VERTEX
  5
D2
330
D1
100
AcDbEntity
  8
GRAU_10_
 62
     7
100
AcDbVertex
100
AcDb2dVertex
 10
24.37198350085145
 20
191.6782226083305
 30
0.0
  0
VERTEX
  5
D3
330
D1
100
AcDbEntity
  8
GRAU_10_
 62
     7
100
AcDbVertex
100
AcDb2dVertex
 10
20.15845946761664
 20
192.1601914667169
 30
0.0
  0
SEQEND
  5
D4
330
D1
100
AcDbEntity
  8
GRAU_10_
  0
POLYLINE
  5
D5
330
1F
100
AcDbEntity
  8
GRAU_10_
 62
     7
100
AcDb2dPolyline
 66
     1
 10
0.0
 20
0.0
 30
0.0
  0
VERTEX
  5
D6
330
D5
100
AcDbEntity
  8
GRAU_10_
 62
     7
100
AcDbVertex
100
AcDb2dVertex
 10
28.09595946563226
 20
178.8474812378402
 30
0.0
  0
VERTEX
  5
D7
330
D5
100
AcDbEntity
  8
GRAU_10_
 62
     7
100
AcDbVertex
100
AcDb2dVertex
 10
28.09595946563226
 20
186.759487529265
 30
0.0
  0
SEQEND
  5
D8
330
D5
100
AcDbEntity
  8
GRAU_10_
  0
POLYLINE
  5
D9
330
1F
100
AcDbEntity
  8
GRAU_10_
 62
     7
100
AcDb2dPolyline
 66
     1
 10
0.0
 20
0.0
 30
0.0
  0
VERTEX
  5
DA
330
D9
100
AcDbEntity
  8
GRAU_10_
 62
     7
100
AcDbVertex
100
AcDb2dVertex
 10
27.85566405553609
 20
178.4307969388992
 30
0.0
  0
VERTEX
  5
DB
330
D9
100
AcDbEntity
  8
GRAU_10_
 62
     7
100
AcDbVertex
100
AcDb2dVertex
 10
28.09595946563226
 20
178.8474812378402
 30
0.0
  0
SEQEND
  5
DC
330
D9
100
AcDbEntity
  8
GRAU_10_
  0
POLYLINE
  5
DD
330
1F
100
AcDbEntity
  8
GRAU_10_
 62
     7
100
AcDb2dPolyline
 66
     1
 10
0.0
 20
0.0
 30
0.0
  0
VERTEX
  5
DE
330
DD
100
AcDbEntity
  8
GRAU_10_
 62
     7
100
AcDbVertex
100
AcDb2dVertex
 10
27.85566405553609
 20
178.4307969388992
 30
0.0
  0
VERTEX
  5
DF
330
DD
100
AcDbEntity
  8
GRAU_10_
 62
     7
100
AcDbVertex
100
AcDb2dVertex
 10
27.24071451141899
 20
178.4307969388992
 30
0.0
  0
VERTEX
  5
E0
330
DD
100
AcDbEntity
  8
GRAU_10_
 62
     7
100
AcDbVertex
100
AcDb2dVertex
 10
26.47108018001418
 20
179.7631876178196
 30
0.0
  0
SEQEND
  5
E1
330
DD
100
AcDbEntity
  8
GRAU_10_
  0
POLYLINE
  5
E2
330
1F
100
AcDbEntity
  8
GRAU_10_
 62
     7
100
AcDb2dPolyline
 66
     1
 10
0.0
 20
0.0
 30
0.0
  0
VERTEX
  5
E3
330
E2
100
AcDbEntity
  8
GRAU_10_
 62
     7
100
AcDbVertex
100
AcDb2dVertex
 10
25.35555826189028
 20
178.4307969388992
 30
0.0
  0
VERTEX
  5
E4
330
E2
100
AcDbEntity
  8
GRAU_10_
 62
     7
100
AcDbVertex
100
AcDb2dVertex
 10
26.12502033852083
 20
179.7631876178196
 30
0.0
  0
SEQEND
  5
E5
330
E2
100
AcDbEntity
  8
GRAU_10_
  0
POLYLINE
  5
E6
330
1F
100
AcDbEntity
  8
GRAU_10_
 62
     7
100
AcDb2dPolyline
 66
     1
 10
0.0
 20
0.0
 30
0.0
  0
VERTEX
  5
E7
330
E6
100
AcDbEntity
  8
GRAU_10_
 62
     7
100
AcDbVertex
100
AcDb2dVertex
 10
25.35555826189028
 20
178.4307969388992
 30
0.0
  0
VERTEX
  5
E8
330
E6
100
AcDbEntity
  8
GRAU_10_
 62
     7
100
AcDbVertex
100
AcDb2dVertex
 10
24.74026420822466
 20
178.4307969388992
 30
0.0
  0
VERTEX
  5
E9
330
E6
100
AcDbEntity
  8
GRAU_10_
 62
     7
100
AcDbVertex
100
AcDb2dVertex
 10
23.97166340546542
 20
179.7631876178196
 30
0.0
  0
SEQEND
  5
EA
330
E6
100
AcDbEntity
  8
GRAU_10_
  0
POLYLINE
  5
EB
330
1F
100
AcDbEntity
  8
GRAU_10_
 62
     7
100
AcDb2dPolyline
 66
     1
 10
0.0
 20
0.0
 30
0.0
  0
VERTEX
  5
EC
330
EB
100
AcDbEntity
  8
GRAU_10_
 62
     7
100
AcDbVertex
100
AcDb2dVertex
 10
22.85579697779299
 20
178.4307969388992
 30
0.0
  0
VERTEX
  5
ED
330
EB
100
AcDbEntity
  8
GRAU_10_
 62
     7
100
AcDbVertex
100
AcDb2dVertex
 10
23.62474229010076
 20
179.7631876178196
 30
0.0
  0
SEQEND
  5
EE
330
EB
100
AcDbEntity
  8
GRAU_10_
  0
POLYLINE
  5
EF
330
1F
100
AcDbEntity
  8
GRAU_10_
 62
     7
100
AcDb2dPolyline
 66
     1
 10
0.0
 20
0.0
 30
0.0
  0
VERTEX
  5
F0
330
EF
100
AcDbEntity
  8
GRAU_10_
 62
     7
100
AcDbVertex
100
AcDb2dVertex
 10
22.85579697779299
 20
178.4307969388992
 30
0.0
  0
VERTEX
  5
F1
330
EF
100
AcDbEntity
  8
GRAU_10_
 62
     7
100
AcDbVertex
100
AcDb2dVertex
 10
22.2408474336759
 20
178.4307969388992
 30
0.0
  0
VERTEX
  5
F2
330
EF
100
AcDbEntity
  8
GRAU_10_
 62
     7
100
AcDbVertex
100
AcDb2dVertex
 10
21.47104084749682
 20
179.7631876178196
 30
0.0
  0
SEQEND
  5
F3
330
EF
100
AcDbEntity
  8
GRAU_10_
  0
POLYLINE
  5
F4
330
1F
100
AcDbEntity
  8
GRAU_10_
 62
     7
100
AcDb2dPolyline
 66
     1
 10
0.0
 20
0.0
 30
0.0
  0
VERTEX
  5
F5
330
F4
100
AcDbEntity
  8
GRAU_10_
 62
     7
100
AcDbVertex
100
AcDb2dVertex
 10
21.27174207367512
 20
179.8617173486978
 30
0.0
  0
VERTEX
  5
F6
330
F4
100
AcDbEntity
  8
GRAU_10_
 62
     7
100
AcDbVertex
100
AcDb2dVertex
 10
18.89118109336748
 20
183.9853243897676
 30
0.0
  0
SEQEND
  5
F7
330
F4
100
AcDbEntity
  8
GRAU_10_
  0
POLYLINE
  5
F8
330
1F
100
AcDbEntity
  8
GRAU_10_
 62
     7
100
AcDb2dPolyline
 66
     1
 10
0.0
 20
0.0
 30
0.0
  0
VERTEX
  5
F9
330
F8
100
AcDbEntity
  8
GRAU_10_
 62
     7
100
AcDbVertex
100
AcDb2dVertex
 10
48.29817164591157
 20
195.4809190049492
 30
0.0
  0
VERTEX
  5
FA
330
F8
100
AcDbEntity
  8
GRAU_10_
 62
     7
100
AcDbVertex
100
AcDb2dVertex
 10
48.13022324100564
 20
195.6486951550809
 30
0.0
  0
SEQEND
  5
FB
330
F8
100
AcDbEntity
  8
GRAU_10_
  0
POLYLINE
  5
FC
330
1F
100
AcDbEntity
  8
GRAU_10_
 62
     7
100
AcDb2dPolyline
 66
     1
 10
0.0
 20
0.0
 30
0.0
  0
VERTEX
  5
FD
330
FC
100
AcDbEntity
  8
GRAU_10_
 62
     7
100
AcDbVertex
100
AcDb2dVertex
 10
48.29817164591157
 20
179.1973306843673
 30
0.0
  0
VERTEX
  5
FE
330
FC
100
AcDbEntity
  8
GRAU_10_
 62
     7
100
AcDbVertex
100
AcDb2dVertex
 10
48.29817164591157
 20
195.4809190049492
 30
0.0
  0
SEQEND
  5
FF
330
FC
100
AcDbEntity
  8
GRAU_10_
  0
POLYLINE
  5
100
330
1F
100
AcDbEntity
  8
GRAU_10_
 62
     7
100
AcDb2dPolyline
 66
     1
 10
0.0
 20
0.0
 30
0.0
  0
VERTEX
  5
101
330
100
100
AcDbEntity
  8
GRAU_10_
 62
     7
100
AcDbVertex
100
AcDb2dVertex
 10
48.29817164591157
 20
179.1973306843673
 30
0.0
  0
VERTEX
  5
102
330
100
100
AcDbEntity
  8
GRAU_10_
 62
     7
100
AcDbVertex
100
AcDb2dVertex
 10
48.21342229697442
 20
179.0512586357927
 30
0.0
  0
SEQEND
  5
103
330
100
100
AcDbEntity
  8
GRAU_10_
  0
POLYLINE
  5
104
330
1F
100
AcDbEntity
  8
GRAU_10_
 62
     7
100
AcDb2dPolyline
 66
     1
 10
0.0
 20
0.0
 30
0.0
  0
VERTEX
  5
105
330
104
100
AcDbEntity
  8
GRAU_10_
 62
     7
100
AcDbVertex
100
AcDb2dVertex
 10
20.13865016857645
 20
198.2852267299426
 30
0.0
  0
VERTEX
  5
106
330
104
100
AcDbEntity
  8
GRAU_10_
 62
     7
100
AcDbVertex
100
AcDb2dVertex
 10
20.17000053749222
 20
198.5341348787519
 30
0.0
  0
VERTEX
  5
107
330
104
100
AcDbEntity
  8
GRAU_10_
 62
     7
100
AcDbVertex
100
AcDb2dVertex
 10
20.20324570892488
 20
198.7782198938818
 30
0.0
  0
SEQEND
  5
108
330
104
100
AcDbEntity
  8
GRAU_10_
  0
POLYLINE
  5
109
330
1F
100
AcDbEntity
  8
GRAU_10_
 62
     7
100
AcDb2dPolyline
 66
     1
 10
0.0
 20
0.0
 30
0.0
  0
VERTEX
  5
10A
330
109
100
AcDbEntity
  8
GRAU_10_
 62
     7
100
AcDbVertex
100
AcDb2dVertex
 10
20.0456325904747
 20
197.4006984641047
 30
0.0
  0
VERTEX
  5
10B
330
109
100
AcDbEntity
  8
GRAU_10_
 62
     7
100
AcDbVertex
100
AcDb2dVertex
 10
20.08783501016902
 20
197.8399481384741
 30
0.0
  0
VERTEX
  5
10C
330
109
100
AcDbEntity
  8
GRAU_10_
 62
     7
100
AcDbVertex
100
AcDb2dVertex
 10
20.13865016857645
 20
198.2852267299426
 30
0.0
  0
SEQEND
  5
10D
330
109
100
AcDbEntity
  8
GRAU_10_
  0
POLYLINE
  5
10E
330
1F
100
AcDbEntity
  8
GRAU_10_
 62
     7
100
AcDb2dPolyline
 66
     1
 10
0.0
 20
0.0
 30
0.0
  0
VERTEX
  5
10F
330
10E
100
AcDbEntity
  8
GRAU_10_
 62
     7
100
AcDbVertex
100
AcDb2dVertex
 10
19.0059027730263
 20
191.2041774695601
 30
0.0
  0
VERTEX
  5
110
330
10E
100
AcDbEntity
  8
GRAU_10_
 62
     7
100
AcDbVertex
100
AcDb2dVertex
 10
19.00159640366974
 20
191.2021104122689
 30
0.0
  0
VERTEX
  5
111
330
10E
100
AcDbEntity
  8
GRAU_10_
 62
     7
100
AcDbVertex
100
AcDb2dVertex
 10
18.99815130818449
 20
191.2014213931719
 30
0.0
  0
SEQEND
  5
112
330
10E
100
AcDbEntity
  8
GRAU_10_
  0
POLYLINE
  5
113
330
1F
100
AcDbEntity
  8
GRAU_10_
 62
     7
100
AcDb2dPolyline
 66
     1
 10
0.0
 20
0.0
 30
0.0
  0
VERTEX
  5
114
330
113
100
AcDbEntity
  8
GRAU_10_
 62
     7
100
AcDbVertex
100
AcDb2dVertex
 10
26.12502033852083
 20
179.7631876178196
 30
0.0
  0
VERTEX
  5
115
330
113
100
AcDbEntity
  8
GRAU_10_
 62
     7
100
AcDbVertex
100
AcDb2dVertex
 10
26.29779187710611
 20
179.8634398964404
 30
0.0
  0
VERTEX
  5
116
330
113
100
AcDbEntity
  8
GRAU_10_
 62
     7
100
AcDbVertex
100
AcDb2dVertex
 10
26.47108018001418
 20
179.7631876178196
 30
0.0
  0
SEQEND
  5
117
330
113
100
AcDbEntity
  8
GRAU_10_
  0
POLYLINE
  5
118
330
1F
100
AcDbEntity
  8
GRAU_10_
 62
     7
100
AcDb2dPolyline
 66
     1
 10
0.0
 20
0.0
 30
0.0
  0
VERTEX
  5
119
330
118
100
AcDbEntity
  8
GRAU_10_
 62
     7
100
AcDbVertex
100
AcDb2dVertex
 10
23.62474229010076
 20
179.7631876178196
 30
0.0
  0
VERTEX
  5
11A
330
118
100
AcDbEntity
  8
GRAU_10_
 62
     7
100
AcDbVertex
100
AcDb2dVertex
 10
23.79803059300883
 20
179.8634398964404
 30
0.0
  0
VERTEX
  5
11B
330
118
100
AcDbEntity
  8
GRAU_10_
 62
     7
100
AcDbVertex
100
AcDb2dVertex
 10
23.97166340546542
 20
179.7631876178196
 30
0.0
  0
SEQEND
  5
11C
330
118
100
AcDbEntity
  8
GRAU_10_
  0
POLYLINE
  5
11D
330
1F
100
AcDbEntity
  8
GRAU_10_
 62
     7
100
AcDb2dPolyline
 66
     1
 10
0.0
 20
0.0
 30
0.0
  0
VERTEX
  5
11E
330
11D
100
AcDbEntity
  8
GRAU_10_
 62
     7
100
AcDbVertex
100
AcDb2dVertex
 10
21.27174207367512
 20
179.8617173486978
 30
0.0
  0
VERTEX
  5
11F
330
11D
100
AcDbEntity
  8
GRAU_10_
 62
     7
100
AcDbVertex
100
AcDb2dVertex
 10
21.47104084749682
 20
179.7631876178196
 30
0.0
  0
SEQEND
  5
120
330
11D
100
AcDbEntity
  8
GRAU_10_
  0
POLYLINE
  5
121
330
1F
100
AcDbEntity
  8
GRAU_10_
 62
     7
100
AcDb2dPolyline
 66
     1
 10
0.0
 20
0.0
 30
0.0
  0
VERTEX
  5
122
330
121
100
AcDbEntity
  8
GRAU_10_
 62
     7
100
AcDbVertex
100
AcDb2dVertex
 10
44.77211641675837
 20
185.7762572777747
 30
0.0
  0
VERTEX
  5
123
330
121
100
AcDbEntity
  8
GRAU_10_
 62
     7
100
AcDbVertex
100
AcDb2dVertex
 10
45.95671249936152
 20
183.3428140817685
 30
0.0
  0
VERTEX
  5
124
330
121
100
AcDbEntity
  8
GRAU_10_
 62
     7
100
AcDbVertex
100
AcDb2dVertex
 10
47.10427380549824
 20
181.1002291756451
 30
0.0
  0
VERTEX
  5
125
330
121
100
AcDbEntity
  8
GRAU_10_
 62
     7
100
AcDbVertex
100
AcDb2dVertex
 10
48.21342229697442
 20
179.0512586357927
 30
0.0
  0
SEQEND
  5
126
330
121
100
AcDbEntity
  8
GRAU_10_
  0
POLYLINE
  5
127
330
1F
100
AcDbEntity
  8
GRAU_10_
 62
     7
100
AcDb2dPolyline
 66
     1
 10
0.0
 20
0.0
 30
0.0
  0
VERTEX
  5
128
330
127
100
AcDbEntity
  8
GRAU_10_
 62
     7
100
AcDbVertex
100
AcDb2dVertex
 10
48.13022324100564
 20
195.6486951550809
 30
0.0
  0
VERTEX
  5
129
330
127
100
AcDbEntity
  8
GRAU_10_
 62
     7
100
AcDbVertex
100
AcDb2dVertex
 10
47.5953721669206
 20
195.5556775769791
 30
0.0
  0
VERTEX
  5
12A
330
127
100
AcDbEntity
  8
GRAU_10_
 62
     7
100
AcDbVertex
100
AcDb2dVertex
 10
47.05242511844523
 20
195.7017496255537
 30
0.0
  0
VERTEX
  5
12B
330
127
100
AcDbEntity
  8
GRAU_10_
 62
     7
100
AcDbVertex
100
AcDb2dVertex
 10
46.51240640113232
 20
196.083810714868
 30
0.0
  0
VERTEX
  5
12C
330
127
100
AcDbEntity
  8
GRAU_10_
 62
     7
100
AcDbVertex
100
AcDb2dVertex
 10
45.98806286827729
 20
196.6937648705314
 30
0.0
  0
SEQEND
  5
12D
330
127
100
AcDbEntity
  8
GRAU_10_
  0
POLYLINE
  5
12E
330
1F
100
AcDbEntity
  8
GRAU_10_
 62
     7
100
AcDb2dPolyline
 66
     1
 10
0.0
 20
0.0
 30
0.0
  0
VERTEX
  5
12F
330
12E
100
AcDbEntity
  8
GRAU_10_
 62
     7
100
AcDbVertex
100
AcDb2dVertex
 10
43.79836017785249
 20
199.9809027277826
 30
0.0
  0
VERTEX
  5
130
330
12E
100
AcDbEntity
  8
GRAU_10_
 62
     7
100
AcDbVertex
100
AcDb2dVertex
 10
41.8809922855367
 20
199.9809027277826
 30
0.0
  0
VERTEX
  5
131
330
12E
100
AcDbEntity
  8
GRAU_10_
 62
     7
100
AcDbVertex
100
AcDb2dVertex
 10
40.18100991834017
 20
199.9809027277826
 30
0.0
  0
SEQEND
  5
132
330
12E
100
AcDbEntity
  8
GRAU_10_
  0
POLYLINE
  5
133
330
1F
100
AcDbEntity
  8
GRAU_10_
 62
     7
100
AcDb2dPolyline
 66
     1
 10
0.0
 20
0.0
 30
0.0
  0
VERTEX
  5
134
330
133
100
AcDbEntity
  8
GRAU_10_
 62
     7
100
AcDbVertex
100
AcDb2dVertex
 10
43.79836017785249
 20
199.9809027277826
 30
0.0
  0
VERTEX
  5
135
330
133
100
AcDbEntity
  8
GRAU_10_
 62
     7
100
AcDbVertex
100
AcDb2dVertex
 10
44.78830836553904
 20
198.990265520999
 30
0.0
  0
VERTEX
  5
136
330
133
100
AcDbEntity
  8
GRAU_10_
 62
     7
100
AcDbVertex
100
AcDb2dVertex
 10
45.67938231279891
 20
198.0991915737391
 30
0.0
  0
VERTEX
  5
137
330
133
100
AcDbEntity
  8
GRAU_10_
 62
     7
100
AcDbVertex
100
AcDb2dVertex
 10
46.46538084775866
 20
197.3131930387794
 30
0.0
  0
VERTEX
  5
138
330
133
100
AcDbEntity
  8
GRAU_10_
 62
     7
100
AcDbVertex
100
AcDb2dVertex
 10
47.138897015125
 20
196.6398491261873
 30
0.0
  0
VERTEX
  5
139
330
133
100
AcDbEntity
  8
GRAU_10_
 62
     7
100
AcDbVertex
100
AcDb2dVertex
 10
47.69527993599285
 20
196.0834662053194
 30
0.0
  0
VERTEX
  5
13A
330
133
100
AcDbEntity
  8
GRAU_10_
 62
     7
100
AcDbVertex
100
AcDb2dVertex
 10
48.13022324100564
 20
195.6486951550809
 30
0.0
  0
SEQEND
  5
13B
330
133
100
AcDbEntity
  8
GRAU_10_
  0
POLYLINE
  5
13C
330
1F
100
AcDbEntity
  8
GRAU_10_
 62
     7
100
AcDb2dPolyline
 66
     1
 10
0.0
 20
0.0
 30
0.0
  0
VERTEX
  5
13D
330
13C
100
AcDbEntity
  8
GRAU_10_
 62
     7
100
AcDbVertex
100
AcDb2dVertex
 10
33.18126491140955
 20
202.4455240379303
 30
0.0
  0
VERTEX
  5
13E
330
13C
100
AcDbEntity
  8
GRAU_10_
 62
     7
100
AcDbVertex
100
AcDb2dVertex
 10
33.08394096395124
 20
202.4658501012933
 30
0.0
  0
VERTEX
  5
13F
330
13C
100
AcDbEntity
  8
GRAU_10_
 62
     7
100
AcDbVertex
100
AcDb2dVertex
 10
32.98971760242966
 20
202.4856594003334
 30
0.0
  0
VERTEX
  5
140
330
13C
100
AcDbEntity
  8
GRAU_10_
 62
     7
100
AcDbVertex
100
AcDb2dVertex
 10
32.90048962936169
 20
202.5044351707281
 30
0.0
  0
VERTEX
  5
141
330
13C
100
AcDbEntity
  8
GRAU_10_
 62
     7
100
AcDbVertex
100
AcDb2dVertex
 10
32.81401773268191
 20
202.5216606481543
 30
0.0
  0
VERTEX
  5
142
330
13C
100
AcDbEntity
  8
GRAU_10_
 62
     7
100
AcDbVertex
100
AcDb2dVertex
 10
32.73185220535871
 20
202.538541616032
 30
0.0
  0
VERTEX
  5
143
330
13C
100
AcDbEntity
  8
GRAU_10_
 62
     7
100
AcDbVertex
100
AcDb2dVertex
 10
32.65209824487517
 20
202.5540445457157
 30
0.0
  0
VERTEX
  5
144
330
13C
100
AcDbEntity
  8
GRAU_10_
 62
     7
100
AcDbVertex
100
AcDb2dVertex
 10
32.57647839897394
 20
202.5692029658508
 30
0.0
  0
VERTEX
  5
145
330
13C
100
AcDbEntity
  8
GRAU_10_
 62
     7
100
AcDbVertex
100
AcDb2dVertex
 10
32.50361462946091
 20
202.5836723668888
 30
0.0
  0
VERTEX
  5
146
330
13C
100
AcDbEntity
  8
GRAU_10_
 62
     7
100
AcDbVertex
100
AcDb2dVertex
 10
32.43333468156181
 20
202.5974527488298
 30
0.0
  0
VERTEX
  5
147
330
13C
100
AcDbEntity
  8
GRAU_10_
 62
     7
100
AcDbVertex
100
AcDb2dVertex
 10
32.3663275743737
 20
202.6098550925767
 30
0.0
  0
VERTEX
  5
148
330
13C
100
AcDbEntity
  8
GRAU_10_
 62
     7
100
AcDbVertex
100
AcDb2dVertex
 10
32.30104301492821
 20
202.6226019458721
 30
0.0
  0
VERTEX
  5
149
330
13C
100
AcDbEntity
  8
GRAU_10_
 62
     7
100
AcDbVertex
100
AcDb2dVertex
 10
32.2381700223224
 20
202.6337985061992
 30
0.0
  0
VERTEX
  5
14A
330
13C
100
AcDbEntity
  8
GRAU_10_
 62
     7
100
AcDbVertex
100
AcDb2dVertex
 10
32.17788085133053
 20
202.6449950665263
 30
0.0
  0
VERTEX
  5
14B
330
13C
100
AcDbEntity
  8
GRAU_10_
 62
     7
100
AcDbVertex
100
AcDb2dVertex
 10
32.11931422808129
 20
202.6560193720791
 30
0.0
  0
VERTEX
  5
14C
330
13C
100
AcDbEntity
  8
GRAU_10_
 62
     7
100
AcDbVertex
100
AcDb2dVertex
 10
32.06264240734892
 20
202.6666991680833
 30
0.0
  0
VERTEX
  5
14D
330
13C
100
AcDbEntity
  8
GRAU_10_
 62
     7
100
AcDbVertex
100
AcDb2dVertex
 10
32.00683186048788
 20
202.6761731806678
 30
0.0
  0
VERTEX
  5
14E
330
13C
100
AcDbEntity
  8
GRAU_10_
 62
     7
100
AcDbVertex
100
AcDb2dVertex
 10
31.95326062569224
 20
202.6856471932522
 30
0.0
  0
VERTEX
  5
14F
330
13C
100
AcDbEntity
  8
GRAU_10_
 62
     7
100
AcDbVertex
100
AcDb2dVertex
 10
31.89986164567087
 20
202.6944321867396
 30
0.0
  0
VERTEX
  5
150
330
13C
100
AcDbEntity
  8
GRAU_10_
 62
     7
100
AcDbVertex
100
AcDb2dVertex
 10
31.84801295861786
 20
202.703217180227
 30
0.0
  0
VERTEX
  5
151
330
13C
100
AcDbEntity
  8
GRAU_10_
 62
     7
100
AcDbVertex
100
AcDb2dVertex
 10
31.79650878111337
 20
202.7118299189401
 30
0.0
  0
VERTEX
  5
152
330
13C
100
AcDbEntity
  8
GRAU_10_
 62
     7
100
AcDbVertex
100
AcDb2dVertex
 10
31.7472439156743
 20
202.7199258933304
 30
0.0
  0
VERTEX
  5
153
330
13C
100
AcDbEntity
  8
GRAU_10_
 62
     7
100
AcDbVertex
100
AcDb2dVertex
 10
31.69987385275212
 20
202.7269883390752
 30
0.0
  0
VERTEX
  5
154
330
13C
100
AcDbEntity
  8
GRAU_10_
 62
     7
100
AcDbVertex
100
AcDb2dVertex
 10
31.65715466873502
 20
202.7331895109486
 30
0.0
  0
VERTEX
  5
155
330
13C
100
AcDbEntity
  8
GRAU_10_
 62
     7
100
AcDbVertex
100
AcDb2dVertex
 10
31.61770832542891
 20
202.7385294089508
 30
0.0
  0
VERTEX
  5
156
330
13C
100
AcDbEntity
  8
GRAU_10_
 62
     7
100
AcDbVertex
100
AcDb2dVertex
 10
31.59548745954904
 20
202.7414577401132
 30
0.0
  0
SEQEND
  5
157
330
13C
100
AcDbEntity
  8
GRAU_10_
  0
POLYLINE
  5
158
330
1F
100
AcDbEntity
  8
GRAU_10_
 62
     7
100
AcDb2dPolyline
 66
     1
 10
0.0
 20
0.0
 30
0.0
  0
VERTEX
  5
159
330
158
100
AcDbEntity
  8
GRAU_10_
 62
     7
100
AcDbVertex
100
AcDb2dVertex
 10
30.76711425012072
 20
201.5360188298243
 30
0.0
  0
VERTEX
  5
15A
330
158
100
AcDbEntity
  8
GRAU_10_
 62
     7
100
AcDbVertex
100
AcDb2dVertex
 10
30.78485649186976
 20
201.6249022933438
 30
0.0
  0
VERTEX
  5
15B
330
158
100
AcDbEntity
  8
GRAU_10_
 62
     7
100
AcDbVertex
100
AcDb2dVertex
 10
30.82361381607882
 20
201.707067820667
 30
0.0
  0
VERTEX
  5
15C
330
158
100
AcDbEntity
  8
GRAU_10_
 62
     7
100
AcDbVertex
100
AcDb2dVertex
 10
30.87649603177741
 20
201.7797593354058
 30
0.0
  0
VERTEX
  5
15D
330
158
100
AcDbEntity
  8
GRAU_10_
 62
     7
100
AcDbVertex
100
AcDb2dVertex
 10
30.94005804348026
 20
201.8429768375601
 30
0.0
  0
VERTEX
  5
15E
330
158
100
AcDbEntity
  8
GRAU_10_
 62
     7
100
AcDbVertex
100
AcDb2dVertex
 10
31.08079019405272
 20
201.9480522498602
 30
0.0
  0
VERTEX
  5
15F
330
158
100
AcDbEntity
  8
GRAU_10_
 62
     7
100
AcDbVertex
100
AcDb2dVertex
 10
31.23254665017798
 20
202.0322848344746
 30
0.0
  0
VERTEX
  5
160
330
158
100
AcDbEntity
  8
GRAU_10_
 62
     7
100
AcDbVertex
100
AcDb2dVertex
 10
31.54897867049817
 20
202.16182042472
 30
0.0
  0
VERTEX
  5
161
330
158
100
AcDbEntity
  8
GRAU_10_
 62
     7
100
AcDbVertex
100
AcDb2dVertex
 10
31.87350666520871
 20
202.2567328053386
 30
0.0
  0
VERTEX
  5
162
330
158
100
AcDbEntity
  8
GRAU_10_
 62
     7
100
AcDbVertex
100
AcDb2dVertex
 10
32.52686902398634
 20
202.382995554873
 30
0.0
  0
VERTEX
  5
163
330
158
100
AcDbEntity
  8
GRAU_10_
 62
     7
100
AcDbVertex
100
AcDb2dVertex
 10
33.18126491140955
 20
202.4455240379303
 30
0.0
  0
SEQEND
  5
164
330
158
100
AcDbEntity
  8
GRAU_10_
  0
POLYLINE
  5
165
330
1F
100
AcDbEntity
  8
GRAU_10_
 62
     7
100
AcDb2dPolyline
 66
     1
 10
0.0
 20
0.0
 30
0.0
  0
VERTEX
  5
166
330
165
100
AcDbEntity
  8
GRAU_10_
 62
     7
100
AcDbVertex
100
AcDb2dVertex
 10
28.09595946563226
 20
186.759487529265
 30
0.0
  0
VERTEX
  5
167
330
165
100
AcDbEntity
  8
GRAU_10_
 62
     7
100
AcDbVertex
100
AcDb2dVertex
 10
28.95740559171898
 20
186.9432833734031
 30
0.0
  0
VERTEX
  5
168
330
165
100
AcDbEntity
  8
GRAU_10_
 62
     7
100
AcDbVertex
100
AcDb2dVertex
 10
29.81041123386684
 20
187.1603243889738
 30
0.0
  0
SEQEND
  5
169
330
165
100
AcDbEntity
  8
GRAU_10_
  0
POLYLINE
  5
16A
330
1F
100
AcDbEntity
  8
GRAU_10_
 62
     7
100
AcDb2dPolyline
 66
     1
 10
0.0
 20
0.0
 30
0.0
  0
VERTEX
  5
16B
330
16A
100
AcDbEntity
  8
GRAU_10_
 62
     7
100
AcDbVertex
100
AcDb2dVertex
 10
30.76711425012072
 20
201.5360188298243
 30
0.0
  0
VERTEX
  5
16C
330
16A
100
AcDbEntity
  8
GRAU_10_
 62
     7
100
AcDbVertex
100
AcDb2dVertex
 10
30.74489338424086
 20
201.1746283134216
 30
0.0
  0
VERTEX
  5
16D
330
16A
100
AcDbEntity
  8
GRAU_10_
 62
     7
100
AcDbVertex
100
AcDb2dVertex
 10
30.72198349926395
 20
200.8135823065674
 30
0.0
  0
VERTEX
  5
16E
330
16A
100
AcDbEntity
  8
GRAU_10_
 62
     7
100
AcDbVertex
100
AcDb2dVertex
 10
30.69907361428704
 20
200.4542588474559
 30
0.0
  0
VERTEX
  5
16F
330
16A
100
AcDbEntity
  8
GRAU_10_
 62
     7
100
AcDbVertex
100
AcDb2dVertex
 10
30.67685274840718
 20
200.0956244074414
 30
0.0
  0
VERTEX
  5
170
330
16A
100
AcDbEntity
  8
GRAU_10_
 62
     7
100
AcDbVertex
100
AcDb2dVertex
 10
30.65359835388174
 20
199.7381957508467
 30
0.0
  0
VERTEX
  5
171
330
16A
100
AcDbEntity
  8
GRAU_10_
 62
     7
100
AcDbVertex
100
AcDb2dVertex
 10
30.63137748800188
 20
199.3804225847035
 30
0.0
  0
VERTEX
  5
172
330
16A
100
AcDbEntity
  8
GRAU_10_
 62
     7
100
AcDbVertex
100
AcDb2dVertex
 10
30.60846760302497
 20
199.0252332401743
 30
0.0
  0
VERTEX
  5
173
330
16A
100
AcDbEntity
  8
GRAU_10_
 62
     7
100
AcDbVertex
100
AcDb2dVertex
 10
30.58555771804806
 20
198.6696993860965
 30
0.0
  0
VERTEX
  5
174
330
16A
100
AcDbEntity
  8
GRAU_10_
 62
     7
100
AcDbVertex
100
AcDb2dVertex
 10
30.5633368521682
 20
198.3158880797613
 30
0.0
  0
VERTEX
  5
175
330
16A
100
AcDbEntity
  8
GRAU_10_
 62
     7
100
AcDbVertex
100
AcDb2dVertex
 10
30.54025471241702
 20
197.9624212829747
 30
0.0
  0
VERTEX
  5
176
330
16A
100
AcDbEntity
  8
GRAU_10_
 62
     7
100
AcDbVertex
100
AcDb2dVertex
 10
30.51768933698864
 20
197.6110215434792
 30
0.0
  0
VERTEX
  5
177
330
16A
100
AcDbEntity
  8
GRAU_10_
 62
     7
100
AcDbVertex
100
AcDb2dVertex
 10
30.49477945201172
 20
197.2589327848867
 30
0.0
  0
VERTEX
  5
178
330
16A
100
AcDbEntity
  8
GRAU_10_
 62
     7
100
AcDbVertex
100
AcDb2dVertex
 10
30.47186956703481
 20
196.9092555931338
 30
0.0
  0
VERTEX
  5
179
330
16A
100
AcDbEntity
  8
GRAU_10_
 62
     7
100
AcDbVertex
100
AcDb2dVertex
 10
30.4489596820579
 20
196.5595784013809
 30
0.0
  0
VERTEX
  5
17A
330
16A
100
AcDbEntity
  8
GRAU_10_
 62
     7
100
AcDbVertex
100
AcDb2dVertex
 10
30.42673881617804
 20
196.211796012145
 30
0.0
  0
VERTEX
  5
17B
330
16A
100
AcDbEntity
  8
GRAU_10_
 62
     7
100
AcDbVertex
100
AcDb2dVertex
 10
30.40382893120113
 20
195.864013622909
 30
0.0
  0
VERTEX
  5
17C
330
16A
100
AcDbEntity
  8
GRAU_10_
 62
     7
100
AcDbVertex
100
AcDb2dVertex
 10
30.38126355577274
 20
195.5179537814157
 30
0.0
  0
VERTEX
  5
17D
330
16A
100
AcDbEntity
  8
GRAU_10_
 62
     7
100
AcDbVertex
100
AcDb2dVertex
 10
30.35835367079583
 20
195.1718939399223
 30
0.0
  0
VERTEX
  5
17E
330
16A
100
AcDbEntity
  8
GRAU_10_
 62
     7
100
AcDbVertex
100
AcDb2dVertex
 10
30.33544378581892
 20
194.8275566461716
 30
0.0
  0
VERTEX
  5
17F
330
16A
100
AcDbEntity
  8
GRAU_10_
 62
     7
100
AcDbVertex
100
AcDb2dVertex
 10
30.31236164606775
 20
194.4835638619694
 30
0.0
  0
VERTEX
  5
180
330
16A
100
AcDbEntity
  8
GRAU_10_
 62
     7
100
AcDbVertex
100
AcDb2dVertex
 10
30.29014078018788
 20
194.1414658802841
 30
0.0
  0
VERTEX
  5
181
330
16A
100
AcDbEntity
  8
GRAU_10_
 62
     7
100
AcDbVertex
100
AcDb2dVertex
 10
30.26723089521097
 20
193.7985066247275
 30
0.0
  0
VERTEX
  5
182
330
16A
100
AcDbEntity
  8
GRAU_10_
 62
     7
100
AcDbVertex
100
AcDb2dVertex
 10
30.24466551978259
 20
193.4579589360105
 30
0.0
  0
VERTEX
  5
183
330
16A
100
AcDbEntity
  8
GRAU_10_
 62
     7
100
AcDbVertex
100
AcDb2dVertex
 10
30.22175563480567
 20
193.1182725211649
 30
0.0
  0
VERTEX
  5
184
330
16A
100
AcDbEntity
  8
GRAU_10_
 62
     7
100
AcDbVertex
100
AcDb2dVertex
 10
30.19884574982876
 20
192.7792751254163
 30
0.0
  0
VERTEX
  5
185
330
16A
100
AcDbEntity
  8
GRAU_10_
 62
     7
100
AcDbVertex
100
AcDb2dVertex
 10
30.17593586485185
 20
192.4406222392163
 30
0.0
  0
VERTEX
  5
186
330
16A
100
AcDbEntity
  8
GRAU_10_
 62
     7
100
AcDbVertex
100
AcDb2dVertex
 10
30.15302597987494
 20
192.1043809198559
 30
0.0
  0
VERTEX
  5
187
330
16A
100
AcDbEntity
  8
GRAU_10_
 62
     7
100
AcDbVertex
100
AcDb2dVertex
 10
30.13011609489803
 20
191.7677950909469
 30
0.0
  0
VERTEX
  5
188
330
16A
100
AcDbEntity
  8
GRAU_10_
 62
     7
100
AcDbVertex
100
AcDb2dVertex
 10
30.10789522901817
 20
191.4327595550064
 30
0.0
  0
VERTEX
  5
189
330
16A
100
AcDbEntity
  8
GRAU_10_
 62
     7
100
AcDbVertex
100
AcDb2dVertex
 10
30.08446857971847
 20
191.0984130381629
 30
0.0
  0
VERTEX
  5
18A
330
16A
100
AcDbEntity
  8
GRAU_10_
 62
     7
100
AcDbVertex
100
AcDb2dVertex
 10
30.06224771383861
 20
190.7656168142878
 30
0.0
  0
VERTEX
  5
18B
330
16A
100
AcDbEntity
  8
GRAU_10_
 62
     7
100
AcDbVertex
100
AcDb2dVertex
 10
30.03933782886169
 20
190.4323038260898
 30
0.0
  0
VERTEX
  5
18C
330
16A
100
AcDbEntity
  8
GRAU_10_
 62
     7
100
AcDbVertex
100
AcDb2dVertex
 10
30.01642794388478
 20
190.1014024047316
 30
0.0
  0
VERTEX
  5
18D
330
16A
100
AcDbEntity
  8
GRAU_10_
 62
     7
100
AcDbVertex
100
AcDb2dVertex
 10
29.99351805890787
 20
189.7705009833734
 30
0.0
  0
VERTEX
  5
18E
330
16A
100
AcDbEntity
  8
GRAU_10_
 62
     7
100
AcDbVertex
100
AcDb2dVertex
 10
29.97060817393096
 20
189.4416666193063
 30
0.0
  0
VERTEX
  5
18F
330
16A
100
AcDbEntity
  8
GRAU_10_
 62
     7
100
AcDbVertex
100
AcDb2dVertex
 10
29.94769828895405
 20
189.1124877456906
 30
0.0
  0
VERTEX
  5
190
330
16A
100
AcDbEntity
  8
GRAU_10_
 62
     7
100
AcDbVertex
100
AcDb2dVertex
 10
29.92478840397714
 20
188.7852036745919
 30
0.0
  0
VERTEX
  5
191
330
16A
100
AcDbEntity
  8
GRAU_10_
 62
     7
100
AcDbVertex
100
AcDb2dVertex
 10
29.90222302854875
 20
188.4577473487189
 30
0.0
  0
VERTEX
  5
192
330
16A
100
AcDbEntity
  8
GRAU_10_
 62
     7
100
AcDbVertex
100
AcDb2dVertex
 10
29.87931314357184
 20
188.1325303349113
 30
0.0
  0
VERTEX
  5
193
330
16A
100
AcDbEntity
  8
GRAU_10_
 62
     7
100
AcDbVertex
100
AcDb2dVertex
 10
29.85623100382067
 20
187.8069688115552
 30
0.0
  0
VERTEX
  5
194
330
16A
100
AcDbEntity
  8
GRAU_10_
 62
     7
100
AcDbVertex
100
AcDb2dVertex
 10
29.83332111884376
 20
187.4841633645873
 30
0.0
  0
VERTEX
  5
195
330
16A
100
AcDbEntity
  8
GRAU_10_
 62
     7
100
AcDbVertex
100
AcDb2dVertex
 10
29.81041123386684
 20
187.1603243889738
 30
0.0
  0
SEQEND
  5
196
330
16A
100
AcDbEntity
  8
GRAU_10_
  0
POLYLINE
  5
197
330
1F
100
AcDbEntity
  8
GRAU_10_
 62
     7
100
AcDb2dPolyline
 66
     1
 10
0.0
 20
0.0
 30
0.0
  0
VERTEX
  5
198
330
197
100
AcDbEntity
  8
GRAU_10_
 62
     7
100
AcDbVertex
100
AcDb2dVertex
 10
43.97664386921417
 20
198.1524182989862
 30
0.0
  0
VERTEX
  5
199
330
197
100
AcDbEntity
  8
GRAU_10_
 62
     7
100
AcDbVertex
100
AcDb2dVertex
 10
43.40406899956565
 20
198.4543809182684
 30
0.0
  0
VERTEX
  5
19A
330
197
100
AcDbEntity
  8
GRAU_10_
 62
     7
100
AcDbVertex
100
AcDb2dVertex
 10
42.81805825752465
 20
198.7532429516138
 30
0.0
  0
VERTEX
  5
19B
330
197
100
AcDbEntity
  8
GRAU_10_
 62
     7
100
AcDbVertex
100
AcDb2dVertex
 10
42.21930066218823
 20
199.0491766537967
 30
0.0
  0
VERTEX
  5
19C
330
197
100
AcDbEntity
  8
GRAU_10_
 62
     7
100
AcDbVertex
100
AcDb2dVertex
 10
41.6072794492336
 20
199.3413207509459
 30
0.0
  0
VERTEX
  5
19D
330
197
100
AcDbEntity
  8
GRAU_10_
 62
     7
100
AcDbVertex
100
AcDb2dVertex
 10
40.98216687343501
 20
199.6295029882871
 30
0.0
  0
VERTEX
  5
19E
330
197
100
AcDbEntity
  8
GRAU_10_
 62
     7
100
AcDbVertex
100
AcDb2dVertex
 10
40.34361842524396
 20
199.914240130143
 30
0.0
  0
VERTEX
  5
19F
330
197
100
AcDbEntity
  8
GRAU_10_
 62
     7
100
AcDbVertex
100
AcDb2dVertex
 10
39.69180635943469
 20
200.1939818835453
 30
0.0
  0
VERTEX
  5
1A0
330
197
100
AcDbEntity
  8
GRAU_10_
 62
     7
100
AcDbVertex
100
AcDb2dVertex
 10
39.02604165691016
 20
200.4680392293969
 30
0.0
  0
VERTEX
  5
1A1
330
197
100
AcDbEntity
  8
GRAU_10_
 62
     7
100
AcDbVertex
100
AcDb2dVertex
 10
38.34735784631594
 20
200.7376179511177
 30
0.0
  0
VERTEX
  5
1A2
330
197
100
AcDbEntity
  8
GRAU_10_
 62
     7
100
AcDbVertex
100
AcDb2dVertex
 10
37.65368787036088
 20
201.0018567748363
 30
0.0
  0
VERTEX
  5
1A3
330
197
100
AcDbEntity
  8
GRAU_10_
 62
     7
100
AcDbVertex
100
AcDb2dVertex
 10
36.9464097672391
 20
201.2597221719073
 30
0.0
  0
VERTEX
  5
1A4
330
197
100
AcDbEntity
  8
GRAU_10_
 62
     7
100
AcDbVertex
100
AcDb2dVertex
 10
36.2239732439822
 20
201.510869632782
 30
0.0
  0
VERTEX
  5
1A5
330
197
100
AcDbEntity
  8
GRAU_10_
 62
     7
100
AcDbVertex
100
AcDb2dVertex
 10
35.486895064913
 20
201.7561604313318
 30
0.0
  0
VERTEX
  5
1A6
330
197
100
AcDbEntity
  8
GRAU_10_
 62
     7
100
AcDbVertex
100
AcDb2dVertex
 10
34.73414170138591
 20
201.993872019814
 30
0.0
  0
VERTEX
  5
1A7
330
197
100
AcDbEntity
  8
GRAU_10_
 62
     7
100
AcDbVertex
100
AcDb2dVertex
 10
33.9658854081752
 20
202.2234876339059
 30
0.0
  0
VERTEX
  5
1A8
330
197
100
AcDbEntity
  8
GRAU_10_
 62
     7
100
AcDbVertex
100
AcDb2dVertex
 10
33.18126491140955
 20
202.4455240379303
 30
0.0
  0
SEQEND
  5
1A9
330
197
100
AcDbEntity
  8
GRAU_10_
  0
POLYLINE
  5
1AA
330
1F
100
AcDbEntity
  8
GRAU_10_
 62
     7
100
AcDb2dPolyline
 66
     1
 10
0.0
 20
0.0
 30
0.0
  0
VERTEX
  5
1AB
330
1AA
100
AcDbEntity
  8
GRAU_10_
 62
     7
100
AcDbVertex
100
AcDb2dVertex
 10
43.97664386921417
 20
198.1524182989862
 30
0.0
  0
VERTEX
  5
1AC
330
1AA
100
AcDbEntity
  8
GRAU_10_
 62
     7
100
AcDbVertex
100
AcDb2dVertex
 10
44.37834200279431
 20
191.8329073956182
 30
0.0
  0
VERTEX
  5
1AD
330
1AA
100
AcDbEntity
  8
GRAU_10_
 62
     7
100
AcDbVertex
100
AcDb2dVertex
 10
44.77211641675837
 20
185.7762572777747
 30
0.0
  0
SEQEND
  5
1AE
330
1AA
100
AcDbEntity
  8
GRAU_10_
  0
POLYLINE
  5
1AF
330
1F
100
AcDbEntity
  8
GRAU_10_
 62
     7
100
AcDb2dPolyline
 66
     1
 10
0.0
 20
0.0
 30
0.0
  0
VERTEX
  5
1B0
330
1AF
100
AcDbEntity
  8
GRAU_10_
 62
     7
100
AcDbVertex
100
AcDb2dVertex
 10
29.81041123386684
 20
187.1603243889738
 30
0.0
  0
VERTEX
  5
1B1
330
1AF
100
AcDbEntity
  8
GRAU_10_
 62
     7
100
AcDbVertex
100
AcDb2dVertex
 10
31.95670572117749
 20
187.0280327223402
 30
0.0
  0
VERTEX
  5
1B2
330
1AF
100
AcDbEntity
  8
GRAU_10_
 62
     7
100
AcDbVertex
100
AcDb2dVertex
 10
34.03030869374937
 20
186.904526049194
 30
0.0
  0
VERTEX
  5
1B3
330
1AF
100
AcDbEntity
  8
GRAU_10_
 62
     7
100
AcDbVertex
100
AcDb2dVertex
 10
36.03242593500231
 20
186.7817083951448
 30
0.0
  0
VERTEX
  5
1B4
330
1AF
100
AcDbEntity
  8
GRAU_10_
 62
     7
100
AcDbVertex
100
AcDb2dVertex
 10
37.96167940674222
 20
186.6483831998657
 30
0.0
  0
VERTEX
  5
1B5
330
1AF
100
AcDbEntity
  8
GRAU_10_
 62
     7
100
AcDbVertex
100
AcDb2dVertex
 10
39.81703558032352
 20
186.4949041959978
 30
0.0
  0
VERTEX
  5
1B6
330
1AF
100
AcDbEntity
  8
GRAU_10_
 62
     7
100
AcDbVertex
100
AcDb2dVertex
 10
41.57902966625455
 20
186.3076632563745
 30
0.0
  0
VERTEX
  5
1B7
330
1AF
100
AcDbEntity
  8
GRAU_10_
 62
     7
100
AcDbVertex
100
AcDb2dVertex
 10
43.23112520620611
 20
186.073741272926
 30
0.0
  0
VERTEX
  5
1B8
330
1AF
100
AcDbEntity
  8
GRAU_10_
 62
     7
100
AcDbVertex
100
AcDb2dVertex
 10
44.77211641675837
 20
185.7762572777747
 30
0.0
  0
SEQEND
  5
1B9
330
1AF
100
AcDbEntity
  8
GRAU_10_
  0
POLYLINE
  5
1BA
330
1F
100
AcDbEntity
  8
GRAU_10_
 62
     7
100
AcDb2dPolyline
 66
     1
 10
0.0
 20
0.0
 30
0.0
  0
VERTEX
  5
1BB
330
1BA
100
AcDbEntity
  8
GRAU_10_
 62
     7
100
AcDbVertex
100
AcDb2dVertex
 10
30.35576984918189
 20
178.4307969388992
 30
0.0
  0
VERTEX
  5
1BC
330
1BA
100
AcDbEntity
  8
GRAU_10_
 62
     7
100
AcDbVertex
100
AcDb2dVertex
 10
30.0484673318976
 20
178.4307969388992
 30
0.0
  0
VERTEX
  5
1BD
330
1BA
100
AcDbEntity
  8
GRAU_10_
 62
     7
100
AcDbVertex
100
AcDb2dVertex
 10
29.74099255983906
 20
178.4307969388992
 30
0.0
  0
SEQEND
  5
1BE
330
1BA
100
AcDbEntity
  8
GRAU_10_
  0
POLYLINE
  5
1BF
330
1F
100
AcDbEntity
  8
GRAU_10_
 62
     7
100
AcDb2dPolyline
 66
     1
 10
0.0
 20
0.0
 30
0.0
  0
VERTEX
  5
1C0
330
1BF
100
AcDbEntity
  8
GRAU_10_
 62
     7
100
AcDbVertex
100
AcDb2dVertex
 10
28.97153048320851
 20
179.7631876178196
 30
0.0
  0
VERTEX
  5
1C1
330
1BF
100
AcDbEntity
  8
GRAU_10_
 62
     7
100
AcDbVertex
100
AcDb2dVertex
 10
29.35669215845944
 20
179.0957003675525
 30
0.0
  0
VERTEX
  5
1C2
330
1BF
100
AcDbEntity
  8
GRAU_10_
 62
     7
100
AcDbVertex
100
AcDb2dVertex
 10
29.74099255983906
 20
178.4307969388992
 30
0.0
  0
SEQEND
  5
1C3
330
1BF
100
AcDbEntity
  8
GRAU_10_
  0
POLYLINE
  5
1C4
330
1F
100
AcDbEntity
  8
GRAU_10_
 62
     7
100
AcDb2dPolyline
 66
     1
 10
0.0
 20
0.0
 30
0.0
  0
VERTEX
  5
1C5
330
1C4
100
AcDbEntity
  8
GRAU_10_
 62
     7
100
AcDbVertex
100
AcDb2dVertex
 10
28.97153048320851
 20
179.7631876178196
 30
0.0
  0
VERTEX
  5
1C6
330
1C4
100
AcDbEntity
  8
GRAU_10_
 62
     7
100
AcDbVertex
100
AcDb2dVertex
 10
28.95878362991308
 20
179.7819633882143
 30
0.0
  0
VERTEX
  5
1C7
330
1C4
100
AcDbEntity
  8
GRAU_10_
 62
     7
100
AcDbVertex
100
AcDb2dVertex
 10
28.94465873842356
 20
179.7991888656405
 30
0.0
  0
VERTEX
  5
1C8
330
1C4
100
AcDbEntity
  8
GRAU_10_
 62
     7
100
AcDbVertex
100
AcDb2dVertex
 10
28.93690727358175
 20
179.8076293495793
 30
0.0
  0
VERTEX
  5
1C9
330
1C4
100
AcDbEntity
  8
GRAU_10_
 62
     7
100
AcDbVertex
100
AcDb2dVertex
 10
28.92777777054583
 20
179.8150363048726
 30
0.0
  0
VERTEX
  5
1CA
330
1C4
100
AcDbEntity
  8
GRAU_10_
 62
     7
100
AcDbVertex
100
AcDb2dVertex
 10
28.91899277705845
 20
179.8227877697144
 30
0.0
  0
VERTEX
  5
1CB
330
1C4
100
AcDbEntity
  8
GRAU_10_
 62
     7
100
AcDbVertex
100
AcDb2dVertex
 10
28.90917425492549
 20
179.8295057059107
 30
0.0
  0
VERTEX
  5
1CC
330
1C4
100
AcDbEntity
  8
GRAU_10_
 62
     7
100
AcDbVertex
100
AcDb2dVertex
 10
28.8879869176912
 20
179.8419080496576
 30
0.0
  0
VERTEX
  5
1CD
330
1C4
100
AcDbEntity
  8
GRAU_10_
 62
     7
100
AcDbVertex
100
AcDb2dVertex
 10
28.86507703271429
 20
179.8517265717906
 30
0.0
  0
VERTEX
  5
1CE
330
1C4
100
AcDbEntity
  8
GRAU_10_
 62
     7
100
AcDbVertex
100
AcDb2dVertex
 10
28.85233017941886
 20
179.8556884315986
 30
0.0
  0
VERTEX
  5
1CF
330
1C4
100
AcDbEntity
  8
GRAU_10_
 62
     7
100
AcDbVertex
100
AcDb2dVertex
 10
28.83958332612344
 20
179.8587890175353
 30
0.0
  0
VERTEX
  5
1D0
330
1C4
100
AcDbEntity
  8
GRAU_10_
 62
     7
100
AcDbVertex
100
AcDb2dVertex
 10
28.82580294418244
 20
179.8608560748265
 30
0.0
  0
VERTEX
  5
1D1
330
1C4
100
AcDbEntity
  8
GRAU_10_
 62
     7
100
AcDbVertex
100
AcDb2dVertex
 10
28.81236707178996
 20
179.8624063677948
 30
0.0
  0
VERTEX
  5
1D2
330
1C4
100
AcDbEntity
  8
GRAU_10_
 62
     7
100
AcDbVertex
100
AcDb2dVertex
 10
28.8053046260452
 20
179.8634398964404
 30
0.0
  0
VERTEX
  5
1D3
330
1C4
100
AcDbEntity
  8
GRAU_10_
 62
     7
100
AcDbVertex
100
AcDb2dVertex
 10
28.79789767075192
 20
179.8634398964404
 30
0.0
  0
VERTEX
  5
1D4
330
1C4
100
AcDbEntity
  8
GRAU_10_
 62
     7
100
AcDbVertex
100
AcDb2dVertex
 10
28.79083522500715
 20
179.8634398964404
 30
0.0
  0
VERTEX
  5
1D5
330
1C4
100
AcDbEntity
  8
GRAU_10_
 62
     7
100
AcDbVertex
100
AcDb2dVertex
 10
28.78342826971387
 20
179.8624063677948
 30
0.0
  0
VERTEX
  5
1D6
330
1C4
100
AcDbEntity
  8
GRAU_10_
 62
     7
100
AcDbVertex
100
AcDb2dVertex
 10
28.76964788777287
 20
179.8608560748265
 30
0.0
  0
VERTEX
  5
1D7
330
1C4
100
AcDbEntity
  8
GRAU_10_
 62
     7
100
AcDbVertex
100
AcDb2dVertex
 10
28.75569525105761
 20
179.8587890175353
 30
0.0
  0
VERTEX
  5
1D8
330
1C4
100
AcDbEntity
  8
GRAU_10_
 62
     7
100
AcDbVertex
100
AcDb2dVertex
 10
28.74863280531284
 20
179.8570664697927
 30
0.0
  0
VERTEX
  5
1D9
330
1C4
100
AcDbEntity
  8
GRAU_10_
 62
     7
100
AcDbVertex
100
AcDb2dVertex
 10
28.74122585001956
 20
179.8549994125015
 30
0.0
  0
VERTEX
  5
1DA
330
1C4
100
AcDbEntity
  8
GRAU_10_
 62
     7
100
AcDbVertex
100
AcDb2dVertex
 10
28.7341634042748
 20
179.8524155908876
 30
0.0
  0
VERTEX
  5
1DB
330
1C4
100
AcDbEntity
  8
GRAU_10_
 62
     7
100
AcDbVertex
100
AcDb2dVertex
 10
28.72744546807856
 20
179.8503485335964
 30
0.0
  0
VERTEX
  5
1DC
330
1C4
100
AcDbEntity
  8
GRAU_10_
 62
     7
100
AcDbVertex
100
AcDb2dVertex
 10
28.71400959568608
 20
179.8446641260458
 30
0.0
  0
VERTEX
  5
1DD
330
1C4
100
AcDbEntity
  8
GRAU_10_
 62
     7
100
AcDbVertex
100
AcDb2dVertex
 10
28.70126274239066
 20
179.8382906993981
 30
0.0
  0
VERTEX
  5
1DE
330
1C4
100
AcDbEntity
  8
GRAU_10_
 62
     7
100
AcDbVertex
100
AcDb2dVertex
 10
28.69454480619442
 20
179.8345010943643
 30
0.0
  0
VERTEX
  5
1DF
330
1C4
100
AcDbEntity
  8
GRAU_10_
 62
     7
100
AcDbVertex
100
AcDb2dVertex
 10
28.68868814386949
 20
179.8305392345563
 30
0.0
  0
VERTEX
  5
1E0
330
1C4
100
AcDbEntity
  8
GRAU_10_
 62
     7
100
AcDbVertex
100
AcDb2dVertex
 10
28.68265922677031
 20
179.8267496295225
 30
0.0
  0
VERTEX
  5
1E1
330
1C4
100
AcDbEntity
  8
GRAU_10_
 62
     7
100
AcDbVertex
100
AcDb2dVertex
 10
28.67731932876817
 20
179.8227877697144
 30
0.0
  0
VERTEX
  5
1E2
330
1C4
100
AcDbEntity
  8
GRAU_10_
 62
     7
100
AcDbVertex
100
AcDb2dVertex
 10
28.66629502321537
 20
179.8136582666785
 30
0.0
  0
VERTEX
  5
1E3
330
1C4
100
AcDbEntity
  8
GRAU_10_
 62
     7
100
AcDbVertex
100
AcDb2dVertex
 10
28.65613199153389
 20
179.8045287636426
 30
0.0
  0
VERTEX
  5
1E4
330
1C4
100
AcDbEntity
  8
GRAU_10_
 62
     7
100
AcDbVertex
100
AcDb2dVertex
 10
28.63925102365616
 20
179.7843749550539
 30
0.0
  0
VERTEX
  5
1E5
330
1C4
100
AcDbEntity
  8
GRAU_10_
 62
     7
100
AcDbVertex
100
AcDb2dVertex
 10
28.62478162261811
 20
179.7631876178196
 30
0.0
  0
SEQEND
  5
1E6
330
1C4
100
AcDbEntity
  8
GRAU_10_
  0
POLYLINE
  5
1E7
330
1F
100
AcDbEntity
  8
GRAU_10_
 62
     7
100
AcDb2dPolyline
 66
     1
 10
0.0
 20
0.0
 30
0.0
  0
VERTEX
  5
1E8
330
1E7
100
AcDbEntity
  8
GRAU_10_
 62
     7
100
AcDbVertex
100
AcDb2dVertex
 10
28.09595946563226
 20
178.8474812378402
 30
0.0
  0
VERTEX
  5
1E9
330
1E7
100
AcDbEntity
  8
GRAU_10_
 62
     7
100
AcDbVertex
100
AcDb2dVertex
 10
28.36019828935092
 20
179.3046454087329
 30
0.0
  0
VERTEX
  5
1EA
330
1E7
100
AcDbEntity
  8
GRAU_10_
 62
     7
100
AcDbVertex
100
AcDb2dVertex
 10
28.62478162261811
 20
179.7631876178196
 30
0.0
  0
SEQEND
  5
1EB
330
1E7
100
AcDbEntity
  8
GRAU_10_
  0
POLYLINE
  5
1EC
330
1F
100
AcDbEntity
  8
GRAU_10_
 62
     7
100
AcDb2dPolyline
 66
     1
 10
0.0
 20
0.0
 30
0.0
  0
VERTEX
  5
1ED
330
1EC
100
AcDbEntity
  8
GRAU_10_
 62
     7
100
AcDbVertex
100
AcDb2dVertex
 10
48.21342229697442
 20
179.0512586357927
 30
0.0
  0
VERTEX
  5
1EE
330
1EC
100
AcDbEntity
  8
GRAU_10_
 62
     7
100
AcDbVertex
100
AcDb2dVertex
 10
48.03462184128995
 20
178.7408555325717
 30
0.0
  0
VERTEX
  5
1EF
330
1EC
100
AcDbEntity
  8
GRAU_10_
 62
     7
100
AcDbVertex
100
AcDb2dVertex
 10
47.85530462128271
 20
178.4307969388992
 30
0.0
  0
SEQEND
  5
1F0
330
1EC
100
AcDbEntity
  8
GRAU_10_
  0
POLYLINE
  5
1F1
330
1F
100
AcDbEntity
  8
GRAU_10_
 62
     7
100
AcDb2dPolyline
 66
     1
 10
0.0
 20
0.0
 30
0.0
  0
VERTEX
  5
1F2
330
1F1
100
AcDbEntity
  8
GRAU_10_
 62
     7
100
AcDbVertex
100
AcDb2dVertex
 10
47.24087184148839
 20
178.4307969388992
 30
0.0
  0
VERTEX
  5
1F3
330
1F1
100
AcDbEntity
  8
GRAU_10_
 62
     7
100
AcDbVertex
100
AcDb2dVertex
 10
47.55024141606383
 20
178.4307969388992
 30
0.0
  0
VERTEX
  5
1F4
330
1F1
100
AcDbEntity
  8
GRAU_10_
 62
     7
100
AcDbVertex
100
AcDb2dVertex
 10
47.85530462128271
 20
178.4307969388992
 30
0.0
  0
SEQEND
  5
1F5
330
1F1
100
AcDbEntity
  8
GRAU_10_
  0
POLYLINE
  5
1F6
330
1F
100
AcDbEntity
  8
GRAU_10_
 62
     7
100
AcDb2dPolyline
 66
     1
 10
0.0
 20
0.0
 30
0.0
  0
VERTEX
  5
1F7
330
1F6
100
AcDbEntity
  8
GRAU_10_
 62
     7
100
AcDbVertex
100
AcDb2dVertex
 10
47.24087184148839
 20
178.4307969388992
 30
0.0
  0
VERTEX
  5
1F8
330
1F6
100
AcDbEntity
  8
GRAU_10_
 62
     7
100
AcDbVertex
100
AcDb2dVertex
 10
46.85743271398009
 20
179.0943223293584
 30
0.0
  0
VERTEX
  5
1F9
330
1F6
100
AcDbEntity
  8
GRAU_10_
 62
     7
100
AcDbVertex
100
AcDb2dVertex
 10
46.47140976485785
 20
179.7631876178196
 30
0.0
  0
VERTEX
  5
1FA
330
1F6
100
AcDbEntity
  8
GRAU_10_
 62
     7
100
AcDbVertex
100
AcDb2dVertex
 10
46.45866291156242
 20
179.7823078977628
 30
0.0
  0
VERTEX
  5
1FB
330
1F6
100
AcDbEntity
  8
GRAU_10_
 62
     7
100
AcDbVertex
100
AcDb2dVertex
 10
46.44539929394421
 20
179.798844356092
 30
0.0
  0
VERTEX
  5
1FC
330
1F6
100
AcDbEntity
  8
GRAU_10_
 62
     7
100
AcDbVertex
100
AcDb2dVertex
 10
46.42972410948632
 20
179.8136582666785
 30
0.0
  0
VERTEX
  5
1FD
330
1F6
100
AcDbEntity
  8
GRAU_10_
 62
     7
100
AcDbVertex
100
AcDb2dVertex
 10
46.4128431416086
 20
179.8267496295225
 30
0.0
  0
VERTEX
  5
1FE
330
1F6
100
AcDbEntity
  8
GRAU_10_
 62
     7
100
AcDbVertex
100
AcDb2dVertex
 10
46.39458413553677
 20
179.8382906993981
 30
0.0
  0
VERTEX
  5
1FF
330
1F6
100
AcDbEntity
  8
GRAU_10_
 62
     7
100
AcDbVertex
100
AcDb2dVertex
 10
46.37477483649658
 20
179.8482814763053
 30
0.0
  0
VERTEX
  5
200
330
1F6
100
AcDbEntity
  8
GRAU_10_
 62
     7
100
AcDbVertex
100
AcDb2dVertex
 10
46.3535874992623
 20
179.8553439220501
 30
0.0
  0
VERTEX
  5
201
330
1F6
100
AcDbEntity
  8
GRAU_10_
 62
     7
100
AcDbVertex
100
AcDb2dVertex
 10
46.33171114293096
 20
179.8605115652779
 30
0.0
  0
VERTEX
  5
202
330
1F6
100
AcDbEntity
  8
GRAU_10_
 62
     7
100
AcDbVertex
100
AcDb2dVertex
 10
46.31965330873259
 20
179.8624063677948
 30
0.0
  0
VERTEX
  5
203
330
1F6
100
AcDbEntity
  8
GRAU_10_
 62
     7
100
AcDbVertex
100
AcDb2dVertex
 10
46.30776772930848
 20
179.8627508773434
 30
0.0
  0
VERTEX
  5
204
330
1F6
100
AcDbEntity
  8
GRAU_10_
 62
     7
100
AcDbVertex
100
AcDb2dVertex
 10
46.29502087601306
 20
179.8634398964404
 30
0.0
  0
VERTEX
  5
205
330
1F6
100
AcDbEntity
  8
GRAU_10_
 62
     7
100
AcDbVertex
100
AcDb2dVertex
 10
46.28227402271763
 20
179.8624063677948
 30
0.0
  0
VERTEX
  5
206
330
1F6
100
AcDbEntity
  8
GRAU_10_
 62
     7
100
AcDbVertex
100
AcDb2dVertex
 10
46.26969942419647
 20
179.8608560748265
 30
0.0
  0
VERTEX
  5
207
330
1F6
100
AcDbEntity
  8
GRAU_10_
 62
     7
100
AcDbVertex
100
AcDb2dVertex
 10
46.25626355180399
 20
179.8587890175353
 30
0.0
  0
VERTEX
  5
208
330
1F6
100
AcDbEntity
  8
GRAU_10_
 62
     7
100
AcDbVertex
100
AcDb2dVertex
 10
46.24248316986299
 20
179.8553439220501
 30
0.0
  0
VERTEX
  5
209
330
1F6
100
AcDbEntity
  8
GRAU_10_
 62
     7
100
AcDbVertex
100
AcDb2dVertex
 10
46.22835827837347
 20
179.850693043145
 30
0.0
  0
VERTEX
  5
20A
330
1F6
100
AcDbEntity
  8
GRAU_10_
 62
     7
100
AcDbVertex
100
AcDb2dVertex
 10
46.21457789643247
 20
179.8450086355943
 30
0.0
  0
VERTEX
  5
20B
330
1F6
100
AcDbEntity
  8
GRAU_10_
 62
     7
100
AcDbVertex
100
AcDb2dVertex
 10
46.20010849539442
 20
179.8379461898496
 30
0.0
  0
VERTEX
  5
20C
330
1F6
100
AcDbEntity
  8
GRAU_10_
 62
     7
100
AcDbVertex
100
AcDb2dVertex
 10
46.19339055919819
 20
179.8334675657187
 30
0.0
  0
VERTEX
  5
20D
330
1F6
100
AcDbEntity
  8
GRAU_10_
 62
     7
100
AcDbVertex
100
AcDb2dVertex
 10
46.18632811345342
 20
179.8288166868136
 30
0.0
  0
VERTEX
  5
20E
330
1F6
100
AcDbEntity
  8
GRAU_10_
 62
     7
100
AcDbVertex
100
AcDb2dVertex
 10
46.17892115816014
 20
179.8243380626828
 30
0.0
  0
VERTEX
  5
20F
330
1F6
100
AcDbEntity
  8
GRAU_10_
 62
     7
100
AcDbVertex
100
AcDb2dVertex
 10
46.1722032219639
 20
179.8186536551322
 30
0.0
  0
VERTEX
  5
210
330
1F6
100
AcDbEntity
  8
GRAU_10_
 62
     7
100
AcDbVertex
100
AcDb2dVertex
 10
46.16514077621913
 20
179.8129692475815
 30
0.0
  0
VERTEX
  5
211
330
1F6
100
AcDbEntity
  8
GRAU_10_
 62
     7
100
AcDbVertex
100
AcDb2dVertex
 10
46.15842284002289
 20
179.8065958209338
 30
0.0
  0
VERTEX
  5
212
330
1F6
100
AcDbEntity
  8
GRAU_10_
 62
     7
100
AcDbVertex
100
AcDb2dVertex
 10
46.15256617769797
 20
179.7998778847375
 30
0.0
  0
VERTEX
  5
213
330
1F6
100
AcDbEntity
  8
GRAU_10_
 62
     7
100
AcDbVertex
100
AcDb2dVertex
 10
46.14653726059878
 20
179.7931599485413
 30
0.0
  0
VERTEX
  5
214
330
1F6
100
AcDbEntity
  8
GRAU_10_
 62
     7
100
AcDbVertex
100
AcDb2dVertex
 10
46.14016383395107
 20
179.7860975027965
 30
0.0
  0
VERTEX
  5
215
330
1F6
100
AcDbEntity
  8
GRAU_10_
 62
     7
100
AcDbVertex
100
AcDb2dVertex
 10
46.13482393594894
 20
179.7790350570518
 30
0.0
  0
VERTEX
  5
216
330
1F6
100
AcDbEntity
  8
GRAU_10_
 62
     7
100
AcDbVertex
100
AcDb2dVertex
 10
46.13000080226958
 20
179.7709390826614
 30
0.0
  0
VERTEX
  5
217
330
1F6
100
AcDbEntity
  8
GRAU_10_
 62
     7
100
AcDbVertex
100
AcDb2dVertex
 10
46.12466090426745
 20
179.7631876178196
 30
0.0
  0
VERTEX
  5
218
330
1F6
100
AcDbEntity
  8
GRAU_10_
 62
     7
100
AcDbVertex
100
AcDb2dVertex
 10
45.73984373856504
 20
179.0957003675525
 30
0.0
  0
VERTEX
  5
219
330
1F6
100
AcDbEntity
  8
GRAU_10_
 62
     7
100
AcDbVertex
100
AcDb2dVertex
 10
45.35554333718542
 20
178.4307969388992
 30
0.0
  0
SEQEND
  5
21A
330
1F6
100
AcDbEntity
  8
GRAU_10_
  0
POLYLINE
  5
21B
330
1F
100
AcDbEntity
  8
GRAU_10_
 62
     7
100
AcDb2dPolyline
 66
     1
 10
0.0
 20
0.0
 30
0.0
  0
VERTEX
  5
21C
330
21B
100
AcDbEntity
  8
GRAU_10_
 62
     7
100
AcDbVertex
100
AcDb2dVertex
 10
44.74076604784259
 20
178.4307969388992
 30
0.0
  0
VERTEX
  5
21D
330
21B
100
AcDbEntity
  8
GRAU_10_
 62
     7
100
AcDbVertex
100
AcDb2dVertex
 10
45.04944660332097
 20
178.4307969388992
 30
0.0
  0
VERTEX
  5
21E
330
21B
100
AcDbEntity
  8
GRAU_10_
 62
     7
100
AcDbVertex
100
AcDb2dVertex
 10
45.35554333718542
 20
178.4307969388992
 30
0.0
  0
SEQEND
  5
21F
330
21B
100
AcDbEntity
  8
GRAU_10_
  0
POLYLINE
  5
220
330
1F
100
AcDbEntity
  8
GRAU_10_
 62
     7
100
AcDb2dPolyline
 66
     1
 10
0.0
 20
0.0
 30
0.0
  0
VERTEX
  5
221
330
220
100
AcDbEntity
  8
GRAU_10_
 62
     7
100
AcDbVertex
100
AcDb2dVertex
 10
44.74076604784259
 20
178.4307969388992
 30
0.0
  0
VERTEX
  5
222
330
220
100
AcDbEntity
  8
GRAU_10_
 62
     7
100
AcDbVertex
100
AcDb2dVertex
 10
44.35715466556002
 20
179.0950113484554
 30
0.0
  0
VERTEX
  5
223
330
220
100
AcDbEntity
  8
GRAU_10_
 62
     7
100
AcDbVertex
100
AcDb2dVertex
 10
43.97095946166351
 20
179.7631876178196
 30
0.0
  0
VERTEX
  5
224
330
220
100
AcDbEntity
  8
GRAU_10_
 62
     7
100
AcDbVertex
100
AcDb2dVertex
 10
43.95890162746514
 20
179.7819633882143
 30
0.0
  0
VERTEX
  5
225
330
220
100
AcDbEntity
  8
GRAU_10_
 62
     7
100
AcDbVertex
100
AcDb2dVertex
 10
43.94512124552414
 20
179.7981553369949
 30
0.0
  0
VERTEX
  5
226
330
220
100
AcDbEntity
  8
GRAU_10_
 62
     7
100
AcDbVertex
100
AcDb2dVertex
 10
43.92996282538904
 20
179.81331375713
 30
0.0
  0
VERTEX
  5
227
330
220
100
AcDbEntity
  8
GRAU_10_
 62
     7
100
AcDbVertex
100
AcDb2dVertex
 10
43.91308185751132
 20
179.8267496295225
 30
0.0
  0
VERTEX
  5
228
330
220
100
AcDbEntity
  8
GRAU_10_
 62
     7
100
AcDbVertex
100
AcDb2dVertex
 10
43.8943060871167
 20
179.8382906993981
 30
0.0
  0
VERTEX
  5
229
330
220
100
AcDbEntity
  8
GRAU_10_
 62
     7
100
AcDbVertex
100
AcDb2dVertex
 10
43.8750135523993
 20
179.8482814763053
 30
0.0
  0
VERTEX
  5
22A
330
220
100
AcDbEntity
  8
GRAU_10_
 62
     7
100
AcDbVertex
100
AcDb2dVertex
 10
43.8534817056165
 20
179.8553439220501
 30
0.0
  0
VERTEX
  5
22B
330
220
100
AcDbEntity
  8
GRAU_10_
 62
     7
100
AcDbVertex
100
AcDb2dVertex
 10
43.83057182063958
 20
179.8605115652779
 30
0.0
  0
VERTEX
  5
22C
330
220
100
AcDbEntity
  8
GRAU_10_
 62
     7
100
AcDbVertex
100
AcDb2dVertex
 10
43.81816947689268
 20
179.8624063677948
 30
0.0
  0
VERTEX
  5
22D
330
220
100
AcDbEntity
  8
GRAU_10_
 62
     7
100
AcDbVertex
100
AcDb2dVertex
 10
43.8061116426943
 20
179.8627508773434
 30
0.0
  0
VERTEX
  5
22E
330
220
100
AcDbEntity
  8
GRAU_10_
 62
     7
100
AcDbVertex
100
AcDb2dVertex
 10
43.79353704417314
 20
179.8634398964404
 30
0.0
  0
VERTEX
  5
22F
330
220
100
AcDbEntity
  8
GRAU_10_
 62
     7
100
AcDbVertex
100
AcDb2dVertex
 10
43.78010117178067
 20
179.8624063677948
 30
0.0
  0
VERTEX
  5
230
330
220
100
AcDbEntity
  8
GRAU_10_
 62
     7
100
AcDbVertex
100
AcDb2dVertex
 10
43.76700980893672
 20
179.8605115652779
 30
0.0
  0
VERTEX
  5
231
330
220
100
AcDbEntity
  8
GRAU_10_
 62
     7
100
AcDbVertex
100
AcDb2dVertex
 10
43.7528849174472
 20
179.8577554888897
 30
0.0
  0
VERTEX
  5
232
330
220
100
AcDbEntity
  8
GRAU_10_
 62
     7
100
AcDbVertex
100
AcDb2dVertex
 10
43.7391045355062
 20
179.8543103934045
 30
0.0
  0
VERTEX
  5
233
330
220
100
AcDbEntity
  8
GRAU_10_
 62
     7
100
AcDbVertex
100
AcDb2dVertex
 10
43.72463513446815
 20
179.8493150049509
 30
0.0
  0
VERTEX
  5
234
330
220
100
AcDbEntity
  8
GRAU_10_
 62
     7
100
AcDbVertex
100
AcDb2dVertex
 10
43.71791719827191
 20
179.8463866737884
 30
0.0
  0
VERTEX
  5
235
330
220
100
AcDbEntity
  8
GRAU_10_
 62
     7
100
AcDbVertex
100
AcDb2dVertex
 10
43.71051024297862
 20
179.8432860878517
 30
0.0
  0
VERTEX
  5
236
330
220
100
AcDbEntity
  8
GRAU_10_
 62
     7
100
AcDbVertex
100
AcDb2dVertex
 10
43.70344779723386
 20
179.8398409923664
 30
0.0
  0
VERTEX
  5
237
330
220
100
AcDbEntity
  8
GRAU_10_
 62
     7
100
AcDbVertex
100
AcDb2dVertex
 10
43.69690211581189
 20
179.8351901134614
 30
0.0
  0
VERTEX
  5
238
330
220
100
AcDbEntity
  8
GRAU_10_
 62
     7
100
AcDbVertex
100
AcDb2dVertex
 10
43.68243271477384
 20
179.8267496295225
 30
0.0
  0
VERTEX
  5
239
330
220
100
AcDbEntity
  8
GRAU_10_
 62
     7
100
AcDbVertex
100
AcDb2dVertex
 10
43.66899684238136
 20
179.8160698335182
 30
0.0
  0
VERTEX
  5
23A
330
220
100
AcDbEntity
  8
GRAU_10_
 62
     7
100
AcDbVertex
100
AcDb2dVertex
 10
43.65624998908594
 20
179.8045287636426
 30
0.0
  0
VERTEX
  5
23B
330
220
100
AcDbEntity
  8
GRAU_10_
 62
     7
100
AcDbVertex
100
AcDb2dVertex
 10
43.64488117398461
 20
179.7914374007987
 30
0.0
  0
VERTEX
  5
23C
330
220
100
AcDbEntity
  8
GRAU_10_
 62
     7
100
AcDbVertex
100
AcDb2dVertex
 10
43.63902451165969
 20
179.7843749550539
 30
0.0
  0
VERTEX
  5
23D
330
220
100
AcDbEntity
  8
GRAU_10_
 62
     7
100
AcDbVertex
100
AcDb2dVertex
 10
43.63402912320608
 20
179.7773125093092
 30
0.0
  0
VERTEX
  5
23E
330
220
100
AcDbEntity
  8
GRAU_10_
 62
     7
100
AcDbVertex
100
AcDb2dVertex
 10
43.62903373475247
 20
179.7705945731129
 30
0.0
  0
VERTEX
  5
23F
330
220
100
AcDbEntity
  8
GRAU_10_
 62
     7
100
AcDbVertex
100
AcDb2dVertex
 10
43.62489962017017
 20
179.7631876178196
 30
0.0
  0
VERTEX
  5
240
330
220
100
AcDbEntity
  8
GRAU_10_
 62
     7
100
AcDbVertex
100
AcDb2dVertex
 10
43.23956569014497
 20
179.0957003675525
 30
0.0
  0
VERTEX
  5
241
330
220
100
AcDbEntity
  8
GRAU_10_
 62
     7
100
AcDbVertex
100
AcDb2dVertex
 10
42.85543754353962
 20
178.4307969388992
 30
0.0
  0
VERTEX
  5
242
330
220
100
AcDbEntity
  8
GRAU_10_
 62
     7
100
AcDbVertex
100
AcDb2dVertex
 10
42.5491685549009
 20
178.4307969388992
 30
0.0
  0
VERTEX
  5
243
330
220
100
AcDbEntity
  8
GRAU_10_
 62
     7
100
AcDbVertex
100
AcDb2dVertex
 10
42.24048799942252
 20
178.4307969388992
 30
0.0
  0
VERTEX
  5
244
330
220
100
AcDbEntity
  8
GRAU_10_
 62
     7
100
AcDbVertex
100
AcDb2dVertex
 10
41.85670436236569
 20
179.095355858004
 30
0.0
  0
VERTEX
  5
245
330
220
100
AcDbEntity
  8
GRAU_10_
 62
     7
100
AcDbVertex
100
AcDb2dVertex
 10
41.47154268711476
 20
179.7631876178196
 30
0.0
  0
VERTEX
  5
246
330
220
100
AcDbEntity
  8
GRAU_10_
 62
     7
100
AcDbVertex
100
AcDb2dVertex
 10
41.45948485291638
 20
179.7812743691172
 30
0.0
  0
VERTEX
  5
247
330
220
100
AcDbEntity
  8
GRAU_10_
 62
     7
100
AcDbVertex
100
AcDb2dVertex
 10
41.44535996142686
 20
179.7981553369949
 30
0.0
  0
VERTEX
  5
248
330
220
100
AcDbEntity
  8
GRAU_10_
 62
     7
100
AcDbVertex
100
AcDb2dVertex
 10
41.43020154129176
 20
179.8129692475815
 30
0.0
  0
VERTEX
  5
249
330
220
100
AcDbEntity
  8
GRAU_10_
 62
     7
100
AcDbVertex
100
AcDb2dVertex
 10
41.41297606386551
 20
179.8267496295225
 30
0.0
  0
VERTEX
  5
24A
330
220
100
AcDbEntity
  8
GRAU_10_
 62
     7
100
AcDbVertex
100
AcDb2dVertex
 10
41.4038465608296
 20
179.8331230561702
 30
0.0
  0
VERTEX
  5
24B
330
220
100
AcDbEntity
  8
GRAU_10_
 62
     7
100
AcDbVertex
100
AcDb2dVertex
 10
41.3942002934709
 20
179.8382906993981
 30
0.0
  0
VERTEX
  5
24C
330
220
100
AcDbEntity
  8
GRAU_10_
 62
     7
100
AcDbVertex
100
AcDb2dVertex
 10
41.38438177133794
 20
179.8436305974002
 30
0.0
  0
VERTEX
  5
24D
330
220
100
AcDbEntity
  8
GRAU_10_
 62
     7
100
AcDbVertex
100
AcDb2dVertex
 10
41.37421873965645
 20
179.8482814763053
 30
0.0
  0
VERTEX
  5
24E
330
220
100
AcDbEntity
  8
GRAU_10_
 62
     7
100
AcDbVertex
100
AcDb2dVertex
 10
41.35182561900233
 20
179.8556884315986
 30
0.0
  0
VERTEX
  5
24F
330
220
100
AcDbEntity
  8
GRAU_10_
 62
     7
100
AcDbVertex
100
AcDb2dVertex
 10
41.32891573402541
 20
179.8605115652779
 30
0.0
  0
VERTEX
  5
250
330
220
100
AcDbEntity
  8
GRAU_10_
 62
     7
100
AcDbVertex
100
AcDb2dVertex
 10
41.31634113550425
 20
179.8624063677948
 30
0.0
  0
VERTEX
  5
251
330
220
100
AcDbEntity
  8
GRAU_10_
 62
     7
100
AcDbVertex
100
AcDb2dVertex
 10
41.30359428220883
 20
179.8634398964404
 30
0.0
  0
VERTEX
  5
252
330
220
100
AcDbEntity
  8
GRAU_10_
 62
     7
100
AcDbVertex
100
AcDb2dVertex
 10
41.2908474289134
 20
179.8627508773434
 30
0.0
  0
VERTEX
  5
253
330
220
100
AcDbEntity
  8
GRAU_10_
 62
     7
100
AcDbVertex
100
AcDb2dVertex
 10
41.27741155652092
 20
179.8624063677948
 30
0.0
  0
VERTEX
  5
254
330
220
100
AcDbEntity
  8
GRAU_10_
 62
     7
100
AcDbVertex
100
AcDb2dVertex
 10
41.26363117457993
 20
179.8601670557294
 30
0.0
  0
VERTEX
  5
255
330
220
100
AcDbEntity
  8
GRAU_10_
 62
     7
100
AcDbVertex
100
AcDb2dVertex
 10
41.24916177354188
 20
179.8570664697927
 30
0.0
  0
VERTEX
  5
256
330
220
100
AcDbEntity
  8
GRAU_10_
 62
     7
100
AcDbVertex
100
AcDb2dVertex
 10
41.23520913682662
 20
179.8531046099847
 30
0.0
  0
VERTEX
  5
257
330
220
100
AcDbEntity
  8
GRAU_10_
 62
     7
100
AcDbVertex
100
AcDb2dVertex
 10
41.22073973578857
 20
179.8475924572082
 30
0.0
  0
VERTEX
  5
258
330
220
100
AcDbEntity
  8
GRAU_10_
 62
     7
100
AcDbVertex
100
AcDb2dVertex
 10
41.2136772900438
 20
179.8446641260458
 30
0.0
  0
VERTEX
  5
259
330
220
100
AcDbEntity
  8
GRAU_10_
 62
     7
100
AcDbVertex
100
AcDb2dVertex
 10
41.20695935384757
 20
179.840874521012
 30
0.0
  0
VERTEX
  5
25A
330
220
100
AcDbEntity
  8
GRAU_10_
 62
     7
100
AcDbVertex
100
AcDb2dVertex
 10
41.19955239855428
 20
179.836912661204
 30
0.0
  0
VERTEX
  5
25B
330
220
100
AcDbEntity
  8
GRAU_10_
 62
     7
100
AcDbVertex
100
AcDb2dVertex
 10
41.19248995280952
 20
179.8334675657187
 30
0.0
  0
VERTEX
  5
25C
330
220
100
AcDbEntity
  8
GRAU_10_
 62
     7
100
AcDbVertex
100
AcDb2dVertex
 10
41.18577201661328
 20
179.8284721772651
 30
0.0
  0
VERTEX
  5
25D
330
220
100
AcDbEntity
  8
GRAU_10_
 62
     7
100
AcDbVertex
100
AcDb2dVertex
 10
41.17905408041705
 20
179.8243380626828
 30
0.0
  0
VERTEX
  5
25E
330
220
100
AcDbEntity
  8
GRAU_10_
 62
     7
100
AcDbVertex
100
AcDb2dVertex
 10
41.17233614422081
 20
179.8186536551322
 30
0.0
  0
VERTEX
  5
25F
330
220
100
AcDbEntity
  8
GRAU_10_
 62
     7
100
AcDbVertex
100
AcDb2dVertex
 10
41.16630722712162
 20
179.81331375713
 30
0.0
  0
VERTEX
  5
260
330
220
100
AcDbEntity
  8
GRAU_10_
 62
     7
100
AcDbVertex
100
AcDb2dVertex
 10
41.15442164769751
 20
179.8022894515772
 30
0.0
  0
VERTEX
  5
261
330
220
100
AcDbEntity
  8
GRAU_10_
 62
     7
100
AcDbVertex
100
AcDb2dVertex
 10
41.14339734214471
 20
179.789714853056
 30
0.0
  0
VERTEX
  5
262
330
220
100
AcDbEntity
  8
GRAU_10_
 62
     7
100
AcDbVertex
100
AcDb2dVertex
 10
41.13805744414257
 20
179.7836859359569
 30
0.0
  0
VERTEX
  5
263
330
220
100
AcDbEntity
  8
GRAU_10_
 62
     7
100
AcDbVertex
100
AcDb2dVertex
 10
41.13323431046322
 20
179.7769679997606
 30
0.0
  0
VERTEX
  5
264
330
220
100
AcDbEntity
  8
GRAU_10_
 62
     7
100
AcDbVertex
100
AcDb2dVertex
 10
41.12892794110666
 20
179.7702500635644
 30
0.0
  0
VERTEX
  5
265
330
220
100
AcDbEntity
  8
GRAU_10_
 62
     7
100
AcDbVertex
100
AcDb2dVertex
 10
41.12479382652436
 20
179.7631876178196
 30
0.0
  0
VERTEX
  5
266
330
220
100
AcDbEntity
  8
GRAU_10_
 62
     7
100
AcDbVertex
100
AcDb2dVertex
 10
40.73980440604769
 20
179.0957003675525
 30
0.0
  0
VERTEX
  5
267
330
220
100
AcDbEntity
  8
GRAU_10_
 62
     7
100
AcDbVertex
100
AcDb2dVertex
 10
40.35567625944233
 20
178.4307969388992
 30
0.0
  0
VERTEX
  5
268
330
220
100
AcDbEntity
  8
GRAU_10_
 62
     7
100
AcDbVertex
100
AcDb2dVertex
 10
40.04940727080362
 20
178.4307969388992
 30
0.0
  0
VERTEX
  5
269
330
220
100
AcDbEntity
  8
GRAU_10_
 62
     7
100
AcDbVertex
100
AcDb2dVertex
 10
39.74072671532524
 20
178.4307969388992
 30
0.0
  0
VERTEX
  5
26A
330
220
100
AcDbEntity
  8
GRAU_10_
 62
     7
100
AcDbVertex
100
AcDb2dVertex
 10
39.35659856871988
 20
179.095355858004
 30
0.0
  0
VERTEX
  5
26B
330
220
100
AcDbEntity
  8
GRAU_10_
 62
     7
100
AcDbVertex
100
AcDb2dVertex
 10
38.97143689346895
 20
179.7631876178196
 30
0.0
  0
VERTEX
  5
26C
330
220
100
AcDbEntity
  8
GRAU_10_
 62
     7
100
AcDbVertex
100
AcDb2dVertex
 10
38.9597235688191
 20
179.7812743691172
 30
0.0
  0
VERTEX
  5
26D
330
220
100
AcDbEntity
  8
GRAU_10_
 62
     7
100
AcDbVertex
100
AcDb2dVertex
 10
38.9459431868781
 20
179.7978108274464
 30
0.0
  0
VERTEX
  5
26E
330
220
100
AcDbEntity
  8
GRAU_10_
 62
     7
100
AcDbVertex
100
AcDb2dVertex
 10
38.93009574764595
 20
179.8129692475815
 30
0.0
  0
VERTEX
  5
26F
330
220
100
AcDbEntity
  8
GRAU_10_
 62
     7
100
AcDbVertex
100
AcDb2dVertex
 10
38.91321477976823
 20
179.8267496295225
 30
0.0
  0
VERTEX
  5
270
330
220
100
AcDbEntity
  8
GRAU_10_
 62
     7
100
AcDbVertex
100
AcDb2dVertex
 10
38.90356851240953
 20
179.8331230561702
 30
0.0
  0
VERTEX
  5
271
330
220
100
AcDbEntity
  8
GRAU_10_
 62
     7
100
AcDbVertex
100
AcDb2dVertex
 10
38.89374999027656
 20
179.8388074637209
 30
0.0
  0
VERTEX
  5
272
330
220
100
AcDbEntity
  8
GRAU_10_
 62
     7
100
AcDbVertex
100
AcDb2dVertex
 10
38.88358695859507
 20
179.8436305974002
 30
0.0
  0
VERTEX
  5
273
330
220
100
AcDbEntity
  8
GRAU_10_
 62
     7
100
AcDbVertex
100
AcDb2dVertex
 10
38.87325167213933
 20
179.8486259858538
 30
0.0
  0
VERTEX
  5
274
330
220
100
AcDbEntity
  8
GRAU_10_
 62
     7
100
AcDbVertex
100
AcDb2dVertex
 10
38.86239962136079
 20
179.8524155908876
 30
0.0
  0
VERTEX
  5
275
330
220
100
AcDbEntity
  8
GRAU_10_
 62
     7
100
AcDbVertex
100
AcDb2dVertex
 10
38.85034178716241
 20
179.8560329411471
 30
0.0
  0
VERTEX
  5
276
330
220
100
AcDbEntity
  8
GRAU_10_
 62
     7
100
AcDbVertex
100
AcDb2dVertex
 10
38.83828395296404
 20
179.8587890175353
 30
0.0
  0
VERTEX
  5
277
330
220
100
AcDbEntity
  8
GRAU_10_
 62
     7
100
AcDbVertex
100
AcDb2dVertex
 10
38.82639837353993
 20
179.8608560748265
 30
0.0
  0
VERTEX
  5
278
330
220
100
AcDbEntity
  8
GRAU_10_
 62
     7
100
AcDbVertex
100
AcDb2dVertex
 10
38.80021564785203
 20
179.8634398964404
 30
0.0
  0
VERTEX
  5
279
330
220
100
AcDbEntity
  8
GRAU_10_
 62
     7
100
AcDbVertex
100
AcDb2dVertex
 10
38.77317164829282
 20
179.8620618582463
 30
0.0
  0
VERTEX
  5
27A
330
220
100
AcDbEntity
  8
GRAU_10_
 62
     7
100
AcDbVertex
100
AcDb2dVertex
 10
38.75939126635182
 20
179.8591335270838
 30
0.0
  0
VERTEX
  5
27B
330
220
100
AcDbEntity
  8
GRAU_10_
 62
     7
100
AcDbVertex
100
AcDb2dVertex
 10
38.7452663748623
 20
179.8560329411471
 30
0.0
  0
VERTEX
  5
27C
330
220
100
AcDbEntity
  8
GRAU_10_
 62
     7
100
AcDbVertex
100
AcDb2dVertex
 10
38.73820392911753
 20
179.8539658838559
 30
0.0
  0
VERTEX
  5
27D
330
220
100
AcDbEntity
  8
GRAU_10_
 62
     7
100
AcDbVertex
100
AcDb2dVertex
 10
38.73079697382425
 20
179.8517265717906
 30
0.0
  0
VERTEX
  5
27E
330
220
100
AcDbEntity
  8
GRAU_10_
 62
     7
100
AcDbVertex
100
AcDb2dVertex
 10
38.72339001853096
 20
179.8486259858538
 30
0.0
  0
VERTEX
  5
27F
330
220
100
AcDbEntity
  8
GRAU_10_
 62
     7
100
AcDbVertex
100
AcDb2dVertex
 10
38.7163275727862
 20
179.8456976546913
 30
0.0
  0
VERTEX
  5
280
330
220
100
AcDbEntity
  8
GRAU_10_
 62
     7
100
AcDbVertex
100
AcDb2dVertex
 10
38.70254719084519
 20
179.8388074637209
 30
0.0
  0
VERTEX
  5
281
330
220
100
AcDbEntity
  8
GRAU_10_
 62
     7
100
AcDbVertex
100
AcDb2dVertex
 10
38.68911131845272
 20
179.8305392345563
 30
0.0
  0
VERTEX
  5
282
330
220
100
AcDbEntity
  8
GRAU_10_
 62
     7
100
AcDbVertex
100
AcDb2dVertex
 10
38.68239338225649
 20
179.8267496295225
 30
0.0
  0
VERTEX
  5
283
330
220
100
AcDbEntity
  8
GRAU_10_
 62
     7
100
AcDbVertex
100
AcDb2dVertex
 10
38.67567544606025
 20
179.8214097315204
 30
0.0
  0
VERTEX
  5
284
330
220
100
AcDbEntity
  8
GRAU_10_
 62
     7
100
AcDbVertex
100
AcDb2dVertex
 10
38.66981878373532
 20
179.8164143430667
 30
0.0
  0
VERTEX
  5
285
330
220
100
AcDbEntity
  8
GRAU_10_
 62
     7
100
AcDbVertex
100
AcDb2dVertex
 10
38.66378986663614
 20
179.8112466998389
 30
0.0
  0
VERTEX
  5
286
330
220
100
AcDbEntity
  8
GRAU_10_
 62
     7
100
AcDbVertex
100
AcDb2dVertex
 10
38.65207654198629
 20
179.7998778847375
 30
0.0
  0
VERTEX
  5
287
330
220
100
AcDbEntity
  8
GRAU_10_
 62
     7
100
AcDbVertex
100
AcDb2dVertex
 10
38.6419135103048
 20
179.788336814862
 30
0.0
  0
VERTEX
  5
288
330
220
100
AcDbEntity
  8
GRAU_10_
 62
     7
100
AcDbVertex
100
AcDb2dVertex
 10
38.63312851681741
 20
179.7759344711151
 30
0.0
  0
VERTEX
  5
289
330
220
100
AcDbEntity
  8
GRAU_10_
 62
     7
100
AcDbVertex
100
AcDb2dVertex
 10
38.62451577810429
 20
179.7631876178196
 30
0.0
  0
VERTEX
  5
28A
330
220
100
AcDbEntity
  8
GRAU_10_
 62
     7
100
AcDbVertex
100
AcDb2dVertex
 10
38.23969861240188
 20
179.0957003675525
 30
0.0
  0
VERTEX
  5
28B
330
220
100
AcDbEntity
  8
GRAU_10_
 62
     7
100
AcDbVertex
100
AcDb2dVertex
 10
37.85557046579653
 20
178.4307969388992
 30
0.0
  0
VERTEX
  5
28C
330
220
100
AcDbEntity
  8
GRAU_10_
 62
     7
100
AcDbVertex
100
AcDb2dVertex
 10
37.54930147715781
 20
178.4307969388992
 30
0.0
  0
VERTEX
  5
28D
330
220
100
AcDbEntity
  8
GRAU_10_
 62
     7
100
AcDbVertex
100
AcDb2dVertex
 10
37.24062092167943
 20
178.4307969388992
 30
0.0
  0
VERTEX
  5
28E
330
220
100
AcDbEntity
  8
GRAU_10_
 62
     7
100
AcDbVertex
100
AcDb2dVertex
 10
36.85649277507407
 20
179.0957003675525
 30
0.0
  0
VERTEX
  5
28F
330
220
100
AcDbEntity
  8
GRAU_10_
 62
     7
100
AcDbVertex
100
AcDb2dVertex
 10
36.4715033545974
 20
179.7631876178196
 30
0.0
  0
VERTEX
  5
290
330
220
100
AcDbEntity
  8
GRAU_10_
 62
     7
100
AcDbVertex
100
AcDb2dVertex
 10
36.45961777517329
 20
179.7812743691172
 30
0.0
  0
VERTEX
  5
291
330
220
100
AcDbEntity
  8
GRAU_10_
 62
     7
100
AcDbVertex
100
AcDb2dVertex
 10
36.44549288368377
 20
179.7981553369949
 30
0.0
  0
VERTEX
  5
292
330
220
100
AcDbEntity
  8
GRAU_10_
 62
     7
100
AcDbVertex
100
AcDb2dVertex
 10
36.42998995400014
 20
179.81331375713
 30
0.0
  0
VERTEX
  5
293
330
220
100
AcDbEntity
  8
GRAU_10_
 62
     7
100
AcDbVertex
100
AcDb2dVertex
 10
36.41224771225111
 20
179.827094139071
 30
0.0
  0
VERTEX
  5
294
330
220
100
AcDbEntity
  8
GRAU_10_
 62
     7
100
AcDbVertex
100
AcDb2dVertex
 10
36.40277369966667
 20
179.8334675657187
 30
0.0
  0
VERTEX
  5
295
330
220
100
AcDbEntity
  8
GRAU_10_
 62
     7
100
AcDbVertex
100
AcDb2dVertex
 10
36.39295517753371
 20
179.8389797184951
 30
0.0
  0
VERTEX
  5
296
330
220
100
AcDbEntity
  8
GRAU_10_
 62
     7
100
AcDbVertex
100
AcDb2dVertex
 10
36.38261989107796
 20
179.8446641260458
 30
0.0
  0
VERTEX
  5
297
330
220
100
AcDbEntity
  8
GRAU_10_
 62
     7
100
AcDbVertex
100
AcDb2dVertex
 10
36.37142333075089
 20
179.8489704954023
 30
0.0
  0
VERTEX
  5
298
330
220
100
AcDbEntity
  8
GRAU_10_
 62
     7
100
AcDbVertex
100
AcDb2dVertex
 10
36.3603990251981
 20
179.8536213743074
 30
0.0
  0
VERTEX
  5
299
330
220
100
AcDbEntity
  8
GRAU_10_
 62
     7
100
AcDbVertex
100
AcDb2dVertex
 10
36.34885795532251
 20
179.8570664697927
 30
0.0
  0
VERTEX
  5
29A
330
220
100
AcDbEntity
  8
GRAU_10_
 62
     7
100
AcDbVertex
100
AcDb2dVertex
 10
36.33611110202708
 20
179.8591335270838
 30
0.0
  0
VERTEX
  5
29B
330
220
100
AcDbEntity
  8
GRAU_10_
 62
     7
100
AcDbVertex
100
AcDb2dVertex
 10
36.32336424873166
 20
179.8617173486978
 30
0.0
  0
VERTEX
  5
29C
330
220
100
AcDbEntity
  8
GRAU_10_
 62
     7
100
AcDbVertex
100
AcDb2dVertex
 10
36.31027288588771
 20
179.8627508773434
 30
0.0
  0
VERTEX
  5
29D
330
220
100
AcDbEntity
  8
GRAU_10_
 62
     7
100
AcDbVertex
100
AcDb2dVertex
 10
36.2970092682695
 20
179.8634398964404
 30
0.0
  0
VERTEX
  5
29E
330
220
100
AcDbEntity
  8
GRAU_10_
 62
     7
100
AcDbVertex
100
AcDb2dVertex
 10
36.2832288863285
 20
179.8624063677948
 30
0.0
  0
VERTEX
  5
29F
330
220
100
AcDbEntity
  8
GRAU_10_
 62
     7
100
AcDbVertex
100
AcDb2dVertex
 10
36.26910399483898
 20
179.8608560748265
 30
0.0
  0
VERTEX
  5
2A0
330
220
100
AcDbEntity
  8
GRAU_10_
 62
     7
100
AcDbVertex
100
AcDb2dVertex
 10
36.25463459380093
 20
179.8587890175353
 30
0.0
  0
VERTEX
  5
2A1
330
220
100
AcDbEntity
  8
GRAU_10_
 62
     7
100
AcDbVertex
100
AcDb2dVertex
 10
36.24085421185993
 20
179.8549994125015
 30
0.0
  0
VERTEX
  5
2A2
330
220
100
AcDbEntity
  8
GRAU_10_
 62
     7
100
AcDbVertex
100
AcDb2dVertex
 10
36.22638481082188
 20
179.8500040240479
 30
0.0
  0
VERTEX
  5
2A3
330
220
100
AcDbEntity
  8
GRAU_10_
 62
     7
100
AcDbVertex
100
AcDb2dVertex
 10
36.21225991933235
 20
179.8436305974002
 30
0.0
  0
VERTEX
  5
2A4
330
220
100
AcDbEntity
  8
GRAU_10_
 62
     7
100
AcDbVertex
100
AcDb2dVertex
 10
36.19847953739136
 20
179.836912661204
 30
0.0
  0
VERTEX
  5
2A5
330
220
100
AcDbEntity
  8
GRAU_10_
 62
     7
100
AcDbVertex
100
AcDb2dVertex
 10
36.18590493887019
 20
179.8284721772651
 30
0.0
  0
VERTEX
  5
2A6
330
220
100
AcDbEntity
  8
GRAU_10_
 62
     7
100
AcDbVertex
100
AcDb2dVertex
 10
36.17918700267396
 20
179.8243380626828
 30
0.0
  0
VERTEX
  5
2A7
330
220
100
AcDbEntity
  8
GRAU_10_
 62
     7
100
AcDbVertex
100
AcDb2dVertex
 10
36.17315808557477
 20
179.8193426742292
 30
0.0
  0
VERTEX
  5
2A8
330
220
100
AcDbEntity
  8
GRAU_10_
 62
     7
100
AcDbVertex
100
AcDb2dVertex
 10
36.16712916847558
 20
179.8146917953241
 30
0.0
  0
VERTEX
  5
2A9
330
220
100
AcDbEntity
  8
GRAU_10_
 62
     7
100
AcDbVertex
100
AcDb2dVertex
 10
36.16144476092492
 20
179.8095241520962
 30
0.0
  0
VERTEX
  5
2AA
330
220
100
AcDbEntity
  8
GRAU_10_
 62
     7
100
AcDbVertex
100
AcDb2dVertex
 10
36.15627711769704
 20
179.8041842540941
 30
0.0
  0
VERTEX
  5
2AB
330
220
100
AcDbEntity
  8
GRAU_10_
 62
     7
100
AcDbVertex
100
AcDb2dVertex
 10
36.1509372196949
 20
179.798844356092
 30
0.0
  0
VERTEX
  5
2AC
330
220
100
AcDbEntity
  8
GRAU_10_
 62
     7
100
AcDbVertex
100
AcDb2dVertex
 10
36.1459418312413
 20
179.7928154389928
 30
0.0
  0
VERTEX
  5
2AD
330
220
100
AcDbEntity
  8
GRAU_10_
 62
     7
100
AcDbVertex
100
AcDb2dVertex
 10
36.14111869756194
 20
179.7871310314421
 30
0.0
  0
VERTEX
  5
2AE
330
220
100
AcDbEntity
  8
GRAU_10_
 62
     7
100
AcDbVertex
100
AcDb2dVertex
 10
36.13250595884882
 20
179.7755899615665
 30
0.0
  0
VERTEX
  5
2AF
330
220
100
AcDbEntity
  8
GRAU_10_
 62
     7
100
AcDbVertex
100
AcDb2dVertex
 10
36.12475449400701
 20
179.7631876178196
 30
0.0
  0
VERTEX
  5
2B0
330
220
100
AcDbEntity
  8
GRAU_10_
 62
     7
100
AcDbVertex
100
AcDb2dVertex
 10
35.7399373283046
 20
179.0957003675525
 30
0.0
  0
VERTEX
  5
2B1
330
220
100
AcDbEntity
  8
GRAU_10_
 62
     7
100
AcDbVertex
100
AcDb2dVertex
 10
35.35580918169924
 20
178.4307969388992
 30
0.0
  0
VERTEX
  5
2B2
330
220
100
AcDbEntity
  8
GRAU_10_
 62
     7
100
AcDbVertex
100
AcDb2dVertex
 10
35.04885117396348
 20
178.4307969388992
 30
0.0
  0
VERTEX
  5
2B3
330
220
100
AcDbEntity
  8
GRAU_10_
 62
     7
100
AcDbVertex
100
AcDb2dVertex
 10
34.74085963758215
 20
178.4307969388992
 30
0.0
  0
VERTEX
  5
2B4
330
220
100
AcDbEntity
  8
GRAU_10_
 62
     7
100
AcDbVertex
100
AcDb2dVertex
 10
34.35673149097679
 20
179.0957003675525
 30
0.0
  0
VERTEX
  5
2B5
330
220
100
AcDbEntity
  8
GRAU_10_
 62
     7
100
AcDbVertex
100
AcDb2dVertex
 10
33.97139756095159
 20
179.7631876178196
 30
0.0
  0
VERTEX
  5
2B6
330
220
100
AcDbEntity
  8
GRAU_10_
 62
     7
100
AcDbVertex
100
AcDb2dVertex
 10
33.95916747197896
 20
179.7812743691172
 30
0.0
  0
VERTEX
  5
2B7
330
220
100
AcDbEntity
  8
GRAU_10_
 62
     7
100
AcDbVertex
100
AcDb2dVertex
 10
33.94538709003796
 20
179.7981553369949
 30
0.0
  0
VERTEX
  5
2B8
330
220
100
AcDbEntity
  8
GRAU_10_
 62
     7
100
AcDbVertex
100
AcDb2dVertex
 10
33.93763562519615
 20
179.8062513113852
 30
0.0
  0
VERTEX
  5
2B9
330
220
100
AcDbEntity
  8
GRAU_10_
 62
     7
100
AcDbVertex
100
AcDb2dVertex
 10
33.92902288648303
 20
179.8143472857756
 30
0.0
  0
VERTEX
  5
2BA
330
220
100
AcDbEntity
  8
GRAU_10_
 62
     7
100
AcDbVertex
100
AcDb2dVertex
 10
33.92058240254416
 20
179.8214097315204
 30
0.0
  0
VERTEX
  5
2BB
330
220
100
AcDbEntity
  8
GRAU_10_
 62
     7
100
AcDbVertex
100
AcDb2dVertex
 10
33.91145289950825
 20
179.8281276677166
 30
0.0
  0
VERTEX
  5
2BC
330
220
100
AcDbEntity
  8
GRAU_10_
 62
     7
100
AcDbVertex
100
AcDb2dVertex
 10
33.89164360046806
 20
179.840185501915
 30
0.0
  0
VERTEX
  5
2BD
330
220
100
AcDbEntity
  8
GRAU_10_
 62
     7
100
AcDbVertex
100
AcDb2dVertex
 10
33.86976724413672
 20
179.8500040240479
 30
0.0
  0
VERTEX
  5
2BE
330
220
100
AcDbEntity
  8
GRAU_10_
 62
     7
100
AcDbVertex
100
AcDb2dVertex
 10
33.85788166471261
 20
179.8539658838559
 30
0.0
  0
VERTEX
  5
2BF
330
220
100
AcDbEntity
  8
GRAU_10_
 62
     7
100
AcDbVertex
100
AcDb2dVertex
 10
33.84547932096572
 20
179.8574109793412
 30
0.0
  0
VERTEX
  5
2C0
330
220
100
AcDbEntity
  8
GRAU_10_
 62
     7
100
AcDbVertex
100
AcDb2dVertex
 10
33.83273246767029
 20
179.8601670557294
 30
0.0
  0
VERTEX
  5
2C1
330
220
100
AcDbEntity
  8
GRAU_10_
 62
     7
100
AcDbVertex
100
AcDb2dVertex
 10
33.8198133596006
 20
179.8620618582463
 30
0.0
  0
VERTEX
  5
2C2
330
220
100
AcDbEntity
  8
GRAU_10_
 62
     7
100
AcDbVertex
100
AcDb2dVertex
 10
33.80637748720813
 20
179.8627508773434
 30
0.0
  0
VERTEX
  5
2C3
330
220
100
AcDbEntity
  8
GRAU_10_
 62
     7
100
AcDbVertex
100
AcDb2dVertex
 10
33.79259710526713
 20
179.8634398964404
 30
0.0
  0
VERTEX
  5
2C4
330
220
100
AcDbEntity
  8
GRAU_10_
 62
     7
100
AcDbVertex
100
AcDb2dVertex
 10
33.7784722137776
 20
179.8624063677948
 30
0.0
  0
VERTEX
  5
2C5
330
220
100
AcDbEntity
  8
GRAU_10_
 62
     7
100
AcDbVertex
100
AcDb2dVertex
 10
33.76469183183661
 20
179.8605115652779
 30
0.0
  0
VERTEX
  5
2C6
330
220
100
AcDbEntity
  8
GRAU_10_
 62
     7
100
AcDbVertex
100
AcDb2dVertex
 10
33.7569403669948
 20
179.8587890175353
 30
0.0
  0
VERTEX
  5
2C7
330
220
100
AcDbEntity
  8
GRAU_10_
 62
     7
100
AcDbVertex
100
AcDb2dVertex
 10
33.75022243079856
 20
179.8570664697927
 30
0.0
  0
VERTEX
  5
2C8
330
220
100
AcDbEntity
  8
GRAU_10_
 62
     7
100
AcDbVertex
100
AcDb2dVertex
 10
33.74281547550527
 20
179.8553439220501
 30
0.0
  0
VERTEX
  5
2C9
330
220
100
AcDbEntity
  8
GRAU_10_
 62
     7
100
AcDbVertex
100
AcDb2dVertex
 10
33.73575302976051
 20
179.8536213743074
 30
0.0
  0
VERTEX
  5
2CA
330
220
100
AcDbEntity
  8
GRAU_10_
 62
     7
100
AcDbVertex
100
AcDb2dVertex
 10
33.72162813827099
 20
179.8482814763053
 30
0.0
  0
VERTEX
  5
2CB
330
220
100
AcDbEntity
  8
GRAU_10_
 62
     7
100
AcDbVertex
100
AcDb2dVertex
 10
33.70784775632998
 20
179.8419080496576
 30
0.0
  0
VERTEX
  5
2CC
330
220
100
AcDbEntity
  8
GRAU_10_
 62
     7
100
AcDbVertex
100
AcDb2dVertex
 10
33.69527315780882
 20
179.8348456039128
 30
0.0
  0
VERTEX
  5
2CD
330
220
100
AcDbEntity
  8
GRAU_10_
 62
     7
100
AcDbVertex
100
AcDb2dVertex
 10
33.6825263045134
 20
179.826405119974
 30
0.0
  0
VERTEX
  5
2CE
330
220
100
AcDbEntity
  8
GRAU_10_
 62
     7
100
AcDbVertex
100
AcDb2dVertex
 10
33.67046847031502
 20
179.8167588526153
 30
0.0
  0
VERTEX
  5
2CF
330
220
100
AcDbEntity
  8
GRAU_10_
 62
     7
100
AcDbVertex
100
AcDb2dVertex
 10
33.65961641953648
 20
179.8076293495793
 30
0.0
  0
VERTEX
  5
2D0
330
220
100
AcDbEntity
  8
GRAU_10_
 62
     7
100
AcDbVertex
100
AcDb2dVertex
 10
33.64928113308073
 20
179.7967772988008
 30
0.0
  0
VERTEX
  5
2D1
330
220
100
AcDbEntity
  8
GRAU_10_
 62
     7
100
AcDbVertex
100
AcDb2dVertex
 10
33.64015163004483
 20
179.785752993248
 30
0.0
  0
VERTEX
  5
2D2
330
220
100
AcDbEntity
  8
GRAU_10_
 62
     7
100
AcDbVertex
100
AcDb2dVertex
 10
33.63240016520301
 20
179.7745564329209
 30
0.0
  0
VERTEX
  5
2D3
330
220
100
AcDbEntity
  8
GRAU_10_
 62
     7
100
AcDbVertex
100
AcDb2dVertex
 10
33.6246487003612
 20
179.7631876178196
 30
0.0
  0
SEQEND
  5
2D4
330
220
100
AcDbEntity
  8
GRAU_10_
  0
POLYLINE
  5
2D5
330
1F
100
AcDbEntity
  8
GRAU_10_
 62
     7
100
AcDb2dPolyline
 66
     1
 10
0.0
 20
0.0
 30
0.0
  0
VERTEX
  5
2D6
330
2D5
100
AcDbEntity
  8
GRAU_10_
 62
     7
100
AcDbVertex
100
AcDb2dVertex
 10
32.85553113327917
 20
178.4307969388992
 30
0.0
  0
VERTEX
  5
2D7
330
2D5
100
AcDbEntity
  8
GRAU_10_
 62
     7
100
AcDbVertex
100
AcDb2dVertex
 10
33.23983153465879
 20
179.0957003675525
 30
0.0
  0
VERTEX
  5
2D8
330
2D5
100
AcDbEntity
  8
GRAU_10_
 62
     7
100
AcDbVertex
100
AcDb2dVertex
 10
33.6246487003612
 20
179.7631876178196
 30
0.0
  0
SEQEND
  5
2D9
330
2D5
100
AcDbEntity
  8
GRAU_10_
  0
POLYLINE
  5
2DA
330
1F
100
AcDbEntity
  8
GRAU_10_
 62
     7
100
AcDb2dPolyline
 66
     1
 10
0.0
 20
0.0
 30
0.0
  0
VERTEX
  5
2DB
330
2DA
100
AcDbEntity
  8
GRAU_10_
 62
     7
100
AcDbVertex
100
AcDb2dVertex
 10
32.85553113327917
 20
178.4307969388992
 30
0.0
  0
VERTEX
  5
2DC
330
2DA
100
AcDbEntity
  8
GRAU_10_
 62
     7
100
AcDbVertex
100
AcDb2dVertex
 10
32.54874538031768
 20
178.4307969388992
 30
0.0
  0
VERTEX
  5
2DD
330
2DA
100
AcDbEntity
  8
GRAU_10_
 62
     7
100
AcDbVertex
100
AcDb2dVertex
 10
32.24075384393634
 20
178.4307969388992
 30
0.0
  0
SEQEND
  5
2DE
330
2DA
100
AcDbEntity
  8
GRAU_10_
  0
POLYLINE
  5
2DF
330
1F
100
AcDbEntity
  8
GRAU_10_
 62
     7
100
AcDb2dPolyline
 66
     1
 10
0.0
 20
0.0
 30
0.0
  0
VERTEX
  5
2E0
330
2DF
100
AcDbEntity
  8
GRAU_10_
 62
     7
100
AcDbVertex
100
AcDb2dVertex
 10
31.47094725775726
 20
179.7631876178196
 30
0.0
  0
VERTEX
  5
2E1
330
2DF
100
AcDbEntity
  8
GRAU_10_
 62
     7
100
AcDbVertex
100
AcDb2dVertex
 10
31.85645344255672
 20
179.0957003675525
 30
0.0
  0
VERTEX
  5
2E2
330
2DF
100
AcDbEntity
  8
GRAU_10_
 62
     7
100
AcDbVertex
100
AcDb2dVertex
 10
32.24075384393634
 20
178.4307969388992
 30
0.0
  0
SEQEND
  5
2E3
330
2DF
100
AcDbEntity
  8
GRAU_10_
  0
POLYLINE
  5
2E4
330
1F
100
AcDbEntity
  8
GRAU_10_
 62
     7
100
AcDb2dPolyline
 66
     1
 10
0.0
 20
0.0
 30
0.0
  0
VERTEX
  5
2E5
330
2E4
100
AcDbEntity
  8
GRAU_10_
 62
     7
100
AcDbVertex
100
AcDb2dVertex
 10
31.47094725775726
 20
179.7631876178196
 30
0.0
  0
VERTEX
  5
2E6
330
2E4
100
AcDbEntity
  8
GRAU_10_
 62
     7
100
AcDbVertex
100
AcDb2dVertex
 10
31.45888942355889
 20
179.7819633882143
 30
0.0
  0
VERTEX
  5
2E7
330
2E4
100
AcDbEntity
  8
GRAU_10_
 62
     7
100
AcDbVertex
100
AcDb2dVertex
 10
31.44528129639215
 20
179.798844356092
 30
0.0
  0
VERTEX
  5
2E8
330
2E4
100
AcDbEntity
  8
GRAU_10_
 62
     7
100
AcDbVertex
100
AcDb2dVertex
 10
31.43701306722755
 20
179.8065958209338
 30
0.0
  0
VERTEX
  5
2E9
330
2E4
100
AcDbEntity
  8
GRAU_10_
 62
     7
100
AcDbVertex
100
AcDb2dVertex
 10
31.42857258328869
 20
179.8146917953241
 30
0.0
  0
VERTEX
  5
2EA
330
2E4
100
AcDbEntity
  8
GRAU_10_
 62
     7
100
AcDbVertex
100
AcDb2dVertex
 10
31.41978758980131
 20
179.8217542410689
 30
0.0
  0
VERTEX
  5
2EB
330
2E4
100
AcDbEntity
  8
GRAU_10_
 62
     7
100
AcDbVertex
100
AcDb2dVertex
 10
31.41065808676539
 20
179.8284721772651
 30
0.0
  0
VERTEX
  5
2EC
330
2E4
100
AcDbEntity
  8
GRAU_10_
 62
     7
100
AcDbVertex
100
AcDb2dVertex
 10
31.39015976862816
 20
179.840874521012
 30
0.0
  0
VERTEX
  5
2ED
330
2E4
100
AcDbEntity
  8
GRAU_10_
 62
     7
100
AcDbVertex
100
AcDb2dVertex
 10
31.36724988365124
 20
179.850693043145
 30
0.0
  0
VERTEX
  5
2EE
330
2E4
100
AcDbEntity
  8
GRAU_10_
 62
     7
100
AcDbVertex
100
AcDb2dVertex
 10
31.35553655900139
 20
179.8549994125015
 30
0.0
  0
VERTEX
  5
2EF
330
2E4
100
AcDbEntity
  8
GRAU_10_
 62
     7
100
AcDbVertex
100
AcDb2dVertex
 10
31.34296196048023
 20
179.8584445079868
 30
0.0
  0
VERTEX
  5
2F0
330
2E4
100
AcDbEntity
  8
GRAU_10_
 62
     7
100
AcDbVertex
100
AcDb2dVertex
 10
31.32987059763628
 20
179.8605115652779
 30
0.0
  0
VERTEX
  5
2F1
330
2E4
100
AcDbEntity
  8
GRAU_10_
 62
     7
100
AcDbVertex
100
AcDb2dVertex
 10
31.31643472524381
 20
179.8624063677948
 30
0.0
  0
VERTEX
  5
2F2
330
2E4
100
AcDbEntity
  8
GRAU_10_
 62
     7
100
AcDbVertex
100
AcDb2dVertex
 10
31.30265434330281
 20
179.8634398964404
 30
0.0
  0
VERTEX
  5
2F3
330
2E4
100
AcDbEntity
  8
GRAU_10_
 62
     7
100
AcDbVertex
100
AcDb2dVertex
 10
31.28852945181329
 20
179.8627508773434
 30
0.0
  0
VERTEX
  5
2F4
330
2E4
100
AcDbEntity
  8
GRAU_10_
 62
     7
100
AcDbVertex
100
AcDb2dVertex
 10
31.27406005077524
 20
179.8620618582463
 30
0.0
  0
VERTEX
  5
2F5
330
2E4
100
AcDbEntity
  8
GRAU_10_
 62
     7
100
AcDbVertex
100
AcDb2dVertex
 10
31.25959064973719
 20
179.8591335270838
 30
0.0
  0
VERTEX
  5
2F6
330
2E4
100
AcDbEntity
  8
GRAU_10_
 62
     7
100
AcDbVertex
100
AcDb2dVertex
 10
31.25287271354095
 20
179.8577554888897
 30
0.0
  0
VERTEX
  5
2F7
330
2E4
100
AcDbEntity
  8
GRAU_10_
 62
     7
100
AcDbVertex
100
AcDb2dVertex
 10
31.24581026779619
 20
179.8560329411471
 30
0.0
  0
VERTEX
  5
2F8
330
2E4
100
AcDbEntity
  8
GRAU_10_
 62
     7
100
AcDbVertex
100
AcDb2dVertex
 10
31.2384033125029
 20
179.8539658838559
 30
0.0
  0
VERTEX
  5
2F9
330
2E4
100
AcDbEntity
  8
GRAU_10_
 62
     7
100
AcDbVertex
100
AcDb2dVertex
 10
31.23185763108092
 20
179.8517265717906
 30
0.0
  0
VERTEX
  5
2FA
330
2E4
100
AcDbEntity
  8
GRAU_10_
 62
     7
100
AcDbVertex
100
AcDb2dVertex
 10
31.21807724913993
 20
179.8463866737884
 30
0.0
  0
VERTEX
  5
2FB
330
2E4
100
AcDbEntity
  8
GRAU_10_
 62
     7
100
AcDbVertex
100
AcDb2dVertex
 10
31.20464137674745
 20
179.840185501915
 30
0.0
  0
VERTEX
  5
2FC
330
2E4
100
AcDbEntity
  8
GRAU_10_
 62
     7
100
AcDbVertex
100
AcDb2dVertex
 10
31.19792344055121
 20
179.8365681516555
 30
0.0
  0
VERTEX
  5
2FD
330
2E4
100
AcDbEntity
  8
GRAU_10_
 62
     7
100
AcDbVertex
100
AcDb2dVertex
 10
31.19189452345203
 20
179.8324340370731
 30
0.0
  0
VERTEX
  5
2FE
330
2E4
100
AcDbEntity
  8
GRAU_10_
 62
     7
100
AcDbVertex
100
AcDb2dVertex
 10
31.18517658725579
 20
179.8284721772651
 30
0.0
  0
VERTEX
  5
2FF
330
2E4
100
AcDbEntity
  8
GRAU_10_
 62
     7
100
AcDbVertex
100
AcDb2dVertex
 10
31.17983668925365
 20
179.8246825722313
 30
0.0
  0
VERTEX
  5
300
330
2E4
100
AcDbEntity
  8
GRAU_10_
 62
     7
100
AcDbVertex
100
AcDb2dVertex
 10
31.16829561937807
 20
179.8150363048726
 30
0.0
  0
VERTEX
  5
301
330
2E4
100
AcDbEntity
  8
GRAU_10_
 62
     7
100
AcDbVertex
100
AcDb2dVertex
 10
31.15813258769658
 20
179.8059068018367
 30
0.0
  0
VERTEX
  5
302
330
2E4
100
AcDbEntity
  8
GRAU_10_
 62
     7
100
AcDbVertex
100
AcDb2dVertex
 10
31.14848632033788
 20
179.7960882797038
 30
0.0
  0
VERTEX
  5
303
330
2E4
100
AcDbEntity
  8
GRAU_10_
 62
     7
100
AcDbVertex
100
AcDb2dVertex
 10
31.13935681730197
 20
179.7854084836995
 30
0.0
  0
VERTEX
  5
304
330
2E4
100
AcDbEntity
  8
GRAU_10_
 62
     7
100
AcDbVertex
100
AcDb2dVertex
 10
31.13160535246016
 20
179.7742119233724
 30
0.0
  0
VERTEX
  5
305
330
2E4
100
AcDbEntity
  8
GRAU_10_
 62
     7
100
AcDbVertex
100
AcDb2dVertex
 10
31.12488741626392
 20
179.7631876178196
 30
0.0
  0
SEQEND
  5
306
330
2E4
100
AcDbEntity
  8
GRAU_10_
  0
POLYLINE
  5
307
330
1F
100
AcDbEntity
  8
GRAU_10_
 62
     7
100
AcDb2dPolyline
 66
     1
 10
0.0
 20
0.0
 30
0.0
  0
VERTEX
  5
308
330
307
100
AcDbEntity
  8
GRAU_10_
 62
     7
100
AcDbVertex
100
AcDb2dVertex
 10
30.35576984918189
 20
178.4307969388992
 30
0.0
  0
VERTEX
  5
309
330
307
100
AcDbEntity
  8
GRAU_10_
 62
     7
100
AcDbVertex
100
AcDb2dVertex
 10
30.73972574101299
 20
179.0957003675525
 30
0.0
  0
VERTEX
  5
30A
330
307
100
AcDbEntity
  8
GRAU_10_
 62
     7
100
AcDbVertex
100
AcDb2dVertex
 10
31.12488741626392
 20
179.7631876178196
 30
0.0
  0
SEQEND
  5
30B
330
307
100
AcDbEntity
  8
GRAU_10_
  0
POLYLINE
  5
30C
330
1F
100
AcDbEntity
  8
GRAU_10_
 62
     7
100
AcDb2dPolyline
 66
     1
 10
0.0
 20
0.0
 30
0.0
  0
VERTEX
  5
30D
330
30C
100
AcDbEntity
  8
GRAU_10_
 62
     7
100
AcDbVertex
100
AcDb2dVertex
 10
45.98806286827729
 20
196.6937648705314
 30
0.0
  0
VERTEX
  5
30E
330
30C
100
AcDbEntity
  8
GRAU_10_
 62
     7
100
AcDbVertex
100
AcDb2dVertex
 10
44.98347302477844
 20
197.4329101068918
 30
0.0
  0
VERTEX
  5
30F
330
30C
100
AcDbEntity
  8
GRAU_10_
 62
     7
100
AcDbVertex
100
AcDb2dVertex
 10
43.97664386921417
 20
198.1524182989862
 30
0.0
  0
SEQEND
  5
310
330
30C
100
AcDbEntity
  8
GRAU_10_
  0
POLYLINE
  5
311
330
1F
100
AcDbEntity
  8
GRAU_10_
 62
     7
100
AcDb2dPolyline
 66
     1
 10
0.0
 20
0.0
 30
0.0
  0
VERTEX
  5
312
330
311
100
AcDbEntity
  8
GRAU_10_
 62
     7
100
AcDbVertex
100
AcDb2dVertex
 10
25.90522324656189
 20
88.81404484541802
 30
0.0
  0
VERTEX
  5
313
330
311
100
AcDbEntity
  8
GRAU_10_
 62
     7
100
AcDbVertex
100
AcDb2dVertex
 10
30.79260795671157
 20
89.28051077412084
 30
0.0
  0
SEQEND
  5
314
330
311
100
AcDbEntity
  8
GRAU_10_
  0
POLYLINE
  5
315
330
1F
100
AcDbEntity
  8
GRAU_10_
 62
     7
100
AcDb2dPolyline
 66
     1
 10
0.0
 20
0.0
 30
0.0
  0
VERTEX
  5
316
330
315
100
AcDbEntity
  8
GRAU_10_
 62
     7
100
AcDbVertex
100
AcDb2dVertex
 10
19.62326388398307
 20
89.52993568725293
 30
0.0
  0
VERTEX
  5
317
330
315
100
AcDbEntity
  8
GRAU_10_
 62
     7
100
AcDbVertex
100
AcDb2dVertex
 10
19.61861300507799
 20
89.53338078273819
 30
0.0
  0
SEQEND
  5
318
330
315
100
AcDbEntity
  8
GRAU_10_
  0
POLYLINE
  5
319
330
1F
100
AcDbEntity
  8
GRAU_10_
 62
     7
100
AcDb2dPolyline
 66
     1
 10
0.0
 20
0.0
 30
0.0
  0
VERTEX
  5
31A
330
319
100
AcDbEntity
  8
GRAU_10_
 62
     7
100
AcDbVertex
100
AcDb2dVertex
 10
18.89118109336748
 20
92.6699679672839
 30
0.0
  0
VERTEX
  5
31B
330
319
100
AcDbEntity
  8
GRAU_10_
 62
     7
100
AcDbVertex
100
AcDb2dVertex
 10
19.61861300507799
 20
89.53338078273819
 30
0.0
  0
SEQEND
  5
31C
330
319
100
AcDbEntity
  8
GRAU_10_
  0
POLYLINE
  5
31D
330
1F
100
AcDbEntity
  8
GRAU_10_
 62
     7
100
AcDb2dPolyline
 66
     1
 10
0.0
 20
0.0
 30
0.0
  0
VERTEX
  5
31E
330
31D
100
AcDbEntity
  8
GRAU_10_
 62
     7
100
AcDbVertex
100
AcDb2dVertex
 10
18.89118109336748
 20
92.6699679672839
 30
0.0
  0
VERTEX
  5
31F
330
31D
100
AcDbEntity
  8
GRAU_10_
 62
     7
100
AcDbVertex
100
AcDb2dVertex
 10
18.29828016035599
 20
100.1096516676809
 30
0.0
  0
SEQEND
  5
320
330
31D
100
AcDbEntity
  8
GRAU_10_
  0
POLYLINE
  5
321
330
1F
100
AcDbEntity
  8
GRAU_10_
 62
     7
100
AcDb2dPolyline
 66
     1
 10
0.0
 20
0.0
 30
0.0
  0
VERTEX
  5
322
330
321
100
AcDbEntity
  8
GRAU_10_
 62
     7
100
AcDbVertex
100
AcDb2dVertex
 10
18.29828016035599
 20
111.9306355514444
 30
0.0
  0
VERTEX
  5
323
330
321
100
AcDbEntity
  8
GRAU_10_
 62
     7
100
AcDbVertex
100
AcDb2dVertex
 10
18.29828016035599
 20
100.1096516676809
 30
0.0
  0
SEQEND
  5
324
330
321
100
AcDbEntity
  8
GRAU_10_
  0
POLYLINE
  5
325
330
1F
100
AcDbEntity
  8
GRAU_10_
 62
     7
100
AcDb2dPolyline
 66
     1
 10
0.0
 20
0.0
 30
0.0
  0
VERTEX
  5
326
330
325
100
AcDbEntity
  8
GRAU_10_
 62
     7
100
AcDbVertex
100
AcDb2dVertex
 10
18.83123643192414
 20
112.4639363325611
 30
0.0
  0
VERTEX
  5
327
330
325
100
AcDbEntity
  8
GRAU_10_
 62
     7
100
AcDbVertex
100
AcDb2dVertex
 10
18.29828016035599
 20
111.9306355514444
 30
0.0
  0
SEQEND
  5
328
330
325
100
AcDbEntity
  8
GRAU_10_
  0
POLYLINE
  5
329
330
1F
100
AcDbEntity
  8
GRAU_10_
 62
     7
100
AcDb2dPolyline
 66
     1
 10
0.0
 20
0.0
 30
0.0
  0
VERTEX
  5
32A
330
329
100
AcDbEntity
  8
GRAU_10_
 62
     7
100
AcDbVertex
100
AcDb2dVertex
 10
19.22604437453377
 20
108.3305107693584
 30
0.0
  0
VERTEX
  5
32B
330
329
100
AcDbEntity
  8
GRAU_10_
 62
     7
100
AcDbVertex
100
AcDb2dVertex
 10
18.83123643192414
 20
112.4639363325611
 30
0.0
  0
SEQEND
  5
32C
330
329
100
AcDbEntity
  8
GRAU_10_
  0
POLYLINE
  5
32D
330
1F
100
AcDbEntity
  8
GRAU_10_
 62
     7
100
AcDb2dPolyline
 66
     1
 10
0.0
 20
0.0
 30
0.0
  0
VERTEX
  5
32E
330
32D
100
AcDbEntity
  8
GRAU_10_
 62
     7
100
AcDbVertex
100
AcDb2dVertex
 10
19.94606933095098
 20
103.8723849566708
 30
0.0
  0
VERTEX
  5
32F
330
32D
100
AcDbEntity
  8
GRAU_10_
 62
     7
100
AcDbVertex
100
AcDb2dVertex
 10
19.22604437453377
 20
108.3305107693584
 30
0.0
  0
SEQEND
  5
330
330
32D
100
AcDbEntity
  8
GRAU_10_
  0
POLYLINE
  5
331
330
1F
100
AcDbEntity
  8
GRAU_10_
 62
     7
100
AcDb2dPolyline
 66
     1
 10
0.0
 20
0.0
 30
0.0
  0
VERTEX
  5
332
330
331
100
AcDbEntity
  8
GRAU_10_
 62
     7
100
AcDbVertex
100
AcDb2dVertex
 10
19.0210611931614
 20
100.9915961119049
 30
0.0
  0
VERTEX
  5
333
330
331
100
AcDbEntity
  8
GRAU_10_
 62
     7
100
AcDbVertex
100
AcDb2dVertex
 10
20.34535589769144
 20
100.1566772210546
 30
0.0
  0
SEQEND
  5
334
330
331
100
AcDbEntity
  8
GRAU_10_
  0
POLYLINE
  5
335
330
1F
100
AcDbEntity
  8
GRAU_10_
 62
     7
100
AcDb2dPolyline
 66
     1
 10
0.0
 20
0.0
 30
0.0
  0
VERTEX
  5
336
330
335
100
AcDbEntity
  8
GRAU_10_
 62
     7
100
AcDbVertex
100
AcDb2dVertex
 10
30.28704019425116
 20
105.9263508849768
 30
0.0
  0
VERTEX
  5
337
330
335
100
AcDbEntity
  8
GRAU_10_
 62
     7
100
AcDbVertex
100
AcDb2dVertex
 10
21.19870604938782
 20
103.9326741276627
 30
0.0
  0
SEQEND
  5
338
330
335
100
AcDbEntity
  8
GRAU_10_
  0
POLYLINE
  5
339
330
1F
100
AcDbEntity
  8
GRAU_10_
 62
     7
100
AcDb2dPolyline
 66
     1
 10
0.0
 20
0.0
 30
0.0
  0
VERTEX
  5
33A
330
339
100
AcDbEntity
  8
GRAU_10_
 62
     7
100
AcDbVertex
100
AcDb2dVertex
 10
20.87452256422581
 20
100.2038750292025
 30
0.0
  0
VERTEX
  5
33B
330
339
100
AcDbEntity
  8
GRAU_10_
 62
     7
100
AcDbVertex
100
AcDb2dVertex
 10
24.56353080983134
 20
100.555963787795
 30
0.0
  0
SEQEND
  5
33C
330
339
100
AcDbEntity
  8
GRAU_10_
  0
POLYLINE
  5
33D
330
1F
100
AcDbEntity
  8
GRAU_10_
 62
     7
100
AcDb2dPolyline
 66
     1
 10
0.0
 20
0.0
 30
0.0
  0
VERTEX
  5
33E
330
33D
100
AcDbEntity
  8
GRAU_10_
 62
     7
100
AcDbVertex
100
AcDb2dVertex
 10
35.41678737178817
 20
108.3305107693584
 30
0.0
  0
VERTEX
  5
33F
330
33D
100
AcDbEntity
  8
GRAU_10_
 62
     7
100
AcDbVertex
100
AcDb2dVertex
 10
19.22604437453377
 20
108.3305107693584
 30
0.0
  0
SEQEND
  5
340
330
33D
100
AcDbEntity
  8
GRAU_10_
  0
POLYLINE
  5
341
330
1F
100
AcDbEntity
  8
GRAU_10_
 62
     7
100
AcDb2dPolyline
 66
     1
 10
0.0
 20
0.0
 30
0.0
  0
VERTEX
  5
342
330
341
100
AcDbEntity
  8
GRAU_10_
 62
     7
100
AcDbVertex
100
AcDb2dVertex
 10
43.79836017785249
 20
134.3308186513131
 30
0.0
  0
VERTEX
  5
343
330
341
100
AcDbEntity
  8
GRAU_10_
 62
     7
100
AcDbVertex
100
AcDb2dVertex
 10
46.04766302017212
 20
136.5809827675041
 30
0.0
  0
SEQEND
  5
344
330
341
100
AcDbEntity
  8
GRAU_10_
  0
POLYLINE
  5
345
330
1F
100
AcDbEntity
  8
GRAU_10_
 62
     7
100
AcDb2dPolyline
 66
     1
 10
0.0
 20
0.0
 30
0.0
  0
VERTEX
  5
346
330
345
100
AcDbEntity
  8
GRAU_10_
 62
     7
100
AcDbVertex
100
AcDb2dVertex
 10
43.79836017785249
 20
134.3308186513131
 30
0.0
  0
VERTEX
  5
347
330
345
100
AcDbEntity
  8
GRAU_10_
 62
     7
100
AcDbVertex
100
AcDb2dVertex
 10
21.69824489474905
 20
134.3308186513131
 30
0.0
  0
SEQEND
  5
348
330
345
100
AcDbEntity
  8
GRAU_10_
  0
POLYLINE
  5
349
330
1F
100
AcDbEntity
  8
GRAU_10_
 62
     7
100
AcDb2dPolyline
 66
     1
 10
0.0
 20
0.0
 30
0.0
  0
VERTEX
  5
34A
330
349
100
AcDbEntity
  8
GRAU_10_
 62
     7
100
AcDbVertex
100
AcDb2dVertex
 10
35.29793157754705
 20
147.3310587196777
 30
0.0
  0
VERTEX
  5
34B
330
349
100
AcDbEntity
  8
GRAU_10_
 62
     7
100
AcDbVertex
100
AcDb2dVertex
 10
21.69824489474905
 20
147.3310587196777
 30
0.0
  0
SEQEND
  5
34C
330
349
100
AcDbEntity
  8
GRAU_10_
  0
POLYLINE
  5
34D
330
1F
100
AcDbEntity
  8
GRAU_10_
 62
     7
100
AcDb2dPolyline
 66
     1
 10
0.0
 20
0.0
 30
0.0
  0
VERTEX
  5
34E
330
34D
100
AcDbEntity
  8
GRAU_10_
 62
     7
100
AcDbVertex
100
AcDb2dVertex
 10
35.29793157754705
 20
147.3310587196777
 30
0.0
  0
VERTEX
  5
34F
330
34D
100
AcDbEntity
  8
GRAU_10_
 62
     7
100
AcDbVertex
100
AcDb2dVertex
 10
46.04766302017212
 20
136.5809827675041
 30
0.0
  0
SEQEND
  5
350
330
34D
100
AcDbEntity
  8
GRAU_10_
  0
POLYLINE
  5
351
330
1F
100
AcDbEntity
  8
GRAU_10_
 62
     7
100
AcDb2dPolyline
 66
     1
 10
0.0
 20
0.0
 30
0.0
  0
VERTEX
  5
352
330
351
100
AcDbEntity
  8
GRAU_10_
 62
     7
100
AcDbVertex
100
AcDb2dVertex
 10
21.69824489474905
 20
134.3308186513131
 30
0.0
  0
VERTEX
  5
353
330
351
100
AcDbEntity
  8
GRAU_10_
 62
     7
100
AcDbVertex
100
AcDb2dVertex
 10
21.69824489474905
 20
147.3310587196777
 30
0.0
  0
SEQEND
  5
354
330
351
100
AcDbEntity
  8
GRAU_10_
  0
POLYLINE
  5
355
330
1F
100
AcDbEntity
  8
GRAU_10_
 62
     7
100
AcDb2dPolyline
 66
     1
 10
0.0
 20
0.0
 30
0.0
  0
VERTEX
  5
356
330
355
100
AcDbEntity
  8
GRAU_10_
 62
     7
100
AcDbVertex
100
AcDb2dVertex
 10
43.79836017785249
 20
114.3897447088158
 30
0.0
  0
VERTEX
  5
357
330
355
100
AcDbEntity
  8
GRAU_10_
 62
     7
100
AcDbVertex
100
AcDb2dVertex
 10
43.79836017785249
 20
134.3308186513131
 30
0.0
  0
SEQEND
  5
358
330
355
100
AcDbEntity
  8
GRAU_10_
  0
POLYLINE
  5
359
330
1F
100
AcDbEntity
  8
GRAU_10_
 62
     7
100
AcDb2dPolyline
 66
     1
 10
0.0
 20
0.0
 30
0.0
  0
VERTEX
  5
35A
330
359
100
AcDbEntity
  8
GRAU_10_
 62
     7
100
AcDbVertex
100
AcDb2dVertex
 10
21.69824489474905
 20
134.3308186513131
 30
0.0
  0
VERTEX
  5
35B
330
359
100
AcDbEntity
  8
GRAU_10_
 62
     7
100
AcDbVertex
100
AcDb2dVertex
 10
21.69824489474905
 20
115.330944795386
 30
0.0
  0
SEQEND
  5
35C
330
359
100
AcDbEntity
  8
GRAU_10_
  0
POLYLINE
  5
35D
330
1F
100
AcDbEntity
  8
GRAU_10_
 62
     7
100
AcDb2dPolyline
 66
     1
 10
0.0
 20
0.0
 30
0.0
  0
VERTEX
  5
35E
330
35D
100
AcDbEntity
  8
GRAU_10_
 62
     7
100
AcDbVertex
100
AcDb2dVertex
 10
18.83123643192414
 20
112.4639363325611
 30
0.0
  0
VERTEX
  5
35F
330
35D
100
AcDbEntity
  8
GRAU_10_
 62
     7
100
AcDbVertex
100
AcDb2dVertex
 10
21.69824489474905
 20
115.330944795386
 30
0.0
  0
SEQEND
  5
360
330
35D
100
AcDbEntity
  8
GRAU_10_
  0
POLYLINE
  5
361
330
1F
100
AcDbEntity
  8
GRAU_10_
 62
     7
100
AcDb2dPolyline
 66
     1
 10
0.0
 20
0.0
 30
0.0
  0
VERTEX
  5
362
330
361
100
AcDbEntity
  8
GRAU_10_
 62
     7
100
AcDbVertex
100
AcDb2dVertex
 10
48.29817164591157
 20
134.3308186513131
 30
0.0
  0
VERTEX
  5
363
330
361
100
AcDbEntity
  8
GRAU_10_
 62
     7
100
AcDbVertex
100
AcDb2dVertex
 10
46.04766302017212
 20
136.5809827675041
 30
0.0
  0
SEQEND
  5
364
330
361
100
AcDbEntity
  8
GRAU_10_
  0
POLYLINE
  5
365
330
1F
100
AcDbEntity
  8
GRAU_10_
 62
     7
100
AcDb2dPolyline
 66
     1
 10
0.0
 20
0.0
 30
0.0
  0
VERTEX
  5
366
330
365
100
AcDbEntity
  8
GRAU_10_
 62
     7
100
AcDbVertex
100
AcDb2dVertex
 10
48.29817164591157
 20
134.3308186513131
 30
0.0
  0
VERTEX
  5
367
330
365
100
AcDbEntity
  8
GRAU_10_
 62
     7
100
AcDbVertex
100
AcDb2dVertex
 10
48.29817164591157
 20
110.3310777176429
 30
0.0
  0
VERTEX
  5
368
330
365
100
AcDbEntity
  8
GRAU_10_
 62
     7
100
AcDbVertex
100
AcDb2dVertex
 10
48.13022324100564
 20
109.8689181582967
 30
0.0
  0
SEQEND
  5
369
330
365
100
AcDbEntity
  8
GRAU_10_
  0
POLYLINE
  5
36A
330
1F
100
AcDbEntity
  8
GRAU_10_
 62
     7
100
AcDb2dPolyline
 66
     1
 10
0.0
 20
0.0
 30
0.0
  0
VERTEX
  5
36B
330
36A
100
AcDbEntity
  8
GRAU_10_
 62
     7
100
AcDbVertex
100
AcDb2dVertex
 10
20.28437770760252
 20
92.55989716653016
 30
0.0
  0
VERTEX
  5
36C
330
36A
100
AcDbEntity
  8
GRAU_10_
 62
     7
100
AcDbVertex
100
AcDb2dVertex
 10
20.16483289426435
 20
93.30954994412053
 30
0.0
  0
VERTEX
  5
36D
330
36A
100
AcDbEntity
  8
GRAU_10_
 62
     7
100
AcDbVertex
100
AcDb2dVertex
 10
20.06733669203178
 20
94.15824921691183
 30
0.0
  0
VERTEX
  5
36E
330
36A
100
AcDbEntity
  8
GRAU_10_
 62
     7
100
AcDbVertex
100
AcDb2dVertex
 10
20.00222438736056
 20
95.00987682086559
 30
0.0
  0
VERTEX
  5
36F
330
36A
100
AcDbEntity
  8
GRAU_10_
 62
     7
100
AcDbVertex
100
AcDb2dVertex
 10
19.97741969986676
 20
95.76883135626613
 30
0.0
  0
SEQEND
  5
370
330
36A
100
AcDbEntity
  8
GRAU_10_
  0
POLYLINE
  5
371
330
1F
100
AcDbEntity
  8
GRAU_10_
 62
     7
100
AcDb2dPolyline
 66
     1
 10
0.0
 20
0.0
 30
0.0
  0
VERTEX
  5
372
330
371
100
AcDbEntity
  8
GRAU_10_
 62
     7
100
AcDbVertex
100
AcDb2dVertex
 10
19.01262070922254
 20
100.9933186596475
 30
0.0
  0
VERTEX
  5
373
330
371
100
AcDbEntity
  8
GRAU_10_
 62
     7
100
AcDbVertex
100
AcDb2dVertex
 10
19.0169270785791
 20
100.9933186596475
 30
0.0
  0
VERTEX
  5
374
330
371
100
AcDbEntity
  8
GRAU_10_
 62
     7
100
AcDbVertex
100
AcDb2dVertex
 10
19.0210611931614
 20
100.9915961119049
 30
0.0
  0
SEQEND
  5
375
330
371
100
AcDbEntity
  8
GRAU_10_
  0
SPLINE
  5
376
330
1F
100
AcDbEntity
  8
GRAU_10_
 62
     7
100
AcDbSpline
210
0.0
220
0.0
230
1.0
 70
    11
 71
     3
 72
    17
 73
    13
 74
     0
 42
0.0000000001
 43
0.0000000001
 40
0.0
 40
0.0
 40
0.0
 40
0.0
 40
1.0
 40
1.0
 40
1.0
 40
2.0
 40
2.0
 40
2.0
 40
3.0
 40
3.0
 40
3.0
 40
4.0
 40
4.0
 40
4.0
 40
4.0
 10
43.29813231339422
 20
122.3305175475424
 30
0.0
 10
43.29813231339422
 20
127.3011013136608
 30
0.0
 10
39.26840412429748
 20
131.330484993209
 30
0.0
 10
34.29816486772754
 20
131.330484993209
 30
0.0
 10
29.32775335638334
 20
131.330484993209
 30
0.0
 10
25.29802516728661
 20
127.3011013136608
 30
0.0
 10
25.29802516728661
 20
122.3305175475424
 30
0.0
 10
25.29802516728661
 20
117.3601060361982
 30
0.0
 10
29.32775335638334
 20
113.33072235665
 30
0.0
 10
34.29816486772754
 20
113.33072235665
 30
0.0
 10
39.26840412429748
 20
113.33072235665
 30
0.0
 10
43.29813231339422
 20
117.3601060361982
 30
0.0
 10
43.29813231339422
 20
122.3305175475424
 30
0.0
  0
SPLINE
  5
377
330
1F
100
AcDbEntity
  8
GRAU_10_
 62
     7
100
AcDbSpline
210
0.0
220
0.0
230
1.0
 70
     8
 71
     3
 72
    11
 73
     7
 74
     0
 42
0.0000000001
 43
0.0000000001
 40
0.0
 40
0.0
 40
0.0
 40
0.0
 40
1.0
 40
1.0
 40
1.0
 40
2.0
 40
2.0
 40
2.0
 40
2.0
 10
29.39837781383096
 20
122.3305175475424
 30
0.0
 10
29.39837781383096
 20
119.6247395534271
 30
0.0
 10
31.59187010928953
 20
117.4307304936458
 30
0.0
 10
34.29816486772754
 20
117.4307304936458
 30
0.0
 10
37.00428737139129
 20
117.4307304936458
 30
0.0
 10
39.19777966684986
 20
119.6247395534271
 30
0.0
 10
39.19777966684986
 20
122.3305175475424
 30
0.0
  0
SPLINE
  5
378
330
1F
100
AcDbEntity
  8
GRAU_10_
 62
     7
100
AcDbSpline
210
0.0
220
0.0
230
1.0
 70
    11
 71
     3
 72
    17
 73
    13
 74
     0
 42
0.0000000001
 43
0.0000000001
 40
0.0
 40
0.0
 40
0.0
 40
0.0
 40
1.0
 40
1.0
 40
1.0
 40
2.0
 40
2.0
 40
2.0
 40
3.0
 40
3.0
 40
3.0
 40
4.0
 40
4.0
 40
4.0
 40
4.0
 10
39.79825980992891
 20
122.3305175475424
 30
0.0
 10
39.79825980992891
 20
125.3682304916614
 30
0.0
 10
37.33587781184659
 20
127.8309569992923
 30
0.0
 10
34.29816486772754
 20
127.8309569992923
 30
0.0
 10
31.26027966883424
 20
127.8309569992923
 30
0.0
 10
28.79789767075192
 20
125.3682304916614
 30
0.0
 10
28.79789767075192
 20
122.3305175475424
 30
0.0
 10
28.79789767075192
 20
119.2929768581976
 30
0.0
 10
31.26027966883424
 20
116.8309393696638
 30
0.0
 10
34.29816486772754
 20
116.8309393696638
 30
0.0
 10
37.33587781184659
 20
116.8309393696638
 30
0.0
 10
39.79825980992891
 20
119.2929768581976
 30
0.0
 10
39.79825980992891
 20
122.3305175475424
 30
0.0
  0
SPLINE
  5
379
330
1F
100
AcDbEntity
  8
GRAU_10_
 62
     7
100
AcDbSpline
210
0.0
220
0.0
230
1.0
 70
     8
 71
     3
 72
    11
 73
     7
 74
     0
 42
0.0000000001
 43
0.0000000001
 40
0.0
 40
0.0
 40
0.0
 40
0.0
 40
1.0
 40
1.0
 40
1.0
 40
2.0
 40
2.0
 40
2.0
 40
2.0
 10
39.19777966684986
 20
122.3305175475424
 30
0.0
 10
39.19777966684986
 20
125.0366400512061
 30
0.0
 10
37.00428737139129
 20
127.2304768562132
 30
0.0
 10
34.29816486772754
 20
127.2304768562132
 30
0.0
 10
31.59187010928953
 20
127.2304768562132
 30
0.0
 10
29.39837781383096
 20
125.0366400512061
 30
0.0
 10
29.39837781383096
 20
122.3305175475424
 30
0.0
  0
POLYLINE
  5
37A
330
1F
100
AcDbEntity
  8
GRAU_10_
 62
     7
100
AcDb2dPolyline
 66
     1
 10
0.0
 20
0.0
 30
0.0
  0
VERTEX
  5
37B
330
37A
100
AcDbEntity
  8
GRAU_10_
 62
     7
100
AcDbVertex
100
AcDb2dVertex
 10
34.21238199014482
 20
107.6538940160553
 30
0.0
  0
VERTEX
  5
37C
330
37A
100
AcDbEntity
  8
GRAU_10_
 62
     7
100
AcDbVertex
100
AcDb2dVertex
 10
32.25625677361997
 20
106.7259575471032
 30
0.0
  0
VERTEX
  5
37D
330
37A
100
AcDbEntity
  8
GRAU_10_
 62
     7
100
AcDbVertex
100
AcDb2dVertex
 10
30.28704019425116
 20
105.9263508849768
 30
0.0
  0
SEQEND
  5
37E
330
37A
100
AcDbEntity
  8
GRAU_10_
  0
POLYLINE
  5
37F
330
1F
100
AcDbEntity
  8
GRAU_10_
 62
     7
100
AcDb2dPolyline
 66
     1
 10
0.0
 20
0.0
 30
0.0
  0
VERTEX
  5
380
330
37F
100
AcDbEntity
  8
GRAU_10_
 62
     7
100
AcDbVertex
100
AcDb2dVertex
 10
31.5231404543588
 20
90.66130504460898
 30
0.0
  0
VERTEX
  5
381
330
37F
100
AcDbEntity
  8
GRAU_10_
 62
     7
100
AcDbVertex
100
AcDb2dVertex
 10
31.21445989888041
 20
94.82900930788998
 30
0.0
  0
VERTEX
  5
382
330
37F
100
AcDbEntity
  8
GRAU_10_
 62
     7
100
AcDbVertex
100
AcDb2dVertex
 10
30.90577934340203
 20
98.76244707817398
 30
0.0
  0
VERTEX
  5
383
330
37F
100
AcDbEntity
  8
GRAU_10_
 62
     7
100
AcDbVertex
100
AcDb2dVertex
 10
30.59640976882659
 20
102.4612738459125
 30
0.0
  0
VERTEX
  5
384
330
37F
100
AcDbEntity
  8
GRAU_10_
 62
     7
100
AcDbVertex
100
AcDb2dVertex
 10
30.28704019425116
 20
105.9263508849768
 30
0.0
  0
SEQEND
  5
385
330
37F
100
AcDbEntity
  8
GRAU_10_
  0
POLYLINE
  5
386
330
1F
100
AcDbEntity
  8
GRAU_10_
 62
     7
100
AcDb2dPolyline
 66
     1
 10
0.0
 20
0.0
 30
0.0
  0
VERTEX
  5
387
330
386
100
AcDbEntity
  8
GRAU_10_
 62
     7
100
AcDbVertex
100
AcDb2dVertex
 10
20.87452256422581
 20
100.2038750292025
 30
0.0
  0
VERTEX
  5
388
330
386
100
AcDbEntity
  8
GRAU_10_
 62
     7
100
AcDbVertex
100
AcDb2dVertex
 10
20.34535589769144
 20
100.1566772210546
 30
0.0
  0
SEQEND
  5
389
330
386
100
AcDbEntity
  8
GRAU_10_
  0
POLYLINE
  5
38A
330
1F
100
AcDbEntity
  8
GRAU_10_
 62
     7
100
AcDb2dPolyline
 66
     1
 10
0.0
 20
0.0
 30
0.0
  0
VERTEX
  5
38B
330
38A
100
AcDbEntity
  8
GRAU_10_
 62
     7
100
AcDbVertex
100
AcDb2dVertex
 10
43.79836017785249
 20
114.3897447088158
 30
0.0
  0
VERTEX
  5
38C
330
38A
100
AcDbEntity
  8
GRAU_10_
 62
     7
100
AcDbVertex
100
AcDb2dVertex
 10
42.11250270214548
 20
113.7589477254665
 30
0.0
  0
VERTEX
  5
38D
330
38A
100
AcDbEntity
  8
GRAU_10_
 62
     7
100
AcDbVertex
100
AcDb2dVertex
 10
40.59028726198785
 20
113.0819864626149
 30
0.0
  0
VERTEX
  5
38E
330
38A
100
AcDbEntity
  8
GRAU_10_
 62
     7
100
AcDbVertex
100
AcDb2dVertex
 10
39.24222139860959
 20
112.3631672896176
 30
0.0
  0
VERTEX
  5
38F
330
38A
100
AcDbEntity
  8
GRAU_10_
 62
     7
100
AcDbVertex
100
AcDb2dVertex
 10
38.07881265324072
 20
111.607485594928
 30
0.0
  0
VERTEX
  5
390
330
38A
100
AcDbEntity
  8
GRAU_10_
 62
     7
100
AcDbVertex
100
AcDb2dVertex
 10
37.10832925504584
 20
110.8204535313227
 30
0.0
  0
VERTEX
  5
391
330
38A
100
AcDbEntity
  8
GRAU_10_
 62
     7
100
AcDbVertex
100
AcDb2dVertex
 10
36.33748914022119
 20
110.0079277611265
 30
0.0
  0
VERTEX
  5
392
330
38A
100
AcDbEntity
  8
GRAU_10_
 62
     7
100
AcDbVertex
100
AcDb2dVertex
 10
35.77266573541447
 20
109.1761094562129
 30
0.0
  0
VERTEX
  5
393
330
38A
100
AcDbEntity
  8
GRAU_10_
 62
     7
100
AcDbVertex
100
AcDb2dVertex
 10
35.41678737178817
 20
108.3305107693584
 30
0.0
  0
SEQEND
  5
394
330
38A
100
AcDbEntity
  8
GRAU_10_
  0
POLYLINE
  5
395
330
1F
100
AcDbEntity
  8
GRAU_10_
 62
     7
100
AcDb2dPolyline
 66
     1
 10
0.0
 20
0.0
 30
0.0
  0
VERTEX
  5
396
330
395
100
AcDbEntity
  8
GRAU_10_
 62
     7
100
AcDbVertex
100
AcDb2dVertex
 10
43.79836017785249
 20
114.3897447088158
 30
0.0
  0
VERTEX
  5
397
330
395
100
AcDbEntity
  8
GRAU_10_
 62
     7
100
AcDbVertex
100
AcDb2dVertex
 10
44.78830836553904
 20
113.7410332289432
 30
0.0
  0
VERTEX
  5
398
330
395
100
AcDbEntity
  8
GRAU_10_
 62
     7
100
AcDbVertex
100
AcDb2dVertex
 10
45.67938231279891
 20
113.0432291384059
 30
0.0
  0
VERTEX
  5
399
330
395
100
AcDbEntity
  8
GRAU_10_
 62
     7
100
AcDbVertex
100
AcDb2dVertex
 10
46.46538084775866
 20
112.3009833161088
 30
0.0
  0
VERTEX
  5
39A
330
395
100
AcDbEntity
  8
GRAU_10_
 62
     7
100
AcDbVertex
100
AcDb2dVertex
 10
47.138897015125
 20
111.5206691886997
 30
0.0
  0
VERTEX
  5
39B
330
395
100
AcDbEntity
  8
GRAU_10_
 62
     7
100
AcDbVertex
100
AcDb2dVertex
 10
47.69527993599285
 20
110.707798908955
 30
0.0
  0
VERTEX
  5
39C
330
395
100
AcDbEntity
  8
GRAU_10_
 62
     7
100
AcDbVertex
100
AcDb2dVertex
 10
48.13022324100564
 20
109.8689181582967
 30
0.0
  0
VERTEX
  5
39D
330
395
100
AcDbEntity
  8
GRAU_10_
 62
     7
100
AcDbVertex
100
AcDb2dVertex
 10
47.5953721669206
 20
108.3999294433861
 30
0.0
  0
VERTEX
  5
39E
330
395
100
AcDbEntity
  8
GRAU_10_
 62
     7
100
AcDbVertex
100
AcDb2dVertex
 10
47.05242511844523
 20
106.9076863339502
 30
0.0
  0
VERTEX
  5
39F
330
395
100
AcDbEntity
  8
GRAU_10_
 62
     7
100
AcDbVertex
100
AcDb2dVertex
 10
46.51240640113232
 20
105.4242282180016
 30
0.0
  0
VERTEX
  5
3A0
330
395
100
AcDbEntity
  8
GRAU_10_
 62
     7
100
AcDbVertex
100
AcDb2dVertex
 10
45.98806286827729
 20
103.9834892860701
 30
0.0
  0
VERTEX
  5
3A1
330
395
100
AcDbEntity
  8
GRAU_10_
 62
     7
100
AcDbVertex
100
AcDb2dVertex
 10
45.11817625825171
 20
103.7299302583557
 30
0.0
  0
VERTEX
  5
3A2
330
395
100
AcDbEntity
  8
GRAU_10_
 62
     7
100
AcDbVertex
100
AcDb2dVertex
 10
44.23192544467118
 20
103.5451008855721
 30
0.0
  0
VERTEX
  5
3A3
330
395
100
AcDbEntity
  8
GRAU_10_
 62
     7
100
AcDbVertex
100
AcDb2dVertex
 10
43.33137748482688
 20
103.4155652953267
 30
0.0
  0
VERTEX
  5
3A4
330
395
100
AcDbEntity
  8
GRAU_10_
 62
     7
100
AcDbVertex
100
AcDb2dVertex
 10
42.41618786917026
 20
103.3347778061976
 30
0.0
  0
VERTEX
  5
3A5
330
395
100
AcDbEntity
  8
GRAU_10_
 62
     7
100
AcDbVertex
100
AcDb2dVertex
 10
41.48773463589543
 20
103.2991210679252
 30
0.0
  0
VERTEX
  5
3A6
330
395
100
AcDbEntity
  8
GRAU_10_
 62
     7
100
AcDbVertex
100
AcDb2dVertex
 10
40.55152993777879
 20
103.309456354381
 30
0.0
  0
VERTEX
  5
3A7
330
395
100
AcDbEntity
  8
GRAU_10_
 62
     7
100
AcDbVertex
100
AcDb2dVertex
 10
39.61446396579083
 20
103.3637166082737
 30
0.0
  0
VERTEX
  5
3A8
330
395
100
AcDbEntity
  8
GRAU_10_
 62
     7
100
AcDbVertex
100
AcDb2dVertex
 10
38.67825926767419
 20
103.4663804537341
 30
0.0
  0
VERTEX
  5
3A9
330
395
100
AcDbEntity
  8
GRAU_10_
 62
     7
100
AcDbVertex
100
AcDb2dVertex
 10
37.74257133388033
 20
103.620548476699
 30
0.0
  0
VERTEX
  5
3AA
330
395
100
AcDbEntity
  8
GRAU_10_
 62
     7
100
AcDbVertex
100
AcDb2dVertex
 10
36.80912271215189
 20
103.8379340018183
 30
0.0
  0
VERTEX
  5
3AB
330
395
100
AcDbEntity
  8
GRAU_10_
 62
     7
100
AcDbVertex
100
AcDb2dVertex
 10
36.34351805732037
 20
103.9750488021312
 30
0.0
  0
VERTEX
  5
3AC
330
395
100
AcDbEntity
  8
GRAU_10_
 62
     7
100
AcDbVertex
100
AcDb2dVertex
 10
35.88135849797411
 20
104.1345567230983
 30
0.0
  0
VERTEX
  5
3AD
330
395
100
AcDbEntity
  8
GRAU_10_
 62
     7
100
AcDbVertex
100
AcDb2dVertex
 10
35.42695040346965
 20
104.3204196245275
 30
0.0
  0
VERTEX
  5
3AE
330
395
100
AcDbEntity
  8
GRAU_10_
 62
     7
100
AcDbVertex
100
AcDb2dVertex
 10
34.9849446527121
 20
104.5374606400983
 30
0.0
  0
VERTEX
  5
3AF
330
395
100
AcDbEntity
  8
GRAU_10_
 62
     7
100
AcDbVertex
100
AcDb2dVertex
 10
34.56016437938079
 20
104.7927422155553
 30
0.0
  0
VERTEX
  5
3B0
330
395
100
AcDbEntity
  8
GRAU_10_
 62
     7
100
AcDbVertex
100
AcDb2dVertex
 10
34.16690672973952
 20
105.0979776755484
 30
0.0
  0
VERTEX
  5
3B1
330
395
100
AcDbEntity
  8
GRAU_10_
 62
     7
100
AcDbVertex
100
AcDb2dVertex
 10
33.98758950973227
 20
105.2733330357476
 30
0.0
  0
VERTEX
  5
3B2
330
395
100
AcDbEntity
  8
GRAU_10_
 62
     7
100
AcDbVertex
100
AcDb2dVertex
 10
33.82687580534537
 20
105.4659138733731
 30
0.0
  0
VERTEX
  5
3B3
330
395
100
AcDbEntity
  8
GRAU_10_
 62
     7
100
AcDbVertex
100
AcDb2dVertex
 10
33.69027776935521
 20
105.6769259718447
 30
0.0
  0
VERTEX
  5
3B4
330
395
100
AcDbEntity
  8
GRAU_10_
 62
     7
100
AcDbVertex
100
AcDb2dVertex
 10
33.58589137615214
 20
105.9051635477425
 30
0.0
  0
VERTEX
  5
3B5
330
395
100
AcDbEntity
  8
GRAU_10_
 62
     7
100
AcDbVertex
100
AcDb2dVertex
 10
33.52301838354633
 20
106.1485595437754
 30
0.0
  0
VERTEX
  5
3B6
330
395
100
AcDbEntity
  8
GRAU_10_
 62
     7
100
AcDbVertex
100
AcDb2dVertex
 10
33.50785996341123
 20
106.3979844569075
 30
0.0
  0
VERTEX
  5
3B7
330
395
100
AcDbEntity
  8
GRAU_10_
 62
     7
100
AcDbVertex
100
AcDb2dVertex
 10
33.54248317303799
 20
106.6444810388771
 30
0.0
  0
VERTEX
  5
3B8
330
395
100
AcDbEntity
  8
GRAU_10_
 62
     7
100
AcDbVertex
100
AcDb2dVertex
 10
33.62034233100464
 20
106.880642334391
 30
0.0
  0
VERTEX
  5
3B9
330
395
100
AcDbEntity
  8
GRAU_10_
 62
     7
100
AcDbVertex
100
AcDb2dVertex
 10
33.73403048201789
 20
107.0992336429301
 30
0.0
  0
VERTEX
  5
3BA
330
395
100
AcDbEntity
  8
GRAU_10_
 62
     7
100
AcDbVertex
100
AcDb2dVertex
 10
33.87407361349329
 20
107.3004272192686
 30
0.0
  0
VERTEX
  5
3BB
330
395
100
AcDbEntity
  8
GRAU_10_
 62
     7
100
AcDbVertex
100
AcDb2dVertex
 10
34.03530408220298
 20
107.4842230634067
 30
0.0
  0
VERTEX
  5
3BC
330
395
100
AcDbEntity
  8
GRAU_10_
 62
     7
100
AcDbVertex
100
AcDb2dVertex
 10
34.21238199014482
 20
107.6538940160553
 30
0.0
  0
SEQEND
  5
3BD
330
395
100
AcDbEntity
  8
GRAU_10_
  0
POLYLINE
  5
3BE
330
1F
100
AcDbEntity
  8
GRAU_10_
 62
     7
100
AcDb2dPolyline
 66
     1
 10
0.0
 20
0.0
 30
0.0
  0
VERTEX
  5
3BF
330
3BE
100
AcDbEntity
  8
GRAU_10_
 62
     7
100
AcDbVertex
100
AcDb2dVertex
 10
45.98806286827729
 20
103.9834892860701
 30
0.0
  0
VERTEX
  5
3C0
330
3BE
100
AcDbEntity
  8
GRAU_10_
 62
     7
100
AcDbVertex
100
AcDb2dVertex
 10
44.98347302477844
 20
101.2231065285137
 30
0.0
  0
VERTEX
  5
3C1
330
3BE
100
AcDbEntity
  8
GRAU_10_
 62
     7
100
AcDbVertex
100
AcDb2dVertex
 10
43.97664386921417
 20
98.45807289205216
 30
0.0
  0
SEQEND
  5
3C2
330
3BE
100
AcDbEntity
  8
GRAU_10_
  0
POLYLINE
  5
3C3
330
1F
100
AcDbEntity
  8
GRAU_10_
 62
     7
100
AcDb2dPolyline
 66
     1
 10
0.0
 20
0.0
 30
0.0
  0
VERTEX
  5
3C4
330
3C3
100
AcDbEntity
  8
GRAU_10_
 62
     7
100
AcDbVertex
100
AcDb2dVertex
 10
33.18126491140955
 20
90.1913940204209
 30
0.0
  0
VERTEX
  5
3C5
330
3C3
100
AcDbEntity
  8
GRAU_10_
 62
     7
100
AcDbVertex
100
AcDb2dVertex
 10
33.08394096395124
 20
90.20224607119944
 30
0.0
  0
VERTEX
  5
3C6
330
3C3
100
AcDbEntity
  8
GRAU_10_
 62
     7
100
AcDbVertex
100
AcDb2dVertex
 10
32.98971760242966
 20
90.21361488630076
 30
0.0
  0
VERTEX
  5
3C7
330
3C3
100
AcDbEntity
  8
GRAU_10_
 62
     7
100
AcDbVertex
100
AcDb2dVertex
 10
32.90048962936169
 20
90.2244669370793
 30
0.0
  0
VERTEX
  5
3C8
330
3C3
100
AcDbEntity
  8
GRAU_10_
 62
     7
100
AcDbVertex
100
AcDb2dVertex
 10
32.81401773268191
 20
90.23618026172916
 30
0.0
  0
VERTEX
  5
3C9
330
3C3
100
AcDbEntity
  8
GRAU_10_
 62
     7
100
AcDbVertex
100
AcDb2dVertex
 10
32.73185220535871
 20
90.24737682205621
 30
0.0
  0
VERTEX
  5
3CA
330
3C3
100
AcDbEntity
  8
GRAU_10_
 62
     7
100
AcDbVertex
100
AcDb2dVertex
 10
32.65209824487517
 20
90.25840112760902
 30
0.0
  0
VERTEX
  5
3CB
330
3C3
100
AcDbEntity
  8
GRAU_10_
 62
     7
100
AcDbVertex
100
AcDb2dVertex
 10
32.57647839897394
 20
90.27045896180739
 30
0.0
  0
VERTEX
  5
3CC
330
3C3
100
AcDbEntity
  8
GRAU_10_
 62
     7
100
AcDbVertex
100
AcDb2dVertex
 10
32.50361462946091
 20
90.28200003168298
 30
0.0
  0
VERTEX
  5
3CD
330
3C3
100
AcDbEntity
  8
GRAU_10_
 62
     7
100
AcDbVertex
100
AcDb2dVertex
 10
32.43333468156181
 20
90.2933688467843
 30
0.0
  0
VERTEX
  5
3CE
330
3C3
100
AcDbEntity
  8
GRAU_10_
 62
     7
100
AcDbVertex
100
AcDb2dVertex
 10
32.3663275743737
 20
90.30559893575693
 30
0.0
  0
VERTEX
  5
3CF
330
3C3
100
AcDbEntity
  8
GRAU_10_
 62
     7
100
AcDbVertex
100
AcDb2dVertex
 10
32.30104301492821
 20
90.3176567699553
 30
0.0
  0
VERTEX
  5
3D0
330
3C3
100
AcDbEntity
  8
GRAU_10_
 62
     7
100
AcDbVertex
100
AcDb2dVertex
 10
32.2381700223224
 20
90.3297146041537
 30
0.0
  0
VERTEX
  5
3D1
330
3C3
100
AcDbEntity
  8
GRAU_10_
 62
     7
100
AcDbVertex
100
AcDb2dVertex
 10
32.17788085133053
 20
90.34228920267485
 30
0.0
  0
VERTEX
  5
3D2
330
3C3
100
AcDbEntity
  8
GRAU_10_
 62
     7
100
AcDbVertex
100
AcDb2dVertex
 10
32.11931422808129
 20
90.35572507506733
 30
0.0
  0
VERTEX
  5
3D3
330
3C3
100
AcDbEntity
  8
GRAU_10_
 62
     7
100
AcDbVertex
100
AcDb2dVertex
 10
32.06264240734892
 20
90.36847192836275
 30
0.0
  0
VERTEX
  5
3D4
330
3C3
100
AcDbEntity
  8
GRAU_10_
 62
     7
100
AcDbVertex
100
AcDb2dVertex
 10
32.00683186048788
 20
90.3829413294008
 30
0.0
  0
VERTEX
  5
3D5
330
3C3
100
AcDbEntity
  8
GRAU_10_
 62
     7
100
AcDbVertex
100
AcDb2dVertex
 10
31.95326062569224
 20
90.39741073043885
 30
0.0
  0
VERTEX
  5
3D6
330
3C3
100
AcDbEntity
  8
GRAU_10_
 62
     7
100
AcDbVertex
100
AcDb2dVertex
 10
31.89986164567087
 20
90.41256915057394
 30
0.0
  0
VERTEX
  5
3D7
330
3C3
100
AcDbEntity
  8
GRAU_10_
 62
     7
100
AcDbVertex
100
AcDb2dVertex
 10
31.84801295861786
 20
90.42945011845167
 30
0.0
  0
VERTEX
  5
3D8
330
3C3
100
AcDbEntity
  8
GRAU_10_
 62
     7
100
AcDbVertex
100
AcDb2dVertex
 10
31.79650878111337
 20
90.44684785065218
 30
0.0
  0
VERTEX
  5
3D9
330
3C3
100
AcDbEntity
  8
GRAU_10_
 62
     7
100
AcDbVertex
100
AcDb2dVertex
 10
31.7472439156743
 20
90.46614038536958
 30
0.0
  0
VERTEX
  5
3DA
330
3C3
100
AcDbEntity
  8
GRAU_10_
 62
     7
100
AcDbVertex
100
AcDb2dVertex
 10
31.69987385275212
 20
90.48663870350681
 30
0.0
  0
VERTEX
  5
3DB
330
3C3
100
AcDbEntity
  8
GRAU_10_
 62
     7
100
AcDbVertex
100
AcDb2dVertex
 10
31.65715466873502
 20
90.5092040789352
 30
0.0
  0
VERTEX
  5
3DC
330
3C3
100
AcDbEntity
  8
GRAU_10_
 62
     7
100
AcDbVertex
100
AcDb2dVertex
 10
31.61770832542891
 20
90.53314749255769
 30
0.0
  0
VERTEX
  5
3DD
330
3C3
100
AcDbEntity
  8
GRAU_10_
 62
     7
100
AcDbVertex
100
AcDb2dVertex
 10
31.58274060625362
 20
90.55933021824559
 30
0.0
  0
VERTEX
  5
3DE
330
3C3
100
AcDbEntity
  8
GRAU_10_
 62
     7
100
AcDbVertex
100
AcDb2dVertex
 10
31.55380180417752
 20
90.58930254896727
 30
0.0
  0
VERTEX
  5
3DF
330
3C3
100
AcDbEntity
  8
GRAU_10_
 62
     7
100
AcDbVertex
100
AcDb2dVertex
 10
31.53261446694324
 20
90.62323673949697
 30
0.0
  0
VERTEX
  5
3E0
330
3C3
100
AcDbEntity
  8
GRAU_10_
 62
     7
100
AcDbVertex
100
AcDb2dVertex
 10
31.5231404543588
 20
90.66130504460898
 30
0.0
  0
SEQEND
  5
3E1
330
3C3
100
AcDbEntity
  8
GRAU_10_
  0
POLYLINE
  5
3E2
330
1F
100
AcDbEntity
  8
GRAU_10_
 62
     7
100
AcDb2dPolyline
 66
     1
 10
0.0
 20
0.0
 30
0.0
  0
VERTEX
  5
3E3
330
3E2
100
AcDbEntity
  8
GRAU_10_
 62
     7
100
AcDbVertex
100
AcDb2dVertex
 10
43.97664386921417
 20
98.45807289205216
 30
0.0
  0
VERTEX
  5
3E4
330
3E2
100
AcDbEntity
  8
GRAU_10_
 62
     7
100
AcDbVertex
100
AcDb2dVertex
 10
42.42049423852682
 20
96.80666637119765
 30
0.0
  0
VERTEX
  5
3E5
330
3E2
100
AcDbEntity
  8
GRAU_10_
 62
     7
100
AcDbVertex
100
AcDb2dVertex
 10
40.77081026541494
 20
95.26360810335424
 30
0.0
  0
VERTEX
  5
3E6
330
3E2
100
AcDbEntity
  8
GRAU_10_
 62
     7
100
AcDbVertex
100
AcDb2dVertex
 10
39.02604165691016
 20
93.82924259807046
 30
0.0
  0
VERTEX
  5
3E7
330
3E2
100
AcDbEntity
  8
GRAU_10_
 62
     7
100
AcDbVertex
100
AcDb2dVertex
 10
37.1837768461728
 20
92.5023640719265
 30
0.0
  0
VERTEX
  5
3E8
330
3E2
100
AcDbEntity
  8
GRAU_10_
 62
     7
100
AcDbVertex
100
AcDb2dVertex
 10
35.2379869161037
 20
91.28779565860167
 30
0.0
  0
VERTEX
  5
3E9
330
3E2
100
AcDbEntity
  8
GRAU_10_
 62
     7
100
AcDbVertex
100
AcDb2dVertex
 10
33.18126491140955
 20
90.1913940204209
 30
0.0
  0
SEQEND
  5
3EA
330
3E2
100
AcDbEntity
  8
GRAU_10_
  0
POLYLINE
  5
3EB
330
1F
100
AcDbEntity
  8
GRAU_10_
 62
     7
100
AcDb2dPolyline
 66
     1
 10
0.0
 20
0.0
 30
0.0
  0
VERTEX
  5
3EC
330
3EB
100
AcDbEntity
  8
GRAU_10_
 62
     7
100
AcDbVertex
100
AcDb2dVertex
 10
30.79002413509764
 20
89.28051077412084
 30
0.0
  0
VERTEX
  5
3ED
330
3EB
100
AcDbEntity
  8
GRAU_10_
 62
     7
100
AcDbVertex
100
AcDb2dVertex
 10
30.82361381607882
 20
89.28585067212299
 30
0.0
  0
VERTEX
  5
3EE
330
3EB
100
AcDbEntity
  8
GRAU_10_
 62
     7
100
AcDbVertex
100
AcDb2dVertex
 10
30.87649603177741
 20
89.2977362515471
 30
0.0
  0
VERTEX
  5
3EF
330
3EB
100
AcDbEntity
  8
GRAU_10_
 62
     7
100
AcDbVertex
100
AcDb2dVertex
 10
30.94005804348026
 20
89.31547849329614
 30
0.0
  0
VERTEX
  5
3F0
330
3EB
100
AcDbEntity
  8
GRAU_10_
 62
     7
100
AcDbVertex
100
AcDb2dVertex
 10
31.08079019405272
 20
89.35768091299045
 30
0.0
  0
VERTEX
  5
3F1
330
3EB
100
AcDbEntity
  8
GRAU_10_
 62
     7
100
AcDbVertex
100
AcDb2dVertex
 10
31.23254665017798
 20
89.40711803320379
 30
0.0
  0
VERTEX
  5
3F2
330
3EB
100
AcDbEntity
  8
GRAU_10_
 62
     7
100
AcDbVertex
100
AcDb2dVertex
 10
31.54897867049817
 20
89.51822236260308
 30
0.0
  0
VERTEX
  5
3F3
330
3EB
100
AcDbEntity
  8
GRAU_10_
 62
     7
100
AcDbVertex
100
AcDb2dVertex
 10
31.87350666520871
 20
89.64035099755519
 30
0.0
  0
VERTEX
  5
3F4
330
3EB
100
AcDbEntity
  8
GRAU_10_
 62
     7
100
AcDbVertex
100
AcDb2dVertex
 10
32.52686902398634
 20
89.9039008021768
 30
0.0
  0
VERTEX
  5
3F5
330
3EB
100
AcDbEntity
  8
GRAU_10_
 62
     7
100
AcDbVertex
100
AcDb2dVertex
 10
33.18126491140955
 20
90.1913940204209
 30
0.0
  0
SEQEND
  5
3F6
330
3EB
100
AcDbEntity
  8
GRAU_10_
  0
POLYLINE
  5
3F7
330
1F
100
AcDbEntity
  8
GRAU_10_
 62
     7
100
AcDb2dPolyline
 66
     1
 10
0.0
 20
0.0
 30
0.0
  0
VERTEX
  5
3F8
330
3F7
100
AcDbEntity
  8
GRAU_10_
 62
     7
100
AcDbVertex
100
AcDb2dVertex
 10
20.34535589769144
 20
100.1566772210546
 30
0.0
  0
VERTEX
  5
3F9
330
3F7
100
AcDbEntity
  8
GRAU_10_
 62
     7
100
AcDbVertex
100
AcDb2dVertex
 10
19.94606933095098
 20
103.8723849566708
 30
0.0
  0
SEQEND
  5
3FA
330
3F7
100
AcDbEntity
  8
GRAU_10_
  0
POLYLINE
  5
3FB
330
1F
100
AcDbEntity
  8
GRAU_10_
 62
     7
100
AcDb2dPolyline
 66
     1
 10
0.0
 20
0.0
 30
0.0
  0
VERTEX
  5
3FC
330
3FB
100
AcDbEntity
  8
GRAU_10_
 62
     7
100
AcDbVertex
100
AcDb2dVertex
 10
21.19870604938782
 20
103.9326741276627
 30
0.0
  0
VERTEX
  5
3FD
330
3FB
100
AcDbEntity
  8
GRAU_10_
 62
     7
100
AcDbVertex
100
AcDb2dVertex
 10
20.87452256422581
 20
100.2038750292025
 30
0.0
  0
SEQEND
  5
3FE
330
3FB
100
AcDbEntity
  8
GRAU_10_
  0
POLYLINE
  5
3FF
330
1F
100
AcDbEntity
  8
GRAU_10_
 62
     7
100
AcDb2dPolyline
 66
     1
 10
0.0
 20
0.0
 30
0.0
  0
VERTEX
  5
400
330
3FF
100
AcDbEntity
  8
GRAU_10_
 62
     7
100
AcDbVertex
100
AcDb2dVertex
 10
21.19870604938782
 20
103.9326741276627
 30
0.0
  0
VERTEX
  5
401
330
3FF
100
AcDbEntity
  8
GRAU_10_
 62
     7
100
AcDbVertex
100
AcDb2dVertex
 10
20.57290445449219
 20
103.8965006250675
 30
0.0
  0
VERTEX
  5
402
330
3FF
100
AcDbEntity
  8
GRAU_10_
 62
     7
100
AcDbVertex
100
AcDb2dVertex
 10
19.94606933095098
 20
103.8723849566708
 30
0.0
  0
SEQEND
  5
403
330
3FF
100
AcDbEntity
  8
GRAU_10_
  0
POLYLINE
  5
404
330
1F
100
AcDbEntity
  8
GRAU_10_
 62
     7
100
AcDb2dPolyline
 66
     1
 10
0.0
 20
0.0
 30
0.0
  0
VERTEX
  5
405
330
404
100
AcDbEntity
  8
GRAU_10_
 62
     7
100
AcDbVertex
100
AcDb2dVertex
 10
35.41678737178817
 20
108.3305107693584
 30
0.0
  0
VERTEX
  5
406
330
404
100
AcDbEntity
  8
GRAU_10_
 62
     7
100
AcDbVertex
100
AcDb2dVertex
 10
35.37940808577321
 20
108.3110459798667
 30
0.0
  0
VERTEX
  5
407
330
404
100
AcDbEntity
  8
GRAU_10_
 62
     7
100
AcDbVertex
100
AcDb2dVertex
 10
35.34202879975825
 20
108.2905476617294
 30
0.0
  0
VERTEX
  5
408
330
404
100
AcDbEntity
  8
GRAU_10_
 62
     7
100
AcDbVertex
100
AcDb2dVertex
 10
35.30464951374329
 20
108.270566107915
 30
0.0
  0
VERTEX
  5
409
330
404
100
AcDbEntity
  8
GRAU_10_
 62
     7
100
AcDbVertex
100
AcDb2dVertex
 10
35.26761473727685
 20
108.2507568088748
 30
0.0
  0
VERTEX
  5
40A
330
404
100
AcDbEntity
  8
GRAU_10_
 62
     7
100
AcDbVertex
100
AcDb2dVertex
 10
35.23023545126189
 20
108.2306030002861
 30
0.0
  0
VERTEX
  5
40B
330
404
100
AcDbEntity
  8
GRAU_10_
 62
     7
100
AcDbVertex
100
AcDb2dVertex
 10
35.19354518434398
 20
108.2107937012459
 30
0.0
  0
VERTEX
  5
40C
330
404
100
AcDbEntity
  8
GRAU_10_
 62
     7
100
AcDbVertex
100
AcDb2dVertex
 10
35.15651040787754
 20
108.1908121474315
 30
0.0
  0
VERTEX
  5
40D
330
404
100
AcDbEntity
  8
GRAU_10_
 62
     7
100
AcDbVertex
100
AcDb2dVertex
 10
35.11964788618537
 20
108.1710028483913
 30
0.0
  0
VERTEX
  5
40E
330
404
100
AcDbEntity
  8
GRAU_10_
 62
     7
100
AcDbVertex
100
AcDb2dVertex
 10
35.08347438359024
 20
108.1508490398026
 30
0.0
  0
VERTEX
  5
40F
330
404
100
AcDbEntity
  8
GRAU_10_
 62
     7
100
AcDbVertex
100
AcDb2dVertex
 10
35.04712862622086
 20
108.1312119955366
 30
0.0
  0
VERTEX
  5
410
330
404
100
AcDbEntity
  8
GRAU_10_
 62
     7
100
AcDbVertex
100
AcDb2dVertex
 10
35.0111273784
 20
108.1110581869479
 30
0.0
  0
VERTEX
  5
411
330
404
100
AcDbEntity
  8
GRAU_10_
 62
     7
100
AcDbVertex
100
AcDb2dVertex
 10
34.97478162103061
 20
108.0912488879078
 30
0.0
  0
VERTEX
  5
412
330
404
100
AcDbEntity
  8
GRAU_10_
 62
     7
100
AcDbVertex
100
AcDb2dVertex
 10
34.93843586366123
 20
108.0712673340933
 30
0.0
  0
VERTEX
  5
413
330
404
100
AcDbEntity
  8
GRAU_10_
 62
     7
100
AcDbVertex
100
AcDb2dVertex
 10
34.90277912538889
 20
108.0514580350531
 30
0.0
  0
VERTEX
  5
414
330
404
100
AcDbEntity
  8
GRAU_10_
 62
     7
100
AcDbVertex
100
AcDb2dVertex
 10
34.86712238711655
 20
108.0313042264644
 30
0.0
  0
VERTEX
  5
415
330
404
100
AcDbEntity
  8
GRAU_10_
 62
     7
100
AcDbVertex
100
AcDb2dVertex
 10
34.83146564884422
 20
108.0114949274242
 30
0.0
  0
VERTEX
  5
416
330
404
100
AcDbEntity
  8
GRAU_10_
 62
     7
100
AcDbVertex
100
AcDb2dVertex
 10
34.79580891057189
 20
107.9915133736098
 30
0.0
  0
VERTEX
  5
417
330
404
100
AcDbEntity
  8
GRAU_10_
 62
     7
100
AcDbVertex
100
AcDb2dVertex
 10
34.76032442707381
 20
107.9717040745696
 30
0.0
  0
VERTEX
  5
418
330
404
100
AcDbEntity
  8
GRAU_10_
 62
     7
100
AcDbVertex
100
AcDb2dVertex
 10
34.72535670789853
 20
107.9515502659809
 30
0.0
  0
VERTEX
  5
419
330
404
100
AcDbEntity
  8
GRAU_10_
 62
     7
100
AcDbVertex
100
AcDb2dVertex
 10
34.69004447917472
 20
107.931913221715
 30
0.0
  0
VERTEX
  5
41A
330
404
100
AcDbEntity
  8
GRAU_10_
 62
     7
100
AcDbVertex
100
AcDb2dVertex
 10
34.65507675999942
 20
107.9117594131262
 30
0.0
  0
VERTEX
  5
41B
330
404
100
AcDbEntity
  8
GRAU_10_
 62
     7
100
AcDbVertex
100
AcDb2dVertex
 10
34.62062580514693
 20
107.891950114086
 30
0.0
  0
VERTEX
  5
41C
330
404
100
AcDbEntity
  8
GRAU_10_
 62
     7
100
AcDbVertex
100
AcDb2dVertex
 10
34.58565808597164
 20
107.8717963054973
 30
0.0
  0
VERTEX
  5
41D
330
404
100
AcDbEntity
  8
GRAU_10_
 62
     7
100
AcDbVertex
100
AcDb2dVertex
 10
34.55069036679636
 20
107.8525037707799
 30
0.0
  0
VERTEX
  5
41E
330
404
100
AcDbEntity
  8
GRAU_10_
 62
     7
100
AcDbVertex
100
AcDb2dVertex
 10
34.51675617626665
 20
107.8326944717397
 30
0.0
  0
VERTEX
  5
41F
330
404
100
AcDbEntity
  8
GRAU_10_
 62
     7
100
AcDbVertex
100
AcDb2dVertex
 10
34.48230522141414
 20
107.812540663151
 30
0.0
  0
VERTEX
  5
420
330
404
100
AcDbEntity
  8
GRAU_10_
 62
     7
100
AcDbVertex
100
AcDb2dVertex
 10
34.44802652133591
 20
107.7929036188851
 30
0.0
  0
VERTEX
  5
421
330
404
100
AcDbEntity
  8
GRAU_10_
 62
     7
100
AcDbVertex
100
AcDb2dVertex
 10
34.4140923308062
 20
107.7727498102964
 30
0.0
  0
VERTEX
  5
422
330
404
100
AcDbEntity
  8
GRAU_10_
 62
     7
100
AcDbVertex
100
AcDb2dVertex
 10
34.38033039505076
 20
107.7529405112562
 30
0.0
  0
VERTEX
  5
423
330
404
100
AcDbEntity
  8
GRAU_10_
 62
     7
100
AcDbVertex
100
AcDb2dVertex
 10
34.34570718542399
 20
107.7329589574418
 30
0.0
  0
VERTEX
  5
424
330
404
100
AcDbEntity
  8
GRAU_10_
 62
     7
100
AcDbVertex
100
AcDb2dVertex
 10
34.31263426876559
 20
107.7131496584016
 30
0.0
  0
VERTEX
  5
425
330
404
100
AcDbEntity
  8
GRAU_10_
 62
     7
100
AcDbVertex
100
AcDb2dVertex
 10
34.27870007823588
 20
107.6936848689099
 30
0.0
  0
VERTEX
  5
426
330
404
100
AcDbEntity
  8
GRAU_10_
 62
     7
100
AcDbVertex
100
AcDb2dVertex
 10
34.24562716157748
 20
107.6735310603212
 30
0.0
  0
VERTEX
  5
427
330
404
100
AcDbEntity
  8
GRAU_10_
 62
     7
100
AcDbVertex
100
AcDb2dVertex
 10
34.21238199014482
 20
107.6538940160553
 30
0.0
  0
SEQEND
  5
428
330
404
100
AcDbEntity
  8
GRAU_10_
  0
POLYLINE
  5
429
330
1F
100
AcDbEntity
  8
GRAU_10_
 62
     7
100
AcDb2dPolyline
 66
     1
 10
0.0
 20
0.0
 30
0.0
  0
VERTEX
  5
42A
330
429
100
AcDbEntity
  8
GRAU_10_
 62
     7
100
AcDbVertex
100
AcDb2dVertex
 10
136.3291462875323
 20
192.1601914667169
 30
0.0
  0
VERTEX
  5
42B
330
429
100
AcDbEntity
  8
GRAU_10_
 62
     7
100
AcDbVertex
100
AcDb2dVertex
 10
125.4025091917397
 20
191.2041774695601
 30
0.0
  0
SEQEND
  5
42C
330
429
100
AcDbEntity
  8
GRAU_10_
  0
POLYLINE
  5
42D
330
1F
100
AcDbEntity
  8
GRAU_10_
 62
     7
100
AcDb2dPolyline
 66
     1
 10
0.0
 20
0.0
 30
0.0
  0
VERTEX
  5
42E
330
42D
100
AcDbEntity
  8
GRAU_10_
 62
     7
100
AcDbVertex
100
AcDb2dVertex
 10
124.5309000339714
 20
192.0652790860983
 30
0.0
  0
VERTEX
  5
42F
330
42D
100
AcDbEntity
  8
GRAU_10_
 62
     7
100
AcDbVertex
100
AcDb2dVertex
 10
125.3651299057247
 20
202.9385172018696
 30
0.0
  0
SEQEND
  5
430
330
42D
100
AcDbEntity
  8
GRAU_10_
  0
POLYLINE
  5
431
330
1F
100
AcDbEntity
  8
GRAU_10_
 62
     7
100
AcDb2dPolyline
 66
     1
 10
0.0
 20
0.0
 30
0.0
  0
VERTEX
  5
432
330
431
100
AcDbEntity
  8
GRAU_10_
 62
     7
100
AcDbVertex
100
AcDb2dVertex
 10
125.4025091917397
 20
191.2041774695601
 30
0.0
  0
VERTEX
  5
433
330
431
100
AcDbEntity
  8
GRAU_10_
 62
     7
100
AcDbVertex
100
AcDb2dVertex
 10
124.9546467786572
 20
191.2965060285648
 30
0.0
  0
VERTEX
  5
434
330
431
100
AcDbEntity
  8
GRAU_10_
 62
     7
100
AcDbVertex
100
AcDb2dVertex
 10
124.6278794718812
 20
191.6189669659842
 30
0.0
  0
VERTEX
  5
435
330
431
100
AcDbEntity
  8
GRAU_10_
 62
     7
100
AcDbVertex
100
AcDb2dVertex
 10
124.5309000339714
 20
192.0652790860983
 30
0.0
  0
SEQEND
  5
436
330
431
100
AcDbEntity
  8
GRAU_10_
  0
POLYLINE
  5
437
330
1F
100
AcDbEntity
  8
GRAU_10_
 62
     7
100
AcDb2dPolyline
 66
     1
 10
0.0
 20
0.0
 30
0.0
  0
VERTEX
  5
438
330
437
100
AcDbEntity
  8
GRAU_10_
 62
     7
100
AcDbVertex
100
AcDb2dVertex
 10
128.7800808054786
 20
198.2852267299426
 30
0.0
  0
VERTEX
  5
439
330
437
100
AcDbEntity
  8
GRAU_10_
 62
     7
100
AcDbVertex
100
AcDb2dVertex
 10
128.9388997073486
 20
198.994227380807
 30
0.0
  0
VERTEX
  5
43A
330
437
100
AcDbEntity
  8
GRAU_10_
 62
     7
100
AcDbVertex
100
AcDb2dVertex
 10
129.2916774850382
 20
199.628124950093
 30
0.0
  0
VERTEX
  5
43B
330
437
100
AcDbEntity
  8
GRAU_10_
 62
     7
100
AcDbVertex
100
AcDb2dVertex
 10
129.8105088651168
 20
200.1350707507475
 30
0.0
  0
VERTEX
  5
43C
330
437
100
AcDbEntity
  8
GRAU_10_
 62
     7
100
AcDbVertex
100
AcDb2dVertex
 10
130.4523301540189
 20
200.4737236369475
 30
0.0
  0
VERTEX
  5
43D
330
437
100
AcDbEntity
  8
GRAU_10_
 62
     7
100
AcDbVertex
100
AcDb2dVertex
 10
131.1659816837884
 20
200.6168673543597
 30
0.0
  0
VERTEX
  5
43E
330
437
100
AcDbEntity
  8
GRAU_10_
 62
     7
100
AcDbVertex
100
AcDb2dVertex
 10
131.8934135954989
 20
200.5538221069796
 30
0.0
  0
VERTEX
  5
43F
330
437
100
AcDbEntity
  8
GRAU_10_
 62
     7
100
AcDbVertex
100
AcDb2dVertex
 10
132.5764037754496
 20
200.2882052450668
 30
0.0
  0
VERTEX
  5
440
330
437
100
AcDbEntity
  8
GRAU_10_
 62
     7
100
AcDbVertex
100
AcDb2dVertex
 10
133.1581081481341
 20
199.8434434179211
 30
0.0
  0
VERTEX
  5
441
330
437
100
AcDbEntity
  8
GRAU_10_
 62
     7
100
AcDbVertex
100
AcDb2dVertex
 10
133.5927069435984
 20
199.2531263065235
 30
0.0
  0
VERTEX
  5
442
330
437
100
AcDbEntity
  8
GRAU_10_
 62
     7
100
AcDbVertex
100
AcDb2dVertex
 10
133.8438544044731
 20
198.5673800501845
 30
0.0
  0
VERTEX
  5
443
330
437
100
AcDbEntity
  8
GRAU_10_
 62
     7
100
AcDbVertex
100
AcDb2dVertex
 10
133.8926025055894
 20
197.8399481384741
 30
0.0
  0
SEQEND
  5
444
330
437
100
AcDbEntity
  8
GRAU_10_
  0
POLYLINE
  5
445
330
1F
100
AcDbEntity
  8
GRAU_10_
 62
     7
100
AcDb2dPolyline
 66
     1
 10
0.0
 20
0.0
 30
0.0
  0
VERTEX
  5
446
330
445
100
AcDbEntity
  8
GRAU_10_
 62
     7
100
AcDbVertex
100
AcDb2dVertex
 10
126.1504394215874
 20
204.0004678851978
 30
0.0
  0
VERTEX
  5
447
330
445
100
AcDbEntity
  8
GRAU_10_
 62
     7
100
AcDbVertex
100
AcDb2dVertex
 10
137.3173719274762
 20
204.9776692195889
 30
0.0
  0
SEQEND
  5
448
330
445
100
AcDbEntity
  8
GRAU_10_
  0
POLYLINE
  5
449
330
1F
100
AcDbEntity
  8
GRAU_10_
 62
     7
100
AcDb2dPolyline
 66
     1
 10
0.0
 20
0.0
 30
0.0
  0
VERTEX
  5
44A
330
449
100
AcDbEntity
  8
GRAU_10_
 62
     7
100
AcDbVertex
100
AcDb2dVertex
 10
138.1889810852444
 20
204.1169121125993
 30
0.0
  0
VERTEX
  5
44B
330
449
100
AcDbEntity
  8
GRAU_10_
 62
     7
100
AcDbVertex
100
AcDb2dVertex
 10
137.3328748571599
 20
192.9606594027147
 30
0.0
  0
SEQEND
  5
44C
330
449
100
AcDbEntity
  8
GRAU_10_
  0
POLYLINE
  5
44D
330
1F
100
AcDbEntity
  8
GRAU_10_
 62
     7
100
AcDb2dPolyline
 66
     1
 10
0.0
 20
0.0
 30
0.0
  0
VERTEX
  5
44E
330
44D
100
AcDbEntity
  8
GRAU_10_
 62
     7
100
AcDbVertex
100
AcDb2dVertex
 10
136.7034559120047
 20
191.97846267987
 30
0.0
  0
VERTEX
  5
44F
330
44D
100
AcDbEntity
  8
GRAU_10_
 62
     7
100
AcDbVertex
100
AcDb2dVertex
 10
137.1528686180555
 20
192.5167588494403
 30
0.0
  0
SEQEND
  5
450
330
44D
100
AcDbEntity
  8
GRAU_10_
  0
POLYLINE
  5
451
330
1F
100
AcDbEntity
  8
GRAU_10_
 62
     7
100
AcDb2dPolyline
 66
     1
 10
0.0
 20
0.0
 30
0.0
  0
VERTEX
  5
452
330
451
100
AcDbEntity
  8
GRAU_10_
 62
     7
100
AcDbVertex
100
AcDb2dVertex
 10
125.6142103093083
 20
203.7217596604411
 30
0.0
  0
VERTEX
  5
453
330
451
100
AcDbEntity
  8
GRAU_10_
 62
     7
100
AcDbVertex
100
AcDb2dVertex
 10
125.1641085841604
 20
203.1827744717738
 30
0.0
  0
SEQEND
  5
454
330
451
100
AcDbEntity
  8
GRAU_10_
  0
POLYLINE
  5
455
330
1F
100
AcDbEntity
  8
GRAU_10_
 62
     7
100
AcDb2dPolyline
 66
     1
 10
0.0
 20
0.0
 30
0.0
  0
VERTEX
  5
456
330
455
100
AcDbEntity
  8
GRAU_10_
 62
     7
100
AcDbVertex
100
AcDb2dVertex
 10
125.4502237642104
 20
191.2610215450667
 30
0.0
  0
VERTEX
  5
457
330
455
100
AcDbEntity
  8
GRAU_10_
 62
     7
100
AcDbVertex
100
AcDb2dVertex
 10
136.6169840153249
 20
192.2380506246836
 30
0.0
  0
SEQEND
  5
458
330
455
100
AcDbEntity
  8
GRAU_10_
  0
POLYLINE
  5
459
330
1F
100
AcDbEntity
  8
GRAU_10_
 62
     7
100
AcDb2dPolyline
 66
     1
 10
0.0
 20
0.0
 30
0.0
  0
VERTEX
  5
45A
330
459
100
AcDbEntity
  8
GRAU_10_
 62
     7
100
AcDbVertex
100
AcDb2dVertex
 10
125.4343763249782
 20
203.2778591071666
 30
0.0
  0
VERTEX
  5
45B
330
459
100
AcDbEntity
  8
GRAU_10_
 62
     7
100
AcDbVertex
100
AcDb2dVertex
 10
124.5780978421194
 20
192.1217786520564
 30
0.0
  0
SEQEND
  5
45C
330
459
100
AcDbEntity
  8
GRAU_10_
  0
POLYLINE
  5
45D
330
1F
100
AcDbEntity
  8
GRAU_10_
 62
     7
100
AcDb2dPolyline
 66
     1
 10
0.0
 20
0.0
 30
0.0
  0
VERTEX
  5
45E
330
45D
100
AcDbEntity
  8
GRAU_10_
 62
     7
100
AcDbVertex
100
AcDb2dVertex
 10
134.2372843088886
 20
197.8706094882928
 30
0.0
  0
VERTEX
  5
45F
330
45D
100
AcDbEntity
  8
GRAU_10_
 62
     7
100
AcDbVertex
100
AcDb2dVertex
 10
134.060378655721
 20
197.0789265457824
 30
0.0
  0
VERTEX
  5
460
330
45D
100
AcDbEntity
  8
GRAU_10_
 62
     7
100
AcDbVertex
100
AcDb2dVertex
 10
133.6660874774342
 20
196.3716484426606
 30
0.0
  0
VERTEX
  5
461
330
45D
100
AcDbEntity
  8
GRAU_10_
 62
     7
100
AcDbVertex
100
AcDb2dVertex
 10
133.0874836906865
 20
195.8054469996598
 30
0.0
  0
VERTEX
  5
462
330
45D
100
AcDbEntity
  8
GRAU_10_
 62
     7
100
AcDbVertex
100
AcDb2dVertex
 10
132.3702148106574
 20
195.4271755153793
 30
0.0
  0
VERTEX
  5
463
330
45D
100
AcDbEntity
  8
GRAU_10_
 62
     7
100
AcDbVertex
100
AcDb2dVertex
 10
131.5733642249192
 20
195.267495339638
 30
0.0
  0
VERTEX
  5
464
330
45D
100
AcDbEntity
  8
GRAU_10_
 62
     7
100
AcDbVertex
100
AcDb2dVertex
 10
130.7610107094972
 20
195.3379475423114
 30
0.0
  0
VERTEX
  5
465
330
45D
100
AcDbEntity
  8
GRAU_10_
 62
     7
100
AcDbVertex
100
AcDb2dVertex
 10
129.9993000977085
 20
195.6338812444943
 30
0.0
  0
VERTEX
  5
466
330
45D
100
AcDbEntity
  8
GRAU_10_
 62
     7
100
AcDbVertex
100
AcDb2dVertex
 10
129.3495550891904
 20
196.1316975421129
 30
0.0
  0
VERTEX
  5
467
330
45D
100
AcDbEntity
  8
GRAU_10_
 62
     7
100
AcDbVertex
100
AcDb2dVertex
 10
128.8644856448672
 20
196.7900552893442
 30
0.0
  0
VERTEX
  5
468
330
45D
100
AcDbEntity
  8
GRAU_10_
 62
     7
100
AcDbVertex
100
AcDb2dVertex
 10
128.5838826175936
 20
197.5559000157152
 30
0.0
  0
VERTEX
  5
469
330
45D
100
AcDbEntity
  8
GRAU_10_
 62
     7
100
AcDbVertex
100
AcDb2dVertex
 10
128.5299668732495
 20
198.3675645120401
 30
0.0
  0
VERTEX
  5
46A
330
45D
100
AcDbEntity
  8
GRAU_10_
 62
     7
100
AcDbVertex
100
AcDb2dVertex
 10
128.7067002716428
 20
199.159591964099
 30
0.0
  0
VERTEX
  5
46B
330
45D
100
AcDbEntity
  8
GRAU_10_
 62
     7
100
AcDbVertex
100
AcDb2dVertex
 10
129.1011637047039
 20
199.8668700672208
 30
0.0
  0
VERTEX
  5
46C
330
45D
100
AcDbEntity
  8
GRAU_10_
 62
     7
100
AcDbVertex
100
AcDb2dVertex
 10
129.6799397462258
 20
200.4325547458988
 30
0.0
  0
VERTEX
  5
46D
330
45D
100
AcDbEntity
  8
GRAU_10_
 62
     7
100
AcDbVertex
100
AcDb2dVertex
 10
130.3968641167064
 20
200.811342994502
 30
0.0
  0
VERTEX
  5
46E
330
45D
100
AcDbEntity
  8
GRAU_10_
 62
     7
100
AcDbVertex
100
AcDb2dVertex
 10
131.1933701928961
 20
200.9711954250176
 30
0.0
  0
VERTEX
  5
46F
330
45D
100
AcDbEntity
  8
GRAU_10_
 62
     7
100
AcDbVertex
100
AcDb2dVertex
 10
132.0055514535437
 20
200.9002264580215
 30
0.0
  0
VERTEX
  5
470
330
45D
100
AcDbEntity
  8
GRAU_10_
 62
     7
100
AcDbVertex
100
AcDb2dVertex
 10
132.767606574881
 20
200.6046372653871
 30
0.0
  0
VERTEX
  5
471
330
45D
100
AcDbEntity
  8
GRAU_10_
 62
     7
100
AcDbVertex
100
AcDb2dVertex
 10
133.4176960929477
 20
200.1068209677684
 30
0.0
  0
VERTEX
  5
472
330
45D
100
AcDbEntity
  8
GRAU_10_
 62
     7
100
AcDbVertex
100
AcDb2dVertex
 10
133.9020765181738
 20
199.4482909657629
 30
0.0
  0
VERTEX
  5
473
330
45D
100
AcDbEntity
  8
GRAU_10_
 62
     7
100
AcDbVertex
100
AcDb2dVertex
 10
134.1831963097702
 20
198.6821017298434
 30
0.0
  0
VERTEX
  5
474
330
45D
100
AcDbEntity
  8
GRAU_10_
 62
     7
100
AcDbVertex
100
AcDb2dVertex
 10
134.2372843088886
 20
197.8706094882928
 30
0.0
  0
SEQEND
  5
475
330
45D
100
AcDbEntity
  8
GRAU_10_
  0
POLYLINE
  5
476
330
1F
100
AcDbEntity
  8
GRAU_10_
 62
     7
100
AcDb2dPolyline
 66
     1
 10
0.0
 20
0.0
 30
0.0
  0
VERTEX
  5
477
330
476
100
AcDbEntity
  8
GRAU_10_
 62
     7
100
AcDbVertex
100
AcDb2dVertex
 10
137.3173719274762
 20
204.9776692195889
 30
0.0
  0
VERTEX
  5
478
330
476
100
AcDbEntity
  8
GRAU_10_
 62
     7
100
AcDbVertex
100
AcDb2dVertex
 10
137.765406595333
 20
204.8856851701327
 30
0.0
  0
VERTEX
  5
479
330
476
100
AcDbEntity
  8
GRAU_10_
 62
     7
100
AcDbVertex
100
AcDb2dVertex
 10
138.0920016473347
 20
204.5635687422619
 30
0.0
  0
VERTEX
  5
47A
330
476
100
AcDbEntity
  8
GRAU_10_
 62
     7
100
AcDbVertex
100
AcDb2dVertex
 10
138.1889810852444
 20
204.1169121125993
 30
0.0
  0
SEQEND
  5
47B
330
476
100
AcDbEntity
  8
GRAU_10_
  0
POLYLINE
  5
47C
330
1F
100
AcDbEntity
  8
GRAU_10_
 62
     7
100
AcDb2dPolyline
 66
     1
 10
0.0
 20
0.0
 30
0.0
  0
VERTEX
  5
47D
330
47C
100
AcDbEntity
  8
GRAU_10_
 62
     7
100
AcDbVertex
100
AcDb2dVertex
 10
136.6169840153249
 20
192.2380506246836
 30
0.0
  0
VERTEX
  5
47E
330
47C
100
AcDbEntity
  8
GRAU_10_
 62
     7
100
AcDbVertex
100
AcDb2dVertex
 10
137.1084268862958
 20
192.4674939840012
 30
0.0
  0
VERTEX
  5
47F
330
47C
100
AcDbEntity
  8
GRAU_10_
 62
     7
100
AcDbVertex
100
AcDb2dVertex
 10
137.3328748571599
 20
192.9606594027147
 30
0.0
  0
SEQEND
  5
480
330
47C
100
AcDbEntity
  8
GRAU_10_
  0
POLYLINE
  5
481
330
1F
100
AcDbEntity
  8
GRAU_10_
 62
     7
100
AcDb2dPolyline
 66
     1
 10
0.0
 20
0.0
 30
0.0
  0
VERTEX
  5
482
330
481
100
AcDbEntity
  8
GRAU_10_
 62
     7
100
AcDbVertex
100
AcDb2dVertex
 10
126.1504394215874
 20
204.0004678851978
 30
0.0
  0
VERTEX
  5
483
330
481
100
AcDbEntity
  8
GRAU_10_
 62
     7
100
AcDbVertex
100
AcDb2dVertex
 10
125.658652041068
 20
203.7711967806544
 30
0.0
  0
VERTEX
  5
484
330
481
100
AcDbEntity
  8
GRAU_10_
 62
     7
100
AcDbVertex
100
AcDb2dVertex
 10
125.4343763249782
 20
203.2778591071666
 30
0.0
  0
SEQEND
  5
485
330
481
100
AcDbEntity
  8
GRAU_10_
  0
POLYLINE
  5
486
330
1F
100
AcDbEntity
  8
GRAU_10_
 62
     7
100
AcDb2dPolyline
 66
     1
 10
0.0
 20
0.0
 30
0.0
  0
VERTEX
  5
487
330
486
100
AcDbEntity
  8
GRAU_10_
 62
     7
100
AcDbVertex
100
AcDb2dVertex
 10
133.9115505307582
 20
197.8625135139024
 30
0.0
  0
VERTEX
  5
488
330
486
100
AcDbEntity
  8
GRAU_10_
 62
     7
100
AcDbVertex
100
AcDb2dVertex
 10
133.752559374114
 20
197.1533406082638
 30
0.0
  0
VERTEX
  5
489
330
486
100
AcDbEntity
  8
GRAU_10_
 62
     7
100
AcDbVertex
100
AcDb2dVertex
 10
133.3997815964244
 20
196.5201320580748
 30
0.0
  0
VERTEX
  5
48A
330
486
100
AcDbEntity
  8
GRAU_10_
 62
     7
100
AcDbVertex
100
AcDb2dVertex
 10
132.88112247112
 20
196.0131862574203
 30
0.0
  0
VERTEX
  5
48B
330
486
100
AcDbEntity
  8
GRAU_10_
 62
     7
100
AcDbVertex
100
AcDb2dVertex
 10
132.2394734369922
 20
195.6745333712203
 30
0.0
  0
VERTEX
  5
48C
330
486
100
AcDbEntity
  8
GRAU_10_
 62
     7
100
AcDbVertex
100
AcDb2dVertex
 10
131.5254773976742
 20
195.5305283799368
 30
0.0
  0
VERTEX
  5
48D
330
486
100
AcDbEntity
  8
GRAU_10_
 62
     7
100
AcDbVertex
100
AcDb2dVertex
 10
130.7977009764152
 20
195.5944349011882
 30
0.0
  0
VERTEX
  5
48E
330
486
100
AcDbEntity
  8
GRAU_10_
 62
     7
100
AcDbVertex
100
AcDb2dVertex
 10
130.11574432511
 20
195.8593627440039
 30
0.0
  0
VERTEX
  5
48F
330
486
100
AcDbEntity
  8
GRAU_10_
 62
     7
100
AcDbVertex
100
AcDb2dVertex
 10
129.533695442877
 20
196.3053303545695
 30
0.0
  0
VERTEX
  5
490
330
486
100
AcDbEntity
  8
GRAU_10_
 62
     7
100
AcDbVertex
100
AcDb2dVertex
 10
129.0994411569613
 20
196.8944416825472
 30
0.0
  0
VERTEX
  5
491
330
486
100
AcDbEntity
  8
GRAU_10_
 62
     7
100
AcDbVertex
100
AcDb2dVertex
 10
128.8474324222152
 20
197.5810492127575
 30
0.0
  0
VERTEX
  5
492
330
486
100
AcDbEntity
  8
GRAU_10_
 62
     7
100
AcDbVertex
100
AcDb2dVertex
 10
128.7995455949703
 20
198.3083088696938
 30
0.0
  0
VERTEX
  5
493
330
486
100
AcDbEntity
  8
GRAU_10_
 62
     7
100
AcDbVertex
100
AcDb2dVertex
 10
128.957503222969
 20
199.0171372657839
 30
0.0
  0
VERTEX
  5
494
330
486
100
AcDbEntity
  8
GRAU_10_
 62
     7
100
AcDbVertex
100
AcDb2dVertex
 10
129.3106255102071
 20
199.6503458159728
 30
0.0
  0
VERTEX
  5
495
330
486
100
AcDbEntity
  8
GRAU_10_
 62
     7
100
AcDbVertex
100
AcDb2dVertex
 10
129.8292846355114
 20
200.1572916166274
 30
0.0
  0
VERTEX
  5
496
330
486
100
AcDbEntity
  8
GRAU_10_
 62
     7
100
AcDbVertex
100
AcDb2dVertex
 10
130.4716226887363
 20
200.4962890123759
 30
0.0
  0
VERTEX
  5
497
330
486
100
AcDbEntity
  8
GRAU_10_
 62
     7
100
AcDbVertex
100
AcDb2dVertex
 10
131.1849297089572
 20
200.6399494941109
 30
0.0
  0
VERTEX
  5
498
330
486
100
AcDbEntity
  8
GRAU_10_
 62
     7
100
AcDbVertex
100
AcDb2dVertex
 10
131.9123616206678
 20
200.5760429728595
 30
0.0
  0
VERTEX
  5
499
330
486
100
AcDbEntity
  8
GRAU_10_
 62
     7
100
AcDbVertex
100
AcDb2dVertex
 10
132.59500729107
 20
200.3114596395923
 30
0.0
  0
VERTEX
  5
49A
330
486
100
AcDbEntity
  8
GRAU_10_
 62
     7
100
AcDbVertex
100
AcDb2dVertex
 10
133.177056173303
 20
199.8654920290267
 30
0.0
  0
VERTEX
  5
49B
330
486
100
AcDbEntity
  8
GRAU_10_
 62
     7
100
AcDbVertex
100
AcDb2dVertex
 10
133.6113104592187
 20
199.2756916819519
 30
0.0
  0
VERTEX
  5
49C
330
486
100
AcDbEntity
  8
GRAU_10_
 62
     7
100
AcDbVertex
100
AcDb2dVertex
 10
133.8626301748677
 20
198.5899454256129
 30
0.0
  0
VERTEX
  5
49D
330
486
100
AcDbEntity
  8
GRAU_10_
 62
     7
100
AcDbVertex
100
AcDb2dVertex
 10
133.9115505307582
 20
197.8625135139024
 30
0.0
  0
SEQEND
  5
49E
330
486
100
AcDbEntity
  8
GRAU_10_
  0
POLYLINE
  5
49F
330
1F
100
AcDbEntity
  8
GRAU_10_
 62
     7
100
AcDb2dPolyline
 66
     1
 10
0.0
 20
0.0
 30
0.0
  0
VERTEX
  5
4A0
330
49F
100
AcDbEntity
  8
GRAU_10_
 62
     7
100
AcDbVertex
100
AcDb2dVertex
 10
136.2960733708739
 20
191.7209417923476
 30
0.0
  0
VERTEX
  5
4A1
330
49F
100
AcDbEntity
  8
GRAU_10_
 62
     7
100
AcDbVertex
100
AcDb2dVertex
 10
136.5203490869637
 20
191.8177489754831
 30
0.0
  0
VERTEX
  5
4A2
330
49F
100
AcDbEntity
  8
GRAU_10_
 62
     7
100
AcDbVertex
100
AcDb2dVertex
 10
136.7034559120047
 20
191.97846267987
 30
0.0
  0
SEQEND
  5
4A3
330
49F
100
AcDbEntity
  8
GRAU_10_
  0
POLYLINE
  5
4A4
330
1F
100
AcDbEntity
  8
GRAU_10_
 62
     7
100
AcDb2dPolyline
 66
     1
 10
0.0
 20
0.0
 30
0.0
  0
VERTEX
  5
4A5
330
4A4
100
AcDbEntity
  8
GRAU_10_
 62
     7
100
AcDbVertex
100
AcDb2dVertex
 10
125.1641085841604
 20
203.1827744717738
 30
0.0
  0
VERTEX
  5
4A6
330
4A4
100
AcDbEntity
  8
GRAU_10_
 62
     7
100
AcDbVertex
100
AcDb2dVertex
 10
125.0752251206409
 20
203.0508273146887
 30
0.0
  0
VERTEX
  5
4A7
330
4A4
100
AcDbEntity
  8
GRAU_10_
 62
     7
100
AcDbVertex
100
AcDb2dVertex
 10
125.014935949649
 20
202.9037217374685
 30
0.0
  0
SEQEND
  5
4A8
330
4A4
100
AcDbEntity
  8
GRAU_10_
  0
POLYLINE
  5
4A9
330
1F
100
AcDbEntity
  8
GRAU_10_
 62
     7
100
AcDb2dPolyline
 66
     1
 10
0.0
 20
0.0
 30
0.0
  0
VERTEX
  5
4AA
330
4A9
100
AcDbEntity
  8
GRAU_10_
 62
     7
100
AcDbVertex
100
AcDb2dVertex
 10
124.5780978421194
 20
192.1217786520564
 30
0.0
  0
VERTEX
  5
4AB
330
4A9
100
AcDbEntity
  8
GRAU_10_
 62
     7
100
AcDbVertex
100
AcDb2dVertex
 10
124.6752495348034
 20
191.6751220223937
 30
0.0
  0
VERTEX
  5
4AC
330
4A9
100
AcDbEntity
  8
GRAU_10_
 62
     7
100
AcDbVertex
100
AcDb2dVertex
 10
125.0018445868051
 20
191.3530055945229
 30
0.0
  0
VERTEX
  5
4AD
330
4A9
100
AcDbEntity
  8
GRAU_10_
 62
     7
100
AcDbVertex
100
AcDb2dVertex
 10
125.4502237642104
 20
191.2610215450667
 30
0.0
  0
SEQEND
  5
4AE
330
4A9
100
AcDbEntity
  8
GRAU_10_
  0
POLYLINE
  5
4AF
330
1F
100
AcDbEntity
  8
GRAU_10_
 62
     7
100
AcDb2dPolyline
 66
     1
 10
0.0
 20
0.0
 30
0.0
  0
VERTEX
  5
4B0
330
4AF
100
AcDbEntity
  8
GRAU_10_
 62
     7
100
AcDbVertex
100
AcDb2dVertex
 10
25.92985567928143
 20
204.4417846168583
 30
0.0
  0
VERTEX
  5
4B1
330
4AF
100
AcDbEntity
  8
GRAU_10_
 62
     7
100
AcDbVertex
100
AcDb2dVertex
 10
21.221788189139
 20
204.9807698055257
 30
0.0
  0
SEQEND
  5
4B2
330
4AF
100
AcDbEntity
  8
GRAU_10_
  0
POLYLINE
  5
4B3
330
1F
100
AcDbEntity
  8
GRAU_10_
 62
     7
100
AcDb2dPolyline
 66
     1
 10
0.0
 20
0.0
 30
0.0
  0
VERTEX
  5
4B4
330
4B3
100
AcDbEntity
  8
GRAU_10_
 62
     7
100
AcDbVertex
100
AcDb2dVertex
 10
20.035986323116
 20
204.0004678851978
 30
0.0
  0
VERTEX
  5
4B5
330
4B3
100
AcDbEntity
  8
GRAU_10_
 62
     7
100
AcDbVertex
100
AcDb2dVertex
 10
21.21386446952292
 20
204.9776692195889
 30
0.0
  0
SEQEND
  5
4B6
330
4B3
100
AcDbEntity
  8
GRAU_10_
  0
POLYLINE
  5
4B7
330
1F
100
AcDbEntity
  8
GRAU_10_
 62
     7
100
AcDb2dPolyline
 66
     1
 10
0.0
 20
0.0
 30
0.0
  0
VERTEX
  5
4B8
330
4B7
100
AcDbEntity
  8
GRAU_10_
 62
     7
100
AcDbVertex
100
AcDb2dVertex
 10
21.19870604938782
 20
204.1169121125993
 30
0.0
  0
VERTEX
  5
4B9
330
4B7
100
AcDbEntity
  8
GRAU_10_
 62
     7
100
AcDbVertex
100
AcDb2dVertex
 10
19.84030489955381
 20
192.9606594027147
 30
0.0
  0
SEQEND
  5
4BA
330
4B7
100
AcDbEntity
  8
GRAU_10_
  0
POLYLINE
  5
4BB
330
1F
100
AcDbEntity
  8
GRAU_10_
 62
     7
100
AcDb2dPolyline
 66
     1
 10
0.0
 20
0.0
 30
0.0
  0
VERTEX
  5
4BC
330
4BB
100
AcDbEntity
  8
GRAU_10_
 62
     7
100
AcDbVertex
100
AcDb2dVertex
 10
18.51135931611869
 20
191.2610215450667
 30
0.0
  0
VERTEX
  5
4BD
330
4BB
100
AcDbEntity
  8
GRAU_10_
 62
     7
100
AcDbVertex
100
AcDb2dVertex
 10
19.68923746252561
 20
192.2380506246836
 30
0.0
  0
SEQEND
  5
4BE
330
4BB
100
AcDbEntity
  8
GRAU_10_
  0
POLYLINE
  5
4BF
330
1F
100
AcDbEntity
  8
GRAU_10_
 62
     7
100
AcDb2dPolyline
 66
     1
 10
0.0
 20
0.0
 30
0.0
  0
VERTEX
  5
4C0
330
4BF
100
AcDbEntity
  8
GRAU_10_
 62
     7
100
AcDbVertex
100
AcDb2dVertex
 10
19.88509114086206
 20
203.2778591071666
 30
0.0
  0
VERTEX
  5
4C1
330
4BF
100
AcDbEntity
  8
GRAU_10_
 62
     7
100
AcDbVertex
100
AcDb2dVertex
 10
18.52651773625379
 20
192.1217786520564
 30
0.0
  0
SEQEND
  5
4C2
330
4BF
100
AcDbEntity
  8
GRAU_10_
  0
POLYLINE
  5
4C3
330
1F
100
AcDbEntity
  8
GRAU_10_
 62
     7
100
AcDb2dPolyline
 66
     1
 10
0.0
 20
0.0
 30
0.0
  0
VERTEX
  5
4C4
330
4C3
100
AcDbEntity
  8
GRAU_10_
 62
     7
100
AcDbVertex
100
AcDb2dVertex
 10
25.90694579430452
 20
203.5782714334804
 30
0.0
  0
VERTEX
  5
4C5
330
4C3
100
AcDbEntity
  8
GRAU_10_
 62
     7
100
AcDbVertex
100
AcDb2dVertex
 10
24.54837238969624
 20
192.4216742140474
 30
0.0
  0
SEQEND
  5
4C6
330
4C3
100
AcDbEntity
  8
GRAU_10_
  0
POLYLINE
  5
4C7
330
1F
100
AcDbEntity
  8
GRAU_10_
 62
     7
100
AcDb2dPolyline
 66
     1
 10
0.0
 20
0.0
 30
0.0
  0
VERTEX
  5
4C8
330
4C7
100
AcDbEntity
  8
GRAU_10_
 62
     7
100
AcDbVertex
100
AcDb2dVertex
 10
24.37198350085145
 20
191.6782226083305
 30
0.0
  0
VERTEX
  5
4C9
330
4C7
100
AcDbEntity
  8
GRAU_10_
 62
     7
100
AcDbVertex
100
AcDb2dVertex
 10
24.3974772074423
 20
191.6990654360162
 30
0.0
  0
SEQEND
  5
4CA
330
4C7
100
AcDbEntity
  8
GRAU_10_
  0
POLYLINE
  5
4CB
330
1F
100
AcDbEntity
  8
GRAU_10_
 62
     7
100
AcDb2dPolyline
 66
     1
 10
0.0
 20
0.0
 30
0.0
  0
VERTEX
  5
4CC
330
4CB
100
AcDbEntity
  8
GRAU_10_
 62
     7
100
AcDbVertex
100
AcDb2dVertex
 10
18.50360785127688
 20
191.2580932139042
 30
0.0
  0
VERTEX
  5
4CD
330
4CB
100
AcDbEntity
  8
GRAU_10_
 62
     7
100
AcDbVertex
100
AcDb2dVertex
 10
18.99815130818449
 20
191.2014213931719
 30
0.0
  0
SEQEND
  5
4CE
330
4CB
100
AcDbEntity
  8
GRAU_10_
  0
POLYLINE
  5
4CF
330
1F
100
AcDbEntity
  8
GRAU_10_
 62
     7
100
AcDb2dPolyline
 66
     1
 10
0.0
 20
0.0
 30
0.0
  0
VERTEX
  5
4D0
330
4CF
100
AcDbEntity
  8
GRAU_10_
 62
     7
100
AcDbVertex
100
AcDb2dVertex
 10
21.21386446952292
 20
204.9776692195889
 30
0.0
  0
VERTEX
  5
4D1
330
4CF
100
AcDbEntity
  8
GRAU_10_
 62
     7
100
AcDbVertex
100
AcDb2dVertex
 10
21.24642062185853
 20
204.8856851701327
 30
0.0
  0
VERTEX
  5
4D2
330
4CF
100
AcDbEntity
  8
GRAU_10_
 62
     7
100
AcDbVertex
100
AcDb2dVertex
 10
21.2410807238564
 20
204.5635687422619
 30
0.0
  0
VERTEX
  5
4D3
330
4CF
100
AcDbEntity
  8
GRAU_10_
 62
     7
100
AcDbVertex
100
AcDb2dVertex
 10
21.19870604938782
 20
204.1169121125993
 30
0.0
  0
SEQEND
  5
4D4
330
4CF
100
AcDbEntity
  8
GRAU_10_
  0
POLYLINE
  5
4D5
330
1F
100
AcDbEntity
  8
GRAU_10_
 62
     7
100
AcDb2dPolyline
 66
     1
 10
0.0
 20
0.0
 30
0.0
  0
VERTEX
  5
4D6
330
4D5
100
AcDbEntity
  8
GRAU_10_
 62
     7
100
AcDbVertex
100
AcDb2dVertex
 10
25.92985567928143
 20
204.4417846168583
 30
0.0
  0
VERTEX
  5
4D7
330
4D5
100
AcDbEntity
  8
GRAU_10_
 62
     7
100
AcDbVertex
100
AcDb2dVertex
 10
25.95603840496932
 20
204.3206895105518
 30
0.0
  0
VERTEX
  5
4D8
330
4D5
100
AcDbEntity
  8
GRAU_10_
 62
     7
100
AcDbVertex
100
AcDb2dVertex
 10
25.9474256662562
 20
204.0015014138434
 30
0.0
  0
VERTEX
  5
4D9
330
4D5
100
AcDbEntity
  8
GRAU_10_
 62
     7
100
AcDbVertex
100
AcDb2dVertex
 10
25.90694579430452
 20
203.5782714334804
 30
0.0
  0
SEQEND
  5
4DA
330
4D5
100
AcDbEntity
  8
GRAU_10_
  0
POLYLINE
  5
4DB
330
1F
100
AcDbEntity
  8
GRAU_10_
 62
     7
100
AcDb2dPolyline
 66
     1
 10
0.0
 20
0.0
 30
0.0
  0
VERTEX
  5
4DC
330
4DB
100
AcDbEntity
  8
GRAU_10_
 62
     7
100
AcDbVertex
100
AcDb2dVertex
 10
20.10661078056362
 20
197.8706094882928
 30
0.0
  0
VERTEX
  5
4DD
330
4DB
100
AcDbEntity
  8
GRAU_10_
 62
     7
100
AcDbVertex
100
AcDb2dVertex
 10
19.99895154664957
 20
197.0789265457824
 30
0.0
  0
VERTEX
  5
4DE
330
4DB
100
AcDbEntity
  8
GRAU_10_
 62
     7
100
AcDbVertex
100
AcDb2dVertex
 10
19.8807847715055
 20
196.3716484426606
 30
0.0
  0
VERTEX
  5
4DF
330
4DB
100
AcDbEntity
  8
GRAU_10_
 62
     7
100
AcDbVertex
100
AcDb2dVertex
 10
19.76055093907028
 20
195.8054469996598
 30
0.0
  0
VERTEX
  5
4E0
330
4DB
100
AcDbEntity
  8
GRAU_10_
 62
     7
100
AcDbVertex
100
AcDb2dVertex
 10
19.64875759057392
 20
195.4271755153793
 30
0.0
  0
VERTEX
  5
4E1
330
4DB
100
AcDbEntity
  8
GRAU_10_
 62
     7
100
AcDbVertex
100
AcDb2dVertex
 10
19.55453422905234
 20
195.267495339638
 30
0.0
  0
VERTEX
  5
4E2
330
4DB
100
AcDbEntity
  8
GRAU_10_
 62
     7
100
AcDbVertex
100
AcDb2dVertex
 10
19.48494330025029
 20
195.3379475423114
 30
0.0
  0
VERTEX
  5
4E3
330
4DB
100
AcDbEntity
  8
GRAU_10_
 62
     7
100
AcDbVertex
100
AcDb2dVertex
 10
19.44584146649271
 20
195.6338812444943
 30
0.0
  0
VERTEX
  5
4E4
330
4DB
100
AcDbEntity
  8
GRAU_10_
 62
     7
100
AcDbVertex
100
AcDb2dVertex
 10
19.44084607803909
 20
196.1316975421129
 30
0.0
  0
VERTEX
  5
4E5
330
4DB
100
AcDbEntity
  8
GRAU_10_
 62
     7
100
AcDbVertex
100
AcDb2dVertex
 10
19.46978488011519
 20
196.7900552893442
 30
0.0
  0
VERTEX
  5
4E6
330
4DB
100
AcDbEntity
  8
GRAU_10_
 62
     7
100
AcDbVertex
100
AcDb2dVertex
 10
19.53076307020412
 20
197.5559000157152
 30
0.0
  0
VERTEX
  5
4E7
330
4DB
100
AcDbEntity
  8
GRAU_10_
 62
     7
100
AcDbVertex
100
AcDb2dVertex
 10
19.61861300507799
 20
198.3675645120401
 30
0.0
  0
VERTEX
  5
4E8
330
4DB
100
AcDbEntity
  8
GRAU_10_
 62
     7
100
AcDbVertex
100
AcDb2dVertex
 10
19.72592772944352
 20
199.159591964099
 30
0.0
  0
VERTEX
  5
4E9
330
4DB
100
AcDbEntity
  8
GRAU_10_
 62
     7
100
AcDbVertex
100
AcDb2dVertex
 10
19.84443901413611
 20
199.8668700672208
 30
0.0
  0
VERTEX
  5
4EA
330
4DB
100
AcDbEntity
  8
GRAU_10_
 62
     7
100
AcDbVertex
100
AcDb2dVertex
 10
19.96467284657133
 20
200.4325547458988
 30
0.0
  0
VERTEX
  5
4EB
330
4DB
100
AcDbEntity
  8
GRAU_10_
 62
     7
100
AcDbVertex
100
AcDb2dVertex
 10
20.07663844984195
 20
200.811342994502
 30
0.0
  0
VERTEX
  5
4EC
330
4DB
100
AcDbEntity
  8
GRAU_10_
 62
     7
100
AcDbVertex
100
AcDb2dVertex
 10
20.17068955658927
 20
200.9711954250176
 30
0.0
  0
VERTEX
  5
4ED
330
4DB
100
AcDbEntity
  8
GRAU_10_
 62
     7
100
AcDbVertex
100
AcDb2dVertex
 10
20.24062499493984
 20
200.9002264580215
 30
0.0
  0
VERTEX
  5
4EE
330
4DB
100
AcDbEntity
  8
GRAU_10_
 62
     7
100
AcDbVertex
100
AcDb2dVertex
 10
20.2793823191489
 20
200.6046372653871
 30
0.0
  0
VERTEX
  5
4EF
330
4DB
100
AcDbEntity
  8
GRAU_10_
 62
     7
100
AcDbVertex
100
AcDb2dVertex
 10
20.28472221715104
 20
200.1068209677684
 30
0.0
  0
VERTEX
  5
4F0
330
4DB
100
AcDbEntity
  8
GRAU_10_
 62
     7
100
AcDbVertex
100
AcDb2dVertex
 10
20.2550943959779
 20
199.4482909657629
 30
0.0
  0
VERTEX
  5
4F1
330
4DB
100
AcDbEntity
  8
GRAU_10_
 62
     7
100
AcDbVertex
100
AcDb2dVertex
 10
20.19480522498602
 20
198.6821017298434
 30
0.0
  0
VERTEX
  5
4F2
330
4DB
100
AcDbEntity
  8
GRAU_10_
 62
     7
100
AcDbVertex
100
AcDb2dVertex
 10
20.10661078056362
 20
197.8706094882928
 30
0.0
  0
SEQEND
  5
4F3
330
4DB
100
AcDbEntity
  8
GRAU_10_
  0
POLYLINE
  5
4F4
330
1F
100
AcDbEntity
  8
GRAU_10_
 62
     7
100
AcDb2dPolyline
 66
     1
 10
0.0
 20
0.0
 30
0.0
  0
VERTEX
  5
4F5
330
4F4
100
AcDbEntity
  8
GRAU_10_
 62
     7
100
AcDbVertex
100
AcDb2dVertex
 10
19.68923746252561
 20
192.2380506246836
 30
0.0
  0
VERTEX
  5
4F6
330
4F4
100
AcDbEntity
  8
GRAU_10_
 62
     7
100
AcDbVertex
100
AcDb2dVertex
 10
19.76296250590995
 20
192.4674939840012
 30
0.0
  0
VERTEX
  5
4F7
330
4F4
100
AcDbEntity
  8
GRAU_10_
 62
     7
100
AcDbVertex
100
AcDb2dVertex
 10
19.84030489955381
 20
192.9606594027147
 30
0.0
  0
SEQEND
  5
4F8
330
4F4
100
AcDbEntity
  8
GRAU_10_
  0
POLYLINE
  5
4F9
330
1F
100
AcDbEntity
  8
GRAU_10_
 62
     7
100
AcDb2dPolyline
 66
     1
 10
0.0
 20
0.0
 30
0.0
  0
VERTEX
  5
4FA
330
4F9
100
AcDbEntity
  8
GRAU_10_
 62
     7
100
AcDbVertex
100
AcDb2dVertex
 10
18.52651773625379
 20
192.1217786520564
 30
0.0
  0
VERTEX
  5
4FB
330
4F9
100
AcDbEntity
  8
GRAU_10_
 62
     7
100
AcDbVertex
100
AcDb2dVertex
 10
18.48483208088226
 20
191.6751220223937
 30
0.0
  0
VERTEX
  5
4FC
330
4F9
100
AcDbEntity
  8
GRAU_10_
 62
     7
100
AcDbVertex
100
AcDb2dVertex
 10
18.4791476733316
 20
191.3530055945229
 30
0.0
  0
VERTEX
  5
4FD
330
4F9
100
AcDbEntity
  8
GRAU_10_
 62
     7
100
AcDbVertex
100
AcDb2dVertex
 10
18.51135931611869
 20
191.2610215450667
 30
0.0
  0
SEQEND
  5
4FE
330
4F9
100
AcDbEntity
  8
GRAU_10_
  0
POLYLINE
  5
4FF
330
1F
100
AcDbEntity
  8
GRAU_10_
 62
     7
100
AcDb2dPolyline
 66
     1
 10
0.0
 20
0.0
 30
0.0
  0
VERTEX
  5
500
330
4FF
100
AcDbEntity
  8
GRAU_10_
 62
     7
100
AcDbVertex
100
AcDb2dVertex
 10
20.035986323116
 20
204.0004678851978
 30
0.0
  0
VERTEX
  5
501
330
4FF
100
AcDbEntity
  8
GRAU_10_
 62
     7
100
AcDbVertex
100
AcDb2dVertex
 10
19.96295029882871
 20
203.7711967806544
 30
0.0
  0
VERTEX
  5
502
330
4FF
100
AcDbEntity
  8
GRAU_10_
 62
     7
100
AcDbVertex
100
AcDb2dVertex
 10
19.88509114086206
 20
203.2778591071666
 30
0.0
  0
SEQEND
  5
503
330
4FF
100
AcDbEntity
  8
GRAU_10_
  0
POLYLINE
  5
504
330
1F
100
AcDbEntity
  8
GRAU_10_
 62
     7
100
AcDb2dPolyline
 66
     1
 10
0.0
 20
0.0
 30
0.0
  0
VERTEX
  5
505
330
504
100
AcDbEntity
  8
GRAU_10_
 62
     7
100
AcDbVertex
100
AcDb2dVertex
 10
24.3974772074423
 20
191.6990654360162
 30
0.0
  0
VERTEX
  5
506
330
504
100
AcDbEntity
  8
GRAU_10_
 62
     7
100
AcDbVertex
100
AcDb2dVertex
 10
24.47051323172959
 20
191.9290255596567
 30
0.0
  0
VERTEX
  5
507
330
504
100
AcDbEntity
  8
GRAU_10_
 62
     7
100
AcDbVertex
100
AcDb2dVertex
 10
24.54837238969624
 20
192.4216742140474
 30
0.0
  0
SEQEND
  5
508
330
504
100
AcDbEntity
  8
GRAU_10_
  0
POLYLINE
  5
509
330
1F
100
AcDbEntity
  8
GRAU_10_
 62
     7
100
AcDb2dPolyline
 66
     1
 10
0.0
 20
0.0
 30
0.0
  0
VERTEX
  5
50A
330
509
100
AcDbEntity
  8
GRAU_10_
 62
     7
100
AcDbVertex
100
AcDb2dVertex
 10
19.94107394249737
 20
198.3083088696938
 30
0.0
  0
VERTEX
  5
50B
330
509
100
AcDbEntity
  8
GRAU_10_
 62
     7
100
AcDbVertex
100
AcDb2dVertex
 10
20.04873317641143
 20
199.0948241689763
 30
0.0
  0
VERTEX
  5
50C
330
509
100
AcDbEntity
  8
GRAU_10_
 62
     7
100
AcDbVertex
100
AcDb2dVertex
 10
20.1682779897496
 20
199.7802259157667
 30
0.0
  0
VERTEX
  5
50D
330
509
100
AcDbEntity
  8
GRAU_10_
 62
     7
100
AcDbVertex
100
AcDb2dVertex
 10
20.28644476489367
 20
200.2945786717146
 30
0.0
  0
SEQEND
  5
50E
330
509
100
AcDbEntity
  8
GRAU_10_
  0
POLYLINE
  5
50F
330
1F
100
AcDbEntity
  8
GRAU_10_
 62
     7
100
AcDb2dPolyline
 66
     1
 10
0.0
 20
0.0
 30
0.0
  0
VERTEX
  5
510
330
50F
100
AcDbEntity
  8
GRAU_10_
 62
     7
100
AcDbVertex
100
AcDb2dVertex
 10
19.78414984314424
 20
195.9046657496349
 30
0.0
  0
VERTEX
  5
511
330
50F
100
AcDbEntity
  8
GRAU_10_
 62
     7
100
AcDbVertex
100
AcDb2dVertex
 10
19.78914523159785
 20
196.5342569495644
 30
0.0
  0
VERTEX
  5
512
330
50F
100
AcDbEntity
  8
GRAU_10_
 62
     7
100
AcDbVertex
100
AcDb2dVertex
 10
19.84374999503906
 20
197.3727931906742
 30
0.0
  0
VERTEX
  5
513
330
50F
100
AcDbEntity
  8
GRAU_10_
 62
     7
100
AcDbVertex
100
AcDb2dVertex
 10
19.94107394249737
 20
198.3083088696938
 30
0.0
  0
SEQEND
  5
514
330
50F
100
AcDbEntity
  8
GRAU_10_
  0
POLYLINE
  5
515
330
1F
100
AcDbEntity
  8
GRAU_10_
 62
     7
100
AcDb2dPolyline
 66
     1
 10
0.0
 20
0.0
 30
0.0
  0
VERTEX
  5
516
330
515
100
AcDbEntity
  8
GRAU_10_
 62
     7
100
AcDbVertex
100
AcDb2dVertex
 10
21.20731878810095
 20
87.33024221992092
 30
0.0
  0
VERTEX
  5
517
330
515
100
AcDbEntity
  8
GRAU_10_
 62
     7
100
AcDbVertex
100
AcDb2dVertex
 10
25.91538627824338
 20
87.78051619984306
 30
0.0
  0
SEQEND
  5
518
330
515
100
AcDbEntity
  8
GRAU_10_
  0
POLYLINE
  5
519
330
1F
100
AcDbEntity
  8
GRAU_10_
 62
     7
100
AcDb2dPolyline
 66
     1
 10
0.0
 20
0.0
 30
0.0
  0
VERTEX
  5
51A
330
519
100
AcDbEntity
  8
GRAU_10_
 62
     7
100
AcDbVertex
100
AcDb2dVertex
 10
20.035986323116
 20
99.37205672428894
 30
0.0
  0
VERTEX
  5
51B
330
519
100
AcDbEntity
  8
GRAU_10_
 62
     7
100
AcDbVertex
100
AcDb2dVertex
 10
21.21386446952292
 20
88.20512421840012
 30
0.0
  0
SEQEND
  5
51C
330
519
100
AcDbEntity
  8
GRAU_10_
  0
POLYLINE
  5
51D
330
1F
100
AcDbEntity
  8
GRAU_10_
 62
     7
100
AcDb2dPolyline
 66
     1
 10
0.0
 20
0.0
 30
0.0
  0
VERTEX
  5
51E
330
51D
100
AcDbEntity
  8
GRAU_10_
 62
     7
100
AcDbVertex
100
AcDb2dVertex
 10
21.19870604938782
 20
87.33282604153486
 30
0.0
  0
VERTEX
  5
51F
330
51D
100
AcDbEntity
  8
GRAU_10_
 62
     7
100
AcDbVertex
100
AcDb2dVertex
 10
19.84030489955381
 20
88.18927677916797
 30
0.0
  0
SEQEND
  5
520
330
51D
100
AcDbEntity
  8
GRAU_10_
  0
POLYLINE
  5
521
330
1F
100
AcDbEntity
  8
GRAU_10_
 62
     7
100
AcDb2dPolyline
 66
     1
 10
0.0
 20
0.0
 30
0.0
  0
VERTEX
  5
522
330
521
100
AcDbEntity
  8
GRAU_10_
 62
     7
100
AcDbVertex
100
AcDb2dVertex
 10
18.51135931611869
 20
100.0715833625689
 30
0.0
  0
VERTEX
  5
523
330
521
100
AcDbEntity
  8
GRAU_10_
 62
     7
100
AcDbVertex
100
AcDb2dVertex
 10
19.68923746252561
 20
88.90482311145435
 30
0.0
  0
SEQEND
  5
524
330
521
100
AcDbEntity
  8
GRAU_10_
  0
POLYLINE
  5
525
330
1F
100
AcDbEntity
  8
GRAU_10_
 62
     7
100
AcDb2dPolyline
 66
     1
 10
0.0
 20
0.0
 30
0.0
  0
VERTEX
  5
526
330
525
100
AcDbEntity
  8
GRAU_10_
 62
     7
100
AcDbVertex
100
AcDb2dVertex
 10
19.88509114086206
 20
100.0877753113496
 30
0.0
  0
VERTEX
  5
527
330
525
100
AcDbEntity
  8
GRAU_10_
 62
     7
100
AcDbVertex
100
AcDb2dVertex
 10
18.52651773625379
 20
100.944398303757
 30
0.0
  0
SEQEND
  5
528
330
525
100
AcDbEntity
  8
GRAU_10_
  0
POLYLINE
  5
529
330
1F
100
AcDbEntity
  8
GRAU_10_
 62
     7
100
AcDb2dPolyline
 66
     1
 10
0.0
 20
0.0
 30
0.0
  0
VERTEX
  5
52A
330
529
100
AcDbEntity
  8
GRAU_10_
 62
     7
100
AcDbVertex
100
AcDb2dVertex
 10
24.7442260680327
 20
99.82146943033977
 30
0.0
  0
VERTEX
  5
52B
330
529
100
AcDbEntity
  8
GRAU_10_
 62
     7
100
AcDbVertex
100
AcDb2dVertex
 10
25.92210421443961
 20
88.65470917922522
 30
0.0
  0
SEQEND
  5
52C
330
529
100
AcDbEntity
  8
GRAU_10_
  0
POLYLINE
  5
52D
330
1F
100
AcDbEntity
  8
GRAU_10_
 62
     7
100
AcDb2dPolyline
 66
     1
 10
0.0
 20
0.0
 30
0.0
  0
VERTEX
  5
52E
330
52D
100
AcDbEntity
  8
GRAU_10_
 62
     7
100
AcDbVertex
100
AcDb2dVertex
 10
24.59315863100449
 20
100.5371880174004
 30
0.0
  0
VERTEX
  5
52F
330
52D
100
AcDbEntity
  8
GRAU_10_
 62
     7
100
AcDbVertex
100
AcDb2dVertex
 10
24.56353080983134
 20
100.555963787795
 30
0.0
  0
SEQEND
  5
530
330
52D
100
AcDbEntity
  8
GRAU_10_
  0
POLYLINE
  5
531
330
1F
100
AcDbEntity
  8
GRAU_10_
 62
     7
100
AcDb2dPolyline
 66
     1
 10
0.0
 20
0.0
 30
0.0
  0
VERTEX
  5
532
330
531
100
AcDbEntity
  8
GRAU_10_
 62
     7
100
AcDbVertex
100
AcDb2dVertex
 10
19.01262070922254
 20
100.9933186596475
 30
0.0
  0
VERTEX
  5
533
330
531
100
AcDbEntity
  8
GRAU_10_
 62
     7
100
AcDbVertex
100
AcDb2dVertex
 10
18.51807725231492
 20
100.9461208514996
 30
0.0
  0
SEQEND
  5
534
330
531
100
AcDbEntity
  8
GRAU_10_
  0
POLYLINE
  5
535
330
1F
100
AcDbEntity
  8
GRAU_10_
 62
     7
100
AcDb2dPolyline
 66
     1
 10
0.0
 20
0.0
 30
0.0
  0
VERTEX
  5
536
330
535
100
AcDbEntity
  8
GRAU_10_
 62
     7
100
AcDbVertex
100
AcDb2dVertex
 10
21.21386446952292
 20
88.20512421840012
 30
0.0
  0
VERTEX
  5
537
330
535
100
AcDbEntity
  8
GRAU_10_
 62
     7
100
AcDbVertex
100
AcDb2dVertex
 10
21.24642062185853
 20
87.75691729576911
 30
0.0
  0
VERTEX
  5
538
330
535
100
AcDbEntity
  8
GRAU_10_
 62
     7
100
AcDbVertex
100
AcDb2dVertex
 10
21.2410807238564
 20
87.43014998899316
 30
0.0
  0
VERTEX
  5
539
330
535
100
AcDbEntity
  8
GRAU_10_
 62
     7
100
AcDbVertex
100
AcDb2dVertex
 10
21.19870604938782
 20
87.33282604153486
 30
0.0
  0
SEQEND
  5
53A
330
535
100
AcDbEntity
  8
GRAU_10_
  0
POLYLINE
  5
53B
330
1F
100
AcDbEntity
  8
GRAU_10_
 62
     7
100
AcDb2dPolyline
 66
     1
 10
0.0
 20
0.0
 30
0.0
  0
VERTEX
  5
53C
330
53B
100
AcDbEntity
  8
GRAU_10_
 62
     7
100
AcDbVertex
100
AcDb2dVertex
 10
25.92210421443961
 20
88.65470917922522
 30
0.0
  0
VERTEX
  5
53D
330
53B
100
AcDbEntity
  8
GRAU_10_
 62
     7
100
AcDbVertex
100
AcDb2dVertex
 10
25.95345458335539
 20
88.22665606518292
 30
0.0
  0
VERTEX
  5
53E
330
53B
100
AcDbEntity
  8
GRAU_10_
 62
     7
100
AcDbVertex
100
AcDb2dVertex
 10
25.95104301651571
 20
87.90316159911796
 30
0.0
  0
VERTEX
  5
53F
330
53B
100
AcDbEntity
  8
GRAU_10_
 62
     7
100
AcDbVertex
100
AcDb2dVertex
 10
25.91538627824338
 20
87.78051619984306
 30
0.0
  0
SEQEND
  5
540
330
53B
100
AcDbEntity
  8
GRAU_10_
  0
POLYLINE
  5
541
330
1F
100
AcDbEntity
  8
GRAU_10_
 62
     7
100
AcDb2dPolyline
 66
     1
 10
0.0
 20
0.0
 30
0.0
  0
VERTEX
  5
542
330
541
100
AcDbEntity
  8
GRAU_10_
 62
     7
100
AcDbVertex
100
AcDb2dVertex
 10
20.10661078056362
 20
91.28469507266495
 30
0.0
  0
VERTEX
  5
543
330
541
100
AcDbEntity
  8
GRAU_10_
 62
     7
100
AcDbVertex
100
AcDb2dVertex
 10
19.99895154664957
 20
91.46177298060678
 30
0.0
  0
VERTEX
  5
544
330
541
100
AcDbEntity
  8
GRAU_10_
 62
     7
100
AcDbVertex
100
AcDb2dVertex
 10
19.8807847715055
 20
91.85606415889363
 30
0.0
  0
VERTEX
  5
545
330
541
100
AcDbEntity
  8
GRAU_10_
 62
     7
100
AcDbVertex
100
AcDb2dVertex
 10
19.76055093907028
 20
92.43501245518986
 30
0.0
  0
VERTEX
  5
546
330
541
100
AcDbEntity
  8
GRAU_10_
 62
     7
100
AcDbVertex
100
AcDb2dVertex
 10
19.64875759057392
 20
93.15193682567035
 30
0.0
  0
VERTEX
  5
547
330
541
100
AcDbEntity
  8
GRAU_10_
 62
     7
100
AcDbVertex
100
AcDb2dVertex
 10
19.55453422905234
 20
93.94878741140865
 30
0.0
  0
VERTEX
  5
548
330
541
100
AcDbEntity
  8
GRAU_10_
 62
     7
100
AcDbVertex
100
AcDb2dVertex
 10
19.48494330025029
 20
94.7604519077335
 30
0.0
  0
VERTEX
  5
549
330
541
100
AcDbEntity
  8
GRAU_10_
 62
     7
100
AcDbVertex
100
AcDb2dVertex
 10
19.44584146649271
 20
95.52285153861929
 30
0.0
  0
VERTEX
  5
54A
330
541
100
AcDbEntity
  8
GRAU_10_
 62
     7
100
AcDbVertex
100
AcDb2dVertex
 10
19.44084607803909
 20
96.17225203758889
 30
0.0
  0
VERTEX
  5
54B
330
541
100
AcDbEntity
  8
GRAU_10_
 62
     7
100
AcDbVertex
100
AcDb2dVertex
 10
19.46978488011519
 20
96.65732148191206
 30
0.0
  0
VERTEX
  5
54C
330
541
100
AcDbEntity
  8
GRAU_10_
 62
     7
100
AcDbVertex
100
AcDb2dVertex
 10
19.53076307020412
 20
96.93826901873419
 30
0.0
  0
VERTEX
  5
54D
330
541
100
AcDbEntity
  8
GRAU_10_
 62
     7
100
AcDbVertex
100
AcDb2dVertex
 10
19.61861300507799
 20
96.99252927262687
 30
0.0
  0
VERTEX
  5
54E
330
541
100
AcDbEntity
  8
GRAU_10_
 62
     7
100
AcDbVertex
100
AcDb2dVertex
 10
19.72592772944352
 20
96.81545136468503
 30
0.0
  0
VERTEX
  5
54F
330
541
100
AcDbEntity
  8
GRAU_10_
 62
     7
100
AcDbVertex
100
AcDb2dVertex
 10
19.84443901413611
 20
96.42098793162393
 30
0.0
  0
VERTEX
  5
550
330
541
100
AcDbEntity
  8
GRAU_10_
 62
     7
100
AcDbVertex
100
AcDb2dVertex
 10
19.96467284657133
 20
95.84255639965048
 30
0.0
  0
VERTEX
  5
551
330
541
100
AcDbEntity
  8
GRAU_10_
 62
     7
100
AcDbVertex
100
AcDb2dVertex
 10
20.07663844984195
 20
95.12528751962147
 30
0.0
  0
VERTEX
  5
552
330
541
100
AcDbEntity
  8
GRAU_10_
 62
     7
100
AcDbVertex
100
AcDb2dVertex
 10
20.17068955658927
 20
94.3287814434317
 30
0.0
  0
VERTEX
  5
553
330
541
100
AcDbEntity
  8
GRAU_10_
 62
     7
100
AcDbVertex
100
AcDb2dVertex
 10
20.24062499493984
 20
93.51625567323552
 30
0.0
  0
VERTEX
  5
554
330
541
100
AcDbEntity
  8
GRAU_10_
 62
     7
100
AcDbVertex
100
AcDb2dVertex
 10
20.2793823191489
 20
92.75420055189826
 30
0.0
  0
VERTEX
  5
555
330
541
100
AcDbEntity
  8
GRAU_10_
 62
     7
100
AcDbVertex
100
AcDb2dVertex
 10
20.28472221715104
 20
92.10445554338014
 30
0.0
  0
VERTEX
  5
556
330
541
100
AcDbEntity
  8
GRAU_10_
 62
     7
100
AcDbVertex
100
AcDb2dVertex
 10
20.2550943959779
 20
91.61938609905697
 30
0.0
  0
VERTEX
  5
557
330
541
100
AcDbEntity
  8
GRAU_10_
 62
     7
100
AcDbVertex
100
AcDb2dVertex
 10
20.19480522498602
 20
91.3386108170091
 30
0.0
  0
VERTEX
  5
558
330
541
100
AcDbEntity
  8
GRAU_10_
 62
     7
100
AcDbVertex
100
AcDb2dVertex
 10
20.10661078056362
 20
91.28469507266495
 30
0.0
  0
SEQEND
  5
559
330
541
100
AcDbEntity
  8
GRAU_10_
  0
POLYLINE
  5
55A
330
1F
100
AcDbEntity
  8
GRAU_10_
 62
     7
100
AcDb2dPolyline
 66
     1
 10
0.0
 20
0.0
 30
0.0
  0
VERTEX
  5
55B
330
55A
100
AcDbEntity
  8
GRAU_10_
 62
     7
100
AcDbVertex
100
AcDb2dVertex
 10
19.68923746252561
 20
88.90482311145435
 30
0.0
  0
VERTEX
  5
55C
330
55A
100
AcDbEntity
  8
GRAU_10_
 62
     7
100
AcDbVertex
100
AcDb2dVertex
 10
19.76296250590995
 20
88.41406925958051
 30
0.0
  0
VERTEX
  5
55D
330
55A
100
AcDbEntity
  8
GRAU_10_
 62
     7
100
AcDbVertex
100
AcDb2dVertex
 10
19.84030489955381
 20
88.18927677916797
 30
0.0
  0
SEQEND
  5
55E
330
55A
100
AcDbEntity
  8
GRAU_10_
  0
POLYLINE
  5
55F
330
1F
100
AcDbEntity
  8
GRAU_10_
 62
     7
100
AcDb2dPolyline
 66
     1
 10
0.0
 20
0.0
 30
0.0
  0
VERTEX
  5
560
330
55F
100
AcDbEntity
  8
GRAU_10_
 62
     7
100
AcDbVertex
100
AcDb2dVertex
 10
18.52651773625379
 20
100.944398303757
 30
0.0
  0
VERTEX
  5
561
330
55F
100
AcDbEntity
  8
GRAU_10_
 62
     7
100
AcDbVertex
100
AcDb2dVertex
 10
18.48483208088226
 20
100.8465575919759
 30
0.0
  0
VERTEX
  5
562
330
55F
100
AcDbEntity
  8
GRAU_10_
 62
     7
100
AcDbVertex
100
AcDb2dVertex
 10
18.4791476733316
 20
100.5203070495227
 30
0.0
  0
VERTEX
  5
563
330
55F
100
AcDbEntity
  8
GRAU_10_
 62
     7
100
AcDbVertex
100
AcDb2dVertex
 10
18.51135931611869
 20
100.0715833625689
 30
0.0
  0
SEQEND
  5
564
330
55F
100
AcDbEntity
  8
GRAU_10_
  0
POLYLINE
  5
565
330
1F
100
AcDbEntity
  8
GRAU_10_
 62
     7
100
AcDb2dPolyline
 66
     1
 10
0.0
 20
0.0
 30
0.0
  0
VERTEX
  5
566
330
565
100
AcDbEntity
  8
GRAU_10_
 62
     7
100
AcDbVertex
100
AcDb2dVertex
 10
20.035986323116
 20
99.37205672428894
 30
0.0
  0
VERTEX
  5
567
330
565
100
AcDbEntity
  8
GRAU_10_
 62
     7
100
AcDbVertex
100
AcDb2dVertex
 10
19.96295029882871
 20
99.8631550857113
 30
0.0
  0
VERTEX
  5
568
330
565
100
AcDbEntity
  8
GRAU_10_
 62
     7
100
AcDbVertex
100
AcDb2dVertex
 10
19.88509114086206
 20
100.0877753113496
 30
0.0
  0
SEQEND
  5
569
330
565
100
AcDbEntity
  8
GRAU_10_
  0
POLYLINE
  5
56A
330
1F
100
AcDbEntity
  8
GRAU_10_
 62
     7
100
AcDb2dPolyline
 66
     1
 10
0.0
 20
0.0
 30
0.0
  0
VERTEX
  5
56B
330
56A
100
AcDbEntity
  8
GRAU_10_
 62
     7
100
AcDbVertex
100
AcDb2dVertex
 10
24.7442260680327
 20
99.82146943033977
 30
0.0
  0
VERTEX
  5
56C
330
56A
100
AcDbEntity
  8
GRAU_10_
 62
     7
100
AcDbVertex
100
AcDb2dVertex
 10
24.6711900437454
 20
100.3125677917621
 30
0.0
  0
VERTEX
  5
56D
330
56A
100
AcDbEntity
  8
GRAU_10_
 62
     7
100
AcDbVertex
100
AcDb2dVertex
 10
24.59315863100449
 20
100.5371880174004
 30
0.0
  0
SEQEND
  5
56E
330
56A
100
AcDbEntity
  8
GRAU_10_
  0
POLYLINE
  5
56F
330
1F
100
AcDbEntity
  8
GRAU_10_
 62
     7
100
AcDb2dPolyline
 66
     1
 10
0.0
 20
0.0
 30
0.0
  0
VERTEX
  5
570
330
56F
100
AcDbEntity
  8
GRAU_10_
 62
     7
100
AcDbVertex
100
AcDb2dVertex
 10
20.27163085430709
 20
91.7964640069988
 30
0.0
  0
VERTEX
  5
571
330
56F
100
AcDbEntity
  8
GRAU_10_
 62
     7
100
AcDbVertex
100
AcDb2dVertex
 10
20.16224907265041
 20
92.17818058676448
 30
0.0
  0
VERTEX
  5
572
330
56F
100
AcDbEntity
  8
GRAU_10_
 62
     7
100
AcDbVertex
100
AcDb2dVertex
 10
20.05286729099373
 20
92.72887910008167
 30
0.0
  0
VERTEX
  5
573
330
56F
100
AcDbEntity
  8
GRAU_10_
 62
     7
100
AcDbVertex
100
AcDb2dVertex
 10
19.95209824805017
 20
93.40136173880244
 30
0.0
  0
VERTEX
  5
574
330
56F
100
AcDbEntity
  8
GRAU_10_
 62
     7
100
AcDbVertex
100
AcDb2dVertex
 10
19.86924370162991
 20
94.13895668219443
 30
0.0
  0
VERTEX
  5
575
330
56F
100
AcDbEntity
  8
GRAU_10_
 62
     7
100
AcDbVertex
100
AcDb2dVertex
 10
19.81136609747772
 20
94.87913544720035
 30
0.0
  0
VERTEX
  5
576
330
56F
100
AcDbEntity
  8
GRAU_10_
 62
     7
100
AcDbVertex
100
AcDb2dVertex
 10
19.78242729540162
 20
95.55850827689163
 30
0.0
  0
VERTEX
  5
577
330
56F
100
AcDbEntity
  8
GRAU_10_
 62
     7
100
AcDbVertex
100
AcDb2dVertex
 10
19.78587239088687
 20
96.11971433143883
 30
0.0
  0
VERTEX
  5
578
330
56F
100
AcDbEntity
  8
GRAU_10_
 62
     7
100
AcDbVertex
100
AcDb2dVertex
 10
19.82084011006215
 20
96.51521129314551
 30
0.0
  0
SEQEND
  5
579
330
56F
100
AcDbEntity
  8
GRAU_10_
  0
POLYLINE
  5
57B
330
1F
100
AcDbEntity
  8
STANDARDEBENE
  6
AI-LINETYPE-2
 62
     7
100
AcDb2dPolyline
 66
     1
 10
0.0
 20
0.0
 30
0.0
  0
VERTEX
  5
57C
330
57B
100
AcDbEntity
  8
STANDARDEBENE
  6
AI-LINETYPE-2
 62
     7
100
AcDbVertex
100
AcDb2dVertex
 10
103.1912895792369
 20
189.955330356157
 30
0.0
  0
VERTEX
  5
57D
330
57B
100
AcDbEntity
  8
STANDARDEBENE
  6
AI-LINETYPE-2
 62
     7
100
AcDbVertex
100
AcDb2dVertex
 10
103.1912895792369
 20
189.3806884292173
 30
0.0
  0
VERTEX
  5
57E
330
57B
100
AcDbEntity
  8
STANDARDEBENE
  6
AI-LINETYPE-2
 62
     7
100
AcDbVertex
100
AcDb2dVertex
 10
103.1912895792369
 20
188.4556802914278
 30
0.0
  0
SEQEND
  5
57F
330
57B
100
AcDbEntity
  8
STANDARDEBENE
  6
AI-LINETYPE-2
  0
POLYLINE
  5
581
330
1F
100
AcDbEntity
  8
STANDARDEBENE
 62
     7
100
AcDb2dPolyline
 66
     1
 10
0.0
 20
0.0
 30
0.0
  0
VERTEX
  5
582
330
581
100
AcDbEntity
  8
STANDARDEBENE
 62
     7
100
AcDbVertex
100
AcDb2dVertex
 10
103.1912895792369
 20
187.4555690720597
 30
0.0
  0
VERTEX
  5
583
330
581
100
AcDbEntity
  8
STANDARDEBENE
 62
     7
100
AcDbVertex
100
AcDb2dVertex
 10
103.1912895792369
 20
180.0306992822493
 30
0.0
  0
VERTEX
  5
584
330
581
100
AcDbEntity
  8
STANDARDEBENE
 62
     7
100
AcDbVertex
100
AcDb2dVertex
 10
103.1912895792369
 20
178.53104921752
 30
0.0
  0
VERTEX
  5
585
330
581
100
AcDbEntity
  8
STANDARDEBENE
 62
     7
100
AcDbVertex
100
AcDb2dVertex
 10
103.1912895792369
 20
177.030882388468
 30
0.0
  0
SEQEND
  5
586
330
581
100
AcDbEntity
  8
STANDARDEBENE
  0
POLYLINE
  5
587
330
1F
100
AcDbEntity
  8
STANDARDEBENE
  6
AI-LINETYPE-3
 62
     7
100
AcDb2dPolyline
 66
     1
 10
0.0
 20
0.0
 30
0.0
  0
VERTEX
  5
588
330
587
100
AcDbEntity
  8
STANDARDEBENE
  6
AI-LINETYPE-3
 62
     7
100
AcDbVertex
100
AcDb2dVertex
 10
94.1909776240217
 20
199.9809027277826
 30
0.0
  0
VERTEX
  5
589
330
587
100
AcDbEntity
  8
STANDARDEBENE
  6
AI-LINETYPE-3
 62
     7
100
AcDbVertex
100
AcDb2dVertex
 10
94.1909776240217
 20
189.9808240627479
 30
0.0
  0
VERTEX
  5
58A
330
587
100
AcDbEntity
  8
STANDARDEBENE
  6
AI-LINETYPE-3
 62
     7
100
AcDbVertex
100
AcDb2dVertex
 10
112.1910847701293
 20
189.9808240627479
 30
0.0
  0
VERTEX
  5
58B
330
587
100
AcDbEntity
  8
STANDARDEBENE
  6
AI-LINETYPE-3
 62
     7
100
AcDbVertex
100
AcDb2dVertex
 10
112.1910847701293
 20
199.9809027277826
 30
0.0
  0
SEQEND
  5
58C
330
587
100
AcDbEntity
  8
STANDARDEBENE
  6
AI-LINETYPE-3
  0
POLYLINE
  5
58E
330
1F
100
AcDbEntity
  8
STANDARDEBENE
  6
AI-LINETYPE-4
 62
     7
100
AcDb2dPolyline
 66
     1
 10
0.0
 20
0.0
 30
0.0
  0
VERTEX
  5
58F
330
58E
100
AcDbEntity
  8
STANDARDEBENE
  6
AI-LINETYPE-4
 62
     7
100
AcDbVertex
100
AcDb2dVertex
 10
98.29133027056606
 20
189.9808240627479
 30
0.0
  0
VERTEX
  5
590
330
58E
100
AcDbEntity
  8
STANDARDEBENE
  6
AI-LINETYPE-4
 62
     7
100
AcDbVertex
100
AcDb2dVertex
 10
98.29133027056606
 20
178.4307969388992
 30
0.0
  0
SEQEND
  5
591
330
58E
100
AcDbEntity
  8
STANDARDEBENE
  6
AI-LINETYPE-4
  0
POLYLINE
  5
593
330
1F
100
AcDbEntity
  8
STANDARDEBENE
  6
AI-LINETYPE-5
 62
     7
100
AcDb2dPolyline
 66
     1
 10
0.0
 20
0.0
 30
0.0
  0
VERTEX
  5
594
330
593
100
AcDbEntity
  8
STANDARDEBENE
  6
AI-LINETYPE-5
 62
     7
100
AcDbVertex
100
AcDb2dVertex
 10
108.0910766331335
 20
189.9808240627479
 30
0.0
  0
VERTEX
  5
595
330
593
100
AcDbEntity
  8
STANDARDEBENE
  6
AI-LINETYPE-5
 62
     7
100
AcDbVertex
100
AcDb2dVertex
 10
108.0910766331335
 20
178.4307969388992
 30
0.0
  0
SEQEND
  5
596
330
593
100
AcDbEntity
  8
STANDARDEBENE
  6
AI-LINETYPE-5
  0
POLYLINE
  5
598
330
1F
100
AcDbEntity
  8
STANDARDEBENE
  6
AI-LINETYPE-6
 62
     7
100
AcDb2dPolyline
 66
     1
 10
0.0
 20
0.0
 30
0.0
  0
VERTEX
  5
599
330
598
100
AcDbEntity
  8
STANDARDEBENE
  6
AI-LINETYPE-6
 62
     7
100
AcDbVertex
100
AcDb2dVertex
 10
124.7224473429513
 20
191.4380994530085
 30
0.0
  0
VERTEX
  5
59A
330
598
100
AcDbEntity
  8
STANDARDEBENE
  6
AI-LINETYPE-6
 62
     7
100
AcDbVertex
100
AcDb2dVertex
 10
124.7887654310424
 20
191.5173366491693
 30
0.0
  0
SEQEND
  5
59B
330
598
100
AcDbEntity
  8
STANDARDEBENE
  6
AI-LINETYPE-6
  0
POLYLINE
  5
59D
330
1F
100
AcDbEntity
  8
STANDARDEBENE
 62
     7
100
AcDb2dPolyline
 66
     1
 10
0.0
 20
0.0
 30
0.0
  0
VERTEX
  5
59E
330
59D
100
AcDbEntity
  8
STANDARDEBENE
 62
     7
100
AcDbVertex
100
AcDb2dVertex
 10
24.42813855726102
 20
191.7615939190735
 30
0.0
  0
VERTEX
  5
59F
330
59D
100
AcDbEntity
  8
STANDARDEBENE
 62
     7
100
AcDbVertex
100
AcDb2dVertex
 10
19.71989881234433
 20
192.3005791077408
 30
0.0
  0
SEQEND
  5
5A0
330
59D
100
AcDbEntity
  8
STANDARDEBENE
  0
POLYLINE
  5
5A1
330
1F
100
AcDbEntity
  8
STANDARDEBENE
 62
     7
100
AcDb2dPolyline
 66
     1
 10
0.0
 20
0.0
 30
0.0
  0
VERTEX
  5
5A2
330
5A1
100
AcDbEntity
  8
STANDARDEBENE
 62
     7
100
AcDbVertex
100
AcDb2dVertex
 10
19.91747503842341
 20
100.0324815288113
 30
0.0
  0
VERTEX
  5
5A3
330
5A1
100
AcDbEntity
  8
STANDARDEBENE
 62
     7
100
AcDbVertex
100
AcDb2dVertex
 10
24.6257147833401
 20
100.4822387444107
 30
0.0
  0
SEQEND
  5
5A4
330
5A1
100
AcDbEntity
  8
STANDARDEBENE
  0
POLYLINE
  5
5A6
330
1F
100
AcDbEntity
  8
BEMAßUNG
 62
     7
100
AcDb2dPolyline
 66
     1
 10
0.0
 20
0.0
 30
0.0
  0
VERTEX
  5
5A7
330
5A6
100
AcDbEntity
  8
BEMAßUNG
 62
     7
100
AcDbVertex
100
AcDb2dVertex
 10
78.19143742619868
 20
186.980662659418
 30
0.0
  0
VERTEX
  5
5A8
330
5A6
100
AcDbEntity
  8
BEMAßUNG
 62
     7
100
AcDbVertex
100
AcDb2dVertex
 10
78.19143742619868
 20
237.2910284508769
 30
0.0
  0
SEQEND
  5
5A9
330
5A6
100
AcDbEntity
  8
BEMAßUNG
  0
POLYLINE
  5
5AA
330
1F
100
AcDbEntity
  8
BEMAßUNG
 62
     7
100
AcDb2dPolyline
 66
     1
 10
0.0
 20
0.0
 30
0.0
  0
VERTEX
  5
5AB
330
5AA
100
AcDbEntity
  8
BEMAßUNG
 62
     7
100
AcDbVertex
100
AcDb2dVertex
 10
138.1889810852444
 20
204.1169121125993
 30
0.0
  0
VERTEX
  5
5AC
330
5AA
100
AcDbEntity
  8
BEMAßUNG
 62
     7
100
AcDbVertex
100
AcDb2dVertex
 10
138.1889810852444
 20
237.2910284508769
 30
0.0
  0
SEQEND
  5
5AD
330
5AA
100
AcDbEntity
  8
BEMAßUNG
  0
POLYLINE
  5
5AE
330
1F
100
AcDbEntity
  8
BEMAßUNG
 62
     7
100
AcDb2dPolyline
 66
     1
 10
0.0
 20
0.0
 30
0.0
  0
VERTEX
  5
5AF
330
5AE
100
AcDbEntity
  8
BEMAßUNG
 62
     7
100
AcDbVertex
100
AcDb2dVertex
 10
78.19143742619868
 20
235.2908060121408
 30
0.0
  0
VERTEX
  5
5B0
330
5AE
100
AcDbEntity
  8
BEMAßUNG
 62
     7
100
AcDbVertex
100
AcDb2dVertex
 10
138.1889810852444
 20
235.2908060121408
 30
0.0
  0
SEQEND
  5
5B1
330
5AE
100
AcDbEntity
  8
BEMAßUNG
  0
POLYLINE
  5
5B2
330
1F
100
AcDbEntity
  8
BEMAßUNG
 62
     7
100
AcDb2dPolyline
 66
     1
 10
0.0
 20
0.0
 30
0.0
  0
VERTEX
  5
5B3
330
5B2
100
AcDbEntity
  8
BEMAßUNG
 62
     7
100
AcDbVertex
100
AcDb2dVertex
 10
78.19143742619868
 20
235.2908060121408
 30
0.0
  0
VERTEX
  5
5B4
330
5B2
100
AcDbEntity
  8
BEMAßUNG
 62
     7
100
AcDbVertex
100
AcDb2dVertex
 10
81.69096542011546
 20
234.8300244909887
 30
0.0
  0
VERTEX
  5
5B5
330
5B2
100
AcDbEntity
  8
BEMAßUNG
 62
     7
100
AcDbVertex
100
AcDb2dVertex
 10
81.69096542011546
 20
235.7521904250029
 30
0.0
  0
VERTEX
  5
5B6
330
5B2
100
AcDbEntity
  8
BEMAßUNG
 62
     7
100
AcDbVertex
100
AcDb2dVertex
 10
78.19143742619868
 20
235.2908060121408
 30
0.0
  0
SEQEND
  5
5B7
330
5B2
100
AcDbEntity
  8
BEMAßUNG
  0
POLYLINE
  5
5B8
330
1F
100
AcDbEntity
  8
BEMAßUNG
 62
     7
100
AcDb2dPolyline
 66
     1
 10
0.0
 20
0.0
 30
0.0
  0
VERTEX
  5
5B9
330
5B8
100
AcDbEntity
  8
BEMAßUNG
 62
     7
100
AcDbVertex
100
AcDb2dVertex
 10
81.69096542011546
 20
234.8339002234096
 30
0.0
  0
VERTEX
  5
5BA
330
5B8
100
AcDbEntity
  8
BEMAßUNG
 62
     7
100
AcDbVertex
100
AcDb2dVertex
 10
81.66374916578198
 20
234.8339002234096
 30
0.0
  0
SEQEND
  5
5BB
330
5B8
100
AcDbEntity
  8
BEMAßUNG
  0
POLYLINE
  5
5BC
330
1F
100
AcDbEntity
  8
BEMAßUNG
 62
     7
100
AcDb2dPolyline
 66
     1
 10
0.0
 20
0.0
 30
0.0
  0
VERTEX
  5
5BD
330
5BC
100
AcDbEntity
  8
BEMAßUNG
 62
     7
100
AcDbVertex
100
AcDb2dVertex
 10
81.69096542011546
 20
234.8339002234096
 30
0.0
  0
VERTEX
  5
5BE
330
5BC
100
AcDbEntity
  8
BEMAßUNG
 62
     7
100
AcDbVertex
100
AcDb2dVertex
 10
81.66374916578198
 20
234.8339002234096
 30
0.0
  0
SEQEND
  5
5BF
330
5BC
100
AcDbEntity
  8
BEMAßUNG
  0
POLYLINE
  5
5C0
330
1F
100
AcDbEntity
  8
BEMAßUNG
 62
     7
100
AcDb2dPolyline
 66
     1
 10
0.0
 20
0.0
 30
0.0
  0
VERTEX
  5
5C1
330
5C0
100
AcDbEntity
  8
BEMAßUNG
 62
     7
100
AcDbVertex
100
AcDb2dVertex
 10
81.69096542011546
 20
234.884715381817
 30
0.0
  0
VERTEX
  5
5C2
330
5C0
100
AcDbEntity
  8
BEMAßUNG
 62
     7
100
AcDbVertex
100
AcDb2dVertex
 10
81.27824298098253
 20
234.884715381817
 30
0.0
  0
SEQEND
  5
5C3
330
5C0
100
AcDbEntity
  8
BEMAßUNG
  0
POLYLINE
  5
5C4
330
1F
100
AcDbEntity
  8
BEMAßUNG
 62
     7
100
AcDb2dPolyline
 66
     1
 10
0.0
 20
0.0
 30
0.0
  0
VERTEX
  5
5C5
330
5C4
100
AcDbEntity
  8
BEMAßUNG
 62
     7
100
AcDbVertex
100
AcDb2dVertex
 10
81.69096542011546
 20
234.9351860306759
 30
0.0
  0
VERTEX
  5
5C6
330
5C4
100
AcDbEntity
  8
BEMAßUNG
 62
     7
100
AcDbVertex
100
AcDb2dVertex
 10
80.8925645414088
 20
234.9351860306759
 30
0.0
  0
SEQEND
  5
5C7
330
5C4
100
AcDbEntity
  8
BEMAßUNG
  0
POLYLINE
  5
5C8
330
1F
100
AcDbEntity
  8
BEMAßUNG
 62
     7
100
AcDb2dPolyline
 66
     1
 10
0.0
 20
0.0
 30
0.0
  0
VERTEX
  5
5C9
330
5C8
100
AcDbEntity
  8
BEMAßUNG
 62
     7
100
AcDbVertex
100
AcDb2dVertex
 10
81.69096542011546
 20
234.9860011890834
 30
0.0
  0
VERTEX
  5
5CA
330
5C8
100
AcDbEntity
  8
BEMAßUNG
 62
     7
100
AcDbVertex
100
AcDb2dVertex
 10
80.50671384706082
 20
234.9860011890834
 30
0.0
  0
SEQEND
  5
5CB
330
5C8
100
AcDbEntity
  8
BEMAßUNG
  0
POLYLINE
  5
5CC
330
1F
100
AcDbEntity
  8
BEMAßUNG
 62
     7
100
AcDb2dPolyline
 66
     1
 10
0.0
 20
0.0
 30
0.0
  0
VERTEX
  5
5CD
330
5CC
100
AcDbEntity
  8
BEMAßUNG
 62
     7
100
AcDbVertex
100
AcDb2dVertex
 10
81.69096542011546
 20
235.0368163474908
 30
0.0
  0
VERTEX
  5
5CE
330
5CC
100
AcDbEntity
  8
BEMAßUNG
 62
     7
100
AcDbVertex
100
AcDb2dVertex
 10
80.12034638839006
 20
235.0368163474908
 30
0.0
  0
SEQEND
  5
5CF
330
5CC
100
AcDbEntity
  8
BEMAßUNG
  0
POLYLINE
  5
5D0
330
1F
100
AcDbEntity
  8
BEMAßUNG
 62
     7
100
AcDb2dPolyline
 66
     1
 10
0.0
 20
0.0
 30
0.0
  0
VERTEX
  5
5D1
330
5D0
100
AcDbEntity
  8
BEMAßUNG
 62
     7
100
AcDbVertex
100
AcDb2dVertex
 10
81.69096542011546
 20
235.0875453785111
 30
0.0
  0
VERTEX
  5
5D2
330
5D0
100
AcDbEntity
  8
BEMAßUNG
 62
     7
100
AcDbVertex
100
AcDb2dVertex
 10
79.7348402035906
 20
235.0875453785111
 30
0.0
  0
SEQEND
  5
5D3
330
5D0
100
AcDbEntity
  8
BEMAßUNG
  0
POLYLINE
  5
5D4
330
1F
100
AcDbEntity
  8
BEMAßUNG
 62
     7
100
AcDb2dPolyline
 66
     1
 10
0.0
 20
0.0
 30
0.0
  0
VERTEX
  5
5D5
330
5D4
100
AcDbEntity
  8
BEMAßUNG
 62
     7
100
AcDbVertex
100
AcDb2dVertex
 10
81.69096542011546
 20
235.1384466643057
 30
0.0
  0
VERTEX
  5
5D6
330
5D4
100
AcDbEntity
  8
BEMAßUNG
 62
     7
100
AcDbVertex
100
AcDb2dVertex
 10
79.34847274491983
 20
235.1384466643057
 30
0.0
  0
SEQEND
  5
5D7
330
5D4
100
AcDbEntity
  8
BEMAßUNG
  0
POLYLINE
  5
5D8
330
1F
100
AcDbEntity
  8
BEMAßUNG
 62
     7
100
AcDb2dPolyline
 66
     1
 10
0.0
 20
0.0
 30
0.0
  0
VERTEX
  5
5D9
330
5D8
100
AcDbEntity
  8
BEMAßUNG
 62
     7
100
AcDbVertex
100
AcDb2dVertex
 10
81.69096542011546
 20
235.189175695326
 30
0.0
  0
VERTEX
  5
5DA
330
5D8
100
AcDbEntity
  8
BEMAßUNG
 62
     7
100
AcDbVertex
100
AcDb2dVertex
 10
78.9633110696689
 20
235.189175695326
 30
0.0
  0
SEQEND
  5
5DB
330
5D8
100
AcDbEntity
  8
BEMAßUNG
  0
POLYLINE
  5
5DC
330
1F
100
AcDbEntity
  8
BEMAßUNG
 62
     7
100
AcDb2dPolyline
 66
     1
 10
0.0
 20
0.0
 30
0.0
  0
VERTEX
  5
5DD
330
5DC
100
AcDbEntity
  8
BEMAßUNG
 62
     7
100
AcDbVertex
100
AcDb2dVertex
 10
81.69096542011546
 20
235.2399908537334
 30
0.0
  0
VERTEX
  5
5DE
330
5DC
100
AcDbEntity
  8
BEMAßUNG
 62
     7
100
AcDbVertex
100
AcDb2dVertex
 10
78.57694361099813
 20
235.2399908537334
 30
0.0
  0
SEQEND
  5
5DF
330
5DC
100
AcDbEntity
  8
BEMAßUNG
  0
POLYLINE
  5
5E0
330
1F
100
AcDbEntity
  8
BEMAßUNG
 62
     7
100
AcDb2dPolyline
 66
     1
 10
0.0
 20
0.0
 30
0.0
  0
VERTEX
  5
5E1
330
5E0
100
AcDbEntity
  8
BEMAßUNG
 62
     7
100
AcDbVertex
100
AcDb2dVertex
 10
81.69096542011546
 20
235.2908060121408
 30
0.0
  0
VERTEX
  5
5E2
330
5E0
100
AcDbEntity
  8
BEMAßUNG
 62
     7
100
AcDbVertex
100
AcDb2dVertex
 10
78.19143742619868
 20
235.2908060121408
 30
0.0
  0
SEQEND
  5
5E3
330
5E0
100
AcDbEntity
  8
BEMAßUNG
  0
POLYLINE
  5
5E4
330
1F
100
AcDbEntity
  8
BEMAßUNG
 62
     7
100
AcDb2dPolyline
 66
     1
 10
0.0
 20
0.0
 30
0.0
  0
VERTEX
  5
5E5
330
5E4
100
AcDbEntity
  8
BEMAßUNG
 62
     7
100
AcDbVertex
100
AcDb2dVertex
 10
81.69096542011546
 20
235.7484008199692
 30
0.0
  0
VERTEX
  5
5E6
330
5E4
100
AcDbEntity
  8
BEMAßUNG
 62
     7
100
AcDbVertex
100
AcDb2dVertex
 10
81.66374916578198
 20
235.7484008199692
 30
0.0
  0
SEQEND
  5
5E7
330
5E4
100
AcDbEntity
  8
BEMAßUNG
  0
POLYLINE
  5
5E8
330
1F
100
AcDbEntity
  8
BEMAßUNG
 62
     7
100
AcDb2dPolyline
 66
     1
 10
0.0
 20
0.0
 30
0.0
  0
VERTEX
  5
5E9
330
5E8
100
AcDbEntity
  8
BEMAßUNG
 62
     7
100
AcDbVertex
100
AcDb2dVertex
 10
81.69096542011546
 20
235.7484008199692
 30
0.0
  0
VERTEX
  5
5EA
330
5E8
100
AcDbEntity
  8
BEMAßUNG
 62
     7
100
AcDbVertex
100
AcDb2dVertex
 10
81.66374916578198
 20
235.7484008199692
 30
0.0
  0
SEQEND
  5
5EB
330
5E8
100
AcDbEntity
  8
BEMAßUNG
  0
POLYLINE
  5
5EC
330
1F
100
AcDbEntity
  8
BEMAßUNG
 62
     7
100
AcDb2dPolyline
 66
     1
 10
0.0
 20
0.0
 30
0.0
  0
VERTEX
  5
5ED
330
5EC
100
AcDbEntity
  8
BEMAßUNG
 62
     7
100
AcDbVertex
100
AcDb2dVertex
 10
81.69096542011546
 20
235.6975856615617
 30
0.0
  0
VERTEX
  5
5EE
330
5EC
100
AcDbEntity
  8
BEMAßUNG
 62
     7
100
AcDbVertex
100
AcDb2dVertex
 10
81.27824298098253
 20
235.6975856615617
 30
0.0
  0
SEQEND
  5
5EF
330
5EC
100
AcDbEntity
  8
BEMAßUNG
  0
POLYLINE
  5
5F0
330
1F
100
AcDbEntity
  8
BEMAßUNG
 62
     7
100
AcDb2dPolyline
 66
     1
 10
0.0
 20
0.0
 30
0.0
  0
VERTEX
  5
5F1
330
5F0
100
AcDbEntity
  8
BEMAßUNG
 62
     7
100
AcDbVertex
100
AcDb2dVertex
 10
81.69096542011546
 20
235.6467705031543
 30
0.0
  0
VERTEX
  5
5F2
330
5F0
100
AcDbEntity
  8
BEMAßUNG
 62
     7
100
AcDbVertex
100
AcDb2dVertex
 10
80.8925645414088
 20
235.6467705031543
 30
0.0
  0
SEQEND
  5
5F3
330
5F0
100
AcDbEntity
  8
BEMAßUNG
  0
POLYLINE
  5
5F4
330
1F
100
AcDbEntity
  8
BEMAßUNG
 62
     7
100
AcDb2dPolyline
 66
     1
 10
0.0
 20
0.0
 30
0.0
  0
VERTEX
  5
5F5
330
5F4
100
AcDbEntity
  8
BEMAßUNG
 62
     7
100
AcDbVertex
100
AcDb2dVertex
 10
81.69096542011546
 20
235.5959553447469
 30
0.0
  0
VERTEX
  5
5F6
330
5F4
100
AcDbEntity
  8
BEMAßUNG
 62
     7
100
AcDbVertex
100
AcDb2dVertex
 10
80.50671384706082
 20
235.5959553447469
 30
0.0
  0
SEQEND
  5
5F7
330
5F4
100
AcDbEntity
  8
BEMAßUNG
  0
POLYLINE
  5
5F8
330
1F
100
AcDbEntity
  8
BEMAßUNG
 62
     7
100
AcDb2dPolyline
 66
     1
 10
0.0
 20
0.0
 30
0.0
  0
VERTEX
  5
5F9
330
5F8
100
AcDbEntity
  8
BEMAßUNG
 62
     7
100
AcDbVertex
100
AcDb2dVertex
 10
81.69096542011546
 20
235.5451401863394
 30
0.0
  0
VERTEX
  5
5FA
330
5F8
100
AcDbEntity
  8
BEMAßUNG
 62
     7
100
AcDbVertex
100
AcDb2dVertex
 10
80.12034638839006
 20
235.5451401863394
 30
0.0
  0
SEQEND
  5
5FB
330
5F8
100
AcDbEntity
  8
BEMAßUNG
  0
POLYLINE
  5
5FC
330
1F
100
AcDbEntity
  8
BEMAßUNG
 62
     7
100
AcDb2dPolyline
 66
     1
 10
0.0
 20
0.0
 30
0.0
  0
VERTEX
  5
5FD
330
5FC
100
AcDbEntity
  8
BEMAßUNG
 62
     7
100
AcDbVertex
100
AcDb2dVertex
 10
81.69096542011546
 20
235.494325027932
 30
0.0
  0
VERTEX
  5
5FE
330
5FC
100
AcDbEntity
  8
BEMAßUNG
 62
     7
100
AcDbVertex
100
AcDb2dVertex
 10
79.7348402035906
 20
235.494325027932
 30
0.0
  0
SEQEND
  5
5FF
330
5FC
100
AcDbEntity
  8
BEMAßUNG
  0
POLYLINE
  5
600
330
1F
100
AcDbEntity
  8
BEMAßUNG
 62
     7
100
AcDb2dPolyline
 66
     1
 10
0.0
 20
0.0
 30
0.0
  0
VERTEX
  5
601
330
600
100
AcDbEntity
  8
BEMAßUNG
 62
     7
100
AcDbVertex
100
AcDb2dVertex
 10
81.69096542011546
 20
235.4435098695245
 30
0.0
  0
VERTEX
  5
602
330
600
100
AcDbEntity
  8
BEMAßUNG
 62
     7
100
AcDbVertex
100
AcDb2dVertex
 10
79.34847274491983
 20
235.4435098695245
 30
0.0
  0
SEQEND
  5
603
330
600
100
AcDbEntity
  8
BEMAßUNG
  0
POLYLINE
  5
604
330
1F
100
AcDbEntity
  8
BEMAßUNG
 62
     7
100
AcDb2dPolyline
 66
     1
 10
0.0
 20
0.0
 30
0.0
  0
VERTEX
  5
605
330
604
100
AcDbEntity
  8
BEMAßUNG
 62
     7
100
AcDbVertex
100
AcDb2dVertex
 10
81.69096542011546
 20
235.3923502015686
 30
0.0
  0
VERTEX
  5
606
330
604
100
AcDbEntity
  8
BEMAßUNG
 62
     7
100
AcDbVertex
100
AcDb2dVertex
 10
78.9633110696689
 20
235.3923502015686
 30
0.0
  0
SEQEND
  5
607
330
604
100
AcDbEntity
  8
BEMAßUNG
  0
POLYLINE
  5
608
330
1F
100
AcDbEntity
  8
BEMAßUNG
 62
     7
100
AcDb2dPolyline
 66
     1
 10
0.0
 20
0.0
 30
0.0
  0
VERTEX
  5
609
330
608
100
AcDbEntity
  8
BEMAßUNG
 62
     7
100
AcDbVertex
100
AcDb2dVertex
 10
81.69096542011546
 20
235.3415350431611
 30
0.0
  0
VERTEX
  5
60A
330
608
100
AcDbEntity
  8
BEMAßUNG
 62
     7
100
AcDbVertex
100
AcDb2dVertex
 10
78.57694361099813
 20
235.3415350431611
 30
0.0
  0
SEQEND
  5
60B
330
608
100
AcDbEntity
  8
BEMAßUNG
  0
POLYLINE
  5
60C
330
1F
100
AcDbEntity
  8
BEMAßUNG
 62
     7
100
AcDb2dPolyline
 66
     1
 10
0.0
 20
0.0
 30
0.0
  0
VERTEX
  5
60D
330
60C
100
AcDbEntity
  8
BEMAßUNG
 62
     7
100
AcDbVertex
100
AcDb2dVertex
 10
81.69096542011546
 20
235.2908060121408
 30
0.0
  0
VERTEX
  5
60E
330
60C
100
AcDbEntity
  8
BEMAßUNG
 62
     7
100
AcDbVertex
100
AcDb2dVertex
 10
78.19143742619868
 20
235.2908060121408
 30
0.0
  0
SEQEND
  5
60F
330
60C
100
AcDbEntity
  8
BEMAßUNG
  0
POLYLINE
  5
610
330
1F
100
AcDbEntity
  8
BEMAßUNG
 62
     7
100
AcDb2dPolyline
 66
     1
 10
0.0
 20
0.0
 30
0.0
  0
VERTEX
  5
611
330
610
100
AcDbEntity
  8
BEMAßUNG
 62
     7
100
AcDbVertex
100
AcDb2dVertex
 10
138.1889810852444
 20
235.2908060121408
 30
0.0
  0
VERTEX
  5
612
330
610
100
AcDbEntity
  8
BEMAßUNG
 62
     7
100
AcDbVertex
100
AcDb2dVertex
 10
134.6891085817791
 20
235.7521904250029
 30
0.0
  0
VERTEX
  5
613
330
610
100
AcDbEntity
  8
BEMAßUNG
 62
     7
100
AcDbVertex
100
AcDb2dVertex
 10
134.6891085817791
 20
234.8300244909887
 30
0.0
  0
VERTEX
  5
614
330
610
100
AcDbEntity
  8
BEMAßUNG
 62
     7
100
AcDbVertex
100
AcDb2dVertex
 10
138.1889810852444
 20
235.2908060121408
 30
0.0
  0
SEQEND
  5
615
330
610
100
AcDbEntity
  8
BEMAßUNG
  0
POLYLINE
  5
616
330
1F
100
AcDbEntity
  8
BEMAßUNG
 62
     7
100
AcDb2dPolyline
 66
     1
 10
0.0
 20
0.0
 30
0.0
  0
VERTEX
  5
617
330
616
100
AcDbEntity
  8
BEMAßUNG
 62
     7
100
AcDbVertex
100
AcDb2dVertex
 10
134.6891085817791
 20
235.7484008199692
 30
0.0
  0
VERTEX
  5
618
330
616
100
AcDbEntity
  8
BEMAßUNG
 62
     7
100
AcDbVertex
100
AcDb2dVertex
 10
134.7163248361126
 20
235.7484008199692
 30
0.0
  0
SEQEND
  5
619
330
616
100
AcDbEntity
  8
BEMAßUNG
  0
POLYLINE
  5
61A
330
1F
100
AcDbEntity
  8
BEMAßUNG
 62
     7
100
AcDb2dPolyline
 66
     1
 10
0.0
 20
0.0
 30
0.0
  0
VERTEX
  5
61B
330
61A
100
AcDbEntity
  8
BEMAßUNG
 62
     7
100
AcDbVertex
100
AcDb2dVertex
 10
134.6891085817791
 20
235.7484008199692
 30
0.0
  0
VERTEX
  5
61C
330
61A
100
AcDbEntity
  8
BEMAßUNG
 62
     7
100
AcDbVertex
100
AcDb2dVertex
 10
134.7163248361126
 20
235.7484008199692
 30
0.0
  0
SEQEND
  5
61D
330
61A
100
AcDbEntity
  8
BEMAßUNG
  0
POLYLINE
  5
61E
330
1F
100
AcDbEntity
  8
BEMAßUNG
 62
     7
100
AcDb2dPolyline
 66
     1
 10
0.0
 20
0.0
 30
0.0
  0
VERTEX
  5
61F
330
61E
100
AcDbEntity
  8
BEMAßUNG
 62
     7
100
AcDbVertex
100
AcDb2dVertex
 10
134.6891085817791
 20
235.6975856615617
 30
0.0
  0
VERTEX
  5
620
330
61E
100
AcDbEntity
  8
BEMAßUNG
 62
     7
100
AcDbVertex
100
AcDb2dVertex
 10
135.1021755304606
 20
235.6975856615617
 30
0.0
  0
SEQEND
  5
621
330
61E
100
AcDbEntity
  8
BEMAßUNG
  0
POLYLINE
  5
622
330
1F
100
AcDbEntity
  8
BEMAßUNG
 62
     7
100
AcDb2dPolyline
 66
     1
 10
0.0
 20
0.0
 30
0.0
  0
VERTEX
  5
623
330
622
100
AcDbEntity
  8
BEMAßUNG
 62
     7
100
AcDbVertex
100
AcDb2dVertex
 10
134.6891085817791
 20
235.6467705031543
 30
0.0
  0
VERTEX
  5
624
330
622
100
AcDbEntity
  8
BEMAßUNG
 62
     7
100
AcDbVertex
100
AcDb2dVertex
 10
135.4878539700343
 20
235.6467705031543
 30
0.0
  0
SEQEND
  5
625
330
622
100
AcDbEntity
  8
BEMAßUNG
  0
POLYLINE
  5
626
330
1F
100
AcDbEntity
  8
BEMAßUNG
 62
     7
100
AcDb2dPolyline
 66
     1
 10
0.0
 20
0.0
 30
0.0
  0
VERTEX
  5
627
330
626
100
AcDbEntity
  8
BEMAßUNG
 62
     7
100
AcDbVertex
100
AcDb2dVertex
 10
134.6891085817791
 20
235.5959553447469
 30
0.0
  0
VERTEX
  5
628
330
626
100
AcDbEntity
  8
BEMAßUNG
 62
     7
100
AcDbVertex
100
AcDb2dVertex
 10
135.8740491739308
 20
235.5959553447469
 30
0.0
  0
SEQEND
  5
629
330
626
100
AcDbEntity
  8
BEMAßUNG
  0
POLYLINE
  5
62A
330
1F
100
AcDbEntity
  8
BEMAßUNG
 62
     7
100
AcDb2dPolyline
 66
     1
 10
0.0
 20
0.0
 30
0.0
  0
VERTEX
  5
62B
330
62A
100
AcDbEntity
  8
BEMAßUNG
 62
     7
100
AcDbVertex
100
AcDb2dVertex
 10
134.6891085817791
 20
235.5451401863394
 30
0.0
  0
VERTEX
  5
62C
330
62A
100
AcDbEntity
  8
BEMAßUNG
 62
     7
100
AcDbVertex
100
AcDb2dVertex
 10
136.2597276135045
 20
235.5451401863394
 30
0.0
  0
SEQEND
  5
62D
330
62A
100
AcDbEntity
  8
BEMAßUNG
  0
POLYLINE
  5
62E
330
1F
100
AcDbEntity
  8
BEMAßUNG
 62
     7
100
AcDb2dPolyline
 66
     1
 10
0.0
 20
0.0
 30
0.0
  0
VERTEX
  5
62F
330
62E
100
AcDbEntity
  8
BEMAßUNG
 62
     7
100
AcDbVertex
100
AcDb2dVertex
 10
134.6891085817791
 20
235.494325027932
 30
0.0
  0
VERTEX
  5
630
330
62E
100
AcDbEntity
  8
BEMAßUNG
 62
     7
100
AcDbVertex
100
AcDb2dVertex
 10
136.6455783078525
 20
235.494325027932
 30
0.0
  0
SEQEND
  5
631
330
62E
100
AcDbEntity
  8
BEMAßUNG
  0
POLYLINE
  5
632
330
1F
100
AcDbEntity
  8
BEMAßUNG
 62
     7
100
AcDb2dPolyline
 66
     1
 10
0.0
 20
0.0
 30
0.0
  0
VERTEX
  5
633
330
632
100
AcDbEntity
  8
BEMAßUNG
 62
     7
100
AcDbVertex
100
AcDb2dVertex
 10
134.6891085817791
 20
235.4435098695245
 30
0.0
  0
VERTEX
  5
634
330
632
100
AcDbEntity
  8
BEMAßUNG
 62
     7
100
AcDbVertex
100
AcDb2dVertex
 10
137.0312567474262
 20
235.4435098695245
 30
0.0
  0
SEQEND
  5
635
330
632
100
AcDbEntity
  8
BEMAßUNG
  0
POLYLINE
  5
636
330
1F
100
AcDbEntity
  8
BEMAßUNG
 62
     7
100
AcDb2dPolyline
 66
     1
 10
0.0
 20
0.0
 30
0.0
  0
VERTEX
  5
637
330
636
100
AcDbEntity
  8
BEMAßUNG
 62
     7
100
AcDbVertex
100
AcDb2dVertex
 10
134.6891085817791
 20
235.3923502015686
 30
0.0
  0
VERTEX
  5
638
330
636
100
AcDbEntity
  8
BEMAßUNG
 62
     7
100
AcDbVertex
100
AcDb2dVertex
 10
137.4174519513227
 20
235.3923502015686
 30
0.0
  0
SEQEND
  5
639
330
636
100
AcDbEntity
  8
BEMAßUNG
  0
POLYLINE
  5
63A
330
1F
100
AcDbEntity
  8
BEMAßUNG
 62
     7
100
AcDb2dPolyline
 66
     1
 10
0.0
 20
0.0
 30
0.0
  0
VERTEX
  5
63B
330
63A
100
AcDbEntity
  8
BEMAßUNG
 62
     7
100
AcDbVertex
100
AcDb2dVertex
 10
134.6891085817791
 20
235.3415350431611
 30
0.0
  0
VERTEX
  5
63C
330
63A
100
AcDbEntity
  8
BEMAßUNG
 62
     7
100
AcDbVertex
100
AcDb2dVertex
 10
137.8031303908965
 20
235.3415350431611
 30
0.0
  0
SEQEND
  5
63D
330
63A
100
AcDbEntity
  8
BEMAßUNG
  0
POLYLINE
  5
63E
330
1F
100
AcDbEntity
  8
BEMAßUNG
 62
     7
100
AcDb2dPolyline
 66
     1
 10
0.0
 20
0.0
 30
0.0
  0
VERTEX
  5
63F
330
63E
100
AcDbEntity
  8
BEMAßUNG
 62
     7
100
AcDbVertex
100
AcDb2dVertex
 10
134.6891085817791
 20
235.2908060121408
 30
0.0
  0
VERTEX
  5
640
330
63E
100
AcDbEntity
  8
BEMAßUNG
 62
     7
100
AcDbVertex
100
AcDb2dVertex
 10
138.1889810852444
 20
235.2908060121408
 30
0.0
  0
SEQEND
  5
641
330
63E
100
AcDbEntity
  8
BEMAßUNG
  0
POLYLINE
  5
642
330
1F
100
AcDbEntity
  8
BEMAßUNG
 62
     7
100
AcDb2dPolyline
 66
     1
 10
0.0
 20
0.0
 30
0.0
  0
VERTEX
  5
643
330
642
100
AcDbEntity
  8
BEMAßUNG
 62
     7
100
AcDbVertex
100
AcDb2dVertex
 10
134.6891085817791
 20
234.8339002234096
 30
0.0
  0
VERTEX
  5
644
330
642
100
AcDbEntity
  8
BEMAßUNG
 62
     7
100
AcDbVertex
100
AcDb2dVertex
 10
134.7163248361126
 20
234.8339002234096
 30
0.0
  0
SEQEND
  5
645
330
642
100
AcDbEntity
  8
BEMAßUNG
  0
POLYLINE
  5
646
330
1F
100
AcDbEntity
  8
BEMAßUNG
 62
     7
100
AcDb2dPolyline
 66
     1
 10
0.0
 20
0.0
 30
0.0
  0
VERTEX
  5
647
330
646
100
AcDbEntity
  8
BEMAßUNG
 62
     7
100
AcDbVertex
100
AcDb2dVertex
 10
134.6891085817791
 20
234.8339002234096
 30
0.0
  0
VERTEX
  5
648
330
646
100
AcDbEntity
  8
BEMAßUNG
 62
     7
100
AcDbVertex
100
AcDb2dVertex
 10
134.7163248361126
 20
234.8339002234096
 30
0.0
  0
SEQEND
  5
649
330
646
100
AcDbEntity
  8
BEMAßUNG
  0
POLYLINE
  5
64A
330
1F
100
AcDbEntity
  8
BEMAßUNG
 62
     7
100
AcDb2dPolyline
 66
     1
 10
0.0
 20
0.0
 30
0.0
  0
VERTEX
  5
64B
330
64A
100
AcDbEntity
  8
BEMAßUNG
 62
     7
100
AcDbVertex
100
AcDb2dVertex
 10
134.6891085817791
 20
234.884715381817
 30
0.0
  0
VERTEX
  5
64C
330
64A
100
AcDbEntity
  8
BEMAßUNG
 62
     7
100
AcDbVertex
100
AcDb2dVertex
 10
135.1021755304606
 20
234.884715381817
 30
0.0
  0
SEQEND
  5
64D
330
64A
100
AcDbEntity
  8
BEMAßUNG
  0
POLYLINE
  5
64E
330
1F
100
AcDbEntity
  8
BEMAßUNG
 62
     7
100
AcDb2dPolyline
 66
     1
 10
0.0
 20
0.0
 30
0.0
  0
VERTEX
  5
64F
330
64E
100
AcDbEntity
  8
BEMAßUNG
 62
     7
100
AcDbVertex
100
AcDb2dVertex
 10
134.6891085817791
 20
234.9351860306759
 30
0.0
  0
VERTEX
  5
650
330
64E
100
AcDbEntity
  8
BEMAßUNG
 62
     7
100
AcDbVertex
100
AcDb2dVertex
 10
135.4878539700343
 20
234.9351860306759
 30
0.0
  0
SEQEND
  5
651
330
64E
100
AcDbEntity
  8
BEMAßUNG
  0
POLYLINE
  5
652
330
1F
100
AcDbEntity
  8
BEMAßUNG
 62
     7
100
AcDb2dPolyline
 66
     1
 10
0.0
 20
0.0
 30
0.0
  0
VERTEX
  5
653
330
652
100
AcDbEntity
  8
BEMAßUNG
 62
     7
100
AcDbVertex
100
AcDb2dVertex
 10
134.6891085817791
 20
234.9860011890834
 30
0.0
  0
VERTEX
  5
654
330
652
100
AcDbEntity
  8
BEMAßUNG
 62
     7
100
AcDbVertex
100
AcDb2dVertex
 10
135.8740491739308
 20
234.9860011890834
 30
0.0
  0
SEQEND
  5
655
330
652
100
AcDbEntity
  8
BEMAßUNG
  0
POLYLINE
  5
656
330
1F
100
AcDbEntity
  8
BEMAßUNG
 62
     7
100
AcDb2dPolyline
 66
     1
 10
0.0
 20
0.0
 30
0.0
  0
VERTEX
  5
657
330
656
100
AcDbEntity
  8
BEMAßUNG
 62
     7
100
AcDbVertex
100
AcDb2dVertex
 10
134.6891085817791
 20
235.0368163474908
 30
0.0
  0
VERTEX
  5
658
330
656
100
AcDbEntity
  8
BEMAßUNG
 62
     7
100
AcDbVertex
100
AcDb2dVertex
 10
136.2597276135045
 20
235.0368163474908
 30
0.0
  0
SEQEND
  5
659
330
656
100
AcDbEntity
  8
BEMAßUNG
  0
POLYLINE
  5
65A
330
1F
100
AcDbEntity
  8
BEMAßUNG
 62
     7
100
AcDb2dPolyline
 66
     1
 10
0.0
 20
0.0
 30
0.0
  0
VERTEX
  5
65B
330
65A
100
AcDbEntity
  8
BEMAßUNG
 62
     7
100
AcDbVertex
100
AcDb2dVertex
 10
134.6891085817791
 20
235.0875453785111
 30
0.0
  0
VERTEX
  5
65C
330
65A
100
AcDbEntity
  8
BEMAßUNG
 62
     7
100
AcDbVertex
100
AcDb2dVertex
 10
136.6455783078525
 20
235.0875453785111
 30
0.0
  0
SEQEND
  5
65D
330
65A
100
AcDbEntity
  8
BEMAßUNG
  0
POLYLINE
  5
65E
330
1F
100
AcDbEntity
  8
BEMAßUNG
 62
     7
100
AcDb2dPolyline
 66
     1
 10
0.0
 20
0.0
 30
0.0
  0
VERTEX
  5
65F
330
65E
100
AcDbEntity
  8
BEMAßUNG
 62
     7
100
AcDbVertex
100
AcDb2dVertex
 10
134.6891085817791
 20
235.1384466643057
 30
0.0
  0
VERTEX
  5
660
330
65E
100
AcDbEntity
  8
BEMAßUNG
 62
     7
100
AcDbVertex
100
AcDb2dVertex
 10
137.0312567474262
 20
235.1384466643057
 30
0.0
  0
SEQEND
  5
661
330
65E
100
AcDbEntity
  8
BEMAßUNG
  0
POLYLINE
  5
662
330
1F
100
AcDbEntity
  8
BEMAßUNG
 62
     7
100
AcDb2dPolyline
 66
     1
 10
0.0
 20
0.0
 30
0.0
  0
VERTEX
  5
663
330
662
100
AcDbEntity
  8
BEMAßUNG
 62
     7
100
AcDbVertex
100
AcDb2dVertex
 10
134.6891085817791
 20
235.189175695326
 30
0.0
  0
VERTEX
  5
664
330
662
100
AcDbEntity
  8
BEMAßUNG
 62
     7
100
AcDbVertex
100
AcDb2dVertex
 10
137.4174519513227
 20
235.189175695326
 30
0.0
  0
SEQEND
  5
665
330
662
100
AcDbEntity
  8
BEMAßUNG
  0
POLYLINE
  5
666
330
1F
100
AcDbEntity
  8
BEMAßUNG
 62
     7
100
AcDb2dPolyline
 66
     1
 10
0.0
 20
0.0
 30
0.0
  0
VERTEX
  5
667
330
666
100
AcDbEntity
  8
BEMAßUNG
 62
     7
100
AcDbVertex
100
AcDb2dVertex
 10
134.6891085817791
 20
235.2399908537334
 30
0.0
  0
VERTEX
  5
668
330
666
100
AcDbEntity
  8
BEMAßUNG
 62
     7
100
AcDbVertex
100
AcDb2dVertex
 10
137.8031303908965
 20
235.2399908537334
 30
0.0
  0
SEQEND
  5
669
330
666
100
AcDbEntity
  8
BEMAßUNG
  0
POLYLINE
  5
66A
330
1F
100
AcDbEntity
  8
BEMAßUNG
 62
     7
100
AcDb2dPolyline
 66
     1
 10
0.0
 20
0.0
 30
0.0
  0
VERTEX
  5
66B
330
66A
100
AcDbEntity
  8
BEMAßUNG
 62
     7
100
AcDbVertex
100
AcDb2dVertex
 10
134.6891085817791
 20
235.2908060121408
 30
0.0
  0
VERTEX
  5
66C
330
66A
100
AcDbEntity
  8
BEMAßUNG
 62
     7
100
AcDbVertex
100
AcDb2dVertex
 10
138.1889810852444
 20
235.2908060121408
 30
0.0
  0
SEQEND
  5
66D
330
66A
100
AcDbEntity
  8
BEMAßUNG
  0
SPLINE
  5
66E
330
1F
100
AcDbEntity
  8
BEMAßUNG
 62
     7
100
AcDbSpline
210
0.0
220
0.0
230
1.0
 70
     8
 71
     3
 72
    11
 73
     7
 74
     0
 42
0.0000000001
 43
0.0000000001
 40
0.0
 40
0.0
 40
0.0
 40
0.0
 40
1.0
 40
1.0
 40
1.0
 40
2.0
 40
2.0
 40
2.0
 40
2.0
 10
138.1889810852444
 20
216.4675794272199
 30
0.0
 10
131.8856621306571
 20
216.4675794272199
 30
0.0
 10
126.7758965069345
 20
211.3576415487231
 30
0.0
 10
126.7758965069345
 20
205.0538058298129
 30
0.0
 10
126.7758965069345
 20
204.7037841285116
 30
0.0
 10
126.7919162009409
 20
204.3572075226954
 30
0.0
 10
126.8189602005001
 20
204.0593790179956
 30
0.0
  0
POLYLINE
  5
66F
330
1F
100
AcDbEntity
  8
BEMAßUNG
 62
     7
100
AcDb2dPolyline
 66
     1
 10
0.0
 20
0.0
 30
0.0
  0
VERTEX
  5
670
330
66F
100
AcDbEntity
  8
BEMAßUNG
 62
     7
100
AcDbVertex
100
AcDb2dVertex
 10
126.8189602005001
 20
204.0593790179956
 30
0.0
  0
VERTEX
  5
671
330
66F
100
AcDbEntity
  8
BEMAßUNG
 62
     7
100
AcDbVertex
100
AcDb2dVertex
 10
127.2409843974432
 20
207.563902400366
 30
0.0
  0
VERTEX
  5
672
330
66F
100
AcDbEntity
  8
BEMAßUNG
 62
     7
100
AcDbVertex
100
AcDb2dVertex
 10
126.3190768455904
 20
207.5535671139102
 30
0.0
  0
VERTEX
  5
673
330
66F
100
AcDbEntity
  8
BEMAßUNG
 62
     7
100
AcDbVertex
100
AcDb2dVertex
 10
126.8189602005001
 20
204.0593790179956
 30
0.0
  0
SEQEND
  5
674
330
66F
100
AcDbEntity
  8
BEMAßUNG
  0
POLYLINE
  5
675
330
1F
100
AcDbEntity
  8
BEMAßUNG
 62
     7
100
AcDb2dPolyline
 66
     1
 10
0.0
 20
0.0
 30
0.0
  0
VERTEX
  5
676
330
675
100
AcDbEntity
  8
BEMAßUNG
 62
     7
100
AcDbVertex
100
AcDb2dVertex
 10
127.2373670471837
 20
207.563902400366
 30
0.0
  0
VERTEX
  5
677
330
675
100
AcDbEntity
  8
BEMAßUNG
 62
     7
100
AcDbVertex
100
AcDb2dVertex
 10
127.2377115567323
 20
207.5366861460325
 30
0.0
  0
SEQEND
  5
678
330
675
100
AcDbEntity
  8
BEMAßUNG
  0
POLYLINE
  5
679
330
1F
100
AcDbEntity
  8
BEMAßUNG
 62
     7
100
AcDb2dPolyline
 66
     1
 10
0.0
 20
0.0
 30
0.0
  0
VERTEX
  5
67A
330
679
100
AcDbEntity
  8
BEMAßUNG
 62
     7
100
AcDbVertex
100
AcDb2dVertex
 10
127.2373670471837
 20
207.563902400366
 30
0.0
  0
VERTEX
  5
67B
330
679
100
AcDbEntity
  8
BEMAßUNG
 62
     7
100
AcDbVertex
100
AcDb2dVertex
 10
127.2377115567323
 20
207.5366861460325
 30
0.0
  0
SEQEND
  5
67C
330
679
100
AcDbEntity
  8
BEMAßUNG
  0
POLYLINE
  5
67D
330
1F
100
AcDbEntity
  8
BEMAßUNG
 62
     7
100
AcDb2dPolyline
 66
     1
 10
0.0
 20
0.0
 30
0.0
  0
VERTEX
  5
67E
330
67D
100
AcDbEntity
  8
BEMAßUNG
 62
     7
100
AcDbVertex
100
AcDb2dVertex
 10
127.1865518887763
 20
207.563902400366
 30
0.0
  0
VERTEX
  5
67F
330
67D
100
AcDbEntity
  8
BEMAßUNG
 62
     7
100
AcDbVertex
100
AcDb2dVertex
 10
127.1908582581328
 20
207.150490942136
 30
0.0
  0
SEQEND
  5
680
330
67D
100
AcDbEntity
  8
BEMAßUNG
  0
POLYLINE
  5
681
330
1F
100
AcDbEntity
  8
BEMAßUNG
 62
     7
100
AcDb2dPolyline
 66
     1
 10
0.0
 20
0.0
 30
0.0
  0
VERTEX
  5
682
330
681
100
AcDbEntity
  8
BEMAßUNG
 62
     7
100
AcDbVertex
100
AcDb2dVertex
 10
127.1357367303688
 20
207.5632133812689
 30
0.0
  0
VERTEX
  5
683
330
681
100
AcDbEntity
  8
BEMAßUNG
 62
     7
100
AcDbVertex
100
AcDb2dVertex
 10
127.1446939786305
 20
206.7644679930138
 30
0.0
  0
SEQEND
  5
684
330
681
100
AcDbEntity
  8
BEMAßUNG
  0
POLYLINE
  5
685
330
1F
100
AcDbEntity
  8
BEMAßUNG
 62
     7
100
AcDb2dPolyline
 66
     1
 10
0.0
 20
0.0
 30
0.0
  0
VERTEX
  5
686
330
685
100
AcDbEntity
  8
BEMAßUNG
 62
     7
100
AcDbVertex
100
AcDb2dVertex
 10
127.0849215719614
 20
207.5625243621719
 30
0.0
  0
VERTEX
  5
687
330
685
100
AcDbEntity
  8
BEMAßUNG
 62
     7
100
AcDbVertex
100
AcDb2dVertex
 10
127.0980129348054
 20
206.3777560247945
 30
0.0
  0
SEQEND
  5
688
330
685
100
AcDbEntity
  8
BEMAßUNG
  0
POLYLINE
  5
689
330
1F
100
AcDbEntity
  8
BEMAßUNG
 62
     7
100
AcDb2dPolyline
 66
     1
 10
0.0
 20
0.0
 30
0.0
  0
VERTEX
  5
68A
330
689
100
AcDbEntity
  8
BEMAßUNG
 62
     7
100
AcDbVertex
100
AcDb2dVertex
 10
127.034106413554
 20
207.5621798526234
 30
0.0
  0
VERTEX
  5
68B
330
689
100
AcDbEntity
  8
BEMAßUNG
 62
     7
100
AcDbVertex
100
AcDb2dVertex
 10
127.0515041457545
 20
205.9915608208979
 30
0.0
  0
SEQEND
  5
68C
330
689
100
AcDbEntity
  8
BEMAßUNG
  0
POLYLINE
  5
68D
330
1F
100
AcDbEntity
  8
BEMAßUNG
 62
     7
100
AcDb2dPolyline
 66
     1
 10
0.0
 20
0.0
 30
0.0
  0
VERTEX
  5
68E
330
68D
100
AcDbEntity
  8
BEMAßUNG
 62
     7
100
AcDbVertex
100
AcDb2dVertex
 10
126.9834635099208
 20
207.5614908335263
 30
0.0
  0
VERTEX
  5
68F
330
68D
100
AcDbEntity
  8
BEMAßUNG
 62
     7
100
AcDbVertex
100
AcDb2dVertex
 10
127.0053398662521
 20
205.6048488526787
 30
0.0
  0
SEQEND
  5
690
330
68D
100
AcDbEntity
  8
BEMAßUNG
  0
POLYLINE
  5
691
330
1F
100
AcDbEntity
  8
BEMAßUNG
 62
     7
100
AcDb2dPolyline
 66
     1
 10
0.0
 20
0.0
 30
0.0
  0
VERTEX
  5
692
330
691
100
AcDbEntity
  8
BEMAßUNG
 62
     7
100
AcDbVertex
100
AcDb2dVertex
 10
126.9326483515134
 20
207.5608018144293
 30
0.0
  0
VERTEX
  5
693
330
691
100
AcDbEntity
  8
BEMAßUNG
 62
     7
100
AcDbVertex
100
AcDb2dVertex
 10
126.9583143128785
 20
205.2181368844594
 30
0.0
  0
SEQEND
  5
694
330
691
100
AcDbEntity
  8
BEMAßUNG
  0
POLYLINE
  5
695
330
1F
100
AcDbEntity
  8
BEMAßUNG
 62
     7
100
AcDb2dPolyline
 66
     1
 10
0.0
 20
0.0
 30
0.0
  0
VERTEX
  5
696
330
695
100
AcDbEntity
  8
BEMAßUNG
 62
     7
100
AcDbVertex
100
AcDb2dVertex
 10
126.8814886835574
 20
207.5602850501065
 30
0.0
  0
VERTEX
  5
697
330
695
100
AcDbEntity
  8
BEMAßUNG
 62
     7
100
AcDbVertex
100
AcDb2dVertex
 10
126.9121500333761
 20
204.8319416805629
 30
0.0
  0
SEQEND
  5
698
330
695
100
AcDbEntity
  8
BEMAßUNG
  0
POLYLINE
  5
699
330
1F
100
AcDbEntity
  8
BEMAßUNG
 62
     7
100
AcDb2dPolyline
 66
     1
 10
0.0
 20
0.0
 30
0.0
  0
VERTEX
  5
69A
330
699
100
AcDbEntity
  8
BEMAßUNG
 62
     7
100
AcDbVertex
100
AcDb2dVertex
 10
126.83067352515
 20
207.5592515214609
 30
0.0
  0
VERTEX
  5
69B
330
699
100
AcDbEntity
  8
BEMAßUNG
 62
     7
100
AcDbVertex
100
AcDb2dVertex
 10
126.8659857538738
 20
204.4460909862149
 30
0.0
  0
SEQEND
  5
69C
330
699
100
AcDbEntity
  8
BEMAßUNG
  0
POLYLINE
  5
69D
330
1F
100
AcDbEntity
  8
BEMAßUNG
 62
     7
100
AcDb2dPolyline
 66
     1
 10
0.0
 20
0.0
 30
0.0
  0
VERTEX
  5
69E
330
69D
100
AcDbEntity
  8
BEMAßUNG
 62
     7
100
AcDbVertex
100
AcDb2dVertex
 10
126.7798583667425
 20
207.5589070119124
 30
0.0
  0
VERTEX
  5
69F
330
69D
100
AcDbEntity
  8
BEMAßUNG
 62
     7
100
AcDbVertex
100
AcDb2dVertex
 10
126.8189602005001
 20
204.0593790179956
 30
0.0
  0
SEQEND
  5
6A0
330
69D
100
AcDbEntity
  8
BEMAßUNG
  0
POLYLINE
  5
6A1
330
1F
100
AcDbEntity
  8
BEMAßUNG
 62
     7
100
AcDb2dPolyline
 66
     1
 10
0.0
 20
0.0
 30
0.0
  0
VERTEX
  5
6A2
330
6A1
100
AcDbEntity
  8
BEMAßUNG
 62
     7
100
AcDbVertex
100
AcDb2dVertex
 10
126.3230387053984
 20
207.5535671139102
 30
0.0
  0
VERTEX
  5
6A3
330
6A1
100
AcDbEntity
  8
BEMAßUNG
 62
     7
100
AcDbVertex
100
AcDb2dVertex
 10
126.3233832149469
 20
207.526523114351
 30
0.0
  0
SEQEND
  5
6A4
330
6A1
100
AcDbEntity
  8
BEMAßUNG
  0
POLYLINE
  5
6A5
330
1F
100
AcDbEntity
  8
BEMAßUNG
 62
     7
100
AcDb2dPolyline
 66
     1
 10
0.0
 20
0.0
 30
0.0
  0
VERTEX
  5
6A6
330
6A5
100
AcDbEntity
  8
BEMAßUNG
 62
     7
100
AcDbVertex
100
AcDb2dVertex
 10
126.3230387053984
 20
207.5535671139102
 30
0.0
  0
VERTEX
  5
6A7
330
6A5
100
AcDbEntity
  8
BEMAßUNG
 62
     7
100
AcDbVertex
100
AcDb2dVertex
 10
126.3233832149469
 20
207.526523114351
 30
0.0
  0
SEQEND
  5
6A8
330
6A5
100
AcDbEntity
  8
BEMAßUNG
  0
POLYLINE
  5
6A9
330
1F
100
AcDbEntity
  8
BEMAßUNG
 62
     7
100
AcDb2dPolyline
 66
     1
 10
0.0
 20
0.0
 30
0.0
  0
VERTEX
  5
6AA
330
6A9
100
AcDbEntity
  8
BEMAßUNG
 62
     7
100
AcDbVertex
100
AcDb2dVertex
 10
126.3735093542573
 20
207.5546006425558
 30
0.0
  0
VERTEX
  5
6AB
330
6A9
100
AcDbEntity
  8
BEMAßUNG
 62
     7
100
AcDbVertex
100
AcDb2dVertex
 10
126.3779879783881
 20
207.1415336938744
 30
0.0
  0
SEQEND
  5
6AC
330
6A9
100
AcDbEntity
  8
BEMAßUNG
  0
POLYLINE
  5
6AD
330
1F
100
AcDbEntity
  8
BEMAßUNG
 62
     7
100
AcDb2dPolyline
 66
     1
 10
0.0
 20
0.0
 30
0.0
  0
VERTEX
  5
6AE
330
6AD
100
AcDbEntity
  8
BEMAßUNG
 62
     7
100
AcDbVertex
100
AcDb2dVertex
 10
126.4241522578905
 20
207.5552896616529
 30
0.0
  0
VERTEX
  5
6AF
330
6AD
100
AcDbEntity
  8
BEMAßUNG
 62
     7
100
AcDbVertex
100
AcDb2dVertex
 10
126.4334540157007
 20
206.7563720186234
 30
0.0
  0
SEQEND
  5
6B0
330
6AD
100
AcDbEntity
  8
BEMAßUNG
  0
POLYLINE
  5
6B1
330
1F
100
AcDbEntity
  8
BEMAßUNG
 62
     7
100
AcDb2dPolyline
 66
     1
 10
0.0
 20
0.0
 30
0.0
  0
VERTEX
  5
6B2
330
6B1
100
AcDbEntity
  8
BEMAßUNG
 62
     7
100
AcDbVertex
100
AcDb2dVertex
 10
126.4749674162979
 20
207.5552896616529
 30
0.0
  0
VERTEX
  5
6B3
330
6B1
100
AcDbEntity
  8
BEMAßUNG
 62
     7
100
AcDbVertex
100
AcDb2dVertex
 10
126.4884032886904
 20
206.3712103433725
 30
0.0
  0
SEQEND
  5
6B4
330
6B1
100
AcDbEntity
  8
BEMAßUNG
  0
POLYLINE
  5
6B5
330
1F
100
AcDbEntity
  8
BEMAßUNG
 62
     7
100
AcDb2dPolyline
 66
     1
 10
0.0
 20
0.0
 30
0.0
  0
VERTEX
  5
6B6
330
6B5
100
AcDbEntity
  8
BEMAßUNG
 62
     7
100
AcDbVertex
100
AcDb2dVertex
 10
126.5257825747054
 20
207.5564954450727
 30
0.0
  0
VERTEX
  5
6B7
330
6B5
100
AcDbEntity
  8
BEMAßUNG
 62
     7
100
AcDbVertex
100
AcDb2dVertex
 10
126.5438693260029
 20
205.9858764133473
 30
0.0
  0
SEQEND
  5
6B8
330
6B5
100
AcDbEntity
  8
BEMAßUNG
  0
POLYLINE
  5
6B9
330
1F
100
AcDbEntity
  8
BEMAßUNG
 62
     7
100
AcDb2dPolyline
 66
     1
 10
0.0
 20
0.0
 30
0.0
  0
VERTEX
  5
6BA
330
6B9
100
AcDbEntity
  8
BEMAßUNG
 62
     7
100
AcDbVertex
100
AcDb2dVertex
 10
126.5765977331128
 20
207.5568399546212
 30
0.0
  0
VERTEX
  5
6BB
330
6B9
100
AcDbEntity
  8
BEMAßUNG
 62
     7
100
AcDbVertex
100
AcDb2dVertex
 10
126.5984740894441
 20
205.6001979737736
 30
0.0
  0
SEQEND
  5
6BC
330
6B9
100
AcDbEntity
  8
BEMAßUNG
  0
POLYLINE
  5
6BD
330
1F
100
AcDbEntity
  8
BEMAßUNG
 62
     7
100
AcDb2dPolyline
 66
     1
 10
0.0
 20
0.0
 30
0.0
  0
VERTEX
  5
6BE
330
6BD
100
AcDbEntity
  8
BEMAßUNG
 62
     7
100
AcDbVertex
100
AcDb2dVertex
 10
126.6274128915202
 20
207.5571844641698
 30
0.0
  0
VERTEX
  5
6BF
330
6BD
100
AcDbEntity
  8
BEMAßUNG
 62
     7
100
AcDbVertex
100
AcDb2dVertex
 10
126.6539401267567
 20
205.2150362985226
 30
0.0
  0
SEQEND
  5
6C0
330
6BD
100
AcDbEntity
  8
BEMAßUNG
  0
POLYLINE
  5
6C1
330
1F
100
AcDbEntity
  8
BEMAßUNG
 62
     7
100
AcDb2dPolyline
 66
     1
 10
0.0
 20
0.0
 30
0.0
  0
VERTEX
  5
6C2
330
6C1
100
AcDbEntity
  8
BEMAßUNG
 62
     7
100
AcDbVertex
100
AcDb2dVertex
 10
126.6782280499277
 20
207.5582179928153
 30
0.0
  0
VERTEX
  5
6C3
330
6C1
100
AcDbEntity
  8
BEMAßUNG
 62
     7
100
AcDbVertex
100
AcDb2dVertex
 10
126.7085448901979
 20
204.8298746232717
 30
0.0
  0
SEQEND
  5
6C4
330
6C1
100
AcDbEntity
  8
BEMAßUNG
  0
POLYLINE
  5
6C5
330
1F
100
AcDbEntity
  8
BEMAßUNG
 62
     7
100
AcDb2dPolyline
 66
     1
 10
0.0
 20
0.0
 30
0.0
  0
VERTEX
  5
6C6
330
6C5
100
AcDbEntity
  8
BEMAßUNG
 62
     7
100
AcDbVertex
100
AcDb2dVertex
 10
126.7290432083351
 20
207.5585625023638
 30
0.0
  0
VERTEX
  5
6C7
330
6C5
100
AcDbEntity
  8
BEMAßUNG
 62
     7
100
AcDbVertex
100
AcDb2dVertex
 10
126.7643554370589
 20
204.4447129480208
 30
0.0
  0
SEQEND
  5
6C8
330
6C5
100
AcDbEntity
  8
BEMAßUNG
  0
POLYLINE
  5
6C9
330
1F
100
AcDbEntity
  8
BEMAßUNG
 62
     7
100
AcDb2dPolyline
 66
     1
 10
0.0
 20
0.0
 30
0.0
  0
VERTEX
  5
6CA
330
6C9
100
AcDbEntity
  8
BEMAßUNG
 62
     7
100
AcDbVertex
100
AcDb2dVertex
 10
126.7798583667425
 20
207.5589070119124
 30
0.0
  0
VERTEX
  5
6CB
330
6C9
100
AcDbEntity
  8
BEMAßUNG
 62
     7
100
AcDbVertex
100
AcDb2dVertex
 10
126.8189602005001
 20
204.0593790179956
 30
0.0
  0
SEQEND
  5
6CC
330
6C9
100
AcDbEntity
  8
BEMAßUNG
  0
POLYLINE
  5
6CD
330
1F
100
AcDbEntity
  8
BEMAßUNG
 62
     7
100
AcDb2dPolyline
 66
     1
 10
0.0
 20
0.0
 30
0.0
  0
VERTEX
  5
6CE
330
6CD
100
AcDbEntity
  8
BEMAßUNG
 62
     7
100
AcDbVertex
100
AcDb2dVertex
 10
138.1889810852444
 20
216.4675794272199
 30
0.0
  0
VERTEX
  5
6CF
330
6CD
100
AcDbEntity
  8
BEMAßUNG
 62
     7
100
AcDbVertex
100
AcDb2dVertex
 10
134.6644761490596
 20
216.6610215387167
 30
0.0
  0
VERTEX
  5
6D0
330
6CD
100
AcDbEntity
  8
BEMAßUNG
 62
     7
100
AcDbVertex
100
AcDb2dVertex
 10
134.7342393326359
 20
215.741870063252
 30
0.0
  0
VERTEX
  5
6D1
330
6CD
100
AcDbEntity
  8
BEMAßUNG
 62
     7
100
AcDbVertex
100
AcDb2dVertex
 10
138.1889810852444
 20
216.4675794272199
 30
0.0
  0
SEQEND
  5
6D2
330
6CD
100
AcDbEntity
  8
BEMAßUNG
  0
POLYLINE
  5
6D3
330
1F
100
AcDbEntity
  8
BEMAßUNG
 62
     7
100
AcDb2dPolyline
 66
     1
 10
0.0
 20
0.0
 30
0.0
  0
VERTEX
  5
6D4
330
6D3
100
AcDbEntity
  8
BEMAßUNG
 62
     7
100
AcDbVertex
100
AcDb2dVertex
 10
134.6648206586081
 20
216.6574041884572
 30
0.0
  0
VERTEX
  5
6D5
330
6D3
100
AcDbEntity
  8
BEMAßUNG
 62
     7
100
AcDbVertex
100
AcDb2dVertex
 10
134.6918646581673
 20
216.6596435005226
 30
0.0
  0
SEQEND
  5
6D6
330
6D3
100
AcDbEntity
  8
BEMAßUNG
  0
POLYLINE
  5
6D7
330
1F
100
AcDbEntity
  8
BEMAßUNG
 62
     7
100
AcDb2dPolyline
 66
     1
 10
0.0
 20
0.0
 30
0.0
  0
VERTEX
  5
6D8
330
6D7
100
AcDbEntity
  8
BEMAßUNG
 62
     7
100
AcDbVertex
100
AcDb2dVertex
 10
134.6648206586081
 20
216.6574041884572
 30
0.0
  0
VERTEX
  5
6D9
330
6D7
100
AcDbEntity
  8
BEMAßUNG
 62
     7
100
AcDbVertex
100
AcDb2dVertex
 10
134.6918646581673
 20
216.6596435005226
 30
0.0
  0
SEQEND
  5
6DA
330
6D7
100
AcDbEntity
  8
BEMAßUNG
  0
POLYLINE
  5
6DB
330
1F
100
AcDbEntity
  8
BEMAßUNG
 62
     7
100
AcDb2dPolyline
 66
     1
 10
0.0
 20
0.0
 30
0.0
  0
VERTEX
  5
6DC
330
6DB
100
AcDbEntity
  8
BEMAßUNG
 62
     7
100
AcDbVertex
100
AcDb2dVertex
 10
134.6682657540934
 20
216.6069335395983
 30
0.0
  0
VERTEX
  5
6DD
330
6DB
100
AcDbEntity
  8
BEMAßUNG
 62
     7
100
AcDbVertex
100
AcDb2dVertex
 10
135.0802991741292
 20
216.6379393989655
 30
0.0
  0
SEQEND
  5
6DE
330
6DB
100
AcDbEntity
  8
BEMAßUNG
  0
POLYLINE
  5
6DF
330
1F
100
AcDbEntity
  8
BEMAßUNG
 62
     7
100
AcDb2dPolyline
 66
     1
 10
0.0
 20
0.0
 30
0.0
  0
VERTEX
  5
6E0
330
6DF
100
AcDbEntity
  8
BEMAßUNG
 62
     7
100
AcDbVertex
100
AcDb2dVertex
 10
134.6722276139014
 20
216.5561183811908
 30
0.0
  0
VERTEX
  5
6E1
330
6DF
100
AcDbEntity
  8
BEMAßUNG
 62
     7
100
AcDbVertex
100
AcDb2dVertex
 10
135.4687336900912
 20
216.6169243165055
 30
0.0
  0
SEQEND
  5
6E2
330
6DF
100
AcDbEntity
  8
BEMAßUNG
  0
POLYLINE
  5
6E3
330
1F
100
AcDbEntity
  8
BEMAßUNG
 62
     7
100
AcDb2dPolyline
 66
     1
 10
0.0
 20
0.0
 30
0.0
  0
VERTEX
  5
6E4
330
6E3
100
AcDbEntity
  8
BEMAßUNG
 62
     7
100
AcDbVertex
100
AcDb2dVertex
 10
134.6763617284837
 20
216.5053032227834
 30
0.0
  0
VERTEX
  5
6E5
330
6E3
100
AcDbEntity
  8
BEMAßUNG
 62
     7
100
AcDbVertex
100
AcDb2dVertex
 10
135.8571682060531
 20
216.5952202149484
 30
0.0
  0
SEQEND
  5
6E6
330
6E3
100
AcDbEntity
  8
BEMAßUNG
  0
POLYLINE
  5
6E7
330
1F
100
AcDbEntity
  8
BEMAßUNG
 62
     7
100
AcDb2dPolyline
 66
     1
 10
0.0
 20
0.0
 30
0.0
  0
VERTEX
  5
6E8
330
6E7
100
AcDbEntity
  8
BEMAßUNG
 62
     7
100
AcDbVertex
100
AcDb2dVertex
 10
134.6799790787432
 20
216.4546603191502
 30
0.0
  0
VERTEX
  5
6E9
330
6E7
100
AcDbEntity
  8
BEMAßUNG
 62
     7
100
AcDbVertex
100
AcDb2dVertex
 10
136.2459472315635
 20
216.5738606229399
 30
0.0
  0
SEQEND
  5
6EA
330
6E7
100
AcDbEntity
  8
BEMAßUNG
  0
POLYLINE
  5
6EB
330
1F
100
AcDbEntity
  8
BEMAßUNG
 62
     7
100
AcDb2dPolyline
 66
     1
 10
0.0
 20
0.0
 30
0.0
  0
VERTEX
  5
6EC
330
6EB
100
AcDbEntity
  8
BEMAßUNG
 62
     7
100
AcDbVertex
100
AcDb2dVertex
 10
134.683768683777
 20
216.4036729059685
 30
0.0
  0
VERTEX
  5
6ED
330
6EB
100
AcDbEntity
  8
BEMAßUNG
 62
     7
100
AcDbVertex
100
AcDb2dVertex
 10
136.6350707666225
 20
216.5526732857056
 30
0.0
  0
SEQEND
  5
6EE
330
6EB
100
AcDbEntity
  8
BEMAßUNG
  0
POLYLINE
  5
6EF
330
1F
100
AcDbEntity
  8
BEMAßUNG
 62
     7
100
AcDb2dPolyline
 66
     1
 10
0.0
 20
0.0
 30
0.0
  0
VERTEX
  5
6F0
330
6EF
100
AcDbEntity
  8
BEMAßUNG
 62
     7
100
AcDbVertex
100
AcDb2dVertex
 10
134.6873860340365
 20
216.3533745118839
 30
0.0
  0
VERTEX
  5
6F1
330
6EF
100
AcDbEntity
  8
BEMAßUNG
 62
     7
100
AcDbVertex
100
AcDb2dVertex
 10
137.0235052825844
 20
216.5311414389228
 30
0.0
  0
SEQEND
  5
6F2
330
6EF
100
AcDbEntity
  8
BEMAßUNG
  0
POLYLINE
  5
6F3
330
1F
100
AcDbEntity
  8
BEMAßUNG
 62
     7
100
AcDb2dPolyline
 66
     1
 10
0.0
 20
0.0
 30
0.0
  0
VERTEX
  5
6F4
330
6F3
100
AcDbEntity
  8
BEMAßUNG
 62
     7
100
AcDbVertex
100
AcDb2dVertex
 10
134.6915201486188
 20
216.302903863025
 30
0.0
  0
VERTEX
  5
6F5
330
6F3
100
AcDbEntity
  8
BEMAßUNG
 62
     7
100
AcDbVertex
100
AcDb2dVertex
 10
137.4122843080949
 20
216.510298611237
 30
0.0
  0
SEQEND
  5
6F6
330
6F3
100
AcDbEntity
  8
BEMAßUNG
  0
POLYLINE
  5
6F7
330
1F
100
AcDbEntity
  8
BEMAßUNG
 62
     7
100
AcDb2dPolyline
 66
     1
 10
0.0
 20
0.0
 30
0.0
  0
VERTEX
  5
6F8
330
6F7
100
AcDbEntity
  8
BEMAßUNG
 62
     7
100
AcDbVertex
100
AcDb2dVertex
 10
134.6951374988783
 20
216.2524332141661
 30
0.0
  0
VERTEX
  5
6F9
330
6F7
100
AcDbEntity
  8
BEMAßUNG
 62
     7
100
AcDbVertex
100
AcDb2dVertex
 10
137.8005465692825
 20
216.4884222549057
 30
0.0
  0
SEQEND
  5
6FA
330
6F7
100
AcDbEntity
  8
BEMAßUNG
  0
POLYLINE
  5
6FB
330
1F
100
AcDbEntity
  8
BEMAßUNG
 62
     7
100
AcDb2dPolyline
 66
     1
 10
0.0
 20
0.0
 30
0.0
  0
VERTEX
  5
6FC
330
6FB
100
AcDbEntity
  8
BEMAßUNG
 62
     7
100
AcDbVertex
100
AcDb2dVertex
 10
134.6989271039121
 20
216.2016180557586
 30
0.0
  0
VERTEX
  5
6FD
330
6FB
100
AcDbEntity
  8
BEMAßUNG
 62
     7
100
AcDbVertex
100
AcDb2dVertex
 10
138.1889810852444
 20
216.4675794272199
 30
0.0
  0
SEQEND
  5
6FE
330
6FB
100
AcDbEntity
  8
BEMAßUNG
  0
POLYLINE
  5
6FF
330
1F
100
AcDbEntity
  8
BEMAßUNG
 62
     7
100
AcDb2dPolyline
 66
     1
 10
0.0
 20
0.0
 30
0.0
  0
VERTEX
  5
700
330
6FF
100
AcDbEntity
  8
BEMAßUNG
 62
     7
100
AcDbVertex
100
AcDb2dVertex
 10
134.7342393326359
 20
215.7454874135116
 30
0.0
  0
VERTEX
  5
701
330
6FF
100
AcDbEntity
  8
BEMAßUNG
 62
     7
100
AcDbVertex
100
AcDb2dVertex
 10
134.7614555869694
 20
215.747726725577
 30
0.0
  0
SEQEND
  5
702
330
6FF
100
AcDbEntity
  8
BEMAßUNG
  0
POLYLINE
  5
703
330
1F
100
AcDbEntity
  8
BEMAßUNG
 62
     7
100
AcDb2dPolyline
 66
     1
 10
0.0
 20
0.0
 30
0.0
  0
VERTEX
  5
704
330
703
100
AcDbEntity
  8
BEMAßUNG
 62
     7
100
AcDbVertex
100
AcDb2dVertex
 10
134.7342393326359
 20
215.7454874135116
 30
0.0
  0
VERTEX
  5
705
330
703
100
AcDbEntity
  8
BEMAßUNG
 62
     7
100
AcDbVertex
100
AcDb2dVertex
 10
134.7614555869694
 20
215.747726725577
 30
0.0
  0
SEQEND
  5
706
330
703
100
AcDbEntity
  8
BEMAßUNG
  0
POLYLINE
  5
707
330
1F
100
AcDbEntity
  8
BEMAßUNG
 62
     7
100
AcDb2dPolyline
 66
     1
 10
0.0
 20
0.0
 30
0.0
  0
VERTEX
  5
708
330
707
100
AcDbEntity
  8
BEMAßUNG
 62
     7
100
AcDbVertex
100
AcDb2dVertex
 10
134.7304497276021
 20
215.796302571919
 30
0.0
  0
VERTEX
  5
709
330
707
100
AcDbEntity
  8
BEMAßUNG
 62
     7
100
AcDbVertex
100
AcDb2dVertex
 10
135.1417941285409
 20
215.8273084312862
 30
0.0
  0
SEQEND
  5
70A
330
707
100
AcDbEntity
  8
BEMAßUNG
  0
POLYLINE
  5
70B
330
1F
100
AcDbEntity
  8
BEMAßUNG
 62
     7
100
AcDb2dPolyline
 66
     1
 10
0.0
 20
0.0
 30
0.0
  0
VERTEX
  5
70C
330
70B
100
AcDbEntity
  8
BEMAßUNG
 62
     7
100
AcDbVertex
100
AcDb2dVertex
 10
134.7261433582456
 20
215.8471177303264
 30
0.0
  0
VERTEX
  5
70D
330
70B
100
AcDbEntity
  8
BEMAßUNG
 62
     7
100
AcDbVertex
100
AcDb2dVertex
 10
135.5231661987581
 20
215.9077514108668
 30
0.0
  0
SEQEND
  5
70E
330
70B
100
AcDbEntity
  8
BEMAßUNG
  0
POLYLINE
  5
70F
330
1F
100
AcDbEntity
  8
BEMAßUNG
 62
     7
100
AcDb2dPolyline
 66
     1
 10
0.0
 20
0.0
 30
0.0
  0
VERTEX
  5
710
330
70F
100
AcDbEntity
  8
BEMAßUNG
 62
     7
100
AcDbVertex
100
AcDb2dVertex
 10
134.7223537532118
 20
215.8979328887339
 30
0.0
  0
VERTEX
  5
711
330
70F
100
AcDbEntity
  8
BEMAßUNG
 62
     7
100
AcDbVertex
100
AcDb2dVertex
 10
135.9040215046525
 20
215.9878498808989
 30
0.0
  0
SEQEND
  5
712
330
70F
100
AcDbEntity
  8
BEMAßUNG
  0
POLYLINE
  5
713
330
1F
100
AcDbEntity
  8
BEMAßUNG
 62
     7
100
AcDb2dPolyline
 66
     1
 10
0.0
 20
0.0
 30
0.0
  0
VERTEX
  5
714
330
713
100
AcDbEntity
  8
BEMAßUNG
 62
     7
100
AcDbVertex
100
AcDb2dVertex
 10
134.7187364029523
 20
215.94788677327
 30
0.0
  0
VERTEX
  5
715
330
713
100
AcDbEntity
  8
BEMAßUNG
 62
     7
100
AcDbVertex
100
AcDb2dVertex
 10
136.2847045557726
 20
216.0676038413824
 30
0.0
  0
SEQEND
  5
716
330
713
100
AcDbEntity
  8
BEMAßUNG
  0
POLYLINE
  5
717
330
1F
100
AcDbEntity
  8
BEMAßUNG
 62
     7
100
AcDb2dPolyline
 66
     1
 10
0.0
 20
0.0
 30
0.0
  0
VERTEX
  5
718
330
717
100
AcDbEntity
  8
BEMAßUNG
 62
     7
100
AcDbVertex
100
AcDb2dVertex
 10
134.7144300335957
 20
215.9988741864517
 30
0.0
  0
VERTEX
  5
719
330
717
100
AcDbEntity
  8
BEMAßUNG
 62
     7
100
AcDbVertex
100
AcDb2dVertex
 10
136.6657321164412
 20
216.147357801866
 30
0.0
  0
SEQEND
  5
71A
330
717
100
AcDbEntity
  8
BEMAßUNG
  0
POLYLINE
  5
71B
330
1F
100
AcDbEntity
  8
BEMAßUNG
 62
     7
100
AcDb2dPolyline
 66
     1
 10
0.0
 20
0.0
 30
0.0
  0
VERTEX
  5
71C
330
71B
100
AcDbEntity
  8
BEMAßUNG
 62
     7
100
AcDbVertex
100
AcDb2dVertex
 10
134.7106404285619
 20
216.0491725805363
 30
0.0
  0
VERTEX
  5
71D
330
71B
100
AcDbEntity
  8
BEMAßUNG
 62
     7
100
AcDbVertex
100
AcDb2dVertex
 10
137.0464151675613
 20
216.2272840171237
 30
0.0
  0
SEQEND
  5
71E
330
71B
100
AcDbEntity
  8
BEMAßUNG
  0
POLYLINE
  5
71F
330
1F
100
AcDbEntity
  8
BEMAßUNG
 62
     7
100
AcDb2dPolyline
 66
     1
 10
0.0
 20
0.0
 30
0.0
  0
VERTEX
  5
720
330
71F
100
AcDbEntity
  8
BEMAßUNG
 62
     7
100
AcDbVertex
100
AcDb2dVertex
 10
134.7070230783024
 20
216.0999877389438
 30
0.0
  0
VERTEX
  5
721
330
71F
100
AcDbEntity
  8
BEMAßUNG
 62
     7
100
AcDbVertex
100
AcDb2dVertex
 10
137.4272704734557
 20
216.3075547419301
 30
0.0
  0
SEQEND
  5
722
330
71F
100
AcDbEntity
  8
BEMAßUNG
  0
POLYLINE
  5
723
330
1F
100
AcDbEntity
  8
BEMAßUNG
 62
     7
100
AcDb2dPolyline
 66
     1
 10
0.0
 20
0.0
 30
0.0
  0
VERTEX
  5
724
330
723
100
AcDbEntity
  8
BEMAßUNG
 62
     7
100
AcDbVertex
100
AcDb2dVertex
 10
134.7032334732687
 20
216.1508028973512
 30
0.0
  0
VERTEX
  5
725
330
723
100
AcDbEntity
  8
BEMAßUNG
 62
     7
100
AcDbVertex
100
AcDb2dVertex
 10
137.8079535245758
 20
216.3871364476393
 30
0.0
  0
SEQEND
  5
726
330
723
100
AcDbEntity
  8
BEMAßUNG
  0
POLYLINE
  5
727
330
1F
100
AcDbEntity
  8
BEMAßUNG
 62
     7
100
AcDb2dPolyline
 66
     1
 10
0.0
 20
0.0
 30
0.0
  0
VERTEX
  5
728
330
727
100
AcDbEntity
  8
BEMAßUNG
 62
     7
100
AcDbVertex
100
AcDb2dVertex
 10
134.6989271039121
 20
216.2016180557586
 30
0.0
  0
VERTEX
  5
729
330
727
100
AcDbEntity
  8
BEMAßUNG
 62
     7
100
AcDbVertex
100
AcDb2dVertex
 10
138.1889810852444
 20
216.4675794272199
 30
0.0
  0
SEQEND
  5
72A
330
727
100
AcDbEntity
  8
BEMAßUNG
  0
POLYLINE
  5
72B
330
1F
100
AcDbEntity
  8
BEMAßUNG
 62
     7
100
AcDb2dPolyline
 66
     1
 10
0.0
 20
0.0
 30
0.0
  0
VERTEX
  5
72C
330
72B
100
AcDbEntity
  8
BEMAßUNG
 62
     7
100
AcDbVertex
100
AcDb2dVertex
 10
137.3173719274762
 20
204.9776692195889
 30
0.0
  0
VERTEX
  5
72D
330
72B
100
AcDbEntity
  8
BEMAßUNG
 62
     7
100
AcDbVertex
100
AcDb2dVertex
 10
154.9045843796766
 20
204.9776692195889
 30
0.0
  0
SEQEND
  5
72E
330
72B
100
AcDbEntity
  8
BEMAßUNG
  0
POLYLINE
  5
72F
330
1F
100
AcDbEntity
  8
BEMAßUNG
 62
     7
100
AcDb2dPolyline
 66
     1
 10
0.0
 20
0.0
 30
0.0
  0
VERTEX
  5
730
330
72F
100
AcDbEntity
  8
BEMAßUNG
 62
     7
100
AcDbVertex
100
AcDb2dVertex
 10
128.1909694775009
 20
178.4307969388992
 30
0.0
  0
VERTEX
  5
731
330
72F
100
AcDbEntity
  8
BEMAßUNG
 62
     7
100
AcDbVertex
100
AcDb2dVertex
 10
154.9045843796766
 20
178.4307969388992
 30
0.0
  0
SEQEND
  5
732
330
72F
100
AcDbEntity
  8
BEMAßUNG
  0
POLYLINE
  5
733
330
1F
100
AcDbEntity
  8
BEMAßUNG
 62
     7
100
AcDb2dPolyline
 66
     1
 10
0.0
 20
0.0
 30
0.0
  0
VERTEX
  5
734
330
733
100
AcDbEntity
  8
BEMAßUNG
 62
     7
100
AcDbVertex
100
AcDb2dVertex
 10
152.9045341957149
 20
204.9776692195889
 30
0.0
  0
VERTEX
  5
735
330
733
100
AcDbEntity
  8
BEMAßUNG
 62
     7
100
AcDbVertex
100
AcDb2dVertex
 10
152.9045341957149
 20
178.4307969388992
 30
0.0
  0
SEQEND
  5
736
330
733
100
AcDbEntity
  8
BEMAßUNG
  0
POLYLINE
  5
737
330
1F
100
AcDbEntity
  8
BEMAßUNG
 62
     7
100
AcDb2dPolyline
 66
     1
 10
0.0
 20
0.0
 30
0.0
  0
VERTEX
  5
738
330
737
100
AcDbEntity
  8
BEMAßUNG
 62
     7
100
AcDbVertex
100
AcDb2dVertex
 10
152.9045341957149
 20
204.9776692195889
 30
0.0
  0
VERTEX
  5
739
330
737
100
AcDbEntity
  8
BEMAßUNG
 62
     7
100
AcDbVertex
100
AcDb2dVertex
 10
152.4439249293369
 20
201.4777967161236
 30
0.0
  0
VERTEX
  5
73A
330
737
100
AcDbEntity
  8
BEMAßUNG
 62
     7
100
AcDbVertex
100
AcDb2dVertex
 10
153.3649712073185
 20
201.4777967161236
 30
0.0
  0
VERTEX
  5
73B
330
737
100
AcDbEntity
  8
BEMAßUNG
 62
     7
100
AcDbVertex
100
AcDb2dVertex
 10
152.9045341957149
 20
204.9776692195889
 30
0.0
  0
SEQEND
  5
73C
330
737
100
AcDbEntity
  8
BEMAßUNG
  0
POLYLINE
  5
73D
330
1F
100
AcDbEntity
  8
BEMAßUNG
 62
     7
100
AcDb2dPolyline
 66
     1
 10
0.0
 20
0.0
 30
0.0
  0
VERTEX
  5
73E
330
73D
100
AcDbEntity
  8
BEMAßUNG
 62
     7
100
AcDbVertex
100
AcDb2dVertex
 10
152.4470255152737
 20
201.4777967161236
 30
0.0
  0
VERTEX
  5
73F
330
73D
100
AcDbEntity
  8
BEMAßUNG
 62
     7
100
AcDbVertex
100
AcDb2dVertex
 10
152.4470255152737
 20
201.5053574800056
 30
0.0
  0
SEQEND
  5
740
330
73D
100
AcDbEntity
  8
BEMAßUNG
  0
POLYLINE
  5
741
330
1F
100
AcDbEntity
  8
BEMAßUNG
 62
     7
100
AcDb2dPolyline
 66
     1
 10
0.0
 20
0.0
 30
0.0
  0
VERTEX
  5
742
330
741
100
AcDbEntity
  8
BEMAßUNG
 62
     7
100
AcDbVertex
100
AcDb2dVertex
 10
152.4470255152737
 20
201.4777967161236
 30
0.0
  0
VERTEX
  5
743
330
741
100
AcDbEntity
  8
BEMAßUNG
 62
     7
100
AcDbVertex
100
AcDb2dVertex
 10
152.4470255152737
 20
201.5053574800056
 30
0.0
  0
SEQEND
  5
744
330
741
100
AcDbEntity
  8
BEMAßUNG
  0
POLYLINE
  5
745
330
1F
100
AcDbEntity
  8
BEMAßUNG
 62
     7
100
AcDb2dPolyline
 66
     1
 10
0.0
 20
0.0
 30
0.0
  0
VERTEX
  5
746
330
745
100
AcDbEntity
  8
BEMAßUNG
 62
     7
100
AcDbVertex
100
AcDb2dVertex
 10
152.4981851832296
 20
201.4777967161236
 30
0.0
  0
VERTEX
  5
747
330
745
100
AcDbEntity
  8
BEMAßUNG
 62
     7
100
AcDbVertex
100
AcDb2dVertex
 10
152.4981851832296
 20
201.8905191552566
 30
0.0
  0
SEQEND
  5
748
330
745
100
AcDbEntity
  8
BEMAßUNG
  0
POLYLINE
  5
749
330
1F
100
AcDbEntity
  8
BEMAßUNG
 62
     7
100
AcDb2dPolyline
 66
     1
 10
0.0
 20
0.0
 30
0.0
  0
VERTEX
  5
74A
330
749
100
AcDbEntity
  8
BEMAßUNG
 62
     7
100
AcDbVertex
100
AcDb2dVertex
 10
152.5490003416371
 20
201.4777967161236
 30
0.0
  0
VERTEX
  5
74B
330
749
100
AcDbEntity
  8
BEMAßUNG
 62
     7
100
AcDbVertex
100
AcDb2dVertex
 10
152.5490003416371
 20
202.2767143591531
 30
0.0
  0
SEQEND
  5
74C
330
749
100
AcDbEntity
  8
BEMAßUNG
  0
POLYLINE
  5
74D
330
1F
100
AcDbEntity
  8
BEMAßUNG
 62
     7
100
AcDb2dPolyline
 66
     1
 10
0.0
 20
0.0
 30
0.0
  0
VERTEX
  5
74E
330
74D
100
AcDbEntity
  8
BEMAßUNG
 62
     7
100
AcDbVertex
100
AcDb2dVertex
 10
152.5998155000445
 20
201.4777967161236
 30
0.0
  0
VERTEX
  5
74F
330
74D
100
AcDbEntity
  8
BEMAßUNG
 62
     7
100
AcDbVertex
100
AcDb2dVertex
 10
152.5998155000445
 20
202.6623927987268
 30
0.0
  0
SEQEND
  5
750
330
74D
100
AcDbEntity
  8
BEMAßUNG
  0
POLYLINE
  5
751
330
1F
100
AcDbEntity
  8
BEMAßUNG
 62
     7
100
AcDb2dPolyline
 66
     1
 10
0.0
 20
0.0
 30
0.0
  0
VERTEX
  5
752
330
751
100
AcDbEntity
  8
BEMAßUNG
 62
     7
100
AcDbVertex
100
AcDb2dVertex
 10
152.6506306584519
 20
201.4777967161236
 30
0.0
  0
VERTEX
  5
753
330
751
100
AcDbEntity
  8
BEMAßUNG
 62
     7
100
AcDbVertex
100
AcDb2dVertex
 10
152.6506306584519
 20
203.0487602573975
 30
0.0
  0
SEQEND
  5
754
330
751
100
AcDbEntity
  8
BEMAßUNG
  0
POLYLINE
  5
755
330
1F
100
AcDbEntity
  8
BEMAßUNG
 62
     7
100
AcDb2dPolyline
 66
     1
 10
0.0
 20
0.0
 30
0.0
  0
VERTEX
  5
756
330
755
100
AcDbEntity
  8
BEMAßUNG
 62
     7
100
AcDbVertex
100
AcDb2dVertex
 10
152.7014458168594
 20
201.4777967161236
 30
0.0
  0
VERTEX
  5
757
330
755
100
AcDbEntity
  8
BEMAßUNG
 62
     7
100
AcDbVertex
100
AcDb2dVertex
 10
152.7014458168594
 20
203.434266442197
 30
0.0
  0
SEQEND
  5
758
330
755
100
AcDbEntity
  8
BEMAßUNG
  0
POLYLINE
  5
759
330
1F
100
AcDbEntity
  8
BEMAßUNG
 62
     7
100
AcDb2dPolyline
 66
     1
 10
0.0
 20
0.0
 30
0.0
  0
VERTEX
  5
75A
330
759
100
AcDbEntity
  8
BEMAßUNG
 62
     7
100
AcDbVertex
100
AcDb2dVertex
 10
152.7522609752668
 20
201.4777967161236
 30
0.0
  0
VERTEX
  5
75B
330
759
100
AcDbEntity
  8
BEMAßUNG
 62
     7
100
AcDbVertex
100
AcDb2dVertex
 10
152.7522609752668
 20
203.820117136545
 30
0.0
  0
SEQEND
  5
75C
330
759
100
AcDbEntity
  8
BEMAßUNG
  0
POLYLINE
  5
75D
330
1F
100
AcDbEntity
  8
BEMAßUNG
 62
     7
100
AcDb2dPolyline
 66
     1
 10
0.0
 20
0.0
 30
0.0
  0
VERTEX
  5
75E
330
75D
100
AcDbEntity
  8
BEMAßUNG
 62
     7
100
AcDbVertex
100
AcDb2dVertex
 10
152.8030761336742
 20
201.4777967161236
 30
0.0
  0
VERTEX
  5
75F
330
75D
100
AcDbEntity
  8
BEMAßUNG
 62
     7
100
AcDbVertex
100
AcDb2dVertex
 10
152.8030761336742
 20
204.2057955761187
 30
0.0
  0
SEQEND
  5
760
330
75D
100
AcDbEntity
  8
BEMAßUNG
  0
POLYLINE
  5
761
330
1F
100
AcDbEntity
  8
BEMAßUNG
 62
     7
100
AcDb2dPolyline
 66
     1
 10
0.0
 20
0.0
 30
0.0
  0
VERTEX
  5
762
330
761
100
AcDbEntity
  8
BEMAßUNG
 62
     7
100
AcDbVertex
100
AcDb2dVertex
 10
152.8538912920817
 20
201.4777967161236
 30
0.0
  0
VERTEX
  5
763
330
761
100
AcDbEntity
  8
BEMAßUNG
 62
     7
100
AcDbVertex
100
AcDb2dVertex
 10
152.8538912920817
 20
204.5921630347895
 30
0.0
  0
SEQEND
  5
764
330
761
100
AcDbEntity
  8
BEMAßUNG
  0
POLYLINE
  5
765
330
1F
100
AcDbEntity
  8
BEMAßUNG
 62
     7
100
AcDb2dPolyline
 66
     1
 10
0.0
 20
0.0
 30
0.0
  0
VERTEX
  5
766
330
765
100
AcDbEntity
  8
BEMAßUNG
 62
     7
100
AcDbVertex
100
AcDb2dVertex
 10
152.9045341957149
 20
201.4777967161236
 30
0.0
  0
VERTEX
  5
767
330
765
100
AcDbEntity
  8
BEMAßUNG
 62
     7
100
AcDbVertex
100
AcDb2dVertex
 10
152.9045341957149
 20
204.9776692195889
 30
0.0
  0
SEQEND
  5
768
330
765
100
AcDbEntity
  8
BEMAßUNG
  0
POLYLINE
  5
769
330
1F
100
AcDbEntity
  8
BEMAßUNG
 62
     7
100
AcDb2dPolyline
 66
     1
 10
0.0
 20
0.0
 30
0.0
  0
VERTEX
  5
76A
330
769
100
AcDbEntity
  8
BEMAßUNG
 62
     7
100
AcDbVertex
100
AcDb2dVertex
 10
153.3615261118332
 20
201.4777967161236
 30
0.0
  0
VERTEX
  5
76B
330
769
100
AcDbEntity
  8
BEMAßUNG
 62
     7
100
AcDbVertex
100
AcDb2dVertex
 10
153.3615261118332
 20
201.5053574800056
 30
0.0
  0
SEQEND
  5
76C
330
769
100
AcDbEntity
  8
BEMAßUNG
  0
POLYLINE
  5
76D
330
1F
100
AcDbEntity
  8
BEMAßUNG
 62
     7
100
AcDb2dPolyline
 66
     1
 10
0.0
 20
0.0
 30
0.0
  0
VERTEX
  5
76E
330
76D
100
AcDbEntity
  8
BEMAßUNG
 62
     7
100
AcDbVertex
100
AcDb2dVertex
 10
153.3615261118332
 20
201.4777967161236
 30
0.0
  0
VERTEX
  5
76F
330
76D
100
AcDbEntity
  8
BEMAßUNG
 62
     7
100
AcDbVertex
100
AcDb2dVertex
 10
153.3615261118332
 20
201.5053574800056
 30
0.0
  0
SEQEND
  5
770
330
76D
100
AcDbEntity
  8
BEMAßUNG
  0
POLYLINE
  5
771
330
1F
100
AcDbEntity
  8
BEMAßUNG
 62
     7
100
AcDb2dPolyline
 66
     1
 10
0.0
 20
0.0
 30
0.0
  0
VERTEX
  5
772
330
771
100
AcDbEntity
  8
BEMAßUNG
 62
     7
100
AcDbVertex
100
AcDb2dVertex
 10
153.3107109534258
 20
201.4777967161236
 30
0.0
  0
VERTEX
  5
773
330
771
100
AcDbEntity
  8
BEMAßUNG
 62
     7
100
AcDbVertex
100
AcDb2dVertex
 10
153.3107109534258
 20
201.8905191552566
 30
0.0
  0
SEQEND
  5
774
330
771
100
AcDbEntity
  8
BEMAßUNG
  0
POLYLINE
  5
775
330
1F
100
AcDbEntity
  8
BEMAßUNG
 62
     7
100
AcDb2dPolyline
 66
     1
 10
0.0
 20
0.0
 30
0.0
  0
VERTEX
  5
776
330
775
100
AcDbEntity
  8
BEMAßUNG
 62
     7
100
AcDbVertex
100
AcDb2dVertex
 10
153.2598957950184
 20
201.4777967161236
 30
0.0
  0
VERTEX
  5
777
330
775
100
AcDbEntity
  8
BEMAßUNG
 62
     7
100
AcDbVertex
100
AcDb2dVertex
 10
153.2598957950184
 20
202.2767143591531
 30
0.0
  0
SEQEND
  5
778
330
775
100
AcDbEntity
  8
BEMAßUNG
  0
POLYLINE
  5
779
330
1F
100
AcDbEntity
  8
BEMAßUNG
 62
     7
100
AcDb2dPolyline
 66
     1
 10
0.0
 20
0.0
 30
0.0
  0
VERTEX
  5
77A
330
779
100
AcDbEntity
  8
BEMAßUNG
 62
     7
100
AcDbVertex
100
AcDb2dVertex
 10
153.2090806366109
 20
201.4777967161236
 30
0.0
  0
VERTEX
  5
77B
330
779
100
AcDbEntity
  8
BEMAßUNG
 62
     7
100
AcDbVertex
100
AcDb2dVertex
 10
153.2090806366109
 20
202.6623927987268
 30
0.0
  0
SEQEND
  5
77C
330
779
100
AcDbEntity
  8
BEMAßUNG
  0
POLYLINE
  5
77D
330
1F
100
AcDbEntity
  8
BEMAßUNG
 62
     7
100
AcDb2dPolyline
 66
     1
 10
0.0
 20
0.0
 30
0.0
  0
VERTEX
  5
77E
330
77D
100
AcDbEntity
  8
BEMAßUNG
 62
     7
100
AcDbVertex
100
AcDb2dVertex
 10
153.1582654782035
 20
201.4777967161236
 30
0.0
  0
VERTEX
  5
77F
330
77D
100
AcDbEntity
  8
BEMAßUNG
 62
     7
100
AcDbVertex
100
AcDb2dVertex
 10
153.1582654782035
 20
203.0487602573975
 30
0.0
  0
SEQEND
  5
780
330
77D
100
AcDbEntity
  8
BEMAßUNG
  0
POLYLINE
  5
781
330
1F
100
AcDbEntity
  8
BEMAßUNG
 62
     7
100
AcDb2dPolyline
 66
     1
 10
0.0
 20
0.0
 30
0.0
  0
VERTEX
  5
782
330
781
100
AcDbEntity
  8
BEMAßUNG
 62
     7
100
AcDbVertex
100
AcDb2dVertex
 10
153.1074503197961
 20
201.4777967161236
 30
0.0
  0
VERTEX
  5
783
330
781
100
AcDbEntity
  8
BEMAßUNG
 62
     7
100
AcDbVertex
100
AcDb2dVertex
 10
153.1074503197961
 20
203.434266442197
 30
0.0
  0
SEQEND
  5
784
330
781
100
AcDbEntity
  8
BEMAßUNG
  0
POLYLINE
  5
785
330
1F
100
AcDbEntity
  8
BEMAßUNG
 62
     7
100
AcDb2dPolyline
 66
     1
 10
0.0
 20
0.0
 30
0.0
  0
VERTEX
  5
786
330
785
100
AcDbEntity
  8
BEMAßUNG
 62
     7
100
AcDbVertex
100
AcDb2dVertex
 10
153.0566351613886
 20
201.4777967161236
 30
0.0
  0
VERTEX
  5
787
330
785
100
AcDbEntity
  8
BEMAßUNG
 62
     7
100
AcDbVertex
100
AcDb2dVertex
 10
153.0566351613886
 20
203.820117136545
 30
0.0
  0
SEQEND
  5
788
330
785
100
AcDbEntity
  8
BEMAßUNG
  0
POLYLINE
  5
789
330
1F
100
AcDbEntity
  8
BEMAßUNG
 62
     7
100
AcDb2dPolyline
 66
     1
 10
0.0
 20
0.0
 30
0.0
  0
VERTEX
  5
78A
330
789
100
AcDbEntity
  8
BEMAßUNG
 62
     7
100
AcDbVertex
100
AcDb2dVertex
 10
153.0061645125297
 20
201.4777967161236
 30
0.0
  0
VERTEX
  5
78B
330
789
100
AcDbEntity
  8
BEMAßUNG
 62
     7
100
AcDbVertex
100
AcDb2dVertex
 10
153.0061645125297
 20
204.2057955761187
 30
0.0
  0
SEQEND
  5
78C
330
789
100
AcDbEntity
  8
BEMAßUNG
  0
POLYLINE
  5
78D
330
1F
100
AcDbEntity
  8
BEMAßUNG
 62
     7
100
AcDb2dPolyline
 66
     1
 10
0.0
 20
0.0
 30
0.0
  0
VERTEX
  5
78E
330
78D
100
AcDbEntity
  8
BEMAßUNG
 62
     7
100
AcDbVertex
100
AcDb2dVertex
 10
152.9553493541223
 20
201.4777967161236
 30
0.0
  0
VERTEX
  5
78F
330
78D
100
AcDbEntity
  8
BEMAßUNG
 62
     7
100
AcDbVertex
100
AcDb2dVertex
 10
152.9553493541223
 20
204.5921630347895
 30
0.0
  0
SEQEND
  5
790
330
78D
100
AcDbEntity
  8
BEMAßUNG
  0
POLYLINE
  5
791
330
1F
100
AcDbEntity
  8
BEMAßUNG
 62
     7
100
AcDb2dPolyline
 66
     1
 10
0.0
 20
0.0
 30
0.0
  0
VERTEX
  5
792
330
791
100
AcDbEntity
  8
BEMAßUNG
 62
     7
100
AcDbVertex
100
AcDb2dVertex
 10
152.9045341957149
 20
201.4777967161236
 30
0.0
  0
VERTEX
  5
793
330
791
100
AcDbEntity
  8
BEMAßUNG
 62
     7
100
AcDbVertex
100
AcDb2dVertex
 10
152.9045341957149
 20
204.9776692195889
 30
0.0
  0
SEQEND
  5
794
330
791
100
AcDbEntity
  8
BEMAßUNG
  0
POLYLINE
  5
795
330
1F
100
AcDbEntity
  8
BEMAßUNG
 62
     7
100
AcDb2dPolyline
 66
     1
 10
0.0
 20
0.0
 30
0.0
  0
VERTEX
  5
796
330
795
100
AcDbEntity
  8
BEMAßUNG
 62
     7
100
AcDbVertex
100
AcDb2dVertex
 10
152.9045341957149
 20
178.4307969388992
 30
0.0
  0
VERTEX
  5
797
330
795
100
AcDbEntity
  8
BEMAßUNG
 62
     7
100
AcDbVertex
100
AcDb2dVertex
 10
153.3649712073185
 20
181.930324932816
 30
0.0
  0
VERTEX
  5
798
330
795
100
AcDbEntity
  8
BEMAßUNG
 62
     7
100
AcDbVertex
100
AcDb2dVertex
 10
152.4439249293369
 20
181.930324932816
 30
0.0
  0
VERTEX
  5
799
330
795
100
AcDbEntity
  8
BEMAßUNG
 62
     7
100
AcDbVertex
100
AcDb2dVertex
 10
152.9045341957149
 20
178.4307969388992
 30
0.0
  0
SEQEND
  5
79A
330
795
100
AcDbEntity
  8
BEMAßUNG
  0
POLYLINE
  5
79B
330
1F
100
AcDbEntity
  8
BEMAßUNG
 62
     7
100
AcDb2dPolyline
 66
     1
 10
0.0
 20
0.0
 30
0.0
  0
VERTEX
  5
79C
330
79B
100
AcDbEntity
  8
BEMAßUNG
 62
     7
100
AcDbVertex
100
AcDb2dVertex
 10
153.3615261118332
 20
181.930324932816
 30
0.0
  0
VERTEX
  5
79D
330
79B
100
AcDbEntity
  8
BEMAßUNG
 62
     7
100
AcDbVertex
100
AcDb2dVertex
 10
153.3615261118332
 20
181.9031086784826
 30
0.0
  0
SEQEND
  5
79E
330
79B
100
AcDbEntity
  8
BEMAßUNG
  0
POLYLINE
  5
79F
330
1F
100
AcDbEntity
  8
BEMAßUNG
 62
     7
100
AcDb2dPolyline
 66
     1
 10
0.0
 20
0.0
 30
0.0
  0
VERTEX
  5
7A0
330
79F
100
AcDbEntity
  8
BEMAßUNG
 62
     7
100
AcDbVertex
100
AcDb2dVertex
 10
153.3615261118332
 20
181.930324932816
 30
0.0
  0
VERTEX
  5
7A1
330
79F
100
AcDbEntity
  8
BEMAßUNG
 62
     7
100
AcDbVertex
100
AcDb2dVertex
 10
153.3615261118332
 20
181.9031086784826
 30
0.0
  0
SEQEND
  5
7A2
330
79F
100
AcDbEntity
  8
BEMAßUNG
  0
POLYLINE
  5
7A3
330
1F
100
AcDbEntity
  8
BEMAßUNG
 62
     7
100
AcDb2dPolyline
 66
     1
 10
0.0
 20
0.0
 30
0.0
  0
VERTEX
  5
7A4
330
7A3
100
AcDbEntity
  8
BEMAßUNG
 62
     7
100
AcDbVertex
100
AcDb2dVertex
 10
153.3107109534258
 20
181.930324932816
 30
0.0
  0
VERTEX
  5
7A5
330
7A3
100
AcDbEntity
  8
BEMAßUNG
 62
     7
100
AcDbVertex
100
AcDb2dVertex
 10
153.3107109534258
 20
181.5176024936831
 30
0.0
  0
SEQEND
  5
7A6
330
7A3
100
AcDbEntity
  8
BEMAßUNG
  0
POLYLINE
  5
7A7
330
1F
100
AcDbEntity
  8
BEMAßUNG
 62
     7
100
AcDb2dPolyline
 66
     1
 10
0.0
 20
0.0
 30
0.0
  0
VERTEX
  5
7A8
330
7A7
100
AcDbEntity
  8
BEMAßUNG
 62
     7
100
AcDbVertex
100
AcDb2dVertex
 10
153.2598957950184
 20
181.930324932816
 30
0.0
  0
VERTEX
  5
7A9
330
7A7
100
AcDbEntity
  8
BEMAßUNG
 62
     7
100
AcDbVertex
100
AcDb2dVertex
 10
153.2598957950184
 20
181.1319240541094
 30
0.0
  0
SEQEND
  5
7AA
330
7A7
100
AcDbEntity
  8
BEMAßUNG
  0
POLYLINE
  5
7AB
330
1F
100
AcDbEntity
  8
BEMAßUNG
 62
     7
100
AcDb2dPolyline
 66
     1
 10
0.0
 20
0.0
 30
0.0
  0
VERTEX
  5
7AC
330
7AB
100
AcDbEntity
  8
BEMAßUNG
 62
     7
100
AcDbVertex
100
AcDb2dVertex
 10
153.2090806366109
 20
181.930324932816
 30
0.0
  0
VERTEX
  5
7AD
330
7AB
100
AcDbEntity
  8
BEMAßUNG
 62
     7
100
AcDbVertex
100
AcDb2dVertex
 10
153.2090806366109
 20
180.7457288502129
 30
0.0
  0
SEQEND
  5
7AE
330
7AB
100
AcDbEntity
  8
BEMAßUNG
  0
POLYLINE
  5
7AF
330
1F
100
AcDbEntity
  8
BEMAßUNG
 62
     7
100
AcDb2dPolyline
 66
     1
 10
0.0
 20
0.0
 30
0.0
  0
VERTEX
  5
7B0
330
7AF
100
AcDbEntity
  8
BEMAßUNG
 62
     7
100
AcDbVertex
100
AcDb2dVertex
 10
153.1582654782035
 20
181.930324932816
 30
0.0
  0
VERTEX
  5
7B1
330
7AF
100
AcDbEntity
  8
BEMAßUNG
 62
     7
100
AcDbVertex
100
AcDb2dVertex
 10
153.1582654782035
 20
180.3597059010906
 30
0.0
  0
SEQEND
  5
7B2
330
7AF
100
AcDbEntity
  8
BEMAßUNG
  0
POLYLINE
  5
7B3
330
1F
100
AcDbEntity
  8
BEMAßUNG
 62
     7
100
AcDb2dPolyline
 66
     1
 10
0.0
 20
0.0
 30
0.0
  0
VERTEX
  5
7B4
330
7B3
100
AcDbEntity
  8
BEMAßUNG
 62
     7
100
AcDbVertex
100
AcDb2dVertex
 10
153.1074503197961
 20
181.930324932816
 30
0.0
  0
VERTEX
  5
7B5
330
7B3
100
AcDbEntity
  8
BEMAßUNG
 62
     7
100
AcDbVertex
100
AcDb2dVertex
 10
153.1074503197961
 20
179.9741997162912
 30
0.0
  0
SEQEND
  5
7B6
330
7B3
100
AcDbEntity
  8
BEMAßUNG
  0
POLYLINE
  5
7B7
330
1F
100
AcDbEntity
  8
BEMAßUNG
 62
     7
100
AcDb2dPolyline
 66
     1
 10
0.0
 20
0.0
 30
0.0
  0
VERTEX
  5
7B8
330
7B7
100
AcDbEntity
  8
BEMAßUNG
 62
     7
100
AcDbVertex
100
AcDb2dVertex
 10
153.0566351613886
 20
181.930324932816
 30
0.0
  0
VERTEX
  5
7B9
330
7B7
100
AcDbEntity
  8
BEMAßUNG
 62
     7
100
AcDbVertex
100
AcDb2dVertex
 10
153.0566351613886
 20
179.5878322576204
 30
0.0
  0
SEQEND
  5
7BA
330
7B7
100
AcDbEntity
  8
BEMAßUNG
  0
POLYLINE
  5
7BB
330
1F
100
AcDbEntity
  8
BEMAßUNG
 62
     7
100
AcDb2dPolyline
 66
     1
 10
0.0
 20
0.0
 30
0.0
  0
VERTEX
  5
7BC
330
7BB
100
AcDbEntity
  8
BEMAßUNG
 62
     7
100
AcDbVertex
100
AcDb2dVertex
 10
153.0061645125297
 20
181.930324932816
 30
0.0
  0
VERTEX
  5
7BD
330
7BB
100
AcDbEntity
  8
BEMAßUNG
 62
     7
100
AcDbVertex
100
AcDb2dVertex
 10
153.0061645125297
 20
179.202326072821
 30
0.0
  0
SEQEND
  5
7BE
330
7BB
100
AcDbEntity
  8
BEMAßUNG
  0
POLYLINE
  5
7BF
330
1F
100
AcDbEntity
  8
BEMAßUNG
 62
     7
100
AcDb2dPolyline
 66
     1
 10
0.0
 20
0.0
 30
0.0
  0
VERTEX
  5
7C0
330
7BF
100
AcDbEntity
  8
BEMAßUNG
 62
     7
100
AcDbVertex
100
AcDb2dVertex
 10
152.9553493541223
 20
181.930324932816
 30
0.0
  0
VERTEX
  5
7C1
330
7BF
100
AcDbEntity
  8
BEMAßUNG
 62
     7
100
AcDbVertex
100
AcDb2dVertex
 10
152.9553493541223
 20
178.8163031236987
 30
0.0
  0
SEQEND
  5
7C2
330
7BF
100
AcDbEntity
  8
BEMAßUNG
  0
POLYLINE
  5
7C3
330
1F
100
AcDbEntity
  8
BEMAßUNG
 62
     7
100
AcDb2dPolyline
 66
     1
 10
0.0
 20
0.0
 30
0.0
  0
VERTEX
  5
7C4
330
7C3
100
AcDbEntity
  8
BEMAßUNG
 62
     7
100
AcDbVertex
100
AcDb2dVertex
 10
152.9045341957149
 20
181.930324932816
 30
0.0
  0
VERTEX
  5
7C5
330
7C3
100
AcDbEntity
  8
BEMAßUNG
 62
     7
100
AcDbVertex
100
AcDb2dVertex
 10
152.9045341957149
 20
178.4307969388992
 30
0.0
  0
SEQEND
  5
7C6
330
7C3
100
AcDbEntity
  8
BEMAßUNG
  0
POLYLINE
  5
7C7
330
1F
100
AcDbEntity
  8
BEMAßUNG
 62
     7
100
AcDb2dPolyline
 66
     1
 10
0.0
 20
0.0
 30
0.0
  0
VERTEX
  5
7C8
330
7C7
100
AcDbEntity
  8
BEMAßUNG
 62
     7
100
AcDbVertex
100
AcDb2dVertex
 10
152.4470255152737
 20
181.930324932816
 30
0.0
  0
VERTEX
  5
7C9
330
7C7
100
AcDbEntity
  8
BEMAßUNG
 62
     7
100
AcDbVertex
100
AcDb2dVertex
 10
152.4470255152737
 20
181.9031086784826
 30
0.0
  0
SEQEND
  5
7CA
330
7C7
100
AcDbEntity
  8
BEMAßUNG
  0
POLYLINE
  5
7CB
330
1F
100
AcDbEntity
  8
BEMAßUNG
 62
     7
100
AcDb2dPolyline
 66
     1
 10
0.0
 20
0.0
 30
0.0
  0
VERTEX
  5
7CC
330
7CB
100
AcDbEntity
  8
BEMAßUNG
 62
     7
100
AcDbVertex
100
AcDb2dVertex
 10
152.4470255152737
 20
181.930324932816
 30
0.0
  0
VERTEX
  5
7CD
330
7CB
100
AcDbEntity
  8
BEMAßUNG
 62
     7
100
AcDbVertex
100
AcDb2dVertex
 10
152.4470255152737
 20
181.9031086784826
 30
0.0
  0
SEQEND
  5
7CE
330
7CB
100
AcDbEntity
  8
BEMAßUNG
  0
POLYLINE
  5
7CF
330
1F
100
AcDbEntity
  8
BEMAßUNG
 62
     7
100
AcDb2dPolyline
 66
     1
 10
0.0
 20
0.0
 30
0.0
  0
VERTEX
  5
7D0
330
7CF
100
AcDbEntity
  8
BEMAßUNG
 62
     7
100
AcDbVertex
100
AcDb2dVertex
 10
152.4981851832296
 20
181.930324932816
 30
0.0
  0
VERTEX
  5
7D1
330
7CF
100
AcDbEntity
  8
BEMAßUNG
 62
     7
100
AcDbVertex
100
AcDb2dVertex
 10
152.4981851832296
 20
181.5176024936831
 30
0.0
  0
SEQEND
  5
7D2
330
7CF
100
AcDbEntity
  8
BEMAßUNG
  0
POLYLINE
  5
7D3
330
1F
100
AcDbEntity
  8
BEMAßUNG
 62
     7
100
AcDb2dPolyline
 66
     1
 10
0.0
 20
0.0
 30
0.0
  0
VERTEX
  5
7D4
330
7D3
100
AcDbEntity
  8
BEMAßUNG
 62
     7
100
AcDbVertex
100
AcDb2dVertex
 10
152.5490003416371
 20
181.930324932816
 30
0.0
  0
VERTEX
  5
7D5
330
7D3
100
AcDbEntity
  8
BEMAßUNG
 62
     7
100
AcDbVertex
100
AcDb2dVertex
 10
152.5490003416371
 20
181.1319240541094
 30
0.0
  0
SEQEND
  5
7D6
330
7D3
100
AcDbEntity
  8
BEMAßUNG
  0
POLYLINE
  5
7D7
330
1F
100
AcDbEntity
  8
BEMAßUNG
 62
     7
100
AcDb2dPolyline
 66
     1
 10
0.0
 20
0.0
 30
0.0
  0
VERTEX
  5
7D8
330
7D7
100
AcDbEntity
  8
BEMAßUNG
 62
     7
100
AcDbVertex
100
AcDb2dVertex
 10
152.5998155000445
 20
181.930324932816
 30
0.0
  0
VERTEX
  5
7D9
330
7D7
100
AcDbEntity
  8
BEMAßUNG
 62
     7
100
AcDbVertex
100
AcDb2dVertex
 10
152.5998155000445
 20
180.7457288502129
 30
0.0
  0
SEQEND
  5
7DA
330
7D7
100
AcDbEntity
  8
BEMAßUNG
  0
POLYLINE
  5
7DB
330
1F
100
AcDbEntity
  8
BEMAßUNG
 62
     7
100
AcDb2dPolyline
 66
     1
 10
0.0
 20
0.0
 30
0.0
  0
VERTEX
  5
7DC
330
7DB
100
AcDbEntity
  8
BEMAßUNG
 62
     7
100
AcDbVertex
100
AcDb2dVertex
 10
152.6506306584519
 20
181.930324932816
 30
0.0
  0
VERTEX
  5
7DD
330
7DB
100
AcDbEntity
  8
BEMAßUNG
 62
     7
100
AcDbVertex
100
AcDb2dVertex
 10
152.6506306584519
 20
180.3597059010906
 30
0.0
  0
SEQEND
  5
7DE
330
7DB
100
AcDbEntity
  8
BEMAßUNG
  0
POLYLINE
  5
7DF
330
1F
100
AcDbEntity
  8
BEMAßUNG
 62
     7
100
AcDb2dPolyline
 66
     1
 10
0.0
 20
0.0
 30
0.0
  0
VERTEX
  5
7E0
330
7DF
100
AcDbEntity
  8
BEMAßUNG
 62
     7
100
AcDbVertex
100
AcDb2dVertex
 10
152.7014458168594
 20
181.930324932816
 30
0.0
  0
VERTEX
  5
7E1
330
7DF
100
AcDbEntity
  8
BEMAßUNG
 62
     7
100
AcDbVertex
100
AcDb2dVertex
 10
152.7014458168594
 20
179.9741997162912
 30
0.0
  0
SEQEND
  5
7E2
330
7DF
100
AcDbEntity
  8
BEMAßUNG
  0
POLYLINE
  5
7E3
330
1F
100
AcDbEntity
  8
BEMAßUNG
 62
     7
100
AcDb2dPolyline
 66
     1
 10
0.0
 20
0.0
 30
0.0
  0
VERTEX
  5
7E4
330
7E3
100
AcDbEntity
  8
BEMAßUNG
 62
     7
100
AcDbVertex
100
AcDb2dVertex
 10
152.7522609752668
 20
181.930324932816
 30
0.0
  0
VERTEX
  5
7E5
330
7E3
100
AcDbEntity
  8
BEMAßUNG
 62
     7
100
AcDbVertex
100
AcDb2dVertex
 10
152.7522609752668
 20
179.5878322576204
 30
0.0
  0
SEQEND
  5
7E6
330
7E3
100
AcDbEntity
  8
BEMAßUNG
  0
POLYLINE
  5
7E7
330
1F
100
AcDbEntity
  8
BEMAßUNG
 62
     7
100
AcDb2dPolyline
 66
     1
 10
0.0
 20
0.0
 30
0.0
  0
VERTEX
  5
7E8
330
7E7
100
AcDbEntity
  8
BEMAßUNG
 62
     7
100
AcDbVertex
100
AcDb2dVertex
 10
152.8030761336742
 20
181.930324932816
 30
0.0
  0
VERTEX
  5
7E9
330
7E7
100
AcDbEntity
  8
BEMAßUNG
 62
     7
100
AcDbVertex
100
AcDb2dVertex
 10
152.8030761336742
 20
179.202326072821
 30
0.0
  0
SEQEND
  5
7EA
330
7E7
100
AcDbEntity
  8
BEMAßUNG
  0
POLYLINE
  5
7EB
330
1F
100
AcDbEntity
  8
BEMAßUNG
 62
     7
100
AcDb2dPolyline
 66
     1
 10
0.0
 20
0.0
 30
0.0
  0
VERTEX
  5
7EC
330
7EB
100
AcDbEntity
  8
BEMAßUNG
 62
     7
100
AcDbVertex
100
AcDb2dVertex
 10
152.8538912920817
 20
181.930324932816
 30
0.0
  0
VERTEX
  5
7ED
330
7EB
100
AcDbEntity
  8
BEMAßUNG
 62
     7
100
AcDbVertex
100
AcDb2dVertex
 10
152.8538912920817
 20
178.8163031236987
 30
0.0
  0
SEQEND
  5
7EE
330
7EB
100
AcDbEntity
  8
BEMAßUNG
  0
POLYLINE
  5
7EF
330
1F
100
AcDbEntity
  8
BEMAßUNG
 62
     7
100
AcDb2dPolyline
 66
     1
 10
0.0
 20
0.0
 30
0.0
  0
VERTEX
  5
7F0
330
7EF
100
AcDbEntity
  8
BEMAßUNG
 62
     7
100
AcDbVertex
100
AcDb2dVertex
 10
152.9045341957149
 20
181.930324932816
 30
0.0
  0
VERTEX
  5
7F1
330
7EF
100
AcDbEntity
  8
BEMAßUNG
 62
     7
100
AcDbVertex
100
AcDb2dVertex
 10
152.9045341957149
 20
178.4307969388992
 30
0.0
  0
SEQEND
  5
7F2
330
7EF
100
AcDbEntity
  8
BEMAßUNG
  0
POLYLINE
  5
7F3
330
1F
100
AcDbEntity
  8
BEMAßUNG
 62
     7
100
AcDb2dPolyline
 66
     1
 10
0.0
 20
0.0
 30
0.0
  0
VERTEX
  5
7F4
330
7F3
100
AcDbEntity
  8
BEMAßUNG
 62
     7
100
AcDbVertex
100
AcDb2dVertex
 10
103.1912895792369
 20
201.3803005138911
 30
0.0
  0
VERTEX
  5
7F5
330
7F3
100
AcDbEntity
  8
BEMAßUNG
 62
     7
100
AcDbVertex
100
AcDb2dVertex
 10
103.1912895792369
 20
227.2908636584551
 30
0.0
  0
SEQEND
  5
7F6
330
7F3
100
AcDbEntity
  8
BEMAßUNG
  0
POLYLINE
  5
7F7
330
1F
100
AcDbEntity
  8
BEMAßUNG
 62
     7
100
AcDb2dPolyline
 66
     1
 10
0.0
 20
0.0
 30
0.0
  0
VERTEX
  5
7F8
330
7F7
100
AcDbEntity
  8
BEMAßUNG
 62
     7
100
AcDbVertex
100
AcDb2dVertex
 10
103.1912895792369
 20
225.2909857292675
 30
0.0
  0
VERTEX
  5
7F9
330
7F7
100
AcDbEntity
  8
BEMAßUNG
 62
     7
100
AcDbVertex
100
AcDb2dVertex
 10
138.1889810852444
 20
225.2909857292675
 30
0.0
  0
SEQEND
  5
7FA
330
7F7
100
AcDbEntity
  8
BEMAßUNG
  0
POLYLINE
  5
7FB
330
1F
100
AcDbEntity
  8
BEMAßUNG
 62
     7
100
AcDb2dPolyline
 66
     1
 10
0.0
 20
0.0
 30
0.0
  0
VERTEX
  5
7FC
330
7FB
100
AcDbEntity
  8
BEMAßUNG
 62
     7
100
AcDbVertex
100
AcDb2dVertex
 10
103.1912895792369
 20
225.2909857292675
 30
0.0
  0
VERTEX
  5
7FD
330
7FB
100
AcDbEntity
  8
BEMAßUNG
 62
     7
100
AcDbVertex
100
AcDb2dVertex
 10
106.691678847025
 20
224.8305487176639
 30
0.0
  0
VERTEX
  5
7FE
330
7FB
100
AcDbEntity
  8
BEMAßUNG
 62
     7
100
AcDbVertex
100
AcDb2dVertex
 10
106.691678847025
 20
225.7520256325811
 30
0.0
  0
VERTEX
  5
7FF
330
7FB
100
AcDbEntity
  8
BEMAßUNG
 62
     7
100
AcDbVertex
100
AcDb2dVertex
 10
103.1912895792369
 20
225.2909857292675
 30
0.0
  0
SEQEND
  5
800
330
7FB
100
AcDbEntity
  8
BEMAßUNG
  0
POLYLINE
  5
801
330
1F
100
AcDbEntity
  8
BEMAßUNG
 62
     7
100
AcDb2dPolyline
 66
     1
 10
0.0
 20
0.0
 30
0.0
  0
VERTEX
  5
802
330
801
100
AcDbEntity
  8
BEMAßUNG
 62
     7
100
AcDbVertex
100
AcDb2dVertex
 10
106.691678847025
 20
224.8340799405363
 30
0.0
  0
VERTEX
  5
803
330
801
100
AcDbEntity
  8
BEMAßUNG
 62
     7
100
AcDbVertex
100
AcDb2dVertex
 10
106.664118083143
 20
224.8340799405363
 30
0.0
  0
SEQEND
  5
804
330
801
100
AcDbEntity
  8
BEMAßUNG
  0
POLYLINE
  5
805
330
1F
100
AcDbEntity
  8
BEMAßUNG
 62
     7
100
AcDb2dPolyline
 66
     1
 10
0.0
 20
0.0
 30
0.0
  0
VERTEX
  5
806
330
805
100
AcDbEntity
  8
BEMAßUNG
 62
     7
100
AcDbVertex
100
AcDb2dVertex
 10
106.691678847025
 20
224.8340799405363
 30
0.0
  0
VERTEX
  5
807
330
805
100
AcDbEntity
  8
BEMAßUNG
 62
     7
100
AcDbVertex
100
AcDb2dVertex
 10
106.664118083143
 20
224.8340799405363
 30
0.0
  0
SEQEND
  5
808
330
805
100
AcDbEntity
  8
BEMAßUNG
  0
POLYLINE
  5
809
330
1F
100
AcDbEntity
  8
BEMAßUNG
 62
     7
100
AcDb2dPolyline
 66
     1
 10
0.0
 20
0.0
 30
0.0
  0
VERTEX
  5
80A
330
809
100
AcDbEntity
  8
BEMAßUNG
 62
     7
100
AcDbVertex
100
AcDb2dVertex
 10
106.691678847025
 20
224.8848950989437
 30
0.0
  0
VERTEX
  5
80B
330
809
100
AcDbEntity
  8
BEMAßUNG
 62
     7
100
AcDbVertex
100
AcDb2dVertex
 10
106.2780951340208
 20
224.8848950989437
 30
0.0
  0
SEQEND
  5
80C
330
809
100
AcDbEntity
  8
BEMAßUNG
  0
POLYLINE
  5
80D
330
1F
100
AcDbEntity
  8
BEMAßUNG
 62
     7
100
AcDb2dPolyline
 66
     1
 10
0.0
 20
0.0
 30
0.0
  0
VERTEX
  5
80E
330
80D
100
AcDbEntity
  8
BEMAßUNG
 62
     7
100
AcDbVertex
100
AcDb2dVertex
 10
106.691678847025
 20
224.9357102573512
 30
0.0
  0
VERTEX
  5
80F
330
80D
100
AcDbEntity
  8
BEMAßUNG
 62
     7
100
AcDbVertex
100
AcDb2dVertex
 10
105.8925889492213
 20
224.9357102573512
 30
0.0
  0
SEQEND
  5
810
330
80D
100
AcDbEntity
  8
BEMAßUNG
  0
POLYLINE
  5
811
330
1F
100
AcDbEntity
  8
BEMAßUNG
 62
     7
100
AcDb2dPolyline
 66
     1
 10
0.0
 20
0.0
 30
0.0
  0
VERTEX
  5
812
330
811
100
AcDbEntity
  8
BEMAßUNG
 62
     7
100
AcDbVertex
100
AcDb2dVertex
 10
106.691678847025
 20
224.9861809062101
 30
0.0
  0
VERTEX
  5
813
330
811
100
AcDbEntity
  8
BEMAßUNG
 62
     7
100
AcDbVertex
100
AcDb2dVertex
 10
105.5062214905505
 20
224.9861809062101
 30
0.0
  0
SEQEND
  5
814
330
811
100
AcDbEntity
  8
BEMAßUNG
  0
POLYLINE
  5
815
330
1F
100
AcDbEntity
  8
BEMAßUNG
 62
     7
100
AcDb2dPolyline
 66
     1
 10
0.0
 20
0.0
 30
0.0
  0
VERTEX
  5
816
330
815
100
AcDbEntity
  8
BEMAßUNG
 62
     7
100
AcDbVertex
100
AcDb2dVertex
 10
106.691678847025
 20
225.0369099372304
 30
0.0
  0
VERTEX
  5
817
330
815
100
AcDbEntity
  8
BEMAßUNG
 62
     7
100
AcDbVertex
100
AcDb2dVertex
 10
105.1207153057511
 20
225.0369099372304
 30
0.0
  0
SEQEND
  5
818
330
815
100
AcDbEntity
  8
BEMAßUNG
  0
POLYLINE
  5
819
330
1F
100
AcDbEntity
  8
BEMAßUNG
 62
     7
100
AcDb2dPolyline
 66
     1
 10
0.0
 20
0.0
 30
0.0
  0
VERTEX
  5
81A
330
819
100
AcDbEntity
  8
BEMAßUNG
 62
     7
100
AcDbVertex
100
AcDb2dVertex
 10
106.691678847025
 20
225.0877250956378
 30
0.0
  0
VERTEX
  5
81B
330
819
100
AcDbEntity
  8
BEMAßUNG
 62
     7
100
AcDbVertex
100
AcDb2dVertex
 10
104.7346923566288
 20
225.0877250956378
 30
0.0
  0
SEQEND
  5
81C
330
819
100
AcDbEntity
  8
BEMAßUNG
  0
POLYLINE
  5
81D
330
1F
100
AcDbEntity
  8
BEMAßUNG
 62
     7
100
AcDb2dPolyline
 66
     1
 10
0.0
 20
0.0
 30
0.0
  0
VERTEX
  5
81E
330
81D
100
AcDbEntity
  8
BEMAßUNG
 62
     7
100
AcDbVertex
100
AcDb2dVertex
 10
106.691678847025
 20
225.1385402540452
 30
0.0
  0
VERTEX
  5
81F
330
81D
100
AcDbEntity
  8
BEMAßUNG
 62
     7
100
AcDbVertex
100
AcDb2dVertex
 10
104.3491861718294
 20
225.1385402540452
 30
0.0
  0
SEQEND
  5
820
330
81D
100
AcDbEntity
  8
BEMAßUNG
  0
POLYLINE
  5
821
330
1F
100
AcDbEntity
  8
BEMAßUNG
 62
     7
100
AcDb2dPolyline
 66
     1
 10
0.0
 20
0.0
 30
0.0
  0
VERTEX
  5
822
330
821
100
AcDbEntity
  8
BEMAßUNG
 62
     7
100
AcDbVertex
100
AcDb2dVertex
 10
106.691678847025
 20
225.1893554124527
 30
0.0
  0
VERTEX
  5
823
330
821
100
AcDbEntity
  8
BEMAßUNG
 62
     7
100
AcDbVertex
100
AcDb2dVertex
 10
103.9628187131586
 20
225.1893554124527
 30
0.0
  0
SEQEND
  5
824
330
821
100
AcDbEntity
  8
BEMAßUNG
  0
POLYLINE
  5
825
330
1F
100
AcDbEntity
  8
BEMAßUNG
 62
     7
100
AcDb2dPolyline
 66
     1
 10
0.0
 20
0.0
 30
0.0
  0
VERTEX
  5
826
330
825
100
AcDbEntity
  8
BEMAßUNG
 62
     7
100
AcDbVertex
100
AcDb2dVertex
 10
106.691678847025
 20
225.2401705708601
 30
0.0
  0
VERTEX
  5
827
330
825
100
AcDbEntity
  8
BEMAßUNG
 62
     7
100
AcDbVertex
100
AcDb2dVertex
 10
103.5773125283591
 20
225.2401705708601
 30
0.0
  0
SEQEND
  5
828
330
825
100
AcDbEntity
  8
BEMAßUNG
  0
POLYLINE
  5
829
330
1F
100
AcDbEntity
  8
BEMAßUNG
 62
     7
100
AcDb2dPolyline
 66
     1
 10
0.0
 20
0.0
 30
0.0
  0
VERTEX
  5
82A
330
829
100
AcDbEntity
  8
BEMAßUNG
 62
     7
100
AcDbVertex
100
AcDb2dVertex
 10
106.691678847025
 20
225.2909857292675
 30
0.0
  0
VERTEX
  5
82B
330
829
100
AcDbEntity
  8
BEMAßUNG
 62
     7
100
AcDbVertex
100
AcDb2dVertex
 10
103.1912895792369
 20
225.2909857292675
 30
0.0
  0
SEQEND
  5
82C
330
829
100
AcDbEntity
  8
BEMAßUNG
  0
POLYLINE
  5
82D
330
1F
100
AcDbEntity
  8
BEMAßUNG
 62
     7
100
AcDb2dPolyline
 66
     1
 10
0.0
 20
0.0
 30
0.0
  0
VERTEX
  5
82E
330
82D
100
AcDbEntity
  8
BEMAßUNG
 62
     7
100
AcDbVertex
100
AcDb2dVertex
 10
106.691678847025
 20
225.7484944097087
 30
0.0
  0
VERTEX
  5
82F
330
82D
100
AcDbEntity
  8
BEMAßUNG
 62
     7
100
AcDbVertex
100
AcDb2dVertex
 10
106.664118083143
 20
225.7484944097087
 30
0.0
  0
SEQEND
  5
830
330
82D
100
AcDbEntity
  8
BEMAßUNG
  0
POLYLINE
  5
831
330
1F
100
AcDbEntity
  8
BEMAßUNG
 62
     7
100
AcDb2dPolyline
 66
     1
 10
0.0
 20
0.0
 30
0.0
  0
VERTEX
  5
832
330
831
100
AcDbEntity
  8
BEMAßUNG
 62
     7
100
AcDbVertex
100
AcDb2dVertex
 10
106.691678847025
 20
225.7484944097087
 30
0.0
  0
VERTEX
  5
833
330
831
100
AcDbEntity
  8
BEMAßUNG
 62
     7
100
AcDbVertex
100
AcDb2dVertex
 10
106.664118083143
 20
225.7484944097087
 30
0.0
  0
SEQEND
  5
834
330
831
100
AcDbEntity
  8
BEMAßUNG
  0
POLYLINE
  5
835
330
1F
100
AcDbEntity
  8
BEMAßUNG
 62
     7
100
AcDb2dPolyline
 66
     1
 10
0.0
 20
0.0
 30
0.0
  0
VERTEX
  5
836
330
835
100
AcDbEntity
  8
BEMAßUNG
 62
     7
100
AcDbVertex
100
AcDb2dVertex
 10
106.691678847025
 20
225.6976792513013
 30
0.0
  0
VERTEX
  5
837
330
835
100
AcDbEntity
  8
BEMAßUNG
 62
     7
100
AcDbVertex
100
AcDb2dVertex
 10
106.2780951340208
 20
225.6976792513013
 30
0.0
  0
SEQEND
  5
838
330
835
100
AcDbEntity
  8
BEMAßUNG
  0
POLYLINE
  5
839
330
1F
100
AcDbEntity
  8
BEMAßUNG
 62
     7
100
AcDb2dPolyline
 66
     1
 10
0.0
 20
0.0
 30
0.0
  0
VERTEX
  5
83A
330
839
100
AcDbEntity
  8
BEMAßUNG
 62
     7
100
AcDbVertex
100
AcDb2dVertex
 10
106.691678847025
 20
225.6468640928938
 30
0.0
  0
VERTEX
  5
83B
330
839
100
AcDbEntity
  8
BEMAßUNG
 62
     7
100
AcDbVertex
100
AcDb2dVertex
 10
105.8925889492213
 20
225.6468640928938
 30
0.0
  0
SEQEND
  5
83C
330
839
100
AcDbEntity
  8
BEMAßUNG
  0
POLYLINE
  5
83D
330
1F
100
AcDbEntity
  8
BEMAßUNG
 62
     7
100
AcDb2dPolyline
 66
     1
 10
0.0
 20
0.0
 30
0.0
  0
VERTEX
  5
83E
330
83D
100
AcDbEntity
  8
BEMAßUNG
 62
     7
100
AcDbVertex
100
AcDb2dVertex
 10
106.691678847025
 20
225.5961350618736
 30
0.0
  0
VERTEX
  5
83F
330
83D
100
AcDbEntity
  8
BEMAßUNG
 62
     7
100
AcDbVertex
100
AcDb2dVertex
 10
105.5062214905505
 20
225.5961350618736
 30
0.0
  0
SEQEND
  5
840
330
83D
100
AcDbEntity
  8
BEMAßUNG
  0
POLYLINE
  5
841
330
1F
100
AcDbEntity
  8
BEMAßUNG
 62
     7
100
AcDb2dPolyline
 66
     1
 10
0.0
 20
0.0
 30
0.0
  0
VERTEX
  5
842
330
841
100
AcDbEntity
  8
BEMAßUNG
 62
     7
100
AcDbVertex
100
AcDb2dVertex
 10
106.691678847025
 20
225.5453199034661
 30
0.0
  0
VERTEX
  5
843
330
841
100
AcDbEntity
  8
BEMAßUNG
 62
     7
100
AcDbVertex
100
AcDb2dVertex
 10
105.1207153057511
 20
225.5453199034661
 30
0.0
  0
SEQEND
  5
844
330
841
100
AcDbEntity
  8
BEMAßUNG
  0
POLYLINE
  5
845
330
1F
100
AcDbEntity
  8
BEMAßUNG
 62
     7
100
AcDb2dPolyline
 66
     1
 10
0.0
 20
0.0
 30
0.0
  0
VERTEX
  5
846
330
845
100
AcDbEntity
  8
BEMAßUNG
 62
     7
100
AcDbVertex
100
AcDb2dVertex
 10
106.691678847025
 20
225.4945047450587
 30
0.0
  0
VERTEX
  5
847
330
845
100
AcDbEntity
  8
BEMAßUNG
 62
     7
100
AcDbVertex
100
AcDb2dVertex
 10
104.7346923566288
 20
225.4945047450587
 30
0.0
  0
SEQEND
  5
848
330
845
100
AcDbEntity
  8
BEMAßUNG
  0
POLYLINE
  5
849
330
1F
100
AcDbEntity
  8
BEMAßUNG
 62
     7
100
AcDb2dPolyline
 66
     1
 10
0.0
 20
0.0
 30
0.0
  0
VERTEX
  5
84A
330
849
100
AcDbEntity
  8
BEMAßUNG
 62
     7
100
AcDbVertex
100
AcDb2dVertex
 10
106.691678847025
 20
225.4433450771027
 30
0.0
  0
VERTEX
  5
84B
330
849
100
AcDbEntity
  8
BEMAßUNG
 62
     7
100
AcDbVertex
100
AcDb2dVertex
 10
104.3491861718294
 20
225.4433450771027
 30
0.0
  0
SEQEND
  5
84C
330
849
100
AcDbEntity
  8
BEMAßUNG
  0
POLYLINE
  5
84D
330
1F
100
AcDbEntity
  8
BEMAßUNG
 62
     7
100
AcDb2dPolyline
 66
     1
 10
0.0
 20
0.0
 30
0.0
  0
VERTEX
  5
84E
330
84D
100
AcDbEntity
  8
BEMAßUNG
 62
     7
100
AcDbVertex
100
AcDb2dVertex
 10
106.691678847025
 20
225.3925299186953
 30
0.0
  0
VERTEX
  5
84F
330
84D
100
AcDbEntity
  8
BEMAßUNG
 62
     7
100
AcDbVertex
100
AcDb2dVertex
 10
103.9628187131586
 20
225.3925299186953
 30
0.0
  0
SEQEND
  5
850
330
84D
100
AcDbEntity
  8
BEMAßUNG
  0
POLYLINE
  5
851
330
1F
100
AcDbEntity
  8
BEMAßUNG
 62
     7
100
AcDb2dPolyline
 66
     1
 10
0.0
 20
0.0
 30
0.0
  0
VERTEX
  5
852
330
851
100
AcDbEntity
  8
BEMAßUNG
 62
     7
100
AcDbVertex
100
AcDb2dVertex
 10
106.691678847025
 20
225.341800887675
 30
0.0
  0
VERTEX
  5
853
330
851
100
AcDbEntity
  8
BEMAßUNG
 62
     7
100
AcDbVertex
100
AcDb2dVertex
 10
103.5773125283591
 20
225.341800887675
 30
0.0
  0
SEQEND
  5
854
330
851
100
AcDbEntity
  8
BEMAßUNG
  0
POLYLINE
  5
855
330
1F
100
AcDbEntity
  8
BEMAßUNG
 62
     7
100
AcDb2dPolyline
 66
     1
 10
0.0
 20
0.0
 30
0.0
  0
VERTEX
  5
856
330
855
100
AcDbEntity
  8
BEMAßUNG
 62
     7
100
AcDbVertex
100
AcDb2dVertex
 10
106.691678847025
 20
225.2909857292675
 30
0.0
  0
VERTEX
  5
857
330
855
100
AcDbEntity
  8
BEMAßUNG
 62
     7
100
AcDbVertex
100
AcDb2dVertex
 10
103.1912895792369
 20
225.2909857292675
 30
0.0
  0
SEQEND
  5
858
330
855
100
AcDbEntity
  8
BEMAßUNG
  0
POLYLINE
  5
859
330
1F
100
AcDbEntity
  8
BEMAßUNG
 62
     7
100
AcDb2dPolyline
 66
     1
 10
0.0
 20
0.0
 30
0.0
  0
VERTEX
  5
85A
330
859
100
AcDbEntity
  8
BEMAßUNG
 62
     7
100
AcDbVertex
100
AcDb2dVertex
 10
138.1889810852444
 20
225.2909857292675
 30
0.0
  0
VERTEX
  5
85B
330
859
100
AcDbEntity
  8
BEMAßUNG
 62
     7
100
AcDbVertex
100
AcDb2dVertex
 10
134.6891085817791
 20
225.7520256325811
 30
0.0
  0
VERTEX
  5
85C
330
859
100
AcDbEntity
  8
BEMAßUNG
 62
     7
100
AcDbVertex
100
AcDb2dVertex
 10
134.6891085817791
 20
224.8305487176639
 30
0.0
  0
VERTEX
  5
85D
330
859
100
AcDbEntity
  8
BEMAßUNG
 62
     7
100
AcDbVertex
100
AcDb2dVertex
 10
138.1889810852444
 20
225.2909857292675
 30
0.0
  0
SEQEND
  5
85E
330
859
100
AcDbEntity
  8
BEMAßUNG
  0
POLYLINE
  5
85F
330
1F
100
AcDbEntity
  8
BEMAßUNG
 62
     7
100
AcDb2dPolyline
 66
     1
 10
0.0
 20
0.0
 30
0.0
  0
VERTEX
  5
860
330
85F
100
AcDbEntity
  8
BEMAßUNG
 62
     7
100
AcDbVertex
100
AcDb2dVertex
 10
134.6891085817791
 20
225.7484944097087
 30
0.0
  0
VERTEX
  5
861
330
85F
100
AcDbEntity
  8
BEMAßUNG
 62
     7
100
AcDbVertex
100
AcDb2dVertex
 10
134.7163248361126
 20
225.7484944097087
 30
0.0
  0
SEQEND
  5
862
330
85F
100
AcDbEntity
  8
BEMAßUNG
  0
POLYLINE
  5
863
330
1F
100
AcDbEntity
  8
BEMAßUNG
 62
     7
100
AcDb2dPolyline
 66
     1
 10
0.0
 20
0.0
 30
0.0
  0
VERTEX
  5
864
330
863
100
AcDbEntity
  8
BEMAßUNG
 62
     7
100
AcDbVertex
100
AcDb2dVertex
 10
134.6891085817791
 20
225.7484944097087
 30
0.0
  0
VERTEX
  5
865
330
863
100
AcDbEntity
  8
BEMAßUNG
 62
     7
100
AcDbVertex
100
AcDb2dVertex
 10
134.7163248361126
 20
225.7484944097087
 30
0.0
  0
SEQEND
  5
866
330
863
100
AcDbEntity
  8
BEMAßUNG
  0
POLYLINE
  5
867
330
1F
100
AcDbEntity
  8
BEMAßUNG
 62
     7
100
AcDb2dPolyline
 66
     1
 10
0.0
 20
0.0
 30
0.0
  0
VERTEX
  5
868
330
867
100
AcDbEntity
  8
BEMAßUNG
 62
     7
100
AcDbVertex
100
AcDb2dVertex
 10
134.6891085817791
 20
225.6976792513013
 30
0.0
  0
VERTEX
  5
869
330
867
100
AcDbEntity
  8
BEMAßUNG
 62
     7
100
AcDbVertex
100
AcDb2dVertex
 10
135.1021755304606
 20
225.6976792513013
 30
0.0
  0
SEQEND
  5
86A
330
867
100
AcDbEntity
  8
BEMAßUNG
  0
POLYLINE
  5
86B
330
1F
100
AcDbEntity
  8
BEMAßUNG
 62
     7
100
AcDb2dPolyline
 66
     1
 10
0.0
 20
0.0
 30
0.0
  0
VERTEX
  5
86C
330
86B
100
AcDbEntity
  8
BEMAßUNG
 62
     7
100
AcDbVertex
100
AcDb2dVertex
 10
134.6891085817791
 20
225.6468640928938
 30
0.0
  0
VERTEX
  5
86D
330
86B
100
AcDbEntity
  8
BEMAßUNG
 62
     7
100
AcDbVertex
100
AcDb2dVertex
 10
135.4878539700343
 20
225.6468640928938
 30
0.0
  0
SEQEND
  5
86E
330
86B
100
AcDbEntity
  8
BEMAßUNG
  0
POLYLINE
  5
86F
330
1F
100
AcDbEntity
  8
BEMAßUNG
 62
     7
100
AcDb2dPolyline
 66
     1
 10
0.0
 20
0.0
 30
0.0
  0
VERTEX
  5
870
330
86F
100
AcDbEntity
  8
BEMAßUNG
 62
     7
100
AcDbVertex
100
AcDb2dVertex
 10
134.6891085817791
 20
225.5961350618736
 30
0.0
  0
VERTEX
  5
871
330
86F
100
AcDbEntity
  8
BEMAßUNG
 62
     7
100
AcDbVertex
100
AcDb2dVertex
 10
135.8740491739308
 20
225.5961350618736
 30
0.0
  0
SEQEND
  5
872
330
86F
100
AcDbEntity
  8
BEMAßUNG
  0
POLYLINE
  5
873
330
1F
100
AcDbEntity
  8
BEMAßUNG
 62
     7
100
AcDb2dPolyline
 66
     1
 10
0.0
 20
0.0
 30
0.0
  0
VERTEX
  5
874
330
873
100
AcDbEntity
  8
BEMAßUNG
 62
     7
100
AcDbVertex
100
AcDb2dVertex
 10
134.6891085817791
 20
225.5453199034661
 30
0.0
  0
VERTEX
  5
875
330
873
100
AcDbEntity
  8
BEMAßUNG
 62
     7
100
AcDbVertex
100
AcDb2dVertex
 10
136.2597276135045
 20
225.5453199034661
 30
0.0
  0
SEQEND
  5
876
330
873
100
AcDbEntity
  8
BEMAßUNG
  0
POLYLINE
  5
877
330
1F
100
AcDbEntity
  8
BEMAßUNG
 62
     7
100
AcDb2dPolyline
 66
     1
 10
0.0
 20
0.0
 30
0.0
  0
VERTEX
  5
878
330
877
100
AcDbEntity
  8
BEMAßUNG
 62
     7
100
AcDbVertex
100
AcDb2dVertex
 10
134.6891085817791
 20
225.4945047450587
 30
0.0
  0
VERTEX
  5
879
330
877
100
AcDbEntity
  8
BEMAßUNG
 62
     7
100
AcDbVertex
100
AcDb2dVertex
 10
136.6455783078525
 20
225.4945047450587
 30
0.0
  0
SEQEND
  5
87A
330
877
100
AcDbEntity
  8
BEMAßUNG
  0
POLYLINE
  5
87B
330
1F
100
AcDbEntity
  8
BEMAßUNG
 62
     7
100
AcDb2dPolyline
 66
     1
 10
0.0
 20
0.0
 30
0.0
  0
VERTEX
  5
87C
330
87B
100
AcDbEntity
  8
BEMAßUNG
 62
     7
100
AcDbVertex
100
AcDb2dVertex
 10
134.6891085817791
 20
225.4433450771027
 30
0.0
  0
VERTEX
  5
87D
330
87B
100
AcDbEntity
  8
BEMAßUNG
 62
     7
100
AcDbVertex
100
AcDb2dVertex
 10
137.0312567474262
 20
225.4433450771027
 30
0.0
  0
SEQEND
  5
87E
330
87B
100
AcDbEntity
  8
BEMAßUNG
  0
POLYLINE
  5
87F
330
1F
100
AcDbEntity
  8
BEMAßUNG
 62
     7
100
AcDb2dPolyline
 66
     1
 10
0.0
 20
0.0
 30
0.0
  0
VERTEX
  5
880
330
87F
100
AcDbEntity
  8
BEMAßUNG
 62
     7
100
AcDbVertex
100
AcDb2dVertex
 10
134.6891085817791
 20
225.3925299186953
 30
0.0
  0
VERTEX
  5
881
330
87F
100
AcDbEntity
  8
BEMAßUNG
 62
     7
100
AcDbVertex
100
AcDb2dVertex
 10
137.4174519513227
 20
225.3925299186953
 30
0.0
  0
SEQEND
  5
882
330
87F
100
AcDbEntity
  8
BEMAßUNG
  0
POLYLINE
  5
883
330
1F
100
AcDbEntity
  8
BEMAßUNG
 62
     7
100
AcDb2dPolyline
 66
     1
 10
0.0
 20
0.0
 30
0.0
  0
VERTEX
  5
884
330
883
100
AcDbEntity
  8
BEMAßUNG
 62
     7
100
AcDbVertex
100
AcDb2dVertex
 10
134.6891085817791
 20
225.341800887675
 30
0.0
  0
VERTEX
  5
885
330
883
100
AcDbEntity
  8
BEMAßUNG
 62
     7
100
AcDbVertex
100
AcDb2dVertex
 10
137.8031303908965
 20
225.341800887675
 30
0.0
  0
SEQEND
  5
886
330
883
100
AcDbEntity
  8
BEMAßUNG
  0
POLYLINE
  5
887
330
1F
100
AcDbEntity
  8
BEMAßUNG
 62
     7
100
AcDb2dPolyline
 66
     1
 10
0.0
 20
0.0
 30
0.0
  0
VERTEX
  5
888
330
887
100
AcDbEntity
  8
BEMAßUNG
 62
     7
100
AcDbVertex
100
AcDb2dVertex
 10
134.6891085817791
 20
225.2909857292675
 30
0.0
  0
VERTEX
  5
889
330
887
100
AcDbEntity
  8
BEMAßUNG
 62
     7
100
AcDbVertex
100
AcDb2dVertex
 10
138.1889810852444
 20
225.2909857292675
 30
0.0
  0
SEQEND
  5
88A
330
887
100
AcDbEntity
  8
BEMAßUNG
  0
POLYLINE
  5
88B
330
1F
100
AcDbEntity
  8
BEMAßUNG
 62
     7
100
AcDb2dPolyline
 66
     1
 10
0.0
 20
0.0
 30
0.0
  0
VERTEX
  5
88C
330
88B
100
AcDbEntity
  8
BEMAßUNG
 62
     7
100
AcDbVertex
100
AcDb2dVertex
 10
134.6891085817791
 20
224.8340799405363
 30
0.0
  0
VERTEX
  5
88D
330
88B
100
AcDbEntity
  8
BEMAßUNG
 62
     7
100
AcDbVertex
100
AcDb2dVertex
 10
134.7163248361126
 20
224.8340799405363
 30
0.0
  0
SEQEND
  5
88E
330
88B
100
AcDbEntity
  8
BEMAßUNG
  0
POLYLINE
  5
88F
330
1F
100
AcDbEntity
  8
BEMAßUNG
 62
     7
100
AcDb2dPolyline
 66
     1
 10
0.0
 20
0.0
 30
0.0
  0
VERTEX
  5
890
330
88F
100
AcDbEntity
  8
BEMAßUNG
 62
     7
100
AcDbVertex
100
AcDb2dVertex
 10
134.6891085817791
 20
224.8340799405363
 30
0.0
  0
VERTEX
  5
891
330
88F
100
AcDbEntity
  8
BEMAßUNG
 62
     7
100
AcDbVertex
100
AcDb2dVertex
 10
134.7163248361126
 20
224.8340799405363
 30
0.0
  0
SEQEND
  5
892
330
88F
100
AcDbEntity
  8
BEMAßUNG
  0
POLYLINE
  5
893
330
1F
100
AcDbEntity
  8
BEMAßUNG
 62
     7
100
AcDb2dPolyline
 66
     1
 10
0.0
 20
0.0
 30
0.0
  0
VERTEX
  5
894
330
893
100
AcDbEntity
  8
BEMAßUNG
 62
     7
100
AcDbVertex
100
AcDb2dVertex
 10
134.6891085817791
 20
224.8848950989437
 30
0.0
  0
VERTEX
  5
895
330
893
100
AcDbEntity
  8
BEMAßUNG
 62
     7
100
AcDbVertex
100
AcDb2dVertex
 10
135.1021755304606
 20
224.8848950989437
 30
0.0
  0
SEQEND
  5
896
330
893
100
AcDbEntity
  8
BEMAßUNG
  0
POLYLINE
  5
897
330
1F
100
AcDbEntity
  8
BEMAßUNG
 62
     7
100
AcDb2dPolyline
 66
     1
 10
0.0
 20
0.0
 30
0.0
  0
VERTEX
  5
898
330
897
100
AcDbEntity
  8
BEMAßUNG
 62
     7
100
AcDbVertex
100
AcDb2dVertex
 10
134.6891085817791
 20
224.9357102573512
 30
0.0
  0
VERTEX
  5
899
330
897
100
AcDbEntity
  8
BEMAßUNG
 62
     7
100
AcDbVertex
100
AcDb2dVertex
 10
135.4878539700343
 20
224.9357102573512
 30
0.0
  0
SEQEND
  5
89A
330
897
100
AcDbEntity
  8
BEMAßUNG
  0
POLYLINE
  5
89B
330
1F
100
AcDbEntity
  8
BEMAßUNG
 62
     7
100
AcDb2dPolyline
 66
     1
 10
0.0
 20
0.0
 30
0.0
  0
VERTEX
  5
89C
330
89B
100
AcDbEntity
  8
BEMAßUNG
 62
     7
100
AcDbVertex
100
AcDb2dVertex
 10
134.6891085817791
 20
224.9861809062101
 30
0.0
  0
VERTEX
  5
89D
330
89B
100
AcDbEntity
  8
BEMAßUNG
 62
     7
100
AcDbVertex
100
AcDb2dVertex
 10
135.8740491739308
 20
224.9861809062101
 30
0.0
  0
SEQEND
  5
89E
330
89B
100
AcDbEntity
  8
BEMAßUNG
  0
POLYLINE
  5
89F
330
1F
100
AcDbEntity
  8
BEMAßUNG
 62
     7
100
AcDb2dPolyline
 66
     1
 10
0.0
 20
0.0
 30
0.0
  0
VERTEX
  5
8A0
330
89F
100
AcDbEntity
  8
BEMAßUNG
 62
     7
100
AcDbVertex
100
AcDb2dVertex
 10
134.6891085817791
 20
225.0369099372304
 30
0.0
  0
VERTEX
  5
8A1
330
89F
100
AcDbEntity
  8
BEMAßUNG
 62
     7
100
AcDbVertex
100
AcDb2dVertex
 10
136.2597276135045
 20
225.0369099372304
 30
0.0
  0
SEQEND
  5
8A2
330
89F
100
AcDbEntity
  8
BEMAßUNG
  0
POLYLINE
  5
8A3
330
1F
100
AcDbEntity
  8
BEMAßUNG
 62
     7
100
AcDb2dPolyline
 66
     1
 10
0.0
 20
0.0
 30
0.0
  0
VERTEX
  5
8A4
330
8A3
100
AcDbEntity
  8
BEMAßUNG
 62
     7
100
AcDbVertex
100
AcDb2dVertex
 10
134.6891085817791
 20
225.0877250956378
 30
0.0
  0
VERTEX
  5
8A5
330
8A3
100
AcDbEntity
  8
BEMAßUNG
 62
     7
100
AcDbVertex
100
AcDb2dVertex
 10
136.6455783078525
 20
225.0877250956378
 30
0.0
  0
SEQEND
  5
8A6
330
8A3
100
AcDbEntity
  8
BEMAßUNG
  0
POLYLINE
  5
8A7
330
1F
100
AcDbEntity
  8
BEMAßUNG
 62
     7
100
AcDb2dPolyline
 66
     1
 10
0.0
 20
0.0
 30
0.0
  0
VERTEX
  5
8A8
330
8A7
100
AcDbEntity
  8
BEMAßUNG
 62
     7
100
AcDbVertex
100
AcDb2dVertex
 10
134.6891085817791
 20
225.1385402540452
 30
0.0
  0
VERTEX
  5
8A9
330
8A7
100
AcDbEntity
  8
BEMAßUNG
 62
     7
100
AcDbVertex
100
AcDb2dVertex
 10
137.0312567474262
 20
225.1385402540452
 30
0.0
  0
SEQEND
  5
8AA
330
8A7
100
AcDbEntity
  8
BEMAßUNG
  0
POLYLINE
  5
8AB
330
1F
100
AcDbEntity
  8
BEMAßUNG
 62
     7
100
AcDb2dPolyline
 66
     1
 10
0.0
 20
0.0
 30
0.0
  0
VERTEX
  5
8AC
330
8AB
100
AcDbEntity
  8
BEMAßUNG
 62
     7
100
AcDbVertex
100
AcDb2dVertex
 10
134.6891085817791
 20
225.1893554124527
 30
0.0
  0
VERTEX
  5
8AD
330
8AB
100
AcDbEntity
  8
BEMAßUNG
 62
     7
100
AcDbVertex
100
AcDb2dVertex
 10
137.4174519513227
 20
225.1893554124527
 30
0.0
  0
SEQEND
  5
8AE
330
8AB
100
AcDbEntity
  8
BEMAßUNG
  0
POLYLINE
  5
8AF
330
1F
100
AcDbEntity
  8
BEMAßUNG
 62
     7
100
AcDb2dPolyline
 66
     1
 10
0.0
 20
0.0
 30
0.0
  0
VERTEX
  5
8B0
330
8AF
100
AcDbEntity
  8
BEMAßUNG
 62
     7
100
AcDbVertex
100
AcDb2dVertex
 10
134.6891085817791
 20
225.2401705708601
 30
0.0
  0
VERTEX
  5
8B1
330
8AF
100
AcDbEntity
  8
BEMAßUNG
 62
     7
100
AcDbVertex
100
AcDb2dVertex
 10
137.8031303908965
 20
225.2401705708601
 30
0.0
  0
SEQEND
  5
8B2
330
8AF
100
AcDbEntity
  8
BEMAßUNG
  0
POLYLINE
  5
8B3
330
1F
100
AcDbEntity
  8
BEMAßUNG
 62
     7
100
AcDb2dPolyline
 66
     1
 10
0.0
 20
0.0
 30
0.0
  0
VERTEX
  5
8B4
330
8B3
100
AcDbEntity
  8
BEMAßUNG
 62
     7
100
AcDbVertex
100
AcDb2dVertex
 10
134.6891085817791
 20
225.2909857292675
 30
0.0
  0
VERTEX
  5
8B5
330
8B3
100
AcDbEntity
  8
BEMAßUNG
 62
     7
100
AcDbVertex
100
AcDb2dVertex
 10
138.1889810852444
 20
225.2909857292675
 30
0.0
  0
SEQEND
  5
8B6
330
8B3
100
AcDbEntity
  8
BEMAßUNG
  0
POLYLINE
  5
8B7
330
1F
100
AcDbEntity
  8
BEMAßUNG
 62
     7
100
AcDb2dPolyline
 66
     1
 10
0.0
 20
0.0
 30
0.0
  0
VERTEX
  5
8B8
330
8B7
100
AcDbEntity
  8
BEMAßUNG
 62
     7
100
AcDbVertex
100
AcDb2dVertex
 10
18.29828016035599
 20
185.0124796086948
 30
0.0
  0
VERTEX
  5
8B9
330
8B7
100
AcDbEntity
  8
BEMAßUNG
 62
     7
100
AcDbVertex
100
AcDb2dVertex
 10
18.29828016035599
 20
165.5948879251812
 30
0.0
  0
SEQEND
  5
8BA
330
8B7
100
AcDbEntity
  8
BEMAßUNG
  0
POLYLINE
  5
8BB
330
1F
100
AcDbEntity
  8
BEMAßUNG
 62
     7
100
AcDb2dPolyline
 66
     1
 10
0.0
 20
0.0
 30
0.0
  0
VERTEX
  5
8BC
330
8BB
100
AcDbEntity
  8
BEMAßUNG
 62
     7
100
AcDbVertex
100
AcDb2dVertex
 10
48.29817164591157
 20
179.1973306843673
 30
0.0
  0
VERTEX
  5
8BD
330
8BB
100
AcDbEntity
  8
BEMAßUNG
 62
     7
100
AcDbVertex
100
AcDb2dVertex
 10
48.29817164591157
 20
165.5948879251812
 30
0.0
  0
SEQEND
  5
8BE
330
8BB
100
AcDbEntity
  8
BEMAßUNG
  0
POLYLINE
  5
8BF
330
1F
100
AcDbEntity
  8
BEMAßUNG
 62
     7
100
AcDb2dPolyline
 66
     1
 10
0.0
 20
0.0
 30
0.0
  0
VERTEX
  5
8C0
330
8BF
100
AcDbEntity
  8
BEMAßUNG
 62
     7
100
AcDbVertex
100
AcDb2dVertex
 10
18.29828016035599
 20
167.5949381091429
 30
0.0
  0
VERTEX
  5
8C1
330
8BF
100
AcDbEntity
  8
BEMAßUNG
 62
     7
100
AcDbVertex
100
AcDb2dVertex
 10
48.29817164591157
 20
167.5949381091429
 30
0.0
  0
SEQEND
  5
8C2
330
8BF
100
AcDbEntity
  8
BEMAßUNG
  0
POLYLINE
  5
8C3
330
1F
100
AcDbEntity
  8
BEMAßUNG
 62
     7
100
AcDb2dPolyline
 66
     1
 10
0.0
 20
0.0
 30
0.0
  0
VERTEX
  5
8C4
330
8C3
100
AcDbEntity
  8
BEMAßUNG
 62
     7
100
AcDbVertex
100
AcDb2dVertex
 10
18.29828016035599
 20
167.5949381091429
 30
0.0
  0
VERTEX
  5
8C5
330
8C3
100
AcDbEntity
  8
BEMAßUNG
 62
     7
100
AcDbVertex
100
AcDb2dVertex
 10
21.79815266382129
 20
167.1345010975393
 30
0.0
  0
VERTEX
  5
8C6
330
8C3
100
AcDbEntity
  8
BEMAßUNG
 62
     7
100
AcDbVertex
100
AcDb2dVertex
 10
21.79815266382129
 20
168.0558918850694
 30
0.0
  0
VERTEX
  5
8C7
330
8C3
100
AcDbEntity
  8
BEMAßUNG
 62
     7
100
AcDbVertex
100
AcDb2dVertex
 10
18.29828016035599
 20
167.5949381091429
 30
0.0
  0
SEQEND
  5
8C8
330
8C3
100
AcDbEntity
  8
BEMAßUNG
  0
POLYLINE
  5
8C9
330
1F
100
AcDbEntity
  8
BEMAßUNG
 62
     7
100
AcDb2dPolyline
 66
     1
 10
0.0
 20
0.0
 30
0.0
  0
VERTEX
  5
8CA
330
8C9
100
AcDbEntity
  8
BEMAßUNG
 62
     7
100
AcDbVertex
100
AcDb2dVertex
 10
21.79815266382129
 20
167.1379461930246
 30
0.0
  0
VERTEX
  5
8CB
330
8C9
100
AcDbEntity
  8
BEMAßUNG
 62
     7
100
AcDbVertex
100
AcDb2dVertex
 10
21.77093640948782
 20
167.1379461930246
 30
0.0
  0
SEQEND
  5
8CC
330
8C9
100
AcDbEntity
  8
BEMAßUNG
  0
POLYLINE
  5
8CD
330
1F
100
AcDbEntity
  8
BEMAßUNG
 62
     7
100
AcDb2dPolyline
 66
     1
 10
0.0
 20
0.0
 30
0.0
  0
VERTEX
  5
8CE
330
8CD
100
AcDbEntity
  8
BEMAßUNG
 62
     7
100
AcDbVertex
100
AcDb2dVertex
 10
21.79815266382129
 20
167.1379461930246
 30
0.0
  0
VERTEX
  5
8CF
330
8CD
100
AcDbEntity
  8
BEMAßUNG
 62
     7
100
AcDbVertex
100
AcDb2dVertex
 10
21.77093640948782
 20
167.1379461930246
 30
0.0
  0
SEQEND
  5
8D0
330
8CD
100
AcDbEntity
  8
BEMAßUNG
  0
POLYLINE
  5
8D1
330
1F
100
AcDbEntity
  8
BEMAßUNG
 62
     7
100
AcDb2dPolyline
 66
     1
 10
0.0
 20
0.0
 30
0.0
  0
VERTEX
  5
8D2
330
8D1
100
AcDbEntity
  8
BEMAßUNG
 62
     7
100
AcDbVertex
100
AcDb2dVertex
 10
21.79815266382129
 20
167.188761351432
 30
0.0
  0
VERTEX
  5
8D3
330
8D1
100
AcDbEntity
  8
BEMAßUNG
 62
     7
100
AcDbVertex
100
AcDb2dVertex
 10
21.38508571513984
 20
167.188761351432
 30
0.0
  0
SEQEND
  5
8D4
330
8D1
100
AcDbEntity
  8
BEMAßUNG
  0
POLYLINE
  5
8D5
330
1F
100
AcDbEntity
  8
BEMAßUNG
 62
     7
100
AcDb2dPolyline
 66
     1
 10
0.0
 20
0.0
 30
0.0
  0
VERTEX
  5
8D6
330
8D5
100
AcDbEntity
  8
BEMAßUNG
 62
     7
100
AcDbVertex
100
AcDb2dVertex
 10
21.79815266382129
 20
167.2395765098394
 30
0.0
  0
VERTEX
  5
8D7
330
8D5
100
AcDbEntity
  8
BEMAßUNG
 62
     7
100
AcDbVertex
100
AcDb2dVertex
 10
20.99940727556612
 20
167.2395765098394
 30
0.0
  0
SEQEND
  5
8D8
330
8D5
100
AcDbEntity
  8
BEMAßUNG
  0
POLYLINE
  5
8D9
330
1F
100
AcDbEntity
  8
BEMAßUNG
 62
     7
100
AcDb2dPolyline
 66
     1
 10
0.0
 20
0.0
 30
0.0
  0
VERTEX
  5
8DA
330
8D9
100
AcDbEntity
  8
BEMAßUNG
 62
     7
100
AcDbVertex
100
AcDb2dVertex
 10
21.79815266382129
 20
167.2900471586983
 30
0.0
  0
VERTEX
  5
8DB
330
8D9
100
AcDbEntity
  8
BEMAßUNG
 62
     7
100
AcDbVertex
100
AcDb2dVertex
 10
20.61355658121814
 20
167.2900471586983
 30
0.0
  0
SEQEND
  5
8DC
330
8D9
100
AcDbEntity
  8
BEMAßUNG
  0
POLYLINE
  5
8DD
330
1F
100
AcDbEntity
  8
BEMAßUNG
 62
     7
100
AcDb2dPolyline
 66
     1
 10
0.0
 20
0.0
 30
0.0
  0
VERTEX
  5
8DE
330
8DD
100
AcDbEntity
  8
BEMAßUNG
 62
     7
100
AcDbVertex
100
AcDb2dVertex
 10
21.79815266382129
 20
167.3408623171058
 30
0.0
  0
VERTEX
  5
8DF
330
8DD
100
AcDbEntity
  8
BEMAßUNG
 62
     7
100
AcDbVertex
100
AcDb2dVertex
 10
20.22753363209589
 20
167.3408623171058
 30
0.0
  0
SEQEND
  5
8E0
330
8DD
100
AcDbEntity
  8
BEMAßUNG
  0
POLYLINE
  5
8E1
330
1F
100
AcDbEntity
  8
BEMAßUNG
 62
     7
100
AcDb2dPolyline
 66
     1
 10
0.0
 20
0.0
 30
0.0
  0
VERTEX
  5
8E2
330
8E1
100
AcDbEntity
  8
BEMAßUNG
 62
     7
100
AcDbVertex
100
AcDb2dVertex
 10
21.79815266382129
 20
167.3916774755132
 30
0.0
  0
VERTEX
  5
8E3
330
8E1
100
AcDbEntity
  8
BEMAßUNG
 62
     7
100
AcDbVertex
100
AcDb2dVertex
 10
19.84168293774791
 20
167.3916774755132
 30
0.0
  0
SEQEND
  5
8E4
330
8E1
100
AcDbEntity
  8
BEMAßUNG
  0
POLYLINE
  5
8E5
330
1F
100
AcDbEntity
  8
BEMAßUNG
 62
     7
100
AcDb2dPolyline
 66
     1
 10
0.0
 20
0.0
 30
0.0
  0
VERTEX
  5
8E6
330
8E5
100
AcDbEntity
  8
BEMAßUNG
 62
     7
100
AcDbVertex
100
AcDb2dVertex
 10
21.79815266382129
 20
167.4424926339206
 30
0.0
  0
VERTEX
  5
8E7
330
8E5
100
AcDbEntity
  8
BEMAßUNG
 62
     7
100
AcDbVertex
100
AcDb2dVertex
 10
19.45531547907714
 20
167.4424926339206
 30
0.0
  0
SEQEND
  5
8E8
330
8E5
100
AcDbEntity
  8
BEMAßUNG
  0
POLYLINE
  5
8E9
330
1F
100
AcDbEntity
  8
BEMAßUNG
 62
     7
100
AcDb2dPolyline
 66
     1
 10
0.0
 20
0.0
 30
0.0
  0
VERTEX
  5
8EA
330
8E9
100
AcDbEntity
  8
BEMAßUNG
 62
     7
100
AcDbVertex
100
AcDb2dVertex
 10
21.79815266382129
 20
167.4933077923281
 30
0.0
  0
VERTEX
  5
8EB
330
8E9
100
AcDbEntity
  8
BEMAßUNG
 62
     7
100
AcDbVertex
100
AcDb2dVertex
 10
19.07015380382621
 20
167.4933077923281
 30
0.0
  0
SEQEND
  5
8EC
330
8E9
100
AcDbEntity
  8
BEMAßUNG
  0
POLYLINE
  5
8ED
330
1F
100
AcDbEntity
  8
BEMAßUNG
 62
     7
100
AcDb2dPolyline
 66
     1
 10
0.0
 20
0.0
 30
0.0
  0
VERTEX
  5
8EE
330
8ED
100
AcDbEntity
  8
BEMAßUNG
 62
     7
100
AcDbVertex
100
AcDb2dVertex
 10
21.79815266382129
 20
167.5441229507355
 30
0.0
  0
VERTEX
  5
8EF
330
8ED
100
AcDbEntity
  8
BEMAßUNG
 62
     7
100
AcDbVertex
100
AcDb2dVertex
 10
18.68413085470397
 20
167.5441229507355
 30
0.0
  0
SEQEND
  5
8F0
330
8ED
100
AcDbEntity
  8
BEMAßUNG
  0
POLYLINE
  5
8F1
330
1F
100
AcDbEntity
  8
BEMAßUNG
 62
     7
100
AcDb2dPolyline
 66
     1
 10
0.0
 20
0.0
 30
0.0
  0
VERTEX
  5
8F2
330
8F1
100
AcDbEntity
  8
BEMAßUNG
 62
     7
100
AcDbVertex
100
AcDb2dVertex
 10
21.79815266382129
 20
167.5949381091429
 30
0.0
  0
VERTEX
  5
8F3
330
8F1
100
AcDbEntity
  8
BEMAßUNG
 62
     7
100
AcDbVertex
100
AcDb2dVertex
 10
18.29828016035599
 20
167.5949381091429
 30
0.0
  0
SEQEND
  5
8F4
330
8F1
100
AcDbEntity
  8
BEMAßUNG
  0
POLYLINE
  5
8F5
330
1F
100
AcDbEntity
  8
BEMAßUNG
 62
     7
100
AcDb2dPolyline
 66
     1
 10
0.0
 20
0.0
 30
0.0
  0
VERTEX
  5
8F6
330
8F5
100
AcDbEntity
  8
BEMAßUNG
 62
     7
100
AcDbVertex
100
AcDb2dVertex
 10
21.79815266382129
 20
168.0524467895841
 30
0.0
  0
VERTEX
  5
8F7
330
8F5
100
AcDbEntity
  8
BEMAßUNG
 62
     7
100
AcDbVertex
100
AcDb2dVertex
 10
21.77093640948782
 20
168.0524467895841
 30
0.0
  0
SEQEND
  5
8F8
330
8F5
100
AcDbEntity
  8
BEMAßUNG
  0
POLYLINE
  5
8F9
330
1F
100
AcDbEntity
  8
BEMAßUNG
 62
     7
100
AcDb2dPolyline
 66
     1
 10
0.0
 20
0.0
 30
0.0
  0
VERTEX
  5
8FA
330
8F9
100
AcDbEntity
  8
BEMAßUNG
 62
     7
100
AcDbVertex
100
AcDb2dVertex
 10
21.79815266382129
 20
168.0524467895841
 30
0.0
  0
VERTEX
  5
8FB
330
8F9
100
AcDbEntity
  8
BEMAßUNG
 62
     7
100
AcDbVertex
100
AcDb2dVertex
 10
21.77093640948782
 20
168.0524467895841
 30
0.0
  0
SEQEND
  5
8FC
330
8F9
100
AcDbEntity
  8
BEMAßUNG
  0
POLYLINE
  5
8FD
330
1F
100
AcDbEntity
  8
BEMAßUNG
 62
     7
100
AcDb2dPolyline
 66
     1
 10
0.0
 20
0.0
 30
0.0
  0
VERTEX
  5
8FE
330
8FD
100
AcDbEntity
  8
BEMAßUNG
 62
     7
100
AcDbVertex
100
AcDb2dVertex
 10
21.79815266382129
 20
168.0016316311767
 30
0.0
  0
VERTEX
  5
8FF
330
8FD
100
AcDbEntity
  8
BEMAßUNG
 62
     7
100
AcDbVertex
100
AcDb2dVertex
 10
21.38508571513984
 20
168.0016316311767
 30
0.0
  0
SEQEND
  5
900
330
8FD
100
AcDbEntity
  8
BEMAßUNG
  0
POLYLINE
  5
901
330
1F
100
AcDbEntity
  8
BEMAßUNG
 62
     7
100
AcDb2dPolyline
 66
     1
 10
0.0
 20
0.0
 30
0.0
  0
VERTEX
  5
902
330
901
100
AcDbEntity
  8
BEMAßUNG
 62
     7
100
AcDbVertex
100
AcDb2dVertex
 10
21.79815266382129
 20
167.9508164727692
 30
0.0
  0
VERTEX
  5
903
330
901
100
AcDbEntity
  8
BEMAßUNG
 62
     7
100
AcDbVertex
100
AcDb2dVertex
 10
20.99940727556612
 20
167.9508164727692
 30
0.0
  0
SEQEND
  5
904
330
901
100
AcDbEntity
  8
BEMAßUNG
  0
POLYLINE
  5
905
330
1F
100
AcDbEntity
  8
BEMAßUNG
 62
     7
100
AcDb2dPolyline
 66
     1
 10
0.0
 20
0.0
 30
0.0
  0
VERTEX
  5
906
330
905
100
AcDbEntity
  8
BEMAßUNG
 62
     7
100
AcDbVertex
100
AcDb2dVertex
 10
21.79815266382129
 20
167.9000013143618
 30
0.0
  0
VERTEX
  5
907
330
905
100
AcDbEntity
  8
BEMAßUNG
 62
     7
100
AcDbVertex
100
AcDb2dVertex
 10
20.61355658121814
 20
167.9000013143618
 30
0.0
  0
SEQEND
  5
908
330
905
100
AcDbEntity
  8
BEMAßUNG
  0
POLYLINE
  5
909
330
1F
100
AcDbEntity
  8
BEMAßUNG
 62
     7
100
AcDb2dPolyline
 66
     1
 10
0.0
 20
0.0
 30
0.0
  0
VERTEX
  5
90A
330
909
100
AcDbEntity
  8
BEMAßUNG
 62
     7
100
AcDbVertex
100
AcDb2dVertex
 10
21.79815266382129
 20
167.8491861559544
 30
0.0
  0
VERTEX
  5
90B
330
909
100
AcDbEntity
  8
BEMAßUNG
 62
     7
100
AcDbVertex
100
AcDb2dVertex
 10
20.22753363209589
 20
167.8491861559544
 30
0.0
  0
SEQEND
  5
90C
330
909
100
AcDbEntity
  8
BEMAßUNG
  0
POLYLINE
  5
90D
330
1F
100
AcDbEntity
  8
BEMAßUNG
 62
     7
100
AcDb2dPolyline
 66
     1
 10
0.0
 20
0.0
 30
0.0
  0
VERTEX
  5
90E
330
90D
100
AcDbEntity
  8
BEMAßUNG
 62
     7
100
AcDbVertex
100
AcDb2dVertex
 10
21.79815266382129
 20
167.798370997547
 30
0.0
  0
VERTEX
  5
90F
330
90D
100
AcDbEntity
  8
BEMAßUNG
 62
     7
100
AcDbVertex
100
AcDb2dVertex
 10
19.84168293774791
 20
167.798370997547
 30
0.0
  0
SEQEND
  5
910
330
90D
100
AcDbEntity
  8
BEMAßUNG
  0
POLYLINE
  5
911
330
1F
100
AcDbEntity
  8
BEMAßUNG
 62
     7
100
AcDb2dPolyline
 66
     1
 10
0.0
 20
0.0
 30
0.0
  0
VERTEX
  5
912
330
911
100
AcDbEntity
  8
BEMAßUNG
 62
     7
100
AcDbVertex
100
AcDb2dVertex
 10
21.79815266382129
 20
167.747211329591
 30
0.0
  0
VERTEX
  5
913
330
911
100
AcDbEntity
  8
BEMAßUNG
 62
     7
100
AcDbVertex
100
AcDb2dVertex
 10
19.45531547907714
 20
167.747211329591
 30
0.0
  0
SEQEND
  5
914
330
911
100
AcDbEntity
  8
BEMAßUNG
  0
POLYLINE
  5
915
330
1F
100
AcDbEntity
  8
BEMAßUNG
 62
     7
100
AcDb2dPolyline
 66
     1
 10
0.0
 20
0.0
 30
0.0
  0
VERTEX
  5
916
330
915
100
AcDbEntity
  8
BEMAßUNG
 62
     7
100
AcDbVertex
100
AcDb2dVertex
 10
21.79815266382129
 20
167.6963961711836
 30
0.0
  0
VERTEX
  5
917
330
915
100
AcDbEntity
  8
BEMAßUNG
 62
     7
100
AcDbVertex
100
AcDb2dVertex
 10
19.07015380382621
 20
167.6963961711836
 30
0.0
  0
SEQEND
  5
918
330
915
100
AcDbEntity
  8
BEMAßUNG
  0
POLYLINE
  5
919
330
1F
100
AcDbEntity
  8
BEMAßUNG
 62
     7
100
AcDb2dPolyline
 66
     1
 10
0.0
 20
0.0
 30
0.0
  0
VERTEX
  5
91A
330
919
100
AcDbEntity
  8
BEMAßUNG
 62
     7
100
AcDbVertex
100
AcDb2dVertex
 10
21.79815266382129
 20
167.6455810127761
 30
0.0
  0
VERTEX
  5
91B
330
919
100
AcDbEntity
  8
BEMAßUNG
 62
     7
100
AcDbVertex
100
AcDb2dVertex
 10
18.68413085470397
 20
167.6455810127761
 30
0.0
  0
SEQEND
  5
91C
330
919
100
AcDbEntity
  8
BEMAßUNG
  0
POLYLINE
  5
91D
330
1F
100
AcDbEntity
  8
BEMAßUNG
 62
     7
100
AcDb2dPolyline
 66
     1
 10
0.0
 20
0.0
 30
0.0
  0
VERTEX
  5
91E
330
91D
100
AcDbEntity
  8
BEMAßUNG
 62
     7
100
AcDbVertex
100
AcDb2dVertex
 10
21.79815266382129
 20
167.5949381091429
 30
0.0
  0
VERTEX
  5
91F
330
91D
100
AcDbEntity
  8
BEMAßUNG
 62
     7
100
AcDbVertex
100
AcDb2dVertex
 10
18.29828016035599
 20
167.5949381091429
 30
0.0
  0
SEQEND
  5
920
330
91D
100
AcDbEntity
  8
BEMAßUNG
  0
POLYLINE
  5
921
330
1F
100
AcDbEntity
  8
BEMAßUNG
 62
     7
100
AcDb2dPolyline
 66
     1
 10
0.0
 20
0.0
 30
0.0
  0
VERTEX
  5
922
330
921
100
AcDbEntity
  8
BEMAßUNG
 62
     7
100
AcDbVertex
100
AcDb2dVertex
 10
48.29817164591157
 20
167.5949381091429
 30
0.0
  0
VERTEX
  5
923
330
921
100
AcDbEntity
  8
BEMAßUNG
 62
     7
100
AcDbVertex
100
AcDb2dVertex
 10
44.798126887672
 20
168.0558918850694
 30
0.0
  0
VERTEX
  5
924
330
921
100
AcDbEntity
  8
BEMAßUNG
 62
     7
100
AcDbVertex
100
AcDb2dVertex
 10
44.798126887672
 20
167.1345010975393
 30
0.0
  0
VERTEX
  5
925
330
921
100
AcDbEntity
  8
BEMAßUNG
 62
     7
100
AcDbVertex
100
AcDb2dVertex
 10
48.29817164591157
 20
167.5949381091429
 30
0.0
  0
SEQEND
  5
926
330
921
100
AcDbEntity
  8
BEMAßUNG
  0
POLYLINE
  5
927
330
1F
100
AcDbEntity
  8
BEMAßUNG
 62
     7
100
AcDb2dPolyline
 66
     1
 10
0.0
 20
0.0
 30
0.0
  0
VERTEX
  5
928
330
927
100
AcDbEntity
  8
BEMAßUNG
 62
     7
100
AcDbVertex
100
AcDb2dVertex
 10
44.798126887672
 20
168.0524467895841
 30
0.0
  0
VERTEX
  5
929
330
927
100
AcDbEntity
  8
BEMAßUNG
 62
     7
100
AcDbVertex
100
AcDb2dVertex
 10
44.82534314200547
 20
168.0524467895841
 30
0.0
  0
SEQEND
  5
92A
330
927
100
AcDbEntity
  8
BEMAßUNG
  0
POLYLINE
  5
92B
330
1F
100
AcDbEntity
  8
BEMAßUNG
 62
     7
100
AcDb2dPolyline
 66
     1
 10
0.0
 20
0.0
 30
0.0
  0
VERTEX
  5
92C
330
92B
100
AcDbEntity
  8
BEMAßUNG
 62
     7
100
AcDbVertex
100
AcDb2dVertex
 10
44.798126887672
 20
168.0524467895841
 30
0.0
  0
VERTEX
  5
92D
330
92B
100
AcDbEntity
  8
BEMAßUNG
 62
     7
100
AcDbVertex
100
AcDb2dVertex
 10
44.82534314200547
 20
168.0524467895841
 30
0.0
  0
SEQEND
  5
92E
330
92B
100
AcDbEntity
  8
BEMAßUNG
  0
POLYLINE
  5
92F
330
1F
100
AcDbEntity
  8
BEMAßUNG
 62
     7
100
AcDb2dPolyline
 66
     1
 10
0.0
 20
0.0
 30
0.0
  0
VERTEX
  5
930
330
92F
100
AcDbEntity
  8
BEMAßUNG
 62
     7
100
AcDbVertex
100
AcDb2dVertex
 10
44.798126887672
 20
168.0016316311767
 30
0.0
  0
VERTEX
  5
931
330
92F
100
AcDbEntity
  8
BEMAßUNG
 62
     7
100
AcDbVertex
100
AcDb2dVertex
 10
45.21136609112772
 20
168.0016316311767
 30
0.0
  0
SEQEND
  5
932
330
92F
100
AcDbEntity
  8
BEMAßUNG
  0
POLYLINE
  5
933
330
1F
100
AcDbEntity
  8
BEMAßUNG
 62
     7
100
AcDb2dPolyline
 66
     1
 10
0.0
 20
0.0
 30
0.0
  0
VERTEX
  5
934
330
933
100
AcDbEntity
  8
BEMAßUNG
 62
     7
100
AcDbVertex
100
AcDb2dVertex
 10
44.798126887672
 20
167.9508164727692
 30
0.0
  0
VERTEX
  5
935
330
933
100
AcDbEntity
  8
BEMAßUNG
 62
     7
100
AcDbVertex
100
AcDb2dVertex
 10
45.59721678547569
 20
167.9508164727692
 30
0.0
  0
SEQEND
  5
936
330
933
100
AcDbEntity
  8
BEMAßUNG
  0
POLYLINE
  5
937
330
1F
100
AcDbEntity
  8
BEMAßUNG
 62
     7
100
AcDb2dPolyline
 66
     1
 10
0.0
 20
0.0
 30
0.0
  0
VERTEX
  5
938
330
937
100
AcDbEntity
  8
BEMAßUNG
 62
     7
100
AcDbVertex
100
AcDb2dVertex
 10
44.798126887672
 20
167.9000013143618
 30
0.0
  0
VERTEX
  5
939
330
937
100
AcDbEntity
  8
BEMAßUNG
 62
     7
100
AcDbVertex
100
AcDb2dVertex
 10
45.98323973459794
 20
167.9000013143618
 30
0.0
  0
SEQEND
  5
93A
330
937
100
AcDbEntity
  8
BEMAßUNG
  0
POLYLINE
  5
93B
330
1F
100
AcDbEntity
  8
BEMAßUNG
 62
     7
100
AcDb2dPolyline
 66
     1
 10
0.0
 20
0.0
 30
0.0
  0
VERTEX
  5
93C
330
93B
100
AcDbEntity
  8
BEMAßUNG
 62
     7
100
AcDbVertex
100
AcDb2dVertex
 10
44.798126887672
 20
167.8491861559544
 30
0.0
  0
VERTEX
  5
93D
330
93B
100
AcDbEntity
  8
BEMAßUNG
 62
     7
100
AcDbVertex
100
AcDb2dVertex
 10
46.3687459193974
 20
167.8491861559544
 30
0.0
  0
SEQEND
  5
93E
330
93B
100
AcDbEntity
  8
BEMAßUNG
  0
POLYLINE
  5
93F
330
1F
100
AcDbEntity
  8
BEMAßUNG
 62
     7
100
AcDb2dPolyline
 66
     1
 10
0.0
 20
0.0
 30
0.0
  0
VERTEX
  5
940
330
93F
100
AcDbEntity
  8
BEMAßUNG
 62
     7
100
AcDbVertex
100
AcDb2dVertex
 10
44.798126887672
 20
167.798370997547
 30
0.0
  0
VERTEX
  5
941
330
93F
100
AcDbEntity
  8
BEMAßUNG
 62
     7
100
AcDbVertex
100
AcDb2dVertex
 10
46.75476886851964
 20
167.798370997547
 30
0.0
  0
SEQEND
  5
942
330
93F
100
AcDbEntity
  8
BEMAßUNG
  0
POLYLINE
  5
943
330
1F
100
AcDbEntity
  8
BEMAßUNG
 62
     7
100
AcDb2dPolyline
 66
     1
 10
0.0
 20
0.0
 30
0.0
  0
VERTEX
  5
944
330
943
100
AcDbEntity
  8
BEMAßUNG
 62
     7
100
AcDbVertex
100
AcDb2dVertex
 10
44.798126887672
 20
167.747211329591
 30
0.0
  0
VERTEX
  5
945
330
943
100
AcDbEntity
  8
BEMAßUNG
 62
     7
100
AcDbVertex
100
AcDb2dVertex
 10
47.14061956286763
 20
167.747211329591
 30
0.0
  0
SEQEND
  5
946
330
943
100
AcDbEntity
  8
BEMAßUNG
  0
POLYLINE
  5
947
330
1F
100
AcDbEntity
  8
BEMAßUNG
 62
     7
100
AcDb2dPolyline
 66
     1
 10
0.0
 20
0.0
 30
0.0
  0
VERTEX
  5
948
330
947
100
AcDbEntity
  8
BEMAßUNG
 62
     7
100
AcDbVertex
100
AcDb2dVertex
 10
44.798126887672
 20
167.6963961711836
 30
0.0
  0
VERTEX
  5
949
330
947
100
AcDbEntity
  8
BEMAßUNG
 62
     7
100
AcDbVertex
100
AcDb2dVertex
 10
47.52664251198987
 20
167.6963961711836
 30
0.0
  0
SEQEND
  5
94A
330
947
100
AcDbEntity
  8
BEMAßUNG
  0
POLYLINE
  5
94B
330
1F
100
AcDbEntity
  8
BEMAßUNG
 62
     7
100
AcDb2dPolyline
 66
     1
 10
0.0
 20
0.0
 30
0.0
  0
VERTEX
  5
94C
330
94B
100
AcDbEntity
  8
BEMAßUNG
 62
     7
100
AcDbVertex
100
AcDb2dVertex
 10
44.798126887672
 20
167.6455810127761
 30
0.0
  0
VERTEX
  5
94D
330
94B
100
AcDbEntity
  8
BEMAßUNG
 62
     7
100
AcDbVertex
100
AcDb2dVertex
 10
47.91214869678932
 20
167.6455810127761
 30
0.0
  0
SEQEND
  5
94E
330
94B
100
AcDbEntity
  8
BEMAßUNG
  0
POLYLINE
  5
94F
330
1F
100
AcDbEntity
  8
BEMAßUNG
 62
     7
100
AcDb2dPolyline
 66
     1
 10
0.0
 20
0.0
 30
0.0
  0
VERTEX
  5
950
330
94F
100
AcDbEntity
  8
BEMAßUNG
 62
     7
100
AcDbVertex
100
AcDb2dVertex
 10
44.798126887672
 20
167.5949381091429
 30
0.0
  0
VERTEX
  5
951
330
94F
100
AcDbEntity
  8
BEMAßUNG
 62
     7
100
AcDbVertex
100
AcDb2dVertex
 10
48.29817164591157
 20
167.5949381091429
 30
0.0
  0
SEQEND
  5
952
330
94F
100
AcDbEntity
  8
BEMAßUNG
  0
POLYLINE
  5
953
330
1F
100
AcDbEntity
  8
BEMAßUNG
 62
     7
100
AcDb2dPolyline
 66
     1
 10
0.0
 20
0.0
 30
0.0
  0
VERTEX
  5
954
330
953
100
AcDbEntity
  8
BEMAßUNG
 62
     7
100
AcDbVertex
100
AcDb2dVertex
 10
44.798126887672
 20
167.1379461930246
 30
0.0
  0
VERTEX
  5
955
330
953
100
AcDbEntity
  8
BEMAßUNG
 62
     7
100
AcDbVertex
100
AcDb2dVertex
 10
44.82534314200547
 20
167.1379461930246
 30
0.0
  0
SEQEND
  5
956
330
953
100
AcDbEntity
  8
BEMAßUNG
  0
POLYLINE
  5
957
330
1F
100
AcDbEntity
  8
BEMAßUNG
 62
     7
100
AcDb2dPolyline
 66
     1
 10
0.0
 20
0.0
 30
0.0
  0
VERTEX
  5
958
330
957
100
AcDbEntity
  8
BEMAßUNG
 62
     7
100
AcDbVertex
100
AcDb2dVertex
 10
44.798126887672
 20
167.1379461930246
 30
0.0
  0
VERTEX
  5
959
330
957
100
AcDbEntity
  8
BEMAßUNG
 62
     7
100
AcDbVertex
100
AcDb2dVertex
 10
44.82534314200547
 20
167.1379461930246
 30
0.0
  0
SEQEND
  5
95A
330
957
100
AcDbEntity
  8
BEMAßUNG
  0
POLYLINE
  5
95B
330
1F
100
AcDbEntity
  8
BEMAßUNG
 62
     7
100
AcDb2dPolyline
 66
     1
 10
0.0
 20
0.0
 30
0.0
  0
VERTEX
  5
95C
330
95B
100
AcDbEntity
  8
BEMAßUNG
 62
     7
100
AcDbVertex
100
AcDb2dVertex
 10
44.798126887672
 20
167.188761351432
 30
0.0
  0
VERTEX
  5
95D
330
95B
100
AcDbEntity
  8
BEMAßUNG
 62
     7
100
AcDbVertex
100
AcDb2dVertex
 10
45.21136609112772
 20
167.188761351432
 30
0.0
  0
SEQEND
  5
95E
330
95B
100
AcDbEntity
  8
BEMAßUNG
  0
POLYLINE
  5
95F
330
1F
100
AcDbEntity
  8
BEMAßUNG
 62
     7
100
AcDb2dPolyline
 66
     1
 10
0.0
 20
0.0
 30
0.0
  0
VERTEX
  5
960
330
95F
100
AcDbEntity
  8
BEMAßUNG
 62
     7
100
AcDbVertex
100
AcDb2dVertex
 10
44.798126887672
 20
167.2395765098394
 30
0.0
  0
VERTEX
  5
961
330
95F
100
AcDbEntity
  8
BEMAßUNG
 62
     7
100
AcDbVertex
100
AcDb2dVertex
 10
45.59721678547569
 20
167.2395765098394
 30
0.0
  0
SEQEND
  5
962
330
95F
100
AcDbEntity
  8
BEMAßUNG
  0
POLYLINE
  5
963
330
1F
100
AcDbEntity
  8
BEMAßUNG
 62
     7
100
AcDb2dPolyline
 66
     1
 10
0.0
 20
0.0
 30
0.0
  0
VERTEX
  5
964
330
963
100
AcDbEntity
  8
BEMAßUNG
 62
     7
100
AcDbVertex
100
AcDb2dVertex
 10
44.798126887672
 20
167.2900471586983
 30
0.0
  0
VERTEX
  5
965
330
963
100
AcDbEntity
  8
BEMAßUNG
 62
     7
100
AcDbVertex
100
AcDb2dVertex
 10
45.98323973459794
 20
167.2900471586983
 30
0.0
  0
SEQEND
  5
966
330
963
100
AcDbEntity
  8
BEMAßUNG
  0
POLYLINE
  5
967
330
1F
100
AcDbEntity
  8
BEMAßUNG
 62
     7
100
AcDb2dPolyline
 66
     1
 10
0.0
 20
0.0
 30
0.0
  0
VERTEX
  5
968
330
967
100
AcDbEntity
  8
BEMAßUNG
 62
     7
100
AcDbVertex
100
AcDb2dVertex
 10
44.798126887672
 20
167.3408623171058
 30
0.0
  0
VERTEX
  5
969
330
967
100
AcDbEntity
  8
BEMAßUNG
 62
     7
100
AcDbVertex
100
AcDb2dVertex
 10
46.3687459193974
 20
167.3408623171058
 30
0.0
  0
SEQEND
  5
96A
330
967
100
AcDbEntity
  8
BEMAßUNG
  0
POLYLINE
  5
96B
330
1F
100
AcDbEntity
  8
BEMAßUNG
 62
     7
100
AcDb2dPolyline
 66
     1
 10
0.0
 20
0.0
 30
0.0
  0
VERTEX
  5
96C
330
96B
100
AcDbEntity
  8
BEMAßUNG
 62
     7
100
AcDbVertex
100
AcDb2dVertex
 10
44.798126887672
 20
167.3916774755132
 30
0.0
  0
VERTEX
  5
96D
330
96B
100
AcDbEntity
  8
BEMAßUNG
 62
     7
100
AcDbVertex
100
AcDb2dVertex
 10
46.75476886851964
 20
167.3916774755132
 30
0.0
  0
SEQEND
  5
96E
330
96B
100
AcDbEntity
  8
BEMAßUNG
  0
POLYLINE
  5
96F
330
1F
100
AcDbEntity
  8
BEMAßUNG
 62
     7
100
AcDb2dPolyline
 66
     1
 10
0.0
 20
0.0
 30
0.0
  0
VERTEX
  5
970
330
96F
100
AcDbEntity
  8
BEMAßUNG
 62
     7
100
AcDbVertex
100
AcDb2dVertex
 10
44.798126887672
 20
167.4424926339206
 30
0.0
  0
VERTEX
  5
971
330
96F
100
AcDbEntity
  8
BEMAßUNG
 62
     7
100
AcDbVertex
100
AcDb2dVertex
 10
47.14061956286763
 20
167.4424926339206
 30
0.0
  0
SEQEND
  5
972
330
96F
100
AcDbEntity
  8
BEMAßUNG
  0
POLYLINE
  5
973
330
1F
100
AcDbEntity
  8
BEMAßUNG
 62
     7
100
AcDb2dPolyline
 66
     1
 10
0.0
 20
0.0
 30
0.0
  0
VERTEX
  5
974
330
973
100
AcDbEntity
  8
BEMAßUNG
 62
     7
100
AcDbVertex
100
AcDb2dVertex
 10
44.798126887672
 20
167.4933077923281
 30
0.0
  0
VERTEX
  5
975
330
973
100
AcDbEntity
  8
BEMAßUNG
 62
     7
100
AcDbVertex
100
AcDb2dVertex
 10
47.52664251198987
 20
167.4933077923281
 30
0.0
  0
SEQEND
  5
976
330
973
100
AcDbEntity
  8
BEMAßUNG
  0
POLYLINE
  5
977
330
1F
100
AcDbEntity
  8
BEMAßUNG
 62
     7
100
AcDb2dPolyline
 66
     1
 10
0.0
 20
0.0
 30
0.0
  0
VERTEX
  5
978
330
977
100
AcDbEntity
  8
BEMAßUNG
 62
     7
100
AcDbVertex
100
AcDb2dVertex
 10
44.798126887672
 20
167.5441229507355
 30
0.0
  0
VERTEX
  5
979
330
977
100
AcDbEntity
  8
BEMAßUNG
 62
     7
100
AcDbVertex
100
AcDb2dVertex
 10
47.91214869678932
 20
167.5441229507355
 30
0.0
  0
SEQEND
  5
97A
330
977
100
AcDbEntity
  8
BEMAßUNG
  0
POLYLINE
  5
97B
330
1F
100
AcDbEntity
  8
BEMAßUNG
 62
     7
100
AcDb2dPolyline
 66
     1
 10
0.0
 20
0.0
 30
0.0
  0
VERTEX
  5
97C
330
97B
100
AcDbEntity
  8
BEMAßUNG
 62
     7
100
AcDbVertex
100
AcDb2dVertex
 10
44.798126887672
 20
167.5949381091429
 30
0.0
  0
VERTEX
  5
97D
330
97B
100
AcDbEntity
  8
BEMAßUNG
 62
     7
100
AcDbVertex
100
AcDb2dVertex
 10
48.29817164591157
 20
167.5949381091429
 30
0.0
  0
SEQEND
  5
97E
330
97B
100
AcDbEntity
  8
BEMAßUNG
  0
MTEXT
  5
980
330
1F
100
AcDbEntity
  8
TEXT
 62
     7
100
AcDbMText
 10
106.4798054746821
 20
237.0465989261984
 30
0.0
 40
3.311186211711877
 41
0.0
 71
     7
 72
     1
  1
\fINDEX Univers 45 Light|b0|i0|c0|p34;\W1;60
  0
MTEXT
  5
981
330
1F
100
AcDbEntity
  8
TEXT
 62
     7
100
AcDbMText
 10
126.4141614809833
 20
211.6961221801489
 30
0.0
 40
3.311185982936005
 41
0.0
 71
     7
 72
     1
  1
\fINDEX Univers 45 Light|b0|i0|c0|p34;\W1;95°
 11
0.6760615473151835
 21
0.7368451562179126
 31
0.0
  0
MTEXT
  5
982
330
1F
100
AcDbEntity
  8
TEXT
 62
     7
100
AcDbMText
 10
152.0892523491305
 20
189.6411376479022
 30
0.0
 40
3.311186211711877
 41
0.0
 71
     7
 72
     1
  1
\fINDEX Univers 45 Light|b0|i0|c0|p34;\W1;26
 11
-4.371139000186241E-8
 21
0.999999999999999
 31
0.0
  0
MTEXT
  5
983
330
1F
100
AcDbEntity
  8
TEXT
 62
     7
100
AcDbMText
 10
118.9794731690399
 20
227.0463480063895
 30
0.0
 40
3.311186211711877
 41
0.0
 71
     7
 72
     1
  1
\fINDEX Univers 45 Light|b0|i0|c0|p34;\W1;35
  0
MTEXT
  5
984
330
1F
100
AcDbEntity
  8
TEXT
 62
     7
100
AcDbMText
 10
31.58773599470723
 20
169.3505587684263
 30
0.0
 40
3.311186211711877
 41
0.0
 71
     7
 72
     1
  1
\fINDEX Univers 45 Light|b0|i0|c0|p34;\W1;30
  0
ENDSEC
  0
SECTION
  2
OBJECTS
  0
DICTIONARY
  5
C
330
0
100
AcDbDictionary
  3
ACAD_GROUP
350
D
  3
ACAD_LAYOUT
350
1A
  3
ACAD_MLINESTYLE
350
17
  3
ACAD_PLOTSETTINGS
350
19
  3
ACAD_TABLESTYLE
350
9A5
  3
ACAD_VISUALSTYLE
350
2A
  3
ACDBHEADERROUNDTRIPXREC
350
985
  0
DICTIONARY
  5
D
102
{ACAD_REACTORS
330
C
102
}
330
C
100
AcDbDictionary
  0
DICTIONARY
  5
1A
102
{ACAD_REACTORS
330
C
102
}
330
C
100
AcDbDictionary
  0
DICTIONARY
  5
17
102
{ACAD_REACTORS
330
C
102
}
330
C
100
AcDbDictionary
  3
STANDARD
350
18
  0
DICTIONARY
  5
19
102
{ACAD_REACTORS
330
C
102
}
330
C
100
AcDbDictionary
  0
DICTIONARY
  5
9A5
102
{ACAD_REACTORS
330
C
102
}
330
C
100
AcDbDictionary
  0
DICTIONARY
  5
2A
102
{ACAD_REACTORS
330
C
102
}
330
C
100
AcDbDictionary
  3
2DWIREFRAME
350
2F
  3
3D_HIDDEN
350
31
  3
3DWIREFRAME
350
30
  3
BASIC
350
32
  3
BRIGHTEN
350
36
  3
COLORCHANGE
350
3A
  3
CONCEPTUAL
350
34
  3
DIM
350
35
  3
FACEPATTERN
350
39
  3
FLAT
350
2B
  3
FLATWITHEDGES
350
2C
  3
GOURAUD
350
2D
  3
GOURAUDWITHEDGES
350
2E
  3
LINEPATTERN
350
38
  3
REALISTIC
350
33
  3
THICKEN
350
37
  0
DICTIONARY
  5
985
102
{ACAD_REACTORS
330
C
102
}
330
C
100
AcDbDictionary
  3
CEPSNTYPE
350
98E
  3
DIMSTYLEDATA
350
9A4
  3
FINGERPRINTGUID
350
98F
  3
HYPERLINKBASE
350
988
  3
INSUNITS
350
98D
  3
LAYOUTDICT
350
98A
  3
LWETCUNION
350
98C
  3
PLOTSETDICT
350
98B
  3
PSVPSCALE
350
991
  3
PUCSBASE
350
994
  3
PUCSORGBACK
350
99A
  3
PUCSORGBOTTOM
350
996
  3
PUCSORGFRONT
350
999
  3
PUCSORGLEFT
350
997
  3
PUCSORGRIGHT
350
998
  3
PUCSORGTOP
350
995
  3
PUCSORTHOREF
350
992
  3
PUCSORTHOVIEW
350
993
  3
STYLESHEET
350
989
  3
TSTACKALIGN
350
986
  3
TSTACKSIZE
350
987
  3
UCSBASE
350
99D
  3
UCSORGBACK
350
9A3
  3
UCSORGBOTTOM
350
99F
  3
UCSORGFRONT
350
9A2
  3
UCSORGLEFT
350
9A0
  3
UCSORGRIGHT
350
9A1
  3
UCSORGTOP
350
99E
  3
UCSORTHOREF
350
99B
  3
UCSORTHOVIEW
350
99C
  3
VERSIONGUID
350
990
  0
MLINESTYLE
  5
18
102
{ACAD_REACTORS
330
17
102
}
330
17
100
AcDbMlineStyle
  2
Standard
 70
     0
  3

 62
   256
 51
90.0
 52
90.0
 71
     2
 49
0.5
 62
   256
  6
BYLAYER
 49
-0.5
 62
   256
  6
BYLAYER
  0
VISUALSTYLE
  5
2F
102
{ACAD_REACTORS
330
2A
102
}
330
2A
100
AcDbVisualStyle
  2
2dWireframe
 70
     4
 71
     0
 72
     2
 73
     0
 90
        0
 40
-0.6
 41
-30.0
 62
     5
 63
     7
 74
     1
 91
        4
 64
     7
 65
   257
 75
     1
175
     1
 42
1.0
 92
        0
 66
   257
 43
1.0
 76
     1
 77
     6
 78
     2
 67
     7
 79
     5
170
     0
171
     0
290
     0
174
     0
 93
        1
 44
0.0
173
     0
291
     0
 45
0.0
1001
ACAD
1000
AcDbSavedByObjectVersion
1070
     0
  0
VISUALSTYLE
  5
31
102
{ACAD_REACTORS
330
2A
102
}
330
2A
100
AcDbVisualStyle
  2
3D Hidden
 70
     6
 71
     1
 72
     2
 73
     2
 90
        0
 40
-0.6
 41
-30.0
 62
     5
 63
     7
 74
     2
 91
        2
 64
     7
 65
   257
 75
     2
175
     1
 42
40.0
 92
        0
 66
   257
 43
1.0
 76
     1
 77
     6
 78
     2
 67
     7
 79
     3
170
     0
171
     0
290
     0
174
     0
 93
        1
 44
0.0
173
     0
291
     0
 45
0.0
1001
ACAD
1000
AcDbSavedByObjectVersion
1070
     0
  0
VISUALSTYLE
  5
30
102
{ACAD_REACTORS
330
2A
102
}
330
2A
100
AcDbVisualStyle
  2
3dWireframe
 70
     5
 71
     0
 72
     2
 73
     0
 90
        0
 40
-0.6
 41
-30.0
 62
     5
 63
     7
 74
     1
 91
        4
 64
     7
 65
   257
 75
     1
175
     1
 42
1.0
 92
        0
 66
   257
 43
1.0
 76
     1
 77
     6
 78
     2
 67
     7
 79
     5
170
     0
171
     0
290
     0
174
     0
 93
        1
 44
0.0
173
     0
291
     0
 45
0.0
1001
ACAD
1000
AcDbSavedByObjectVersion
1070
     0
  0
VISUALSTYLE
  5
32
102
{ACAD_REACTORS
330
2A
102
}
330
2A
100
AcDbVisualStyle
  2
Basic
 70
     7
 71
     1
 72
     0
 73
     1
 90
        0
 40
-0.6
 41
-30.0
 62
     5
 63
     7
 74
     0
 91
        4
 64
     7
 65
   257
 75
     1
175
     1
 42
1.0
 92
        8
 66
     7
 43
1.0
 76
     1
 77
     6
 78
     2
 67
     7
 79
     5
170
     0
171
     0
290
     0
174
     0
 93
        1
 44
0.0
173
     0
291
     1
 45
0.0
1001
ACAD
1000
AcDbSavedByObjectVersion
1070
     0
  0
VISUALSTYLE
  5
36
102
{ACAD_REACTORS
330
2A
102
}
330
2A
100
AcDbVisualStyle
  2
Brighten
 70
    12
 71
     2
 72
     2
 73
     0
 90
        0
 40
-0.6
 41
-30.0
 62
     5
 63
     7
 74
     1
 91
        4
 64
     7
 65
   257
 75
     1
175
     1
 42
1.0
 92
        8
 66
     7
 43
1.0
 76
     1
 77
     6
 78
     2
 67
     7
 79
     5
170
     0
171
     0
290
     0
174
     0
 93
        1
 44
50.0
173
     0
291
     1
 45
0.0
1001
ACAD
1000
AcDbSavedByObjectVersion
1070
     0
  0
VISUALSTYLE
  5
3A
102
{ACAD_REACTORS
330
2A
102
}
330
2A
100
AcDbVisualStyle
  2
ColorChange
 70
    16
 71
     2
 72
     2
 73
     3
 90
        0
 40
-0.6
 41
-30.0
 62
     5
 63
     8
 74
     1
 91
        4
 64
     7
 65
   257
 75
     1
175
     1
 42
1.0
 92
        8
 66
     8
 43
1.0
 76
     1
 77
     6
 78
     2
 67
     7
 79
     5
170
     0
171
     0
290
     0
174
     0
 93
        1
 44
0.0
173
     0
291
     1
 45
0.0
1001
ACAD
1000
AcDbSavedByObjectVersion
1070
     0
  0
VISUALSTYLE
  5
34
102
{ACAD_REACTORS
330
2A
102
}
330
2A
100
AcDbVisualStyle
  2
Conceptual
 70
     9
 71
     3
 72
     2
 73
     0
 90
        0
 40
-0.6
 41
-30.0
 62
     5
 63
     7
 74
     2
 91
        2
 64
     7
 65
   257
 75
     1
175
     1
 42
40.0
 92
        8
 66
     7
 43
1.0
 76
     1
 77
     6
 78
     2
 67
     7
 79
     3
170
     0
171
     0
290
     0
174
     0
 93
        1
 44
0.0
173
     0
291
     0
 45
0.0
1001
ACAD
1000
AcDbSavedByObjectVersion
1070
     0
  0
VISUALSTYLE
  5
35
102
{ACAD_REACTORS
330
2A
102
}
330
2A
100
AcDbVisualStyle
  2
Dim
 70
    11
 71
     2
 72
     2
 73
     0
 90
        0
 40
-0.6
 41
-30.0
 62
     5
 63
     7
 74
     1
 91
        4
 64
     7
 65
   257
 75
     1
175
     1
 42
1.0
 92
        8
 66
     7
 43
1.0
 76
     1
 77
     6
 78
     2
 67
     7
 79
     5
170
     0
171
     0
290
     0
174
     0
 93
        1
 44
-50.0
173
     0
291
     1
 45
0.0
1001
ACAD
1000
AcDbSavedByObjectVersion
1070
     0
  0
VISUALSTYLE
  5
39
102
{ACAD_REACTORS
330
2A
102
}
330
2A
100
AcDbVisualStyle
  2
Facepattern
 70
    15
 71
     2
 72
     2
 73
     0
 90
        0
 40
-0.6
 41
-30.0
 62
     5
 63
     7
 74
     1
 91
        4
 64
     7
 65
   257
 75
     1
175
     1
 42
1.0
 92
        8
 66
     7
 43
1.0
 76
     1
 77
     6
 78
     2
 67
     7
 79
     5
170
     0
171
     0
290
     0
174
     0
 93
        1
 44
0.0
173
     0
291
     1
 45
0.0
1001
ACAD
1000
AcDbSavedByObjectVersion
1070
     0
  0
VISUALSTYLE
  5
2B
102
{ACAD_REACTORS
330
2A
102
}
330
2A
100
AcDbVisualStyle
  2
Flat
 70
     0
 71
     2
 72
     1
 73
     1
 90
        2
 40
-0.6
 41
30.0
 62
     5
 63
     7
 74
     0
 91
        4
 64
     7
 65
   257
 75
     1
175
     1
 42
1.0
 92
        8
 66
     7
 43
1.0
 76
     1
 77
     6
 78
     2
 67
     7
 79
     5
170
     0
171
     0
290
     0
174
     0
 93
       13
 44
0.0
173
     0
291
     1
 45
0.0
1001
ACAD
1000
AcDbSavedByObjectVersion
1070
     0
  0
VISUALSTYLE
  5
2C
102
{ACAD_REACTORS
330
2A
102
}
330
2A
100
AcDbVisualStyle
  2
FlatWithEdges
 70
     1
 71
     2
 72
     1
 73
     1
 90
        2
 40
-0.6
 41
30.0
 62
     5
 63
     7
 74
     1
 91
        4
 64
     7
 65
   257
 75
     1
175
     1
 42
1.0
 92
        0
 66
   257
 43
1.0
 76
     1
 77
     6
 78
     2
 67
     7
 79
     5
170
     0
171
     0
290
     0
174
     0
 93
       13
 44
0.0
173
     0
291
     1
 45
0.0
1001
ACAD
1000
AcDbSavedByObjectVersion
1070
     0
  0
VISUALSTYLE
  5
2D
102
{ACAD_REACTORS
330
2A
102
}
330
2A
100
AcDbVisualStyle
  2
Gouraud
 70
     2
 71
     2
 72
     2
 73
     1
 90
        2
 40
-0.6
 41
30.0
 62
     5
 63
     7
 74
     0
 91
        4
 64
     7
 65
   257
 75
     1
175
     1
 42
1.0
 92
        0
 66
     7
 43
1.0
 76
     1
 77
     6
 78
     2
 67
     7
 79
     5
170
     0
171
     0
290
     0
174
     0
 93
       13
 44
0.0
173
     0
291
     1
 45
0.0
1001
ACAD
1000
AcDbSavedByObjectVersion
1070
     0
  0
VISUALSTYLE
  5
2E
102
{ACAD_REACTORS
330
2A
102
}
330
2A
100
AcDbVisualStyle
  2
GouraudWithEdges
 70
     3
 71
     2
 72
     2
 73
     1
 90
        2
 40
-0.6
 41
30.0
 62
     5
 63
     7
 74
     1
 91
        4
 64
     7
 65
   257
 75
     1
175
     1
 42
1.0
 92
        0
 66
   257
 43
1.0
 76
     1
 77
     6
 78
     2
 67
     7
 79
     5
170
     0
171
     0
290
     0
174
     0
 93
       13
 44
0.0
173
     0
291
     1
 45
0.0
1001
ACAD
1000
AcDbSavedByObjectVersion
1070
     0
  0
VISUALSTYLE
  5
38
102
{ACAD_REACTORS
330
2A
102
}
330
2A
100
AcDbVisualStyle
  2
Linepattern
 70
    14
 71
     2
 72
     2
 73
     0
 90
        0
 40
-0.6
 41
-30.0
 62
     5
 63
     7
 74
     1
 91
        4
 64
     7
 65
   257
 75
     7
175
     7
 42
1.0
 92
        8
 66
     7
 43
1.0
 76
     1
 77
     6
 78
     2
 67
     7
 79
     5
170
     0
171
     0
290
     0
174
     0
 93
        1
 44
0.0
173
     0
291
     1
 45
0.0
1001
ACAD
1000
AcDbSavedByObjectVersion
1070
     0
  0
VISUALSTYLE
  5
33
102
{ACAD_REACTORS
330
2A
102
}
330
2A
100
AcDbVisualStyle
  2
Realistic
 70
     8
 71
     2
 72
     2
 73
     0
 90
        0
 40
-0.6
 41
-30.0
 62
     5
 63
     7
 74
     1
 91
        0
 64
     7
 65
   257
 75
     1
175
     1
 42
1.0
 92
        8
 66
     8
 43
1.0
 76
     1
 77
     6
 78
     2
 67
     7
 79
     5
170
     0
171
     0
290
     0
174
     0
 93
       13
 44
0.0
173
     0
291
     0
 45
0.0
1001
ACAD
1000
AcDbSavedByObjectVersion
1070
     0
  0
VISUALSTYLE
  5
37
102
{ACAD_REACTORS
330
2A
102
}
330
2A
100
AcDbVisualStyle
  2
Thicken
 70
    13
 71
     2
 72
     2
 73
     0
 90
        0
 40
-0.6
 41
-30.0
 62
     5
 63
     7
 74
     1
 91
        4
 64
     7
 65
   257
 75
     1
175
     1
 42
1.0
 92
       12
 66
     7
 43
1.0
 76
     1
 77
     6
 78
     2
 67
     7
 79
     5
170
     0
171
     0
290
     0
174
     0
 93
        1
 44
0.0
173
     0
291
     1
 45
0.0
1001
ACAD
1000
AcDbSavedByObjectVersion
1070
     0
  0
XRECORD
  5
98E
102
{ACAD_REACTORS
330
985
102
}
330
985
100
AcDbXrecord
 90
        0
  0
XRECORD
  5
9A4
102
{ACAD_REACTORS
330
985
102
}
330
985
100
AcDbXrecord
1000
DSTYLE
1002
{
1070
   340
340
11
1002
}
  0
XRECORD
  5
98F
102
{ACAD_REACTORS
330
985
102
}
330
985
100
AcDbXrecord
  1
{A01EC80B-E9B7-4B41-A6FA-D99B82F83C26}
  0
XRECORD
  5
988
102
{ACAD_REACTORS
330
985
102
}
330
985
100
AcDbXrecord
  1

  0
XRECORD
  5
98D
102
{ACAD_REACTORS
330
985
102
}
330
985
100
AcDbXrecord
 90
        1
  0
XRECORD
  5
98A
102
{ACAD_REACTORS
330
985
102
}
330
985
100
AcDbXrecord
340
1A
  0
XRECORD
  5
98C
102
{ACAD_REACTORS
330
985
102
}
330
985
100
AcDbXrecord
 90
    10269
  0
XRECORD
  5
98B
102
{ACAD_REACTORS
330
985
102
}
330
985
100
AcDbXrecord
340
19
  0
XRECORD
  5
991
102
{ACAD_REACTORS
330
985
102
}
330
985
100
AcDbXrecord
 40
0.0
  0
XRECORD
  5
994
102
{ACAD_REACTORS
330
985
102
}
330
985
100
AcDbXrecord
340
0
  0
XRECORD
  5
99A
102
{ACAD_REACTORS
330
985
102
}
330
985
100
AcDbXrecord
 10
0.0
 20
0.0
 30
0.0
  0
XRECORD
  5
996
102
{ACAD_REACTORS
330
985
102
}
330
985
100
AcDbXrecord
 10
0.0
 20
0.0
 30
0.0
  0
XRECORD
  5
999
102
{ACAD_REACTORS
330
985
102
}
330
985
100
AcDbXrecord
 10
0.0
 20
0.0
 30
0.0
  0
XRECORD
  5
997
102
{ACAD_REACTORS
330
985
102
}
330
985
100
AcDbXrecord
 10
0.0
 20
0.0
 30
0.0
  0
XRECORD
  5
998
102
{ACAD_REACTORS
330
985
102
}
330
985
100
AcDbXrecord
 10
0.0
 20
0.0
 30
0.0
  0
XRECORD
  5
995
102
{ACAD_REACTORS
330
985
102
}
330
985
100
AcDbXrecord
 10
0.0
 20
0.0
 30
0.0
  0
XRECORD
  5
992
102
{ACAD_REACTORS
330
985
102
}
330
985
100
AcDbXrecord
340
0
  0
XRECORD
  5
993
102
{ACAD_REACTORS
330
985
102
}
330
985
100
AcDbXrecord
 70
     0
  0
XRECORD
  5
989
102
{ACAD_REACTORS
330
985
102
}
330
985
100
AcDbXrecord
  1

  0
XRECORD
  5
986
102
{ACAD_REACTORS
330
985
102
}
330
985
100
AcDbXrecord
 90
        1
  0
XRECORD
  5
987
102
{ACAD_REACTORS
330
985
102
}
330
985
100
AcDbXrecord
 90
       70
  0
XRECORD
  5
99D
102
{ACAD_REACTORS
330
985
102
}
330
985
100
AcDbXrecord
340
0
  0
XRECORD
  5
9A3
102
{ACAD_REACTORS
330
985
102
}
330
985
100
AcDbXrecord
 10
0.0
 20
0.0
 30
0.0
  0
XRECORD
  5
99F
102
{ACAD_REACTORS
330
985
102
}
330
985
100
AcDbXrecord
 10
0.0
 20
0.0
 30
0.0
  0
XRECORD
  5
9A2
102
{ACAD_REACTORS
330
985
102
}
330
985
100
AcDbXrecord
 10
0.0
 20
0.0
 30
0.0
  0
XRECORD
  5
9A0
102
{ACAD_REACTORS
330
985
102
}
330
985
100
AcDbXrecord
 10
0.0
 20
0.0
 30
0.0
  0
XRECORD
  5
9A1
102
{ACAD_REACTORS
330
985
102
}
330
985
100
AcDbXrecord
 10
0.0
 20
0.0
 30
0.0
  0
XRECORD
  5
99E
102
{ACAD_REACTORS
330
985
102
}
330
985
100
AcDbXrecord
 10
0.0
 20
0.0
 30
0.0
  0
XRECORD
  5
99B
102
{ACAD_REACTORS
330
985
102
}
330
985
100
AcDbXrecord
340
0
  0
XRECORD
  5
99C
102
{ACAD_REACTORS
330
985
102
}
330
985
100
AcDbXrecord
 70
     0
  0
XRECORD
  5
990
102
{ACAD_REACTORS
330
985
102
}
330
985
100
AcDbXrecord
  1
{FAEB1C32-E019-11D5-929B-00C0DF256EC4}
  0
ENDSEC
  0
EOF
