  0
SECTION
  2
HEADER
  9
$ACADVER
  1
AC1014
  9
$ACADMAINTVER
 70
     9
  9
$DWGCODEPAGE
  3
ANSI_1252
  9
$INSBASE
 10
0.0
 20
0.0
 30
0.0
  9
$EXTMIN
 10
1.000000000000000E+20
 20
1.000000000000000E+20
 30
1.000000000000000E+20
  9
$EXTMAX
 10
-1.000000000000000E+20
 20
-1.000000000000000E+20
 30
-1.000000000000000E+20
  9
$LIMMIN
 10
0.0
 20
0.0
  9
$LIMMAX
 10
12.0
 20
9.0
  9
$ORTHOMODE
 70
     0
  9
$REGENMODE
 70
     1
  9
$FILLMODE
 70
     1
  9
$QTEXTMODE
 70
     0
  9
$MIRRTEXT
 70
     1
  9
$DRAGMODE
 70
     2
  9
$LTSCALE
 40
1.0
  9
$OSMODE
 70
    37
  9
$ATTMODE
 70
     1
  9
$TEXTSIZE
 40
0.2
  9
$TRACEWID
 40
0.05
  9
$TEXTSTYLE
  7
STANDARD
  9
$CLAYER
  8
0
  9
$CELTYPE
  6
BYLAYER
  9
$CECOLOR
 62
   256
  9
$CELTSCALE
 40
1.0
  9
$DELOBJ
 70
     1
  9
$DISPSILH
 70
     0
  9
$DIMSCALE
 40
1.0
  9
$DIMASZ
 40
0.18
  9
$DIMEXO
 40
0.0625
  9
$DIMDLI
 40
0.38
  9
$DIMRND
 40
0.0
  9
$DIMDLE
 40
0.0
  9
$DIMEXE
 40
0.18
  9
$DIMTP
 40
0.0
  9
$DIMTM
 40
0.0
  9
$DIMTXT
 40
0.18
  9
$DIMCEN
 40
0.09
  9
$DIMTSZ
 40
0.0
  9
$DIMTOL
 70
     0
  9
$DIMLIM
 70
     0
  9
$DIMTIH
 70
     1
  9
$DIMTOH
 70
     1
  9
$DIMSE1
 70
     0
  9
$DIMSE2
 70
     0
  9
$DIMTAD
 70
     0
  9
$DIMZIN
 70
     0
  9
$DIMBLK
  1

  9
$DIMASO
 70
     1
  9
$DIMSHO
 70
     1
  9
$DIMPOST
  1

  9
$DIMAPOST
  1

  9
$DIMALT
 70
     0
  9
$DIMALTD
 70
     2
  9
$DIMALTF
 40
25.4
  9
$DIMLFAC
 40
1.0
  9
$DIMTOFL
 70
     0
  9
$DIMTVP
 40
0.0
  9
$DIMTIX
 70
     0
  9
$DIMSOXD
 70
     0
  9
$DIMSAH
 70
     0
  9
$DIMBLK1
  1

  9
$DIMBLK2
  1

  9
$DIMSTYLE
  2
STANDARD
  9
$DIMCLRD
 70
     0
  9
$DIMCLRE
 70
     0
  9
$DIMCLRT
 70
     0
  9
$DIMTFAC
 40
1.0
  9
$DIMGAP
 40
0.09
  9
$DIMJUST
 70
     0
  9
$DIMSD1
 70
     0
  9
$DIMSD2
 70
     0
  9
$DIMTOLJ
 70
     1
  9
$DIMTZIN
 70
     0
  9
$DIMALTZ
 70
     0
  9
$DIMALTTZ
 70
     0
  9
$DIMFIT
 70
     3
  9
$DIMUPT
 70
     0
  9
$DIMUNIT
 70
     2
  9
$DIMDEC
 70
     4
  9
$DIMTDEC
 70
     4
  9
$DIMALTU
 70
     2
  9
$DIMALTTD
 70
     2
  9
$DIMTXSTY
  7
STANDARD
  9
$DIMAUNIT
 70
     0
  9
$LUNITS
 70
     2
  9
$LUPREC
 70
     4
  9
$SKETCHINC
 40
0.1
  9
$FILLETRAD
 40
0.5
  9
$AUNITS
 70
     0
  9
$AUPREC
 70
     0
  9
$MENU
  1
.
  9
$ELEVATION
 40
0.0
  9
$PELEVATION
 40
0.0
  9
$THICKNESS
 40
0.0
  9
$LIMCHECK
 70
     0
  9
$CHAMFERA
 40
0.5
  9
$CHAMFERB
 40
0.5
  9
$CHAMFERC
 40
1.0
  9
$CHAMFERD
 40
0.0
  9
$SKPOLY
 70
     0
  9
$TDCREATE
 40
2458389.530637373
  9
$TDUPDATE
 40
2458389.530637384
  9
$TDINDWG
 40
0.0000000116
  9
$TDUSRTIMER
 40
0.0000000116
  9
$USRTIMER
 70
     1
  9
$ANGBASE
 50
0.0
  9
$ANGDIR
 70
     0
  9
$PDMODE
 70
     0
  9
$PDSIZE
 40
0.0
  9
$PLINEWID
 40
0.0
  9
$COORDS
 70
     1
  9
$SPLFRAME
 70
     0
  9
$SPLINETYPE
 70
     6
  9
$SPLINESEGS
 70
     8
  9
$ATTDIA
 70
     0
  9
$ATTREQ
 70
     1
  9
$HANDLING
 70
     1
  9
$HANDSEED
  5
866
  9
$SURFTAB1
 70
     6
  9
$SURFTAB2
 70
     6
  9
$SURFTYPE
 70
     6
  9
$SURFU
 70
     6
  9
$SURFV
 70
     6
  9
$UCSNAME
  2

  9
$UCSORG
 10
0.0
 20
0.0
 30
0.0
  9
$UCSXDIR
 10
1.0
 20
0.0
 30
0.0
  9
$UCSYDIR
 10
0.0
 20
1.0
 30
0.0
  9
$PUCSNAME
  2

  9
$PUCSORG
 10
0.0
 20
0.0
 30
0.0
  9
$PUCSXDIR
 10
1.0
 20
0.0
 30
0.0
  9
$PUCSYDIR
 10
0.0
 20
1.0
 30
0.0
  9
$USERI1
 70
     0
  9
$USERI2
 70
     0
  9
$USERI3
 70
     0
  9
$USERI4
 70
     0
  9
$USERI5
 70
     0
  9
$USERR1
 40
0.0
  9
$USERR2
 40
0.0
  9
$USERR3
 40
0.0
  9
$USERR4
 40
0.0
  9
$USERR5
 40
0.0
  9
$WORLDVIEW
 70
     1
  9
$SHADEDGE
 70
     3
  9
$SHADEDIF
 70
    70
  9
$TILEMODE
 70
     1
  9
$MAXACTVP
 70
    64
  9
$PINSBASE
 10
0.0
 20
0.0
 30
0.0
  9
$PLIMCHECK
 70
     0
  9
$PEXTMIN
 10
1.000000000000000E+20
 20
1.000000000000000E+20
 30
1.000000000000000E+20
  9
$PEXTMAX
 10
-1.000000000000000E+20
 20
-1.000000000000000E+20
 30
-1.000000000000000E+20
  9
$PLIMMIN
 10
0.0
 20
0.0
  9
$PLIMMAX
 10
12.0
 20
9.0
  9
$UNITMODE
 70
     0
  9
$VISRETAIN
 70
     1
  9
$PLINEGEN
 70
     0
  9
$PSLTSCALE
 70
     1
  9
$TREEDEPTH
 70
  3020
  9
$PICKSTYLE
 70
     1
  9
$CMLSTYLE
  2
STANDARD
  9
$CMLJUST
 70
     0
  9
$CMLSCALE
 40
1.0
  9
$PROXYGRAPHICS
 70
     1
  9
$MEASUREMENT
 70
     0
  0
ENDSEC
  0
SECTION
  2
CLASSES
  0
CLASS
  1
ACDBDICTIONARYWDFLT
  2
AcDbDictionaryWithDefault
  3
ObjectDBX Classes
 90
        0
280
     0
281
     0
  0
CLASS
  1
VISUALSTYLE
  2
AcDbVisualStyle
  3
ObjectDBX Classes
 90
     4095
280
     0
281
     0
  0
CLASS
  1
XRECORD
  2
AcDbXrecord
  3
AutoCAD 2000
 90
        0
280
     0
281
     0
  0
CLASS
  1
LWPOLYLINE
  2
AcDbPolyline
  3
AutoCAD 2000
 90
        0
280
     0
281
     1
  0
CLASS
  1
HATCH
  2
AcDbHatch
  3
AutoCAD 2000
 90
        0
280
     0
281
     1
  0
CLASS
  1
ACDBPLACEHOLDER
  2
AcDbPlaceHolder
  3
ObjectDBX Classes
 90
        0
280
     0
281
     0
  0
CLASS
  1
LAYOUT
  2
AcDbLayout
  3
ObjectDBX Classes
 90
        0
280
     0
281
     0
  0
ENDSEC
  0
SECTION
  2
TABLES
  0
TABLE
  2
VPORT
  5
8
330
0
100
AcDbSymbolTable
 70
     1
  0
VPORT
  5
29
330
8
100
AcDbSymbolTableRecord
100
AcDbViewportTableRecord
  2
*ACTIVE
 70
     0
 10
0.0
 20
0.0
 11
1.0
 21
1.0
 12
0.0
 22
0.0
 13
0.0
 23
0.0
 14
0.5
 24
0.5
 15
0.5
 25
0.5
 16
0.0
 26
0.0
 36
1.0
 17
100.0619370952102
 27
127.0193786303545
 37
0.0
 40
297.0001314904201
 41
0.7070759562020681
 42
50.0
 43
0.0
 44
0.0
 50
0.0
 51
0.0
 71
     0
 72
   100
 73
     1
 74
     3
 75
     0
 76
     0
 77
     0
 78
     0
  0
ENDTAB
  0
TABLE
  2
LTYPE
  5
5
330
0
100
AcDbSymbolTable
 70
     7
  0
LTYPE
  5
14
330
5
100
AcDbSymbolTableRecord
100
AcDbLinetypeTableRecord
  2
BYBLOCK
 70
     0
  3

 72
    65
 73
     0
 40
0.0
  0
LTYPE
  5
15
330
5
100
AcDbSymbolTableRecord
100
AcDbLinetypeTableRecord
  2
BYLAYER
 70
     0
  3

 72
    65
 73
     0
 40
0.0
  0
LTYPE
  5
16
330
5
100
AcDbSymbolTableRecord
100
AcDbLinetypeTableRecord
  2
CONTINUOUS
 70
     0
  3
Solid line
 72
    65
 73
     0
 40
0.0
  0
LTYPE
  5
43A
330
5
100
AcDbSymbolTableRecord
100
AcDbLinetypeTableRecord
  2
AI-LINETYPE-1
 70
     0
  3
Adobe Illustrator Linetype No. 1
 72
    65
 73
     4
 40
8.819444442239584
 49
7.055555553791667
 74
     0
 49
-0.7055555553791667
 74
     0
 49
0.3527777776895833
 74
     0
 49
-0.7055555553791667
 74
     0
  0
LTYPE
  5
440
330
5
100
AcDbSymbolTableRecord
100
AcDbLinetypeTableRecord
  2
AI-LINETYPE-2
 70
     0
  3
Adobe Illustrator Linetype No. 2
 72
    65
 73
     4
 40
4.938888887654167
 49
1.763888888447917
 74
     0
 49
-0.7055555553791667
 74
     0
 49
1.763888888447917
 74
     0
 49
-0.7055555553791667
 74
     0
  0
LTYPE
  5
445
330
5
100
AcDbSymbolTableRecord
100
AcDbLinetypeTableRecord
  2
AI-LINETYPE-3
 70
     0
  3
Adobe Illustrator Linetype No. 3
 72
    65
 73
     4
 40
4.938888887654167
 49
1.763888888447917
 74
     0
 49
-0.7055555553791667
 74
     0
 49
1.763888888447917
 74
     0
 49
-0.7055555553791667
 74
     0
  0
LTYPE
  5
44A
330
5
100
AcDbSymbolTableRecord
100
AcDbLinetypeTableRecord
  2
AI-LINETYPE-4
 70
     0
  3
Adobe Illustrator Linetype No. 4
 72
    65
 73
     4
 40
4.938888887654167
 49
1.763888888447917
 74
     0
 49
-0.7055555553791667
 74
     0
 49
1.763888888447917
 74
     0
 49
-0.7055555553791667
 74
     0
  0
LTYPE
  5
44F
330
5
100
AcDbSymbolTableRecord
100
AcDbLinetypeTableRecord
  2
AI-LINETYPE-5
 70
     0
  3
Adobe Illustrator Linetype No. 5
 72
    65
 73
     4
 40
4.938888887654167
 49
1.763888888447917
 74
     0
 49
-0.7055555553791667
 74
     0
 49
1.763888888447917
 74
     0
 49
-0.7055555553791667
 74
     0
  0
LTYPE
  5
454
330
5
100
AcDbSymbolTableRecord
100
AcDbLinetypeTableRecord
  2
AI-LINETYPE-6
 70
     0
  3
Adobe Illustrator Linetype No. 6
 72
    65
 73
     4
 40
4.938888887654167
 49
1.763888888447917
 74
     0
 49
-0.7055555553791667
 74
     0
 49
1.763888888447917
 74
     0
 49
-0.7055555553791667
 74
     0
  0
ENDTAB
  0
TABLE
  2
LAYER
  5
2
330
0
100
AcDbSymbolTable
 70
     5
  0
LAYER
  5
10
330
2
100
AcDbSymbolTableRecord
100
AcDbLayerTableRecord
  2
0
 70
     0
 62
     7
  6
CONTINUOUS
  0
LAYER
  5
3B
330
2
100
AcDbSymbolTableRecord
100
AcDbLayerTableRecord
  2
GRAU_10_
 70
     0
 62
     7
  6
CONTINUOUS
  0
LAYER
  5
43B
330
2
100
AcDbSymbolTableRecord
100
AcDbLayerTableRecord
  2
STANDARDEBENE
 70
     0
 62
     7
  6
CONTINUOUS
  0
LAYER
  5
459
330
2
100
AcDbSymbolTableRecord
100
AcDbLayerTableRecord
  2
BEMAßUNG
 70
     1
 62
     7
  6
CONTINUOUS
  0
LAYER
  5
45A
330
2
100
AcDbSymbolTableRecord
100
AcDbLayerTableRecord
  2
TEXT
 70
     1
 62
     7
  6
CONTINUOUS
  0
ENDTAB
  0
TABLE
  2
STYLE
  5
3
330
0
100
AcDbSymbolTable
 70
     1
  0
STYLE
  5
11
330
3
100
AcDbSymbolTableRecord
100
AcDbTextStyleTableRecord
  2
STANDARD
 70
     0
 40
0.0
 41
1.0
 50
0.0
 71
     0
 42
0.2
  3
txt
  4

  0
ENDTAB
  0
TABLE
  2
VIEW
  5
6
330
0
100
AcDbSymbolTable
 70
     0
  0
ENDTAB
  0
TABLE
  2
UCS
  5
7
330
0
100
AcDbSymbolTable
 70
     0
  0
ENDTAB
  0
TABLE
  2
APPID
  5
9
330
0
100
AcDbSymbolTable
 70
     1
  0
APPID
  5
12
330
9
100
AcDbSymbolTableRecord
100
AcDbRegAppTableRecord
  2
ACAD
 70
     0
  0
ENDTAB
  0
TABLE
  2
DIMSTYLE
  5
A
330
0
100
AcDbSymbolTable
 70
     1
  0
DIMSTYLE
105
27
330
A
100
AcDbSymbolTableRecord
100
AcDbDimStyleTableRecord
  2
STANDARD
 70
     0
  3

  4

  5

  6

  7

 40
1.0
 41
0.18
 42
0.0625
 43
0.38
 44
0.18
 45
0.0
 46
0.0
 47
0.0
 48
0.0
140
0.18
141
0.09
142
0.0
143
25.4
144
1.0
145
0.0
146
1.0
147
0.09
 71
     0
 72
     0
 73
     1
 74
     1
 75
     0
 76
     0
 77
     0
 78
     0
170
     0
171
     2
172
     0
173
     0
174
     0
175
     0
176
     0
177
     0
178
     0
270
     2
271
     4
272
     4
273
     2
274
     2
340
11
275
     0
280
     0
281
     0
282
     0
283
     1
284
     0
285
     0
286
     0
287
     3
288
     0
  0
ENDTAB
  0
TABLE
  2
BLOCK_RECORD
  5
1
330
0
100
AcDbSymbolTable
 70
     1
  0
BLOCK_RECORD
  5
1F
330
1
100
AcDbSymbolTableRecord
100
AcDbBlockTableRecord
  2
*MODEL_SPACE
  0
BLOCK_RECORD
  5
1B
330
1
100
AcDbSymbolTableRecord
100
AcDbBlockTableRecord
  2
*PAPER_SPACE
  0
ENDTAB
  0
ENDSEC
  0
SECTION
  2
BLOCKS
  0
BLOCK
  5
20
330
1F
100
AcDbEntity
  8
0
100
AcDbBlockBegin
  2
*MODEL_SPACE
 70
     0
 71
     0
 10
0.0
 20
0.0
 30
0.0
  3
*MODEL_SPACE
  1

  0
ENDBLK
  5
21
330
1F
100
AcDbEntity
  8
0
100
AcDbBlockEnd
  0
BLOCK
  5
1C
330
1B
100
AcDbEntity
 67
     1
  8
0
100
AcDbBlockBegin
  2
*PAPER_SPACE
 70
     0
 71
     0
 10
0.0
 20
0.0
 30
0.0
  3
*PAPER_SPACE
  1

  0
ENDBLK
  5
1D
330
1B
100
AcDbEntity
 67
     1
  8
0
100
AcDbBlockEnd
  0
ENDSEC
  0
SECTION
  2
ENTITIES
  0
POLYLINE
  5
3C
330
1F
100
AcDbEntity
  8
GRAU_10_
 62
     7
100
AcDb2dPolyline
 66
     1
 10
0.0
 20
0.0
 30
0.0
  0
VERTEX
  5
3D
330
3C
100
AcDbEntity
  8
GRAU_10_
 62
     7
100
AcDbVertex
100
AcDb2dVertex
 10
62.92759736925074
 20
176.4643364359187
 30
0.0
  0
VERTEX
  5
3E
330
3C
100
AcDbEntity
  8
GRAU_10_
 62
     7
100
AcDbVertex
100
AcDb2dVertex
 10
112.3500759267736
 20
176.4643364359187
 30
0.0
  0
SEQEND
  5
3F
330
3C
100
AcDbEntity
  8
GRAU_10_
  0
POLYLINE
  5
40
330
1F
100
AcDbEntity
  8
GRAU_10_
 62
     7
100
AcDb2dPolyline
 66
     1
 10
0.0
 20
0.0
 30
0.0
  0
VERTEX
  5
41
330
40
100
AcDbEntity
  8
GRAU_10_
 62
     7
100
AcDbVertex
100
AcDb2dVertex
 10
62.92759736925074
 20
176.4643364359187
 30
0.0
  0
VERTEX
  5
42
330
40
100
AcDbEntity
  8
GRAU_10_
 62
     7
100
AcDbVertex
100
AcDb2dVertex
 10
62.85421683541492
 20
176.538061479303
 30
0.0
  0
VERTEX
  5
43
330
40
100
AcDbEntity
  8
GRAU_10_
 62
     7
100
AcDbVertex
100
AcDb2dVertex
 10
112.4127766646051
 20
176.538061479303
 30
0.0
  0
SEQEND
  5
44
330
40
100
AcDbEntity
  8
GRAU_10_
  0
POLYLINE
  5
45
330
1F
100
AcDbEntity
  8
GRAU_10_
 62
     7
100
AcDb2dPolyline
 66
     1
 10
0.0
 20
0.0
 30
0.0
  0
VERTEX
  5
46
330
45
100
AcDbEntity
  8
GRAU_10_
 62
     7
100
AcDbVertex
100
AcDb2dVertex
 10
120.5111626217819
 20
186.1888074621334
 30
0.0
  0
VERTEX
  5
47
330
45
100
AcDbEntity
  8
GRAU_10_
 62
     7
100
AcDbVertex
100
AcDb2dVertex
 10
121.1218057965425
 20
197.7791422031594
 30
0.0
  0
SEQEND
  5
48
330
45
100
AcDbEntity
  8
GRAU_10_
  0
POLYLINE
  5
49
330
1F
100
AcDbEntity
  8
GRAU_10_
 62
     7
100
AcDb2dPolyline
 66
     1
 10
0.0
 20
0.0
 30
0.0
  0
VERTEX
  5
4A
330
49
100
AcDbEntity
  8
GRAU_10_
 62
     7
100
AcDbVertex
100
AcDb2dVertex
 10
112.4127766646051
 20
176.538061479303
 30
0.0
  0
VERTEX
  5
4B
330
49
100
AcDbEntity
  8
GRAU_10_
 62
     7
100
AcDbVertex
100
AcDb2dVertex
 10
120.5111626217819
 20
186.1888074621334
 30
0.0
  0
SEQEND
  5
4C
330
49
100
AcDbEntity
  8
GRAU_10_
  0
POLYLINE
  5
4D
330
1F
100
AcDbEntity
  8
GRAU_10_
 62
     7
100
AcDb2dPolyline
 66
     1
 10
0.0
 20
0.0
 30
0.0
  0
VERTEX
  5
4E
330
4D
100
AcDbEntity
  8
GRAU_10_
 62
     7
100
AcDbVertex
100
AcDb2dVertex
 10
75.12736950161747
 20
198.014442224802
 30
0.0
  0
VERTEX
  5
4F
330
4D
100
AcDbEntity
  8
GRAU_10_
 62
     7
100
AcDbVertex
100
AcDb2dVertex
 10
62.12781845234999
 20
185.0143744112117
 30
0.0
  0
SEQEND
  5
50
330
4D
100
AcDbEntity
  8
GRAU_10_
  0
POLYLINE
  5
51
330
1F
100
AcDbEntity
  8
GRAU_10_
 62
     7
100
AcDb2dPolyline
 66
     1
 10
0.0
 20
0.0
 30
0.0
  0
VERTEX
  5
52
330
51
100
AcDbEntity
  8
GRAU_10_
 62
     7
100
AcDbVertex
100
AcDb2dVertex
 10
62.85421683541492
 20
176.538061479303
 30
0.0
  0
VERTEX
  5
53
330
51
100
AcDbEntity
  8
GRAU_10_
 62
     7
100
AcDbVertex
100
AcDb2dVertex
 10
62.12781845234999
 20
177.2641153528194
 30
0.0
  0
SEQEND
  5
54
330
51
100
AcDbEntity
  8
GRAU_10_
  0
POLYLINE
  5
55
330
1F
100
AcDbEntity
  8
GRAU_10_
 62
     7
100
AcDb2dPolyline
 66
     1
 10
0.0
 20
0.0
 30
0.0
  0
VERTEX
  5
56
330
55
100
AcDbEntity
  8
GRAU_10_
 62
     7
100
AcDbVertex
100
AcDb2dVertex
 10
104.6277221418118
 20
198.014442224802
 30
0.0
  0
VERTEX
  5
57
330
55
100
AcDbEntity
  8
GRAU_10_
 62
     7
100
AcDbVertex
100
AcDb2dVertex
 10
75.12736950161747
 20
198.014442224802
 30
0.0
  0
SEQEND
  5
58
330
55
100
AcDbEntity
  8
GRAU_10_
  0
POLYLINE
  5
59
330
1F
100
AcDbEntity
  8
GRAU_10_
 62
     7
100
AcDb2dPolyline
 66
     1
 10
0.0
 20
0.0
 30
0.0
  0
VERTEX
  5
5A
330
59
100
AcDbEntity
  8
GRAU_10_
 62
     7
100
AcDbVertex
100
AcDb2dVertex
 10
62.12781845234999
 20
185.0143744112117
 30
0.0
  0
VERTEX
  5
5B
330
59
100
AcDbEntity
  8
GRAU_10_
 62
     7
100
AcDbVertex
100
AcDb2dVertex
 10
62.12781845234999
 20
177.2641153528194
 30
0.0
  0
SEQEND
  5
5C
330
59
100
AcDbEntity
  8
GRAU_10_
  0
SPLINE
  5
5D
330
1F
100
AcDbEntity
  8
GRAU_10_
 62
     7
100
AcDbSpline
210
0.0
220
0.0
230
1.0
 70
     8
 71
     3
 72
     8
 73
     4
 74
     0
 42
0.0000000001
 43
0.0000000001
 40
0.0
 40
0.0
 40
0.0
 40
0.0
 40
1.0
 40
1.0
 40
1.0
 40
1.0
 10
118.3547051027898
 20
200.5414197632327
 30
0.0
 10
118.315431014258
 20
200.6211737237163
 30
0.0
 10
118.2713337920468
 20
200.6967935696175
 30
0.0
 10
118.2284423532554
 20
200.7605278360946
 30
0.0
  0
SPLINE
  5
5E
330
1F
100
AcDbEntity
  8
GRAU_10_
 62
     7
100
AcDbSpline
210
0.0
220
0.0
230
1.0
 70
     8
 71
     3
 72
    11
 73
     7
 74
     0
 42
0.0000000001
 43
0.0000000001
 40
0.0
 40
0.0
 40
0.0
 40
0.0
 40
1.0
 40
1.0
 40
1.0
 40
2.0
 40
2.0
 40
2.0
 40
2.0
 10
116.7763346062226
 20
201.5987195676559
 30
0.0
 10
116.8042398796531
 20
201.0661078056362
 30
0.0
 10
117.2448675922166
 20
200.6523518378578
 30
0.0
 10
117.7750677873965
 20
200.6511460544379
 30
0.0
 10
117.94008786114
 20
200.6511460544379
 30
0.0
 10
118.0964951961703
 20
200.6914536716153
 30
0.0
 10
118.2284423532554
 20
200.7605278360946
 30
0.0
  0
SPLINE
  5
5F
330
1F
100
AcDbEntity
  8
GRAU_10_
 62
     7
100
AcDbSpline
210
0.0
220
0.0
230
1.0
 70
     8
 71
     3
 72
     8
 73
     4
 74
     0
 42
0.0000000001
 43
0.0000000001
 40
0.0
 40
0.0
 40
0.0
 40
0.0
 40
1.0
 40
1.0
 40
1.0
 40
1.0
 10
116.7763346062226
 20
201.5987195676559
 30
0.0
 10
116.6874511427031
 20
201.6044039752065
 30
0.0
 10
116.5999457173778
 20
201.604059465658
 30
0.0
 10
116.5236368523795
 20
201.5987195676559
 30
0.0
  0
SPLINE
  5
60
330
1F
100
AcDbEntity
  8
GRAU_10_
 62
     7
100
AcDbSpline
210
0.0
220
0.0
230
1.0
 70
     8
 71
     3
 72
    11
 73
     7
 74
     0
 42
0.0000000001
 43
0.0000000001
 40
0.0
 40
0.0
 40
0.0
 40
0.0
 40
1.0
 40
1.0
 40
1.0
 40
2.0
 40
2.0
 40
2.0
 40
2.0
 10
115.0710123410239
 20
200.7605278360946
 30
0.0
 10
115.2184624277926
 20
200.6850802449676
 30
0.0
 10
115.3757310366943
 20
200.6504570353409
 30
0.0
 10
115.5250759259798
 20
200.6511460544379
 30
0.0
 10
116.0587212166451
 20
200.6511460544379
 30
0.0
 10
116.4948703050777
 20
201.0695529011215
 30
0.0
 10
116.5236368523795
 20
201.5987195676559
 30
0.0
  0
SPLINE
  5
61
330
1F
100
AcDbEntity
  8
GRAU_10_
 62
     7
100
AcDbSpline
210
0.0
220
0.0
230
1.0
 70
     8
 71
     3
 72
     8
 73
     4
 74
     0
 42
0.0000000001
 43
0.0000000001
 40
0.0
 40
0.0
 40
0.0
 40
0.0
 40
1.0
 40
1.0
 40
1.0
 40
1.0
 10
115.0710123410239
 20
200.7605278360946
 30
0.0
 10
115.0215752208106
 20
200.6864582831617
 30
0.0
 10
114.9781670176964
 20
200.6099771633892
 30
0.0
 10
114.945094101038
 20
200.5414197632327
 30
0.0
  0
SPLINE
  5
62
330
1F
100
AcDbEntity
  8
GRAU_10_
 62
     7
100
AcDbSpline
210
0.0
220
0.0
230
1.0
 70
     8
 71
     3
 72
     8
 73
     4
 74
     0
 42
0.0000000001
 43
0.0000000001
 40
0.0
 40
0.0
 40
0.0
 40
0.0
 40
1.0
 40
1.0
 40
1.0
 40
1.0
 10
115.399846705091
 20
199.7025390125744
 30
0.0
 10
115.399846705091
 20
200.0522162043272
 30
0.0
 10
115.2201849755352
 20
200.3605522502571
 30
0.0
 10
114.945094101038
 20
200.5414197632327
 30
0.0
  0
SPLINE
  5
63
330
1F
100
AcDbEntity
  8
GRAU_10_
 62
     7
100
AcDbSpline
210
0.0
220
0.0
230
1.0
 70
     8
 71
     3
 72
     8
 73
     4
 74
     0
 42
0.0000000001
 43
0.0000000001
 40
0.0
 40
0.0
 40
0.0
 40
0.0
 40
1.0
 40
1.0
 40
1.0
 40
1.0
 10
114.945094101038
 20
198.8646917905616
 30
0.0
 10
115.2382717268328
 20
199.0548610613474
 30
0.0
 10
115.3981241573484
 20
199.373532393733
 30
0.0
 10
115.399846705091
 20
199.7025390125744
 30
0.0
  0
SPLINE
  5
64
330
1F
100
AcDbEntity
  8
GRAU_10_
 62
     7
100
AcDbSpline
210
0.0
220
0.0
230
1.0
 70
     8
 71
     3
 72
     8
 73
     4
 74
     0
 42
0.0000000001
 43
0.0000000001
 40
0.0
 40
0.0
 40
0.0
 40
0.0
 40
1.0
 40
1.0
 40
1.0
 40
1.0
 10
114.945094101038
 20
198.8646917905616
 30
0.0
 10
114.9838514252471
 20
198.7845933205296
 30
0.0
 10
115.0279486474583
 20
198.7088012198541
 30
0.0
 10
115.0710123410239
 20
198.6455837176997
 30
0.0
  0
SPLINE
  5
65
330
1F
100
AcDbEntity
  8
GRAU_10_
 62
     7
100
AcDbSpline
210
0.0
220
0.0
230
1.0
 70
     8
 71
     3
 72
    11
 73
     7
 74
     0
 42
0.0000000001
 43
0.0000000001
 40
0.0
 40
0.0
 40
0.0
 40
0.0
 40
1.0
 40
1.0
 40
1.0
 40
2.0
 40
2.0
 40
2.0
 40
2.0
 10
116.5236368523795
 20
197.8067029670414
 30
0.0
 10
116.4952148146262
 20
198.3401760029323
 30
0.0
 10
116.0545871020628
 20
198.7532429516138
 30
0.0
 10
115.5250759259798
 20
198.7542764802594
 30
0.0
 10
115.3591945783651
 20
198.7542764802594
 30
0.0
 10
115.202959498109
 20
198.7137966083077
 30
0.0
 10
115.0710123410239
 20
198.6455837176997
 30
0.0
  0
SPLINE
  5
66
330
1F
100
AcDbEntity
  8
GRAU_10_
 62
     7
100
AcDbSpline
210
0.0
220
0.0
230
1.0
 70
     8
 71
     3
 72
     8
 73
     4
 74
     0
 42
0.0000000001
 43
0.0000000001
 40
0.0
 40
0.0
 40
0.0
 40
0.0
 40
1.0
 40
1.0
 40
1.0
 40
1.0
 10
116.5236368523795
 20
197.8067029670414
 30
0.0
 10
116.6123480611247
 20
197.8015353238135
 30
0.0
 10
116.7000257412243
 20
197.8015353238135
 30
0.0
 10
116.7763346062226
 20
197.8067029670414
 30
0.0
  0
SPLINE
  5
67
330
1F
100
AcDbEntity
  8
GRAU_10_
 62
     7
100
AcDbSpline
210
0.0
220
0.0
230
1.0
 70
     8
 71
     3
 72
    11
 73
     7
 74
     0
 42
0.0000000001
 43
0.0000000001
 40
0.0
 40
0.0
 40
0.0
 40
0.0
 40
1.0
 40
1.0
 40
1.0
 40
2.0
 40
2.0
 40
2.0
 40
2.0
 10
118.2284423532554
 20
198.6455837176997
 30
0.0
 10
118.0808200117124
 20
198.7203422897296
 30
0.0
 10
117.9232068932623
 20
198.7558267732277
 30
0.0
 10
117.7750677873965
 20
198.7542764802594
 30
0.0
 10
117.241250241957
 20
198.7542764802594
 30
0.0
 10
116.8052734082987
 20
198.3358696335758
 30
0.0
 10
116.7763346062226
 20
197.8067029670414
 30
0.0
  0
SPLINE
  5
68
330
1F
100
AcDbEntity
  8
GRAU_10_
 62
     7
100
AcDbSpline
210
0.0
220
0.0
230
1.0
 70
     8
 71
     3
 72
     8
 73
     4
 74
     0
 42
0.0000000001
 43
0.0000000001
 40
0.0
 40
0.0
 40
0.0
 40
0.0
 40
1.0
 40
1.0
 40
1.0
 40
1.0
 10
118.2284423532554
 20
198.6455837176997
 30
0.0
 10
118.2777072186945
 20
198.7193087610841
 30
0.0
 10
118.3218044409057
 20
198.7952731165338
 30
0.0
 10
118.3547051027898
 20
198.8646917905616
 30
0.0
  0
SPLINE
  5
69
330
1F
100
AcDbEntity
  8
GRAU_10_
 62
     7
100
AcDbSpline
210
0.0
220
0.0
230
1.0
 70
     8
 71
     3
 72
    11
 73
     7
 74
     0
 42
0.0000000001
 43
0.0000000001
 40
0.0
 40
0.0
 40
0.0
 40
0.0
 40
1.0
 40
1.0
 40
1.0
 40
2.0
 40
2.0
 40
2.0
 40
2.0
 10
118.3547051027898
 20
200.5414197632327
 30
0.0
 10
118.0618719865436
 20
200.3505614733499
 30
0.0
 10
117.9013305369309
 20
200.0327514148356
 30
0.0
 10
117.8996079891883
 20
199.7025390125744
 30
0.0
 10
117.8996079891883
 20
199.35320633037
 30
0.0
 10
118.0790974639698
 20
199.0457315583115
 30
0.0
 10
118.3547051027898
 20
198.8646917905616
 30
0.0
  0
SPLINE
  5
6A
330
1F
100
AcDbEntity
  8
GRAU_10_
 62
     7
100
AcDbSpline
210
0.0
220
0.0
230
1.0
 70
    11
 71
     3
 72
    17
 73
    13
 74
     0
 42
0.0000000001
 43
0.0000000001
 40
0.0
 40
0.0
 40
0.0
 40
0.0
 40
1.0
 40
1.0
 40
1.0
 40
2.0
 40
2.0
 40
2.0
 40
3.0
 40
3.0
 40
3.0
 40
4.0
 40
4.0
 40
4.0
 40
4.0
 10
118.6496052763272
 20
199.7025390125744
 30
0.0
 10
118.6496052763272
 20
200.8070366251455
 30
0.0
 10
117.7542249597108
 20
201.7027614513104
 30
0.0
 10
116.6497273471397
 20
201.7027614513104
 30
0.0
 10
115.5455742441171
 20
201.7027614513104
 30
0.0
 10
114.6498494179521
 20
200.8070366251455
 30
0.0
 10
114.6498494179521
 20
199.7025390125744
 30
0.0
 10
114.6498494179521
 20
198.5983859095518
 30
0.0
 10
115.5455742441171
 20
197.7030055929354
 30
0.0
 10
116.6497273471397
 20
197.7030055929354
 30
0.0
 10
117.7542249597108
 20
197.7030055929354
 30
0.0
 10
118.6496052763272
 20
198.5983859095518
 30
0.0
 10
118.6496052763272
 20
199.7025390125744
 30
0.0
  0
SPLINE
  5
6B
330
1F
100
AcDbEntity
  8
GRAU_10_
 62
     7
100
AcDbSpline
210
0.0
220
0.0
230
1.0
 70
    11
 71
     3
 72
    17
 73
    13
 74
     0
 42
0.0000000001
 43
0.0000000001
 40
0.0
 40
0.0
 40
0.0
 40
0.0
 40
1.0
 40
1.0
 40
1.0
 40
2.0
 40
2.0
 40
2.0
 40
3.0
 40
3.0
 40
3.0
 40
4.0
 40
4.0
 40
4.0
 40
4.0
 10
119.3999470730146
 20
199.7025390125744
 30
0.0
 10
119.3999470730146
 20
201.2216538667953
 30
0.0
 10
118.1686699465863
 20
202.4531032479978
 30
0.0
 10
116.6497273471397
 20
202.4531032479978
 30
0.0
 10
115.1313015120158
 20
202.4531032479978
 30
0.0
 10
113.9001966403618
 20
201.2216538667953
 30
0.0
 10
113.9001966403618
 20
199.7025390125744
 30
0.0
 10
113.9001966403618
 20
198.1842854322248
 30
0.0
 10
115.1313015120158
 20
196.9530083057965
 30
0.0
 10
116.6497273471397
 20
196.9530083057965
 30
0.0
 10
118.1686699465863
 20
196.9530083057965
 30
0.0
 10
119.3999470730146
 20
198.1842854322248
 30
0.0
 10
119.3999470730146
 20
199.7025390125744
 30
0.0
  0
SPLINE
  5
6C
330
1F
100
AcDbEntity
  8
GRAU_10_
 62
     7
100
AcDbSpline
210
0.0
220
0.0
230
1.0
 70
     8
 71
     3
 72
     8
 73
     4
 74
     0
 42
0.0000000001
 43
0.0000000001
 40
0.0
 40
0.0
 40
0.0
 40
0.0
 40
1.0
 40
1.0
 40
1.0
 40
1.0
 10
104.6277221418118
 20
198.014442224802
 30
0.0
 10
105.9971475971986
 20
198.014442224802
 30
0.0
 10
107.3028387861083
 20
198.2869492776852
 30
0.0
 10
108.4271456977196
 20
198.7561712827763
 30
0.0
  0
POLYLINE
  5
6D
330
1F
100
AcDbEntity
  8
GRAU_10_
 62
     7
100
AcDb2dPolyline
 66
     1
 10
0.0
 20
0.0
 30
0.0
  0
VERTEX
  5
6E
330
6D
100
AcDbEntity
  8
GRAU_10_
 62
     7
100
AcDbVertex
100
AcDb2dVertex
 10
112.4127766646051
 20
176.538061479303
 30
0.0
  0
VERTEX
  5
6F
330
6D
100
AcDbEntity
  8
GRAU_10_
 62
     7
100
AcDbVertex
100
AcDb2dVertex
 10
112.3817708052379
 20
176.5010267028366
 30
0.0
  0
VERTEX
  5
70
330
6D
100
AcDbEntity
  8
GRAU_10_
 62
     7
100
AcDbVertex
100
AcDb2dVertex
 10
112.3500759267736
 20
176.4643364359187
 30
0.0
  0
SEQEND
  5
71
330
6D
100
AcDbEntity
  8
GRAU_10_
  0
POLYLINE
  5
72
330
1F
100
AcDbEntity
  8
GRAU_10_
 62
     7
100
AcDb2dPolyline
 66
     1
 10
0.0
 20
0.0
 30
0.0
  0
VERTEX
  5
73
330
72
100
AcDbEntity
  8
GRAU_10_
 62
     7
100
AcDbVertex
100
AcDb2dVertex
 10
112.0084947094111
 20
200.7574272501579
 30
0.0
  0
VERTEX
  5
74
330
72
100
AcDbEntity
  8
GRAU_10_
 62
     7
100
AcDbVertex
100
AcDb2dVertex
 10
111.9983316777296
 20
200.7484700018962
 30
0.0
  0
VERTEX
  5
75
330
72
100
AcDbEntity
  8
GRAU_10_
 62
     7
100
AcDbVertex
100
AcDb2dVertex
 10
111.6098971617677
 20
200.4144679946013
 30
0.0
  0
VERTEX
  5
76
330
72
100
AcDbEntity
  8
GRAU_10_
 62
     7
100
AcDbVertex
100
AcDb2dVertex
 10
111.2025146206369
 20
200.1028591079604
 30
0.0
  0
VERTEX
  5
77
330
72
100
AcDbEntity
  8
GRAU_10_
 62
     7
100
AcDbVertex
100
AcDb2dVertex
 10
110.9918470317138
 20
199.9557535307402
 30
0.0
  0
VERTEX
  5
78
330
72
100
AcDbEntity
  8
GRAU_10_
 62
     7
100
AcDbVertex
100
AcDb2dVertex
 10
110.7763563091115
 20
199.814504615845
 30
0.0
  0
VERTEX
  5
79
330
72
100
AcDbEntity
  8
GRAU_10_
 62
     7
100
AcDbVertex
100
AcDb2dVertex
 10
110.6673190370033
 20
199.7462917252371
 30
0.0
  0
VERTEX
  5
7A
330
72
100
AcDbEntity
  8
GRAU_10_
 62
     7
100
AcDbVertex
100
AcDb2dVertex
 10
110.5569037267011
 20
199.6789401085004
 30
0.0
  0
VERTEX
  5
7B
330
72
100
AcDbEntity
  8
GRAU_10_
 62
     7
100
AcDbVertex
100
AcDb2dVertex
 10
110.4451103782047
 20
199.6129665299579
 30
0.0
  0
VERTEX
  5
7C
330
72
100
AcDbEntity
  8
GRAU_10_
 62
     7
100
AcDbVertex
100
AcDb2dVertex
 10
110.33176673674
 20
199.548715499158
 30
0.0
  0
VERTEX
  5
7D
330
72
100
AcDbEntity
  8
GRAU_10_
 62
     7
100
AcDbVertex
100
AcDb2dVertex
 10
109.8732245276532
 20
199.3096258724816
 30
0.0
  0
VERTEX
  5
7E
330
72
100
AcDbEntity
  8
GRAU_10_
 62
     7
100
AcDbVertex
100
AcDb2dVertex
 10
109.4026244843681
 20
199.0982692644615
 30
0.0
  0
VERTEX
  5
7F
330
72
100
AcDbEntity
  8
GRAU_10_
 62
     7
100
AcDbVertex
100
AcDb2dVertex
 10
108.9206556259817
 20
198.9134398916779
 30
0.0
  0
VERTEX
  5
80
330
72
100
AcDbEntity
  8
GRAU_10_
 62
     7
100
AcDbVertex
100
AcDb2dVertex
 10
108.4271456977196
 20
198.7561712827763
 30
0.0
  0
SEQEND
  5
81
330
72
100
AcDbEntity
  8
GRAU_10_
  0
POLYLINE
  5
82
330
1F
100
AcDbEntity
  8
GRAU_10_
 62
     7
100
AcDb2dPolyline
 66
     1
 10
0.0
 20
0.0
 30
0.0
  0
VERTEX
  5
83
330
82
100
AcDbEntity
  8
GRAU_10_
 62
     7
100
AcDbVertex
100
AcDb2dVertex
 10
6.999400497382094
 20
186.1888074621334
 30
0.0
  0
VERTEX
  5
84
330
82
100
AcDbEntity
  8
GRAU_10_
 62
     7
100
AcDbVertex
100
AcDb2dVertex
 10
6.999400497382094
 20
212.5842677962463
 30
0.0
  0
SEQEND
  5
85
330
82
100
AcDbEntity
  8
GRAU_10_
  0
POLYLINE
  5
86
330
1F
100
AcDbEntity
  8
GRAU_10_
 62
     7
100
AcDb2dPolyline
 66
     1
 10
0.0
 20
0.0
 30
0.0
  0
VERTEX
  5
87
330
86
100
AcDbEntity
  8
GRAU_10_
 62
     7
100
AcDbVertex
100
AcDb2dVertex
 10
6.999400497382094
 20
176.538061479303
 30
0.0
  0
VERTEX
  5
88
330
86
100
AcDbEntity
  8
GRAU_10_
 62
     7
100
AcDbVertex
100
AcDb2dVertex
 10
6.999400497382094
 20
186.1888074621334
 30
0.0
  0
SEQEND
  5
89
330
86
100
AcDbEntity
  8
GRAU_10_
  0
POLYLINE
  5
8A
330
1F
100
AcDbEntity
  8
GRAU_10_
 62
     7
100
AcDb2dPolyline
 66
     1
 10
0.0
 20
0.0
 30
0.0
  0
VERTEX
  5
8B
330
8A
100
AcDbEntity
  8
GRAU_10_
 62
     7
100
AcDbVertex
100
AcDb2dVertex
 10
33.09978840318339
 20
191.5876165970684
 30
0.0
  0
VERTEX
  5
8C
330
8A
100
AcDbEntity
  8
GRAU_10_
 62
     7
100
AcDbVertex
100
AcDb2dVertex
 10
30.55334607526097
 20
195.2233981174268
 30
0.0
  0
SEQEND
  5
8D
330
8A
100
AcDbEntity
  8
GRAU_10_
  0
POLYLINE
  5
8E
330
1F
100
AcDbEntity
  8
GRAU_10_
 62
     7
100
AcDb2dPolyline
 66
     1
 10
0.0
 20
0.0
 30
0.0
  0
VERTEX
  5
8F
330
8E
100
AcDbEntity
  8
GRAU_10_
 62
     7
100
AcDbVertex
100
AcDb2dVertex
 10
33.09978840318339
 20
177.2306979266125
 30
0.0
  0
VERTEX
  5
90
330
8E
100
AcDbEntity
  8
GRAU_10_
 62
     7
100
AcDbVertex
100
AcDb2dVertex
 10
33.09978840318339
 20
191.5876165970684
 30
0.0
  0
SEQEND
  5
91
330
8E
100
AcDbEntity
  8
GRAU_10_
  0
POLYLINE
  5
92
330
1F
100
AcDbEntity
  8
GRAU_10_
 62
     7
100
AcDb2dPolyline
 66
     1
 10
0.0
 20
0.0
 30
0.0
  0
VERTEX
  5
93
330
92
100
AcDbEntity
  8
GRAU_10_
 62
     7
100
AcDbVertex
100
AcDb2dVertex
 10
33.09978840318339
 20
177.2306979266125
 30
0.0
  0
VERTEX
  5
94
330
92
100
AcDbEntity
  8
GRAU_10_
 62
     7
100
AcDbVertex
100
AcDb2dVertex
 10
32.82245821662077
 20
176.7514851446142
 30
0.0
  0
SEQEND
  5
95
330
92
100
AcDbEntity
  8
GRAU_10_
  0
POLYLINE
  5
96
330
1F
100
AcDbEntity
  8
GRAU_10_
 62
     7
100
AcDb2dPolyline
 66
     1
 10
0.0
 20
0.0
 30
0.0
  0
VERTEX
  5
97
330
96
100
AcDbEntity
  8
GRAU_10_
 62
     7
100
AcDbVertex
100
AcDb2dVertex
 10
6.999400497382094
 20
212.5842677962463
 30
0.0
  0
VERTEX
  5
98
330
96
100
AcDbEntity
  8
GRAU_10_
 62
     7
100
AcDbVertex
100
AcDb2dVertex
 10
8.776380748673962
 20
212.4946953136298
 30
0.0
  0
VERTEX
  5
99
330
96
100
AcDbEntity
  8
GRAU_10_
 62
     7
100
AcDbVertex
100
AcDb2dVertex
 10
10.53182915318301
 20
212.2308009994597
 30
0.0
  0
VERTEX
  5
9A
330
96
100
AcDbEntity
  8
GRAU_10_
 62
     7
100
AcDbVertex
100
AcDb2dVertex
 10
12.25024278122563
 20
211.7941351467043
 30
0.0
  0
VERTEX
  5
9B
330
96
100
AcDbEntity
  8
GRAU_10_
 62
     7
100
AcDbVertex
100
AcDb2dVertex
 10
13.91491291969836
 20
211.1893486342686
 30
0.0
  0
SEQEND
  5
9C
330
96
100
AcDbEntity
  8
GRAU_10_
  0
POLYLINE
  5
9D
330
1F
100
AcDbEntity
  8
GRAU_10_
 62
     7
100
AcDb2dPolyline
 66
     1
 10
0.0
 20
0.0
 30
0.0
  0
VERTEX
  5
9E
330
9D
100
AcDbEntity
  8
GRAU_10_
 62
     7
100
AcDbVertex
100
AcDb2dVertex
 10
7.900809731097715
 20
212.8033758691082
 30
0.0
  0
VERTEX
  5
9F
330
9D
100
AcDbEntity
  8
GRAU_10_
 62
     7
100
AcDbVertex
100
AcDb2dVertex
 10
9.04527045129771
 20
212.65230843208
 30
0.0
  0
SEQEND
  5
A0
330
9D
100
AcDbEntity
  8
GRAU_10_
  0
POLYLINE
  5
A1
330
1F
100
AcDbEntity
  8
GRAU_10_
 62
     7
100
AcDb2dPolyline
 66
     1
 10
0.0
 20
0.0
 30
0.0
  0
VERTEX
  5
A2
330
A1
100
AcDbEntity
  8
GRAU_10_
 62
     7
100
AcDbVertex
100
AcDb2dVertex
 10
10.85928547905601
 20
212.2921236990971
 30
0.0
  0
VERTEX
  5
A3
330
A1
100
AcDbEntity
  8
GRAU_10_
 62
     7
100
AcDbVertex
100
AcDb2dVertex
 10
12.40044894438253
 20
211.8632093111835
 30
0.0
  0
VERTEX
  5
A4
330
A1
100
AcDbEntity
  8
GRAU_10_
 62
     7
100
AcDbVertex
100
AcDb2dVertex
 10
13.89734293272358
 20
211.3290472561955
 30
0.0
  0
SEQEND
  5
A5
330
A1
100
AcDbEntity
  8
GRAU_10_
  0
POLYLINE
  5
A6
330
1F
100
AcDbEntity
  8
GRAU_10_
 62
     7
100
AcDb2dPolyline
 66
     1
 10
0.0
 20
0.0
 30
0.0
  0
VERTEX
  5
A7
330
A6
100
AcDbEntity
  8
GRAU_10_
 62
     7
100
AcDbVertex
100
AcDb2dVertex
 10
20.83679876866233
 20
206.4814533989005
 30
0.0
  0
VERTEX
  5
A8
330
A6
100
AcDbEntity
  8
GRAU_10_
 62
     7
100
AcDbVertex
100
AcDb2dVertex
 10
23.12382540654543
 20
203.9679117328622
 30
0.0
  0
VERTEX
  5
A9
330
A6
100
AcDbEntity
  8
GRAU_10_
 62
     7
100
AcDbVertex
100
AcDb2dVertex
 10
25.35659179053585
 20
201.5670246891916
 30
0.0
  0
SEQEND
  5
AA
330
A6
100
AcDbEntity
  8
GRAU_10_
  0
POLYLINE
  5
AB
330
1F
100
AcDbEntity
  8
GRAU_10_
 62
     7
100
AcDb2dPolyline
 66
     1
 10
0.0
 20
0.0
 30
0.0
  0
VERTEX
  5
AC
330
AB
100
AcDbEntity
  8
GRAU_10_
 62
     7
100
AcDbVertex
100
AcDb2dVertex
 10
6.999400497382094
 20
186.1888074621334
 30
0.0
  0
VERTEX
  5
AD
330
AB
100
AcDbEntity
  8
GRAU_10_
 62
     7
100
AcDbVertex
100
AcDb2dVertex
 10
9.339481605738047
 20
186.0475585472381
 30
0.0
  0
VERTEX
  5
AE
330
AB
100
AcDbEntity
  8
GRAU_10_
 62
     7
100
AcDbVertex
100
AcDb2dVertex
 10
11.67198350402645
 20
186.1000962533882
 30
0.0
  0
VERTEX
  5
AF
330
AB
100
AcDbEntity
  8
GRAU_10_
 62
     7
100
AcDbVertex
100
AcDb2dVertex
 10
13.98984374650254
 20
186.3477986187776
 30
0.0
  0
SEQEND
  5
B0
330
AB
100
AcDbEntity
  8
GRAU_10_
  0
POLYLINE
  5
B1
330
1F
100
AcDbEntity
  8
GRAU_10_
 62
     7
100
AcDb2dPolyline
 66
     1
 10
0.0
 20
0.0
 30
0.0
  0
VERTEX
  5
B2
330
B1
100
AcDbEntity
  8
GRAU_10_
 62
     7
100
AcDbVertex
100
AcDb2dVertex
 10
26.48968369563453
 20
187.2064886684762
 30
0.0
  0
VERTEX
  5
B3
330
B1
100
AcDbEntity
  8
GRAU_10_
 62
     7
100
AcDbVertex
100
AcDb2dVertex
 10
28.12627630590246
 20
184.3126084608663
 30
0.0
  0
VERTEX
  5
B4
330
B1
100
AcDbEntity
  8
GRAU_10_
 62
     7
100
AcDbVertex
100
AcDb2dVertex
 10
29.72824570654364
 20
181.602868606943
 30
0.0
  0
VERTEX
  5
B5
330
B1
100
AcDbEntity
  8
GRAU_10_
 62
     7
100
AcDbVertex
100
AcDb2dVertex
 10
31.29455836891247
 20
179.0815754760629
 30
0.0
  0
VERTEX
  5
B6
330
B1
100
AcDbEntity
  8
GRAU_10_
 62
     7
100
AcDbVertex
100
AcDb2dVertex
 10
32.82245821662077
 20
176.7514851446142
 30
0.0
  0
SEQEND
  5
B7
330
B1
100
AcDbEntity
  8
GRAU_10_
  0
POLYLINE
  5
B8
330
1F
100
AcDbEntity
  8
GRAU_10_
 62
     7
100
AcDb2dPolyline
 66
     1
 10
0.0
 20
0.0
 30
0.0
  0
VERTEX
  5
B9
330
B8
100
AcDbEntity
  8
GRAU_10_
 62
     7
100
AcDbVertex
100
AcDb2dVertex
 10
30.55334607526097
 20
195.2233981174268
 30
0.0
  0
VERTEX
  5
BA
330
B8
100
AcDbEntity
  8
GRAU_10_
 62
     7
100
AcDbVertex
100
AcDb2dVertex
 10
29.78216145088779
 20
195.7055392305875
 30
0.0
  0
SEQEND
  5
BB
330
B8
100
AcDbEntity
  8
GRAU_10_
  0
POLYLINE
  5
BC
330
1F
100
AcDbEntity
  8
GRAU_10_
 62
     7
100
AcDb2dPolyline
 66
     1
 10
0.0
 20
0.0
 30
0.0
  0
VERTEX
  5
BD
330
BC
100
AcDbEntity
  8
GRAU_10_
 62
     7
100
AcDbVertex
100
AcDb2dVertex
 10
28.59928791602726
 20
198.014442224802
 30
0.0
  0
VERTEX
  5
BE
330
BC
100
AcDbEntity
  8
GRAU_10_
 62
     7
100
AcDbVertex
100
AcDb2dVertex
 10
26.87174478494873
 20
198.014442224802
 30
0.0
  0
SEQEND
  5
BF
330
BC
100
AcDbEntity
  8
GRAU_10_
  0
POLYLINE
  5
C0
330
1F
100
AcDbEntity
  8
GRAU_10_
 62
     7
100
AcDb2dPolyline
 66
     1
 10
0.0
 20
0.0
 30
0.0
  0
VERTEX
  5
C1
330
C0
100
AcDbEntity
  8
GRAU_10_
 62
     7
100
AcDbVertex
100
AcDb2dVertex
 10
28.59928791602726
 20
198.014442224802
 30
0.0
  0
VERTEX
  5
C2
330
C0
100
AcDbEntity
  8
GRAU_10_
 62
     7
100
AcDbVertex
100
AcDb2dVertex
 10
29.19132757516745
 20
197.1693603022702
 30
0.0
  0
VERTEX
  5
C3
330
C0
100
AcDbEntity
  8
GRAU_10_
 62
     7
100
AcDbVertex
100
AcDb2dVertex
 10
29.688454853689
 20
196.4584648488889
 30
0.0
  0
VERTEX
  5
C4
330
C0
100
AcDbEntity
  8
GRAU_10_
 62
     7
100
AcDbVertex
100
AcDb2dVertex
 10
30.08532985358978
 20
195.8922634058881
 30
0.0
  0
VERTEX
  5
C5
330
C0
100
AcDbEntity
  8
GRAU_10_
 62
     7
100
AcDbVertex
100
AcDb2dVertex
 10
30.37454561957651
 20
195.4791964572066
 30
0.0
  0
VERTEX
  5
C6
330
C0
100
AcDbEntity
  8
GRAU_10_
 62
     7
100
AcDbVertex
100
AcDb2dVertex
 10
30.55334607526097
 20
195.2233981174268
 30
0.0
  0
SEQEND
  5
C7
330
C0
100
AcDbEntity
  8
GRAU_10_
  0
POLYLINE
  5
C8
330
1F
100
AcDbEntity
  8
GRAU_10_
 62
     7
100
AcDb2dPolyline
 66
     1
 10
0.0
 20
0.0
 30
0.0
  0
VERTEX
  5
C9
330
C8
100
AcDbEntity
  8
GRAU_10_
 62
     7
100
AcDbVertex
100
AcDb2dVertex
 10
20.83679876866233
 20
206.4814533989005
 30
0.0
  0
VERTEX
  5
CA
330
C8
100
AcDbEntity
  8
GRAU_10_
 62
     7
100
AcDbVertex
100
AcDb2dVertex
 10
19.34076605419259
 20
207.9507866233595
 30
0.0
  0
VERTEX
  5
CB
330
C8
100
AcDbEntity
  8
GRAU_10_
 62
     7
100
AcDbVertex
100
AcDb2dVertex
 10
17.68436414488447
 20
209.2237494051593
 30
0.0
  0
VERTEX
  5
CC
330
C8
100
AcDbEntity
  8
GRAU_10_
 62
     7
100
AcDbVertex
100
AcDb2dVertex
 10
16.79570176446427
 20
209.7890895742889
 30
0.0
  0
VERTEX
  5
CD
330
C8
100
AcDbEntity
  8
GRAU_10_
 62
     7
100
AcDbVertex
100
AcDb2dVertex
 10
15.86793755028649
 20
210.3077486995932
 30
0.0
  0
VERTEX
  5
CE
330
C8
100
AcDbEntity
  8
GRAU_10_
 62
     7
100
AcDbVertex
100
AcDb2dVertex
 10
14.906239145579
 20
210.7743868830703
 30
0.0
  0
VERTEX
  5
CF
330
C8
100
AcDbEntity
  8
GRAU_10_
 62
     7
100
AcDbVertex
100
AcDb2dVertex
 10
13.91491291969836
 20
211.1893486342686
 30
0.0
  0
SEQEND
  5
D0
330
C8
100
AcDbEntity
  8
GRAU_10_
  0
POLYLINE
  5
D1
330
1F
100
AcDbEntity
  8
GRAU_10_
 62
     7
100
AcDb2dPolyline
 66
     1
 10
0.0
 20
0.0
 30
0.0
  0
VERTEX
  5
D2
330
D1
100
AcDbEntity
  8
GRAU_10_
 62
     7
100
AcDbVertex
100
AcDb2dVertex
 10
7.649317760674476
 20
212.824907715891
 30
0.0
  0
VERTEX
  5
D3
330
D1
100
AcDbEntity
  8
GRAU_10_
 62
     7
100
AcDbVertex
100
AcDb2dVertex
 10
7.900809731097715
 20
212.8033758691082
 30
0.0
  0
SEQEND
  5
D4
330
D1
100
AcDbEntity
  8
GRAU_10_
  0
POLYLINE
  5
D5
330
1F
100
AcDbEntity
  8
GRAU_10_
 62
     7
100
AcDb2dPolyline
 66
     1
 10
0.0
 20
0.0
 30
0.0
  0
VERTEX
  5
D6
330
D5
100
AcDbEntity
  8
GRAU_10_
 62
     7
100
AcDbVertex
100
AcDb2dVertex
 10
13.89734293272358
 20
211.3290472561955
 30
0.0
  0
VERTEX
  5
D7
330
D5
100
AcDbEntity
  8
GRAU_10_
 62
     7
100
AcDbVertex
100
AcDb2dVertex
 10
15.8467502130522
 20
210.4002495133722
 30
0.0
  0
VERTEX
  5
D8
330
D5
100
AcDbEntity
  8
GRAU_10_
 62
     7
100
AcDbVertex
100
AcDb2dVertex
 10
17.65766465487378
 20
209.2867946525394
 30
0.0
  0
VERTEX
  5
D9
330
D5
100
AcDbEntity
  8
GRAU_10_
 62
     7
100
AcDbVertex
100
AcDb2dVertex
 10
18.51239284476426
 20
208.6628878601607
 30
0.0
  0
VERTEX
  5
DA
330
D5
100
AcDbEntity
  8
GRAU_10_
 62
     7
100
AcDbVertex
100
AcDb2dVertex
 10
19.33146429638241
 20
207.9945393360222
 30
0.0
  0
VERTEX
  5
DB
330
D5
100
AcDbEntity
  8
GRAU_10_
 62
     7
100
AcDbVertex
100
AcDb2dVertex
 10
20.10729979966068
 20
207.2872612329004
 30
0.0
  0
VERTEX
  5
DC
330
D5
100
AcDbEntity
  8
GRAU_10_
 62
     7
100
AcDbVertex
100
AcDb2dVertex
 10
20.83679876866233
 20
206.5446709010548
 30
0.0
  0
SEQEND
  5
DD
330
D5
100
AcDbEntity
  8
GRAU_10_
  0
POLYLINE
  5
DE
330
1F
100
AcDbEntity
  8
GRAU_10_
 62
     7
100
AcDb2dPolyline
 66
     1
 10
0.0
 20
0.0
 30
0.0
  0
VERTEX
  5
DF
330
DE
100
AcDbEntity
  8
GRAU_10_
 62
     7
100
AcDbVertex
100
AcDb2dVertex
 10
26.06318087456059
 20
200.3131821873349
 30
0.0
  0
VERTEX
  5
E0
330
DE
100
AcDbEntity
  8
GRAU_10_
 62
     7
100
AcDbVertex
100
AcDb2dVertex
 10
25.87128905603218
 20
200.6187621568766
 30
0.0
  0
VERTEX
  5
E1
330
DE
100
AcDbEntity
  8
GRAU_10_
 62
     7
100
AcDbVertex
100
AcDb2dVertex
 10
25.68956026918525
 20
200.9298542791946
 30
0.0
  0
VERTEX
  5
E2
330
DE
100
AcDbEntity
  8
GRAU_10_
 62
     7
100
AcDbVertex
100
AcDb2dVertex
 10
25.51782225924554
 20
201.2455972804178
 30
0.0
  0
VERTEX
  5
E3
330
DE
100
AcDbEntity
  8
GRAU_10_
 62
     7
100
AcDbVertex
100
AcDb2dVertex
 10
25.35659179053585
 20
201.5670246891916
 30
0.0
  0
SEQEND
  5
E4
330
DE
100
AcDbEntity
  8
GRAU_10_
  0
POLYLINE
  5
E5
330
1F
100
AcDbEntity
  8
GRAU_10_
 62
     7
100
AcDb2dPolyline
 66
     1
 10
0.0
 20
0.0
 30
0.0
  0
VERTEX
  5
E6
330
E5
100
AcDbEntity
  8
GRAU_10_
 62
     7
100
AcDbVertex
100
AcDb2dVertex
 10
26.06318087456059
 20
200.3131821873349
 30
0.0
  0
VERTEX
  5
E7
330
E5
100
AcDbEntity
  8
GRAU_10_
 62
     7
100
AcDbVertex
100
AcDb2dVertex
 10
26.27660453987182
 20
193.7597493005184
 30
0.0
  0
VERTEX
  5
E8
330
E5
100
AcDbEntity
  8
GRAU_10_
 62
     7
100
AcDbVertex
100
AcDb2dVertex
 10
26.48968369563453
 20
187.2064886684762
 30
0.0
  0
SEQEND
  5
E9
330
E5
100
AcDbEntity
  8
GRAU_10_
  0
POLYLINE
  5
EA
330
1F
100
AcDbEntity
  8
GRAU_10_
 62
     7
100
AcDb2dPolyline
 66
     1
 10
0.0
 20
0.0
 30
0.0
  0
VERTEX
  5
EB
330
EA
100
AcDbEntity
  8
GRAU_10_
 62
     7
100
AcDbVertex
100
AcDb2dVertex
 10
13.98984374650254
 20
186.3477986187776
 30
0.0
  0
VERTEX
  5
EC
330
EA
100
AcDbEntity
  8
GRAU_10_
 62
     7
100
AcDbVertex
100
AcDb2dVertex
 10
15.60834960547291
 20
186.3989582867336
 30
0.0
  0
VERTEX
  5
ED
330
EA
100
AcDbEntity
  8
GRAU_10_
 62
     7
100
AcDbVertex
100
AcDb2dVertex
 10
17.21479763024491
 20
186.4669989225673
 30
0.0
  0
VERTEX
  5
EE
330
EA
100
AcDbEntity
  8
GRAU_10_
 62
     7
100
AcDbVertex
100
AcDb2dVertex
 10
18.8079820373987
 20
186.5520927810529
 30
0.0
  0
VERTEX
  5
EF
330
EA
100
AcDbEntity
  8
GRAU_10_
 62
     7
100
AcDbVertex
100
AcDb2dVertex
 10
20.38531900532034
 20
186.6537230978678
 30
0.0
  0
VERTEX
  5
F0
330
EA
100
AcDbEntity
  8
GRAU_10_
 62
     7
100
AcDbVertex
100
AcDb2dVertex
 10
21.94422471239589
 20
186.7705118348178
 30
0.0
  0
VERTEX
  5
F1
330
EA
100
AcDbEntity
  8
GRAU_10_
 62
     7
100
AcDbVertex
100
AcDb2dVertex
 10
23.48228759178568
 20
186.9022867371286
 30
0.0
  0
VERTEX
  5
F2
330
EA
100
AcDbEntity
  8
GRAU_10_
 62
     7
100
AcDbVertex
100
AcDb2dVertex
 10
24.99847411484413
 20
187.0483587857032
 30
0.0
  0
VERTEX
  5
F3
330
EA
100
AcDbEntity
  8
GRAU_10_
 62
     7
100
AcDbVertex
100
AcDb2dVertex
 10
26.48968369563453
 20
187.2064886684762
 30
0.0
  0
SEQEND
  5
F4
330
EA
100
AcDbEntity
  8
GRAU_10_
  0
POLYLINE
  5
F5
330
1F
100
AcDbEntity
  8
GRAU_10_
 62
     7
100
AcDb2dPolyline
 66
     1
 10
0.0
 20
0.0
 30
0.0
  0
VERTEX
  5
F6
330
F5
100
AcDbEntity
  8
GRAU_10_
 62
     7
100
AcDbVertex
100
AcDb2dVertex
 10
13.98984374650254
 20
186.3477986187776
 30
0.0
  0
VERTEX
  5
F7
330
F5
100
AcDbEntity
  8
GRAU_10_
 62
     7
100
AcDbVertex
100
AcDb2dVertex
 10
13.95298122481037
 20
198.7680568622004
 30
0.0
  0
VERTEX
  5
F8
330
F5
100
AcDbEntity
  8
GRAU_10_
 62
     7
100
AcDbVertex
100
AcDb2dVertex
 10
13.91491291969836
 20
211.1893486342686
 30
0.0
  0
SEQEND
  5
F9
330
F5
100
AcDbEntity
  8
GRAU_10_
  0
POLYLINE
  5
FA
330
1F
100
AcDbEntity
  8
GRAU_10_
 62
     7
100
AcDb2dPolyline
 66
     1
 10
0.0
 20
0.0
 30
0.0
  0
VERTEX
  5
FB
330
FA
100
AcDbEntity
  8
GRAU_10_
 62
     7
100
AcDbVertex
100
AcDb2dVertex
 10
7.041775171850667
 20
176.4643364359187
 30
0.0
  0
VERTEX
  5
FC
330
FA
100
AcDbEntity
  8
GRAU_10_
 62
     7
100
AcDbVertex
100
AcDb2dVertex
 10
7.349766708232004
 20
176.4643364359187
 30
0.0
  0
VERTEX
  5
FD
330
FA
100
AcDbEntity
  8
GRAU_10_
 62
     7
100
AcDbVertex
100
AcDb2dVertex
 10
7.657069225516288
 20
176.4643364359187
 30
0.0
  0
SEQEND
  5
FE
330
FA
100
AcDbEntity
  8
GRAU_10_
  0
POLYLINE
  5
FF
330
1F
100
AcDbEntity
  8
GRAU_10_
 62
     7
100
AcDb2dPolyline
 66
     1
 10
0.0
 20
0.0
 30
0.0
  0
VERTEX
  5
100
330
FF
100
AcDbEntity
  8
GRAU_10_
 62
     7
100
AcDbVertex
100
AcDb2dVertex
 10
6.999400497382094
 20
176.538061479303
 30
0.0
  0
VERTEX
  5
101
330
FF
100
AcDbEntity
  8
GRAU_10_
 62
     7
100
AcDbVertex
100
AcDb2dVertex
 10
7.020587834616381
 20
176.5010267028366
 30
0.0
  0
VERTEX
  5
102
330
FF
100
AcDbEntity
  8
GRAU_10_
 62
     7
100
AcDbVertex
100
AcDb2dVertex
 10
7.041775171850667
 20
176.4643364359187
 30
0.0
  0
SEQEND
  5
103
330
FF
100
AcDbEntity
  8
GRAU_10_
  0
POLYLINE
  5
104
330
1F
100
AcDbEntity
  8
GRAU_10_
 62
     7
100
AcDb2dPolyline
 66
     1
 10
0.0
 20
0.0
 30
0.0
  0
VERTEX
  5
105
330
104
100
AcDbEntity
  8
GRAU_10_
 62
     7
100
AcDbVertex
100
AcDb2dVertex
 10
32.82245821662077
 20
176.7514851446142
 30
0.0
  0
VERTEX
  5
106
330
104
100
AcDbEntity
  8
GRAU_10_
 62
     7
100
AcDbVertex
100
AcDb2dVertex
 10
32.73960367020052
 20
176.6076524081051
 30
0.0
  0
VERTEX
  5
107
330
104
100
AcDbEntity
  8
GRAU_10_
 62
     7
100
AcDbVertex
100
AcDb2dVertex
 10
32.65692137855452
 20
176.4643364359187
 30
0.0
  0
SEQEND
  5
108
330
104
100
AcDbEntity
  8
GRAU_10_
  0
POLYLINE
  5
109
330
1F
100
AcDbEntity
  8
GRAU_10_
 62
     7
100
AcDb2dPolyline
 66
     1
 10
0.0
 20
0.0
 30
0.0
  0
VERTEX
  5
10A
330
109
100
AcDbEntity
  8
GRAU_10_
 62
     7
100
AcDbVertex
100
AcDb2dVertex
 10
32.04179957966316
 20
176.4643364359187
 30
0.0
  0
VERTEX
  5
10B
330
109
100
AcDbEntity
  8
GRAU_10_
 62
     7
100
AcDbVertex
100
AcDb2dVertex
 10
32.35048013514155
 20
176.4643364359187
 30
0.0
  0
VERTEX
  5
10C
330
109
100
AcDbEntity
  8
GRAU_10_
 62
     7
100
AcDbVertex
100
AcDb2dVertex
 10
32.65692137855452
 20
176.4643364359187
 30
0.0
  0
SEQEND
  5
10D
330
109
100
AcDbEntity
  8
GRAU_10_
  0
POLYLINE
  5
10E
330
1F
100
AcDbEntity
  8
GRAU_10_
 62
     7
100
AcDb2dPolyline
 66
     1
 10
0.0
 20
0.0
 30
0.0
  0
VERTEX
  5
10F
330
10E
100
AcDbEntity
  8
GRAU_10_
 62
     7
100
AcDbVertex
100
AcDb2dVertex
 10
31.27233750303261
 20
177.7968993696133
 30
0.0
  0
VERTEX
  5
110
330
10E
100
AcDbEntity
  8
GRAU_10_
 62
     7
100
AcDbVertex
100
AcDb2dVertex
 10
31.65836045215486
 20
177.1294121193461
 30
0.0
  0
VERTEX
  5
111
330
10E
100
AcDbEntity
  8
GRAU_10_
 62
     7
100
AcDbVertex
100
AcDb2dVertex
 10
32.04179957966316
 20
176.4643364359187
 30
0.0
  0
SEQEND
  5
112
330
10E
100
AcDbEntity
  8
GRAU_10_
  0
POLYLINE
  5
113
330
1F
100
AcDbEntity
  8
GRAU_10_
 62
     7
100
AcDb2dPolyline
 66
     1
 10
0.0
 20
0.0
 30
0.0
  0
VERTEX
  5
114
330
113
100
AcDbEntity
  8
GRAU_10_
 62
     7
100
AcDbVertex
100
AcDb2dVertex
 10
31.27233750303261
 20
177.7968993696133
 30
0.0
  0
VERTEX
  5
115
330
113
100
AcDbEntity
  8
GRAU_10_
 62
     7
100
AcDbVertex
100
AcDb2dVertex
 10
31.26027966883424
 20
177.8151583756851
 30
0.0
  0
VERTEX
  5
116
330
113
100
AcDbEntity
  8
GRAU_10_
 62
     7
100
AcDbVertex
100
AcDb2dVertex
 10
31.24701605121603
 20
177.8320393435628
 30
0.0
  0
VERTEX
  5
117
330
113
100
AcDbEntity
  8
GRAU_10_
 62
     7
100
AcDbVertex
100
AcDb2dVertex
 10
31.23185763108092
 20
177.8468532541494
 30
0.0
  0
VERTEX
  5
118
330
113
100
AcDbEntity
  8
GRAU_10_
 62
     7
100
AcDbVertex
100
AcDb2dVertex
 10
31.21480440842894
 20
177.8606336360904
 30
0.0
  0
VERTEX
  5
119
330
113
100
AcDbEntity
  8
GRAU_10_
 62
     7
100
AcDbVertex
100
AcDb2dVertex
 10
31.2053303958445
 20
177.8663180436411
 30
0.0
  0
VERTEX
  5
11A
330
113
100
AcDbEntity
  8
GRAU_10_
 62
     7
100
AcDbVertex
100
AcDb2dVertex
 10
31.19620089280859
 20
177.8723469607403
 30
0.0
  0
VERTEX
  5
11B
330
113
100
AcDbEntity
  8
GRAU_10_
 62
     7
100
AcDbVertex
100
AcDb2dVertex
 10
31.18586560635284
 20
177.8773423491939
 30
0.0
  0
VERTEX
  5
11C
330
113
100
AcDbEntity
  8
GRAU_10_
 62
     7
100
AcDbVertex
100
AcDb2dVertex
 10
31.17570257467136
 20
177.8814764637762
 30
0.0
  0
VERTEX
  5
11D
330
113
100
AcDbEntity
  8
GRAU_10_
 62
     7
100
AcDbVertex
100
AcDb2dVertex
 10
31.15382621834002
 20
177.8895724381665
 30
0.0
  0
VERTEX
  5
11E
330
113
100
AcDbEntity
  8
GRAU_10_
 62
     7
100
AcDbVertex
100
AcDb2dVertex
 10
31.13091633336311
 20
177.8945678266201
 30
0.0
  0
VERTEX
  5
11F
330
113
100
AcDbEntity
  8
GRAU_10_
 62
     7
100
AcDbVertex
100
AcDb2dVertex
 10
31.11816948006768
 20
177.8959458648142
 30
0.0
  0
VERTEX
  5
120
330
113
100
AcDbEntity
  8
GRAU_10_
 62
     7
100
AcDbVertex
100
AcDb2dVertex
 10
31.10542262677226
 20
177.8966348839113
 30
0.0
  0
VERTEX
  5
121
330
113
100
AcDbEntity
  8
GRAU_10_
 62
     7
100
AcDbVertex
100
AcDb2dVertex
 10
31.09284802825109
 20
177.8966348839113
 30
0.0
  0
VERTEX
  5
122
330
113
100
AcDbEntity
  8
GRAU_10_
 62
     7
100
AcDbVertex
100
AcDb2dVertex
 10
31.07975666540715
 20
177.8959458648142
 30
0.0
  0
VERTEX
  5
123
330
113
100
AcDbEntity
  8
GRAU_10_
 62
     7
100
AcDbVertex
100
AcDb2dVertex
 10
31.06563177391762
 20
177.8942233170716
 30
0.0
  0
VERTEX
  5
124
330
113
100
AcDbEntity
  8
GRAU_10_
 62
     7
100
AcDbVertex
100
AcDb2dVertex
 10
31.05185139197662
 20
177.8912949859091
 30
0.0
  0
VERTEX
  5
125
330
113
100
AcDbEntity
  8
GRAU_10_
 62
     7
100
AcDbVertex
100
AcDb2dVertex
 10
31.03738199093857
 20
177.8868163617783
 30
0.0
  0
VERTEX
  5
126
330
113
100
AcDbEntity
  8
GRAU_10_
 62
     7
100
AcDbVertex
100
AcDb2dVertex
 10
31.02325709944905
 20
177.8818209733247
 30
0.0
  0
VERTEX
  5
127
330
113
100
AcDbEntity
  8
GRAU_10_
 62
     7
100
AcDbVertex
100
AcDb2dVertex
 10
31.00947671750805
 20
177.875447546677
 30
0.0
  0
VERTEX
  5
128
330
113
100
AcDbEntity
  8
GRAU_10_
 62
     7
100
AcDbVertex
100
AcDb2dVertex
 10
30.99500731647
 20
177.8676960818352
 30
0.0
  0
VERTEX
  5
129
330
113
100
AcDbEntity
  8
GRAU_10_
 62
     7
100
AcDbVertex
100
AcDb2dVertex
 10
30.98828938027376
 20
177.8628729481558
 30
0.0
  0
VERTEX
  5
12A
330
113
100
AcDbEntity
  8
GRAU_10_
 62
     7
100
AcDbVertex
100
AcDb2dVertex
 10
30.98174369885179
 20
177.8585665787993
 30
0.0
  0
VERTEX
  5
12B
330
113
100
AcDbEntity
  8
GRAU_10_
 62
     7
100
AcDbVertex
100
AcDb2dVertex
 10
30.97450899833276
 20
177.8535711903456
 30
0.0
  0
VERTEX
  5
12C
330
113
100
AcDbEntity
  8
GRAU_10_
 62
     7
100
AcDbVertex
100
AcDb2dVertex
 10
30.96865233600784
 20
177.8475422732465
 30
0.0
  0
VERTEX
  5
12D
330
113
100
AcDbEntity
  8
GRAU_10_
 62
     7
100
AcDbVertex
100
AcDb2dVertex
 10
30.95624999226094
 20
177.8366902224679
 30
0.0
  0
VERTEX
  5
12E
330
113
100
AcDbEntity
  8
GRAU_10_
 62
     7
100
AcDbVertex
100
AcDb2dVertex
 10
30.94488117715962
 20
177.823598859624
 30
0.0
  0
VERTEX
  5
12F
330
113
100
AcDbEntity
  8
GRAU_10_
 62
     7
100
AcDbVertex
100
AcDb2dVertex
 10
30.94005804348026
 20
177.8172254329762
 30
0.0
  0
VERTEX
  5
130
330
113
100
AcDbEntity
  8
GRAU_10_
 62
     7
100
AcDbVertex
100
AcDb2dVertex
 10
30.93471814547813
 20
177.81050749678
 30
0.0
  0
VERTEX
  5
131
330
113
100
AcDbEntity
  8
GRAU_10_
 62
     7
100
AcDbVertex
100
AcDb2dVertex
 10
30.93041177612157
 20
177.8034450510353
 30
0.0
  0
VERTEX
  5
132
330
113
100
AcDbEntity
  8
GRAU_10_
 62
     7
100
AcDbVertex
100
AcDb2dVertex
 10
30.92627766153927
 20
177.7968993696133
 30
0.0
  0
VERTEX
  5
133
330
113
100
AcDbEntity
  8
GRAU_10_
 62
     7
100
AcDbVertex
100
AcDb2dVertex
 10
30.54146049583686
 20
177.1297566288947
 30
0.0
  0
VERTEX
  5
134
330
113
100
AcDbEntity
  8
GRAU_10_
 62
     7
100
AcDbVertex
100
AcDb2dVertex
 10
30.15716009445724
 20
176.4643364359187
 30
0.0
  0
SEQEND
  5
135
330
113
100
AcDbEntity
  8
GRAU_10_
  0
POLYLINE
  5
136
330
1F
100
AcDbEntity
  8
GRAU_10_
 62
     7
100
AcDb2dPolyline
 66
     1
 10
0.0
 20
0.0
 30
0.0
  0
VERTEX
  5
137
330
136
100
AcDbEntity
  8
GRAU_10_
 62
     7
100
AcDbVertex
100
AcDb2dVertex
 10
29.54238280511441
 20
176.4643364359187
 30
0.0
  0
VERTEX
  5
138
330
136
100
AcDbEntity
  8
GRAU_10_
 62
     7
100
AcDbVertex
100
AcDb2dVertex
 10
29.85037434149574
 20
176.4643364359187
 30
0.0
  0
VERTEX
  5
139
330
136
100
AcDbEntity
  8
GRAU_10_
 62
     7
100
AcDbVertex
100
AcDb2dVertex
 10
30.15716009445724
 20
176.4643364359187
 30
0.0
  0
SEQEND
  5
13A
330
136
100
AcDbEntity
  8
GRAU_10_
  0
POLYLINE
  5
13B
330
1F
100
AcDbEntity
  8
GRAU_10_
 62
     7
100
AcDb2dPolyline
 66
     1
 10
0.0
 20
0.0
 30
0.0
  0
VERTEX
  5
13C
330
13B
100
AcDbEntity
  8
GRAU_10_
 62
     7
100
AcDbVertex
100
AcDb2dVertex
 10
28.77257621893533
 20
177.7968993696133
 30
0.0
  0
VERTEX
  5
13D
330
13B
100
AcDbEntity
  8
GRAU_10_
 62
     7
100
AcDbVertex
100
AcDb2dVertex
 10
29.15808240373478
 20
177.1294121193461
 30
0.0
  0
VERTEX
  5
13E
330
13B
100
AcDbEntity
  8
GRAU_10_
 62
     7
100
AcDbVertex
100
AcDb2dVertex
 10
29.54238280511441
 20
176.4643364359187
 30
0.0
  0
SEQEND
  5
13F
330
13B
100
AcDbEntity
  8
GRAU_10_
  0
POLYLINE
  5
140
330
1F
100
AcDbEntity
  8
GRAU_10_
 62
     7
100
AcDb2dPolyline
 66
     1
 10
0.0
 20
0.0
 30
0.0
  0
VERTEX
  5
141
330
140
100
AcDbEntity
  8
GRAU_10_
 62
     7
100
AcDbVertex
100
AcDb2dVertex
 10
28.77257621893533
 20
177.7968993696133
 30
0.0
  0
VERTEX
  5
142
330
140
100
AcDbEntity
  8
GRAU_10_
 62
     7
100
AcDbVertex
100
AcDb2dVertex
 10
28.76051838473695
 20
177.8151583756851
 30
0.0
  0
VERTEX
  5
143
330
140
100
AcDbEntity
  8
GRAU_10_
 62
     7
100
AcDbVertex
100
AcDb2dVertex
 10
28.74673800279595
 20
177.8320393435628
 30
0.0
  0
VERTEX
  5
144
330
140
100
AcDbEntity
  8
GRAU_10_
 62
     7
100
AcDbVertex
100
AcDb2dVertex
 10
28.73157958266086
 20
177.8468532541494
 30
0.0
  0
VERTEX
  5
145
330
140
100
AcDbEntity
  8
GRAU_10_
 62
     7
100
AcDbVertex
100
AcDb2dVertex
 10
28.71469861478313
 20
177.8606336360904
 30
0.0
  0
VERTEX
  5
146
330
140
100
AcDbEntity
  8
GRAU_10_
 62
     7
100
AcDbVertex
100
AcDb2dVertex
 10
28.70556911174722
 20
177.8663180436411
 30
0.0
  0
VERTEX
  5
147
330
140
100
AcDbEntity
  8
GRAU_10_
 62
     7
100
AcDbVertex
100
AcDb2dVertex
 10
28.69523382529147
 20
177.8723469607403
 30
0.0
  0
VERTEX
  5
148
330
140
100
AcDbEntity
  8
GRAU_10_
 62
     7
100
AcDbVertex
100
AcDb2dVertex
 10
28.68507079360998
 20
177.8775146039681
 30
0.0
  0
VERTEX
  5
149
330
140
100
AcDbEntity
  8
GRAU_10_
 62
     7
100
AcDbVertex
100
AcDb2dVertex
 10
28.6749077619285
 20
177.8818209733247
 30
0.0
  0
VERTEX
  5
14A
330
140
100
AcDbEntity
  8
GRAU_10_
 62
     7
100
AcDbVertex
100
AcDb2dVertex
 10
28.65303140559716
 20
177.8895724381665
 30
0.0
  0
VERTEX
  5
14B
330
140
100
AcDbEntity
  8
GRAU_10_
 62
     7
100
AcDbVertex
100
AcDb2dVertex
 10
28.62891573720041
 20
177.8949123361686
 30
0.0
  0
VERTEX
  5
14C
330
140
100
AcDbEntity
  8
GRAU_10_
 62
     7
100
AcDbVertex
100
AcDb2dVertex
 10
28.60359428538382
 20
177.8966348839113
 30
0.0
  0
VERTEX
  5
14D
330
140
100
AcDbEntity
  8
GRAU_10_
 62
     7
100
AcDbVertex
100
AcDb2dVertex
 10
28.57637803105035
 20
177.8952568457172
 30
0.0
  0
VERTEX
  5
14E
330
140
100
AcDbEntity
  8
GRAU_10_
 62
     7
100
AcDbVertex
100
AcDb2dVertex
 10
28.56225313956083
 20
177.893189788426
 30
0.0
  0
VERTEX
  5
14F
330
140
100
AcDbEntity
  8
GRAU_10_
 62
     7
100
AcDbVertex
100
AcDb2dVertex
 10
28.54847275761983
 20
177.889916947715
 30
0.0
  0
VERTEX
  5
150
330
140
100
AcDbEntity
  8
GRAU_10_
 62
     7
100
AcDbVertex
100
AcDb2dVertex
 10
28.53400335658178
 20
177.8861273426812
 30
0.0
  0
VERTEX
  5
151
330
140
100
AcDbEntity
  8
GRAU_10_
 62
     7
100
AcDbVertex
100
AcDb2dVertex
 10
28.52039522941504
 20
177.8800984255821
 30
0.0
  0
VERTEX
  5
152
330
140
100
AcDbEntity
  8
GRAU_10_
 62
     7
100
AcDbVertex
100
AcDb2dVertex
 10
28.50558131882847
 20
177.8733804893858
 30
0.0
  0
VERTEX
  5
153
330
140
100
AcDbEntity
  8
GRAU_10_
 62
     7
100
AcDbVertex
100
AcDb2dVertex
 10
28.49180093688747
 20
177.865629024544
 30
0.0
  0
VERTEX
  5
154
330
140
100
AcDbEntity
  8
GRAU_10_
 62
     7
100
AcDbVertex
100
AcDb2dVertex
 10
28.47905408359204
 20
177.8561550119596
 30
0.0
  0
VERTEX
  5
155
330
140
100
AcDbEntity
  8
GRAU_10_
 62
     7
100
AcDbVertex
100
AcDb2dVertex
 10
28.46630723029662
 20
177.8458197255038
 30
0.0
  0
VERTEX
  5
156
330
140
100
AcDbEntity
  8
GRAU_10_
 62
     7
100
AcDbVertex
100
AcDb2dVertex
 10
28.45442165087251
 20
177.8349676747253
 30
0.0
  0
VERTEX
  5
157
330
140
100
AcDbEntity
  8
GRAU_10_
 62
     7
100
AcDbVertex
100
AcDb2dVertex
 10
28.44408636441676
 20
177.8229098405269
 30
0.0
  0
VERTEX
  5
158
330
140
100
AcDbEntity
  8
GRAU_10_
 62
     7
100
AcDbVertex
100
AcDb2dVertex
 10
28.43426784228379
 20
177.809818477683
 30
0.0
  0
VERTEX
  5
159
330
140
100
AcDbEntity
  8
GRAU_10_
 62
     7
100
AcDbVertex
100
AcDb2dVertex
 10
28.42651637744198
 20
177.7968993696133
 30
0.0
  0
VERTEX
  5
15A
330
140
100
AcDbEntity
  8
GRAU_10_
 62
     7
100
AcDbVertex
100
AcDb2dVertex
 10
28.04118244741679
 20
177.1297566288947
 30
0.0
  0
VERTEX
  5
15B
330
140
100
AcDbEntity
  8
GRAU_10_
 62
     7
100
AcDbVertex
100
AcDb2dVertex
 10
27.65705430081143
 20
176.4643364359187
 30
0.0
  0
SEQEND
  5
15C
330
140
100
AcDbEntity
  8
GRAU_10_
  0
POLYLINE
  5
15D
330
1F
100
AcDbEntity
  8
GRAU_10_
 62
     7
100
AcDb2dPolyline
 66
     1
 10
0.0
 20
0.0
 30
0.0
  0
VERTEX
  5
15E
330
15D
100
AcDbEntity
  8
GRAU_10_
 62
     7
100
AcDbVertex
100
AcDb2dVertex
 10
27.04176024714581
 20
176.4643364359187
 30
0.0
  0
VERTEX
  5
15F
330
15D
100
AcDbEntity
  8
GRAU_10_
 62
     7
100
AcDbVertex
100
AcDb2dVertex
 10
27.35009629307567
 20
176.4643364359187
 30
0.0
  0
VERTEX
  5
160
330
15D
100
AcDbEntity
  8
GRAU_10_
 62
     7
100
AcDbVertex
100
AcDb2dVertex
 10
27.65705430081143
 20
176.4643364359187
 30
0.0
  0
SEQEND
  5
161
330
15D
100
AcDbEntity
  8
GRAU_10_
  0
POLYLINE
  5
162
330
1F
100
AcDbEntity
  8
GRAU_10_
 62
     7
100
AcDb2dPolyline
 66
     1
 10
0.0
 20
0.0
 30
0.0
  0
VERTEX
  5
163
330
162
100
AcDbEntity
  8
GRAU_10_
 62
     7
100
AcDbVertex
100
AcDb2dVertex
 10
26.27247042528952
 20
177.7968993696133
 30
0.0
  0
VERTEX
  5
164
330
162
100
AcDbEntity
  8
GRAU_10_
 62
     7
100
AcDbVertex
100
AcDb2dVertex
 10
26.65763210054045
 20
177.1294121193461
 30
0.0
  0
VERTEX
  5
165
330
162
100
AcDbEntity
  8
GRAU_10_
 62
     7
100
AcDbVertex
100
AcDb2dVertex
 10
27.04176024714581
 20
176.4643364359187
 30
0.0
  0
SEQEND
  5
166
330
162
100
AcDbEntity
  8
GRAU_10_
  0
POLYLINE
  5
167
330
1F
100
AcDbEntity
  8
GRAU_10_
 62
     7
100
AcDb2dPolyline
 66
     1
 10
0.0
 20
0.0
 30
0.0
  0
VERTEX
  5
168
330
167
100
AcDbEntity
  8
GRAU_10_
 62
     7
100
AcDbVertex
100
AcDb2dVertex
 10
26.27247042528952
 20
177.7968993696133
 30
0.0
  0
VERTEX
  5
169
330
167
100
AcDbEntity
  8
GRAU_10_
 62
     7
100
AcDbVertex
100
AcDb2dVertex
 10
26.26041259109115
 20
177.8151583756851
 30
0.0
  0
VERTEX
  5
16A
330
167
100
AcDbEntity
  8
GRAU_10_
 62
     7
100
AcDbVertex
100
AcDb2dVertex
 10
26.24697671869867
 20
177.8320393435628
 30
0.0
  0
VERTEX
  5
16B
330
167
100
AcDbEntity
  8
GRAU_10_
 62
     7
100
AcDbVertex
100
AcDb2dVertex
 10
26.23147378901505
 20
177.8471977636979
 30
0.0
  0
VERTEX
  5
16C
330
167
100
AcDbEntity
  8
GRAU_10_
 62
     7
100
AcDbVertex
100
AcDb2dVertex
 10
26.21390380204027
 20
177.8606336360904
 30
0.0
  0
VERTEX
  5
16D
330
167
100
AcDbEntity
  8
GRAU_10_
 62
     7
100
AcDbVertex
100
AcDb2dVertex
 10
26.20477429900436
 20
177.8670070627381
 30
0.0
  0
VERTEX
  5
16E
330
167
100
AcDbEntity
  8
GRAU_10_
 62
     7
100
AcDbVertex
100
AcDb2dVertex
 10
26.19512803164566
 20
177.8726914702888
 30
0.0
  0
VERTEX
  5
16F
330
167
100
AcDbEntity
  8
GRAU_10_
 62
     7
100
AcDbVertex
100
AcDb2dVertex
 10
26.18427598086713
 20
177.8780313682909
 30
0.0
  0
VERTEX
  5
170
330
167
100
AcDbEntity
  8
GRAU_10_
 62
     7
100
AcDbVertex
100
AcDb2dVertex
 10
26.17394069441138
 20
177.8825099924217
 30
0.0
  0
VERTEX
  5
171
330
167
100
AcDbEntity
  8
GRAU_10_
 62
     7
100
AcDbVertex
100
AcDb2dVertex
 10
26.16308864363284
 20
177.8864718522298
 30
0.0
  0
VERTEX
  5
172
330
167
100
AcDbEntity
  8
GRAU_10_
 62
     7
100
AcDbVertex
100
AcDb2dVertex
 10
26.15103080943447
 20
177.889916947715
 30
0.0
  0
VERTEX
  5
173
330
167
100
AcDbEntity
  8
GRAU_10_
 62
     7
100
AcDbVertex
100
AcDb2dVertex
 10
26.13948973955888
 20
177.893189788426
 30
0.0
  0
VERTEX
  5
174
330
167
100
AcDbEntity
  8
GRAU_10_
 62
     7
100
AcDbVertex
100
AcDb2dVertex
 10
26.12674288626345
 20
177.8949123361686
 30
0.0
  0
VERTEX
  5
175
330
167
100
AcDbEntity
  8
GRAU_10_
 62
     7
100
AcDbVertex
100
AcDb2dVertex
 10
26.11399603296803
 20
177.8962903743627
 30
0.0
  0
VERTEX
  5
176
330
167
100
AcDbEntity
  8
GRAU_10_
 62
     7
100
AcDbVertex
100
AcDb2dVertex
 10
26.10090467012408
 20
177.8966348839113
 30
0.0
  0
VERTEX
  5
177
330
167
100
AcDbEntity
  8
GRAU_10_
 62
     7
100
AcDbVertex
100
AcDb2dVertex
 10
26.08695203340882
 20
177.8966348839113
 30
0.0
  0
VERTEX
  5
178
330
167
100
AcDbEntity
  8
GRAU_10_
 62
     7
100
AcDbVertex
100
AcDb2dVertex
 10
26.07317165146782
 20
177.8949123361686
 30
0.0
  0
VERTEX
  5
179
330
167
100
AcDbEntity
  8
GRAU_10_
 62
     7
100
AcDbVertex
100
AcDb2dVertex
 10
26.05939126952682
 20
177.8928452788775
 30
0.0
  0
VERTEX
  5
17A
330
167
100
AcDbEntity
  8
GRAU_10_
 62
     7
100
AcDbVertex
100
AcDb2dVertex
 10
26.04457735894024
 20
177.889227928618
 30
0.0
  0
VERTEX
  5
17B
330
167
100
AcDbEntity
  8
GRAU_10_
 62
     7
100
AcDbVertex
100
AcDb2dVertex
 10
26.03751491319548
 20
177.8868163617783
 30
0.0
  0
VERTEX
  5
17C
330
167
100
AcDbEntity
  8
GRAU_10_
 62
     7
100
AcDbVertex
100
AcDb2dVertex
 10
26.03079697699924
 20
177.8847493044871
 30
0.0
  0
VERTEX
  5
17D
330
167
100
AcDbEntity
  8
GRAU_10_
 62
     7
100
AcDbVertex
100
AcDb2dVertex
 10
26.02339002170596
 20
177.8814764637762
 30
0.0
  0
VERTEX
  5
17E
330
167
100
AcDbEntity
  8
GRAU_10_
 62
     7
100
AcDbVertex
100
AcDb2dVertex
 10
26.0163275759612
 20
177.8790648969365
 30
0.0
  0
VERTEX
  5
17F
330
167
100
AcDbEntity
  8
GRAU_10_
 62
     7
100
AcDbVertex
100
AcDb2dVertex
 10
26.0025471940202
 20
177.8716579416432
 30
0.0
  0
VERTEX
  5
180
330
167
100
AcDbEntity
  8
GRAU_10_
 62
     7
100
AcDbVertex
100
AcDb2dVertex
 10
25.98911132162772
 20
177.8639064768014
 30
0.0
  0
VERTEX
  5
181
330
167
100
AcDbEntity
  8
GRAU_10_
 62
     7
100
AcDbVertex
100
AcDb2dVertex
 10
25.9763644683323
 20
177.854432464217
 30
0.0
  0
VERTEX
  5
182
330
167
100
AcDbEntity
  8
GRAU_10_
 62
     7
100
AcDbVertex
100
AcDb2dVertex
 10
25.96447888890819
 20
177.8440971777612
 30
0.0
  0
VERTEX
  5
183
330
167
100
AcDbEntity
  8
GRAU_10_
 62
     7
100
AcDbVertex
100
AcDb2dVertex
 10
25.95345458335539
 20
177.8335896365312
 30
0.0
  0
VERTEX
  5
184
330
167
100
AcDbEntity
  8
GRAU_10_
 62
     7
100
AcDbVertex
100
AcDb2dVertex
 10
25.9432915516739
 20
177.8218763118813
 30
0.0
  0
VERTEX
  5
185
330
167
100
AcDbEntity
  8
GRAU_10_
 62
     7
100
AcDbVertex
100
AcDb2dVertex
 10
25.93416204863799
 20
177.8094739681345
 30
0.0
  0
VERTEX
  5
186
330
167
100
AcDbEntity
  8
GRAU_10_
 62
     7
100
AcDbVertex
100
AcDb2dVertex
 10
25.92641058379618
 20
177.7968993696133
 30
0.0
  0
SEQEND
  5
187
330
167
100
AcDbEntity
  8
GRAU_10_
  0
POLYLINE
  5
188
330
1F
100
AcDbEntity
  8
GRAU_10_
 62
     7
100
AcDb2dPolyline
 66
     1
 10
0.0
 20
0.0
 30
0.0
  0
VERTEX
  5
189
330
188
100
AcDbEntity
  8
GRAU_10_
 62
     7
100
AcDbVertex
100
AcDb2dVertex
 10
25.1566039976171
 20
176.4643364359187
 30
0.0
  0
VERTEX
  5
18A
330
188
100
AcDbEntity
  8
GRAU_10_
 62
     7
100
AcDbVertex
100
AcDb2dVertex
 10
25.54073214422246
 20
177.1297566288947
 30
0.0
  0
VERTEX
  5
18B
330
188
100
AcDbEntity
  8
GRAU_10_
 62
     7
100
AcDbVertex
100
AcDb2dVertex
 10
25.92641058379618
 20
177.7968993696133
 30
0.0
  0
SEQEND
  5
18C
330
188
100
AcDbEntity
  8
GRAU_10_
  0
POLYLINE
  5
18D
330
1F
100
AcDbEntity
  8
GRAU_10_
 62
     7
100
AcDb2dPolyline
 66
     1
 10
0.0
 20
0.0
 30
0.0
  0
VERTEX
  5
18E
330
18D
100
AcDbEntity
  8
GRAU_10_
 62
     7
100
AcDbVertex
100
AcDb2dVertex
 10
24.5416544535
 20
176.4643364359187
 30
0.0
  0
VERTEX
  5
18F
330
18D
100
AcDbEntity
  8
GRAU_10_
 62
     7
100
AcDbVertex
100
AcDb2dVertex
 10
24.85033500897839
 20
176.4643364359187
 30
0.0
  0
VERTEX
  5
190
330
18D
100
AcDbEntity
  8
GRAU_10_
 62
     7
100
AcDbVertex
100
AcDb2dVertex
 10
25.1566039976171
 20
176.4643364359187
 30
0.0
  0
SEQEND
  5
191
330
18D
100
AcDbEntity
  8
GRAU_10_
  0
POLYLINE
  5
192
330
1F
100
AcDbEntity
  8
GRAU_10_
 62
     7
100
AcDb2dPolyline
 66
     1
 10
0.0
 20
0.0
 30
0.0
  0
VERTEX
  5
193
330
192
100
AcDbEntity
  8
GRAU_10_
 62
     7
100
AcDbVertex
100
AcDb2dVertex
 10
23.77270914119224
 20
177.7968993696133
 30
0.0
  0
VERTEX
  5
194
330
192
100
AcDbEntity
  8
GRAU_10_
 62
     7
100
AcDbVertex
100
AcDb2dVertex
 10
24.1582153259917
 20
177.1297566288947
 30
0.0
  0
VERTEX
  5
195
330
192
100
AcDbEntity
  8
GRAU_10_
 62
     7
100
AcDbVertex
100
AcDb2dVertex
 10
24.5416544535
 20
176.4643364359187
 30
0.0
  0
SEQEND
  5
196
330
192
100
AcDbEntity
  8
GRAU_10_
  0
POLYLINE
  5
197
330
1F
100
AcDbEntity
  8
GRAU_10_
 62
     7
100
AcDb2dPolyline
 66
     1
 10
0.0
 20
0.0
 30
0.0
  0
VERTEX
  5
198
330
197
100
AcDbEntity
  8
GRAU_10_
 62
     7
100
AcDbVertex
100
AcDb2dVertex
 10
23.77270914119224
 20
177.7968993696133
 30
0.0
  0
VERTEX
  5
199
330
197
100
AcDbEntity
  8
GRAU_10_
 62
     7
100
AcDbVertex
100
AcDb2dVertex
 10
23.76065130699386
 20
177.8151583756851
 30
0.0
  0
VERTEX
  5
19A
330
197
100
AcDbEntity
  8
GRAU_10_
 62
     7
100
AcDbVertex
100
AcDb2dVertex
 10
23.74687092505287
 20
177.8320393435628
 30
0.0
  0
VERTEX
  5
19B
330
197
100
AcDbEntity
  8
GRAU_10_
 62
     7
100
AcDbVertex
100
AcDb2dVertex
 10
23.73102348582072
 20
177.8471977636979
 30
0.0
  0
VERTEX
  5
19C
330
197
100
AcDbEntity
  8
GRAU_10_
 62
     7
100
AcDbVertex
100
AcDb2dVertex
 10
23.71379800839447
 20
177.8609781456389
 30
0.0
  0
VERTEX
  5
19D
330
197
100
AcDbEntity
  8
GRAU_10_
 62
     7
100
AcDbVertex
100
AcDb2dVertex
 10
23.70380723148724
 20
177.8673515722867
 30
0.0
  0
VERTEX
  5
19E
330
197
100
AcDbEntity
  8
GRAU_10_
 62
     7
100
AcDbVertex
100
AcDb2dVertex
 10
23.69364419980576
 20
177.8730359798373
 30
0.0
  0
VERTEX
  5
19F
330
197
100
AcDbEntity
  8
GRAU_10_
 62
     7
100
AcDbVertex
100
AcDb2dVertex
 10
23.68330891335001
 20
177.8780313682909
 30
0.0
  0
VERTEX
  5
1A0
330
197
100
AcDbEntity
  8
GRAU_10_
 62
     7
100
AcDbVertex
100
AcDb2dVertex
 10
23.67245686257147
 20
177.8828545019703
 30
0.0
  0
VERTEX
  5
1A1
330
197
100
AcDbEntity
  8
GRAU_10_
 62
     7
100
AcDbVertex
100
AcDb2dVertex
 10
23.66160481179293
 20
177.8868163617783
 30
0.0
  0
VERTEX
  5
1A2
330
197
100
AcDbEntity
  8
GRAU_10_
 62
     7
100
AcDbVertex
100
AcDb2dVertex
 10
23.64954697759456
 20
177.8902614572636
 30
0.0
  0
VERTEX
  5
1A3
330
197
100
AcDbEntity
  8
GRAU_10_
 62
     7
100
AcDbVertex
100
AcDb2dVertex
 10
23.63680012429914
 20
177.893189788426
 30
0.0
  0
VERTEX
  5
1A4
330
197
100
AcDbEntity
  8
GRAU_10_
 62
     7
100
AcDbVertex
100
AcDb2dVertex
 10
23.62405327100371
 20
177.8952568457172
 30
0.0
  0
VERTEX
  5
1A5
330
197
100
AcDbEntity
  8
GRAU_10_
 62
     7
100
AcDbVertex
100
AcDb2dVertex
 10
23.61147867248255
 20
177.8966348839113
 30
0.0
  0
VERTEX
  5
1A6
330
197
100
AcDbEntity
  8
GRAU_10_
 62
     7
100
AcDbVertex
100
AcDb2dVertex
 10
23.59769829054155
 20
177.8966348839113
 30
0.0
  0
VERTEX
  5
1A7
330
197
100
AcDbEntity
  8
GRAU_10_
 62
     7
100
AcDbVertex
100
AcDb2dVertex
 10
23.58357339905202
 20
177.8962903743627
 30
0.0
  0
VERTEX
  5
1A8
330
197
100
AcDbEntity
  8
GRAU_10_
 62
     7
100
AcDbVertex
100
AcDb2dVertex
 10
23.56979301711102
 20
177.8949123361686
 30
0.0
  0
VERTEX
  5
1A9
330
197
100
AcDbEntity
  8
GRAU_10_
 62
     7
100
AcDbVertex
100
AcDb2dVertex
 10
23.55532361607298
 20
177.8916394954577
 30
0.0
  0
VERTEX
  5
1AA
330
197
100
AcDbEntity
  8
GRAU_10_
 62
     7
100
AcDbVertex
100
AcDb2dVertex
 10
23.54085421503493
 20
177.8881943999724
 30
0.0
  0
VERTEX
  5
1AB
330
197
100
AcDbEntity
  8
GRAU_10_
 62
     7
100
AcDbVertex
100
AcDb2dVertex
 10
23.53413627883869
 20
177.8861273426812
 30
0.0
  0
VERTEX
  5
1AC
330
197
100
AcDbEntity
  8
GRAU_10_
 62
     7
100
AcDbVertex
100
AcDb2dVertex
 10
23.5267293235454
 20
177.8828545019703
 30
0.0
  0
VERTEX
  5
1AD
330
197
100
AcDbEntity
  8
GRAU_10_
 62
     7
100
AcDbVertex
100
AcDb2dVertex
 10
23.51966687780064
 20
177.8800984255821
 30
0.0
  0
VERTEX
  5
1AE
330
197
100
AcDbEntity
  8
GRAU_10_
 62
     7
100
AcDbVertex
100
AcDb2dVertex
 10
23.5129489416044
 20
177.8773423491939
 30
0.0
  0
VERTEX
  5
1AF
330
197
100
AcDbEntity
  8
GRAU_10_
 62
     7
100
AcDbVertex
100
AcDb2dVertex
 10
23.4991685596634
 20
177.8699353939006
 30
0.0
  0
VERTEX
  5
1B0
330
197
100
AcDbEntity
  8
GRAU_10_
 62
     7
100
AcDbVertex
100
AcDb2dVertex
 10
23.48659396114224
 20
177.8620116742845
 30
0.0
  0
VERTEX
  5
1B1
330
197
100
AcDbEntity
  8
GRAU_10_
 62
     7
100
AcDbVertex
100
AcDb2dVertex
 10
23.47987602494601
 20
177.8575330501537
 30
0.0
  0
VERTEX
  5
1B2
330
197
100
AcDbEntity
  8
GRAU_10_
 62
     7
100
AcDbVertex
100
AcDb2dVertex
 10
23.47384710784682
 20
177.8525376617001
 30
0.0
  0
VERTEX
  5
1B3
330
197
100
AcDbEntity
  8
GRAU_10_
 62
     7
100
AcDbVertex
100
AcDb2dVertex
 10
23.46816270029615
 20
177.8475422732465
 30
0.0
  0
VERTEX
  5
1B4
330
197
100
AcDbEntity
  8
GRAU_10_
 62
     7
100
AcDbVertex
100
AcDb2dVertex
 10
23.46213378319697
 20
177.8423746300186
 30
0.0
  0
VERTEX
  5
1B5
330
197
100
AcDbEntity
  8
GRAU_10_
 62
     7
100
AcDbVertex
100
AcDb2dVertex
 10
23.45197075151548
 20
177.8320393435628
 30
0.0
  0
VERTEX
  5
1B6
330
197
100
AcDbEntity
  8
GRAU_10_
 62
     7
100
AcDbVertex
100
AcDb2dVertex
 10
23.44249673893104
 20
177.8204982736872
 30
0.0
  0
VERTEX
  5
1B7
330
197
100
AcDbEntity
  8
GRAU_10_
 62
     7
100
AcDbVertex
100
AcDb2dVertex
 10
23.43388400021792
 20
177.8087849490374
 30
0.0
  0
VERTEX
  5
1B8
330
197
100
AcDbEntity
  8
GRAU_10_
 62
     7
100
AcDbVertex
100
AcDb2dVertex
 10
23.42664929969889
 20
177.7968993696133
 30
0.0
  0
SEQEND
  5
1B9
330
197
100
AcDbEntity
  8
GRAU_10_
  0
POLYLINE
  5
1BA
330
1F
100
AcDbEntity
  8
GRAU_10_
 62
     7
100
AcDb2dPolyline
 66
     1
 10
0.0
 20
0.0
 30
0.0
  0
VERTEX
  5
1BB
330
1BA
100
AcDbEntity
  8
GRAU_10_
 62
     7
100
AcDbVertex
100
AcDb2dVertex
 10
22.65718722306834
 20
176.4643364359187
 30
0.0
  0
VERTEX
  5
1BC
330
1BA
100
AcDbEntity
  8
GRAU_10_
 62
     7
100
AcDbVertex
100
AcDb2dVertex
 10
23.0413153696737
 20
177.1297566288947
 30
0.0
  0
VERTEX
  5
1BD
330
1BA
100
AcDbEntity
  8
GRAU_10_
 62
     7
100
AcDbVertex
100
AcDb2dVertex
 10
23.42664929969889
 20
177.7968993696133
 30
0.0
  0
SEQEND
  5
1BE
330
1BA
100
AcDbEntity
  8
GRAU_10_
  0
POLYLINE
  5
1BF
330
1F
100
AcDbEntity
  8
GRAU_10_
 62
     7
100
AcDb2dPolyline
 66
     1
 10
0.0
 20
0.0
 30
0.0
  0
VERTEX
  5
1C0
330
1BF
100
AcDbEntity
  8
GRAU_10_
 62
     7
100
AcDbVertex
100
AcDb2dVertex
 10
22.04223767895125
 20
176.4643364359187
 30
0.0
  0
VERTEX
  5
1C1
330
1BF
100
AcDbEntity
  8
GRAU_10_
 62
     7
100
AcDbVertex
100
AcDb2dVertex
 10
22.35022921533258
 20
176.4643364359187
 30
0.0
  0
VERTEX
  5
1C2
330
1BF
100
AcDbEntity
  8
GRAU_10_
 62
     7
100
AcDbVertex
100
AcDb2dVertex
 10
22.65718722306834
 20
176.4643364359187
 30
0.0
  0
SEQEND
  5
1C3
330
1BF
100
AcDbEntity
  8
GRAU_10_
  0
POLYLINE
  5
1C4
330
1F
100
AcDbEntity
  8
GRAU_10_
 62
     7
100
AcDb2dPolyline
 66
     1
 10
0.0
 20
0.0
 30
0.0
  0
VERTEX
  5
1C5
330
1C4
100
AcDbEntity
  8
GRAU_10_
 62
     7
100
AcDbVertex
100
AcDb2dVertex
 10
21.27243109277217
 20
177.7968993696133
 30
0.0
  0
VERTEX
  5
1C6
330
1C4
100
AcDbEntity
  8
GRAU_10_
 62
     7
100
AcDbVertex
100
AcDb2dVertex
 10
21.65776502279737
 20
177.1297566288947
 30
0.0
  0
VERTEX
  5
1C7
330
1C4
100
AcDbEntity
  8
GRAU_10_
 62
     7
100
AcDbVertex
100
AcDb2dVertex
 10
22.04223767895125
 20
176.4643364359187
 30
0.0
  0
SEQEND
  5
1C8
330
1C4
100
AcDbEntity
  8
GRAU_10_
  0
POLYLINE
  5
1C9
330
1F
100
AcDbEntity
  8
GRAU_10_
 62
     7
100
AcDb2dPolyline
 66
     1
 10
0.0
 20
0.0
 30
0.0
  0
VERTEX
  5
1CA
330
1C9
100
AcDbEntity
  8
GRAU_10_
 62
     7
100
AcDbVertex
100
AcDb2dVertex
 10
21.27243109277217
 20
177.7968993696133
 30
0.0
  0
VERTEX
  5
1CB
330
1C9
100
AcDbEntity
  8
GRAU_10_
 62
     7
100
AcDbVertex
100
AcDb2dVertex
 10
21.26054551334806
 20
177.8151583756851
 30
0.0
  0
VERTEX
  5
1CC
330
1C9
100
AcDbEntity
  8
GRAU_10_
 62
     7
100
AcDbVertex
100
AcDb2dVertex
 10
21.24642062185853
 20
177.8320393435628
 30
0.0
  0
VERTEX
  5
1CD
330
1C9
100
AcDbEntity
  8
GRAU_10_
 62
     7
100
AcDbVertex
100
AcDb2dVertex
 10
21.23866915701672
 20
177.8403075727274
 30
0.0
  0
VERTEX
  5
1CE
330
1C9
100
AcDbEntity
  8
GRAU_10_
 62
     7
100
AcDbVertex
100
AcDb2dVertex
 10
21.23091769217491
 20
177.8475422732465
 30
0.0
  0
VERTEX
  5
1CF
330
1C9
100
AcDbEntity
  8
GRAU_10_
 62
     7
100
AcDbVertex
100
AcDb2dVertex
 10
21.221788189139
 20
177.8547769737655
 30
0.0
  0
VERTEX
  5
1D0
330
1C9
100
AcDbEntity
  8
GRAU_10_
 62
     7
100
AcDbVertex
100
AcDb2dVertex
 10
21.21248643132882
 20
177.8613226551875
 30
0.0
  0
VERTEX
  5
1D1
330
1C9
100
AcDbEntity
  8
GRAU_10_
 62
     7
100
AcDbVertex
100
AcDb2dVertex
 10
21.1928493870629
 20
177.8740695084829
 30
0.0
  0
VERTEX
  5
1D2
330
1C9
100
AcDbEntity
  8
GRAU_10_
 62
     7
100
AcDbVertex
100
AcDb2dVertex
 10
21.17097303073156
 20
177.8840602853901
 30
0.0
  0
VERTEX
  5
1D3
330
1C9
100
AcDbEntity
  8
GRAU_10_
 62
     7
100
AcDbVertex
100
AcDb2dVertex
 10
21.15891519653319
 20
177.8878498904239
 30
0.0
  0
VERTEX
  5
1D4
330
1C9
100
AcDbEntity
  8
GRAU_10_
 62
     7
100
AcDbVertex
100
AcDb2dVertex
 10
21.14685736233481
 20
177.8912949859091
 30
0.0
  0
VERTEX
  5
1D5
330
1C9
100
AcDbEntity
  8
GRAU_10_
 62
     7
100
AcDbVertex
100
AcDb2dVertex
 10
21.13428276381365
 20
177.8935342979746
 30
0.0
  0
VERTEX
  5
1D6
330
1C9
100
AcDbEntity
  8
GRAU_10_
 62
     7
100
AcDbVertex
100
AcDb2dVertex
 10
21.12153591051823
 20
177.8959458648142
 30
0.0
  0
VERTEX
  5
1D7
330
1C9
100
AcDbEntity
  8
GRAU_10_
 62
     7
100
AcDbVertex
100
AcDb2dVertex
 10
21.10810003812576
 20
177.8966348839113
 30
0.0
  0
VERTEX
  5
1D8
330
1C9
100
AcDbEntity
  8
GRAU_10_
 62
     7
100
AcDbVertex
100
AcDb2dVertex
 10
21.0936306370877
 20
177.8966348839113
 30
0.0
  0
VERTEX
  5
1D9
330
1C9
100
AcDbEntity
  8
GRAU_10_
 62
     7
100
AcDbVertex
100
AcDb2dVertex
 10
21.07985025514671
 20
177.8959458648142
 30
0.0
  0
VERTEX
  5
1DA
330
1C9
100
AcDbEntity
  8
GRAU_10_
 62
     7
100
AcDbVertex
100
AcDb2dVertex
 10
21.06538085410866
 20
177.8942233170716
 30
0.0
  0
VERTEX
  5
1DB
330
1C9
100
AcDbEntity
  8
GRAU_10_
 62
     7
100
AcDbVertex
100
AcDb2dVertex
 10
21.05866291791242
 20
177.8928452788775
 30
0.0
  0
VERTEX
  5
1DC
330
1C9
100
AcDbEntity
  8
GRAU_10_
 62
     7
100
AcDbVertex
100
AcDb2dVertex
 10
21.05125596261913
 20
177.8909504763606
 30
0.0
  0
VERTEX
  5
1DD
330
1C9
100
AcDbEntity
  8
GRAU_10_
 62
     7
100
AcDbVertex
100
AcDb2dVertex
 10
21.04419351687437
 20
177.889227928618
 30
0.0
  0
VERTEX
  5
1DE
330
1C9
100
AcDbEntity
  8
GRAU_10_
 62
     7
100
AcDbVertex
100
AcDb2dVertex
 10
21.03678656158108
 20
177.8868163617783
 30
0.0
  0
VERTEX
  5
1DF
330
1C9
100
AcDbEntity
  8
GRAU_10_
 62
     7
100
AcDbVertex
100
AcDb2dVertex
 10
21.02300617964008
 20
177.8814764637762
 30
0.0
  0
VERTEX
  5
1E0
330
1C9
100
AcDbEntity
  8
GRAU_10_
 62
     7
100
AcDbVertex
100
AcDb2dVertex
 10
21.00974256202187
 20
177.875447546677
 30
0.0
  0
VERTEX
  5
1E1
330
1C9
100
AcDbEntity
  8
GRAU_10_
 62
     7
100
AcDbVertex
100
AcDb2dVertex
 10
20.99596218008087
 20
177.8680405913837
 30
0.0
  0
VERTEX
  5
1E2
330
1C9
100
AcDbEntity
  8
GRAU_10_
 62
     7
100
AcDbVertex
100
AcDb2dVertex
 10
20.98321532678545
 20
177.8596001074448
 30
0.0
  0
VERTEX
  5
1E3
330
1C9
100
AcDbEntity
  8
GRAU_10_
 62
     7
100
AcDbVertex
100
AcDb2dVertex
 10
20.97167425690986
 20
177.8508151139575
 30
0.0
  0
VERTEX
  5
1E4
330
1C9
100
AcDbEntity
  8
GRAU_10_
 62
     7
100
AcDbVertex
100
AcDb2dVertex
 10
20.96064995135706
 20
177.8409965918245
 30
0.0
  0
VERTEX
  5
1E5
330
1C9
100
AcDbEntity
  8
GRAU_10_
 62
     7
100
AcDbVertex
100
AcDb2dVertex
 10
20.95048691967557
 20
177.8303167958202
 30
0.0
  0
VERTEX
  5
1E6
330
1C9
100
AcDbEntity
  8
GRAU_10_
 62
     7
100
AcDbVertex
100
AcDb2dVertex
 10
20.94152967141392
 20
177.8198092545902
 30
0.0
  0
VERTEX
  5
1E7
330
1C9
100
AcDbEntity
  8
GRAU_10_
 62
     7
100
AcDbVertex
100
AcDb2dVertex
 10
20.93308918747506
 20
177.8084404394889
 30
0.0
  0
VERTEX
  5
1E8
330
1C9
100
AcDbEntity
  8
GRAU_10_
 62
     7
100
AcDbVertex
100
AcDb2dVertex
 10
20.92637125127882
 20
177.7968993696133
 30
0.0
  0
SEQEND
  5
1E9
330
1C9
100
AcDbEntity
  8
GRAU_10_
  0
POLYLINE
  5
1EA
330
1F
100
AcDbEntity
  8
GRAU_10_
 62
     7
100
AcDb2dPolyline
 66
     1
 10
0.0
 20
0.0
 30
0.0
  0
VERTEX
  5
1EB
330
1EA
100
AcDbEntity
  8
GRAU_10_
 62
     7
100
AcDbVertex
100
AcDb2dVertex
 10
20.15673691987401
 20
176.4643364359187
 30
0.0
  0
VERTEX
  5
1EC
330
1EA
100
AcDbEntity
  8
GRAU_10_
 62
     7
100
AcDbVertex
100
AcDb2dVertex
 10
20.54086506647937
 20
177.1297566288947
 30
0.0
  0
VERTEX
  5
1ED
330
1EA
100
AcDbEntity
  8
GRAU_10_
 62
     7
100
AcDbVertex
100
AcDb2dVertex
 10
20.92637125127882
 20
177.7968993696133
 30
0.0
  0
SEQEND
  5
1EE
330
1EA
100
AcDbEntity
  8
GRAU_10_
  0
POLYLINE
  5
1EF
330
1F
100
AcDbEntity
  8
GRAU_10_
 62
     7
100
AcDb2dPolyline
 66
     1
 10
0.0
 20
0.0
 30
0.0
  0
VERTEX
  5
1F0
330
1EF
100
AcDbEntity
  8
GRAU_10_
 62
     7
100
AcDbVertex
100
AcDb2dVertex
 10
19.54178737575691
 20
176.4643364359187
 30
0.0
  0
VERTEX
  5
1F1
330
1EF
100
AcDbEntity
  8
GRAU_10_
 62
     7
100
AcDbVertex
100
AcDb2dVertex
 10
19.84977891213825
 20
176.4643364359187
 30
0.0
  0
VERTEX
  5
1F2
330
1EF
100
AcDbEntity
  8
GRAU_10_
 62
     7
100
AcDbVertex
100
AcDb2dVertex
 10
20.15673691987401
 20
176.4643364359187
 30
0.0
  0
SEQEND
  5
1F3
330
1EF
100
AcDbEntity
  8
GRAU_10_
  0
POLYLINE
  5
1F4
330
1F
100
AcDbEntity
  8
GRAU_10_
 62
     7
100
AcDb2dPolyline
 66
     1
 10
0.0
 20
0.0
 30
0.0
  0
VERTEX
  5
1F5
330
1F4
100
AcDbEntity
  8
GRAU_10_
 62
     7
100
AcDbVertex
100
AcDb2dVertex
 10
18.77232529912636
 20
177.7968993696133
 30
0.0
  0
VERTEX
  5
1F6
330
1F4
100
AcDbEntity
  8
GRAU_10_
 62
     7
100
AcDbVertex
100
AcDb2dVertex
 10
19.15765922915156
 20
177.1297566288947
 30
0.0
  0
VERTEX
  5
1F7
330
1F4
100
AcDbEntity
  8
GRAU_10_
 62
     7
100
AcDbVertex
100
AcDb2dVertex
 10
19.54178737575691
 20
176.4643364359187
 30
0.0
  0
SEQEND
  5
1F8
330
1F4
100
AcDbEntity
  8
GRAU_10_
  0
POLYLINE
  5
1F9
330
1F
100
AcDbEntity
  8
GRAU_10_
 62
     7
100
AcDb2dPolyline
 66
     1
 10
0.0
 20
0.0
 30
0.0
  0
VERTEX
  5
1FA
330
1F9
100
AcDbEntity
  8
GRAU_10_
 62
     7
100
AcDbVertex
100
AcDb2dVertex
 10
18.77232529912636
 20
177.7968993696133
 30
0.0
  0
VERTEX
  5
1FB
330
1F9
100
AcDbEntity
  8
GRAU_10_
 62
     7
100
AcDbVertex
100
AcDb2dVertex
 10
18.76078422925078
 20
177.8151583756851
 30
0.0
  0
VERTEX
  5
1FC
330
1F9
100
AcDbEntity
  8
GRAU_10_
 62
     7
100
AcDbVertex
100
AcDb2dVertex
 10
18.74631482821273
 20
177.8320393435628
 30
0.0
  0
VERTEX
  5
1FD
330
1F9
100
AcDbEntity
  8
GRAU_10_
 62
     7
100
AcDbVertex
100
AcDb2dVertex
 10
18.73856336337091
 20
177.840652082276
 30
0.0
  0
VERTEX
  5
1FE
330
1F9
100
AcDbEntity
  8
GRAU_10_
 62
     7
100
AcDbVertex
100
AcDb2dVertex
 10
18.72995062465779
 20
177.8480590375692
 30
0.0
  0
VERTEX
  5
1FF
330
1F9
100
AcDbEntity
  8
GRAU_10_
 62
     7
100
AcDbVertex
100
AcDb2dVertex
 10
18.72151014071893
 20
177.8554659928625
 30
0.0
  0
VERTEX
  5
200
330
1F9
100
AcDbEntity
  8
GRAU_10_
 62
     7
100
AcDbVertex
100
AcDb2dVertex
 10
18.71169161858597
 20
177.862356183833
 30
0.0
  0
VERTEX
  5
201
330
1F9
100
AcDbEntity
  8
GRAU_10_
 62
     7
100
AcDbVertex
100
AcDb2dVertex
 10
18.69119330044873
 20
177.8744140180314
 30
0.0
  0
VERTEX
  5
202
330
1F9
100
AcDbEntity
  8
GRAU_10_
 62
     7
100
AcDbVertex
100
AcDb2dVertex
 10
18.66897243456887
 20
177.8847493044871
 30
0.0
  0
VERTEX
  5
203
330
1F9
100
AcDbEntity
  8
GRAU_10_
 62
     7
100
AcDbVertex
100
AcDb2dVertex
 10
18.65708685514476
 20
177.8881943999724
 30
0.0
  0
VERTEX
  5
204
330
1F9
100
AcDbEntity
  8
GRAU_10_
 62
     7
100
AcDbVertex
100
AcDb2dVertex
 10
18.64434000184933
 20
177.8912949859091
 30
0.0
  0
VERTEX
  5
205
330
1F9
100
AcDbEntity
  8
GRAU_10_
 62
     7
100
AcDbVertex
100
AcDb2dVertex
 10
18.63159314855391
 20
177.8945678266201
 30
0.0
  0
VERTEX
  5
206
330
1F9
100
AcDbEntity
  8
GRAU_10_
 62
     7
100
AcDbVertex
100
AcDb2dVertex
 10
18.61815727616143
 20
177.8959458648142
 30
0.0
  0
VERTEX
  5
207
330
1F9
100
AcDbEntity
  8
GRAU_10_
 62
     7
100
AcDbVertex
100
AcDb2dVertex
 10
18.60437689422043
 20
177.8966348839113
 30
0.0
  0
VERTEX
  5
208
330
1F9
100
AcDbEntity
  8
GRAU_10_
 62
     7
100
AcDbVertex
100
AcDb2dVertex
 10
18.59042425750517
 20
177.8966348839113
 30
0.0
  0
VERTEX
  5
209
330
1F9
100
AcDbEntity
  8
GRAU_10_
 62
     7
100
AcDbVertex
100
AcDb2dVertex
 10
18.57664387556417
 20
177.8952568457172
 30
0.0
  0
VERTEX
  5
20A
330
1F9
100
AcDbEntity
  8
GRAU_10_
 62
     7
100
AcDbVertex
100
AcDb2dVertex
 10
18.56217447452612
 20
177.893189788426
 30
0.0
  0
VERTEX
  5
20B
330
1F9
100
AcDbEntity
  8
GRAU_10_
 62
     7
100
AcDbVertex
100
AcDb2dVertex
 10
18.54770507348807
 20
177.889916947715
 30
0.0
  0
VERTEX
  5
20C
330
1F9
100
AcDbEntity
  8
GRAU_10_
 62
     7
100
AcDbVertex
100
AcDb2dVertex
 10
18.53358018199855
 20
177.8857828331327
 30
0.0
  0
VERTEX
  5
20D
330
1F9
100
AcDbEntity
  8
GRAU_10_
 62
     7
100
AcDbVertex
100
AcDb2dVertex
 10
18.51979980005755
 20
177.8800984255821
 30
0.0
  0
VERTEX
  5
20E
330
1F9
100
AcDbEntity
  8
GRAU_10_
 62
     7
100
AcDbVertex
100
AcDb2dVertex
 10
18.50636392766508
 20
177.8740695084829
 30
0.0
  0
VERTEX
  5
20F
330
1F9
100
AcDbEntity
  8
GRAU_10_
 62
     7
100
AcDbVertex
100
AcDb2dVertex
 10
18.49964599146884
 20
177.8706244129976
 30
0.0
  0
VERTEX
  5
210
330
1F9
100
AcDbEntity
  8
GRAU_10_
 62
     7
100
AcDbVertex
100
AcDb2dVertex
 10
18.49361707436965
 20
177.8663180436411
 30
0.0
  0
VERTEX
  5
211
330
1F9
100
AcDbEntity
  8
GRAU_10_
 62
     7
100
AcDbVertex
100
AcDb2dVertex
 10
18.48689913817341
 20
177.862356183833
 30
0.0
  0
VERTEX
  5
212
330
1F9
100
AcDbEntity
  8
GRAU_10_
 62
     7
100
AcDbVertex
100
AcDb2dVertex
 10
18.48173149494554
 20
177.8585665787993
 30
0.0
  0
VERTEX
  5
213
330
1F9
100
AcDbEntity
  8
GRAU_10_
 62
     7
100
AcDbVertex
100
AcDb2dVertex
 10
18.46967366074717
 20
177.8490925662148
 30
0.0
  0
VERTEX
  5
214
330
1F9
100
AcDbEntity
  8
GRAU_10_
 62
     7
100
AcDbVertex
100
AcDb2dVertex
 10
18.45951062906568
 20
177.8399630631789
 30
0.0
  0
VERTEX
  5
215
330
1F9
100
AcDbEntity
  8
GRAU_10_
 62
     7
100
AcDbVertex
100
AcDb2dVertex
 10
18.44951985215845
 20
177.8292832671746
 30
0.0
  0
VERTEX
  5
216
330
1F9
100
AcDbEntity
  8
GRAU_10_
 62
     7
100
AcDbVertex
100
AcDb2dVertex
 10
18.44107936821959
 20
177.8187757259446
 30
0.0
  0
VERTEX
  5
217
330
1F9
100
AcDbEntity
  8
GRAU_10_
 62
     7
100
AcDbVertex
100
AcDb2dVertex
 10
18.43332790337778
 20
177.8080959299404
 30
0.0
  0
VERTEX
  5
218
330
1F9
100
AcDbEntity
  8
GRAU_10_
 62
     7
100
AcDbVertex
100
AcDb2dVertex
 10
18.42626545763302
 20
177.7968993696133
 30
0.0
  0
SEQEND
  5
219
330
1F9
100
AcDbEntity
  8
GRAU_10_
  0
POLYLINE
  5
21A
330
1F
100
AcDbEntity
  8
GRAU_10_
 62
     7
100
AcDb2dPolyline
 66
     1
 10
0.0
 20
0.0
 30
0.0
  0
VERTEX
  5
21B
330
21A
100
AcDbEntity
  8
GRAU_10_
 62
     7
100
AcDbVertex
100
AcDb2dVertex
 10
17.65645887145394
 20
176.4643364359187
 30
0.0
  0
VERTEX
  5
21C
330
21A
100
AcDbEntity
  8
GRAU_10_
 62
     7
100
AcDbVertex
100
AcDb2dVertex
 10
18.04144829193061
 20
177.1297566288947
 30
0.0
  0
VERTEX
  5
21D
330
21A
100
AcDbEntity
  8
GRAU_10_
 62
     7
100
AcDbVertex
100
AcDb2dVertex
 10
18.42626545763302
 20
177.7968993696133
 30
0.0
  0
SEQEND
  5
21E
330
21A
100
AcDbEntity
  8
GRAU_10_
  0
POLYLINE
  5
21F
330
1F
100
AcDbEntity
  8
GRAU_10_
 62
     7
100
AcDb2dPolyline
 66
     1
 10
0.0
 20
0.0
 30
0.0
  0
VERTEX
  5
220
330
21F
100
AcDbEntity
  8
GRAU_10_
 62
     7
100
AcDbVertex
100
AcDb2dVertex
 10
17.04168158211111
 20
176.4643364359187
 30
0.0
  0
VERTEX
  5
221
330
21F
100
AcDbEntity
  8
GRAU_10_
 62
     7
100
AcDbVertex
100
AcDb2dVertex
 10
17.34967311849244
 20
176.4643364359187
 30
0.0
  0
VERTEX
  5
222
330
21F
100
AcDbEntity
  8
GRAU_10_
 62
     7
100
AcDbVertex
100
AcDb2dVertex
 10
17.65645887145394
 20
176.4643364359187
 30
0.0
  0
SEQEND
  5
223
330
21F
100
AcDbEntity
  8
GRAU_10_
  0
POLYLINE
  5
224
330
1F
100
AcDbEntity
  8
GRAU_10_
 62
     7
100
AcDb2dPolyline
 66
     1
 10
0.0
 20
0.0
 30
0.0
  0
VERTEX
  5
225
330
224
100
AcDbEntity
  8
GRAU_10_
 62
     7
100
AcDbVertex
100
AcDb2dVertex
 10
16.27256401502908
 20
177.7968993696133
 30
0.0
  0
VERTEX
  5
226
330
224
100
AcDbEntity
  8
GRAU_10_
 62
     7
100
AcDbVertex
100
AcDb2dVertex
 10
16.6582424546028
 20
177.1297566288947
 30
0.0
  0
VERTEX
  5
227
330
224
100
AcDbEntity
  8
GRAU_10_
 62
     7
100
AcDbVertex
100
AcDb2dVertex
 10
17.04168158211111
 20
176.4643364359187
 30
0.0
  0
SEQEND
  5
228
330
224
100
AcDbEntity
  8
GRAU_10_
  0
POLYLINE
  5
229
330
1F
100
AcDbEntity
  8
GRAU_10_
 62
     7
100
AcDb2dPolyline
 66
     1
 10
0.0
 20
0.0
 30
0.0
  0
VERTEX
  5
22A
330
229
100
AcDbEntity
  8
GRAU_10_
 62
     7
100
AcDbVertex
100
AcDb2dVertex
 10
16.27256401502908
 20
177.7968993696133
 30
0.0
  0
VERTEX
  5
22B
330
229
100
AcDbEntity
  8
GRAU_10_
 62
     7
100
AcDbVertex
100
AcDb2dVertex
 10
16.26050618083071
 20
177.8151583756851
 30
0.0
  0
VERTEX
  5
22C
330
229
100
AcDbEntity
  8
GRAU_10_
 62
     7
100
AcDbVertex
100
AcDb2dVertex
 10
16.24603677979266
 20
177.8323838531114
 30
0.0
  0
VERTEX
  5
22D
330
229
100
AcDbEntity
  8
GRAU_10_
 62
     7
100
AcDbVertex
100
AcDb2dVertex
 10
16.23794080540232
 20
177.840652082276
 30
0.0
  0
VERTEX
  5
22E
330
229
100
AcDbEntity
  8
GRAU_10_
 62
     7
100
AcDbVertex
100
AcDb2dVertex
 10
16.22950032146346
 20
177.8487480566663
 30
0.0
  0
VERTEX
  5
22F
330
229
100
AcDbEntity
  8
GRAU_10_
 62
     7
100
AcDbVertex
100
AcDb2dVertex
 10
16.22071532797607
 20
177.8558105024111
 30
0.0
  0
VERTEX
  5
230
330
229
100
AcDbEntity
  8
GRAU_10_
 62
     7
100
AcDbVertex
100
AcDb2dVertex
 10
16.21089680584311
 20
177.8628729481558
 30
0.0
  0
VERTEX
  5
231
330
229
100
AcDbEntity
  8
GRAU_10_
 62
     7
100
AcDbVertex
100
AcDb2dVertex
 10
16.19039848770587
 20
177.8747585275799
 30
0.0
  0
VERTEX
  5
232
330
229
100
AcDbEntity
  8
GRAU_10_
 62
     7
100
AcDbVertex
100
AcDb2dVertex
 10
16.16679958363191
 20
177.8850938140357
 30
0.0
  0
VERTEX
  5
233
330
229
100
AcDbEntity
  8
GRAU_10_
 62
     7
100
AcDbVertex
100
AcDb2dVertex
 10
16.15474174943354
 20
177.889227928618
 30
0.0
  0
VERTEX
  5
234
330
229
100
AcDbEntity
  8
GRAU_10_
 62
     7
100
AcDbVertex
100
AcDb2dVertex
 10
16.14199489613811
 20
177.8921562597804
 30
0.0
  0
VERTEX
  5
235
330
229
100
AcDbEntity
  8
GRAU_10_
 62
     7
100
AcDbVertex
100
AcDb2dVertex
 10
16.12821451419711
 20
177.8949123361686
 30
0.0
  0
VERTEX
  5
236
330
229
100
AcDbEntity
  8
GRAU_10_
 62
     7
100
AcDbVertex
100
AcDb2dVertex
 10
16.1149508965789
 20
177.8962903743627
 30
0.0
  0
VERTEX
  5
237
330
229
100
AcDbEntity
  8
GRAU_10_
 62
     7
100
AcDbVertex
100
AcDb2dVertex
 10
16.1011705146379
 20
177.8966348839113
 30
0.0
  0
VERTEX
  5
238
330
229
100
AcDbEntity
  8
GRAU_10_
 62
     7
100
AcDbVertex
100
AcDb2dVertex
 10
16.08670111359985
 20
177.8966348839113
 30
0.0
  0
VERTEX
  5
239
330
229
100
AcDbEntity
  8
GRAU_10_
 62
     7
100
AcDbVertex
100
AcDb2dVertex
 10
16.07257622211033
 20
177.8949123361686
 30
0.0
  0
VERTEX
  5
23A
330
229
100
AcDbEntity
  8
GRAU_10_
 62
     7
100
AcDbVertex
100
AcDb2dVertex
 10
16.05810682107228
 20
177.8928452788775
 30
0.0
  0
VERTEX
  5
23B
330
229
100
AcDbEntity
  8
GRAU_10_
 62
     7
100
AcDbVertex
100
AcDb2dVertex
 10
16.05104437532752
 20
177.8909504763606
 30
0.0
  0
VERTEX
  5
23C
330
229
100
AcDbEntity
  8
GRAU_10_
 62
     7
100
AcDbVertex
100
AcDb2dVertex
 10
16.04363742003423
 20
177.889227928618
 30
0.0
  0
VERTEX
  5
23D
330
229
100
AcDbEntity
  8
GRAU_10_
 62
     7
100
AcDbVertex
100
AcDb2dVertex
 10
16.03691948383799
 20
177.8868163617783
 30
0.0
  0
VERTEX
  5
23E
330
229
100
AcDbEntity
  8
GRAU_10_
 62
     7
100
AcDbVertex
100
AcDb2dVertex
 10
16.02985703809323
 20
177.8847493044871
 30
0.0
  0
VERTEX
  5
23F
330
229
100
AcDbEntity
  8
GRAU_10_
 62
     7
100
AcDbVertex
100
AcDb2dVertex
 10
16.01642116570076
 20
177.8790648969365
 30
0.0
  0
VERTEX
  5
240
330
229
100
AcDbEntity
  8
GRAU_10_
 62
     7
100
AcDbVertex
100
AcDb2dVertex
 10
16.00384656717959
 20
177.8723469607403
 30
0.0
  0
VERTEX
  5
241
330
229
100
AcDbEntity
  8
GRAU_10_
 62
     7
100
AcDbVertex
100
AcDb2dVertex
 10
15.99109971388417
 20
177.8645954958984
 30
0.0
  0
VERTEX
  5
242
330
229
100
AcDbEntity
  8
GRAU_10_
 62
     7
100
AcDbVertex
100
AcDb2dVertex
 10
15.9790418796858
 20
177.8564995215081
 30
0.0
  0
VERTEX
  5
243
330
229
100
AcDbEntity
  8
GRAU_10_
 62
     7
100
AcDbVertex
100
AcDb2dVertex
 10
15.96818982890726
 20
177.8475422732465
 30
0.0
  0
VERTEX
  5
244
330
229
100
AcDbEntity
  8
GRAU_10_
 62
     7
100
AcDbVertex
100
AcDb2dVertex
 10
15.95854356154856
 20
177.8387572797591
 30
0.0
  0
VERTEX
  5
245
330
229
100
AcDbEntity
  8
GRAU_10_
 62
     7
100
AcDbVertex
100
AcDb2dVertex
 10
15.9487250394156
 20
177.8285942480776
 30
0.0
  0
VERTEX
  5
246
330
229
100
AcDbEntity
  8
GRAU_10_
 62
     7
100
AcDbVertex
100
AcDb2dVertex
 10
15.94028455547673
 20
177.8182589616218
 30
0.0
  0
VERTEX
  5
247
330
229
100
AcDbEntity
  8
GRAU_10_
 62
     7
100
AcDbVertex
100
AcDb2dVertex
 10
15.93322210973197
 20
177.8077514203918
 30
0.0
  0
VERTEX
  5
248
330
229
100
AcDbEntity
  8
GRAU_10_
 62
     7
100
AcDbVertex
100
AcDb2dVertex
 10
15.92650417353574
 20
177.7968993696133
 30
0.0
  0
SEQEND
  5
249
330
229
100
AcDbEntity
  8
GRAU_10_
  0
POLYLINE
  5
24A
330
1F
100
AcDbEntity
  8
GRAU_10_
 62
     7
100
AcDb2dPolyline
 66
     1
 10
0.0
 20
0.0
 30
0.0
  0
VERTEX
  5
24B
330
24A
100
AcDbEntity
  8
GRAU_10_
 62
     7
100
AcDbVertex
100
AcDb2dVertex
 10
15.15669758735666
 20
176.4643364359187
 30
0.0
  0
VERTEX
  5
24C
330
24A
100
AcDbEntity
  8
GRAU_10_
 62
     7
100
AcDbVertex
100
AcDb2dVertex
 10
15.54099798873628
 20
177.1297566288947
 30
0.0
  0
VERTEX
  5
24D
330
24A
100
AcDbEntity
  8
GRAU_10_
 62
     7
100
AcDbVertex
100
AcDb2dVertex
 10
15.92650417353574
 20
177.7968993696133
 30
0.0
  0
SEQEND
  5
24E
330
24A
100
AcDbEntity
  8
GRAU_10_
  0
POLYLINE
  5
24F
330
1F
100
AcDbEntity
  8
GRAU_10_
 62
     7
100
AcDb2dPolyline
 66
     1
 10
0.0
 20
0.0
 30
0.0
  0
VERTEX
  5
250
330
24F
100
AcDbEntity
  8
GRAU_10_
 62
     7
100
AcDbVertex
100
AcDb2dVertex
 10
14.54192029801383
 20
176.4643364359187
 30
0.0
  0
VERTEX
  5
251
330
24F
100
AcDbEntity
  8
GRAU_10_
 62
     7
100
AcDbVertex
100
AcDb2dVertex
 10
14.84939507007237
 20
176.4643364359187
 30
0.0
  0
VERTEX
  5
252
330
24F
100
AcDbEntity
  8
GRAU_10_
 62
     7
100
AcDbVertex
100
AcDb2dVertex
 10
15.15669758735666
 20
176.4643364359187
 30
0.0
  0
SEQEND
  5
253
330
24F
100
AcDbEntity
  8
GRAU_10_
  0
POLYLINE
  5
254
330
1F
100
AcDbEntity
  8
GRAU_10_
 62
     7
100
AcDb2dPolyline
 66
     1
 10
0.0
 20
0.0
 30
0.0
  0
VERTEX
  5
255
330
254
100
AcDbEntity
  8
GRAU_10_
 62
     7
100
AcDbVertex
100
AcDb2dVertex
 10
13.77245822138327
 20
177.7968993696133
 30
0.0
  0
VERTEX
  5
256
330
254
100
AcDbEntity
  8
GRAU_10_
 62
     7
100
AcDbVertex
100
AcDb2dVertex
 10
14.15761989663421
 20
177.1297566288947
 30
0.0
  0
VERTEX
  5
257
330
254
100
AcDbEntity
  8
GRAU_10_
 62
     7
100
AcDbVertex
100
AcDb2dVertex
 10
14.54192029801383
 20
176.4643364359187
 30
0.0
  0
SEQEND
  5
258
330
254
100
AcDbEntity
  8
GRAU_10_
  0
POLYLINE
  5
259
330
1F
100
AcDbEntity
  8
GRAU_10_
 62
     7
100
AcDb2dPolyline
 66
     1
 10
0.0
 20
0.0
 30
0.0
  0
VERTEX
  5
25A
330
259
100
AcDbEntity
  8
GRAU_10_
 62
     7
100
AcDbVertex
100
AcDb2dVertex
 10
13.77245822138327
 20
177.7968993696133
 30
0.0
  0
VERTEX
  5
25B
330
259
100
AcDbEntity
  8
GRAU_10_
 62
     7
100
AcDbVertex
100
AcDb2dVertex
 10
13.76005587763638
 20
177.8155028852336
 30
0.0
  0
VERTEX
  5
25C
330
259
100
AcDbEntity
  8
GRAU_10_
 62
     7
100
AcDbVertex
100
AcDb2dVertex
 10
13.74558647659833
 20
177.8332451269827
 30
0.0
  0
VERTEX
  5
25D
330
259
100
AcDbEntity
  8
GRAU_10_
 62
     7
100
AcDbVertex
100
AcDb2dVertex
 10
13.73783501175651
 20
177.8409965918245
 30
0.0
  0
VERTEX
  5
25E
330
259
100
AcDbEntity
  8
GRAU_10_
 62
     7
100
AcDbVertex
100
AcDb2dVertex
 10
13.72939452781765
 20
177.8490925662148
 30
0.0
  0
VERTEX
  5
25F
330
259
100
AcDbEntity
  8
GRAU_10_
 62
     7
100
AcDbVertex
100
AcDb2dVertex
 10
13.71992051523321
 20
177.8564995215081
 30
0.0
  0
VERTEX
  5
260
330
259
100
AcDbEntity
  8
GRAU_10_
 62
     7
100
AcDbVertex
100
AcDb2dVertex
 10
13.70958522877747
 20
177.8639064768014
 30
0.0
  0
VERTEX
  5
261
330
259
100
AcDbEntity
  8
GRAU_10_
 62
     7
100
AcDbVertex
100
AcDb2dVertex
 10
13.68839789154318
 20
177.876136565774
 30
0.0
  0
VERTEX
  5
262
330
259
100
AcDbEntity
  8
GRAU_10_
 62
     7
100
AcDbVertex
100
AcDb2dVertex
 10
13.66479898746922
 20
177.8861273426812
 30
0.0
  0
VERTEX
  5
263
330
259
100
AcDbEntity
  8
GRAU_10_
 62
     7
100
AcDbVertex
100
AcDb2dVertex
 10
13.65222438894806
 20
177.8895724381665
 30
0.0
  0
VERTEX
  5
264
330
259
100
AcDbEntity
  8
GRAU_10_
 62
     7
100
AcDbVertex
100
AcDb2dVertex
 10
13.63878851655558
 20
177.893189788426
 30
0.0
  0
VERTEX
  5
265
330
259
100
AcDbEntity
  8
GRAU_10_
 62
     7
100
AcDbVertex
100
AcDb2dVertex
 10
13.62500813461458
 20
177.8949123361686
 30
0.0
  0
VERTEX
  5
266
330
259
100
AcDbEntity
  8
GRAU_10_
 62
     7
100
AcDbVertex
100
AcDb2dVertex
 10
13.61157226222211
 20
177.8966348839113
 30
0.0
  0
VERTEX
  5
267
330
259
100
AcDbEntity
  8
GRAU_10_
 62
     7
100
AcDbVertex
100
AcDb2dVertex
 10
13.59710286118406
 20
177.8966348839113
 30
0.0
  0
VERTEX
  5
268
330
259
100
AcDbEntity
  8
GRAU_10_
 62
     7
100
AcDbVertex
100
AcDb2dVertex
 10
13.58263346014601
 20
177.8962903743627
 30
0.0
  0
VERTEX
  5
269
330
259
100
AcDbEntity
  8
GRAU_10_
 62
     7
100
AcDbVertex
100
AcDb2dVertex
 10
13.56885307820501
 20
177.8945678266201
 30
0.0
  0
VERTEX
  5
26A
330
259
100
AcDbEntity
  8
GRAU_10_
 62
     7
100
AcDbVertex
100
AcDb2dVertex
 10
13.55438367716696
 20
177.8912949859091
 30
0.0
  0
VERTEX
  5
26B
330
259
100
AcDbEntity
  8
GRAU_10_
 62
     7
100
AcDbVertex
100
AcDb2dVertex
 10
13.54697672187367
 20
177.8895724381665
 30
0.0
  0
VERTEX
  5
26C
330
259
100
AcDbEntity
  8
GRAU_10_
 62
     7
100
AcDbVertex
100
AcDb2dVertex
 10
13.54025878567744
 20
177.8881943999724
 30
0.0
  0
VERTEX
  5
26D
330
259
100
AcDbEntity
  8
GRAU_10_
 62
     7
100
AcDbVertex
100
AcDb2dVertex
 10
13.53319633993267
 20
177.8857828331327
 30
0.0
  0
VERTEX
  5
26E
330
259
100
AcDbEntity
  8
GRAU_10_
 62
     7
100
AcDbVertex
100
AcDb2dVertex
 10
13.52647840373644
 20
177.8828545019703
 30
0.0
  0
VERTEX
  5
26F
330
259
100
AcDbEntity
  8
GRAU_10_
 62
     7
100
AcDbVertex
100
AcDb2dVertex
 10
13.51321478611822
 20
177.8775146039681
 30
0.0
  0
VERTEX
  5
270
330
259
100
AcDbEntity
  8
GRAU_10_
 62
     7
100
AcDbVertex
100
AcDb2dVertex
 10
13.5004679328228
 20
177.8709689225462
 30
0.0
  0
VERTEX
  5
271
330
259
100
AcDbEntity
  8
GRAU_10_
 62
     7
100
AcDbVertex
100
AcDb2dVertex
 10
13.48841009862443
 20
177.8632174577043
 30
0.0
  0
VERTEX
  5
272
330
259
100
AcDbEntity
  8
GRAU_10_
 62
     7
100
AcDbVertex
100
AcDb2dVertex
 10
13.47755804784589
 20
177.8554659928625
 30
0.0
  0
VERTEX
  5
273
330
259
100
AcDbEntity
  8
GRAU_10_
 62
     7
100
AcDbVertex
100
AcDb2dVertex
 10
13.46653374229309
 20
177.8468532541494
 30
0.0
  0
VERTEX
  5
274
330
259
100
AcDbEntity
  8
GRAU_10_
 62
     7
100
AcDbVertex
100
AcDb2dVertex
 10
13.45705972970865
 20
177.837379241565
 30
0.0
  0
VERTEX
  5
275
330
259
100
AcDbEntity
  8
GRAU_10_
 62
     7
100
AcDbVertex
100
AcDb2dVertex
 10
13.44017876183093
 20
177.8179144520733
 30
0.0
  0
VERTEX
  5
276
330
259
100
AcDbEntity
  8
GRAU_10_
 62
     7
100
AcDbVertex
100
AcDb2dVertex
 10
13.42639837988993
 20
177.7968993696133
 30
0.0
  0
SEQEND
  5
277
330
259
100
AcDbEntity
  8
GRAU_10_
  0
POLYLINE
  5
278
330
1F
100
AcDbEntity
  8
GRAU_10_
 62
     7
100
AcDb2dPolyline
 66
     1
 10
0.0
 20
0.0
 30
0.0
  0
VERTEX
  5
279
330
278
100
AcDbEntity
  8
GRAU_10_
 62
     7
100
AcDbVertex
100
AcDb2dVertex
 10
12.65659179371085
 20
176.4643364359187
 30
0.0
  0
VERTEX
  5
27A
330
278
100
AcDbEntity
  8
GRAU_10_
 62
     7
100
AcDbVertex
100
AcDb2dVertex
 10
13.04071994031621
 20
177.1297566288947
 30
0.0
  0
VERTEX
  5
27B
330
278
100
AcDbEntity
  8
GRAU_10_
 62
     7
100
AcDbVertex
100
AcDb2dVertex
 10
13.42639837988993
 20
177.7968993696133
 30
0.0
  0
SEQEND
  5
27C
330
278
100
AcDbEntity
  8
GRAU_10_
  0
POLYLINE
  5
27D
330
1F
100
AcDbEntity
  8
GRAU_10_
 62
     7
100
AcDb2dPolyline
 66
     1
 10
0.0
 20
0.0
 30
0.0
  0
VERTEX
  5
27E
330
27D
100
AcDbEntity
  8
GRAU_10_
 62
     7
100
AcDbVertex
100
AcDb2dVertex
 10
12.04164224959376
 20
176.4643364359187
 30
0.0
  0
VERTEX
  5
27F
330
27D
100
AcDbEntity
  8
GRAU_10_
 62
     7
100
AcDbVertex
100
AcDb2dVertex
 10
12.34963378597509
 20
176.4643364359187
 30
0.0
  0
VERTEX
  5
280
330
27D
100
AcDbEntity
  8
GRAU_10_
 62
     7
100
AcDbVertex
100
AcDb2dVertex
 10
12.65659179371085
 20
176.4643364359187
 30
0.0
  0
SEQEND
  5
281
330
27D
100
AcDbEntity
  8
GRAU_10_
  0
POLYLINE
  5
282
330
1F
100
AcDbEntity
  8
GRAU_10_
 62
     7
100
AcDb2dPolyline
 66
     1
 10
0.0
 20
0.0
 30
0.0
  0
VERTEX
  5
283
330
282
100
AcDbEntity
  8
GRAU_10_
 62
     7
100
AcDbVertex
100
AcDb2dVertex
 10
11.27269693728599
 20
177.7968993696133
 30
0.0
  0
VERTEX
  5
284
330
282
100
AcDbEntity
  8
GRAU_10_
 62
     7
100
AcDbVertex
100
AcDb2dVertex
 10
11.6575141029884
 20
177.1297566288947
 30
0.0
  0
VERTEX
  5
285
330
282
100
AcDbEntity
  8
GRAU_10_
 62
     7
100
AcDbVertex
100
AcDb2dVertex
 10
12.04164224959376
 20
176.4643364359187
 30
0.0
  0
SEQEND
  5
286
330
282
100
AcDbEntity
  8
GRAU_10_
  0
POLYLINE
  5
287
330
1F
100
AcDbEntity
  8
GRAU_10_
 62
     7
100
AcDb2dPolyline
 66
     1
 10
0.0
 20
0.0
 30
0.0
  0
VERTEX
  5
288
330
287
100
AcDbEntity
  8
GRAU_10_
 62
     7
100
AcDbVertex
100
AcDb2dVertex
 10
11.27269693728599
 20
177.7968993696133
 30
0.0
  0
VERTEX
  5
289
330
287
100
AcDbEntity
  8
GRAU_10_
 62
     7
100
AcDbVertex
100
AcDb2dVertex
 10
11.26029459353909
 20
177.8155028852336
 30
0.0
  0
VERTEX
  5
28A
330
287
100
AcDbEntity
  8
GRAU_10_
 62
     7
100
AcDbVertex
100
AcDb2dVertex
 10
11.24548068295252
 20
177.8335896365312
 30
0.0
  0
VERTEX
  5
28B
330
287
100
AcDbEntity
  8
GRAU_10_
 62
     7
100
AcDbVertex
100
AcDb2dVertex
 10
11.23738470856218
 20
177.84203012047
 30
0.0
  0
VERTEX
  5
28C
330
287
100
AcDbEntity
  8
GRAU_10_
 62
     7
100
AcDbVertex
100
AcDb2dVertex
 10
11.22859971507479
 20
177.8501260948604
 30
0.0
  0
VERTEX
  5
28D
330
287
100
AcDbEntity
  8
GRAU_10_
 62
     7
100
AcDbVertex
100
AcDb2dVertex
 10
11.21860893816757
 20
177.8575330501537
 30
0.0
  0
VERTEX
  5
28E
330
287
100
AcDbEntity
  8
GRAU_10_
 62
     7
100
AcDbVertex
100
AcDb2dVertex
 10
11.20844590648608
 20
177.8642509863499
 30
0.0
  0
VERTEX
  5
28F
330
287
100
AcDbEntity
  8
GRAU_10_
 62
     7
100
AcDbVertex
100
AcDb2dVertex
 10
11.18656955015475
 20
177.8773423491939
 30
0.0
  0
VERTEX
  5
290
330
287
100
AcDbEntity
  8
GRAU_10_
 62
     7
100
AcDbVertex
100
AcDb2dVertex
 10
11.16193711743521
 20
177.8868163617783
 30
0.0
  0
VERTEX
  5
291
330
287
100
AcDbEntity
  8
GRAU_10_
 62
     7
100
AcDbVertex
100
AcDb2dVertex
 10
11.14919026413979
 20
177.8902614572636
 30
0.0
  0
VERTEX
  5
292
330
287
100
AcDbEntity
  8
GRAU_10_
 62
     7
100
AcDbVertex
100
AcDb2dVertex
 10
11.13575439174731
 20
177.8935342979746
 30
0.0
  0
VERTEX
  5
293
330
287
100
AcDbEntity
  8
GRAU_10_
 62
     7
100
AcDbVertex
100
AcDb2dVertex
 10
11.12162950025779
 20
177.8952568457172
 30
0.0
  0
VERTEX
  5
294
330
287
100
AcDbEntity
  8
GRAU_10_
 62
     7
100
AcDbVertex
100
AcDb2dVertex
 10
11.10716009921974
 20
177.8966348839113
 30
0.0
  0
VERTEX
  5
295
330
287
100
AcDbEntity
  8
GRAU_10_
 62
     7
100
AcDbVertex
100
AcDb2dVertex
 10
11.09303520773021
 20
177.8966348839113
 30
0.0
  0
VERTEX
  5
296
330
287
100
AcDbEntity
  8
GRAU_10_
 62
     7
100
AcDbVertex
100
AcDb2dVertex
 10
11.07891031624069
 20
177.8959458648142
 30
0.0
  0
VERTEX
  5
297
330
287
100
AcDbEntity
  8
GRAU_10_
 62
     7
100
AcDbVertex
100
AcDb2dVertex
 10
11.06495767952543
 20
177.8935342979746
 30
0.0
  0
VERTEX
  5
298
330
287
100
AcDbEntity
  8
GRAU_10_
 62
     7
100
AcDbVertex
100
AcDb2dVertex
 10
11.05048827848738
 20
177.8909504763606
 30
0.0
  0
VERTEX
  5
299
330
287
100
AcDbEntity
  8
GRAU_10_
 62
     7
100
AcDbVertex
100
AcDb2dVertex
 10
11.0370524060949
 20
177.8864718522298
 30
0.0
  0
VERTEX
  5
29A
330
287
100
AcDbEntity
  8
GRAU_10_
 62
     7
100
AcDbVertex
100
AcDb2dVertex
 10
11.0232720241539
 20
177.8814764637762
 30
0.0
  0
VERTEX
  5
29B
330
287
100
AcDbEntity
  8
GRAU_10_
 62
     7
100
AcDbVertex
100
AcDb2dVertex
 10
11.01052517085848
 20
177.876136565774
 30
0.0
  0
VERTEX
  5
29C
330
287
100
AcDbEntity
  8
GRAU_10_
 62
     7
100
AcDbVertex
100
AcDb2dVertex
 10
10.99812282711158
 20
177.869590884352
 30
0.0
  0
VERTEX
  5
29D
330
287
100
AcDbEntity
  8
GRAU_10_
 62
     7
100
AcDbVertex
100
AcDb2dVertex
 10
10.98692626678452
 20
177.8620116742845
 30
0.0
  0
VERTEX
  5
29E
330
287
100
AcDbEntity
  8
GRAU_10_
 62
     7
100
AcDbVertex
100
AcDb2dVertex
 10
10.97555745168319
 20
177.8539156998942
 30
0.0
  0
VERTEX
  5
29F
330
287
100
AcDbEntity
  8
GRAU_10_
 62
     7
100
AcDbVertex
100
AcDb2dVertex
 10
10.96573892955023
 20
177.8454752159553
 30
0.0
  0
VERTEX
  5
2A0
330
287
100
AcDbEntity
  8
GRAU_10_
 62
     7
100
AcDbVertex
100
AcDb2dVertex
 10
10.95592040741727
 20
177.8366902224679
 30
0.0
  0
VERTEX
  5
2A1
330
287
100
AcDbEntity
  8
GRAU_10_
 62
     7
100
AcDbVertex
100
AcDb2dVertex
 10
10.93955620386233
 20
177.8168809234277
 30
0.0
  0
VERTEX
  5
2A2
330
287
100
AcDbEntity
  8
GRAU_10_
 62
     7
100
AcDbVertex
100
AcDb2dVertex
 10
10.92629258624412
 20
177.7968993696133
 30
0.0
  0
SEQEND
  5
2A3
330
287
100
AcDbEntity
  8
GRAU_10_
  0
POLYLINE
  5
2A4
330
1F
100
AcDbEntity
  8
GRAU_10_
 62
     7
100
AcDb2dPolyline
 66
     1
 10
0.0
 20
0.0
 30
0.0
  0
VERTEX
  5
2A5
330
2A4
100
AcDbEntity
  8
GRAU_10_
 62
     7
100
AcDbVertex
100
AcDb2dVertex
 10
10.1571750191621
 20
176.4643364359187
 30
0.0
  0
VERTEX
  5
2A6
330
2A4
100
AcDbEntity
  8
GRAU_10_
 62
     7
100
AcDbVertex
100
AcDb2dVertex
 10
10.54130316576745
 20
177.1297566288947
 30
0.0
  0
VERTEX
  5
2A7
330
2A4
100
AcDbEntity
  8
GRAU_10_
 62
     7
100
AcDbVertex
100
AcDb2dVertex
 10
10.92629258624412
 20
177.7968993696133
 30
0.0
  0
SEQEND
  5
2A8
330
2A4
100
AcDbEntity
  8
GRAU_10_
  0
POLYLINE
  5
2A9
330
1F
100
AcDbEntity
  8
GRAU_10_
 62
     7
100
AcDb2dPolyline
 66
     1
 10
0.0
 20
0.0
 30
0.0
  0
VERTEX
  5
2AA
330
2A9
100
AcDbEntity
  8
GRAU_10_
 62
     7
100
AcDbVertex
100
AcDb2dVertex
 10
9.542225475044999
 20
176.4643364359187
 30
0.0
  0
VERTEX
  5
2AB
330
2A9
100
AcDbEntity
  8
GRAU_10_
 62
     7
100
AcDbVertex
100
AcDb2dVertex
 10
9.849527992329286
 20
176.4643364359187
 30
0.0
  0
VERTEX
  5
2AC
330
2A9
100
AcDbEntity
  8
GRAU_10_
 62
     7
100
AcDbVertex
100
AcDb2dVertex
 10
10.1571750191621
 20
176.4643364359187
 30
0.0
  0
SEQEND
  5
2AD
330
2A9
100
AcDbEntity
  8
GRAU_10_
  0
POLYLINE
  5
2AE
330
1F
100
AcDbEntity
  8
GRAU_10_
 62
     7
100
AcDb2dPolyline
 66
     1
 10
0.0
 20
0.0
 30
0.0
  0
VERTEX
  5
2AF
330
2AE
100
AcDbEntity
  8
GRAU_10_
 62
     7
100
AcDbVertex
100
AcDb2dVertex
 10
8.772591143640186
 20
177.7968993696133
 30
0.0
  0
VERTEX
  5
2B0
330
2AE
100
AcDbEntity
  8
GRAU_10_
 62
     7
100
AcDbVertex
100
AcDb2dVertex
 10
9.158097328439643
 20
177.1297566288947
 30
0.0
  0
VERTEX
  5
2B1
330
2AE
100
AcDbEntity
  8
GRAU_10_
 62
     7
100
AcDbVertex
100
AcDb2dVertex
 10
9.542225475044999
 20
176.4643364359187
 30
0.0
  0
SEQEND
  5
2B2
330
2AE
100
AcDbEntity
  8
GRAU_10_
  0
POLYLINE
  5
2B3
330
1F
100
AcDbEntity
  8
GRAU_10_
 62
     7
100
AcDb2dPolyline
 66
     1
 10
0.0
 20
0.0
 30
0.0
  0
VERTEX
  5
2B4
330
2B3
100
AcDbEntity
  8
GRAU_10_
 62
     7
100
AcDbVertex
100
AcDb2dVertex
 10
8.772591143640186
 20
177.7968993696133
 30
0.0
  0
VERTEX
  5
2B5
330
2B3
100
AcDbEntity
  8
GRAU_10_
 62
     7
100
AcDbVertex
100
AcDb2dVertex
 10
8.75984429034476
 20
177.8161919043307
 30
0.0
  0
VERTEX
  5
2B6
330
2B3
100
AcDbEntity
  8
GRAU_10_
 62
     7
100
AcDbVertex
100
AcDb2dVertex
 10
8.744685870209663
 20
177.8339341460797
 30
0.0
  0
VERTEX
  5
2B7
330
2B3
100
AcDbEntity
  8
GRAU_10_
 62
     7
100
AcDbVertex
100
AcDb2dVertex
 10
8.7362453862708
 20
177.8423746300186
 30
0.0
  0
VERTEX
  5
2B8
330
2B3
100
AcDbEntity
  8
GRAU_10_
 62
     7
100
AcDbVertex
100
AcDb2dVertex
 10
8.727804902331938
 20
177.8508151139575
 30
0.0
  0
VERTEX
  5
2B9
330
2B3
100
AcDbEntity
  8
GRAU_10_
 62
     7
100
AcDbVertex
100
AcDb2dVertex
 10
8.717469615876189
 20
177.8578775597022
 30
0.0
  0
VERTEX
  5
2BA
330
2B3
100
AcDbEntity
  8
GRAU_10_
 62
     7
100
AcDbVertex
100
AcDb2dVertex
 10
8.706962074646176
 20
177.865629024544
 30
0.0
  0
VERTEX
  5
2BB
330
2B3
100
AcDbEntity
  8
GRAU_10_
 62
     7
100
AcDbVertex
100
AcDb2dVertex
 10
8.696282278641903
 20
177.8716579416432
 30
0.0
  0
VERTEX
  5
2BC
330
2B3
100
AcDbEntity
  8
GRAU_10_
 62
     7
100
AcDbVertex
100
AcDb2dVertex
 10
8.68439669921779
 20
177.8780313682909
 30
0.0
  0
VERTEX
  5
2BD
330
2B3
100
AcDbEntity
  8
GRAU_10_
 62
     7
100
AcDbVertex
100
AcDb2dVertex
 10
8.67199435547089
 20
177.8828545019703
 30
0.0
  0
VERTEX
  5
2BE
330
2B3
100
AcDbEntity
  8
GRAU_10_
 62
     7
100
AcDbVertex
100
AcDb2dVertex
 10
8.658902992626942
 20
177.8878498904239
 30
0.0
  0
VERTEX
  5
2BF
330
2B3
100
AcDbEntity
  8
GRAU_10_
 62
     7
100
AcDbVertex
100
AcDb2dVertex
 10
8.632203502616255
 20
177.8942233170716
 30
0.0
  0
VERTEX
  5
2C0
330
2B3
100
AcDbEntity
  8
GRAU_10_
 62
     7
100
AcDbVertex
100
AcDb2dVertex
 10
8.603953719637206
 20
177.8966348839113
 30
0.0
  0
VERTEX
  5
2C1
330
2B3
100
AcDbEntity
  8
GRAU_10_
 62
     7
100
AcDbVertex
100
AcDb2dVertex
 10
8.589484318599157
 20
177.8966348839113
 30
0.0
  0
VERTEX
  5
2C2
330
2B3
100
AcDbEntity
  8
GRAU_10_
 62
     7
100
AcDbVertex
100
AcDb2dVertex
 10
8.575359427109634
 20
177.8952568457172
 30
0.0
  0
VERTEX
  5
2C3
330
2B3
100
AcDbEntity
  8
GRAU_10_
 62
     7
100
AcDbVertex
100
AcDb2dVertex
 10
8.561579045168633
 20
177.893189788426
 30
0.0
  0
VERTEX
  5
2C4
330
2B3
100
AcDbEntity
  8
GRAU_10_
 62
     7
100
AcDbVertex
100
AcDb2dVertex
 10
8.547454153679109
 20
177.8895724381665
 30
0.0
  0
VERTEX
  5
2C5
330
2B3
100
AcDbEntity
  8
GRAU_10_
 62
     7
100
AcDbVertex
100
AcDb2dVertex
 10
8.533329262189584
 20
177.8857828331327
 30
0.0
  0
VERTEX
  5
2C6
330
2B3
100
AcDbEntity
  8
GRAU_10_
 62
     7
100
AcDbVertex
100
AcDb2dVertex
 10
8.520237899345636
 20
177.8807874446791
 30
0.0
  0
VERTEX
  5
2C7
330
2B3
100
AcDbEntity
  8
GRAU_10_
 62
     7
100
AcDbVertex
100
AcDb2dVertex
 10
8.508007810372998
 20
177.8744140180314
 30
0.0
  0
VERTEX
  5
2C8
330
2B3
100
AcDbEntity
  8
GRAU_10_
 62
     7
100
AcDbVertex
100
AcDb2dVertex
 10
8.49629448572315
 20
177.8680405913837
 30
0.0
  0
VERTEX
  5
2C9
330
2B3
100
AcDbEntity
  8
GRAU_10_
 62
     7
100
AcDbVertex
100
AcDb2dVertex
 10
8.484581161073299
 20
177.8609781456389
 30
0.0
  0
VERTEX
  5
2CA
330
2B3
100
AcDbEntity
  8
GRAU_10_
 62
     7
100
AcDbVertex
100
AcDb2dVertex
 10
8.474418129391813
 20
177.8528821712486
 30
0.0
  0
VERTEX
  5
2CB
330
2B3
100
AcDbEntity
  8
GRAU_10_
 62
     7
100
AcDbVertex
100
AcDb2dVertex
 10
8.464944116807375
 20
177.8444416873097
 30
0.0
  0
VERTEX
  5
2CC
330
2B3
100
AcDbEntity
  8
GRAU_10_
 62
     7
100
AcDbVertex
100
AcDb2dVertex
 10
8.455297849448677
 20
177.8356566938224
 30
0.0
  0
VERTEX
  5
2CD
330
2B3
100
AcDbEntity
  8
GRAU_10_
 62
     7
100
AcDbVertex
100
AcDb2dVertex
 10
8.439450410216526
 20
177.8168809234277
 30
0.0
  0
VERTEX
  5
2CE
330
2B3
100
AcDbEntity
  8
GRAU_10_
 62
     7
100
AcDbVertex
100
AcDb2dVertex
 10
8.426014537824052
 20
177.7968993696133
 30
0.0
  0
SEQEND
  5
2CF
330
2B3
100
AcDbEntity
  8
GRAU_10_
  0
POLYLINE
  5
2D0
330
1F
100
AcDbEntity
  8
GRAU_10_
 62
     7
100
AcDb2dPolyline
 66
     1
 10
0.0
 20
0.0
 30
0.0
  0
VERTEX
  5
2D1
330
2D0
100
AcDbEntity
  8
GRAU_10_
 62
     7
100
AcDbVertex
100
AcDb2dVertex
 10
7.657069225516288
 20
176.4643364359187
 30
0.0
  0
VERTEX
  5
2D2
330
2D0
100
AcDbEntity
  8
GRAU_10_
 62
     7
100
AcDbVertex
100
AcDb2dVertex
 10
8.041197372121646
 20
177.1297566288947
 30
0.0
  0
VERTEX
  5
2D3
330
2D0
100
AcDbEntity
  8
GRAU_10_
 62
     7
100
AcDbVertex
100
AcDb2dVertex
 10
8.426014537824052
 20
177.7968993696133
 30
0.0
  0
SEQEND
  5
2D4
330
2D0
100
AcDbEntity
  8
GRAU_10_
  0
POLYLINE
  5
2D5
330
1F
100
AcDbEntity
  8
GRAU_10_
 62
     7
100
AcDb2dPolyline
 66
     1
 10
0.0
 20
0.0
 30
0.0
  0
VERTEX
  5
2D6
330
2D5
100
AcDbEntity
  8
GRAU_10_
 62
     7
100
AcDbVertex
100
AcDb2dVertex
 10
24.80554876767014
 20
202.2319281178448
 30
0.0
  0
VERTEX
  5
2D7
330
2D5
100
AcDbEntity
  8
GRAU_10_
 62
     7
100
AcDbVertex
100
AcDb2dVertex
 10
24.94111327501472
 20
202.0672525536499
 30
0.0
  0
VERTEX
  5
2D8
330
2D5
100
AcDbEntity
  8
GRAU_10_
 62
     7
100
AcDbVertex
100
AcDb2dVertex
 10
25.07822807532767
 20
201.9018879703579
 30
0.0
  0
VERTEX
  5
2D9
330
2D5
100
AcDbEntity
  8
GRAU_10_
 62
     7
100
AcDbVertex
100
AcDb2dVertex
 10
25.21654865906045
 20
201.7349730940975
 30
0.0
  0
VERTEX
  5
2DA
330
2D5
100
AcDbEntity
  8
GRAU_10_
 62
     7
100
AcDbVertex
100
AcDb2dVertex
 10
25.35659179053585
 20
201.5670246891916
 30
0.0
  0
SEQEND
  5
2DB
330
2D5
100
AcDbEntity
  8
GRAU_10_
  0
POLYLINE
  5
2DC
330
1F
100
AcDbEntity
  8
GRAU_10_
 62
     7
100
AcDb2dPolyline
 66
     1
 10
0.0
 20
0.0
 30
0.0
  0
VERTEX
  5
2DD
330
2DC
100
AcDbEntity
  8
GRAU_10_
 62
     7
100
AcDbVertex
100
AcDb2dVertex
 10
24.80554876767014
 20
202.2319281178448
 30
0.0
  0
VERTEX
  5
2DE
330
2DC
100
AcDbEntity
  8
GRAU_10_
 62
     7
100
AcDbVertex
100
AcDb2dVertex
 10
22.82014023952066
 20
204.4013047449066
 30
0.0
  0
VERTEX
  5
2DF
330
2DC
100
AcDbEntity
  8
GRAU_10_
 62
     7
100
AcDbVertex
100
AcDb2dVertex
 10
20.83679876866233
 20
206.5446709010548
 30
0.0
  0
SEQEND
  5
2E0
330
2DC
100
AcDbEntity
  8
GRAU_10_
  0
POLYLINE
  5
2E1
330
1F
100
AcDbEntity
  8
GRAU_10_
 62
     7
100
AcDb2dPolyline
 66
     1
 10
0.0
 20
0.0
 30
0.0
  0
VERTEX
  5
2E2
330
2E1
100
AcDbEntity
  8
GRAU_10_
 62
     7
100
AcDbVertex
100
AcDb2dVertex
 10
28.71297606704051
 20
195.8905408581454
 30
0.0
  0
VERTEX
  5
2E3
330
2E1
100
AcDbEntity
  8
GRAU_10_
 62
     7
100
AcDbVertex
100
AcDb2dVertex
 10
29.78216145088779
 20
195.7055392305875
 30
0.0
  0
VERTEX
  5
2E4
330
2E1
100
AcDbEntity
  8
GRAU_10_
 62
     7
100
AcDbVertex
100
AcDb2dVertex
 10
29.23042940892503
 20
195.6970987466487
 30
0.0
  0
VERTEX
  5
2E5
330
2E1
100
AcDbEntity
  8
GRAU_10_
 62
     7
100
AcDbVertex
100
AcDb2dVertex
 10
28.68575981270703
 20
195.8760714571074
 30
0.0
  0
VERTEX
  5
2E6
330
2E1
100
AcDbEntity
  8
GRAU_10_
 62
     7
100
AcDbVertex
100
AcDb2dVertex
 10
28.41687011008328
 20
196.0340290851061
 30
0.0
  0
VERTEX
  5
2E7
330
2E1
100
AcDbEntity
  8
GRAU_10_
 62
     7
100
AcDbVertex
100
AcDb2dVertex
 10
28.15418157933298
 20
196.236083935316
 30
0.0
  0
VERTEX
  5
2E8
330
2E1
100
AcDbEntity
  8
GRAU_10_
 62
     7
100
AcDbVertex
100
AcDb2dVertex
 10
27.89907225865023
 20
196.4799966956717
 30
0.0
  0
VERTEX
  5
2E9
330
2E1
100
AcDbEntity
  8
GRAU_10_
 62
     7
100
AcDbVertex
100
AcDb2dVertex
 10
27.65136989326077
 20
196.7635280541078
 30
0.0
  0
VERTEX
  5
2EA
330
2E1
100
AcDbEntity
  8
GRAU_10_
 62
     7
100
AcDbVertex
100
AcDb2dVertex
 10
27.41228026658443
 20
197.0887450679153
 30
0.0
  0
VERTEX
  5
2EB
330
2E1
100
AcDbEntity
  8
GRAU_10_
 62
     7
100
AcDbVertex
100
AcDb2dVertex
 10
27.18145886907269
 20
197.4532361702548
 30
0.0
  0
VERTEX
  5
2EC
330
2E1
100
AcDbEntity
  8
GRAU_10_
 62
     7
100
AcDbVertex
100
AcDb2dVertex
 10
26.96286756053359
 20
197.8514892083496
 30
0.0
  0
VERTEX
  5
2ED
330
2E1
100
AcDbEntity
  8
GRAU_10_
 62
     7
100
AcDbVertex
100
AcDb2dVertex
 10
26.75685085051565
 20
198.2816093796831
 30
0.0
  0
VERTEX
  5
2EE
330
2E1
100
AcDbEntity
  8
GRAU_10_
 62
     7
100
AcDbVertex
100
AcDb2dVertex
 10
26.56340873901887
 20
198.7437689390293
 30
0.0
  0
VERTEX
  5
2EF
330
2E1
100
AcDbEntity
  8
GRAU_10_
 62
     7
100
AcDbVertex
100
AcDb2dVertex
 10
26.38288573559178
 20
199.2376233768399
 30
0.0
  0
VERTEX
  5
2F0
330
2E1
100
AcDbEntity
  8
GRAU_10_
 62
     7
100
AcDbVertex
100
AcDb2dVertex
 10
26.2156263497829
 20
199.7617946549207
 30
0.0
  0
VERTEX
  5
2F1
330
2E1
100
AcDbEntity
  8
GRAU_10_
 62
     7
100
AcDbVertex
100
AcDb2dVertex
 10
26.06318087456059
 20
200.3131821873349
 30
0.0
  0
SEQEND
  5
2F2
330
2E1
100
AcDbEntity
  8
GRAU_10_
  0
POLYLINE
  5
2F3
330
1F
100
AcDbEntity
  8
GRAU_10_
 62
     7
100
AcDb2dPolyline
 66
     1
 10
0.0
 20
0.0
 30
0.0
  0
VERTEX
  5
2F4
330
2F3
100
AcDbEntity
  8
GRAU_10_
 62
     7
100
AcDbVertex
100
AcDb2dVertex
 10
28.59928791602726
 20
133.1889417527271
 30
0.0
  0
VERTEX
  5
2F5
330
2F3
100
AcDbEntity
  8
GRAU_10_
 62
     7
100
AcDbVertex
100
AcDb2dVertex
 10
30.45257703231741
 20
135.835464104496
 30
0.0
  0
SEQEND
  5
2F6
330
2F3
100
AcDbEntity
  8
GRAU_10_
  0
POLYLINE
  5
2F7
330
1F
100
AcDbEntity
  8
GRAU_10_
 62
     7
100
AcDb2dPolyline
 66
     1
 10
0.0
 20
0.0
 30
0.0
  0
VERTEX
  5
2F8
330
2F7
100
AcDbEntity
  8
GRAU_10_
 62
     7
100
AcDbVertex
100
AcDb2dVertex
 10
28.59928791602726
 20
133.1889417527271
 30
0.0
  0
VERTEX
  5
2F9
330
2F7
100
AcDbEntity
  8
GRAU_10_
 62
     7
100
AcDbVertex
100
AcDb2dVertex
 10
6.999400497382094
 20
133.1889417527271
 30
0.0
  0
SEQEND
  5
2FA
330
2F7
100
AcDbEntity
  8
GRAU_10_
  0
POLYLINE
  5
2FB
330
1F
100
AcDbEntity
  8
GRAU_10_
 62
     7
100
AcDb2dPolyline
 66
     1
 10
0.0
 20
0.0
 30
0.0
  0
VERTEX
  5
2FC
330
2FB
100
AcDbEntity
  8
GRAU_10_
 62
     7
100
AcDbVertex
100
AcDb2dVertex
 10
20.09954833481886
 20
146.1884928019946
 30
0.0
  0
VERTEX
  5
2FD
330
2FB
100
AcDbEntity
  8
GRAU_10_
 62
     7
100
AcDbVertex
100
AcDb2dVertex
 10
6.999400497382094
 20
146.1884928019946
 30
0.0
  0
SEQEND
  5
2FE
330
2FB
100
AcDbEntity
  8
GRAU_10_
  0
POLYLINE
  5
2FF
330
1F
100
AcDbEntity
  8
GRAU_10_
 62
     7
100
AcDb2dPolyline
 66
     1
 10
0.0
 20
0.0
 30
0.0
  0
VERTEX
  5
300
330
2FF
100
AcDbEntity
  8
GRAU_10_
 62
     7
100
AcDbVertex
100
AcDb2dVertex
 10
30.45257703231741
 20
135.835464104496
 30
0.0
  0
VERTEX
  5
301
330
2FF
100
AcDbEntity
  8
GRAU_10_
 62
     7
100
AcDbVertex
100
AcDb2dVertex
 10
20.09954833481886
 20
146.1884928019946
 30
0.0
  0
SEQEND
  5
302
330
2FF
100
AcDbEntity
  8
GRAU_10_
  0
POLYLINE
  5
303
330
1F
100
AcDbEntity
  8
GRAU_10_
 62
     7
100
AcDb2dPolyline
 66
     1
 10
0.0
 20
0.0
 30
0.0
  0
VERTEX
  5
304
330
303
100
AcDbEntity
  8
GRAU_10_
 62
     7
100
AcDbVertex
100
AcDb2dVertex
 10
6.999400497382094
 20
133.1889417527271
 30
0.0
  0
VERTEX
  5
305
330
303
100
AcDbEntity
  8
GRAU_10_
 62
     7
100
AcDbVertex
100
AcDb2dVertex
 10
6.999400497382094
 20
146.1884928019946
 30
0.0
  0
SEQEND
  5
306
330
303
100
AcDbEntity
  8
GRAU_10_
  0
POLYLINE
  5
307
330
1F
100
AcDbEntity
  8
GRAU_10_
 62
     7
100
AcDb2dPolyline
 66
     1
 10
0.0
 20
0.0
 30
0.0
  0
VERTEX
  5
308
330
307
100
AcDbEntity
  8
GRAU_10_
 62
     7
100
AcDbVertex
100
AcDb2dVertex
 10
28.59928791602726
 20
109.7069986704899
 30
0.0
  0
VERTEX
  5
309
330
307
100
AcDbEntity
  8
GRAU_10_
 62
     7
100
AcDbVertex
100
AcDb2dVertex
 10
28.59928791602726
 20
133.1889417527271
 30
0.0
  0
SEQEND
  5
30A
330
307
100
AcDbEntity
  8
GRAU_10_
  0
POLYLINE
  5
30B
330
1F
100
AcDbEntity
  8
GRAU_10_
 62
     7
100
AcDb2dPolyline
 66
     1
 10
0.0
 20
0.0
 30
0.0
  0
VERTEX
  5
30C
330
30B
100
AcDbEntity
  8
GRAU_10_
 62
     7
100
AcDbVertex
100
AcDb2dVertex
 10
6.999400497382094
 20
103.6885891125327
 30
0.0
  0
VERTEX
  5
30D
330
30B
100
AcDbEntity
  8
GRAU_10_
 62
     7
100
AcDbVertex
100
AcDb2dVertex
 10
6.999400497382094
 20
133.1889417527271
 30
0.0
  0
SEQEND
  5
30E
330
30B
100
AcDbEntity
  8
GRAU_10_
  0
POLYLINE
  5
30F
330
1F
100
AcDbEntity
  8
GRAU_10_
 62
     7
100
AcDb2dPolyline
 66
     1
 10
0.0
 20
0.0
 30
0.0
  0
VERTEX
  5
310
330
30F
100
AcDbEntity
  8
GRAU_10_
 62
     7
100
AcDbVertex
100
AcDb2dVertex
 10
30.45257703231741
 20
135.835464104496
 30
0.0
  0
VERTEX
  5
311
330
30F
100
AcDbEntity
  8
GRAU_10_
 62
     7
100
AcDbVertex
100
AcDb2dVertex
 10
33.09978840318339
 20
133.1889417527271
 30
0.0
  0
VERTEX
  5
312
330
30F
100
AcDbEntity
  8
GRAU_10_
 62
     7
100
AcDbVertex
100
AcDb2dVertex
 10
33.09978840318339
 20
107.188461615998
 30
0.0
  0
VERTEX
  5
313
330
30F
100
AcDbEntity
  8
GRAU_10_
 62
     7
100
AcDbVertex
100
AcDb2dVertex
 10
30.55334607526097
 20
101.7290188005226
 30
0.0
  0
SEQEND
  5
314
330
30F
100
AcDbEntity
  8
GRAU_10_
  0
POLYLINE
  5
315
330
1F
100
AcDbEntity
  8
GRAU_10_
 62
     7
100
AcDb2dPolyline
 66
     1
 10
0.0
 20
0.0
 30
0.0
  0
VERTEX
  5
316
330
315
100
AcDbEntity
  8
GRAU_10_
 62
     7
100
AcDbVertex
100
AcDb2dVertex
 10
24.80554876767014
 20
91.57391083865167
 30
0.0
  0
VERTEX
  5
317
330
315
100
AcDbEntity
  8
GRAU_10_
 62
     7
100
AcDbVertex
100
AcDb2dVertex
 10
19.56900363009039
 20
92.67806394167424
 30
0.0
  0
VERTEX
  5
318
330
315
100
AcDbEntity
  8
GRAU_10_
 62
     7
100
AcDbVertex
100
AcDb2dVertex
 10
14.23875189531184
 20
93.46061738114874
 30
0.0
  0
SEQEND
  5
319
330
315
100
AcDbEntity
  8
GRAU_10_
  0
POLYLINE
  5
31A
330
1F
100
AcDbEntity
  8
GRAU_10_
 62
     7
100
AcDb2dPolyline
 66
     1
 10
0.0
 20
0.0
 30
0.0
  0
VERTEX
  5
31B
330
31A
100
AcDbEntity
  8
GRAU_10_
 62
     7
100
AcDbVertex
100
AcDb2dVertex
 10
6.999400497382094
 20
99.8888210470764
 30
0.0
  0
VERTEX
  5
31C
330
31A
100
AcDbEntity
  8
GRAU_10_
 62
     7
100
AcDbVertex
100
AcDb2dVertex
 10
6.999400497382094
 20
101.7529622141451
 30
0.0
  0
VERTEX
  5
31D
330
31A
100
AcDbEntity
  8
GRAU_10_
 62
     7
100
AcDbVertex
100
AcDb2dVertex
 10
6.999400497382094
 20
103.6885891125327
 30
0.0
  0
SEQEND
  5
31E
330
31A
100
AcDbEntity
  8
GRAU_10_
  0
SPLINE
  5
31F
330
1F
100
AcDbEntity
  8
GRAU_10_
 62
     7
100
AcDbSpline
210
0.0
220
0.0
230
1.0
 70
    11
 71
     3
 72
    17
 73
    13
 74
     0
 42
0.0000000001
 43
0.0000000001
 40
0.0
 40
0.0
 40
0.0
 40
0.0
 40
1.0
 40
1.0
 40
1.0
 40
2.0
 40
2.0
 40
2.0
 40
3.0
 40
3.0
 40
3.0
 40
4.0
 40
4.0
 40
4.0
 40
4.0
 10
28.09906005156899
 20
121.1884683941821
 30
0.0
 10
28.09906005156899
 20
126.1588799055263
 30
0.0
 10
24.0700208815693
 20
130.188608094623
 30
0.0
 10
19.09978162499936
 20
130.188608094623
 30
0.0
 10
14.12868109455811
 20
130.188608094623
 30
0.0
 10
10.0992974150099
 20
126.1588799055263
 30
0.0
 10
10.0992974150099
 20
121.1884683941821
 30
0.0
 10
10.0992974150099
 20
116.2182291376121
 30
0.0
 10
14.12868109455811
 20
112.1885009485154
 30
0.0
 10
19.09978162499936
 20
112.1885009485154
 30
0.0
 10
24.0700208815693
 20
112.1885009485154
 30
0.0
 10
28.09906005156899
 20
116.2182291376121
 30
0.0
 10
28.09906005156899
 20
121.1884683941821
 30
0.0
  0
SPLINE
  5
320
330
1F
100
AcDbEntity
  8
GRAU_10_
 62
     7
100
AcDbSpline
210
0.0
220
0.0
230
1.0
 70
     8
 71
     3
 72
    11
 73
     7
 74
     0
 42
0.0000000001
 43
0.0000000001
 40
0.0
 40
0.0
 40
0.0
 40
0.0
 40
1.0
 40
1.0
 40
1.0
 40
2.0
 40
2.0
 40
2.0
 40
2.0
 10
14.19930555200573
 20
121.1884683941821
 30
0.0
 10
14.19930555200573
 20
118.4823458905183
 30
0.0
 10
16.39365912133561
 20
116.2888535950597
 30
0.0
 10
19.09978162499936
 20
116.2888535950597
 30
0.0
 10
21.80590412866311
 20
116.2888535950597
 30
0.0
 10
23.99905191457315
 20
118.4823458905183
 30
0.0
 10
23.99905191457315
 20
121.1884683941821
 30
0.0
  0
SPLINE
  5
321
330
1F
100
AcDbEntity
  8
GRAU_10_
 62
     7
100
AcDbSpline
210
0.0
220
0.0
230
1.0
 70
    11
 71
     3
 72
    17
 73
    13
 74
     0
 42
0.0000000001
 43
0.0000000001
 40
0.0
 40
0.0
 40
0.0
 40
0.0
 40
1.0
 40
1.0
 40
1.0
 40
2.0
 40
2.0
 40
2.0
 40
3.0
 40
3.0
 40
3.0
 40
4.0
 40
4.0
 40
4.0
 40
4.0
 10
24.59918754810368
 20
121.1884683941821
 30
0.0
 10
24.59918754810368
 20
124.2263535930754
 30
0.0
 10
22.13680555002135
 20
126.6887355911577
 30
0.0
 10
19.09978162499936
 20
126.6887355911577
 30
0.0
 10
16.06155191655753
 20
126.6887355911577
 30
0.0
 10
13.59951442802373
 20
124.2263535930754
 30
0.0
 10
13.59951442802373
 20
121.1884683941821
 30
0.0
 10
13.59951442802373
 20
118.1510999596115
 30
0.0
 10
16.06155191655753
 20
115.6883734519807
 30
0.0
 10
19.09978162499936
 20
115.6883734519807
 30
0.0
 10
22.13680555002135
 20
115.6883734519807
 30
0.0
 10
24.59918754810368
 20
118.1510999596115
 30
0.0
 10
24.59918754810368
 20
121.1884683941821
 30
0.0
  0
SPLINE
  5
322
330
1F
100
AcDbEntity
  8
GRAU_10_
 62
     7
100
AcDbSpline
210
0.0
220
0.0
230
1.0
 70
     8
 71
     3
 72
    11
 73
     7
 74
     0
 42
0.0000000001
 43
0.0000000001
 40
0.0
 40
0.0
 40
0.0
 40
0.0
 40
1.0
 40
1.0
 40
1.0
 40
2.0
 40
2.0
 40
2.0
 40
2.0
 10
23.99905191457315
 20
121.1884683941821
 30
0.0
 10
23.99905191457315
 20
123.8947631526201
 30
0.0
 10
21.80590412866311
 20
126.0885999576272
 30
0.0
 10
19.09978162499936
 20
126.0885999576272
 30
0.0
 10
16.39365912133561
 20
126.0885999576272
 30
0.0
 10
14.19930555200573
 20
123.8947631526201
 30
0.0
 10
14.19930555200573
 20
121.1884683941821
 30
0.0
  0
POLYLINE
  5
323
330
1F
100
AcDbEntity
  8
GRAU_10_
 62
     7
100
AcDb2dPolyline
 66
     1
 10
0.0
 20
0.0
 30
0.0
  0
VERTEX
  5
324
330
323
100
AcDbEntity
  8
GRAU_10_
 62
     7
100
AcDbVertex
100
AcDb2dVertex
 10
10.85928547905601
 20
86.84241669920954
 30
0.0
  0
VERTEX
  5
325
330
323
100
AcDbEntity
  8
GRAU_10_
 62
     7
100
AcDbVertex
100
AcDb2dVertex
 10
12.40957844741844
 20
87.02724607199319
 30
0.0
  0
VERTEX
  5
326
330
323
100
AcDbEntity
  8
GRAU_10_
 62
     7
100
AcDbVertex
100
AcDb2dVertex
 10
13.91491291969836
 20
87.21465926639078
 30
0.0
  0
SEQEND
  5
327
330
323
100
AcDbEntity
  8
GRAU_10_
  0
POLYLINE
  5
328
330
1F
100
AcDbEntity
  8
GRAU_10_
 62
     7
100
AcDb2dPolyline
 66
     1
 10
0.0
 20
0.0
 30
0.0
  0
VERTEX
  5
329
330
328
100
AcDbEntity
  8
GRAU_10_
 62
     7
100
AcDbVertex
100
AcDb2dVertex
 10
10.85928547905601
 20
87.19174938141387
 30
0.0
  0
VERTEX
  5
32A
330
328
100
AcDbEntity
  8
GRAU_10_
 62
     7
100
AcDbVertex
100
AcDb2dVertex
 10
12.40044894438253
 20
87.3362711370201
 30
0.0
  0
VERTEX
  5
32B
330
328
100
AcDbEntity
  8
GRAU_10_
 62
     7
100
AcDbVertex
100
AcDb2dVertex
 10
13.89734293272358
 20
87.56743704408036
 30
0.0
  0
SEQEND
  5
32C
330
328
100
AcDbEntity
  8
GRAU_10_
  0
POLYLINE
  5
32D
330
1F
100
AcDbEntity
  8
GRAU_10_
 62
     7
100
AcDb2dPolyline
 66
     1
 10
0.0
 20
0.0
 30
0.0
  0
VERTEX
  5
32E
330
32D
100
AcDbEntity
  8
GRAU_10_
 62
     7
100
AcDbVertex
100
AcDb2dVertex
 10
20.83679876866233
 20
89.43398977798873
 30
0.0
  0
VERTEX
  5
32F
330
32D
100
AcDbEntity
  8
GRAU_10_
 62
     7
100
AcDbVertex
100
AcDb2dVertex
 10
23.12382540654543
 20
90.492667620606
 30
0.0
  0
VERTEX
  5
330
330
32D
100
AcDbEntity
  8
GRAU_10_
 62
     7
100
AcDbVertex
100
AcDb2dVertex
 10
25.35659179053585
 20
91.66985674791587
 30
0.0
  0
SEQEND
  5
331
330
32D
100
AcDbEntity
  8
GRAU_10_
  0
POLYLINE
  5
332
330
1F
100
AcDbEntity
  8
GRAU_10_
 62
     7
100
AcDb2dPolyline
 66
     1
 10
0.0
 20
0.0
 30
0.0
  0
VERTEX
  5
333
330
332
100
AcDbEntity
  8
GRAU_10_
 62
     7
100
AcDbVertex
100
AcDb2dVertex
 10
28.59928791602726
 20
109.7069986704899
 30
0.0
  0
VERTEX
  5
334
330
332
100
AcDbEntity
  8
GRAU_10_
 62
     7
100
AcDbVertex
100
AcDb2dVertex
 10
26.33034802944172
 20
109.2829074162557
 30
0.0
  0
VERTEX
  5
335
330
332
100
AcDbEntity
  8
GRAU_10_
 62
     7
100
AcDbVertex
100
AcDb2dVertex
 10
24.21247557988438
 20
108.839523627304
 30
0.0
  0
VERTEX
  5
336
330
332
100
AcDbEntity
  8
GRAU_10_
 62
     7
100
AcDbVertex
100
AcDb2dVertex
 10
22.25359428697132
 20
108.3790866157004
 30
0.0
  0
VERTEX
  5
337
330
332
100
AcDbEntity
  8
GRAU_10_
 62
     7
100
AcDbVertex
100
AcDb2dVertex
 10
20.45904404870468
 20
107.9026299100903
 30
0.0
  0
VERTEX
  5
338
330
332
100
AcDbEntity
  8
GRAU_10_
 62
     7
100
AcDbVertex
100
AcDb2dVertex
 10
18.83382025353808
 20
107.4108425295709
 30
0.0
  0
VERTEX
  5
339
330
332
100
AcDbEntity
  8
GRAU_10_
 62
     7
100
AcDbVertex
100
AcDb2dVertex
 10
17.38274603515084
 20
106.9063082957561
 30
0.0
  0
VERTEX
  5
33A
330
332
100
AcDbEntity
  8
GRAU_10_
 62
     7
100
AcDbVertex
100
AcDb2dVertex
 10
16.11064452722234
 20
106.3898884825171
 30
0.0
  0
VERTEX
  5
33B
330
332
100
AcDbEntity
  8
GRAU_10_
 62
     7
100
AcDbVertex
100
AcDb2dVertex
 10
15.02164984433487
 20
105.8638224019195
 30
0.0
  0
VERTEX
  5
33C
330
332
100
AcDbEntity
  8
GRAU_10_
 62
     7
100
AcDbVertex
100
AcDb2dVertex
 10
14.11851806287662
 20
105.3286268182859
 30
0.0
  0
VERTEX
  5
33D
330
332
100
AcDbEntity
  8
GRAU_10_
 62
     7
100
AcDbVertex
100
AcDb2dVertex
 10
13.40383300446154
 20
104.7868855532304
 30
0.0
  0
VERTEX
  5
33E
330
332
100
AcDbEntity
  8
GRAU_10_
 62
     7
100
AcDbVertex
100
AcDb2dVertex
 10
12.87948947160652
 20
104.2392876258499
 30
0.0
  0
VERTEX
  5
33F
330
332
100
AcDbEntity
  8
GRAU_10_
 62
     7
100
AcDbVertex
100
AcDb2dVertex
 10
12.54789903115122
 20
103.6885891125327
 30
0.0
  0
SEQEND
  5
340
330
332
100
AcDbEntity
  8
GRAU_10_
  0
POLYLINE
  5
341
330
1F
100
AcDbEntity
  8
GRAU_10_
 62
     7
100
AcDb2dPolyline
 66
     1
 10
0.0
 20
0.0
 30
0.0
  0
VERTEX
  5
342
330
341
100
AcDbEntity
  8
GRAU_10_
 62
     7
100
AcDbVertex
100
AcDb2dVertex
 10
28.59928791602726
 20
109.7069986704899
 30
0.0
  0
VERTEX
  5
343
330
341
100
AcDbEntity
  8
GRAU_10_
 62
     7
100
AcDbVertex
100
AcDb2dVertex
 10
29.20217962594598
 20
108.7392713486832
 30
0.0
  0
VERTEX
  5
344
330
341
100
AcDbEntity
  8
GRAU_10_
 62
     7
100
AcDbVertex
100
AcDb2dVertex
 10
29.70705836930935
 20
107.6862779136166
 30
0.0
  0
VERTEX
  5
345
330
341
100
AcDbEntity
  8
GRAU_10_
 62
     7
100
AcDbVertex
100
AcDb2dVertex
 10
30.1063449360498
 20
106.5652438427163
 30
0.0
  0
VERTEX
  5
346
330
341
100
AcDbEntity
  8
GRAU_10_
 62
     7
100
AcDbVertex
100
AcDb2dVertex
 10
30.39401040906817
 20
105.3908107917947
 30
0.0
  0
VERTEX
  5
347
330
341
100
AcDbEntity
  8
GRAU_10_
 62
     7
100
AcDbVertex
100
AcDb2dVertex
 10
30.56609292855639
 20
104.1814100216977
 30
0.0
  0
VERTEX
  5
348
330
341
100
AcDbEntity
  8
GRAU_10_
 62
     7
100
AcDbVertex
100
AcDb2dVertex
 10
30.6193196538035
 20
102.954439264626
 30
0.0
  0
VERTEX
  5
349
330
341
100
AcDbEntity
  8
GRAU_10_
 62
     7
100
AcDbVertex
100
AcDb2dVertex
 10
30.55334607526097
 20
101.7290188005226
 30
0.0
  0
VERTEX
  5
34A
330
341
100
AcDbEntity
  8
GRAU_10_
 62
     7
100
AcDbVertex
100
AcDb2dVertex
 10
29.78216145088779
 20
100.0743394389571
 30
0.0
  0
SEQEND
  5
34B
330
341
100
AcDbEntity
  8
GRAU_10_
  0
POLYLINE
  5
34C
330
1F
100
AcDbEntity
  8
GRAU_10_
 62
     7
100
AcDb2dPolyline
 66
     1
 10
0.0
 20
0.0
 30
0.0
  0
VERTEX
  5
34D
330
34C
100
AcDbEntity
  8
GRAU_10_
 62
     7
100
AcDbVertex
100
AcDb2dVertex
 10
20.83679876866233
 20
89.43398977798873
 30
0.0
  0
VERTEX
  5
34E
330
34C
100
AcDbEntity
  8
GRAU_10_
 62
     7
100
AcDbVertex
100
AcDb2dVertex
 10
20.47799207387356
 20
89.28085528366937
 30
0.0
  0
VERTEX
  5
34F
330
34C
100
AcDbEntity
  8
GRAU_10_
 62
     7
100
AcDbVertex
100
AcDb2dVertex
 10
20.1090223474033
 20
89.12909882754411
 30
0.0
  0
VERTEX
  5
350
330
34C
100
AcDbEntity
  8
GRAU_10_
 62
     7
100
AcDbVertex
100
AcDb2dVertex
 10
19.72971733447729
 20
88.97785913574165
 30
0.0
  0
VERTEX
  5
351
330
34C
100
AcDbEntity
  8
GRAU_10_
 62
     7
100
AcDbVertex
100
AcDb2dVertex
 10
19.34076605419259
 20
88.82713620826198
 30
0.0
  0
VERTEX
  5
352
330
34C
100
AcDbEntity
  8
GRAU_10_
 62
     7
100
AcDbVertex
100
AcDb2dVertex
 10
18.94130723267787
 20
88.67830808329917
 30
0.0
  0
VERTEX
  5
353
330
34C
100
AcDbEntity
  8
GRAU_10_
 62
     7
100
AcDbVertex
100
AcDb2dVertex
 10
18.53254665335298
 20
88.53120250607901
 30
0.0
  0
VERTEX
  5
354
330
34C
100
AcDbEntity
  8
GRAU_10_
 62
     7
100
AcDbVertex
100
AcDb2dVertex
 10
18.11379529712086
 20
88.38581947660147
 30
0.0
  0
VERTEX
  5
355
330
34C
100
AcDbEntity
  8
GRAU_10_
 62
     7
100
AcDbVertex
100
AcDb2dVertex
 10
17.68436414488447
 20
88.24233124964081
 30
0.0
  0
VERTEX
  5
356
330
34C
100
AcDbEntity
  8
GRAU_10_
 62
     7
100
AcDbVertex
100
AcDb2dVertex
 10
17.24511447051511
 20
88.1014268442941
 30
0.0
  0
VERTEX
  5
357
330
34C
100
AcDbEntity
  8
GRAU_10_
 62
     7
100
AcDbVertex
100
AcDb2dVertex
 10
16.79639078356132
 20
87.96396753443263
 30
0.0
  0
VERTEX
  5
358
330
34C
100
AcDbEntity
  8
GRAU_10_
 62
     7
100
AcDbVertex
100
AcDb2dVertex
 10
16.56780869811499
 20
87.89541013427615
 30
0.0
  0
VERTEX
  5
359
330
34C
100
AcDbEntity
  8
GRAU_10_
 62
     7
100
AcDbVertex
100
AcDb2dVertex
 10
16.33715955537752
 20
87.82840302708804
 30
0.0
  0
VERTEX
  5
35A
330
34C
100
AcDbEntity
  8
GRAU_10_
 62
     7
100
AcDbVertex
100
AcDb2dVertex
 10
16.22071532797607
 20
87.79567461997817
 30
0.0
  0
VERTEX
  5
35B
330
34C
100
AcDbEntity
  8
GRAU_10_
 62
     7
100
AcDbVertex
100
AcDb2dVertex
 10
16.1039265910261
 20
87.7624294485455
 30
0.0
  0
VERTEX
  5
35C
330
34C
100
AcDbEntity
  8
GRAU_10_
 62
     7
100
AcDbVertex
100
AcDb2dVertex
 10
15.98575981588203
 20
87.7293565318871
 30
0.0
  0
VERTEX
  5
35D
330
34C
100
AcDbEntity
  8
GRAU_10_
 62
     7
100
AcDbVertex
100
AcDb2dVertex
 10
15.86793755028649
 20
87.6968003795515
 30
0.0
  0
VERTEX
  5
35E
330
34C
100
AcDbEntity
  8
GRAU_10_
 62
     7
100
AcDbVertex
100
AcDb2dVertex
 10
15.39061957080512
 20
87.56950410137152
 30
0.0
  0
VERTEX
  5
35F
330
34C
100
AcDbEntity
  8
GRAU_10_
 62
     7
100
AcDbVertex
100
AcDb2dVertex
 10
14.906239145579
 20
87.44599742822531
 30
0.0
  0
VERTEX
  5
360
330
34C
100
AcDbEntity
  8
GRAU_10_
 62
     7
100
AcDbVertex
100
AcDb2dVertex
 10
14.41445176505958
 20
87.32783065308124
 30
0.0
  0
VERTEX
  5
361
330
34C
100
AcDbEntity
  8
GRAU_10_
 62
     7
100
AcDbVertex
100
AcDb2dVertex
 10
13.91491291969836
 20
87.21465926639078
 30
0.0
  0
SEQEND
  5
362
330
34C
100
AcDbEntity
  8
GRAU_10_
  0
POLYLINE
  5
363
330
1F
100
AcDbEntity
  8
GRAU_10_
 62
     7
100
AcDb2dPolyline
 66
     1
 10
0.0
 20
0.0
 30
0.0
  0
VERTEX
  5
364
330
363
100
AcDbEntity
  8
GRAU_10_
 62
     7
100
AcDbVertex
100
AcDb2dVertex
 10
13.89734293272358
 20
87.56743704408036
 30
0.0
  0
VERTEX
  5
365
330
363
100
AcDbEntity
  8
GRAU_10_
 62
     7
100
AcDbVertex
100
AcDb2dVertex
 10
15.8467502130522
 20
87.90746796847452
 30
0.0
  0
VERTEX
  5
366
330
363
100
AcDbEntity
  8
GRAU_10_
 62
     7
100
AcDbVertex
100
AcDb2dVertex
 10
17.65766465487378
 20
88.35481361723421
 30
0.0
  0
VERTEX
  5
367
330
363
100
AcDbEntity
  8
GRAU_10_
 62
     7
100
AcDbVertex
100
AcDb2dVertex
 10
18.51239284476426
 20
88.62146400779255
 30
0.0
  0
VERTEX
  5
368
330
363
100
AcDbEntity
  8
GRAU_10_
 62
     7
100
AcDbVertex
100
AcDb2dVertex
 10
19.33146429638241
 20
88.91894800294388
 30
0.0
  0
VERTEX
  5
369
330
363
100
AcDbEntity
  8
GRAU_10_
 62
     7
100
AcDbVertex
100
AcDb2dVertex
 10
20.10729979966068
 20
89.24554305494556
 30
0.0
  0
VERTEX
  5
36A
330
363
100
AcDbEntity
  8
GRAU_10_
 62
     7
100
AcDbVertex
100
AcDb2dVertex
 10
20.83679876866233
 20
89.60262720199171
 30
0.0
  0
SEQEND
  5
36B
330
363
100
AcDbEntity
  8
GRAU_10_
  0
POLYLINE
  5
36C
330
1F
100
AcDbEntity
  8
GRAU_10_
 62
     7
100
AcDb2dPolyline
 66
     1
 10
0.0
 20
0.0
 30
0.0
  0
VERTEX
  5
36D
330
36C
100
AcDbEntity
  8
GRAU_10_
 62
     7
100
AcDbVertex
100
AcDb2dVertex
 10
14.23875189531184
 20
93.46061738114874
 30
0.0
  0
VERTEX
  5
36E
330
36C
100
AcDbEntity
  8
GRAU_10_
 62
     7
100
AcDbVertex
100
AcDb2dVertex
 10
13.39677055871678
 20
93.6013495317212
 30
0.0
  0
VERTEX
  5
36F
330
36C
100
AcDbEntity
  8
GRAU_10_
 62
     7
100
AcDbVertex
100
AcDb2dVertex
 10
12.55461696734746
 20
93.722616892802
 30
0.0
  0
VERTEX
  5
370
330
36C
100
AcDbEntity
  8
GRAU_10_
 62
     7
100
AcDbVertex
100
AcDb2dVertex
 10
12.13414306337271
 20
93.77515459895204
 30
0.0
  0
VERTEX
  5
371
330
36C
100
AcDbEntity
  8
GRAU_10_
 62
     7
100
AcDbVertex
100
AcDb2dVertex
 10
11.7126356307524
 20
93.82286917142275
 30
0.0
  0
VERTEX
  5
372
330
36C
100
AcDbEntity
  8
GRAU_10_
 62
     7
100
AcDbVertex
100
AcDb2dVertex
 10
11.29198947200339
 20
93.86369355292297
 30
0.0
  0
VERTEX
  5
373
330
36C
100
AcDbEntity
  8
GRAU_10_
 62
     7
100
AcDbVertex
100
AcDb2dVertex
 10
10.87048203938307
 20
93.89900578164678
 30
0.0
  0
VERTEX
  5
374
330
36C
100
AcDbEntity
  8
GRAU_10_
 62
     7
100
AcDbVertex
100
AcDb2dVertex
 10
10.85928547905601
 20
93.90003931029236
 30
0.0
  0
SEQEND
  5
375
330
36C
100
AcDbEntity
  8
GRAU_10_
  0
POLYLINE
  5
376
330
1F
100
AcDbEntity
  8
GRAU_10_
 62
     7
100
AcDb2dPolyline
 66
     1
 10
0.0
 20
0.0
 30
0.0
  0
VERTEX
  5
377
330
376
100
AcDbEntity
  8
GRAU_10_
 62
     7
100
AcDbVertex
100
AcDb2dVertex
 10
14.23875189531184
 20
93.46061738114874
 30
0.0
  0
VERTEX
  5
378
330
376
100
AcDbEntity
  8
GRAU_10_
 62
     7
100
AcDbVertex
100
AcDb2dVertex
 10
14.0726982929228
 20
90.51351044829177
 30
0.0
  0
VERTEX
  5
379
330
376
100
AcDbEntity
  8
GRAU_10_
 62
     7
100
AcDbVertex
100
AcDb2dVertex
 10
13.89734293272358
 20
87.56743704408036
 30
0.0
  0
SEQEND
  5
37A
330
376
100
AcDbEntity
  8
GRAU_10_
  0
POLYLINE
  5
37B
330
1F
100
AcDbEntity
  8
GRAU_10_
 62
     7
100
AcDb2dPolyline
 66
     1
 10
0.0
 20
0.0
 30
0.0
  0
VERTEX
  5
37C
330
37B
100
AcDbEntity
  8
GRAU_10_
 62
     7
100
AcDbVertex
100
AcDb2dVertex
 10
24.80554876767014
 20
91.57391083865167
 30
0.0
  0
VERTEX
  5
37D
330
37B
100
AcDbEntity
  8
GRAU_10_
 62
     7
100
AcDbVertex
100
AcDb2dVertex
 10
22.82014023952066
 20
90.61824135104337
 30
0.0
  0
VERTEX
  5
37E
330
37B
100
AcDbEntity
  8
GRAU_10_
 62
     7
100
AcDbVertex
100
AcDb2dVertex
 10
20.83679876866233
 20
89.60262720199171
 30
0.0
  0
SEQEND
  5
37F
330
37B
100
AcDbEntity
  8
GRAU_10_
  0
POLYLINE
  5
380
330
1F
100
AcDbEntity
  8
GRAU_10_
 62
     7
100
AcDb2dPolyline
 66
     1
 10
0.0
 20
0.0
 30
0.0
  0
VERTEX
  5
381
330
380
100
AcDbEntity
  8
GRAU_10_
 62
     7
100
AcDbVertex
100
AcDb2dVertex
 10
24.80554876767014
 20
91.57391083865167
 30
0.0
  0
VERTEX
  5
382
330
380
100
AcDbEntity
  8
GRAU_10_
 62
     7
100
AcDbVertex
100
AcDb2dVertex
 10
24.94111327501472
 20
91.5944091567889
 30
0.0
  0
VERTEX
  5
383
330
380
100
AcDbEntity
  8
GRAU_10_
 62
     7
100
AcDbVertex
100
AcDb2dVertex
 10
25.07822807532767
 20
91.61697453221728
 30
0.0
  0
VERTEX
  5
384
330
380
100
AcDbEntity
  8
GRAU_10_
 62
     7
100
AcDbVertex
100
AcDb2dVertex
 10
25.21654865906045
 20
91.64229598403388
 30
0.0
  0
VERTEX
  5
385
330
380
100
AcDbEntity
  8
GRAU_10_
 62
     7
100
AcDbVertex
100
AcDb2dVertex
 10
25.35659179053585
 20
91.66985674791587
 30
0.0
  0
SEQEND
  5
386
330
380
100
AcDbEntity
  8
GRAU_10_
  0
POLYLINE
  5
387
330
1F
100
AcDbEntity
  8
GRAU_10_
 62
     7
100
AcDb2dPolyline
 66
     1
 10
0.0
 20
0.0
 30
0.0
  0
VERTEX
  5
388
330
387
100
AcDbEntity
  8
GRAU_10_
 62
     7
100
AcDbVertex
100
AcDb2dVertex
 10
6.999400497382094
 20
99.8888210470764
 30
0.0
  0
VERTEX
  5
389
330
387
100
AcDbEntity
  8
GRAU_10_
 62
     7
100
AcDbVertex
100
AcDb2dVertex
 10
8.207078719736424
 20
100.2863850660742
 30
0.0
  0
VERTEX
  5
38A
330
387
100
AcDbEntity
  8
GRAU_10_
 62
     7
100
AcDbVertex
100
AcDb2dVertex
 10
9.388918725951381
 20
100.7492336445176
 30
0.0
  0
VERTEX
  5
38B
330
387
100
AcDbEntity
  8
GRAU_10_
 62
     7
100
AcDbVertex
100
AcDb2dVertex
 10
10.55904540751649
 20
101.2439493561994
 30
0.0
  0
VERTEX
  5
38C
330
387
100
AcDbEntity
  8
GRAU_10_
 62
     7
100
AcDbVertex
100
AcDb2dVertex
 10
11.72882757953307
 20
101.74831133524
 30
0.0
  0
VERTEX
  5
38D
330
387
100
AcDbEntity
  8
GRAU_10_
 62
     7
100
AcDbVertex
100
AcDb2dVertex
 10
12.61748995995327
 20
100.958178685698
 30
0.0
  0
VERTEX
  5
38E
330
387
100
AcDbEntity
  8
GRAU_10_
 62
     7
100
AcDbVertex
100
AcDb2dVertex
 10
13.60450981647734
 20
100.2991319193697
 30
0.0
  0
VERTEX
  5
38F
330
387
100
AcDbEntity
  8
GRAU_10_
 62
     7
100
AcDbVertex
100
AcDb2dVertex
 10
13.87012667839011
 20
100.1594332974428
 30
0.0
  0
VERTEX
  5
390
330
387
100
AcDbEntity
  8
GRAU_10_
 62
     7
100
AcDbVertex
100
AcDb2dVertex
 10
14.14073892875648
 20
100.0321370192628
 30
0.0
  0
VERTEX
  5
391
330
387
100
AcDbEntity
  8
GRAU_10_
 62
     7
100
AcDbVertex
100
AcDb2dVertex
 10
14.41514078415663
 20
99.9177598491525
 30
0.0
  0
VERTEX
  5
392
330
387
100
AcDbEntity
  8
GRAU_10_
 62
     7
100
AcDbVertex
100
AcDb2dVertex
 10
14.69350449936482
 20
99.81647404188617
 30
0.0
  0
VERTEX
  5
393
330
387
100
AcDbEntity
  8
GRAU_10_
 62
     7
100
AcDbVertex
100
AcDb2dVertex
 10
15.25832790417153
 20
99.64783661788319
 30
0.0
  0
VERTEX
  5
394
330
387
100
AcDbEntity
  8
GRAU_10_
 62
     7
100
AcDbVertex
100
AcDb2dVertex
 10
15.83520914317661
 20
99.52157386834878
 30
0.0
  0
VERTEX
  5
395
330
387
100
AcDbEntity
  8
GRAU_10_
 62
     7
100
AcDbVertex
100
AcDb2dVertex
 10
16.4217366495404
 20
99.4323458952808
 30
0.0
  0
VERTEX
  5
396
330
387
100
AcDbEntity
  8
GRAU_10_
 62
     7
100
AcDbVertex
100
AcDb2dVertex
 10
17.01136474184091
 20
99.37550181977419
 30
0.0
  0
VERTEX
  5
397
330
387
100
AcDbEntity
  8
GRAU_10_
 62
     7
100
AcDbVertex
100
AcDb2dVertex
 10
17.59720322910765
 20
99.34346243176137
 30
0.0
  0
VERTEX
  5
398
330
387
100
AcDbEntity
  8
GRAU_10_
 62
     7
100
AcDbVertex
100
AcDb2dVertex
 10
18.18149142340602
 20
99.33261038098283
 30
0.0
  0
VERTEX
  5
399
330
387
100
AcDbEntity
  8
GRAU_10_
 62
     7
100
AcDbVertex
100
AcDb2dVertex
 10
19.34593369742046
 20
99.35431448253989
 30
0.0
  0
VERTEX
  5
39A
330
387
100
AcDbEntity
  8
GRAU_10_
 62
     7
100
AcDbVertex
100
AcDb2dVertex
 10
20.50658636640113
 20
99.41546492740308
 30
0.0
  0
VERTEX
  5
39B
330
387
100
AcDbEntity
  8
GRAU_10_
 62
     7
100
AcDbVertex
100
AcDb2dVertex
 10
21.66517197809065
 20
99.49866398337187
 30
0.0
  0
VERTEX
  5
39C
330
387
100
AcDbEntity
  8
GRAU_10_
 62
     7
100
AcDbVertex
100
AcDb2dVertex
 10
22.82255180636033
 20
99.59288734489346
 30
0.0
  0
VERTEX
  5
39D
330
387
100
AcDbEntity
  8
GRAU_10_
 62
     7
100
AcDbVertex
100
AcDb2dVertex
 10
23.98010388940428
 20
99.69021129235176
 30
0.0
  0
VERTEX
  5
39E
330
387
100
AcDbEntity
  8
GRAU_10_
 62
     7
100
AcDbVertex
100
AcDb2dVertex
 10
25.13782822722249
 20
99.78512367297039
 30
0.0
  0
VERTEX
  5
39F
330
387
100
AcDbEntity
  8
GRAU_10_
 62
     7
100
AcDbVertex
100
AcDb2dVertex
 10
27.45706650789268
 20
99.95238305877928
 30
0.0
  0
VERTEX
  5
3A0
330
387
100
AcDbEntity
  8
GRAU_10_
 62
     7
100
AcDbVertex
100
AcDb2dVertex
 10
29.78216145088779
 20
100.0743394389571
 30
0.0
  0
VERTEX
  5
3A1
330
387
100
AcDbEntity
  8
GRAU_10_
 62
     7
100
AcDbVertex
100
AcDb2dVertex
 10
29.23042940892503
 20
98.89163815887085
 30
0.0
  0
VERTEX
  5
3A2
330
387
100
AcDbEntity
  8
GRAU_10_
 62
     7
100
AcDbVertex
100
AcDb2dVertex
 10
28.68575981270703
 20
97.72392304414541
 30
0.0
  0
VERTEX
  5
3A3
330
387
100
AcDbEntity
  8
GRAU_10_
 62
     7
100
AcDbVertex
100
AcDb2dVertex
 10
28.41687011008328
 20
97.14773082423737
 30
0.0
  0
VERTEX
  5
3A4
330
387
100
AcDbEntity
  8
GRAU_10_
 62
     7
100
AcDbVertex
100
AcDb2dVertex
 10
28.15418157933298
 20
96.58290741943067
 30
0.0
  0
VERTEX
  5
3A5
330
387
100
AcDbEntity
  8
GRAU_10_
 62
     7
100
AcDbVertex
100
AcDb2dVertex
 10
27.89907225865023
 20
96.03617076592151
 30
0.0
  0
VERTEX
  5
3A6
330
387
100
AcDbEntity
  8
GRAU_10_
 62
     7
100
AcDbVertex
100
AcDb2dVertex
 10
27.65136989326077
 20
95.5063150802901
 30
0.0
  0
VERTEX
  5
3A7
330
387
100
AcDbEntity
  8
GRAU_10_
 62
     7
100
AcDbVertex
100
AcDb2dVertex
 10
27.41228026658443
 20
94.99230683389082
 30
0.0
  0
VERTEX
  5
3A8
330
387
100
AcDbEntity
  8
GRAU_10_
 62
     7
100
AcDbVertex
100
AcDb2dVertex
 10
27.18145886907269
 20
94.4977633769832
 30
0.0
  0
VERTEX
  5
3A9
330
387
100
AcDbEntity
  8
GRAU_10_
 62
     7
100
AcDbVertex
100
AcDb2dVertex
 10
26.96286756053359
 20
94.0288858814407
 30
0.0
  0
VERTEX
  5
3AA
330
387
100
AcDbEntity
  8
GRAU_10_
 62
     7
100
AcDbVertex
100
AcDb2dVertex
 10
26.75685085051565
 20
93.58722464023167
 30
0.0
  0
VERTEX
  5
3AB
330
387
100
AcDbEntity
  8
GRAU_10_
 62
     7
100
AcDbVertex
100
AcDb2dVertex
 10
26.56340873901887
 20
93.17226288903333
 30
0.0
  0
VERTEX
  5
3AC
330
387
100
AcDbEntity
  8
GRAU_10_
 62
     7
100
AcDbVertex
100
AcDb2dVertex
 10
26.38288573559178
 20
92.78503415649125
 30
0.0
  0
VERTEX
  5
3AD
330
387
100
AcDbEntity
  8
GRAU_10_
 62
     7
100
AcDbVertex
100
AcDb2dVertex
 10
26.2156263497829
 20
92.42622746170248
 30
0.0
  0
VERTEX
  5
3AE
330
387
100
AcDbEntity
  8
GRAU_10_
 62
     7
100
AcDbVertex
100
AcDb2dVertex
 10
26.06318087456059
 20
92.09980466447506
 30
0.0
  0
VERTEX
  5
3AF
330
387
100
AcDbEntity
  8
GRAU_10_
 62
     7
100
AcDbVertex
100
AcDb2dVertex
 10
25.87128905603218
 20
91.98353269184787
 30
0.0
  0
VERTEX
  5
3B0
330
387
100
AcDbEntity
  8
GRAU_10_
 62
     7
100
AcDbVertex
100
AcDb2dVertex
 10
25.68956026918525
 20
91.87311738154561
 30
0.0
  0
VERTEX
  5
3B1
330
387
100
AcDbEntity
  8
GRAU_10_
 62
     7
100
AcDbVertex
100
AcDb2dVertex
 10
25.51782225924554
 20
91.76786971447123
 30
0.0
  0
VERTEX
  5
3B2
330
387
100
AcDbEntity
  8
GRAU_10_
 62
     7
100
AcDbVertex
100
AcDb2dVertex
 10
25.35659179053585
 20
91.66985674791587
 30
0.0
  0
SEQEND
  5
3B3
330
387
100
AcDbEntity
  8
GRAU_10_
  0
POLYLINE
  5
3B4
330
1F
100
AcDbEntity
  8
GRAU_10_
 62
     7
100
AcDb2dPolyline
 66
     1
 10
0.0
 20
0.0
 30
0.0
  0
VERTEX
  5
3B5
330
3B4
100
AcDbEntity
  8
GRAU_10_
 62
     7
100
AcDbVertex
100
AcDb2dVertex
 10
6.999400497382094
 20
94.00029158891313
 30
0.0
  0
VERTEX
  5
3B6
330
3B4
100
AcDbEntity
  8
GRAU_10_
 62
     7
100
AcDbVertex
100
AcDb2dVertex
 10
6.999400497382094
 20
94.43178979844066
 30
0.0
  0
VERTEX
  5
3B7
330
3B4
100
AcDbEntity
  8
GRAU_10_
 62
     7
100
AcDbVertex
100
AcDb2dVertex
 10
6.999400497382094
 20
94.96440156046029
 30
0.0
  0
VERTEX
  5
3B8
330
3B4
100
AcDbEntity
  8
GRAU_10_
 62
     7
100
AcDbVertex
100
AcDb2dVertex
 10
6.999400497382094
 20
95.26774221793654
 30
0.0
  0
VERTEX
  5
3B9
330
3B4
100
AcDbEntity
  8
GRAU_10_
 62
     7
100
AcDbVertex
100
AcDb2dVertex
 10
6.999400497382094
 20
95.59692109155216
 30
0.0
  0
VERTEX
  5
3BA
330
3B4
100
AcDbEntity
  8
GRAU_10_
 62
     7
100
AcDbVertex
100
AcDb2dVertex
 10
6.999400497382094
 20
95.94797632149913
 30
0.0
  0
VERTEX
  5
3BB
330
3B4
100
AcDbEntity
  8
GRAU_10_
 62
     7
100
AcDbVertex
100
AcDb2dVertex
 10
6.999400497382094
 20
96.31763506706643
 30
0.0
  0
VERTEX
  5
3BC
330
3B4
100
AcDbEntity
  8
GRAU_10_
 62
     7
100
AcDbVertex
100
AcDb2dVertex
 10
6.999400497382094
 20
97.11465790757897
 30
0.0
  0
VERTEX
  5
3BD
330
3B4
100
AcDbEntity
  8
GRAU_10_
 62
     7
100
AcDbVertex
100
AcDb2dVertex
 10
6.999400497382094
 20
97.98420000805604
 30
0.0
  0
VERTEX
  5
3BE
330
3B4
100
AcDbEntity
  8
GRAU_10_
 62
     7
100
AcDbVertex
100
AcDb2dVertex
 10
6.999400497382094
 20
98.91334226042792
 30
0.0
  0
VERTEX
  5
3BF
330
3B4
100
AcDbEntity
  8
GRAU_10_
 62
     7
100
AcDbVertex
100
AcDb2dVertex
 10
6.999400497382094
 20
99.8888210470764
 30
0.0
  0
SEQEND
  5
3C0
330
3B4
100
AcDbEntity
  8
GRAU_10_
  0
POLYLINE
  5
3C1
330
1F
100
AcDbEntity
  8
GRAU_10_
 62
     7
100
AcDb2dPolyline
 66
     1
 10
0.0
 20
0.0
 30
0.0
  0
VERTEX
  5
3C2
330
3C1
100
AcDbEntity
  8
GRAU_10_
 62
     7
100
AcDbVertex
100
AcDb2dVertex
 10
11.72882757953307
 20
101.74831133524
 30
0.0
  0
VERTEX
  5
3C3
330
3C1
100
AcDbEntity
  8
GRAU_10_
 62
     7
100
AcDbVertex
100
AcDb2dVertex
 10
11.93312174180839
 20
102.2302801936265
 30
0.0
  0
VERTEX
  5
3C4
330
3C1
100
AcDbEntity
  8
GRAU_10_
 62
     7
100
AcDbVertex
100
AcDb2dVertex
 10
12.13689913976092
 20
102.7153496379496
 30
0.0
  0
VERTEX
  5
3C5
330
3C1
100
AcDbEntity
  8
GRAU_10_
 62
     7
100
AcDbVertex
100
AcDb2dVertex
 10
12.34188232113328
 20
103.2021416300154
 30
0.0
  0
VERTEX
  5
3C6
330
3C1
100
AcDbEntity
  8
GRAU_10_
 62
     7
100
AcDbVertex
100
AcDb2dVertex
 10
12.54789903115122
 20
103.6885891125327
 30
0.0
  0
SEQEND
  5
3C7
330
3C1
100
AcDbEntity
  8
GRAU_10_
  0
POLYLINE
  5
3C8
330
1F
100
AcDbEntity
  8
GRAU_10_
 62
     7
100
AcDb2dPolyline
 66
     1
 10
0.0
 20
0.0
 30
0.0
  0
VERTEX
  5
3C9
330
3C8
100
AcDbEntity
  8
GRAU_10_
 62
     7
100
AcDbVertex
100
AcDb2dVertex
 10
112.0357109637445
 20
201.6202514144387
 30
0.0
  0
VERTEX
  5
3CA
330
3C8
100
AcDbEntity
  8
GRAU_10_
 62
     7
100
AcDbVertex
100
AcDb2dVertex
 10
111.2991495489981
 20
187.5706352612671
 30
0.0
  0
SEQEND
  5
3CB
330
3C8
100
AcDbEntity
  8
GRAU_10_
  0
POLYLINE
  5
3CC
330
1F
100
AcDbEntity
  8
GRAU_10_
 62
     7
100
AcDb2dPolyline
 66
     1
 10
0.0
 20
0.0
 30
0.0
  0
VERTEX
  5
3CD
330
3CC
100
AcDbEntity
  8
GRAU_10_
 62
     7
100
AcDbVertex
100
AcDb2dVertex
 10
121.4034423524616
 20
198.3747992125591
 30
0.0
  0
VERTEX
  5
3CE
330
3CC
100
AcDbEntity
  8
GRAU_10_
 62
     7
100
AcDbVertex
100
AcDb2dVertex
 10
122.1265678948156
 20
212.1722343762104
 30
0.0
  0
SEQEND
  5
3CF
330
3CC
100
AcDbEntity
  8
GRAU_10_
  0
POLYLINE
  5
3D0
330
1F
100
AcDbEntity
  8
GRAU_10_
 62
     7
100
AcDb2dPolyline
 66
     1
 10
0.0
 20
0.0
 30
0.0
  0
VERTEX
  5
3D1
330
3D0
100
AcDbEntity
  8
GRAU_10_
 62
     7
100
AcDbVertex
100
AcDb2dVertex
 10
112.7281751562798
 20
187.0364732062791
 30
0.0
  0
VERTEX
  5
3D2
330
3D0
100
AcDbEntity
  8
GRAU_10_
 62
     7
100
AcDbVertex
100
AcDb2dVertex
 10
121.2351494380072
 20
197.9238362135399
 30
0.0
  0
SEQEND
  5
3D3
330
3D0
100
AcDbEntity
  8
GRAU_10_
  0
POLYLINE
  5
3D4
330
1F
100
AcDbEntity
  8
GRAU_10_
 62
     7
100
AcDb2dPolyline
 66
     1
 10
0.0
 20
0.0
 30
0.0
  0
VERTEX
  5
3D5
330
3D4
100
AcDbEntity
  8
GRAU_10_
 62
     7
100
AcDbVertex
100
AcDb2dVertex
 10
120.6973700327597
 20
212.7067409407469
 30
0.0
  0
VERTEX
  5
3D6
330
3D4
100
AcDbEntity
  8
GRAU_10_
 62
     7
100
AcDbVertex
100
AcDb2dVertex
 10
112.0357109637445
 20
201.6202514144387
 30
0.0
  0
SEQEND
  5
3D7
330
3D4
100
AcDbEntity
  8
GRAU_10_
  0
SPLINE
  5
3D8
330
1F
100
AcDbEntity
  8
GRAU_10_
 62
     7
100
AcDbSpline
210
0.0
220
0.0
230
1.0
 70
     8
 71
     3
 72
    14
 73
    10
 74
     0
 42
0.0000000001
 43
0.0000000001
 40
0.0
 40
0.0
 40
0.0
 40
0.0
 40
1.0
 40
1.0
 40
1.0
 40
2.0
 40
2.0
 40
2.0
 40
3.0
 40
3.0
 40
3.0
 40
3.0
 10
116.8722805154868
 20
202.917157609861
 30
0.0
 10
116.8161254590772
 20
202.9199136862492
 30
0.0
 10
116.760831676539
 20
202.9216362339918
 30
0.0
 10
116.7127725945197
 20
202.9216362339918
 30
0.0
 10
115.0282931570068
 20
202.9216362339918
 30
0.0
 10
113.6626573066538
 20
201.5560003836388
 30
0.0
 10
113.6626573066538
 20
199.8715209461259
 30
0.0
 10
113.6626573066538
 20
198.2435410745711
 30
0.0
 10
114.9387206743903
 20
196.9127006886191
 30
0.0
 10
116.5530924187784
 20
196.8257120276165
 30
0.0
  0
SPLINE
  5
3D9
330
1F
100
AcDbEntity
  8
GRAU_10_
 62
     7
100
AcDbSpline
210
0.0
220
0.0
230
1.0
 70
     8
 71
     3
 72
    14
 73
    10
 74
     0
 42
0.0000000001
 43
0.0000000001
 40
0.0
 40
0.0
 40
0.0
 40
0.0
 40
1.0
 40
1.0
 40
1.0
 40
2.0
 40
2.0
 40
2.0
 40
3.0
 40
3.0
 40
3.0
 40
3.0
 10
116.8669406174847
 20
202.8175943503373
 30
0.0
 10
116.813369382689
 20
202.820005917177
 30
0.0
 10
116.7594536383449
 20
202.8213839553711
 30
0.0
 10
116.7127725945197
 20
202.8213839553711
 30
0.0
 10
115.0837591943193
 20
202.8213839553711
 30
0.0
 10
113.7629095852746
 20
201.500362091552
 30
0.0
 10
113.7629095852746
 20
199.8715209461259
 30
0.0
 10
113.7629095852746
 20
198.2964232902696
 30
0.0
 10
114.9972872976396
 20
197.0098523813031
 30
0.0
 10
116.5582600620063
 20
196.925792051463
 30
0.0
  0
SPLINE
  5
3DA
330
1F
100
AcDbEntity
  8
GRAU_10_
 62
     7
100
AcDbSpline
210
0.0
220
0.0
230
1.0
 70
     8
 71
     3
 72
     8
 73
     4
 74
     0
 42
0.0000000001
 43
0.0000000001
 40
0.0
 40
0.0
 40
0.0
 40
0.0
 40
1.0
 40
1.0
 40
1.0
 40
1.0
 10
119.7628878823857
 20
199.8715209461259
 30
0.0
 10
119.7628878823857
 20
201.5000175820035
 30
0.0
 10
118.4866522598749
 20
202.8299966940842
 30
0.0
 10
116.8722805154868
 20
202.917157609861
 30
0.0
  0
SPLINE
  5
3DB
330
1F
100
AcDbEntity
  8
GRAU_10_
 62
     7
100
AcDbSpline
210
0.0
220
0.0
230
1.0
 70
     8
 71
     3
 72
    11
 73
     7
 74
     0
 42
0.0000000001
 43
0.0000000001
 40
0.0
 40
0.0
 40
0.0
 40
0.0
 40
1.0
 40
1.0
 40
1.0
 40
2.0
 40
2.0
 40
2.0
 40
2.0
 10
116.5530924187784
 20
196.8257120276165
 30
0.0
 10
116.6090752204137
 20
196.822783696454
 30
0.0
 10
116.6648857672748
 20
196.8210611487114
 30
0.0
 10
116.7127725945197
 20
196.8214056582599
 30
0.0
 10
118.3969075224841
 20
196.8214056582599
 30
0.0
 10
119.7628878823857
 20
198.1866969990645
 30
0.0
 10
119.7628878823857
 20
199.8715209461259
 30
0.0
  0
SPLINE
  5
3DC
330
1F
100
AcDbEntity
  8
GRAU_10_
 62
     7
100
AcDbSpline
210
0.0
220
0.0
230
1.0
 70
     8
 71
     3
 72
    14
 73
    10
 74
     0
 42
0.0000000001
 43
0.0000000001
 40
0.0
 40
0.0
 40
0.0
 40
0.0
 40
1.0
 40
1.0
 40
1.0
 40
2.0
 40
2.0
 40
2.0
 40
3.0
 40
3.0
 40
3.0
 40
3.0
 10
111.2991495489981
 20
187.5706352612671
 30
0.0
 10
111.2984605299011
 20
187.5558213506805
 30
0.0
 10
111.2981160203526
 20
187.5413519496425
 30
0.0
 10
111.2984605299011
 20
187.528605096347
 30
0.0
 10
111.2984605299011
 20
187.086943855138
 30
0.0
 10
111.6564059508185
 20
186.7284816698977
 30
0.0
 10
112.097722682479
 20
186.7284816698977
 30
0.0
 10
112.3535210222588
 20
186.7284816698977
 30
0.0
 10
112.5807250695111
 20
186.8483709927845
 30
0.0
 10
112.7281751562798
 20
187.0364732062791
 30
0.0
  0
SPLINE
  5
3DD
330
1F
100
AcDbEntity
  8
GRAU_10_
 62
     7
100
AcDbSpline
210
0.0
220
0.0
230
1.0
 70
     8
 71
     3
 72
     8
 73
     4
 74
     0
 42
0.0000000001
 43
0.0000000001
 40
0.0
 40
0.0
 40
0.0
 40
0.0
 40
1.0
 40
1.0
 40
1.0
 40
1.0
 10
121.2351494380072
 20
197.9238362135399
 30
0.0
 10
121.3409138694044
 20
198.0588839565617
 30
0.0
 10
121.3963799067169
 20
198.2180473679802
 30
0.0
 10
121.4034423524616
 20
198.3747992125591
 30
0.0
  0
SPLINE
  5
3DE
330
1F
100
AcDbEntity
  8
GRAU_10_
 62
     7
100
AcDbSpline
210
0.0
220
0.0
230
1.0
 70
     8
 71
     3
 72
    11
 73
     7
 74
     0
 42
0.0000000001
 43
0.0000000001
 40
0.0
 40
0.0
 40
0.0
 40
0.0
 40
1.0
 40
1.0
 40
1.0
 40
2.0
 40
2.0
 40
2.0
 40
2.0
 10
122.1276014234612
 20
212.2140922863562
 30
0.0
 10
122.1276014234612
 20
212.6557535275652
 30
0.0
 10
121.7694837477694
 20
213.0147324771283
 30
0.0
 10
121.3274779970119
 20
213.0147324771283
 30
0.0
 10
121.0725409311034
 20
213.0147324771283
 30
0.0
 10
120.8451646290769
 20
212.8946708994673
 30
0.0
 10
120.6973700327597
 20
212.7067409407469
 30
0.0
  0
SPLINE
  5
3DF
330
1F
100
AcDbEntity
  8
GRAU_10_
 62
     7
100
AcDbSpline
210
0.0
220
0.0
230
1.0
 70
     8
 71
     3
 72
     8
 73
     4
 74
     0
 42
0.0000000001
 43
0.0000000001
 40
0.0
 40
0.0
 40
0.0
 40
0.0
 40
1.0
 40
1.0
 40
1.0
 40
1.0
 10
122.1265678948156
 20
212.1722343762104
 30
0.0
 10
122.1276014234612
 20
212.187048286797
 30
0.0
 10
122.1276014234612
 20
212.2018621973836
 30
0.0
 10
122.1276014234612
 20
212.2140922863562
 30
0.0
  0
SPLINE
  5
3E0
330
1F
100
AcDbEntity
  8
GRAU_10_
 62
     7
100
AcDbSpline
210
0.0
220
0.0
230
1.0
 70
     8
 71
     3
 72
     8
 73
     4
 74
     0
 42
0.0000000001
 43
0.0000000001
 40
0.0
 40
0.0
 40
0.0
 40
0.0
 40
1.0
 40
1.0
 40
1.0
 40
1.0
 10
119.6631523680877
 20
199.8715209461259
 30
0.0
 10
119.6631523680877
 20
201.4464463472079
 30
0.0
 10
118.4287746557227
 20
202.7331895109486
 30
0.0
 10
116.8669406174847
 20
202.8175943503373
 30
0.0
  0
SPLINE
  5
3E1
330
1F
100
AcDbEntity
  8
GRAU_10_
 62
     7
100
AcDbSpline
210
0.0
220
0.0
230
1.0
 70
     8
 71
     3
 72
    11
 73
     7
 74
     0
 42
0.0000000001
 43
0.0000000001
 40
0.0
 40
0.0
 40
0.0
 40
0.0
 40
1.0
 40
1.0
 40
1.0
 40
2.0
 40
2.0
 40
2.0
 40
2.0
 10
116.5582600620063
 20
196.925792051463
 30
0.0
 10
116.6126925706732
 20
196.9226914655263
 30
0.0
 10
116.6666083150174
 20
196.9213134273322
 30
0.0
 10
116.7127725945197
 20
196.9213134273322
 30
0.0
 10
118.3423027590429
 20
196.9213134273322
 30
0.0
 10
119.6631523680877
 20
198.2425075459255
 30
0.0
 10
119.6631523680877
 20
199.8715209461259
 30
0.0
  0
POLYLINE
  5
3E2
330
1F
100
AcDbEntity
  8
GRAU_10_
 62
     7
100
AcDb2dPolyline
 66
     1
 10
0.0
 20
0.0
 30
0.0
  0
VERTEX
  5
3E3
330
3E2
100
AcDbEntity
  8
GRAU_10_
 62
     7
100
AcDbVertex
100
AcDb2dVertex
 10
10.85928547905601
 20
212.4297552637329
 30
0.0
  0
VERTEX
  5
3E4
330
3E2
100
AcDbEntity
  8
GRAU_10_
 62
     7
100
AcDbVertex
100
AcDb2dVertex
 10
6.099197047086312
 20
213.0147324771283
 30
0.0
  0
SEQEND
  5
3E5
330
3E2
100
AcDbEntity
  8
GRAU_10_
  0
POLYLINE
  5
3E6
330
1F
100
AcDbEntity
  8
GRAU_10_
 62
     7
100
AcDb2dPolyline
 66
     1
 10
0.0
 20
0.0
 30
0.0
  0
VERTEX
  5
3E7
330
3E6
100
AcDbEntity
  8
GRAU_10_
 62
     7
100
AcDbVertex
100
AcDb2dVertex
 10
10.85928547905601
 20
198.4051160528293
 30
0.0
  0
VERTEX
  5
3E8
330
3E6
100
AcDbEntity
  8
GRAU_10_
 62
     7
100
AcDbVertex
100
AcDb2dVertex
 10
10.85928547905601
 20
212.2028957260291
 30
0.0
  0
SEQEND
  5
3E9
330
3E6
100
AcDbEntity
  8
GRAU_10_
  0
POLYLINE
  5
3EA
330
1F
100
AcDbEntity
  8
GRAU_10_
 62
     7
100
AcDb2dPolyline
 66
     1
 10
0.0
 20
0.0
 30
0.0
  0
VERTEX
  5
3EB
330
3EA
100
AcDbEntity
  8
GRAU_10_
 62
     7
100
AcDbVertex
100
AcDb2dVertex
 10
6.099197047086312
 20
198.3747992125591
 30
0.0
  0
VERTEX
  5
3EC
330
3EA
100
AcDbEntity
  8
GRAU_10_
 62
     7
100
AcDbVertex
100
AcDb2dVertex
 10
6.099197047086312
 20
212.1722343762104
 30
0.0
  0
SEQEND
  5
3ED
330
3EA
100
AcDbEntity
  8
GRAU_10_
  0
POLYLINE
  5
3EE
330
1F
100
AcDbEntity
  8
GRAU_10_
 62
     7
100
AcDb2dPolyline
 66
     1
 10
0.0
 20
0.0
 30
0.0
  0
VERTEX
  5
3EF
330
3EE
100
AcDbEntity
  8
GRAU_10_
 62
     7
100
AcDbVertex
100
AcDb2dVertex
 10
6.099197047086312
 20
187.0364732062791
 30
0.0
  0
VERTEX
  5
3F0
330
3EE
100
AcDbEntity
  8
GRAU_10_
 62
     7
100
AcDbVertex
100
AcDb2dVertex
 10
6.099197047086312
 20
197.9238362135399
 30
0.0
  0
SEQEND
  5
3F1
330
3EE
100
AcDbEntity
  8
GRAU_10_
  0
POLYLINE
  5
3F2
330
1F
100
AcDbEntity
  8
GRAU_10_
 62
     7
100
AcDb2dPolyline
 66
     1
 10
0.0
 20
0.0
 30
0.0
  0
VERTEX
  5
3F3
330
3F2
100
AcDbEntity
  8
GRAU_10_
 62
     7
100
AcDbVertex
100
AcDb2dVertex
 10
6.099197047086312
 20
186.7284816698977
 30
0.0
  0
VERTEX
  5
3F4
330
3F2
100
AcDbEntity
  8
GRAU_10_
 62
     7
100
AcDbVertex
100
AcDb2dVertex
 10
6.999400497382094
 20
186.8392414897485
 30
0.0
  0
SEQEND
  5
3F5
330
3F2
100
AcDbEntity
  8
GRAU_10_
  0
POLYLINE
  5
3F6
330
1F
100
AcDbEntity
  8
GRAU_10_
 62
     7
100
AcDb2dPolyline
 66
     1
 10
0.0
 20
0.0
 30
0.0
  0
VERTEX
  5
3F7
330
3F6
100
AcDbEntity
  8
GRAU_10_
 62
     7
100
AcDbVertex
100
AcDb2dVertex
 10
10.85928547905601
 20
212.2028957260291
 30
0.0
  0
VERTEX
  5
3F8
330
3F6
100
AcDbEntity
  8
GRAU_10_
 62
     7
100
AcDbVertex
100
AcDb2dVertex
 10
10.85928547905601
 20
212.3624036469962
 30
0.0
  0
VERTEX
  5
3F9
330
3F6
100
AcDbEntity
  8
GRAU_10_
 62
     7
100
AcDbVertex
100
AcDb2dVertex
 10
10.85928547905601
 20
212.4297552637329
 30
0.0
  0
SEQEND
  5
3FA
330
3F6
100
AcDbEntity
  8
GRAU_10_
  0
POLYLINE
  5
3FB
330
1F
100
AcDbEntity
  8
GRAU_10_
 62
     7
100
AcDb2dPolyline
 66
     1
 10
0.0
 20
0.0
 30
0.0
  0
VERTEX
  5
3FC
330
3FB
100
AcDbEntity
  8
GRAU_10_
 62
     7
100
AcDbVertex
100
AcDb2dVertex
 10
6.099197047086312
 20
212.1722343762104
 30
0.0
  0
VERTEX
  5
3FD
330
3FB
100
AcDbEntity
  8
GRAU_10_
 62
     7
100
AcDbVertex
100
AcDb2dVertex
 10
6.099197047086312
 20
212.5896076942484
 30
0.0
  0
VERTEX
  5
3FE
330
3FB
100
AcDbEntity
  8
GRAU_10_
 62
     7
100
AcDbVertex
100
AcDb2dVertex
 10
6.099197047086312
 20
212.9000107974695
 30
0.0
  0
VERTEX
  5
3FF
330
3FB
100
AcDbEntity
  8
GRAU_10_
 62
     7
100
AcDbVertex
100
AcDb2dVertex
 10
6.099197047086312
 20
213.0147324771283
 30
0.0
  0
SEQEND
  5
400
330
3FB
100
AcDbEntity
  8
GRAU_10_
  0
POLYLINE
  5
401
330
1F
100
AcDbEntity
  8
GRAU_10_
 62
     7
100
AcDb2dPolyline
 66
     1
 10
0.0
 20
0.0
 30
0.0
  0
VERTEX
  5
402
330
401
100
AcDbEntity
  8
GRAU_10_
 62
     7
100
AcDbVertex
100
AcDb2dVertex
 10
10.85928547905601
 20
198.2840209465228
 30
0.0
  0
VERTEX
  5
403
330
401
100
AcDbEntity
  8
GRAU_10_
 62
     7
100
AcDbVertex
100
AcDb2dVertex
 10
10.85928547905601
 20
198.3408650220294
 30
0.0
  0
VERTEX
  5
404
330
401
100
AcDbEntity
  8
GRAU_10_
 62
     7
100
AcDbVertex
100
AcDb2dVertex
 10
10.85928547905601
 20
198.4051160528293
 30
0.0
  0
SEQEND
  5
405
330
401
100
AcDbEntity
  8
GRAU_10_
  0
POLYLINE
  5
406
330
1F
100
AcDbEntity
  8
GRAU_10_
 62
     7
100
AcDb2dPolyline
 66
     1
 10
0.0
 20
0.0
 30
0.0
  0
VERTEX
  5
407
330
406
100
AcDbEntity
  8
GRAU_10_
 62
     7
100
AcDbVertex
100
AcDb2dVertex
 10
6.099197047086312
 20
197.9238362135399
 30
0.0
  0
VERTEX
  5
408
330
406
100
AcDbEntity
  8
GRAU_10_
 62
     7
100
AcDbVertex
100
AcDb2dVertex
 10
6.099197047086312
 20
198.1365708597541
 30
0.0
  0
VERTEX
  5
409
330
406
100
AcDbEntity
  8
GRAU_10_
 62
     7
100
AcDbVertex
100
AcDb2dVertex
 10
6.099197047086312
 20
198.3747992125591
 30
0.0
  0
SEQEND
  5
40A
330
406
100
AcDbEntity
  8
GRAU_10_
  0
POLYLINE
  5
40B
330
1F
100
AcDbEntity
  8
GRAU_10_
 62
     7
100
AcDb2dPolyline
 66
     1
 10
0.0
 20
0.0
 30
0.0
  0
VERTEX
  5
40C
330
40B
100
AcDbEntity
  8
GRAU_10_
 62
     7
100
AcDbVertex
100
AcDb2dVertex
 10
6.099197047086312
 20
186.7284816698977
 30
0.0
  0
VERTEX
  5
40D
330
40B
100
AcDbEntity
  8
GRAU_10_
 62
     7
100
AcDbVertex
100
AcDb2dVertex
 10
6.099197047086312
 20
186.8092691590269
 30
0.0
  0
VERTEX
  5
40E
330
40B
100
AcDbEntity
  8
GRAU_10_
 62
     7
100
AcDbVertex
100
AcDb2dVertex
 10
6.099197047086312
 20
187.0364732062791
 30
0.0
  0
SEQEND
  5
40F
330
40B
100
AcDbEntity
  8
GRAU_10_
  0
POLYLINE
  5
410
330
1F
100
AcDbEntity
  8
GRAU_10_
 62
     7
100
AcDb2dPolyline
 66
     1
 10
0.0
 20
0.0
 30
0.0
  0
VERTEX
  5
411
330
410
100
AcDbEntity
  8
GRAU_10_
 62
     7
100
AcDbVertex
100
AcDb2dVertex
 10
6.099197047086312
 20
86.18836532133486
 30
0.0
  0
VERTEX
  5
412
330
410
100
AcDbEntity
  8
GRAU_10_
 62
     7
100
AcDbVertex
100
AcDb2dVertex
 10
10.85928547905601
 20
86.77334253473028
 30
0.0
  0
SEQEND
  5
413
330
410
100
AcDbEntity
  8
GRAU_10_
  0
POLYLINE
  5
414
330
1F
100
AcDbEntity
  8
GRAU_10_
 62
     7
100
AcDb2dPolyline
 66
     1
 10
0.0
 20
0.0
 30
0.0
  0
VERTEX
  5
415
330
414
100
AcDbEntity
  8
GRAU_10_
 62
     7
100
AcDbVertex
100
AcDb2dVertex
 10
6.099197047086312
 20
96.28060029059999
 30
0.0
  0
VERTEX
  5
416
330
414
100
AcDbEntity
  8
GRAU_10_
 62
     7
100
AcDbVertex
100
AcDb2dVertex
 10
10.85928547905601
 20
95.7069918923059
 30
0.0
  0
SEQEND
  5
417
330
414
100
AcDbEntity
  8
GRAU_10_
  0
POLYLINE
  5
418
330
1F
100
AcDbEntity
  8
GRAU_10_
 62
     7
100
AcDb2dPolyline
 66
     1
 10
0.0
 20
0.0
 30
0.0
  0
VERTEX
  5
419
330
418
100
AcDbEntity
  8
GRAU_10_
 62
     7
100
AcDbVertex
100
AcDb2dVertex
 10
10.85928547905601
 20
87.15815970043269
 30
0.0
  0
VERTEX
  5
41A
330
418
100
AcDbEntity
  8
GRAU_10_
 62
     7
100
AcDbVertex
100
AcDb2dVertex
 10
10.85928547905601
 20
95.7069918923059
 30
0.0
  0
SEQEND
  5
41B
330
418
100
AcDbEntity
  8
GRAU_10_
  0
POLYLINE
  5
41C
330
1F
100
AcDbEntity
  8
GRAU_10_
 62
     7
100
AcDb2dPolyline
 66
     1
 10
0.0
 20
0.0
 30
0.0
  0
VERTEX
  5
41D
330
41C
100
AcDbEntity
  8
GRAU_10_
 62
     7
100
AcDbVertex
100
AcDb2dVertex
 10
6.099197047086312
 20
87.61928573113337
 30
0.0
  0
VERTEX
  5
41E
330
41C
100
AcDbEntity
  8
GRAU_10_
 62
     7
100
AcDbVertex
100
AcDb2dVertex
 10
6.099197047086312
 20
96.28060029059999
 30
0.0
  0
VERTEX
  5
41F
330
41C
100
AcDbEntity
  8
GRAU_10_
 62
     7
100
AcDbVertex
100
AcDb2dVertex
 10
6.099197047086312
 20
97.01716170534641
 30
0.0
  0
SEQEND
  5
420
330
41C
100
AcDbEntity
  8
GRAU_10_
  0
POLYLINE
  5
421
330
1F
100
AcDbEntity
  8
GRAU_10_
 62
     7
100
AcDb2dPolyline
 66
     1
 10
0.0
 20
0.0
 30
0.0
  0
VERTEX
  5
422
330
421
100
AcDbEntity
  8
GRAU_10_
 62
     7
100
AcDbVertex
100
AcDb2dVertex
 10
6.999400497382094
 20
96.90795217846399
 30
0.0
  0
VERTEX
  5
423
330
421
100
AcDbEntity
  8
GRAU_10_
 62
     7
100
AcDbVertex
100
AcDb2dVertex
 10
6.099197047086312
 20
97.01836748876624
 30
0.0
  0
SEQEND
  5
424
330
421
100
AcDbEntity
  8
GRAU_10_
  0
POLYLINE
  5
425
330
1F
100
AcDbEntity
  8
GRAU_10_
 62
     7
100
AcDb2dPolyline
 66
     1
 10
0.0
 20
0.0
 30
0.0
  0
VERTEX
  5
426
330
425
100
AcDbEntity
  8
GRAU_10_
 62
     7
100
AcDbVertex
100
AcDb2dVertex
 10
10.85928547905601
 20
86.77334253473028
 30
0.0
  0
VERTEX
  5
427
330
425
100
AcDbEntity
  8
GRAU_10_
 62
     7
100
AcDbVertex
100
AcDb2dVertex
 10
10.85928547905601
 20
86.91855330943356
 30
0.0
  0
VERTEX
  5
428
330
425
100
AcDbEntity
  8
GRAU_10_
 62
     7
100
AcDbVertex
100
AcDb2dVertex
 10
10.85928547905601
 20
87.15815970043269
 30
0.0
  0
SEQEND
  5
429
330
425
100
AcDbEntity
  8
GRAU_10_
  0
POLYLINE
  5
42A
330
1F
100
AcDbEntity
  8
GRAU_10_
 62
     7
100
AcDb2dPolyline
 66
     1
 10
0.0
 20
0.0
 30
0.0
  0
VERTEX
  5
42B
330
42A
100
AcDbEntity
  8
GRAU_10_
 62
     7
100
AcDbVertex
100
AcDb2dVertex
 10
6.099197047086312
 20
86.18836532133486
 30
0.0
  0
VERTEX
  5
42C
330
42A
100
AcDbEntity
  8
GRAU_10_
 62
     7
100
AcDbVertex
100
AcDb2dVertex
 10
6.099197047086312
 20
86.33719344629765
 30
0.0
  0
VERTEX
  5
42D
330
42A
100
AcDbEntity
  8
GRAU_10_
 62
     7
100
AcDbVertex
100
AcDb2dVertex
 10
6.099197047086312
 20
86.7282117838735
 30
0.0
  0
VERTEX
  5
42E
330
42A
100
AcDbEntity
  8
GRAU_10_
 62
     7
100
AcDbVertex
100
AcDb2dVertex
 10
6.099197047086312
 20
87.21603730458489
 30
0.0
  0
VERTEX
  5
42F
330
42A
100
AcDbEntity
  8
GRAU_10_
 62
     7
100
AcDbVertex
100
AcDb2dVertex
 10
6.099197047086312
 20
87.61928573113337
 30
0.0
  0
SEQEND
  5
430
330
42A
100
AcDbEntity
  8
GRAU_10_
  0
POLYLINE
  5
431
330
1F
100
AcDbEntity
  8
GRAU_10_
 62
     7
100
AcDb2dPolyline
 66
     1
 10
0.0
 20
0.0
 30
0.0
  0
VERTEX
  5
432
330
431
100
AcDbEntity
  8
GRAU_10_
 62
     7
100
AcDbVertex
100
AcDb2dVertex
 10
6.099197047086312
 20
97.01716170534641
 30
0.0
  0
VERTEX
  5
433
330
431
100
AcDbEntity
  8
GRAU_10_
 62
     7
100
AcDbVertex
100
AcDb2dVertex
 10
6.099197047086312
 20
97.01836748876624
 30
0.0
  0
VERTEX
  5
434
330
431
100
AcDbEntity
  8
GRAU_10_
 62
     7
100
AcDbVertex
100
AcDb2dVertex
 10
6.099197047086312
 20
97.01836748876624
 30
0.0
  0
SEQEND
  5
435
330
431
100
AcDbEntity
  8
GRAU_10_
  0
POLYLINE
  5
436
330
1F
100
AcDbEntity
  8
GRAU_10_
  6
AI-LINETYPE-1
 62
   250
100
AcDb2dPolyline
 66
     1
 10
0.0
 20
0.0
 30
0.0
  0
VERTEX
  5
437
330
436
100
AcDbEntity
  8
GRAU_10_
  6
AI-LINETYPE-1
 62
   250
100
AcDbVertex
100
AcDb2dVertex
 10
87.12784286016249
 20
202.0241888600843
 30
0.0
  0
VERTEX
  5
438
330
436
100
AcDbEntity
  8
GRAU_10_
  6
AI-LINETYPE-1
 62
   250
100
AcDbVertex
100
AcDb2dVertex
 10
87.12784286016249
 20
173.3315388564067
 30
0.0
  0
SEQEND
  5
439
330
436
100
AcDbEntity
  8
GRAU_10_
  6
AI-LINETYPE-1
  0
POLYLINE
  5
43C
330
1F
100
AcDbEntity
  8
STANDARDEBENE
  6
AI-LINETYPE-2
 62
     7
100
AcDb2dPolyline
 66
     1
 10
0.0
 20
0.0
 30
0.0
  0
VERTEX
  5
43D
330
43C
100
AcDbEntity
  8
STANDARDEBENE
  6
AI-LINETYPE-2
 62
     7
100
AcDbVertex
100
AcDb2dVertex
 10
78.12735865017302
 20
188.0140190502187
 30
0.0
  0
VERTEX
  5
43E
330
43C
100
AcDbEntity
  8
STANDARDEBENE
  6
AI-LINETYPE-2
 62
     7
100
AcDbVertex
100
AcDb2dVertex
 10
78.12735865017302
 20
198.014442224802
 30
0.0
  0
SEQEND
  5
43F
330
43C
100
AcDbEntity
  8
STANDARDEBENE
  6
AI-LINETYPE-2
  0
POLYLINE
  5
441
330
1F
100
AcDbEntity
  8
STANDARDEBENE
  6
AI-LINETYPE-3
 62
     7
100
AcDb2dPolyline
 66
     1
 10
0.0
 20
0.0
 30
0.0
  0
VERTEX
  5
442
330
441
100
AcDbEntity
  8
STANDARDEBENE
  6
AI-LINETYPE-3
 62
     7
100
AcDbVertex
100
AcDb2dVertex
 10
96.1276380510549
 20
188.0140190502187
 30
0.0
  0
VERTEX
  5
443
330
441
100
AcDbEntity
  8
STANDARDEBENE
  6
AI-LINETYPE-3
 62
     7
100
AcDbVertex
100
AcDb2dVertex
 10
78.12735865017302
 20
188.0140190502187
 30
0.0
  0
SEQEND
  5
444
330
441
100
AcDbEntity
  8
STANDARDEBENE
  6
AI-LINETYPE-3
  0
POLYLINE
  5
446
330
1F
100
AcDbEntity
  8
STANDARDEBENE
  6
AI-LINETYPE-4
 62
     7
100
AcDb2dPolyline
 66
     1
 10
0.0
 20
0.0
 30
0.0
  0
VERTEX
  5
447
330
446
100
AcDbEntity
  8
STANDARDEBENE
  6
AI-LINETYPE-4
 62
     7
100
AcDbVertex
100
AcDb2dVertex
 10
96.1276380510549
 20
198.014442224802
 30
0.0
  0
VERTEX
  5
448
330
446
100
AcDbEntity
  8
STANDARDEBENE
  6
AI-LINETYPE-4
 62
     7
100
AcDbVertex
100
AcDb2dVertex
 10
96.1276380510549
 20
188.0140190502187
 30
0.0
  0
SEQEND
  5
449
330
446
100
AcDbEntity
  8
STANDARDEBENE
  6
AI-LINETYPE-4
  0
POLYLINE
  5
44B
330
1F
100
AcDbEntity
  8
STANDARDEBENE
  6
AI-LINETYPE-5
 62
     7
100
AcDb2dPolyline
 66
     1
 10
0.0
 20
0.0
 30
0.0
  0
VERTEX
  5
44C
330
44B
100
AcDbEntity
  8
STANDARDEBENE
  6
AI-LINETYPE-5
 62
     7
100
AcDbVertex
100
AcDb2dVertex
 10
82.22771129671739
 20
188.0140190502187
 30
0.0
  0
VERTEX
  5
44D
330
44B
100
AcDbEntity
  8
STANDARDEBENE
  6
AI-LINETYPE-5
 62
     7
100
AcDbVertex
100
AcDb2dVertex
 10
82.22771129671739
 20
176.538061479303
 30
0.0
  0
SEQEND
  5
44E
330
44B
100
AcDbEntity
  8
STANDARDEBENE
  6
AI-LINETYPE-5
  0
POLYLINE
  5
450
330
1F
100
AcDbEntity
  8
STANDARDEBENE
  6
AI-LINETYPE-6
 62
     7
100
AcDb2dPolyline
 66
     1
 10
0.0
 20
0.0
 30
0.0
  0
VERTEX
  5
451
330
450
100
AcDbEntity
  8
STANDARDEBENE
  6
AI-LINETYPE-6
 62
     7
100
AcDbVertex
100
AcDb2dVertex
 10
92.02797442360759
 20
176.4643364359187
 30
0.0
  0
VERTEX
  5
452
330
450
100
AcDbEntity
  8
STANDARDEBENE
  6
AI-LINETYPE-6
 62
     7
100
AcDbVertex
100
AcDb2dVertex
 10
92.02797442360759
 20
188.0140190502187
 30
0.0
  0
SEQEND
  5
453
330
450
100
AcDbEntity
  8
STANDARDEBENE
  6
AI-LINETYPE-6
  0
POLYLINE
  5
455
330
1F
100
AcDbEntity
  8
STANDARDEBENE
 62
     7
100
AcDb2dPolyline
 66
     1
 10
0.0
 20
0.0
 30
0.0
  0
VERTEX
  5
456
330
455
100
AcDbEntity
  8
STANDARDEBENE
 62
     7
100
AcDbVertex
100
AcDb2dVertex
 10
10.85928547905601
 20
198.3372476717699
 30
0.0
  0
VERTEX
  5
457
330
455
100
AcDbEntity
  8
STANDARDEBENE
 62
     7
100
AcDbVertex
100
AcDb2dVertex
 10
6.099197047086312
 20
198.1224459682645
 30
0.0
  0
SEQEND
  5
458
330
455
100
AcDbEntity
  8
STANDARDEBENE
  0
MTEXT
  5
45B
330
1F
100
AcDbEntity
  8
TEXT
 62
     7
100
AcDbMText
 10
150.6254312774478
 20
193.0288722933226
 30
0.0
 40
3.311186211711877
 41
0.0
 71
     7
 72
     1
  1
\fINDEX Univers 45 Light|b0|i0|c0|p34;\W1;36
 11
-4.371139000186241E-8
 21
0.999999999999999
 31
0.0
  0
MTEXT
  5
45C
330
1F
100
AcDbEntity
  8
TEXT
 62
     7
100
AcDbMText
 10
90.41687551993051
 20
234.7700798295453
 30
0.0
 40
3.311186211711877
 41
0.0
 71
     7
 72
     1
  1
\fINDEX Univers 45 Light|b0|i0|c0|p34;\W1;60
  0
MTEXT
  5
45D
330
1F
100
AcDbEntity
  8
TEXT
 62
     7
100
AcDbMText
 10
131.5926567596366
 20
198.4764295293739
 30
0.0
 40
3.311186211711877
 41
0.0
 71
     7
 72
     1
  1
\fINDEX Univers 45 Light|b0|i0|c0|p34;\W1;93°
 11
0.7254636912919932
 21
0.6882604395263435
 31
0.0
  0
MTEXT
  5
45E
330
1F
100
AcDbEntity
  8
TEXT
 62
     7
100
AcDbMText
 10
102.9165432142882
 20
224.7699150371235
 30
0.0
 40
3.311186211711877
 41
0.0
 71
     7
 72
     1
  1
\fINDEX Univers 45 Light|b0|i0|c0|p34;\W1;35
  0
MTEXT
  5
45F
330
1F
100
AcDbEntity
  8
TEXT
 62
     7
100
AcDbMText
 10
17.88883056193404
 20
167.3842705202199
 30
0.0
 40
3.311186211711877
 41
0.0
 71
     7
 72
     1
  1
\fINDEX Univers 45 Light|b0|i0|c0|p34;\W1;27
  0
POLYLINE
  5
460
330
1F
100
AcDbEntity
  8
TEXT
 62
     7
100
AcDb2dPolyline
 66
     1
 10
0.0
 20
0.0
 30
0.0
  0
VERTEX
  5
461
330
460
100
AcDbEntity
  8
TEXT
 62
     7
100
AcDbVertex
100
AcDb2dVertex
 10
121.3274779970119
 20
213.0147324771283
 30
0.0
  0
VERTEX
  5
462
330
460
100
AcDbEntity
  8
TEXT
 62
     7
100
AcDbVertex
100
AcDb2dVertex
 10
154.3811021206929
 20
213.0147324771283
 30
0.0
  0
SEQEND
  5
463
330
460
100
AcDbEntity
  8
TEXT
  0
POLYLINE
  5
464
330
1F
100
AcDbEntity
  8
TEXT
 62
     7
100
AcDb2dPolyline
 66
     1
 10
0.0
 20
0.0
 30
0.0
  0
VERTEX
  5
465
330
464
100
AcDbEntity
  8
TEXT
 62
     7
100
AcDbVertex
100
AcDb2dVertex
 10
112.3500759267736
 20
176.4643364359187
 30
0.0
  0
VERTEX
  5
466
330
464
100
AcDbEntity
  8
TEXT
 62
     7
100
AcDbVertex
100
AcDb2dVertex
 10
154.3811021206929
 20
176.4643364359187
 30
0.0
  0
SEQEND
  5
467
330
464
100
AcDbEntity
  8
TEXT
  0
POLYLINE
  5
468
330
1F
100
AcDbEntity
  8
TEXT
 62
     7
100
AcDb2dPolyline
 66
     1
 10
0.0
 20
0.0
 30
0.0
  0
VERTEX
  5
469
330
468
100
AcDbEntity
  8
TEXT
 62
     7
100
AcDbVertex
100
AcDb2dVertex
 10
152.3812241915054
 20
213.0147324771283
 30
0.0
  0
VERTEX
  5
46A
330
468
100
AcDbEntity
  8
TEXT
 62
     7
100
AcDbVertex
100
AcDb2dVertex
 10
152.3812241915054
 20
176.4643364359187
 30
0.0
  0
SEQEND
  5
46B
330
468
100
AcDbEntity
  8
TEXT
  0
POLYLINE
  5
46C
330
1F
100
AcDbEntity
  8
TEXT
 62
     7
100
AcDb2dPolyline
 66
     1
 10
0.0
 20
0.0
 30
0.0
  0
VERTEX
  5
46D
330
46C
100
AcDbEntity
  8
TEXT
 62
     7
100
AcDbVertex
100
AcDb2dVertex
 10
152.3812241915054
 20
213.0147324771283
 30
0.0
  0
VERTEX
  5
46E
330
46C
100
AcDbEntity
  8
TEXT
 62
     7
100
AcDbVertex
100
AcDb2dVertex
 10
151.9204426703532
 20
209.5143432093402
 30
0.0
  0
VERTEX
  5
46F
330
46C
100
AcDbEntity
  8
TEXT
 62
     7
100
AcDbVertex
100
AcDb2dVertex
 10
152.8414889483348
 20
209.5143432093402
 30
0.0
  0
VERTEX
  5
470
330
46C
100
AcDbEntity
  8
TEXT
 62
     7
100
AcDbVertex
100
AcDb2dVertex
 10
152.3812241915054
 20
213.0147324771283
 30
0.0
  0
SEQEND
  5
471
330
46C
100
AcDbEntity
  8
TEXT
  0
POLYLINE
  5
472
330
1F
100
AcDbEntity
  8
TEXT
 62
     7
100
AcDb2dPolyline
 66
     1
 10
0.0
 20
0.0
 30
0.0
  0
VERTEX
  5
473
330
472
100
AcDbEntity
  8
TEXT
 62
     7
100
AcDbVertex
100
AcDb2dVertex
 10
151.9238877658385
 20
209.5143432093402
 30
0.0
  0
VERTEX
  5
474
330
472
100
AcDbEntity
  8
TEXT
 62
     7
100
AcDbVertex
100
AcDb2dVertex
 10
151.9238877658385
 20
209.5415594636737
 30
0.0
  0
SEQEND
  5
475
330
472
100
AcDbEntity
  8
TEXT
  0
POLYLINE
  5
476
330
1F
100
AcDbEntity
  8
TEXT
 62
     7
100
AcDb2dPolyline
 66
     1
 10
0.0
 20
0.0
 30
0.0
  0
VERTEX
  5
477
330
476
100
AcDbEntity
  8
TEXT
 62
     7
100
AcDbVertex
100
AcDb2dVertex
 10
151.9238877658385
 20
209.5143432093402
 30
0.0
  0
VERTEX
  5
478
330
476
100
AcDbEntity
  8
TEXT
 62
     7
100
AcDbVertex
100
AcDb2dVertex
 10
151.9238877658385
 20
209.5415594636737
 30
0.0
  0
SEQEND
  5
479
330
476
100
AcDbEntity
  8
TEXT
  0
POLYLINE
  5
47A
330
1F
100
AcDbEntity
  8
TEXT
 62
     7
100
AcDb2dPolyline
 66
     1
 10
0.0
 20
0.0
 30
0.0
  0
VERTEX
  5
47B
330
47A
100
AcDbEntity
  8
TEXT
 62
     7
100
AcDbVertex
100
AcDb2dVertex
 10
151.9747029242459
 20
209.5143432093402
 30
0.0
  0
VERTEX
  5
47C
330
47A
100
AcDbEntity
  8
TEXT
 62
     7
100
AcDbVertex
100
AcDb2dVertex
 10
151.9747029242459
 20
209.9275824127959
 30
0.0
  0
SEQEND
  5
47D
330
47A
100
AcDbEntity
  8
TEXT
  0
POLYLINE
  5
47E
330
1F
100
AcDbEntity
  8
TEXT
 62
     7
100
AcDb2dPolyline
 66
     1
 10
0.0
 20
0.0
 30
0.0
  0
VERTEX
  5
47F
330
47E
100
AcDbEntity
  8
TEXT
 62
     7
100
AcDbVertex
100
AcDb2dVertex
 10
152.0255180826533
 20
209.5143432093402
 30
0.0
  0
VERTEX
  5
480
330
47E
100
AcDbEntity
  8
TEXT
 62
     7
100
AcDbVertex
100
AcDb2dVertex
 10
152.0255180826533
 20
210.3130885975953
 30
0.0
  0
SEQEND
  5
481
330
47E
100
AcDbEntity
  8
TEXT
  0
POLYLINE
  5
482
330
1F
100
AcDbEntity
  8
TEXT
 62
     7
100
AcDb2dPolyline
 66
     1
 10
0.0
 20
0.0
 30
0.0
  0
VERTEX
  5
483
330
482
100
AcDbEntity
  8
TEXT
 62
     7
100
AcDbVertex
100
AcDb2dVertex
 10
152.0763332410608
 20
209.5143432093402
 30
0.0
  0
VERTEX
  5
484
330
482
100
AcDbEntity
  8
TEXT
 62
     7
100
AcDbVertex
100
AcDb2dVertex
 10
152.0763332410608
 20
210.6992838014918
 30
0.0
  0
SEQEND
  5
485
330
482
100
AcDbEntity
  8
TEXT
  0
POLYLINE
  5
486
330
1F
100
AcDbEntity
  8
TEXT
 62
     7
100
AcDb2dPolyline
 66
     1
 10
0.0
 20
0.0
 30
0.0
  0
VERTEX
  5
487
330
486
100
AcDbEntity
  8
TEXT
 62
     7
100
AcDbVertex
100
AcDb2dVertex
 10
152.1271483994682
 20
209.5143432093402
 30
0.0
  0
VERTEX
  5
488
330
486
100
AcDbEntity
  8
TEXT
 62
     7
100
AcDbVertex
100
AcDb2dVertex
 10
152.1271483994682
 20
211.0849622410656
 30
0.0
  0
SEQEND
  5
489
330
486
100
AcDbEntity
  8
TEXT
  0
POLYLINE
  5
48A
330
1F
100
AcDbEntity
  8
TEXT
 62
     7
100
AcDb2dPolyline
 66
     1
 10
0.0
 20
0.0
 30
0.0
  0
VERTEX
  5
48B
330
48A
100
AcDbEntity
  8
TEXT
 62
     7
100
AcDbVertex
100
AcDb2dVertex
 10
152.1779635578756
 20
209.5143432093402
 30
0.0
  0
VERTEX
  5
48C
330
48A
100
AcDbEntity
  8
TEXT
 62
     7
100
AcDbVertex
100
AcDb2dVertex
 10
152.1779635578756
 20
211.4709851901878
 30
0.0
  0
SEQEND
  5
48D
330
48A
100
AcDbEntity
  8
TEXT
  0
POLYLINE
  5
48E
330
1F
100
AcDbEntity
  8
TEXT
 62
     7
100
AcDb2dPolyline
 66
     1
 10
0.0
 20
0.0
 30
0.0
  0
VERTEX
  5
48F
330
48E
100
AcDbEntity
  8
TEXT
 62
     7
100
AcDbVertex
100
AcDb2dVertex
 10
152.2287787162831
 20
209.5143432093402
 30
0.0
  0
VERTEX
  5
490
330
48E
100
AcDbEntity
  8
TEXT
 62
     7
100
AcDbVertex
100
AcDb2dVertex
 10
152.2287787162831
 20
211.8564913749873
 30
0.0
  0
SEQEND
  5
491
330
48E
100
AcDbEntity
  8
TEXT
  0
POLYLINE
  5
492
330
1F
100
AcDbEntity
  8
TEXT
 62
     7
100
AcDb2dPolyline
 66
     1
 10
0.0
 20
0.0
 30
0.0
  0
VERTEX
  5
493
330
492
100
AcDbEntity
  8
TEXT
 62
     7
100
AcDbVertex
100
AcDb2dVertex
 10
152.2795938746905
 20
209.5143432093402
 30
0.0
  0
VERTEX
  5
494
330
492
100
AcDbEntity
  8
TEXT
 62
     7
100
AcDbVertex
100
AcDb2dVertex
 10
152.2795938746905
 20
212.2426865788838
 30
0.0
  0
SEQEND
  5
495
330
492
100
AcDbEntity
  8
TEXT
  0
POLYLINE
  5
496
330
1F
100
AcDbEntity
  8
TEXT
 62
     7
100
AcDb2dPolyline
 66
     1
 10
0.0
 20
0.0
 30
0.0
  0
VERTEX
  5
497
330
496
100
AcDbEntity
  8
TEXT
 62
     7
100
AcDbVertex
100
AcDb2dVertex
 10
152.330409033098
 20
209.5143432093402
 30
0.0
  0
VERTEX
  5
498
330
496
100
AcDbEntity
  8
TEXT
 62
     7
100
AcDbVertex
100
AcDb2dVertex
 10
152.330409033098
 20
212.6283650184575
 30
0.0
  0
SEQEND
  5
499
330
496
100
AcDbEntity
  8
TEXT
  0
POLYLINE
  5
49A
330
1F
100
AcDbEntity
  8
TEXT
 62
     7
100
AcDb2dPolyline
 66
     1
 10
0.0
 20
0.0
 30
0.0
  0
VERTEX
  5
49B
330
49A
100
AcDbEntity
  8
TEXT
 62
     7
100
AcDbVertex
100
AcDb2dVertex
 10
152.3812241915054
 20
209.5143432093402
 30
0.0
  0
VERTEX
  5
49C
330
49A
100
AcDbEntity
  8
TEXT
 62
     7
100
AcDbVertex
100
AcDb2dVertex
 10
152.3812241915054
 20
213.0147324771283
 30
0.0
  0
SEQEND
  5
49D
330
49A
100
AcDbEntity
  8
TEXT
  0
POLYLINE
  5
49E
330
1F
100
AcDbEntity
  8
TEXT
 62
     7
100
AcDb2dPolyline
 66
     1
 10
0.0
 20
0.0
 30
0.0
  0
VERTEX
  5
49F
330
49E
100
AcDbEntity
  8
TEXT
 62
     7
100
AcDbVertex
100
AcDb2dVertex
 10
152.8380438528495
 20
209.5143432093402
 30
0.0
  0
VERTEX
  5
4A0
330
49E
100
AcDbEntity
  8
TEXT
 62
     7
100
AcDbVertex
100
AcDb2dVertex
 10
152.8380438528495
 20
209.5415594636737
 30
0.0
  0
SEQEND
  5
4A1
330
49E
100
AcDbEntity
  8
TEXT
  0
POLYLINE
  5
4A2
330
1F
100
AcDbEntity
  8
TEXT
 62
     7
100
AcDb2dPolyline
 66
     1
 10
0.0
 20
0.0
 30
0.0
  0
VERTEX
  5
4A3
330
4A2
100
AcDbEntity
  8
TEXT
 62
     7
100
AcDbVertex
100
AcDb2dVertex
 10
152.8380438528495
 20
209.5143432093402
 30
0.0
  0
VERTEX
  5
4A4
330
4A2
100
AcDbEntity
  8
TEXT
 62
     7
100
AcDbVertex
100
AcDb2dVertex
 10
152.8380438528495
 20
209.5415594636737
 30
0.0
  0
SEQEND
  5
4A5
330
4A2
100
AcDbEntity
  8
TEXT
  0
POLYLINE
  5
4A6
330
1F
100
AcDbEntity
  8
TEXT
 62
     7
100
AcDb2dPolyline
 66
     1
 10
0.0
 20
0.0
 30
0.0
  0
VERTEX
  5
4A7
330
4A6
100
AcDbEntity
  8
TEXT
 62
     7
100
AcDbVertex
100
AcDb2dVertex
 10
152.7872286944421
 20
209.5143432093402
 30
0.0
  0
VERTEX
  5
4A8
330
4A6
100
AcDbEntity
  8
TEXT
 62
     7
100
AcDbVertex
100
AcDb2dVertex
 10
152.7872286944421
 20
209.9275824127959
 30
0.0
  0
SEQEND
  5
4A9
330
4A6
100
AcDbEntity
  8
TEXT
  0
POLYLINE
  5
4AA
330
1F
100
AcDbEntity
  8
TEXT
 62
     7
100
AcDb2dPolyline
 66
     1
 10
0.0
 20
0.0
 30
0.0
  0
VERTEX
  5
4AB
330
4AA
100
AcDbEntity
  8
TEXT
 62
     7
100
AcDbVertex
100
AcDb2dVertex
 10
152.7364135360347
 20
209.5143432093402
 30
0.0
  0
VERTEX
  5
4AC
330
4AA
100
AcDbEntity
  8
TEXT
 62
     7
100
AcDbVertex
100
AcDb2dVertex
 10
152.7364135360347
 20
210.3130885975953
 30
0.0
  0
SEQEND
  5
4AD
330
4AA
100
AcDbEntity
  8
TEXT
  0
POLYLINE
  5
4AE
330
1F
100
AcDbEntity
  8
TEXT
 62
     7
100
AcDb2dPolyline
 66
     1
 10
0.0
 20
0.0
 30
0.0
  0
VERTEX
  5
4AF
330
4AE
100
AcDbEntity
  8
TEXT
 62
     7
100
AcDbVertex
100
AcDb2dVertex
 10
152.6855983776272
 20
209.5143432093402
 30
0.0
  0
VERTEX
  5
4B0
330
4AE
100
AcDbEntity
  8
TEXT
 62
     7
100
AcDbVertex
100
AcDb2dVertex
 10
152.6855983776272
 20
210.6992838014918
 30
0.0
  0
SEQEND
  5
4B1
330
4AE
100
AcDbEntity
  8
TEXT
  0
POLYLINE
  5
4B2
330
1F
100
AcDbEntity
  8
TEXT
 62
     7
100
AcDb2dPolyline
 66
     1
 10
0.0
 20
0.0
 30
0.0
  0
VERTEX
  5
4B3
330
4B2
100
AcDbEntity
  8
TEXT
 62
     7
100
AcDbVertex
100
AcDb2dVertex
 10
152.6347832192198
 20
209.5143432093402
 30
0.0
  0
VERTEX
  5
4B4
330
4B2
100
AcDbEntity
  8
TEXT
 62
     7
100
AcDbVertex
100
AcDb2dVertex
 10
152.6347832192198
 20
211.0849622410656
 30
0.0
  0
SEQEND
  5
4B5
330
4B2
100
AcDbEntity
  8
TEXT
  0
POLYLINE
  5
4B6
330
1F
100
AcDbEntity
  8
TEXT
 62
     7
100
AcDb2dPolyline
 66
     1
 10
0.0
 20
0.0
 30
0.0
  0
VERTEX
  5
4B7
330
4B6
100
AcDbEntity
  8
TEXT
 62
     7
100
AcDbVertex
100
AcDb2dVertex
 10
152.5839680608123
 20
209.5143432093402
 30
0.0
  0
VERTEX
  5
4B8
330
4B6
100
AcDbEntity
  8
TEXT
 62
     7
100
AcDbVertex
100
AcDb2dVertex
 10
152.5839680608123
 20
211.4709851901878
 30
0.0
  0
SEQEND
  5
4B9
330
4B6
100
AcDbEntity
  8
TEXT
  0
POLYLINE
  5
4BA
330
1F
100
AcDbEntity
  8
TEXT
 62
     7
100
AcDb2dPolyline
 66
     1
 10
0.0
 20
0.0
 30
0.0
  0
VERTEX
  5
4BB
330
4BA
100
AcDbEntity
  8
TEXT
 62
     7
100
AcDbVertex
100
AcDb2dVertex
 10
152.5331529024049
 20
209.5143432093402
 30
0.0
  0
VERTEX
  5
4BC
330
4BA
100
AcDbEntity
  8
TEXT
 62
     7
100
AcDbVertex
100
AcDb2dVertex
 10
152.5331529024049
 20
211.8564913749873
 30
0.0
  0
SEQEND
  5
4BD
330
4BA
100
AcDbEntity
  8
TEXT
  0
POLYLINE
  5
4BE
330
1F
100
AcDbEntity
  8
TEXT
 62
     7
100
AcDb2dPolyline
 66
     1
 10
0.0
 20
0.0
 30
0.0
  0
VERTEX
  5
4BF
330
4BE
100
AcDbEntity
  8
TEXT
 62
     7
100
AcDbVertex
100
AcDb2dVertex
 10
152.4823377439975
 20
209.5143432093402
 30
0.0
  0
VERTEX
  5
4C0
330
4BE
100
AcDbEntity
  8
TEXT
 62
     7
100
AcDbVertex
100
AcDb2dVertex
 10
152.4823377439975
 20
212.2426865788838
 30
0.0
  0
SEQEND
  5
4C1
330
4BE
100
AcDbEntity
  8
TEXT
  0
POLYLINE
  5
4C2
330
1F
100
AcDbEntity
  8
TEXT
 62
     7
100
AcDb2dPolyline
 66
     1
 10
0.0
 20
0.0
 30
0.0
  0
VERTEX
  5
4C3
330
4C2
100
AcDbEntity
  8
TEXT
 62
     7
100
AcDbVertex
100
AcDb2dVertex
 10
152.43152258559
 20
209.5143432093402
 30
0.0
  0
VERTEX
  5
4C4
330
4C2
100
AcDbEntity
  8
TEXT
 62
     7
100
AcDbVertex
100
AcDb2dVertex
 10
152.43152258559
 20
212.6283650184575
 30
0.0
  0
SEQEND
  5
4C5
330
4C2
100
AcDbEntity
  8
TEXT
  0
POLYLINE
  5
4C6
330
1F
100
AcDbEntity
  8
TEXT
 62
     7
100
AcDb2dPolyline
 66
     1
 10
0.0
 20
0.0
 30
0.0
  0
VERTEX
  5
4C7
330
4C6
100
AcDbEntity
  8
TEXT
 62
     7
100
AcDbVertex
100
AcDb2dVertex
 10
152.3812241915054
 20
209.5143432093402
 30
0.0
  0
VERTEX
  5
4C8
330
4C6
100
AcDbEntity
  8
TEXT
 62
     7
100
AcDbVertex
100
AcDb2dVertex
 10
152.3812241915054
 20
213.0147324771283
 30
0.0
  0
SEQEND
  5
4C9
330
4C6
100
AcDbEntity
  8
TEXT
  0
POLYLINE
  5
4CA
330
1F
100
AcDbEntity
  8
TEXT
 62
     7
100
AcDb2dPolyline
 66
     1
 10
0.0
 20
0.0
 30
0.0
  0
VERTEX
  5
4CB
330
4CA
100
AcDbEntity
  8
TEXT
 62
     7
100
AcDbVertex
100
AcDb2dVertex
 10
152.3812241915054
 20
176.4643364359187
 30
0.0
  0
VERTEX
  5
4CC
330
4CA
100
AcDbEntity
  8
TEXT
 62
     7
100
AcDbVertex
100
AcDb2dVertex
 10
152.8414889483348
 20
179.9638644298354
 30
0.0
  0
VERTEX
  5
4CD
330
4CA
100
AcDbEntity
  8
TEXT
 62
     7
100
AcDbVertex
100
AcDb2dVertex
 10
151.9204426703532
 20
179.9638644298354
 30
0.0
  0
VERTEX
  5
4CE
330
4CA
100
AcDbEntity
  8
TEXT
 62
     7
100
AcDbVertex
100
AcDb2dVertex
 10
152.3812241915054
 20
176.4643364359187
 30
0.0
  0
SEQEND
  5
4CF
330
4CA
100
AcDbEntity
  8
TEXT
  0
POLYLINE
  5
4D0
330
1F
100
AcDbEntity
  8
TEXT
 62
     7
100
AcDb2dPolyline
 66
     1
 10
0.0
 20
0.0
 30
0.0
  0
VERTEX
  5
4D1
330
4D0
100
AcDbEntity
  8
TEXT
 62
     7
100
AcDbVertex
100
AcDb2dVertex
 10
152.8380438528495
 20
179.9638644298354
 30
0.0
  0
VERTEX
  5
4D2
330
4D0
100
AcDbEntity
  8
TEXT
 62
     7
100
AcDbVertex
100
AcDb2dVertex
 10
152.8380438528495
 20
179.9368204302762
 30
0.0
  0
SEQEND
  5
4D3
330
4D0
100
AcDbEntity
  8
TEXT
  0
POLYLINE
  5
4D4
330
1F
100
AcDbEntity
  8
TEXT
 62
     7
100
AcDb2dPolyline
 66
     1
 10
0.0
 20
0.0
 30
0.0
  0
VERTEX
  5
4D5
330
4D4
100
AcDbEntity
  8
TEXT
 62
     7
100
AcDbVertex
100
AcDb2dVertex
 10
152.8380438528495
 20
179.9638644298354
 30
0.0
  0
VERTEX
  5
4D6
330
4D4
100
AcDbEntity
  8
TEXT
 62
     7
100
AcDbVertex
100
AcDb2dVertex
 10
152.8380438528495
 20
179.9368204302762
 30
0.0
  0
SEQEND
  5
4D7
330
4D4
100
AcDbEntity
  8
TEXT
  0
POLYLINE
  5
4D8
330
1F
100
AcDbEntity
  8
TEXT
 62
     7
100
AcDb2dPolyline
 66
     1
 10
0.0
 20
0.0
 30
0.0
  0
VERTEX
  5
4D9
330
4D8
100
AcDbEntity
  8
TEXT
 62
     7
100
AcDbVertex
100
AcDb2dVertex
 10
152.7872286944421
 20
179.9638644298354
 30
0.0
  0
VERTEX
  5
4DA
330
4D8
100
AcDbEntity
  8
TEXT
 62
     7
100
AcDbVertex
100
AcDb2dVertex
 10
152.7872286944421
 20
179.551486500251
 30
0.0
  0
SEQEND
  5
4DB
330
4D8
100
AcDbEntity
  8
TEXT
  0
POLYLINE
  5
4DC
330
1F
100
AcDbEntity
  8
TEXT
 62
     7
100
AcDb2dPolyline
 66
     1
 10
0.0
 20
0.0
 30
0.0
  0
VERTEX
  5
4DD
330
4DC
100
AcDbEntity
  8
TEXT
 62
     7
100
AcDbVertex
100
AcDb2dVertex
 10
152.7364135360347
 20
179.9638644298354
 30
0.0
  0
VERTEX
  5
4DE
330
4DC
100
AcDbEntity
  8
TEXT
 62
     7
100
AcDbVertex
100
AcDb2dVertex
 10
152.7364135360347
 20
179.1652912963545
 30
0.0
  0
SEQEND
  5
4DF
330
4DC
100
AcDbEntity
  8
TEXT
  0
POLYLINE
  5
4E0
330
1F
100
AcDbEntity
  8
TEXT
 62
     7
100
AcDb2dPolyline
 66
     1
 10
0.0
 20
0.0
 30
0.0
  0
VERTEX
  5
4E1
330
4E0
100
AcDbEntity
  8
TEXT
 62
     7
100
AcDbVertex
100
AcDb2dVertex
 10
152.6855983776272
 20
179.9638644298354
 30
0.0
  0
VERTEX
  5
4E2
330
4E0
100
AcDbEntity
  8
TEXT
 62
     7
100
AcDbVertex
100
AcDb2dVertex
 10
152.6855983776272
 20
178.7796128567808
 30
0.0
  0
SEQEND
  5
4E3
330
4E0
100
AcDbEntity
  8
TEXT
  0
POLYLINE
  5
4E4
330
1F
100
AcDbEntity
  8
TEXT
 62
     7
100
AcDb2dPolyline
 66
     1
 10
0.0
 20
0.0
 30
0.0
  0
VERTEX
  5
4E5
330
4E4
100
AcDbEntity
  8
TEXT
 62
     7
100
AcDbVertex
100
AcDb2dVertex
 10
152.6347832192198
 20
179.9638644298354
 30
0.0
  0
VERTEX
  5
4E6
330
4E4
100
AcDbEntity
  8
TEXT
 62
     7
100
AcDbVertex
100
AcDb2dVertex
 10
152.6347832192198
 20
178.3934176528843
 30
0.0
  0
SEQEND
  5
4E7
330
4E4
100
AcDbEntity
  8
TEXT
  0
POLYLINE
  5
4E8
330
1F
100
AcDbEntity
  8
TEXT
 62
     7
100
AcDb2dPolyline
 66
     1
 10
0.0
 20
0.0
 30
0.0
  0
VERTEX
  5
4E9
330
4E8
100
AcDbEntity
  8
TEXT
 62
     7
100
AcDbVertex
100
AcDb2dVertex
 10
152.5839680608123
 20
179.9638644298354
 30
0.0
  0
VERTEX
  5
4EA
330
4E8
100
AcDbEntity
  8
TEXT
 62
     7
100
AcDbVertex
100
AcDb2dVertex
 10
152.5839680608123
 20
178.0077392133106
 30
0.0
  0
SEQEND
  5
4EB
330
4E8
100
AcDbEntity
  8
TEXT
  0
POLYLINE
  5
4EC
330
1F
100
AcDbEntity
  8
TEXT
 62
     7
100
AcDb2dPolyline
 66
     1
 10
0.0
 20
0.0
 30
0.0
  0
VERTEX
  5
4ED
330
4EC
100
AcDbEntity
  8
TEXT
 62
     7
100
AcDbVertex
100
AcDb2dVertex
 10
152.5331529024049
 20
179.9638644298354
 30
0.0
  0
VERTEX
  5
4EE
330
4EC
100
AcDbEntity
  8
TEXT
 62
     7
100
AcDbVertex
100
AcDb2dVertex
 10
152.5331529024049
 20
177.6218885189626
 30
0.0
  0
SEQEND
  5
4EF
330
4EC
100
AcDbEntity
  8
TEXT
  0
POLYLINE
  5
4F0
330
1F
100
AcDbEntity
  8
TEXT
 62
     7
100
AcDb2dPolyline
 66
     1
 10
0.0
 20
0.0
 30
0.0
  0
VERTEX
  5
4F1
330
4F0
100
AcDbEntity
  8
TEXT
 62
     7
100
AcDbVertex
100
AcDb2dVertex
 10
152.4823377439975
 20
179.9638644298354
 30
0.0
  0
VERTEX
  5
4F2
330
4F0
100
AcDbEntity
  8
TEXT
 62
     7
100
AcDbVertex
100
AcDb2dVertex
 10
152.4823377439975
 20
177.2362100793889
 30
0.0
  0
SEQEND
  5
4F3
330
4F0
100
AcDbEntity
  8
TEXT
  0
POLYLINE
  5
4F4
330
1F
100
AcDbEntity
  8
TEXT
 62
     7
100
AcDb2dPolyline
 66
     1
 10
0.0
 20
0.0
 30
0.0
  0
VERTEX
  5
4F5
330
4F4
100
AcDbEntity
  8
TEXT
 62
     7
100
AcDbVertex
100
AcDb2dVertex
 10
152.43152258559
 20
179.9638644298354
 30
0.0
  0
VERTEX
  5
4F6
330
4F4
100
AcDbEntity
  8
TEXT
 62
     7
100
AcDbVertex
100
AcDb2dVertex
 10
152.43152258559
 20
176.8500148754924
 30
0.0
  0
SEQEND
  5
4F7
330
4F4
100
AcDbEntity
  8
TEXT
  0
POLYLINE
  5
4F8
330
1F
100
AcDbEntity
  8
TEXT
 62
     7
100
AcDb2dPolyline
 66
     1
 10
0.0
 20
0.0
 30
0.0
  0
VERTEX
  5
4F9
330
4F8
100
AcDbEntity
  8
TEXT
 62
     7
100
AcDbVertex
100
AcDb2dVertex
 10
152.3812241915054
 20
179.9638644298354
 30
0.0
  0
VERTEX
  5
4FA
330
4F8
100
AcDbEntity
  8
TEXT
 62
     7
100
AcDbVertex
100
AcDb2dVertex
 10
152.3812241915054
 20
176.4643364359187
 30
0.0
  0
SEQEND
  5
4FB
330
4F8
100
AcDbEntity
  8
TEXT
  0
POLYLINE
  5
4FC
330
1F
100
AcDbEntity
  8
TEXT
 62
     7
100
AcDb2dPolyline
 66
     1
 10
0.0
 20
0.0
 30
0.0
  0
VERTEX
  5
4FD
330
4FC
100
AcDbEntity
  8
TEXT
 62
     7
100
AcDbVertex
100
AcDb2dVertex
 10
151.9238877658385
 20
179.9638644298354
 30
0.0
  0
VERTEX
  5
4FE
330
4FC
100
AcDbEntity
  8
TEXT
 62
     7
100
AcDbVertex
100
AcDb2dVertex
 10
151.9238877658385
 20
179.9368204302762
 30
0.0
  0
SEQEND
  5
4FF
330
4FC
100
AcDbEntity
  8
TEXT
  0
POLYLINE
  5
500
330
1F
100
AcDbEntity
  8
TEXT
 62
     7
100
AcDb2dPolyline
 66
     1
 10
0.0
 20
0.0
 30
0.0
  0
VERTEX
  5
501
330
500
100
AcDbEntity
  8
TEXT
 62
     7
100
AcDbVertex
100
AcDb2dVertex
 10
151.9238877658385
 20
179.9638644298354
 30
0.0
  0
VERTEX
  5
502
330
500
100
AcDbEntity
  8
TEXT
 62
     7
100
AcDbVertex
100
AcDb2dVertex
 10
151.9238877658385
 20
179.9368204302762
 30
0.0
  0
SEQEND
  5
503
330
500
100
AcDbEntity
  8
TEXT
  0
POLYLINE
  5
504
330
1F
100
AcDbEntity
  8
TEXT
 62
     7
100
AcDb2dPolyline
 66
     1
 10
0.0
 20
0.0
 30
0.0
  0
VERTEX
  5
505
330
504
100
AcDbEntity
  8
TEXT
 62
     7
100
AcDbVertex
100
AcDb2dVertex
 10
151.9747029242459
 20
179.9638644298354
 30
0.0
  0
VERTEX
  5
506
330
504
100
AcDbEntity
  8
TEXT
 62
     7
100
AcDbVertex
100
AcDb2dVertex
 10
151.9747029242459
 20
179.551486500251
 30
0.0
  0
SEQEND
  5
507
330
504
100
AcDbEntity
  8
TEXT
  0
POLYLINE
  5
508
330
1F
100
AcDbEntity
  8
TEXT
 62
     7
100
AcDb2dPolyline
 66
     1
 10
0.0
 20
0.0
 30
0.0
  0
VERTEX
  5
509
330
508
100
AcDbEntity
  8
TEXT
 62
     7
100
AcDbVertex
100
AcDb2dVertex
 10
152.0255180826533
 20
179.9638644298354
 30
0.0
  0
VERTEX
  5
50A
330
508
100
AcDbEntity
  8
TEXT
 62
     7
100
AcDbVertex
100
AcDb2dVertex
 10
152.0255180826533
 20
179.1652912963545
 30
0.0
  0
SEQEND
  5
50B
330
508
100
AcDbEntity
  8
TEXT
  0
POLYLINE
  5
50C
330
1F
100
AcDbEntity
  8
TEXT
 62
     7
100
AcDb2dPolyline
 66
     1
 10
0.0
 20
0.0
 30
0.0
  0
VERTEX
  5
50D
330
50C
100
AcDbEntity
  8
TEXT
 62
     7
100
AcDbVertex
100
AcDb2dVertex
 10
152.0763332410608
 20
179.9638644298354
 30
0.0
  0
VERTEX
  5
50E
330
50C
100
AcDbEntity
  8
TEXT
 62
     7
100
AcDbVertex
100
AcDb2dVertex
 10
152.0763332410608
 20
178.7796128567808
 30
0.0
  0
SEQEND
  5
50F
330
50C
100
AcDbEntity
  8
TEXT
  0
POLYLINE
  5
510
330
1F
100
AcDbEntity
  8
TEXT
 62
     7
100
AcDb2dPolyline
 66
     1
 10
0.0
 20
0.0
 30
0.0
  0
VERTEX
  5
511
330
510
100
AcDbEntity
  8
TEXT
 62
     7
100
AcDbVertex
100
AcDb2dVertex
 10
152.1271483994682
 20
179.9638644298354
 30
0.0
  0
VERTEX
  5
512
330
510
100
AcDbEntity
  8
TEXT
 62
     7
100
AcDbVertex
100
AcDb2dVertex
 10
152.1271483994682
 20
178.3934176528843
 30
0.0
  0
SEQEND
  5
513
330
510
100
AcDbEntity
  8
TEXT
  0
POLYLINE
  5
514
330
1F
100
AcDbEntity
  8
TEXT
 62
     7
100
AcDb2dPolyline
 66
     1
 10
0.0
 20
0.0
 30
0.0
  0
VERTEX
  5
515
330
514
100
AcDbEntity
  8
TEXT
 62
     7
100
AcDbVertex
100
AcDb2dVertex
 10
152.1779635578756
 20
179.9638644298354
 30
0.0
  0
VERTEX
  5
516
330
514
100
AcDbEntity
  8
TEXT
 62
     7
100
AcDbVertex
100
AcDb2dVertex
 10
152.1779635578756
 20
178.0077392133106
 30
0.0
  0
SEQEND
  5
517
330
514
100
AcDbEntity
  8
TEXT
  0
POLYLINE
  5
518
330
1F
100
AcDbEntity
  8
TEXT
 62
     7
100
AcDb2dPolyline
 66
     1
 10
0.0
 20
0.0
 30
0.0
  0
VERTEX
  5
519
330
518
100
AcDbEntity
  8
TEXT
 62
     7
100
AcDbVertex
100
AcDb2dVertex
 10
152.2287787162831
 20
179.9638644298354
 30
0.0
  0
VERTEX
  5
51A
330
518
100
AcDbEntity
  8
TEXT
 62
     7
100
AcDbVertex
100
AcDb2dVertex
 10
152.2287787162831
 20
177.6218885189626
 30
0.0
  0
SEQEND
  5
51B
330
518
100
AcDbEntity
  8
TEXT
  0
POLYLINE
  5
51C
330
1F
100
AcDbEntity
  8
TEXT
 62
     7
100
AcDb2dPolyline
 66
     1
 10
0.0
 20
0.0
 30
0.0
  0
VERTEX
  5
51D
330
51C
100
AcDbEntity
  8
TEXT
 62
     7
100
AcDbVertex
100
AcDb2dVertex
 10
152.2795938746905
 20
179.9638644298354
 30
0.0
  0
VERTEX
  5
51E
330
51C
100
AcDbEntity
  8
TEXT
 62
     7
100
AcDbVertex
100
AcDb2dVertex
 10
152.2795938746905
 20
177.2362100793889
 30
0.0
  0
SEQEND
  5
51F
330
51C
100
AcDbEntity
  8
TEXT
  0
POLYLINE
  5
520
330
1F
100
AcDbEntity
  8
TEXT
 62
     7
100
AcDb2dPolyline
 66
     1
 10
0.0
 20
0.0
 30
0.0
  0
VERTEX
  5
521
330
520
100
AcDbEntity
  8
TEXT
 62
     7
100
AcDbVertex
100
AcDb2dVertex
 10
152.330409033098
 20
179.9638644298354
 30
0.0
  0
VERTEX
  5
522
330
520
100
AcDbEntity
  8
TEXT
 62
     7
100
AcDbVertex
100
AcDb2dVertex
 10
152.330409033098
 20
176.8500148754924
 30
0.0
  0
SEQEND
  5
523
330
520
100
AcDbEntity
  8
TEXT
  0
POLYLINE
  5
524
330
1F
100
AcDbEntity
  8
TEXT
 62
     7
100
AcDb2dPolyline
 66
     1
 10
0.0
 20
0.0
 30
0.0
  0
VERTEX
  5
525
330
524
100
AcDbEntity
  8
TEXT
 62
     7
100
AcDbVertex
100
AcDb2dVertex
 10
152.3812241915054
 20
179.9638644298354
 30
0.0
  0
VERTEX
  5
526
330
524
100
AcDbEntity
  8
TEXT
 62
     7
100
AcDbVertex
100
AcDb2dVertex
 10
152.3812241915054
 20
176.4643364359187
 30
0.0
  0
SEQEND
  5
527
330
524
100
AcDbEntity
  8
TEXT
  0
POLYLINE
  5
528
330
1F
100
AcDbEntity
  8
TEXT
 62
     7
100
AcDb2dPolyline
 66
     1
 10
0.0
 20
0.0
 30
0.0
  0
VERTEX
  5
529
330
528
100
AcDbEntity
  8
TEXT
 62
     7
100
AcDbVertex
100
AcDb2dVertex
 10
62.12781845234999
 20
185.0143744112117
 30
0.0
  0
VERTEX
  5
52A
330
528
100
AcDbEntity
  8
TEXT
 62
     7
100
AcDbVertex
100
AcDb2dVertex
 10
62.12781845234999
 20
235.0142509720624
 30
0.0
  0
SEQEND
  5
52B
330
528
100
AcDbEntity
  8
TEXT
  0
POLYLINE
  5
52C
330
1F
100
AcDbEntity
  8
TEXT
 62
     7
100
AcDb2dPolyline
 66
     1
 10
0.0
 20
0.0
 30
0.0
  0
VERTEX
  5
52D
330
52C
100
AcDbEntity
  8
TEXT
 62
     7
100
AcDbVertex
100
AcDb2dVertex
 10
122.1276014234612
 20
212.2140922863562
 30
0.0
  0
VERTEX
  5
52E
330
52C
100
AcDbEntity
  8
TEXT
 62
     7
100
AcDbVertex
100
AcDb2dVertex
 10
122.1276014234612
 20
235.0142509720624
 30
0.0
  0
SEQEND
  5
52F
330
52C
100
AcDbEntity
  8
TEXT
  0
POLYLINE
  5
530
330
1F
100
AcDbEntity
  8
TEXT
 62
     7
100
AcDb2dPolyline
 66
     1
 10
0.0
 20
0.0
 30
0.0
  0
VERTEX
  5
531
330
530
100
AcDbEntity
  8
TEXT
 62
     7
100
AcDbVertex
100
AcDb2dVertex
 10
62.12781845234999
 20
233.0143730428749
 30
0.0
  0
VERTEX
  5
532
330
530
100
AcDbEntity
  8
TEXT
 62
     7
100
AcDbVertex
100
AcDb2dVertex
 10
122.1276014234612
 20
233.0143730428749
 30
0.0
  0
SEQEND
  5
533
330
530
100
AcDbEntity
  8
TEXT
  0
POLYLINE
  5
534
330
1F
100
AcDbEntity
  8
TEXT
 62
     7
100
AcDb2dPolyline
 66
     1
 10
0.0
 20
0.0
 30
0.0
  0
VERTEX
  5
535
330
534
100
AcDbEntity
  8
TEXT
 62
     7
100
AcDbVertex
100
AcDb2dVertex
 10
62.12781845234999
 20
233.0143730428749
 30
0.0
  0
VERTEX
  5
536
330
534
100
AcDbEntity
  8
TEXT
 62
     7
100
AcDbVertex
100
AcDb2dVertex
 10
65.62751870104104
 20
232.5532470121742
 30
0.0
  0
VERTEX
  5
537
330
534
100
AcDbEntity
  8
TEXT
 62
     7
100
AcDbVertex
100
AcDb2dVertex
 10
65.62751870104104
 20
233.4754129461884
 30
0.0
  0
VERTEX
  5
538
330
534
100
AcDbEntity
  8
TEXT
 62
     7
100
AcDbVertex
100
AcDb2dVertex
 10
62.12781845234999
 20
233.0143730428749
 30
0.0
  0
SEQEND
  5
539
330
534
100
AcDbEntity
  8
TEXT
  0
POLYLINE
  5
53A
330
1F
100
AcDbEntity
  8
TEXT
 62
     7
100
AcDb2dPolyline
 66
     1
 10
0.0
 20
0.0
 30
0.0
  0
VERTEX
  5
53B
330
53A
100
AcDbEntity
  8
TEXT
 62
     7
100
AcDbVertex
100
AcDb2dVertex
 10
65.62751870104104
 20
232.5567782350466
 30
0.0
  0
VERTEX
  5
53C
330
53A
100
AcDbEntity
  8
TEXT
 62
     7
100
AcDbVertex
100
AcDb2dVertex
 10
65.60030244670757
 20
232.5567782350466
 30
0.0
  0
SEQEND
  5
53D
330
53A
100
AcDbEntity
  8
TEXT
  0
POLYLINE
  5
53E
330
1F
100
AcDbEntity
  8
TEXT
 62
     7
100
AcDb2dPolyline
 66
     1
 10
0.0
 20
0.0
 30
0.0
  0
VERTEX
  5
53F
330
53E
100
AcDbEntity
  8
TEXT
 62
     7
100
AcDbVertex
100
AcDb2dVertex
 10
65.62751870104104
 20
232.5567782350466
 30
0.0
  0
VERTEX
  5
540
330
53E
100
AcDbEntity
  8
TEXT
 62
     7
100
AcDbVertex
100
AcDb2dVertex
 10
65.60030244670757
 20
232.5567782350466
 30
0.0
  0
SEQEND
  5
541
330
53E
100
AcDbEntity
  8
TEXT
  0
POLYLINE
  5
542
330
1F
100
AcDbEntity
  8
TEXT
 62
     7
100
AcDb2dPolyline
 66
     1
 10
0.0
 20
0.0
 30
0.0
  0
VERTEX
  5
543
330
542
100
AcDbEntity
  8
TEXT
 62
     7
100
AcDbVertex
100
AcDb2dVertex
 10
65.62751870104104
 20
232.6079379030026
 30
0.0
  0
VERTEX
  5
544
330
542
100
AcDbEntity
  8
TEXT
 62
     7
100
AcDbVertex
100
AcDb2dVertex
 10
65.21462400713385
 20
232.6079379030026
 30
0.0
  0
SEQEND
  5
545
330
542
100
AcDbEntity
  8
TEXT
  0
POLYLINE
  5
546
330
1F
100
AcDbEntity
  8
TEXT
 62
     7
100
AcDb2dPolyline
 66
     1
 10
0.0
 20
0.0
 30
0.0
  0
VERTEX
  5
547
330
546
100
AcDbEntity
  8
TEXT
 62
     7
100
AcDbVertex
100
AcDb2dVertex
 10
65.62751870104104
 20
232.6583224244743
 30
0.0
  0
VERTEX
  5
548
330
546
100
AcDbEntity
  8
TEXT
 62
     7
100
AcDbVertex
100
AcDb2dVertex
 10
64.82842880323734
 20
232.6583224244743
 30
0.0
  0
SEQEND
  5
549
330
546
100
AcDbEntity
  8
TEXT
  0
POLYLINE
  5
54A
330
1F
100
AcDbEntity
  8
TEXT
 62
     7
100
AcDb2dPolyline
 66
     1
 10
0.0
 20
0.0
 30
0.0
  0
VERTEX
  5
54B
330
54A
100
AcDbEntity
  8
TEXT
 62
     7
100
AcDbVertex
100
AcDb2dVertex
 10
65.62751870104104
 20
232.7094820924303
 30
0.0
  0
VERTEX
  5
54C
330
54A
100
AcDbEntity
  8
TEXT
 62
     7
100
AcDbVertex
100
AcDb2dVertex
 10
64.44309487321215
 20
232.7094820924303
 30
0.0
  0
SEQEND
  5
54D
330
54A
100
AcDbEntity
  8
TEXT
  0
POLYLINE
  5
54E
330
1F
100
AcDbEntity
  8
TEXT
 62
     7
100
AcDb2dPolyline
 66
     1
 10
0.0
 20
0.0
 30
0.0
  0
VERTEX
  5
54F
330
54E
100
AcDbEntity
  8
TEXT
 62
     7
100
AcDbVertex
100
AcDb2dVertex
 10
65.62751870104104
 20
232.7602972508377
 30
0.0
  0
VERTEX
  5
550
330
54E
100
AcDbEntity
  8
TEXT
 62
     7
100
AcDbVertex
100
AcDb2dVertex
 10
64.05689966931564
 20
232.7602972508377
 30
0.0
  0
SEQEND
  5
551
330
54E
100
AcDbEntity
  8
TEXT
  0
POLYLINE
  5
552
330
1F
100
AcDbEntity
  8
TEXT
 62
     7
100
AcDb2dPolyline
 66
     1
 10
0.0
 20
0.0
 30
0.0
  0
VERTEX
  5
553
330
552
100
AcDbEntity
  8
TEXT
 62
     7
100
AcDbVertex
100
AcDb2dVertex
 10
65.62751870104104
 20
232.8111124092451
 30
0.0
  0
VERTEX
  5
554
330
552
100
AcDbEntity
  8
TEXT
 62
     7
100
AcDbVertex
100
AcDb2dVertex
 10
63.67122122974192
 20
232.8111124092451
 30
0.0
  0
SEQEND
  5
555
330
552
100
AcDbEntity
  8
TEXT
  0
POLYLINE
  5
556
330
1F
100
AcDbEntity
  8
TEXT
 62
     7
100
AcDb2dPolyline
 66
     1
 10
0.0
 20
0.0
 30
0.0
  0
VERTEX
  5
557
330
556
100
AcDbEntity
  8
TEXT
 62
     7
100
AcDbVertex
100
AcDb2dVertex
 10
65.62751870104104
 20
232.8619275676526
 30
0.0
  0
VERTEX
  5
558
330
556
100
AcDbEntity
  8
TEXT
 62
     7
100
AcDbVertex
100
AcDb2dVertex
 10
63.28502602584541
 20
232.8619275676526
 30
0.0
  0
SEQEND
  5
559
330
556
100
AcDbEntity
  8
TEXT
  0
POLYLINE
  5
55A
330
1F
100
AcDbEntity
  8
TEXT
 62
     7
100
AcDb2dPolyline
 66
     1
 10
0.0
 20
0.0
 30
0.0
  0
VERTEX
  5
55B
330
55A
100
AcDbEntity
  8
TEXT
 62
     7
100
AcDbVertex
100
AcDb2dVertex
 10
65.62751870104104
 20
232.91274272606
 30
0.0
  0
VERTEX
  5
55C
330
55A
100
AcDbEntity
  8
TEXT
 62
     7
100
AcDbVertex
100
AcDb2dVertex
 10
62.89969209582022
 20
232.91274272606
 30
0.0
  0
SEQEND
  5
55D
330
55A
100
AcDbEntity
  8
TEXT
  0
POLYLINE
  5
55E
330
1F
100
AcDbEntity
  8
TEXT
 62
     7
100
AcDb2dPolyline
 66
     1
 10
0.0
 20
0.0
 30
0.0
  0
VERTEX
  5
55F
330
55E
100
AcDbEntity
  8
TEXT
 62
     7
100
AcDbVertex
100
AcDb2dVertex
 10
65.62751870104104
 20
232.9635578844675
 30
0.0
  0
VERTEX
  5
560
330
55E
100
AcDbEntity
  8
TEXT
 62
     7
100
AcDbVertex
100
AcDb2dVertex
 10
62.51349689192372
 20
232.9635578844675
 30
0.0
  0
SEQEND
  5
561
330
55E
100
AcDbEntity
  8
TEXT
  0
POLYLINE
  5
562
330
1F
100
AcDbEntity
  8
TEXT
 62
     7
100
AcDb2dPolyline
 66
     1
 10
0.0
 20
0.0
 30
0.0
  0
VERTEX
  5
563
330
562
100
AcDbEntity
  8
TEXT
 62
     7
100
AcDbVertex
100
AcDb2dVertex
 10
65.62751870104104
 20
233.0143730428749
 30
0.0
  0
VERTEX
  5
564
330
562
100
AcDbEntity
  8
TEXT
 62
     7
100
AcDbVertex
100
AcDb2dVertex
 10
62.12781845234999
 20
233.0143730428749
 30
0.0
  0
SEQEND
  5
565
330
562
100
AcDbEntity
  8
TEXT
  0
POLYLINE
  5
566
330
1F
100
AcDbEntity
  8
TEXT
 62
     7
100
AcDb2dPolyline
 66
     1
 10
0.0
 20
0.0
 30
0.0
  0
VERTEX
  5
567
330
566
100
AcDbEntity
  8
TEXT
 62
     7
100
AcDbVertex
100
AcDb2dVertex
 10
65.62751870104104
 20
233.471192704219
 30
0.0
  0
VERTEX
  5
568
330
566
100
AcDbEntity
  8
TEXT
 62
     7
100
AcDbVertex
100
AcDb2dVertex
 10
65.60030244670757
 20
233.471192704219
 30
0.0
  0
SEQEND
  5
569
330
566
100
AcDbEntity
  8
TEXT
  0
POLYLINE
  5
56A
330
1F
100
AcDbEntity
  8
TEXT
 62
     7
100
AcDb2dPolyline
 66
     1
 10
0.0
 20
0.0
 30
0.0
  0
VERTEX
  5
56B
330
56A
100
AcDbEntity
  8
TEXT
 62
     7
100
AcDbVertex
100
AcDb2dVertex
 10
65.62751870104104
 20
233.471192704219
 30
0.0
  0
VERTEX
  5
56C
330
56A
100
AcDbEntity
  8
TEXT
 62
     7
100
AcDbVertex
100
AcDb2dVertex
 10
65.60030244670757
 20
233.471192704219
 30
0.0
  0
SEQEND
  5
56D
330
56A
100
AcDbEntity
  8
TEXT
  0
POLYLINE
  5
56E
330
1F
100
AcDbEntity
  8
TEXT
 62
     7
100
AcDb2dPolyline
 66
     1
 10
0.0
 20
0.0
 30
0.0
  0
VERTEX
  5
56F
330
56E
100
AcDbEntity
  8
TEXT
 62
     7
100
AcDbVertex
100
AcDb2dVertex
 10
65.62751870104104
 20
233.4203775458116
 30
0.0
  0
VERTEX
  5
570
330
56E
100
AcDbEntity
  8
TEXT
 62
     7
100
AcDbVertex
100
AcDb2dVertex
 10
65.21462400713385
 20
233.4203775458116
 30
0.0
  0
SEQEND
  5
571
330
56E
100
AcDbEntity
  8
TEXT
  0
POLYLINE
  5
572
330
1F
100
AcDbEntity
  8
TEXT
 62
     7
100
AcDb2dPolyline
 66
     1
 10
0.0
 20
0.0
 30
0.0
  0
VERTEX
  5
573
330
572
100
AcDbEntity
  8
TEXT
 62
     7
100
AcDbVertex
100
AcDb2dVertex
 10
65.62751870104104
 20
233.3695623874042
 30
0.0
  0
VERTEX
  5
574
330
572
100
AcDbEntity
  8
TEXT
 62
     7
100
AcDbVertex
100
AcDb2dVertex
 10
64.82842880323734
 20
233.3695623874042
 30
0.0
  0
SEQEND
  5
575
330
572
100
AcDbEntity
  8
TEXT
  0
POLYLINE
  5
576
330
1F
100
AcDbEntity
  8
TEXT
 62
     7
100
AcDb2dPolyline
 66
     1
 10
0.0
 20
0.0
 30
0.0
  0
VERTEX
  5
577
330
576
100
AcDbEntity
  8
TEXT
 62
     7
100
AcDbVertex
100
AcDb2dVertex
 10
65.62751870104104
 20
233.3187472289967
 30
0.0
  0
VERTEX
  5
578
330
576
100
AcDbEntity
  8
TEXT
 62
     7
100
AcDbVertex
100
AcDb2dVertex
 10
64.44309487321215
 20
233.3187472289967
 30
0.0
  0
SEQEND
  5
579
330
576
100
AcDbEntity
  8
TEXT
  0
POLYLINE
  5
57A
330
1F
100
AcDbEntity
  8
TEXT
 62
     7
100
AcDb2dPolyline
 66
     1
 10
0.0
 20
0.0
 30
0.0
  0
VERTEX
  5
57B
330
57A
100
AcDbEntity
  8
TEXT
 62
     7
100
AcDbVertex
100
AcDb2dVertex
 10
65.62751870104104
 20
233.2686210896863
 30
0.0
  0
VERTEX
  5
57C
330
57A
100
AcDbEntity
  8
TEXT
 62
     7
100
AcDbVertex
100
AcDb2dVertex
 10
64.05689966931564
 20
233.2686210896863
 30
0.0
  0
SEQEND
  5
57D
330
57A
100
AcDbEntity
  8
TEXT
  0
POLYLINE
  5
57E
330
1F
100
AcDbEntity
  8
TEXT
 62
     7
100
AcDb2dPolyline
 66
     1
 10
0.0
 20
0.0
 30
0.0
  0
VERTEX
  5
57F
330
57E
100
AcDbEntity
  8
TEXT
 62
     7
100
AcDbVertex
100
AcDb2dVertex
 10
65.62751870104104
 20
233.2175475491175
 30
0.0
  0
VERTEX
  5
580
330
57E
100
AcDbEntity
  8
TEXT
 62
     7
100
AcDbVertex
100
AcDb2dVertex
 10
63.67122122974192
 20
233.2175475491175
 30
0.0
  0
SEQEND
  5
581
330
57E
100
AcDbEntity
  8
TEXT
  0
POLYLINE
  5
582
330
1F
100
AcDbEntity
  8
TEXT
 62
     7
100
AcDb2dPolyline
 66
     1
 10
0.0
 20
0.0
 30
0.0
  0
VERTEX
  5
583
330
582
100
AcDbEntity
  8
TEXT
 62
     7
100
AcDbVertex
100
AcDb2dVertex
 10
65.62751870104104
 20
233.1667323907101
 30
0.0
  0
VERTEX
  5
584
330
582
100
AcDbEntity
  8
TEXT
 62
     7
100
AcDbVertex
100
AcDb2dVertex
 10
63.28502602584541
 20
233.1667323907101
 30
0.0
  0
SEQEND
  5
585
330
582
100
AcDbEntity
  8
TEXT
  0
POLYLINE
  5
586
330
1F
100
AcDbEntity
  8
TEXT
 62
     7
100
AcDb2dPolyline
 66
     1
 10
0.0
 20
0.0
 30
0.0
  0
VERTEX
  5
587
330
586
100
AcDbEntity
  8
TEXT
 62
     7
100
AcDbVertex
100
AcDb2dVertex
 10
65.62751870104104
 20
233.1162617418512
 30
0.0
  0
VERTEX
  5
588
330
586
100
AcDbEntity
  8
TEXT
 62
     7
100
AcDbVertex
100
AcDb2dVertex
 10
62.89969209582022
 20
233.1162617418512
 30
0.0
  0
SEQEND
  5
589
330
586
100
AcDbEntity
  8
TEXT
  0
POLYLINE
  5
58A
330
1F
100
AcDbEntity
  8
TEXT
 62
     7
100
AcDb2dPolyline
 66
     1
 10
0.0
 20
0.0
 30
0.0
  0
VERTEX
  5
58B
330
58A
100
AcDbEntity
  8
TEXT
 62
     7
100
AcDbVertex
100
AcDb2dVertex
 10
65.62751870104104
 20
233.0651020738952
 30
0.0
  0
VERTEX
  5
58C
330
58A
100
AcDbEntity
  8
TEXT
 62
     7
100
AcDbVertex
100
AcDb2dVertex
 10
62.51349689192372
 20
233.0651020738952
 30
0.0
  0
SEQEND
  5
58D
330
58A
100
AcDbEntity
  8
TEXT
  0
POLYLINE
  5
58E
330
1F
100
AcDbEntity
  8
TEXT
 62
     7
100
AcDb2dPolyline
 66
     1
 10
0.0
 20
0.0
 30
0.0
  0
VERTEX
  5
58F
330
58E
100
AcDbEntity
  8
TEXT
 62
     7
100
AcDbVertex
100
AcDb2dVertex
 10
65.62751870104104
 20
233.0143730428749
 30
0.0
  0
VERTEX
  5
590
330
58E
100
AcDbEntity
  8
TEXT
 62
     7
100
AcDbVertex
100
AcDb2dVertex
 10
62.12781845234999
 20
233.0143730428749
 30
0.0
  0
SEQEND
  5
591
330
58E
100
AcDbEntity
  8
TEXT
  0
POLYLINE
  5
592
330
1F
100
AcDbEntity
  8
TEXT
 62
     7
100
AcDb2dPolyline
 66
     1
 10
0.0
 20
0.0
 30
0.0
  0
VERTEX
  5
593
330
592
100
AcDbEntity
  8
TEXT
 62
     7
100
AcDbVertex
100
AcDb2dVertex
 10
122.1276014234612
 20
233.0143730428749
 30
0.0
  0
VERTEX
  5
594
330
592
100
AcDbEntity
  8
TEXT
 62
     7
100
AcDbVertex
100
AcDb2dVertex
 10
118.6273844104473
 20
233.4754129461884
 30
0.0
  0
VERTEX
  5
595
330
592
100
AcDbEntity
  8
TEXT
 62
     7
100
AcDbVertex
100
AcDb2dVertex
 10
118.6273844104473
 20
232.5532470121742
 30
0.0
  0
VERTEX
  5
596
330
592
100
AcDbEntity
  8
TEXT
 62
     7
100
AcDbVertex
100
AcDb2dVertex
 10
122.1276014234612
 20
233.0143730428749
 30
0.0
  0
SEQEND
  5
597
330
592
100
AcDbEntity
  8
TEXT
  0
POLYLINE
  5
598
330
1F
100
AcDbEntity
  8
TEXT
 62
     7
100
AcDb2dPolyline
 66
     1
 10
0.0
 20
0.0
 30
0.0
  0
VERTEX
  5
599
330
598
100
AcDbEntity
  8
TEXT
 62
     7
100
AcDbVertex
100
AcDb2dVertex
 10
118.6273844104473
 20
233.471192704219
 30
0.0
  0
VERTEX
  5
59A
330
598
100
AcDbEntity
  8
TEXT
 62
     7
100
AcDbVertex
100
AcDb2dVertex
 10
118.6549451743293
 20
233.471192704219
 30
0.0
  0
SEQEND
  5
59B
330
598
100
AcDbEntity
  8
TEXT
  0
POLYLINE
  5
59C
330
1F
100
AcDbEntity
  8
TEXT
 62
     7
100
AcDb2dPolyline
 66
     1
 10
0.0
 20
0.0
 30
0.0
  0
VERTEX
  5
59D
330
59C
100
AcDbEntity
  8
TEXT
 62
     7
100
AcDbVertex
100
AcDb2dVertex
 10
118.6273844104473
 20
233.471192704219
 30
0.0
  0
VERTEX
  5
59E
330
59C
100
AcDbEntity
  8
TEXT
 62
     7
100
AcDbVertex
100
AcDb2dVertex
 10
118.6549451743293
 20
233.471192704219
 30
0.0
  0
SEQEND
  5
59F
330
59C
100
AcDbEntity
  8
TEXT
  0
POLYLINE
  5
5A0
330
1F
100
AcDbEntity
  8
TEXT
 62
     7
100
AcDb2dPolyline
 66
     1
 10
0.0
 20
0.0
 30
0.0
  0
VERTEX
  5
5A1
330
5A0
100
AcDbEntity
  8
TEXT
 62
     7
100
AcDbVertex
100
AcDb2dVertex
 10
118.6273844104473
 20
233.4203775458116
 30
0.0
  0
VERTEX
  5
5A2
330
5A0
100
AcDbEntity
  8
TEXT
 62
     7
100
AcDbVertex
100
AcDb2dVertex
 10
119.0407958686773
 20
233.4203775458116
 30
0.0
  0
SEQEND
  5
5A3
330
5A0
100
AcDbEntity
  8
TEXT
  0
POLYLINE
  5
5A4
330
1F
100
AcDbEntity
  8
TEXT
 62
     7
100
AcDb2dPolyline
 66
     1
 10
0.0
 20
0.0
 30
0.0
  0
VERTEX
  5
5A5
330
5A4
100
AcDbEntity
  8
TEXT
 62
     7
100
AcDbVertex
100
AcDb2dVertex
 10
118.6273844104473
 20
233.3695623874042
 30
0.0
  0
VERTEX
  5
5A6
330
5A4
100
AcDbEntity
  8
TEXT
 62
     7
100
AcDbVertex
100
AcDb2dVertex
 10
119.426474308251
 20
233.3695623874042
 30
0.0
  0
SEQEND
  5
5A7
330
5A4
100
AcDbEntity
  8
TEXT
  0
POLYLINE
  5
5A8
330
1F
100
AcDbEntity
  8
TEXT
 62
     7
100
AcDb2dPolyline
 66
     1
 10
0.0
 20
0.0
 30
0.0
  0
VERTEX
  5
5A9
330
5A8
100
AcDbEntity
  8
TEXT
 62
     7
100
AcDbVertex
100
AcDb2dVertex
 10
118.6273844104473
 20
233.3187472289967
 30
0.0
  0
VERTEX
  5
5AA
330
5A8
100
AcDbEntity
  8
TEXT
 62
     7
100
AcDbVertex
100
AcDb2dVertex
 10
119.8126695121475
 20
233.3187472289967
 30
0.0
  0
SEQEND
  5
5AB
330
5A8
100
AcDbEntity
  8
TEXT
  0
POLYLINE
  5
5AC
330
1F
100
AcDbEntity
  8
TEXT
 62
     7
100
AcDb2dPolyline
 66
     1
 10
0.0
 20
0.0
 30
0.0
  0
VERTEX
  5
5AD
330
5AC
100
AcDbEntity
  8
TEXT
 62
     7
100
AcDbVertex
100
AcDb2dVertex
 10
118.6273844104473
 20
233.2686210896863
 30
0.0
  0
VERTEX
  5
5AE
330
5AC
100
AcDbEntity
  8
TEXT
 62
     7
100
AcDbVertex
100
AcDb2dVertex
 10
120.1983479517212
 20
233.2686210896863
 30
0.0
  0
SEQEND
  5
5AF
330
5AC
100
AcDbEntity
  8
TEXT
  0
POLYLINE
  5
5B0
330
1F
100
AcDbEntity
  8
TEXT
 62
     7
100
AcDb2dPolyline
 66
     1
 10
0.0
 20
0.0
 30
0.0
  0
VERTEX
  5
5B1
330
5B0
100
AcDbEntity
  8
TEXT
 62
     7
100
AcDbVertex
100
AcDb2dVertex
 10
118.6273844104473
 20
233.2175475491175
 30
0.0
  0
VERTEX
  5
5B2
330
5B0
100
AcDbEntity
  8
TEXT
 62
     7
100
AcDbVertex
100
AcDb2dVertex
 10
120.5841986460692
 20
233.2175475491175
 30
0.0
  0
SEQEND
  5
5B3
330
5B0
100
AcDbEntity
  8
TEXT
  0
POLYLINE
  5
5B4
330
1F
100
AcDbEntity
  8
TEXT
 62
     7
100
AcDb2dPolyline
 66
     1
 10
0.0
 20
0.0
 30
0.0
  0
VERTEX
  5
5B5
330
5B4
100
AcDbEntity
  8
TEXT
 62
     7
100
AcDbVertex
100
AcDb2dVertex
 10
118.6273844104473
 20
233.1667323907101
 30
0.0
  0
VERTEX
  5
5B6
330
5B4
100
AcDbEntity
  8
TEXT
 62
     7
100
AcDbVertex
100
AcDb2dVertex
 10
120.9698770856429
 20
233.1667323907101
 30
0.0
  0
SEQEND
  5
5B7
330
5B4
100
AcDbEntity
  8
TEXT
  0
POLYLINE
  5
5B8
330
1F
100
AcDbEntity
  8
TEXT
 62
     7
100
AcDb2dPolyline
 66
     1
 10
0.0
 20
0.0
 30
0.0
  0
VERTEX
  5
5B9
330
5B8
100
AcDbEntity
  8
TEXT
 62
     7
100
AcDbVertex
100
AcDb2dVertex
 10
118.6273844104473
 20
233.1162617418512
 30
0.0
  0
VERTEX
  5
5BA
330
5B8
100
AcDbEntity
  8
TEXT
 62
     7
100
AcDbVertex
100
AcDb2dVertex
 10
121.3560722895395
 20
233.1162617418512
 30
0.0
  0
SEQEND
  5
5BB
330
5B8
100
AcDbEntity
  8
TEXT
  0
POLYLINE
  5
5BC
330
1F
100
AcDbEntity
  8
TEXT
 62
     7
100
AcDb2dPolyline
 66
     1
 10
0.0
 20
0.0
 30
0.0
  0
VERTEX
  5
5BD
330
5BC
100
AcDbEntity
  8
TEXT
 62
     7
100
AcDbVertex
100
AcDb2dVertex
 10
118.6273844104473
 20
233.0651020738952
 30
0.0
  0
VERTEX
  5
5BE
330
5BC
100
AcDbEntity
  8
TEXT
 62
     7
100
AcDbVertex
100
AcDb2dVertex
 10
121.7417507291132
 20
233.0651020738952
 30
0.0
  0
SEQEND
  5
5BF
330
5BC
100
AcDbEntity
  8
TEXT
  0
POLYLINE
  5
5C0
330
1F
100
AcDbEntity
  8
TEXT
 62
     7
100
AcDb2dPolyline
 66
     1
 10
0.0
 20
0.0
 30
0.0
  0
VERTEX
  5
5C1
330
5C0
100
AcDbEntity
  8
TEXT
 62
     7
100
AcDbVertex
100
AcDb2dVertex
 10
118.6273844104473
 20
233.0143730428749
 30
0.0
  0
VERTEX
  5
5C2
330
5C0
100
AcDbEntity
  8
TEXT
 62
     7
100
AcDbVertex
100
AcDb2dVertex
 10
122.1276014234612
 20
233.0143730428749
 30
0.0
  0
SEQEND
  5
5C3
330
5C0
100
AcDbEntity
  8
TEXT
  0
POLYLINE
  5
5C4
330
1F
100
AcDbEntity
  8
TEXT
 62
     7
100
AcDb2dPolyline
 66
     1
 10
0.0
 20
0.0
 30
0.0
  0
VERTEX
  5
5C5
330
5C4
100
AcDbEntity
  8
TEXT
 62
     7
100
AcDbVertex
100
AcDb2dVertex
 10
118.6273844104473
 20
232.5567782350466
 30
0.0
  0
VERTEX
  5
5C6
330
5C4
100
AcDbEntity
  8
TEXT
 62
     7
100
AcDbVertex
100
AcDb2dVertex
 10
118.6549451743293
 20
232.5567782350466
 30
0.0
  0
SEQEND
  5
5C7
330
5C4
100
AcDbEntity
  8
TEXT
  0
POLYLINE
  5
5C8
330
1F
100
AcDbEntity
  8
TEXT
 62
     7
100
AcDb2dPolyline
 66
     1
 10
0.0
 20
0.0
 30
0.0
  0
VERTEX
  5
5C9
330
5C8
100
AcDbEntity
  8
TEXT
 62
     7
100
AcDbVertex
100
AcDb2dVertex
 10
118.6273844104473
 20
232.5567782350466
 30
0.0
  0
VERTEX
  5
5CA
330
5C8
100
AcDbEntity
  8
TEXT
 62
     7
100
AcDbVertex
100
AcDb2dVertex
 10
118.6549451743293
 20
232.5567782350466
 30
0.0
  0
SEQEND
  5
5CB
330
5C8
100
AcDbEntity
  8
TEXT
  0
POLYLINE
  5
5CC
330
1F
100
AcDbEntity
  8
TEXT
 62
     7
100
AcDb2dPolyline
 66
     1
 10
0.0
 20
0.0
 30
0.0
  0
VERTEX
  5
5CD
330
5CC
100
AcDbEntity
  8
TEXT
 62
     7
100
AcDbVertex
100
AcDb2dVertex
 10
118.6273844104473
 20
232.6079379030026
 30
0.0
  0
VERTEX
  5
5CE
330
5CC
100
AcDbEntity
  8
TEXT
 62
     7
100
AcDbVertex
100
AcDb2dVertex
 10
119.0407958686773
 20
232.6079379030026
 30
0.0
  0
SEQEND
  5
5CF
330
5CC
100
AcDbEntity
  8
TEXT
  0
POLYLINE
  5
5D0
330
1F
100
AcDbEntity
  8
TEXT
 62
     7
100
AcDb2dPolyline
 66
     1
 10
0.0
 20
0.0
 30
0.0
  0
VERTEX
  5
5D1
330
5D0
100
AcDbEntity
  8
TEXT
 62
     7
100
AcDbVertex
100
AcDb2dVertex
 10
118.6273844104473
 20
232.6583224244743
 30
0.0
  0
VERTEX
  5
5D2
330
5D0
100
AcDbEntity
  8
TEXT
 62
     7
100
AcDbVertex
100
AcDb2dVertex
 10
119.426474308251
 20
232.6583224244743
 30
0.0
  0
SEQEND
  5
5D3
330
5D0
100
AcDbEntity
  8
TEXT
  0
POLYLINE
  5
5D4
330
1F
100
AcDbEntity
  8
TEXT
 62
     7
100
AcDb2dPolyline
 66
     1
 10
0.0
 20
0.0
 30
0.0
  0
VERTEX
  5
5D5
330
5D4
100
AcDbEntity
  8
TEXT
 62
     7
100
AcDbVertex
100
AcDb2dVertex
 10
118.6273844104473
 20
232.7094820924303
 30
0.0
  0
VERTEX
  5
5D6
330
5D4
100
AcDbEntity
  8
TEXT
 62
     7
100
AcDbVertex
100
AcDb2dVertex
 10
119.8126695121475
 20
232.7094820924303
 30
0.0
  0
SEQEND
  5
5D7
330
5D4
100
AcDbEntity
  8
TEXT
  0
POLYLINE
  5
5D8
330
1F
100
AcDbEntity
  8
TEXT
 62
     7
100
AcDb2dPolyline
 66
     1
 10
0.0
 20
0.0
 30
0.0
  0
VERTEX
  5
5D9
330
5D8
100
AcDbEntity
  8
TEXT
 62
     7
100
AcDbVertex
100
AcDb2dVertex
 10
118.6273844104473
 20
232.7602972508377
 30
0.0
  0
VERTEX
  5
5DA
330
5D8
100
AcDbEntity
  8
TEXT
 62
     7
100
AcDbVertex
100
AcDb2dVertex
 10
120.1983479517212
 20
232.7602972508377
 30
0.0
  0
SEQEND
  5
5DB
330
5D8
100
AcDbEntity
  8
TEXT
  0
POLYLINE
  5
5DC
330
1F
100
AcDbEntity
  8
TEXT
 62
     7
100
AcDb2dPolyline
 66
     1
 10
0.0
 20
0.0
 30
0.0
  0
VERTEX
  5
5DD
330
5DC
100
AcDbEntity
  8
TEXT
 62
     7
100
AcDbVertex
100
AcDb2dVertex
 10
118.6273844104473
 20
232.8111124092451
 30
0.0
  0
VERTEX
  5
5DE
330
5DC
100
AcDbEntity
  8
TEXT
 62
     7
100
AcDbVertex
100
AcDb2dVertex
 10
120.5841986460692
 20
232.8111124092451
 30
0.0
  0
SEQEND
  5
5DF
330
5DC
100
AcDbEntity
  8
TEXT
  0
POLYLINE
  5
5E0
330
1F
100
AcDbEntity
  8
TEXT
 62
     7
100
AcDb2dPolyline
 66
     1
 10
0.0
 20
0.0
 30
0.0
  0
VERTEX
  5
5E1
330
5E0
100
AcDbEntity
  8
TEXT
 62
     7
100
AcDbVertex
100
AcDb2dVertex
 10
118.6273844104473
 20
232.8619275676526
 30
0.0
  0
VERTEX
  5
5E2
330
5E0
100
AcDbEntity
  8
TEXT
 62
     7
100
AcDbVertex
100
AcDb2dVertex
 10
120.9698770856429
 20
232.8619275676526
 30
0.0
  0
SEQEND
  5
5E3
330
5E0
100
AcDbEntity
  8
TEXT
  0
POLYLINE
  5
5E4
330
1F
100
AcDbEntity
  8
TEXT
 62
     7
100
AcDb2dPolyline
 66
     1
 10
0.0
 20
0.0
 30
0.0
  0
VERTEX
  5
5E5
330
5E4
100
AcDbEntity
  8
TEXT
 62
     7
100
AcDbVertex
100
AcDb2dVertex
 10
118.6273844104473
 20
232.91274272606
 30
0.0
  0
VERTEX
  5
5E6
330
5E4
100
AcDbEntity
  8
TEXT
 62
     7
100
AcDbVertex
100
AcDb2dVertex
 10
121.3560722895395
 20
232.91274272606
 30
0.0
  0
SEQEND
  5
5E7
330
5E4
100
AcDbEntity
  8
TEXT
  0
POLYLINE
  5
5E8
330
1F
100
AcDbEntity
  8
TEXT
 62
     7
100
AcDb2dPolyline
 66
     1
 10
0.0
 20
0.0
 30
0.0
  0
VERTEX
  5
5E9
330
5E8
100
AcDbEntity
  8
TEXT
 62
     7
100
AcDbVertex
100
AcDb2dVertex
 10
118.6273844104473
 20
232.9635578844675
 30
0.0
  0
VERTEX
  5
5EA
330
5E8
100
AcDbEntity
  8
TEXT
 62
     7
100
AcDbVertex
100
AcDb2dVertex
 10
121.7417507291132
 20
232.9635578844675
 30
0.0
  0
SEQEND
  5
5EB
330
5E8
100
AcDbEntity
  8
TEXT
  0
POLYLINE
  5
5EC
330
1F
100
AcDbEntity
  8
TEXT
 62
     7
100
AcDb2dPolyline
 66
     1
 10
0.0
 20
0.0
 30
0.0
  0
VERTEX
  5
5ED
330
5EC
100
AcDbEntity
  8
TEXT
 62
     7
100
AcDbVertex
100
AcDb2dVertex
 10
118.6273844104473
 20
233.0143730428749
 30
0.0
  0
VERTEX
  5
5EE
330
5EC
100
AcDbEntity
  8
TEXT
 62
     7
100
AcDbVertex
100
AcDb2dVertex
 10
122.1276014234612
 20
233.0143730428749
 30
0.0
  0
SEQEND
  5
5EF
330
5EC
100
AcDbEntity
  8
TEXT
  0
POLYLINE
  5
5F0
330
1F
100
AcDbEntity
  8
TEXT
 62
     7
100
AcDb2dPolyline
 66
     1
 10
0.0
 20
0.0
 30
0.0
  0
VERTEX
  5
5F1
330
5F0
100
AcDbEntity
  8
TEXT
 62
     7
100
AcDbVertex
100
AcDb2dVertex
 10
121.4034423524616
 20
198.3747992125591
 30
0.0
  0
VERTEX
  5
5F2
330
5F0
100
AcDbEntity
  8
TEXT
 62
     7
100
AcDbVertex
100
AcDb2dVertex
 10
121.1028577713736
 20
192.6332030768417
 30
0.0
  0
SEQEND
  5
5F3
330
5F0
100
AcDbEntity
  8
TEXT
  0
POLYLINE
  5
5F4
330
1F
100
AcDbEntity
  8
TEXT
 62
     7
100
AcDb2dPolyline
 66
     1
 10
0.0
 20
0.0
 30
0.0
  0
VERTEX
  5
5F5
330
5F4
100
AcDbEntity
  8
TEXT
 62
     7
100
AcDbVertex
100
AcDb2dVertex
 10
121.3274779970119
 20
213.0147324771283
 30
0.0
  0
VERTEX
  5
5F6
330
5F4
100
AcDbEntity
  8
TEXT
 62
     7
100
AcDbVertex
100
AcDb2dVertex
 10
142.5799275359696
 20
213.0147324771283
 30
0.0
  0
SEQEND
  5
5F7
330
5F4
100
AcDbEntity
  8
TEXT
  0
SPLINE
  5
5F8
330
1F
100
AcDbEntity
  8
TEXT
 62
     7
100
AcDbSpline
210
0.0
220
0.0
230
1.0
 70
     8
 71
     3
 72
    11
 73
     7
 74
     0
 42
0.0000000001
 43
0.0000000001
 40
0.0
 40
0.0
 40
0.0
 40
0.0
 40
1.0
 40
1.0
 40
1.0
 40
2.0
 40
2.0
 40
2.0
 40
2.0
 10
121.2072441645767
 20
194.630324929641
 30
0.0
 10
121.5458970507767
 20
194.6127549426663
 30
0.0
 10
121.8824828796856
 20
194.6041422039531
 30
0.0
 10
122.1706651170268
 20
194.6048312230502
 30
0.0
 10
132.3376586583218
 20
194.6048312230502
 30
0.0
 10
140.5797050972336
 20
202.8472221715104
 30
0.0
 10
140.5797050972336
 20
213.0147324771283
 30
0.0
  0
POLYLINE
  5
5F9
330
1F
100
AcDbEntity
  8
TEXT
 62
     7
100
AcDb2dPolyline
 66
     1
 10
0.0
 20
0.0
 30
0.0
  0
VERTEX
  5
5FA
330
5F9
100
AcDbEntity
  8
TEXT
 62
     7
100
AcDbVertex
100
AcDb2dVertex
 10
121.2072441645767
 20
194.630324929641
 30
0.0
  0
VERTEX
  5
5FB
330
5F9
100
AcDbEntity
  8
TEXT
 62
     7
100
AcDbVertex
100
AcDb2dVertex
 10
124.7047051012023
 20
194.1519734215141
 30
0.0
  0
VERTEX
  5
5FC
330
5F9
100
AcDbEntity
  8
TEXT
 62
     7
100
AcDbVertex
100
AcDb2dVertex
 10
124.7091837253331
 20
195.0740532281412
 30
0.0
  0
VERTEX
  5
5FD
330
5F9
100
AcDbEntity
  8
TEXT
 62
     7
100
AcDbVertex
100
AcDb2dVertex
 10
121.2072441645767
 20
194.630324929641
 30
0.0
  0
SEQEND
  5
5FE
330
5F9
100
AcDbEntity
  8
TEXT
  0
POLYLINE
  5
5FF
330
1F
100
AcDbEntity
  8
TEXT
 62
     7
100
AcDb2dPolyline
 66
     1
 10
0.0
 20
0.0
 30
0.0
  0
VERTEX
  5
600
330
5FF
100
AcDbEntity
  8
TEXT
 62
     7
100
AcDbVertex
100
AcDb2dVertex
 10
124.7047051012023
 20
194.1559352813221
 30
0.0
  0
VERTEX
  5
601
330
5FF
100
AcDbEntity
  8
TEXT
 62
     7
100
AcDbVertex
100
AcDb2dVertex
 10
124.6774888468688
 20
194.1562797908707
 30
0.0
  0
SEQEND
  5
602
330
5FF
100
AcDbEntity
  8
TEXT
  0
POLYLINE
  5
603
330
1F
100
AcDbEntity
  8
TEXT
 62
     7
100
AcDb2dPolyline
 66
     1
 10
0.0
 20
0.0
 30
0.0
  0
VERTEX
  5
604
330
603
100
AcDbEntity
  8
TEXT
 62
     7
100
AcDbVertex
100
AcDb2dVertex
 10
124.7047051012023
 20
194.1559352813221
 30
0.0
  0
VERTEX
  5
605
330
603
100
AcDbEntity
  8
TEXT
 62
     7
100
AcDbVertex
100
AcDb2dVertex
 10
124.6774888468688
 20
194.1562797908707
 30
0.0
  0
SEQEND
  5
606
330
603
100
AcDbEntity
  8
TEXT
  0
POLYLINE
  5
607
330
1F
100
AcDbEntity
  8
TEXT
 62
     7
100
AcDb2dPolyline
 66
     1
 10
0.0
 20
0.0
 30
0.0
  0
VERTEX
  5
608
330
607
100
AcDbEntity
  8
TEXT
 62
     7
100
AcDbVertex
100
AcDb2dVertex
 10
124.7053941202993
 20
194.2069226945038
 30
0.0
  0
VERTEX
  5
609
330
607
100
AcDbEntity
  8
TEXT
 62
     7
100
AcDbVertex
100
AcDb2dVertex
 10
124.2919826620694
 20
194.2086452422465
 30
0.0
  0
SEQEND
  5
60A
330
607
100
AcDbEntity
  8
TEXT
  0
POLYLINE
  5
60B
330
1F
100
AcDbEntity
  8
TEXT
 62
     7
100
AcDb2dPolyline
 66
     1
 10
0.0
 20
0.0
 30
0.0
  0
VERTEX
  5
60C
330
60B
100
AcDbEntity
  8
TEXT
 62
     7
100
AcDbVertex
100
AcDb2dVertex
 10
124.7057386298479
 20
194.2570488338142
 30
0.0
  0
VERTEX
  5
60D
330
60B
100
AcDbEntity
  8
TEXT
 62
     7
100
AcDbVertex
100
AcDb2dVertex
 10
123.9066487320442
 20
194.2616997127193
 30
0.0
  0
SEQEND
  5
60E
330
60B
100
AcDbEntity
  8
TEXT
  0
POLYLINE
  5
60F
330
1F
100
AcDbEntity
  8
TEXT
 62
     7
100
AcDb2dPolyline
 66
     1
 10
0.0
 20
0.0
 30
0.0
  0
VERTEX
  5
610
330
60F
100
AcDbEntity
  8
TEXT
 62
     7
100
AcDbVertex
100
AcDb2dVertex
 10
124.7057386298479
 20
194.3078639922217
 30
0.0
  0
VERTEX
  5
611
330
60F
100
AcDbEntity
  8
TEXT
 62
     7
100
AcDbVertex
100
AcDb2dVertex
 10
123.5207980376962
 20
194.3142374188694
 30
0.0
  0
SEQEND
  5
612
330
60F
100
AcDbEntity
  8
TEXT
  0
POLYLINE
  5
613
330
1F
100
AcDbEntity
  8
TEXT
 62
     7
100
AcDb2dPolyline
 66
     1
 10
0.0
 20
0.0
 30
0.0
  0
VERTEX
  5
614
330
613
100
AcDbEntity
  8
TEXT
 62
     7
100
AcDbVertex
100
AcDb2dVertex
 10
124.7057386298479
 20
194.3586791506291
 30
0.0
  0
VERTEX
  5
615
330
613
100
AcDbEntity
  8
TEXT
 62
     7
100
AcDbVertex
100
AcDb2dVertex
 10
123.1351195981225
 20
194.3667751250194
 30
0.0
  0
SEQEND
  5
616
330
613
100
AcDbEntity
  8
TEXT
  0
POLYLINE
  5
617
330
1F
100
AcDbEntity
  8
TEXT
 62
     7
100
AcDb2dPolyline
 66
     1
 10
0.0
 20
0.0
 30
0.0
  0
VERTEX
  5
618
330
617
100
AcDbEntity
  8
TEXT
 62
     7
100
AcDbVertex
100
AcDb2dVertex
 10
124.7060831393964
 20
194.4094943090365
 30
0.0
  0
VERTEX
  5
619
330
617
100
AcDbEntity
  8
TEXT
 62
     7
100
AcDbVertex
100
AcDb2dVertex
 10
122.7499579228715
 20
194.4193128311695
 30
0.0
  0
SEQEND
  5
61A
330
617
100
AcDbEntity
  8
TEXT
  0
POLYLINE
  5
61B
330
1F
100
AcDbEntity
  8
TEXT
 62
     7
100
AcDb2dPolyline
 66
     1
 10
0.0
 20
0.0
 30
0.0
  0
VERTEX
  5
61C
330
61B
100
AcDbEntity
  8
TEXT
 62
     7
100
AcDbVertex
100
AcDb2dVertex
 10
124.7067721584935
 20
194.4603094674439
 30
0.0
  0
VERTEX
  5
61D
330
61B
100
AcDbEntity
  8
TEXT
 62
     7
100
AcDbVertex
100
AcDb2dVertex
 10
122.3639349737493
 20
194.4718505373195
 30
0.0
  0
SEQEND
  5
61E
330
61B
100
AcDbEntity
  8
TEXT
  0
POLYLINE
  5
61F
330
1F
100
AcDbEntity
  8
TEXT
 62
     7
100
AcDb2dPolyline
 66
     1
 10
0.0
 20
0.0
 30
0.0
  0
VERTEX
  5
620
330
61F
100
AcDbEntity
  8
TEXT
 62
     7
100
AcDbVertex
100
AcDb2dVertex
 10
124.7067721584935
 20
194.5111246258514
 30
0.0
  0
VERTEX
  5
621
330
61F
100
AcDbEntity
  8
TEXT
 62
     7
100
AcDbVertex
100
AcDb2dVertex
 10
121.9784287889498
 20
194.5249050077924
 30
0.0
  0
SEQEND
  5
622
330
61F
100
AcDbEntity
  8
TEXT
  0
POLYLINE
  5
623
330
1F
100
AcDbEntity
  8
TEXT
 62
     7
100
AcDb2dPolyline
 66
     1
 10
0.0
 20
0.0
 30
0.0
  0
VERTEX
  5
624
330
623
100
AcDbEntity
  8
TEXT
 62
     7
100
AcDbVertex
100
AcDb2dVertex
 10
124.707116668042
 20
194.5619397842588
 30
0.0
  0
VERTEX
  5
625
330
623
100
AcDbEntity
  8
TEXT
 62
     7
100
AcDbVertex
100
AcDb2dVertex
 10
121.5930948589246
 20
194.5774427139424
 30
0.0
  0
SEQEND
  5
626
330
623
100
AcDbEntity
  8
TEXT
  0
POLYLINE
  5
627
330
1F
100
AcDbEntity
  8
TEXT
 62
     7
100
AcDb2dPolyline
 66
     1
 10
0.0
 20
0.0
 30
0.0
  0
VERTEX
  5
628
330
627
100
AcDbEntity
  8
TEXT
 62
     7
100
AcDbVertex
100
AcDb2dVertex
 10
124.7074611775905
 20
194.6127549426663
 30
0.0
  0
VERTEX
  5
629
330
627
100
AcDbEntity
  8
TEXT
 62
     7
100
AcDbVertex
100
AcDb2dVertex
 10
121.2072441645767
 20
194.630324929641
 30
0.0
  0
SEQEND
  5
62A
330
627
100
AcDbEntity
  8
TEXT
  0
POLYLINE
  5
62B
330
1F
100
AcDbEntity
  8
TEXT
 62
     7
100
AcDb2dPolyline
 66
     1
 10
0.0
 20
0.0
 30
0.0
  0
VERTEX
  5
62C
330
62B
100
AcDbEntity
  8
TEXT
 62
     7
100
AcDbVertex
100
AcDb2dVertex
 10
124.7091837253331
 20
195.0702636231075
 30
0.0
  0
VERTEX
  5
62D
330
62B
100
AcDbEntity
  8
TEXT
 62
     7
100
AcDbVertex
100
AcDb2dVertex
 10
124.6821397257739
 20
195.070608132656
 30
0.0
  0
SEQEND
  5
62E
330
62B
100
AcDbEntity
  8
TEXT
  0
POLYLINE
  5
62F
330
1F
100
AcDbEntity
  8
TEXT
 62
     7
100
AcDb2dPolyline
 66
     1
 10
0.0
 20
0.0
 30
0.0
  0
VERTEX
  5
630
330
62F
100
AcDbEntity
  8
TEXT
 62
     7
100
AcDbVertex
100
AcDb2dVertex
 10
124.7091837253331
 20
195.0702636231075
 30
0.0
  0
VERTEX
  5
631
330
62F
100
AcDbEntity
  8
TEXT
 62
     7
100
AcDbVertex
100
AcDb2dVertex
 10
124.6821397257739
 20
195.070608132656
 30
0.0
  0
SEQEND
  5
632
330
62F
100
AcDbEntity
  8
TEXT
  0
POLYLINE
  5
633
330
1F
100
AcDbEntity
  8
TEXT
 62
     7
100
AcDb2dPolyline
 66
     1
 10
0.0
 20
0.0
 30
0.0
  0
VERTEX
  5
634
330
633
100
AcDbEntity
  8
TEXT
 62
     7
100
AcDbVertex
100
AcDb2dVertex
 10
124.7091837253331
 20
195.0194484647
 30
0.0
  0
VERTEX
  5
635
330
633
100
AcDbEntity
  8
TEXT
 62
     7
100
AcDbVertex
100
AcDb2dVertex
 10
124.2964612862002
 20
195.0215155219911
 30
0.0
  0
SEQEND
  5
636
330
633
100
AcDbEntity
  8
TEXT
  0
POLYLINE
  5
637
330
1F
100
AcDbEntity
  8
TEXT
 62
     7
100
AcDb2dPolyline
 66
     1
 10
0.0
 20
0.0
 30
0.0
  0
VERTEX
  5
638
330
637
100
AcDbEntity
  8
TEXT
 62
     7
100
AcDbVertex
100
AcDb2dVertex
 10
124.7091837253331
 20
194.9686333062926
 30
0.0
  0
VERTEX
  5
639
330
637
100
AcDbEntity
  8
TEXT
 62
     7
100
AcDbVertex
100
AcDb2dVertex
 10
123.9102660823037
 20
194.9724229113264
 30
0.0
  0
SEQEND
  5
63A
330
637
100
AcDbEntity
  8
TEXT
  0
POLYLINE
  5
63B
330
1F
100
AcDbEntity
  8
TEXT
 62
     7
100
AcDb2dPolyline
 66
     1
 10
0.0
 20
0.0
 30
0.0
  0
VERTEX
  5
63C
330
63B
100
AcDbEntity
  8
TEXT
 62
     7
100
AcDbVertex
100
AcDb2dVertex
 10
124.7088392157846
 20
194.9178181478851
 30
0.0
  0
VERTEX
  5
63D
330
63B
100
AcDbEntity
  8
TEXT
 62
     7
100
AcDbVertex
100
AcDb2dVertex
 10
123.5238986236329
 20
194.9235025554358
 30
0.0
  0
SEQEND
  5
63E
330
63B
100
AcDbEntity
  8
TEXT
  0
POLYLINE
  5
63F
330
1F
100
AcDbEntity
  8
TEXT
 62
     7
100
AcDb2dPolyline
 66
     1
 10
0.0
 20
0.0
 30
0.0
  0
VERTEX
  5
640
330
63F
100
AcDbEntity
  8
TEXT
 62
     7
100
AcDbVertex
100
AcDb2dVertex
 10
124.7084947062361
 20
194.8670029894777
 30
0.0
  0
VERTEX
  5
641
330
63F
100
AcDbEntity
  8
TEXT
 62
     7
100
AcDbVertex
100
AcDb2dVertex
 10
123.1380479292849
 20
194.8752712186423
 30
0.0
  0
SEQEND
  5
642
330
63F
100
AcDbEntity
  8
TEXT
  0
POLYLINE
  5
643
330
1F
100
AcDbEntity
  8
TEXT
 62
     7
100
AcDb2dPolyline
 66
     1
 10
0.0
 20
0.0
 30
0.0
  0
VERTEX
  5
644
330
643
100
AcDbEntity
  8
TEXT
 62
     7
100
AcDbVertex
100
AcDb2dVertex
 10
124.7084947062361
 20
194.8163600858445
 30
0.0
  0
VERTEX
  5
645
330
643
100
AcDbEntity
  8
TEXT
 62
     7
100
AcDbVertex
100
AcDb2dVertex
 10
122.7520249801627
 20
194.8260063532032
 30
0.0
  0
SEQEND
  5
646
330
643
100
AcDbEntity
  8
TEXT
  0
POLYLINE
  5
647
330
1F
100
AcDbEntity
  8
TEXT
 62
     7
100
AcDb2dPolyline
 66
     1
 10
0.0
 20
0.0
 30
0.0
  0
VERTEX
  5
648
330
647
100
AcDbEntity
  8
TEXT
 62
     7
100
AcDbVertex
100
AcDb2dVertex
 10
124.707805687139
 20
194.7653726726628
 30
0.0
  0
VERTEX
  5
649
330
647
100
AcDbEntity
  8
TEXT
 62
     7
100
AcDbVertex
100
AcDb2dVertex
 10
122.3654852667177
 20
194.7770859973127
 30
0.0
  0
SEQEND
  5
64A
330
647
100
AcDbEntity
  8
TEXT
  0
POLYLINE
  5
64B
330
1F
100
AcDbEntity
  8
TEXT
 62
     7
100
AcDb2dPolyline
 66
     1
 10
0.0
 20
0.0
 30
0.0
  0
VERTEX
  5
64C
330
64B
100
AcDbEntity
  8
TEXT
 62
     7
100
AcDbVertex
100
AcDb2dVertex
 10
124.7074611775905
 20
194.7147297690297
 30
0.0
  0
VERTEX
  5
64D
330
64B
100
AcDbEntity
  8
TEXT
 62
     7
100
AcDbVertex
100
AcDb2dVertex
 10
121.9798068271439
 20
194.7281656414221
 30
0.0
  0
SEQEND
  5
64E
330
64B
100
AcDbEntity
  8
TEXT
  0
POLYLINE
  5
64F
330
1F
100
AcDbEntity
  8
TEXT
 62
     7
100
AcDb2dPolyline
 66
     1
 10
0.0
 20
0.0
 30
0.0
  0
VERTEX
  5
650
330
64F
100
AcDbEntity
  8
TEXT
 62
     7
100
AcDbVertex
100
AcDb2dVertex
 10
124.7074611775905
 20
194.6633978462994
 30
0.0
  0
VERTEX
  5
651
330
64F
100
AcDbEntity
  8
TEXT
 62
     7
100
AcDbVertex
100
AcDb2dVertex
 10
121.5934393684732
 20
194.6789007759831
 30
0.0
  0
SEQEND
  5
652
330
64F
100
AcDbEntity
  8
TEXT
  0
POLYLINE
  5
653
330
1F
100
AcDbEntity
  8
TEXT
 62
     7
100
AcDb2dPolyline
 66
     1
 10
0.0
 20
0.0
 30
0.0
  0
VERTEX
  5
654
330
653
100
AcDbEntity
  8
TEXT
 62
     7
100
AcDbVertex
100
AcDb2dVertex
 10
124.7074611775905
 20
194.6127549426663
 30
0.0
  0
VERTEX
  5
655
330
653
100
AcDbEntity
  8
TEXT
 62
     7
100
AcDbVertex
100
AcDb2dVertex
 10
121.2072441645767
 20
194.630324929641
 30
0.0
  0
SEQEND
  5
656
330
653
100
AcDbEntity
  8
TEXT
  0
POLYLINE
  5
657
330
1F
100
AcDbEntity
  8
TEXT
 62
     7
100
AcDb2dPolyline
 66
     1
 10
0.0
 20
0.0
 30
0.0
  0
VERTEX
  5
658
330
657
100
AcDbEntity
  8
TEXT
 62
     7
100
AcDbVertex
100
AcDb2dVertex
 10
140.5797050972336
 20
213.0147324771283
 30
0.0
  0
VERTEX
  5
659
330
657
100
AcDbEntity
  8
TEXT
 62
     7
100
AcDbVertex
100
AcDb2dVertex
 10
139.9533867380151
 20
209.5396646611568
 30
0.0
  0
VERTEX
  5
65A
330
657
100
AcDbEntity
  8
TEXT
 62
     7
100
AcDbVertex
100
AcDb2dVertex
 10
140.8742607612224
 20
209.4967732223654
 30
0.0
  0
VERTEX
  5
65B
330
657
100
AcDbEntity
  8
TEXT
 62
     7
100
AcDbVertex
100
AcDb2dVertex
 10
140.5797050972336
 20
213.0147324771283
 30
0.0
  0
SEQEND
  5
65C
330
657
100
AcDbEntity
  8
TEXT
  0
POLYLINE
  5
65D
330
1F
100
AcDbEntity
  8
TEXT
 62
     7
100
AcDb2dPolyline
 66
     1
 10
0.0
 20
0.0
 30
0.0
  0
VERTEX
  5
65E
330
65D
100
AcDbEntity
  8
TEXT
 62
     7
100
AcDbVertex
100
AcDb2dVertex
 10
139.9570040882747
 20
209.5396646611568
 30
0.0
  0
VERTEX
  5
65F
330
65D
100
AcDbEntity
  8
TEXT
 62
     7
100
AcDbVertex
100
AcDb2dVertex
 10
139.9583821264687
 20
209.5668809154902
 30
0.0
  0
SEQEND
  5
660
330
65D
100
AcDbEntity
  8
TEXT
  0
POLYLINE
  5
661
330
1F
100
AcDbEntity
  8
TEXT
 62
     7
100
AcDb2dPolyline
 66
     1
 10
0.0
 20
0.0
 30
0.0
  0
VERTEX
  5
662
330
661
100
AcDbEntity
  8
TEXT
 62
     7
100
AcDbVertex
100
AcDb2dVertex
 10
139.9570040882747
 20
209.5396646611568
 30
0.0
  0
VERTEX
  5
663
330
661
100
AcDbEntity
  8
TEXT
 62
     7
100
AcDbVertex
100
AcDb2dVertex
 10
139.9583821264687
 20
209.5668809154902
 30
0.0
  0
SEQEND
  5
664
330
661
100
AcDbEntity
  8
TEXT
  0
POLYLINE
  5
665
330
1F
100
AcDbEntity
  8
TEXT
 62
     7
100
AcDb2dPolyline
 66
     1
 10
0.0
 20
0.0
 30
0.0
  0
VERTEX
  5
666
330
665
100
AcDbEntity
  8
TEXT
 62
     7
100
AcDbVertex
100
AcDb2dVertex
 10
140.0078192466821
 20
209.5375976038656
 30
0.0
  0
VERTEX
  5
667
330
665
100
AcDbEntity
  8
TEXT
 62
     7
100
AcDbVertex
100
AcDb2dVertex
 10
140.0279730552708
 20
209.94997553345
 30
0.0
  0
SEQEND
  5
668
330
665
100
AcDbEntity
  8
TEXT
  0
POLYLINE
  5
669
330
1F
100
AcDbEntity
  8
TEXT
 62
     7
100
AcDb2dPolyline
 66
     1
 10
0.0
 20
0.0
 30
0.0
  0
VERTEX
  5
66A
330
669
100
AcDbEntity
  8
TEXT
 62
     7
100
AcDbVertex
100
AcDb2dVertex
 10
140.0586344050895
 20
209.5348415274774
 30
0.0
  0
VERTEX
  5
66B
330
669
100
AcDbEntity
  8
TEXT
 62
     7
100
AcDbVertex
100
AcDb2dVertex
 10
140.0967027102015
 20
210.3330701514098
 30
0.0
  0
SEQEND
  5
66C
330
669
100
AcDbEntity
  8
TEXT
  0
POLYLINE
  5
66D
330
1F
100
AcDbEntity
  8
TEXT
 62
     7
100
AcDb2dPolyline
 66
     1
 10
0.0
 20
0.0
 30
0.0
  0
VERTEX
  5
66E
330
66D
100
AcDbEntity
  8
TEXT
 62
     7
100
AcDbVertex
100
AcDb2dVertex
 10
140.109449563497
 20
209.5327744701863
 30
0.0
  0
VERTEX
  5
66F
330
66D
100
AcDbEntity
  8
TEXT
 62
     7
100
AcDbVertex
100
AcDb2dVertex
 10
140.1654323651323
 20
210.7163370241439
 30
0.0
  0
SEQEND
  5
670
330
66D
100
AcDbEntity
  8
TEXT
  0
POLYLINE
  5
671
330
1F
100
AcDbEntity
  8
TEXT
 62
     7
100
AcDb2dPolyline
 66
     1
 10
0.0
 20
0.0
 30
0.0
  0
VERTEX
  5
672
330
671
100
AcDbEntity
  8
TEXT
 62
     7
100
AcDbVertex
100
AcDb2dVertex
 10
140.1602647219044
 20
209.5307074128951
 30
0.0
  0
VERTEX
  5
673
330
671
100
AcDbEntity
  8
TEXT
 62
     7
100
AcDbVertex
100
AcDb2dVertex
 10
140.2346787843858
 20
211.0994316421036
 30
0.0
  0
SEQEND
  5
674
330
671
100
AcDbEntity
  8
TEXT
  0
POLYLINE
  5
675
330
1F
100
AcDbEntity
  8
TEXT
 62
     7
100
AcDb2dPolyline
 66
     1
 10
0.0
 20
0.0
 30
0.0
  0
VERTEX
  5
676
330
675
100
AcDbEntity
  8
TEXT
 62
     7
100
AcDbVertex
100
AcDb2dVertex
 10
140.2110798803118
 20
209.5277790817327
 30
0.0
  0
VERTEX
  5
677
330
675
100
AcDbEntity
  8
TEXT
 62
     7
100
AcDbVertex
100
AcDb2dVertex
 10
140.3037529488651
 20
211.4821817505149
 30
0.0
  0
SEQEND
  5
678
330
675
100
AcDbEntity
  8
TEXT
  0
POLYLINE
  5
679
330
1F
100
AcDbEntity
  8
TEXT
 62
     7
100
AcDb2dPolyline
 66
     1
 10
0.0
 20
0.0
 30
0.0
  0
VERTEX
  5
67A
330
679
100
AcDbEntity
  8
TEXT
 62
     7
100
AcDbVertex
100
AcDb2dVertex
 10
140.261722783945
 20
209.5257120244415
 30
0.0
  0
VERTEX
  5
67B
330
679
100
AcDbEntity
  8
TEXT
 62
     7
100
AcDbVertex
100
AcDb2dVertex
 10
140.37265485857
 20
211.8649318589261
 30
0.0
  0
SEQEND
  5
67C
330
679
100
AcDbEntity
  8
TEXT
  0
POLYLINE
  5
67D
330
1F
100
AcDbEntity
  8
TEXT
 62
     7
100
AcDb2dPolyline
 66
     1
 10
0.0
 20
0.0
 30
0.0
  0
VERTEX
  5
67E
330
67D
100
AcDbEntity
  8
TEXT
 62
     7
100
AcDbVertex
100
AcDb2dVertex
 10
140.3125379423524
 20
209.522783693279
 30
0.0
  0
VERTEX
  5
67F
330
67D
100
AcDbEntity
  8
TEXT
 62
     7
100
AcDbVertex
100
AcDb2dVertex
 10
140.4417290230493
 20
212.2483709864345
 30
0.0
  0
SEQEND
  5
680
330
67D
100
AcDbEntity
  8
TEXT
  0
POLYLINE
  5
681
330
1F
100
AcDbEntity
  8
TEXT
 62
     7
100
AcDb2dPolyline
 66
     1
 10
0.0
 20
0.0
 30
0.0
  0
VERTEX
  5
682
330
681
100
AcDbEntity
  8
TEXT
 62
     7
100
AcDbVertex
100
AcDb2dVertex
 10
140.3633531007599
 20
209.5207166359879
 30
0.0
  0
VERTEX
  5
683
330
681
100
AcDbEntity
  8
TEXT
 62
     7
100
AcDbVertex
100
AcDb2dVertex
 10
140.5108031875286
 20
212.6316378591685
 30
0.0
  0
SEQEND
  5
684
330
681
100
AcDbEntity
  8
TEXT
  0
POLYLINE
  5
685
330
1F
100
AcDbEntity
  8
TEXT
 62
     7
100
AcDb2dPolyline
 66
     1
 10
0.0
 20
0.0
 30
0.0
  0
VERTEX
  5
686
330
685
100
AcDbEntity
  8
TEXT
 62
     7
100
AcDbVertex
100
AcDb2dVertex
 10
140.4141682591673
 20
209.5179605595997
 30
0.0
  0
VERTEX
  5
687
330
685
100
AcDbEntity
  8
TEXT
 62
     7
100
AcDbVertex
100
AcDb2dVertex
 10
140.5797050972336
 20
213.0147324771283
 30
0.0
  0
SEQEND
  5
688
330
685
100
AcDbEntity
  8
TEXT
  0
POLYLINE
  5
689
330
1F
100
AcDbEntity
  8
TEXT
 62
     7
100
AcDb2dPolyline
 66
     1
 10
0.0
 20
0.0
 30
0.0
  0
VERTEX
  5
68A
330
689
100
AcDbEntity
  8
TEXT
 62
     7
100
AcDbVertex
100
AcDb2dVertex
 10
140.8706434109629
 20
209.4967732223654
 30
0.0
  0
VERTEX
  5
68B
330
689
100
AcDbEntity
  8
TEXT
 62
     7
100
AcDbVertex
100
AcDb2dVertex
 10
140.8721937039313
 20
209.5238172219246
 30
0.0
  0
SEQEND
  5
68C
330
689
100
AcDbEntity
  8
TEXT
  0
POLYLINE
  5
68D
330
1F
100
AcDbEntity
  8
TEXT
 62
     7
100
AcDb2dPolyline
 66
     1
 10
0.0
 20
0.0
 30
0.0
  0
VERTEX
  5
68E
330
68D
100
AcDbEntity
  8
TEXT
 62
     7
100
AcDbVertex
100
AcDb2dVertex
 10
140.8706434109629
 20
209.4967732223654
 30
0.0
  0
VERTEX
  5
68F
330
68D
100
AcDbEntity
  8
TEXT
 62
     7
100
AcDbVertex
100
AcDb2dVertex
 10
140.8721937039313
 20
209.5238172219246
 30
0.0
  0
SEQEND
  5
690
330
68D
100
AcDbEntity
  8
TEXT
  0
POLYLINE
  5
691
330
1F
100
AcDbEntity
  8
TEXT
 62
     7
100
AcDb2dPolyline
 66
     1
 10
0.0
 20
0.0
 30
0.0
  0
VERTEX
  5
692
330
691
100
AcDbEntity
  8
TEXT
 62
     7
100
AcDbVertex
100
AcDb2dVertex
 10
140.8198282525555
 20
209.4988402796565
 30
0.0
  0
VERTEX
  5
693
330
691
100
AcDbEntity
  8
TEXT
 62
     7
100
AcDbVertex
100
AcDb2dVertex
 10
140.8396375515956
 20
209.911218209241
 30
0.0
  0
SEQEND
  5
694
330
691
100
AcDbEntity
  8
TEXT
  0
POLYLINE
  5
695
330
1F
100
AcDbEntity
  8
TEXT
 62
     7
100
AcDb2dPolyline
 66
     1
 10
0.0
 20
0.0
 30
0.0
  0
VERTEX
  5
696
330
695
100
AcDbEntity
  8
TEXT
 62
     7
100
AcDbVertex
100
AcDb2dVertex
 10
140.7691853489223
 20
209.501768610819
 30
0.0
  0
VERTEX
  5
697
330
695
100
AcDbEntity
  8
TEXT
 62
     7
100
AcDbVertex
100
AcDb2dVertex
 10
140.8069091444858
 20
210.2996527252029
 30
0.0
  0
SEQEND
  5
698
330
695
100
AcDbEntity
  8
TEXT
  0
POLYLINE
  5
699
330
1F
100
AcDbEntity
  8
TEXT
 62
     7
100
AcDb2dPolyline
 66
     1
 10
0.0
 20
0.0
 30
0.0
  0
VERTEX
  5
69A
330
699
100
AcDbEntity
  8
TEXT
 62
     7
100
AcDbVertex
100
AcDb2dVertex
 10
140.7183701905149
 20
209.5041801776587
 30
0.0
  0
VERTEX
  5
69B
330
699
100
AcDbEntity
  8
TEXT
 62
     7
100
AcDbVertex
100
AcDb2dVertex
 10
140.7743529921502
 20
210.6873982220677
 30
0.0
  0
SEQEND
  5
69C
330
699
100
AcDbEntity
  8
TEXT
  0
POLYLINE
  5
69D
330
1F
100
AcDbEntity
  8
TEXT
 62
     7
100
AcDb2dPolyline
 66
     1
 10
0.0
 20
0.0
 30
0.0
  0
VERTEX
  5
69E
330
69D
100
AcDbEntity
  8
TEXT
 62
     7
100
AcDbVertex
100
AcDb2dVertex
 10
140.6675550321074
 20
209.5059027254013
 30
0.0
  0
VERTEX
  5
69F
330
69D
100
AcDbEntity
  8
TEXT
 62
     7
100
AcDbVertex
100
AcDb2dVertex
 10
140.7419690945888
 20
211.0751437189326
 30
0.0
  0
SEQEND
  5
6A0
330
69D
100
AcDbEntity
  8
TEXT
  0
POLYLINE
  5
6A1
330
1F
100
AcDbEntity
  8
TEXT
 62
     7
100
AcDb2dPolyline
 66
     1
 10
0.0
 20
0.0
 30
0.0
  0
VERTEX
  5
6A2
330
6A1
100
AcDbEntity
  8
TEXT
 62
     7
100
AcDbVertex
100
AcDb2dVertex
 10
140.6167398737
 20
209.5086588017895
 30
0.0
  0
VERTEX
  5
6A3
330
6A1
100
AcDbEntity
  8
TEXT
 62
     7
100
AcDbVertex
100
AcDb2dVertex
 10
140.7094129422532
 20
211.4630614705717
 30
0.0
  0
SEQEND
  5
6A4
330
6A1
100
AcDbEntity
  8
TEXT
  0
POLYLINE
  5
6A5
330
1F
100
AcDbEntity
  8
TEXT
 62
     7
100
AcDb2dPolyline
 66
     1
 10
0.0
 20
0.0
 30
0.0
  0
VERTEX
  5
6A6
330
6A5
100
AcDbEntity
  8
TEXT
 62
     7
100
AcDbVertex
100
AcDb2dVertex
 10
140.5659247152925
 20
209.5108981138549
 30
0.0
  0
VERTEX
  5
6A7
330
6A5
100
AcDbEntity
  8
TEXT
 62
     7
100
AcDbVertex
100
AcDb2dVertex
 10
140.6773735542404
 20
211.8508069674366
 30
0.0
  0
SEQEND
  5
6A8
330
6A5
100
AcDbEntity
  8
TEXT
  0
POLYLINE
  5
6A9
330
1F
100
AcDbEntity
  8
TEXT
 62
     7
100
AcDb2dPolyline
 66
     1
 10
0.0
 20
0.0
 30
0.0
  0
VERTEX
  5
6AA
330
6A9
100
AcDbEntity
  8
TEXT
 62
     7
100
AcDbVertex
100
AcDb2dVertex
 10
140.5157985759822
 20
209.5136541902431
 30
0.0
  0
VERTEX
  5
6AB
330
6A9
100
AcDbEntity
  8
TEXT
 62
     7
100
AcDbVertex
100
AcDb2dVertex
 10
140.644989656679
 20
212.2385524643015
 30
0.0
  0
SEQEND
  5
6AC
330
6A9
100
AcDbEntity
  8
TEXT
  0
POLYLINE
  5
6AD
330
1F
100
AcDbEntity
  8
TEXT
 62
     7
100
AcDb2dPolyline
 66
     1
 10
0.0
 20
0.0
 30
0.0
  0
VERTEX
  5
6AE
330
6AD
100
AcDbEntity
  8
TEXT
 62
     7
100
AcDbVertex
100
AcDb2dVertex
 10
140.4649834175747
 20
209.5158935023085
 30
0.0
  0
VERTEX
  5
6AF
330
6AD
100
AcDbEntity
  8
TEXT
 62
     7
100
AcDbVertex
100
AcDb2dVertex
 10
140.6124335043434
 20
212.6264702159406
 30
0.0
  0
SEQEND
  5
6B0
330
6AD
100
AcDbEntity
  8
TEXT
  0
POLYLINE
  5
6B1
330
1F
100
AcDbEntity
  8
TEXT
 62
     7
100
AcDb2dPolyline
 66
     1
 10
0.0
 20
0.0
 30
0.0
  0
VERTEX
  5
6B2
330
6B1
100
AcDbEntity
  8
TEXT
 62
     7
100
AcDbVertex
100
AcDb2dVertex
 10
140.4141682591673
 20
209.5179605595997
 30
0.0
  0
VERTEX
  5
6B3
330
6B1
100
AcDbEntity
  8
TEXT
 62
     7
100
AcDbVertex
100
AcDb2dVertex
 10
140.5797050972336
 20
213.0147324771283
 30
0.0
  0
SEQEND
  5
6B4
330
6B1
100
AcDbEntity
  8
TEXT
  0
POLYLINE
  5
6B5
330
1F
100
AcDbEntity
  8
TEXT
 62
     7
100
AcDb2dPolyline
 66
     1
 10
0.0
 20
0.0
 30
0.0
  0
VERTEX
  5
6B6
330
6B5
100
AcDbEntity
  8
TEXT
 62
     7
100
AcDbVertex
100
AcDb2dVertex
 10
87.12784286016249
 20
199.4143567752332
 30
0.0
  0
VERTEX
  5
6B7
330
6B5
100
AcDbEntity
  8
TEXT
 62
     7
100
AcDbVertex
100
AcDb2dVertex
 10
87.12784286016249
 20
225.014344561802
 30
0.0
  0
SEQEND
  5
6B8
330
6B5
100
AcDbEntity
  8
TEXT
  0
POLYLINE
  5
6B9
330
1F
100
AcDbEntity
  8
TEXT
 62
     7
100
AcDb2dPolyline
 66
     1
 10
0.0
 20
0.0
 30
0.0
  0
VERTEX
  5
6BA
330
6B9
100
AcDbEntity
  8
TEXT
 62
     7
100
AcDbVertex
100
AcDb2dVertex
 10
122.1265678948156
 20
212.1722343762104
 30
0.0
  0
VERTEX
  5
6BB
330
6B9
100
AcDbEntity
  8
TEXT
 62
     7
100
AcDbVertex
100
AcDb2dVertex
 10
122.1265678948156
 20
225.014344561802
 30
0.0
  0
SEQEND
  5
6BC
330
6B9
100
AcDbEntity
  8
TEXT
  0
POLYLINE
  5
6BD
330
1F
100
AcDbEntity
  8
TEXT
 62
     7
100
AcDb2dPolyline
 66
     1
 10
0.0
 20
0.0
 30
0.0
  0
VERTEX
  5
6BE
330
6BD
100
AcDbEntity
  8
TEXT
 62
     7
100
AcDbVertex
100
AcDb2dVertex
 10
87.12784286016249
 20
223.0144666326144
 30
0.0
  0
VERTEX
  5
6BF
330
6BD
100
AcDbEntity
  8
TEXT
 62
     7
100
AcDbVertex
100
AcDb2dVertex
 10
122.1265678948156
 20
223.0144666326144
 30
0.0
  0
SEQEND
  5
6C0
330
6BD
100
AcDbEntity
  8
TEXT
  0
POLYLINE
  5
6C1
330
1F
100
AcDbEntity
  8
TEXT
 62
     7
100
AcDb2dPolyline
 66
     1
 10
0.0
 20
0.0
 30
0.0
  0
VERTEX
  5
6C2
330
6C1
100
AcDbEntity
  8
TEXT
 62
     7
100
AcDbVertex
100
AcDb2dVertex
 10
87.12784286016249
 20
223.0144666326144
 30
0.0
  0
VERTEX
  5
6C3
330
6C1
100
AcDbEntity
  8
TEXT
 62
     7
100
AcDbVertex
100
AcDb2dVertex
 10
90.62737085407927
 20
222.5533406019138
 30
0.0
  0
VERTEX
  5
6C4
330
6C1
100
AcDbEntity
  8
TEXT
 62
     7
100
AcDbVertex
100
AcDb2dVertex
 10
90.62737085407927
 20
223.4749036442181
 30
0.0
  0
VERTEX
  5
6C5
330
6C1
100
AcDbEntity
  8
TEXT
 62
     7
100
AcDbVertex
100
AcDb2dVertex
 10
87.12784286016249
 20
223.0144666326144
 30
0.0
  0
SEQEND
  5
6C6
330
6C1
100
AcDbEntity
  8
TEXT
  0
POLYLINE
  5
6C7
330
1F
100
AcDbEntity
  8
TEXT
 62
     7
100
AcDb2dPolyline
 66
     1
 10
0.0
 20
0.0
 30
0.0
  0
VERTEX
  5
6C8
330
6C7
100
AcDbEntity
  8
TEXT
 62
     7
100
AcDbVertex
100
AcDb2dVertex
 10
90.62737085407927
 20
222.5569579521733
 30
0.0
  0
VERTEX
  5
6C9
330
6C7
100
AcDbEntity
  8
TEXT
 62
     7
100
AcDbVertex
100
AcDb2dVertex
 10
90.60015459974579
 20
222.5569579521733
 30
0.0
  0
SEQEND
  5
6CA
330
6C7
100
AcDbEntity
  8
TEXT
  0
POLYLINE
  5
6CB
330
1F
100
AcDbEntity
  8
TEXT
 62
     7
100
AcDb2dPolyline
 66
     1
 10
0.0
 20
0.0
 30
0.0
  0
VERTEX
  5
6CC
330
6CB
100
AcDbEntity
  8
TEXT
 62
     7
100
AcDbVertex
100
AcDb2dVertex
 10
90.62737085407927
 20
222.5569579521733
 30
0.0
  0
VERTEX
  5
6CD
330
6CB
100
AcDbEntity
  8
TEXT
 62
     7
100
AcDbVertex
100
AcDb2dVertex
 10
90.60015459974579
 20
222.5569579521733
 30
0.0
  0
SEQEND
  5
6CE
330
6CB
100
AcDbEntity
  8
TEXT
  0
POLYLINE
  5
6CF
330
1F
100
AcDbEntity
  8
TEXT
 62
     7
100
AcDb2dPolyline
 66
     1
 10
0.0
 20
0.0
 30
0.0
  0
VERTEX
  5
6D0
330
6CF
100
AcDbEntity
  8
TEXT
 62
     7
100
AcDbVertex
100
AcDb2dVertex
 10
90.62737085407927
 20
222.6077731105807
 30
0.0
  0
VERTEX
  5
6D1
330
6CF
100
AcDbEntity
  8
TEXT
 62
     7
100
AcDbVertex
100
AcDb2dVertex
 10
90.21464841494634
 20
222.6077731105807
 30
0.0
  0
SEQEND
  5
6D2
330
6CF
100
AcDbEntity
  8
TEXT
  0
POLYLINE
  5
6D3
330
1F
100
AcDbEntity
  8
TEXT
 62
     7
100
AcDb2dPolyline
 66
     1
 10
0.0
 20
0.0
 30
0.0
  0
VERTEX
  5
6D4
330
6D3
100
AcDbEntity
  8
TEXT
 62
     7
100
AcDbVertex
100
AcDb2dVertex
 10
90.62737085407927
 20
222.658502141601
 30
0.0
  0
VERTEX
  5
6D5
330
6D3
100
AcDbEntity
  8
TEXT
 62
     7
100
AcDbVertex
100
AcDb2dVertex
 10
89.8286254658241
 20
222.658502141601
 30
0.0
  0
SEQEND
  5
6D6
330
6D3
100
AcDbEntity
  8
TEXT
  0
POLYLINE
  5
6D7
330
1F
100
AcDbEntity
  8
TEXT
 62
     7
100
AcDb2dPolyline
 66
     1
 10
0.0
 20
0.0
 30
0.0
  0
VERTEX
  5
6D8
330
6D7
100
AcDbEntity
  8
TEXT
 62
     7
100
AcDbVertex
100
AcDb2dVertex
 10
90.62737085407927
 20
222.7093173000085
 30
0.0
  0
VERTEX
  5
6D9
330
6D7
100
AcDbEntity
  8
TEXT
 62
     7
100
AcDbVertex
100
AcDb2dVertex
 10
89.44311928102464
 20
222.7093173000085
 30
0.0
  0
SEQEND
  5
6DA
330
6D7
100
AcDbEntity
  8
TEXT
  0
POLYLINE
  5
6DB
330
1F
100
AcDbEntity
  8
TEXT
 62
     7
100
AcDb2dPolyline
 66
     1
 10
0.0
 20
0.0
 30
0.0
  0
VERTEX
  5
6DC
330
6DB
100
AcDbEntity
  8
TEXT
 62
     7
100
AcDbVertex
100
AcDb2dVertex
 10
90.62737085407927
 20
222.7604769679644
 30
0.0
  0
VERTEX
  5
6DD
330
6DB
100
AcDbEntity
  8
TEXT
 62
     7
100
AcDbVertex
100
AcDb2dVertex
 10
89.05675182235387
 20
222.7604769679644
 30
0.0
  0
SEQEND
  5
6DE
330
6DB
100
AcDbEntity
  8
TEXT
  0
POLYLINE
  5
6DF
330
1F
100
AcDbEntity
  8
TEXT
 62
     7
100
AcDb2dPolyline
 66
     1
 10
0.0
 20
0.0
 30
0.0
  0
VERTEX
  5
6E0
330
6DF
100
AcDbEntity
  8
TEXT
 62
     7
100
AcDbVertex
100
AcDb2dVertex
 10
90.62737085407927
 20
222.8112921263719
 30
0.0
  0
VERTEX
  5
6E1
330
6DF
100
AcDbEntity
  8
TEXT
 62
     7
100
AcDbVertex
100
AcDb2dVertex
 10
88.67124563755442
 20
222.8112921263719
 30
0.0
  0
SEQEND
  5
6E2
330
6DF
100
AcDbEntity
  8
TEXT
  0
POLYLINE
  5
6E3
330
1F
100
AcDbEntity
  8
TEXT
 62
     7
100
AcDb2dPolyline
 66
     1
 10
0.0
 20
0.0
 30
0.0
  0
VERTEX
  5
6E4
330
6E3
100
AcDbEntity
  8
TEXT
 62
     7
100
AcDbVertex
100
AcDb2dVertex
 10
90.62737085407927
 20
222.8621072847793
 30
0.0
  0
VERTEX
  5
6E5
330
6E3
100
AcDbEntity
  8
TEXT
 62
     7
100
AcDbVertex
100
AcDb2dVertex
 10
88.28487817888364
 20
222.8621072847793
 30
0.0
  0
SEQEND
  5
6E6
330
6E3
100
AcDbEntity
  8
TEXT
  0
POLYLINE
  5
6E7
330
1F
100
AcDbEntity
  8
TEXT
 62
     7
100
AcDb2dPolyline
 66
     1
 10
0.0
 20
0.0
 30
0.0
  0
VERTEX
  5
6E8
330
6E7
100
AcDbEntity
  8
TEXT
 62
     7
100
AcDbVertex
100
AcDb2dVertex
 10
90.62737085407927
 20
222.9128363157996
 30
0.0
  0
VERTEX
  5
6E9
330
6E7
100
AcDbEntity
  8
TEXT
 62
     7
100
AcDbVertex
100
AcDb2dVertex
 10
87.89971650363272
 20
222.9128363157996
 30
0.0
  0
SEQEND
  5
6EA
330
6E7
100
AcDbEntity
  8
TEXT
  0
POLYLINE
  5
6EB
330
1F
100
AcDbEntity
  8
TEXT
 62
     7
100
AcDb2dPolyline
 66
     1
 10
0.0
 20
0.0
 30
0.0
  0
VERTEX
  5
6EC
330
6EB
100
AcDbEntity
  8
TEXT
 62
     7
100
AcDbVertex
100
AcDb2dVertex
 10
90.62737085407927
 20
222.963651474207
 30
0.0
  0
VERTEX
  5
6ED
330
6EB
100
AcDbEntity
  8
TEXT
 62
     7
100
AcDbVertex
100
AcDb2dVertex
 10
87.51334904496194
 20
222.963651474207
 30
0.0
  0
SEQEND
  5
6EE
330
6EB
100
AcDbEntity
  8
TEXT
  0
POLYLINE
  5
6EF
330
1F
100
AcDbEntity
  8
TEXT
 62
     7
100
AcDb2dPolyline
 66
     1
 10
0.0
 20
0.0
 30
0.0
  0
VERTEX
  5
6F0
330
6EF
100
AcDbEntity
  8
TEXT
 62
     7
100
AcDbVertex
100
AcDb2dVertex
 10
90.62737085407927
 20
223.0144666326144
 30
0.0
  0
VERTEX
  5
6F1
330
6EF
100
AcDbEntity
  8
TEXT
 62
     7
100
AcDbVertex
100
AcDb2dVertex
 10
87.12784286016249
 20
223.0144666326144
 30
0.0
  0
SEQEND
  5
6F2
330
6EF
100
AcDbEntity
  8
TEXT
  0
POLYLINE
  5
6F3
330
1F
100
AcDbEntity
  8
TEXT
 62
     7
100
AcDb2dPolyline
 66
     1
 10
0.0
 20
0.0
 30
0.0
  0
VERTEX
  5
6F4
330
6F3
100
AcDbEntity
  8
TEXT
 62
     7
100
AcDbVertex
100
AcDb2dVertex
 10
90.62737085407927
 20
223.4712862939586
 30
0.0
  0
VERTEX
  5
6F5
330
6F3
100
AcDbEntity
  8
TEXT
 62
     7
100
AcDbVertex
100
AcDb2dVertex
 10
90.60015459974579
 20
223.4712862939586
 30
0.0
  0
SEQEND
  5
6F6
330
6F3
100
AcDbEntity
  8
TEXT
  0
POLYLINE
  5
6F7
330
1F
100
AcDbEntity
  8
TEXT
 62
     7
100
AcDb2dPolyline
 66
     1
 10
0.0
 20
0.0
 30
0.0
  0
VERTEX
  5
6F8
330
6F7
100
AcDbEntity
  8
TEXT
 62
     7
100
AcDbVertex
100
AcDb2dVertex
 10
90.62737085407927
 20
223.4712862939586
 30
0.0
  0
VERTEX
  5
6F9
330
6F7
100
AcDbEntity
  8
TEXT
 62
     7
100
AcDbVertex
100
AcDb2dVertex
 10
90.60015459974579
 20
223.4712862939586
 30
0.0
  0
SEQEND
  5
6FA
330
6F7
100
AcDbEntity
  8
TEXT
  0
POLYLINE
  5
6FB
330
1F
100
AcDbEntity
  8
TEXT
 62
     7
100
AcDb2dPolyline
 66
     1
 10
0.0
 20
0.0
 30
0.0
  0
VERTEX
  5
6FC
330
6FB
100
AcDbEntity
  8
TEXT
 62
     7
100
AcDbVertex
100
AcDb2dVertex
 10
90.62737085407927
 20
223.4205572629383
 30
0.0
  0
VERTEX
  5
6FD
330
6FB
100
AcDbEntity
  8
TEXT
 62
     7
100
AcDbVertex
100
AcDb2dVertex
 10
90.21464841494634
 20
223.4205572629383
 30
0.0
  0
SEQEND
  5
6FE
330
6FB
100
AcDbEntity
  8
TEXT
  0
POLYLINE
  5
6FF
330
1F
100
AcDbEntity
  8
TEXT
 62
     7
100
AcDb2dPolyline
 66
     1
 10
0.0
 20
0.0
 30
0.0
  0
VERTEX
  5
700
330
6FF
100
AcDbEntity
  8
TEXT
 62
     7
100
AcDbVertex
100
AcDb2dVertex
 10
90.62737085407927
 20
223.3697421045308
 30
0.0
  0
VERTEX
  5
701
330
6FF
100
AcDbEntity
  8
TEXT
 62
     7
100
AcDbVertex
100
AcDb2dVertex
 10
89.8286254658241
 20
223.3697421045308
 30
0.0
  0
SEQEND
  5
702
330
6FF
100
AcDbEntity
  8
TEXT
  0
POLYLINE
  5
703
330
1F
100
AcDbEntity
  8
TEXT
 62
     7
100
AcDb2dPolyline
 66
     1
 10
0.0
 20
0.0
 30
0.0
  0
VERTEX
  5
704
330
703
100
AcDbEntity
  8
TEXT
 62
     7
100
AcDbVertex
100
AcDb2dVertex
 10
90.62737085407927
 20
223.3189269461234
 30
0.0
  0
VERTEX
  5
705
330
703
100
AcDbEntity
  8
TEXT
 62
     7
100
AcDbVertex
100
AcDb2dVertex
 10
89.44311928102464
 20
223.3189269461234
 30
0.0
  0
SEQEND
  5
706
330
703
100
AcDbEntity
  8
TEXT
  0
POLYLINE
  5
707
330
1F
100
AcDbEntity
  8
TEXT
 62
     7
100
AcDb2dPolyline
 66
     1
 10
0.0
 20
0.0
 30
0.0
  0
VERTEX
  5
708
330
707
100
AcDbEntity
  8
TEXT
 62
     7
100
AcDbVertex
100
AcDb2dVertex
 10
90.62737085407927
 20
223.268111787716
 30
0.0
  0
VERTEX
  5
709
330
707
100
AcDbEntity
  8
TEXT
 62
     7
100
AcDbVertex
100
AcDb2dVertex
 10
89.05675182235387
 20
223.268111787716
 30
0.0
  0
SEQEND
  5
70A
330
707
100
AcDbEntity
  8
TEXT
  0
POLYLINE
  5
70B
330
1F
100
AcDbEntity
  8
TEXT
 62
     7
100
AcDb2dPolyline
 66
     1
 10
0.0
 20
0.0
 30
0.0
  0
VERTEX
  5
70C
330
70B
100
AcDbEntity
  8
TEXT
 62
     7
100
AcDbVertex
100
AcDb2dVertex
 10
90.62737085407927
 20
223.2177272662442
 30
0.0
  0
VERTEX
  5
70D
330
70B
100
AcDbEntity
  8
TEXT
 62
     7
100
AcDbVertex
100
AcDb2dVertex
 10
88.67124563755442
 20
223.2177272662442
 30
0.0
  0
SEQEND
  5
70E
330
70B
100
AcDbEntity
  8
TEXT
  0
POLYLINE
  5
70F
330
1F
100
AcDbEntity
  8
TEXT
 62
     7
100
AcDb2dPolyline
 66
     1
 10
0.0
 20
0.0
 30
0.0
  0
VERTEX
  5
710
330
70F
100
AcDbEntity
  8
TEXT
 62
     7
100
AcDbVertex
100
AcDb2dVertex
 10
90.62737085407927
 20
223.1669121078368
 30
0.0
  0
VERTEX
  5
711
330
70F
100
AcDbEntity
  8
TEXT
 62
     7
100
AcDbVertex
100
AcDb2dVertex
 10
88.28487817888364
 20
223.1669121078368
 30
0.0
  0
SEQEND
  5
712
330
70F
100
AcDbEntity
  8
TEXT
  0
POLYLINE
  5
713
330
1F
100
AcDbEntity
  8
TEXT
 62
     7
100
AcDb2dPolyline
 66
     1
 10
0.0
 20
0.0
 30
0.0
  0
VERTEX
  5
714
330
713
100
AcDbEntity
  8
TEXT
 62
     7
100
AcDbVertex
100
AcDb2dVertex
 10
90.62737085407927
 20
223.1160969494293
 30
0.0
  0
VERTEX
  5
715
330
713
100
AcDbEntity
  8
TEXT
 62
     7
100
AcDbVertex
100
AcDb2dVertex
 10
87.89971650363272
 20
223.1160969494293
 30
0.0
  0
SEQEND
  5
716
330
713
100
AcDbEntity
  8
TEXT
  0
POLYLINE
  5
717
330
1F
100
AcDbEntity
  8
TEXT
 62
     7
100
AcDb2dPolyline
 66
     1
 10
0.0
 20
0.0
 30
0.0
  0
VERTEX
  5
718
330
717
100
AcDbEntity
  8
TEXT
 62
     7
100
AcDbVertex
100
AcDb2dVertex
 10
90.62737085407927
 20
223.0652817910219
 30
0.0
  0
VERTEX
  5
719
330
717
100
AcDbEntity
  8
TEXT
 62
     7
100
AcDbVertex
100
AcDb2dVertex
 10
87.51334904496194
 20
223.0652817910219
 30
0.0
  0
SEQEND
  5
71A
330
717
100
AcDbEntity
  8
TEXT
  0
POLYLINE
  5
71B
330
1F
100
AcDbEntity
  8
TEXT
 62
     7
100
AcDb2dPolyline
 66
     1
 10
0.0
 20
0.0
 30
0.0
  0
VERTEX
  5
71C
330
71B
100
AcDbEntity
  8
TEXT
 62
     7
100
AcDbVertex
100
AcDb2dVertex
 10
90.62737085407927
 20
223.0144666326144
 30
0.0
  0
VERTEX
  5
71D
330
71B
100
AcDbEntity
  8
TEXT
 62
     7
100
AcDbVertex
100
AcDb2dVertex
 10
87.12784286016249
 20
223.0144666326144
 30
0.0
  0
SEQEND
  5
71E
330
71B
100
AcDbEntity
  8
TEXT
  0
POLYLINE
  5
71F
330
1F
100
AcDbEntity
  8
TEXT
 62
     7
100
AcDb2dPolyline
 66
     1
 10
0.0
 20
0.0
 30
0.0
  0
VERTEX
  5
720
330
71F
100
AcDbEntity
  8
TEXT
 62
     7
100
AcDbVertex
100
AcDb2dVertex
 10
122.1265678948156
 20
223.0144666326144
 30
0.0
  0
VERTEX
  5
721
330
71F
100
AcDbEntity
  8
TEXT
 62
     7
100
AcDbVertex
100
AcDb2dVertex
 10
118.6266953913503
 20
223.4749036442181
 30
0.0
  0
VERTEX
  5
722
330
71F
100
AcDbEntity
  8
TEXT
 62
     7
100
AcDbVertex
100
AcDb2dVertex
 10
118.6266953913503
 20
222.5533406019138
 30
0.0
  0
VERTEX
  5
723
330
71F
100
AcDbEntity
  8
TEXT
 62
     7
100
AcDbVertex
100
AcDb2dVertex
 10
122.1265678948156
 20
223.0144666326144
 30
0.0
  0
SEQEND
  5
724
330
71F
100
AcDbEntity
  8
TEXT
  0
POLYLINE
  5
725
330
1F
100
AcDbEntity
  8
TEXT
 62
     7
100
AcDb2dPolyline
 66
     1
 10
0.0
 20
0.0
 30
0.0
  0
VERTEX
  5
726
330
725
100
AcDbEntity
  8
TEXT
 62
     7
100
AcDbVertex
100
AcDb2dVertex
 10
118.6266953913503
 20
223.4712862939586
 30
0.0
  0
VERTEX
  5
727
330
725
100
AcDbEntity
  8
TEXT
 62
     7
100
AcDbVertex
100
AcDb2dVertex
 10
118.6537393909095
 20
223.4712862939586
 30
0.0
  0
SEQEND
  5
728
330
725
100
AcDbEntity
  8
TEXT
  0
POLYLINE
  5
729
330
1F
100
AcDbEntity
  8
TEXT
 62
     7
100
AcDb2dPolyline
 66
     1
 10
0.0
 20
0.0
 30
0.0
  0
VERTEX
  5
72A
330
729
100
AcDbEntity
  8
TEXT
 62
     7
100
AcDbVertex
100
AcDb2dVertex
 10
118.6266953913503
 20
223.4712862939586
 30
0.0
  0
VERTEX
  5
72B
330
729
100
AcDbEntity
  8
TEXT
 62
     7
100
AcDbVertex
100
AcDb2dVertex
 10
118.6537393909095
 20
223.4712862939586
 30
0.0
  0
SEQEND
  5
72C
330
729
100
AcDbEntity
  8
TEXT
  0
POLYLINE
  5
72D
330
1F
100
AcDbEntity
  8
TEXT
 62
     7
100
AcDb2dPolyline
 66
     1
 10
0.0
 20
0.0
 30
0.0
  0
VERTEX
  5
72E
330
72D
100
AcDbEntity
  8
TEXT
 62
     7
100
AcDbVertex
100
AcDb2dVertex
 10
118.6266953913503
 20
223.4205572629383
 30
0.0
  0
VERTEX
  5
72F
330
72D
100
AcDbEntity
  8
TEXT
 62
     7
100
AcDbVertex
100
AcDb2dVertex
 10
119.0394178304832
 20
223.4205572629383
 30
0.0
  0
SEQEND
  5
730
330
72D
100
AcDbEntity
  8
TEXT
  0
POLYLINE
  5
731
330
1F
100
AcDbEntity
  8
TEXT
 62
     7
100
AcDb2dPolyline
 66
     1
 10
0.0
 20
0.0
 30
0.0
  0
VERTEX
  5
732
330
731
100
AcDbEntity
  8
TEXT
 62
     7
100
AcDbVertex
100
AcDb2dVertex
 10
118.6266953913503
 20
223.3697421045308
 30
0.0
  0
VERTEX
  5
733
330
731
100
AcDbEntity
  8
TEXT
 62
     7
100
AcDbVertex
100
AcDb2dVertex
 10
119.425785289154
 20
223.3697421045308
 30
0.0
  0
SEQEND
  5
734
330
731
100
AcDbEntity
  8
TEXT
  0
POLYLINE
  5
735
330
1F
100
AcDbEntity
  8
TEXT
 62
     7
100
AcDb2dPolyline
 66
     1
 10
0.0
 20
0.0
 30
0.0
  0
VERTEX
  5
736
330
735
100
AcDbEntity
  8
TEXT
 62
     7
100
AcDbVertex
100
AcDb2dVertex
 10
118.6266953913503
 20
223.3189269461234
 30
0.0
  0
VERTEX
  5
737
330
735
100
AcDbEntity
  8
TEXT
 62
     7
100
AcDbVertex
100
AcDb2dVertex
 10
119.8112914739534
 20
223.3189269461234
 30
0.0
  0
SEQEND
  5
738
330
735
100
AcDbEntity
  8
TEXT
  0
POLYLINE
  5
739
330
1F
100
AcDbEntity
  8
TEXT
 62
     7
100
AcDb2dPolyline
 66
     1
 10
0.0
 20
0.0
 30
0.0
  0
VERTEX
  5
73A
330
739
100
AcDbEntity
  8
TEXT
 62
     7
100
AcDbVertex
100
AcDb2dVertex
 10
118.6266953913503
 20
223.268111787716
 30
0.0
  0
VERTEX
  5
73B
330
739
100
AcDbEntity
  8
TEXT
 62
     7
100
AcDbVertex
100
AcDb2dVertex
 10
120.1974866778499
 20
223.268111787716
 30
0.0
  0
SEQEND
  5
73C
330
739
100
AcDbEntity
  8
TEXT
  0
POLYLINE
  5
73D
330
1F
100
AcDbEntity
  8
TEXT
 62
     7
100
AcDb2dPolyline
 66
     1
 10
0.0
 20
0.0
 30
0.0
  0
VERTEX
  5
73E
330
73D
100
AcDbEntity
  8
TEXT
 62
     7
100
AcDbVertex
100
AcDb2dVertex
 10
118.6266953913503
 20
223.2177272662442
 30
0.0
  0
VERTEX
  5
73F
330
73D
100
AcDbEntity
  8
TEXT
 62
     7
100
AcDbVertex
100
AcDb2dVertex
 10
120.5828206078751
 20
223.2177272662442
 30
0.0
  0
SEQEND
  5
740
330
73D
100
AcDbEntity
  8
TEXT
  0
POLYLINE
  5
741
330
1F
100
AcDbEntity
  8
TEXT
 62
     7
100
AcDb2dPolyline
 66
     1
 10
0.0
 20
0.0
 30
0.0
  0
VERTEX
  5
742
330
741
100
AcDbEntity
  8
TEXT
 62
     7
100
AcDbVertex
100
AcDb2dVertex
 10
118.6266953913503
 20
223.1669121078368
 30
0.0
  0
VERTEX
  5
743
330
741
100
AcDbEntity
  8
TEXT
 62
     7
100
AcDbVertex
100
AcDb2dVertex
 10
120.9691880665459
 20
223.1669121078368
 30
0.0
  0
SEQEND
  5
744
330
741
100
AcDbEntity
  8
TEXT
  0
POLYLINE
  5
745
330
1F
100
AcDbEntity
  8
TEXT
 62
     7
100
AcDb2dPolyline
 66
     1
 10
0.0
 20
0.0
 30
0.0
  0
VERTEX
  5
746
330
745
100
AcDbEntity
  8
TEXT
 62
     7
100
AcDbVertex
100
AcDb2dVertex
 10
118.6266953913503
 20
223.1160969494293
 30
0.0
  0
VERTEX
  5
747
330
745
100
AcDbEntity
  8
TEXT
 62
     7
100
AcDbVertex
100
AcDb2dVertex
 10
121.3546942513454
 20
223.1160969494293
 30
0.0
  0
SEQEND
  5
748
330
745
100
AcDbEntity
  8
TEXT
  0
POLYLINE
  5
749
330
1F
100
AcDbEntity
  8
TEXT
 62
     7
100
AcDb2dPolyline
 66
     1
 10
0.0
 20
0.0
 30
0.0
  0
VERTEX
  5
74A
330
749
100
AcDbEntity
  8
TEXT
 62
     7
100
AcDbVertex
100
AcDb2dVertex
 10
118.6266953913503
 20
223.0652817910219
 30
0.0
  0
VERTEX
  5
74B
330
749
100
AcDbEntity
  8
TEXT
 62
     7
100
AcDbVertex
100
AcDb2dVertex
 10
121.7408894552419
 20
223.0652817910219
 30
0.0
  0
SEQEND
  5
74C
330
749
100
AcDbEntity
  8
TEXT
  0
POLYLINE
  5
74D
330
1F
100
AcDbEntity
  8
TEXT
 62
     7
100
AcDb2dPolyline
 66
     1
 10
0.0
 20
0.0
 30
0.0
  0
VERTEX
  5
74E
330
74D
100
AcDbEntity
  8
TEXT
 62
     7
100
AcDbVertex
100
AcDb2dVertex
 10
118.6266953913503
 20
223.0144666326144
 30
0.0
  0
VERTEX
  5
74F
330
74D
100
AcDbEntity
  8
TEXT
 62
     7
100
AcDbVertex
100
AcDb2dVertex
 10
122.1265678948156
 20
223.0144666326144
 30
0.0
  0
SEQEND
  5
750
330
74D
100
AcDbEntity
  8
TEXT
  0
POLYLINE
  5
751
330
1F
100
AcDbEntity
  8
TEXT
 62
     7
100
AcDb2dPolyline
 66
     1
 10
0.0
 20
0.0
 30
0.0
  0
VERTEX
  5
752
330
751
100
AcDbEntity
  8
TEXT
 62
     7
100
AcDbVertex
100
AcDb2dVertex
 10
118.6266953913503
 20
222.5569579521733
 30
0.0
  0
VERTEX
  5
753
330
751
100
AcDbEntity
  8
TEXT
 62
     7
100
AcDbVertex
100
AcDb2dVertex
 10
118.6537393909095
 20
222.5569579521733
 30
0.0
  0
SEQEND
  5
754
330
751
100
AcDbEntity
  8
TEXT
  0
POLYLINE
  5
755
330
1F
100
AcDbEntity
  8
TEXT
 62
     7
100
AcDb2dPolyline
 66
     1
 10
0.0
 20
0.0
 30
0.0
  0
VERTEX
  5
756
330
755
100
AcDbEntity
  8
TEXT
 62
     7
100
AcDbVertex
100
AcDb2dVertex
 10
118.6266953913503
 20
222.5569579521733
 30
0.0
  0
VERTEX
  5
757
330
755
100
AcDbEntity
  8
TEXT
 62
     7
100
AcDbVertex
100
AcDb2dVertex
 10
118.6537393909095
 20
222.5569579521733
 30
0.0
  0
SEQEND
  5
758
330
755
100
AcDbEntity
  8
TEXT
  0
POLYLINE
  5
759
330
1F
100
AcDbEntity
  8
TEXT
 62
     7
100
AcDb2dPolyline
 66
     1
 10
0.0
 20
0.0
 30
0.0
  0
VERTEX
  5
75A
330
759
100
AcDbEntity
  8
TEXT
 62
     7
100
AcDbVertex
100
AcDb2dVertex
 10
118.6266953913503
 20
222.6077731105807
 30
0.0
  0
VERTEX
  5
75B
330
759
100
AcDbEntity
  8
TEXT
 62
     7
100
AcDbVertex
100
AcDb2dVertex
 10
119.0394178304832
 20
222.6077731105807
 30
0.0
  0
SEQEND
  5
75C
330
759
100
AcDbEntity
  8
TEXT
  0
POLYLINE
  5
75D
330
1F
100
AcDbEntity
  8
TEXT
 62
     7
100
AcDb2dPolyline
 66
     1
 10
0.0
 20
0.0
 30
0.0
  0
VERTEX
  5
75E
330
75D
100
AcDbEntity
  8
TEXT
 62
     7
100
AcDbVertex
100
AcDb2dVertex
 10
118.6266953913503
 20
222.658502141601
 30
0.0
  0
VERTEX
  5
75F
330
75D
100
AcDbEntity
  8
TEXT
 62
     7
100
AcDbVertex
100
AcDb2dVertex
 10
119.425785289154
 20
222.658502141601
 30
0.0
  0
SEQEND
  5
760
330
75D
100
AcDbEntity
  8
TEXT
  0
POLYLINE
  5
761
330
1F
100
AcDbEntity
  8
TEXT
 62
     7
100
AcDb2dPolyline
 66
     1
 10
0.0
 20
0.0
 30
0.0
  0
VERTEX
  5
762
330
761
100
AcDbEntity
  8
TEXT
 62
     7
100
AcDbVertex
100
AcDb2dVertex
 10
118.6266953913503
 20
222.7093173000085
 30
0.0
  0
VERTEX
  5
763
330
761
100
AcDbEntity
  8
TEXT
 62
     7
100
AcDbVertex
100
AcDb2dVertex
 10
119.8112914739534
 20
222.7093173000085
 30
0.0
  0
SEQEND
  5
764
330
761
100
AcDbEntity
  8
TEXT
  0
POLYLINE
  5
765
330
1F
100
AcDbEntity
  8
TEXT
 62
     7
100
AcDb2dPolyline
 66
     1
 10
0.0
 20
0.0
 30
0.0
  0
VERTEX
  5
766
330
765
100
AcDbEntity
  8
TEXT
 62
     7
100
AcDbVertex
100
AcDb2dVertex
 10
118.6266953913503
 20
222.7604769679644
 30
0.0
  0
VERTEX
  5
767
330
765
100
AcDbEntity
  8
TEXT
 62
     7
100
AcDbVertex
100
AcDb2dVertex
 10
120.1974866778499
 20
222.7604769679644
 30
0.0
  0
SEQEND
  5
768
330
765
100
AcDbEntity
  8
TEXT
  0
POLYLINE
  5
769
330
1F
100
AcDbEntity
  8
TEXT
 62
     7
100
AcDb2dPolyline
 66
     1
 10
0.0
 20
0.0
 30
0.0
  0
VERTEX
  5
76A
330
769
100
AcDbEntity
  8
TEXT
 62
     7
100
AcDbVertex
100
AcDb2dVertex
 10
118.6266953913503
 20
222.8112921263719
 30
0.0
  0
VERTEX
  5
76B
330
769
100
AcDbEntity
  8
TEXT
 62
     7
100
AcDbVertex
100
AcDb2dVertex
 10
120.5828206078751
 20
222.8112921263719
 30
0.0
  0
SEQEND
  5
76C
330
769
100
AcDbEntity
  8
TEXT
  0
POLYLINE
  5
76D
330
1F
100
AcDbEntity
  8
TEXT
 62
     7
100
AcDb2dPolyline
 66
     1
 10
0.0
 20
0.0
 30
0.0
  0
VERTEX
  5
76E
330
76D
100
AcDbEntity
  8
TEXT
 62
     7
100
AcDbVertex
100
AcDb2dVertex
 10
118.6266953913503
 20
222.8621072847793
 30
0.0
  0
VERTEX
  5
76F
330
76D
100
AcDbEntity
  8
TEXT
 62
     7
100
AcDbVertex
100
AcDb2dVertex
 10
120.9691880665459
 20
222.8621072847793
 30
0.0
  0
SEQEND
  5
770
330
76D
100
AcDbEntity
  8
TEXT
  0
POLYLINE
  5
771
330
1F
100
AcDbEntity
  8
TEXT
 62
     7
100
AcDb2dPolyline
 66
     1
 10
0.0
 20
0.0
 30
0.0
  0
VERTEX
  5
772
330
771
100
AcDbEntity
  8
TEXT
 62
     7
100
AcDbVertex
100
AcDb2dVertex
 10
118.6266953913503
 20
222.9128363157996
 30
0.0
  0
VERTEX
  5
773
330
771
100
AcDbEntity
  8
TEXT
 62
     7
100
AcDbVertex
100
AcDb2dVertex
 10
121.3546942513454
 20
222.9128363157996
 30
0.0
  0
SEQEND
  5
774
330
771
100
AcDbEntity
  8
TEXT
  0
POLYLINE
  5
775
330
1F
100
AcDbEntity
  8
TEXT
 62
     7
100
AcDb2dPolyline
 66
     1
 10
0.0
 20
0.0
 30
0.0
  0
VERTEX
  5
776
330
775
100
AcDbEntity
  8
TEXT
 62
     7
100
AcDbVertex
100
AcDb2dVertex
 10
118.6266953913503
 20
222.963651474207
 30
0.0
  0
VERTEX
  5
777
330
775
100
AcDbEntity
  8
TEXT
 62
     7
100
AcDbVertex
100
AcDb2dVertex
 10
121.7408894552419
 20
222.963651474207
 30
0.0
  0
SEQEND
  5
778
330
775
100
AcDbEntity
  8
TEXT
  0
POLYLINE
  5
779
330
1F
100
AcDbEntity
  8
TEXT
 62
     7
100
AcDb2dPolyline
 66
     1
 10
0.0
 20
0.0
 30
0.0
  0
VERTEX
  5
77A
330
779
100
AcDbEntity
  8
TEXT
 62
     7
100
AcDbVertex
100
AcDb2dVertex
 10
118.6266953913503
 20
223.0144666326144
 30
0.0
  0
VERTEX
  5
77B
330
779
100
AcDbEntity
  8
TEXT
 62
     7
100
AcDbVertex
100
AcDb2dVertex
 10
122.1265678948156
 20
223.0144666326144
 30
0.0
  0
SEQEND
  5
77C
330
779
100
AcDbEntity
  8
TEXT
  0
POLYLINE
  5
77D
330
1F
100
AcDbEntity
  8
TEXT
 62
     7
100
AcDb2dPolyline
 66
     1
 10
0.0
 20
0.0
 30
0.0
  0
VERTEX
  5
77E
330
77D
100
AcDbEntity
  8
TEXT
 62
     7
100
AcDbVertex
100
AcDb2dVertex
 10
6.099197047086312
 20
186.7284816698977
 30
0.0
  0
VERTEX
  5
77F
330
77D
100
AcDbEntity
  8
TEXT
 62
     7
100
AcDbVertex
100
AcDb2dVertex
 10
6.099197047086312
 20
163.6285996769748
 30
0.0
  0
SEQEND
  5
780
330
77D
100
AcDbEntity
  8
TEXT
  0
POLYLINE
  5
781
330
1F
100
AcDbEntity
  8
TEXT
 62
     7
100
AcDb2dPolyline
 66
     1
 10
0.0
 20
0.0
 30
0.0
  0
VERTEX
  5
782
330
781
100
AcDbEntity
  8
TEXT
 62
     7
100
AcDbVertex
100
AcDb2dVertex
 10
33.09978840318339
 20
177.2306979266125
 30
0.0
  0
VERTEX
  5
783
330
781
100
AcDbEntity
  8
TEXT
 62
     7
100
AcDbVertex
100
AcDb2dVertex
 10
33.09978840318339
 20
163.6285996769748
 30
0.0
  0
SEQEND
  5
784
330
781
100
AcDbEntity
  8
TEXT
  0
POLYLINE
  5
785
330
1F
100
AcDbEntity
  8
TEXT
 62
     7
100
AcDb2dPolyline
 66
     1
 10
0.0
 20
0.0
 30
0.0
  0
VERTEX
  5
786
330
785
100
AcDbEntity
  8
TEXT
 62
     7
100
AcDbVertex
100
AcDb2dVertex
 10
6.099197047086312
 20
165.6288221157108
 30
0.0
  0
VERTEX
  5
787
330
785
100
AcDbEntity
  8
TEXT
 62
     7
100
AcDbVertex
100
AcDb2dVertex
 10
33.09978840318339
 20
165.6288221157108
 30
0.0
  0
SEQEND
  5
788
330
785
100
AcDbEntity
  8
TEXT
  0
POLYLINE
  5
789
330
1F
100
AcDbEntity
  8
TEXT
 62
     7
100
AcDb2dPolyline
 66
     1
 10
0.0
 20
0.0
 30
0.0
  0
VERTEX
  5
78A
330
789
100
AcDbEntity
  8
TEXT
 62
     7
100
AcDbVertex
100
AcDb2dVertex
 10
6.099197047086312
 20
165.6288221157108
 30
0.0
  0
VERTEX
  5
78B
330
789
100
AcDbEntity
  8
TEXT
 62
     7
100
AcDbVertex
100
AcDb2dVertex
 10
9.599414060100147
 20
165.1676960850102
 30
0.0
  0
VERTEX
  5
78C
330
789
100
AcDbEntity
  8
TEXT
 62
     7
100
AcDbVertex
100
AcDb2dVertex
 10
9.599414060100147
 20
166.0899481464116
 30
0.0
  0
VERTEX
  5
78D
330
789
100
AcDbEntity
  8
TEXT
 62
     7
100
AcDbVertex
100
AcDb2dVertex
 10
6.099197047086312
 20
165.6288221157108
 30
0.0
  0
SEQEND
  5
78E
330
789
100
AcDbEntity
  8
TEXT
  0
POLYLINE
  5
78F
330
1F
100
AcDbEntity
  8
TEXT
 62
     7
100
AcDb2dPolyline
 66
     1
 10
0.0
 20
0.0
 30
0.0
  0
VERTEX
  5
790
330
78F
100
AcDbEntity
  8
TEXT
 62
     7
100
AcDbVertex
100
AcDb2dVertex
 10
9.599414060100147
 20
165.1713134352697
 30
0.0
  0
VERTEX
  5
791
330
78F
100
AcDbEntity
  8
TEXT
 62
     7
100
AcDbVertex
100
AcDb2dVertex
 10
9.571853296218148
 20
165.1713134352697
 30
0.0
  0
SEQEND
  5
792
330
78F
100
AcDbEntity
  8
TEXT
  0
POLYLINE
  5
793
330
1F
100
AcDbEntity
  8
TEXT
 62
     7
100
AcDb2dPolyline
 66
     1
 10
0.0
 20
0.0
 30
0.0
  0
VERTEX
  5
794
330
793
100
AcDbEntity
  8
TEXT
 62
     7
100
AcDbVertex
100
AcDb2dVertex
 10
9.599414060100147
 20
165.1713134352697
 30
0.0
  0
VERTEX
  5
795
330
793
100
AcDbEntity
  8
TEXT
 62
     7
100
AcDbVertex
100
AcDb2dVertex
 10
9.571853296218148
 20
165.1713134352697
 30
0.0
  0
SEQEND
  5
796
330
793
100
AcDbEntity
  8
TEXT
  0
POLYLINE
  5
797
330
1F
100
AcDbEntity
  8
TEXT
 62
     7
100
AcDb2dPolyline
 66
     1
 10
0.0
 20
0.0
 30
0.0
  0
VERTEX
  5
798
330
797
100
AcDbEntity
  8
TEXT
 62
     7
100
AcDbVertex
100
AcDb2dVertex
 10
9.599414060100147
 20
165.2221285936771
 30
0.0
  0
VERTEX
  5
799
330
797
100
AcDbEntity
  8
TEXT
 62
     7
100
AcDbVertex
100
AcDb2dVertex
 10
9.186002601870166
 20
165.2221285936771
 30
0.0
  0
SEQEND
  5
79A
330
797
100
AcDbEntity
  8
TEXT
  0
POLYLINE
  5
79B
330
1F
100
AcDbEntity
  8
TEXT
 62
     7
100
AcDb2dPolyline
 66
     1
 10
0.0
 20
0.0
 30
0.0
  0
VERTEX
  5
79C
330
79B
100
AcDbEntity
  8
TEXT
 62
     7
100
AcDbVertex
100
AcDb2dVertex
 10
9.599414060100147
 20
165.2729437520846
 30
0.0
  0
VERTEX
  5
79D
330
79B
100
AcDbEntity
  8
TEXT
 62
     7
100
AcDbVertex
100
AcDb2dVertex
 10
8.800668671844972
 20
165.2729437520846
 30
0.0
  0
SEQEND
  5
79E
330
79B
100
AcDbEntity
  8
TEXT
  0
POLYLINE
  5
79F
330
1F
100
AcDbEntity
  8
TEXT
 62
     7
100
AcDb2dPolyline
 66
     1
 10
0.0
 20
0.0
 30
0.0
  0
VERTEX
  5
7A0
330
79F
100
AcDbEntity
  8
TEXT
 62
     7
100
AcDbVertex
100
AcDb2dVertex
 10
9.599414060100147
 20
165.3235866557177
 30
0.0
  0
VERTEX
  5
7A1
330
79F
100
AcDbEntity
  8
TEXT
 62
     7
100
AcDbVertex
100
AcDb2dVertex
 10
8.414817977496991
 20
165.3235866557177
 30
0.0
  0
SEQEND
  5
7A2
330
79F
100
AcDbEntity
  8
TEXT
  0
POLYLINE
  5
7A3
330
1F
100
AcDbEntity
  8
TEXT
 62
     7
100
AcDb2dPolyline
 66
     1
 10
0.0
 20
0.0
 30
0.0
  0
VERTEX
  5
7A4
330
7A3
100
AcDbEntity
  8
TEXT
 62
     7
100
AcDbVertex
100
AcDb2dVertex
 10
9.599414060100147
 20
165.3744018141252
 30
0.0
  0
VERTEX
  5
7A5
330
7A3
100
AcDbEntity
  8
TEXT
 62
     7
100
AcDbVertex
100
AcDb2dVertex
 10
8.02845051882622
 20
165.3744018141252
 30
0.0
  0
SEQEND
  5
7A6
330
7A3
100
AcDbEntity
  8
TEXT
  0
POLYLINE
  5
7A7
330
1F
100
AcDbEntity
  8
TEXT
 62
     7
100
AcDb2dPolyline
 66
     1
 10
0.0
 20
0.0
 30
0.0
  0
VERTEX
  5
7A8
330
7A7
100
AcDbEntity
  8
TEXT
 62
     7
100
AcDbVertex
100
AcDb2dVertex
 10
9.599414060100147
 20
165.4255614820811
 30
0.0
  0
VERTEX
  5
7A9
330
7A7
100
AcDbEntity
  8
TEXT
 62
     7
100
AcDbVertex
100
AcDb2dVertex
 10
7.642599824478239
 20
165.4255614820811
 30
0.0
  0
SEQEND
  5
7AA
330
7A7
100
AcDbEntity
  8
TEXT
  0
POLYLINE
  5
7AB
330
1F
100
AcDbEntity
  8
TEXT
 62
     7
100
AcDb2dPolyline
 66
     1
 10
0.0
 20
0.0
 30
0.0
  0
VERTEX
  5
7AC
330
7AB
100
AcDbEntity
  8
TEXT
 62
     7
100
AcDbVertex
100
AcDb2dVertex
 10
9.599414060100147
 20
165.4763766404886
 30
0.0
  0
VERTEX
  5
7AD
330
7AB
100
AcDbEntity
  8
TEXT
 62
     7
100
AcDbVertex
100
AcDb2dVertex
 10
7.257265894453045
 20
165.4763766404886
 30
0.0
  0
SEQEND
  5
7AE
330
7AB
100
AcDbEntity
  8
TEXT
  0
POLYLINE
  5
7AF
330
1F
100
AcDbEntity
  8
TEXT
 62
     7
100
AcDb2dPolyline
 66
     1
 10
0.0
 20
0.0
 30
0.0
  0
VERTEX
  5
7B0
330
7AF
100
AcDbEntity
  8
TEXT
 62
     7
100
AcDbVertex
100
AcDb2dVertex
 10
9.599414060100147
 20
165.527191798896
 30
0.0
  0
VERTEX
  5
7B1
330
7AF
100
AcDbEntity
  8
TEXT
 62
     7
100
AcDbVertex
100
AcDb2dVertex
 10
6.871415200105063
 20
165.527191798896
 30
0.0
  0
SEQEND
  5
7B2
330
7AF
100
AcDbEntity
  8
TEXT
  0
POLYLINE
  5
7B3
330
1F
100
AcDbEntity
  8
TEXT
 62
     7
100
AcDb2dPolyline
 66
     1
 10
0.0
 20
0.0
 30
0.0
  0
VERTEX
  5
7B4
330
7B3
100
AcDbEntity
  8
TEXT
 62
     7
100
AcDbVertex
100
AcDb2dVertex
 10
9.599414060100147
 20
165.5780069573034
 30
0.0
  0
VERTEX
  5
7B5
330
7B3
100
AcDbEntity
  8
TEXT
 62
     7
100
AcDbVertex
100
AcDb2dVertex
 10
6.485047741434294
 20
165.5780069573034
 30
0.0
  0
SEQEND
  5
7B6
330
7B3
100
AcDbEntity
  8
TEXT
  0
POLYLINE
  5
7B7
330
1F
100
AcDbEntity
  8
TEXT
 62
     7
100
AcDb2dPolyline
 66
     1
 10
0.0
 20
0.0
 30
0.0
  0
VERTEX
  5
7B8
330
7B7
100
AcDbEntity
  8
TEXT
 62
     7
100
AcDbVertex
100
AcDb2dVertex
 10
9.599414060100147
 20
165.6288221157108
 30
0.0
  0
VERTEX
  5
7B9
330
7B7
100
AcDbEntity
  8
TEXT
 62
     7
100
AcDbVertex
100
AcDb2dVertex
 10
6.099197047086312
 20
165.6288221157108
 30
0.0
  0
SEQEND
  5
7BA
330
7B7
100
AcDbEntity
  8
TEXT
  0
POLYLINE
  5
7BB
330
1F
100
AcDbEntity
  8
TEXT
 62
     7
100
AcDb2dPolyline
 66
     1
 10
0.0
 20
0.0
 30
0.0
  0
VERTEX
  5
7BC
330
7BB
100
AcDbEntity
  8
TEXT
 62
     7
100
AcDbVertex
100
AcDb2dVertex
 10
9.599414060100147
 20
166.085641777055
 30
0.0
  0
VERTEX
  5
7BD
330
7BB
100
AcDbEntity
  8
TEXT
 62
     7
100
AcDbVertex
100
AcDb2dVertex
 10
9.571853296218148
 20
166.085641777055
 30
0.0
  0
SEQEND
  5
7BE
330
7BB
100
AcDbEntity
  8
TEXT
  0
POLYLINE
  5
7BF
330
1F
100
AcDbEntity
  8
TEXT
 62
     7
100
AcDb2dPolyline
 66
     1
 10
0.0
 20
0.0
 30
0.0
  0
VERTEX
  5
7C0
330
7BF
100
AcDbEntity
  8
TEXT
 62
     7
100
AcDbVertex
100
AcDb2dVertex
 10
9.599414060100147
 20
166.085641777055
 30
0.0
  0
VERTEX
  5
7C1
330
7BF
100
AcDbEntity
  8
TEXT
 62
     7
100
AcDbVertex
100
AcDb2dVertex
 10
9.571853296218148
 20
166.085641777055
 30
0.0
  0
SEQEND
  5
7C2
330
7BF
100
AcDbEntity
  8
TEXT
  0
POLYLINE
  5
7C3
330
1F
100
AcDbEntity
  8
TEXT
 62
     7
100
AcDb2dPolyline
 66
     1
 10
0.0
 20
0.0
 30
0.0
  0
VERTEX
  5
7C4
330
7C3
100
AcDbEntity
  8
TEXT
 62
     7
100
AcDbVertex
100
AcDb2dVertex
 10
9.599414060100147
 20
166.0348266186475
 30
0.0
  0
VERTEX
  5
7C5
330
7C3
100
AcDbEntity
  8
TEXT
 62
     7
100
AcDbVertex
100
AcDb2dVertex
 10
9.186002601870166
 20
166.0348266186475
 30
0.0
  0
SEQEND
  5
7C6
330
7C3
100
AcDbEntity
  8
TEXT
  0
POLYLINE
  5
7C7
330
1F
100
AcDbEntity
  8
TEXT
 62
     7
100
AcDb2dPolyline
 66
     1
 10
0.0
 20
0.0
 30
0.0
  0
VERTEX
  5
7C8
330
7C7
100
AcDbEntity
  8
TEXT
 62
     7
100
AcDbVertex
100
AcDb2dVertex
 10
9.599414060100147
 20
165.9840114602401
 30
0.0
  0
VERTEX
  5
7C9
330
7C7
100
AcDbEntity
  8
TEXT
 62
     7
100
AcDbVertex
100
AcDb2dVertex
 10
8.800668671844972
 20
165.9840114602401
 30
0.0
  0
SEQEND
  5
7CA
330
7C7
100
AcDbEntity
  8
TEXT
  0
POLYLINE
  5
7CB
330
1F
100
AcDbEntity
  8
TEXT
 62
     7
100
AcDb2dPolyline
 66
     1
 10
0.0
 20
0.0
 30
0.0
  0
VERTEX
  5
7CC
330
7CB
100
AcDbEntity
  8
TEXT
 62
     7
100
AcDbVertex
100
AcDb2dVertex
 10
9.599414060100147
 20
165.9337130661555
 30
0.0
  0
VERTEX
  5
7CD
330
7CB
100
AcDbEntity
  8
TEXT
 62
     7
100
AcDbVertex
100
AcDb2dVertex
 10
8.414817977496991
 20
165.9337130661555
 30
0.0
  0
SEQEND
  5
7CE
330
7CB
100
AcDbEntity
  8
TEXT
  0
POLYLINE
  5
7CF
330
1F
100
AcDbEntity
  8
TEXT
 62
     7
100
AcDb2dPolyline
 66
     1
 10
0.0
 20
0.0
 30
0.0
  0
VERTEX
  5
7D0
330
7CF
100
AcDbEntity
  8
TEXT
 62
     7
100
AcDbVertex
100
AcDb2dVertex
 10
9.599414060100147
 20
165.8827256529738
 30
0.0
  0
VERTEX
  5
7D1
330
7CF
100
AcDbEntity
  8
TEXT
 62
     7
100
AcDbVertex
100
AcDb2dVertex
 10
8.02845051882622
 20
165.8827256529738
 30
0.0
  0
SEQEND
  5
7D2
330
7CF
100
AcDbEntity
  8
TEXT
  0
POLYLINE
  5
7D3
330
1F
100
AcDbEntity
  8
TEXT
 62
     7
100
AcDb2dPolyline
 66
     1
 10
0.0
 20
0.0
 30
0.0
  0
VERTEX
  5
7D4
330
7D3
100
AcDbEntity
  8
TEXT
 62
     7
100
AcDbVertex
100
AcDb2dVertex
 10
9.599414060100147
 20
165.8320827493406
 30
0.0
  0
VERTEX
  5
7D5
330
7D3
100
AcDbEntity
  8
TEXT
 62
     7
100
AcDbVertex
100
AcDb2dVertex
 10
7.642599824478239
 20
165.8320827493406
 30
0.0
  0
SEQEND
  5
7D6
330
7D3
100
AcDbEntity
  8
TEXT
  0
POLYLINE
  5
7D7
330
1F
100
AcDbEntity
  8
TEXT
 62
     7
100
AcDb2dPolyline
 66
     1
 10
0.0
 20
0.0
 30
0.0
  0
VERTEX
  5
7D8
330
7D7
100
AcDbEntity
  8
TEXT
 62
     7
100
AcDbVertex
100
AcDb2dVertex
 10
9.599414060100147
 20
165.7809230813846
 30
0.0
  0
VERTEX
  5
7D9
330
7D7
100
AcDbEntity
  8
TEXT
 62
     7
100
AcDbVertex
100
AcDb2dVertex
 10
7.257265894453045
 20
165.7809230813846
 30
0.0
  0
SEQEND
  5
7DA
330
7D7
100
AcDbEntity
  8
TEXT
  0
POLYLINE
  5
7DB
330
1F
100
AcDbEntity
  8
TEXT
 62
     7
100
AcDb2dPolyline
 66
     1
 10
0.0
 20
0.0
 30
0.0
  0
VERTEX
  5
7DC
330
7DB
100
AcDbEntity
  8
TEXT
 62
     7
100
AcDbVertex
100
AcDb2dVertex
 10
9.599414060100147
 20
165.7301079229772
 30
0.0
  0
VERTEX
  5
7DD
330
7DB
100
AcDbEntity
  8
TEXT
 62
     7
100
AcDbVertex
100
AcDb2dVertex
 10
6.871415200105063
 20
165.7301079229772
 30
0.0
  0
SEQEND
  5
7DE
330
7DB
100
AcDbEntity
  8
TEXT
  0
POLYLINE
  5
7DF
330
1F
100
AcDbEntity
  8
TEXT
 62
     7
100
AcDb2dPolyline
 66
     1
 10
0.0
 20
0.0
 30
0.0
  0
VERTEX
  5
7E0
330
7DF
100
AcDbEntity
  8
TEXT
 62
     7
100
AcDbVertex
100
AcDb2dVertex
 10
9.599414060100147
 20
165.6792927645698
 30
0.0
  0
VERTEX
  5
7E1
330
7DF
100
AcDbEntity
  8
TEXT
 62
     7
100
AcDbVertex
100
AcDb2dVertex
 10
6.485047741434294
 20
165.6792927645698
 30
0.0
  0
SEQEND
  5
7E2
330
7DF
100
AcDbEntity
  8
TEXT
  0
POLYLINE
  5
7E3
330
1F
100
AcDbEntity
  8
TEXT
 62
     7
100
AcDb2dPolyline
 66
     1
 10
0.0
 20
0.0
 30
0.0
  0
VERTEX
  5
7E4
330
7E3
100
AcDbEntity
  8
TEXT
 62
     7
100
AcDbVertex
100
AcDb2dVertex
 10
9.599414060100147
 20
165.6288221157108
 30
0.0
  0
VERTEX
  5
7E5
330
7E3
100
AcDbEntity
  8
TEXT
 62
     7
100
AcDbVertex
100
AcDb2dVertex
 10
6.099197047086312
 20
165.6288221157108
 30
0.0
  0
SEQEND
  5
7E6
330
7E3
100
AcDbEntity
  8
TEXT
  0
POLYLINE
  5
7E7
330
1F
100
AcDbEntity
  8
TEXT
 62
     7
100
AcDb2dPolyline
 66
     1
 10
0.0
 20
0.0
 30
0.0
  0
VERTEX
  5
7E8
330
7E7
100
AcDbEntity
  8
TEXT
 62
     7
100
AcDbVertex
100
AcDb2dVertex
 10
33.09978840318339
 20
165.6288221157108
 30
0.0
  0
VERTEX
  5
7E9
330
7E7
100
AcDbEntity
  8
TEXT
 62
     7
100
AcDbVertex
100
AcDb2dVertex
 10
29.59905462584677
 20
166.0899481464116
 30
0.0
  0
VERTEX
  5
7EA
330
7E7
100
AcDbEntity
  8
TEXT
 62
     7
100
AcDbVertex
100
AcDb2dVertex
 10
29.59905462584677
 20
165.1676960850102
 30
0.0
  0
VERTEX
  5
7EB
330
7E7
100
AcDbEntity
  8
TEXT
 62
     7
100
AcDbVertex
100
AcDb2dVertex
 10
33.09978840318339
 20
165.6288221157108
 30
0.0
  0
SEQEND
  5
7EC
330
7E7
100
AcDbEntity
  8
TEXT
  0
POLYLINE
  5
7ED
330
1F
100
AcDbEntity
  8
TEXT
 62
     7
100
AcDb2dPolyline
 66
     1
 10
0.0
 20
0.0
 30
0.0
  0
VERTEX
  5
7EE
330
7ED
100
AcDbEntity
  8
TEXT
 62
     7
100
AcDbVertex
100
AcDb2dVertex
 10
29.59905462584677
 20
166.085641777055
 30
0.0
  0
VERTEX
  5
7EF
330
7ED
100
AcDbEntity
  8
TEXT
 62
     7
100
AcDbVertex
100
AcDb2dVertex
 10
29.62695989927729
 20
166.085641777055
 30
0.0
  0
SEQEND
  5
7F0
330
7ED
100
AcDbEntity
  8
TEXT
  0
POLYLINE
  5
7F1
330
1F
100
AcDbEntity
  8
TEXT
 62
     7
100
AcDb2dPolyline
 66
     1
 10
0.0
 20
0.0
 30
0.0
  0
VERTEX
  5
7F2
330
7F1
100
AcDbEntity
  8
TEXT
 62
     7
100
AcDbVertex
100
AcDb2dVertex
 10
29.59905462584677
 20
166.085641777055
 30
0.0
  0
VERTEX
  5
7F3
330
7F1
100
AcDbEntity
  8
TEXT
 62
     7
100
AcDbVertex
100
AcDb2dVertex
 10
29.62695989927729
 20
166.085641777055
 30
0.0
  0
SEQEND
  5
7F4
330
7F1
100
AcDbEntity
  8
TEXT
  0
POLYLINE
  5
7F5
330
1F
100
AcDbEntity
  8
TEXT
 62
     7
100
AcDb2dPolyline
 66
     1
 10
0.0
 20
0.0
 30
0.0
  0
VERTEX
  5
7F6
330
7F5
100
AcDbEntity
  8
TEXT
 62
     7
100
AcDbVertex
100
AcDb2dVertex
 10
29.59905462584677
 20
166.0348266186475
 30
0.0
  0
VERTEX
  5
7F7
330
7F5
100
AcDbEntity
  8
TEXT
 62
     7
100
AcDbVertex
100
AcDb2dVertex
 10
30.01229382930248
 20
166.0348266186475
 30
0.0
  0
SEQEND
  5
7F8
330
7F5
100
AcDbEntity
  8
TEXT
  0
POLYLINE
  5
7F9
330
1F
100
AcDbEntity
  8
TEXT
 62
     7
100
AcDb2dPolyline
 66
     1
 10
0.0
 20
0.0
 30
0.0
  0
VERTEX
  5
7FA
330
7F9
100
AcDbEntity
  8
TEXT
 62
     7
100
AcDbVertex
100
AcDb2dVertex
 10
29.59905462584677
 20
165.9840114602401
 30
0.0
  0
VERTEX
  5
7FB
330
7F9
100
AcDbEntity
  8
TEXT
 62
     7
100
AcDbVertex
100
AcDb2dVertex
 10
30.39814452365047
 20
165.9840114602401
 30
0.0
  0
SEQEND
  5
7FC
330
7F9
100
AcDbEntity
  8
TEXT
  0
POLYLINE
  5
7FD
330
1F
100
AcDbEntity
  8
TEXT
 62
     7
100
AcDb2dPolyline
 66
     1
 10
0.0
 20
0.0
 30
0.0
  0
VERTEX
  5
7FE
330
7FD
100
AcDbEntity
  8
TEXT
 62
     7
100
AcDbVertex
100
AcDb2dVertex
 10
29.59905462584677
 20
165.9337130661555
 30
0.0
  0
VERTEX
  5
7FF
330
7FD
100
AcDbEntity
  8
TEXT
 62
     7
100
AcDbVertex
100
AcDb2dVertex
 10
30.78416747277271
 20
165.9337130661555
 30
0.0
  0
SEQEND
  5
800
330
7FD
100
AcDbEntity
  8
TEXT
  0
POLYLINE
  5
801
330
1F
100
AcDbEntity
  8
TEXT
 62
     7
100
AcDb2dPolyline
 66
     1
 10
0.0
 20
0.0
 30
0.0
  0
VERTEX
  5
802
330
801
100
AcDbEntity
  8
TEXT
 62
     7
100
AcDbVertex
100
AcDb2dVertex
 10
29.59905462584677
 20
165.8827256529738
 30
0.0
  0
VERTEX
  5
803
330
801
100
AcDbEntity
  8
TEXT
 62
     7
100
AcDbVertex
100
AcDb2dVertex
 10
31.17036267666922
 20
165.8827256529738
 30
0.0
  0
SEQEND
  5
804
330
801
100
AcDbEntity
  8
TEXT
  0
POLYLINE
  5
805
330
1F
100
AcDbEntity
  8
TEXT
 62
     7
100
AcDb2dPolyline
 66
     1
 10
0.0
 20
0.0
 30
0.0
  0
VERTEX
  5
806
330
805
100
AcDbEntity
  8
TEXT
 62
     7
100
AcDbVertex
100
AcDb2dVertex
 10
29.59905462584677
 20
165.8320827493406
 30
0.0
  0
VERTEX
  5
807
330
805
100
AcDbEntity
  8
TEXT
 62
     7
100
AcDbVertex
100
AcDb2dVertex
 10
31.55569660669441
 20
165.8320827493406
 30
0.0
  0
SEQEND
  5
808
330
805
100
AcDbEntity
  8
TEXT
  0
POLYLINE
  5
809
330
1F
100
AcDbEntity
  8
TEXT
 62
     7
100
AcDb2dPolyline
 66
     1
 10
0.0
 20
0.0
 30
0.0
  0
VERTEX
  5
80A
330
809
100
AcDbEntity
  8
TEXT
 62
     7
100
AcDbVertex
100
AcDb2dVertex
 10
29.59905462584677
 20
165.7809230813846
 30
0.0
  0
VERTEX
  5
80B
330
809
100
AcDbEntity
  8
TEXT
 62
     7
100
AcDbVertex
100
AcDb2dVertex
 10
31.94154730104239
 20
165.7809230813846
 30
0.0
  0
SEQEND
  5
80C
330
809
100
AcDbEntity
  8
TEXT
  0
POLYLINE
  5
80D
330
1F
100
AcDbEntity
  8
TEXT
 62
     7
100
AcDb2dPolyline
 66
     1
 10
0.0
 20
0.0
 30
0.0
  0
VERTEX
  5
80E
330
80D
100
AcDbEntity
  8
TEXT
 62
     7
100
AcDbVertex
100
AcDb2dVertex
 10
29.59905462584677
 20
165.7301079229772
 30
0.0
  0
VERTEX
  5
80F
330
80D
100
AcDbEntity
  8
TEXT
 62
     7
100
AcDbVertex
100
AcDb2dVertex
 10
32.32757025016463
 20
165.7301079229772
 30
0.0
  0
SEQEND
  5
810
330
80D
100
AcDbEntity
  8
TEXT
  0
POLYLINE
  5
811
330
1F
100
AcDbEntity
  8
TEXT
 62
     7
100
AcDb2dPolyline
 66
     1
 10
0.0
 20
0.0
 30
0.0
  0
VERTEX
  5
812
330
811
100
AcDbEntity
  8
TEXT
 62
     7
100
AcDbVertex
100
AcDb2dVertex
 10
29.59905462584677
 20
165.6792927645698
 30
0.0
  0
VERTEX
  5
813
330
811
100
AcDbEntity
  8
TEXT
 62
     7
100
AcDbVertex
100
AcDb2dVertex
 10
32.71376545406115
 20
165.6792927645698
 30
0.0
  0
SEQEND
  5
814
330
811
100
AcDbEntity
  8
TEXT
  0
POLYLINE
  5
815
330
1F
100
AcDbEntity
  8
TEXT
 62
     7
100
AcDb2dPolyline
 66
     1
 10
0.0
 20
0.0
 30
0.0
  0
VERTEX
  5
816
330
815
100
AcDbEntity
  8
TEXT
 62
     7
100
AcDbVertex
100
AcDb2dVertex
 10
29.59905462584677
 20
165.6288221157108
 30
0.0
  0
VERTEX
  5
817
330
815
100
AcDbEntity
  8
TEXT
 62
     7
100
AcDbVertex
100
AcDb2dVertex
 10
33.09978840318339
 20
165.6288221157108
 30
0.0
  0
SEQEND
  5
818
330
815
100
AcDbEntity
  8
TEXT
  0
POLYLINE
  5
819
330
1F
100
AcDbEntity
  8
TEXT
 62
     7
100
AcDb2dPolyline
 66
     1
 10
0.0
 20
0.0
 30
0.0
  0
VERTEX
  5
81A
330
819
100
AcDbEntity
  8
TEXT
 62
     7
100
AcDbVertex
100
AcDb2dVertex
 10
29.59905462584677
 20
165.1713134352697
 30
0.0
  0
VERTEX
  5
81B
330
819
100
AcDbEntity
  8
TEXT
 62
     7
100
AcDbVertex
100
AcDb2dVertex
 10
29.62695989927729
 20
165.1713134352697
 30
0.0
  0
SEQEND
  5
81C
330
819
100
AcDbEntity
  8
TEXT
  0
POLYLINE
  5
81D
330
1F
100
AcDbEntity
  8
TEXT
 62
     7
100
AcDb2dPolyline
 66
     1
 10
0.0
 20
0.0
 30
0.0
  0
VERTEX
  5
81E
330
81D
100
AcDbEntity
  8
TEXT
 62
     7
100
AcDbVertex
100
AcDb2dVertex
 10
29.59905462584677
 20
165.1713134352697
 30
0.0
  0
VERTEX
  5
81F
330
81D
100
AcDbEntity
  8
TEXT
 62
     7
100
AcDbVertex
100
AcDb2dVertex
 10
29.62695989927729
 20
165.1713134352697
 30
0.0
  0
SEQEND
  5
820
330
81D
100
AcDbEntity
  8
TEXT
  0
POLYLINE
  5
821
330
1F
100
AcDbEntity
  8
TEXT
 62
     7
100
AcDb2dPolyline
 66
     1
 10
0.0
 20
0.0
 30
0.0
  0
VERTEX
  5
822
330
821
100
AcDbEntity
  8
TEXT
 62
     7
100
AcDbVertex
100
AcDb2dVertex
 10
29.59905462584677
 20
165.2221285936771
 30
0.0
  0
VERTEX
  5
823
330
821
100
AcDbEntity
  8
TEXT
 62
     7
100
AcDbVertex
100
AcDb2dVertex
 10
30.01229382930248
 20
165.2221285936771
 30
0.0
  0
SEQEND
  5
824
330
821
100
AcDbEntity
  8
TEXT
  0
POLYLINE
  5
825
330
1F
100
AcDbEntity
  8
TEXT
 62
     7
100
AcDb2dPolyline
 66
     1
 10
0.0
 20
0.0
 30
0.0
  0
VERTEX
  5
826
330
825
100
AcDbEntity
  8
TEXT
 62
     7
100
AcDbVertex
100
AcDb2dVertex
 10
29.59905462584677
 20
165.2729437520846
 30
0.0
  0
VERTEX
  5
827
330
825
100
AcDbEntity
  8
TEXT
 62
     7
100
AcDbVertex
100
AcDb2dVertex
 10
30.39814452365047
 20
165.2729437520846
 30
0.0
  0
SEQEND
  5
828
330
825
100
AcDbEntity
  8
TEXT
  0
POLYLINE
  5
829
330
1F
100
AcDbEntity
  8
TEXT
 62
     7
100
AcDb2dPolyline
 66
     1
 10
0.0
 20
0.0
 30
0.0
  0
VERTEX
  5
82A
330
829
100
AcDbEntity
  8
TEXT
 62
     7
100
AcDbVertex
100
AcDb2dVertex
 10
29.59905462584677
 20
165.3235866557177
 30
0.0
  0
VERTEX
  5
82B
330
829
100
AcDbEntity
  8
TEXT
 62
     7
100
AcDbVertex
100
AcDb2dVertex
 10
30.78416747277271
 20
165.3235866557177
 30
0.0
  0
SEQEND
  5
82C
330
829
100
AcDbEntity
  8
TEXT
  0
POLYLINE
  5
82D
330
1F
100
AcDbEntity
  8
TEXT
 62
     7
100
AcDb2dPolyline
 66
     1
 10
0.0
 20
0.0
 30
0.0
  0
VERTEX
  5
82E
330
82D
100
AcDbEntity
  8
TEXT
 62
     7
100
AcDbVertex
100
AcDb2dVertex
 10
29.59905462584677
 20
165.3744018141252
 30
0.0
  0
VERTEX
  5
82F
330
82D
100
AcDbEntity
  8
TEXT
 62
     7
100
AcDbVertex
100
AcDb2dVertex
 10
31.17036267666922
 20
165.3744018141252
 30
0.0
  0
SEQEND
  5
830
330
82D
100
AcDbEntity
  8
TEXT
  0
POLYLINE
  5
831
330
1F
100
AcDbEntity
  8
TEXT
 62
     7
100
AcDb2dPolyline
 66
     1
 10
0.0
 20
0.0
 30
0.0
  0
VERTEX
  5
832
330
831
100
AcDbEntity
  8
TEXT
 62
     7
100
AcDbVertex
100
AcDb2dVertex
 10
29.59905462584677
 20
165.4255614820811
 30
0.0
  0
VERTEX
  5
833
330
831
100
AcDbEntity
  8
TEXT
 62
     7
100
AcDbVertex
100
AcDb2dVertex
 10
31.55569660669441
 20
165.4255614820811
 30
0.0
  0
SEQEND
  5
834
330
831
100
AcDbEntity
  8
TEXT
  0
POLYLINE
  5
835
330
1F
100
AcDbEntity
  8
TEXT
 62
     7
100
AcDb2dPolyline
 66
     1
 10
0.0
 20
0.0
 30
0.0
  0
VERTEX
  5
836
330
835
100
AcDbEntity
  8
TEXT
 62
     7
100
AcDbVertex
100
AcDb2dVertex
 10
29.59905462584677
 20
165.4763766404886
 30
0.0
  0
VERTEX
  5
837
330
835
100
AcDbEntity
  8
TEXT
 62
     7
100
AcDbVertex
100
AcDb2dVertex
 10
31.94154730104239
 20
165.4763766404886
 30
0.0
  0
SEQEND
  5
838
330
835
100
AcDbEntity
  8
TEXT
  0
POLYLINE
  5
839
330
1F
100
AcDbEntity
  8
TEXT
 62
     7
100
AcDb2dPolyline
 66
     1
 10
0.0
 20
0.0
 30
0.0
  0
VERTEX
  5
83A
330
839
100
AcDbEntity
  8
TEXT
 62
     7
100
AcDbVertex
100
AcDb2dVertex
 10
29.59905462584677
 20
165.527191798896
 30
0.0
  0
VERTEX
  5
83B
330
839
100
AcDbEntity
  8
TEXT
 62
     7
100
AcDbVertex
100
AcDb2dVertex
 10
32.32757025016463
 20
165.527191798896
 30
0.0
  0
SEQEND
  5
83C
330
839
100
AcDbEntity
  8
TEXT
  0
POLYLINE
  5
83D
330
1F
100
AcDbEntity
  8
TEXT
 62
     7
100
AcDb2dPolyline
 66
     1
 10
0.0
 20
0.0
 30
0.0
  0
VERTEX
  5
83E
330
83D
100
AcDbEntity
  8
TEXT
 62
     7
100
AcDbVertex
100
AcDb2dVertex
 10
29.59905462584677
 20
165.5780069573034
 30
0.0
  0
VERTEX
  5
83F
330
83D
100
AcDbEntity
  8
TEXT
 62
     7
100
AcDbVertex
100
AcDb2dVertex
 10
32.71376545406115
 20
165.5780069573034
 30
0.0
  0
SEQEND
  5
840
330
83D
100
AcDbEntity
  8
TEXT
  0
POLYLINE
  5
841
330
1F
100
AcDbEntity
  8
TEXT
 62
     7
100
AcDb2dPolyline
 66
     1
 10
0.0
 20
0.0
 30
0.0
  0
VERTEX
  5
842
330
841
100
AcDbEntity
  8
TEXT
 62
     7
100
AcDbVertex
100
AcDb2dVertex
 10
29.59905462584677
 20
165.6288221157108
 30
0.0
  0
VERTEX
  5
843
330
841
100
AcDbEntity
  8
TEXT
 62
     7
100
AcDbVertex
100
AcDb2dVertex
 10
33.09978840318339
 20
165.6288221157108
 30
0.0
  0
SEQEND
  5
844
330
841
100
AcDbEntity
  8
TEXT
  0
ENDSEC
  0
SECTION
  2
OBJECTS
  0
DICTIONARY
  5
C
330
0
100
AcDbDictionary
  3
ACAD_GROUP
350
D
  3
ACAD_LAYOUT
350
1A
  3
ACAD_MLINESTYLE
350
17
  3
ACAD_PLOTSETTINGS
350
19
  3
ACAD_TABLESTYLE
350
865
  3
ACAD_VISUALSTYLE
350
2A
  3
ACDBHEADERROUNDTRIPXREC
350
845
  0
DICTIONARY
  5
D
102
{ACAD_REACTORS
330
C
102
}
330
C
100
AcDbDictionary
  0
DICTIONARY
  5
1A
102
{ACAD_REACTORS
330
C
102
}
330
C
100
AcDbDictionary
  0
DICTIONARY
  5
17
102
{ACAD_REACTORS
330
C
102
}
330
C
100
AcDbDictionary
  3
STANDARD
350
18
  0
DICTIONARY
  5
19
102
{ACAD_REACTORS
330
C
102
}
330
C
100
AcDbDictionary
  0
DICTIONARY
  5
865
102
{ACAD_REACTORS
330
C
102
}
330
C
100
AcDbDictionary
  0
DICTIONARY
  5
2A
102
{ACAD_REACTORS
330
C
102
}
330
C
100
AcDbDictionary
  3
2DWIREFRAME
350
2F
  3
3D_HIDDEN
350
31
  3
3DWIREFRAME
350
30
  3
BASIC
350
32
  3
BRIGHTEN
350
36
  3
COLORCHANGE
350
3A
  3
CONCEPTUAL
350
34
  3
DIM
350
35
  3
FACEPATTERN
350
39
  3
FLAT
350
2B
  3
FLATWITHEDGES
350
2C
  3
GOURAUD
350
2D
  3
GOURAUDWITHEDGES
350
2E
  3
LINEPATTERN
350
38
  3
REALISTIC
350
33
  3
THICKEN
350
37
  0
DICTIONARY
  5
845
102
{ACAD_REACTORS
330
C
102
}
330
C
100
AcDbDictionary
  3
CEPSNTYPE
350
84E
  3
DIMSTYLEDATA
350
864
  3
FINGERPRINTGUID
350
84F
  3
HYPERLINKBASE
350
848
  3
INSUNITS
350
84D
  3
LAYOUTDICT
350
84A
  3
LWETCUNION
350
84C
  3
PLOTSETDICT
350
84B
  3
PSVPSCALE
350
851
  3
PUCSBASE
350
854
  3
PUCSORGBACK
350
85A
  3
PUCSORGBOTTOM
350
856
  3
PUCSORGFRONT
350
859
  3
PUCSORGLEFT
350
857
  3
PUCSORGRIGHT
350
858
  3
PUCSORGTOP
350
855
  3
PUCSORTHOREF
350
852
  3
PUCSORTHOVIEW
350
853
  3
STYLESHEET
350
849
  3
TSTACKALIGN
350
846
  3
TSTACKSIZE
350
847
  3
UCSBASE
350
85D
  3
UCSORGBACK
350
863
  3
UCSORGBOTTOM
350
85F
  3
UCSORGFRONT
350
862
  3
UCSORGLEFT
350
860
  3
UCSORGRIGHT
350
861
  3
UCSORGTOP
350
85E
  3
UCSORTHOREF
350
85B
  3
UCSORTHOVIEW
350
85C
  3
VERSIONGUID
350
850
  0
MLINESTYLE
  5
18
102
{ACAD_REACTORS
330
17
102
}
330
17
100
AcDbMlineStyle
  2
Standard
 70
     0
  3

 62
   256
 51
90.0
 52
90.0
 71
     2
 49
0.5
 62
   256
  6
BYLAYER
 49
-0.5
 62
   256
  6
BYLAYER
  0
VISUALSTYLE
  5
2F
102
{ACAD_REACTORS
330
2A
102
}
330
2A
100
AcDbVisualStyle
  2
2dWireframe
 70
     4
 71
     0
 72
     2
 73
     0
 90
        0
 40
-0.6
 41
-30.0
 62
     5
 63
     7
 74
     1
 91
        4
 64
     7
 65
   257
 75
     1
175
     1
 42
1.0
 92
        0
 66
   257
 43
1.0
 76
     1
 77
     6
 78
     2
 67
     7
 79
     5
170
     0
171
     0
290
     0
174
     0
 93
        1
 44
0.0
173
     0
291
     0
 45
0.0
1001
ACAD
1000
AcDbSavedByObjectVersion
1070
     0
  0
VISUALSTYLE
  5
31
102
{ACAD_REACTORS
330
2A
102
}
330
2A
100
AcDbVisualStyle
  2
3D Hidden
 70
     6
 71
     1
 72
     2
 73
     2
 90
        0
 40
-0.6
 41
-30.0
 62
     5
 63
     7
 74
     2
 91
        2
 64
     7
 65
   257
 75
     2
175
     1
 42
40.0
 92
        0
 66
   257
 43
1.0
 76
     1
 77
     6
 78
     2
 67
     7
 79
     3
170
     0
171
     0
290
     0
174
     0
 93
        1
 44
0.0
173
     0
291
     0
 45
0.0
1001
ACAD
1000
AcDbSavedByObjectVersion
1070
     0
  0
VISUALSTYLE
  5
30
102
{ACAD_REACTORS
330
2A
102
}
330
2A
100
AcDbVisualStyle
  2
3dWireframe
 70
     5
 71
     0
 72
     2
 73
     0
 90
        0
 40
-0.6
 41
-30.0
 62
     5
 63
     7
 74
     1
 91
        4
 64
     7
 65
   257
 75
     1
175
     1
 42
1.0
 92
        0
 66
   257
 43
1.0
 76
     1
 77
     6
 78
     2
 67
     7
 79
     5
170
     0
171
     0
290
     0
174
     0
 93
        1
 44
0.0
173
     0
291
     0
 45
0.0
1001
ACAD
1000
AcDbSavedByObjectVersion
1070
     0
  0
VISUALSTYLE
  5
32
102
{ACAD_REACTORS
330
2A
102
}
330
2A
100
AcDbVisualStyle
  2
Basic
 70
     7
 71
     1
 72
     0
 73
     1
 90
        0
 40
-0.6
 41
-30.0
 62
     5
 63
     7
 74
     0
 91
        4
 64
     7
 65
   257
 75
     1
175
     1
 42
1.0
 92
        8
 66
     7
 43
1.0
 76
     1
 77
     6
 78
     2
 67
     7
 79
     5
170
     0
171
     0
290
     0
174
     0
 93
        1
 44
0.0
173
     0
291
     1
 45
0.0
1001
ACAD
1000
AcDbSavedByObjectVersion
1070
     0
  0
VISUALSTYLE
  5
36
102
{ACAD_REACTORS
330
2A
102
}
330
2A
100
AcDbVisualStyle
  2
Brighten
 70
    12
 71
     2
 72
     2
 73
     0
 90
        0
 40
-0.6
 41
-30.0
 62
     5
 63
     7
 74
     1
 91
        4
 64
     7
 65
   257
 75
     1
175
     1
 42
1.0
 92
        8
 66
     7
 43
1.0
 76
     1
 77
     6
 78
     2
 67
     7
 79
     5
170
     0
171
     0
290
     0
174
     0
 93
        1
 44
50.0
173
     0
291
     1
 45
0.0
1001
ACAD
1000
AcDbSavedByObjectVersion
1070
     0
  0
VISUALSTYLE
  5
3A
102
{ACAD_REACTORS
330
2A
102
}
330
2A
100
AcDbVisualStyle
  2
ColorChange
 70
    16
 71
     2
 72
     2
 73
     3
 90
        0
 40
-0.6
 41
-30.0
 62
     5
 63
     8
 74
     1
 91
        4
 64
     7
 65
   257
 75
     1
175
     1
 42
1.0
 92
        8
 66
     8
 43
1.0
 76
     1
 77
     6
 78
     2
 67
     7
 79
     5
170
     0
171
     0
290
     0
174
     0
 93
        1
 44
0.0
173
     0
291
     1
 45
0.0
1001
ACAD
1000
AcDbSavedByObjectVersion
1070
     0
  0
VISUALSTYLE
  5
34
102
{ACAD_REACTORS
330
2A
102
}
330
2A
100
AcDbVisualStyle
  2
Conceptual
 70
     9
 71
     3
 72
     2
 73
     0
 90
        0
 40
-0.6
 41
-30.0
 62
     5
 63
     7
 74
     2
 91
        2
 64
     7
 65
   257
 75
     1
175
     1
 42
40.0
 92
        8
 66
     7
 43
1.0
 76
     1
 77
     6
 78
     2
 67
     7
 79
     3
170
     0
171
     0
290
     0
174
     0
 93
        1
 44
0.0
173
     0
291
     0
 45
0.0
1001
ACAD
1000
AcDbSavedByObjectVersion
1070
     0
  0
VISUALSTYLE
  5
35
102
{ACAD_REACTORS
330
2A
102
}
330
2A
100
AcDbVisualStyle
  2
Dim
 70
    11
 71
     2
 72
     2
 73
     0
 90
        0
 40
-0.6
 41
-30.0
 62
     5
 63
     7
 74
     1
 91
        4
 64
     7
 65
   257
 75
     1
175
     1
 42
1.0
 92
        8
 66
     7
 43
1.0
 76
     1
 77
     6
 78
     2
 67
     7
 79
     5
170
     0
171
     0
290
     0
174
     0
 93
        1
 44
-50.0
173
     0
291
     1
 45
0.0
1001
ACAD
1000
AcDbSavedByObjectVersion
1070
     0
  0
VISUALSTYLE
  5
39
102
{ACAD_REACTORS
330
2A
102
}
330
2A
100
AcDbVisualStyle
  2
Facepattern
 70
    15
 71
     2
 72
     2
 73
     0
 90
        0
 40
-0.6
 41
-30.0
 62
     5
 63
     7
 74
     1
 91
        4
 64
     7
 65
   257
 75
     1
175
     1
 42
1.0
 92
        8
 66
     7
 43
1.0
 76
     1
 77
     6
 78
     2
 67
     7
 79
     5
170
     0
171
     0
290
     0
174
     0
 93
        1
 44
0.0
173
     0
291
     1
 45
0.0
1001
ACAD
1000
AcDbSavedByObjectVersion
1070
     0
  0
VISUALSTYLE
  5
2B
102
{ACAD_REACTORS
330
2A
102
}
330
2A
100
AcDbVisualStyle
  2
Flat
 70
     0
 71
     2
 72
     1
 73
     1
 90
        2
 40
-0.6
 41
30.0
 62
     5
 63
     7
 74
     0
 91
        4
 64
     7
 65
   257
 75
     1
175
     1
 42
1.0
 92
        8
 66
     7
 43
1.0
 76
     1
 77
     6
 78
     2
 67
     7
 79
     5
170
     0
171
     0
290
     0
174
     0
 93
       13
 44
0.0
173
     0
291
     1
 45
0.0
1001
ACAD
1000
AcDbSavedByObjectVersion
1070
     0
  0
VISUALSTYLE
  5
2C
102
{ACAD_REACTORS
330
2A
102
}
330
2A
100
AcDbVisualStyle
  2
FlatWithEdges
 70
     1
 71
     2
 72
     1
 73
     1
 90
        2
 40
-0.6
 41
30.0
 62
     5
 63
     7
 74
     1
 91
        4
 64
     7
 65
   257
 75
     1
175
     1
 42
1.0
 92
        0
 66
   257
 43
1.0
 76
     1
 77
     6
 78
     2
 67
     7
 79
     5
170
     0
171
     0
290
     0
174
     0
 93
       13
 44
0.0
173
     0
291
     1
 45
0.0
1001
ACAD
1000
AcDbSavedByObjectVersion
1070
     0
  0
VISUALSTYLE
  5
2D
102
{ACAD_REACTORS
330
2A
102
}
330
2A
100
AcDbVisualStyle
  2
Gouraud
 70
     2
 71
     2
 72
     2
 73
     1
 90
        2
 40
-0.6
 41
30.0
 62
     5
 63
     7
 74
     0
 91
        4
 64
     7
 65
   257
 75
     1
175
     1
 42
1.0
 92
        0
 66
     7
 43
1.0
 76
     1
 77
     6
 78
     2
 67
     7
 79
     5
170
     0
171
     0
290
     0
174
     0
 93
       13
 44
0.0
173
     0
291
     1
 45
0.0
1001
ACAD
1000
AcDbSavedByObjectVersion
1070
     0
  0
VISUALSTYLE
  5
2E
102
{ACAD_REACTORS
330
2A
102
}
330
2A
100
AcDbVisualStyle
  2
GouraudWithEdges
 70
     3
 71
     2
 72
     2
 73
     1
 90
        2
 40
-0.6
 41
30.0
 62
     5
 63
     7
 74
     1
 91
        4
 64
     7
 65
   257
 75
     1
175
     1
 42
1.0
 92
        0
 66
   257
 43
1.0
 76
     1
 77
     6
 78
     2
 67
     7
 79
     5
170
     0
171
     0
290
     0
174
     0
 93
       13
 44
0.0
173
     0
291
     1
 45
0.0
1001
ACAD
1000
AcDbSavedByObjectVersion
1070
     0
  0
VISUALSTYLE
  5
38
102
{ACAD_REACTORS
330
2A
102
}
330
2A
100
AcDbVisualStyle
  2
Linepattern
 70
    14
 71
     2
 72
     2
 73
     0
 90
        0
 40
-0.6
 41
-30.0
 62
     5
 63
     7
 74
     1
 91
        4
 64
     7
 65
   257
 75
     7
175
     7
 42
1.0
 92
        8
 66
     7
 43
1.0
 76
     1
 77
     6
 78
     2
 67
     7
 79
     5
170
     0
171
     0
290
     0
174
     0
 93
        1
 44
0.0
173
     0
291
     1
 45
0.0
1001
ACAD
1000
AcDbSavedByObjectVersion
1070
     0
  0
VISUALSTYLE
  5
33
102
{ACAD_REACTORS
330
2A
102
}
330
2A
100
AcDbVisualStyle
  2
Realistic
 70
     8
 71
     2
 72
     2
 73
     0
 90
        0
 40
-0.6
 41
-30.0
 62
     5
 63
     7
 74
     1
 91
        0
 64
     7
 65
   257
 75
     1
175
     1
 42
1.0
 92
        8
 66
     8
 43
1.0
 76
     1
 77
     6
 78
     2
 67
     7
 79
     5
170
     0
171
     0
290
     0
174
     0
 93
       13
 44
0.0
173
     0
291
     0
 45
0.0
1001
ACAD
1000
AcDbSavedByObjectVersion
1070
     0
  0
VISUALSTYLE
  5
37
102
{ACAD_REACTORS
330
2A
102
}
330
2A
100
AcDbVisualStyle
  2
Thicken
 70
    13
 71
     2
 72
     2
 73
     0
 90
        0
 40
-0.6
 41
-30.0
 62
     5
 63
     7
 74
     1
 91
        4
 64
     7
 65
   257
 75
     1
175
     1
 42
1.0
 92
       12
 66
     7
 43
1.0
 76
     1
 77
     6
 78
     2
 67
     7
 79
     5
170
     0
171
     0
290
     0
174
     0
 93
        1
 44
0.0
173
     0
291
     1
 45
0.0
1001
ACAD
1000
AcDbSavedByObjectVersion
1070
     0
  0
XRECORD
  5
84E
102
{ACAD_REACTORS
330
845
102
}
330
845
100
AcDbXrecord
 90
        0
  0
XRECORD
  5
864
102
{ACAD_REACTORS
330
845
102
}
330
845
100
AcDbXrecord
1000
DSTYLE
1002
{
1070
   340
340
11
1002
}
  0
XRECORD
  5
84F
102
{ACAD_REACTORS
330
845
102
}
330
845
100
AcDbXrecord
  1
{71194779-C940-45D1-866F-8D719D553025}
  0
XRECORD
  5
848
102
{ACAD_REACTORS
330
845
102
}
330
845
100
AcDbXrecord
  1

  0
XRECORD
  5
84D
102
{ACAD_REACTORS
330
845
102
}
330
845
100
AcDbXrecord
 90
        1
  0
XRECORD
  5
84A
102
{ACAD_REACTORS
330
845
102
}
330
845
100
AcDbXrecord
340
1A
  0
XRECORD
  5
84C
102
{ACAD_REACTORS
330
845
102
}
330
845
100
AcDbXrecord
 90
    10269
  0
XRECORD
  5
84B
102
{ACAD_REACTORS
330
845
102
}
330
845
100
AcDbXrecord
340
19
  0
XRECORD
  5
851
102
{ACAD_REACTORS
330
845
102
}
330
845
100
AcDbXrecord
 40
0.0
  0
XRECORD
  5
854
102
{ACAD_REACTORS
330
845
102
}
330
845
100
AcDbXrecord
340
0
  0
XRECORD
  5
85A
102
{ACAD_REACTORS
330
845
102
}
330
845
100
AcDbXrecord
 10
0.0
 20
0.0
 30
0.0
  0
XRECORD
  5
856
102
{ACAD_REACTORS
330
845
102
}
330
845
100
AcDbXrecord
 10
0.0
 20
0.0
 30
0.0
  0
XRECORD
  5
859
102
{ACAD_REACTORS
330
845
102
}
330
845
100
AcDbXrecord
 10
0.0
 20
0.0
 30
0.0
  0
XRECORD
  5
857
102
{ACAD_REACTORS
330
845
102
}
330
845
100
AcDbXrecord
 10
0.0
 20
0.0
 30
0.0
  0
XRECORD
  5
858
102
{ACAD_REACTORS
330
845
102
}
330
845
100
AcDbXrecord
 10
0.0
 20
0.0
 30
0.0
  0
XRECORD
  5
855
102
{ACAD_REACTORS
330
845
102
}
330
845
100
AcDbXrecord
 10
0.0
 20
0.0
 30
0.0
  0
XRECORD
  5
852
102
{ACAD_REACTORS
330
845
102
}
330
845
100
AcDbXrecord
340
0
  0
XRECORD
  5
853
102
{ACAD_REACTORS
330
845
102
}
330
845
100
AcDbXrecord
 70
     0
  0
XRECORD
  5
849
102
{ACAD_REACTORS
330
845
102
}
330
845
100
AcDbXrecord
  1

  0
XRECORD
  5
846
102
{ACAD_REACTORS
330
845
102
}
330
845
100
AcDbXrecord
 90
        1
  0
XRECORD
  5
847
102
{ACAD_REACTORS
330
845
102
}
330
845
100
AcDbXrecord
 90
       70
  0
XRECORD
  5
85D
102
{ACAD_REACTORS
330
845
102
}
330
845
100
AcDbXrecord
340
0
  0
XRECORD
  5
863
102
{ACAD_REACTORS
330
845
102
}
330
845
100
AcDbXrecord
 10
0.0
 20
0.0
 30
0.0
  0
XRECORD
  5
85F
102
{ACAD_REACTORS
330
845
102
}
330
845
100
AcDbXrecord
 10
0.0
 20
0.0
 30
0.0
  0
XRECORD
  5
862
102
{ACAD_REACTORS
330
845
102
}
330
845
100
AcDbXrecord
 10
0.0
 20
0.0
 30
0.0
  0
XRECORD
  5
860
102
{ACAD_REACTORS
330
845
102
}
330
845
100
AcDbXrecord
 10
0.0
 20
0.0
 30
0.0
  0
XRECORD
  5
861
102
{ACAD_REACTORS
330
845
102
}
330
845
100
AcDbXrecord
 10
0.0
 20
0.0
 30
0.0
  0
XRECORD
  5
85E
102
{ACAD_REACTORS
330
845
102
}
330
845
100
AcDbXrecord
 10
0.0
 20
0.0
 30
0.0
  0
XRECORD
  5
85B
102
{ACAD_REACTORS
330
845
102
}
330
845
100
AcDbXrecord
340
0
  0
XRECORD
  5
85C
102
{ACAD_REACTORS
330
845
102
}
330
845
100
AcDbXrecord
 70
     0
  0
XRECORD
  5
850
102
{ACAD_REACTORS
330
845
102
}
330
845
100
AcDbXrecord
  1
{FAEB1C32-E019-11D5-929B-00C0DF256EC4}
  0
ENDSEC
  0
EOF
