  0
SECTION
  2
HEADER
  9
$ACADVER
  1
AC1032
  9
$ACADMAINTVER
 90
      228
  9
$DWGCODEPAGE
  3
ANSI_1252
  9
$REQUIREDVERSIONS
160
                 0
  9
$INSBASE
 10
0.0
 20
0.0
 30
0.0
  9
$EXTMIN
 10
1.000000000000000E+20
 20
1.000000000000000E+20
 30
1.000000000000000E+20
  9
$EXTMAX
 10
-1.000000000000000E+20
 20
-1.000000000000000E+20
 30
-1.000000000000000E+20
  9
$LIMMIN
 10
0.0
 20
0.0
  9
$LIMMAX
 10
12.0
 20
9.0
  9
$ORTHOMODE
 70
     0
  9
$REGENMODE
 70
     1
  9
$FILLMODE
 70
     1
  9
$QTEXTMODE
 70
     0
  9
$MIRRTEXT
 70
     0
  9
$LTSCALE
 40
1.0
  9
$ATTMODE
 70
     1
  9
$TEXTSIZE
 40
0.2
  9
$TRACEWID
 40
0.05
  9
$TEXTSTYLE
  7
Standard
  9
$CLAYER
  8
0
  9
$CELTYPE
  6
ByLayer
  9
$CECOLOR
 62
   256
  9
$CELTSCALE
 40
1.0
  9
$DISPSILH
 70
     0
  9
$DIMSCALE
 40
1.0
  9
$DIMASZ
 40
0.18
  9
$DIMEXO
 40
0.0625
  9
$DIMDLI
 40
0.38
  9
$DIMRND
 40
0.0
  9
$DIMDLE
 40
0.0
  9
$DIMEXE
 40
0.18
  9
$DIMTP
 40
0.0
  9
$DIMTM
 40
0.0
  9
$DIMTXT
 40
0.18
  9
$DIMCEN
 40
0.09
  9
$DIMTSZ
 40
0.0
  9
$DIMTOL
 70
     0
  9
$DIMLIM
 70
     0
  9
$DIMTIH
 70
     1
  9
$DIMTOH
 70
     1
  9
$DIMSE1
 70
     0
  9
$DIMSE2
 70
     0
  9
$DIMTAD
 70
     0
  9
$DIMZIN
 70
     0
  9
$DIMBLK
  1

  9
$DIMASO
 70
     1
  9
$DIMSHO
 70
     1
  9
$DIMPOST
  1

  9
$DIMAPOST
  1

  9
$DIMALT
 70
     0
  9
$DIMALTD
 70
     2
  9
$DIMALTF
 40
25.4
  9
$DIMLFAC
 40
1.0
  9
$DIMTOFL
 70
     0
  9
$DIMTVP
 40
0.0
  9
$DIMTIX
 70
     0
  9
$DIMSOXD
 70
     0
  9
$DIMSAH
 70
     0
  9
$DIMBLK1
  1

  9
$DIMBLK2
  1

  9
$DIMSTYLE
  2
Standard
  9
$DIMCLRD
 70
     0
  9
$DIMCLRE
 70
     0
  9
$DIMCLRT
 70
     0
  9
$DIMTFAC
 40
1.0
  9
$DIMGAP
 40
0.09
  9
$DIMJUST
 70
     0
  9
$DIMSD1
 70
     0
  9
$DIMSD2
 70
     0
  9
$DIMTOLJ
 70
     1
  9
$DIMTZIN
 70
     0
  9
$DIMALTZ
 70
     0
  9
$DIMALTTZ
 70
     0
  9
$DIMUPT
 70
     0
  9
$DIMDEC
 70
     4
  9
$DIMTDEC
 70
     4
  9
$DIMALTU
 70
     2
  9
$DIMALTTD
 70
     2
  9
$DIMTXSTY
  7
Standard
  9
$DIMAUNIT
 70
     0
  9
$DIMADEC
 70
     0
  9
$DIMALTRND
 40
0.0
  9
$DIMAZIN
 70
     0
  9
$DIMDSEP
 70
    46
  9
$DIMATFIT
 70
     3
  9
$DIMFRAC
 70
     0
  9
$DIMLDRBLK
  1

  9
$DIMLUNIT
 70
     2
  9
$DIMLWD
 70
    -2
  9
$DIMLWE
 70
    -2
  9
$DIMTMOVE
 70
     0
  9
$DIMFXL
 40
1.0
  9
$DIMFXLON
 70
     0
  9
$DIMJOGANG
 40
0.7853981633974483
  9
$DIMTFILL
 70
     0
  9
$DIMTFILLCLR
 70
     0
  9
$DIMARCSYM
 70
     0
  9
$DIMLTYPE
  6

  9
$DIMLTEX1
  6

  9
$DIMLTEX2
  6

  9
$DIMTXTDIRECTION
 70
     0
  9
$LUNITS
 70
     2
  9
$LUPREC
 70
     4
  9
$SKETCHINC
 40
0.1
  9
$FILLETRAD
 40
0.0
  9
$AUNITS
 70
     0
  9
$AUPREC
 70
     0
  9
$MENU
  1
.
  9
$ELEVATION
 40
0.0
  9
$PELEVATION
 40
0.0
  9
$THICKNESS
 40
0.0
  9
$LIMCHECK
 70
     0
  9
$CHAMFERA
 40
0.0
  9
$CHAMFERB
 40
0.0
  9
$CHAMFERC
 40
0.0
  9
$CHAMFERD
 40
0.0
  9
$SKPOLY
 70
     0
  9
$TDCREATE
 40
2460101.395694445
  9
$TDUCREATE
 40
2460101.312361111
  9
$TDUPDATE
 40
2460101.395694445
  9
$TDUUPDATE
 40
2460101.312361111
  9
$TDINDWG
 40
0.0000000000
  9
$TDUSRTIMER
 40
0.0000000000
  9
$USRTIMER
 70
     1
  9
$ANGBASE
 50
0.0
  9
$ANGDIR
 70
     0
  9
$PDMODE
 70
     0
  9
$PDSIZE
 40
0.0
  9
$PLINEWID
 40
0.0
  9
$SPLFRAME
 70
     0
  9
$SPLINETYPE
 70
     6
  9
$SPLINESEGS
 70
     8
  9
$HANDSEED
  5
2C3
  9
$SURFTAB1
 70
     6
  9
$SURFTAB2
 70
     6
  9
$SURFTYPE
 70
     6
  9
$SURFU
 70
     6
  9
$SURFV
 70
     6
  9
$UCSBASE
  2

  9
$UCSNAME
  2

  9
$UCSORG
 10
0.0
 20
0.0
 30
0.0
  9
$UCSXDIR
 10
1.0
 20
0.0
 30
0.0
  9
$UCSYDIR
 10
0.0
 20
1.0
 30
0.0
  9
$UCSORTHOREF
  2

  9
$UCSORTHOVIEW
 70
     0
  9
$UCSORGTOP
 10
0.0
 20
0.0
 30
0.0
  9
$UCSORGBOTTOM
 10
0.0
 20
0.0
 30
0.0
  9
$UCSORGLEFT
 10
0.0
 20
0.0
 30
0.0
  9
$UCSORGRIGHT
 10
0.0
 20
0.0
 30
0.0
  9
$UCSORGFRONT
 10
0.0
 20
0.0
 30
0.0
  9
$UCSORGBACK
 10
0.0
 20
0.0
 30
0.0
  9
$PUCSBASE
  2

  9
$PUCSNAME
  2

  9
$PUCSORG
 10
0.0
 20
0.0
 30
0.0
  9
$PUCSXDIR
 10
1.0
 20
0.0
 30
0.0
  9
$PUCSYDIR
 10
0.0
 20
1.0
 30
0.0
  9
$PUCSORTHOREF
  2

  9
$PUCSORTHOVIEW
 70
     0
  9
$PUCSORGTOP
 10
0.0
 20
0.0
 30
0.0
  9
$PUCSORGBOTTOM
 10
0.0
 20
0.0
 30
0.0
  9
$PUCSORGLEFT
 10
0.0
 20
0.0
 30
0.0
  9
$PUCSORGRIGHT
 10
0.0
 20
0.0
 30
0.0
  9
$PUCSORGFRONT
 10
0.0
 20
0.0
 30
0.0
  9
$PUCSORGBACK
 10
0.0
 20
0.0
 30
0.0
  9
$USERI1
 70
     0
  9
$USERI2
 70
     0
  9
$USERI3
 70
     0
  9
$USERI4
 70
     0
  9
$USERI5
 70
     0
  9
$USERR1
 40
0.0
  9
$USERR2
 40
0.0
  9
$USERR3
 40
0.0
  9
$USERR4
 40
0.0
  9
$USERR5
 40
0.0
  9
$WORLDVIEW
 70
     1
  9
$SHADEDGE
 70
     3
  9
$SHADEDIF
 70
    70
  9
$TILEMODE
 70
     1
  9
$MAXACTVP
 70
    64
  9
$PINSBASE
 10
0.0
 20
0.0
 30
0.0
  9
$PLIMCHECK
 70
     0
  9
$PEXTMIN
 10
1.000000000000000E+20
 20
1.000000000000000E+20
 30
1.000000000000000E+20
  9
$PEXTMAX
 10
-1.000000000000000E+20
 20
-1.000000000000000E+20
 30
-1.000000000000000E+20
  9
$PLIMMIN
 10
0.0
 20
0.0
  9
$PLIMMAX
 10
12.0
 20
9.0
  9
$UNITMODE
 70
     0
  9
$VISRETAIN
 70
     1
  9
$PLINEGEN
 70
     0
  9
$PSLTSCALE
 70
     1
  9
$TREEDEPTH
 70
  3020
  9
$CMLSTYLE
  2
Standard
  9
$CMLJUST
 70
     0
  9
$CMLSCALE
 40
1.0
  9
$PROXYGRAPHICS
 70
     1
  9
$MEASUREMENT
 70
     0
  9
$CELWEIGHT
370
    -1
  9
$ENDCAPS
280
     0
  9
$JOINSTYLE
280
     0
  9
$LWDISPLAY
290
     1
  9
$INSUNITS
 70
     4
  9
$HYPERLINKBASE
  1

  9
$STYLESHEET
  1

  9
$XEDIT
290
     1
  9
$CEPSNTYPE
380
     0
  9
$PSTYLEMODE
290
     1
  9
$FINGERPRINTGUID
  2
{E274D2F1-DD13-1E4F-8B22-29BA639864B7}
  9
$VERSIONGUID
  2
{BC74F582-C7EA-B941-9F49-1D1417AA442C}
  9
$EXTNAMES
290
     1
  9
$PSVPSCALE
 40
0.0
  9
$OLESTARTUP
290
     0
  9
$SORTENTS
280
   127
  9
$INDEXCTL
280
     0
  9
$HIDETEXT
280
     1
  9
$XCLIPFRAME
280
     2
  9
$HALOGAP
280
     0
  9
$OBSCOLOR
 70
   257
  9
$OBSLTYPE
280
     0
  9
$INTERSECTIONDISPLAY
280
     0
  9
$INTERSECTIONCOLOR
 70
   257
  9
$DIMASSOC
280
     2
  9
$PROJECTNAME
  1

  9
$CAMERADISPLAY
290
     0
  9
$LENSLENGTH
 40
50.0
  9
$CAMERAHEIGHT
 40
0.0
  9
$STEPSPERSEC
 40
2.0
  9
$STEPSIZE
 40
6.0
  9
$3DDWFPREC
 40
2.0
  9
$PSOLWIDTH
 40
0.25
  9
$PSOLHEIGHT
 40
4.0
  9
$LOFTANG1
 40
1.570796326794896
  9
$LOFTANG2
 40
1.570796326794896
  9
$LOFTMAG1
 40
0.0
  9
$LOFTMAG2
 40
0.0
  9
$LOFTPARAM
 70
     7
  9
$LOFTNORMALS
280
     1
  9
$LATITUDE
 40
37.795
  9
$LONGITUDE
 40
-122.394
  9
$NORTHDIRECTION
 40
0.0
  9
$TIMEZONE
 70
 -8000
  9
$LIGHTGLYPHDISPLAY
280
     1
  9
$TILEMODELIGHTSYNCH
280
     1
  9
$CMATERIAL
347
11
  9
$SOLIDHIST
280
     0
  9
$SHOWHIST
280
     1
  9
$DWFFRAME
280
     2
  9
$DGNFRAME
280
     0
  9
$REALWORLDSCALE
290
     1
  9
$INTERFERECOLOR
 62
     1
  9
$INTERFEREOBJVS
345
33
  9
$INTERFEREVPVS
346
30
  9
$CSHADOW
280
     0
  9
$SHADOWPLANELOCATION
 40
0.0
  0
ENDSEC
  0
SECTION
  2
CLASSES
  0
CLASS
  1
ACDBDICTIONARYWDFLT
  2
AcDbDictionaryWithDefault
  3
ObjectDBX Classes
 90
        0
 91
        1
280
     0
281
     0
  0
CLASS
  1
MATERIAL
  2
AcDbMaterial
  3
ObjectDBX Classes
 90
     1153
 91
        3
280
     0
281
     0
  0
CLASS
  1
VISUALSTYLE
  2
AcDbVisualStyle
  3
ObjectDBX Classes
 90
     4095
 91
       24
280
     0
281
     0
  0
CLASS
  1
SCALE
  2
AcDbScale
  3
ObjectDBX Classes
 90
     1153
 91
       17
280
     0
281
     0
  0
CLASS
  1
TABLESTYLE
  2
AcDbTableStyle
  3
ObjectDBX Classes
 90
     4095
 91
        1
280
     0
281
     0
  0
CLASS
  1
MLEADERSTYLE
  2
AcDbMLeaderStyle
  3
ACDB_MLEADERSTYLE_CLASS
 90
     4095
 91
        1
280
     0
281
     0
  0
CLASS
  1
ACDBSECTIONVIEWSTYLE
  2
AcDbSectionViewStyle
  3
ObjectDBX Classes
 90
     1025
 91
        1
280
     0
281
     0
  0
CLASS
  1
ACDBDETAILVIEWSTYLE
  2
AcDbDetailViewStyle
  3
ObjectDBX Classes
 90
     1025
 91
        1
280
     0
281
     0
  0
CLASS
  1
DICTIONARYVAR
  2
AcDbDictionaryVar
  3
ObjectDBX Classes
 90
        0
 91
        5
280
     0
281
     0
  0
CLASS
  1
CELLSTYLEMAP
  2
AcDbCellStyleMap
  3
ObjectDBX Classes
 90
     1152
 91
        1
280
     0
281
     0
  0
ENDSEC
  0
SECTION
  2
TABLES
  0
TABLE
  2
VPORT
  5
8
330
0
100
AcDbSymbolTable
 70
     1
  0
VPORT
  5
57
330
8
100
AcDbSymbolTableRecord
100
AcDbViewportTableRecord
  2
*Active
 70
     0
 10
0.0
 20
0.0
 11
1.0
 21
1.0
 12
0.0
 22
0.0
 13
0.0
 23
0.0
 14
1.0
 24
1.0
 15
0.0
 25
0.0
 16
0.0
 26
0.0
 36
1.0
 17
67.74042213359393
 27
205.6447656198151
 37
0.0
 40
185.1340068734371
 41
0.9540153190543206
 42
50.0
 43
0.0
 44
0.0
 50
0.0
 51
0.0
 71
     0
 72
   100
 73
     1
 74
     1
 75
     0
 76
     0
 77
     0
 78
     0
281
     0
 65
     1
110
0.0
120
0.0
130
0.0
111
1.0
121
0.0
131
0.0
112
0.0
122
1.0
132
0.0
 79
     0
146
0.0
 60
     3
 61
     5
292
     1
282
     1
141
0.0
142
0.0
 63
   250
421
  3355443
  0
ENDTAB
  0
TABLE
  2
LTYPE
  5
5
330
0
100
AcDbSymbolTable
 70
     6
  0
LTYPE
  5
5B
330
5
100
AcDbSymbolTableRecord
100
AcDbLinetypeTableRecord
  2
ByBlock
 70
     0
  3

 72
    65
 73
     0
 40
0.0
  0
LTYPE
  5
5C
330
5
100
AcDbSymbolTableRecord
100
AcDbLinetypeTableRecord
  2
ByLayer
 70
     0
  3

 72
    65
 73
     0
 40
0.0
  0
LTYPE
  5
5D
330
5
100
AcDbSymbolTableRecord
100
AcDbLinetypeTableRecord
  2
Continuous
 70
     0
  3
Solid line
 72
    65
 73
     0
 40
0.0
  0
LTYPE
  5
87
330
5
100
AcDbSymbolTableRecord
100
AcDbLinetypeTableRecord
  2
AI-Linetype-0
 70
     0
  3
Adobe Illustrator Linetype No. 0
 72
    65
 73
     4
 40
8.819444442239584
 49
7.055555553791666
 74
     0
 49
-0.7055555553791667
 74
     0
 49
0.3527777776895833
 74
     0
 49
-0.7055555553791667
 74
     0
  0
LTYPE
  5
89
330
5
100
AcDbSymbolTableRecord
100
AcDbLinetypeTableRecord
  2
AI-Linetype-1
 70
     0
  3
Adobe Illustrator Linetype No. 1
 72
    65
 73
     4
 40
8.819444442239584
 49
7.055555553791666
 74
     0
 49
-0.7055555553791667
 74
     0
 49
0.3527777776895833
 74
     0
 49
-0.7055555553791667
 74
     0
  0
LTYPE
  5
8B
330
5
100
AcDbSymbolTableRecord
100
AcDbLinetypeTableRecord
  2
AI-Linetype-2
 70
     0
  3
Adobe Illustrator Linetype No. 2
 72
    65
 73
     4
 40
8.819444442239584
 49
7.055555553791666
 74
     0
 49
-0.7055555553791667
 74
     0
 49
0.3527777776895833
 74
     0
 49
-0.7055555553791667
 74
     0
  0
LTYPE
  5
8D
330
5
100
AcDbSymbolTableRecord
100
AcDbLinetypeTableRecord
  2
AI-Linetype-3
 70
     0
  3
Adobe Illustrator Linetype No. 3
 72
    65
 73
     4
 40
8.819444442239584
 49
7.055555553791666
 74
     0
 49
-0.7055555553791667
 74
     0
 49
0.3527777776895833
 74
     0
 49
-0.7055555553791667
 74
     0
  0
LTYPE
  5
8F
330
5
100
AcDbSymbolTableRecord
100
AcDbLinetypeTableRecord
  2
AI-Linetype-4
 70
     0
  3
Adobe Illustrator Linetype No. 4
 72
    65
 73
     4
 40
8.819444442239584
 49
7.055555553791666
 74
     0
 49
-0.7055555553791667
 74
     0
 49
0.3527777776895833
 74
     0
 49
-0.7055555553791667
 74
     0
  0
ENDTAB
  0
TABLE
  2
LAYER
  5
2
330
0
100
AcDbSymbolTable
 70
     5
  0
LAYER
  5
54
330
2
100
AcDbSymbolTableRecord
100
AcDbLayerTableRecord
  2
0
 70
     0
 62
     7
  6
Continuous
370
    -3
390
F
347
21
348
0
  0
LAYER
  5
78
330
2
100
AcDbSymbolTableRecord
100
AcDbLayerTableRecord
  2
grau 10%
 70
     1
 62
     7
  6
Continuous
370
     0
390
F
347
21
348
0
  0
LAYER
  5
79
330
2
100
AcDbSymbolTableRecord
100
AcDbLayerTableRecord
  2
Standardebene
 70
     0
 62
     7
  6
Continuous
370
     0
390
F
347
21
348
0
  0
LAYER
  5
18A
330
2
100
AcDbSymbolTableRecord
100
AcDbLayerTableRecord
  2
Bemaßung
 70
     1
 62
     7
  6
Continuous
370
     0
390
F
347
21
348
0
  0
LAYER
  5
2B1
330
2
100
AcDbSymbolTableRecord
100
AcDbLayerTableRecord
  2
Text
 70
     1
 62
     7
  6
Continuous
370
     0
390
F
347
21
348
0
  0
ENDTAB
  0
TABLE
  2
STYLE
  5
3
330
0
100
AcDbSymbolTable
 70
     2
  0
STYLE
  5
55
330
3
100
AcDbSymbolTableRecord
100
AcDbTextStyleTableRecord
  2
Standard
 70
     0
 40
0.0
 41
1.0
 50
0.0
 71
     0
 42
0.2
  3
txt
  4

  0
STYLE
  5
5A
330
3
100
AcDbSymbolTableRecord
100
AcDbTextStyleTableRecord
  2
Annotative
 70
     0
 40
0.0
 41
1.0
 50
0.0
 71
     0
 42
0.2
  3
txt
  4

1001
AcadAnnotative
1000
AnnotativeData
1002
{
1070
     1
1070
     1
1002
}
  0
ENDTAB
  0
TABLE
  2
VIEW
  5
6
330
0
100
AcDbSymbolTable
 70
     0
  0
ENDTAB
  0
TABLE
  2
UCS
  5
7
330
0
100
AcDbSymbolTable
 70
     0
  0
ENDTAB
  0
TABLE
  2
APPID
  5
9
330
0
100
AcDbSymbolTable
 70
     2
  0
APPID
  5
56
330
9
100
AcDbSymbolTableRecord
100
AcDbRegAppTableRecord
  2
ACAD
 70
     0
  0
APPID
  5
5E
330
9
100
AcDbSymbolTableRecord
100
AcDbRegAppTableRecord
  2
AcadAnnotative
 70
     0
  0
ENDTAB
  0
TABLE
  2
DIMSTYLE
  5
A
330
0
100
AcDbSymbolTable
 70
     2
100
AcDbDimStyleTable
 71
     0
  0
DIMSTYLE
105
58
330
A
100
AcDbSymbolTableRecord
100
AcDbDimStyleTableRecord
  2
Standard
 70
     0
340
55
  0
DIMSTYLE
105
59
330
A
100
AcDbSymbolTableRecord
100
AcDbDimStyleTableRecord
  2
Annotative
 70
     0
340
55
1001
AcadAnnotative
1000
AnnotativeData
1002
{
1070
     1
1070
     1
1002
}
  0
ENDTAB
  0
TABLE
  2
BLOCK_RECORD
  5
1
330
0
100
AcDbSymbolTable
 70
     4
  0
BLOCK_RECORD
  5
70
330
1
100
AcDbSymbolTableRecord
100
AcDbBlockTableRecord
  2
*Model_Space
340
73
 70
     0
280
     1
281
     0
  0
BLOCK_RECORD
  5
6C
330
1
100
AcDbSymbolTableRecord
100
AcDbBlockTableRecord
  2
*Paper_Space
340
6F
 70
     0
280
     1
281
     0
  0
BLOCK_RECORD
  5
74
330
1
100
AcDbSymbolTableRecord
100
AcDbBlockTableRecord
  2
*Paper_Space0
340
77
 70
     0
280
     1
281
     0
  0
BLOCK_RECORD
  5
7A
330
1
100
AcDbSymbolTableRecord
100
AcDbBlockTableRecord
  2
Block_0
340
0
102
{BLKREFS
331
7B
102
}
 70
     0
280
     1
281
     0
  0
BLOCK_RECORD
  5
7E
330
1
100
AcDbSymbolTableRecord
100
AcDbBlockTableRecord
  2
Block_1
340
0
102
{BLKREFS
331
7F
102
}
 70
     0
280
     1
281
     0
  0
BLOCK_RECORD
  5
82
330
1
100
AcDbSymbolTableRecord
100
AcDbBlockTableRecord
  2
Block_2
340
0
102
{BLKREFS
331
83
102
}
 70
     0
280
     1
281
     0
  0
ENDTAB
  0
ENDSEC
  0
SECTION
  2
BLOCKS
  0
BLOCK
  5
71
330
70
100
AcDbEntity
  8
0
100
AcDbBlockBegin
  2
*Model_Space
 70
     0
 10
0.0
 20
0.0
 30
0.0
  3
*Model_Space
  1

  0
ENDBLK
  5
72
330
70
100
AcDbEntity
  8
0
100
AcDbBlockEnd
  0
BLOCK
  5
6D
330
6C
100
AcDbEntity
 67
     1
  8
0
100
AcDbBlockBegin
  2
*Paper_Space
 70
     0
 10
0.0
 20
0.0
 30
0.0
  3
*Paper_Space
  1

  0
ENDBLK
  5
6E
330
6C
100
AcDbEntity
 67
     1
  8
0
100
AcDbBlockEnd
  0
BLOCK
  5
75
330
74
100
AcDbEntity
 67
     1
  8
0
100
AcDbBlockBegin
  2
*Paper_Space0
 70
     0
 10
0.0
 20
0.0
 30
0.0
  3
*Paper_Space0
  1

  0
ENDBLK
  5
76
330
74
100
AcDbEntity
 67
     1
  8
0
100
AcDbBlockEnd
  0
BLOCK
  5
7C
330
7A
100
AcDbEntity
  8
0
100
AcDbBlockBegin
  2
Block_0
 70
     0
 10
0.0
 20
0.0
 30
0.0
  3
Block_0
  1

  0
INSERT
  5
7F
330
7A
100
AcDbEntity
  8
Standardebene
100
AcDbBlockReference
  2
Block_1
 10
0.0
 20
0.0
 30
0.0
  0
INSERT
  5
83
330
7A
100
AcDbEntity
  8
Standardebene
100
AcDbBlockReference
  2
Block_2
 10
0.0
 20
0.0
 30
0.0
  0
ENDBLK
  5
7D
330
7A
100
AcDbEntity
  8
0
100
AcDbBlockEnd
  0
BLOCK
  5
80
330
7E
100
AcDbEntity
  8
0
100
AcDbBlockBegin
  2
Block_1
 70
     0
 10
0.0
 20
0.0
 30
0.0
  3
Block_1
  1

  0
ENDBLK
  5
81
330
7E
100
AcDbEntity
  8
0
100
AcDbBlockEnd
  0
BLOCK
  5
84
330
82
100
AcDbEntity
  8
0
100
AcDbBlockBegin
  2
Block_2
 70
     0
 10
0.0
 20
0.0
 30
0.0
  3
Block_2
  1

  0
LWPOLYLINE
  5
86
330
82
100
AcDbEntity
  8
Standardebene
  6
AI-Linetype-0
 62
   250
370
     9
100
AcDbPolyline
 90
        9
 70
     0
 43
0.0
 10
-18.75021160018111
 20
279.3239058532861
 10
-15.63294199096051
 20
279.3239058532861
 10
-9.635725767459598
 20
279.3239058532861
 10
-8.635120707709761
 20
279.3239058532861
 10
-5.633305528460251
 20
279.3239058532861
 10
-4.639114603708843
 20
279.3239058532861
 10
7.663196323215661
 20
279.3239058532861
 10
13.86566486666503
 20
279.3239058532861
 10
17.23949987582151
 20
279.3239058532861
  0
LWPOLYLINE
  5
88
330
82
100
AcDbEntity
  8
Standardebene
  6
AI-Linetype-1
 62
   250
370
     9
100
AcDbPolyline
 90
        7
 70
     0
 43
0.0
 10
34.86554285141506
 20
229.2038549758163
 10
34.86554285141506
 20
266.3224542115364
 10
34.86554285141506
 20
267.3230592712862
 10
34.86554285141506
 20
291.324752435286
 10
34.86554285141506
 20
291.7224288051864
 10
34.86554285141506
 20
292.2227313350613
 10
34.86554285141506
 20
296.30853532904
  0
LWPOLYLINE
  5
8A
330
82
100
AcDbEntity
  8
Standardebene
  6
AI-Linetype-2
 62
   250
370
     9
100
AcDbPolyline
 90
       12
 70
     0
 43
0.0
 10
34.86554285141506
 20
115.4363425092578
 10
34.86554285141506
 20
117.3220981987864
 10
34.86554285141506
 20
119.4323486132587
 10
34.86554285141506
 20
122.8254260274105
 10
34.86554285141506
 20
168.30805730104
 10
34.86554285141506
 20
195.5232320992363
 10
34.86554285141506
 20
199.1279759683349
 10
34.86554285141506
 20
199.6731774431989
 10
34.86554285141506
 20
202.976456967373
 10
34.86554285141506
 20
203.5216584422366
 10
34.86554285141506
 20
207.1264023113356
 10
34.86554285141506
 20
218.9091683033899
  0
LWPOLYLINE
  5
8C
330
82
100
AcDbEntity
  8
Standardebene
  6
AI-Linetype-3
 62
   250
370
     9
100
AcDbPolyline
 90
       19
 70
     0
 43
0.0
 10
129.146913192845
 20
230.595722270468
 10
129.146913192845
 20
266.3224542115364
 10
129.146913192845
 20
267.3230592712862
 10
129.146913192845
 20
269.5102793057396
 10
129.146913192845
 20
270.8251769804109
 10
129.146913192845
 20
273.3266896297855
 10
129.146913192845
 20
275.8217881441617
 10
129.146913192845
 20
276.3220906740366
 10
129.146913192845
 20
276.7261811789354
 10
129.146913192845
 20
280.7221872829367
 10
129.146913192845
 20
282.3257210325356
 10
129.146913192845
 20
282.8260235624105
 10
129.146913192845
 20
285.3275362117851
 10
129.146913192845
 20
287.8226347261613
 10
129.146913192845
 20
289.1375324008325
 10
129.146913192845
 20
291.324752435286
 10
129.146913192845
 20
291.7224288051864
 10
129.146913192845
 20
292.2227313350613
 10
129.146913192845
 20
294.8974256293928
  0
LWPOLYLINE
  5
8E
330
82
100
AcDbEntity
  8
Standardebene
  6
AI-Linetype-4
 62
   250
370
     9
100
AcDbPolyline
 90
       22
 70
     0
 43
0.0
 10
129.146913192845
 20
114.9809389243719
 10
129.146913192845
 20
117.3220981987864
 10
129.146913192845
 20
119.4323486132587
 10
129.146913192845
 20
120.3239133780359
 10
129.146913192845
 20
121.888962317645
 10
129.146913192845
 20
122.0942146375934
 10
129.146913192845
 20
122.3251234975356
 10
129.146913192845
 20
125.3269386767851
 10
129.146913192845
 20
125.5450192667304
 10
129.146913192845
 20
125.7630998566764
 10
129.146913192845
 20
127.3217346612867
 10
129.146913192845
 20
138.3219761835364
 10
129.146913192845
 20
139.8870251231452
 10
129.146913192845
 20
140.0922774430939
 10
129.146913192845
 20
140.3231863030364
 10
129.146913192845
 20
143.3250014822859
 10
129.146913192845
 20
143.5430820722312
 10
129.146913192845
 20
143.7611626621769
 10
129.146913192845
 20
145.3262116017856
 10
129.146913192845
 20
195.3243939142859
 10
129.146913192845
 20
207.3252404962859
 10
129.146913192845
 20
219.691692773194
  0
LINE
  5
90
330
82
100
AcDbEntity
  8
Standardebene
 62
     7
370
    35
100
AcDbLine
 10
49.11133668285337
 20
266.3224542115364
 30
0.0
 11
48.11073162310353
 21
267.3230592712862
 31
0.0
  0
LINE
  5
91
330
82
100
AcDbEntity
  8
Standardebene
 62
     7
370
    35
100
AcDbLine
 10
21.61393994472783
 20
267.3230592712862
 30
0.0
 11
20.61333488497799
 21
266.3224542115364
 31
0.0
  0
LINE
  5
92
330
82
100
AcDbEntity
  8
Standardebene
 62
     7
370
    35
100
AcDbLine
 10
24.36560385903988
 20
291.7224288051864
 30
0.0
 11
24.36560385903988
 21
291.324752435286
 31
0.0
  0
LINE
  5
93
330
82
100
AcDbEntity
  8
Standardebene
 62
     7
370
    35
100
AcDbLine
 10
45.36548184378991
 20
291.324752435286
 30
0.0
 11
45.36548184378991
 21
291.7224288051864
 31
0.0
  0
LINE
  5
94
330
82
100
AcDbEntity
  8
Standardebene
 62
     7
370
    35
100
AcDbLine
 10
47.36669196328959
 20
267.3230592712862
 30
0.0
 11
47.36669196328959
 21
291.324752435286
 31
0.0
  0
LINE
  5
95
330
82
100
AcDbEntity
  8
Standardebene
 62
     7
370
    35
100
AcDbLine
 10
-4.639114603708843
 20
285.3275362117851
 30
0.0
 11
-5.633305528460251
 21
284.3269311520353
 31
0.0
  0
LINE
  5
96
330
82
100
AcDbEntity
  8
Standardebene
 62
     7
370
    35
100
AcDbLine
 10
-5.633305528460251
 20
274.3208805545369
 30
0.0
 11
-4.639114603708843
 21
273.3266896297855
 31
0.0
  0
LINE
  5
97
330
82
100
AcDbEntity
  8
Standardebene
 62
     7
370
    35
100
AcDbLine
 10
-14.43349874626033
 20
273.3266896297855
 30
0.0
 11
-9.635725767459598
 21
273.3266896297855
 31
0.0
  0
LINE
  5
98
330
82
100
AcDbEntity
  8
Standardebene
 62
     7
370
    35
100
AcDbLine
 10
-9.635725767459598
 20
285.3275362117851
 30
0.0
 11
-14.43349874626033
 21
285.3275362117851
 31
0.0
  0
LINE
  5
99
330
82
100
AcDbEntity
  8
Standardebene
 62
     7
370
    35
100
AcDbLine
 10
-4.639114603708843
 20
273.3266896297855
 30
0.0
 11
6.861429448415849
 21
273.3266896297855
 31
0.0
  0
LINE
  5
9A
330
82
100
AcDbEntity
  8
Standardebene
 62
     7
370
    35
100
AcDbLine
 10
6.861429448415849
 20
285.3275362117851
 30
0.0
 11
-4.639114603708843
 21
285.3275362117851
 31
0.0
  0
LINE
  5
9B
330
82
100
AcDbEntity
  8
Standardebene
 62
     7
370
    35
100
AcDbLine
 10
-9.635725767459598
 20
273.3266896297855
 30
0.0
 11
-8.635120707709761
 21
274.3208805545369
 31
0.0
  0
LINE
  5
9C
330
82
100
AcDbEntity
  8
Standardebene
 62
     7
370
    35
100
AcDbLine
 10
-8.635120707709761
 20
284.3269311520353
 30
0.0
 11
-9.635725767459598
 21
285.3275362117851
 31
0.0
  0
LINE
  5
9D
330
82
100
AcDbEntity
  8
Standardebene
 62
     7
370
    35
100
AcDbLine
 10
-8.635120707709761
 20
274.3208805545369
 30
0.0
 11
-5.633305528460251
 21
274.3208805545369
 31
0.0
  0
LINE
  5
9E
330
82
100
AcDbEntity
  8
Standardebene
 62
     7
370
    35
100
AcDbLine
 10
-5.633305528460251
 20
284.3269311520353
 30
0.0
 11
-8.635120707709761
 21
284.3269311520353
 31
0.0
  0
LINE
  5
9F
330
82
100
AcDbEntity
  8
Standardebene
 62
     7
370
    35
100
AcDbLine
 10
8.420064253026467
 20
289.1375324008325
 30
0.0
 11
7.663196323215661
 21
287.8226347261613
 31
0.0
  0
LINE
  5
A0
330
82
100
AcDbEntity
  8
Standardebene
 62
     7
370
    35
100
AcDbLine
 10
13.86566486666503
 20
287.8226347261613
 30
0.0
 11
13.10238280185579
 21
289.1375324008325
 31
0.0
  0
LINE
  5
A1
330
82
100
AcDbEntity
  8
Standardebene
 62
     7
370
    35
100
AcDbLine
 10
7.663196323215661
 20
270.8251769804109
 30
0.0
 11
8.420064253026467
 21
269.5102793057396
 31
0.0
  0
LINE
  5
A2
330
82
100
AcDbEntity
  8
Standardebene
 62
     7
370
    35
100
AcDbLine
 10
13.10238280185579
 20
269.5102793057396
 30
0.0
 11
13.86566486666503
 21
270.8251769804109
 31
0.0
  0
LINE
  5
A3
330
82
100
AcDbEntity
  8
Standardebene
 62
     7
370
    35
100
AcDbLine
 10
45.36548184378991
 20
291.7224288051864
 30
0.0
 11
44.865179313915
 21
292.2227313350613
 31
0.0
  0
LINE
  5
A4
330
82
100
AcDbEntity
  8
Standardebene
 62
     7
370
    35
100
AcDbLine
 10
24.8659063889148
 20
292.2227313350613
 30
0.0
 11
24.36560385903988
 21
291.7224288051864
 31
0.0
  0
LINE
  5
A5
330
82
100
AcDbEntity
  8
Standardebene
 62
     7
370
    35
100
AcDbLine
 10
49.11133668285337
 20
122.8254260274105
 30
0.0
 11
49.11133668285337
 21
195.3243939142859
 31
0.0
  0
LINE
  5
A6
330
82
100
AcDbEntity
  8
Standardebene
 62
     7
370
    35
100
AcDbLine
 10
49.11133668285337
 20
207.3252404962859
 30
0.0
 11
49.11133668285337
 21
266.3224542115364
 31
0.0
  0
LINE
  5
A7
330
82
100
AcDbEntity
  8
Standardebene
 62
     7
370
    35
100
AcDbLine
 10
48.713660312953
 20
119.579873718222
 30
0.0
 11
49.11133668285337
 21
122.8254260274105
 31
0.0
  0
LINE
  5
A8
330
82
100
AcDbEntity
  8
Standardebene
 62
     7
370
    35
100
AcDbLine
 10
20.61333488497799
 20
138.3219761835364
 30
0.0
 11
20.61333488497799
 21
127.3153205262882
 31
0.0
  0
LINE
  5
A9
330
82
100
AcDbEntity
  8
Standardebene
 62
     7
370
    35
100
AcDbLine
 10
20.61333488497799
 20
266.3224542115364
 30
0.0
 11
20.61333488497799
 21
207.3252404962859
 31
0.0
  0
LINE
  5
AA
330
82
100
AcDbEntity
  8
Standardebene
 62
     7
370
    35
100
AcDbLine
 10
20.61333488497799
 20
195.3243939142859
 30
0.0
 11
20.61333488497799
 21
145.3197974667872
 31
0.0
  0
LINE
  5
AB
330
82
100
AcDbEntity
  8
Standardebene
 62
     7
370
    35
100
AcDbLine
 10
20.921213364901
 20
120.3367416480328
 30
0.0
 11
21.01101125487869
 21
119.579873718222
 31
0.0
  0
SPLINE
  5
AC
330
82
100
AcDbEntity
  8
Standardebene
 62
     7
370
    35
100
AcDbSpline
210
0.0
220
0.0
230
1.0
 70
     8
 71
     3
 72
     8
 73
     4
 74
     0
 42
0.0000000001
 43
0.0000000001
 40
0.0
 40
0.0
 40
0.0
 40
0.0
 40
1.0
 40
1.0
 40
1.0
 40
1.0
 10
7.663196323215661
 20
272.524922754986
 30
0.0
 10
7.663196323215661
 20
272.9674980698751
 30
0.0
 10
7.304004763305225
 20
273.3266896297855
 30
0.0
 10
6.861429448415849
 20
273.3266896297855
 30
0.0
  0
SPLINE
  5
AD
330
82
100
AcDbEntity
  8
Standardebene
 62
     7
370
    35
100
AcDbSpline
210
0.0
220
0.0
230
1.0
 70
     8
 71
     3
 72
     8
 73
     4
 74
     0
 42
0.0000000001
 43
0.0000000001
 40
0.0
 40
0.0
 40
0.0
 40
0.0
 40
1.0
 40
1.0
 40
1.0
 40
1.0
 10
6.861429448415849
 20
285.3275362117851
 30
0.0
 10
7.304004763305225
 20
285.3275362117851
 30
0.0
 10
7.663196323215661
 20
285.6803136366971
 30
0.0
 10
7.663196323215661
 20
286.1228889515865
 30
0.0
  0
SPLINE
  5
AE
330
82
100
AcDbEntity
  8
Standardebene
 62
     7
370
    35
100
AcDbSpline
210
0.0
220
0.0
230
1.0
 70
     8
 71
     3
 72
     8
 73
     4
 74
     0
 42
0.0000000001
 43
0.0000000001
 40
0.0
 40
0.0
 40
0.0
 40
0.0
 40
1.0
 40
1.0
 40
1.0
 40
1.0
 10
-15.63294199096051
 20
274.5261328744857
 30
0.0
 10
-15.63294199096051
 20
273.8590628346523
 30
0.0
 10
-15.10056878609344
 20
273.3266896297855
 30
0.0
 10
-14.43349874626033
 20
273.3266896297855
 30
0.0
  0
SPLINE
  5
AF
330
82
100
AcDbEntity
  8
Standardebene
 62
     7
370
    35
100
AcDbSpline
210
0.0
220
0.0
230
1.0
 70
     8
 71
     3
 72
     8
 73
     4
 74
     0
 42
0.0000000001
 43
0.0000000001
 40
0.0
 40
0.0
 40
0.0
 40
0.0
 40
1.0
 40
1.0
 40
1.0
 40
1.0
 10
-14.43349874626033
 20
285.3275362117851
 30
0.0
 10
-15.10056878609344
 20
285.3275362117851
 30
0.0
 10
-15.63294199096051
 20
284.7887488719199
 30
0.0
 10
-15.63294199096051
 20
284.1216788320865
 30
0.0
  0
SPLINE
  5
B0
330
82
100
AcDbEntity
  8
Standardebene
 62
     7
370
    35
100
AcDbSpline
210
0.0
220
0.0
230
1.0
 70
     8
 71
     3
 72
     8
 73
     4
 74
     0
 42
0.0000000001
 43
0.0000000001
 40
0.0
 40
0.0
 40
0.0
 40
0.0
 40
1.0
 40
1.0
 40
1.0
 40
1.0
 10
49.11133668285337
 20
118.5215414434862
 30
0.0
 10
49.11133668285337
 20
118.8422481934064
 30
0.0
 10
48.98946811788386
 20
119.124470133336
 30
0.0
 10
48.79704406793194
 20
119.3425507232814
 30
0.0
  0
SPLINE
  5
B1
330
82
100
AcDbEntity
  8
Standardebene
 62
     7
370
    35
100
AcDbSpline
210
0.0
220
0.0
230
1.0
 70
     8
 71
     3
 72
     8
 73
     4
 74
     0
 42
0.0000000001
 43
0.0000000001
 40
0.0
 40
0.0
 40
0.0
 40
0.0
 40
1.0
 40
1.0
 40
1.0
 40
1.0
 10
47.91189343815351
 20
117.3220981987864
 30
0.0
 10
48.57896347798663
 20
117.3220981987864
 30
0.0
 10
49.11133668285337
 20
117.8608855386519
 30
0.0
 10
49.11133668285337
 20
118.5215414434862
 30
0.0
  0
SPLINE
  5
B2
330
82
100
AcDbEntity
  8
Standardebene
 62
     7
370
    35
100
AcDbSpline
210
0.0
220
0.0
230
1.0
 70
     8
 71
     3
 72
    11
 73
     7
 74
     0
 42
0.0000000001
 43
0.0000000001
 40
0.0
 40
0.0
 40
0.0
 40
0.0
 40
1.0
 40
1.0
 40
1.0
 40
2.0
 40
2.0
 40
2.0
 40
2.0
 10
20.93404163489786
 20
119.3425507232814
 30
0.0
 10
20.72237517995065
 20
119.1116418633392
 30
0.0
 10
20.61333488497799
 20
118.8165916534127
 30
0.0
 10
20.61333488497799
 20
118.5215414434862
 30
0.0
 10
20.61333488497799
 20
117.8608855386519
 30
0.0
 10
21.15212222484317
 20
117.3220981987864
 30
0.0
 10
21.81277812967818
 20
117.3220981987864
 30
0.0
  0
SPLINE
  5
B3
330
82
100
AcDbEntity
  8
Standardebene
 62
     7
370
    35
100
AcDbSpline
210
0.0
220
0.0
230
1.0
 70
     8
 71
     3
 72
     8
 73
     4
 74
     0
 42
0.0000000001
 43
0.0000000001
 40
0.0
 40
0.0
 40
0.0
 40
0.0
 40
1.0
 40
1.0
 40
1.0
 40
1.0
 10
48.713660312953
 20
119.579873718222
 30
0.0
 10
48.70724617795457
 20
119.4900758282446
 30
0.0
 10
48.73290271794797
 20
119.406692073265
 30
0.0
 10
48.79704406793194
 20
119.3425507232814
 30
0.0
  0
SPLINE
  5
B4
330
82
100
AcDbEntity
  8
Standardebene
 62
     7
370
    35
100
AcDbSpline
210
0.0
220
0.0
230
1.0
 70
     8
 71
     3
 72
     8
 73
     4
 74
     0
 42
0.0000000001
 43
0.0000000001
 40
0.0
 40
0.0
 40
0.0
 40
0.0
 40
1.0
 40
1.0
 40
1.0
 40
1.0
 10
21.01742538987712
 20
119.5478030432298
 30
0.0
 10
21.01742538987712
 20
119.5606313132267
 30
0.0
 10
21.01101125487869
 20
119.5670454482251
 30
0.0
 10
21.01101125487869
 20
119.579873718222
 30
0.0
  0
SPLINE
  5
B5
330
82
100
AcDbEntity
  8
Standardebene
 62
     7
370
    35
100
AcDbSpline
210
0.0
220
0.0
230
1.0
 70
     8
 71
     3
 72
     8
 73
     4
 74
     0
 42
0.0000000001
 43
0.0000000001
 40
0.0
 40
0.0
 40
0.0
 40
0.0
 40
1.0
 40
1.0
 40
1.0
 40
1.0
 10
20.93404163489786
 20
119.3425507232814
 30
0.0
 10
20.98535471488497
 20
119.4002779382666
 30
0.0
 10
21.01742538987712
 20
119.4708334232493
 30
0.0
 10
21.01742538987712
 20
119.5478030432298
 30
0.0
  0
LWPOLYLINE
  5
B6
330
82
100
AcDbEntity
  8
Standardebene
 62
     7
370
    35
100
AcDbPolyline
 90
       27
 70
     0
 43
0.0
 10
49.11133668285337
 20
266.3224542115364
 10
49.00871052287914
 20
266.3224542115364
 10
48.70083204295614
 20
266.3224542115364
 10
48.18770124308437
 20
266.3224542115364
 10
47.48214639326067
 20
266.3224542115364
 10
46.59058162848381
 20
266.3224542115364
 10
45.53224935374811
 20
266.3224542115364
 10
44.31356370405296
 20
266.3224542115364
 10
42.96018121939112
 20
266.3224542115364
 10
41.48493016976008
 20
266.3224542115364
 10
39.91988123015136
 20
266.3224542115364
 10
38.27144853556337
 20
266.3224542115364
 10
36.58453103098513
 20
266.3224542115364
 10
34.86554285141506
 20
266.3224542115364
 10
33.14655467184467
 20
266.3224542115364
 10
31.453223032268
 20
266.3224542115364
 10
29.81120447267845
 20
266.3224542115364
 10
28.23974139807129
 20
266.3224542115364
 10
26.77090448343868
 20
266.3224542115364
 10
25.41752199877683
 20
266.3224542115364
 10
24.19883634908169
 20
266.3224542115364
 10
23.13408993934788
 20
266.3224542115364
 10
22.24893930956913
 20
266.3224542115364
 10
21.54338445974543
 20
266.3224542115364
 10
21.03025365987365
 20
266.3224542115364
 10
20.71596104495222
 20
266.3224542115364
 10
20.61333488497799
 20
266.3224542115364
  0
LWPOLYLINE
  5
B7
330
82
100
AcDbEntity
  8
Standardebene
 62
     7
370
    35
100
AcDbPolyline
 90
       21
 70
     0
 43
0.0
 10
20.61333488497799
 20
138.3219761835364
 10
20.62616315497486
 20
138.3732892635239
 10
20.65823382996668
 20
138.5144002334883
 10
20.70954690995379
 20
138.7453090934309
 10
20.77368825993777
 20
139.0596017083523
 10
20.8506578799186
 20
139.4508639432542
 10
20.90197095990571
 20
139.8164696381631
 10
20.921213364901
 20
139.9255099331357
 10
20.97894057988654
 20
140.4386407330075
 10
21.02383952487523
 20
141.0159128828629
 10
21.04949606486894
 20
141.5867708977203
 10
21.04308192987051
 20
142.1832854525713
 10
21.02383952487523
 20
142.7349010624333
 10
20.97252644488811
 20
143.2801025372969
 10
20.91479922990257
 20
143.7739909321734
 10
20.90838509490414
 20
143.8317181471593
 10
20.84424374492017
 20
144.2293945170597
 10
20.77368825993777
 20
144.6206567519619
 10
20.70313277495568
 20
144.9349493668834
 10
20.65181969496825
 20
145.1594440918271
 10
20.61333488497799
 20
145.3197974667872
  0
LWPOLYLINE
  5
B8
330
82
100
AcDbEntity
  8
Standardebene
 62
     7
370
    35
100
AcDbPolyline
 90
       40
 70
     0
 43
0.0
 10
49.11133668285337
 20
122.8254260274105
 10
49.00871052287914
 20
122.8254260274105
 10
48.70083204295614
 20
122.8254260274105
 10
48.18770124308437
 20
122.8254260274105
 10
47.47573225826225
 20
122.8254260274105
 10
46.58416749348538
 20
122.8254260274105
 10
45.51942108375158
 20
122.8254260274105
 10
44.30073543405611
 20
122.8254260274105
 10
42.94093881439615
 20
122.8254260274105
 10
42.86396919441532
 20
122.8254260274105
 10
41.46568776476479
 20
122.8254260274105
 10
39.89422469015764
 20
122.8254260274105
 10
38.24579199556998
 20
122.8254260274105
 10
36.55246035599331
 20
122.8254260274105
 10
34.86554285141506
 20
122.8254260274105
 10
34.83347217642292
 20
122.8254260274105
 10
33.11448399685285
 20
122.8254260274105
 10
31.42115235727617
 20
122.8254260274105
 10
29.77271966268819
 20
122.8254260274105
 10
28.20767072307946
 20
122.8254260274105
 10
26.86711650841448
 20
122.8254260274105
 10
26.7324196734481
 20
122.8254260274105
 10
25.37903718878658
 20
122.8254260274105
 10
24.16676567408954
 20
122.8254260274105
 10
23.10843339935416
 20
122.8254260274105
 10
22.2232827695754
 20
122.8254260274105
 10
21.51772791975203
 20
122.8254260274105
 10
21.01742538987712
 20
122.8254260274105
 10
21.02383952487523
 20
123.0178500773627
 10
21.04949606486894
 20
123.5887080922197
 10
21.04308192987051
 20
124.178808512072
 10
21.02383952487523
 20
124.7368382569328
 10
20.97252644488811
 20
125.2820397317961
 10
20.91479922990257
 20
125.7759281266732
 10
20.90838509490414
 20
125.8336553416584
 10
20.84424374492017
 20
126.2313317115591
 10
20.77368825993777
 20
126.616179811463
 10
20.70313277495568
 20
126.9368865613828
 10
20.65181969496825
 20
127.1613812863269
 10
20.61333488497799
 20
127.3153205262882
  0
LWPOLYLINE
  5
B9
330
82
100
AcDbEntity
  8
Standardebene
 62
     7
370
    35
100
AcDbPolyline
 90
        9
 70
     0
 43
0.0
 10
21.01742538987712
 20
122.8254260274105
 10
21.03025365987365
 20
122.2930528225434
 10
21.03025365987365
 20
121.7863361576701
 10
21.02383952487523
 20
121.6067403777154
 10
21.01742538987712
 20
121.3501749777795
 10
20.9917688498834
 20
120.9717410128741
 10
20.95969817489125
 20
120.6766908029476
 10
20.94045576989628
 20
120.4650243480007
 10
20.921213364901
 20
120.3367416480328
  0
LWPOLYLINE
  5
BA
330
82
100
AcDbEntity
  8
Standardebene
 62
     7
370
    35
100
AcDbPolyline
 90
        7
 70
     0
 43
0.0
 10
45.60921897372895
 20
267.3230592712862
 10
46.48795546850926
 20
267.3230592712862
 10
47.19351031833296
 20
267.3230592712862
 10
47.36669196328959
 20
267.3230592712862
 10
47.7002269832063
 20
267.3230592712862
 10
48.00810546312931
 20
267.3230592712862
 10
48.11073162310353
 20
267.3230592712862
  0
LWPOLYLINE
  5
BB
330
82
100
AcDbEntity
  8
Standardebene
 62
     7
370
    35
100
AcDbPolyline
 90
       29
 70
     0
 43
0.0
 10
47.91189343815351
 20
117.3220981987864
 10
47.80926727817896
 20
117.3220981987864
 10
47.50138879825597
 20
117.3220981987864
 10
46.99467213338262
 20
117.3220981987864
 10
46.30194555355578
 20
117.3220981987864
 10
45.42320905877546
 20
117.3220981987864
 10
44.37770505403693
 20
117.3220981987864
 10
43.18467594433518
 20
117.3220981987864
 10
42.86396919441532
 20
117.3220981987864
 10
41.85694999966705
 20
117.3220981987864
 10
40.42018376002627
 20
117.3220981987864
 10
38.90003376540624
 20
117.3220981987864
 10
37.30932828580411
 20
117.3220981987864
 10
35.68655213120984
 20
117.3220981987864
 10
34.86554285141506
 20
117.3220981987864
 10
34.04453357162029
 20
117.3220981987864
 10
32.42175741702602
 20
117.3220981987864
 10
30.83105193742357
 20
117.3220981987864
 10
29.31090194280353
 20
117.3220981987864
 10
27.87413570316275
 20
117.3220981987864
 10
26.86711650841448
 20
117.3220981987864
 10
26.54640975849462
 20
117.3220981987864
 10
25.35338064879286
 20
117.3220981987864
 10
24.30787664405434
 20
117.3220981987864
 10
23.42914014927402
 20
117.3220981987864
 10
22.72999943444875
 20
117.3220981987864
 10
22.2232827695754
 20
117.3220981987864
 10
21.9154042896524
 20
117.3220981987864
 10
21.81277812967818
 20
117.3220981987864
  0
LWPOLYLINE
  5
BC
330
82
100
AcDbEntity
  8
Standardebene
 62
     7
370
    35
100
AcDbPolyline
 90
        7
 70
     0
 43
0.0
 10
13.86566486666503
 20
291.324752435286
 10
13.86566486666503
 20
287.8226347261613
 10
13.86566486666503
 20
286.6873328314454
 10
13.86566486666503
 20
279.3239058532861
 10
13.86566486666503
 20
271.9604788751271
 10
13.86566486666503
 20
270.8251769804109
 10
13.86566486666503
 20
267.3230592712862
  0
LWPOLYLINE
  5
BD
330
82
100
AcDbEntity
  8
Standardebene
 62
     7
370
    35
100
AcDbPolyline
 90
       28
 70
     0
 43
0.0
 10
47.36669196328959
 20
291.324752435286
 10
47.25765166831693
 20
291.324752435286
 10
46.9433590533955
 20
291.324752435286
 10
46.41739998352687
 20
291.324752435286
 10
45.6926027287082
 20
291.324752435286
 10
45.36548184378991
 20
291.324752435286
 10
44.7689672889392
 20
291.324752435286
 10
43.67215020421324
 20
291.324752435286
 10
42.40215147453066
 20
291.324752435286
 10
40.97821350488674
 20
291.324752435286
 10
39.41957870027644
 20
291.324752435286
 10
37.73907533069663
 20
291.324752435286
 10
35.96235993614069
 20
291.324752435286
 10
34.86554285141506
 20
291.324752435286
 10
34.10867492160426
 20
291.324752435286
 10
32.19726269208195
 20
291.324752435286
 10
30.25377978756782
 20
291.324752435286
 10
28.29746861305683
 20
291.324752435286
 10
26.3539857085427
 20
291.324752435286
 10
24.44898761401914
 20
291.324752435286
 10
24.36560385903988
 20
291.324752435286
 10
22.59530259948238
 20
291.324752435286
 10
20.8250013399252
 20
291.324752435286
 10
19.15732624034192
 20
291.324752435286
 10
17.61151970572848
 20
291.324752435286
 10
16.2004100060811
 20
291.324752435286
 10
14.9496536813938
 20
291.324752435286
 10
13.86566486666503
 20
291.324752435286
  0
LWPOLYLINE
  5
BE
330
82
100
AcDbEntity
  8
Standardebene
 62
     7
370
    35
100
AcDbPolyline
 90
       23
 70
     0
 43
0.0
 10
13.86566486666503
 20
267.3230592712862
 10
14.94323954639537
 20
267.3230592712862
 10
16.18758173608456
 20
267.3230592712862
 10
17.5922773007332
 20
267.3230592712862
 10
19.1252555653501
 20
267.3230592712862
 10
20.78651652993462
 20
267.3230592712862
 10
21.61393994472783
 20
267.3230592712862
 10
22.54398951949527
 20
267.3230592712862
 10
24.38484626403517
 20
267.3230592712862
 10
26.27701608856219
 20
267.3230592712862
 10
28.20767072307946
 20
267.3230592712862
 10
30.15756776259202
 20
267.3230592712862
 10
32.09463653210772
 20
267.3230592712862
 10
33.99963462663128
 20
267.3230592712862
 10
34.86554285141506
 20
267.3230592712862
 10
35.84690550616961
 20
267.3230592712862
 10
37.62362090072554
 20
267.3230592712862
 10
39.29771013530692
 20
267.3230592712862
 10
40.86275907491565
 20
267.3230592712862
 10
42.28669704455957
 20
267.3230592712862
 10
43.56952404423902
 20
267.3230592712862
 10
44.67916939896151
 20
267.3230592712862
 10
45.60921897372895
 20
267.3230592712862
  0
LWPOLYLINE
  5
BF
330
82
100
AcDbEntity
  8
Standardebene
 62
     7
370
    35
100
AcDbPolyline
 90
       23
 70
     0
 43
0.0
 10
45.36548184378991
 20
291.7224288051864
 10
45.25644154881725
 20
291.7224288051864
 10
44.94214893389583
 20
291.7224288051864
 10
44.41618986402719
 20
291.7224288051864
 10
43.69780674420696
 20
291.7224288051864
 10
42.79982784443135
 20
291.7224288051864
 10
41.74149556969597
 20
291.7224288051864
 10
40.54205232499579
 20
291.7224288051864
 10
39.22715465032452
 20
291.7224288051864
 10
37.82245908567557
 20
291.7224288051864
 10
36.36003630604139
 20
291.7224288051864
 10
34.86554285141506
 20
291.7224288051864
 10
33.37104939678841
 20
291.7224288051864
 10
31.90862661715423
 20
291.7224288051864
 10
30.50393105250528
 20
291.7224288051864
 10
29.18903337783401
 20
291.7224288051864
 10
27.98959013313383
 20
291.7224288051864
 10
26.93125785839845
 20
291.7224288051864
 10
26.03327895862316
 20
291.7224288051864
 10
25.31489583880261
 20
291.7224288051864
 10
24.78893676893398
 20
291.7224288051864
 10
24.46823001901443
 20
291.7224288051864
 10
24.36560385903988
 20
291.7224288051864
  0
LWPOLYLINE
  5
C0
330
82
100
AcDbEntity
  8
Standardebene
 62
     7
370
    35
100
AcDbPolyline
 90
       23
 70
     0
 43
0.0
 10
24.8659063889148
 20
292.2227313350613
 10
24.96853254888935
 20
292.2227313350613
 10
25.26999689381392
 20
292.2227313350613
 10
25.77029942368884
 20
292.2227313350613
 10
26.45019773351882
 20
292.2227313350613
 10
27.30969182330385
 20
292.2227313350613
 10
28.31671101805212
 20
292.2227313350613
 10
29.45842704776676
 20
292.2227313350613
 10
30.70918337245406
 20
292.2227313350613
 10
32.04973758711904
 20
292.2227313350613
 10
33.44160488177081
 20
292.2227313350613
 10
34.86554285141506
 20
292.2227313350613
 10
36.28948082105899
 20
292.2227313350613
 10
37.68134811571108
 20
292.2227313350613
 10
39.01548819537732
 20
292.2227313350613
 10
40.27265865506304
 20
292.2227313350613
 10
41.41437468477768
 20
292.2227313350613
 10
42.42139387952595
 20
292.2227313350613
 10
43.27447383431255
 20
292.2227313350613
 10
43.96078627914127
 20
292.2227313350613
 10
44.46108880901619
 20
292.2227313350613
 10
44.76255315394077
 20
292.2227313350613
 10
44.865179313915
 20
292.2227313350613
  0
LINE
  5
C1
330
82
100
AcDbEntity
  8
Standardebene
 62
     7
370
    35
100
AcDbLine
 10
35.11569411635252
 20
207.1264023113356
 30
0.0
 11
35.11569411635252
 21
207.3252404962859
 31
0.0
  0
LWPOLYLINE
  5
C2
330
82
100
AcDbEntity
  8
Standardebene
 62
     7
370
    35
100
AcDbPolyline
 90
        4
 70
     0
 43
0.0
 10
34.6153915864776
 20
207.3252404962859
 10
34.6153915864776
 20
207.1264023113356
 10
34.86554285141506
 20
207.1264023113356
 10
35.11569411635252
 20
207.1264023113356
  0
LWPOLYLINE
  5
C3
330
82
100
AcDbEntity
  8
Standardebene
 62
     7
370
    35
100
AcDbPolyline
 90
       18
 70
     0
 43
0.0
 10
34.6153915864776
 20
207.3252404962859
 10
32.08180826211086
 20
207.3252404962859
 10
29.58029561273627
 20
207.3252404962859
 10
27.13009604334879
 20
207.3252404962859
 10
24.75686609394215
 20
207.3252404962859
 10
22.49267643950815
 20
207.3252404962859
 10
20.61333488497799
 20
207.3252404962859
 10
20.35035535004368
 20
207.3252404962859
 10
18.36197350054086
 20
207.3252404962859
 10
18.36197350054086
 20
195.3243939142859
 10
20.35035535004368
 20
195.3243939142859
 10
20.61333488497799
 20
195.3243939142859
 10
22.49267643950815
 20
195.3243939142859
 10
24.75686609394215
 20
195.3243939142859
 10
27.13009604334879
 20
195.3243939142859
 10
29.58029561273627
 20
195.3243939142859
 10
32.08180826211086
 20
195.3243939142859
 10
34.6153915864776
 20
195.3243939142859
  0
LINE
  5
C4
330
82
100
AcDbEntity
  8
Standardebene
 62
     7
370
    35
100
AcDbLine
 10
34.6153915864776
 20
195.5232320992363
 30
0.0
 11
34.6153915864776
 21
195.3243939142859
 31
0.0
  0
LWPOLYLINE
  5
C5
330
82
100
AcDbEntity
  8
Standardebene
 62
     7
370
    35
100
AcDbPolyline
 90
        3
 70
     0
 43
0.0
 10
35.11569411635252
 20
195.5232320992363
 10
34.86554285141506
 20
195.5232320992363
 10
34.6153915864776
 20
195.5232320992363
  0
LINE
  5
C6
330
82
100
AcDbEntity
  8
Standardebene
 62
     7
370
    35
100
AcDbLine
 10
35.11569411635252
 20
195.3243939142859
 30
0.0
 11
35.11569411635252
 21
195.5232320992363
 31
0.0
  0
LWPOLYLINE
  5
C7
330
82
100
AcDbEntity
  8
Standardebene
 62
     7
370
    35
100
AcDbPolyline
 90
       18
 70
     0
 43
0.0
 10
35.11569411635252
 20
195.3243939142859
 10
37.48250993076073
 20
195.3243939142859
 10
39.8364974751721
 20
195.3243939142859
 10
42.13275780459823
 20
195.3243939142859
 10
44.37129091903851
 20
195.3243939142859
 10
46.52644027849984
 20
195.3243939142859
 10
48.5725493429882
 20
195.3243939142859
 10
49.11133668285337
 20
195.3243939142859
 10
50.49037570750861
 20
195.3243939142859
 10
52.27350523706298
 20
195.3243939142859
 10
53.89628139165725
 20
195.3243939142859
 10
55.35229003629332
 20
195.3243939142859
 10
56.61587463097747
 20
195.3243939142859
 10
57.68703517570971
 20
195.3243939142859
 10
58.55294340049317
 20
195.3243939142859
 10
59.20718517032943
 20
195.3243939142859
 10
59.63693221522195
 20
195.3243939142859
 10
59.84218453517073
 20
195.3243939142859
  0
LINE
  5
C8
330
82
100
AcDbEntity
  8
Standardebene
 62
     7
370
    35
100
AcDbLine
 10
59.84218453517073
 20
207.3252404962859
 30
0.0
 11
59.84218453517073
 21
195.3243939142859
 31
0.0
  0
LWPOLYLINE
  5
C9
330
82
100
AcDbEntity
  8
Standardebene
 62
     7
370
    35
100
AcDbPolyline
 90
       18
 70
     0
 43
0.0
 10
59.84218453517073
 20
207.3252404962859
 10
59.63693221522195
 20
207.3252404962859
 10
59.20718517032943
 20
207.3252404962859
 10
58.55294340049317
 20
207.3252404962859
 10
57.68703517570971
 20
207.3252404962859
 10
56.61587463097747
 20
207.3252404962859
 10
55.35229003629332
 20
207.3252404962859
 10
53.89628139165725
 20
207.3252404962859
 10
52.27350523706298
 20
207.3252404962859
 10
50.49037570750861
 20
207.3252404962859
 10
49.11133668285337
 20
207.3252404962859
 10
48.5725493429882
 20
207.3252404962859
 10
46.52644027849984
 20
207.3252404962859
 10
44.37129091903851
 20
207.3252404962859
 10
42.13275780459823
 20
207.3252404962859
 10
39.8364974751721
 20
207.3252404962859
 10
37.48250993076073
 20
207.3252404962859
 10
35.11569411635252
 20
207.3252404962859
  0
LWPOLYLINE
  5
CA
330
82
100
AcDbEntity
  8
Standardebene
 62
     7
370
    35
100
AcDbPolyline
 90
       30
 70
     1
 43
0.0
 10
55.96163286114089
 20
201.3216101377865
 10
55.92314805115063
 20
201.7257006426857
 10
55.78845121618426
 20
202.1618618225766
 10
55.64734024621945
 20
202.4376696275078
 10
55.46774446626439
 20
202.6749926224484
 10
55.14062358134611
 20
202.9892852373698
 10
54.76860375143914
 20
203.220194097312
 10
54.34527084154505
 20
203.3677192022752
 10
53.89628139165725
 20
203.4254464172608
 10
53.44729194176944
 20
203.3805474722721
 10
52.9854742218851
 20
203.2330223673089
 10
52.6840098769602
 20
203.0598407223522
 10
52.38895966703406
 20
202.8225177274113
 10
52.01693983712709
 20
202.3222151975364
 10
51.81810165217674
 20
201.8026702626665
 10
51.76678857218963
 20
201.2189839778123
 10
51.85658646216732
 20
200.7058531779406
 10
52.06183878211577
 20
200.2440354580562
 10
52.26067696706611
 20
199.9746417881235
 10
52.48517169201019
 20
199.7373187931829
 10
52.81870671192658
 20
199.5064099332403
 10
53.1778982718367
 20
199.3396424232822
 10
53.66537253171507
 20
199.2370162633079
 10
54.15926092659156
 20
199.2434303983064
 10
54.62749278147434
 20
199.3652989632759
 10
55.07006809636371
 20
199.6090360932149
 10
55.32663349629959
 20
199.8142884131634
 10
55.5575423562421
 20
200.0772679480977
 10
55.82052189117609
 20
200.5583280729776
 10
55.93597632114717
 20
200.9624185778764
  0
LWPOLYLINE
  5
CB
330
82
100
AcDbEntity
  8
Standardebene
 62
     7
370
    35
100
AcDbPolyline
 90
       61
 70
     0
 43
0.0
 10
34.86554285141506
 20
203.5216584422366
 10
34.68594707145968
 20
203.5152443072381
 10
34.49993715650619
 20
203.4960019022432
 10
34.32034137655114
 20
203.4575170922526
 10
34.13433146159765
 20
203.3997898772671
 10
33.96756395163945
 20
203.3356485272831
 10
33.64685720171959
 20
203.156052747328
 10
33.49291796175825
 20
203.0470124523554
 10
33.35180699179345
 20
202.9251438873859
 10
33.10806986185442
 20
202.6493360824547
 10
32.99902956688144
 20
202.4953968424934
 10
32.90923167690407
 20
202.3350434675333
 10
32.76812070693927
 20
201.9950943126184
 10
32.71680762695215
 20
201.8090843976649
 10
32.68473695196
 20
201.6294886177099
 10
32.66549454696504
 20
201.263882922801
 10
32.6783228169619
 20
201.0714588728491
 10
32.70397935695529
 20
200.8918630928941
 10
32.80660551692952
 20
200.5390856679824
 10
32.88357513691035
 20
200.3659040230257
 10
32.96695889188961
 20
200.2055506480656
 10
33.18503948183493
 20
199.904086303141
 10
33.31332218180288
 20
199.7693894681747
 10
33.44160488177081
 20
199.6411067682067
 10
33.74948336169382
 20
199.4294403132599
 10
33.91625087165234
 20
199.3396424232822
 10
34.08301838161054
 20
199.2690869382998
 10
34.43579580652222
 20
199.1664607783255
 10
34.62180572147603
 20
199.1408042383318
 10
34.80781563642952
 20
199.1279759683349
 10
34.86554285141506
 20
199.1279759683349
 10
35.17342133133806
 20
199.1472183733302
 10
35.35943124629155
 20
199.1792890483224
 10
35.53261289124818
 20
199.2306021283095
 10
35.87897618116143
 20
199.3717130982743
 10
36.03932955612152
 20
199.4615109882517
 10
36.18685466108476
 20
199.5705512832243
 10
36.46266246601562
 20
199.8142884131634
 10
36.59094516598356
 20
199.9553993831281
 10
36.69357132595779
 20
200.1029244880914
 10
36.7897833509339
 20
200.2632778630512
 10
36.87316710591316
 20
200.4300453730097
 10
36.94372259089524
 20
200.6032270179663
 10
36.99503567088268
 20
200.7828227979214
 10
37.05917702086665
 20
201.1484284928299
 10
37.06559115586508
 20
201.3344384077834
 10
37.05276288586822
 20
201.5140341877385
 10
36.99503567088268
 20
201.8796398826474
 10
36.93730845589714
 20
202.0592356626024
 10
36.86675297091473
 20
202.2260031725606
 10
36.68715719095967
 20
202.5531240574789
 10
36.5781168959867
 20
202.7006491624418
 10
36.45624833101719
 20
202.8417601324066
 10
36.18044052608633
 20
203.0854972623456
 10
36.02650128612467
 20
203.1945375573186
 10
35.8661479111649
 20
203.284335447296
 10
35.52619875624975
 20
203.4254464172608
 10
35.34018884129626
 20
203.4703453622495
 10
35.22473441132517
 20
203.4960019022432
 10
34.98741141638458
 20
203.5216584422366
 10
34.86554285141506
 20
203.5216584422366
  0
SPLINE
  5
CC
330
82
100
AcDbEntity
  8
Standardebene
 62
     7
370
    35
100
AcDbSpline
210
0.0
220
0.0
230
1.0
 70
     9
 71
     3
 72
    17
 73
    13
 74
     0
 42
0.0000000001
 43
0.0000000001
 40
0.0
 40
0.0
 40
0.0
 40
0.0
 40
1.0
 40
1.0
 40
1.0
 40
2.0
 40
2.0
 40
2.0
 40
3.0
 40
3.0
 40
3.0
 40
4.0
 40
4.0
 40
4.0
 40
4.0
 10
36.51397554600273
 20
201.3216101377865
 30
0.0
 10
36.51397554600273
 20
202.2388314425575
 30
0.0
 10
35.77635002118721
 20
202.976456967373
 30
0.0
 10
34.86554285141506
 20
202.976456967373
 30
0.0
 10
33.95473568164259
 20
202.976456967373
 30
0.0
 10
33.21711015682708
 20
202.2388314425575
 30
0.0
 10
33.21711015682708
 20
201.3216101377865
 30
0.0
 10
33.21711015682708
 20
200.4108029680144
 30
0.0
 10
33.95473568164259
 20
199.6731774431989
 30
0.0
 10
34.86554285141506
 20
199.6731774431989
 30
0.0
 10
35.77635002118721
 20
199.6731774431989
 30
0.0
 10
36.51397554600273
 20
200.4108029680144
 30
0.0
 10
36.51397554600273
 20
201.3216101377865
 30
0.0
  0
LWPOLYLINE
  5
CD
330
82
100
AcDbEntity
  8
Standardebene
 62
     7
370
    35
100
AcDbPolyline
 90
       19
 70
     0
 43
0.0
 10
-4.639114603708843
 20
285.3275362117851
 10
-4.639114603708843
 20
285.2249100518109
 10
-4.639114603708843
 20
284.9170315718879
 10
-4.639114603708843
 20
284.4231431770114
 10
-4.639114603708843
 20
283.756073137178
 10
-4.639114603708843
 20
282.9414779923816
 10
-4.639114603708843
 20
281.9986001476173
 10
-4.639114603708843
 20
280.9659244128757
 10
-4.639114603708843
 20
279.8755214631481
 10
-4.639114603708843
 20
279.3239058532861
 10
-4.639114603708843
 20
278.7722902434241
 10
-4.639114603708843
 20
277.6818872936965
 10
-4.639114603708843
 20
276.6492115589549
 10
-4.639114603708843
 20
275.7063337141906
 10
-4.639114603708843
 20
274.8917385693943
 10
-4.639114603708843
 20
274.2246685295608
 10
-4.639114603708843
 20
273.7307801346843
 10
-4.639114603708843
 20
273.4293157897598
 10
-4.639114603708843
 20
273.3266896297855
  0
LINE
  5
CE
330
82
100
AcDbEntity
  8
Standardebene
 62
     7
370
    35
100
AcDbLine
 10
13.10238280185579
 20
269.5102793057396
 30
0.0
 11
8.420064253026467
 21
269.5102793057396
 31
0.0
  0
LWPOLYLINE
  5
CF
330
82
100
AcDbEntity
  8
Standardebene
 62
     7
370
    35
100
AcDbPolyline
 90
        6
 70
     0
 43
0.0
 10
13.10238280185579
 20
274.4170925795127
 10
8.420064253026467
 20
274.4170925795127
 10
8.112185773103144
 20
273.820578024662
 10
7.874862778162544
 20
273.2176493348125
 10
7.714509403202774
 20
272.5954782399681
 10
7.663196323215661
 20
271.9604788751271
  0
LINE
  5
D0
330
82
100
AcDbEntity
  8
Standardebene
 62
     7
370
    35
100
AcDbLine
 10
13.10238280185579
 20
284.2307191270595
 30
0.0
 11
8.420064253026467
 21
284.2307191270595
 31
0.0
  0
LWPOLYLINE
  5
D1
330
82
100
AcDbEntity
  8
Standardebene
 62
     7
370
    35
100
AcDbPolyline
 90
       10
 70
     0
 43
0.0
 10
13.10238280185579
 20
274.4170925795127
 10
13.41667541677722
 20
273.820578024662
 10
13.65399841171782
 20
273.2176493348125
 10
13.80793765167948
 20
272.5954782399681
 10
13.86566486666503
 20
271.9604788751271
 10
13.8592507316666
 20
271.7872972301702
 10
13.78869524668419
 20
271.2164392153129
 10
13.63475600672253
 20
270.6455812004555
 10
13.40384714678036
 20
270.0747231855985
 10
13.10238280185579
 20
269.5102793057396
  0
LWPOLYLINE
  5
D2
330
82
100
AcDbEntity
  8
Standardebene
 62
     7
370
    35
100
AcDbPolyline
 90
        6
 70
     0
 43
0.0
 10
7.663196323215661
 20
271.9604788751271
 10
7.669610458213769
 20
271.7872972301702
 10
7.740165943196171
 20
271.2164392153129
 10
7.894105183157832
 20
270.6455812004555
 10
8.125014043100003
 20
270.0747231855985
 10
8.420064253026467
 20
269.5102793057396
  0
LWPOLYLINE
  5
D3
330
82
100
AcDbEntity
  8
Standardebene
 62
     7
370
    35
100
AcDbPolyline
 90
       13
 70
     0
 43
0.0
 10
8.420064253026467
 20
284.2307191270595
 10
8.189155393083975
 20
283.3519826322791
 10
7.99031720813363
 20
282.460417867502
 10
7.829963833173859
 20
281.5560248327279
 10
7.720923538201203
 20
280.6388035279574
 10
7.676024593212199
 20
279.9845617581208
 10
7.663196323215661
 20
279.3239058532861
 10
7.695266998207486
 20
278.4002704135171
 10
7.778650753186746
 20
277.4766349737481
 10
7.919761723151549
 20
276.5529995339788
 10
8.105771638105036
 20
275.6293640942097
 10
8.259710878066377
 20
275.0200212693622
 10
8.420064253026467
 20
274.4170925795127
  0
LWPOLYLINE
  5
D4
330
82
100
AcDbEntity
  8
Standardebene
 62
     7
370
    35
100
AcDbPolyline
 90
        7
 70
     0
 43
0.0
 10
13.86566486666503
 20
279.3239058532861
 10
13.83359419167288
 20
278.4002704135171
 10
13.75021043669362
 20
277.4766349737481
 10
13.60909946672914
 20
276.5529995339788
 10
13.42308955177565
 20
275.6293640942097
 10
13.26915031181399
 20
275.0200212693622
 10
13.10238280185579
 20
274.4170925795127
  0
LINE
  5
D5
330
82
100
AcDbEntity
  8
Standardebene
 62
     7
370
    35
100
AcDbLine
 10
13.10238280185579
 20
289.1375324008325
 30
0.0
 11
8.420064253026467
 21
289.1375324008325
 31
0.0
  0
LWPOLYLINE
  5
D6
330
82
100
AcDbEntity
  8
Standardebene
 62
     7
370
    35
100
AcDbPolyline
 90
        7
 70
     0
 43
0.0
 10
13.10238280185579
 20
284.2307191270595
 10
13.33970579679639
 20
283.3519826322791
 10
13.53854398174674
 20
282.460417867502
 10
13.6988973567065
 20
281.5560248327279
 10
13.80793765167948
 20
280.6388035279574
 10
13.84642246166974
 20
279.9845617581208
 10
13.86566486666503
 20
279.3239058532861
  0
LWPOLYLINE
  5
D7
330
82
100
AcDbEntity
  8
Standardebene
 62
     7
370
    35
100
AcDbPolyline
 90
       10
 70
     0
 43
0.0
 10
8.420064253026467
 20
289.1375324008325
 10
8.112185773103144
 20
288.5410178459819
 10
7.874862778162544
 20
287.9380891561327
 10
7.714509403202774
 20
287.3159180612883
 10
7.663196323215661
 20
286.6873328314454
 10
7.669610458213769
 20
286.5141511864885
 10
7.740165943196171
 20
285.9432931716311
 10
7.894105183157832
 20
285.3724351567741
 10
8.125014043100003
 20
284.7951630069184
 10
8.420064253026467
 20
284.2307191270595
  0
LWPOLYLINE
  5
D8
330
82
100
AcDbEntity
  8
Standardebene
 62
     7
370
    35
100
AcDbPolyline
 90
        6
 70
     0
 43
0.0
 10
13.86566486666503
 20
286.6873328314454
 10
13.8592507316666
 20
286.5141511864885
 10
13.78869524668419
 20
285.9432931716311
 10
13.63475600672253
 20
285.3724351567741
 10
13.40384714678036
 20
284.7951630069184
 10
13.10238280185579
 20
284.2307191270595
  0
LWPOLYLINE
  5
D9
330
82
100
AcDbEntity
  8
Standardebene
 62
     7
370
    35
100
AcDbPolyline
 90
        5
 70
     0
 43
0.0
 10
13.10238280185579
 20
289.1375324008325
 10
13.41667541677722
 20
288.5410178459819
 10
13.65399841171782
 20
287.9380891561327
 10
13.80793765167948
 20
287.3159180612883
 10
13.86566486666503
 20
286.6873328314454
  0
LWPOLYLINE
  5
DA
330
82
100
AcDbEntity
  8
Standardebene
 62
     7
370
    35
100
AcDbPolyline
 90
        4
 70
     0
 43
0.0
 10
7.663196323215661
 20
286.6873328314454
 10
7.663196323215661
 20
287.3095039262898
 10
7.663196323215661
 20
287.6943520261936
 10
7.663196323215661
 20
287.8226347261613
  0
LWPOLYLINE
  5
DB
330
82
100
AcDbEntity
  8
Standardebene
 62
     7
370
    35
100
AcDbPolyline
 90
       15
 70
     0
 43
0.0
 10
7.663196323215661
 20
271.9604788751271
 10
7.663196323215661
 20
272.524922754986
 10
7.663196323215661
 20
272.8135588299137
 10
7.663196323215661
 20
273.8590628346523
 10
7.663196323215661
 20
275.0713343493493
 10
7.663196323215661
 20
276.4183026990124
 10
7.663196323215661
 20
277.848654803655
 10
7.663196323215661
 20
279.3239058532861
 10
7.663196323215661
 20
280.7991569029174
 10
7.663196323215661
 20
282.2295090075598
 10
7.663196323215661
 20
283.5764773572229
 10
7.663196323215661
 20
284.7887488719199
 10
7.663196323215661
 20
285.8342528766585
 10
7.663196323215661
 20
286.1228889515865
 10
7.663196323215661
 20
286.6873328314454
  0
LWPOLYLINE
  5
DC
330
82
100
AcDbEntity
  8
Standardebene
 62
     7
370
    35
100
AcDbPolyline
 90
        4
 70
     0
 43
0.0
 10
7.663196323215661
 20
270.8251769804109
 10
7.663196323215661
 20
270.9534596803788
 10
7.663196323215661
 20
271.3383077802824
 10
7.663196323215661
 20
271.9604788751271
  0
LWPOLYLINE
  5
DD
330
82
100
AcDbEntity
  8
Standardebene
 62
     7
370
    35
100
AcDbPolyline
 90
        8
 70
     0
 43
0.0
 10
-8.635120707709761
 20
279.3239058532861
 10
-8.635120707709761
 20
280.4399653430071
 10
-8.635120707709761
 20
281.491883482744
 10
-8.635120707709761
 20
282.4411754625067
 10
-8.635120707709761
 20
283.2365282023081
 10
-8.635120707709761
 20
283.8266286221603
 10
-8.635120707709761
 20
284.1986484520674
 10
-8.635120707709761
 20
284.3269311520353
  0
LWPOLYLINE
  5
DE
330
82
100
AcDbEntity
  8
Standardebene
 62
     7
370
    35
100
AcDbPolyline
 90
        8
 70
     0
 43
0.0
 10
-8.635120707709761
 20
274.3208805545369
 10
-8.635120707709761
 20
274.4491632545049
 10
-8.635120707709761
 20
274.8211830844118
 10
-8.635120707709761
 20
275.4176976392626
 10
-8.635120707709761
 20
276.2066362440655
 10
-8.635120707709761
 20
277.1559282238282
 10
-8.635120707709761
 20
278.2142604985636
 10
-8.635120707709761
 20
279.3239058532861
  0
LWPOLYLINE
  5
DF
330
82
100
AcDbEntity
  8
Standardebene
 62
     7
370
    35
100
AcDbPolyline
 90
        8
 70
     0
 43
0.0
 10
-5.633305528460251
 20
279.3239058532861
 10
-5.633305528460251
 20
280.4399653430071
 10
-5.633305528460251
 20
281.491883482744
 10
-5.633305528460251
 20
282.4411754625067
 10
-5.633305528460251
 20
283.2365282023081
 10
-5.633305528460251
 20
283.8266286221603
 10
-5.633305528460251
 20
284.1986484520674
 10
-5.633305528460251
 20
284.3269311520353
  0
LWPOLYLINE
  5
E0
330
82
100
AcDbEntity
  8
Standardebene
 62
     7
370
    35
100
AcDbPolyline
 90
        8
 70
     0
 43
0.0
 10
-5.633305528460251
 20
274.3208805545369
 10
-5.633305528460251
 20
274.4491632545049
 10
-5.633305528460251
 20
274.8211830844118
 10
-5.633305528460251
 20
275.4176976392626
 10
-5.633305528460251
 20
276.2066362440655
 10
-5.633305528460251
 20
277.1559282238282
 10
-5.633305528460251
 20
278.2142604985636
 10
-5.633305528460251
 20
279.3239058532861
  0
LWPOLYLINE
  5
E1
330
82
100
AcDbEntity
  8
Standardebene
 62
     7
370
    35
100
AcDbPolyline
 90
        8
 70
     0
 43
0.0
 10
-15.63294199096051
 20
279.3239058532861
 10
-15.63294199096051
 20
280.3950663980184
 10
-15.63294199096051
 20
281.408499727765
 10
-15.63294199096051
 20
282.3193068975371
 10
-15.63294199096051
 20
283.076174827348
 10
-15.63294199096051
 20
283.6470328422053
 10
-15.63294199096051
 20
284.0062244021154
 10
-15.63294199096051
 20
284.1216788320865
  0
LWPOLYLINE
  5
E2
330
82
100
AcDbEntity
  8
Standardebene
 62
     7
370
    35
100
AcDbPolyline
 90
        8
 70
     0
 43
0.0
 10
-15.63294199096051
 20
274.5261328744857
 10
-15.63294199096051
 20
274.6415873044568
 10
-15.63294199096051
 20
275.0007788643669
 10
-15.63294199096051
 20
275.5716368792242
 10
-15.63294199096051
 20
276.3349189440335
 10
-15.63294199096051
 20
277.2393119788072
 10
-15.63294199096051
 20
278.2591594435523
 10
-15.63294199096051
 20
279.3239058532861
  0
LWPOLYLINE
  5
E3
330
82
100
AcDbEntity
  8
Standardebene
 62
     7
370
    35
100
AcDbPolyline
 90
        9
 70
     0
 43
0.0
 10
-9.635725767459598
 20
279.3239058532861
 10
-9.635725767459598
 20
280.4976925579926
 10
-9.635725767459598
 20
281.6201661827119
 10
-9.635725767459598
 20
282.6592560524523
 10
-9.635725767459598
 20
283.5700632222245
 10
-9.635725767459598
 20
284.3141028820384
 10
-9.635725767459598
 20
284.8657184919008
 10
-9.635725767459598
 20
285.2120817818141
 10
-9.635725767459598
 20
285.3275362117851
  0
LWPOLYLINE
  5
E4
330
82
100
AcDbEntity
  8
Standardebene
 62
     7
370
    35
100
AcDbPolyline
 90
        9
 70
     0
 43
0.0
 10
-9.635725767459598
 20
273.3266896297855
 10
-9.635725767459598
 20
273.4421440597566
 10
-9.635725767459598
 20
273.7820932146714
 10
-9.635725767459598
 20
274.3337088245338
 10
-9.635725767459598
 20
275.0841626193462
 10
-9.635725767459598
 20
275.9885556541199
 10
-9.635725767459598
 20
277.0276455238603
 10
-9.635725767459598
 20
278.1565332835781
 10
-9.635725767459598
 20
279.3239058532861
  0
LINE
  5
E5
330
82
100
AcDbEntity
  8
Standardebene
 62
     7
370
    35
100
AcDbLine
 10
114.8947052264077
 20
266.3224542115364
 30
0.0
 11
114.8947052264077
 21
207.3252404962859
 31
0.0
  0
LINE
  5
E6
330
82
100
AcDbEntity
  8
Standardebene
 62
     7
370
    35
100
AcDbLine
 10
114.8947052264077
 20
195.3243939142859
 30
0.0
 11
114.8947052264077
 21
122.8254260274105
 31
0.0
  0
LINE
  5
E7
330
82
100
AcDbEntity
  8
Standardebene
 62
     7
370
    35
100
AcDbLine
 10
143.3927070242833
 20
122.8254260274105
 30
0.0
 11
143.3927070242833
 21
195.3243939142859
 31
0.0
  0
LINE
  5
E8
330
82
100
AcDbEntity
  8
Standardebene
 62
     7
370
    35
100
AcDbLine
 10
143.3927070242833
 20
207.3252404962859
 30
0.0
 11
143.3927070242833
 21
266.3224542115364
 31
0.0
  0
LWPOLYLINE
  5
E9
330
82
100
AcDbEntity
  8
Standardebene
 62
     7
370
    35
100
AcDbPolyline
 90
       12
 70
     0
 43
0.0
 10
125.7923205886832
 20
122.8254260274105
 10
124.1438878940952
 20
122.8254260274105
 10
122.56601068449
 20
122.8254260274105
 10
121.0843454998605
 20
122.8254260274105
 10
119.7245488802005
 20
122.8254260274105
 10
118.4994490955063
 20
122.8254260274105
 10
117.4347026857728
 20
122.8254260274105
 10
116.5367237859972
 20
122.8254260274105
 10
115.8247548011754
 20
122.8254260274105
 10
115.3116240013036
 20
122.8254260274105
 10
114.9973313863819
 20
122.8254260274105
 10
114.8947052264077
 20
122.8254260274105
  0
LWPOLYLINE
  5
EA
330
82
100
AcDbEntity
  8
Standardebene
 62
     7
370
    35
100
AcDbPolyline
 90
      112
 70
     0
 43
0.0
 10
143.3927070242833
 20
122.8254260274105
 10
143.2900808643091
 20
122.8254260274105
 10
142.9757882493874
 20
122.8254260274105
 10
142.4626574495156
 20
122.8254260274105
 10
141.7506884646938
 20
122.8254260274105
 10
140.8591236999166
 20
122.8254260274105
 10
139.7879631551847
 20
122.8254260274105
 10
138.5692775054889
 20
122.8254260274105
 10
137.2030667508305
 20
122.8254260274105
 10
135.7278157011995
 20
122.8254260274105
 10
134.1499384915942
 20
122.8254260274105
 10
132.5015057970062
 20
122.8254260274105
 10
132.5271623369999
 20
122.9216380523863
 10
132.552818876993
 20
123.0242642123612
 10
132.5720612819883
 20
123.120476237337
 10
132.5913036869836
 20
123.2231023973112
 10
132.6233743619757
 20
123.4283547172597
 10
132.642616766971
 20
123.6271929022103
 10
132.642616766971
 20
123.8324452221588
 10
132.6362026319726
 20
124.0376975421072
 10
132.6362026319726
 20
124.0825964870962
 10
132.6297884969742
 20
124.1339095670837
 10
132.6233743619757
 20
124.1852226470705
 10
132.6233743619757
 20
124.2365357270579
 10
132.6041319569805
 20
124.3391618870321
 10
132.5913036869836
 20
124.4417880470063
 10
132.5464047419946
 20
124.640626231957
 10
132.4950916620078
 20
124.8330502819086
 10
132.4309503120235
 20
125.0318884668586
 10
132.353980692043
 20
125.2178983818124
 10
132.3347382870477
 20
125.2627973268015
 10
132.3154958820524
 20
125.3141104067882
 10
132.2898393420587
 20
125.3590093517772
 10
132.2705969370641
 20
125.4039082967663
 10
132.2192838570766
 20
125.4937061867436
 10
132.1743849120876
 20
125.583504076721
 10
132.065344617115
 20
125.7566857216779
 10
131.9498901871439
 20
125.9170390966374
 10
131.8216074871759
 20
126.0773924715975
 10
131.6869106522096
 20
126.2313317115591
 10
131.5457996822448
 20
126.3724426815239
 10
131.3918604422837
 20
126.5071395164903
 10
131.2315070673236
 20
126.6354222164583
 10
131.0711536923636
 20
126.7508766464293
 10
130.9813558023862
 20
126.8021897264161
 10
130.8979720474072
 20
126.8535028064036
 10
130.8530731024182
 20
126.8791593463973
 10
130.8081741574292
 20
126.904815886391
 10
130.7632752124409
 20
126.9304724263844
 10
130.7183762674519
 20
126.9497148313797
 10
130.5323663524981
 20
127.0395127213571
 10
130.3399423025465
 20
127.1164823413379
 10
130.1539323875926
 20
127.1742095563234
 10
129.9550942026426
 20
127.231936771309
 10
129.8524680426684
 20
127.2511791763043
 10
129.7562560176926
 20
127.2704215812995
 10
129.7049429377052
 20
127.276835716298
 10
129.6536298577177
 20
127.2896639862945
 10
129.6023167777309
 20
127.2960781212929
 10
129.5510036977435
 20
127.3024922562914
 10
129.3457513777951
 20
127.3217346612867
 10
129.146913192845
 20
127.3217346612867
 10
128.9416608728959
 20
127.3153205262882
 10
128.7364085529475
 20
127.3024922562914
 10
128.6401965279717
 20
127.2896639862945
 10
128.5375703679968
 20
127.2704215812995
 10
128.48625728801
 20
127.2640074463011
 10
128.4349442080226
 20
127.2511791763043
 10
128.3836311280358
 20
127.2383509063074
 10
128.3387321830468
 20
127.231936771309
 10
128.1398939980968
 20
127.1742095563234
 10
127.9474699481445
 20
127.1100682063394
 10
127.7550458981929
 20
127.0395127213571
 10
127.5754501182376
 20
126.9497148313797
 10
127.4856522282602
 20
126.904815886391
 10
127.3958543382822
 20
126.8535028064036
 10
127.3060564483048
 20
126.8021897264161
 10
127.2226726933259
 20
126.7508766464293
 10
127.0559051833674
 20
126.6290080814598
 10
126.8955518084073
 20
126.5071395164903
 10
126.7480267034447
 20
126.3724426815239
 10
126.6005015984814
 20
126.2313317115591
 10
126.5684309234893
 20
126.1928469015686
 10
126.5363602484971
 20
126.1543620915786
 10
126.4978754385072
 20
126.115877281588
 10
126.4658047635151
 20
126.0773924715975
 10
126.4016634135308
 20
126.000422851617
 10
126.3375220635471
 20
125.9170390966374
 10
126.222067633576
 20
125.7502715866795
 10
126.1194414736018
 20
125.5770899417226
 10
126.0232294486254
 20
125.4039082967663
 10
125.933431558648
 20
125.2178983818124
 10
125.9141891536527
 20
125.1729994368234
 10
125.8949467486574
 20
125.1216863568366
 10
125.8757043436628
 20
125.0767874118476
 10
125.8564619386675
 20
125.0254743318608
 10
125.8243912636753
 20
124.9292623068844
 10
125.7923205886832
 20
124.8330502819086
 10
125.7410075086964
 20
124.640626231957
 10
125.7025226987058
 20
124.4417880470063
 10
125.6704520237137
 20
124.2365357270579
 10
125.6512096187184
 20
124.0376975421072
 10
125.6512096187184
 20
123.9863844621204
 10
125.64479548372
 20
123.935071382133
 10
125.64479548372
 20
123.8837583021462
 10
125.64479548372
 20
123.8324452221588
 10
125.64479548372
 20
123.7298190621845
 10
125.6512096187184
 20
123.6271929022103
 10
125.6704520237137
 20
123.4219405822612
 10
125.6961085637074
 20
123.2231023973112
 10
125.7410075086964
 20
123.0242642123612
 10
125.7923205886832
 20
122.8254260274105
  0
LWPOLYLINE
  5
EB
330
82
100
AcDbEntity
  8
Standardebene
 62
     7
370
    35
100
AcDbPolyline
 90
      185
 70
     0
 43
0.0
 10
129.146913192845
 20
138.3219761835364
 10
129.3200948378014
 20
138.3283903185349
 10
129.4932764827583
 20
138.3412185885317
 10
129.6600439927162
 20
138.360460993527
 10
129.8332256376731
 20
138.3925316685189
 10
129.9999931476316
 20
138.4310164785094
 10
130.1603465225911
 20
138.4759154234981
 10
130.2052454675801
 20
138.4887436934949
 10
130.2437302775707
 20
138.5015719634918
 10
130.288629222559
 20
138.5144002334883
 10
130.3271140325496
 20
138.5272285034852
 10
130.4104977875286
 20
138.5592991784774
 10
130.4874674075097
 20
138.5913698534692
 10
130.6478207824698
 20
138.6619253384516
 10
130.7953458874324
 20
138.7388949584324
 10
130.949285127394
 20
138.8222787134113
 10
131.0903960973589
 20
138.912076603389
 10
131.1609515823409
 20
138.9633896833762
 10
131.2315070673236
 20
139.0147027633633
 10
131.3020625523057
 20
139.0660158433507
 10
131.36620390229
 20
139.1173289233378
 10
131.4944866022579
 20
139.2327833533089
 10
131.6227693022259
 20
139.34823778328
 10
131.738223732197
 20
139.4701063482495
 10
131.8472640271696
 20
139.6048031832159
 10
131.9563043221423
 20
139.7395000181822
 10
132.0525163471181
 20
139.8806109881471
 10
132.0781728871118
 20
139.9126816631389
 10
132.1038294271055
 20
139.9511664731291
 10
132.1230718321008
 20
139.9896512831197
 10
132.1487283720946
 20
140.0217219581115
 10
132.1872131820845
 20
140.0986915780924
 10
132.2321121270735
 20
140.1756611980732
 10
132.309081747054
 20
140.3231863030364
 10
132.3796372320367
 20
140.4835396779962
 10
132.4373644470219
 20
140.6374789179579
 10
132.4950916620078
 20
140.8042464279161
 10
132.5143340670031
 20
140.8876301828953
 10
132.5399906069962
 20
140.9710139378743
 10
132.5464047419946
 20
141.0094987478648
 10
132.5592330119914
 20
141.0543976928535
 10
132.5656471469899
 20
141.0992966378422
 10
132.5784754169867
 20
141.1377814478328
 10
132.6041319569805
 20
141.3109630927894
 10
132.6297884969742
 20
141.4777306027476
 10
132.642616766971
 20
141.6509122477043
 10
132.642616766971
 20
141.8240938926612
 10
132.642616766971
 20
141.9972755376178
 10
132.6297884969742
 20
142.164043047576
 10
132.6233743619757
 20
142.2089419925647
 10
132.6169602269773
 20
142.2538409375537
 10
132.6105460919789
 20
142.2987398825424
 10
132.6041319569805
 20
142.3372246925326
 10
132.5913036869836
 20
142.4270225825103
 10
132.5784754169867
 20
142.5104063374896
 10
132.5399906069962
 20
142.6771738474478
 10
132.4950916620078
 20
142.843941357406
 10
132.4437785820204
 20
143.0042947323661
 10
132.3796372320367
 20
143.1646481073258
 10
132.3603948270414
 20
143.2031329173164
 10
132.3475665570446
 20
143.2416177273067
 10
132.3283241520493
 20
143.2865166722954
 10
132.309081747054
 20
143.3250014822859
 10
132.2705969370641
 20
143.4019711022665
 10
132.2321121270735
 20
143.4789407222473
 10
132.1487283720946
 20
143.6264658272105
 10
132.0525163471181
 20
143.7675767971753
 10
131.9563043221423
 20
143.9086877671398
 10
131.8536781621681
 20
144.0433846021062
 10
131.7959509471822
 20
144.1075259520901
 10
131.738223732197
 20
144.1716673020741
 10
131.6804965172111
 20
144.2358086520581
 10
131.6227693022259
 20
144.2999500020421
 10
131.4944866022579
 20
144.4154044320131
 10
131.36620390229
 20
144.5308588619842
 10
131.2315070673236
 20
144.6334850219588
 10
131.0903960973589
 20
144.7296970469346
 10
130.949285127394
 20
144.8259090719107
 10
130.8017600224308
 20
144.9092928268896
 10
130.7632752124409
 20
144.9285352318849
 10
130.7247904024503
 20
144.9477776368802
 10
130.6863055924597
 20
144.9670200418752
 10
130.6478207824698
 20
144.9862624468705
 10
130.5644370274902
 20
145.024747256861
 10
130.4874674075097
 20
145.0568179318529
 10
130.3271140325496
 20
145.1209592818368
 10
130.1667606575895
 20
145.172272361824
 10
129.9999931476316
 20
145.2171713068127
 10
129.8332256376731
 20
145.2556561168032
 10
129.7498418826942
 20
145.2748985217985
 10
129.6600439927162
 20
145.287726791795
 10
129.6215591827262
 20
145.2941409267935
 10
129.5766602377372
 20
145.3005550617919
 10
129.5317612927482
 20
145.3005550617919
 10
129.4932764827583
 20
145.3069691967903
 10
129.3200948378014
 20
145.3197974667872
 10
129.146913192845
 20
145.3262116017856
 10
128.9737315478881
 20
145.3197974667872
 10
128.8069640379296
 20
145.3069691967903
 10
128.6337823929732
 20
145.287726791795
 10
128.4606007480163
 20
145.2556561168032
 10
128.3772169930374
 20
145.2364137118079
 10
128.2938332380578
 20
145.2171713068127
 10
128.2104494830788
 20
145.1979289018177
 10
128.1270657280999
 20
145.172272361824
 10
127.9667123531398
 20
145.1209592818368
 10
127.8063589781797
 20
145.0568179318529
 10
127.6460056032196
 20
144.9862624468705
 10
127.4920663632586
 20
144.9092928268896
 10
127.4599956882665
 20
144.8900504218947
 10
127.4215108782759
 20
144.8708080168994
 10
127.383026068286
 20
144.8451514769057
 10
127.3445412582954
 20
144.8259090719107
 10
127.2739857733127
 20
144.7810101269217
 10
127.1970161533321
 20
144.736111181933
 10
127.0623193183658
 20
144.6334850219588
 10
126.9276224833994
 20
144.5308588619842
 10
126.7993397834315
 20
144.4218185670116
 10
126.6710570834635
 20
144.2999500020421
 10
126.6133298684783
 20
144.2422227870565
 10
126.5556026534924
 20
144.1780814370725
 10
126.4978754385072
 20
144.1139400870886
 10
126.4401482235214
 20
144.0497987371046
 10
126.3375220635471
 20
143.9086877671398
 10
126.2348959035729
 20
143.7739909321734
 10
126.1450980135949
 20
143.6264658272105
 10
126.0617142586159
 20
143.4789407222473
 10
125.9847446386354
 20
143.3250014822859
 10
125.9141891536527
 20
143.1710622423243
 10
125.8949467486574
 20
143.1261632973356
 10
125.8821184786612
 20
143.087678487345
 10
125.8692902086643
 20
143.0491936773548
 10
125.8500478036691
 20
143.0107088673645
 10
125.8243912636753
 20
142.9273251123852
 10
125.7987347236816
 20
142.843941357406
 10
125.7538357786933
 20
142.6771738474478
 10
125.7153509687027
 20
142.5104063374896
 10
125.6832802937105
 20
142.3436388275311
 10
125.6640378887152
 20
142.1704571825744
 10
125.6576237537168
 20
142.0870734275952
 10
125.6512096187184
 20
141.9972755376178
 10
125.6512096187184
 20
141.9587907276272
 10
125.64479548372
 20
141.9138917826385
 10
125.64479548372
 20
141.8689928376499
 10
125.64479548372
 20
141.8240938926612
 10
125.6512096187184
 20
141.6573263827026
 10
125.6640378887152
 20
141.484144737746
 10
125.6832802937105
 20
141.3109630927894
 10
125.7153509687027
 20
141.1441955828309
 10
125.7474216436948
 20
140.9774280728727
 10
125.7987347236816
 20
140.8106605629145
 10
125.8500478036691
 20
140.643893052956
 10
125.9141891536527
 20
140.4835396779962
 10
125.9847446386354
 20
140.3296004380345
 10
126.0617142586159
 20
140.1756611980732
 10
126.1450980135949
 20
140.02813609311
 10
126.2348959035729
 20
139.8806109881471
 10
126.2605524435666
 20
139.8421261781565
 10
126.2862089835597
 20
139.8100555031646
 10
126.3118655235534
 20
139.7715706931741
 10
126.3311079285487
 20
139.7395000181822
 10
126.3888351435346
 20
139.6689445331998
 10
126.4401482235214
 20
139.6048031832159
 10
126.549188518494
 20
139.4765204832479
 10
126.6710570834635
 20
139.34823778328
 10
126.792925648433
 20
139.2327833533089
 10
126.921208348401
 20
139.1237430583362
 10
126.9853496983853
 20
139.0660158433507
 10
127.0559051833674
 20
139.0147027633633
 10
127.1264606683501
 20
138.9633896833762
 10
127.1970161533321
 20
138.9184907383875
 10
127.3445412582954
 20
138.8222787134113
 10
127.4920663632586
 20
138.7388949584324
 10
127.6460056032196
 20
138.6619253384516
 10
127.7999448431813
 20
138.5913698534692
 10
127.9602982181414
 20
138.5336426384836
 10
128.1206515931015
 20
138.4759154234981
 10
128.2040353480804
 20
138.4502588835044
 10
128.2874191030594
 20
138.4310164785094
 10
128.3772169930374
 20
138.4117740735141
 10
128.4606007480163
 20
138.3925316685189
 10
128.6273682579748
 20
138.360460993527
 10
128.8005499029311
 20
138.3412185885317
 10
128.9737315478881
 20
138.3283903185349
 10
129.146913192845
 20
138.3219761835364
  0
LWPOLYLINE
  5
EC
330
82
100
AcDbEntity
  8
Standardebene
 62
     7
370
    35
100
AcDbPolyline
 90
       14
 70
     0
 43
0.0
 10
129.146913192845
 20
266.3224542115364
 10
127.4279250132743
 20
266.3224542115364
 10
125.734593373698
 20
266.3224542115364
 10
124.0925748141084
 20
266.3224542115364
 10
122.5211117395009
 20
266.3224542115364
 10
121.0522748248683
 20
266.3224542115364
 10
119.6988923402068
 20
266.3224542115364
 10
118.4802066905117
 20
266.3224542115364
 10
117.4154602807775
 20
266.3224542115364
 10
116.5303096509988
 20
266.3224542115364
 10
115.818340666177
 20
266.3224542115364
 10
115.3116240013036
 20
266.3224542115364
 10
114.9973313863819
 20
266.3224542115364
 10
114.8947052264077
 20
266.3224542115364
  0
LWPOLYLINE
  5
ED
330
82
100
AcDbEntity
  8
Standardebene
 62
     7
370
    35
100
AcDbPolyline
 90
       14
 70
     0
 43
0.0
 10
143.3927070242833
 20
266.3224542115364
 10
143.2900808643091
 20
266.3224542115364
 10
142.9822023843858
 20
266.3224542115364
 10
142.469071584514
 20
266.3224542115364
 10
141.7635167346906
 20
266.3224542115364
 10
140.8719519699135
 20
266.3224542115364
 10
139.8136196951778
 20
266.3224542115364
 10
138.5949340454826
 20
266.3224542115364
 10
137.2415515608211
 20
266.3224542115364
 10
135.76630051119
 20
266.3224542115364
 10
134.201251571581
 20
266.3224542115364
 10
132.5592330119914
 20
266.3224542115364
 10
130.8659013724151
 20
266.3224542115364
 10
129.146913192845
 20
266.3224542115364
  0
LINE
  5
EE
330
82
100
AcDbEntity
  8
Standardebene
 62
     7
370
    35
100
AcDbLine
 10
143.3927070242833
 20
266.3224542115364
 30
0.0
 11
142.3921019645335
 21
267.3230592712862
 31
0.0
  0
LINE
  5
EF
330
82
100
AcDbEntity
  8
Standardebene
 62
     7
370
    35
100
AcDbLine
 10
115.8953102861575
 20
267.3230592712862
 30
0.0
 11
114.8947052264077
 21
266.3224542115364
 31
0.0
  0
SPLINE
  5
F0
330
82
100
AcDbEntity
  8
Standardebene
 62
     7
370
    35
100
AcDbSpline
210
0.0
220
0.0
230
1.0
 70
     8
 71
     3
 72
     8
 73
     4
 74
     0
 42
0.0000000001
 43
0.0000000001
 40
0.0
 40
0.0
 40
0.0
 40
0.0
 40
1.0
 40
1.0
 40
1.0
 40
1.0
 10
143.3927070242833
 20
118.5215414434862
 30
0.0
 10
143.3927070242833
 20
118.8422481934064
 30
0.0
 10
143.2708384593138
 20
119.124470133336
 30
0.0
 10
143.0720002743632
 20
119.3425507232814
 30
0.0
  0
SPLINE
  5
F1
330
82
100
AcDbEntity
  8
Standardebene
 62
     7
370
    35
100
AcDbSpline
210
0.0
220
0.0
230
1.0
 70
     8
 71
     3
 72
     8
 73
     4
 74
     0
 42
0.0000000001
 43
0.0000000001
 40
0.0
 40
0.0
 40
0.0
 40
0.0
 40
1.0
 40
1.0
 40
1.0
 40
1.0
 10
142.1932637795829
 20
117.3220981987864
 30
0.0
 10
142.8603338194163
 20
117.3220981987864
 30
0.0
 10
143.3927070242833
 20
117.8608855386519
 30
0.0
 10
143.3927070242833
 20
118.5215414434862
 30
0.0
  0
SPLINE
  5
F2
330
82
100
AcDbEntity
  8
Standardebene
 62
     7
370
    35
100
AcDbSpline
210
0.0
220
0.0
230
1.0
 70
     8
 71
     3
 72
    11
 73
     7
 74
     0
 42
0.0000000001
 43
0.0000000001
 40
0.0
 40
0.0
 40
0.0
 40
0.0
 40
1.0
 40
1.0
 40
1.0
 40
2.0
 40
2.0
 40
2.0
 40
2.0
 10
115.2154119763278
 20
119.3425507232814
 30
0.0
 10
115.0037455213803
 20
119.1116418633392
 30
0.0
 10
114.8947052264077
 20
118.8165916534127
 30
0.0
 10
114.8947052264077
 20
118.5215414434862
 30
0.0
 10
114.8947052264077
 20
117.8608855386519
 30
0.0
 10
115.4334925662731
 20
117.3220981987864
 30
0.0
 10
116.0941484711081
 20
117.3220981987864
 30
0.0
  0
LWPOLYLINE
  5
F3
330
82
100
AcDbEntity
  8
Standardebene
 62
     7
370
    35
100
AcDbPolyline
 90
       27
 70
     0
 43
0.0
 10
142.1932637795829
 20
117.3220981987864
 10
142.0906376196086
 20
117.3220981987864
 10
141.7827591396859
 20
117.3220981987864
 10
141.2760424748126
 20
117.3220981987864
 10
140.5833158949854
 20
117.3220981987864
 10
139.7045794002051
 20
117.3220981987864
 10
138.6590753954669
 20
117.3220981987864
 10
137.4660462857648
 20
117.3220981987864
 10
136.138320341097
 20
117.3220981987864
 10
134.7015541014559
 20
117.3220981987864
 10
133.1749899718374
 20
117.3220981987864
 10
131.5906986272338
 20
117.3220981987864
 10
129.9679224726395
 20
117.3220981987864
 10
129.146913192845
 20
117.3220981987864
 10
128.3259039130499
 20
117.3220981987864
 10
126.6967136234572
 20
117.3220981987864
 10
125.1124222788535
 20
117.3220981987864
 10
123.5858581492351
 20
117.3220981987864
 10
122.1555060445924
 20
117.3220981987864
 10
120.8277800999246
 20
117.3220981987864
 10
119.6347509902225
 20
117.3220981987864
 10
118.5892469854843
 20
117.3220981987864
 10
117.710510490704
 20
117.3220981987864
 10
117.0113697758784
 20
117.3220981987864
 10
116.5046531110051
 20
117.3220981987864
 10
116.1967746310824
 20
117.3220981987864
 10
116.0941484711081
 20
117.3220981987864
  0
LINE
  5
F4
330
82
100
AcDbEntity
  8
Standardebene
 62
     7
370
    35
100
AcDbLine
 10
114.8947052264077
 20
122.8254260274105
 30
0.0
 11
115.2923815963083
 21
119.579873718222
 31
0.0
  0
LINE
  5
F5
330
82
100
AcDbEntity
  8
Standardebene
 62
     7
370
    35
100
AcDbLine
 10
142.9950306543827
 20
119.579873718222
 30
0.0
 11
143.3927070242833
 21
122.8254260274105
 31
0.0
  0
LWPOLYLINE
  5
F6
330
82
100
AcDbEntity
  8
Standardebene
 62
     7
370
    35
100
AcDbPolyline
 90
       67
 70
     0
 43
0.0
 10
132.5015057970062
 20
122.8254260274105
 10
132.4052937720304
 20
122.5560323574778
 10
132.2962534770571
 20
122.2994669575419
 10
132.1679707770892
 20
122.0557298276028
 10
132.0140315371282
 20
121.8184068326622
 10
131.9947891321329
 20
121.7927502926685
 10
131.9755467271376
 20
121.760679617677
 10
131.9498901871439
 20
121.7350230776833
 10
131.9306477821486
 20
121.7029524026912
 10
131.8857488371602
 20
121.6516393227037
 10
131.8408498921712
 20
121.5939121077185
 10
131.7510520021939
 20
121.4912859477443
 10
131.654839977218
 20
121.38865978777
 10
131.4560017922674
 20
121.1962357378178
 10
131.2379212023221
 20
121.0166399578631
 10
131.1801939873362
 20
120.9781551478725
 10
131.122466772351
 20
120.9396703378819
 10
131.0647395573651
 20
120.9011855278913
 10
131.0070123423799
 20
120.8627007179014
 10
130.8851437774104
 20
120.7857310979203
 10
130.7632752124409
 20
120.7215897479366
 10
130.5131239475034
 20
120.5997211829671
 10
130.2501444125691
 20
120.5035091579913
 10
130.1795889275864
 20
120.484266752996
 10
130.1154475776027
 20
120.4586102130023
 10
130.04489209262
 20
120.439367808007
 10
129.9807507426364
 20
120.4265395380101
 10
129.8396397726715
 20
120.394468863018
 10
129.7049429377052
 20
120.3688123230249
 10
129.429135132774
 20
120.3367416480328
 10
129.146913192845
 20
120.3239133780359
 10
129.0763577078623
 20
120.3239133780359
 10
129.0058022228802
 20
120.3303275130343
 10
128.9352467378975
 20
120.3303275130343
 10
128.8646912529154
 20
120.3367416480328
 10
128.7299944179491
 20
120.3495699180296
 10
128.5888834479842
 20
120.3688123230249
 10
128.3130756430531
 20
120.4265395380101
 10
128.0436819731203
 20
120.5035091579913
 10
127.9795406231367
 20
120.5227515629859
 10
127.9153992731524
 20
120.5484081029797
 10
127.8833285981609
 20
120.5612363729765
 10
127.8512579231687
 20
120.5740646429734
 10
127.8127731131782
 20
120.5868929129702
 10
127.780702438186
 20
120.5997211829671
 10
127.6524197382181
 20
120.6574483979523
 10
127.5305511732486
 20
120.7215897479366
 10
127.2868140433095
 20
120.856286582903
 10
127.0559051833674
 20
121.0166399578631
 10
126.9468648883947
 20
121.100023712842
 10
126.837824593422
 20
121.1898216028194
 10
126.8121680534283
 20
121.2154781428131
 10
126.7865115134346
 20
121.2411346828068
 10
126.7608549734415
 20
121.2603770878021
 10
126.7351984334478
 20
121.2860336277952
 10
126.6838853534604
 20
121.3373467077826
 10
126.6325722734736
 20
121.38865978777
 10
126.4465623585198
 20
121.5939121077185
 10
126.2797948485613
 20
121.8184068326622
 10
126.2028252285807
 20
121.9338612626333
 10
126.1258556086002
 20
122.0493156926044
 10
126.0937849336081
 20
122.1134570425887
 10
126.0617142586159
 20
122.1711842575739
 10
126.0232294486254
 20
122.2353256075582
 10
125.9975729086323
 20
122.2994669575419
 10
125.8821184786612
 20
122.5560323574778
 10
125.7923205886832
 20
122.8254260274105
  0
SPLINE
  5
F7
330
82
100
AcDbEntity
  8
Standardebene
 62
     7
370
    35
100
AcDbSpline
210
0.0
220
0.0
230
1.0
 70
     8
 71
     3
 72
     8
 73
     4
 74
     0
 42
0.0000000001
 43
0.0000000001
 40
0.0
 40
0.0
 40
0.0
 40
0.0
 40
1.0
 40
1.0
 40
1.0
 40
1.0
 10
142.9950306543827
 20
119.579873718222
 30
0.0
 10
142.9886165193842
 20
119.4900758282446
 30
0.0
 10
143.0142730593779
 20
119.406692073265
 30
0.0
 10
143.0720002743632
 20
119.3425507232814
 30
0.0
  0
SPLINE
  5
F8
330
82
100
AcDbEntity
  8
Standardebene
 62
     7
370
    35
100
AcDbSpline
210
0.0
220
0.0
230
1.0
 70
    24
 71
     3
 72
     8
 73
     4
 74
     0
 42
0.0000000001
 43
0.0000000001
 40
0.0
 40
0.0
 40
0.0
 40
0.0
 40
1.0
 40
1.0
 40
1.0
 40
1.0
 10
115.2923815963083
 20
119.5478030432298
 30
0.0
 10
115.2923815963083
 20
119.5606313132267
 30
0.0
 10
115.2923815963083
 20
119.5670454482251
 30
0.0
 10
115.2923815963083
 20
119.579873718222
 30
0.0
  0
SPLINE
  5
F9
330
82
100
AcDbEntity
  8
Standardebene
 62
     7
370
    35
100
AcDbSpline
210
0.0
220
0.0
230
1.0
 70
     8
 71
     3
 72
     8
 73
     4
 74
     0
 42
0.0000000001
 43
0.0000000001
 40
0.0
 40
0.0
 40
0.0
 40
0.0
 40
1.0
 40
1.0
 40
1.0
 40
1.0
 10
115.2154119763278
 20
119.3425507232814
 30
0.0
 10
115.2667250563146
 20
119.4002779382666
 30
0.0
 10
115.2923815963083
 20
119.4708334232493
 30
0.0
 10
115.2923815963083
 20
119.5478030432298
 30
0.0
  0
LINE
  5
FA
330
82
100
AcDbEntity
  8
Standardebene
 62
     7
370
    35
100
AcDbLine
 10
139.6468521852199
 20
291.7224288051864
 30
0.0
 11
139.146549655345
 21
292.2227313350613
 31
0.0
  0
LINE
  5
FB
330
82
100
AcDbEntity
  8
Standardebene
 62
     7
370
    35
100
AcDbLine
 10
119.1472767303444
 20
292.2227313350613
 30
0.0
 11
118.6469742004695
 21
291.7224288051864
 31
0.0
  0
LWPOLYLINE
  5
FC
330
82
100
AcDbEntity
  8
Standardebene
 62
     7
370
    35
100
AcDbPolyline
 90
       12
 70
     0
 43
0.0
 10
129.146913192845
 20
291.7224288051864
 10
127.6524197382181
 20
291.7224288051864
 10
126.1899969585839
 20
291.7224288051864
 10
124.7853013939349
 20
291.7224288051864
 10
123.470403719264
 20
291.7224288051864
 10
122.2709604745635
 20
291.7224288051864
 10
121.2126281998284
 20
291.7224288051864
 10
120.3146493000528
 20
291.7224288051864
 10
119.5962661802326
 20
291.7224288051864
 10
119.0703071103639
 20
291.7224288051864
 10
118.7496003604438
 20
291.7224288051864
 10
118.6469742004695
 20
291.7224288051864
  0
LWPOLYLINE
  5
FD
330
82
100
AcDbEntity
  8
Standardebene
 62
     7
370
    35
100
AcDbPolyline
 90
       12
 70
     0
 43
0.0
 10
139.6468521852199
 20
291.7224288051864
 10
139.5378118902472
 20
291.7224288051864
 10
139.2171051403271
 20
291.7224288051864
 10
138.6975602054569
 20
291.7224288051864
 10
137.9791770856366
 20
291.7224288051864
 10
137.081198185861
 20
291.7224288051864
 10
136.0228659111259
 20
291.7224288051864
 10
134.8234226664255
 20
291.7224288051864
 10
133.5085249917545
 20
291.7224288051864
 10
132.1038294271055
 20
291.7224288051864
 10
130.6414066474713
 20
291.7224288051864
 10
129.146913192845
 20
291.7224288051864
  0
LWPOLYLINE
  5
FE
330
82
100
AcDbEntity
  8
Standardebene
 62
     7
370
    35
100
AcDbPolyline
 90
       12
 70
     0
 43
0.0
 10
129.146913192845
 20
292.2227313350613
 10
130.5708511624886
 20
292.2227313350613
 10
131.9627184571407
 20
292.2227313350613
 10
133.296858536807
 20
292.2227313350613
 10
134.5540289964927
 20
292.2227313350613
 10
135.6957450262073
 20
292.2227313350613
 10
136.7027642209556
 20
292.2227313350613
 10
137.5558441757422
 20
292.2227313350613
 10
138.2421566205709
 20
292.2227313350613
 10
138.7424591504458
 20
292.2227313350613
 10
139.0439234953707
 20
292.2227313350613
 10
139.146549655345
 20
292.2227313350613
  0
LWPOLYLINE
  5
FF
330
82
100
AcDbEntity
  8
Standardebene
 62
     7
370
    35
100
AcDbPolyline
 90
       12
 70
     0
 43
0.0
 10
119.1472767303444
 20
292.2227313350613
 10
119.2499028903187
 20
292.2227313350613
 10
119.5513672352436
 20
292.2227313350613
 10
120.0516697651185
 20
292.2227313350613
 10
120.7315680749488
 20
292.2227313350613
 10
121.5910621647338
 20
292.2227313350613
 10
122.5980813594821
 20
292.2227313350613
 10
123.7397973891967
 20
292.2227313350613
 10
124.990553713884
 20
292.2227313350613
 10
126.3311079285487
 20
292.2227313350613
 10
127.7229752232008
 20
292.2227313350613
 10
129.146913192845
 20
292.2227313350613
  0
LINE
  5
100
330
82
100
AcDbEntity
  8
Standardebene
 62
     7
370
    35
100
AcDbLine
 10
118.6469742004695
 20
291.7224288051864
 30
0.0
 11
118.6469742004695
 21
291.324752435286
 31
0.0
  0
LINE
  5
101
330
82
100
AcDbEntity
  8
Standardebene
 62
     7
370
    35
100
AcDbLine
 10
139.6468521852199
 20
291.324752435286
 30
0.0
 11
139.6468521852199
 21
291.7224288051864
 31
0.0
  0
LWPOLYLINE
  5
102
330
82
100
AcDbEntity
  8
Standardebene
 62
     7
370
    35
100
AcDbPolyline
 90
      151
 70
     0
 43
0.0
 10
129.146913192845
 20
280.7221872829367
 10
128.9480750078944
 20
280.7157731479382
 10
128.7556509579428
 20
280.683702472946
 10
128.6594389329663
 20
280.6644600679511
 10
128.5632269079905
 20
280.6388035279574
 10
128.5375703679968
 20
280.6323893929589
 10
128.5183279630022
 20
280.6259752579606
 10
128.4926714230085
 20
280.6131469879637
 10
128.4670148830147
 20
280.6067328529655
 10
128.4221159380257
 20
280.5874904479702
 10
128.3772169930374
 20
280.568248042975
 10
128.2040353480804
 20
280.484864287996
 10
128.0308537031235
 20
280.3886522630199
 10
127.9923688931335
 20
280.3565815880281
 10
127.953884083143
 20
280.3309250480344
 10
127.9153992731524
 20
280.2988543730422
 10
127.8769144631624
 20
280.2667836980504
 10
127.7999448431813
 20
280.2026423480664
 10
127.7293893581992
 20
280.1385009980825
 10
127.6011066582313
 20
279.9909758931192
 10
127.4856522282602
 20
279.8370366531579
 10
127.4664098232649
 20
279.8177942481626
 10
127.453581553268
 20
279.7985518431673
 10
127.4407532832712
 20
279.7728953031739
 10
127.4279250132743
 20
279.7536528981786
 10
127.408682608279
 20
279.7087539531899
 10
127.383026068286
 20
279.6702691431997
 10
127.338127123297
 20
279.580471253222
 10
127.2996423133064
 20
279.4906733632443
 10
127.2611575033165
 20
279.4008754732669
 10
127.2290868283243
 20
279.3110775832893
 10
127.2162585583274
 20
279.2597645033021
 10
127.2034302883306
 20
279.2148655583134
 10
127.1970161533321
 20
279.1892090183197
 10
127.1970161533321
 20
279.1635524783263
 10
127.1906020183337
 20
279.1378959383326
 10
127.1841878833353
 20
279.1186535333373
 10
127.1585313433416
 20
278.919815348387
 10
127.1457030733447
 20
278.7273912984354
 10
127.1457030733447
 20
278.6247651384608
 10
127.1585313433416
 20
278.528553113485
 10
127.16494547834
 20
278.4323410885089
 10
127.1841878833353
 20
278.3361290635331
 10
127.2290868283243
 20
278.1437050135812
 10
127.2996423133064
 20
277.9576950986277
 10
127.3188847183017
 20
277.912796153639
 10
127.338127123297
 20
277.86789720865
 10
127.3573695282922
 20
277.8229982636613
 10
127.383026068286
 20
277.7780993186727
 10
127.4279250132743
 20
277.6947155636934
 10
127.4856522282602
 20
277.6113318087142
 10
127.536965308247
 20
277.5343621887336
 10
127.6011066582313
 20
277.4573925687528
 10
127.6331773332234
 20
277.4189077587622
 10
127.6652480082149
 20
277.380422948772
 10
127.6973186832071
 20
277.3483522737802
 10
127.7293893581992
 20
277.3098674637895
 10
127.8769144631624
 20
277.1815847638216
 10
128.0308537031235
 20
277.0661303338505
 10
128.1142374581031
 20
277.008403118865
 10
128.197621213082
 20
276.9635041738763
 10
128.2232777530757
 20
276.9506759038795
 10
128.242520158071
 20
276.9378476338826
 10
128.2681766980647
 20
276.9250193638857
 10
128.2874191030594
 20
276.9186052288873
 10
128.3323180480484
 20
276.8993628238923
 10
128.3772169930374
 20
276.880120418897
 10
128.5632269079905
 20
276.8095649339147
 10
128.7492368229443
 20
276.764665988926
 10
128.8005499029311
 20
276.7518377189291
 10
128.8518629829186
 20
276.7454235839307
 10
128.8711053879138
 20
276.7454235839307
 10
128.8967619279076
 20
276.7390094489322
 10
128.9224184679007
 20
276.7390094489322
 10
128.9480750078944
 20
276.7325953139338
 10
129.0442870328702
 20
276.7261811789354
 10
129.146913192845
 20
276.7261811789354
 10
129.2431252178208
 20
276.7261811789354
 10
129.3393372427966
 20
276.7325953139338
 10
129.3906503227841
 20
276.7390094489322
 10
129.4355492677724
 20
276.7454235839307
 10
129.4868623477599
 20
276.7518377189291
 10
129.5381754277466
 20
276.764665988926
 10
129.7241853427005
 20
276.8095649339147
 10
129.9101952576536
 20
276.8737062838986
 10
129.9999931476316
 20
276.9186052288873
 10
130.089791037609
 20
276.9635041738763
 10
130.134689982598
 20
276.9827465788713
 10
130.1731747925879
 20
277.008403118865
 10
130.218073737577
 20
277.0340596588587
 10
130.2565585475675
 20
277.0597161988521
 10
130.416911922527
 20
277.1815847638216
 10
130.5580228924918
 20
277.3098674637895
 10
130.5900935674839
 20
277.3419381387817
 10
130.6285783774745
 20
277.380422948772
 10
130.660649052466
 20
277.4189077587622
 10
130.6927197274582
 20
277.4573925687528
 10
130.750446942444
 20
277.5343621887336
 10
130.8081741574292
 20
277.6113318087142
 10
130.9043861824057
 20
277.7780993186727
 10
130.994184072383
 20
277.9576950986277
 10
131.0005982073815
 20
277.976937503623
 10
131.0134264773783
 20
278.0025940436164
 10
131.0198406123768
 20
278.0218364486117
 10
131.0262547473752
 20
278.0474929886051
 10
131.0454971523699
 20
278.0923919335941
 10
131.0583254223667
 20
278.1437050135812
 10
131.0839819623604
 20
278.2335029035586
 10
131.1032243673557
 20
278.3297149285347
 10
131.122466772351
 20
278.4259269535105
 10
131.1352950423479
 20
278.528553113485
 10
131.1417091773463
 20
278.5734520584737
 10
131.1417091773463
 20
278.6247651384608
 10
131.1417091773463
 20
278.6760782184479
 10
131.1481233123447
 20
278.720977163437
 10
131.1352950423479
 20
278.919815348387
 10
131.1096385023541
 20
279.1122393983389
 10
131.0968102323573
 20
279.1635524783263
 10
131.0839819623604
 20
279.208451423315
 10
131.077567827362
 20
279.2341079633084
 10
131.0711536923636
 20
279.2597645033021
 10
131.0647395573651
 20
279.2790069082974
 10
131.0583254223667
 20
279.3046634482908
 10
131.0262547473752
 20
279.4008754732669
 10
130.994184072383
 20
279.4906733632443
 10
130.9108003174035
 20
279.6702691431997
 10
130.8081741574292
 20
279.8370366531579
 10
130.7825176174355
 20
279.8755214631481
 10
130.750446942444
 20
279.9140062731387
 10
130.7183762674519
 20
279.952491083129
 10
130.6927197274582
 20
279.9909758931192
 10
130.6285783774745
 20
280.0679455131
 10
130.5580228924918
 20
280.1385009980825
 10
130.4874674075097
 20
280.2026423480664
 10
130.416911922527
 20
280.2667836980504
 10
130.378427112537
 20
280.2988543730422
 10
130.3399423025465
 20
280.3309250480344
 10
130.3206998975512
 20
280.3437533180312
 10
130.3014574925559
 20
280.3565815880281
 10
130.2758009525628
 20
280.3694098580246
 10
130.2565585475675
 20
280.3886522630199
 10
130.089791037609
 20
280.484864287996
 10
129.9166093926521
 20
280.568248042975
 10
129.8203973676763
 20
280.6067328529655
 10
129.7305994776989
 20
280.6388035279574
 10
129.6792863977115
 20
280.6516317979543
 10
129.6343874527231
 20
280.6644600679511
 10
129.5894885077341
 20
280.6772883379476
 10
129.5381754277466
 20
280.683702472946
 10
129.3457513777951
 20
280.7157731479382
 10
129.146913192845
 20
280.7221872829367
  0
LINE
  5
103
330
82
100
AcDbEntity
  8
Standardebene
 62
     7
370
    35
100
AcDbLine
 10
154.1427972815957
 20
203.5216584422366
 30
0.0
 11
154.1427972815957
 21
207.1264023113356
 31
0.0
  0
LWPOLYLINE
  5
104
330
82
100
AcDbEntity
  8
Standardebene
 62
     7
370
    35
100
AcDbPolyline
 90
       82
 70
     0
 43
0.0
 10
154.1427972815957
 20
203.5216584422366
 10
154.1427972815957
 20
203.5152443072381
 10
154.1427972815957
 20
203.5024160372416
 10
154.1427972815957
 20
203.4831736322463
 10
154.1427972815957
 20
203.4575170922526
 10
154.1363831465972
 20
203.4318605522592
 10
154.1363831465972
 20
203.4126181472639
 10
154.1363831465972
 20
203.3933757422687
 10
154.1299690115988
 20
203.3741333372736
 10
154.1299690115988
 20
203.3548909322784
 10
154.1299690115988
 20
203.3099919872897
 10
154.1235548766004
 20
203.2650930423007
 10
154.1171407416019
 20
203.2137799623136
 10
154.1171407416019
 20
203.156052747328
 10
154.1107266066035
 20
203.1239820723362
 10
154.1107266066035
 20
203.0919113973441
 10
154.1107266066035
 20
203.0726689923488
 10
154.1107266066035
 20
203.0598407223522
 10
154.1107266066035
 20
203.0405983173569
 10
154.1043124716051
 20
203.0277700473601
 10
154.1043124716051
 20
202.9572145623777
 10
154.0978983366073
 20
202.8802449423972
 10
154.0914842016089
 20
202.8032753224163
 10
154.0850700666104
 20
202.7198915674371
 10
154.0850700666104
 20
202.6365078124579
 10
154.078655931612
 20
202.5467099224805
 10
154.078655931612
 20
202.5018109774918
 10
154.0722417966136
 20
202.4569120325028
 10
154.0722417966136
 20
202.4120130875141
 10
154.0722417966136
 20
202.360700007527
 10
154.0658276616152
 20
202.2644879825509
 10
154.0658276616152
 20
202.168275957575
 10
154.0594135266167
 20
202.0656497976008
 10
154.0594135266167
 20
201.9630236376263
 10
154.0529993916183
 20
201.9117105576392
 10
154.0529993916183
 20
201.860397477652
 10
154.0529993916183
 20
201.8090843976649
 10
154.0529993916183
 20
201.7513571826794
 10
154.0529993916183
 20
201.6487310227049
 10
154.0465852566199
 20
201.5396907277322
 10
154.0465852566199
 20
201.4306504327595
 10
154.0465852566199
 20
201.328024272785
 10
154.0465852566199
 20
201.2189839778123
 10
154.0465852566199
 20
201.1099436828397
 10
154.0465852566199
 20
201.084287142846
 10
154.0529993916183
 20
201.0586306028526
 10
154.0529993916183
 20
201.0265599278604
 10
154.0529993916183
 20
201.000903387867
 10
154.0529993916183
 20
200.9495903078796
 10
154.0529993916183
 20
200.8982772278925
 10
154.0594135266167
 20
200.6866107729456
 10
154.0658276616152
 20
200.4813584529968
 10
154.0658276616152
 20
200.4364595080081
 10
154.0658276616152
 20
200.3851464280207
 10
154.0658276616152
 20
200.3594898880273
 10
154.0658276616152
 20
200.3338333480336
 10
154.0722417966136
 20
200.3145909430383
 10
154.0722417966136
 20
200.2889344030449
 10
154.0722417966136
 20
200.1927223780687
 10
154.078655931612
 20
200.1029244880914
 10
154.0850700666104
 20
200.0131265981137
 10
154.0850700666104
 20
199.9297428431347
 10
154.0914842016089
 20
199.8463590881555
 10
154.0978983366073
 20
199.7693894681747
 10
154.1043124716051
 20
199.6924198481938
 10
154.1043124716051
 20
199.6218643632118
 10
154.1107266066035
 20
199.5577230132278
 10
154.1171407416019
 20
199.4935816632438
 10
154.1171407416019
 20
199.4358544482579
 10
154.1235548766004
 20
199.3845413682708
 10
154.1235548766004
 20
199.3588848282774
 10
154.1299690115988
 20
199.3332282882837
 10
154.1299690115988
 20
199.3139858832885
 10
154.1299690115988
 20
199.2947434782935
 10
154.1363831465972
 20
199.2562586683029
 10
154.1363831465972
 20
199.2177738583126
 10
154.1427972815957
 20
199.1921173183189
 10
154.1427972815957
 20
199.1664607783255
 10
154.1427972815957
 20
199.1600466433271
 10
154.1427972815957
 20
199.1472183733302
 10
154.1427972815957
 20
199.1408042383318
 10
154.1427972815957
 20
199.1343901033334
  0
LINE
  5
105
330
82
100
AcDbEntity
  8
Standardebene
 62
     7
370
    35
100
AcDbLine
 10
154.1427972815957
 20
195.5232320992363
 30
0.0
 11
154.1427972815957
 21
195.3243939142859
 31
0.0
  0
LWPOLYLINE
  5
106
330
82
100
AcDbEntity
  8
Standardebene
 62
     7
370
    35
100
AcDbPolyline
 90
        8
 70
     0
 43
0.0
 10
147.9275004681498
 20
195.3243939142859
 10
149.505377677755
 20
195.3243939142859
 10
150.8715884324134
 20
195.3243939142859
 10
152.0133044621281
 20
195.3243939142859
 10
152.9176974969021
 20
195.3243939142859
 10
153.5783534017371
 20
195.3243939142859
 10
153.988858041634
 20
195.3243939142859
 10
154.1427972815957
 20
195.3243939142859
  0
LINE
  5
107
330
82
100
AcDbEntity
  8
Standardebene
 62
     7
370
    35
100
AcDbLine
 10
147.9275004681498
 20
207.3252404962859
 30
0.0
 11
147.9275004681498
 21
195.3243939142859
 31
0.0
  0
LWPOLYLINE
  5
108
330
82
100
AcDbEntity
  8
Standardebene
 62
     7
370
    35
100
AcDbPolyline
 90
        8
 70
     0
 43
0.0
 10
154.1427972815957
 20
207.3252404962859
 10
153.988858041634
 20
207.3252404962859
 10
153.5783534017371
 20
207.3252404962859
 10
152.9176974969021
 20
207.3252404962859
 10
152.0133044621281
 20
207.3252404962859
 10
150.8715884324134
 20
207.3252404962859
 10
149.505377677755
 20
207.3252404962859
 10
147.9275004681498
 20
207.3252404962859
  0
LINE
  5
109
330
82
100
AcDbEntity
  8
Standardebene
 62
     7
370
    35
100
AcDbLine
 10
154.1427972815957
 20
207.3252404962859
 30
0.0
 11
154.1427972815957
 21
207.1264023113356
 31
0.0
  0
LWPOLYLINE
  5
10A
330
82
100
AcDbEntity
  8
Standardebene
 62
     7
370
    35
100
AcDbPolyline
 90
       10
 70
     0
 43
0.0
 10
147.9275004681498
 20
195.3243939142859
 10
143.3927070242833
 20
195.3243939142859
 10
129.146913192845
 20
195.3243939142859
 10
114.8947052264077
 20
195.3243939142859
 10
110.3663259175397
 20
195.3243939142859
 10
110.3663259175397
 20
207.3252404962859
 10
114.8947052264077
 20
207.3252404962859
 10
129.146913192845
 20
207.3252404962859
 10
143.3927070242833
 20
207.3252404962859
 10
147.9275004681498
 20
207.3252404962859
  0
LINE
  5
10B
330
82
100
AcDbEntity
  8
Standardebene
 62
     7
370
    35
100
AcDbLine
 10
104.2279987240743
 20
195.3243939142859
 30
0.0
 11
104.2279987240743
 21
207.3252404962859
 31
0.0
  0
LWPOLYLINE
  5
10C
330
82
100
AcDbEntity
  8
Standardebene
 62
     7
370
    35
100
AcDbPolyline
 90
        8
 70
     0
 43
0.0
 10
104.2279987240743
 20
195.3243939142859
 10
104.5166347990023
 20
195.3243939142859
 10
105.0105231938788
 20
195.3243939142859
 10
105.7032497737059
 20
195.3243939142859
 10
106.5948145384825
 20
195.3243939142859
 10
107.6723892182135
 20
195.3243939142859
 10
108.9359738128976
 20
195.3243939142859
 10
110.3663259175397
 20
195.3243939142859
  0
LWPOLYLINE
  5
10D
330
82
100
AcDbEntity
  8
Standardebene
 62
     7
370
    35
100
AcDbPolyline
 90
        8
 70
     0
 43
0.0
 10
110.3663259175397
 20
207.3252404962859
 10
108.9359738128976
 20
207.3252404962859
 10
107.6723892182135
 20
207.3252404962859
 10
106.5948145384825
 20
207.3252404962859
 10
105.7032497737059
 20
207.3252404962859
 10
105.0105231938788
 20
207.3252404962859
 10
104.5166347990023
 20
207.3252404962859
 10
104.2279987240743
 20
207.3252404962859
  0
LWPOLYLINE
  5
10E
330
82
100
AcDbEntity
  8
Standardebene
 62
     7
370
    35
100
AcDbPolyline
 90
        3
 70
     0
 43
0.0
 10
154.1427972815957
 20
195.5232320992363
 10
154.1427972815957
 20
199.1215618333368
 10
154.1427972815957
 20
199.1343901033334
  0
SPLINE
  5
10F
330
82
100
AcDbEntity
  8
Standardebene
 62
     7
370
    35
100
AcDbSpline
210
0.0
220
0.0
230
1.0
 70
    11
 71
     3
 72
    17
 73
    13
 74
     0
 42
0.0000000001
 43
0.0000000001
 40
0.0
 40
0.0
 40
0.0
 40
0.0
 40
1.0
 40
1.0
 40
1.0
 40
2.0
 40
2.0
 40
2.0
 40
3.0
 40
3.0
 40
3.0
 40
4.0
 40
4.0
 40
4.0
 40
4.0
 10
132.642616766971
 20
279.3239058532861
 30
0.0
 10
132.642616766971
 20
281.2545604878033
 30
0.0
 10
131.077567827362
 20
282.8260235624105
 30
0.0
 10
129.146913192845
 20
282.8260235624105
 30
0.0
 10
127.209844423329
 20
282.8260235624105
 30
0.0
 10
125.64479548372
 20
281.2545604878033
 30
0.0
 10
125.64479548372
 20
279.3239058532861
 30
0.0
 10
125.64479548372
 20
277.3932512187688
 30
0.0
 10
127.209844423329
 20
275.8217881441617
 30
0.0
 10
129.146913192845
 20
275.8217881441617
 30
0.0
 10
131.077567827362
 20
275.8217881441617
 30
0.0
 10
132.642616766971
 20
277.3932512187688
 30
0.0
 10
132.642616766971
 20
279.3239058532861
 30
0.0
  0
SPLINE
  5
110
330
82
100
AcDbEntity
  8
Standardebene
 62
     7
370
    35
100
AcDbSpline
210
0.0
220
0.0
230
1.0
 70
    11
 71
     3
 72
    17
 73
    13
 74
     0
 42
0.0000000001
 43
0.0000000001
 40
0.0
 40
0.0
 40
0.0
 40
0.0
 40
1.0
 40
1.0
 40
1.0
 40
2.0
 40
2.0
 40
2.0
 40
3.0
 40
3.0
 40
3.0
 40
4.0
 40
4.0
 40
4.0
 40
4.0
 10
132.1487283720946
 20
279.3239058532861
 30
0.0
 10
132.1487283720946
 20
280.9787526828726
 30
0.0
 10
130.8017600224308
 20
282.3257210325356
 30
0.0
 10
129.146913192845
 20
282.3257210325356
 30
0.0
 10
127.4856522282602
 20
282.3257210325356
 30
0.0
 10
126.1450980135949
 20
280.9787526828726
 30
0.0
 10
126.1450980135949
 20
279.3239058532861
 30
0.0
 10
126.1450980135949
 20
277.6690590236997
 30
0.0
 10
127.4856522282602
 20
276.3220906740366
 30
0.0
 10
129.146913192845
 20
276.3220906740366
 30
0.0
 10
130.8017600224308
 20
276.3220906740366
 30
0.0
 10
132.1487283720946
 20
277.6690590236997
 30
0.0
 10
132.1487283720946
 20
279.3239058532861
 30
0.0
  0
LWPOLYLINE
  5
111
330
82
100
AcDbEntity
  8
Standardebene
 62
     7
370
    35
100
AcDbPolyline
 90
        7
 70
     0
 43
0.0
 10
129.146913192845
 20
289.1375324008325
 10
130.1924171975832
 20
288.5346037109834
 10
131.250749472319
 20
287.9252608861358
 10
131.7831226771854
 20
287.6173824062128
 10
132.3154958820524
 20
287.3095039262898
 10
132.8542832219179
 20
286.9952113113684
 10
133.3930705617834
 20
286.6873328314454
  0
SPLINE
  5
112
330
82
100
AcDbEntity
  8
Standardebene
 62
     7
370
    35
100
AcDbSpline
210
0.0
220
0.0
230
1.0
 70
     8
 71
     3
 72
    11
 73
     7
 74
     0
 42
0.0000000001
 43
0.0000000001
 40
0.0
 40
0.0
 40
0.0
 40
0.0
 40
1.0
 40
1.0
 40
1.0
 40
2.0
 40
2.0
 40
2.0
 40
2.0
 10
133.3930705617834
 20
286.6873328314454
 30
0.0
 10
132.0525163471181
 20
287.4634431662512
 30
0.0
 10
130.5965077024823
 20
287.8290488611597
 30
0.0
 10
129.146913192845
 20
287.8226347261613
 30
0.0
 10
127.6652480082149
 20
287.8162205911632
 30
0.0
 10
126.1964110935823
 20
287.4313724912594
 30
0.0
 10
124.8943416889076
 20
286.6873328314454
 30
0.0
  0
LWPOLYLINE
  5
113
330
82
100
AcDbEntity
  8
Standardebene
 62
     7
370
    35
100
AcDbPolyline
 90
       11
 70
     0
 43
0.0
 10
124.8943416889076
 20
286.6873328314454
 10
125.029038523874
 20
286.7643024514259
 10
125.1637353588403
 20
286.8412720714068
 10
125.3048463288051
 20
286.9182416913876
 10
125.4395431637715
 20
286.9952113113684
 10
125.7089368337043
 20
287.1555646863281
 10
125.978330503637
 20
287.3095039262898
 10
126.5107037085041
 20
287.6173824062128
 10
127.0430769133705
 20
287.9252608861358
 10
128.1014091881062
 20
288.5346037109834
 10
129.146913192845
 20
289.1375324008325
  0
LWPOLYLINE
  5
114
330
82
100
AcDbEntity
  8
Standardebene
 62
     7
370
    35
100
AcDbPolyline
 90
       15
 70
     0
 43
0.0
 10
137.6456420657202
 20
284.2307191270595
 10
137.6456420657202
 20
283.6342045722084
 10
137.6456420657202
 20
283.0312758823593
 10
137.6456420657202
 20
282.4283471925101
 10
137.6456420657202
 20
281.8125902326638
 10
137.6456420657202
 20
281.5047117527408
 10
137.6456420657202
 20
281.1968332728179
 10
137.6456420657202
 20
281.0428940328565
 10
137.6456420657202
 20
280.8889547928948
 10
137.6456420657202
 20
280.8055710379156
 10
137.6456420657202
 20
280.728601417935
 10
137.6456420657202
 20
280.6516317979543
 10
137.6456420657202
 20
280.5746621779734
 10
137.6456420657202
 20
279.9460769481306
 10
137.6456420657202
 20
279.3239058532861
  0
SPLINE
  5
115
330
82
100
AcDbEntity
  8
Standardebene
 62
     7
370
    35
100
AcDbSpline
210
0.0
220
0.0
230
1.0
 70
     8
 71
     3
 72
     8
 73
     4
 74
     0
 42
0.0000000001
 43
0.0000000001
 40
0.0
 40
0.0
 40
0.0
 40
0.0
 40
1.0
 40
1.0
 40
1.0
 40
1.0
 10
137.6456420657202
 20
279.3239058532861
 30
0.0
 10
137.6456420657202
 20
282.4540037325036
 30
0.0
 10
135.9523104261432
 20
285.1864252418206
 30
0.0
 10
133.3930705617834
 20
286.6873328314454
 30
0.0
  0
LWPOLYLINE
  5
116
330
82
100
AcDbEntity
  8
Standardebene
 62
     7
370
    35
100
AcDbPolyline
 90
       11
 70
     0
 43
0.0
 10
133.3930705617834
 20
286.6873328314454
 10
133.5341815317482
 20
286.6103632114646
 10
133.668878366714
 20
286.5269794564853
 10
133.8035752016803
 20
286.4500098365045
 10
133.9382720366467
 20
286.373040216524
 10
134.2076657065794
 20
286.2191009765623
 10
134.4770593765122
 20
286.0587476016025
 10
135.0094325813793
 20
285.7508691216795
 10
135.5418057862463
 20
285.4429906417562
 10
136.6001380609814
 20
284.8336478169086
 10
137.6456420657202
 20
284.2307191270595
  0
SPLINE
  5
117
330
82
100
AcDbEntity
  8
Standardebene
 62
     7
370
    35
100
AcDbSpline
210
0.0
220
0.0
230
1.0
 70
     8
 71
     3
 72
     8
 73
     4
 74
     0
 42
0.0000000001
 43
0.0000000001
 40
0.0
 40
0.0
 40
0.0
 40
0.0
 40
1.0
 40
1.0
 40
1.0
 40
1.0
 10
133.5534239367429
 20
272.0566909001029
 30
0.0
 10
136.0100376411291
 20
273.5447702197308
 30
0.0
 10
137.6456420657202
 20
276.2451210540557
 30
0.0
 10
137.6456420657202
 20
279.3239058532861
 30
0.0
  0
SPLINE
  5
118
330
82
100
AcDbEntity
  8
Standardebene
 62
     7
370
    35
100
AcDbSpline
210
0.0
220
0.0
230
1.0
 70
     8
 71
     3
 72
    11
 73
     7
 74
     0
 42
0.0000000001
 43
0.0000000001
 40
0.0
 40
0.0
 40
0.0
 40
0.0
 40
1.0
 40
1.0
 40
1.0
 40
2.0
 40
2.0
 40
2.0
 40
2.0
 10
125.0931798738583
 20
271.8514385801541
 30
0.0
 10
126.2990372535565
 20
271.1971968103179
 30
0.0
 10
127.6780762782118
 20
270.8251769804109
 30
0.0
 10
129.146913192845
 20
270.8251769804109
 30
0.0
 10
130.6157501074777
 20
270.8251769804109
 30
0.0
 10
131.9947891321329
 20
271.1971968103179
 30
0.0
 10
133.2006465118312
 20
271.8514385801541
 30
0.0
  0
SPLINE
  5
119
330
82
100
AcDbEntity
  8
Standardebene
 62
     7
370
    35
100
AcDbSpline
210
0.0
220
0.0
230
1.0
 70
     8
 71
     3
 72
    11
 73
     7
 74
     0
 42
0.0000000001
 43
0.0000000001
 40
0.0
 40
0.0
 40
0.0
 40
0.0
 40
1.0
 40
1.0
 40
1.0
 40
2.0
 40
2.0
 40
2.0
 40
2.0
 10
124.8943416889076
 20
286.6873328314454
 30
0.0
 10
122.1875767195846
 20
285.1222838918367
 30
0.0
 10
120.6610125899661
 20
282.2872362225453
 30
0.0
 10
120.6417701849708
 20
279.3239058532861
 30
0.0
 10
120.6417701849708
 20
276.2900199990444
 30
0.0
 10
122.2324756645736
 20
273.6281539747101
 30
0.0
 10
124.6249480189755
 20
272.1208322500869
 30
0.0
  0
LWPOLYLINE
  5
11A
330
82
100
AcDbEntity
  8
Standardebene
 62
     7
370
    35
100
AcDbPolyline
 90
       39
 70
     0
 43
0.0
 10
124.8943416889076
 20
271.9604788751271
 10
124.7596448539419
 20
272.043862630106
 10
124.6249480189755
 20
272.1208322500869
 10
124.4902511840091
 20
272.1978018700677
 10
124.3555543490427
 20
272.2747714900482
 10
124.08616067911
 20
272.4351248650084
 10
123.8167670091772
 20
272.5890641049697
 10
123.2779796693117
 20
272.896942584893
 10
122.7456064644453
 20
273.204821064816
 10
121.6872741897096
 20
273.8141638896636
 10
120.6417701849708
 20
274.4170925795127
 10
120.6417701849708
 20
275.0200212693622
 10
120.6417701849708
 20
275.6293640942097
 10
120.6417701849708
 20
276.2387069190573
 10
120.6417701849708
 20
276.8544638789034
 10
120.6417701849708
 20
277.4702208387497
 10
120.6417701849708
 20
278.0859777985956
 10
120.6417701849708
 20
278.7017347584416
 10
120.6417701849708
 20
279.3239058532861
 10
120.6417701849708
 20
279.9460769481306
 10
120.6417701849708
 20
280.5746621779734
 10
120.6417701849708
 20
280.6516317979543
 10
120.6417701849708
 20
280.728601417935
 10
120.6417701849708
 20
280.8055710379156
 10
120.6417701849708
 20
280.8889547928948
 10
120.6417701849708
 20
281.0428940328565
 10
120.6417701849708
 20
281.1968332728179
 10
120.6417701849708
 20
281.5047117527408
 10
120.6417701849708
 20
281.8125902326638
 10
120.6417701849708
 20
282.4283471925101
 10
120.6417701849708
 20
283.0312758823593
 10
120.6417701849708
 20
283.6342045722084
 10
120.6417701849708
 20
284.2307191270595
 10
121.6936883247081
 20
284.8336478169086
 10
122.7456064644453
 20
285.4494047767547
 10
123.2779796693117
 20
285.7508691216795
 10
123.8167670091772
 20
286.0651617366007
 10
124.3555543490427
 20
286.373040216524
 10
124.8943416889076
 20
286.6873328314454
  0
LWPOLYLINE
  5
11B
330
82
100
AcDbEntity
  8
Standardebene
 62
     7
370
    35
100
AcDbPolyline
 90
        8
 70
     0
 43
0.0
 10
137.6456420657202
 20
274.4170925795127
 10
136.6001380609814
 20
273.8141638896636
 10
135.5418057862463
 20
273.204821064816
 10
135.0094325813793
 20
272.896942584893
 10
134.4770593765122
 20
272.5890641049697
 10
133.9382720366467
 20
272.2747714900482
 10
133.5534239367429
 20
272.0566909001029
 10
133.3930705617834
 20
271.9604788751271
  0
LWPOLYLINE
  5
11C
330
82
100
AcDbEntity
  8
Standardebene
 62
     7
370
    35
100
AcDbPolyline
 90
        9
 70
     0
 43
0.0
 10
137.6456420657202
 20
279.3239058532861
 10
137.6456420657202
 20
278.7017347584416
 10
137.6456420657202
 20
278.0859777985956
 10
137.6456420657202
 20
277.4702208387497
 10
137.6456420657202
 20
276.8544638789034
 10
137.6456420657202
 20
276.2387069190573
 10
137.6456420657202
 20
275.6293640942097
 10
137.6456420657202
 20
275.0200212693622
 10
137.6456420657202
 20
274.4170925795127
  0
LWPOLYLINE
  5
11D
330
82
100
AcDbEntity
  8
Standardebene
 62
     7
370
    35
100
AcDbPolyline
 90
        8
 70
     0
 43
0.0
 10
129.146913192845
 20
269.5102793057396
 10
128.1014091881062
 20
270.1132079955888
 10
127.0430769133705
 20
270.7225508204364
 10
126.5107037085041
 20
271.0304293003594
 10
125.978330503637
 20
271.3383077802824
 10
125.4395431637715
 20
271.6526003952038
 10
125.0931798738583
 20
271.8514385801541
 10
124.8943416889076
 20
271.9604788751271
  0
LWPOLYLINE
  5
11E
330
82
100
AcDbEntity
  8
Standardebene
 62
     7
370
    35
100
AcDbPolyline
 90
       12
 70
     0
 43
0.0
 10
133.3930705617834
 20
271.9604788751271
 10
133.2583737268171
 20
271.8835092551463
 10
133.2006465118312
 20
271.8514385801541
 10
133.1236768918507
 20
271.8065396351654
 10
132.9889800568843
 20
271.7295700151847
 10
132.8542832219179
 20
271.6526003952038
 10
132.5848895519852
 20
271.4922470202441
 10
132.3154958820524
 20
271.3383077802824
 10
131.7767085421876
 20
271.0304293003594
 10
131.2443353373205
 20
270.7225508204364
 10
130.1924171975832
 20
270.1132079955888
 10
129.146913192845
 20
269.5102793057396
  0
LINE
  5
11F
330
82
100
AcDbEntity
  8
Standardebene
 62
     7
370
    35
100
AcDbLine
 10
111.1424362523458
 20
291.324752435286
 30
0.0
 11
111.1424362523458
 21
267.3230592712862
 31
0.0
  0
LINE
  5
120
330
82
100
AcDbEntity
  8
Standardebene
 62
     7
370
    35
100
AcDbLine
 10
147.1449759983453
 20
267.3230592712862
 30
0.0
 11
147.1449759983453
 21
291.324752435286
 31
0.0
  0
LWPOLYLINE
  5
121
330
82
100
AcDbEntity
  8
Standardebene
 62
     7
370
    35
100
AcDbPolyline
 90
        3
 70
     0
 43
0.0
 10
119.9939425501333
 20
267.3230592712862
 10
119.9939425501333
 20
274.4170925795127
 10
119.9939425501333
 20
291.324752435286
  0
LWPOLYLINE
  5
122
330
82
100
AcDbEntity
  8
Standardebene
 62
     7
370
    35
100
AcDbPolyline
 90
       11
 70
     0
 43
0.0
 10
138.2998838355568
 20
267.3230592712862
 10
140.0188720151269
 20
267.3230592712862
 10
141.5967492247321
 20
267.3230592712862
 10
142.3921019645335
 20
267.3230592712862
 10
143.0078589243795
 20
267.3230592712862
 10
144.2393728440715
 20
267.3230592712862
 10
145.2656344438151
 20
267.3230592712862
 10
146.0802295886111
 20
267.3230592712862
 10
146.670330008464
 20
267.3230592712862
 10
147.0231074333757
 20
267.3230592712862
 10
147.1449759983453
 20
267.3230592712862
  0
LWPOLYLINE
  5
123
330
82
100
AcDbEntity
  8
Standardebene
 62
     7
370
    35
100
AcDbPolyline
 90
       11
 70
     0
 43
0.0
 10
111.1424362523458
 20
267.3230592712862
 10
111.2643048173153
 20
267.3230592712862
 10
111.6234963772254
 20
267.3230592712862
 10
112.2135967970783
 20
267.3230592712862
 10
113.0217778068759
 20
267.3230592712862
 10
114.0544535416179
 20
267.3230592712862
 10
115.2795533263115
 20
267.3230592712862
 10
115.8953102861575
 20
267.3230592712862
 10
116.6906630259589
 20
267.3230592712862
 10
118.2749543705626
 20
267.3230592712862
 10
119.9939425501333
 20
267.3230592712862
  0
LWPOLYLINE
  5
124
330
82
100
AcDbEntity
  8
Standardebene
 62
     7
370
    35
100
AcDbPolyline
 90
        3
 70
     0
 43
0.0
 10
138.2998838355568
 20
291.324752435286
 10
138.2998838355568
 20
274.4170925795127
 10
138.2998838355568
 20
267.3230592712862
  0
LWPOLYLINE
  5
125
330
82
100
AcDbEntity
  8
Standardebene
 62
     7
370
    35
100
AcDbPolyline
 90
       11
 70
     0
 43
0.0
 10
119.9939425501333
 20
291.324752435286
 10
118.6469742004695
 20
291.324752435286
 10
118.2749543705626
 20
291.324752435286
 10
116.6906630259589
 20
291.324752435286
 10
115.2795533263115
 20
291.324752435286
 10
114.0544535416179
 20
291.324752435286
 10
113.0217778068759
 20
291.324752435286
 10
112.2135967970783
 20
291.324752435286
 10
111.6234963772254
 20
291.324752435286
 10
111.2643048173153
 20
291.324752435286
 10
111.1424362523458
 20
291.324752435286
  0
LWPOLYLINE
  5
126
330
82
100
AcDbEntity
  8
Standardebene
 62
     7
370
    35
100
AcDbPolyline
 90
       11
 70
     0
 43
0.0
 10
147.1449759983453
 20
291.324752435286
 10
147.0231074333757
 20
291.324752435286
 10
146.670330008464
 20
291.324752435286
 10
146.0802295886111
 20
291.324752435286
 10
145.2656344438151
 20
291.324752435286
 10
144.2393728440715
 20
291.324752435286
 10
143.0078589243795
 20
291.324752435286
 10
141.5967492247321
 20
291.324752435286
 10
140.0188720151269
 20
291.324752435286
 10
139.6468521852199
 20
291.324752435286
 10
138.2998838355568
 20
291.324752435286
  0
LWPOLYLINE
  5
127
330
82
100
AcDbEntity
  8
Standardebene
 62
     7
370
    35
100
AcDbPolyline
 90
        3
 70
     0
 43
0.0
 10
138.2998838355568
 20
267.3230592712862
 10
129.146913192845
 20
267.3230592712862
 10
119.9939425501333
 20
267.3230592712862
  0
LWPOLYLINE
  5
128
330
82
100
AcDbEntity
  8
Standardebene
 62
     7
370
    35
100
AcDbPolyline
 90
        3
 70
     0
 43
0.0
 10
119.9939425501333
 20
291.324752435286
 10
129.146913192845
 20
291.324752435286
 10
138.2998838355568
 20
291.324752435286
  0
LINE
  5
129
330
82
100
AcDbEntity
  8
Standardebene
 62
     7
370
     9
100
AcDbLine
 10
42.86396919441532
 20
117.3220981987864
 30
0.0
 11
42.86396919441532
 21
117.8352289986582
 31
0.0
  0
LWPOLYLINE
  5
12A
330
82
100
AcDbEntity
  8
Standardebene
 62
     7
370
     9
100
AcDbPolyline
 90
        3
 70
     0
 43
0.0
 10
42.86396919441532
 20
118.8550764634033
 10
42.86396919441532
 20
119.4323486132587
 10
42.86396919441532
 20
119.8749239281484
  0
LINE
  5
12B
330
82
100
AcDbEntity
  8
Standardebene
 62
     7
370
     9
100
AcDbLine
 10
42.86396919441532
 20
120.8947713928929
 30
0.0
 11
42.86396919441532
 21
121.914618857638
 31
0.0
  0
LINE
  5
12C
330
82
100
AcDbEntity
  8
Standardebene
 62
     7
370
     9
100
AcDbLine
 10
42.86396919441532
 20
122.9344663223832
 30
0.0
 11
42.86396919441532
 21
123.9543137871283
 31
0.0
  0
LINE
  5
12D
330
82
100
AcDbEntity
  8
Standardebene
 62
     7
370
     9
100
AcDbLine
 10
42.86396919441532
 20
124.9741612518734
 30
0.0
 11
42.86396919441532
 21
125.9940087166185
 31
0.0
  0
LINE
  5
12E
330
82
100
AcDbEntity
  8
Standardebene
 62
     7
370
     9
100
AcDbLine
 10
42.86396919441532
 20
127.0138561813636
 30
0.0
 11
42.86396919441532
 21
128.0337036461088
 31
0.0
  0
LINE
  5
12F
330
82
100
AcDbEntity
  8
Standardebene
 62
     7
370
     9
100
AcDbLine
 10
42.86396919441532
 20
129.0535511108536
 30
0.0
 11
42.86396919441532
 21
130.0733985755987
 31
0.0
  0
LINE
  5
130
330
82
100
AcDbEntity
  8
Standardebene
 62
     7
370
     9
100
AcDbLine
 10
42.86396919441532
 20
131.0932460403438
 30
0.0
 11
42.86396919441532
 21
132.113093505089
 31
0.0
  0
LINE
  5
131
330
82
100
AcDbEntity
  8
Standardebene
 62
     7
370
     9
100
AcDbLine
 10
42.86396919441532
 20
133.1329409698338
 30
0.0
 11
42.86396919441532
 21
134.1527884345789
 31
0.0
  0
LINE
  5
132
330
82
100
AcDbEntity
  8
Standardebene
 62
     7
370
     9
100
AcDbLine
 10
42.86396919441532
 20
135.172635899324
 30
0.0
 11
42.86396919441532
 21
136.1924833640688
 31
0.0
  0
LINE
  5
133
330
82
100
AcDbEntity
  8
Standardebene
 62
     7
370
     9
100
AcDbLine
 10
42.86396919441532
 20
137.212330828814
 30
0.0
 11
42.86396919441532
 21
138.2321782935591
 31
0.0
  0
LINE
  5
134
330
82
100
AcDbEntity
  8
Standardebene
 62
     7
370
     9
100
AcDbLine
 10
42.86396919441532
 20
139.2520257583042
 30
0.0
 11
42.86396919441532
 21
140.271873223049
 31
0.0
  0
LINE
  5
135
330
82
100
AcDbEntity
  8
Standardebene
 62
     7
370
     9
100
AcDbLine
 10
42.86396919441532
 20
141.2917206877941
 30
0.0
 11
42.86396919441532
 21
142.3179822875377
 31
0.0
  0
LINE
  5
136
330
82
100
AcDbEntity
  8
Standardebene
 62
     7
370
     9
100
AcDbLine
 10
42.86396919441532
 20
143.3314156172844
 30
0.0
 11
42.86396919441532
 21
144.3576772170276
 31
0.0
  0
LINE
  5
137
330
82
100
AcDbEntity
  8
Standardebene
 62
     7
370
     9
100
AcDbLine
 10
42.86396919441532
 20
145.3711105467743
 30
0.0
 11
42.86396919441532
 21
146.3973721465179
 31
0.0
  0
LINE
  5
138
330
82
100
AcDbEntity
  8
Standardebene
 62
     7
370
     9
100
AcDbLine
 10
42.86396919441532
 20
147.4172196112627
 30
0.0
 11
42.86396919441532
 21
148.4370670760078
 31
0.0
  0
LINE
  5
139
330
82
100
AcDbEntity
  8
Standardebene
 62
     7
370
     9
100
AcDbLine
 10
42.86396919441532
 20
149.4569145407529
 30
0.0
 11
42.86396919441532
 21
150.476762005498
 31
0.0
  0
LINE
  5
13A
330
82
100
AcDbEntity
  8
Standardebene
 62
     7
370
     9
100
AcDbLine
 10
42.86396919441532
 20
151.4966094702428
 30
0.0
 11
42.86396919441532
 21
152.516456934988
 31
0.0
  0
LINE
  5
13B
330
82
100
AcDbEntity
  8
Standardebene
 62
     7
370
     9
100
AcDbLine
 10
42.86396919441532
 20
153.5363043997331
 30
0.0
 11
42.86396919441532
 21
154.5561518644779
 31
0.0
  0
LINE
  5
13C
330
82
100
AcDbEntity
  8
Standardebene
 62
     7
370
     9
100
AcDbLine
 10
42.86396919441532
 20
155.575999329223
 30
0.0
 11
42.86396919441532
 21
156.5958467939681
 31
0.0
  0
LINE
  5
13D
330
82
100
AcDbEntity
  8
Standardebene
 62
     7
370
     9
100
AcDbLine
 10
42.86396919441532
 20
157.6156942587133
 30
0.0
 11
42.86396919441532
 21
158.6355417234581
 31
0.0
  0
LINE
  5
13E
330
82
100
AcDbEntity
  8
Standardebene
 62
     7
370
     9
100
AcDbLine
 10
42.86396919441532
 20
159.6553891882032
 30
0.0
 11
42.86396919441532
 21
160.6752366529483
 31
0.0
  0
LINE
  5
13F
330
82
100
AcDbEntity
  8
Standardebene
 62
     7
370
     9
100
AcDbLine
 10
42.86396919441532
 20
161.6950841176934
 30
0.0
 11
42.86396919441532
 21
162.7149315824382
 31
0.0
  0
LINE
  5
140
330
82
100
AcDbEntity
  8
Standardebene
 62
     7
370
     9
100
AcDbLine
 10
42.86396919441532
 20
163.7347790471834
 30
0.0
 11
42.86396919441532
 21
164.7546265119285
 31
0.0
  0
LINE
  5
141
330
82
100
AcDbEntity
  8
Standardebene
 62
     7
370
     9
100
AcDbLine
 10
42.86396919441532
 20
165.7744739766736
 30
0.0
 11
42.86396919441532
 21
166.7943214414184
 31
0.0
  0
LWPOLYLINE
  5
142
330
82
100
AcDbEntity
  8
Standardebene
 62
     7
370
     9
100
AcDbPolyline
 90
        3
 70
     0
 43
0.0
 10
42.86396919441532
 20
167.8141689061635
 10
42.86396919441532
 20
168.30805730104
 10
42.86396919441532
 20
168.3272997060353
  0
LINE
  5
143
330
82
100
AcDbEntity
  8
Standardebene
 62
     7
370
     9
100
AcDbLine
 10
42.86396919441532
 20
168.30805730104
 30
0.0
 11
42.3636666645404
 21
168.30805730104
 31
0.0
  0
LINE
  5
144
330
82
100
AcDbEntity
  8
Standardebene
 62
     7
370
     9
100
AcDbLine
 10
41.36306160479057
 20
168.30805730104
 30
0.0
 11
40.36245654504074
 21
168.30805730104
 31
0.0
  0
LINE
  5
145
330
82
100
AcDbEntity
  8
Standardebene
 62
     7
370
     9
100
AcDbLine
 10
39.3618514852909
 20
168.30805730104
 30
0.0
 11
38.36124642554106
 21
168.30805730104
 31
0.0
  0
LINE
  5
146
330
82
100
AcDbEntity
  8
Standardebene
 62
     7
370
     9
100
AcDbLine
 10
37.36705550078966
 20
168.30805730104
 30
0.0
 11
36.36645044103982
 21
168.30805730104
 31
0.0
  0
LWPOLYLINE
  5
147
330
82
100
AcDbEntity
  8
Standardebene
 62
     7
370
     9
100
AcDbPolyline
 90
        3
 70
     0
 43
0.0
 10
35.36584538128998
 20
168.30805730104
 10
34.86554285141506
 20
168.30805730104
 10
34.36524032154014
 20
168.30805730104
  0
LINE
  5
148
330
82
100
AcDbEntity
  8
Standardebene
 62
     7
370
     9
100
AcDbLine
 10
33.36463526179031
 20
168.30805730104
 30
0.0
 11
32.36403020204047
 21
168.30805730104
 31
0.0
  0
LINE
  5
149
330
82
100
AcDbEntity
  8
Standardebene
 62
     7
370
     9
100
AcDbLine
 10
31.36342514229063
 20
168.30805730104
 30
0.0
 11
30.36282008254048
 21
168.30805730104
 31
0.0
  0
LINE
  5
14A
330
82
100
AcDbEntity
  8
Standardebene
 62
     7
370
     9
100
AcDbLine
 10
29.36221502279064
 20
168.30805730104
 30
0.0
 11
28.3616099630408
 21
168.30805730104
 31
0.0
  0
LWPOLYLINE
  5
14B
330
82
100
AcDbEntity
  8
Standardebene
 62
     7
370
     9
100
AcDbPolyline
 90
        3
 70
     0
 43
0.0
 10
27.3674190382894
 20
168.30805730104
 10
26.86711650841448
 20
168.30805730104
 10
26.86711650841448
 20
167.7949265011682
  0
LINE
  5
14C
330
82
100
AcDbEntity
  8
Standardebene
 62
     7
370
     9
100
AcDbLine
 10
26.86711650841448
 20
166.7750790364235
 30
0.0
 11
26.86711650841448
 21
165.7552315716783
 31
0.0
  0
LINE
  5
14D
330
82
100
AcDbEntity
  8
Standardebene
 62
     7
370
     9
100
AcDbLine
 10
26.86711650841448
 20
164.7353841069332
 30
0.0
 11
26.86711650841448
 21
163.7155366421881
 31
0.0
  0
LINE
  5
14E
330
82
100
AcDbEntity
  8
Standardebene
 62
     7
370
     9
100
AcDbLine
 10
26.86711650841448
 20
162.6956891774432
 30
0.0
 11
26.86711650841448
 21
161.6758417126981
 31
0.0
  0
LINE
  5
14F
330
82
100
AcDbEntity
  8
Standardebene
 62
     7
370
     9
100
AcDbLine
 10
26.86711650841448
 20
160.655994247953
 30
0.0
 11
26.86711650841448
 21
159.6361467832079
 31
0.0
  0
LINE
  5
150
330
82
100
AcDbEntity
  8
Standardebene
 62
     7
370
     9
100
AcDbLine
 10
26.86711650841448
 20
158.6227134534615
 30
0.0
 11
26.86711650841448
 21
157.596451853718
 31
0.0
  0
LINE
  5
151
330
82
100
AcDbEntity
  8
Standardebene
 62
     7
370
     9
100
AcDbLine
 10
26.86711650841448
 20
156.5830185239713
 30
0.0
 11
26.86711650841448
 21
155.5631710592261
 31
0.0
  0
LINE
  5
152
330
82
100
AcDbEntity
  8
Standardebene
 62
     7
370
     9
100
AcDbLine
 10
26.86711650841448
 20
154.5433235944813
 30
0.0
 11
26.86711650841448
 21
153.5234761297362
 31
0.0
  0
LINE
  5
153
330
82
100
AcDbEntity
  8
Standardebene
 62
     7
370
     9
100
AcDbLine
 10
26.86711650841448
 20
152.5036286649911
 30
0.0
 11
26.86711650841448
 21
151.483781200246
 31
0.0
  0
LINE
  5
154
330
82
100
AcDbEntity
  8
Standardebene
 62
     7
370
     9
100
AcDbLine
 10
26.86711650841448
 20
150.4639337355012
 30
0.0
 11
26.86711650841448
 21
149.444086270756
 31
0.0
  0
LINE
  5
155
330
82
100
AcDbEntity
  8
Standardebene
 62
     7
370
     9
100
AcDbLine
 10
26.86711650841448
 20
148.4242388060109
 30
0.0
 11
26.86711650841448
 21
147.4043913412661
 31
0.0
  0
LINE
  5
156
330
82
100
AcDbEntity
  8
Standardebene
 62
     7
370
     9
100
AcDbLine
 10
26.86711650841448
 20
146.384543876521
 30
0.0
 11
26.86711650841448
 21
145.3646964117759
 31
0.0
  0
LINE
  5
157
330
82
100
AcDbEntity
  8
Standardebene
 62
     7
370
     9
100
AcDbLine
 10
26.86711650841448
 20
144.3448489470307
 30
0.0
 11
26.86711650841448
 21
143.3250014822859
 31
0.0
  0
LINE
  5
158
330
82
100
AcDbEntity
  8
Standardebene
 62
     7
370
     9
100
AcDbLine
 10
26.86711650841448
 20
142.3051540175408
 30
0.0
 11
26.86711650841448
 21
141.2853065527957
 31
0.0
  0
LINE
  5
159
330
82
100
AcDbEntity
  8
Standardebene
 62
     7
370
     9
100
AcDbLine
 10
26.86711650841448
 20
140.2654590880506
 30
0.0
 11
26.86711650841448
 21
139.2456116233058
 31
0.0
  0
LINE
  5
15A
330
82
100
AcDbEntity
  8
Standardebene
 62
     7
370
     9
100
AcDbLine
 10
26.86711650841448
 20
138.2257641585606
 30
0.0
 11
26.86711650841448
 21
137.2059166938155
 31
0.0
  0
LINE
  5
15B
330
82
100
AcDbEntity
  8
Standardebene
 62
     7
370
     9
100
AcDbLine
 10
26.86711650841448
 20
136.1860692290707
 30
0.0
 11
26.86711650841448
 21
135.1662217643256
 31
0.0
  0
LINE
  5
15C
330
82
100
AcDbEntity
  8
Standardebene
 62
     7
370
     9
100
AcDbLine
 10
26.86711650841448
 20
134.1463742995805
 30
0.0
 11
26.86711650841448
 21
133.1265268348353
 31
0.0
  0
LINE
  5
15D
330
82
100
AcDbEntity
  8
Standardebene
 62
     7
370
     9
100
AcDbLine
 10
26.86711650841448
 20
132.1066793700905
 30
0.0
 11
26.86711650841448
 21
131.0868319053454
 31
0.0
  0
LINE
  5
15E
330
82
100
AcDbEntity
  8
Standardebene
 62
     7
370
     9
100
AcDbLine
 10
26.86711650841448
 20
130.0669844406003
 30
0.0
 11
26.86711650841448
 21
129.0471369758552
 31
0.0
  0
LINE
  5
15F
330
82
100
AcDbEntity
  8
Standardebene
 62
     7
370
     9
100
AcDbLine
 10
26.86711650841448
 20
128.0337036461088
 30
0.0
 11
26.86711650841448
 21
127.0138561813636
 31
0.0
  0
LINE
  5
160
330
82
100
AcDbEntity
  8
Standardebene
 62
     7
370
     9
100
AcDbLine
 10
26.86711650841448
 20
125.9940087166185
 30
0.0
 11
26.86711650841448
 21
124.9741612518734
 31
0.0
  0
LINE
  5
161
330
82
100
AcDbEntity
  8
Standardebene
 62
     7
370
     9
100
AcDbLine
 10
26.86711650841448
 20
123.9543137871283
 30
0.0
 11
26.86711650841448
 21
122.9344663223832
 31
0.0
  0
LINE
  5
162
330
82
100
AcDbEntity
  8
Standardebene
 62
     7
370
     9
100
AcDbLine
 10
26.86711650841448
 20
121.914618857638
 30
0.0
 11
26.86711650841448
 21
120.8947713928929
 31
0.0
  0
LWPOLYLINE
  5
163
330
82
100
AcDbEntity
  8
Standardebene
 62
     7
370
     9
100
AcDbPolyline
 90
        3
 70
     0
 43
0.0
 10
26.86711650841448
 20
119.8749239281484
 10
26.86711650841448
 20
119.4323486132587
 10
26.86711650841448
 20
118.8550764634033
  0
LINE
  5
164
330
82
100
AcDbEntity
  8
Standardebene
 62
     7
370
     9
100
AcDbLine
 10
26.86711650841448
 20
117.8352289986582
 30
0.0
 11
26.86711650841448
 21
117.3220981987864
 31
0.0
  0
LINE
  5
165
330
82
100
AcDbEntity
  8
Standardebene
 62
     7
370
     9
100
AcDbLine
 10
20.90197095990571
 20
143.8317181471593
 30
0.0
 11
20.86348614991546
 21
143.7611626621769
 31
0.0
  0
LINE
  5
166
330
82
100
AcDbEntity
  8
Standardebene
 62
     7
370
     9
100
AcDbLine
 10
20.86348614991546
 20
139.8870251231452
 30
0.0
 11
20.90197095990571
 21
139.8164696381631
 31
0.0
  0
LINE
  5
167
330
82
100
AcDbEntity
  8
Standardebene
 62
     7
370
     9
100
AcDbLine
 10
20.90197095990571
 20
125.8336553416584
 30
0.0
 11
20.86348614991546
 21
125.7630998566764
 31
0.0
  0
LINE
  5
168
330
82
100
AcDbEntity
  8
Standardebene
 62
     7
370
     9
100
AcDbLine
 10
20.86348614991546
 20
121.888962317645
 30
0.0
 11
21.02383952487523
 21
121.6067403777154
 31
0.0
  0
LWPOLYLINE
  5
169
330
82
100
AcDbEntity
  8
Standardebene
 62
     7
370
     9
100
AcDbPolyline
 90
        5
 70
     0
 43
0.0
 10
23.99358402913291
 20
119.4323486132587
 10
26.86711650841448
 20
119.4323486132587
 10
34.86554285141506
 20
119.4323486132587
 10
42.86396919441532
 20
119.4323486132587
 10
45.73750167369689
 20
119.4323486132587
  0
SPLINE
  5
16A
330
82
100
AcDbEntity
  8
Standardebene
 62
     7
370
     9
100
AcDbSpline
210
0.0
220
0.0
230
1.0
 70
    11
 71
     3
 72
    17
 73
    13
 74
     0
 42
0.0000000001
 43
0.0000000001
 40
0.0
 40
0.0
 40
0.0
 40
0.0
 40
1.0
 40
1.0
 40
1.0
 40
2.0
 40
2.0
 40
2.0
 40
3.0
 40
3.0
 40
3.0
 40
4.0
 40
4.0
 40
4.0
 40
4.0
 10
55.87183497116352
 20
201.3216101377865
 30
0.0
 10
55.87183497116352
 20
202.4312554925093
 30
0.0
 10
54.97385607138792
 20
203.3356485272831
 30
0.0
 10
53.86421071666542
 20
203.3356485272831
 30
0.0
 10
52.7545653619426
 20
203.3356485272831
 30
0.0
 10
51.85658646216732
 20
202.4312554925093
 30
0.0
 10
51.85658646216732
 20
201.3216101377865
 30
0.0
 10
51.85658646216732
 20
200.2119647830641
 30
0.0
 10
52.7545653619426
 20
199.3139858832885
 30
0.0
 10
53.86421071666542
 20
199.3139858832885
 30
0.0
 10
54.97385607138792
 20
199.3139858832885
 30
0.0
 10
55.87183497116352
 20
200.2119647830641
 30
0.0
 10
55.87183497116352
 20
201.3216101377865
 30
0.0
  0
LWPOLYLINE
  5
16B
330
82
100
AcDbEntity
  8
Standardebene
 62
     7
370
     9
100
AcDbPolyline
 90
        5
 70
     0
 43
0.0
 10
20.86348614991546
 20
123.8260310871603
 10
20.86348614991546
 20
124.5636566119759
 10
20.86348614991546
 20
125.1922418418187
 10
20.86348614991546
 20
125.6155747517131
 10
20.86348614991546
 20
125.7630998566764
  0
LWPOLYLINE
  5
16C
330
82
100
AcDbEntity
  8
Standardebene
 62
     7
370
     9
100
AcDbPolyline
 90
        5
 70
     0
 43
0.0
 10
20.86348614991546
 20
121.888962317645
 10
20.86348614991546
 20
122.0364874226075
 10
20.86348614991546
 20
122.4534061975035
 10
20.86348614991546
 20
123.0819914273464
 10
20.86348614991546
 20
123.8260310871603
  0
LWPOLYLINE
  5
16D
330
82
100
AcDbEntity
  8
Standardebene
 62
     7
370
     9
100
AcDbPolyline
 90
        5
 70
     0
 43
0.0
 10
20.86348614991546
 20
141.8240938926612
 10
20.86348614991546
 20
142.5681335524751
 10
20.86348614991546
 20
143.196718782318
 10
20.86348614991546
 20
143.6136375572137
 10
20.86348614991546
 20
143.7611626621769
  0
LWPOLYLINE
  5
16E
330
82
100
AcDbEntity
  8
Standardebene
 62
     7
370
     9
100
AcDbPolyline
 90
        5
 70
     0
 43
0.0
 10
20.86348614991546
 20
139.8870251231452
 10
20.86348614991546
 20
140.0345502281084
 10
20.86348614991546
 20
140.451469003004
 10
20.86348614991546
 20
141.0864683678453
 10
20.86348614991546
 20
141.8240938926612
  0
LWPOLYLINE
  5
16F
330
82
100
AcDbEntity
  8
Standardebene
 62
     7
370
     9
100
AcDbPolyline
 90
        3
 70
     0
 43
0.0
 10
118.2749543705626
 20
119.4323486132587
 10
129.146913192845
 20
119.4323486132587
 10
140.0188720151269
 20
119.4323486132587
  0
LWPOLYLINE
  5
170
330
82
100
AcDbEntity
  8
Standardebene
 62
     7
370
     9
100
AcDbPolyline
 90
        5
 70
     0
 43
0.0
 10
129.1340849228482
 20
143.5494962072297
 10
128.4349442080226
 20
143.1454057023309
 10
127.6331773332234
 20
142.6835879824462
 10
127.6331773332234
 20
140.9517715328793
 10
129.1340849228482
 20
140.0858633080955
  0
LWPOLYLINE
  5
171
330
82
100
AcDbEntity
  8
Standardebene
 62
     7
370
     9
100
AcDbPolyline
 90
        4
 70
     0
 43
0.0
 10
130.6349925124729
 20
140.9517715328793
 10
129.9294376626489
 20
140.5476810279802
 10
129.146913192845
 20
140.0922774430939
 10
129.1340849228482
 20
140.0858633080955
  0
LINE
  5
172
330
82
100
AcDbEntity
  8
Standardebene
 62
     7
370
     9
100
AcDbLine
 10
130.6349925124729
 20
141.6509122477043
 30
0.0
 11
130.6349925124729
 21
140.9517715328793
 31
0.0
  0
SPLINE
  5
173
330
82
100
AcDbEntity
  8
Standardebene
 62
     7
370
     9
100
AcDbSpline
210
0.0
220
0.0
230
1.0
 70
     8
 71
     3
 72
     8
 73
     4
 74
     0
 42
0.0000000001
 43
0.0000000001
 40
0.0
 40
0.0
 40
0.0
 40
0.0
 40
1.0
 40
1.0
 40
1.0
 40
1.0
 10
130.6478207824698
 20
141.8240938926612
 30
0.0
 10
130.6478207824698
 20
141.8882352426451
 30
0.0
 10
130.6414066474713
 20
141.9459624576307
 30
0.0
 10
130.6349925124729
 20
142.0036896726163
 30
0.0
  0
SPLINE
  5
174
330
82
100
AcDbEntity
  8
Standardebene
 62
     7
370
     9
100
AcDbSpline
210
0.0
220
0.0
230
1.0
 70
     8
 71
     3
 72
     8
 73
     4
 74
     0
 42
0.0000000001
 43
0.0000000001
 40
0.0
 40
0.0
 40
0.0
 40
0.0
 40
1.0
 40
1.0
 40
1.0
 40
1.0
 10
130.6349925124729
 20
141.6509122477043
 30
0.0
 10
130.6414066474713
 20
141.7086394626898
 30
0.0
 10
130.6478207824698
 20
141.7727808126737
 30
0.0
 10
130.6478207824698
 20
141.8240938926612
 30
0.0
  0
LINE
  5
175
330
82
100
AcDbEntity
  8
Standardebene
 62
     7
370
     9
100
AcDbLine
 10
130.6349925124729
 20
142.6835879824462
 30
0.0
 11
130.6349925124729
 21
142.0036896726163
 31
0.0
  0
SPLINE
  5
176
330
82
100
AcDbEntity
  8
Standardebene
 62
     7
370
     9
100
AcDbSpline
210
0.0
220
0.0
230
1.0
 70
     8
 71
     3
 72
     8
 73
     4
 74
     0
 42
0.0000000001
 43
0.0000000001
 40
0.0
 40
0.0
 40
0.0
 40
0.0
 40
1.0
 40
1.0
 40
1.0
 40
1.0
 10
130.04489209262
 20
143.023537137361
 30
0.0
 10
129.9422659326458
 20
143.1005067573419
 30
0.0
 10
129.8396397726715
 20
143.1582339723274
 30
0.0
 10
129.7370136126973
 20
143.2031329173164
 30
0.0
  0
SPLINE
  5
177
330
82
100
AcDbEntity
  8
Standardebene
 62
     7
370
     9
100
AcDbSpline
210
0.0
220
0.0
230
1.0
 70
    11
 71
     3
 72
    17
 73
    13
 74
     0
 42
0.0000000001
 43
0.0000000001
 40
0.0
 40
0.0
 40
0.0
 40
0.0
 40
1.0
 40
1.0
 40
1.0
 40
2.0
 40
2.0
 40
2.0
 40
3.0
 40
3.0
 40
3.0
 40
4.0
 40
4.0
 40
4.0
 40
4.0
 10
131.0839819623604
 20
141.8240938926612
 30
0.0
 10
131.0839819623604
 20
142.8952544373931
 30
0.0
 10
130.218073737577
 20
143.7611626621769
 30
0.0
 10
129.146913192845
 20
143.7611626621769
 30
0.0
 10
128.0757526481125
 20
143.7611626621769
 30
0.0
 10
127.209844423329
 20
142.8952544373931
 30
0.0
 10
127.209844423329
 20
141.8240938926612
 30
0.0
 10
127.209844423329
 20
140.7529333479289
 30
0.0
 10
128.0757526481125
 20
139.8870251231452
 30
0.0
 10
129.146913192845
 20
139.8870251231452
 30
0.0
 10
130.218073737577
 20
139.8870251231452
 30
0.0
 10
131.0839819623604
 20
140.7529333479289
 30
0.0
 10
131.0839819623604
 20
141.8240938926612
 30
0.0
  0
LWPOLYLINE
  5
178
330
82
100
AcDbEntity
  8
Standardebene
 62
     7
370
     9
100
AcDbPolyline
 90
        3
 70
     0
 43
0.0
 10
129.1340849228482
 20
143.5494962072297
 10
129.146913192845
 20
143.5430820722312
 10
129.7370136126973
 20
143.2031329173164
  0
LINE
  5
179
330
82
100
AcDbEntity
  8
Standardebene
 62
     7
370
     9
100
AcDbLine
 10
130.04489209262
 20
143.023537137361
 30
0.0
 11
130.6349925124729
 21
142.6835879824462
 31
0.0
  0
SPLINE
  5
17A
330
82
100
AcDbEntity
  8
Standardebene
 62
     7
370
     9
100
AcDbSpline
210
0.0
220
0.0
230
1.0
 70
     8
 71
     3
 72
     8
 73
     4
 74
     0
 42
0.0000000001
 43
0.0000000001
 40
0.0
 40
0.0
 40
0.0
 40
0.0
 40
1.0
 40
1.0
 40
1.0
 40
1.0
 10
130.6349925124729
 20
142.0036896726163
 30
0.0
 10
130.5836794324855
 20
142.4270225825103
 30
0.0
 10
130.3591847075417
 20
142.7862141424204
 30
0.0
 10
130.04489209262
 20
143.023537137361
 30
0.0
  0
SPLINE
  5
17B
330
82
100
AcDbEntity
  8
Standardebene
 62
     7
370
     9
100
AcDbSpline
210
0.0
220
0.0
230
1.0
 70
     8
 71
     3
 72
    23
 73
    19
 74
     0
 42
0.0000000001
 43
0.0000000001
 40
0.0
 40
0.0
 40
0.0
 40
0.0
 40
1.0
 40
1.0
 40
1.0
 40
2.0
 40
2.0
 40
2.0
 40
3.0
 40
3.0
 40
3.0
 40
4.0
 40
4.0
 40
4.0
 40
5.0
 40
5.0
 40
5.0
 40
6.0
 40
6.0
 40
6.0
 40
6.0
 10
129.7370136126973
 20
143.2031329173164
 30
0.0
 10
129.5381754277466
 20
143.2865166722954
 30
0.0
 10
129.3329231077982
 20
143.3250014822859
 30
0.0
 10
129.146913192845
 20
143.3250014822859
 30
0.0
 10
128.8903477929091
 20
143.3250014822859
 30
0.0
 10
128.6466106629701
 20
143.260860132302
 30
0.0
 10
128.4349442080226
 20
143.1454057023309
 30
0.0
 10
127.9667123531398
 20
142.888840302395
 30
0.0
 10
127.6460056032196
 20
142.3949519075182
 30
0.0
 10
127.6460056032196
 20
141.8240938926612
 30
0.0
 10
127.6460056032196
 20
140.996670477868
 30
0.0
 10
128.3194897780515
 20
140.3231863030364
 30
0.0
 10
129.146913192845
 20
140.3231863030364
 30
0.0
 10
129.4355492677724
 20
140.3231863030364
 30
0.0
 10
129.7049429377052
 20
140.4065700580154
 30
0.0
 10
129.9294376626489
 20
140.5476810279802
 30
0.0
 10
130.3078716275543
 20
140.7785898879224
 30
0.0
 10
130.5772652974871
 20
141.1826803928215
 30
0.0
 10
130.6349925124729
 20
141.6509122477043
 30
0.0
  0
SPLINE
  5
17C
330
82
100
AcDbEntity
  8
Standardebene
 62
     7
370
     9
100
AcDbSpline
210
0.0
220
0.0
230
1.0
 70
     9
 71
     3
 72
    17
 73
    13
 74
     0
 42
0.0000000001
 43
0.0000000001
 40
0.0
 40
0.0
 40
0.0
 40
0.0
 40
1.0
 40
1.0
 40
1.0
 40
2.0
 40
2.0
 40
2.0
 40
3.0
 40
3.0
 40
3.0
 40
4.0
 40
4.0
 40
4.0
 40
4.0
 10
135.1441294163456
 20
279.3239058532861
 30
0.0
 10
135.1441294163456
 20
282.6400136474571
 30
0.0
 10
132.4566068520172
 20
285.3275362117851
 30
0.0
 10
129.146913192845
 20
285.3275362117851
 30
0.0
 10
125.8308053986738
 20
285.3275362117851
 30
0.0
 10
123.1432828343454
 20
282.6400136474571
 30
0.0
 10
123.1432828343454
 20
279.3239058532861
 30
0.0
 10
123.1432828343454
 20
276.0142121941136
 30
0.0
 10
125.8308053986738
 20
273.3266896297855
 30
0.0
 10
129.146913192845
 20
273.3266896297855
 30
0.0
 10
132.4566068520172
 20
273.3266896297855
 30
0.0
 10
135.1441294163456
 20
276.0142121941136
 30
0.0
 10
135.1441294163456
 20
279.3239058532861
 30
0.0
  0
LWPOLYLINE
  5
17D
330
82
100
AcDbEntity
  8
Standardebene
 62
     7
370
     9
100
AcDbPolyline
 90
        5
 70
     0
 43
0.0
 10
129.1340849228482
 20
125.5514334017288
 10
128.4349442080226
 20
125.1473428968304
 10
127.6331773332234
 20
124.6855251769454
 10
127.6331773332234
 20
122.9537087273784
 10
129.1340849228482
 20
122.087800502595
  0
LWPOLYLINE
  5
17E
330
82
100
AcDbEntity
  8
Standardebene
 62
     7
370
     9
100
AcDbPolyline
 90
        3
 70
     0
 43
0.0
 10
129.8075690976794
 20
122.4790627374972
 10
129.146913192845
 20
122.0942146375934
 10
129.1340849228482
 20
122.087800502595
  0
LINE
  5
17F
330
82
100
AcDbEntity
  8
Standardebene
 62
     7
370
     9
100
AcDbLine
 10
130.6349925124729
 20
122.9537087273784
 30
0.0
 11
129.9550942026426
 21
122.5624464924762
 31
0.0
  0
LINE
  5
180
330
82
100
AcDbEntity
  8
Standardebene
 62
     7
370
     9
100
AcDbLine
 10
130.6349925124729
 20
123.6464353072056
 30
0.0
 11
130.6349925124729
 21
122.9537087273784
 31
0.0
  0
SPLINE
  5
181
330
82
100
AcDbEntity
  8
Standardebene
 62
     7
370
     9
100
AcDbSpline
210
0.0
220
0.0
230
1.0
 70
     8
 71
     3
 72
     8
 73
     4
 74
     0
 42
0.0000000001
 43
0.0000000001
 40
0.0
 40
0.0
 40
0.0
 40
0.0
 40
1.0
 40
1.0
 40
1.0
 40
1.0
 10
130.6478207824698
 20
123.8260310871603
 30
0.0
 10
130.6478207824698
 20
123.8901724371446
 30
0.0
 10
130.6414066474713
 20
123.9478996521299
 30
0.0
 10
130.6349925124729
 20
123.9992127321173
 30
0.0
  0
SPLINE
  5
182
330
82
100
AcDbEntity
  8
Standardebene
 62
     7
370
     9
100
AcDbSpline
210
0.0
220
0.0
230
1.0
 70
     8
 71
     3
 72
     8
 73
     4
 74
     0
 42
0.0000000001
 43
0.0000000001
 40
0.0
 40
0.0
 40
0.0
 40
0.0
 40
1.0
 40
1.0
 40
1.0
 40
1.0
 10
130.6349925124729
 20
123.6464353072056
 30
0.0
 10
130.6414066474713
 20
123.7105766571892
 30
0.0
 10
130.6478207824698
 20
123.7683038721751
 30
0.0
 10
130.6478207824698
 20
123.8260310871603
 30
0.0
  0
LINE
  5
183
330
82
100
AcDbEntity
  8
Standardebene
 62
     7
370
     9
100
AcDbLine
 10
130.6349925124729
 20
124.6855251769454
 30
0.0
 11
130.6349925124729
 21
123.9992127321173
 31
0.0
  0
SPLINE
  5
184
330
82
100
AcDbEntity
  8
Standardebene
 62
     7
370
     9
100
AcDbSpline
210
0.0
220
0.0
230
1.0
 70
     8
 71
     3
 72
     8
 73
     4
 74
     0
 42
0.0000000001
 43
0.0000000001
 40
0.0
 40
0.0
 40
0.0
 40
0.0
 40
1.0
 40
1.0
 40
1.0
 40
1.0
 10
130.04489209262
 20
125.0254743318608
 30
0.0
 10
129.9422659326458
 20
125.1024439518414
 30
0.0
 10
129.8396397726715
 20
125.1601711668266
 30
0.0
 10
129.7370136126973
 20
125.2050701118156
 30
0.0
  0
SPLINE
  5
185
330
82
100
AcDbEntity
  8
Standardebene
 62
     7
370
     9
100
AcDbSpline
210
0.0
220
0.0
230
1.0
 70
     9
 71
     3
 72
    17
 73
    13
 74
     0
 42
0.0000000001
 43
0.0000000001
 40
0.0
 40
0.0
 40
0.0
 40
0.0
 40
1.0
 40
1.0
 40
1.0
 40
2.0
 40
2.0
 40
2.0
 40
3.0
 40
3.0
 40
3.0
 40
4.0
 40
4.0
 40
4.0
 40
4.0
 10
131.0839819623604
 20
123.8260310871603
 30
0.0
 10
131.0839819623604
 20
124.8971916318929
 30
0.0
 10
130.218073737577
 20
125.7630998566764
 30
0.0
 10
129.146913192845
 20
125.7630998566764
 30
0.0
 10
128.0757526481125
 20
125.7630998566764
 30
0.0
 10
127.209844423329
 20
124.8971916318929
 30
0.0
 10
127.209844423329
 20
123.8260310871603
 30
0.0
 10
127.209844423329
 20
122.7548705424284
 30
0.0
 10
128.0757526481125
 20
121.888962317645
 30
0.0
 10
129.146913192845
 20
121.888962317645
 30
0.0
 10
130.218073737577
 20
121.888962317645
 30
0.0
 10
131.0839819623604
 20
122.7548705424284
 30
0.0
 10
131.0839819623604
 20
123.8260310871603
 30
0.0
  0
LWPOLYLINE
  5
186
330
82
100
AcDbEntity
  8
Standardebene
 62
     7
370
     9
100
AcDbPolyline
 90
        3
 70
     0
 43
0.0
 10
129.1340849228482
 20
125.5514334017288
 10
129.146913192845
 20
125.5450192667304
 10
129.7370136126973
 20
125.2050701118156
  0
LINE
  5
187
330
82
100
AcDbEntity
  8
Standardebene
 62
     7
370
     9
100
AcDbLine
 10
130.04489209262
 20
125.0254743318608
 30
0.0
 11
130.6349925124729
 21
124.6855251769454
 31
0.0
  0
SPLINE
  5
188
330
82
100
AcDbEntity
  8
Standardebene
 62
     7
370
     9
100
AcDbSpline
210
0.0
220
0.0
230
1.0
 70
     8
 71
     3
 72
     8
 73
     4
 74
     0
 42
0.0000000001
 43
0.0000000001
 40
0.0
 40
0.0
 40
0.0
 40
0.0
 40
1.0
 40
1.0
 40
1.0
 40
1.0
 10
130.6349925124729
 20
123.9992127321173
 30
0.0
 10
130.5836794324855
 20
124.4289597770095
 30
0.0
 10
130.3591847075417
 20
124.7881513369196
 30
0.0
 10
130.04489209262
 20
125.0254743318608
 30
0.0
  0
SPLINE
  5
189
330
82
100
AcDbEntity
  8
Standardebene
 62
     7
370
     9
100
AcDbSpline
210
0.0
220
0.0
230
1.0
 70
     8
 71
     3
 72
    26
 73
    22
 74
     0
 42
0.0000000001
 43
0.0000000001
 40
0.0
 40
0.0
 40
0.0
 40
0.0
 40
1.0
 40
1.0
 40
1.0
 40
2.0
 40
2.0
 40
2.0
 40
3.0
 40
3.0
 40
3.0
 40
4.0
 40
4.0
 40
4.0
 40
5.0
 40
5.0
 40
5.0
 40
6.0
 40
6.0
 40
6.0
 40
7.0
 40
7.0
 40
7.0
 40
7.0
 10
129.7370136126973
 20
125.2050701118156
 30
0.0
 10
129.5381754277466
 20
125.2884538667945
 30
0.0
 10
129.3329231077982
 20
125.3269386767851
 30
0.0
 10
129.146913192845
 20
125.3269386767851
 30
0.0
 10
128.8903477929091
 20
125.3269386767851
 30
0.0
 10
128.6466106629701
 20
125.2627973268015
 30
0.0
 10
128.4349442080226
 20
125.1473428968304
 30
0.0
 10
127.9667123531398
 20
124.8907774968945
 30
0.0
 10
127.6460056032196
 20
124.396889102018
 30
0.0
 10
127.6460056032196
 20
123.8260310871603
 30
0.0
 10
127.6460056032196
 20
122.9986076723674
 30
0.0
 10
128.3194897780515
 20
122.3251234975356
 30
0.0
 10
129.146913192845
 20
122.3251234975356
 30
0.0
 10
129.3842361877856
 20
122.3251234975356
 30
0.0
 10
129.6087309127294
 20
122.376436577523
 30
0.0
 10
129.8075690976794
 20
122.4790627374972
 30
0.0
 10
129.8588821776668
 20
122.504719277491
 30
0.0
 10
129.9101952576536
 20
122.530375817484
 30
0.0
 10
129.9550942026426
 20
122.5624464924762
 30
0.0
 10
130.3206998975512
 20
122.7997694874168
 30
0.0
 10
130.5772652974871
 20
123.191031722319
 30
0.0
 10
130.6349925124729
 20
123.6464353072056
 30
0.0
  0
ENDBLK
  5
85
330
82
100
AcDbEntity
  8
0
100
AcDbBlockEnd
  0
ENDSEC
  0
SECTION
  2
ENTITIES
  0
INSERT
  5
7B
330
70
100
AcDbEntity
  8
Standardebene
100
AcDbBlockReference
  2
Block_0
 10
0.0
 20
0.0
 30
0.0
  0
LINE
  5
18B
330
70
100
AcDbEntity
  8
Bemaßung
 62
     7
370
     9
100
AcDbLine
 10
54.03874556580118
 20
157.0684454372945
 30
0.0
 11
54.03874556580118
 21
150.4685025501176
 31
0.0
  0
LINE
  5
18C
330
70
100
AcDbEntity
  8
Bemaßung
 62
     7
370
     9
100
AcDbLine
 10
45.23859829031165
 20
157.0684454372945
 30
0.0
 11
45.23859829031165
 21
150.4685025501176
 31
0.0
  0
LINE
  5
18D
330
70
100
AcDbEntity
  8
Bemaßung
 62
     7
370
     9
100
AcDbLine
 10
65.60322415965565
 20
151.5687105776045
 30
0.0
 11
45.01585554430168
 21
151.5687105776045
 31
0.0
  0
LWPOLYLINE
  5
18E
330
70
100
AcDbEntity
  8
Bemaßung
 62
     7
370
     9
100
AcDbPolyline
 90
        4
 70
     0
 43
0.0
 10
54.03874556580118
 20
151.5687105776045
 10
52.66361782310585
 20
151.7495797396568
 10
52.66361782310585
 20
151.3874886377834
 10
54.03874556580118
 20
151.5687105776045
  0
LINE
  5
18F
330
70
100
AcDbEntity
  8
Bemaßung
 62
     7
370
     9
100
AcDbLine
 10
52.66361782310585
 20
151.7363152955507
 30
0.0
 11
52.76525309829068
 21
151.7363152955507
 31
0.0
  0
LINE
  5
190
330
70
100
AcDbEntity
  8
Bemaßung
 62
     7
370
     9
100
AcDbLine
 10
52.66361782310585
 20
151.7363152955507
 30
0.0
 11
52.76525309829068
 21
151.7363152955507
 31
0.0
  0
LINE
  5
191
330
70
100
AcDbEntity
  8
Bemaßung
 62
     7
370
     9
100
AcDbLine
 10
52.66361782310585
 20
151.708234185156
 30
0.0
 11
52.97730781510295
 21
151.708234185156
 31
0.0
  0
LINE
  5
192
330
70
100
AcDbEntity
  8
Bemaßung
 62
     7
370
     9
100
AcDbLine
 10
52.66361782310585
 20
151.6803332954133
 30
0.0
 11
53.18985642079148
 21
151.6803332954133
 31
0.0
  0
LINE
  5
193
330
70
100
AcDbEntity
  8
Bemaßung
 62
     7
370
     9
100
AcDbLine
 10
52.66361782310585
 20
151.652248353251
 30
0.0
 11
53.40155835983496
 21
151.652248353251
 31
0.0
  0
LINE
  5
194
330
70
100
AcDbEntity
  8
Bemaßung
 62
     7
370
     9
100
AcDbLine
 10
52.66361782310585
 20
151.6243436317407
 30
0.0
 11
53.61414224330039
 21
151.6243436317407
 31
0.0
  0
LINE
  5
195
330
70
100
AcDbEntity
  8
Bemaßung
 62
     7
370
     9
100
AcDbLine
 10
52.66361782310585
 20
151.5966152991148
 30
0.0
 11
53.82616168233576
 21
151.5966152991148
 31
0.0
  0
LINE
  5
196
330
70
100
AcDbEntity
  8
Bemaßung
 62
     7
370
     9
100
AcDbLine
 10
52.66361782310585
 20
151.5687105776045
 30
0.0
 11
54.03874556580118
 21
151.5687105776045
 31
0.0
  0
LINE
  5
197
330
70
100
AcDbEntity
  8
Bemaßung
 62
     7
370
     9
100
AcDbLine
 10
52.66361782310585
 20
151.400933295483
 30
0.0
 11
52.76525309829068
 21
151.400933295483
 31
0.0
  0
LINE
  5
198
330
70
100
AcDbEntity
  8
Bemaßung
 62
     7
370
     9
100
AcDbLine
 10
52.66361782310585
 20
151.400933295483
 30
0.0
 11
52.76525309829068
 21
151.400933295483
 31
0.0
  0
LINE
  5
199
330
70
100
AcDbEntity
  8
Bemaßung
 62
     7
370
     9
100
AcDbLine
 10
52.66361782310585
 20
151.4290105811685
 30
0.0
 11
52.97730781510295
 21
151.4290105811685
 31
0.0
  0
LINE
  5
19A
330
70
100
AcDbEntity
  8
Bemaßung
 62
     7
370
     9
100
AcDbLine
 10
52.66361782310585
 20
151.4569153026788
 30
0.0
 11
53.18985642079148
 21
151.4569153026788
 31
0.0
  0
LINE
  5
19B
330
70
100
AcDbEntity
  8
Bemaßung
 62
     7
370
     9
100
AcDbLine
 10
52.66361782310585
 20
151.4846436353047
 30
0.0
 11
53.40155835983496
 21
151.4846436353047
 31
0.0
  0
LINE
  5
19C
330
70
100
AcDbEntity
  8
Bemaßung
 62
     7
370
     9
100
AcDbLine
 10
52.66361782310585
 20
151.512548356815
 30
0.0
 11
53.61414224330039
 21
151.512548356815
 31
0.0
  0
LINE
  5
19D
330
70
100
AcDbEntity
  8
Bemaßung
 62
     7
370
     9
100
AcDbLine
 10
52.66361782310585
 20
151.5406332954483
 30
0.0
 11
53.82616168233576
 21
151.5406332954483
 31
0.0
  0
LINE
  5
19E
330
70
100
AcDbEntity
  8
Bemaßung
 62
     7
370
     9
100
AcDbLine
 10
52.66361782310585
 20
151.5687105776045
 30
0.0
 11
54.03874556580118
 21
151.5687105776045
 31
0.0
  0
LWPOLYLINE
  5
19F
330
70
100
AcDbEntity
  8
Bemaßung
 62
     7
370
     9
100
AcDbPolyline
 90
        4
 70
     0
 43
0.0
 10
45.23859829031165
 20
151.5687105776045
 10
46.61369075523011
 20
151.3874886377834
 10
46.61369075523011
 20
151.7495797396568
 10
45.23859829031165
 20
151.5687105776045
  0
LINE
  5
1A0
330
70
100
AcDbEntity
  8
Bemaßung
 62
     7
370
     9
100
AcDbLine
 10
46.61369075523011
 20
151.400933295483
 30
0.0
 11
46.51205548004527
 21
151.400933295483
 31
0.0
  0
LINE
  5
1A1
330
70
100
AcDbEntity
  8
Bemaßung
 62
     7
370
     9
100
AcDbLine
 10
46.61369075523011
 20
151.400933295483
 30
0.0
 11
46.51205548004527
 21
151.400933295483
 31
0.0
  0
LINE
  5
1A2
330
70
100
AcDbEntity
  8
Bemaßung
 62
     7
370
     9
100
AcDbLine
 10
46.61369075523011
 20
151.4290105811685
 30
0.0
 11
46.2998596521255
 21
151.4290105811685
 31
0.0
  0
LINE
  5
1A3
330
70
100
AcDbEntity
  8
Bemaßung
 62
     7
370
     9
100
AcDbLine
 10
46.61369075523011
 20
151.4569153026788
 30
0.0
 11
46.08745215754447
 21
151.4569153026788
 31
0.0
  0
LINE
  5
1A4
330
70
100
AcDbEntity
  8
Bemaßung
 62
     7
370
     9
100
AcDbLine
 10
46.61369075523011
 20
151.4846436353047
 30
0.0
 11
45.87539744073221
 21
151.4846436353047
 31
0.0
  0
LINE
  5
1A5
330
70
100
AcDbEntity
  8
Bemaßung
 62
     7
370
     9
100
AcDbLine
 10
46.61369075523011
 20
151.512548356815
 30
0.0
 11
45.66320276636209
 21
151.512548356815
 31
0.0
  0
LINE
  5
1A6
330
70
100
AcDbEntity
  8
Bemaßung
 62
     7
370
     9
100
AcDbLine
 10
46.61369075523011
 20
151.5406332954483
 30
0.0
 11
45.45061772934703
 21
151.5406332954483
 31
0.0
  0
LINE
  5
1A7
330
70
100
AcDbEntity
  8
Bemaßung
 62
     7
370
     9
100
AcDbLine
 10
46.61369075523011
 20
151.5687105776045
 30
0.0
 11
45.23859829031165
 21
151.5687105776045
 31
0.0
  0
LINE
  5
1A8
330
70
100
AcDbEntity
  8
Bemaßung
 62
     7
370
     9
100
AcDbLine
 10
46.61369075523011
 20
151.7363152955507
 30
0.0
 11
46.51205548004527
 21
151.7363152955507
 31
0.0
  0
LINE
  5
1A9
330
70
100
AcDbEntity
  8
Bemaßung
 62
     7
370
     9
100
AcDbLine
 10
46.61369075523011
 20
151.7363152955507
 30
0.0
 11
46.51205548004527
 21
151.7363152955507
 31
0.0
  0
LINE
  5
1AA
330
70
100
AcDbEntity
  8
Bemaßung
 62
     7
370
     9
100
AcDbLine
 10
46.61369075523011
 20
151.708234185156
 30
0.0
 11
46.2998596521255
 21
151.708234185156
 31
0.0
  0
LINE
  5
1AB
330
70
100
AcDbEntity
  8
Bemaßung
 62
     7
370
     9
100
AcDbLine
 10
46.61369075523011
 20
151.6803332954133
 30
0.0
 11
46.08745215754447
 21
151.6803332954133
 31
0.0
  0
LINE
  5
1AC
330
70
100
AcDbEntity
  8
Bemaßung
 62
     7
370
     9
100
AcDbLine
 10
46.61369075523011
 20
151.652248353251
 30
0.0
 11
45.87539744073221
 21
151.652248353251
 31
0.0
  0
LINE
  5
1AD
330
70
100
AcDbEntity
  8
Bemaßung
 62
     7
370
     9
100
AcDbLine
 10
46.61369075523011
 20
151.6243436317407
 30
0.0
 11
45.66320276636209
 21
151.6243436317407
 31
0.0
  0
LINE
  5
1AE
330
70
100
AcDbEntity
  8
Bemaßung
 62
     7
370
     9
100
AcDbLine
 10
46.61369075523011
 20
151.5966152991148
 30
0.0
 11
45.45061772934703
 21
151.5966152991148
 31
0.0
  0
LINE
  5
1AF
330
70
100
AcDbEntity
  8
Bemaßung
 62
     7
370
     9
100
AcDbLine
 10
46.61369075523011
 20
151.5687105776045
 30
0.0
 11
45.23859829031165
 21
151.5687105776045
 31
0.0
  0
LINE
  5
1B0
330
70
100
AcDbEntity
  8
Bemaßung
 62
     7
370
     9
100
AcDbLine
 10
42.46132002783259
 20
157.0684454372945
 30
0.0
 11
35.87016130709816
 21
157.0684454372945
 31
0.0
  0
LINE
  5
1B1
330
70
100
AcDbEntity
  8
Bemaßung
 62
     7
370
     9
100
AcDbLine
 10
45.23859829031165
 20
185.1084219441574
 30
0.0
 11
35.87016130709816
 21
185.1084219441574
 31
0.0
  0
LINE
  5
1B2
330
70
100
AcDbEntity
  8
Bemaßung
 62
     7
370
     9
100
AcDbLine
 10
36.9700165568163
 20
157.0684454372945
 30
0.0
 11
36.9700165568163
 21
185.1084219441574
 31
0.0
  0
LWPOLYLINE
  5
1B3
330
70
100
AcDbEntity
  8
Bemaßung
 62
     7
370
     9
100
AcDbPolyline
 90
        4
 70
     0
 43
0.0
 10
36.9700165568163
 20
157.0684454372945
 10
37.151062107753
 20
158.4437142910974
 10
36.7889710058796
 20
158.4437142910974
 10
36.9700165568163
 20
157.0684454372945
  0
LINE
  5
1B4
330
70
100
AcDbEntity
  8
Bemaßung
 62
     7
370
     9
100
AcDbLine
 10
37.13793877475447
 20
158.4437142910974
 30
0.0
 11
37.13793877475447
 21
158.341937904805
 31
0.0
  0
LINE
  5
1B5
330
70
100
AcDbEntity
  8
Bemaßung
 62
     7
370
     9
100
AcDbLine
 10
37.13793877475447
 20
158.4437142910974
 30
0.0
 11
37.13793877475447
 21
158.341937904805
 31
0.0
  0
LINE
  5
1B6
330
70
100
AcDbEntity
  8
Bemaßung
 62
     7
370
     9
100
AcDbLine
 10
37.11003405324416
 20
158.4437142910974
 30
0.0
 11
37.11003405324416
 21
158.129530410224
 31
0.0
  0
LINE
  5
1B7
330
70
100
AcDbEntity
  8
Bemaßung
 62
     7
370
     9
100
AcDbLine
 10
37.08212933173385
 20
158.4437142910974
 30
0.0
 11
37.08212933173385
 21
157.9172993045274
 31
0.0
  0
LINE
  5
1B8
330
70
100
AcDbEntity
  8
Bemaßung
 62
     7
370
     9
100
AcDbLine
 10
37.05390711023163
 20
158.4437142910974
 30
0.0
 11
37.05390711023163
 21
157.7051034766076
 31
0.0
  0
LINE
  5
1B9
330
70
100
AcDbEntity
  8
Bemaßung
 62
     7
370
     9
100
AcDbLine
 10
37.02600238872132
 20
158.4437142910974
 30
0.0
 11
37.02600238872132
 21
157.492872370911
 31
0.0
  0
LINE
  5
1BA
330
70
100
AcDbEntity
  8
Bemaßung
 62
     7
370
     9
100
AcDbLine
 10
36.99809766721101
 20
158.4437142910974
 30
0.0
 11
36.99809766721101
 21
157.2809940429831
 31
0.0
  0
LINE
  5
1BB
330
70
100
AcDbEntity
  8
Bemaßung
 62
     7
370
     9
100
AcDbLine
 10
36.9700165568163
 20
158.4437142910974
 30
0.0
 11
36.9700165568163
 21
157.0684454372945
 31
0.0
  0
LINE
  5
1BC
330
70
100
AcDbEntity
  8
Bemaßung
 62
     7
370
     9
100
AcDbLine
 10
36.80241183887003
 20
158.4437142910974
 30
0.0
 11
36.80241183887003
 21
158.341937904805
 31
0.0
  0
LINE
  5
1BD
330
70
100
AcDbEntity
  8
Bemaßung
 62
     7
370
     9
100
AcDbLine
 10
36.80241183887003
 20
158.4437142910974
 30
0.0
 11
36.80241183887003
 21
158.341937904805
 31
0.0
  0
LINE
  5
1BE
330
70
100
AcDbEntity
  8
Bemaßung
 62
     7
370
     9
100
AcDbLine
 10
36.83031656038035
 20
158.4437142910974
 30
0.0
 11
36.83031656038035
 21
158.129530410224
 31
0.0
  0
LINE
  5
1BF
330
70
100
AcDbEntity
  8
Bemaßung
 62
     7
370
     9
100
AcDbLine
 10
36.85822221300752
 20
158.4437142910974
 30
0.0
 11
36.85822221300752
 21
157.9172993045274
 31
0.0
  0
LINE
  5
1C0
330
70
100
AcDbEntity
  8
Bemaßung
 62
     7
370
     9
100
AcDbLine
 10
36.88612600340097
 20
158.4437142910974
 30
0.0
 11
36.88612600340097
 21
157.7051034766076
 31
0.0
  0
LINE
  5
1C1
330
70
100
AcDbEntity
  8
Bemaßung
 62
     7
370
     9
100
AcDbLine
 10
36.91403072491129
 20
158.4437142910974
 30
0.0
 11
36.91403072491129
 21
157.492872370911
 31
0.0
  0
LINE
  5
1C2
330
70
100
AcDbEntity
  8
Bemaßung
 62
     7
370
     9
100
AcDbLine
 10
36.94211183530599
 20
158.4437142910974
 30
0.0
 11
36.94211183530599
 21
157.2809940429831
 31
0.0
  0
LINE
  5
1C3
330
70
100
AcDbEntity
  8
Bemaßung
 62
     7
370
     9
100
AcDbLine
 10
36.9700165568163
 20
158.4437142910974
 30
0.0
 11
36.9700165568163
 21
157.0684454372945
 31
0.0
  0
LWPOLYLINE
  5
1C4
330
70
100
AcDbEntity
  8
Bemaßung
 62
     7
370
     9
100
AcDbPolyline
 90
        4
 70
     0
 43
0.0
 10
36.9700165568163
 20
185.1084219441574
 10
36.7889710058796
 20
183.733294201462
 10
37.151062107753
 20
183.733294201462
 10
36.9700165568163
 20
185.1084219441574
  0
LINE
  5
1C5
330
70
100
AcDbEntity
  8
Bemaßung
 62
     7
370
     9
100
AcDbLine
 10
36.80241183887003
 20
183.733294201462
 30
0.0
 11
36.80241183887003
 21
183.8351058655312
 31
0.0
  0
LINE
  5
1C6
330
70
100
AcDbEntity
  8
Bemaßung
 62
     7
370
     9
100
AcDbLine
 10
36.80241183887003
 20
183.733294201462
 30
0.0
 11
36.80241183887003
 21
183.8351058655312
 31
0.0
  0
LINE
  5
1C7
330
70
100
AcDbEntity
  8
Bemaßung
 62
     7
370
     9
100
AcDbLine
 10
36.83031656038035
 20
183.733294201462
 30
0.0
 11
36.83031656038035
 21
184.0473416206547
 31
0.0
  0
LINE
  5
1C8
330
70
100
AcDbEntity
  8
Bemaßung
 62
     7
370
     9
100
AcDbLine
 10
36.85822221300752
 20
183.733294201462
 30
0.0
 11
36.85822221300752
 21
184.2595327991477
 31
0.0
  0
LINE
  5
1C9
330
70
100
AcDbEntity
  8
Bemaßung
 62
     7
370
     9
100
AcDbLine
 10
36.88612600340097
 20
183.733294201462
 30
0.0
 11
36.88612600340097
 21
184.4717639048443
 31
0.0
  0
LINE
  5
1CA
330
70
100
AcDbEntity
  8
Bemaßung
 62
     7
370
     9
100
AcDbLine
 10
36.91403072491129
 20
183.733294201462
 30
0.0
 11
36.91403072491129
 21
184.683995010541
 31
0.0
  0
LINE
  5
1CB
330
70
100
AcDbEntity
  8
Bemaßung
 62
     7
370
     9
100
AcDbLine
 10
36.94211183530599
 20
183.733294201462
 30
0.0
 11
36.94211183530599
 21
184.8961908384607
 31
0.0
  0
LINE
  5
1CC
330
70
100
AcDbEntity
  8
Bemaßung
 62
     7
370
     9
100
AcDbLine
 10
36.9700165568163
 20
183.733294201462
 30
0.0
 11
36.9700165568163
 21
185.1084219441574
 31
0.0
  0
LINE
  5
1CD
330
70
100
AcDbEntity
  8
Bemaßung
 62
     7
370
     9
100
AcDbLine
 10
37.13793877475447
 20
183.733294201462
 30
0.0
 11
37.13793877475447
 21
183.8351058655312
 31
0.0
  0
LINE
  5
1CE
330
70
100
AcDbEntity
  8
Bemaßung
 62
     7
370
     9
100
AcDbLine
 10
37.13793877475447
 20
183.733294201462
 30
0.0
 11
37.13793877475447
 21
183.8351058655312
 31
0.0
  0
LINE
  5
1CF
330
70
100
AcDbEntity
  8
Bemaßung
 62
     7
370
     9
100
AcDbLine
 10
37.11003405324416
 20
183.733294201462
 30
0.0
 11
37.11003405324416
 21
184.0473416206547
 31
0.0
  0
LINE
  5
1D0
330
70
100
AcDbEntity
  8
Bemaßung
 62
     7
370
     9
100
AcDbLine
 10
37.08212933173385
 20
183.733294201462
 30
0.0
 11
37.08212933173385
 21
184.2595327991477
 31
0.0
  0
LINE
  5
1D1
330
70
100
AcDbEntity
  8
Bemaßung
 62
     7
370
     9
100
AcDbLine
 10
37.05390711023163
 20
183.733294201462
 30
0.0
 11
37.05390711023163
 21
184.4717639048443
 31
0.0
  0
LINE
  5
1D2
330
70
100
AcDbEntity
  8
Bemaßung
 62
     7
370
     9
100
AcDbLine
 10
37.02600238872132
 20
183.733294201462
 30
0.0
 11
37.02600238872132
 21
184.683995010541
 31
0.0
  0
LINE
  5
1D3
330
70
100
AcDbEntity
  8
Bemaßung
 62
     7
370
     9
100
AcDbLine
 10
36.99809766721101
 20
183.733294201462
 30
0.0
 11
36.99809766721101
 21
184.8961908384607
 31
0.0
  0
LINE
  5
1D4
330
70
100
AcDbEntity
  8
Bemaßung
 62
     7
370
     9
100
AcDbLine
 10
36.9700165568163
 20
183.733294201462
 30
0.0
 11
36.9700165568163
 21
185.1084219441574
 31
0.0
  0
LINE
  5
1D5
330
70
100
AcDbEntity
  8
Bemaßung
 62
     7
370
     9
100
AcDbLine
 10
106.9931228259336
 20
253.2634288164894
 30
0.0
 11
123.9209425499209
 21
253.2634288164894
 31
0.0
  0
LINE
  5
1D6
330
70
100
AcDbEntity
  8
Bemaßung
 62
     7
370
     9
100
AcDbLine
 10
111.3933552136743
 20
239.5684899992097
 30
0.0
 11
123.9209425499209
 21
239.5684899992097
 31
0.0
  0
LINE
  5
1D7
330
70
100
AcDbEntity
  8
Bemaßung
 62
     7
370
     9
100
AcDbLine
 10
122.8207698002109
 20
253.2634288164894
 30
0.0
 11
122.8207698002109
 21
239.5684899992097
 31
0.0
  0
LWPOLYLINE
  5
1D8
330
70
100
AcDbEntity
  8
Bemaßung
 62
     7
370
     9
100
AcDbPolyline
 90
        4
 70
     0
 43
0.0
 10
122.8207698002109
 20
253.2634288164894
 10
122.6397242492742
 20
251.8884774626784
 10
123.0018153511476
 20
251.8884774626784
 10
122.8207698002109
 20
253.2634288164894
  0
LINE
  5
1D9
330
70
100
AcDbEntity
  8
Bemaßung
 62
     7
370
     9
100
AcDbLine
 10
122.6531650822646
 20
251.8884774626784
 30
0.0
 11
122.6531650822646
 21
251.9901127378633
 31
0.0
  0
LINE
  5
1DA
330
70
100
AcDbEntity
  8
Bemaßung
 62
     7
370
     9
100
AcDbLine
 10
122.6531650822646
 20
251.8884774626784
 30
0.0
 11
122.6531650822646
 21
251.9901127378633
 31
0.0
  0
LINE
  5
1DB
330
70
100
AcDbEntity
  8
Bemaßung
 62
     7
370
     9
100
AcDbLine
 10
122.6810698037749
 20
251.8884774626784
 30
0.0
 11
122.6810698037749
 21
252.2026966213287
 31
0.0
  0
LINE
  5
1DC
330
70
100
AcDbEntity
  8
Bemaßung
 62
     7
370
     9
100
AcDbLine
 10
122.7089745252852
 20
251.8884774626784
 30
0.0
 11
122.7089745252852
 21
252.4145749492566
 31
0.0
  0
LINE
  5
1DD
330
70
100
AcDbEntity
  8
Bemaßung
 62
     7
370
     9
100
AcDbLine
 10
122.7368792467955
 20
251.8884774626784
 30
0.0
 11
122.7368792467955
 21
252.6271235549451
 31
0.0
  0
LINE
  5
1DE
330
70
100
AcDbEntity
  8
Bemaßung
 62
     7
370
     9
100
AcDbLine
 10
122.7647839683059
 20
251.8884774626784
 30
0.0
 11
122.7647839683059
 21
252.8390082701235
 31
0.0
  0
LINE
  5
1DF
330
70
100
AcDbEntity
  8
Bemaßung
 62
     7
370
     9
100
AcDbLine
 10
122.7928650787006
 20
251.8884774626784
 30
0.0
 11
122.7928650787006
 21
253.0515504885616
 31
0.0
  0
LINE
  5
1E0
330
70
100
AcDbEntity
  8
Bemaßung
 62
     7
370
     9
100
AcDbLine
 10
122.8207698002109
 20
251.8884774626784
 30
0.0
 11
122.8207698002109
 21
253.2634288164894
 31
0.0
  0
LINE
  5
1E1
330
70
100
AcDbEntity
  8
Bemaßung
 62
     7
370
     9
100
AcDbLine
 10
122.9883745181571
 20
251.8884774626784
 30
0.0
 11
122.9883745181571
 21
251.9901127378633
 31
0.0
  0
LINE
  5
1E2
330
70
100
AcDbEntity
  8
Bemaßung
 62
     7
370
     9
100
AcDbLine
 10
122.9883745181571
 20
251.8884774626784
 30
0.0
 11
122.9883745181571
 21
251.9901127378633
 31
0.0
  0
LINE
  5
1E3
330
70
100
AcDbEntity
  8
Bemaßung
 62
     7
370
     9
100
AcDbLine
 10
122.9604697966468
 20
251.8884774626784
 30
0.0
 11
122.9604697966468
 21
252.2026966213287
 31
0.0
  0
LINE
  5
1E4
330
70
100
AcDbEntity
  8
Bemaßung
 62
     7
370
     9
100
AcDbLine
 10
122.9325650751365
 20
251.8884774626784
 30
0.0
 11
122.9325650751365
 21
252.4145749492566
 31
0.0
  0
LINE
  5
1E5
330
70
100
AcDbEntity
  8
Bemaßung
 62
     7
370
     9
100
AcDbLine
 10
122.9046603536262
 20
251.8884774626784
 30
0.0
 11
122.9046603536262
 21
252.6271235549451
 31
0.0
  0
LINE
  5
1E6
330
70
100
AcDbEntity
  8
Bemaßung
 62
     7
370
     9
100
AcDbLine
 10
122.8767556321159
 20
251.8884774626784
 30
0.0
 11
122.8767556321159
 21
252.8390082701235
 31
0.0
  0
LINE
  5
1E7
330
70
100
AcDbEntity
  8
Bemaßung
 62
     7
370
     9
100
AcDbLine
 10
122.8488509106056
 20
251.8884774626784
 30
0.0
 11
122.8488509106056
 21
253.0515504885616
 31
0.0
  0
LINE
  5
1E8
330
70
100
AcDbEntity
  8
Bemaßung
 62
     7
370
     9
100
AcDbLine
 10
122.8207698002109
 20
251.8884774626784
 30
0.0
 11
122.8207698002109
 21
253.2634288164894
 31
0.0
  0
LWPOLYLINE
  5
1E9
330
70
100
AcDbEntity
  8
Bemaßung
 62
     7
370
     9
100
AcDbPolyline
 90
        4
 70
     0
 43
0.0
 10
122.8207698002109
 20
239.5684899992097
 10
123.0018153511476
 20
240.9437588530126
 10
122.6397242492742
 20
240.9437588530126
 10
122.8207698002109
 20
239.5684899992097
  0
LINE
  5
1EA
330
70
100
AcDbEntity
  8
Bemaßung
 62
     7
370
     9
100
AcDbLine
 10
122.9883745181571
 20
240.9437588530126
 30
0.0
 11
122.9883745181571
 21
240.8419824667202
 31
0.0
  0
LINE
  5
1EB
330
70
100
AcDbEntity
  8
Bemaßung
 62
     7
370
     9
100
AcDbLine
 10
122.9883745181571
 20
240.9437588530126
 30
0.0
 11
122.9883745181571
 21
240.8419824667202
 31
0.0
  0
LINE
  5
1EC
330
70
100
AcDbEntity
  8
Bemaßung
 62
     7
370
     9
100
AcDbLine
 10
122.9604697966468
 20
240.9437588530126
 30
0.0
 11
122.9604697966468
 21
240.629927749908
 31
0.0
  0
LINE
  5
1ED
330
70
100
AcDbEntity
  8
Bemaßung
 62
     7
370
     9
100
AcDbLine
 10
122.9325650751365
 20
240.9437588530126
 30
0.0
 11
122.9325650751365
 21
240.4173499398955
 31
0.0
  0
LINE
  5
1EE
330
70
100
AcDbEntity
  8
Bemaßung
 62
     7
370
     9
100
AcDbLine
 10
122.9046603536262
 20
240.9437588530126
 30
0.0
 11
122.9046603536262
 21
240.2055008162916
 31
0.0
  0
LINE
  5
1EF
330
70
100
AcDbEntity
  8
Bemaßung
 62
     7
370
     9
100
AcDbLine
 10
122.8767556321159
 20
240.9437588530126
 30
0.0
 11
122.8767556321159
 21
239.9930933217106
 31
0.0
  0
LINE
  5
1F0
330
70
100
AcDbEntity
  8
Bemaßung
 62
     7
370
     9
100
AcDbLine
 10
122.8488509106056
 20
240.9437588530126
 30
0.0
 11
122.8488509106056
 21
239.7810386048983
 31
0.0
  0
LINE
  5
1F1
330
70
100
AcDbEntity
  8
Bemaßung
 62
     7
370
     9
100
AcDbLine
 10
122.8207698002109
 20
240.9437588530126
 30
0.0
 11
122.8207698002109
 21
239.5684899992097
 31
0.0
  0
LINE
  5
1F2
330
70
100
AcDbEntity
  8
Bemaßung
 62
     7
370
     9
100
AcDbLine
 10
122.6531650822646
 20
240.9437588530126
 30
0.0
 11
122.6531650822646
 21
240.8419824667202
 31
0.0
  0
LINE
  5
1F3
330
70
100
AcDbEntity
  8
Bemaßung
 62
     7
370
     9
100
AcDbLine
 10
122.6531650822646
 20
240.9437588530126
 30
0.0
 11
122.6531650822646
 21
240.8419824667202
 31
0.0
  0
LINE
  5
1F4
330
70
100
AcDbEntity
  8
Bemaßung
 62
     7
370
     9
100
AcDbLine
 10
122.6810698037749
 20
240.9437588530126
 30
0.0
 11
122.6810698037749
 21
240.629927749908
 31
0.0
  0
LINE
  5
1F5
330
70
100
AcDbEntity
  8
Bemaßung
 62
     7
370
     9
100
AcDbLine
 10
122.7089745252852
 20
240.9437588530126
 30
0.0
 11
122.7089745252852
 21
240.4173499398955
 31
0.0
  0
LINE
  5
1F6
330
70
100
AcDbEntity
  8
Bemaßung
 62
     7
370
     9
100
AcDbLine
 10
122.7368792467955
 20
240.9437588530126
 30
0.0
 11
122.7368792467955
 21
240.2055008162916
 31
0.0
  0
LINE
  5
1F7
330
70
100
AcDbEntity
  8
Bemaßung
 62
     7
370
     9
100
AcDbLine
 10
122.7647839683059
 20
240.9437588530126
 30
0.0
 11
122.7647839683059
 21
239.9930933217106
 31
0.0
  0
LINE
  5
1F8
330
70
100
AcDbEntity
  8
Bemaßung
 62
     7
370
     9
100
AcDbLine
 10
122.7928650787006
 20
240.9437588530126
 30
0.0
 11
122.7928650787006
 21
239.7810386048983
 31
0.0
  0
LINE
  5
1F9
330
70
100
AcDbEntity
  8
Bemaßung
 62
     7
370
     9
100
AcDbLine
 10
122.8207698002109
 20
240.9437588530126
 30
0.0
 11
122.8207698002109
 21
239.5684899992097
 31
0.0
  0
LINE
  5
1FA
330
70
100
AcDbEntity
  8
Bemaßung
 62
     7
370
     9
100
AcDbLine
 10
111.3933552136743
 20
239.5684899992097
 30
0.0
 11
123.9209425499209
 21
239.5684899992097
 31
0.0
  0
LINE
  5
1FB
330
70
100
AcDbEntity
  8
Bemaßung
 62
     7
370
     9
100
AcDbLine
 10
108.6708986164633
 20
157.0684454372945
 30
0.0
 11
123.9209425499209
 21
157.0684454372945
 31
0.0
  0
LINE
  5
1FC
330
70
100
AcDbEntity
  8
Bemaßung
 62
     7
370
     9
100
AcDbLine
 10
122.8207698002109
 20
239.5684899992097
 30
0.0
 11
122.8207698002109
 21
157.0684454372945
 31
0.0
  0
LWPOLYLINE
  5
1FD
330
70
100
AcDbEntity
  8
Bemaßung
 62
     7
370
     9
100
AcDbPolyline
 90
        4
 70
     0
 43
0.0
 10
122.8207698002109
 20
239.5684899992097
 10
122.6397242492742
 20
238.1935386453988
 10
123.0018153511476
 20
238.1935386453988
 10
122.8207698002109
 20
239.5684899992097
  0
LINE
  5
1FE
330
70
100
AcDbEntity
  8
Bemaßung
 62
     7
370
     9
100
AcDbLine
 10
122.6531650822646
 20
238.1935386453988
 30
0.0
 11
122.6531650822646
 21
238.295350309468
 31
0.0
  0
LINE
  5
1FF
330
70
100
AcDbEntity
  8
Bemaßung
 62
     7
370
     9
100
AcDbLine
 10
122.6531650822646
 20
238.1935386453988
 30
0.0
 11
122.6531650822646
 21
238.295350309468
 31
0.0
  0
LINE
  5
200
330
70
100
AcDbEntity
  8
Bemaßung
 62
     7
370
     9
100
AcDbLine
 10
122.6810698037749
 20
238.1935386453988
 30
0.0
 11
122.6810698037749
 21
238.5077638292619
 31
0.0
  0
LINE
  5
201
330
70
100
AcDbEntity
  8
Bemaßung
 62
     7
370
     9
100
AcDbLine
 10
122.7089745252852
 20
238.1935386453988
 30
0.0
 11
122.7089745252852
 21
238.7196008542001
 31
0.0
  0
LINE
  5
202
330
70
100
AcDbEntity
  8
Bemaßung
 62
     7
370
     9
100
AcDbLine
 10
122.7368792467955
 20
238.1935386453988
 30
0.0
 11
122.7368792467955
 21
238.9318319598967
 31
0.0
  0
LINE
  5
203
330
70
100
AcDbEntity
  8
Bemaßung
 62
     7
370
     9
100
AcDbLine
 10
122.7647839683059
 20
238.1935386453988
 30
0.0
 11
122.7647839683059
 21
239.1442394544777
 31
0.0
  0
LINE
  5
204
330
70
100
AcDbEntity
  8
Bemaßung
 62
     7
370
     9
100
AcDbLine
 10
122.7928650787006
 20
238.1935386453988
 30
0.0
 11
122.7928650787006
 21
239.3566116712819
 31
0.0
  0
LINE
  5
205
330
70
100
AcDbEntity
  8
Bemaßung
 62
     7
370
     9
100
AcDbLine
 10
122.8207698002109
 20
238.1935386453988
 30
0.0
 11
122.8207698002109
 21
239.5684899992097
 31
0.0
  0
LINE
  5
206
330
70
100
AcDbEntity
  8
Bemaßung
 62
     7
370
     9
100
AcDbLine
 10
122.9883745181571
 20
238.1935386453988
 30
0.0
 11
122.9883745181571
 21
238.295350309468
 31
0.0
  0
LINE
  5
207
330
70
100
AcDbEntity
  8
Bemaßung
 62
     7
370
     9
100
AcDbLine
 10
122.9883745181571
 20
238.1935386453988
 30
0.0
 11
122.9883745181571
 21
238.295350309468
 31
0.0
  0
LINE
  5
208
330
70
100
AcDbEntity
  8
Bemaßung
 62
     7
370
     9
100
AcDbLine
 10
122.9604697966468
 20
238.1935386453988
 30
0.0
 11
122.9604697966468
 21
238.5077638292619
 31
0.0
  0
LINE
  5
209
330
70
100
AcDbEntity
  8
Bemaßung
 62
     7
370
     9
100
AcDbLine
 10
122.9325650751365
 20
238.1935386453988
 30
0.0
 11
122.9325650751365
 21
238.7196008542001
 31
0.0
  0
LINE
  5
20A
330
70
100
AcDbEntity
  8
Bemaßung
 62
     7
370
     9
100
AcDbLine
 10
122.9046603536262
 20
238.1935386453988
 30
0.0
 11
122.9046603536262
 21
238.9318319598967
 31
0.0
  0
LINE
  5
20B
330
70
100
AcDbEntity
  8
Bemaßung
 62
     7
370
     9
100
AcDbLine
 10
122.8767556321159
 20
238.1935386453988
 30
0.0
 11
122.8767556321159
 21
239.1442394544777
 31
0.0
  0
LINE
  5
20C
330
70
100
AcDbEntity
  8
Bemaßung
 62
     7
370
     9
100
AcDbLine
 10
122.8488509106056
 20
238.1935386453988
 30
0.0
 11
122.8488509106056
 21
239.3566116712819
 31
0.0
  0
LINE
  5
20D
330
70
100
AcDbEntity
  8
Bemaßung
 62
     7
370
     9
100
AcDbLine
 10
122.8207698002109
 20
238.1935386453988
 30
0.0
 11
122.8207698002109
 21
239.5684899992097
 31
0.0
  0
LWPOLYLINE
  5
20E
330
70
100
AcDbEntity
  8
Bemaßung
 62
     7
370
     9
100
AcDbPolyline
 90
        4
 70
     0
 43
0.0
 10
122.8207698002109
 20
157.0684454372945
 10
123.0018153511476
 20
158.4437142910974
 10
122.6397242492742
 20
158.4437142910974
 10
122.8207698002109
 20
157.0684454372945
  0
LINE
  5
20F
330
70
100
AcDbEntity
  8
Bemaßung
 62
     7
370
     9
100
AcDbLine
 10
122.9883745181571
 20
158.4437142910974
 30
0.0
 11
122.9883745181571
 21
158.341937904805
 31
0.0
  0
LINE
  5
210
330
70
100
AcDbEntity
  8
Bemaßung
 62
     7
370
     9
100
AcDbLine
 10
122.9883745181571
 20
158.4437142910974
 30
0.0
 11
122.9883745181571
 21
158.341937904805
 31
0.0
  0
LINE
  5
211
330
70
100
AcDbEntity
  8
Bemaßung
 62
     7
370
     9
100
AcDbLine
 10
122.9604697966468
 20
158.4437142910974
 30
0.0
 11
122.9604697966468
 21
158.129530410224
 31
0.0
  0
LINE
  5
212
330
70
100
AcDbEntity
  8
Bemaßung
 62
     7
370
     9
100
AcDbLine
 10
122.9325650751365
 20
158.4437142910974
 30
0.0
 11
122.9325650751365
 21
157.9172993045274
 31
0.0
  0
LINE
  5
213
330
70
100
AcDbEntity
  8
Bemaßung
 62
     7
370
     9
100
AcDbLine
 10
122.9046603536262
 20
158.4437142910974
 30
0.0
 11
122.9046603536262
 21
157.7051034766076
 31
0.0
  0
LINE
  5
214
330
70
100
AcDbEntity
  8
Bemaßung
 62
     7
370
     9
100
AcDbLine
 10
122.8767556321159
 20
158.4437142910974
 30
0.0
 11
122.8767556321159
 21
157.492872370911
 31
0.0
  0
LINE
  5
215
330
70
100
AcDbEntity
  8
Bemaßung
 62
     7
370
     9
100
AcDbLine
 10
122.8488509106056
 20
158.4437142910974
 30
0.0
 11
122.8488509106056
 21
157.2809940429831
 31
0.0
  0
LINE
  5
216
330
70
100
AcDbEntity
  8
Bemaßung
 62
     7
370
     9
100
AcDbLine
 10
122.8207698002109
 20
158.4437142910974
 30
0.0
 11
122.8207698002109
 21
157.0684454372945
 31
0.0
  0
LINE
  5
217
330
70
100
AcDbEntity
  8
Bemaßung
 62
     7
370
     9
100
AcDbLine
 10
122.6531650822646
 20
158.4437142910974
 30
0.0
 11
122.6531650822646
 21
158.341937904805
 31
0.0
  0
LINE
  5
218
330
70
100
AcDbEntity
  8
Bemaßung
 62
     7
370
     9
100
AcDbLine
 10
122.6531650822646
 20
158.4437142910974
 30
0.0
 11
122.6531650822646
 21
158.341937904805
 31
0.0
  0
LINE
  5
219
330
70
100
AcDbEntity
  8
Bemaßung
 62
     7
370
     9
100
AcDbLine
 10
122.6810698037749
 20
158.4437142910974
 30
0.0
 11
122.6810698037749
 21
158.129530410224
 31
0.0
  0
LINE
  5
21A
330
70
100
AcDbEntity
  8
Bemaßung
 62
     7
370
     9
100
AcDbLine
 10
122.7089745252852
 20
158.4437142910974
 30
0.0
 11
122.7089745252852
 21
157.9172993045274
 31
0.0
  0
LINE
  5
21B
330
70
100
AcDbEntity
  8
Bemaßung
 62
     7
370
     9
100
AcDbLine
 10
122.7368792467955
 20
158.4437142910974
 30
0.0
 11
122.7368792467955
 21
157.7051034766076
 31
0.0
  0
LINE
  5
21C
330
70
100
AcDbEntity
  8
Bemaßung
 62
     7
370
     9
100
AcDbLine
 10
122.7647839683059
 20
158.4437142910974
 30
0.0
 11
122.7647839683059
 21
157.492872370911
 31
0.0
  0
LINE
  5
21D
330
70
100
AcDbEntity
  8
Bemaßung
 62
     7
370
     9
100
AcDbLine
 10
122.7928650787006
 20
158.4437142910974
 30
0.0
 11
122.7928650787006
 21
157.2809940429831
 31
0.0
  0
LINE
  5
21E
330
70
100
AcDbEntity
  8
Bemaßung
 62
     7
370
     9
100
AcDbLine
 10
122.8207698002109
 20
158.4437142910974
 30
0.0
 11
122.8207698002109
 21
157.0684454372945
 31
0.0
  0
LINE
  5
21F
330
70
100
AcDbEntity
  8
Bemaßung
 62
     7
370
     9
100
AcDbLine
 10
87.78807748256177
 20
206.5685991744405
 30
0.0
 11
87.78807748256177
 21
215.1536225665294
 31
0.0
  0
LINE
  5
220
330
70
100
AcDbEntity
  8
Bemaßung
 62
     7
370
     9
100
AcDbLine
 10
115.2427603932455
 20
206.5685991744405
 30
0.0
 11
115.2427603932455
 21
215.1536225665294
 31
0.0
  0
LINE
  5
221
330
70
100
AcDbEntity
  8
Bemaßung
 62
     7
370
     9
100
AcDbLine
 10
87.78807748256177
 20
214.0537673168112
 30
0.0
 11
115.2427603932455
 21
214.0537673168112
 31
0.0
  0
LWPOLYLINE
  5
222
330
70
100
AcDbEntity
  8
Bemaßung
 62
     7
370
     9
100
AcDbPolyline
 90
        4
 70
     0
 43
0.0
 10
87.78807748256177
 20
214.0537673168112
 10
89.16302883637273
 20
213.8725453769901
 10
89.16302883637273
 20
214.2346364788636
 10
87.78807748256177
 20
214.0537673168112
  0
LINE
  5
223
330
70
100
AcDbEntity
  8
Bemaßung
 62
     7
370
     9
100
AcDbLine
 10
89.16302883637273
 20
213.8859916131953
 30
0.0
 11
89.06139356118789
 21
213.8859916131953
 31
0.0
  0
LINE
  5
224
330
70
100
AcDbEntity
  8
Bemaßung
 62
     7
370
     9
100
AcDbLine
 10
89.16302883637273
 20
213.8859916131953
 30
0.0
 11
89.06139356118789
 21
213.8859916131953
 31
0.0
  0
LINE
  5
225
330
70
100
AcDbEntity
  8
Bemaßung
 62
     7
370
     9
100
AcDbLine
 10
89.16302883637273
 20
213.9140673203753
 30
0.0
 11
88.84884720000986
 21
213.9140673203753
 31
0.0
  0
LINE
  5
226
330
70
100
AcDbEntity
  8
Bemaßung
 62
     7
370
     9
100
AcDbLine
 10
89.16302883637273
 20
213.9419720418856
 30
0.0
 11
88.63696662757147
 21
213.9419720418856
 31
0.0
  0
LINE
  5
227
330
70
100
AcDbEntity
  8
Bemaßung
 62
     7
370
     9
100
AcDbLine
 10
89.16302883637273
 20
213.9698767633959
 30
0.0
 11
88.42455913299044
 21
213.9698767633959
 31
0.0
  0
LINE
  5
228
330
70
100
AcDbEntity
  8
Bemaßung
 62
     7
370
     9
100
AcDbLine
 10
89.16302883637273
 20
213.9979578737906
 30
0.0
 11
88.21253969395506
 21
213.9979578737906
 31
0.0
  0
LINE
  5
229
330
70
100
AcDbEntity
  8
Bemaßung
 62
     7
370
     9
100
AcDbLine
 10
89.16302883637273
 20
214.0258625953009
 30
0.0
 11
87.99995581048964
 21
214.0258625953009
 31
0.0
  0
LINE
  5
22A
330
70
100
AcDbEntity
  8
Bemaßung
 62
     7
370
     9
100
AcDbLine
 10
89.16302883637273
 20
214.0537673168112
 30
0.0
 11
87.78807748256177
 21
214.0537673168112
 31
0.0
  0
LINE
  5
22B
330
70
100
AcDbEntity
  8
Bemaßung
 62
     7
370
     9
100
AcDbLine
 10
89.16302883637273
 20
214.2211956458731
 30
0.0
 11
89.06139356118789
 21
214.2211956458731
 31
0.0
  0
LINE
  5
22C
330
70
100
AcDbEntity
  8
Bemaßung
 62
     7
370
     9
100
AcDbLine
 10
89.16302883637273
 20
214.2211956458731
 30
0.0
 11
89.06139356118789
 21
214.2211956458731
 31
0.0
  0
LINE
  5
22D
330
70
100
AcDbEntity
  8
Bemaßung
 62
     7
370
     9
100
AcDbLine
 10
89.16302883637273
 20
214.1932909243628
 30
0.0
 11
88.84884720000986
 21
214.1932909243628
 31
0.0
  0
LINE
  5
22E
330
70
100
AcDbEntity
  8
Bemaßung
 62
     7
370
     9
100
AcDbLine
 10
89.16302883637273
 20
214.1653916131252
 30
0.0
 11
88.63696662757147
 21
214.1653916131252
 31
0.0
  0
LINE
  5
22F
330
70
100
AcDbEntity
  8
Bemaßung
 62
     7
370
     9
100
AcDbLine
 10
89.16302883637273
 20
214.1374814813421
 30
0.0
 11
88.42455913299044
 21
214.1374814813421
 31
0.0
  0
LINE
  5
230
330
70
100
AcDbEntity
  8
Bemaßung
 62
     7
370
     9
100
AcDbLine
 10
89.16302883637273
 20
214.1095767598319
 30
0.0
 11
88.21253969395506
 21
214.1095767598319
 31
0.0
  0
LINE
  5
231
330
70
100
AcDbEntity
  8
Bemaßung
 62
     7
370
     9
100
AcDbLine
 10
89.16302883637273
 20
214.0816720383215
 30
0.0
 11
87.99995581048964
 21
214.0816720383215
 31
0.0
  0
LINE
  5
232
330
70
100
AcDbEntity
  8
Bemaßung
 62
     7
370
     9
100
AcDbLine
 10
89.16302883637273
 20
214.0537673168112
 30
0.0
 11
87.78807748256177
 21
214.0537673168112
 31
0.0
  0
LWPOLYLINE
  5
233
330
70
100
AcDbEntity
  8
Bemaßung
 62
     7
370
     9
100
AcDbPolyline
 90
        4
 70
     0
 43
0.0
 10
115.2427603932455
 20
214.0537673168112
 10
113.8678090394346
 20
214.2346364788636
 10
113.8678090394346
 20
213.8725453769901
 10
115.2427603932455
 20
214.0537673168112
  0
LINE
  5
234
330
70
100
AcDbEntity
  8
Bemaßung
 62
     7
370
     9
100
AcDbLine
 10
113.8678090394346
 20
214.2211956458731
 30
0.0
 11
113.9694471937299
 21
214.2211956458731
 31
0.0
  0
LINE
  5
235
330
70
100
AcDbEntity
  8
Bemaßung
 62
     7
370
     9
100
AcDbLine
 10
113.8678090394346
 20
214.2211956458731
 30
0.0
 11
113.9694471937299
 21
214.2211956458731
 31
0.0
  0
LINE
  5
236
330
70
100
AcDbEntity
  8
Bemaßung
 62
     7
370
     9
100
AcDbLine
 10
113.8678090394346
 20
214.1932909243628
 30
0.0
 11
114.1816754203161
 21
214.1932909243628
 31
0.0
  0
LINE
  5
237
330
70
100
AcDbEntity
  8
Bemaßung
 62
     7
370
     9
100
AcDbLine
 10
113.8678090394346
 20
214.1653916131252
 30
0.0
 11
114.3938712482359
 21
214.1653916131252
 31
0.0
  0
LINE
  5
238
330
70
100
AcDbEntity
  8
Bemaßung
 62
     7
370
     9
100
AcDbLine
 10
113.8678090394346
 20
214.1374814813421
 30
0.0
 11
114.6059259650481
 21
214.1374814813421
 31
0.0
  0
LINE
  5
239
330
70
100
AcDbEntity
  8
Bemaßung
 62
     7
370
     9
100
AcDbLine
 10
113.8678090394346
 20
214.1095767598319
 30
0.0
 11
114.8182981818523
 21
214.1095767598319
 31
0.0
  0
LINE
  5
23A
330
70
100
AcDbEntity
  8
Bemaßung
 62
     7
370
     9
100
AcDbLine
 10
113.8678090394346
 20
214.0816720383215
 30
0.0
 11
115.0305292875489
 21
214.0816720383215
 31
0.0
  0
LINE
  5
23B
330
70
100
AcDbEntity
  8
Bemaßung
 62
     7
370
     9
100
AcDbLine
 10
113.8678090394346
 20
214.0537673168112
 30
0.0
 11
115.2427603932455
 21
214.0537673168112
 31
0.0
  0
LINE
  5
23C
330
70
100
AcDbEntity
  8
Bemaßung
 62
     7
370
     9
100
AcDbLine
 10
113.8678090394346
 20
213.8859916131953
 30
0.0
 11
113.9694471937299
 21
213.8859916131953
 31
0.0
  0
LINE
  5
23D
330
70
100
AcDbEntity
  8
Bemaßung
 62
     7
370
     9
100
AcDbLine
 10
113.8678090394346
 20
213.8859916131953
 30
0.0
 11
113.9694471937299
 21
213.8859916131953
 31
0.0
  0
LINE
  5
23E
330
70
100
AcDbEntity
  8
Bemaßung
 62
     7
370
     9
100
AcDbLine
 10
113.8678090394346
 20
213.9140673203753
 30
0.0
 11
114.1816754203161
 21
213.9140673203753
 31
0.0
  0
LINE
  5
23F
330
70
100
AcDbEntity
  8
Bemaßung
 62
     7
370
     9
100
AcDbLine
 10
113.8678090394346
 20
213.9419720418856
 30
0.0
 11
114.3938712482359
 21
213.9419720418856
 31
0.0
  0
LINE
  5
240
330
70
100
AcDbEntity
  8
Bemaßung
 62
     7
370
     9
100
AcDbLine
 10
113.8678090394346
 20
213.9698767633959
 30
0.0
 11
114.6059259650481
 21
213.9698767633959
 31
0.0
  0
LINE
  5
241
330
70
100
AcDbEntity
  8
Bemaßung
 62
     7
370
     9
100
AcDbLine
 10
113.8678090394346
 20
213.9979578737906
 30
0.0
 11
114.8182981818523
 21
213.9979578737906
 31
0.0
  0
LINE
  5
242
330
70
100
AcDbEntity
  8
Bemaßung
 62
     7
370
     9
100
AcDbLine
 10
113.8678090394346
 20
214.0258625953009
 30
0.0
 11
115.0305292875489
 21
214.0258625953009
 31
0.0
  0
LINE
  5
243
330
70
100
AcDbEntity
  8
Bemaßung
 62
     7
370
     9
100
AcDbLine
 10
113.8678090394346
 20
214.0537673168112
 30
0.0
 11
115.2427603932455
 21
214.0537673168112
 31
0.0
  0
LINE
  5
244
330
70
100
AcDbEntity
  8
Bemaßung
 62
     7
370
     9
100
AcDbLine
 10
41.8012375446727
 20
239.0184741799085
 30
0.0
 11
41.8012375446727
 21
212.9537356782087
 31
0.0
  0
LINE
  5
245
330
70
100
AcDbEntity
  8
Bemaßung
 62
     7
370
     9
100
AcDbLine
 10
41.8012375446727
 20
214.0537673168112
 30
0.0
 11
57.47607103366327
 21
214.0537673168112
 31
0.0
  0
LWPOLYLINE
  5
246
330
70
100
AcDbEntity
  8
Bemaßung
 62
     7
370
     9
100
AcDbPolyline
 90
        4
 70
     0
 43
0.0
 10
41.8012375446727
 20
214.0537673168112
 10
43.17601250959926
 20
213.8725453769901
 10
43.17601250959926
 20
214.2346364788636
 10
41.8012375446727
 20
214.0537673168112
  0
LINE
  5
247
330
70
100
AcDbEntity
  8
Bemaßung
 62
     7
370
     9
100
AcDbLine
 10
43.17601250959926
 20
213.8859916131953
 30
0.0
 11
43.07437723441442
 21
213.8859916131953
 31
0.0
  0
LINE
  5
248
330
70
100
AcDbEntity
  8
Bemaßung
 62
     7
370
     9
100
AcDbLine
 10
43.17601250959926
 20
213.8859916131953
 30
0.0
 11
43.07437723441442
 21
213.8859916131953
 31
0.0
  0
LINE
  5
249
330
70
100
AcDbEntity
  8
Bemaßung
 62
     7
370
     9
100
AcDbLine
 10
43.17601250959926
 20
213.9140673203753
 30
0.0
 11
42.86214721150662
 21
213.9140673203753
 31
0.0
  0
LINE
  5
24A
330
70
100
AcDbEntity
  8
Bemaßung
 62
     7
370
     9
100
AcDbLine
 10
43.17601250959926
 20
213.9419720418856
 30
0.0
 11
42.65009141190552
 21
213.9419720418856
 31
0.0
  0
LINE
  5
24B
330
70
100
AcDbEntity
  8
Bemaßung
 62
     7
370
     9
100
AcDbLine
 10
43.17601250959926
 20
213.9698767633959
 30
0.0
 11
42.43754280621697
 21
213.9698767633959
 31
0.0
  0
LINE
  5
24C
330
70
100
AcDbEntity
  8
Bemaßung
 62
     7
370
     9
100
AcDbLine
 10
43.17601250959926
 20
213.9979578737906
 30
0.0
 11
42.22548808940472
 21
213.9979578737906
 31
0.0
  0
LINE
  5
24D
330
70
100
AcDbEntity
  8
Bemaßung
 62
     7
370
     9
100
AcDbLine
 10
43.17601250959926
 20
214.0258625953009
 30
0.0
 11
42.01329226148494
 21
214.0258625953009
 31
0.0
  0
LINE
  5
24E
330
70
100
AcDbEntity
  8
Bemaßung
 62
     7
370
     9
100
AcDbLine
 10
43.17601250959926
 20
214.0537673168112
 30
0.0
 11
41.8012375446727
 21
214.0537673168112
 31
0.0
  0
LINE
  5
24F
330
70
100
AcDbEntity
  8
Bemaßung
 62
     7
370
     9
100
AcDbLine
 10
43.17601250959926
 20
214.2211956458731
 30
0.0
 11
43.07437723441442
 21
214.2211956458731
 31
0.0
  0
LINE
  5
250
330
70
100
AcDbEntity
  8
Bemaßung
 62
     7
370
     9
100
AcDbLine
 10
43.17601250959926
 20
214.2211956458731
 30
0.0
 11
43.07437723441442
 21
214.2211956458731
 31
0.0
  0
LINE
  5
251
330
70
100
AcDbEntity
  8
Bemaßung
 62
     7
370
     9
100
AcDbLine
 10
43.17601250959926
 20
214.1932909243628
 30
0.0
 11
42.86214721150662
 21
214.1932909243628
 31
0.0
  0
LINE
  5
252
330
70
100
AcDbEntity
  8
Bemaßung
 62
     7
370
     9
100
AcDbLine
 10
43.17601250959926
 20
214.1653916131252
 30
0.0
 11
42.65009141190552
 21
214.1653916131252
 31
0.0
  0
LINE
  5
253
330
70
100
AcDbEntity
  8
Bemaßung
 62
     7
370
     9
100
AcDbLine
 10
43.17601250959926
 20
214.1374814813421
 30
0.0
 11
42.43754280621697
 21
214.1374814813421
 31
0.0
  0
LINE
  5
254
330
70
100
AcDbEntity
  8
Bemaßung
 62
     7
370
     9
100
AcDbLine
 10
43.17601250959926
 20
214.1095767598319
 30
0.0
 11
42.22548808940472
 21
214.1095767598319
 31
0.0
  0
LINE
  5
255
330
70
100
AcDbEntity
  8
Bemaßung
 62
     7
370
     9
100
AcDbLine
 10
43.17601250959926
 20
214.0816720383215
 30
0.0
 11
42.01329226148494
 21
214.0816720383215
 31
0.0
  0
LINE
  5
256
330
70
100
AcDbEntity
  8
Bemaßung
 62
     7
370
     9
100
AcDbLine
 10
43.17601250959926
 20
214.0537673168112
 30
0.0
 11
41.8012375446727
 21
214.0537673168112
 31
0.0
  0
LWPOLYLINE
  5
257
330
70
100
AcDbEntity
  8
Bemaßung
 62
     7
370
     9
100
AcDbPolyline
 90
        4
 70
     0
 43
0.0
 10
57.47607103366327
 20
214.0537673168112
 10
56.10115495762919
 20
214.2346364788636
 10
56.10115495762919
 20
213.8725453769901
 10
57.47607103366327
 20
214.0537673168112
  0
LINE
  5
258
330
70
100
AcDbEntity
  8
Bemaßung
 62
     7
370
     9
100
AcDbLine
 10
56.10115495762919
 20
214.2211956458731
 30
0.0
 11
56.20275495503715
 21
214.2211956458731
 31
0.0
  0
LINE
  5
259
330
70
100
AcDbEntity
  8
Bemaßung
 62
     7
370
     9
100
AcDbLine
 10
56.10115495762919
 20
214.2211956458731
 30
0.0
 11
56.20275495503715
 21
214.2211956458731
 31
0.0
  0
LINE
  5
25A
330
70
100
AcDbEntity
  8
Bemaßung
 62
     7
370
     9
100
AcDbLine
 10
56.10115495762919
 20
214.1932909243628
 30
0.0
 11
56.41463328296502
 21
214.1932909243628
 31
0.0
  0
LINE
  5
25B
330
70
100
AcDbEntity
  8
Bemaßung
 62
     7
370
     9
100
AcDbLine
 10
56.10115495762919
 20
214.1653916131252
 30
0.0
 11
56.62721716643044
 21
214.1653916131252
 31
0.0
  0
LINE
  5
25C
330
70
100
AcDbEntity
  8
Bemaßung
 62
     7
370
     9
100
AcDbLine
 10
56.10115495762919
 20
214.1374814813421
 30
0.0
 11
56.83941299435021
 21
214.1374814813421
 31
0.0
  0
LINE
  5
25D
330
70
100
AcDbEntity
  8
Bemaßung
 62
     7
370
     9
100
AcDbLine
 10
56.10115495762919
 20
214.1095767598319
 30
0.0
 11
57.05164410004686
 21
214.1095767598319
 31
0.0
  0
LINE
  5
25E
330
70
100
AcDbEntity
  8
Bemaßung
 62
     7
370
     9
100
AcDbLine
 10
56.10115495762919
 20
214.0816720383215
 30
0.0
 11
57.2638752057435
 21
214.0816720383215
 31
0.0
  0
LINE
  5
25F
330
70
100
AcDbEntity
  8
Bemaßung
 62
     7
370
     9
100
AcDbLine
 10
56.10115495762919
 20
214.0537673168112
 30
0.0
 11
57.47607103366327
 21
214.0537673168112
 31
0.0
  0
LINE
  5
260
330
70
100
AcDbEntity
  8
Bemaßung
 62
     7
370
     9
100
AcDbLine
 10
56.10115495762919
 20
213.8859916131953
 30
0.0
 11
56.20275495503715
 21
213.8859916131953
 31
0.0
  0
LINE
  5
261
330
70
100
AcDbEntity
  8
Bemaßung
 62
     7
370
     9
100
AcDbLine
 10
56.10115495762919
 20
213.8859916131953
 30
0.0
 11
56.20275495503715
 21
213.8859916131953
 31
0.0
  0
LINE
  5
262
330
70
100
AcDbEntity
  8
Bemaßung
 62
     7
370
     9
100
AcDbLine
 10
56.10115495762919
 20
213.9140673203753
 30
0.0
 11
56.41463328296502
 21
213.9140673203753
 31
0.0
  0
LINE
  5
263
330
70
100
AcDbEntity
  8
Bemaßung
 62
     7
370
     9
100
AcDbLine
 10
56.10115495762919
 20
213.9419720418856
 30
0.0
 11
56.62721716643044
 21
213.9419720418856
 31
0.0
  0
LINE
  5
264
330
70
100
AcDbEntity
  8
Bemaßung
 62
     7
370
     9
100
AcDbLine
 10
56.10115495762919
 20
213.9698767633959
 30
0.0
 11
56.83941299435021
 21
213.9698767633959
 31
0.0
  0
LINE
  5
265
330
70
100
AcDbEntity
  8
Bemaßung
 62
     7
370
     9
100
AcDbLine
 10
56.10115495762919
 20
213.9979578737906
 30
0.0
 11
57.05164410004686
 21
213.9979578737906
 31
0.0
  0
LINE
  5
266
330
70
100
AcDbEntity
  8
Bemaßung
 62
     7
370
     9
100
AcDbLine
 10
56.10115495762919
 20
214.0258625953009
 30
0.0
 11
57.2638752057435
 21
214.0258625953009
 31
0.0
  0
LINE
  5
267
330
70
100
AcDbEntity
  8
Bemaßung
 62
     7
370
     9
100
AcDbLine
 10
56.10115495762919
 20
214.0537673168112
 30
0.0
 11
57.47607103366327
 21
214.0537673168112
 31
0.0
  0
LINE
  5
268
330
70
100
AcDbEntity
  8
Bemaßung
 62
     7
370
     9
100
AcDbLine
 10
78.61406586543694
 20
157.0784481998664
 30
0.0
 11
94.93537285952164
 21
157.0784481998664
 31
0.0
  0
LINE
  5
269
330
70
100
AcDbEntity
  8
Bemaßung
 62
     7
370
     9
100
AcDbLine
 10
78.61406586543759
 20
170.5532893076087
 30
0.0
 11
102.8632183821275
 21
170.5532893076087
 31
0.0
  0
LINE
  5
26A
330
70
100
AcDbEntity
  8
Bemaßung
 62
     7
370
     9
100
AcDbLine
 10
80.0244890136849
 20
157.0784481998664
 30
0.0
 11
80.0244890136849
 21
170.5532893076087
 31
0.0
  0
LWPOLYLINE
  5
26B
330
70
100
AcDbEntity
  8
Bemaßung
 62
     7
370
     9
100
AcDbPolyline
 90
        4
 70
     0
 43
0.0
 10
80.0244890136849
 20
157.0784481998664
 10
80.20551693030654
 20
158.4533290328558
 10
79.84346109706326
 20
158.4533290328558
 10
80.0244890136849
 20
157.0784481998664
  0
LINE
  5
26C
330
70
100
AcDbEntity
  8
Bemaßung
 62
     7
370
     9
100
AcDbLine
 10
80.19232304142121
 20
158.4533290328558
 30
0.0
 11
80.19232304142121
 21
158.3516584773257
 31
0.0
  0
LINE
  5
26D
330
70
100
AcDbEntity
  8
Bemaßung
 62
     7
370
     9
100
AcDbLine
 10
80.19232304142121
 20
158.4533290328558
 30
0.0
 11
80.19232304142121
 21
158.3516584773257
 31
0.0
  0
LINE
  5
26E
330
70
100
AcDbEntity
  8
Bemaßung
 62
     7
370
     9
100
AcDbLine
 10
80.16438304142814
 20
158.4533290328558
 30
0.0
 11
80.16438304142814
 21
158.1395861162675
 31
0.0
  0
LINE
  5
26F
330
70
100
AcDbEntity
  8
Bemaßung
 62
     7
370
     9
100
AcDbLine
 10
80.13644304143509
 20
158.4533290328558
 30
0.0
 11
80.13644304143509
 21
157.9273197274319
 31
0.0
  0
LINE
  5
270
330
70
100
AcDbEntity
  8
Bemaßung
 62
     7
370
     9
100
AcDbLine
 10
80.10850304144204
 20
158.4533290328558
 30
0.0
 11
80.10850304144204
 21
157.715053338596
 31
0.0
  0
LINE
  5
271
330
70
100
AcDbEntity
  8
Bemaßung
 62
     7
370
     9
100
AcDbLine
 10
80.08036901367102
 20
158.4533290328558
 30
0.0
 11
80.08036901367102
 21
157.5027869497602
 31
0.0
  0
LINE
  5
272
330
70
100
AcDbEntity
  8
Bemaßung
 62
     7
370
     9
100
AcDbLine
 10
80.05242901367795
 20
158.4533290328558
 30
0.0
 11
80.05242901367795
 21
157.2907145887019
 31
0.0
  0
LINE
  5
273
330
70
100
AcDbEntity
  8
Bemaßung
 62
     7
370
     9
100
AcDbLine
 10
80.0244890136849
 20
158.4533290328558
 30
0.0
 11
80.0244890136849
 21
157.0784481998664
 31
0.0
  0
LINE
  5
274
330
70
100
AcDbEntity
  8
Bemaßung
 62
     7
370
     9
100
AcDbLine
 10
79.85684901372653
 20
158.4533290328558
 30
0.0
 11
79.85684901372653
 21
158.3516584773257
 31
0.0
  0
LINE
  5
275
330
70
100
AcDbEntity
  8
Bemaßung
 62
     7
370
     9
100
AcDbLine
 10
79.85684901372653
 20
158.4533290328558
 30
0.0
 11
79.85684901372653
 21
158.3516584773257
 31
0.0
  0
LINE
  5
276
330
70
100
AcDbEntity
  8
Bemaßung
 62
     7
370
     9
100
AcDbLine
 10
79.88478901371959
 20
158.4533290328558
 30
0.0
 11
79.88478901371959
 21
158.1395861162675
 31
0.0
  0
LINE
  5
277
330
70
100
AcDbEntity
  8
Bemaßung
 62
     7
370
     9
100
AcDbLine
 10
79.91272901371265
 20
158.4533290328558
 30
0.0
 11
79.91272901371265
 21
157.9273197274319
 31
0.0
  0
LINE
  5
278
330
70
100
AcDbEntity
  8
Bemaßung
 62
     7
370
     9
100
AcDbLine
 10
79.94066901370572
 20
158.4533290328558
 30
0.0
 11
79.94066901370572
 21
157.715053338596
 31
0.0
  0
LINE
  5
279
330
70
100
AcDbEntity
  8
Bemaßung
 62
     7
370
     9
100
AcDbLine
 10
79.96860901369878
 20
158.4533290328558
 30
0.0
 11
79.96860901369878
 21
157.5027869497602
 31
0.0
  0
LINE
  5
27A
330
70
100
AcDbEntity
  8
Bemaßung
 62
     7
370
     9
100
AcDbLine
 10
79.99654901369183
 20
158.4533290328558
 30
0.0
 11
79.99654901369183
 21
157.2907145887019
 31
0.0
  0
LINE
  5
27B
330
70
100
AcDbEntity
  8
Bemaßung
 62
     7
370
     9
100
AcDbLine
 10
80.0244890136849
 20
158.4533290328558
 30
0.0
 11
80.0244890136849
 21
157.0784481998664
 31
0.0
  0
LWPOLYLINE
  5
27C
330
70
100
AcDbEntity
  8
Bemaßung
 62
     7
370
     9
100
AcDbPolyline
 90
        4
 70
     0
 43
0.0
 10
80.0244890136849
 20
170.5532893076087
 10
79.84346109706326
 20
169.1784084746189
 10
80.20551693030654
 20
169.1784084746189
 10
80.0244890136849
 20
170.5532893076087
  0
LINE
  5
27D
330
70
100
AcDbEntity
  8
Bemaßung
 62
     7
370
     9
100
AcDbLine
 10
79.85684901372653
 20
169.1784084746189
 30
0.0
 11
79.85684901372653
 21
169.2800790301494
 31
0.0
  0
LINE
  5
27E
330
70
100
AcDbEntity
  8
Bemaßung
 62
     7
370
     9
100
AcDbLine
 10
79.85684901372653
 20
169.1784084746189
 30
0.0
 11
79.85684901372653
 21
169.2800790301494
 31
0.0
  0
LINE
  5
27F
330
70
100
AcDbEntity
  8
Bemaßung
 62
     7
370
     9
100
AcDbLine
 10
79.88478901371959
 20
169.1784084746189
 30
0.0
 11
79.88478901371959
 21
169.4921513912072
 31
0.0
  0
LINE
  5
280
330
70
100
AcDbEntity
  8
Bemaßung
 62
     7
370
     9
100
AcDbLine
 10
79.91272901371265
 20
169.1784084746189
 30
0.0
 11
79.91272901371265
 21
169.7044177800431
 31
0.0
  0
LINE
  5
281
330
70
100
AcDbEntity
  8
Bemaßung
 62
     7
370
     9
100
AcDbLine
 10
79.94066901370572
 20
169.1784084746189
 30
0.0
 11
79.94066901370572
 21
169.916684168879
 31
0.0
  0
LINE
  5
282
330
70
100
AcDbEntity
  8
Bemaßung
 62
     7
370
     9
100
AcDbLine
 10
79.96860901369878
 20
169.1784084746189
 30
0.0
 11
79.96860901369878
 21
170.1289505577149
 31
0.0
  0
LINE
  5
283
330
70
100
AcDbEntity
  8
Bemaßung
 62
     7
370
     9
100
AcDbLine
 10
79.99654901369183
 20
169.1784084746189
 30
0.0
 11
79.99654901369183
 21
170.3410229187728
 31
0.0
  0
LINE
  5
284
330
70
100
AcDbEntity
  8
Bemaßung
 62
     7
370
     9
100
AcDbLine
 10
80.0244890136849
 20
169.1784084746189
 30
0.0
 11
80.0244890136849
 21
170.5532893076087
 31
0.0
  0
LINE
  5
285
330
70
100
AcDbEntity
  8
Bemaßung
 62
     7
370
     9
100
AcDbLine
 10
80.19232304142121
 20
169.1784084746189
 30
0.0
 11
80.19232304142121
 21
169.2800790301494
 31
0.0
  0
LINE
  5
286
330
70
100
AcDbEntity
  8
Bemaßung
 62
     7
370
     9
100
AcDbLine
 10
80.19232304142121
 20
169.1784084746189
 30
0.0
 11
80.19232304142121
 21
169.2800790301494
 31
0.0
  0
LINE
  5
287
330
70
100
AcDbEntity
  8
Bemaßung
 62
     7
370
     9
100
AcDbLine
 10
80.16438304142814
 20
169.1784084746189
 30
0.0
 11
80.16438304142814
 21
169.4921513912072
 31
0.0
  0
LINE
  5
288
330
70
100
AcDbEntity
  8
Bemaßung
 62
     7
370
     9
100
AcDbLine
 10
80.13644304143509
 20
169.1784084746189
 30
0.0
 11
80.13644304143509
 21
169.7044177800431
 31
0.0
  0
LINE
  5
289
330
70
100
AcDbEntity
  8
Bemaßung
 62
     7
370
     9
100
AcDbLine
 10
80.10850304144204
 20
169.1784084746189
 30
0.0
 11
80.10850304144204
 21
169.916684168879
 31
0.0
  0
LINE
  5
28A
330
70
100
AcDbEntity
  8
Bemaßung
 62
     7
370
     9
100
AcDbLine
 10
80.08036901367102
 20
169.1784084746189
 30
0.0
 11
80.08036901367102
 21
170.1289505577149
 31
0.0
  0
LINE
  5
28B
330
70
100
AcDbEntity
  8
Bemaßung
 62
     7
370
     9
100
AcDbLine
 10
80.05242901367795
 20
169.1784084746189
 30
0.0
 11
80.05242901367795
 21
170.3410229187728
 31
0.0
  0
LINE
  5
28C
330
70
100
AcDbEntity
  8
Bemaßung
 62
     7
370
     9
100
AcDbLine
 10
80.0244890136849
 20
169.1784084746189
 30
0.0
 11
80.0244890136849
 21
170.5532893076087
 31
0.0
  0
LINE
  5
28D
330
70
100
AcDbEntity
  8
Bemaßung
 62
     7
370
     9
100
AcDbLine
 10
85.62875525438419
 20
160.6534100045282
 30
0.0
 11
103.3609219211815
 21
160.6534100045282
 31
0.0
  0
LINE
  5
28E
330
70
100
AcDbEntity
  8
Bemaßung
 62
     7
370
     9
100
AcDbLine
 10
86.56474278683848
 20
170.5532893076087
 30
0.0
 11
86.56474278683848
 21
160.6534100045282
 31
0.0
  0
LWPOLYLINE
  5
28F
330
70
100
AcDbEntity
  8
Bemaßung
 62
     7
370
     9
100
AcDbPolyline
 90
        4
 70
     0
 43
0.0
 10
86.56474278683848
 20
170.5532893076087
 10
86.38371487021748
 20
169.1784084746189
 10
86.74577070346014
 20
169.1784084746189
 10
86.56474278683848
 20
170.5532893076087
  0
LINE
  5
290
330
70
100
AcDbEntity
  8
Bemaßung
 62
     7
370
     9
100
AcDbLine
 10
86.39690875910281
 20
169.1784084746189
 30
0.0
 11
86.39690875910281
 21
169.2800790301494
 31
0.0
  0
LINE
  5
291
330
70
100
AcDbEntity
  8
Bemaßung
 62
     7
370
     9
100
AcDbLine
 10
86.39690875910281
 20
169.1784084746189
 30
0.0
 11
86.39690875910281
 21
169.2800790301494
 31
0.0
  0
LINE
  5
292
330
70
100
AcDbEntity
  8
Bemaßung
 62
     7
370
     9
100
AcDbLine
 10
86.42504278687319
 20
169.1784084746189
 30
0.0
 11
86.42504278687319
 21
169.4921513912072
 31
0.0
  0
LINE
  5
293
330
70
100
AcDbEntity
  8
Bemaßung
 62
     7
370
     9
100
AcDbLine
 10
86.45298278686624
 20
169.1784084746189
 30
0.0
 11
86.45298278686624
 21
169.7044177800431
 31
0.0
  0
LINE
  5
294
330
70
100
AcDbEntity
  8
Bemaßung
 62
     7
370
     9
100
AcDbLine
 10
86.48092278685931
 20
169.1784084746189
 30
0.0
 11
86.48092278685931
 21
169.916684168879
 31
0.0
  0
LINE
  5
295
330
70
100
AcDbEntity
  8
Bemaßung
 62
     7
370
     9
100
AcDbLine
 10
86.50886278685236
 20
169.1784084746189
 30
0.0
 11
86.50886278685236
 21
170.1289505577149
 31
0.0
  0
LINE
  5
296
330
70
100
AcDbEntity
  8
Bemaßung
 62
     7
370
     9
100
AcDbLine
 10
86.53680278684543
 20
169.1784084746189
 30
0.0
 11
86.53680278684543
 21
170.3410229187728
 31
0.0
  0
LINE
  5
297
330
70
100
AcDbEntity
  8
Bemaßung
 62
     7
370
     9
100
AcDbLine
 10
86.56474278683848
 20
169.1784084746189
 30
0.0
 11
86.56474278683848
 21
170.5532893076087
 31
0.0
  0
LINE
  5
298
330
70
100
AcDbEntity
  8
Bemaßung
 62
     7
370
     9
100
AcDbLine
 10
86.73218875901888
 20
169.1784084746189
 30
0.0
 11
86.73218875901888
 21
169.2800790301494
 31
0.0
  0
LINE
  5
299
330
70
100
AcDbEntity
  8
Bemaßung
 62
     7
370
     9
100
AcDbLine
 10
86.73218875901888
 20
169.1784084746189
 30
0.0
 11
86.73218875901888
 21
169.2800790301494
 31
0.0
  0
LINE
  5
29A
330
70
100
AcDbEntity
  8
Bemaßung
 62
     7
370
     9
100
AcDbLine
 10
86.70424875902583
 20
169.1784084746189
 30
0.0
 11
86.70424875902583
 21
169.4921513912072
 31
0.0
  0
LINE
  5
29B
330
70
100
AcDbEntity
  8
Bemaßung
 62
     7
370
     9
100
AcDbLine
 10
86.67650278681072
 20
169.1784084746189
 30
0.0
 11
86.67650278681072
 21
169.7044177800431
 31
0.0
  0
LINE
  5
29C
330
70
100
AcDbEntity
  8
Bemaßung
 62
     7
370
     9
100
AcDbLine
 10
86.64856278681765
 20
169.1784084746189
 30
0.0
 11
86.64856278681765
 21
169.916684168879
 31
0.0
  0
LINE
  5
29D
330
70
100
AcDbEntity
  8
Bemaßung
 62
     7
370
     9
100
AcDbLine
 10
86.6206227868246
 20
169.1784084746189
 30
0.0
 11
86.6206227868246
 21
170.1289505577149
 31
0.0
  0
LINE
  5
29E
330
70
100
AcDbEntity
  8
Bemaßung
 62
     7
370
     9
100
AcDbLine
 10
86.59268278683155
 20
169.1784084746189
 30
0.0
 11
86.59268278683155
 21
170.3410229187728
 31
0.0
  0
LINE
  5
29F
330
70
100
AcDbEntity
  8
Bemaßung
 62
     7
370
     9
100
AcDbLine
 10
86.56474278683848
 20
169.1784084746189
 30
0.0
 11
86.56474278683848
 21
170.5532893076087
 31
0.0
  0
LWPOLYLINE
  5
2A0
330
70
100
AcDbEntity
  8
Bemaßung
 62
     7
370
     9
100
AcDbPolyline
 90
        4
 70
     0
 43
0.0
 10
86.56474278683848
 20
160.6534100045282
 10
86.74577070346014
 20
162.0284848652953
 10
86.38371487021748
 20
162.0284848652953
 10
86.56474278683848
 20
160.6534100045282
  0
LINE
  5
2A1
330
70
100
AcDbEntity
  8
Bemaßung
 62
     7
370
     9
100
AcDbLine
 10
86.73218875901888
 20
162.0284848652953
 30
0.0
 11
86.73218875901888
 21
161.9268143097652
 31
0.0
  0
LINE
  5
2A2
330
70
100
AcDbEntity
  8
Bemaßung
 62
     7
370
     9
100
AcDbLine
 10
86.73218875901888
 20
162.0284848652953
 30
0.0
 11
86.73218875901888
 21
161.9268143097652
 31
0.0
  0
LINE
  5
2A3
330
70
100
AcDbEntity
  8
Bemaßung
 62
     7
370
     9
100
AcDbLine
 10
86.70424875902583
 20
162.0284848652953
 30
0.0
 11
86.70424875902583
 21
161.7145479209296
 31
0.0
  0
LINE
  5
2A4
330
70
100
AcDbEntity
  8
Bemaßung
 62
     7
370
     9
100
AcDbLine
 10
86.67650278681072
 20
162.0284848652953
 30
0.0
 11
86.67650278681072
 21
161.5022815320937
 31
0.0
  0
LINE
  5
2A5
330
70
100
AcDbEntity
  8
Bemaßung
 62
     7
370
     9
100
AcDbLine
 10
86.64856278681765
 20
162.0284848652953
 30
0.0
 11
86.64856278681765
 21
161.2902091710355
 31
0.0
  0
LINE
  5
2A6
330
70
100
AcDbEntity
  8
Bemaßung
 62
     7
370
     9
100
AcDbLine
 10
86.6206227868246
 20
162.0284848652953
 30
0.0
 11
86.6206227868246
 21
161.0779427821996
 31
0.0
  0
LINE
  5
2A7
330
70
100
AcDbEntity
  8
Bemaßung
 62
     7
370
     9
100
AcDbLine
 10
86.59268278683155
 20
162.0284848652953
 30
0.0
 11
86.59268278683155
 21
160.8656763933641
 31
0.0
  0
LINE
  5
2A8
330
70
100
AcDbEntity
  8
Bemaßung
 62
     7
370
     9
100
AcDbLine
 10
86.56474278683848
 20
162.0284848652953
 30
0.0
 11
86.56474278683848
 21
160.6534100045282
 31
0.0
  0
LINE
  5
2A9
330
70
100
AcDbEntity
  8
Bemaßung
 62
     7
370
     9
100
AcDbLine
 10
86.39690875910281
 20
162.0284848652953
 30
0.0
 11
86.39690875910281
 21
161.9268143097652
 31
0.0
  0
LINE
  5
2AA
330
70
100
AcDbEntity
  8
Bemaßung
 62
     7
370
     9
100
AcDbLine
 10
86.39690875910281
 20
162.0284848652953
 30
0.0
 11
86.39690875910281
 21
161.9268143097652
 31
0.0
  0
LINE
  5
2AB
330
70
100
AcDbEntity
  8
Bemaßung
 62
     7
370
     9
100
AcDbLine
 10
86.42504278687319
 20
162.0284848652953
 30
0.0
 11
86.42504278687319
 21
161.7145479209296
 31
0.0
  0
LINE
  5
2AC
330
70
100
AcDbEntity
  8
Bemaßung
 62
     7
370
     9
100
AcDbLine
 10
86.45298278686624
 20
162.0284848652953
 30
0.0
 11
86.45298278686624
 21
161.5022815320937
 31
0.0
  0
LINE
  5
2AD
330
70
100
AcDbEntity
  8
Bemaßung
 62
     7
370
     9
100
AcDbLine
 10
86.48092278685931
 20
162.0284848652953
 30
0.0
 11
86.48092278685931
 21
161.2902091710355
 31
0.0
  0
LINE
  5
2AE
330
70
100
AcDbEntity
  8
Bemaßung
 62
     7
370
     9
100
AcDbLine
 10
86.50886278685236
 20
162.0284848652953
 30
0.0
 11
86.50886278685236
 21
161.0779427821996
 31
0.0
  0
LINE
  5
2AF
330
70
100
AcDbEntity
  8
Bemaßung
 62
     7
370
     9
100
AcDbLine
 10
86.53680278684543
 20
162.0284848652953
 30
0.0
 11
86.53680278684543
 21
160.8656763933641
 31
0.0
  0
LINE
  5
2B0
330
70
100
AcDbEntity
  8
Bemaßung
 62
     7
370
     9
100
AcDbLine
 10
86.56474278683848
 20
162.0284848652953
 30
0.0
 11
86.56474278683848
 21
160.6534100045282
 31
0.0
  0
MTEXT
  5
2B2
330
70
100
AcDbEntity
  8
Text
100
AcDbMText
 10
55.15339489723596
 20
152.2735649575913
 30
0.0
 40
0.2
 41
0.0
 46
0.0
 71
     7
 72
     1
  1
\C7;\FINDEX Univers 45 Light|b0|i0|c1;\H2.497667;\W1.000000;ø16H5
 73
     1
 44
1.0
  0
MTEXT
  5
2B3
330
70
100
AcDbEntity
  8
Text
100
AcDbMText
 10
36.2708265425816
 20
169.6750867631368
 30
0.0
 40
0.2
 41
0.0
 46
0.0
 71
     7
 72
     1
  1
\C7;\FINDEX Univers 45 Light|b0|i0|c1;\H2.497667;\W1.000000;51
 11
0.0000000000000001
 21
1.0
 31
0.0
 73
     1
 44
1.0
  0
MTEXT
  5
2B4
330
70
100
AcDbEntity
  8
Text
100
AcDbMText
 10
122.0345838453594
 20
245.2107000797564
 30
0.0
 40
0.2
 41
0.0
 46
0.0
 71
     7
 72
     1
  1
\C7;\FINDEX Univers 45 Light|b0|i0|c1;\H2.497667;\W1.000000;25
 11
0.0000000000000001
 21
1.0
 31
0.0
 73
     1
 44
1.0
  0
MTEXT
  5
2B5
330
70
100
AcDbEntity
  8
Text
100
AcDbMText
 10
122.2446485425725
 20
196.7714517737238
 30
0.0
 40
0.2
 41
0.0
 46
0.0
 71
     7
 72
     1
  1
\C7;\FINDEX Univers 45 Light|b0|i0|c1;\H2.497667;\W1.000000;150
 11
0.0000000000000001
 21
1.0
 31
0.0
 73
     1
 44
1.0
  0
MTEXT
  5
2B6
330
70
100
AcDbEntity
  8
Text
100
AcDbMText
 10
98.09995521636043
 20
214.8209960400448
 30
0.0
 40
0.2
 41
0.0
 46
0.0
 71
     7
 72
     1
  1
\C7;\FINDEX Univers 45 Light|b0|i0|c1;\H2.497667;\W1.000000;ø50
 73
     1
 44
1.0
  0
MTEXT
  5
2B7
330
70
100
AcDbEntity
  8
Text
100
AcDbMText
 10
45.47853324600884
 20
214.6812974181179
 30
0.0
 40
0.2
 41
0.0
 46
0.0
 71
     7
 72
     1
  1
\C7;\FINDEX Univers 45 Light|b0|i0|c1;\H2.497667;\W1.000000;ø28,5
 73
     1
 44
1.0
  0
MTEXT
  5
2B8
330
70
100
AcDbEntity
  8
Text
100
AcDbMText
 10
79.37899682921531
 20
160.522245896793
 30
0.0
 40
0.2
 41
0.0
 46
0.0
 71
     7
 72
     1
  1
\C7;\FINDEX Univers 45 Light|b0|i0|c1;\H2.497667;\W1.000000;24,5
 11
0.0000000000000001
 21
1.0
 31
0.0
 73
     1
 44
1.0
  0
MTEXT
  5
2B9
330
70
100
AcDbEntity
  8
Text
100
AcDbMText
 10
85.9192327125646
 20
163.1225286075958
 30
0.0
 40
0.2
 41
0.0
 46
0.0
 71
     7
 72
     1
  1
\C7;\FINDEX Univers 45 Light|b0|i0|c1;\H2.497667;\W1.000000;18
 11
0.0000000000000001
 21
1.0
 31
0.0
 73
     1
 44
1.0
  0
ENDSEC
  0
SECTION
  2
OBJECTS
  0
DICTIONARY
  5
C
330
0
100
AcDbDictionary
281
     1
  3
ACAD_COLOR
350
63
  3
ACAD_DETAILVIEWSTYLE
350
6A
  3
ACAD_GROUP
350
D
  3
ACAD_LAYOUT
350
62
  3
ACAD_MATERIAL
350
10
  3
ACAD_MLEADERSTYLE
350
66
  3
ACAD_MLINESTYLE
350
5F
  3
ACAD_PLOTSETTINGS
350
61
  3
ACAD_PLOTSTYLENAME
350
E
  3
ACAD_SCALELIST
350
42
  3
ACAD_SECTIONVIEWSTYLE
350
68
  3
ACAD_TABLESTYLE
350
64
  3
ACAD_VISUALSTYLE
350
29
  3
ACDB_RECOMPOSE_DATA
350
2C2
  3
AcDbVariableDictionary
350
2BA
  0
DICTIONARY
  5
63
102
{ACAD_REACTORS
330
C
102
}
330
C
100
AcDbDictionary
281
     1
  0
DICTIONARY
  5
6A
102
{ACAD_REACTORS
330
C
102
}
330
C
100
AcDbDictionary
281
     1
  3
Imperial24
350
6B
  0
DICTIONARY
  5
D
102
{ACAD_REACTORS
330
C
102
}
330
C
100
AcDbDictionary
281
     1
  0
DICTIONARY
  5
62
102
{ACAD_REACTORS
330
C
102
}
330
C
100
AcDbDictionary
281
     1
  3
Layout1
350
6F
  3
Layout2
350
77
  3
Model
350
73
  0
DICTIONARY
  5
10
102
{ACAD_REACTORS
330
C
102
}
330
C
100
AcDbDictionary
281
     1
  3
ByBlock
350
19
  3
ByLayer
350
11
  3
Global
350
21
  0
DICTIONARY
  5
66
102
{ACAD_REACTORS
330
C
102
}
330
C
100
AcDbDictionary
281
     1
  3
Standard
350
67
  0
DICTIONARY
  5
5F
102
{ACAD_REACTORS
330
C
102
}
330
C
100
AcDbDictionary
281
     1
  3
Standard
350
60
  0
DICTIONARY
  5
61
102
{ACAD_REACTORS
330
C
102
}
330
C
100
AcDbDictionary
281
     1
  0
ACDBDICTIONARYWDFLT
  5
E
102
{ACAD_REACTORS
330
C
102
}
330
C
100
AcDbDictionary
281
     1
  3
Normal
350
F
100
AcDbDictionaryWithDefault
340
F
  0
DICTIONARY
  5
42
102
{ACAD_REACTORS
330
C
102
}
330
C
100
AcDbDictionary
281
     1
  3
A0
350
43
  3
A1
350
44
  3
A2
350
45
  3
A3
350
46
  3
A4
350
47
  3
A5
350
48
  3
A6
350
49
  3
A7
350
4A
  3
A8
350
4B
  3
A9
350
4C
  3
B0
350
4D
  3
B1
350
4E
  3
B2
350
4F
  3
B3
350
50
  3
B4
350
51
  3
B5
350
52
  3
B6
350
53
  0
DICTIONARY
  5
68
102
{ACAD_REACTORS
330
C
102
}
330
C
100
AcDbDictionary
281
     1
  3
Imperial24
350
69
  0
DICTIONARY
  5
64
102
{ACAD_REACTORS
330
C
102
}
330
C
100
AcDbDictionary
281
     1
  3
Standard
350
65
  0
DICTIONARY
  5
29
102
{ACAD_REACTORS
330
C
102
}
330
C
100
AcDbDictionary
281
     1
  3
2dWireframe
350
2F
  3
Basic
350
2E
  3
Brighten
350
35
  3
ColorChange
350
39
  3
Conceptual
350
32
  3
Dim
350
34
  3
EdgeColorOff
350
41
  3
Facepattern
350
38
  3
Flat
350
2A
  3
FlatWithEdges
350
2B
  3
Gouraud
350
2C
  3
GouraudWithEdges
350
2D
  3
Hidden
350
31
  3
JitterOff
350
3F
  3
Linepattern
350
37
  3
OverhangOff
350
40
  3
Realistic
350
33
  3
Shaded
350
3E
  3
Shaded with edges
350
3D
  3
Shades of Gray
350
3A
  3
Sketchy
350
3B
  3
Thicken
350
36
  3
Wireframe
350
30
  3
X-Ray
350
3C
  0
XRECORD
  5
2C2
102
{ACAD_REACTORS
330
C
102
}
330
C
100
AcDbXrecord
280
     1
 90
        1
330
65
  0
DICTIONARY
  5
2BA
102
{ACAD_REACTORS
330
C
102
}
330
C
100
AcDbDictionary
281
     1
  3
CANNOSCALE
350
2BF
  3
CMLEADERSTYLE
350
2BC
  3
CTABLESTYLE
350
2BB
  3
CVIEWDETAILSTYLE
350
2BD
  3
CVIEWSECTIONSTYLE
350
2BE
  0
ACDBDETAILVIEWSTYLE
  5
6B
102
{ACAD_REACTORS
330
6A
102
}
330
6A
100
AcDbModelDocViewStyle
 70
     0
  3
Imperial24
290
     1
300
Imperial24
 90
        0
100
AcDbDetailViewStyle
 70
     0
 71
     0
 90
        3
 71
     1
340
55
 62
   256
 40
0.24
340
0
 62
   256
 40
0.24
300

 40
0.36
280
     3
 71
     2
340
5D
 90
       25
 62
   256
 71
     3
340
55
 62
   256
 40
0.24
 90
        1
 40
0.75
 90
        1
300
%<\AcVar ViewType \f "%tc1">% %<\AcVar ViewDetailId>%\PSCALE %<\AcVar ViewScale \f "%sn">%
 71
     4
340
5D
 90
       25
 62
   256
340
5D
 90
       25
 62
   256
280
     0
  0
LAYOUT
  5
6F
102
{ACAD_REACTORS
330
62
102
}
330
62
100
AcDbPlotSettings
  1

  2

  4

  6

 40
0.0
 41
0.0
 42
0.0
 43
0.0
 44
0.0
 45
0.0
 46
0.0
 47
0.0
 48
0.0
 49
0.0
140
0.0
141
0.0
142
1.0
143
1.0
 70
   688
 72
     0
 73
     0
 74
     5
  7

 75
    16
147
1.0
 76
     0
 77
     2
 78
   300
148
0.0
149
0.0
100
AcDbLayout
  1
Layout1
 70
     1
 71
     1
 10
0.0
 20
0.0
 11
12.0
 21
9.0
 12
0.0
 22
0.0
 32
0.0
 14
0.0
 24
0.0
 34
0.0
 15
0.0
 25
0.0
 35
0.0
146
0.0
 13
0.0
 23
0.0
 33
0.0
 16
1.0
 26
0.0
 36
0.0
 17
0.0
 27
1.0
 37
0.0
 76
     0
330
6C
  0
LAYOUT
  5
77
102
{ACAD_REACTORS
330
62
102
}
330
62
100
AcDbPlotSettings
  1

  2

  4

  6

 40
0.0
 41
0.0
 42
0.0
 43
0.0
 44
0.0
 45
0.0
 46
0.0
 47
0.0
 48
0.0
 49
0.0
140
0.0
141
0.0
142
1.0
143
1.0
 70
   688
 72
     0
 73
     0
 74
     5
  7

 75
    16
147
1.0
 76
     0
 77
     2
 78
   300
148
0.0
149
0.0
100
AcDbLayout
  1
Layout2
 70
     1
 71
     2
 10
0.0
 20
0.0
 11
12.0
 21
9.0
 12
0.0
 22
0.0
 32
0.0
 14
0.0
 24
0.0
 34
0.0
 15
0.0
 25
0.0
 35
0.0
146
0.0
 13
0.0
 23
0.0
 33
0.0
 16
1.0
 26
0.0
 36
0.0
 17
0.0
 27
1.0
 37
0.0
 76
     0
330
74
  0
LAYOUT
  5
73
102
{ACAD_REACTORS
330
62
102
}
330
62
100
AcDbPlotSettings
  1

  2

  4

  6

 40
0.0
 41
0.0
 42
0.0
 43
0.0
 44
0.0
 45
0.0
 46
0.0
 47
0.0
 48
0.0
 49
0.0
140
0.0
141
0.0
142
1.0
143
1.0
 70
  1712
 72
     0
 73
     0
 74
     0
  7

 75
     0
147
1.0
 76
     0
 77
     2
 78
   300
148
0.0
149
0.0
100
AcDbLayout
  1
Model
 70
     1
 71
     0
 10
0.0
 20
0.0
 11
12.0
 21
9.0
 12
0.0
 22
0.0
 32
0.0
 14
0.0
 24
0.0
 34
0.0
 15
0.0
 25
0.0
 35
0.0
146
0.0
 13
0.0
 23
0.0
 33
0.0
 16
1.0
 26
0.0
 36
0.0
 17
0.0
 27
1.0
 37
0.0
 76
     0
330
70
  0
MATERIAL
  5
19
102
{ACAD_XDICTIONARY
360
1A
102
}
102
{ACAD_REACTORS
330
10
102
}
330
10
100
AcDbMaterial
  1
ByBlock
 72
     0
 43
0.0208333333333333
 43
0.0
 43
0.0
 43
0.0
 43
0.0
 43
0.0208333333333333
 43
0.0
 43
0.0
 43
0.0
 43
0.0
 43
1.0
 43
0.0
 43
0.0
 43
0.0
 43
0.0
 43
1.0
 77
     0
 47
0.0208333333333333
 47
0.0
 47
0.0
 47
0.0
 47
0.0
 47
0.0208333333333333
 47
0.0
 47
0.0
 47
0.0
 47
0.0
 47
1.0
 47
0.0
 47
0.0
 47
0.0
 47
0.0
 47
1.0
171
     0
 49
0.0208333333333333
 49
0.0
 49
0.0
 49
0.0
 49
0.0
 49
0.0208333333333333
 49
0.0
 49
0.0
 49
0.0
 49
0.0
 49
1.0
 49
0.0
 49
0.0
 49
0.0
 49
0.0
 49
1.0
175
     0
142
0.0208333333333333
142
0.0
142
0.0
142
0.0
142
0.0
142
0.0208333333333333
142
0.0
142
0.0
142
0.0
142
0.0
142
1.0
142
0.0
142
0.0
142
0.0
142
0.0
142
1.0
179
     0
144
0.0208333333333333
144
0.0
144
0.0
144
0.0
144
0.0
144
0.0208333333333333
144
0.0
144
0.0
144
0.0
144
0.0
144
1.0
144
0.0
144
0.0
144
0.0
144
0.0
144
1.0
147
0.0208333333333333
147
0.0
147
0.0
147
0.0
147
0.0
147
0.0208333333333333
147
0.0
147
0.0
147
0.0
147
0.0
147
1.0
147
0.0
147
0.0
147
0.0
147
0.0
147
1.0
  0
MATERIAL
  5
11
102
{ACAD_XDICTIONARY
360
12
102
}
102
{ACAD_REACTORS
330
10
102
}
330
10
100
AcDbMaterial
  1
ByLayer
 72
     0
 43
0.0208333333333333
 43
0.0
 43
0.0
 43
0.0
 43
0.0
 43
0.0208333333333333
 43
0.0
 43
0.0
 43
0.0
 43
0.0
 43
1.0
 43
0.0
 43
0.0
 43
0.0
 43
0.0
 43
1.0
 77
     0
 47
0.0208333333333333
 47
0.0
 47
0.0
 47
0.0
 47
0.0
 47
0.0208333333333333
 47
0.0
 47
0.0
 47
0.0
 47
0.0
 47
1.0
 47
0.0
 47
0.0
 47
0.0
 47
0.0
 47
1.0
171
     0
 49
0.0208333333333333
 49
0.0
 49
0.0
 49
0.0
 49
0.0
 49
0.0208333333333333
 49
0.0
 49
0.0
 49
0.0
 49
0.0
 49
1.0
 49
0.0
 49
0.0
 49
0.0
 49
0.0
 49
1.0
175
     0
142
0.0208333333333333
142
0.0
142
0.0
142
0.0
142
0.0
142
0.0208333333333333
142
0.0
142
0.0
142
0.0
142
0.0
142
1.0
142
0.0
142
0.0
142
0.0
142
0.0
142
1.0
179
     0
144
0.0208333333333333
144
0.0
144
0.0
144
0.0
144
0.0
144
0.0208333333333333
144
0.0
144
0.0
144
0.0
144
0.0
144
1.0
144
0.0
144
0.0
144
0.0
144
0.0
144
1.0
147
0.0208333333333333
147
0.0
147
0.0
147
0.0
147
0.0
147
0.0208333333333333
147
0.0
147
0.0
147
0.0
147
0.0
147
1.0
147
0.0
147
0.0
147
0.0
147
0.0
147
1.0
  0
MATERIAL
  5
21
102
{ACAD_XDICTIONARY
360
22
102
}
102
{ACAD_REACTORS
330
10
102
}
330
10
100
AcDbMaterial
  1
Global
 72
     0
 43
0.0208333333333333
 43
0.0
 43
0.0
 43
0.0
 43
0.0
 43
0.0208333333333333
 43
0.0
 43
0.0
 43
0.0
 43
0.0
 43
1.0
 43
0.0
 43
0.0
 43
0.0
 43
0.0
 43
1.0
 77
     0
 47
0.0208333333333333
 47
0.0
 47
0.0
 47
0.0
 47
0.0
 47
0.0208333333333333
 47
0.0
 47
0.0
 47
0.0
 47
0.0
 47
1.0
 47
0.0
 47
0.0
 47
0.0
 47
0.0
 47
1.0
171
     0
 49
0.0208333333333333
 49
0.0
 49
0.0
 49
0.0
 49
0.0
 49
0.0208333333333333
 49
0.0
 49
0.0
 49
0.0
 49
0.0
 49
1.0
 49
0.0
 49
0.0
 49
0.0
 49
0.0
 49
1.0
175
     0
142
0.0208333333333333
142
0.0
142
0.0
142
0.0
142
0.0
142
0.0208333333333333
142
0.0
142
0.0
142
0.0
142
0.0
142
1.0
142
0.0
142
0.0
142
0.0
142
0.0
142
1.0
179
     0
144
0.0208333333333333
144
0.0
144
0.0
144
0.0
144
0.0
144
0.0208333333333333
144
0.0
144
0.0
144
0.0
144
0.0
144
1.0
144
0.0
144
0.0
144
0.0
144
0.0
144
1.0
147
0.0208333333333333
147
0.0
147
0.0
147
0.0
147
0.0
147
0.0208333333333333
147
0.0
147
0.0
147
0.0
147
0.0
147
1.0
147
0.0
147
0.0
147
0.0
147
0.0
147
1.0
  0
MLEADERSTYLE
  5
67
102
{ACAD_REACTORS
330
66
102
}
330
66
100
AcDbMLeaderStyle
179
     2
170
     2
171
     1
172
     0
 90
        2
 40
0.0
 41
0.0
173
     1
 91
-1056964608
340
5B
 92
       -2
290
     1
 42
0.09
291
     1
 43
0.36
  3
Standard
 44
0.18
300

342
55
174
     1
178
     6
175
     1
176
     0
 93
-1056964608
 45
0.18
292
     0
297
     0
 46
0.18
 94
-1056964608
 47
1.0
 49
1.0
140
1.0
293
     1
141
0.0
294
     1
177
     0
142
1.0
295
     1
296
     0
143
0.125
271
     0
272
     9
273
     9
298
     1
  0
MLINESTYLE
  5
60
102
{ACAD_REACTORS
330
5F
102
}
330
5F
100
AcDbMlineStyle
  2
STANDARD
 70
     0
  3

 62
   256
 51
90.0
 52
90.0
 71
     2
 49
0.5
 62
   256
  6
BYLAYER
 49
-0.5
 62
   256
  6
BYLAYER
  0
ACDBPLACEHOLDER
  5
F
102
{ACAD_REACTORS
330
E
102
}
330
E
  0
SCALE
  5
43
102
{ACAD_REACTORS
330
42
102
}
330
42
100
AcDbScale
 70
     0
300
1:1
140
1.0
141
1.0
290
     1
  0
SCALE
  5
44
102
{ACAD_REACTORS
330
42
102
}
330
42
100
AcDbScale
 70
     0
300
1/128" = 1'-0"
140
0.0078125
141
12.0
290
     0
  0
SCALE
  5
45
102
{ACAD_REACTORS
330
42
102
}
330
42
100
AcDbScale
 70
     0
300
1/64" = 1'-0"
140
0.015625
141
12.0
290
     0
  0
SCALE
  5
46
102
{ACAD_REACTORS
330
42
102
}
330
42
100
AcDbScale
 70
     0
300
1/32" = 1'-0"
140
0.03125
141
12.0
290
     0
  0
SCALE
  5
47
102
{ACAD_REACTORS
330
42
102
}
330
42
100
AcDbScale
 70
     0
300
1/16" = 1'-0"
140
0.0625
141
12.0
290
     0
  0
SCALE
  5
48
102
{ACAD_REACTORS
330
42
102
}
330
42
100
AcDbScale
 70
     0
300
3/32" = 1'-0"
140
0.09375
141
12.0
290
     0
  0
SCALE
  5
49
102
{ACAD_REACTORS
330
42
102
}
330
42
100
AcDbScale
 70
     0
300
1/8" = 1'-0"
140
0.125
141
12.0
290
     0
  0
SCALE
  5
4A
102
{ACAD_REACTORS
330
42
102
}
330
42
100
AcDbScale
 70
     0
300
3/16" = 1'-0"
140
0.1875
141
12.0
290
     0
  0
SCALE
  5
4B
102
{ACAD_REACTORS
330
42
102
}
330
42
100
AcDbScale
 70
     0
300
1/4" = 1'-0"
140
0.25
141
12.0
290
     0
  0
SCALE
  5
4C
102
{ACAD_REACTORS
330
42
102
}
330
42
100
AcDbScale
 70
     0
300
3/8" = 1'-0"
140
0.375
141
12.0
290
     0
  0
SCALE
  5
4D
102
{ACAD_REACTORS
330
42
102
}
330
42
100
AcDbScale
 70
     0
300
1/2" = 1'-0"
140
0.5
141
12.0
290
     0
  0
SCALE
  5
4E
102
{ACAD_REACTORS
330
42
102
}
330
42
100
AcDbScale
 70
     0
300
3/4" = 1'-0"
140
0.75
141
12.0
290
     0
  0
SCALE
  5
4F
102
{ACAD_REACTORS
330
42
102
}
330
42
100
AcDbScale
 70
     0
300
1" = 1'-0"
140
1.0
141
12.0
290
     0
  0
SCALE
  5
50
102
{ACAD_REACTORS
330
42
102
}
330
42
100
AcDbScale
 70
     0
300
1-1/2" = 1'-0"
140
1.5
141
12.0
290
     0
  0
SCALE
  5
51
102
{ACAD_REACTORS
330
42
102
}
330
42
100
AcDbScale
 70
     0
300
3" = 1'-0"
140
3.0
141
12.0
290
     0
  0
SCALE
  5
52
102
{ACAD_REACTORS
330
42
102
}
330
42
100
AcDbScale
 70
     0
300
6" = 1'-0"
140
6.0
141
12.0
290
     0
  0
SCALE
  5
53
102
{ACAD_REACTORS
330
42
102
}
330
42
100
AcDbScale
 70
     0
300
1'-0" = 1'-0"
140
12.0
141
12.0
290
     0
  0
ACDBSECTIONVIEWSTYLE
  5
69
102
{ACAD_REACTORS
330
68
102
}
330
68
100
AcDbModelDocViewStyle
 70
     0
  3
Imperial24
290
     1
300
Imperial24
 90
        0
100
AcDbSectionViewStyle
 70
     0
 71
     0
 90
       78
 71
     1
340
55
 62
   256
 40
0.24
340
0
340
0
 62
   256
 40
0.24
300
I, O, Q, S, X, Z
 40
0.48
 90
        3
 40
0.18
 90
        1
 71
     2
340
5D
 90
       25
 62
   256
340
5D
 90
       50
 62
   256
 40
0.24
 40
0.0
 40
0.24
 71
     3
340
55
 62
   256
 40
0.24
 90
        1
 40
0.75
 90
        1
300
%<\AcVar ViewType \f "%tc1">% %<\AcVar ViewSectionStartId>%-%<\AcVar ViewSectionEndId>%\PSCALE %<\AcVar ViewScale \f "%sn">%
 71
     4
 62
   256
 62
   257
300
ANSI31
 40
1.0
 90
        0
290
     0
290
     0
 90
        6
 40
0.0
 40
1.570796326794896
 40
0.2617993877991494
 40
1.308996938995747
 40
-0.2617993877991494
 40
1.832595714594046
  0
TABLESTYLE
  5
65
102
{ACAD_XDICTIONARY
360
2C0
102
}
102
{ACAD_REACTORS
330
64
102
}
330
64
100
AcDbTableStyle
280
     0
  3
Standard
 70
     0
 71
     0
 40
0.06
 41
0.06
280
     0
281
     0
  7
Standard
140
0.18
170
     2
 62
     0
 63
     7
283
     0
 90
      512
 91
        0
  1

274
    -2
284
     1
 64
     0
275
    -2
285
     1
 65
     0
276
    -2
286
     1
 66
     0
277
    -2
287
     1
 67
     0
278
    -2
288
     1
 68
     0
279
    -2
289
     1
 69
     0
  7
Standard
140
0.25
170
     5
 62
     0
 63
     7
283
     0
 90
      512
 91
        0
  1

274
    -2
284
     1
 64
     0
275
    -2
285
     1
 65
     0
276
    -2
286
     1
 66
     0
277
    -2
287
     1
 67
     0
278
    -2
288
     1
 68
     0
279
    -2
289
     1
 69
     0
  7
Standard
140
0.18
170
     5
 62
     0
 63
     7
283
     0
 90
      512
 91
        0
  1

274
    -2
284
     1
 64
     0
275
    -2
285
     1
 65
     0
276
    -2
286
     1
 66
     0
277
    -2
287
     1
 67
     0
278
    -2
288
     1
 68
     0
279
    -2
289
     1
 69
     0
  0
VISUALSTYLE
  5
2F
102
{ACAD_REACTORS
330
29
102
}
330
29
100
AcDbVisualStyle
  2
2dWireframe
 70
     4
177
     3
291
     0
 70
    58
 90
        0
176
     1
 90
        2
176
     1
 90
        0
176
     1
 90
        0
176
     1
 40
0.6
176
     1
 40
30.0
176
     1
 62
     7
420
 16777215
176
     1
 90
        1
176
     1
 90
        4
176
     1
 62
     7
176
     1
 62
   257
176
     1
 90
        1
176
     1
 90
        1
176
     1
 40
1.0
176
     1
 90
        0
176
     1
 62
   257
176
     1
 40
1.0
176
     1
 90
        1
176
     1
 90
        6
176
     1
 90
        2
176
     1
 62
     7
176
     1
 90
        5
176
     1
 90
        0
176
     1
 90
        0
176
     1
290
     0
176
     1
 90
        1
176
     1
 40
0.0
176
     1
 90
        0
176
     1
290
     1
176
     1
290
     1
176
     1
290
     0
176
     1
290
     0
176
     1
290
     0
176
     1
290
     0
176
     1
290
     0
176
     1
290
     0
176
     1
290
     0
176
     1
 90
       50
176
     1
 40
0.0
176
     1
 40
1.0
176
     1
 90
        0
176
     1
 62
    18
420
        0
176
     1
 90
       50
176
     1
 90
        3
176
     1
 62
     5
420
      255
176
     1
290
     0
176
     1
 90
       50
176
     1
 90
       50
176
     1
 90
       50
176
     1
290
     0
176
     1
 90
       50
176
     1
 62
   256
176
     0
 40
1.0
176
     0
 90
        2
176
     1
  1
strokes_ogs.tif
176
     1
290
     0
176
     1
 40
1.0
176
     1
 40
1.0
176
     1
  0
VISUALSTYLE
  5
2E
102
{ACAD_REACTORS
330
29
102
}
330
29
100
AcDbVisualStyle
  2
Basic
 70
     7
177
     3
291
     1
 70
    58
 90
        1
176
     1
 90
        0
176
     1
 90
        1
176
     1
 90
        0
176
     1
 40
0.6
176
     1
 40
30.0
176
     1
 62
     7
420
 16777215
176
     1
 90
        0
176
     1
 90
        4
176
     1
 62
     7
176
     1
 62
   257
176
     1
 90
        1
176
     1
 90
        1
176
     1
 40
1.0
176
     1
 90
        8
176
     1
 62
     7
176
     1
 40
1.0
176
     1
 90
        1
176
     1
 90
        6
176
     1
 90
        2
176
     1
 62
     7
176
     1
 90
        5
176
     1
 90
        0
176
     1
 90
        0
176
     1
290
     0
176
     1
 90
        1
176
     1
 40
0.0
176
     1
 90
        0
176
     1
290
     0
176
     1
290
     1
176
     1
290
     1
176
     1
290
     0
176
     1
290
     0
176
     1
290
     0
176
     1
290
     0
176
     1
290
     0
176
     1
290
     0
176
     1
 90
       50
176
     1
 40
0.0
176
     1
 40
1.0
176
     1
 90
        0
176
     1
 62
    18
420
        0
176
     1
 90
       50
176
     1
 90
        3
176
     1
 62
     5
420
      255
176
     1
290
     0
176
     1
 90
       50
176
     1
 90
       50
176
     1
 90
       50
176
     1
290
     0
176
     1
 90
       50
176
     1
 62
   256
176
     0
 40
1.0
176
     0
 90
        2
176
     1
  1
strokes_ogs.tif
176
     1
290
     0
176
     1
 40
1.0
176
     1
 40
1.0
176
     1
  0
VISUALSTYLE
  5
35
102
{ACAD_REACTORS
330
29
102
}
330
29
100
AcDbVisualStyle
  2
Brighten
 70
    12
177
     3
291
     1
 70
    58
 90
        2
176
     1
 90
        2
176
     1
 90
        0
176
     1
 90
        0
176
     1
 40
0.6
176
     1
 40
30.0
176
     1
 62
     7
420
 16777215
176
     1
 90
        1
176
     1
 90
        4
176
     1
 62
     7
176
     1
 62
   257
176
     1
 90
        1
176
     1
 90
        1
176
     1
 40
1.0
176
     1
 90
        8
176
     1
 62
     7
176
     1
 40
1.0
176
     1
 90
        1
176
     1
 90
        6
176
     1
 90
        2
176
     1
 62
     7
176
     1
 90
        5
176
     1
 90
        0
176
     1
 90
        0
176
     1
290
     0
176
     1
 90
        1
176
     1
 40
50.0
176
     1
 90
        0
176
     1
290
     0
176
     1
290
     1
176
     1
290
     1
176
     1
290
     0
176
     1
290
     0
176
     1
290
     0
176
     1
290
     0
176
     1
290
     0
176
     1
290
     0
176
     1
 90
       50
176
     1
 40
0.0
176
     1
 40
1.0
176
     1
 90
        0
176
     1
 62
    18
420
        0
176
     1
 90
       50
176
     1
 90
        3
176
     1
 62
     5
420
      255
176
     1
290
     0
176
     1
 90
       50
176
     1
 90
       50
176
     1
 90
       50
176
     1
290
     0
176
     1
 90
       50
176
     1
 62
   256
176
     0
 40
1.0
176
     0
 90
        2
176
     1
  1
strokes_ogs.tif
176
     1
290
     0
176
     1
 40
1.0
176
     1
 40
1.0
176
     1
  0
VISUALSTYLE
  5
39
102
{ACAD_REACTORS
330
29
102
}
330
29
100
AcDbVisualStyle
  2
ColorChange
 70
    16
177
     3
291
     1
 70
    58
 90
        2
176
     1
 90
        2
176
     1
 90
        3
176
     1
 90
        0
176
     1
 40
0.6
176
     1
 40
30.0
176
     1
 62
     8
420
  8421504
176
     1
 90
        1
176
     1
 90
        4
176
     1
 62
     7
176
     1
 62
   257
176
     1
 90
        1
176
     1
 90
        1
176
     1
 40
1.0
176
     1
 90
        8
176
     1
 62
     8
420
  8421504
176
     1
 40
1.0
176
     1
 90
        1
176
     1
 90
        6
176
     1
 90
        2
176
     1
 62
     7
176
     1
 90
        5
176
     1
 90
        0
176
     1
 90
        0
176
     1
290
     0
176
     1
 90
        1
176
     1
 40
0.0
176
     1
 90
        0
176
     1
290
     0
176
     1
290
     1
176
     1
290
     1
176
     1
290
     0
176
     1
290
     0
176
     1
290
     0
176
     1
290
     0
176
     1
290
     0
176
     1
290
     0
176
     1
 90
       50
176
     1
 40
0.0
176
     1
 40
1.0
176
     1
 90
        0
176
     1
 62
    18
420
        0
176
     1
 90
       50
176
     1
 90
        3
176
     1
 62
     5
420
      255
176
     1
290
     0
176
     1
 90
       50
176
     1
 90
       50
176
     1
 90
       50
176
     1
290
     0
176
     1
 90
       50
176
     1
 62
   256
176
     0
 40
1.0
176
     0
 90
        2
176
     1
  1
strokes_ogs.tif
176
     1
290
     0
176
     1
 40
1.0
176
     1
 40
1.0
176
     1
  0
VISUALSTYLE
  5
32
102
{ACAD_REACTORS
330
29
102
}
330
29
100
AcDbVisualStyle
  2
Conceptual
 70
     9
177
     3
291
     0
 70
    58
 90
        3
176
     1
 90
        2
176
     1
 90
        0
176
     1
 90
        0
176
     1
 40
0.6
176
     1
 40
30.0
176
     1
 62
     7
420
 16777215
176
     1
 90
        2
176
     1
 90
        2
176
     1
 62
     7
176
     1
 62
   257
176
     1
 90
        1
176
     1
 90
        1
176
     1
 40
179.0
176
     1
 90
        8
176
     1
 62
     7
176
     1
 40
1.0
176
     1
 90
        1
176
     1
 90
        6
176
     1
 90
        2
176
     1
 62
     7
176
     1
 90
        3
176
     1
 90
        0
176
     1
 90
        0
176
     1
290
     0
176
     1
 90
        1
176
     1
 40
0.0
176
     1
 90
        0
176
     1
290
     0
176
     1
290
     1
176
     1
290
     1
176
     1
290
     0
176
     1
290
     0
176
     1
290
     0
176
     1
290
     0
176
     1
290
     0
176
     1
290
     0
176
     1
 90
       50
176
     1
 40
0.0
176
     1
 40
1.0
176
     1
 90
        0
176
     1
 62
    18
420
        0
176
     1
 90
       50
176
     1
 90
        3
176
     1
 62
     5
420
      255
176
     1
290
     0
176
     1
 90
       50
176
     1
 90
       50
176
     1
 90
       50
176
     1
290
     0
176
     1
 90
       50
176
     1
 62
   256
176
     0
 40
1.0
176
     0
 90
        2
176
     1
  1
strokes_ogs.tif
176
     1
290
     0
176
     1
 40
1.0
176
     1
 40
1.0
176
     1
  0
VISUALSTYLE
  5
34
102
{ACAD_REACTORS
330
29
102
}
330
29
100
AcDbVisualStyle
  2
Dim
 70
    11
177
     3
291
     1
 70
    58
 90
        2
176
     1
 90
        2
176
     1
 90
        0
176
     1
 90
        0
176
     1
 40
0.6
176
     1
 40
30.0
176
     1
 62
     7
420
 16777215
176
     1
 90
        1
176
     1
 90
        4
176
     1
 62
     7
176
     1
 62
   257
176
     1
 90
        1
176
     1
 90
        1
176
     1
 40
1.0
176
     1
 90
        8
176
     1
 62
     7
176
     1
 40
1.0
176
     1
 90
        1
176
     1
 90
        6
176
     1
 90
        2
176
     1
 62
     7
176
     1
 90
        5
176
     1
 90
        0
176
     1
 90
        0
176
     1
290
     0
176
     1
 90
        1
176
     1
 40
-50.0
176
     1
 90
        0
176
     1
290
     0
176
     1
290
     1
176
     1
290
     1
176
     1
290
     0
176
     1
290
     0
176
     1
290
     0
176
     1
290
     0
176
     1
290
     0
176
     1
290
     0
176
     1
 90
       50
176
     1
 40
0.0
176
     1
 40
1.0
176
     1
 90
        0
176
     1
 62
    18
420
        0
176
     1
 90
       50
176
     1
 90
        3
176
     1
 62
     5
420
      255
176
     1
290
     0
176
     1
 90
       50
176
     1
 90
       50
176
     1
 90
       50
176
     1
290
     0
176
     1
 90
       50
176
     1
 62
   256
176
     0
 40
1.0
176
     0
 90
        2
176
     1
  1
strokes_ogs.tif
176
     1
290
     0
176
     1
 40
1.0
176
     1
 40
1.0
176
     1
  0
VISUALSTYLE
  5
41
102
{ACAD_REACTORS
330
29
102
}
330
29
100
AcDbVisualStyle
  2
EdgeColorOff
 70
    22
177
     3
291
     1
 70
    58
 90
        2
176
     0
 90
        2
176
     0
 90
        0
176
     0
 90
        0
176
     0
 40
0.6
176
     0
 40
30.0
176
     0
 62
     7
420
 16777215
176
     0
 90
        1
176
     0
 90
        4
176
     0
 62
     7
176
     0
 62
   257
176
     0
 90
        1
176
     0
 90
        1
176
     0
 40
1.0
176
     0
 90
        8
176
     2
 62
     7
176
     0
 40
1.0
176
     0
 90
        1
176
     0
 90
        6
176
     0
 90
        2
176
     0
 62
     7
176
     0
 90
        5
176
     0
 90
        0
176
     0
 90
        0
176
     0
290
     0
176
     0
 90
        1
176
     0
 40
0.0
176
     0
 90
        0
176
     0
290
     0
176
     0
290
     1
176
     0
290
     1
176
     0
290
     0
176
     0
290
     0
176
     0
290
     0
176
     0
290
     0
176
     0
290
     0
176
     0
290
     0
176
     0
 90
       50
176
     0
 40
0.0
176
     0
 40
1.0
176
     0
 90
        0
176
     0
 62
    18
420
        0
176
     0
 90
       50
176
     0
 90
        3
176
     0
 62
     5
420
      255
176
     0
290
     0
176
     0
 90
       50
176
     0
 90
       50
176
     0
 90
       50
176
     0
290
     0
176
     0
 90
       50
176
     0
 62
   256
176
     0
 40
1.0
176
     0
 90
        2
176
     0
  1
strokes_ogs.tif
176
     0
290
     0
176
     0
 40
1.0
176
     0
 40
1.0
176
     0
  0
VISUALSTYLE
  5
38
102
{ACAD_REACTORS
330
29
102
}
330
29
100
AcDbVisualStyle
  2
Facepattern
 70
    15
177
     3
291
     1
 70
    58
 90
        2
176
     1
 90
        2
176
     1
 90
        0
176
     1
 90
        0
176
     1
 40
0.6
176
     1
 40
30.0
176
     1
 62
     7
420
 16777215
176
     1
 90
        1
176
     1
 90
        4
176
     1
 62
     7
176
     1
 62
   257
176
     1
 90
        1
176
     1
 90
        1
176
     1
 40
1.0
176
     1
 90
        8
176
     1
 62
     7
176
     1
 40
1.0
176
     1
 90
        1
176
     1
 90
        6
176
     1
 90
        2
176
     1
 62
     7
176
     1
 90
        5
176
     1
 90
        0
176
     1
 90
        0
176
     1
290
     0
176
     1
 90
        1
176
     1
 40
0.0
176
     1
 90
        0
176
     1
290
     0
176
     1
290
     1
176
     1
290
     1
176
     1
290
     0
176
     1
290
     0
176
     1
290
     0
176
     1
290
     0
176
     1
290
     0
176
     1
290
     0
176
     1
 90
       50
176
     1
 40
0.0
176
     1
 40
1.0
176
     1
 90
        0
176
     1
 62
    18
420
        0
176
     1
 90
       50
176
     1
 90
        3
176
     1
 62
     5
420
      255
176
     1
290
     0
176
     1
 90
       50
176
     1
 90
       50
176
     1
 90
       50
176
     1
290
     0
176
     1
 90
       50
176
     1
 62
   256
176
     0
 40
1.0
176
     0
 90
        2
176
     1
  1
strokes_ogs.tif
176
     1
290
     0
176
     1
 40
1.0
176
     1
 40
1.0
176
     1
  0
VISUALSTYLE
  5
2A
102
{ACAD_REACTORS
330
29
102
}
330
29
100
AcDbVisualStyle
  2
Flat
 70
     0
177
     3
291
     1
 70
    58
 90
        2
176
     1
 90
        1
176
     1
 90
        1
176
     1
 90
        2
176
     1
 40
0.6
176
     1
 40
30.0
176
     1
 62
     7
420
 16777215
176
     1
 90
        0
176
     1
 90
        0
176
     1
 62
     7
176
     1
 62
   257
176
     1
 90
        1
176
     1
 90
        1
176
     1
 40
1.0
176
     1
 90
        8
176
     1
 62
     7
176
     1
 40
1.0
176
     1
 90
        1
176
     1
 90
        6
176
     1
 90
        2
176
     1
 62
     7
176
     1
 90
        5
176
     1
 90
        0
176
     1
 90
        0
176
     1
290
     0
176
     1
 90
       13
176
     1
 40
0.0
176
     1
 90
        0
176
     1
290
     0
176
     1
290
     1
176
     1
290
     1
176
     1
290
     0
176
     1
290
     0
176
     1
290
     0
176
     1
290
     0
176
     1
290
     0
176
     1
290
     0
176
     1
 90
       50
176
     1
 40
0.0
176
     1
 40
1.0
176
     1
 90
        0
176
     1
 62
    18
420
        0
176
     1
 90
       50
176
     1
 90
        3
176
     1
 62
     5
420
      255
176
     1
290
     0
176
     1
 90
       50
176
     1
 90
       50
176
     1
 90
       50
176
     1
290
     0
176
     1
 90
       50
176
     1
 62
   256
176
     0
 40
1.0
176
     0
 90
        2
176
     1
  1
strokes_ogs.tif
176
     1
290
     0
176
     1
 40
1.0
176
     1
 40
1.0
176
     1
  0
VISUALSTYLE
  5
2B
102
{ACAD_REACTORS
330
29
102
}
330
29
100
AcDbVisualStyle
  2
FlatWithEdges
 70
     1
177
     3
291
     1
 70
    58
 90
        2
176
     1
 90
        1
176
     1
 90
        1
176
     1
 90
        2
176
     1
 40
0.6
176
     1
 40
30.0
176
     1
 62
     7
420
 16777215
176
     1
 90
        1
176
     1
 90
        0
176
     1
 62
     7
176
     1
 62
   257
176
     1
 90
        1
176
     1
 90
        1
176
     1
 40
1.0
176
     1
 90
        0
176
     1
 62
   257
176
     1
 40
1.0
176
     1
 90
        1
176
     1
 90
        6
176
     1
 90
        2
176
     1
 62
     7
176
     1
 90
        5
176
     1
 90
        0
176
     1
 90
        0
176
     1
290
     0
176
     1
 90
       13
176
     1
 40
0.0
176
     1
 90
        0
176
     1
290
     0
176
     1
290
     1
176
     1
290
     1
176
     1
290
     0
176
     1
290
     0
176
     1
290
     0
176
     1
290
     0
176
     1
290
     0
176
     1
290
     0
176
     1
 90
       50
176
     1
 40
0.0
176
     1
 40
1.0
176
     1
 90
        0
176
     1
 62
    18
420
        0
176
     1
 90
       50
176
     1
 90
        3
176
     1
 62
     5
420
      255
176
     1
290
     0
176
     1
 90
       50
176
     1
 90
       50
176
     1
 90
       50
176
     1
290
     0
176
     1
 90
       50
176
     1
 62
   256
176
     0
 40
1.0
176
     0
 90
        2
176
     1
  1
strokes_ogs.tif
176
     1
290
     0
176
     1
 40
1.0
176
     1
 40
1.0
176
     1
  0
VISUALSTYLE
  5
2C
102
{ACAD_REACTORS
330
29
102
}
330
29
100
AcDbVisualStyle
  2
Gouraud
 70
     2
177
     3
291
     1
 70
    58
 90
        2
176
     1
 90
        2
176
     1
 90
        1
176
     1
 90
        2
176
     1
 40
0.6
176
     1
 40
30.0
176
     1
 62
     7
420
 16777215
176
     1
 90
        0
176
     1
 90
        0
176
     1
 62
     7
176
     1
 62
   257
176
     1
 90
        1
176
     1
 90
        1
176
     1
 40
1.0
176
     1
 90
        0
176
     1
 62
     7
176
     1
 40
1.0
176
     1
 90
        1
176
     1
 90
        6
176
     1
 90
        2
176
     1
 62
     7
176
     1
 90
        5
176
     1
 90
        0
176
     1
 90
        0
176
     1
290
     0
176
     1
 90
       13
176
     1
 40
0.0
176
     1
 90
        0
176
     1
290
     0
176
     1
290
     1
176
     1
290
     1
176
     1
290
     0
176
     1
290
     0
176
     1
290
     0
176
     1
290
     0
176
     1
290
     0
176
     1
290
     0
176
     1
 90
       50
176
     1
 40
0.0
176
     1
 40
1.0
176
     1
 90
        0
176
     1
 62
    18
420
        0
176
     1
 90
       50
176
     1
 90
        3
176
     1
 62
     5
420
      255
176
     1
290
     0
176
     1
 90
       50
176
     1
 90
       50
176
     1
 90
       50
176
     1
290
     0
176
     1
 90
       50
176
     1
 62
   256
176
     0
 40
1.0
176
     0
 90
        2
176
     1
  1
strokes_ogs.tif
176
     1
290
     0
176
     1
 40
1.0
176
     1
 40
1.0
176
     1
  0
VISUALSTYLE
  5
2D
102
{ACAD_REACTORS
330
29
102
}
330
29
100
AcDbVisualStyle
  2
GouraudWithEdges
 70
     3
177
     3
291
     1
 70
    58
 90
        2
176
     1
 90
        2
176
     1
 90
        1
176
     1
 90
        2
176
     1
 40
0.6
176
     1
 40
30.0
176
     1
 62
     7
420
 16777215
176
     1
 90
        1
176
     1
 90
        0
176
     1
 62
     7
176
     1
 62
   257
176
     1
 90
        1
176
     1
 90
        1
176
     1
 40
1.0
176
     1
 90
        0
176
     1
 62
   257
176
     1
 40
1.0
176
     1
 90
        1
176
     1
 90
        6
176
     1
 90
        2
176
     1
 62
     7
176
     1
 90
        5
176
     1
 90
        0
176
     1
 90
        0
176
     1
290
     0
176
     1
 90
       13
176
     1
 40
0.0
176
     1
 90
        0
176
     1
290
     0
176
     1
290
     1
176
     1
290
     1
176
     1
290
     0
176
     1
290
     0
176
     1
290
     0
176
     1
290
     0
176
     1
290
     0
176
     1
290
     0
176
     1
 90
       50
176
     1
 40
0.0
176
     1
 40
1.0
176
     1
 90
        0
176
     1
 62
    18
420
        0
176
     1
 90
       50
176
     1
 90
        3
176
     1
 62
     5
420
      255
176
     1
290
     0
176
     1
 90
       50
176
     1
 90
       50
176
     1
 90
       50
176
     1
290
     0
176
     1
 90
       50
176
     1
 62
   256
176
     0
 40
1.0
176
     0
 90
        2
176
     1
  1
strokes_ogs.tif
176
     1
290
     0
176
     1
 40
1.0
176
     1
 40
1.0
176
     1
  0
VISUALSTYLE
  5
31
102
{ACAD_REACTORS
330
29
102
}
330
29
100
AcDbVisualStyle
  2
Hidden
 70
     6
177
     3
291
     0
 70
    58
 90
        1
176
     1
 90
        2
176
     1
 90
        2
176
     1
 90
        0
176
     1
 40
0.6
176
     1
 40
30.0
176
     1
 62
     7
420
 16777215
176
     1
 90
        2
176
     1
 90
        2
176
     1
 62
     7
176
     1
 62
   257
176
     1
 90
        2
176
     1
 90
        1
176
     1
 40
40.0
176
     1
 90
        0
176
     1
 62
   257
176
     1
 40
1.0
176
     1
 90
        1
176
     1
 90
        6
176
     1
 90
        2
176
     1
 62
     7
176
     1
 90
        3
176
     1
 90
        0
176
     1
 90
        0
176
     1
290
     0
176
     1
 90
        1
176
     1
 40
0.0
176
     1
 90
        0
176
     1
290
     0
176
     1
290
     1
176
     1
290
     1
176
     1
290
     0
176
     1
290
     0
176
     1
290
     0
176
     1
290
     0
176
     1
290
     0
176
     1
290
     0
176
     1
 90
       50
176
     1
 40
0.0
176
     1
 40
1.0
176
     1
 90
        0
176
     1
 62
    18
420
        0
176
     1
 90
       50
176
     1
 90
        3
176
     1
 62
     5
420
      255
176
     1
290
     0
176
     1
 90
       50
176
     1
 90
       50
176
     1
 90
       50
176
     1
290
     0
176
     1
 90
       50
176
     1
 62
   256
176
     0
 40
1.0
176
     0
 90
        2
176
     1
  1
strokes_ogs.tif
176
     1
290
     0
176
     1
 40
1.0
176
     1
 40
1.0
176
     1
  0
VISUALSTYLE
  5
3F
102
{ACAD_REACTORS
330
29
102
}
330
29
100
AcDbVisualStyle
  2
JitterOff
 70
    20
177
     3
291
     1
 70
    58
 90
        2
176
     0
 90
        2
176
     0
 90
        0
176
     0
 90
        0
176
     0
 40
0.6
176
     0
 40
30.0
176
     0
 62
     7
420
 16777215
176
     0
 90
        1
176
     0
 90
        4
176
     0
 62
     7
176
     0
 62
   257
176
     0
 90
        1
176
     0
 90
        1
176
     0
 40
1.0
176
     0
 90
       10
176
     2
 62
     7
176
     0
 40
1.0
176
     0
 90
        1
176
     0
 90
        6
176
     0
 90
        2
176
     0
 62
     7
176
     0
 90
        5
176
     0
 90
        0
176
     0
 90
        0
176
     0
290
     0
176
     0
 90
        1
176
     0
 40
0.0
176
     0
 90
        0
176
     0
290
     0
176
     0
290
     1
176
     0
290
     1
176
     0
290
     0
176
     0
290
     0
176
     0
290
     0
176
     0
290
     0
176
     0
290
     0
176
     0
290
     0
176
     0
 90
       50
176
     0
 40
0.0
176
     0
 40
1.0
176
     0
 90
        0
176
     0
 62
    18
420
        0
176
     0
 90
       50
176
     0
 90
        3
176
     0
 62
     5
420
      255
176
     0
290
     0
176
     0
 90
       50
176
     0
 90
       50
176
     0
 90
       50
176
     0
290
     0
176
     0
 90
       50
176
     0
 62
   256
176
     0
 40
1.0
176
     0
 90
        2
176
     0
  1
strokes_ogs.tif
176
     0
290
     0
176
     0
 40
1.0
176
     0
 40
1.0
176
     0
  0
VISUALSTYLE
  5
37
102
{ACAD_REACTORS
330
29
102
}
330
29
100
AcDbVisualStyle
  2
Linepattern
 70
    14
177
     3
291
     1
 70
    58
 90
        2
176
     1
 90
        2
176
     1
 90
        0
176
     1
 90
        0
176
     1
 40
0.6
176
     1
 40
30.0
176
     1
 62
     7
420
 16777215
176
     1
 90
        1
176
     1
 90
        4
176
     1
 62
     7
176
     1
 62
   257
176
     1
 90
        7
176
     1
 90
        7
176
     1
 40
1.0
176
     1
 90
        8
176
     1
 62
     7
176
     1
 40
1.0
176
     1
 90
        1
176
     1
 90
        6
176
     1
 90
        2
176
     1
 62
     7
176
     1
 90
        5
176
     1
 90
        0
176
     1
 90
        0
176
     1
290
     0
176
     1
 90
        1
176
     1
 40
0.0
176
     1
 90
        0
176
     1
290
     0
176
     1
290
     1
176
     1
290
     1
176
     1
290
     0
176
     1
290
     0
176
     1
290
     0
176
     1
290
     0
176
     1
290
     0
176
     1
290
     0
176
     1
 90
       50
176
     1
 40
0.0
176
     1
 40
1.0
176
     1
 90
        0
176
     1
 62
    18
420
        0
176
     1
 90
       50
176
     1
 90
        3
176
     1
 62
     5
420
      255
176
     1
290
     0
176
     1
 90
       50
176
     1
 90
       50
176
     1
 90
       50
176
     1
290
     0
176
     1
 90
       50
176
     1
 62
   256
176
     0
 40
1.0
176
     0
 90
        2
176
     1
  1
strokes_ogs.tif
176
     1
290
     0
176
     1
 40
1.0
176
     1
 40
1.0
176
     1
  0
VISUALSTYLE
  5
40
102
{ACAD_REACTORS
330
29
102
}
330
29
100
AcDbVisualStyle
  2
OverhangOff
 70
    21
177
     3
291
     1
 70
    58
 90
        2
176
     0
 90
        2
176
     0
 90
        0
176
     0
 90
        0
176
     0
 40
0.6
176
     0
 40
30.0
176
     0
 62
     7
420
 16777215
176
     0
 90
        1
176
     0
 90
        4
176
     0
 62
     7
176
     0
 62
   257
176
     0
 90
        1
176
     0
 90
        1
176
     0
 40
1.0
176
     0
 90
        9
176
     2
 62
     7
176
     0
 40
1.0
176
     0
 90
        1
176
     0
 90
        6
176
     0
 90
        2
176
     0
 62
     7
176
     0
 90
        5
176
     0
 90
        0
176
     0
 90
        0
176
     0
290
     0
176
     0
 90
        1
176
     0
 40
0.0
176
     0
 90
        0
176
     0
290
     0
176
     0
290
     1
176
     0
290
     1
176
     0
290
     0
176
     0
290
     0
176
     0
290
     0
176
     0
290
     0
176
     0
290
     0
176
     0
290
     0
176
     0
 90
       50
176
     0
 40
0.0
176
     0
 40
1.0
176
     0
 90
        0
176
     0
 62
    18
420
        0
176
     0
 90
       50
176
     0
 90
        3
176
     0
 62
     5
420
      255
176
     0
290
     0
176
     0
 90
       50
176
     0
 90
       50
176
     0
 90
       50
176
     0
290
     0
176
     0
 90
       50
176
     0
 62
   256
176
     0
 40
1.0
176
     0
 90
        2
176
     0
  1
strokes_ogs.tif
176
     0
290
     0
176
     0
 40
1.0
176
     0
 40
1.0
176
     0
  0
VISUALSTYLE
  5
33
102
{ACAD_REACTORS
330
29
102
}
330
29
100
AcDbVisualStyle
  2
Realistic
 70
     8
177
     3
291
     0
 70
    58
 90
        2
176
     1
 90
        3
176
     1
 90
        0
176
     1
 90
        2
176
     1
 40
0.6
176
     1
 40
30.0
176
     1
 62
     7
420
 16777215
176
     1
 90
        0
176
     1
 90
        0
176
     1
 62
     7
176
     1
 62
   257
176
     1
 90
        1
176
     1
 90
        1
176
     1
 40
1.0
176
     1
 90
        8
176
     1
 62
   257
176
     1
 40
1.0
176
     1
 90
        1
176
     1
 90
        6
176
     1
 90
        2
176
     1
 62
     7
176
     1
 90
        3
176
     1
 90
        0
176
     1
 90
        0
176
     1
290
     0
176
     1
 90
       13
176
     1
 40
0.0
176
     1
 90
        0
176
     1
290
     0
176
     1
290
     1
176
     1
290
     1
176
     1
290
     0
176
     1
290
     0
176
     1
290
     0
176
     1
290
     0
176
     1
290
     0
176
     1
290
     0
176
     1
 90
       50
176
     1
 40
0.0
176
     1
 40
1.0
176
     1
 90
        0
176
     1
 62
    18
420
        0
176
     1
 90
       50
176
     1
 90
        3
176
     1
 62
     5
420
      255
176
     1
290
     0
176
     1
 90
       50
176
     1
 90
       50
176
     1
 90
       50
176
     1
290
     0
176
     1
 90
       50
176
     1
 62
   256
176
     0
 40
1.0
176
     0
 90
        2
176
     1
  1
strokes_ogs.tif
176
     1
290
     0
176
     1
 40
1.0
176
     1
 40
1.0
176
     1
  0
VISUALSTYLE
  5
3E
102
{ACAD_REACTORS
330
29
102
}
330
29
100
AcDbVisualStyle
  2
Shaded
 70
    27
177
     3
291
     0
 70
    58
 90
        2
176
     1
 90
        2
176
     1
 90
        1
176
     1
 90
        2
176
     1
 40
0.6
176
     1
 40
30.0
176
     1
 62
     7
420
 16777215
176
     1
 90
        0
176
     1
 90
        4
176
     1
 62
     7
176
     1
 62
   257
176
     1
 90
        1
176
     1
 90
        1
176
     1
 40
1.0
176
     1
 90
        8
176
     1
 62
   257
176
     1
 40
1.0
176
     1
 90
        1
176
     1
 90
        6
176
     1
 90
        2
176
     1
 62
     8
420
  7895160
176
     1
 90
        3
176
     1
 90
        0
176
     1
 90
        0
176
     1
290
     0
176
     1
 90
        5
176
     1
 40
0.0
176
     1
 90
        0
176
     1
290
     0
176
     1
290
     1
176
     1
290
     1
176
     1
290
     0
176
     1
290
     0
176
     1
290
     0
176
     1
290
     0
176
     1
290
     0
176
     1
290
     0
176
     1
 90
       50
176
     1
 40
0.0
176
     1
 40
1.0
176
     1
 90
        0
176
     1
 62
    18
420
        0
176
     1
 90
       50
176
     1
 90
        3
176
     1
 62
     5
420
      255
176
     1
290
     0
176
     1
 90
       50
176
     1
 90
       50
176
     1
 90
       50
176
     1
290
     0
176
     1
 90
       50
176
     1
 62
   256
176
     0
 40
1.0
176
     0
 90
        2
176
     1
  1
strokes_ogs.tif
176
     1
290
     0
176
     1
 40
1.0
176
     1
 40
1.0
176
     1
  0
VISUALSTYLE
  5
3D
102
{ACAD_REACTORS
330
29
102
}
330
29
100
AcDbVisualStyle
  2
Shaded with edges
 70
    26
177
     3
291
     0
 70
    58
 90
        2
176
     1
 90
        2
176
     1
 90
        1
176
     1
 90
        2
176
     1
 40
0.6
176
     1
 40
30.0
176
     1
 62
     7
420
 16777215
176
     1
 90
        1
176
     1
 90
        2
176
     1
 62
     7
176
     1
 62
   257
176
     1
 90
        2
176
     1
 90
        1
176
     1
 40
1.0
176
     1
 90
        8
176
     1
 62
   257
176
     1
 40
1.0
176
     1
 90
        1
176
     1
 90
        6
176
     1
 90
        2
176
     1
 62
     7
176
     1
 90
        3
176
     1
 90
        0
176
     1
 90
        0
176
     1
290
     0
176
     1
 90
        5
176
     1
 40
0.0
176
     1
 90
        0
176
     1
290
     0
176
     1
290
     1
176
     1
290
     1
176
     1
290
     0
176
     1
290
     0
176
     1
290
     0
176
     1
290
     0
176
     1
290
     0
176
     1
290
     0
176
     1
 90
       50
176
     1
 40
0.0
176
     1
 40
1.0
176
     1
 90
        0
176
     1
 62
    18
420
        0
176
     1
 90
       50
176
     1
 90
        3
176
     1
 62
     5
420
      255
176
     1
290
     0
176
     1
 90
       50
176
     1
 90
       50
176
     1
 90
       50
176
     1
290
     0
176
     1
 90
       50
176
     1
 62
   256
176
     0
 40
1.0
176
     0
 90
        2
176
     1
  1
strokes_ogs.tif
176
     1
290
     0
176
     1
 40
1.0
176
     1
 40
1.0
176
     1
  0
VISUALSTYLE
  5
3A
102
{ACAD_REACTORS
330
29
102
}
330
29
100
AcDbVisualStyle
  2
Shades of Gray
 70
    23
177
     3
291
     0
 70
    58
 90
        2
176
     1
 90
        2
176
     1
 90
        3
176
     1
 90
        0
176
     1
 40
0.6
176
     1
 40
30.0
176
     1
 62
     7
420
 16777215
176
     1
 90
        2
176
     1
 90
        2
176
     1
 62
     7
176
     1
 62
     7
176
     1
 90
        1
176
     1
 90
        1
176
     1
 40
40.0
176
     1
 90
        8
176
     1
 62
     7
176
     1
 40
1.0
176
     1
 90
        1
176
     1
 90
        6
176
     1
 90
        2
176
     1
 62
     7
176
     1
 90
        3
176
     1
 90
        0
176
     1
 90
        0
176
     1
290
     0
176
     1
 90
        1
176
     1
 40
0.0
176
     1
 90
        0
176
     1
290
     0
176
     1
290
     1
176
     1
290
     1
176
     1
290
     0
176
     1
290
     0
176
     1
290
     0
176
     1
290
     0
176
     1
290
     0
176
     1
290
     0
176
     1
 90
       50
176
     1
 40
0.0
176
     1
 40
1.0
176
     1
 90
        0
176
     1
 62
    18
420
        0
176
     1
 90
       50
176
     1
 90
        3
176
     1
 62
     5
420
      255
176
     1
290
     0
176
     1
 90
       50
176
     1
 90
       50
176
     1
 90
       50
176
     1
290
     0
176
     1
 90
       50
176
     1
 62
   256
176
     0
 40
1.0
176
     0
 90
        2
176
     1
  1
strokes_ogs.tif
176
     1
290
     0
176
     1
 40
1.0
176
     1
 40
1.0
176
     1
  0
VISUALSTYLE
  5
3B
102
{ACAD_REACTORS
330
29
102
}
330
29
100
AcDbVisualStyle
  2
Sketchy
 70
    24
177
     3
291
     0
 70
    58
 90
        1
176
     1
 90
        2
176
     1
 90
        2
176
     1
 90
        0
176
     1
 40
0.6
176
     1
 40
30.0
176
     1
 62
     7
420
 16777215
176
     1
 90
        2
176
     1
 90
        2
176
     1
 62
     7
176
     1
 62
     7
176
     1
 90
        1
176
     1
 90
        1
176
     1
 40
40.0
176
     1
 90
       11
176
     1
 62
     7
176
     1
 40
1.0
176
     1
 90
        1
176
     1
 90
        6
176
     1
 90
        2
176
     1
 62
     7
176
     1
 90
        6
176
     1
 90
        0
176
     1
 90
        0
176
     1
290
     0
176
     1
 90
        1
176
     1
 40
0.0
176
     1
 90
        0
176
     1
290
     0
176
     1
290
     1
176
     1
290
     1
176
     1
290
     0
176
     1
290
     0
176
     1
290
     0
176
     1
290
     0
176
     1
290
     0
176
     1
290
     0
176
     1
 90
       50
176
     1
 40
0.0
176
     1
 40
1.0
176
     1
 90
        0
176
     1
 62
    18
420
        0
176
     1
 90
       50
176
     1
 90
        3
176
     1
 62
     5
420
      255
176
     1
290
     0
176
     1
 90
       50
176
     1
 90
       50
176
     1
 90
       50
176
     1
290
     0
176
     1
 90
       50
176
     1
 62
   256
176
     0
 40
1.0
176
     0
 90
        2
176
     1
  1
strokes_ogs.tif
176
     1
290
     0
176
     1
 40
1.0
176
     1
 40
1.0
176
     1
  0
VISUALSTYLE
  5
36
102
{ACAD_REACTORS
330
29
102
}
330
29
100
AcDbVisualStyle
  2
Thicken
 70
    13
177
     3
291
     1
 70
    58
 90
        2
176
     1
 90
        2
176
     1
 90
        0
176
     1
 90
        0
176
     1
 40
0.6
176
     1
 40
30.0
176
     1
 62
     7
420
 16777215
176
     1
 90
        1
176
     1
 90
        4
176
     1
 62
     7
176
     1
 62
   257
176
     1
 90
        1
176
     1
 90
        1
176
     1
 40
1.0
176
     1
 90
       12
176
     1
 62
     7
176
     1
 40
1.0
176
     1
 90
        1
176
     1
 90
        6
176
     1
 90
        2
176
     1
 62
     7
176
     1
 90
        5
176
     1
 90
        0
176
     1
 90
        0
176
     1
290
     0
176
     1
 90
        1
176
     1
 40
0.0
176
     1
 90
        0
176
     1
290
     0
176
     1
290
     1
176
     1
290
     1
176
     1
290
     0
176
     1
290
     0
176
     1
290
     0
176
     1
290
     0
176
     1
290
     0
176
     1
290
     0
176
     1
 90
       50
176
     1
 40
0.0
176
     1
 40
1.0
176
     1
 90
        0
176
     1
 62
    18
420
        0
176
     1
 90
       50
176
     1
 90
        3
176
     1
 62
     5
420
      255
176
     1
290
     0
176
     1
 90
       50
176
     1
 90
       50
176
     1
 90
       50
176
     1
290
     0
176
     1
 90
       50
176
     1
 62
   256
176
     0
 40
1.0
176
     0
 90
        2
176
     1
  1
strokes_ogs.tif
176
     1
290
     0
176
     1
 40
1.0
176
     1
 40
1.0
176
     1
  0
VISUALSTYLE
  5
30
102
{ACAD_REACTORS
330
29
102
}
330
29
100
AcDbVisualStyle
  2
Wireframe
 70
     5
177
     3
291
     0
 70
    58
 90
        0
176
     1
 90
        2
176
     1
 90
        0
176
     1
 90
        0
176
     1
 40
0.6
176
     1
 40
30.0
176
     1
 62
     7
420
 16777215
176
     1
 90
        1
176
     1
 90
        4
176
     1
 62
     7
176
     1
 62
   257
176
     1
 90
        1
176
     1
 90
        1
176
     1
 40
1.0
176
     1
 90
        0
176
     1
 62
   257
176
     1
 40
1.0
176
     1
 90
        1
176
     1
 90
        6
176
     1
 90
        2
176
     1
 62
     7
176
     1
 90
        3
176
     1
 90
        0
176
     1
 90
        0
176
     1
290
     0
176
     1
 90
        1
176
     1
 40
0.0
176
     1
 90
        0
176
     1
290
     0
176
     1
290
     1
176
     1
290
     1
176
     1
290
     0
176
     1
290
     0
176
     1
290
     0
176
     1
290
     0
176
     1
290
     0
176
     1
290
     0
176
     1
 90
       50
176
     1
 40
0.0
176
     1
 40
1.0
176
     1
 90
        0
176
     1
 62
    18
420
        0
176
     1
 90
       50
176
     1
 90
        3
176
     1
 62
     5
420
      255
176
     1
290
     0
176
     1
 90
       50
176
     1
 90
       50
176
     1
 90
       50
176
     1
290
     0
176
     1
 90
       50
176
     1
 62
   256
176
     0
 40
1.0
176
     0
 90
        2
176
     1
  1
strokes_ogs.tif
176
     1
290
     0
176
     1
 40
1.0
176
     1
 40
1.0
176
     1
  0
VISUALSTYLE
  5
3C
102
{ACAD_REACTORS
330
29
102
}
330
29
100
AcDbVisualStyle
  2
X-Ray
 70
    25
177
     3
291
     0
 70
    58
 90
        2
176
     1
 90
        2
176
     1
 90
        1
176
     1
 90
        1
176
     1
 40
0.5
176
     1
 40
30.0
176
     1
 62
     7
420
 16777215
176
     1
 90
        1
176
     1
 90
        0
176
     1
 62
     7
176
     1
 62
   257
176
     1
 90
        1
176
     1
 90
        1
176
     1
 40
1.0
176
     1
 90
        8
176
     1
 62
     7
176
     1
 40
1.0
176
     1
 90
        1
176
     1
 90
        6
176
     1
 90
        2
176
     1
 62
     7
176
     1
 90
        3
176
     1
 90
        0
176
     1
 90
        0
176
     1
290
     0
176
     1
 90
       13
176
     1
 40
0.0
176
     1
 90
        0
176
     1
290
     0
176
     1
290
     1
176
     1
290
     1
176
     1
290
     0
176
     1
290
     0
176
     1
290
     0
176
     1
290
     0
176
     1
290
     0
176
     1
290
     0
176
     1
 90
       50
176
     1
 40
0.0
176
     1
 40
1.0
176
     1
 90
        0
176
     1
 62
    18
420
        0
176
     1
 90
       50
176
     1
 90
        3
176
     1
 62
     5
420
      255
176
     1
290
     0
176
     1
 90
       50
176
     1
 90
       50
176
     1
 90
       50
176
     1
290
     0
176
     1
 90
       50
176
     1
 62
   256
176
     0
 40
1.0
176
     0
 90
        2
176
     1
  1
strokes_ogs.tif
176
     1
290
     0
176
     1
 40
1.0
176
     1
 40
1.0
176
     1
  0
DICTIONARYVAR
  5
2BF
102
{ACAD_REACTORS
330
2BA
102
}
330
2BA
100
DictionaryVariables
280
     0
  1
1:1
  0
DICTIONARYVAR
  5
2BC
102
{ACAD_REACTORS
330
2BA
102
}
330
2BA
100
DictionaryVariables
280
     0
  1
STANDARD
  0
DICTIONARYVAR
  5
2BB
102
{ACAD_REACTORS
330
2BA
102
}
330
2BA
100
DictionaryVariables
280
     0
  1
STANDARD
  0
DICTIONARYVAR
  5
2BD
102
{ACAD_REACTORS
330
2BA
102
}
330
2BA
100
DictionaryVariables
280
     0
  1
Imperial24
  0
DICTIONARYVAR
  5
2BE
102
{ACAD_REACTORS
330
2BA
102
}
330
2BA
100
DictionaryVariables
280
     0
  1
Imperial24
  0
DICTIONARY
  5
1A
330
19
100
AcDbDictionary
280
     1
281
     1
  3
BUMPTILE
360
1C
  3
DIFFUSETILE
360
1B
  3
OPACITYTILE
360
1F
  3
REFLECTIONTILE
360
1E
  3
REFRACTIONTILE
360
20
  3
SPECULARTILE
360
1D
  0
DICTIONARY
  5
12
330
11
100
AcDbDictionary
280
     1
281
     1
  3
BUMPTILE
360
14
  3
DIFFUSETILE
360
13
  3
OPACITYTILE
360
17
  3
REFLECTIONTILE
360
16
  3
REFRACTIONTILE
360
18
  3
SPECULARTILE
360
15
  0
DICTIONARY
  5
22
330
21
100
AcDbDictionary
280
     1
281
     1
  3
BUMPTILE
360
24
  3
DIFFUSETILE
360
23
  3
OPACITYTILE
360
27
  3
REFLECTIONTILE
360
26
  3
REFRACTIONTILE
360
28
  3
SPECULARTILE
360
25
  0
DICTIONARY
  5
2C0
330
65
100
AcDbDictionary
280
     1
281
     1
  3
ACAD_ROUNDTRIP_2008_TABLESTYLE_CELLSTYLEMAP
360
2C1
  0
XRECORD
  5
1C
102
{ACAD_REACTORS
330
1A
102
}
330
1A
100
AcDbXrecord
280
     1
270
     1
271
     1
  0
XRECORD
  5
1B
102
{ACAD_REACTORS
330
1A
102
}
330
1A
100
AcDbXrecord
280
     1
270
     1
271
     1
  0
XRECORD
  5
1F
102
{ACAD_REACTORS
330
1A
102
}
330
1A
100
AcDbXrecord
280
     1
270
     1
271
     1
  0
XRECORD
  5
1E
102
{ACAD_REACTORS
330
1A
102
}
330
1A
100
AcDbXrecord
280
     1
270
     1
271
     1
  0
XRECORD
  5
20
102
{ACAD_REACTORS
330
1A
102
}
330
1A
100
AcDbXrecord
280
     1
270
     1
271
     1
  0
XRECORD
  5
1D
102
{ACAD_REACTORS
330
1A
102
}
330
1A
100
AcDbXrecord
280
     1
270
     1
271
     1
  0
XRECORD
  5
14
102
{ACAD_REACTORS
330
12
102
}
330
12
100
AcDbXrecord
280
     1
270
     1
271
     1
  0
XRECORD
  5
13
102
{ACAD_REACTORS
330
12
102
}
330
12
100
AcDbXrecord
280
     1
270
     1
271
     1
  0
XRECORD
  5
17
102
{ACAD_REACTORS
330
12
102
}
330
12
100
AcDbXrecord
280
     1
270
     1
271
     1
  0
XRECORD
  5
16
102
{ACAD_REACTORS
330
12
102
}
330
12
100
AcDbXrecord
280
     1
270
     1
271
     1
  0
XRECORD
  5
18
102
{ACAD_REACTORS
330
12
102
}
330
12
100
AcDbXrecord
280
     1
270
     1
271
     1
  0
XRECORD
  5
15
102
{ACAD_REACTORS
330
12
102
}
330
12
100
AcDbXrecord
280
     1
270
     1
271
     1
  0
XRECORD
  5
24
102
{ACAD_REACTORS
330
22
102
}
330
22
100
AcDbXrecord
280
     1
270
     1
271
     1
  0
XRECORD
  5
23
102
{ACAD_REACTORS
330
22
102
}
330
22
100
AcDbXrecord
280
     1
270
     1
271
     1
  0
XRECORD
  5
27
102
{ACAD_REACTORS
330
22
102
}
330
22
100
AcDbXrecord
280
     1
270
     1
271
     1
  0
XRECORD
  5
26
102
{ACAD_REACTORS
330
22
102
}
330
22
100
AcDbXrecord
280
     1
270
     1
271
     1
  0
XRECORD
  5
28
102
{ACAD_REACTORS
330
22
102
}
330
22
100
AcDbXrecord
280
     1
270
     1
271
     1
  0
XRECORD
  5
25
102
{ACAD_REACTORS
330
22
102
}
330
22
100
AcDbXrecord
280
     1
270
     1
271
     1
  0
CELLSTYLEMAP
  5
2C1
102
{ACAD_REACTORS
330
2C0
102
}
330
2C0
100
AcDbCellStyleMap
 90
        3
300
CELLSTYLE
  1
TABLEFORMAT_BEGIN
 90
        5
170
     1
 91
        0
 92
    32768
 62
   257
 93
        1
300
CONTENTFORMAT
  1
CONTENTFORMAT_BEGIN
 90
        0
 91
        0
 92
      512
 93
        0
300

 40
0.0
140
1.0
 94
        5
 62
     0
340
55
144
0.25
309
CONTENTFORMAT_END
171
     0
 94
        0
309
TABLEFORMAT_END
  1
CELLSTYLE_BEGIN
 90
        1
 91
        1
300
_TITLE
309
CELLSTYLE_END
300
CELLSTYLE
  1
TABLEFORMAT_BEGIN
 90
        5
170
     1
 91
        0
 92
        0
 62
   257
 93
        1
300
CONTENTFORMAT
  1
CONTENTFORMAT_BEGIN
 90
        0
 91
        0
 92
      512
 93
        0
300

 40
0.0
140
1.0
 94
        5
 62
     0
340
55
144
0.18
309
CONTENTFORMAT_END
171
     0
 94
        0
309
TABLEFORMAT_END
  1
CELLSTYLE_BEGIN
 90
        2
 91
        1
300
_HEADER
309
CELLSTYLE_END
300
CELLSTYLE
  1
TABLEFORMAT_BEGIN
 90
        5
170
     1
 91
        0
 92
        0
 62
   257
 93
        1
300
CONTENTFORMAT
  1
CONTENTFORMAT_BEGIN
 90
        0
 91
        0
 92
      512
 93
        0
300

 40
0.0
140
1.0
 94
        2
 62
     0
340
55
144
0.18
309
CONTENTFORMAT_END
171
     0
 94
        0
309
TABLEFORMAT_END
  1
CELLSTYLE_BEGIN
 90
        3
 91
        2
300
_DATA
309
CELLSTYLE_END
  0
ENDSEC
  0
EOF
