  0
SECTION
  2
HEADER
  9
$ACADVER
  1
AC1014
  9
$ACADMAINTVER
 70
     9
  9
$DWGCODEPAGE
  3
ANSI_1252
  9
$INSBASE
 10
0.0
 20
0.0
 30
0.0
  9
$EXTMIN
 10
1.000000000000000E+20
 20
1.000000000000000E+20
 30
1.000000000000000E+20
  9
$EXTMAX
 10
-1.000000000000000E+20
 20
-1.000000000000000E+20
 30
-1.000000000000000E+20
  9
$LIMMIN
 10
0.0
 20
0.0
  9
$LIMMAX
 10
12.0
 20
9.0
  9
$ORTHOMODE
 70
     0
  9
$REGENMODE
 70
     1
  9
$FILLMODE
 70
     1
  9
$QTEXTMODE
 70
     0
  9
$MIRRTEXT
 70
     1
  9
$DRAGMODE
 70
     2
  9
$LTSCALE
 40
1.0
  9
$OSMODE
 70
    37
  9
$ATTMODE
 70
     1
  9
$TEXTSIZE
 40
0.2
  9
$TRACEWID
 40
0.05
  9
$TEXTSTYLE
  7
STANDARD
  9
$CLAYER
  8
0
  9
$CELTYPE
  6
BYLAYER
  9
$CECOLOR
 62
   256
  9
$CELTSCALE
 40
1.0
  9
$DELOBJ
 70
     1
  9
$DISPSILH
 70
     0
  9
$DIMSCALE
 40
1.0
  9
$DIMASZ
 40
0.18
  9
$DIMEXO
 40
0.0625
  9
$DIMDLI
 40
0.38
  9
$DIMRND
 40
0.0
  9
$DIMDLE
 40
0.0
  9
$DIMEXE
 40
0.18
  9
$DIMTP
 40
0.0
  9
$DIMTM
 40
0.0
  9
$DIMTXT
 40
0.18
  9
$DIMCEN
 40
0.09
  9
$DIMTSZ
 40
0.0
  9
$DIMTOL
 70
     0
  9
$DIMLIM
 70
     0
  9
$DIMTIH
 70
     1
  9
$DIMTOH
 70
     1
  9
$DIMSE1
 70
     0
  9
$DIMSE2
 70
     0
  9
$DIMTAD
 70
     0
  9
$DIMZIN
 70
     0
  9
$DIMBLK
  1

  9
$DIMASO
 70
     1
  9
$DIMSHO
 70
     1
  9
$DIMPOST
  1

  9
$DIMAPOST
  1

  9
$DIMALT
 70
     0
  9
$DIMALTD
 70
     2
  9
$DIMALTF
 40
25.4
  9
$DIMLFAC
 40
1.0
  9
$DIMTOFL
 70
     0
  9
$DIMTVP
 40
0.0
  9
$DIMTIX
 70
     0
  9
$DIMSOXD
 70
     0
  9
$DIMSAH
 70
     0
  9
$DIMBLK1
  1

  9
$DIMBLK2
  1

  9
$DIMSTYLE
  2
STANDARD
  9
$DIMCLRD
 70
     0
  9
$DIMCLRE
 70
     0
  9
$DIMCLRT
 70
     0
  9
$DIMTFAC
 40
1.0
  9
$DIMGAP
 40
0.09
  9
$DIMJUST
 70
     0
  9
$DIMSD1
 70
     0
  9
$DIMSD2
 70
     0
  9
$DIMTOLJ
 70
     1
  9
$DIMTZIN
 70
     0
  9
$DIMALTZ
 70
     0
  9
$DIMALTTZ
 70
     0
  9
$DIMFIT
 70
     3
  9
$DIMUPT
 70
     0
  9
$DIMUNIT
 70
     2
  9
$DIMDEC
 70
     4
  9
$DIMTDEC
 70
     4
  9
$DIMALTU
 70
     2
  9
$DIMALTTD
 70
     2
  9
$DIMTXSTY
  7
STANDARD
  9
$DIMAUNIT
 70
     0
  9
$LUNITS
 70
     2
  9
$LUPREC
 70
     4
  9
$SKETCHINC
 40
0.1
  9
$FILLETRAD
 40
0.5
  9
$AUNITS
 70
     0
  9
$AUPREC
 70
     0
  9
$MENU
  1
.
  9
$ELEVATION
 40
0.0
  9
$PELEVATION
 40
0.0
  9
$THICKNESS
 40
0.0
  9
$LIMCHECK
 70
     0
  9
$CHAMFERA
 40
0.5
  9
$CHAMFERB
 40
0.5
  9
$CHAMFERC
 40
1.0
  9
$CHAMFERD
 40
0.0
  9
$SKPOLY
 70
     0
  9
$TDCREATE
 40
2458697.470639155
  9
$TDUPDATE
 40
2458697.470639167
  9
$TDINDWG
 40
0.0000000116
  9
$TDUSRTIMER
 40
0.0000000116
  9
$USRTIMER
 70
     1
  9
$ANGBASE
 50
0.0
  9
$ANGDIR
 70
     0
  9
$PDMODE
 70
     0
  9
$PDSIZE
 40
0.0
  9
$PLINEWID
 40
0.0
  9
$COORDS
 70
     1
  9
$SPLFRAME
 70
     0
  9
$SPLINETYPE
 70
     6
  9
$SPLINESEGS
 70
     8
  9
$ATTDIA
 70
     0
  9
$ATTREQ
 70
     1
  9
$HANDLING
 70
     1
  9
$HANDSEED
  5
A1D
  9
$SURFTAB1
 70
     6
  9
$SURFTAB2
 70
     6
  9
$SURFTYPE
 70
     6
  9
$SURFU
 70
     6
  9
$SURFV
 70
     6
  9
$UCSNAME
  2

  9
$UCSORG
 10
0.0
 20
0.0
 30
0.0
  9
$UCSXDIR
 10
1.0
 20
0.0
 30
0.0
  9
$UCSYDIR
 10
0.0
 20
1.0
 30
0.0
  9
$PUCSNAME
  2

  9
$PUCSORG
 10
0.0
 20
0.0
 30
0.0
  9
$PUCSXDIR
 10
1.0
 20
0.0
 30
0.0
  9
$PUCSYDIR
 10
0.0
 20
1.0
 30
0.0
  9
$USERI1
 70
     0
  9
$USERI2
 70
     0
  9
$USERI3
 70
     0
  9
$USERI4
 70
     0
  9
$USERI5
 70
     0
  9
$USERR1
 40
0.0
  9
$USERR2
 40
0.0
  9
$USERR3
 40
0.0
  9
$USERR4
 40
0.0
  9
$USERR5
 40
0.0
  9
$WORLDVIEW
 70
     1
  9
$SHADEDGE
 70
     3
  9
$SHADEDIF
 70
    70
  9
$TILEMODE
 70
     1
  9
$MAXACTVP
 70
    64
  9
$PINSBASE
 10
0.0
 20
0.0
 30
0.0
  9
$PLIMCHECK
 70
     0
  9
$PEXTMIN
 10
1.000000000000000E+20
 20
1.000000000000000E+20
 30
1.000000000000000E+20
  9
$PEXTMAX
 10
-1.000000000000000E+20
 20
-1.000000000000000E+20
 30
-1.000000000000000E+20
  9
$PLIMMIN
 10
0.0
 20
0.0
  9
$PLIMMAX
 10
12.0
 20
9.0
  9
$UNITMODE
 70
     0
  9
$VISRETAIN
 70
     1
  9
$PLINEGEN
 70
     0
  9
$PSLTSCALE
 70
     1
  9
$TREEDEPTH
 70
  3020
  9
$PICKSTYLE
 70
     1
  9
$CMLSTYLE
  2
STANDARD
  9
$CMLJUST
 70
     0
  9
$CMLSCALE
 40
1.0
  9
$PROXYGRAPHICS
 70
     1
  9
$MEASUREMENT
 70
     0
  0
ENDSEC
  0
SECTION
  2
CLASSES
  0
CLASS
  1
ACDBDICTIONARYWDFLT
  2
AcDbDictionaryWithDefault
  3
ObjectDBX Classes
 90
        0
280
     0
281
     0
  0
CLASS
  1
VISUALSTYLE
  2
AcDbVisualStyle
  3
ObjectDBX Classes
 90
     4095
280
     0
281
     0
  0
CLASS
  1
XRECORD
  2
AcDbXrecord
  3
AutoCAD 2000
 90
        0
280
     0
281
     0
  0
CLASS
  1
LWPOLYLINE
  2
AcDbPolyline
  3
AutoCAD 2000
 90
        0
280
     0
281
     1
  0
CLASS
  1
HATCH
  2
AcDbHatch
  3
AutoCAD 2000
 90
        0
280
     0
281
     1
  0
CLASS
  1
ACDBPLACEHOLDER
  2
AcDbPlaceHolder
  3
ObjectDBX Classes
 90
        0
280
     0
281
     0
  0
CLASS
  1
LAYOUT
  2
AcDbLayout
  3
ObjectDBX Classes
 90
        0
280
     0
281
     0
  0
ENDSEC
  0
SECTION
  2
TABLES
  0
TABLE
  2
VPORT
  5
8
330
0
100
AcDbSymbolTable
 70
     1
  0
VPORT
  5
29
330
8
100
AcDbSymbolTableRecord
100
AcDbViewportTableRecord
  2
*ACTIVE
 70
     0
 10
0.0
 20
0.0
 11
1.0
 21
1.0
 12
0.0
 22
0.0
 13
0.0
 23
0.0
 14
0.5
 24
0.5
 15
0.5
 25
0.5
 16
0.0
 26
0.0
 36
1.0
 17
100.0619370952102
 27
127.0193786303545
 37
0.0
 40
297.0001314904201
 41
0.7070759562020681
 42
50.0
 43
0.0
 44
0.0
 50
0.0
 51
0.0
 71
     0
 72
   100
 73
     1
 74
     3
 75
     0
 76
     0
 77
     0
 78
     0
  0
ENDTAB
  0
TABLE
  2
LTYPE
  5
5
330
0
100
AcDbSymbolTable
 70
     4
  0
LTYPE
  5
14
330
5
100
AcDbSymbolTableRecord
100
AcDbLinetypeTableRecord
  2
BYBLOCK
 70
     0
  3

 72
    65
 73
     0
 40
0.0
  0
LTYPE
  5
15
330
5
100
AcDbSymbolTableRecord
100
AcDbLinetypeTableRecord
  2
BYLAYER
 70
     0
  3

 72
    65
 73
     0
 40
0.0
  0
LTYPE
  5
16
330
5
100
AcDbSymbolTableRecord
100
AcDbLinetypeTableRecord
  2
CONTINUOUS
 70
     0
  3
Solid line
 72
    65
 73
     0
 40
0.0
  0
LTYPE
  5
127
330
5
100
AcDbSymbolTableRecord
100
AcDbLinetypeTableRecord
  2
AI-LINETYPE-1
 70
     0
  3
Adobe Illustrator Linetype No. 1
 72
    65
 73
     4
 40
8.819444442239584
 49
7.055555553791667
 74
     0
 49
-0.7055555553791667
 74
     0
 49
0.3527777776895833
 74
     0
 49
-0.7055555553791667
 74
     0
  0
LTYPE
  5
12C
330
5
100
AcDbSymbolTableRecord
100
AcDbLinetypeTableRecord
  2
AI-LINETYPE-2
 70
     0
  3
Adobe Illustrator Linetype No. 2
 72
    65
 73
     4
 40
8.819444442239584
 49
7.055555553791667
 74
     0
 49
-0.7055555553791667
 74
     0
 49
0.3527777776895833
 74
     0
 49
-0.7055555553791667
 74
     0
  0
LTYPE
  5
131
330
5
100
AcDbSymbolTableRecord
100
AcDbLinetypeTableRecord
  2
AI-LINETYPE-3
 70
     0
  3
Adobe Illustrator Linetype No. 3
 72
    65
 73
     4
 40
8.819444442239584
 49
7.055555553791667
 74
     0
 49
-0.7055555553791667
 74
     0
 49
0.3527777776895833
 74
     0
 49
-0.7055555553791667
 74
     0
  0
ENDTAB
  0
TABLE
  2
LAYER
  5
2
330
0
100
AcDbSymbolTable
 70
     5
  0
LAYER
  5
10
330
2
100
AcDbSymbolTableRecord
100
AcDbLayerTableRecord
  2
0
 70
     0
 62
     7
  6
CONTINUOUS
  0
LAYER
  5
3B
330
2
100
AcDbSymbolTableRecord
100
AcDbLayerTableRecord
  2
GRAU_10_
 70
     0
 62
     7
  6
CONTINUOUS
  0
LAYER
  5
132
330
2
100
AcDbSymbolTableRecord
100
AcDbLayerTableRecord
  2
STANDARDEBENE
 70
     0
 62
     7
  6
CONTINUOUS
  0
LAYER
  5
60D
330
2
100
AcDbSymbolTableRecord
100
AcDbLayerTableRecord
  2
BEMAßUNG
 70
     1
 62
     7
  6
CONTINUOUS
  0
LAYER
  5
9F6
330
2
100
AcDbSymbolTableRecord
100
AcDbLayerTableRecord
  2
TEXT
 70
     1
 62
     7
  6
CONTINUOUS
  0
ENDTAB
  0
TABLE
  2
STYLE
  5
3
330
0
100
AcDbSymbolTable
 70
     1
  0
STYLE
  5
11
330
3
100
AcDbSymbolTableRecord
100
AcDbTextStyleTableRecord
  2
STANDARD
 70
     0
 40
0.0
 41
1.0
 50
0.0
 71
     0
 42
0.2
  3
txt
  4

  0
ENDTAB
  0
TABLE
  2
VIEW
  5
6
330
0
100
AcDbSymbolTable
 70
     0
  0
ENDTAB
  0
TABLE
  2
UCS
  5
7
330
0
100
AcDbSymbolTable
 70
     0
  0
ENDTAB
  0
TABLE
  2
APPID
  5
9
330
0
100
AcDbSymbolTable
 70
     1
  0
APPID
  5
12
330
9
100
AcDbSymbolTableRecord
100
AcDbRegAppTableRecord
  2
ACAD
 70
     0
  0
ENDTAB
  0
TABLE
  2
DIMSTYLE
  5
A
330
0
100
AcDbSymbolTable
 70
     1
  0
DIMSTYLE
105
27
330
A
100
AcDbSymbolTableRecord
100
AcDbDimStyleTableRecord
  2
STANDARD
 70
     0
  3

  4

  5

  6

  7

 40
1.0
 41
0.18
 42
0.0625
 43
0.38
 44
0.18
 45
0.0
 46
0.0
 47
0.0
 48
0.0
140
0.18
141
0.09
142
0.0
143
25.4
144
1.0
145
0.0
146
1.0
147
0.09
 71
     0
 72
     0
 73
     1
 74
     1
 75
     0
 76
     0
 77
     0
 78
     0
170
     0
171
     2
172
     0
173
     0
174
     0
175
     0
176
     0
177
     0
178
     0
270
     2
271
     4
272
     4
273
     2
274
     2
340
11
275
     0
280
     0
281
     0
282
     0
283
     1
284
     0
285
     0
286
     0
287
     3
288
     0
  0
ENDTAB
  0
TABLE
  2
BLOCK_RECORD
  5
1
330
0
100
AcDbSymbolTable
 70
     1
  0
BLOCK_RECORD
  5
1F
330
1
100
AcDbSymbolTableRecord
100
AcDbBlockTableRecord
  2
*MODEL_SPACE
  0
BLOCK_RECORD
  5
1B
330
1
100
AcDbSymbolTableRecord
100
AcDbBlockTableRecord
  2
*PAPER_SPACE
  0
ENDTAB
  0
ENDSEC
  0
SECTION
  2
BLOCKS
  0
BLOCK
  5
20
330
1F
100
AcDbEntity
  8
0
100
AcDbBlockBegin
  2
*MODEL_SPACE
 70
     0
 71
     0
 10
0.0
 20
0.0
 30
0.0
  3
*MODEL_SPACE
  1

  0
ENDBLK
  5
21
330
1F
100
AcDbEntity
  8
0
100
AcDbBlockEnd
  0
BLOCK
  5
1C
330
1B
100
AcDbEntity
 67
     1
  8
0
100
AcDbBlockBegin
  2
*PAPER_SPACE
 70
     0
 71
     0
 10
0.0
 20
0.0
 30
0.0
  3
*PAPER_SPACE
  1

  0
ENDBLK
  5
1D
330
1B
100
AcDbEntity
 67
     1
  8
0
100
AcDbBlockEnd
  0
ENDSEC
  0
SECTION
  2
ENTITIES
  0
POLYLINE
  5
3C
330
1F
100
AcDbEntity
  8
GRAU_10_
 62
     7
100
AcDb2dPolyline
 66
     1
 10
0.0
 20
0.0
 30
0.0
  0
VERTEX
  5
3D
330
3C
100
AcDbEntity
  8
GRAU_10_
 62
     7
100
AcDbVertex
100
AcDb2dVertex
 10
157.6236259914101
 20
127.9821966910947
 30
0.0
  0
VERTEX
  5
3E
330
3C
100
AcDbEntity
  8
GRAU_10_
 62
     7
100
AcDbVertex
100
AcDb2dVertex
 10
156.8767292902079
 20
127.7820366434017
 30
0.0
  0
SEQEND
  5
3F
330
3C
100
AcDbEntity
  8
GRAU_10_
  0
POLYLINE
  5
40
330
1F
100
AcDbEntity
  8
GRAU_10_
 62
     7
100
AcDb2dPolyline
 66
     1
 10
0.0
 20
0.0
 30
0.0
  0
VERTEX
  5
41
330
40
100
AcDbEntity
  8
GRAU_10_
 62
     7
100
AcDbVertex
100
AcDb2dVertex
 10
156.8767292902079
 20
116.1824001445655
 30
0.0
  0
VERTEX
  5
42
330
40
100
AcDbEntity
  8
GRAU_10_
 62
     7
100
AcDbVertex
100
AcDb2dVertex
 10
157.6236259914101
 20
115.9824123516468
 30
0.0
  0
VERTEX
  5
43
330
40
100
AcDbEntity
  8
GRAU_10_
 62
     7
100
AcDbVertex
100
AcDb2dVertex
 10
157.6236259914101
 20
116.0843871780102
 30
0.0
  0
VERTEX
  5
44
330
40
100
AcDbEntity
  8
GRAU_10_
 62
     7
100
AcDbVertex
100
AcDb2dVertex
 10
157.6236259914101
 20
116.3877278354864
 30
0.0
  0
VERTEX
  5
45
330
40
100
AcDbEntity
  8
GRAU_10_
 62
     7
100
AcDbVertex
100
AcDb2dVertex
 10
157.6236259914101
 20
116.8812377637484
 30
0.0
  0
VERTEX
  5
46
330
40
100
AcDbEntity
  8
GRAU_10_
 62
     7
100
AcDbVertex
100
AcDb2dVertex
 10
157.6236259914101
 20
117.5480359949185
 30
0.0
  0
VERTEX
  5
47
330
40
100
AcDbEntity
  8
GRAU_10_
 62
     7
100
AcDbVertex
100
AcDb2dVertex
 10
157.6236259914101
 20
118.3669351917624
 30
0.0
  0
VERTEX
  5
48
330
40
100
AcDbEntity
  8
GRAU_10_
 62
     7
100
AcDbVertex
100
AcDb2dVertex
 10
157.6236259914101
 20
119.3081352783327
 30
0.0
  0
VERTEX
  5
49
330
40
100
AcDbEntity
  8
GRAU_10_
 62
     7
100
AcDbVertex
100
AcDb2dVertex
 10
157.6236259914101
 20
120.3406303952621
 30
0.0
  0
VERTEX
  5
4A
330
40
100
AcDbEntity
  8
GRAU_10_
 62
     7
100
AcDbVertex
100
AcDb2dVertex
 10
157.6236259914101
 20
121.428591549504
 30
0.0
  0
VERTEX
  5
4B
330
40
100
AcDbEntity
  8
GRAU_10_
 62
     7
100
AcDbVertex
100
AcDb2dVertex
 10
157.6236259914101
 20
122.5358452384633
 30
0.0
  0
VERTEX
  5
4C
330
40
100
AcDbEntity
  8
GRAU_10_
 62
     7
100
AcDbVertex
100
AcDb2dVertex
 10
157.6236259914101
 20
123.6246676665765
 30
0.0
  0
VERTEX
  5
4D
330
40
100
AcDbEntity
  8
GRAU_10_
 62
     7
100
AcDbVertex
100
AcDb2dVertex
 10
157.6236259914101
 20
124.6571627835059
 30
0.0
  0
VERTEX
  5
4E
330
40
100
AcDbEntity
  8
GRAU_10_
 62
     7
100
AcDbVertex
100
AcDb2dVertex
 10
157.6236259914101
 20
125.5985351248504
 30
0.0
  0
VERTEX
  5
4F
330
40
100
AcDbEntity
  8
GRAU_10_
 62
     7
100
AcDbVertex
100
AcDb2dVertex
 10
157.6236259914101
 20
126.4164007930487
 30
0.0
  0
VERTEX
  5
50
330
40
100
AcDbEntity
  8
GRAU_10_
 62
     7
100
AcDbVertex
100
AcDb2dVertex
 10
157.6236259914101
 20
127.0840602980901
 30
0.0
  0
VERTEX
  5
51
330
40
100
AcDbEntity
  8
GRAU_10_
 62
     7
100
AcDbVertex
100
AcDb2dVertex
 10
157.6236259914101
 20
127.5770534620294
 30
0.0
  0
VERTEX
  5
52
330
40
100
AcDbEntity
  8
GRAU_10_
 62
     7
100
AcDbVertex
100
AcDb2dVertex
 10
157.6236259914101
 20
127.8802218647313
 30
0.0
  0
VERTEX
  5
53
330
40
100
AcDbEntity
  8
GRAU_10_
 62
     7
100
AcDbVertex
100
AcDb2dVertex
 10
157.6236259914101
 20
127.9821966910947
 30
0.0
  0
SEQEND
  5
54
330
40
100
AcDbEntity
  8
GRAU_10_
  0
POLYLINE
  5
55
330
1F
100
AcDbEntity
  8
GRAU_10_
 62
     7
100
AcDb2dPolyline
 66
     1
 10
0.0
 20
0.0
 30
0.0
  0
VERTEX
  5
56
330
55
100
AcDbEntity
  8
GRAU_10_
 62
     7
100
AcDbVertex
100
AcDb2dVertex
 10
156.8767292902079
 20
116.1824001445655
 30
0.0
  0
VERTEX
  5
57
330
55
100
AcDbEntity
  8
GRAU_10_
 62
     7
100
AcDbVertex
100
AcDb2dVertex
 10
156.8767292902079
 20
116.2940212382876
 30
0.0
  0
VERTEX
  5
58
330
55
100
AcDbEntity
  8
GRAU_10_
 62
     7
100
AcDbVertex
100
AcDb2dVertex
 10
156.8767292902079
 20
116.623716876226
 30
0.0
  0
VERTEX
  5
59
330
55
100
AcDbEntity
  8
GRAU_10_
 62
     7
100
AcDbVertex
100
AcDb2dVertex
 10
156.8767292902079
 20
117.1596014789566
 30
0.0
  0
VERTEX
  5
5A
330
55
100
AcDbEntity
  8
GRAU_10_
 62
     7
100
AcDbVertex
100
AcDb2dVertex
 10
156.8767292902079
 20
117.8815212378907
 30
0.0
  0
VERTEX
  5
5B
330
55
100
AcDbEntity
  8
GRAU_10_
 62
     7
100
AcDbVertex
100
AcDb2dVertex
 10
156.8767292902079
 20
118.7601928414037
 30
0.0
  0
VERTEX
  5
5C
330
55
100
AcDbEntity
  8
GRAU_10_
 62
     7
100
AcDbVertex
100
AcDb2dVertex
 10
156.8767292902079
 20
119.7628878823857
 30
0.0
  0
VERTEX
  5
5D
330
55
100
AcDbEntity
  8
GRAU_10_
 62
     7
100
AcDbVertex
100
AcDb2dVertex
 10
156.8767292902079
 20
120.8511935461761
 30
0.0
  0
VERTEX
  5
5E
330
55
100
AcDbEntity
  8
GRAU_10_
 62
     7
100
AcDbVertex
100
AcDb2dVertex
 10
156.8767292902079
 20
121.9825629035321
 30
0.0
  0
VERTEX
  5
5F
330
55
100
AcDbEntity
  8
GRAU_10_
 62
     7
100
AcDbVertex
100
AcDb2dVertex
 10
156.8767292902079
 20
123.1142767704367
 30
0.0
  0
VERTEX
  5
60
330
55
100
AcDbEntity
  8
GRAU_10_
 62
     7
100
AcDbVertex
100
AcDb2dVertex
 10
156.8767292902079
 20
124.2018934151301
 30
0.0
  0
VERTEX
  5
61
330
55
100
AcDbEntity
  8
GRAU_10_
 62
     7
100
AcDbVertex
100
AcDb2dVertex
 10
156.8767292902079
 20
125.2051052204348
 30
0.0
  0
VERTEX
  5
62
330
55
100
AcDbEntity
  8
GRAU_10_
 62
     7
100
AcDbVertex
100
AcDb2dVertex
 10
156.8767292902079
 20
126.0839490787221
 30
0.0
  0
VERTEX
  5
63
330
55
100
AcDbEntity
  8
GRAU_10_
 62
     7
100
AcDbVertex
100
AcDb2dVertex
 10
156.8767292902079
 20
126.8050075637849
 30
0.0
  0
VERTEX
  5
64
330
55
100
AcDbEntity
  8
GRAU_10_
 62
     7
100
AcDbVertex
100
AcDb2dVertex
 10
156.8767292902079
 20
127.3407199117412
 30
0.0
  0
VERTEX
  5
65
330
55
100
AcDbEntity
  8
GRAU_10_
 62
     7
100
AcDbVertex
100
AcDb2dVertex
 10
156.8767292902079
 20
127.6711045687767
 30
0.0
  0
VERTEX
  5
66
330
55
100
AcDbEntity
  8
GRAU_10_
 62
     7
100
AcDbVertex
100
AcDb2dVertex
 10
156.8767292902079
 20
127.7820366434017
 30
0.0
  0
SEQEND
  5
67
330
55
100
AcDbEntity
  8
GRAU_10_
  0
SPLINE
  5
68
330
1F
100
AcDbEntity
  8
GRAU_10_
 62
     7
100
AcDbSpline
210
0.0
220
0.0
230
1.0
 70
     8
 71
     3
 72
     8
 73
     4
 74
     0
 42
0.0000000001
 43
0.0000000001
 40
0.0
 40
0.0
 40
0.0
 40
0.0
 40
1.0
 40
1.0
 40
1.0
 40
1.0
 10
175.0046494788183
 20
127.8802218647313
 30
0.0
 10
174.7381713430342
 20
127.951535341276
 30
0.0
 10
174.4704874238303
 20
127.9849527674829
 30
0.0
 10
174.228124956443
 20
127.9821966910947
 30
0.0
  0
SPLINE
  5
69
330
1F
100
AcDbEntity
  8
GRAU_10_
 62
     7
100
AcDbSpline
210
0.0
220
0.0
230
1.0
 70
     8
 71
     3
 72
     8
 73
     4
 74
     0
 42
0.0000000001
 43
0.0000000001
 40
0.0
 40
0.0
 40
0.0
 40
0.0
 40
1.0
 40
1.0
 40
1.0
 40
1.0
 10
174.228124956443
 20
115.9824123516468
 30
0.0
 10
174.50442161436
 20
115.9824123516468
 30
0.0
 10
174.7717610240154
 20
116.0197916376617
 30
0.0
 10
175.0046494788183
 20
116.0843871780102
 30
0.0
  0
POLYLINE
  5
6A
330
1F
100
AcDbEntity
  8
GRAU_10_
 62
     7
100
AcDb2dPolyline
 66
     1
 10
0.0
 20
0.0
 30
0.0
  0
VERTEX
  5
6B
330
6A
100
AcDbEntity
  8
GRAU_10_
 62
     7
100
AcDbVertex
100
AcDb2dVertex
 10
157.6236259914101
 20
115.9824123516468
 30
0.0
  0
VERTEX
  5
6C
330
6A
100
AcDbEntity
  8
GRAU_10_
 62
     7
100
AcDbVertex
100
AcDb2dVertex
 10
174.228124956443
 20
115.9824123516468
 30
0.0
  0
SEQEND
  5
6D
330
6A
100
AcDbEntity
  8
GRAU_10_
  0
POLYLINE
  5
6E
330
1F
100
AcDbEntity
  8
GRAU_10_
 62
     7
100
AcDb2dPolyline
 66
     1
 10
0.0
 20
0.0
 30
0.0
  0
VERTEX
  5
6F
330
6E
100
AcDbEntity
  8
GRAU_10_
 62
     7
100
AcDbVertex
100
AcDb2dVertex
 10
174.228124956443
 20
127.9821966910947
 30
0.0
  0
VERTEX
  5
70
330
6E
100
AcDbEntity
  8
GRAU_10_
 62
     7
100
AcDbVertex
100
AcDb2dVertex
 10
157.6236259914101
 20
127.9821966910947
 30
0.0
  0
SEQEND
  5
71
330
6E
100
AcDbEntity
  8
GRAU_10_
  0
POLYLINE
  5
72
330
1F
100
AcDbEntity
  8
GRAU_10_
 62
     7
100
AcDb2dPolyline
 66
     1
 10
0.0
 20
0.0
 30
0.0
  0
VERTEX
  5
73
330
72
100
AcDbEntity
  8
GRAU_10_
 62
     7
100
AcDbVertex
100
AcDb2dVertex
 10
175.0046494788183
 20
116.0843871780102
 30
0.0
  0
VERTEX
  5
74
330
72
100
AcDbEntity
  8
GRAU_10_
 62
     7
100
AcDbVertex
100
AcDb2dVertex
 10
176.5117064988408
 20
116.4883246236557
 30
0.0
  0
SEQEND
  5
75
330
72
100
AcDbEntity
  8
GRAU_10_
  0
POLYLINE
  5
76
330
1F
100
AcDbEntity
  8
GRAU_10_
 62
     7
100
AcDb2dPolyline
 66
     1
 10
0.0
 20
0.0
 30
0.0
  0
VERTEX
  5
77
330
76
100
AcDbEntity
  8
GRAU_10_
 62
     7
100
AcDbVertex
100
AcDb2dVertex
 10
176.5117064988408
 20
127.4762844190858
 30
0.0
  0
VERTEX
  5
78
330
76
100
AcDbEntity
  8
GRAU_10_
 62
     7
100
AcDbVertex
100
AcDb2dVertex
 10
175.0046494788183
 20
127.8802218647313
 30
0.0
  0
SEQEND
  5
79
330
76
100
AcDbEntity
  8
GRAU_10_
  0
POLYLINE
  5
7A
330
1F
100
AcDbEntity
  8
GRAU_10_
 62
     7
100
AcDb2dPolyline
 66
     1
 10
0.0
 20
0.0
 30
0.0
  0
VERTEX
  5
7B
330
7A
100
AcDbEntity
  8
GRAU_10_
 62
     7
100
AcDbVertex
100
AcDb2dVertex
 10
152.6228976397957
 20
116.1824001445655
 30
0.0
  0
VERTEX
  5
7C
330
7A
100
AcDbEntity
  8
GRAU_10_
 62
     7
100
AcDbVertex
100
AcDb2dVertex
 10
156.8767292902079
 20
116.1824001445655
 30
0.0
  0
SEQEND
  5
7D
330
7A
100
AcDbEntity
  8
GRAU_10_
  0
POLYLINE
  5
7E
330
1F
100
AcDbEntity
  8
GRAU_10_
 62
     7
100
AcDb2dPolyline
 66
     1
 10
0.0
 20
0.0
 30
0.0
  0
VERTEX
  5
7F
330
7E
100
AcDbEntity
  8
GRAU_10_
 62
     7
100
AcDbVertex
100
AcDb2dVertex
 10
156.8767292902079
 20
127.7820366434017
 30
0.0
  0
VERTEX
  5
80
330
7E
100
AcDbEntity
  8
GRAU_10_
 62
     7
100
AcDbVertex
100
AcDb2dVertex
 10
152.6228976397957
 20
127.7820366434017
 30
0.0
  0
SEQEND
  5
81
330
7E
100
AcDbEntity
  8
GRAU_10_
  0
SPLINE
  5
82
330
1F
100
AcDbEntity
  8
GRAU_10_
 62
     7
100
AcDbSpline
210
0.0
220
0.0
230
1.0
 70
     8
 71
     3
 72
     8
 73
     4
 74
     0
 42
0.0000000001
 43
0.0000000001
 40
0.0
 40
0.0
 40
0.0
 40
0.0
 40
1.0
 40
1.0
 40
1.0
 40
1.0
 10
177.6236110667052
 20
126.0277940223125
 30
0.0
 10
177.6236110667052
 20
126.7181911575566
 30
0.0
 10
177.1569728832281
 20
127.2995510206925
 30
0.0
 10
176.5117064988408
 20
127.4762844190858
 30
0.0
  0
SPLINE
  5
83
330
1F
100
AcDbEntity
  8
GRAU_10_
 62
     7
100
AcDbSpline
210
0.0
220
0.0
230
1.0
 70
     8
 71
     3
 72
     8
 73
     4
 74
     0
 42
0.0000000001
 43
0.0000000001
 40
0.0
 40
0.0
 40
0.0
 40
0.0
 40
1.0
 40
1.0
 40
1.0
 40
1.0
 10
176.5117064988408
 20
116.4883246236557
 30
0.0
 10
177.1783324752367
 20
116.6671250793402
 30
0.0
 10
177.6193046973487
 20
117.2679497319677
 30
0.0
 10
177.6236110667052
 20
117.937504039526
 30
0.0
  0
POLYLINE
  5
84
330
1F
100
AcDbEntity
  8
GRAU_10_
 62
     7
100
AcDb2dPolyline
 66
     1
 10
0.0
 20
0.0
 30
0.0
  0
VERTEX
  5
85
330
84
100
AcDbEntity
  8
GRAU_10_
 62
     7
100
AcDbVertex
100
AcDb2dVertex
 10
177.6236110667052
 20
126.0277940223125
 30
0.0
  0
VERTEX
  5
86
330
84
100
AcDbEntity
  8
GRAU_10_
 62
     7
100
AcDbVertex
100
AcDb2dVertex
 10
177.6236110667052
 20
125.9261637054976
 30
0.0
  0
VERTEX
  5
87
330
84
100
AcDbEntity
  8
GRAU_10_
 62
     7
100
AcDbVertex
100
AcDb2dVertex
 10
177.6236110667052
 20
125.6273016721522
 30
0.0
  0
VERTEX
  5
88
330
84
100
AcDbEntity
  8
GRAU_10_
 62
     7
100
AcDbVertex
100
AcDb2dVertex
 10
177.6236110667052
 20
125.144816049443
 30
0.0
  0
VERTEX
  5
89
330
84
100
AcDbEntity
  8
GRAU_10_
 62
     7
100
AcDbVertex
100
AcDb2dVertex
 10
177.6236110667052
 20
124.5047173082835
 30
0.0
  0
VERTEX
  5
8A
330
84
100
AcDbEntity
  8
GRAU_10_
 62
     7
100
AcDbVertex
100
AcDb2dVertex
 10
177.6236110667052
 20
123.7378390532669
 30
0.0
  0
VERTEX
  5
8B
330
84
100
AcDbEntity
  8
GRAU_10_
 62
     7
100
AcDbVertex
100
AcDb2dVertex
 10
177.6236110667052
 20
122.8824218442794
 30
0.0
  0
VERTEX
  5
8C
330
84
100
AcDbEntity
  8
GRAU_10_
 62
     7
100
AcDbVertex
100
AcDb2dVertex
 10
177.6236110667052
 20
121.9825629035321
 30
0.0
  0
VERTEX
  5
8D
330
84
100
AcDbEntity
  8
GRAU_10_
 62
     7
100
AcDbVertex
100
AcDb2dVertex
 10
177.6236110667052
 20
121.0821871984621
 30
0.0
  0
VERTEX
  5
8E
330
84
100
AcDbEntity
  8
GRAU_10_
 62
     7
100
AcDbVertex
100
AcDb2dVertex
 10
177.6236110667052
 20
120.2272867537973
 30
0.0
  0
VERTEX
  5
8F
330
84
100
AcDbEntity
  8
GRAU_10_
 62
     7
100
AcDbVertex
100
AcDb2dVertex
 10
177.6236110667052
 20
119.4604084987807
 30
0.0
  0
VERTEX
  5
90
330
84
100
AcDbEntity
  8
GRAU_10_
 62
     7
100
AcDbVertex
100
AcDb2dVertex
 10
177.6236110667052
 20
118.8197929932985
 30
0.0
  0
VERTEX
  5
91
330
84
100
AcDbEntity
  8
GRAU_10_
 62
     7
100
AcDbVertex
100
AcDb2dVertex
 10
177.6236110667052
 20
118.3379963896863
 30
0.0
  0
VERTEX
  5
92
330
84
100
AcDbEntity
  8
GRAU_10_
 62
     7
100
AcDbVertex
100
AcDb2dVertex
 10
177.6236110667052
 20
118.0384453372439
 30
0.0
  0
VERTEX
  5
93
330
84
100
AcDbEntity
  8
GRAU_10_
 62
     7
100
AcDbVertex
100
AcDb2dVertex
 10
177.6236110667052
 20
117.937504039526
 30
0.0
  0
SEQEND
  5
94
330
84
100
AcDbEntity
  8
GRAU_10_
  0
SPLINE
  5
95
330
1F
100
AcDbEntity
  8
GRAU_10_
 62
     7
100
AcDbSpline
210
0.0
220
0.0
230
1.0
 70
    11
 71
     3
 72
    17
 73
    13
 74
     0
 42
0.0000000001
 43
0.0000000001
 40
0.0
 40
0.0
 40
0.0
 40
0.0
 40
1.0
 40
1.0
 40
1.0
 40
2.0
 40
2.0
 40
2.0
 40
3.0
 40
3.0
 40
3.0
 40
4.0
 40
4.0
 40
4.0
 40
4.0
 10
236.9302408261841
 20
121.9825629035321
 30
0.0
 10
236.9302408261841
 20
124.9098605373489
 30
0.0
 10
234.5574313107183
 20
127.2824977980405
 30
0.0
 10
231.6301336769015
 20
127.2824977980405
 30
0.0
 10
228.7031805526333
 20
127.2824977980405
 30
0.0
 10
226.3300265276189
 20
124.9098605373489
 30
0.0
 10
226.3300265276189
 20
121.9825629035321
 30
0.0
 10
226.3300265276189
 20
119.0554375244896
 30
0.0
 10
228.7031805526333
 20
116.6826280090238
 30
0.0
 10
231.6301336769015
 20
116.6826280090238
 30
0.0
 10
234.5574313107183
 20
116.6826280090238
 30
0.0
 10
236.9302408261841
 20
119.0554375244896
 30
0.0
 10
236.9302408261841
 20
121.9825629035321
 30
0.0
  0
SPLINE
  5
96
330
1F
100
AcDbEntity
  8
GRAU_10_
 62
     7
100
AcDbSpline
210
0.0
220
0.0
230
1.0
 70
    11
 71
     3
 72
    17
 73
    13
 74
     0
 42
0.0000000001
 43
0.0000000001
 40
0.0
 40
0.0
 40
0.0
 40
0.0
 40
1.0
 40
1.0
 40
1.0
 40
2.0
 40
2.0
 40
2.0
 40
3.0
 40
3.0
 40
3.0
 40
4.0
 40
4.0
 40
4.0
 40
4.0
 10
235.6298895352766
 20
121.9825629035321
 30
0.0
 10
235.6298895352766
 20
124.1912136191258
 30
0.0
 10
233.8396456663665
 20
125.9823187619072
 30
0.0
 10
231.6301336769015
 20
125.9823187619072
 30
0.0
 10
229.4214829613078
 20
125.9823187619072
 30
0.0
 10
227.6303778185265
 20
124.1912136191258
 30
0.0
 10
227.6303778185265
 20
121.9825629035321
 30
0.0
 10
227.6303778185265
 20
119.7730509140672
 30
0.0
 10
229.4214829613078
 20
117.9822902808343
 30
0.0
 10
231.6301336769015
 20
117.9822902808343
 30
0.0
 10
233.8396456663665
 20
117.9822902808343
 30
0.0
 10
235.6298895352766
 20
119.7730509140672
 30
0.0
 10
235.6298895352766
 20
121.9825629035321
 30
0.0
  0
POLYLINE
  5
97
330
1F
100
AcDbEntity
  8
GRAU_10_
 62
     7
100
AcDb2dPolyline
 66
     1
 10
0.0
 20
0.0
 30
0.0
  0
VERTEX
  5
98
330
97
100
AcDbEntity
  8
GRAU_10_
 62
     7
100
AcDbVertex
100
AcDb2dVertex
 10
152.1233587944344
 20
130.9821858396503
 30
0.0
  0
VERTEX
  5
99
330
97
100
AcDbEntity
  8
GRAU_10_
 62
     7
100
AcDbVertex
100
AcDb2dVertex
 10
141.62339677449
 20
130.9821858396503
 30
0.0
  0
SEQEND
  5
9A
330
97
100
AcDbEntity
  8
GRAU_10_
  0
POLYLINE
  5
9B
330
1F
100
AcDbEntity
  8
GRAU_10_
 62
     7
100
AcDb2dPolyline
 66
     1
 10
0.0
 20
0.0
 30
0.0
  0
VERTEX
  5
9C
330
9B
100
AcDbEntity
  8
GRAU_10_
 62
     7
100
AcDbVertex
100
AcDb2dVertex
 10
141.62339677449
 20
112.9824232030912
 30
0.0
  0
VERTEX
  5
9D
330
9B
100
AcDbEntity
  8
GRAU_10_
 62
     7
100
AcDbVertex
100
AcDb2dVertex
 10
152.1233587944344
 20
112.9824232030912
 30
0.0
  0
SEQEND
  5
9E
330
9B
100
AcDbEntity
  8
GRAU_10_
  0
POLYLINE
  5
9F
330
1F
100
AcDbEntity
  8
GRAU_10_
 62
     7
100
AcDb2dPolyline
 66
     1
 10
0.0
 20
0.0
 30
0.0
  0
VERTEX
  5
A0
330
9F
100
AcDbEntity
  8
GRAU_10_
 62
     7
100
AcDbVertex
100
AcDb2dVertex
 10
141.62339677449
 20
130.9821858396503
 30
0.0
  0
VERTEX
  5
A1
330
9F
100
AcDbEntity
  8
GRAU_10_
 62
     7
100
AcDbVertex
100
AcDb2dVertex
 10
141.62339677449
 20
130.871770529348
 30
0.0
  0
VERTEX
  5
A2
330
9F
100
AcDbEntity
  8
GRAU_10_
 62
     7
100
AcDbVertex
100
AcDb2dVertex
 10
141.62339677449
 20
130.5422471461839
 30
0.0
  0
VERTEX
  5
A3
330
9F
100
AcDbEntity
  8
GRAU_10_
 62
     7
100
AcDbVertex
100
AcDb2dVertex
 10
141.62339677449
 20
130.0017116645482
 30
0.0
  0
VERTEX
  5
A4
330
9F
100
AcDbEntity
  8
GRAU_10_
 62
     7
100
AcDbVertex
100
AcDb2dVertex
 10
141.62339677449
 20
129.2637722116077
 30
0.0
  0
VERTEX
  5
A5
330
9F
100
AcDbEntity
  8
GRAU_10_
 62
     7
100
AcDbVertex
100
AcDb2dVertex
 10
141.62339677449
 20
128.3465155386599
 30
0.0
  0
VERTEX
  5
A6
330
9F
100
AcDbEntity
  8
GRAU_10_
 62
     7
100
AcDbVertex
100
AcDb2dVertex
 10
141.62339677449
 20
127.2726792759075
 30
0.0
  0
VERTEX
  5
A7
330
9F
100
AcDbEntity
  8
GRAU_10_
 62
     7
100
AcDbVertex
100
AcDb2dVertex
 10
141.62339677449
 20
126.0686184038127
 30
0.0
  0
VERTEX
  5
A8
330
9F
100
AcDbEntity
  8
GRAU_10_
 62
     7
100
AcDbVertex
100
AcDb2dVertex
 10
141.62339677449
 20
124.7634439792258
 30
0.0
  0
VERTEX
  5
A9
330
9F
100
AcDbEntity
  8
GRAU_10_
 62
     7
100
AcDbVertex
100
AcDb2dVertex
 10
141.62339677449
 20
123.3904011735795
 30
0.0
  0
VERTEX
  5
AA
330
9F
100
AcDbEntity
  8
GRAU_10_
 62
     7
100
AcDbVertex
100
AcDb2dVertex
 10
141.62339677449
 20
121.9825629035321
 30
0.0
  0
VERTEX
  5
AB
330
9F
100
AcDbEntity
  8
GRAU_10_
 62
     7
100
AcDbVertex
100
AcDb2dVertex
 10
141.62339677449
 20
120.574207869162
 30
0.0
  0
VERTEX
  5
AC
330
9F
100
AcDbEntity
  8
GRAU_10_
 62
     7
100
AcDbVertex
100
AcDb2dVertex
 10
141.62339677449
 20
119.2015095730642
 30
0.0
  0
VERTEX
  5
AD
330
9F
100
AcDbEntity
  8
GRAU_10_
 62
     7
100
AcDbVertex
100
AcDb2dVertex
 10
141.62339677449
 20
117.8966796580258
 30
0.0
  0
VERTEX
  5
AE
330
9F
100
AcDbEntity
  8
GRAU_10_
 62
     7
100
AcDbVertex
100
AcDb2dVertex
 10
141.62339677449
 20
116.692618785931
 30
0.0
  0
VERTEX
  5
AF
330
9F
100
AcDbEntity
  8
GRAU_10_
 62
     7
100
AcDbVertex
100
AcDb2dVertex
 10
141.62339677449
 20
115.6187825231786
 30
0.0
  0
VERTEX
  5
B0
330
9F
100
AcDbEntity
  8
GRAU_10_
 62
     7
100
AcDbVertex
100
AcDb2dVertex
 10
141.62339677449
 20
114.7013535954566
 30
0.0
  0
VERTEX
  5
B1
330
9F
100
AcDbEntity
  8
GRAU_10_
 62
     7
100
AcDbVertex
100
AcDb2dVertex
 10
141.62339677449
 20
113.9634141425161
 30
0.0
  0
VERTEX
  5
B2
330
9F
100
AcDbEntity
  8
GRAU_10_
 62
     7
100
AcDbVertex
100
AcDb2dVertex
 10
141.62339677449
 20
113.4230509156547
 30
0.0
  0
VERTEX
  5
B3
330
9F
100
AcDbEntity
  8
GRAU_10_
 62
     7
100
AcDbVertex
100
AcDb2dVertex
 10
141.62339677449
 20
113.0935275324905
 30
0.0
  0
VERTEX
  5
B4
330
9F
100
AcDbEntity
  8
GRAU_10_
 62
     7
100
AcDbVertex
100
AcDb2dVertex
 10
141.62339677449
 20
112.9824232030912
 30
0.0
  0
SEQEND
  5
B5
330
9F
100
AcDbEntity
  8
GRAU_10_
  0
POLYLINE
  5
B6
330
1F
100
AcDbEntity
  8
GRAU_10_
 62
     7
100
AcDb2dPolyline
 66
     1
 10
0.0
 20
0.0
 30
0.0
  0
VERTEX
  5
B7
330
B6
100
AcDbEntity
  8
GRAU_10_
 62
     7
100
AcDbVertex
100
AcDb2dVertex
 10
150.1234808652469
 20
123.2327880551293
 30
0.0
  0
VERTEX
  5
B8
330
B6
100
AcDbEntity
  8
GRAU_10_
 62
     7
100
AcDbVertex
100
AcDb2dVertex
 10
152.1233587944344
 20
123.2327880551293
 30
0.0
  0
SEQEND
  5
B9
330
B6
100
AcDbEntity
  8
GRAU_10_
  0
POLYLINE
  5
BA
330
1F
100
AcDbEntity
  8
GRAU_10_
 62
     7
100
AcDb2dPolyline
 66
     1
 10
0.0
 20
0.0
 30
0.0
  0
VERTEX
  5
BB
330
BA
100
AcDbEntity
  8
GRAU_10_
 62
     7
100
AcDbVertex
100
AcDb2dVertex
 10
152.1233587944344
 20
120.7325100067092
 30
0.0
  0
VERTEX
  5
BC
330
BA
100
AcDbEntity
  8
GRAU_10_
 62
     7
100
AcDbVertex
100
AcDb2dVertex
 10
150.1234808652469
 20
120.7325100067092
 30
0.0
  0
SEQEND
  5
BD
330
BA
100
AcDbEntity
  8
GRAU_10_
  0
POLYLINE
  5
BE
330
1F
100
AcDbEntity
  8
GRAU_10_
 62
     7
100
AcDb2dPolyline
 66
     1
 10
0.0
 20
0.0
 30
0.0
  0
VERTEX
  5
BF
330
BE
100
AcDbEntity
  8
GRAU_10_
 62
     7
100
AcDbVertex
100
AcDb2dVertex
 10
152.1233587944344
 20
112.9824232030912
 30
0.0
  0
VERTEX
  5
C0
330
BE
100
AcDbEntity
  8
GRAU_10_
 62
     7
100
AcDbVertex
100
AcDb2dVertex
 10
152.1233587944344
 20
113.0959390993302
 30
0.0
  0
VERTEX
  5
C1
330
BE
100
AcDbEntity
  8
GRAU_10_
 62
     7
100
AcDbVertex
100
AcDb2dVertex
 10
152.1233587944344
 20
113.4342474759817
 30
0.0
  0
VERTEX
  5
C2
330
BE
100
AcDbEntity
  8
GRAU_10_
 62
     7
100
AcDbVertex
100
AcDb2dVertex
 10
152.1233587944344
 20
113.9878743204614
 30
0.0
  0
VERTEX
  5
C3
330
BE
100
AcDbEntity
  8
GRAU_10_
 62
     7
100
AcDbVertex
100
AcDb2dVertex
 10
152.1233587944344
 20
114.7430392508281
 30
0.0
  0
VERTEX
  5
C4
330
BE
100
AcDbEntity
  8
GRAU_10_
 62
     7
100
AcDbVertex
100
AcDb2dVertex
 10
152.1233587944344
 20
115.6818277705587
 30
0.0
  0
VERTEX
  5
C5
330
BE
100
AcDbEntity
  8
GRAU_10_
 62
     7
100
AcDbVertex
100
AcDb2dVertex
 10
152.1233587944344
 20
116.7790906826108
 30
0.0
  0
VERTEX
  5
C6
330
BE
100
AcDbEntity
  8
GRAU_10_
 62
     7
100
AcDbVertex
100
AcDb2dVertex
 10
152.1233587944344
 20
118.0072672231024
 30
0.0
  0
VERTEX
  5
C7
330
BE
100
AcDbEntity
  8
GRAU_10_
 62
     7
100
AcDbVertex
100
AcDb2dVertex
 10
152.1233587944344
 20
119.3367295708603
 30
0.0
  0
VERTEX
  5
C8
330
BE
100
AcDbEntity
  8
GRAU_10_
 62
     7
100
AcDbVertex
100
AcDb2dVertex
 10
152.1233587944344
 20
120.7325100067092
 30
0.0
  0
SEQEND
  5
C9
330
BE
100
AcDbEntity
  8
GRAU_10_
  0
POLYLINE
  5
CA
330
1F
100
AcDbEntity
  8
GRAU_10_
 62
     7
100
AcDb2dPolyline
 66
     1
 10
0.0
 20
0.0
 30
0.0
  0
VERTEX
  5
CB
330
CA
100
AcDbEntity
  8
GRAU_10_
 62
     7
100
AcDbVertex
100
AcDb2dVertex
 10
152.1233587944344
 20
123.2327880551293
 30
0.0
  0
VERTEX
  5
CC
330
CA
100
AcDbEntity
  8
GRAU_10_
 62
     7
100
AcDbVertex
100
AcDb2dVertex
 10
152.1233587944344
 20
124.628396236204
 30
0.0
  0
VERTEX
  5
CD
330
CA
100
AcDbEntity
  8
GRAU_10_
 62
     7
100
AcDbVertex
100
AcDb2dVertex
 10
152.1233587944344
 20
125.9571695648649
 30
0.0
  0
VERTEX
  5
CE
330
CA
100
AcDbEntity
  8
GRAU_10_
 62
     7
100
AcDbVertex
100
AcDb2dVertex
 10
152.1233587944344
 20
127.186379634002
 30
0.0
  0
VERTEX
  5
CF
330
CA
100
AcDbEntity
  8
GRAU_10_
 62
     7
100
AcDbVertex
100
AcDb2dVertex
 10
152.1233587944344
 20
128.2832980365056
 30
0.0
  0
VERTEX
  5
D0
330
CA
100
AcDbEntity
  8
GRAU_10_
 62
     7
100
AcDbVertex
100
AcDb2dVertex
 10
152.1233587944344
 20
129.2217420466876
 30
0.0
  0
VERTEX
  5
D1
330
CA
100
AcDbEntity
  8
GRAU_10_
 62
     7
100
AcDbVertex
100
AcDb2dVertex
 10
152.1233587944344
 20
129.9774237413772
 30
0.0
  0
VERTEX
  5
D2
330
CA
100
AcDbEntity
  8
GRAU_10_
 62
     7
100
AcDbVertex
100
AcDb2dVertex
 10
152.1233587944344
 20
130.5308783310826
 30
0.0
  0
VERTEX
  5
D3
330
CA
100
AcDbEntity
  8
GRAU_10_
 62
     7
100
AcDbVertex
100
AcDb2dVertex
 10
152.1233587944344
 20
130.868497688637
 30
0.0
  0
VERTEX
  5
D4
330
CA
100
AcDbEntity
  8
GRAU_10_
 62
     7
100
AcDbVertex
100
AcDb2dVertex
 10
152.1233587944344
 20
130.9821858396503
 30
0.0
  0
SEQEND
  5
D5
330
CA
100
AcDbEntity
  8
GRAU_10_
  0
POLYLINE
  5
D6
330
1F
100
AcDbEntity
  8
GRAU_10_
 62
     7
100
AcDb2dPolyline
 66
     1
 10
0.0
 20
0.0
 30
0.0
  0
VERTEX
  5
D7
330
D6
100
AcDbEntity
  8
GRAU_10_
 62
     7
100
AcDbVertex
100
AcDb2dVertex
 10
150.1234808652469
 20
120.7325100067092
 30
0.0
  0
VERTEX
  5
D8
330
D6
100
AcDbEntity
  8
GRAU_10_
 62
     7
100
AcDbVertex
100
AcDb2dVertex
 10
150.1234808652469
 20
121.9825629035321
 30
0.0
  0
VERTEX
  5
D9
330
D6
100
AcDbEntity
  8
GRAU_10_
 62
     7
100
AcDbVertex
100
AcDb2dVertex
 10
150.1234808652469
 20
123.2327880551293
 30
0.0
  0
SEQEND
  5
DA
330
D6
100
AcDbEntity
  8
GRAU_10_
  0
POLYLINE
  5
DB
330
1F
100
AcDbEntity
  8
GRAU_10_
 62
     7
100
AcDb2dPolyline
 66
     1
 10
0.0
 20
0.0
 30
0.0
  0
VERTEX
  5
DC
330
DB
100
AcDbEntity
  8
GRAU_10_
 62
     7
100
AcDbVertex
100
AcDb2dVertex
 10
141.62339677449
 20
130.9821858396503
 30
0.0
  0
VERTEX
  5
DD
330
DB
100
AcDbEntity
  8
GRAU_10_
 62
     7
100
AcDbVertex
100
AcDb2dVertex
 10
141.1235134195802
 20
130.4823024847405
 30
0.0
  0
SEQEND
  5
DE
330
DB
100
AcDbEntity
  8
GRAU_10_
  0
POLYLINE
  5
DF
330
1F
100
AcDbEntity
  8
GRAU_10_
 62
     7
100
AcDb2dPolyline
 66
     1
 10
0.0
 20
0.0
 30
0.0
  0
VERTEX
  5
E0
330
DF
100
AcDbEntity
  8
GRAU_10_
 62
     7
100
AcDbVertex
100
AcDb2dVertex
 10
141.1235134195802
 20
113.482306558001
 30
0.0
  0
VERTEX
  5
E1
330
DF
100
AcDbEntity
  8
GRAU_10_
 62
     7
100
AcDbVertex
100
AcDb2dVertex
 10
141.62339677449
 20
112.9824232030912
 30
0.0
  0
SEQEND
  5
E2
330
DF
100
AcDbEntity
  8
GRAU_10_
  0
POLYLINE
  5
E3
330
1F
100
AcDbEntity
  8
GRAU_10_
 62
     7
100
AcDb2dPolyline
 66
     1
 10
0.0
 20
0.0
 30
0.0
  0
VERTEX
  5
E4
330
E3
100
AcDbEntity
  8
GRAU_10_
 62
     7
100
AcDbVertex
100
AcDb2dVertex
 10
141.1235134195802
 20
113.482306558001
 30
0.0
  0
VERTEX
  5
E5
330
E3
100
AcDbEntity
  8
GRAU_10_
 62
     7
100
AcDbVertex
100
AcDb2dVertex
 10
141.1235134195802
 20
113.5873819703011
 30
0.0
  0
VERTEX
  5
E6
330
E3
100
AcDbEntity
  8
GRAU_10_
 62
     7
100
AcDbVertex
100
AcDb2dVertex
 10
141.1235134195802
 20
113.8983018378449
 30
0.0
  0
VERTEX
  5
E7
330
E3
100
AcDbEntity
  8
GRAU_10_
 62
     7
100
AcDbVertex
100
AcDb2dVertex
 10
141.1235134195802
 20
114.4086927339846
 30
0.0
  0
VERTEX
  5
E8
330
E3
100
AcDbEntity
  8
GRAU_10_
 62
     7
100
AcDbVertex
100
AcDb2dVertex
 10
141.1235134195802
 20
115.1058078054249
 30
0.0
  0
VERTEX
  5
E9
330
E3
100
AcDbEntity
  8
GRAU_10_
 62
     7
100
AcDbVertex
100
AcDb2dVertex
 10
141.1235134195802
 20
115.9722493199653
 30
0.0
  0
VERTEX
  5
EA
330
E3
100
AcDbEntity
  8
GRAU_10_
 62
     7
100
AcDbVertex
100
AcDb2dVertex
 10
141.1235134195802
 20
116.9864854308228
 30
0.0
  0
VERTEX
  5
EB
330
E3
100
AcDbEntity
  8
GRAU_10_
 62
     7
100
AcDbVertex
100
AcDb2dVertex
 10
141.1235134195802
 20
118.1237114505038
 30
0.0
  0
VERTEX
  5
EC
330
E3
100
AcDbEntity
  8
GRAU_10_
 62
     7
100
AcDbVertex
100
AcDb2dVertex
 10
141.1235134195802
 20
119.3556775960291
 30
0.0
  0
VERTEX
  5
ED
330
E3
100
AcDbEntity
  8
GRAU_10_
 62
     7
100
AcDbVertex
100
AcDb2dVertex
 10
141.1235134195802
 20
120.6527560462257
 30
0.0
  0
VERTEX
  5
EE
330
E3
100
AcDbEntity
  8
GRAU_10_
 62
     7
100
AcDbVertex
100
AcDb2dVertex
 10
141.1235134195802
 20
121.9825629035321
 30
0.0
  0
VERTEX
  5
EF
330
E3
100
AcDbEntity
  8
GRAU_10_
 62
     7
100
AcDbVertex
100
AcDb2dVertex
 10
141.1235134195802
 20
123.3123697608386
 30
0.0
  0
VERTEX
  5
F0
330
E3
100
AcDbEntity
  8
GRAU_10_
 62
     7
100
AcDbVertex
100
AcDb2dVertex
 10
141.1235134195802
 20
124.6089314467124
 30
0.0
  0
VERTEX
  5
F1
330
E3
100
AcDbEntity
  8
GRAU_10_
 62
     7
100
AcDbVertex
100
AcDb2dVertex
 10
141.1235134195802
 20
125.8414143565605
 30
0.0
  0
VERTEX
  5
F2
330
E3
100
AcDbEntity
  8
GRAU_10_
 62
     7
100
AcDbVertex
100
AcDb2dVertex
 10
141.1235134195802
 20
126.9788126310157
 30
0.0
  0
VERTEX
  5
F3
330
E3
100
AcDbEntity
  8
GRAU_10_
 62
     7
100
AcDbVertex
100
AcDb2dVertex
 10
141.1235134195802
 20
127.9930487418733
 30
0.0
  0
VERTEX
  5
F4
330
E3
100
AcDbEntity
  8
GRAU_10_
 62
     7
100
AcDbVertex
100
AcDb2dVertex
 10
141.1235134195802
 20
128.8588012373166
 30
0.0
  0
VERTEX
  5
F5
330
E3
100
AcDbEntity
  8
GRAU_10_
 62
     7
100
AcDbVertex
100
AcDb2dVertex
 10
141.1235134195802
 20
129.5559163087568
 30
0.0
  0
VERTEX
  5
F6
330
E3
100
AcDbEntity
  8
GRAU_10_
 62
     7
100
AcDbVertex
100
AcDb2dVertex
 10
141.1235134195802
 20
130.0663072048966
 30
0.0
  0
VERTEX
  5
F7
330
E3
100
AcDbEntity
  8
GRAU_10_
 62
     7
100
AcDbVertex
100
AcDb2dVertex
 10
141.1235134195802
 20
130.3779160915375
 30
0.0
  0
VERTEX
  5
F8
330
E3
100
AcDbEntity
  8
GRAU_10_
 62
     7
100
AcDbVertex
100
AcDb2dVertex
 10
141.1235134195802
 20
130.4823024847405
 30
0.0
  0
SEQEND
  5
F9
330
E3
100
AcDbEntity
  8
GRAU_10_
  0
POLYLINE
  5
FA
330
1F
100
AcDbEntity
  8
GRAU_10_
 62
     7
100
AcDb2dPolyline
 66
     1
 10
0.0
 20
0.0
 30
0.0
  0
VERTEX
  5
FB
330
FA
100
AcDbEntity
  8
GRAU_10_
 62
     7
100
AcDbVertex
100
AcDb2dVertex
 10
152.6235866588927
 20
130.4823024847405
 30
0.0
  0
VERTEX
  5
FC
330
FA
100
AcDbEntity
  8
GRAU_10_
 62
     7
100
AcDbVertex
100
AcDb2dVertex
 10
152.1233587944344
 20
130.9821858396503
 30
0.0
  0
SEQEND
  5
FD
330
FA
100
AcDbEntity
  8
GRAU_10_
  0
POLYLINE
  5
FE
330
1F
100
AcDbEntity
  8
GRAU_10_
 62
     7
100
AcDb2dPolyline
 66
     1
 10
0.0
 20
0.0
 30
0.0
  0
VERTEX
  5
FF
330
FE
100
AcDbEntity
  8
GRAU_10_
 62
     7
100
AcDbVertex
100
AcDb2dVertex
 10
152.6235866588927
 20
130.4823024847405
 30
0.0
  0
VERTEX
  5
100
330
FE
100
AcDbEntity
  8
GRAU_10_
 62
     7
100
AcDbVertex
100
AcDb2dVertex
 10
152.6235866588927
 20
130.3765380533434
 30
0.0
  0
VERTEX
  5
101
330
FE
100
AcDbEntity
  8
GRAU_10_
 62
     7
100
AcDbVertex
100
AcDb2dVertex
 10
152.6235866588927
 20
130.0609673068945
 30
0.0
  0
VERTEX
  5
102
330
FE
100
AcDbEntity
  8
GRAU_10_
 62
     7
100
AcDbVertex
100
AcDb2dVertex
 10
152.6235866588927
 20
129.5438584745585
 30
0.0
  0
VERTEX
  5
103
330
FE
100
AcDbEntity
  8
GRAU_10_
 62
     7
100
AcDbVertex
100
AcDb2dVertex
 10
152.6235866588927
 20
128.8379584096308
 30
0.0
  0
VERTEX
  5
104
330
FE
100
AcDbEntity
  8
GRAU_10_
 62
     7
100
AcDbVertex
100
AcDb2dVertex
 10
152.6235866588927
 20
127.961353863409
 30
0.0
  0
VERTEX
  5
105
330
FE
100
AcDbEntity
  8
GRAU_10_
 62
     7
100
AcDbVertex
100
AcDb2dVertex
 10
152.6235866588927
 20
126.935059918353
 30
0.0
  0
VERTEX
  5
106
330
FE
100
AcDbEntity
  8
GRAU_10_
 62
     7
100
AcDbVertex
100
AcDb2dVertex
 10
152.6235866588927
 20
125.7854315549252
 30
0.0
  0
VERTEX
  5
107
330
FE
100
AcDbEntity
  8
GRAU_10_
 62
     7
100
AcDbVertex
100
AcDb2dVertex
 10
152.6235866588927
 20
124.5408908108787
 30
0.0
  0
VERTEX
  5
108
330
FE
100
AcDbEntity
  8
GRAU_10_
 62
     7
100
AcDbVertex
100
AcDb2dVertex
 10
152.6235866588927
 20
123.2327880551293
 30
0.0
  0
VERTEX
  5
109
330
FE
100
AcDbEntity
  8
GRAU_10_
 62
     7
100
AcDbVertex
100
AcDb2dVertex
 10
152.3734727266636
 20
123.2327880551293
 30
0.0
  0
VERTEX
  5
10A
330
FE
100
AcDbEntity
  8
GRAU_10_
 62
     7
100
AcDbVertex
100
AcDb2dVertex
 10
152.1233587944344
 20
123.2327880551293
 30
0.0
  0
SEQEND
  5
10B
330
FE
100
AcDbEntity
  8
GRAU_10_
  0
POLYLINE
  5
10C
330
1F
100
AcDbEntity
  8
GRAU_10_
 62
     7
100
AcDb2dPolyline
 66
     1
 10
0.0
 20
0.0
 30
0.0
  0
VERTEX
  5
10D
330
10C
100
AcDbEntity
  8
GRAU_10_
 62
     7
100
AcDbVertex
100
AcDb2dVertex
 10
152.1233587944344
 20
112.9824232030912
 30
0.0
  0
VERTEX
  5
10E
330
10C
100
AcDbEntity
  8
GRAU_10_
 62
     7
100
AcDbVertex
100
AcDb2dVertex
 10
152.6235866588927
 20
113.482306558001
 30
0.0
  0
SEQEND
  5
10F
330
10C
100
AcDbEntity
  8
GRAU_10_
  0
POLYLINE
  5
110
330
1F
100
AcDbEntity
  8
GRAU_10_
 62
     7
100
AcDb2dPolyline
 66
     1
 10
0.0
 20
0.0
 30
0.0
  0
VERTEX
  5
111
330
110
100
AcDbEntity
  8
GRAU_10_
 62
     7
100
AcDbVertex
100
AcDb2dVertex
 10
152.1233587944344
 20
120.7325100067092
 30
0.0
  0
VERTEX
  5
112
330
110
100
AcDbEntity
  8
GRAU_10_
 62
     7
100
AcDbVertex
100
AcDb2dVertex
 10
152.3734727266636
 20
120.7325100067092
 30
0.0
  0
VERTEX
  5
113
330
110
100
AcDbEntity
  8
GRAU_10_
 62
     7
100
AcDbVertex
100
AcDb2dVertex
 10
152.6235866588927
 20
120.7325100067092
 30
0.0
  0
VERTEX
  5
114
330
110
100
AcDbEntity
  8
GRAU_10_
 62
     7
100
AcDbVertex
100
AcDb2dVertex
 10
152.6235866588927
 20
119.4237182318628
 30
0.0
  0
VERTEX
  5
115
330
110
100
AcDbEntity
  8
GRAU_10_
 62
     7
100
AcDbVertex
100
AcDb2dVertex
 10
152.6235866588927
 20
118.1791774878163
 30
0.0
  0
VERTEX
  5
116
330
110
100
AcDbEntity
  8
GRAU_10_
 62
     7
100
AcDbVertex
100
AcDb2dVertex
 10
152.6235866588927
 20
117.0302381434855
 30
0.0
  0
VERTEX
  5
117
330
110
100
AcDbEntity
  8
GRAU_10_
 62
     7
100
AcDbVertex
100
AcDb2dVertex
 10
152.6235866588927
 20
116.0039441984296
 30
0.0
  0
VERTEX
  5
118
330
110
100
AcDbEntity
  8
GRAU_10_
 62
     7
100
AcDbVertex
100
AcDb2dVertex
 10
152.6235866588927
 20
115.126822887885
 30
0.0
  0
VERTEX
  5
119
330
110
100
AcDbEntity
  8
GRAU_10_
 62
     7
100
AcDbVertex
100
AcDb2dVertex
 10
152.6235866588927
 20
114.4212673325058
 30
0.0
  0
VERTEX
  5
11A
330
110
100
AcDbEntity
  8
GRAU_10_
 62
     7
100
AcDbVertex
100
AcDb2dVertex
 10
152.6235866588927
 20
113.9041585001698
 30
0.0
  0
VERTEX
  5
11B
330
110
100
AcDbEntity
  8
GRAU_10_
 62
     7
100
AcDbVertex
100
AcDb2dVertex
 10
152.6235866588927
 20
113.5887600084952
 30
0.0
  0
VERTEX
  5
11C
330
110
100
AcDbEntity
  8
GRAU_10_
 62
     7
100
AcDbVertex
100
AcDb2dVertex
 10
152.6235866588927
 20
113.482306558001
 30
0.0
  0
SEQEND
  5
11D
330
110
100
AcDbEntity
  8
GRAU_10_
  0
SPLINE
  5
11E
330
1F
100
AcDbEntity
  8
GRAU_10_
 62
     7
100
AcDbSpline
210
0.0
220
0.0
230
1.0
 70
    11
 71
     3
 72
    17
 73
    13
 74
     0
 42
0.0000000001
 43
0.0000000001
 40
0.0
 40
0.0
 40
0.0
 40
0.0
 40
1.0
 40
1.0
 40
1.0
 40
2.0
 40
2.0
 40
2.0
 40
3.0
 40
3.0
 40
3.0
 40
4.0
 40
4.0
 40
4.0
 40
4.0
 10
239.1798881780523
 20
121.9825629035321
 30
0.0
 10
239.1798881780523
 20
126.1518174597815
 30
0.0
 10
235.7995604879251
 20
129.5321451499086
 30
0.0
 10
231.6301336769015
 20
129.5321451499086
 30
0.0
 10
227.4603623563294
 20
129.5321451499086
 30
0.0
 10
224.0800346662022
 20
126.1518174597815
 30
0.0
 10
224.0800346662022
 20
121.9825629035321
 30
0.0
 10
224.0800346662022
 20
117.8126193281857
 30
0.0
 10
227.4603623563294
 20
114.4322916380586
 30
0.0
 10
231.6301336769015
 20
114.4322916380586
 30
0.0
 10
235.7995604879251
 20
114.4322916380586
 30
0.0
 10
239.1798881780523
 20
117.8126193281857
 30
0.0
 10
239.1798881780523
 20
121.9825629035321
 30
0.0
  0
SPLINE
  5
11F
330
1F
100
AcDbEntity
  8
GRAU_10_
 62
     7
100
AcDbSpline
210
0.0
220
0.0
230
1.0
 70
    11
 71
     3
 72
    17
 73
    13
 74
     0
 42
0.0000000001
 43
0.0000000001
 40
0.0
 40
0.0
 40
0.0
 40
0.0
 40
1.0
 40
1.0
 40
1.0
 40
2.0
 40
2.0
 40
2.0
 40
3.0
 40
3.0
 40
3.0
 40
4.0
 40
4.0
 40
4.0
 40
4.0
 10
240.1303900224327
 20
121.9825629035321
 30
0.0
 10
240.1303900224327
 20
126.6765055021851
 30
0.0
 10
236.3249375494257
 20
130.4823024847405
 30
0.0
 10
231.6301336769015
 20
130.4823024847405
 30
0.0
 10
226.9356743139258
 20
130.4823024847405
 30
0.0
 10
223.1298773313703
 20
126.6765055021851
 30
0.0
 10
223.1298773313703
 20
121.9825629035321
 30
0.0
 10
223.1298773313703
 20
117.2882757953307
 30
0.0
 10
226.9356743139258
 20
113.482306558001
 30
0.0
 10
231.6301336769015
 20
113.482306558001
 30
0.0
 10
236.3249375494257
 20
113.482306558001
 30
0.0
 10
240.1303900224327
 20
117.2882757953307
 30
0.0
 10
240.1303900224327
 20
121.9825629035321
 30
0.0
  0
SPLINE
  5
120
330
1F
100
AcDbEntity
  8
GRAU_10_
 62
     7
100
AcDbSpline
210
0.0
220
0.0
230
1.0
 70
    11
 71
     3
 72
    17
 73
    13
 74
     0
 42
0.0000000001
 43
0.0000000001
 40
0.0
 40
0.0
 40
0.0
 40
0.0
 40
1.0
 40
1.0
 40
1.0
 40
2.0
 40
2.0
 40
2.0
 40
3.0
 40
3.0
 40
3.0
 40
4.0
 40
4.0
 40
4.0
 40
4.0
 10
240.630617886891
 20
121.9825629035321
 30
0.0
 10
240.630617886891
 20
126.9528021601021
 30
0.0
 10
236.60071744302
 20
130.9821858396503
 30
0.0
 10
231.6301336769015
 20
130.9821858396503
 30
0.0
 10
226.659549910783
 20
130.9821858396503
 30
0.0
 10
222.6305107407834
 20
126.9528021601021
 30
0.0
 10
222.6305107407834
 20
121.9825629035321
 30
0.0
 10
222.6305107407834
 20
117.0118068826394
 30
0.0
 10
226.659549910783
 20
112.9824232030912
 30
0.0
 10
231.6301336769015
 20
112.9824232030912
 30
0.0
 10
236.60071744302
 20
112.9824232030912
 30
0.0
 10
240.630617886891
 20
117.0118068826394
 30
0.0
 10
240.630617886891
 20
121.9825629035321
 30
0.0
  0
POLYLINE
  5
121
330
1F
100
AcDbEntity
  8
GRAU_10_
  6
AI-LINETYPE-1
 62
   250
100
AcDb2dPolyline
 66
     1
 10
0.0
 20
0.0
 30
0.0
  0
VERTEX
  5
122
330
121
100
AcDbEntity
  8
GRAU_10_
  6
AI-LINETYPE-1
 62
   250
100
AcDbVertex
100
AcDb2dVertex
 10
181.2101277216246
 20
121.9825629035321
 30
0.0
  0
VERTEX
  5
123
330
121
100
AcDbEntity
  8
GRAU_10_
  6
AI-LINETYPE-1
 62
   250
100
AcDbVertex
100
AcDb2dVertex
 10
157.6236259914101
 20
121.9825629035321
 30
0.0
  0
VERTEX
  5
124
330
121
100
AcDbEntity
  8
GRAU_10_
  6
AI-LINETYPE-1
 62
   250
100
AcDbVertex
100
AcDb2dVertex
 10
155.1235201977643
 20
121.9825629035321
 30
0.0
  0
VERTEX
  5
125
330
121
100
AcDbEntity
  8
GRAU_10_
  6
AI-LINETYPE-1
 62
   250
100
AcDbVertex
100
AcDb2dVertex
 10
138.0537610874484
 20
121.9825629035321
 30
0.0
  0
SEQEND
  5
126
330
121
100
AcDbEntity
  8
GRAU_10_
  6
AI-LINETYPE-1
  0
POLYLINE
  5
128
330
1F
100
AcDbEntity
  8
GRAU_10_
  6
AI-LINETYPE-2
 62
   250
100
AcDb2dPolyline
 66
     1
 10
0.0
 20
0.0
 30
0.0
  0
VERTEX
  5
129
330
128
100
AcDbEntity
  8
GRAU_10_
  6
AI-LINETYPE-2
 62
   250
100
AcDbVertex
100
AcDb2dVertex
 10
242.9114433529006
 20
121.9825629035321
 30
0.0
  0
VERTEX
  5
12A
330
128
100
AcDbEntity
  8
GRAU_10_
  6
AI-LINETYPE-2
 62
   250
100
AcDbVertex
100
AcDb2dVertex
 10
220.1860432392243
 20
121.9825629035321
 30
0.0
  0
SEQEND
  5
12B
330
128
100
AcDbEntity
  8
GRAU_10_
  6
AI-LINETYPE-2
  0
POLYLINE
  5
12D
330
1F
100
AcDbEntity
  8
GRAU_10_
  6
AI-LINETYPE-3
 62
   250
100
AcDb2dPolyline
 66
     1
 10
0.0
 20
0.0
 30
0.0
  0
VERTEX
  5
12E
330
12D
100
AcDbEntity
  8
GRAU_10_
  6
AI-LINETYPE-3
 62
   250
100
AcDbVertex
100
AcDb2dVertex
 10
231.6292724030302
 20
132.5231770502025
 30
0.0
  0
VERTEX
  5
12F
330
12D
100
AcDbEntity
  8
GRAU_10_
  6
AI-LINETYPE-3
 62
   250
100
AcDbVertex
100
AcDb2dVertex
 10
231.6292724030302
 20
111.0631605082585
 30
0.0
  0
SEQEND
  5
130
330
12D
100
AcDbEntity
  8
GRAU_10_
  6
AI-LINETYPE-3
  0
POLYLINE
  5
133
330
1F
100
AcDbEntity
  8
STANDARDEBENE
 62
     7
100
AcDb2dPolyline
 66
     1
 10
0.0
 20
0.0
 30
0.0
  0
VERTEX
  5
134
330
133
100
AcDbEntity
  8
STANDARDEBENE
 62
     7
100
AcDbVertex
100
AcDb2dVertex
 10
141.1235134195802
 20
130.3686143337273
 30
0.0
  0
VERTEX
  5
135
330
133
100
AcDbEntity
  8
STANDARDEBENE
 62
     7
100
AcDbVertex
100
AcDb2dVertex
 10
152.6235866588927
 20
130.3686143337273
 30
0.0
  0
SEQEND
  5
136
330
133
100
AcDbEntity
  8
STANDARDEBENE
  0
POLYLINE
  5
137
330
1F
100
AcDbEntity
  8
STANDARDEBENE
 62
     7
100
AcDb2dPolyline
 66
     1
 10
0.0
 20
0.0
 30
0.0
  0
VERTEX
  5
138
330
137
100
AcDbEntity
  8
STANDARDEBENE
 62
     7
100
AcDbVertex
100
AcDb2dVertex
 10
141.1235134195802
 20
113.5958224542399
 30
0.0
  0
VERTEX
  5
139
330
137
100
AcDbEntity
  8
STANDARDEBENE
 62
     7
100
AcDbVertex
100
AcDb2dVertex
 10
152.6235866588927
 20
113.5958224542399
 30
0.0
  0
SEQEND
  5
13A
330
137
100
AcDbEntity
  8
STANDARDEBENE
  0
POLYLINE
  5
13B
330
1F
100
AcDbEntity
  8
STANDARDEBENE
 62
     7
100
AcDb2dPolyline
 66
     1
 10
0.0
 20
0.0
 30
0.0
  0
VERTEX
  5
13C
330
13B
100
AcDbEntity
  8
STANDARDEBENE
 62
     7
100
AcDbVertex
100
AcDb2dVertex
 10
174.6232774086011
 20
116.0087673321089
 30
0.0
  0
VERTEX
  5
13D
330
13B
100
AcDbEntity
  8
STANDARDEBENE
 62
     7
100
AcDbVertex
100
AcDb2dVertex
 10
174.6232774086011
 20
127.9563584749554
 30
0.0
  0
SEQEND
  5
13E
330
13B
100
AcDbEntity
  8
STANDARDEBENE
  0
POLYLINE
  5
13F
330
1F
100
AcDbEntity
  8
STANDARDEBENE
 62
     7
100
AcDb2dPolyline
 66
     1
 10
0.0
 20
0.0
 30
0.0
  0
VERTEX
  5
140
330
13F
100
AcDbEntity
  8
STANDARDEBENE
 62
     7
100
AcDbVertex
100
AcDb2dVertex
 10
231.6301336769015
 20
116.6826280090238
 30
0.0
  0
VERTEX
  5
141
330
13F
100
AcDbEntity
  8
STANDARDEBENE
 62
     7
100
AcDbVertex
100
AcDb2dVertex
 10
232.1169256689673
 20
116.7303425814945
 30
0.0
  0
SEQEND
  5
142
330
13F
100
AcDbEntity
  8
STANDARDEBENE
  0
POLYLINE
  5
143
330
1F
100
AcDbEntity
  8
STANDARDEBENE
 62
     7
100
AcDb2dPolyline
 66
     1
 10
0.0
 20
0.0
 30
0.0
  0
VERTEX
  5
144
330
143
100
AcDbEntity
  8
STANDARDEBENE
 62
     7
100
AcDbVertex
100
AcDb2dVertex
 10
233.0738009399954
 20
116.9084540180819
 30
0.0
  0
VERTEX
  5
145
330
143
100
AcDbEntity
  8
STANDARDEBENE
 62
     7
100
AcDbVertex
100
AcDb2dVertex
 10
233.6586058986166
 20
117.0858764355723
 30
0.0
  0
VERTEX
  5
146
330
143
100
AcDbEntity
  8
STANDARDEBENE
 62
     7
100
AcDbVertex
100
AcDb2dVertex
 10
233.9821003646816
 20
117.258303464609
 30
0.0
  0
SEQEND
  5
147
330
143
100
AcDbEntity
  8
STANDARDEBENE
  0
POLYLINE
  5
148
330
1F
100
AcDbEntity
  8
STANDARDEBENE
 62
     7
100
AcDb2dPolyline
 66
     1
 10
0.0
 20
0.0
 30
0.0
  0
VERTEX
  5
149
330
148
100
AcDbEntity
  8
STANDARDEBENE
 62
     7
100
AcDbVertex
100
AcDb2dVertex
 10
234.8108180836584
 20
117.7695556346201
 30
0.0
  0
VERTEX
  5
14A
330
148
100
AcDbEntity
  8
STANDARDEBENE
 62
     7
100
AcDbVertex
100
AcDb2dVertex
 10
235.3780530553048
 20
118.2346435251288
 30
0.0
  0
VERTEX
  5
14B
330
148
100
AcDbEntity
  8
STANDARDEBENE
 62
     7
100
AcDbVertex
100
AcDb2dVertex
 10
235.5329100973668
 20
118.4239515220433
 30
0.0
  0
SEQEND
  5
14C
330
148
100
AcDbEntity
  8
STANDARDEBENE
  0
POLYLINE
  5
14D
330
1F
100
AcDbEntity
  8
STANDARDEBENE
 62
     7
100
AcDb2dPolyline
 66
     1
 10
0.0
 20
0.0
 30
0.0
  0
VERTEX
  5
14E
330
14D
100
AcDbEntity
  8
STANDARDEBENE
 62
     7
100
AcDbVertex
100
AcDb2dVertex
 10
236.1233994635386
 20
119.1997870253216
 30
0.0
  0
VERTEX
  5
14F
330
14D
100
AcDbEntity
  8
STANDARDEBENE
 62
     7
100
AcDbVertex
100
AcDb2dVertex
 10
236.5266478900871
 20
119.9544351913656
 30
0.0
  0
VERTEX
  5
150
330
14D
100
AcDbEntity
  8
STANDARDEBENE
 62
     7
100
AcDbVertex
100
AcDb2dVertex
 10
236.5623046283594
 20
120.0713961830898
 30
0.0
  0
SEQEND
  5
151
330
14D
100
AcDbEntity
  8
STANDARDEBENE
  0
POLYLINE
  5
152
330
1F
100
AcDbEntity
  8
STANDARDEBENE
 62
     7
100
AcDb2dPolyline
 66
     1
 10
0.0
 20
0.0
 30
0.0
  0
VERTEX
  5
153
330
152
100
AcDbEntity
  8
STANDARDEBENE
 62
     7
100
AcDbVertex
100
AcDb2dVertex
 10
236.8342949169199
 20
121.0094956837233
 30
0.0
  0
VERTEX
  5
154
330
152
100
AcDbEntity
  8
STANDARDEBENE
 62
     7
100
AcDbVertex
100
AcDb2dVertex
 10
236.9302408261841
 20
121.9825629035321
 30
0.0
  0
SEQEND
  5
155
330
152
100
AcDbEntity
  8
STANDARDEBENE
  0
POLYLINE
  5
156
330
1F
100
AcDbEntity
  8
STANDARDEBENE
 62
     7
100
AcDb2dPolyline
 66
     1
 10
0.0
 20
0.0
 30
0.0
  0
VERTEX
  5
157
330
156
100
AcDbEntity
  8
STANDARDEBENE
 62
     7
100
AcDbVertex
100
AcDb2dVertex
 10
236.8342949169199
 20
122.9554578685667
 30
0.0
  0
VERTEX
  5
158
330
156
100
AcDbEntity
  8
STANDARDEBENE
 62
     7
100
AcDbVertex
100
AcDb2dVertex
 10
236.8286105093692
 20
123.0160915491071
 30
0.0
  0
VERTEX
  5
159
330
156
100
AcDbEntity
  8
STANDARDEBENE
 62
     7
100
AcDbVertex
100
AcDb2dVertex
 10
236.5623046283594
 20
123.8939018787487
 30
0.0
  0
SEQEND
  5
15A
330
156
100
AcDbEntity
  8
STANDARDEBENE
  0
POLYLINE
  5
15B
330
1F
100
AcDbEntity
  8
STANDARDEBENE
 62
     7
100
AcDb2dPolyline
 66
     1
 10
0.0
 20
0.0
 30
0.0
  0
VERTEX
  5
15C
330
15B
100
AcDbEntity
  8
STANDARDEBENE
 62
     7
100
AcDbVertex
100
AcDb2dVertex
 10
236.1233994635386
 20
124.765511036517
 30
0.0
  0
VERTEX
  5
15D
330
15B
100
AcDbEntity
  8
STANDARDEBENE
 62
     7
100
AcDbVertex
100
AcDb2dVertex
 10
236.0370998216331
 20
124.9270860147752
 30
0.0
  0
VERTEX
  5
15E
330
15B
100
AcDbEntity
  8
STANDARDEBENE
 62
     7
100
AcDbVertex
100
AcDb2dVertex
 10
235.5329100973668
 20
125.5413465397952
 30
0.0
  0
SEQEND
  5
15F
330
15B
100
AcDbEntity
  8
STANDARDEBENE
  0
POLYLINE
  5
160
330
1F
100
AcDbEntity
  8
STANDARDEBENE
 62
     7
100
AcDb2dPolyline
 66
     1
 10
0.0
 20
0.0
 30
0.0
  0
VERTEX
  5
161
330
160
100
AcDbEntity
  8
STANDARDEBENE
 62
     7
100
AcDbVertex
100
AcDb2dVertex
 10
234.8108180836584
 20
126.1955701724442
 30
0.0
  0
VERTEX
  5
162
330
160
100
AcDbEntity
  8
STANDARDEBENE
 62
     7
100
AcDbVertex
100
AcDb2dVertex
 10
234.5748290429188
 20
126.3893567934895
 30
0.0
  0
VERTEX
  5
163
330
160
100
AcDbEntity
  8
STANDARDEBENE
 62
     7
100
AcDbVertex
100
AcDb2dVertex
 10
233.9821003646816
 20
126.7061333233582
 30
0.0
  0
SEQEND
  5
164
330
160
100
AcDbEntity
  8
STANDARDEBENE
  0
POLYLINE
  5
165
330
1F
100
AcDbEntity
  8
STANDARDEBENE
 62
     7
100
AcDb2dPolyline
 66
     1
 10
0.0
 20
0.0
 30
0.0
  0
VERTEX
  5
166
330
165
100
AcDbEntity
  8
STANDARDEBENE
 62
     7
100
AcDbVertex
100
AcDb2dVertex
 10
233.0738009399954
 20
127.0561550246596
 30
0.0
  0
VERTEX
  5
167
330
165
100
AcDbEntity
  8
STANDARDEBENE
 62
     7
100
AcDbVertex
100
AcDb2dVertex
 10
232.6645235963478
 20
127.1801784621286
 30
0.0
  0
VERTEX
  5
168
330
165
100
AcDbEntity
  8
STANDARDEBENE
 62
     7
100
AcDbVertex
100
AcDb2dVertex
 10
232.1169256689673
 20
127.234266461247
 30
0.0
  0
SEQEND
  5
169
330
165
100
AcDbEntity
  8
STANDARDEBENE
  0
POLYLINE
  5
16A
330
1F
100
AcDbEntity
  8
STANDARDEBENE
 62
     7
100
AcDb2dPolyline
 66
     1
 10
0.0
 20
0.0
 30
0.0
  0
VERTEX
  5
16B
330
16A
100
AcDbEntity
  8
STANDARDEBENE
 62
     7
100
AcDbVertex
100
AcDb2dVertex
 10
231.1436861943842
 20
127.234266461247
 30
0.0
  0
VERTEX
  5
16C
330
16A
100
AcDbEntity
  8
STANDARDEBENE
 62
     7
100
AcDbVertex
100
AcDb2dVertex
 10
230.5960882670038
 20
127.1801784621286
 30
0.0
  0
VERTEX
  5
16D
330
16A
100
AcDbEntity
  8
STANDARDEBENE
 62
     7
100
AcDbVertex
100
AcDb2dVertex
 10
230.1869831781304
 20
127.0561550246596
 30
0.0
  0
SEQEND
  5
16E
330
16A
100
AcDbEntity
  8
STANDARDEBENE
  0
POLYLINE
  5
16F
330
1F
100
AcDbEntity
  8
STANDARDEBENE
 62
     7
100
AcDb2dPolyline
 66
     1
 10
0.0
 20
0.0
 30
0.0
  0
VERTEX
  5
170
330
16F
100
AcDbEntity
  8
STANDARDEBENE
 62
     7
100
AcDbVertex
100
AcDb2dVertex
 10
229.2788560082185
 20
126.7061333233582
 30
0.0
  0
VERTEX
  5
171
330
16F
100
AcDbEntity
  8
STANDARDEBENE
 62
     7
100
AcDbVertex
100
AcDb2dVertex
 10
228.6857828204327
 20
126.3893567934895
 30
0.0
  0
VERTEX
  5
172
330
16F
100
AcDbEntity
  8
STANDARDEBENE
 62
     7
100
AcDbVertex
100
AcDb2dVertex
 10
228.4497937796931
 20
126.1955701724442
 30
0.0
  0
SEQEND
  5
173
330
16F
100
AcDbEntity
  8
STANDARDEBENE
  0
POLYLINE
  5
174
330
1F
100
AcDbEntity
  8
STANDARDEBENE
 62
     7
100
AcDb2dPolyline
 66
     1
 10
0.0
 20
0.0
 30
0.0
  0
VERTEX
  5
175
330
174
100
AcDbEntity
  8
STANDARDEBENE
 62
     7
100
AcDbVertex
100
AcDb2dVertex
 10
227.7277017659848
 20
125.5413465397952
 30
0.0
  0
VERTEX
  5
176
330
174
100
AcDbEntity
  8
STANDARDEBENE
 62
     7
100
AcDbVertex
100
AcDb2dVertex
 10
227.2236842964927
 20
124.9270860147752
 30
0.0
  0
VERTEX
  5
177
330
174
100
AcDbEntity
  8
STANDARDEBENE
 62
     7
100
AcDbVertex
100
AcDb2dVertex
 10
227.1372123998129
 20
124.765511036517
 30
0.0
  0
SEQEND
  5
178
330
174
100
AcDbEntity
  8
STANDARDEBENE
  0
POLYLINE
  5
179
330
1F
100
AcDbEntity
  8
STANDARDEBENE
 62
     7
100
AcDb2dPolyline
 66
     1
 10
0.0
 20
0.0
 30
0.0
  0
VERTEX
  5
17A
330
179
100
AcDbEntity
  8
STANDARDEBENE
 62
     7
100
AcDbVertex
100
AcDb2dVertex
 10
226.6983072349921
 20
123.8939018787487
 30
0.0
  0
VERTEX
  5
17B
330
179
100
AcDbEntity
  8
STANDARDEBENE
 62
     7
100
AcDbVertex
100
AcDb2dVertex
 10
226.4320013539823
 20
123.0160915491071
 30
0.0
  0
VERTEX
  5
17C
330
179
100
AcDbEntity
  8
STANDARDEBENE
 62
     7
100
AcDbVertex
100
AcDb2dVertex
 10
226.4263169464316
 20
122.9554578685667
 30
0.0
  0
SEQEND
  5
17D
330
179
100
AcDbEntity
  8
STANDARDEBENE
  0
POLYLINE
  5
17E
330
1F
100
AcDbEntity
  8
STANDARDEBENE
 62
     7
100
AcDb2dPolyline
 66
     1
 10
0.0
 20
0.0
 30
0.0
  0
VERTEX
  5
17F
330
17E
100
AcDbEntity
  8
STANDARDEBENE
 62
     7
100
AcDbVertex
100
AcDb2dVertex
 10
226.3300265276189
 20
121.9825629035321
 30
0.0
  0
VERTEX
  5
180
330
17E
100
AcDbEntity
  8
STANDARDEBENE
 62
     7
100
AcDbVertex
100
AcDb2dVertex
 10
226.4263169464316
 20
121.0094956837233
 30
0.0
  0
SEQEND
  5
181
330
17E
100
AcDbEntity
  8
STANDARDEBENE
  0
POLYLINE
  5
182
330
1F
100
AcDbEntity
  8
STANDARDEBENE
 62
     7
100
AcDb2dPolyline
 66
     1
 10
0.0
 20
0.0
 30
0.0
  0
VERTEX
  5
183
330
182
100
AcDbEntity
  8
STANDARDEBENE
 62
     7
100
AcDbVertex
100
AcDb2dVertex
 10
226.6983072349921
 20
120.0713961830898
 30
0.0
  0
VERTEX
  5
184
330
182
100
AcDbEntity
  8
STANDARDEBENE
 62
     7
100
AcDbVertex
100
AcDb2dVertex
 10
226.7336194637159
 20
119.9544351913656
 30
0.0
  0
VERTEX
  5
185
330
182
100
AcDbEntity
  8
STANDARDEBENE
 62
     7
100
AcDbVertex
100
AcDb2dVertex
 10
227.1372123998129
 20
119.1997870253216
 30
0.0
  0
SEQEND
  5
186
330
182
100
AcDbEntity
  8
STANDARDEBENE
  0
POLYLINE
  5
187
330
1F
100
AcDbEntity
  8
STANDARDEBENE
 62
     7
100
AcDb2dPolyline
 66
     1
 10
0.0
 20
0.0
 30
0.0
  0
VERTEX
  5
188
330
187
100
AcDbEntity
  8
STANDARDEBENE
 62
     7
100
AcDbVertex
100
AcDb2dVertex
 10
227.7277017659848
 20
118.4239515220433
 30
0.0
  0
VERTEX
  5
189
330
187
100
AcDbEntity
  8
STANDARDEBENE
 62
     7
100
AcDbVertex
100
AcDb2dVertex
 10
227.8825588080467
 20
118.2346435251288
 30
0.0
  0
VERTEX
  5
18A
330
187
100
AcDbEntity
  8
STANDARDEBENE
 62
     7
100
AcDbVertex
100
AcDb2dVertex
 10
228.4497937796931
 20
117.7695556346201
 30
0.0
  0
SEQEND
  5
18B
330
187
100
AcDbEntity
  8
STANDARDEBENE
  0
POLYLINE
  5
18C
330
1F
100
AcDbEntity
  8
STANDARDEBENE
 62
     7
100
AcDb2dPolyline
 66
     1
 10
0.0
 20
0.0
 30
0.0
  0
VERTEX
  5
18D
330
18C
100
AcDbEntity
  8
STANDARDEBENE
 62
     7
100
AcDbVertex
100
AcDb2dVertex
 10
229.2788560082185
 20
117.258303464609
 30
0.0
  0
VERTEX
  5
18E
330
18C
100
AcDbEntity
  8
STANDARDEBENE
 62
     7
100
AcDbVertex
100
AcDb2dVertex
 10
229.6020059647349
 20
117.0858764355723
 30
0.0
  0
VERTEX
  5
18F
330
18C
100
AcDbEntity
  8
STANDARDEBENE
 62
     7
100
AcDbVertex
100
AcDb2dVertex
 10
230.1869831781304
 20
116.9084540180819
 30
0.0
  0
SEQEND
  5
190
330
18C
100
AcDbEntity
  8
STANDARDEBENE
  0
POLYLINE
  5
191
330
1F
100
AcDbEntity
  8
STANDARDEBENE
 62
     7
100
AcDb2dPolyline
 66
     1
 10
0.0
 20
0.0
 30
0.0
  0
VERTEX
  5
192
330
191
100
AcDbEntity
  8
STANDARDEBENE
 62
     7
100
AcDbVertex
100
AcDb2dVertex
 10
231.1436861943842
 20
116.7303425814945
 30
0.0
  0
VERTEX
  5
193
330
191
100
AcDbEntity
  8
STANDARDEBENE
 62
     7
100
AcDbVertex
100
AcDb2dVertex
 10
231.6301336769015
 20
116.6826280090238
 30
0.0
  0
SEQEND
  5
194
330
191
100
AcDbEntity
  8
STANDARDEBENE
  0
POLYLINE
  5
195
330
1F
100
AcDbEntity
  8
STANDARDEBENE
 62
     7
100
AcDb2dPolyline
 66
     1
 10
0.0
 20
0.0
 30
0.0
  0
VERTEX
  5
196
330
195
100
AcDbEntity
  8
STANDARDEBENE
 62
     7
100
AcDbVertex
100
AcDb2dVertex
 10
231.6301336769015
 20
114.4322916380586
 30
0.0
  0
VERTEX
  5
197
330
195
100
AcDbEntity
  8
STANDARDEBENE
 62
     7
100
AcDbVertex
100
AcDb2dVertex
 10
232.1222655669694
 20
114.4729437647845
 30
0.0
  0
SEQEND
  5
198
330
195
100
AcDbEntity
  8
STANDARDEBENE
  0
POLYLINE
  5
199
330
1F
100
AcDbEntity
  8
STANDARDEBENE
 62
     7
100
AcDb2dPolyline
 66
     1
 10
0.0
 20
0.0
 30
0.0
  0
VERTEX
  5
19A
330
199
100
AcDbEntity
  8
STANDARDEBENE
 62
     7
100
AcDbVertex
100
AcDb2dVertex
 10
233.0994669013606
 20
114.5928330876712
 30
0.0
  0
VERTEX
  5
19B
330
199
100
AcDbEntity
  8
STANDARDEBENE
 62
     7
100
AcDbVertex
100
AcDb2dVertex
 10
234.0568589367115
 20
114.8351955550586
 30
0.0
  0
SEQEND
  5
19C
330
199
100
AcDbEntity
  8
STANDARDEBENE
  0
POLYLINE
  5
19D
330
1F
100
AcDbEntity
  8
STANDARDEBENE
 62
     7
100
AcDb2dPolyline
 66
     1
 10
0.0
 20
0.0
 30
0.0
  0
VERTEX
  5
19E
330
19D
100
AcDbEntity
  8
STANDARDEBENE
 62
     7
100
AcDbVertex
100
AcDb2dVertex
 10
234.9617132659124
 20
115.2274196760543
 30
0.0
  0
VERTEX
  5
19F
330
19D
100
AcDbEntity
  8
STANDARDEBENE
 62
     7
100
AcDbVertex
100
AcDb2dVertex
 10
235.2238850323399
 20
115.3424858652616
 30
0.0
  0
VERTEX
  5
1A0
330
19D
100
AcDbEntity
  8
STANDARDEBENE
 62
     7
100
AcDbVertex
100
AcDb2dVertex
 10
235.8109293030265
 20
115.7262695023184
 30
0.0
  0
SEQEND
  5
1A1
330
19D
100
AcDbEntity
  8
STANDARDEBENE
  0
POLYLINE
  5
1A2
330
1F
100
AcDbEntity
  8
STANDARDEBENE
 62
     7
100
AcDb2dPolyline
 66
     1
 10
0.0
 20
0.0
 30
0.0
  0
VERTEX
  5
1A3
330
1A2
100
AcDbEntity
  8
STANDARDEBENE
 62
     7
100
AcDbVertex
100
AcDb2dVertex
 10
236.5926214686296
 20
116.3233045499122
 30
0.0
  0
VERTEX
  5
1A4
330
1A2
100
AcDbEntity
  8
STANDARDEBENE
 62
     7
100
AcDbVertex
100
AcDb2dVertex
 10
237.1850056373183
 20
116.8693521843243
 30
0.0
  0
VERTEX
  5
1A5
330
1A2
100
AcDbEntity
  8
STANDARDEBENE
 62
     7
100
AcDbVertex
100
AcDb2dVertex
 10
237.2967989858147
 20
117.0121513921879
 30
0.0
  0
SEQEND
  5
1A6
330
1A2
100
AcDbEntity
  8
STANDARDEBENE
  0
POLYLINE
  5
1A7
330
1F
100
AcDbEntity
  8
STANDARDEBENE
 62
     7
100
AcDb2dPolyline
 66
     1
 10
0.0
 20
0.0
 30
0.0
  0
VERTEX
  5
1A8
330
1A7
100
AcDbEntity
  8
STANDARDEBENE
 62
     7
100
AcDbVertex
100
AcDb2dVertex
 10
237.9029635364444
 20
117.7917765005
 30
0.0
  0
VERTEX
  5
1A9
330
1A7
100
AcDbEntity
  8
STANDARDEBENE
 62
     7
100
AcDbVertex
100
AcDb2dVertex
 10
237.9511948732379
 20
117.8532714549117
 30
0.0
  0
VERTEX
  5
1AA
330
1A7
100
AcDbEntity
  8
STANDARDEBENE
 62
     7
100
AcDbVertex
100
AcDb2dVertex
 10
238.383726611411
 20
118.6528781170382
 30
0.0
  0
SEQEND
  5
1AB
330
1A7
100
AcDbEntity
  8
STANDARDEBENE
  0
POLYLINE
  5
1AC
330
1F
100
AcDbEntity
  8
STANDARDEBENE
 62
     7
100
AcDb2dPolyline
 66
     1
 10
0.0
 20
0.0
 30
0.0
  0
VERTEX
  5
1AD
330
1AC
100
AcDbEntity
  8
STANDARDEBENE
 62
     7
100
AcDbVertex
100
AcDb2dVertex
 10
238.7551079047209
 20
119.5641058728868
 30
0.0
  0
VERTEX
  5
1AE
330
1AC
100
AcDbEntity
  8
STANDARDEBENE
 62
     7
100
AcDbVertex
100
AcDb2dVertex
 10
238.9492390353148
 20
120.129273787242
 30
0.0
  0
VERTEX
  5
1AF
330
1AC
100
AcDbEntity
  8
STANDARDEBENE
 62
     7
100
AcDbVertex
100
AcDb2dVertex
 10
239.0131455565662
 20
120.5135741886216
 30
0.0
  0
SEQEND
  5
1B0
330
1AC
100
AcDbEntity
  8
STANDARDEBENE
  0
POLYLINE
  5
1B1
330
1F
100
AcDbEntity
  8
STANDARDEBENE
 62
     7
100
AcDb2dPolyline
 66
     1
 10
0.0
 20
0.0
 30
0.0
  0
VERTEX
  5
1B2
330
1B1
100
AcDbEntity
  8
STANDARDEBENE
 62
     7
100
AcDbVertex
100
AcDb2dVertex
 10
239.1542222166871
 20
121.4888807204958
 30
0.0
  0
VERTEX
  5
1B3
330
1B1
100
AcDbEntity
  8
STANDARDEBENE
 62
     7
100
AcDbVertex
100
AcDb2dVertex
 10
239.1542222166871
 20
122.4762450865684
 30
0.0
  0
SEQEND
  5
1B4
330
1B1
100
AcDbEntity
  8
STANDARDEBENE
  0
POLYLINE
  5
1B5
330
1F
100
AcDbEntity
  8
STANDARDEBENE
 62
     7
100
AcDb2dPolyline
 66
     1
 10
0.0
 20
0.0
 30
0.0
  0
VERTEX
  5
1B6
330
1B5
100
AcDbEntity
  8
STANDARDEBENE
 62
     7
100
AcDbVertex
100
AcDb2dVertex
 10
239.0131455565662
 20
123.4517238732169
 30
0.0
  0
VERTEX
  5
1B7
330
1B5
100
AcDbEntity
  8
STANDARDEBENE
 62
     7
100
AcDbVertex
100
AcDb2dVertex
 10
238.9492390353148
 20
123.835679765048
 30
0.0
  0
VERTEX
  5
1B8
330
1B5
100
AcDbEntity
  8
STANDARDEBENE
 62
     7
100
AcDbVertex
100
AcDb2dVertex
 10
238.7551079047209
 20
124.4010199341775
 30
0.0
  0
SEQEND
  5
1B9
330
1B5
100
AcDbEntity
  8
STANDARDEBENE
  0
POLYLINE
  5
1BA
330
1F
100
AcDbEntity
  8
STANDARDEBENE
 62
     7
100
AcDb2dPolyline
 66
     1
 10
0.0
 20
0.0
 30
0.0
  0
VERTEX
  5
1BB
330
1BA
100
AcDbEntity
  8
STANDARDEBENE
 62
     7
100
AcDbVertex
100
AcDb2dVertex
 10
238.383726611411
 20
125.3122476900261
 30
0.0
  0
VERTEX
  5
1BC
330
1BA
100
AcDbEntity
  8
STANDARDEBENE
 62
     7
100
AcDbVertex
100
AcDb2dVertex
 10
237.9511948732379
 20
126.1116820973783
 30
0.0
  0
VERTEX
  5
1BD
330
1BA
100
AcDbEntity
  8
STANDARDEBENE
 62
     7
100
AcDbVertex
100
AcDb2dVertex
 10
237.9029635364444
 20
126.1735215613386
 30
0.0
  0
SEQEND
  5
1BE
330
1BA
100
AcDbEntity
  8
STANDARDEBENE
  0
POLYLINE
  5
1BF
330
1F
100
AcDbEntity
  8
STANDARDEBENE
 62
     7
100
AcDb2dPolyline
 66
     1
 10
0.0
 20
0.0
 30
0.0
  0
VERTEX
  5
1C0
330
1BF
100
AcDbEntity
  8
STANDARDEBENE
 62
     7
100
AcDbVertex
100
AcDb2dVertex
 10
237.2967989858147
 20
126.9524576505536
 30
0.0
  0
VERTEX
  5
1C1
330
1BF
100
AcDbEntity
  8
STANDARDEBENE
 62
     7
100
AcDbVertex
100
AcDb2dVertex
 10
237.1850056373183
 20
127.0959458775142
 30
0.0
  0
VERTEX
  5
1C2
330
1BF
100
AcDbEntity
  8
STANDARDEBENE
 62
     7
100
AcDbVertex
100
AcDb2dVertex
 10
236.5926214686296
 20
127.6409599832807
 30
0.0
  0
SEQEND
  5
1C3
330
1BF
100
AcDbEntity
  8
STANDARDEBENE
  0
POLYLINE
  5
1C4
330
1F
100
AcDbEntity
  8
STANDARDEBENE
 62
     7
100
AcDb2dPolyline
 66
     1
 10
0.0
 20
0.0
 30
0.0
  0
VERTEX
  5
1C5
330
1C4
100
AcDbEntity
  8
STANDARDEBENE
 62
     7
100
AcDbVertex
100
AcDb2dVertex
 10
235.8109293030265
 20
128.2385117951973
 30
0.0
  0
VERTEX
  5
1C6
330
1C4
100
AcDbEntity
  8
STANDARDEBENE
 62
     7
100
AcDbVertex
100
AcDb2dVertex
 10
235.2238850323399
 20
128.6228121965769
 30
0.0
  0
VERTEX
  5
1C7
330
1C4
100
AcDbEntity
  8
STANDARDEBENE
 62
     7
100
AcDbVertex
100
AcDb2dVertex
 10
234.9617132659124
 20
128.737017111913
 30
0.0
  0
SEQEND
  5
1C8
330
1C4
100
AcDbEntity
  8
STANDARDEBENE
  0
POLYLINE
  5
1C9
330
1F
100
AcDbEntity
  8
STANDARDEBENE
 62
     7
100
AcDb2dPolyline
 66
     1
 10
0.0
 20
0.0
 30
0.0
  0
VERTEX
  5
1CA
330
1C9
100
AcDbEntity
  8
STANDARDEBENE
 62
     7
100
AcDbVertex
100
AcDb2dVertex
 10
234.0568589367115
 20
129.1297579972315
 30
0.0
  0
VERTEX
  5
1CB
330
1C9
100
AcDbEntity
  8
STANDARDEBENE
 62
     7
100
AcDbVertex
100
AcDb2dVertex
 10
233.0994669013606
 20
129.3721204646188
 30
0.0
  0
SEQEND
  5
1CC
330
1C9
100
AcDbEntity
  8
STANDARDEBENE
  0
POLYLINE
  5
1CD
330
1F
100
AcDbEntity
  8
STANDARDEBENE
 62
     7
100
AcDb2dPolyline
 66
     1
 10
0.0
 20
0.0
 30
0.0
  0
VERTEX
  5
1CE
330
1CD
100
AcDbEntity
  8
STANDARDEBENE
 62
     7
100
AcDbVertex
100
AcDb2dVertex
 10
232.1222655669694
 20
129.4913207684084
 30
0.0
  0
VERTEX
  5
1CF
330
1CD
100
AcDbEntity
  8
STANDARDEBENE
 62
     7
100
AcDbVertex
100
AcDb2dVertex
 10
231.6301336769015
 20
129.5321451499086
 30
0.0
  0
VERTEX
  5
1D0
330
1CD
100
AcDbEntity
  8
STANDARDEBENE
 62
     7
100
AcDbVertex
100
AcDb2dVertex
 10
231.1383462963821
 20
129.4913207684084
 30
0.0
  0
SEQEND
  5
1D1
330
1CD
100
AcDbEntity
  8
STANDARDEBENE
  0
POLYLINE
  5
1D2
330
1F
100
AcDbEntity
  8
STANDARDEBENE
 62
     7
100
AcDb2dPolyline
 66
     1
 10
0.0
 20
0.0
 30
0.0
  0
VERTEX
  5
1D3
330
1D2
100
AcDbEntity
  8
STANDARDEBENE
 62
     7
100
AcDbVertex
100
AcDb2dVertex
 10
230.161144961991
 20
129.3721204646188
 30
0.0
  0
VERTEX
  5
1D4
330
1D2
100
AcDbEntity
  8
STANDARDEBENE
 62
     7
100
AcDbVertex
100
AcDb2dVertex
 10
229.20375292664
 20
129.1297579972315
 30
0.0
  0
SEQEND
  5
1D5
330
1D2
100
AcDbEntity
  8
STANDARDEBENE
  0
POLYLINE
  5
1D6
330
1F
100
AcDbEntity
  8
STANDARDEBENE
 62
     7
100
AcDb2dPolyline
 66
     1
 10
0.0
 20
0.0
 30
0.0
  0
VERTEX
  5
1D7
330
1D6
100
AcDbEntity
  8
STANDARDEBENE
 62
     7
100
AcDbVertex
100
AcDb2dVertex
 10
228.2988985974392
 20
128.737017111913
 30
0.0
  0
VERTEX
  5
1D8
330
1D6
100
AcDbEntity
  8
STANDARDEBENE
 62
     7
100
AcDbVertex
100
AcDb2dVertex
 10
228.0367268310117
 20
128.6228121965769
 30
0.0
  0
VERTEX
  5
1D9
330
1D6
100
AcDbEntity
  8
STANDARDEBENE
 62
     7
100
AcDbVertex
100
AcDb2dVertex
 10
227.4493380507766
 20
128.2385117951973
 30
0.0
  0
SEQEND
  5
1DA
330
1D6
100
AcDbEntity
  8
STANDARDEBENE
  0
POLYLINE
  5
1DB
330
1F
100
AcDbEntity
  8
STANDARDEBENE
 62
     7
100
AcDb2dPolyline
 66
     1
 10
0.0
 20
0.0
 30
0.0
  0
VERTEX
  5
1DC
330
1DB
100
AcDbEntity
  8
STANDARDEBENE
 62
     7
100
AcDbVertex
100
AcDb2dVertex
 10
226.6679903947219
 20
127.6409599832807
 30
0.0
  0
VERTEX
  5
1DD
330
1DB
100
AcDbEntity
  8
STANDARDEBENE
 62
     7
100
AcDbVertex
100
AcDb2dVertex
 10
226.0756062260332
 20
127.0959458775142
 30
0.0
  0
VERTEX
  5
1DE
330
1DB
100
AcDbEntity
  8
STANDARDEBENE
 62
     7
100
AcDbVertex
100
AcDb2dVertex
 10
225.9638128775368
 20
126.9524576505536
 30
0.0
  0
SEQEND
  5
1DF
330
1DB
100
AcDbEntity
  8
STANDARDEBENE
  0
POLYLINE
  5
1E0
330
1F
100
AcDbEntity
  8
STANDARDEBENE
 62
     7
100
AcDb2dPolyline
 66
     1
 10
0.0
 20
0.0
 30
0.0
  0
VERTEX
  5
1E1
330
1E0
100
AcDbEntity
  8
STANDARDEBENE
 62
     7
100
AcDbVertex
100
AcDb2dVertex
 10
225.3578205816814
 20
126.1735215613386
 30
0.0
  0
VERTEX
  5
1E2
330
1E0
100
AcDbEntity
  8
STANDARDEBENE
 62
     7
100
AcDbVertex
100
AcDb2dVertex
 10
225.3094169901136
 20
126.1116820973783
 30
0.0
  0
VERTEX
  5
1E3
330
1E0
100
AcDbEntity
  8
STANDARDEBENE
 62
     7
100
AcDbVertex
100
AcDb2dVertex
 10
224.8768852519405
 20
125.3122476900261
 30
0.0
  0
SEQEND
  5
1E4
330
1E0
100
AcDbEntity
  8
STANDARDEBENE
  0
POLYLINE
  5
1E5
330
1F
100
AcDbEntity
  8
STANDARDEBENE
 62
     7
100
AcDb2dPolyline
 66
     1
 10
0.0
 20
0.0
 30
0.0
  0
VERTEX
  5
1E6
330
1E5
100
AcDbEntity
  8
STANDARDEBENE
 62
     7
100
AcDbVertex
100
AcDb2dVertex
 10
224.505159449082
 20
124.4010199341775
 30
0.0
  0
VERTEX
  5
1E7
330
1E5
100
AcDbEntity
  8
STANDARDEBENE
 62
     7
100
AcDbVertex
100
AcDb2dVertex
 10
224.3113728280368
 20
123.835679765048
 30
0.0
  0
VERTEX
  5
1E8
330
1E5
100
AcDbEntity
  8
STANDARDEBENE
 62
     7
100
AcDbVertex
100
AcDb2dVertex
 10
224.2471217972368
 20
123.4517238732169
 30
0.0
  0
SEQEND
  5
1E9
330
1E5
100
AcDbEntity
  8
STANDARDEBENE
  0
POLYLINE
  5
1EA
330
1F
100
AcDbEntity
  8
STANDARDEBENE
 62
     7
100
AcDb2dPolyline
 66
     1
 10
0.0
 20
0.0
 30
0.0
  0
VERTEX
  5
1EB
330
1EA
100
AcDbEntity
  8
STANDARDEBENE
 62
     7
100
AcDbVertex
100
AcDb2dVertex
 10
224.1060451371159
 20
122.4762450865684
 30
0.0
  0
VERTEX
  5
1EC
330
1EA
100
AcDbEntity
  8
STANDARDEBENE
 62
     7
100
AcDbVertex
100
AcDb2dVertex
 10
224.1060451371159
 20
121.4888807204958
 30
0.0
  0
SEQEND
  5
1ED
330
1EA
100
AcDbEntity
  8
STANDARDEBENE
  0
POLYLINE
  5
1EE
330
1F
100
AcDbEntity
  8
STANDARDEBENE
 62
     7
100
AcDb2dPolyline
 66
     1
 10
0.0
 20
0.0
 30
0.0
  0
VERTEX
  5
1EF
330
1EE
100
AcDbEntity
  8
STANDARDEBENE
 62
     7
100
AcDbVertex
100
AcDb2dVertex
 10
224.2471217972368
 20
120.5135741886216
 30
0.0
  0
VERTEX
  5
1F0
330
1EE
100
AcDbEntity
  8
STANDARDEBENE
 62
     7
100
AcDbVertex
100
AcDb2dVertex
 10
224.3113728280368
 20
120.129273787242
 30
0.0
  0
VERTEX
  5
1F1
330
1EE
100
AcDbEntity
  8
STANDARDEBENE
 62
     7
100
AcDbVertex
100
AcDb2dVertex
 10
224.505159449082
 20
119.5641058728868
 30
0.0
  0
SEQEND
  5
1F2
330
1EE
100
AcDbEntity
  8
STANDARDEBENE
  0
POLYLINE
  5
1F3
330
1F
100
AcDbEntity
  8
STANDARDEBENE
 62
     7
100
AcDb2dPolyline
 66
     1
 10
0.0
 20
0.0
 30
0.0
  0
VERTEX
  5
1F4
330
1F3
100
AcDbEntity
  8
STANDARDEBENE
 62
     7
100
AcDbVertex
100
AcDb2dVertex
 10
224.8768852519405
 20
118.6528781170382
 30
0.0
  0
VERTEX
  5
1F5
330
1F3
100
AcDbEntity
  8
STANDARDEBENE
 62
     7
100
AcDbVertex
100
AcDb2dVertex
 10
225.3094169901136
 20
117.8532714549117
 30
0.0
  0
VERTEX
  5
1F6
330
1F3
100
AcDbEntity
  8
STANDARDEBENE
 62
     7
100
AcDbVertex
100
AcDb2dVertex
 10
225.3578205816814
 20
117.7917765005
 30
0.0
  0
SEQEND
  5
1F7
330
1F3
100
AcDbEntity
  8
STANDARDEBENE
  0
POLYLINE
  5
1F8
330
1F
100
AcDbEntity
  8
STANDARDEBENE
 62
     7
100
AcDb2dPolyline
 66
     1
 10
0.0
 20
0.0
 30
0.0
  0
VERTEX
  5
1F9
330
1F8
100
AcDbEntity
  8
STANDARDEBENE
 62
     7
100
AcDbVertex
100
AcDb2dVertex
 10
225.9638128775368
 20
117.0121513921879
 30
0.0
  0
VERTEX
  5
1FA
330
1F8
100
AcDbEntity
  8
STANDARDEBENE
 62
     7
100
AcDbVertex
100
AcDb2dVertex
 10
226.0756062260332
 20
116.8693521843243
 30
0.0
  0
VERTEX
  5
1FB
330
1F8
100
AcDbEntity
  8
STANDARDEBENE
 62
     7
100
AcDbVertex
100
AcDb2dVertex
 10
226.6679903947219
 20
116.3233045499122
 30
0.0
  0
SEQEND
  5
1FC
330
1F8
100
AcDbEntity
  8
STANDARDEBENE
  0
POLYLINE
  5
1FD
330
1F
100
AcDbEntity
  8
STANDARDEBENE
 62
     7
100
AcDb2dPolyline
 66
     1
 10
0.0
 20
0.0
 30
0.0
  0
VERTEX
  5
1FE
330
1FD
100
AcDbEntity
  8
STANDARDEBENE
 62
     7
100
AcDbVertex
100
AcDb2dVertex
 10
227.4493380507766
 20
115.7262695023184
 30
0.0
  0
VERTEX
  5
1FF
330
1FD
100
AcDbEntity
  8
STANDARDEBENE
 62
     7
100
AcDbVertex
100
AcDb2dVertex
 10
228.0367268310117
 20
115.3424858652616
 30
0.0
  0
VERTEX
  5
200
330
1FD
100
AcDbEntity
  8
STANDARDEBENE
 62
     7
100
AcDbVertex
100
AcDb2dVertex
 10
228.2988985974392
 20
115.2274196760543
 30
0.0
  0
SEQEND
  5
201
330
1FD
100
AcDbEntity
  8
STANDARDEBENE
  0
POLYLINE
  5
202
330
1F
100
AcDbEntity
  8
STANDARDEBENE
 62
     7
100
AcDb2dPolyline
 66
     1
 10
0.0
 20
0.0
 30
0.0
  0
VERTEX
  5
203
330
202
100
AcDbEntity
  8
STANDARDEBENE
 62
     7
100
AcDbVertex
100
AcDb2dVertex
 10
229.20375292664
 20
114.8351955550586
 30
0.0
  0
VERTEX
  5
204
330
202
100
AcDbEntity
  8
STANDARDEBENE
 62
     7
100
AcDbVertex
100
AcDb2dVertex
 10
230.161144961991
 20
114.5928330876712
 30
0.0
  0
SEQEND
  5
205
330
202
100
AcDbEntity
  8
STANDARDEBENE
  0
POLYLINE
  5
206
330
1F
100
AcDbEntity
  8
STANDARDEBENE
 62
     7
100
AcDb2dPolyline
 66
     1
 10
0.0
 20
0.0
 30
0.0
  0
VERTEX
  5
207
330
206
100
AcDbEntity
  8
STANDARDEBENE
 62
     7
100
AcDbVertex
100
AcDb2dVertex
 10
231.1383462963821
 20
114.4729437647845
 30
0.0
  0
VERTEX
  5
208
330
206
100
AcDbEntity
  8
STANDARDEBENE
 62
     7
100
AcDbVertex
100
AcDb2dVertex
 10
231.6301336769015
 20
114.4322916380586
 30
0.0
  0
SEQEND
  5
209
330
206
100
AcDbEntity
  8
STANDARDEBENE
  0
POLYLINE
  5
20A
330
1F
100
AcDbEntity
  8
STANDARDEBENE
 62
     7
100
AcDb2dPolyline
 66
     1
 10
0.0
 20
0.0
 30
0.0
  0
VERTEX
  5
20B
330
20A
100
AcDbEntity
  8
STANDARDEBENE
 62
     7
100
AcDbVertex
100
AcDb2dVertex
 10
231.6301336769015
 20
116.6826280090238
 30
0.0
  0
VERTEX
  5
20C
330
20A
100
AcDbEntity
  8
STANDARDEBENE
 62
     7
100
AcDbVertex
100
AcDb2dVertex
 10
232.1169256689673
 20
116.7303425814945
 30
0.0
  0
SEQEND
  5
20D
330
20A
100
AcDbEntity
  8
STANDARDEBENE
  0
POLYLINE
  5
20E
330
1F
100
AcDbEntity
  8
STANDARDEBENE
 62
     7
100
AcDb2dPolyline
 66
     1
 10
0.0
 20
0.0
 30
0.0
  0
VERTEX
  5
20F
330
20E
100
AcDbEntity
  8
STANDARDEBENE
 62
     7
100
AcDbVertex
100
AcDb2dVertex
 10
233.0738009399954
 20
116.9084540180819
 30
0.0
  0
VERTEX
  5
210
330
20E
100
AcDbEntity
  8
STANDARDEBENE
 62
     7
100
AcDbVertex
100
AcDb2dVertex
 10
233.6586058986166
 20
117.0858764355723
 30
0.0
  0
VERTEX
  5
211
330
20E
100
AcDbEntity
  8
STANDARDEBENE
 62
     7
100
AcDbVertex
100
AcDb2dVertex
 10
233.9821003646816
 20
117.258303464609
 30
0.0
  0
SEQEND
  5
212
330
20E
100
AcDbEntity
  8
STANDARDEBENE
  0
POLYLINE
  5
213
330
1F
100
AcDbEntity
  8
STANDARDEBENE
 62
     7
100
AcDb2dPolyline
 66
     1
 10
0.0
 20
0.0
 30
0.0
  0
VERTEX
  5
214
330
213
100
AcDbEntity
  8
STANDARDEBENE
 62
     7
100
AcDbVertex
100
AcDb2dVertex
 10
234.8108180836584
 20
117.7695556346201
 30
0.0
  0
VERTEX
  5
215
330
213
100
AcDbEntity
  8
STANDARDEBENE
 62
     7
100
AcDbVertex
100
AcDb2dVertex
 10
235.3780530553048
 20
118.2346435251288
 30
0.0
  0
VERTEX
  5
216
330
213
100
AcDbEntity
  8
STANDARDEBENE
 62
     7
100
AcDbVertex
100
AcDb2dVertex
 10
235.5329100973668
 20
118.4239515220433
 30
0.0
  0
SEQEND
  5
217
330
213
100
AcDbEntity
  8
STANDARDEBENE
  0
POLYLINE
  5
218
330
1F
100
AcDbEntity
  8
STANDARDEBENE
 62
     7
100
AcDb2dPolyline
 66
     1
 10
0.0
 20
0.0
 30
0.0
  0
VERTEX
  5
219
330
218
100
AcDbEntity
  8
STANDARDEBENE
 62
     7
100
AcDbVertex
100
AcDb2dVertex
 10
236.1233994635386
 20
119.1997870253216
 30
0.0
  0
VERTEX
  5
21A
330
218
100
AcDbEntity
  8
STANDARDEBENE
 62
     7
100
AcDbVertex
100
AcDb2dVertex
 10
236.5266478900871
 20
119.9544351913656
 30
0.0
  0
VERTEX
  5
21B
330
218
100
AcDbEntity
  8
STANDARDEBENE
 62
     7
100
AcDbVertex
100
AcDb2dVertex
 10
236.5623046283594
 20
120.0713961830898
 30
0.0
  0
SEQEND
  5
21C
330
218
100
AcDbEntity
  8
STANDARDEBENE
  0
POLYLINE
  5
21D
330
1F
100
AcDbEntity
  8
STANDARDEBENE
 62
     7
100
AcDb2dPolyline
 66
     1
 10
0.0
 20
0.0
 30
0.0
  0
VERTEX
  5
21E
330
21D
100
AcDbEntity
  8
STANDARDEBENE
 62
     7
100
AcDbVertex
100
AcDb2dVertex
 10
236.8342949169199
 20
121.0094956837233
 30
0.0
  0
VERTEX
  5
21F
330
21D
100
AcDbEntity
  8
STANDARDEBENE
 62
     7
100
AcDbVertex
100
AcDb2dVertex
 10
236.9302408261841
 20
121.9825629035321
 30
0.0
  0
SEQEND
  5
220
330
21D
100
AcDbEntity
  8
STANDARDEBENE
  0
POLYLINE
  5
221
330
1F
100
AcDbEntity
  8
STANDARDEBENE
 62
     7
100
AcDb2dPolyline
 66
     1
 10
0.0
 20
0.0
 30
0.0
  0
VERTEX
  5
222
330
221
100
AcDbEntity
  8
STANDARDEBENE
 62
     7
100
AcDbVertex
100
AcDb2dVertex
 10
236.8342949169199
 20
122.9554578685667
 30
0.0
  0
VERTEX
  5
223
330
221
100
AcDbEntity
  8
STANDARDEBENE
 62
     7
100
AcDbVertex
100
AcDb2dVertex
 10
236.8286105093692
 20
123.0160915491071
 30
0.0
  0
VERTEX
  5
224
330
221
100
AcDbEntity
  8
STANDARDEBENE
 62
     7
100
AcDbVertex
100
AcDb2dVertex
 10
236.5623046283594
 20
123.8939018787487
 30
0.0
  0
SEQEND
  5
225
330
221
100
AcDbEntity
  8
STANDARDEBENE
  0
POLYLINE
  5
226
330
1F
100
AcDbEntity
  8
STANDARDEBENE
 62
     7
100
AcDb2dPolyline
 66
     1
 10
0.0
 20
0.0
 30
0.0
  0
VERTEX
  5
227
330
226
100
AcDbEntity
  8
STANDARDEBENE
 62
     7
100
AcDbVertex
100
AcDb2dVertex
 10
236.1233994635386
 20
124.765511036517
 30
0.0
  0
VERTEX
  5
228
330
226
100
AcDbEntity
  8
STANDARDEBENE
 62
     7
100
AcDbVertex
100
AcDb2dVertex
 10
236.0370998216331
 20
124.9270860147752
 30
0.0
  0
VERTEX
  5
229
330
226
100
AcDbEntity
  8
STANDARDEBENE
 62
     7
100
AcDbVertex
100
AcDb2dVertex
 10
235.5329100973668
 20
125.5413465397952
 30
0.0
  0
SEQEND
  5
22A
330
226
100
AcDbEntity
  8
STANDARDEBENE
  0
POLYLINE
  5
22B
330
1F
100
AcDbEntity
  8
STANDARDEBENE
 62
     7
100
AcDb2dPolyline
 66
     1
 10
0.0
 20
0.0
 30
0.0
  0
VERTEX
  5
22C
330
22B
100
AcDbEntity
  8
STANDARDEBENE
 62
     7
100
AcDbVertex
100
AcDb2dVertex
 10
234.8108180836584
 20
126.1955701724442
 30
0.0
  0
VERTEX
  5
22D
330
22B
100
AcDbEntity
  8
STANDARDEBENE
 62
     7
100
AcDbVertex
100
AcDb2dVertex
 10
234.5748290429188
 20
126.3893567934895
 30
0.0
  0
VERTEX
  5
22E
330
22B
100
AcDbEntity
  8
STANDARDEBENE
 62
     7
100
AcDbVertex
100
AcDb2dVertex
 10
233.9821003646816
 20
126.7061333233582
 30
0.0
  0
SEQEND
  5
22F
330
22B
100
AcDbEntity
  8
STANDARDEBENE
  0
POLYLINE
  5
230
330
1F
100
AcDbEntity
  8
STANDARDEBENE
 62
     7
100
AcDb2dPolyline
 66
     1
 10
0.0
 20
0.0
 30
0.0
  0
VERTEX
  5
231
330
230
100
AcDbEntity
  8
STANDARDEBENE
 62
     7
100
AcDbVertex
100
AcDb2dVertex
 10
233.0738009399954
 20
127.0561550246596
 30
0.0
  0
VERTEX
  5
232
330
230
100
AcDbEntity
  8
STANDARDEBENE
 62
     7
100
AcDbVertex
100
AcDb2dVertex
 10
232.6645235963478
 20
127.1801784621286
 30
0.0
  0
VERTEX
  5
233
330
230
100
AcDbEntity
  8
STANDARDEBENE
 62
     7
100
AcDbVertex
100
AcDb2dVertex
 10
232.1169256689673
 20
127.234266461247
 30
0.0
  0
SEQEND
  5
234
330
230
100
AcDbEntity
  8
STANDARDEBENE
  0
POLYLINE
  5
235
330
1F
100
AcDbEntity
  8
STANDARDEBENE
 62
     7
100
AcDb2dPolyline
 66
     1
 10
0.0
 20
0.0
 30
0.0
  0
VERTEX
  5
236
330
235
100
AcDbEntity
  8
STANDARDEBENE
 62
     7
100
AcDbVertex
100
AcDb2dVertex
 10
231.1436861943842
 20
127.234266461247
 30
0.0
  0
VERTEX
  5
237
330
235
100
AcDbEntity
  8
STANDARDEBENE
 62
     7
100
AcDbVertex
100
AcDb2dVertex
 10
230.5960882670038
 20
127.1801784621286
 30
0.0
  0
VERTEX
  5
238
330
235
100
AcDbEntity
  8
STANDARDEBENE
 62
     7
100
AcDbVertex
100
AcDb2dVertex
 10
230.1869831781304
 20
127.0561550246596
 30
0.0
  0
SEQEND
  5
239
330
235
100
AcDbEntity
  8
STANDARDEBENE
  0
POLYLINE
  5
23A
330
1F
100
AcDbEntity
  8
STANDARDEBENE
 62
     7
100
AcDb2dPolyline
 66
     1
 10
0.0
 20
0.0
 30
0.0
  0
VERTEX
  5
23B
330
23A
100
AcDbEntity
  8
STANDARDEBENE
 62
     7
100
AcDbVertex
100
AcDb2dVertex
 10
229.2788560082185
 20
126.7061333233582
 30
0.0
  0
VERTEX
  5
23C
330
23A
100
AcDbEntity
  8
STANDARDEBENE
 62
     7
100
AcDbVertex
100
AcDb2dVertex
 10
228.6857828204327
 20
126.3893567934895
 30
0.0
  0
VERTEX
  5
23D
330
23A
100
AcDbEntity
  8
STANDARDEBENE
 62
     7
100
AcDbVertex
100
AcDb2dVertex
 10
228.4497937796931
 20
126.1955701724442
 30
0.0
  0
SEQEND
  5
23E
330
23A
100
AcDbEntity
  8
STANDARDEBENE
  0
POLYLINE
  5
23F
330
1F
100
AcDbEntity
  8
STANDARDEBENE
 62
     7
100
AcDb2dPolyline
 66
     1
 10
0.0
 20
0.0
 30
0.0
  0
VERTEX
  5
240
330
23F
100
AcDbEntity
  8
STANDARDEBENE
 62
     7
100
AcDbVertex
100
AcDb2dVertex
 10
227.7277017659848
 20
125.5413465397952
 30
0.0
  0
VERTEX
  5
241
330
23F
100
AcDbEntity
  8
STANDARDEBENE
 62
     7
100
AcDbVertex
100
AcDb2dVertex
 10
227.2236842964927
 20
124.9270860147752
 30
0.0
  0
VERTEX
  5
242
330
23F
100
AcDbEntity
  8
STANDARDEBENE
 62
     7
100
AcDbVertex
100
AcDb2dVertex
 10
227.1372123998129
 20
124.765511036517
 30
0.0
  0
SEQEND
  5
243
330
23F
100
AcDbEntity
  8
STANDARDEBENE
  0
POLYLINE
  5
244
330
1F
100
AcDbEntity
  8
STANDARDEBENE
 62
     7
100
AcDb2dPolyline
 66
     1
 10
0.0
 20
0.0
 30
0.0
  0
VERTEX
  5
245
330
244
100
AcDbEntity
  8
STANDARDEBENE
 62
     7
100
AcDbVertex
100
AcDb2dVertex
 10
226.6983072349921
 20
123.8939018787487
 30
0.0
  0
VERTEX
  5
246
330
244
100
AcDbEntity
  8
STANDARDEBENE
 62
     7
100
AcDbVertex
100
AcDb2dVertex
 10
226.4320013539823
 20
123.0160915491071
 30
0.0
  0
VERTEX
  5
247
330
244
100
AcDbEntity
  8
STANDARDEBENE
 62
     7
100
AcDbVertex
100
AcDb2dVertex
 10
226.4263169464316
 20
122.9554578685667
 30
0.0
  0
SEQEND
  5
248
330
244
100
AcDbEntity
  8
STANDARDEBENE
  0
POLYLINE
  5
249
330
1F
100
AcDbEntity
  8
STANDARDEBENE
 62
     7
100
AcDb2dPolyline
 66
     1
 10
0.0
 20
0.0
 30
0.0
  0
VERTEX
  5
24A
330
249
100
AcDbEntity
  8
STANDARDEBENE
 62
     7
100
AcDbVertex
100
AcDb2dVertex
 10
226.3300265276189
 20
121.9825629035321
 30
0.0
  0
VERTEX
  5
24B
330
249
100
AcDbEntity
  8
STANDARDEBENE
 62
     7
100
AcDbVertex
100
AcDb2dVertex
 10
226.4263169464316
 20
121.0094956837233
 30
0.0
  0
SEQEND
  5
24C
330
249
100
AcDbEntity
  8
STANDARDEBENE
  0
POLYLINE
  5
24D
330
1F
100
AcDbEntity
  8
STANDARDEBENE
 62
     7
100
AcDb2dPolyline
 66
     1
 10
0.0
 20
0.0
 30
0.0
  0
VERTEX
  5
24E
330
24D
100
AcDbEntity
  8
STANDARDEBENE
 62
     7
100
AcDbVertex
100
AcDb2dVertex
 10
226.6983072349921
 20
120.0713961830898
 30
0.0
  0
VERTEX
  5
24F
330
24D
100
AcDbEntity
  8
STANDARDEBENE
 62
     7
100
AcDbVertex
100
AcDb2dVertex
 10
226.7336194637159
 20
119.9544351913656
 30
0.0
  0
VERTEX
  5
250
330
24D
100
AcDbEntity
  8
STANDARDEBENE
 62
     7
100
AcDbVertex
100
AcDb2dVertex
 10
227.1372123998129
 20
119.1997870253216
 30
0.0
  0
SEQEND
  5
251
330
24D
100
AcDbEntity
  8
STANDARDEBENE
  0
POLYLINE
  5
252
330
1F
100
AcDbEntity
  8
STANDARDEBENE
 62
     7
100
AcDb2dPolyline
 66
     1
 10
0.0
 20
0.0
 30
0.0
  0
VERTEX
  5
253
330
252
100
AcDbEntity
  8
STANDARDEBENE
 62
     7
100
AcDbVertex
100
AcDb2dVertex
 10
227.7277017659848
 20
118.4239515220433
 30
0.0
  0
VERTEX
  5
254
330
252
100
AcDbEntity
  8
STANDARDEBENE
 62
     7
100
AcDbVertex
100
AcDb2dVertex
 10
227.8825588080467
 20
118.2346435251288
 30
0.0
  0
VERTEX
  5
255
330
252
100
AcDbEntity
  8
STANDARDEBENE
 62
     7
100
AcDbVertex
100
AcDb2dVertex
 10
228.4497937796931
 20
117.7695556346201
 30
0.0
  0
SEQEND
  5
256
330
252
100
AcDbEntity
  8
STANDARDEBENE
  0
POLYLINE
  5
257
330
1F
100
AcDbEntity
  8
STANDARDEBENE
 62
     7
100
AcDb2dPolyline
 66
     1
 10
0.0
 20
0.0
 30
0.0
  0
VERTEX
  5
258
330
257
100
AcDbEntity
  8
STANDARDEBENE
 62
     7
100
AcDbVertex
100
AcDb2dVertex
 10
229.2788560082185
 20
117.258303464609
 30
0.0
  0
VERTEX
  5
259
330
257
100
AcDbEntity
  8
STANDARDEBENE
 62
     7
100
AcDbVertex
100
AcDb2dVertex
 10
229.6020059647349
 20
117.0858764355723
 30
0.0
  0
VERTEX
  5
25A
330
257
100
AcDbEntity
  8
STANDARDEBENE
 62
     7
100
AcDbVertex
100
AcDb2dVertex
 10
230.1869831781304
 20
116.9084540180819
 30
0.0
  0
SEQEND
  5
25B
330
257
100
AcDbEntity
  8
STANDARDEBENE
  0
POLYLINE
  5
25C
330
1F
100
AcDbEntity
  8
STANDARDEBENE
 62
     7
100
AcDb2dPolyline
 66
     1
 10
0.0
 20
0.0
 30
0.0
  0
VERTEX
  5
25D
330
25C
100
AcDbEntity
  8
STANDARDEBENE
 62
     7
100
AcDbVertex
100
AcDb2dVertex
 10
231.1436861943842
 20
116.7303425814945
 30
0.0
  0
VERTEX
  5
25E
330
25C
100
AcDbEntity
  8
STANDARDEBENE
 62
     7
100
AcDbVertex
100
AcDb2dVertex
 10
231.6301336769015
 20
116.6826280090238
 30
0.0
  0
SEQEND
  5
25F
330
25C
100
AcDbEntity
  8
STANDARDEBENE
  0
POLYLINE
  5
260
330
1F
100
AcDbEntity
  8
STANDARDEBENE
 62
     7
100
AcDb2dPolyline
 66
     1
 10
0.0
 20
0.0
 30
0.0
  0
VERTEX
  5
261
330
260
100
AcDbEntity
  8
STANDARDEBENE
 62
     7
100
AcDbVertex
100
AcDb2dVertex
 10
231.6301336769015
 20
114.4322916380586
 30
0.0
  0
VERTEX
  5
262
330
260
100
AcDbEntity
  8
STANDARDEBENE
 62
     7
100
AcDbVertex
100
AcDb2dVertex
 10
232.1222655669694
 20
114.4729437647845
 30
0.0
  0
SEQEND
  5
263
330
260
100
AcDbEntity
  8
STANDARDEBENE
  0
POLYLINE
  5
264
330
1F
100
AcDbEntity
  8
STANDARDEBENE
 62
     7
100
AcDb2dPolyline
 66
     1
 10
0.0
 20
0.0
 30
0.0
  0
VERTEX
  5
265
330
264
100
AcDbEntity
  8
STANDARDEBENE
 62
     7
100
AcDbVertex
100
AcDb2dVertex
 10
233.0994669013606
 20
114.5928330876712
 30
0.0
  0
VERTEX
  5
266
330
264
100
AcDbEntity
  8
STANDARDEBENE
 62
     7
100
AcDbVertex
100
AcDb2dVertex
 10
234.0568589367115
 20
114.8351955550586
 30
0.0
  0
SEQEND
  5
267
330
264
100
AcDbEntity
  8
STANDARDEBENE
  0
POLYLINE
  5
268
330
1F
100
AcDbEntity
  8
STANDARDEBENE
 62
     7
100
AcDb2dPolyline
 66
     1
 10
0.0
 20
0.0
 30
0.0
  0
VERTEX
  5
269
330
268
100
AcDbEntity
  8
STANDARDEBENE
 62
     7
100
AcDbVertex
100
AcDb2dVertex
 10
234.9617132659124
 20
115.2274196760543
 30
0.0
  0
VERTEX
  5
26A
330
268
100
AcDbEntity
  8
STANDARDEBENE
 62
     7
100
AcDbVertex
100
AcDb2dVertex
 10
235.2238850323399
 20
115.3424858652616
 30
0.0
  0
VERTEX
  5
26B
330
268
100
AcDbEntity
  8
STANDARDEBENE
 62
     7
100
AcDbVertex
100
AcDb2dVertex
 10
235.8109293030265
 20
115.7262695023184
 30
0.0
  0
SEQEND
  5
26C
330
268
100
AcDbEntity
  8
STANDARDEBENE
  0
POLYLINE
  5
26D
330
1F
100
AcDbEntity
  8
STANDARDEBENE
 62
     7
100
AcDb2dPolyline
 66
     1
 10
0.0
 20
0.0
 30
0.0
  0
VERTEX
  5
26E
330
26D
100
AcDbEntity
  8
STANDARDEBENE
 62
     7
100
AcDbVertex
100
AcDb2dVertex
 10
236.5926214686296
 20
116.3233045499122
 30
0.0
  0
VERTEX
  5
26F
330
26D
100
AcDbEntity
  8
STANDARDEBENE
 62
     7
100
AcDbVertex
100
AcDb2dVertex
 10
237.1850056373183
 20
116.8693521843243
 30
0.0
  0
VERTEX
  5
270
330
26D
100
AcDbEntity
  8
STANDARDEBENE
 62
     7
100
AcDbVertex
100
AcDb2dVertex
 10
237.2967989858147
 20
117.0121513921879
 30
0.0
  0
SEQEND
  5
271
330
26D
100
AcDbEntity
  8
STANDARDEBENE
  0
POLYLINE
  5
272
330
1F
100
AcDbEntity
  8
STANDARDEBENE
 62
     7
100
AcDb2dPolyline
 66
     1
 10
0.0
 20
0.0
 30
0.0
  0
VERTEX
  5
273
330
272
100
AcDbEntity
  8
STANDARDEBENE
 62
     7
100
AcDbVertex
100
AcDb2dVertex
 10
237.9029635364444
 20
117.7917765005
 30
0.0
  0
VERTEX
  5
274
330
272
100
AcDbEntity
  8
STANDARDEBENE
 62
     7
100
AcDbVertex
100
AcDb2dVertex
 10
237.9511948732379
 20
117.8532714549117
 30
0.0
  0
VERTEX
  5
275
330
272
100
AcDbEntity
  8
STANDARDEBENE
 62
     7
100
AcDbVertex
100
AcDb2dVertex
 10
238.383726611411
 20
118.6528781170382
 30
0.0
  0
SEQEND
  5
276
330
272
100
AcDbEntity
  8
STANDARDEBENE
  0
POLYLINE
  5
277
330
1F
100
AcDbEntity
  8
STANDARDEBENE
 62
     7
100
AcDb2dPolyline
 66
     1
 10
0.0
 20
0.0
 30
0.0
  0
VERTEX
  5
278
330
277
100
AcDbEntity
  8
STANDARDEBENE
 62
     7
100
AcDbVertex
100
AcDb2dVertex
 10
238.7551079047209
 20
119.5641058728868
 30
0.0
  0
VERTEX
  5
279
330
277
100
AcDbEntity
  8
STANDARDEBENE
 62
     7
100
AcDbVertex
100
AcDb2dVertex
 10
238.9492390353148
 20
120.129273787242
 30
0.0
  0
VERTEX
  5
27A
330
277
100
AcDbEntity
  8
STANDARDEBENE
 62
     7
100
AcDbVertex
100
AcDb2dVertex
 10
239.0131455565662
 20
120.5135741886216
 30
0.0
  0
SEQEND
  5
27B
330
277
100
AcDbEntity
  8
STANDARDEBENE
  0
POLYLINE
  5
27C
330
1F
100
AcDbEntity
  8
STANDARDEBENE
 62
     7
100
AcDb2dPolyline
 66
     1
 10
0.0
 20
0.0
 30
0.0
  0
VERTEX
  5
27D
330
27C
100
AcDbEntity
  8
STANDARDEBENE
 62
     7
100
AcDbVertex
100
AcDb2dVertex
 10
239.1542222166871
 20
121.4888807204958
 30
0.0
  0
VERTEX
  5
27E
330
27C
100
AcDbEntity
  8
STANDARDEBENE
 62
     7
100
AcDbVertex
100
AcDb2dVertex
 10
239.1542222166871
 20
122.4762450865684
 30
0.0
  0
SEQEND
  5
27F
330
27C
100
AcDbEntity
  8
STANDARDEBENE
  0
POLYLINE
  5
280
330
1F
100
AcDbEntity
  8
STANDARDEBENE
 62
     7
100
AcDb2dPolyline
 66
     1
 10
0.0
 20
0.0
 30
0.0
  0
VERTEX
  5
281
330
280
100
AcDbEntity
  8
STANDARDEBENE
 62
     7
100
AcDbVertex
100
AcDb2dVertex
 10
239.0131455565662
 20
123.4517238732169
 30
0.0
  0
VERTEX
  5
282
330
280
100
AcDbEntity
  8
STANDARDEBENE
 62
     7
100
AcDbVertex
100
AcDb2dVertex
 10
238.9492390353148
 20
123.835679765048
 30
0.0
  0
VERTEX
  5
283
330
280
100
AcDbEntity
  8
STANDARDEBENE
 62
     7
100
AcDbVertex
100
AcDb2dVertex
 10
238.7551079047209
 20
124.4010199341775
 30
0.0
  0
SEQEND
  5
284
330
280
100
AcDbEntity
  8
STANDARDEBENE
  0
POLYLINE
  5
285
330
1F
100
AcDbEntity
  8
STANDARDEBENE
 62
     7
100
AcDb2dPolyline
 66
     1
 10
0.0
 20
0.0
 30
0.0
  0
VERTEX
  5
286
330
285
100
AcDbEntity
  8
STANDARDEBENE
 62
     7
100
AcDbVertex
100
AcDb2dVertex
 10
238.383726611411
 20
125.3122476900261
 30
0.0
  0
VERTEX
  5
287
330
285
100
AcDbEntity
  8
STANDARDEBENE
 62
     7
100
AcDbVertex
100
AcDb2dVertex
 10
237.9511948732379
 20
126.1116820973783
 30
0.0
  0
VERTEX
  5
288
330
285
100
AcDbEntity
  8
STANDARDEBENE
 62
     7
100
AcDbVertex
100
AcDb2dVertex
 10
237.9029635364444
 20
126.1735215613386
 30
0.0
  0
SEQEND
  5
289
330
285
100
AcDbEntity
  8
STANDARDEBENE
  0
POLYLINE
  5
28A
330
1F
100
AcDbEntity
  8
STANDARDEBENE
 62
     7
100
AcDb2dPolyline
 66
     1
 10
0.0
 20
0.0
 30
0.0
  0
VERTEX
  5
28B
330
28A
100
AcDbEntity
  8
STANDARDEBENE
 62
     7
100
AcDbVertex
100
AcDb2dVertex
 10
237.2967989858147
 20
126.9524576505536
 30
0.0
  0
VERTEX
  5
28C
330
28A
100
AcDbEntity
  8
STANDARDEBENE
 62
     7
100
AcDbVertex
100
AcDb2dVertex
 10
237.1850056373183
 20
127.0959458775142
 30
0.0
  0
VERTEX
  5
28D
330
28A
100
AcDbEntity
  8
STANDARDEBENE
 62
     7
100
AcDbVertex
100
AcDb2dVertex
 10
236.5926214686296
 20
127.6409599832807
 30
0.0
  0
SEQEND
  5
28E
330
28A
100
AcDbEntity
  8
STANDARDEBENE
  0
POLYLINE
  5
28F
330
1F
100
AcDbEntity
  8
STANDARDEBENE
 62
     7
100
AcDb2dPolyline
 66
     1
 10
0.0
 20
0.0
 30
0.0
  0
VERTEX
  5
290
330
28F
100
AcDbEntity
  8
STANDARDEBENE
 62
     7
100
AcDbVertex
100
AcDb2dVertex
 10
235.8109293030265
 20
128.2385117951973
 30
0.0
  0
VERTEX
  5
291
330
28F
100
AcDbEntity
  8
STANDARDEBENE
 62
     7
100
AcDbVertex
100
AcDb2dVertex
 10
235.2238850323399
 20
128.6228121965769
 30
0.0
  0
VERTEX
  5
292
330
28F
100
AcDbEntity
  8
STANDARDEBENE
 62
     7
100
AcDbVertex
100
AcDb2dVertex
 10
234.9617132659124
 20
128.737017111913
 30
0.0
  0
SEQEND
  5
293
330
28F
100
AcDbEntity
  8
STANDARDEBENE
  0
POLYLINE
  5
294
330
1F
100
AcDbEntity
  8
STANDARDEBENE
 62
     7
100
AcDb2dPolyline
 66
     1
 10
0.0
 20
0.0
 30
0.0
  0
VERTEX
  5
295
330
294
100
AcDbEntity
  8
STANDARDEBENE
 62
     7
100
AcDbVertex
100
AcDb2dVertex
 10
234.0568589367115
 20
129.1297579972315
 30
0.0
  0
VERTEX
  5
296
330
294
100
AcDbEntity
  8
STANDARDEBENE
 62
     7
100
AcDbVertex
100
AcDb2dVertex
 10
233.0994669013606
 20
129.3721204646188
 30
0.0
  0
SEQEND
  5
297
330
294
100
AcDbEntity
  8
STANDARDEBENE
  0
POLYLINE
  5
298
330
1F
100
AcDbEntity
  8
STANDARDEBENE
 62
     7
100
AcDb2dPolyline
 66
     1
 10
0.0
 20
0.0
 30
0.0
  0
VERTEX
  5
299
330
298
100
AcDbEntity
  8
STANDARDEBENE
 62
     7
100
AcDbVertex
100
AcDb2dVertex
 10
232.1222655669694
 20
129.4913207684084
 30
0.0
  0
VERTEX
  5
29A
330
298
100
AcDbEntity
  8
STANDARDEBENE
 62
     7
100
AcDbVertex
100
AcDb2dVertex
 10
231.6301336769015
 20
129.5321451499086
 30
0.0
  0
VERTEX
  5
29B
330
298
100
AcDbEntity
  8
STANDARDEBENE
 62
     7
100
AcDbVertex
100
AcDb2dVertex
 10
231.1383462963821
 20
129.4913207684084
 30
0.0
  0
SEQEND
  5
29C
330
298
100
AcDbEntity
  8
STANDARDEBENE
  0
POLYLINE
  5
29D
330
1F
100
AcDbEntity
  8
STANDARDEBENE
 62
     7
100
AcDb2dPolyline
 66
     1
 10
0.0
 20
0.0
 30
0.0
  0
VERTEX
  5
29E
330
29D
100
AcDbEntity
  8
STANDARDEBENE
 62
     7
100
AcDbVertex
100
AcDb2dVertex
 10
230.161144961991
 20
129.3721204646188
 30
0.0
  0
VERTEX
  5
29F
330
29D
100
AcDbEntity
  8
STANDARDEBENE
 62
     7
100
AcDbVertex
100
AcDb2dVertex
 10
229.20375292664
 20
129.1297579972315
 30
0.0
  0
SEQEND
  5
2A0
330
29D
100
AcDbEntity
  8
STANDARDEBENE
  0
POLYLINE
  5
2A1
330
1F
100
AcDbEntity
  8
STANDARDEBENE
 62
     7
100
AcDb2dPolyline
 66
     1
 10
0.0
 20
0.0
 30
0.0
  0
VERTEX
  5
2A2
330
2A1
100
AcDbEntity
  8
STANDARDEBENE
 62
     7
100
AcDbVertex
100
AcDb2dVertex
 10
228.2988985974392
 20
128.737017111913
 30
0.0
  0
VERTEX
  5
2A3
330
2A1
100
AcDbEntity
  8
STANDARDEBENE
 62
     7
100
AcDbVertex
100
AcDb2dVertex
 10
228.0367268310117
 20
128.6228121965769
 30
0.0
  0
VERTEX
  5
2A4
330
2A1
100
AcDbEntity
  8
STANDARDEBENE
 62
     7
100
AcDbVertex
100
AcDb2dVertex
 10
227.4493380507766
 20
128.2385117951973
 30
0.0
  0
SEQEND
  5
2A5
330
2A1
100
AcDbEntity
  8
STANDARDEBENE
  0
POLYLINE
  5
2A6
330
1F
100
AcDbEntity
  8
STANDARDEBENE
 62
     7
100
AcDb2dPolyline
 66
     1
 10
0.0
 20
0.0
 30
0.0
  0
VERTEX
  5
2A7
330
2A6
100
AcDbEntity
  8
STANDARDEBENE
 62
     7
100
AcDbVertex
100
AcDb2dVertex
 10
226.6679903947219
 20
127.6409599832807
 30
0.0
  0
VERTEX
  5
2A8
330
2A6
100
AcDbEntity
  8
STANDARDEBENE
 62
     7
100
AcDbVertex
100
AcDb2dVertex
 10
226.0756062260332
 20
127.0959458775142
 30
0.0
  0
VERTEX
  5
2A9
330
2A6
100
AcDbEntity
  8
STANDARDEBENE
 62
     7
100
AcDbVertex
100
AcDb2dVertex
 10
225.9638128775368
 20
126.9524576505536
 30
0.0
  0
SEQEND
  5
2AA
330
2A6
100
AcDbEntity
  8
STANDARDEBENE
  0
POLYLINE
  5
2AB
330
1F
100
AcDbEntity
  8
STANDARDEBENE
 62
     7
100
AcDb2dPolyline
 66
     1
 10
0.0
 20
0.0
 30
0.0
  0
VERTEX
  5
2AC
330
2AB
100
AcDbEntity
  8
STANDARDEBENE
 62
     7
100
AcDbVertex
100
AcDb2dVertex
 10
225.3578205816814
 20
126.1735215613386
 30
0.0
  0
VERTEX
  5
2AD
330
2AB
100
AcDbEntity
  8
STANDARDEBENE
 62
     7
100
AcDbVertex
100
AcDb2dVertex
 10
225.3094169901136
 20
126.1116820973783
 30
0.0
  0
VERTEX
  5
2AE
330
2AB
100
AcDbEntity
  8
STANDARDEBENE
 62
     7
100
AcDbVertex
100
AcDb2dVertex
 10
224.8768852519405
 20
125.3122476900261
 30
0.0
  0
SEQEND
  5
2AF
330
2AB
100
AcDbEntity
  8
STANDARDEBENE
  0
POLYLINE
  5
2B0
330
1F
100
AcDbEntity
  8
STANDARDEBENE
 62
     7
100
AcDb2dPolyline
 66
     1
 10
0.0
 20
0.0
 30
0.0
  0
VERTEX
  5
2B1
330
2B0
100
AcDbEntity
  8
STANDARDEBENE
 62
     7
100
AcDbVertex
100
AcDb2dVertex
 10
224.505159449082
 20
124.4010199341775
 30
0.0
  0
VERTEX
  5
2B2
330
2B0
100
AcDbEntity
  8
STANDARDEBENE
 62
     7
100
AcDbVertex
100
AcDb2dVertex
 10
224.3113728280368
 20
123.835679765048
 30
0.0
  0
VERTEX
  5
2B3
330
2B0
100
AcDbEntity
  8
STANDARDEBENE
 62
     7
100
AcDbVertex
100
AcDb2dVertex
 10
224.2471217972368
 20
123.4517238732169
 30
0.0
  0
SEQEND
  5
2B4
330
2B0
100
AcDbEntity
  8
STANDARDEBENE
  0
POLYLINE
  5
2B5
330
1F
100
AcDbEntity
  8
STANDARDEBENE
 62
     7
100
AcDb2dPolyline
 66
     1
 10
0.0
 20
0.0
 30
0.0
  0
VERTEX
  5
2B6
330
2B5
100
AcDbEntity
  8
STANDARDEBENE
 62
     7
100
AcDbVertex
100
AcDb2dVertex
 10
224.1060451371159
 20
122.4762450865684
 30
0.0
  0
VERTEX
  5
2B7
330
2B5
100
AcDbEntity
  8
STANDARDEBENE
 62
     7
100
AcDbVertex
100
AcDb2dVertex
 10
224.1060451371159
 20
121.4888807204958
 30
0.0
  0
SEQEND
  5
2B8
330
2B5
100
AcDbEntity
  8
STANDARDEBENE
  0
POLYLINE
  5
2B9
330
1F
100
AcDbEntity
  8
STANDARDEBENE
 62
     7
100
AcDb2dPolyline
 66
     1
 10
0.0
 20
0.0
 30
0.0
  0
VERTEX
  5
2BA
330
2B9
100
AcDbEntity
  8
STANDARDEBENE
 62
     7
100
AcDbVertex
100
AcDb2dVertex
 10
224.2471217972368
 20
120.5135741886216
 30
0.0
  0
VERTEX
  5
2BB
330
2B9
100
AcDbEntity
  8
STANDARDEBENE
 62
     7
100
AcDbVertex
100
AcDb2dVertex
 10
224.3113728280368
 20
120.129273787242
 30
0.0
  0
VERTEX
  5
2BC
330
2B9
100
AcDbEntity
  8
STANDARDEBENE
 62
     7
100
AcDbVertex
100
AcDb2dVertex
 10
224.505159449082
 20
119.5641058728868
 30
0.0
  0
SEQEND
  5
2BD
330
2B9
100
AcDbEntity
  8
STANDARDEBENE
  0
POLYLINE
  5
2BE
330
1F
100
AcDbEntity
  8
STANDARDEBENE
 62
     7
100
AcDb2dPolyline
 66
     1
 10
0.0
 20
0.0
 30
0.0
  0
VERTEX
  5
2BF
330
2BE
100
AcDbEntity
  8
STANDARDEBENE
 62
     7
100
AcDbVertex
100
AcDb2dVertex
 10
224.8768852519405
 20
118.6528781170382
 30
0.0
  0
VERTEX
  5
2C0
330
2BE
100
AcDbEntity
  8
STANDARDEBENE
 62
     7
100
AcDbVertex
100
AcDb2dVertex
 10
225.3094169901136
 20
117.8532714549117
 30
0.0
  0
VERTEX
  5
2C1
330
2BE
100
AcDbEntity
  8
STANDARDEBENE
 62
     7
100
AcDbVertex
100
AcDb2dVertex
 10
225.3578205816814
 20
117.7917765005
 30
0.0
  0
SEQEND
  5
2C2
330
2BE
100
AcDbEntity
  8
STANDARDEBENE
  0
POLYLINE
  5
2C3
330
1F
100
AcDbEntity
  8
STANDARDEBENE
 62
     7
100
AcDb2dPolyline
 66
     1
 10
0.0
 20
0.0
 30
0.0
  0
VERTEX
  5
2C4
330
2C3
100
AcDbEntity
  8
STANDARDEBENE
 62
     7
100
AcDbVertex
100
AcDb2dVertex
 10
225.9638128775368
 20
117.0121513921879
 30
0.0
  0
VERTEX
  5
2C5
330
2C3
100
AcDbEntity
  8
STANDARDEBENE
 62
     7
100
AcDbVertex
100
AcDb2dVertex
 10
226.0756062260332
 20
116.8693521843243
 30
0.0
  0
VERTEX
  5
2C6
330
2C3
100
AcDbEntity
  8
STANDARDEBENE
 62
     7
100
AcDbVertex
100
AcDb2dVertex
 10
226.6679903947219
 20
116.3233045499122
 30
0.0
  0
SEQEND
  5
2C7
330
2C3
100
AcDbEntity
  8
STANDARDEBENE
  0
POLYLINE
  5
2C8
330
1F
100
AcDbEntity
  8
STANDARDEBENE
 62
     7
100
AcDb2dPolyline
 66
     1
 10
0.0
 20
0.0
 30
0.0
  0
VERTEX
  5
2C9
330
2C8
100
AcDbEntity
  8
STANDARDEBENE
 62
     7
100
AcDbVertex
100
AcDb2dVertex
 10
227.4493380507766
 20
115.7262695023184
 30
0.0
  0
VERTEX
  5
2CA
330
2C8
100
AcDbEntity
  8
STANDARDEBENE
 62
     7
100
AcDbVertex
100
AcDb2dVertex
 10
228.0367268310117
 20
115.3424858652616
 30
0.0
  0
VERTEX
  5
2CB
330
2C8
100
AcDbEntity
  8
STANDARDEBENE
 62
     7
100
AcDbVertex
100
AcDb2dVertex
 10
228.2988985974392
 20
115.2274196760543
 30
0.0
  0
SEQEND
  5
2CC
330
2C8
100
AcDbEntity
  8
STANDARDEBENE
  0
POLYLINE
  5
2CD
330
1F
100
AcDbEntity
  8
STANDARDEBENE
 62
     7
100
AcDb2dPolyline
 66
     1
 10
0.0
 20
0.0
 30
0.0
  0
VERTEX
  5
2CE
330
2CD
100
AcDbEntity
  8
STANDARDEBENE
 62
     7
100
AcDbVertex
100
AcDb2dVertex
 10
229.20375292664
 20
114.8351955550586
 30
0.0
  0
VERTEX
  5
2CF
330
2CD
100
AcDbEntity
  8
STANDARDEBENE
 62
     7
100
AcDbVertex
100
AcDb2dVertex
 10
230.161144961991
 20
114.5928330876712
 30
0.0
  0
SEQEND
  5
2D0
330
2CD
100
AcDbEntity
  8
STANDARDEBENE
  0
POLYLINE
  5
2D1
330
1F
100
AcDbEntity
  8
STANDARDEBENE
 62
     7
100
AcDb2dPolyline
 66
     1
 10
0.0
 20
0.0
 30
0.0
  0
VERTEX
  5
2D2
330
2D1
100
AcDbEntity
  8
STANDARDEBENE
 62
     7
100
AcDbVertex
100
AcDb2dVertex
 10
231.1383462963821
 20
114.4729437647845
 30
0.0
  0
VERTEX
  5
2D3
330
2D1
100
AcDbEntity
  8
STANDARDEBENE
 62
     7
100
AcDbVertex
100
AcDb2dVertex
 10
231.6301336769015
 20
114.4322916380586
 30
0.0
  0
SEQEND
  5
2D4
330
2D1
100
AcDbEntity
  8
STANDARDEBENE
  0
SPLINE
  5
2D5
330
1F
100
AcDbEntity
  8
STANDARDEBENE
 62
     7
100
AcDbSpline
210
0.0
220
0.0
230
1.0
 70
     8
 71
     3
 72
    17
 73
    13
 74
     0
 42
0.0000000001
 43
0.0000000001
 40
0.0
 40
0.0
 40
0.0
 40
0.0
 40
1.0
 40
1.0
 40
1.0
 40
2.0
 40
2.0
 40
2.0
 40
3.0
 40
3.0
 40
3.0
 40
4.0
 40
4.0
 40
4.0
 40
4.0
 10
233.8010605969317
 20
130.0833604275486
 30
0.0
 10
233.0550251696008
 20
130.2833482204674
 30
0.0
 10
232.3064059206561
 20
130.3755045246978
 30
0.0
 10
231.6301336769015
 20
130.3686143337273
 30
0.0
 10
226.9985473065316
 20
130.3686143337273
 30
0.0
 10
223.2435654823836
 20
126.6144937834506
 30
0.0
 10
223.2435654823836
 20
121.9825629035321
 30
0.0
 10
223.2435654823836
 20
117.350804278388
 30
0.0
 10
226.9985473065316
 20
113.5958224542399
 30
0.0
 10
231.6301336769015
 20
113.5958224542399
 30
0.0
 10
235.4901909133497
 20
113.5958224542399
 30
0.0
 10
238.7408107584572
 20
116.2032429722513
 30
0.0
 10
239.730931200918
 20
119.8121527478247
 30
0.0
  0
POLYLINE
  5
2D6
330
1F
100
AcDbEntity
  8
STANDARDEBENE
 62
     7
100
AcDb2dPolyline
 66
     1
 10
0.0
 20
0.0
 30
0.0
  0
VERTEX
  5
2D7
330
2D6
100
AcDbEntity
  8
STANDARDEBENE
 62
     7
100
AcDbVertex
100
AcDb2dVertex
 10
231.6301336769015
 20
115.9824123516468
 30
0.0
  0
VERTEX
  5
2D8
330
2D6
100
AcDbEntity
  8
STANDARDEBENE
 62
     7
100
AcDbVertex
100
AcDb2dVertex
 10
231.136968258188
 20
116.0282321216006
 30
0.0
  0
SEQEND
  5
2D9
330
2D6
100
AcDbEntity
  8
STANDARDEBENE
  0
POLYLINE
  5
2DA
330
1F
100
AcDbEntity
  8
STANDARDEBENE
 62
     7
100
AcDb2dPolyline
 66
     1
 10
0.0
 20
0.0
 30
0.0
  0
VERTEX
  5
2DB
330
2DA
100
AcDbEntity
  8
STANDARDEBENE
 62
     7
100
AcDbVertex
100
AcDb2dVertex
 10
230.1633842740564
 20
116.1880845521162
 30
0.0
  0
VERTEX
  5
2DC
330
2DA
100
AcDbEntity
  8
STANDARDEBENE
 62
     7
100
AcDbVertex
100
AcDb2dVertex
 10
229.4626518523566
 20
116.3877278354864
 30
0.0
  0
VERTEX
  5
2DD
330
2DA
100
AcDbEntity
  8
STANDARDEBENE
 62
     7
100
AcDbVertex
100
AcDb2dVertex
 10
229.2283853593596
 20
116.5045165724364
 30
0.0
  0
SEQEND
  5
2DE
330
2DA
100
AcDbEntity
  8
STANDARDEBENE
  0
POLYLINE
  5
2DF
330
1F
100
AcDbEntity
  8
STANDARDEBENE
 62
     7
100
AcDb2dPolyline
 66
     1
 10
0.0
 20
0.0
 30
0.0
  0
VERTEX
  5
2E0
330
2DF
100
AcDbEntity
  8
STANDARDEBENE
 62
     7
100
AcDbVertex
100
AcDb2dVertex
 10
228.3553981633973
 20
116.9690876986223
 30
0.0
  0
VERTEX
  5
2E1
330
2DF
100
AcDbEntity
  8
STANDARDEBENE
 62
     7
100
AcDbVertex
100
AcDb2dVertex
 10
227.5883476536064
 20
117.5480359949185
 30
0.0
  0
VERTEX
  5
2E2
330
2DF
100
AcDbEntity
  8
STANDARDEBENE
 62
     7
100
AcDbVertex
100
AcDb2dVertex
 10
227.5681938450177
 20
117.5699123512499
 30
0.0
  0
SEQEND
  5
2E3
330
2DF
100
AcDbEntity
  8
STANDARDEBENE
  0
POLYLINE
  5
2E4
330
1F
100
AcDbEntity
  8
STANDARDEBENE
 62
     7
100
AcDb2dPolyline
 66
     1
 10
0.0
 20
0.0
 30
0.0
  0
VERTEX
  5
2E5
330
2E4
100
AcDbEntity
  8
STANDARDEBENE
 62
     7
100
AcDbVertex
100
AcDb2dVertex
 10
226.9012233590733
 20
118.3021673966397
 30
0.0
  0
VERTEX
  5
2E6
330
2E4
100
AcDbEntity
  8
STANDARDEBENE
 62
     7
100
AcDbVertex
100
AcDb2dVertex
 10
226.8423122262755
 20
118.3669351917624
 30
0.0
  0
VERTEX
  5
2E7
330
2E4
100
AcDbEntity
  8
STANDARDEBENE
 62
     7
100
AcDbVertex
100
AcDb2dVertex
 10
226.3663722849883
 20
119.1348469754246
 30
0.0
  0
SEQEND
  5
2E8
330
2E4
100
AcDbEntity
  8
STANDARDEBENE
  0
POLYLINE
  5
2E9
330
1F
100
AcDbEntity
  8
STANDARDEBENE
 62
     7
100
AcDb2dPolyline
 66
     1
 10
0.0
 20
0.0
 30
0.0
  0
VERTEX
  5
2EA
330
2E9
100
AcDbEntity
  8
STANDARDEBENE
 62
     7
100
AcDbVertex
100
AcDb2dVertex
 10
225.9755262021867
 20
120.0414238523681
 30
0.0
  0
VERTEX
  5
2EB
330
2E9
100
AcDbEntity
  8
STANDARDEBENE
 62
     7
100
AcDbVertex
100
AcDb2dVertex
 10
225.8590819747852
 20
120.3406303952621
 30
0.0
  0
VERTEX
  5
2EC
330
2E9
100
AcDbEntity
  8
STANDARDEBENE
 62
     7
100
AcDbVertex
100
AcDb2dVertex
 10
225.7362643207361
 20
120.9993326520418
 30
0.0
  0
SEQEND
  5
2ED
330
2E9
100
AcDbEntity
  8
STANDARDEBENE
  0
POLYLINE
  5
2EE
330
1F
100
AcDbEntity
  8
STANDARDEBENE
 62
     7
100
AcDb2dPolyline
 66
     1
 10
0.0
 20
0.0
 30
0.0
  0
VERTEX
  5
2EF
330
2EE
100
AcDbEntity
  8
STANDARDEBENE
 62
     7
100
AcDbVertex
100
AcDb2dVertex
 10
225.656165850704
 20
121.9825629035321
 30
0.0
  0
VERTEX
  5
2F0
330
2EE
100
AcDbEntity
  8
STANDARDEBENE
 62
     7
100
AcDbVertex
100
AcDb2dVertex
 10
225.656165850704
 20
122.5358452384633
 30
0.0
  0
VERTEX
  5
2F1
330
2EE
100
AcDbEntity
  8
STANDARDEBENE
 62
     7
100
AcDbVertex
100
AcDb2dVertex
 10
225.7362643207361
 20
122.9659654097967
 30
0.0
  0
SEQEND
  5
2F2
330
2EE
100
AcDbEntity
  8
STANDARDEBENE
  0
POLYLINE
  5
2F3
330
1F
100
AcDbEntity
  8
STANDARDEBENE
 62
     7
100
AcDb2dPolyline
 66
     1
 10
0.0
 20
0.0
 30
0.0
  0
VERTEX
  5
2F4
330
2F3
100
AcDbEntity
  8
STANDARDEBENE
 62
     7
100
AcDbVertex
100
AcDb2dVertex
 10
225.9755262021867
 20
123.9231851903734
 30
0.0
  0
VERTEX
  5
2F5
330
2F3
100
AcDbEntity
  8
STANDARDEBENE
 62
     7
100
AcDbVertex
100
AcDb2dVertex
 10
226.2590575606228
 20
124.6571627835059
 30
0.0
  0
VERTEX
  5
2F6
330
2F3
100
AcDbEntity
  8
STANDARDEBENE
 62
     7
100
AcDbVertex
100
AcDb2dVertex
 10
226.3663722849883
 20
124.8304510864139
 30
0.0
  0
SEQEND
  5
2F7
330
2F3
100
AcDbEntity
  8
STANDARDEBENE
  0
POLYLINE
  5
2F8
330
1F
100
AcDbEntity
  8
STANDARDEBENE
 62
     7
100
AcDb2dPolyline
 66
     1
 10
0.0
 20
0.0
 30
0.0
  0
VERTEX
  5
2F9
330
2F8
100
AcDbEntity
  8
STANDARDEBENE
 62
     7
100
AcDbVertex
100
AcDb2dVertex
 10
226.9012233590733
 20
125.6629584104246
 30
0.0
  0
VERTEX
  5
2FA
330
2F8
100
AcDbEntity
  8
STANDARDEBENE
 62
     7
100
AcDbVertex
100
AcDb2dVertex
 10
227.5681938450177
 20
126.3946966914916
 30
0.0
  0
SEQEND
  5
2FB
330
2F8
100
AcDbEntity
  8
STANDARDEBENE
  0
POLYLINE
  5
2FC
330
1F
100
AcDbEntity
  8
STANDARDEBENE
 62
     7
100
AcDb2dPolyline
 66
     1
 10
0.0
 20
0.0
 30
0.0
  0
VERTEX
  5
2FD
330
2FC
100
AcDbEntity
  8
STANDARDEBENE
 62
     7
100
AcDbVertex
100
AcDb2dVertex
 10
228.3553981633973
 20
126.9962103632162
 30
0.0
  0
VERTEX
  5
2FE
330
2FC
100
AcDbEntity
  8
STANDARDEBENE
 62
     7
100
AcDbVertex
100
AcDb2dVertex
 10
228.4716701360244
 20
127.0840602980901
 30
0.0
  0
VERTEX
  5
2FF
330
2FC
100
AcDbEntity
  8
STANDARDEBENE
 62
     7
100
AcDbVertex
100
AcDb2dVertex
 10
229.2283853593596
 20
127.4599202155309
 30
0.0
  0
SEQEND
  5
300
330
2FC
100
AcDbEntity
  8
STANDARDEBENE
  0
POLYLINE
  5
301
330
1F
100
AcDbEntity
  8
STANDARDEBENE
 62
     7
100
AcDb2dPolyline
 66
     1
 10
0.0
 20
0.0
 30
0.0
  0
VERTEX
  5
302
330
301
100
AcDbEntity
  8
STANDARDEBENE
 62
     7
100
AcDbVertex
100
AcDb2dVertex
 10
230.1633842740564
 20
127.7765244906253
 30
0.0
  0
VERTEX
  5
303
330
301
100
AcDbEntity
  8
STANDARDEBENE
 62
     7
100
AcDbVertex
100
AcDb2dVertex
 10
230.5277031216216
 20
127.8802218647313
 30
0.0
  0
VERTEX
  5
304
330
301
100
AcDbEntity
  8
STANDARDEBENE
 62
     7
100
AcDbVertex
100
AcDb2dVertex
 10
231.136968258188
 20
127.9367214306894
 30
0.0
  0
SEQEND
  5
305
330
301
100
AcDbEntity
  8
STANDARDEBENE
  0
POLYLINE
  5
306
330
1F
100
AcDbEntity
  8
STANDARDEBENE
 62
     7
100
AcDb2dPolyline
 66
     1
 10
0.0
 20
0.0
 30
0.0
  0
VERTEX
  5
307
330
306
100
AcDbEntity
  8
STANDARDEBENE
 62
     7
100
AcDbVertex
100
AcDb2dVertex
 10
232.1236436051636
 20
127.9367214306894
 30
0.0
  0
VERTEX
  5
308
330
306
100
AcDbEntity
  8
STANDARDEBENE
 62
     7
100
AcDbVertex
100
AcDb2dVertex
 10
232.7325642321815
 20
127.8802218647313
 30
0.0
  0
VERTEX
  5
309
330
306
100
AcDbEntity
  8
STANDARDEBENE
 62
     7
100
AcDbVertex
100
AcDb2dVertex
 10
233.0973998440694
 20
127.7765244906253
 30
0.0
  0
SEQEND
  5
30A
330
306
100
AcDbEntity
  8
STANDARDEBENE
  0
POLYLINE
  5
30B
330
1F
100
AcDbEntity
  8
STANDARDEBENE
 62
     7
100
AcDb2dPolyline
 66
     1
 10
0.0
 20
0.0
 30
0.0
  0
VERTEX
  5
30C
330
30B
100
AcDbEntity
  8
STANDARDEBENE
 62
     7
100
AcDbVertex
100
AcDb2dVertex
 10
234.032226503992
 20
127.4599202155309
 30
0.0
  0
VERTEX
  5
30D
330
30B
100
AcDbEntity
  8
STANDARDEBENE
 62
     7
100
AcDbVertex
100
AcDb2dVertex
 10
234.7885972177785
 20
127.0840602980901
 30
0.0
  0
VERTEX
  5
30E
330
30B
100
AcDbEntity
  8
STANDARDEBENE
 62
     7
100
AcDbVertex
100
AcDb2dVertex
 10
234.9053859547285
 20
126.9962103632162
 30
0.0
  0
SEQEND
  5
30F
330
30B
100
AcDbEntity
  8
STANDARDEBENE
  0
POLYLINE
  5
310
330
1F
100
AcDbEntity
  8
STANDARDEBENE
 62
     7
100
AcDb2dPolyline
 66
     1
 10
0.0
 20
0.0
 30
0.0
  0
VERTEX
  5
311
330
310
100
AcDbEntity
  8
STANDARDEBENE
 62
     7
100
AcDbVertex
100
AcDb2dVertex
 10
235.6924180183339
 20
126.3946966914916
 30
0.0
  0
VERTEX
  5
312
330
310
100
AcDbEntity
  8
STANDARDEBENE
 62
     7
100
AcDbVertex
100
AcDb2dVertex
 10
236.3595607590525
 20
125.6629584104246
 30
0.0
  0
SEQEND
  5
313
330
310
100
AcDbEntity
  8
STANDARDEBENE
  0
POLYLINE
  5
314
330
1F
100
AcDbEntity
  8
STANDARDEBENE
 62
     7
100
AcDb2dPolyline
 66
     1
 10
0.0
 20
0.0
 30
0.0
  0
VERTEX
  5
315
330
314
100
AcDbEntity
  8
STANDARDEBENE
 62
     7
100
AcDbVertex
100
AcDb2dVertex
 10
236.8935505592662
 20
124.8304510864139
 30
0.0
  0
VERTEX
  5
316
330
314
100
AcDbEntity
  8
STANDARDEBENE
 62
     7
100
AcDbVertex
100
AcDb2dVertex
 10
237.0015543027288
 20
124.6571627835059
 30
0.0
  0
VERTEX
  5
317
330
314
100
AcDbEntity
  8
STANDARDEBENE
 62
     7
100
AcDbVertex
100
AcDb2dVertex
 10
237.2850856611649
 20
123.9231851903734
 30
0.0
  0
SEQEND
  5
318
330
314
100
AcDbEntity
  8
STANDARDEBENE
  0
POLYLINE
  5
319
330
1F
100
AcDbEntity
  8
STANDARDEBENE
 62
     7
100
AcDb2dPolyline
 66
     1
 10
0.0
 20
0.0
 30
0.0
  0
VERTEX
  5
31A
330
319
100
AcDbEntity
  8
STANDARDEBENE
 62
     7
100
AcDbVertex
100
AcDb2dVertex
 10
237.5243475426155
 20
122.9659654097967
 30
0.0
  0
VERTEX
  5
31B
330
319
100
AcDbEntity
  8
STANDARDEBENE
 62
     7
100
AcDbVertex
100
AcDb2dVertex
 10
237.604790522196
 20
122.5358452384633
 30
0.0
  0
VERTEX
  5
31C
330
319
100
AcDbEntity
  8
STANDARDEBENE
 62
     7
100
AcDbVertex
100
AcDb2dVertex
 10
237.604790522196
 20
121.9825629035321
 30
0.0
  0
SEQEND
  5
31D
330
319
100
AcDbEntity
  8
STANDARDEBENE
  0
POLYLINE
  5
31E
330
1F
100
AcDbEntity
  8
STANDARDEBENE
 62
     7
100
AcDb2dPolyline
 66
     1
 10
0.0
 20
0.0
 30
0.0
  0
VERTEX
  5
31F
330
31E
100
AcDbEntity
  8
STANDARDEBENE
 62
     7
100
AcDbVertex
100
AcDb2dVertex
 10
237.5243475426155
 20
120.9993326520418
 30
0.0
  0
VERTEX
  5
320
330
31E
100
AcDbEntity
  8
STANDARDEBENE
 62
     7
100
AcDbVertex
100
AcDb2dVertex
 10
237.4011853790178
 20
120.3406303952621
 30
0.0
  0
VERTEX
  5
321
330
31E
100
AcDbEntity
  8
STANDARDEBENE
 62
     7
100
AcDbVertex
100
AcDb2dVertex
 10
237.2850856611649
 20
120.0414238523681
 30
0.0
  0
SEQEND
  5
322
330
31E
100
AcDbEntity
  8
STANDARDEBENE
  0
POLYLINE
  5
323
330
1F
100
AcDbEntity
  8
STANDARDEBENE
 62
     7
100
AcDb2dPolyline
 66
     1
 10
0.0
 20
0.0
 30
0.0
  0
VERTEX
  5
324
330
323
100
AcDbEntity
  8
STANDARDEBENE
 62
     7
100
AcDbVertex
100
AcDb2dVertex
 10
236.8935505592662
 20
119.1348469754246
 30
0.0
  0
VERTEX
  5
325
330
323
100
AcDbEntity
  8
STANDARDEBENE
 62
     7
100
AcDbVertex
100
AcDb2dVertex
 10
236.4179551275275
 20
118.3669351917624
 30
0.0
  0
VERTEX
  5
326
330
323
100
AcDbEntity
  8
STANDARDEBENE
 62
     7
100
AcDbVertex
100
AcDb2dVertex
 10
236.3595607590525
 20
118.3021673966397
 30
0.0
  0
SEQEND
  5
327
330
323
100
AcDbEntity
  8
STANDARDEBENE
  0
POLYLINE
  5
328
330
1F
100
AcDbEntity
  8
STANDARDEBENE
 62
     7
100
AcDb2dPolyline
 66
     1
 10
0.0
 20
0.0
 30
0.0
  0
VERTEX
  5
329
330
328
100
AcDbEntity
  8
STANDARDEBENE
 62
     7
100
AcDbVertex
100
AcDb2dVertex
 10
235.6924180183339
 20
117.5699123512499
 30
0.0
  0
VERTEX
  5
32A
330
328
100
AcDbEntity
  8
STANDARDEBENE
 62
     7
100
AcDbVertex
100
AcDb2dVertex
 10
235.6722642097452
 20
117.5480359949185
 30
0.0
  0
VERTEX
  5
32B
330
328
100
AcDbEntity
  8
STANDARDEBENE
 62
     7
100
AcDbVertex
100
AcDb2dVertex
 10
234.9053859547285
 20
116.9690876986223
 30
0.0
  0
SEQEND
  5
32C
330
328
100
AcDbEntity
  8
STANDARDEBENE
  0
POLYLINE
  5
32D
330
1F
100
AcDbEntity
  8
STANDARDEBENE
 62
     7
100
AcDb2dPolyline
 66
     1
 10
0.0
 20
0.0
 30
0.0
  0
VERTEX
  5
32E
330
32D
100
AcDbEntity
  8
STANDARDEBENE
 62
     7
100
AcDbVertex
100
AcDb2dVertex
 10
234.032226503992
 20
116.5045165724364
 30
0.0
  0
VERTEX
  5
32F
330
32D
100
AcDbEntity
  8
STANDARDEBENE
 62
     7
100
AcDbVertex
100
AcDb2dVertex
 10
233.797960010995
 20
116.3877278354864
 30
0.0
  0
VERTEX
  5
330
330
32D
100
AcDbEntity
  8
STANDARDEBENE
 62
     7
100
AcDbVertex
100
AcDb2dVertex
 10
233.0973998440694
 20
116.1880845521162
 30
0.0
  0
SEQEND
  5
331
330
32D
100
AcDbEntity
  8
STANDARDEBENE
  0
POLYLINE
  5
332
330
1F
100
AcDbEntity
  8
STANDARDEBENE
 62
     7
100
AcDb2dPolyline
 66
     1
 10
0.0
 20
0.0
 30
0.0
  0
VERTEX
  5
333
330
332
100
AcDbEntity
  8
STANDARDEBENE
 62
     7
100
AcDbVertex
100
AcDb2dVertex
 10
232.1236436051636
 20
116.0282321216006
 30
0.0
  0
VERTEX
  5
334
330
332
100
AcDbEntity
  8
STANDARDEBENE
 62
     7
100
AcDbVertex
100
AcDb2dVertex
 10
231.6301336769015
 20
115.9824123516468
 30
0.0
  0
SEQEND
  5
335
330
332
100
AcDbEntity
  8
STANDARDEBENE
  0
POLYLINE
  5
336
330
1F
100
AcDbEntity
  8
STANDARDEBENE
 62
     7
100
AcDb2dPolyline
 66
     1
 10
0.0
 20
0.0
 30
0.0
  0
VERTEX
  5
337
330
336
100
AcDbEntity
  8
STANDARDEBENE
 62
     7
100
AcDbVertex
100
AcDb2dVertex
 10
222.7174994017859
 20
120.7325100067092
 30
0.0
  0
VERTEX
  5
338
330
336
100
AcDbEntity
  8
STANDARDEBENE
 62
     7
100
AcDbVertex
100
AcDb2dVertex
 10
223.0978379433575
 20
120.7325100067092
 30
0.0
  0
SEQEND
  5
339
330
336
100
AcDbEntity
  8
STANDARDEBENE
  0
POLYLINE
  5
33A
330
1F
100
AcDbEntity
  8
STANDARDEBENE
 62
     7
100
AcDb2dPolyline
 66
     1
 10
0.0
 20
0.0
 30
0.0
  0
VERTEX
  5
33B
330
33A
100
AcDbEntity
  8
STANDARDEBENE
 62
     7
100
AcDbVertex
100
AcDb2dVertex
 10
223.8592040455977
 20
120.7325100067092
 30
0.0
  0
VERTEX
  5
33C
330
33A
100
AcDbEntity
  8
STANDARDEBENE
 62
     7
100
AcDbVertex
100
AcDb2dVertex
 10
224.6203978930637
 20
120.7325100067092
 30
0.0
  0
SEQEND
  5
33D
330
33A
100
AcDbEntity
  8
STANDARDEBENE
  0
POLYLINE
  5
33E
330
1F
100
AcDbEntity
  8
STANDARDEBENE
 62
     7
100
AcDb2dPolyline
 66
     1
 10
0.0
 20
0.0
 30
0.0
  0
VERTEX
  5
33F
330
33E
100
AcDbEntity
  8
STANDARDEBENE
 62
     7
100
AcDbVertex
100
AcDb2dVertex
 10
225.3814194857553
 20
120.7325100067092
 30
0.0
  0
VERTEX
  5
340
330
33E
100
AcDbEntity
  8
STANDARDEBENE
 62
     7
100
AcDbVertex
100
AcDb2dVertex
 10
225.7621025368755
 20
120.7325100067092
 30
0.0
  0
SEQEND
  5
341
330
33E
100
AcDbEntity
  8
STANDARDEBENE
  0
POLYLINE
  5
342
330
1F
100
AcDbEntity
  8
STANDARDEBENE
 62
     7
100
AcDb2dPolyline
 66
     1
 10
0.0
 20
0.0
 30
0.0
  0
VERTEX
  5
343
330
342
100
AcDbEntity
  8
STANDARDEBENE
 62
     7
100
AcDbVertex
100
AcDb2dVertex
 10
240.5431124615656
 20
123.2327880551293
 30
0.0
  0
VERTEX
  5
344
330
342
100
AcDbEntity
  8
STANDARDEBENE
 62
     7
100
AcDbVertex
100
AcDb2dVertex
 10
240.162773919994
 20
123.2327880551293
 30
0.0
  0
SEQEND
  5
345
330
342
100
AcDbEntity
  8
STANDARDEBENE
  0
POLYLINE
  5
346
330
1F
100
AcDbEntity
  8
STANDARDEBENE
 62
     7
100
AcDb2dPolyline
 66
     1
 10
0.0
 20
0.0
 30
0.0
  0
VERTEX
  5
347
330
346
100
AcDbEntity
  8
STANDARDEBENE
 62
     7
100
AcDbVertex
100
AcDb2dVertex
 10
239.4014078177538
 20
123.2327880551293
 30
0.0
  0
VERTEX
  5
348
330
346
100
AcDbEntity
  8
STANDARDEBENE
 62
     7
100
AcDbVertex
100
AcDb2dVertex
 10
238.6402139702879
 20
123.2327880551293
 30
0.0
  0
SEQEND
  5
349
330
346
100
AcDbEntity
  8
STANDARDEBENE
  0
POLYLINE
  5
34A
330
1F
100
AcDbEntity
  8
STANDARDEBENE
 62
     7
100
AcDb2dPolyline
 66
     1
 10
0.0
 20
0.0
 30
0.0
  0
VERTEX
  5
34B
330
34A
100
AcDbEntity
  8
STANDARDEBENE
 62
     7
100
AcDbVertex
100
AcDb2dVertex
 10
237.8788478680477
 20
123.2327880551293
 30
0.0
  0
VERTEX
  5
34C
330
34A
100
AcDbEntity
  8
STANDARDEBENE
 62
     7
100
AcDbVertex
100
AcDb2dVertex
 10
237.4986815812503
 20
123.2327880551293
 30
0.0
  0
SEQEND
  5
34D
330
34A
100
AcDbEntity
  8
STANDARDEBENE
  0
POLYLINE
  5
34E
330
1F
100
AcDbEntity
  8
STANDARDEBENE
 62
     7
100
AcDb2dPolyline
 66
     1
 10
0.0
 20
0.0
 30
0.0
  0
VERTEX
  5
34F
330
34E
100
AcDbEntity
  8
STANDARDEBENE
 62
     7
100
AcDbVertex
100
AcDb2dVertex
 10
240.5431124615656
 20
120.7325100067092
 30
0.0
  0
VERTEX
  5
350
330
34E
100
AcDbEntity
  8
STANDARDEBENE
 62
     7
100
AcDbVertex
100
AcDb2dVertex
 10
240.162773919994
 20
120.7325100067092
 30
0.0
  0
SEQEND
  5
351
330
34E
100
AcDbEntity
  8
STANDARDEBENE
  0
POLYLINE
  5
352
330
1F
100
AcDbEntity
  8
STANDARDEBENE
 62
     7
100
AcDb2dPolyline
 66
     1
 10
0.0
 20
0.0
 30
0.0
  0
VERTEX
  5
353
330
352
100
AcDbEntity
  8
STANDARDEBENE
 62
     7
100
AcDbVertex
100
AcDb2dVertex
 10
239.4014078177538
 20
120.7325100067092
 30
0.0
  0
VERTEX
  5
354
330
352
100
AcDbEntity
  8
STANDARDEBENE
 62
     7
100
AcDbVertex
100
AcDb2dVertex
 10
238.6402139702879
 20
120.7325100067092
 30
0.0
  0
SEQEND
  5
355
330
352
100
AcDbEntity
  8
STANDARDEBENE
  0
POLYLINE
  5
356
330
1F
100
AcDbEntity
  8
STANDARDEBENE
 62
     7
100
AcDb2dPolyline
 66
     1
 10
0.0
 20
0.0
 30
0.0
  0
VERTEX
  5
357
330
356
100
AcDbEntity
  8
STANDARDEBENE
 62
     7
100
AcDbVertex
100
AcDb2dVertex
 10
237.8788478680477
 20
120.7325100067092
 30
0.0
  0
VERTEX
  5
358
330
356
100
AcDbEntity
  8
STANDARDEBENE
 62
     7
100
AcDbVertex
100
AcDb2dVertex
 10
237.4986815812503
 20
120.7325100067092
 30
0.0
  0
SEQEND
  5
359
330
356
100
AcDbEntity
  8
STANDARDEBENE
  0
POLYLINE
  5
35A
330
1F
100
AcDbEntity
  8
STANDARDEBENE
 62
     7
100
AcDb2dPolyline
 66
     1
 10
0.0
 20
0.0
 30
0.0
  0
VERTEX
  5
35B
330
35A
100
AcDbEntity
  8
STANDARDEBENE
 62
     7
100
AcDbVertex
100
AcDb2dVertex
 10
222.7174994017859
 20
123.2327880551293
 30
0.0
  0
VERTEX
  5
35C
330
35A
100
AcDbEntity
  8
STANDARDEBENE
 62
     7
100
AcDbVertex
100
AcDb2dVertex
 10
223.0978379433575
 20
123.2327880551293
 30
0.0
  0
SEQEND
  5
35D
330
35A
100
AcDbEntity
  8
STANDARDEBENE
  0
POLYLINE
  5
35E
330
1F
100
AcDbEntity
  8
STANDARDEBENE
 62
     7
100
AcDb2dPolyline
 66
     1
 10
0.0
 20
0.0
 30
0.0
  0
VERTEX
  5
35F
330
35E
100
AcDbEntity
  8
STANDARDEBENE
 62
     7
100
AcDbVertex
100
AcDb2dVertex
 10
223.8592040455977
 20
123.2327880551293
 30
0.0
  0
VERTEX
  5
360
330
35E
100
AcDbEntity
  8
STANDARDEBENE
 62
     7
100
AcDbVertex
100
AcDb2dVertex
 10
224.6203978930637
 20
123.2327880551293
 30
0.0
  0
SEQEND
  5
361
330
35E
100
AcDbEntity
  8
STANDARDEBENE
  0
POLYLINE
  5
362
330
1F
100
AcDbEntity
  8
STANDARDEBENE
 62
     7
100
AcDb2dPolyline
 66
     1
 10
0.0
 20
0.0
 30
0.0
  0
VERTEX
  5
363
330
362
100
AcDbEntity
  8
STANDARDEBENE
 62
     7
100
AcDbVertex
100
AcDb2dVertex
 10
225.3814194857553
 20
123.2327880551293
 30
0.0
  0
VERTEX
  5
364
330
362
100
AcDbEntity
  8
STANDARDEBENE
 62
     7
100
AcDbVertex
100
AcDb2dVertex
 10
225.7621025368755
 20
123.2327880551293
 30
0.0
  0
SEQEND
  5
365
330
362
100
AcDbEntity
  8
STANDARDEBENE
  0
POLYLINE
  5
366
330
1F
100
AcDbEntity
  8
STANDARDEBENE
 62
     7
100
AcDb2dPolyline
 66
     1
 10
0.0
 20
0.0
 30
0.0
  0
VERTEX
  5
367
330
366
100
AcDbEntity
  8
STANDARDEBENE
 62
     7
100
AcDbVertex
100
AcDb2dVertex
 10
231.6301336769015
 20
127.7820366434017
 30
0.0
  0
VERTEX
  5
368
330
366
100
AcDbEntity
  8
STANDARDEBENE
 62
     7
100
AcDbVertex
100
AcDb2dVertex
 10
231.127149736055
 20
127.7341498161567
 30
0.0
  0
SEQEND
  5
369
330
366
100
AcDbEntity
  8
STANDARDEBENE
  0
POLYLINE
  5
36A
330
1F
100
AcDbEntity
  8
STANDARDEBENE
 62
     7
100
AcDb2dPolyline
 66
     1
 10
0.0
 20
0.0
 30
0.0
  0
VERTEX
  5
36B
330
36A
100
AcDbEntity
  8
STANDARDEBENE
 62
     7
100
AcDbVertex
100
AcDb2dVertex
 10
230.1361680197229
 20
127.5612060227972
 30
0.0
  0
VERTEX
  5
36C
330
36A
100
AcDbEntity
  8
STANDARDEBENE
 62
     7
100
AcDbVertex
100
AcDb2dVertex
 10
229.4747096865549
 20
127.3672471469776
 30
0.0
  0
VERTEX
  5
36D
330
36A
100
AcDbEntity
  8
STANDARDEBENE
 62
     7
100
AcDbVertex
100
AcDb2dVertex
 10
229.188594506505
 20
127.2197970602089
 30
0.0
  0
SEQEND
  5
36E
330
36A
100
AcDbEntity
  8
STANDARDEBENE
  0
POLYLINE
  5
36F
330
1F
100
AcDbEntity
  8
STANDARDEBENE
 62
     7
100
AcDb2dPolyline
 66
     1
 10
0.0
 20
0.0
 30
0.0
  0
VERTEX
  5
370
330
36F
100
AcDbEntity
  8
STANDARDEBENE
 62
     7
100
AcDbVertex
100
AcDb2dVertex
 10
228.3140570175743
 20
126.7199137052992
 30
0.0
  0
VERTEX
  5
371
330
36F
100
AcDbEntity
  8
STANDARDEBENE
 62
     7
100
AcDbVertex
100
AcDb2dVertex
 10
227.627449487364
 20
126.1800672427605
 30
0.0
  0
VERTEX
  5
372
330
36F
100
AcDbEntity
  8
STANDARDEBENE
 62
     7
100
AcDbVertex
100
AcDb2dVertex
 10
227.537532495199
 20
126.0756808495575
 30
0.0
  0
SEQEND
  5
373
330
36F
100
AcDbEntity
  8
STANDARDEBENE
  0
POLYLINE
  5
374
330
1F
100
AcDbEntity
  8
STANDARDEBENE
 62
     7
100
AcDb2dPolyline
 66
     1
 10
0.0
 20
0.0
 30
0.0
  0
VERTEX
  5
375
330
374
100
AcDbEntity
  8
STANDARDEBENE
 62
     7
100
AcDbVertex
100
AcDb2dVertex
 10
226.8827920982272
 20
125.3070800467982
 30
0.0
  0
VERTEX
  5
376
330
374
100
AcDbEntity
  8
STANDARDEBENE
 62
     7
100
AcDbVertex
100
AcDb2dVertex
 10
226.3775688453154
 20
124.4316812839963
 30
0.0
  0
SEQEND
  5
377
330
374
100
AcDbEntity
  8
STANDARDEBENE
  0
POLYLINE
  5
378
330
1F
100
AcDbEntity
  8
STANDARDEBENE
 62
     7
100
AcDb2dPolyline
 66
     1
 10
0.0
 20
0.0
 30
0.0
  0
VERTEX
  5
379
330
378
100
AcDbEntity
  8
STANDARDEBENE
 62
     7
100
AcDbVertex
100
AcDb2dVertex
 10
226.0385714495667
 20
123.4803181657445
 30
0.0
  0
VERTEX
  5
37A
330
378
100
AcDbEntity
  8
STANDARDEBENE
 62
     7
100
AcDbVertex
100
AcDb2dVertex
 10
225.9937852082585
 20
123.3499213016278
 30
0.0
  0
VERTEX
  5
37B
330
378
100
AcDbEntity
  8
STANDARDEBENE
 62
     7
100
AcDbVertex
100
AcDb2dVertex
 10
225.8692450064667
 20
122.4855468443786
 30
0.0
  0
SEQEND
  5
37C
330
378
100
AcDbEntity
  8
STANDARDEBENE
  0
POLYLINE
  5
37D
330
1F
100
AcDbEntity
  8
STANDARDEBENE
 62
     7
100
AcDb2dPolyline
 66
     1
 10
0.0
 20
0.0
 30
0.0
  0
VERTEX
  5
37E
330
37D
100
AcDbEntity
  8
STANDARDEBENE
 62
     7
100
AcDbVertex
100
AcDb2dVertex
 10
225.8738958853718
 20
121.4780286697173
 30
0.0
  0
VERTEX
  5
37F
330
37D
100
AcDbEntity
  8
STANDARDEBENE
 62
     7
100
AcDbVertex
100
AcDb2dVertex
 10
225.8890543055069
 20
121.156945770492
 30
0.0
  0
VERTEX
  5
380
330
37D
100
AcDbEntity
  8
STANDARDEBENE
 62
     7
100
AcDbVertex
100
AcDb2dVertex
 10
226.0520073219592
 20
120.4870469533852
 30
0.0
  0
SEQEND
  5
381
330
37D
100
AcDbEntity
  8
STANDARDEBENE
  0
POLYLINE
  5
382
330
1F
100
AcDbEntity
  8
STANDARDEBENE
 62
     7
100
AcDb2dPolyline
 66
     1
 10
0.0
 20
0.0
 30
0.0
  0
VERTEX
  5
383
330
382
100
AcDbEntity
  8
STANDARDEBENE
 62
     7
100
AcDbVertex
100
AcDb2dVertex
 10
226.3977226539041
 20
119.5422295165554
 30
0.0
  0
VERTEX
  5
384
330
382
100
AcDbEntity
  8
STANDARDEBENE
 62
     7
100
AcDbVertex
100
AcDb2dVertex
 10
226.60770122373
 20
119.0826537788231
 30
0.0
  0
VERTEX
  5
385
330
382
100
AcDbEntity
  8
STANDARDEBENE
 62
     7
100
AcDbVertex
100
AcDb2dVertex
 10
226.9005343399763
 20
118.6706203587872
 30
0.0
  0
SEQEND
  5
386
330
382
100
AcDbEntity
  8
STANDARDEBENE
  0
POLYLINE
  5
387
330
1F
100
AcDbEntity
  8
STANDARDEBENE
 62
     7
100
AcDb2dPolyline
 66
     1
 10
0.0
 20
0.0
 30
0.0
  0
VERTEX
  5
388
330
387
100
AcDbEntity
  8
STANDARDEBENE
 62
     7
100
AcDbVertex
100
AcDb2dVertex
 10
227.5459729791378
 20
117.898746715317
 30
0.0
  0
VERTEX
  5
389
330
387
100
AcDbEntity
  8
STANDARDEBENE
 62
     7
100
AcDbVertex
100
AcDb2dVertex
 10
228.044822805402
 20
117.4234957931268
 30
0.0
  0
VERTEX
  5
38A
330
387
100
AcDbEntity
  8
STANDARDEBENE
 62
     7
100
AcDbVertex
100
AcDb2dVertex
 10
228.3157795653169
 20
117.2491739615731
 30
0.0
  0
SEQEND
  5
38B
330
387
100
AcDbEntity
  8
STANDARDEBENE
  0
POLYLINE
  5
38C
330
1F
100
AcDbEntity
  8
STANDARDEBENE
 62
     7
100
AcDb2dPolyline
 66
     1
 10
0.0
 20
0.0
 30
0.0
  0
VERTEX
  5
38D
330
38C
100
AcDbEntity
  8
STANDARDEBENE
 62
     7
100
AcDbVertex
100
AcDb2dVertex
 10
229.186010684891
 20
116.7418836513701
 30
0.0
  0
VERTEX
  5
38E
330
38C
100
AcDbEntity
  8
STANDARDEBENE
 62
     7
100
AcDbVertex
100
AcDb2dVertex
 10
229.996469397796
 20
116.4177001662081
 30
0.0
  0
VERTEX
  5
38F
330
38C
100
AcDbEntity
  8
STANDARDEBENE
 62
     7
100
AcDbVertex
100
AcDb2dVertex
 10
230.1315171408178
 20
116.3911729309717
 30
0.0
  0
SEQEND
  5
390
330
38C
100
AcDbEntity
  8
STANDARDEBENE
  0
POLYLINE
  5
391
330
1F
100
AcDbEntity
  8
STANDARDEBENE
 62
     7
100
AcDb2dPolyline
 66
     1
 10
0.0
 20
0.0
 30
0.0
  0
VERTEX
  5
392
330
391
100
AcDbEntity
  8
STANDARDEBENE
 62
     7
100
AcDbVertex
100
AcDb2dVertex
 10
231.1249104239896
 20
116.2085828702534
 30
0.0
  0
VERTEX
  5
393
330
391
100
AcDbEntity
  8
STANDARDEBENE
 62
     7
100
AcDbVertex
100
AcDb2dVertex
 10
232.1357014393619
 20
116.2085828702534
 30
0.0
  0
SEQEND
  5
394
330
391
100
AcDbEntity
  8
STANDARDEBENE
  0
POLYLINE
  5
395
330
1F
100
AcDbEntity
  8
STANDARDEBENE
 62
     7
100
AcDb2dPolyline
 66
     1
 10
0.0
 20
0.0
 30
0.0
  0
VERTEX
  5
396
330
395
100
AcDbEntity
  8
STANDARDEBENE
 62
     7
100
AcDbVertex
100
AcDb2dVertex
 10
233.1290947225337
 20
116.3911729309717
 30
0.0
  0
VERTEX
  5
397
330
395
100
AcDbEntity
  8
STANDARDEBENE
 62
     7
100
AcDbVertex
100
AcDb2dVertex
 10
233.2646592298783
 20
116.4177001662081
 30
0.0
  0
VERTEX
  5
398
330
395
100
AcDbEntity
  8
STANDARDEBENE
 62
     7
100
AcDbVertex
100
AcDb2dVertex
 10
234.0746011784605
 20
116.7418836513701
 30
0.0
  0
SEQEND
  5
399
330
395
100
AcDbEntity
  8
STANDARDEBENE
  0
POLYLINE
  5
39A
330
1F
100
AcDbEntity
  8
STANDARDEBENE
 62
     7
100
AcDb2dPolyline
 66
     1
 10
0.0
 20
0.0
 30
0.0
  0
VERTEX
  5
39B
330
39A
100
AcDbEntity
  8
STANDARDEBENE
 62
     7
100
AcDbVertex
100
AcDb2dVertex
 10
234.9448322980346
 20
117.2491739615731
 30
0.0
  0
VERTEX
  5
39C
330
39A
100
AcDbEntity
  8
STANDARDEBENE
 62
     7
100
AcDbVertex
100
AcDb2dVertex
 10
235.2157890579495
 20
117.4234957931268
 30
0.0
  0
VERTEX
  5
39D
330
39A
100
AcDbEntity
  8
STANDARDEBENE
 62
     7
100
AcDbVertex
100
AcDb2dVertex
 10
235.7142943746652
 20
117.898746715317
 30
0.0
  0
SEQEND
  5
39E
330
39A
100
AcDbEntity
  8
STANDARDEBENE
  0
POLYLINE
  5
39F
330
1F
100
AcDbEntity
  8
STANDARDEBENE
 62
     7
100
AcDb2dPolyline
 66
     1
 10
0.0
 20
0.0
 30
0.0
  0
VERTEX
  5
3A0
330
39F
100
AcDbEntity
  8
STANDARDEBENE
 62
     7
100
AcDbVertex
100
AcDb2dVertex
 10
236.3602497781495
 20
118.6706203587872
 30
0.0
  0
VERTEX
  5
3A1
330
39F
100
AcDbEntity
  8
STANDARDEBENE
 62
     7
100
AcDbVertex
100
AcDb2dVertex
 10
236.6534274039443
 20
119.0826537788231
 30
0.0
  0
VERTEX
  5
3A2
330
39F
100
AcDbEntity
  8
STANDARDEBENE
 62
     7
100
AcDbVertex
100
AcDb2dVertex
 10
236.8628892094475
 20
119.5422295165554
 30
0.0
  0
SEQEND
  5
3A3
330
39F
100
AcDbEntity
  8
STANDARDEBENE
  0
POLYLINE
  5
3A4
330
1F
100
AcDbEntity
  8
STANDARDEBENE
 62
     7
100
AcDb2dPolyline
 66
     1
 10
0.0
 20
0.0
 30
0.0
  0
VERTEX
  5
3A5
330
3A4
100
AcDbEntity
  8
STANDARDEBENE
 62
     7
100
AcDbVertex
100
AcDb2dVertex
 10
237.2086045413923
 20
120.4870469533852
 30
0.0
  0
VERTEX
  5
3A6
330
3A4
100
AcDbEntity
  8
STANDARDEBENE
 62
     7
100
AcDbVertex
100
AcDb2dVertex
 10
237.3712130482961
 20
121.156945770492
 30
0.0
  0
VERTEX
  5
3A7
330
3A4
100
AcDbEntity
  8
STANDARDEBENE
 62
     7
100
AcDbVertex
100
AcDb2dVertex
 10
237.3867159779797
 20
121.4780286697173
 30
0.0
  0
SEQEND
  5
3A8
330
3A4
100
AcDbEntity
  8
STANDARDEBENE
  0
POLYLINE
  5
3A9
330
1F
100
AcDbEntity
  8
STANDARDEBENE
 62
     7
100
AcDb2dPolyline
 66
     1
 10
0.0
 20
0.0
 30
0.0
  0
VERTEX
  5
3AA
330
3A9
100
AcDbEntity
  8
STANDARDEBENE
 62
     7
100
AcDbVertex
100
AcDb2dVertex
 10
237.3913668568848
 20
122.4855468443786
 30
0.0
  0
VERTEX
  5
3AB
330
3A9
100
AcDbEntity
  8
STANDARDEBENE
 62
     7
100
AcDbVertex
100
AcDb2dVertex
 10
237.2664821455445
 20
123.3499213016278
 30
0.0
  0
VERTEX
  5
3AC
330
3A9
100
AcDbEntity
  8
STANDARDEBENE
 62
     7
100
AcDbVertex
100
AcDb2dVertex
 10
237.2220404137848
 20
123.4803181657445
 30
0.0
  0
SEQEND
  5
3AD
330
3A9
100
AcDbEntity
  8
STANDARDEBENE
  0
POLYLINE
  5
3AE
330
1F
100
AcDbEntity
  8
STANDARDEBENE
 62
     7
100
AcDb2dPolyline
 66
     1
 10
0.0
 20
0.0
 30
0.0
  0
VERTEX
  5
3AF
330
3AE
100
AcDbEntity
  8
STANDARDEBENE
 62
     7
100
AcDbVertex
100
AcDb2dVertex
 10
236.8830430180362
 20
124.4316812839963
 30
0.0
  0
VERTEX
  5
3B0
330
3AE
100
AcDbEntity
  8
STANDARDEBENE
 62
     7
100
AcDbVertex
100
AcDb2dVertex
 10
236.3774752555758
 20
125.3070800467982
 30
0.0
  0
SEQEND
  5
3B1
330
3AE
100
AcDbEntity
  8
STANDARDEBENE
  0
POLYLINE
  5
3B2
330
1F
100
AcDbEntity
  8
STANDARDEBENE
 62
     7
100
AcDb2dPolyline
 66
     1
 10
0.0
 20
0.0
 30
0.0
  0
VERTEX
  5
3B3
330
3B2
100
AcDbEntity
  8
STANDARDEBENE
 62
     7
100
AcDbVertex
100
AcDb2dVertex
 10
235.722734858604
 20
126.0756808495575
 30
0.0
  0
VERTEX
  5
3B4
330
3B2
100
AcDbEntity
  8
STANDARDEBENE
 62
     7
100
AcDbVertex
100
AcDb2dVertex
 10
235.632817866439
 20
126.1800672427605
 30
0.0
  0
VERTEX
  5
3B5
330
3B2
100
AcDbEntity
  8
STANDARDEBENE
 62
     7
100
AcDbVertex
100
AcDb2dVertex
 10
234.9462103362287
 20
126.7199137052992
 30
0.0
  0
SEQEND
  5
3B6
330
3B2
100
AcDbEntity
  8
STANDARDEBENE
  0
POLYLINE
  5
3B7
330
1F
100
AcDbEntity
  8
STANDARDEBENE
 62
     7
100
AcDb2dPolyline
 66
     1
 10
0.0
 20
0.0
 30
0.0
  0
VERTEX
  5
3B8
330
3B7
100
AcDbEntity
  8
STANDARDEBENE
 62
     7
100
AcDbVertex
100
AcDb2dVertex
 10
234.0720173568466
 20
127.2197970602089
 30
0.0
  0
VERTEX
  5
3B9
330
3B7
100
AcDbEntity
  8
STANDARDEBENE
 62
     7
100
AcDbVertex
100
AcDb2dVertex
 10
233.7859021767966
 20
127.3672471469776
 30
0.0
  0
VERTEX
  5
3BA
330
3B7
100
AcDbEntity
  8
STANDARDEBENE
 62
     7
100
AcDbVertex
100
AcDb2dVertex
 10
233.1244438436286
 20
127.5612060227972
 30
0.0
  0
SEQEND
  5
3BB
330
3B7
100
AcDbEntity
  8
STANDARDEBENE
  0
POLYLINE
  5
3BC
330
1F
100
AcDbEntity
  8
STANDARDEBENE
 62
     7
100
AcDb2dPolyline
 66
     1
 10
0.0
 20
0.0
 30
0.0
  0
VERTEX
  5
3BD
330
3BC
100
AcDbEntity
  8
STANDARDEBENE
 62
     7
100
AcDbVertex
100
AcDb2dVertex
 10
232.1336343820708
 20
127.7341498161567
 30
0.0
  0
VERTEX
  5
3BE
330
3BC
100
AcDbEntity
  8
STANDARDEBENE
 62
     7
100
AcDbVertex
100
AcDb2dVertex
 10
231.6301336769015
 20
127.7820366434017
 30
0.0
  0
SEQEND
  5
3BF
330
3BC
100
AcDbEntity
  8
STANDARDEBENE
  0
POLYLINE
  5
3C0
330
1F
100
AcDbEntity
  8
STANDARDEBENE
 62
     7
100
AcDb2dPolyline
 66
     1
 10
0.0
 20
0.0
 30
0.0
  0
VERTEX
  5
3C1
330
3C0
100
AcDbEntity
  8
STANDARDEBENE
 62
     7
100
AcDbVertex
100
AcDb2dVertex
 10
231.6301336769015
 20
116.7863253831298
 30
0.0
  0
VERTEX
  5
3C2
330
3C0
100
AcDbEntity
  8
STANDARDEBENE
 62
     7
100
AcDbVertex
100
AcDb2dVertex
 10
232.137079477556
 20
116.83765730586
 30
0.0
  0
SEQEND
  5
3C3
330
3C0
100
AcDbEntity
  8
STANDARDEBENE
  0
POLYLINE
  5
3C4
330
1F
100
AcDbEntity
  8
STANDARDEBENE
 62
     7
100
AcDb2dPolyline
 66
     1
 10
0.0
 20
0.0
 30
0.0
  0
VERTEX
  5
3C5
330
3C4
100
AcDbEntity
  8
STANDARDEBENE
 62
     7
100
AcDbVertex
100
AcDb2dVertex
 10
233.1308172702763
 20
117.0354057867134
 30
0.0
  0
VERTEX
  5
3C6
330
3C4
100
AcDbEntity
  8
STANDARDEBENE
 62
     7
100
AcDbVertex
100
AcDb2dVertex
 10
233.6791042167538
 20
117.2073160514273
 30
0.0
  0
VERTEX
  5
3C7
330
3C4
100
AcDbEntity
  8
STANDARDEBENE
 62
     7
100
AcDbVertex
100
AcDb2dVertex
 10
234.0675387327158
 20
117.4224622644812
 30
0.0
  0
SEQEND
  5
3C8
330
3C4
100
AcDbEntity
  8
STANDARDEBENE
  0
POLYLINE
  5
3C9
330
1F
100
AcDbEntity
  8
STANDARDEBENE
 62
     7
100
AcDb2dPolyline
 66
     1
 10
0.0
 20
0.0
 30
0.0
  0
VERTEX
  5
3CA
330
3C9
100
AcDbEntity
  8
STANDARDEBENE
 62
     7
100
AcDbVertex
100
AcDb2dVertex
 10
234.9102090884079
 20
117.9852186119968
 30
0.0
  0
VERTEX
  5
3CB
330
3C9
100
AcDbEntity
  8
STANDARDEBENE
 62
     7
100
AcDbVertex
100
AcDb2dVertex
 10
235.3959675518281
 20
118.4024196752605
 30
0.0
  0
VERTEX
  5
3CC
330
3C9
100
AcDbEntity
  8
STANDARDEBENE
 62
     7
100
AcDbVertex
100
AcDb2dVertex
 10
235.6278224779854
 20
118.7009371990574
 30
0.0
  0
SEQEND
  5
3CD
330
3C9
100
AcDbEntity
  8
STANDARDEBENE
  0
POLYLINE
  5
3CE
330
1F
100
AcDbEntity
  8
STANDARDEBENE
 62
     7
100
AcDb2dPolyline
 66
     1
 10
0.0
 20
0.0
 30
0.0
  0
VERTEX
  5
3CF
330
3CE
100
AcDbEntity
  8
STANDARDEBENE
 62
     7
100
AcDbVertex
100
AcDb2dVertex
 10
236.1916123541465
 20
119.5437798095238
 30
0.0
  0
VERTEX
  5
3D0
330
3CE
100
AcDbEntity
  8
STANDARDEBENE
 62
     7
100
AcDbVertex
100
AcDb2dVertex
 10
236.5030489860131
 20
120.1780218883583
 30
0.0
  0
VERTEX
  5
3D1
330
3CE
100
AcDbEntity
  8
STANDARDEBENE
 62
     7
100
AcDbVertex
100
AcDb2dVertex
 10
236.581080398754
 20
120.4799845076404
 30
0.0
  0
SEQEND
  5
3D2
330
3CE
100
AcDbEntity
  8
STANDARDEBENE
  0
POLYLINE
  5
3D3
330
1F
100
AcDbEntity
  8
STANDARDEBENE
 62
     7
100
AcDb2dPolyline
 66
     1
 10
0.0
 20
0.0
 30
0.0
  0
VERTEX
  5
3D4
330
3D3
100
AcDbEntity
  8
STANDARDEBENE
 62
     7
100
AcDbVertex
100
AcDb2dVertex
 10
236.7807236821243
 20
121.4740668099093
 30
0.0
  0
VERTEX
  5
3D5
330
3D3
100
AcDbEntity
  8
STANDARDEBENE
 62
     7
100
AcDbVertex
100
AcDb2dVertex
 10
236.8198255158819
 20
122.245595943831
 30
0.0
  0
VERTEX
  5
3D6
330
3D3
100
AcDbEntity
  8
STANDARDEBENE
 62
     7
100
AcDbVertex
100
AcDb2dVertex
 10
236.7827907394154
 20
122.4893364494124
 30
0.0
  0
SEQEND
  5
3D7
330
3D3
100
AcDbEntity
  8
STANDARDEBENE
  0
POLYLINE
  5
3D8
330
1F
100
AcDbEntity
  8
STANDARDEBENE
 62
     7
100
AcDb2dPolyline
 66
     1
 10
0.0
 20
0.0
 30
0.0
  0
VERTEX
  5
3D9
330
3D8
100
AcDbEntity
  8
STANDARDEBENE
 62
     7
100
AcDbVertex
100
AcDb2dVertex
 10
236.5864202967562
 20
123.4853135541981
 30
0.0
  0
VERTEX
  5
3DA
330
3D8
100
AcDbEntity
  8
STANDARDEBENE
 62
     7
100
AcDbVertex
100
AcDb2dVertex
 10
236.2956542378011
 20
124.2709675796093
 30
0.0
  0
VERTEX
  5
3DB
330
3D8
100
AcDbEntity
  8
STANDARDEBENE
 62
     7
100
AcDbVertex
100
AcDb2dVertex
 10
236.1997083285369
 20
124.4237575643802
 30
0.0
  0
SEQEND
  5
3DC
330
3D8
100
AcDbEntity
  8
STANDARDEBENE
  0
POLYLINE
  5
3DD
330
1F
100
AcDbEntity
  8
STANDARDEBENE
 62
     7
100
AcDb2dPolyline
 66
     1
 10
0.0
 20
0.0
 30
0.0
  0
VERTEX
  5
3DE
330
3DD
100
AcDbEntity
  8
STANDARDEBENE
 62
     7
100
AcDbVertex
100
AcDb2dVertex
 10
235.6376410001184
 20
125.2698730155575
 30
0.0
  0
VERTEX
  5
3DF
330
3DD
100
AcDbEntity
  8
STANDARDEBENE
 62
     7
100
AcDbVertex
100
AcDb2dVertex
 10
235.0154567554823
 20
125.9247856673035
 30
0.0
  0
VERTEX
  5
3E0
330
3DD
100
AcDbEntity
  8
STANDARDEBENE
 62
     7
100
AcDbVertex
100
AcDb2dVertex
 10
234.9205443748636
 20
125.9907592458461
 30
0.0
  0
SEQEND
  5
3E1
330
3DD
100
AcDbEntity
  8
STANDARDEBENE
  0
POLYLINE
  5
3E2
330
1F
100
AcDbEntity
  8
STANDARDEBENE
 62
     7
100
AcDb2dPolyline
 66
     1
 10
0.0
 20
0.0
 30
0.0
  0
VERTEX
  5
3E3
330
3E2
100
AcDbEntity
  8
STANDARDEBENE
 62
     7
100
AcDbVertex
100
AcDb2dVertex
 10
234.0770127453002
 20
126.5576497079439
 30
0.0
  0
VERTEX
  5
3E4
330
3E2
100
AcDbEntity
  8
STANDARDEBENE
 62
     7
100
AcDbVertex
100
AcDb2dVertex
 10
233.1859387980403
 20
126.9403998163552
 30
0.0
  0
VERTEX
  5
3E5
330
3E2
100
AcDbEntity
  8
STANDARDEBENE
 62
     7
100
AcDbVertex
100
AcDb2dVertex
 10
233.1378797160211
 20
126.9502183384881
 30
0.0
  0
SEQEND
  5
3E6
330
3E2
100
AcDbEntity
  8
STANDARDEBENE
  0
POLYLINE
  5
3E7
330
1F
100
AcDbEntity
  8
STANDARDEBENE
 62
     7
100
AcDb2dPolyline
 66
     1
 10
0.0
 20
0.0
 30
0.0
  0
VERTEX
  5
3E8
330
3E7
100
AcDbEntity
  8
STANDARDEBENE
 62
     7
100
AcDbVertex
100
AcDb2dVertex
 10
232.1394910443957
 20
127.1521009339238
 30
0.0
  0
VERTEX
  5
3E9
330
3E7
100
AcDbEntity
  8
STANDARDEBENE
 62
     7
100
AcDbVertex
100
AcDb2dVertex
 10
231.1214653285044
 20
127.1521009339238
 30
0.0
  0
SEQEND
  5
3EA
330
3E7
100
AcDbEntity
  8
STANDARDEBENE
  0
POLYLINE
  5
3EB
330
1F
100
AcDbEntity
  8
STANDARDEBENE
 62
     7
100
AcDb2dPolyline
 66
     1
 10
0.0
 20
0.0
 30
0.0
  0
VERTEX
  5
3EC
330
3EB
100
AcDbEntity
  8
STANDARDEBENE
 62
     7
100
AcDbVertex
100
AcDb2dVertex
 10
230.123076656879
 20
126.9505628480367
 30
0.0
  0
VERTEX
  5
3ED
330
3EB
100
AcDbEntity
  8
STANDARDEBENE
 62
     7
100
AcDbVertex
100
AcDb2dVertex
 10
230.075189829634
 20
126.9403998163552
 30
0.0
  0
VERTEX
  5
3EE
330
3EB
100
AcDbEntity
  8
STANDARDEBENE
 62
     7
100
AcDbVertex
100
AcDb2dVertex
 10
229.1842881371484
 20
126.558338727041
 30
0.0
  0
SEQEND
  5
3EF
330
3EB
100
AcDbEntity
  8
STANDARDEBENE
  0
POLYLINE
  5
3F0
330
1F
100
AcDbEntity
  8
STANDARDEBENE
 62
     7
100
AcDb2dPolyline
 66
     1
 10
0.0
 20
0.0
 30
0.0
  0
VERTEX
  5
3F1
330
3F0
100
AcDbEntity
  8
STANDARDEBENE
 62
     7
100
AcDbVertex
100
AcDb2dVertex
 10
228.3402397432622
 20
125.9907592458461
 30
0.0
  0
VERTEX
  5
3F2
330
3F0
100
AcDbEntity
  8
STANDARDEBENE
 62
     7
100
AcDbVertex
100
AcDb2dVertex
 10
228.2456718721921
 20
125.9251301768521
 30
0.0
  0
VERTEX
  5
3F3
330
3F0
100
AcDbEntity
  8
STANDARDEBENE
 62
     7
100
AcDbVertex
100
AcDb2dVertex
 10
227.6236598823302
 20
125.2703897798803
 30
0.0
  0
SEQEND
  5
3F4
330
3F0
100
AcDbEntity
  8
STANDARDEBENE
  0
POLYLINE
  5
3F5
330
1F
100
AcDbEntity
  8
STANDARDEBENE
 62
     7
100
AcDb2dPolyline
 66
     1
 10
0.0
 20
0.0
 30
0.0
  0
VERTEX
  5
3F6
330
3F5
100
AcDbEntity
  8
STANDARDEBENE
 62
     7
100
AcDbVertex
100
AcDb2dVertex
 10
227.0609035348147
 20
124.4247910930257
 30
0.0
  0
VERTEX
  5
3F7
330
3F5
100
AcDbEntity
  8
STANDARDEBENE
 62
     7
100
AcDbVertex
100
AcDb2dVertex
 10
226.9649576255504
 20
124.2709675796093
 30
0.0
  0
VERTEX
  5
3F8
330
3F5
100
AcDbEntity
  8
STANDARDEBENE
 62
     7
100
AcDbVertex
100
AcDb2dVertex
 10
226.6743638213696
 20
123.4856580637466
 30
0.0
  0
SEQEND
  5
3F9
330
3F5
100
AcDbEntity
  8
STANDARDEBENE
  0
POLYLINE
  5
3FA
330
1F
100
AcDbEntity
  8
STANDARDEBENE
 62
     7
100
AcDb2dPolyline
 66
     1
 10
0.0
 20
0.0
 30
0.0
  0
VERTEX
  5
3FB
330
3FA
100
AcDbEntity
  8
STANDARDEBENE
 62
     7
100
AcDbVertex
100
AcDb2dVertex
 10
226.4778211239361
 20
122.4896809589609
 30
0.0
  0
VERTEX
  5
3FC
330
3FA
100
AcDbEntity
  8
STANDARDEBENE
 62
     7
100
AcDbVertex
100
AcDb2dVertex
 10
226.4407863474697
 20
122.2459404533795
 30
0.0
  0
VERTEX
  5
3FD
330
3FA
100
AcDbEntity
  8
STANDARDEBENE
 62
     7
100
AcDbVertex
100
AcDb2dVertex
 10
226.4795436716787
 20
121.4751003385548
 30
0.0
  0
SEQEND
  5
3FE
330
3FA
100
AcDbEntity
  8
STANDARDEBENE
  0
POLYLINE
  5
3FF
330
1F
100
AcDbEntity
  8
STANDARDEBENE
 62
     7
100
AcDb2dPolyline
 66
     1
 10
0.0
 20
0.0
 30
0.0
  0
VERTEX
  5
400
330
3FF
100
AcDbEntity
  8
STANDARDEBENE
 62
     7
100
AcDbVertex
100
AcDb2dVertex
 10
226.6793592098232
 20
120.480329017189
 30
0.0
  0
VERTEX
  5
401
330
3FF
100
AcDbEntity
  8
STANDARDEBENE
 62
     7
100
AcDbVertex
100
AcDb2dVertex
 10
226.7575628773384
 20
120.1783663979068
 30
0.0
  0
VERTEX
  5
402
330
3FF
100
AcDbEntity
  8
STANDARDEBENE
 62
     7
100
AcDbVertex
100
AcDb2dVertex
 10
227.0683104901079
 20
119.5441243190723
 30
0.0
  0
SEQEND
  5
403
330
3FF
100
AcDbEntity
  8
STANDARDEBENE
  0
POLYLINE
  5
404
330
1F
100
AcDbEntity
  8
STANDARDEBENE
 62
     7
100
AcDb2dPolyline
 66
     1
 10
0.0
 20
0.0
 30
0.0
  0
VERTEX
  5
405
330
404
100
AcDbEntity
  8
STANDARDEBENE
 62
     7
100
AcDbVertex
100
AcDb2dVertex
 10
227.6327893853661
 20
118.7012817086059
 30
0.0
  0
VERTEX
  5
406
330
404
100
AcDbEntity
  8
STANDARDEBENE
 62
     7
100
AcDbVertex
100
AcDb2dVertex
 10
227.8636107828779
 20
118.4024196752605
 30
0.0
  0
VERTEX
  5
407
330
404
100
AcDbEntity
  8
STANDARDEBENE
 62
     7
100
AcDbVertex
100
AcDb2dVertex
 10
228.3500582653951
 20
117.9855631215453
 30
0.0
  0
SEQEND
  5
408
330
404
100
AcDbEntity
  8
STANDARDEBENE
  0
POLYLINE
  5
409
330
1F
100
AcDbEntity
  8
STANDARDEBENE
 62
     7
100
AcDb2dPolyline
 66
     1
 10
0.0
 20
0.0
 30
0.0
  0
VERTEX
  5
40A
330
409
100
AcDbEntity
  8
STANDARDEBENE
 62
     7
100
AcDbVertex
100
AcDb2dVertex
 10
229.19324538541
 20
117.4228067740297
 30
0.0
  0
VERTEX
  5
40B
330
409
100
AcDbEntity
  8
STANDARDEBENE
 62
     7
100
AcDbVertex
100
AcDb2dVertex
 10
229.5808186275006
 20
117.2073160514273
 30
0.0
  0
VERTEX
  5
40C
330
409
100
AcDbEntity
  8
STANDARDEBENE
 62
     7
100
AcDbVertex
100
AcDb2dVertex
 10
230.1291055739781
 20
117.0354057867134
 30
0.0
  0
SEQEND
  5
40D
330
409
100
AcDbEntity
  8
STANDARDEBENE
  0
POLYLINE
  5
40E
330
1F
100
AcDbEntity
  8
STANDARDEBENE
 62
     7
100
AcDb2dPolyline
 66
     1
 10
0.0
 20
0.0
 30
0.0
  0
VERTEX
  5
40F
330
40E
100
AcDbEntity
  8
STANDARDEBENE
 62
     7
100
AcDbVertex
100
AcDb2dVertex
 10
231.123187876247
 20
116.83765730586
 30
0.0
  0
VERTEX
  5
410
330
40E
100
AcDbEntity
  8
STANDARDEBENE
 62
     7
100
AcDbVertex
100
AcDb2dVertex
 10
231.629789167353
 20
116.7863253831298
 30
0.0
  0
SEQEND
  5
411
330
40E
100
AcDbEntity
  8
STANDARDEBENE
  0
POLYLINE
  5
412
330
1F
100
AcDbEntity
  8
STANDARDEBENE
 62
     7
100
AcDb2dPolyline
 66
     1
 10
0.0
 20
0.0
 30
0.0
  0
VERTEX
  5
413
330
412
100
AcDbEntity
  8
STANDARDEBENE
 62
     7
100
AcDbVertex
100
AcDb2dVertex
 10
231.6301336769015
 20
127.9821966910947
 30
0.0
  0
VERTEX
  5
414
330
412
100
AcDbEntity
  8
STANDARDEBENE
 62
     7
100
AcDbVertex
100
AcDb2dVertex
 10
231.136968258188
 20
127.9367214306894
 30
0.0
  0
SEQEND
  5
415
330
412
100
AcDbEntity
  8
STANDARDEBENE
  0
POLYLINE
  5
416
330
1F
100
AcDbEntity
  8
STANDARDEBENE
 62
     7
100
AcDb2dPolyline
 66
     1
 10
0.0
 20
0.0
 30
0.0
  0
VERTEX
  5
417
330
416
100
AcDbEntity
  8
STANDARDEBENE
 62
     7
100
AcDbVertex
100
AcDb2dVertex
 10
230.1633842740564
 20
127.7765244906253
 30
0.0
  0
VERTEX
  5
418
330
416
100
AcDbEntity
  8
STANDARDEBENE
 62
     7
100
AcDbVertex
100
AcDb2dVertex
 10
229.4626518523566
 20
127.5770534620294
 30
0.0
  0
VERTEX
  5
419
330
416
100
AcDbEntity
  8
STANDARDEBENE
 62
     7
100
AcDbVertex
100
AcDb2dVertex
 10
229.2283853593596
 20
127.4599202155309
 30
0.0
  0
SEQEND
  5
41A
330
416
100
AcDbEntity
  8
STANDARDEBENE
  0
POLYLINE
  5
41B
330
1F
100
AcDbEntity
  8
STANDARDEBENE
 62
     7
100
AcDb2dPolyline
 66
     1
 10
0.0
 20
0.0
 30
0.0
  0
VERTEX
  5
41C
330
41B
100
AcDbEntity
  8
STANDARDEBENE
 62
     7
100
AcDbVertex
100
AcDb2dVertex
 10
228.3553981633973
 20
126.9962103632162
 30
0.0
  0
VERTEX
  5
41D
330
41B
100
AcDbEntity
  8
STANDARDEBENE
 62
     7
100
AcDbVertex
100
AcDb2dVertex
 10
227.5883476536064
 20
126.4164007930487
 30
0.0
  0
VERTEX
  5
41E
330
41B
100
AcDbEntity
  8
STANDARDEBENE
 62
     7
100
AcDbVertex
100
AcDb2dVertex
 10
227.5681938450177
 20
126.3946966914916
 30
0.0
  0
SEQEND
  5
41F
330
41B
100
AcDbEntity
  8
STANDARDEBENE
  0
POLYLINE
  5
420
330
1F
100
AcDbEntity
  8
STANDARDEBENE
 62
     7
100
AcDb2dPolyline
 66
     1
 10
0.0
 20
0.0
 30
0.0
  0
VERTEX
  5
421
330
420
100
AcDbEntity
  8
STANDARDEBENE
 62
     7
100
AcDbVertex
100
AcDb2dVertex
 10
226.9012233590733
 20
125.6629584104246
 30
0.0
  0
VERTEX
  5
422
330
420
100
AcDbEntity
  8
STANDARDEBENE
 62
     7
100
AcDbVertex
100
AcDb2dVertex
 10
226.8423122262755
 20
125.5985351248504
 30
0.0
  0
VERTEX
  5
423
330
420
100
AcDbEntity
  8
STANDARDEBENE
 62
     7
100
AcDbVertex
100
AcDb2dVertex
 10
226.3663722849883
 20
124.8304510864139
 30
0.0
  0
SEQEND
  5
424
330
420
100
AcDbEntity
  8
STANDARDEBENE
  0
POLYLINE
  5
425
330
1F
100
AcDbEntity
  8
STANDARDEBENE
 62
     7
100
AcDb2dPolyline
 66
     1
 10
0.0
 20
0.0
 30
0.0
  0
VERTEX
  5
426
330
425
100
AcDbEntity
  8
STANDARDEBENE
 62
     7
100
AcDbVertex
100
AcDb2dVertex
 10
225.9755262021867
 20
123.9231851903734
 30
0.0
  0
VERTEX
  5
427
330
425
100
AcDbEntity
  8
STANDARDEBENE
 62
     7
100
AcDbVertex
100
AcDb2dVertex
 10
225.8590819747852
 20
123.6246676665765
 30
0.0
  0
VERTEX
  5
428
330
425
100
AcDbEntity
  8
STANDARDEBENE
 62
     7
100
AcDbVertex
100
AcDb2dVertex
 10
225.7362643207361
 20
122.9659654097967
 30
0.0
  0
SEQEND
  5
429
330
425
100
AcDbEntity
  8
STANDARDEBENE
  0
POLYLINE
  5
42A
330
1F
100
AcDbEntity
  8
STANDARDEBENE
 62
     7
100
AcDb2dPolyline
 66
     1
 10
0.0
 20
0.0
 30
0.0
  0
VERTEX
  5
42B
330
42A
100
AcDbEntity
  8
STANDARDEBENE
 62
     7
100
AcDbVertex
100
AcDb2dVertex
 10
225.656165850704
 20
121.9825629035321
 30
0.0
  0
VERTEX
  5
42C
330
42A
100
AcDbEntity
  8
STANDARDEBENE
 62
     7
100
AcDbVertex
100
AcDb2dVertex
 10
225.656165850704
 20
121.428591549504
 30
0.0
  0
VERTEX
  5
42D
330
42A
100
AcDbEntity
  8
STANDARDEBENE
 62
     7
100
AcDbVertex
100
AcDb2dVertex
 10
225.7362643207361
 20
120.9993326520418
 30
0.0
  0
SEQEND
  5
42E
330
42A
100
AcDbEntity
  8
STANDARDEBENE
  0
POLYLINE
  5
42F
330
1F
100
AcDbEntity
  8
STANDARDEBENE
 62
     7
100
AcDb2dPolyline
 66
     1
 10
0.0
 20
0.0
 30
0.0
  0
VERTEX
  5
430
330
42F
100
AcDbEntity
  8
STANDARDEBENE
 62
     7
100
AcDbVertex
100
AcDb2dVertex
 10
225.9755262021867
 20
120.0414238523681
 30
0.0
  0
VERTEX
  5
431
330
42F
100
AcDbEntity
  8
STANDARDEBENE
 62
     7
100
AcDbVertex
100
AcDb2dVertex
 10
226.2590575606228
 20
119.3081352783327
 30
0.0
  0
VERTEX
  5
432
330
42F
100
AcDbEntity
  8
STANDARDEBENE
 62
     7
100
AcDbVertex
100
AcDb2dVertex
 10
226.3663722849883
 20
119.1348469754246
 30
0.0
  0
SEQEND
  5
433
330
42F
100
AcDbEntity
  8
STANDARDEBENE
  0
POLYLINE
  5
434
330
1F
100
AcDbEntity
  8
STANDARDEBENE
 62
     7
100
AcDb2dPolyline
 66
     1
 10
0.0
 20
0.0
 30
0.0
  0
VERTEX
  5
435
330
434
100
AcDbEntity
  8
STANDARDEBENE
 62
     7
100
AcDbVertex
100
AcDb2dVertex
 10
226.9012233590733
 20
118.3021673966397
 30
0.0
  0
VERTEX
  5
436
330
434
100
AcDbEntity
  8
STANDARDEBENE
 62
     7
100
AcDbVertex
100
AcDb2dVertex
 10
227.5681938450177
 20
117.5699123512499
 30
0.0
  0
SEQEND
  5
437
330
434
100
AcDbEntity
  8
STANDARDEBENE
  0
POLYLINE
  5
438
330
1F
100
AcDbEntity
  8
STANDARDEBENE
 62
     7
100
AcDb2dPolyline
 66
     1
 10
0.0
 20
0.0
 30
0.0
  0
VERTEX
  5
439
330
438
100
AcDbEntity
  8
STANDARDEBENE
 62
     7
100
AcDbVertex
100
AcDb2dVertex
 10
228.3553981633973
 20
116.9690876986223
 30
0.0
  0
VERTEX
  5
43A
330
438
100
AcDbEntity
  8
STANDARDEBENE
 62
     7
100
AcDbVertex
100
AcDb2dVertex
 10
228.4716701360244
 20
116.8812377637484
 30
0.0
  0
VERTEX
  5
43B
330
438
100
AcDbEntity
  8
STANDARDEBENE
 62
     7
100
AcDbVertex
100
AcDb2dVertex
 10
229.2283853593596
 20
116.5045165724364
 30
0.0
  0
SEQEND
  5
43C
330
438
100
AcDbEntity
  8
STANDARDEBENE
  0
POLYLINE
  5
43D
330
1F
100
AcDbEntity
  8
STANDARDEBENE
 62
     7
100
AcDb2dPolyline
 66
     1
 10
0.0
 20
0.0
 30
0.0
  0
VERTEX
  5
43E
330
43D
100
AcDbEntity
  8
STANDARDEBENE
 62
     7
100
AcDbVertex
100
AcDb2dVertex
 10
230.1633842740564
 20
116.1880845521162
 30
0.0
  0
VERTEX
  5
43F
330
43D
100
AcDbEntity
  8
STANDARDEBENE
 62
     7
100
AcDbVertex
100
AcDb2dVertex
 10
230.5277031216216
 20
116.0843871780102
 30
0.0
  0
VERTEX
  5
440
330
43D
100
AcDbEntity
  8
STANDARDEBENE
 62
     7
100
AcDbVertex
100
AcDb2dVertex
 10
231.136968258188
 20
116.0282321216006
 30
0.0
  0
SEQEND
  5
441
330
43D
100
AcDbEntity
  8
STANDARDEBENE
  0
POLYLINE
  5
442
330
1F
100
AcDbEntity
  8
STANDARDEBENE
 62
     7
100
AcDb2dPolyline
 66
     1
 10
0.0
 20
0.0
 30
0.0
  0
VERTEX
  5
443
330
442
100
AcDbEntity
  8
STANDARDEBENE
 62
     7
100
AcDbVertex
100
AcDb2dVertex
 10
232.1236436051636
 20
116.0282321216006
 30
0.0
  0
VERTEX
  5
444
330
442
100
AcDbEntity
  8
STANDARDEBENE
 62
     7
100
AcDbVertex
100
AcDb2dVertex
 10
232.7325642321815
 20
116.0843871780102
 30
0.0
  0
VERTEX
  5
445
330
442
100
AcDbEntity
  8
STANDARDEBENE
 62
     7
100
AcDbVertex
100
AcDb2dVertex
 10
233.0973998440694
 20
116.1880845521162
 30
0.0
  0
SEQEND
  5
446
330
442
100
AcDbEntity
  8
STANDARDEBENE
  0
POLYLINE
  5
447
330
1F
100
AcDbEntity
  8
STANDARDEBENE
 62
     7
100
AcDb2dPolyline
 66
     1
 10
0.0
 20
0.0
 30
0.0
  0
VERTEX
  5
448
330
447
100
AcDbEntity
  8
STANDARDEBENE
 62
     7
100
AcDbVertex
100
AcDb2dVertex
 10
234.032226503992
 20
116.5045165724364
 30
0.0
  0
VERTEX
  5
449
330
447
100
AcDbEntity
  8
STANDARDEBENE
 62
     7
100
AcDbVertex
100
AcDb2dVertex
 10
234.7885972177785
 20
116.8812377637484
 30
0.0
  0
VERTEX
  5
44A
330
447
100
AcDbEntity
  8
STANDARDEBENE
 62
     7
100
AcDbVertex
100
AcDb2dVertex
 10
234.9053859547285
 20
116.9690876986223
 30
0.0
  0
SEQEND
  5
44B
330
447
100
AcDbEntity
  8
STANDARDEBENE
  0
POLYLINE
  5
44C
330
1F
100
AcDbEntity
  8
STANDARDEBENE
 62
     7
100
AcDb2dPolyline
 66
     1
 10
0.0
 20
0.0
 30
0.0
  0
VERTEX
  5
44D
330
44C
100
AcDbEntity
  8
STANDARDEBENE
 62
     7
100
AcDbVertex
100
AcDb2dVertex
 10
235.6924180183339
 20
117.5699123512499
 30
0.0
  0
VERTEX
  5
44E
330
44C
100
AcDbEntity
  8
STANDARDEBENE
 62
     7
100
AcDbVertex
100
AcDb2dVertex
 10
236.3595607590525
 20
118.3021673966397
 30
0.0
  0
SEQEND
  5
44F
330
44C
100
AcDbEntity
  8
STANDARDEBENE
  0
POLYLINE
  5
450
330
1F
100
AcDbEntity
  8
STANDARDEBENE
 62
     7
100
AcDb2dPolyline
 66
     1
 10
0.0
 20
0.0
 30
0.0
  0
VERTEX
  5
451
330
450
100
AcDbEntity
  8
STANDARDEBENE
 62
     7
100
AcDbVertex
100
AcDb2dVertex
 10
236.8935505592662
 20
119.1348469754246
 30
0.0
  0
VERTEX
  5
452
330
450
100
AcDbEntity
  8
STANDARDEBENE
 62
     7
100
AcDbVertex
100
AcDb2dVertex
 10
237.0015543027288
 20
119.3081352783327
 30
0.0
  0
VERTEX
  5
453
330
450
100
AcDbEntity
  8
STANDARDEBENE
 62
     7
100
AcDbVertex
100
AcDb2dVertex
 10
237.2850856611649
 20
120.0414238523681
 30
0.0
  0
SEQEND
  5
454
330
450
100
AcDbEntity
  8
STANDARDEBENE
  0
POLYLINE
  5
455
330
1F
100
AcDbEntity
  8
STANDARDEBENE
 62
     7
100
AcDb2dPolyline
 66
     1
 10
0.0
 20
0.0
 30
0.0
  0
VERTEX
  5
456
330
455
100
AcDbEntity
  8
STANDARDEBENE
 62
     7
100
AcDbVertex
100
AcDb2dVertex
 10
237.5243475426155
 20
120.9993326520418
 30
0.0
  0
VERTEX
  5
457
330
455
100
AcDbEntity
  8
STANDARDEBENE
 62
     7
100
AcDbVertex
100
AcDb2dVertex
 10
237.604790522196
 20
121.428591549504
 30
0.0
  0
VERTEX
  5
458
330
455
100
AcDbEntity
  8
STANDARDEBENE
 62
     7
100
AcDbVertex
100
AcDb2dVertex
 10
237.604790522196
 20
121.9825629035321
 30
0.0
  0
SEQEND
  5
459
330
455
100
AcDbEntity
  8
STANDARDEBENE
  0
POLYLINE
  5
45A
330
1F
100
AcDbEntity
  8
STANDARDEBENE
 62
     7
100
AcDb2dPolyline
 66
     1
 10
0.0
 20
0.0
 30
0.0
  0
VERTEX
  5
45B
330
45A
100
AcDbEntity
  8
STANDARDEBENE
 62
     7
100
AcDbVertex
100
AcDb2dVertex
 10
237.5243475426155
 20
122.9659654097967
 30
0.0
  0
VERTEX
  5
45C
330
45A
100
AcDbEntity
  8
STANDARDEBENE
 62
     7
100
AcDbVertex
100
AcDb2dVertex
 10
237.4011853790178
 20
123.6246676665765
 30
0.0
  0
VERTEX
  5
45D
330
45A
100
AcDbEntity
  8
STANDARDEBENE
 62
     7
100
AcDbVertex
100
AcDb2dVertex
 10
237.2850856611649
 20
123.9231851903734
 30
0.0
  0
SEQEND
  5
45E
330
45A
100
AcDbEntity
  8
STANDARDEBENE
  0
POLYLINE
  5
45F
330
1F
100
AcDbEntity
  8
STANDARDEBENE
 62
     7
100
AcDb2dPolyline
 66
     1
 10
0.0
 20
0.0
 30
0.0
  0
VERTEX
  5
460
330
45F
100
AcDbEntity
  8
STANDARDEBENE
 62
     7
100
AcDbVertex
100
AcDb2dVertex
 10
236.8935505592662
 20
124.8304510864139
 30
0.0
  0
VERTEX
  5
461
330
45F
100
AcDbEntity
  8
STANDARDEBENE
 62
     7
100
AcDbVertex
100
AcDb2dVertex
 10
236.4179551275275
 20
125.5985351248504
 30
0.0
  0
VERTEX
  5
462
330
45F
100
AcDbEntity
  8
STANDARDEBENE
 62
     7
100
AcDbVertex
100
AcDb2dVertex
 10
236.3595607590525
 20
125.6629584104246
 30
0.0
  0
SEQEND
  5
463
330
45F
100
AcDbEntity
  8
STANDARDEBENE
  0
POLYLINE
  5
464
330
1F
100
AcDbEntity
  8
STANDARDEBENE
 62
     7
100
AcDb2dPolyline
 66
     1
 10
0.0
 20
0.0
 30
0.0
  0
VERTEX
  5
465
330
464
100
AcDbEntity
  8
STANDARDEBENE
 62
     7
100
AcDbVertex
100
AcDb2dVertex
 10
235.6924180183339
 20
126.3946966914916
 30
0.0
  0
VERTEX
  5
466
330
464
100
AcDbEntity
  8
STANDARDEBENE
 62
     7
100
AcDbVertex
100
AcDb2dVertex
 10
235.6722642097452
 20
126.4164007930487
 30
0.0
  0
VERTEX
  5
467
330
464
100
AcDbEntity
  8
STANDARDEBENE
 62
     7
100
AcDbVertex
100
AcDb2dVertex
 10
234.9053859547285
 20
126.9962103632162
 30
0.0
  0
SEQEND
  5
468
330
464
100
AcDbEntity
  8
STANDARDEBENE
  0
POLYLINE
  5
469
330
1F
100
AcDbEntity
  8
STANDARDEBENE
 62
     7
100
AcDb2dPolyline
 66
     1
 10
0.0
 20
0.0
 30
0.0
  0
VERTEX
  5
46A
330
469
100
AcDbEntity
  8
STANDARDEBENE
 62
     7
100
AcDbVertex
100
AcDb2dVertex
 10
234.032226503992
 20
127.4599202155309
 30
0.0
  0
VERTEX
  5
46B
330
469
100
AcDbEntity
  8
STANDARDEBENE
 62
     7
100
AcDbVertex
100
AcDb2dVertex
 10
233.797960010995
 20
127.5770534620294
 30
0.0
  0
VERTEX
  5
46C
330
469
100
AcDbEntity
  8
STANDARDEBENE
 62
     7
100
AcDbVertex
100
AcDb2dVertex
 10
233.0973998440694
 20
127.7765244906253
 30
0.0
  0
SEQEND
  5
46D
330
469
100
AcDbEntity
  8
STANDARDEBENE
  0
POLYLINE
  5
46E
330
1F
100
AcDbEntity
  8
STANDARDEBENE
 62
     7
100
AcDb2dPolyline
 66
     1
 10
0.0
 20
0.0
 30
0.0
  0
VERTEX
  5
46F
330
46E
100
AcDbEntity
  8
STANDARDEBENE
 62
     7
100
AcDbVertex
100
AcDb2dVertex
 10
232.1236436051636
 20
127.9367214306894
 30
0.0
  0
VERTEX
  5
470
330
46E
100
AcDbEntity
  8
STANDARDEBENE
 62
     7
100
AcDbVertex
100
AcDb2dVertex
 10
231.6301336769015
 20
127.9821966910947
 30
0.0
  0
SEQEND
  5
471
330
46E
100
AcDbEntity
  8
STANDARDEBENE
  0
POLYLINE
  5
472
330
1F
100
AcDbEntity
  8
STANDARDEBENE
 62
     7
100
AcDb2dPolyline
 66
     1
 10
0.0
 20
0.0
 30
0.0
  0
VERTEX
  5
473
330
472
100
AcDbEntity
  8
STANDARDEBENE
 62
     7
100
AcDbVertex
100
AcDb2dVertex
 10
231.6301336769015
 20
129.5321451499086
 30
0.0
  0
VERTEX
  5
474
330
472
100
AcDbEntity
  8
STANDARDEBENE
 62
     7
100
AcDbVertex
100
AcDb2dVertex
 10
232.1222655669694
 20
129.4913207684084
 30
0.0
  0
SEQEND
  5
475
330
472
100
AcDbEntity
  8
STANDARDEBENE
  0
POLYLINE
  5
476
330
1F
100
AcDbEntity
  8
STANDARDEBENE
 62
     7
100
AcDb2dPolyline
 66
     1
 10
0.0
 20
0.0
 30
0.0
  0
VERTEX
  5
477
330
476
100
AcDbEntity
  8
STANDARDEBENE
 62
     7
100
AcDbVertex
100
AcDb2dVertex
 10
233.0994669013606
 20
129.3721204646188
 30
0.0
  0
VERTEX
  5
478
330
476
100
AcDbEntity
  8
STANDARDEBENE
 62
     7
100
AcDbVertex
100
AcDb2dVertex
 10
234.0568589367115
 20
129.13010250678
 30
0.0
  0
SEQEND
  5
479
330
476
100
AcDbEntity
  8
STANDARDEBENE
  0
POLYLINE
  5
47A
330
1F
100
AcDbEntity
  8
STANDARDEBENE
 62
     7
100
AcDb2dPolyline
 66
     1
 10
0.0
 20
0.0
 30
0.0
  0
VERTEX
  5
47B
330
47A
100
AcDbEntity
  8
STANDARDEBENE
 62
     7
100
AcDbVertex
100
AcDb2dVertex
 10
234.9617132659124
 20
128.737017111913
 30
0.0
  0
VERTEX
  5
47C
330
47A
100
AcDbEntity
  8
STANDARDEBENE
 62
     7
100
AcDbVertex
100
AcDb2dVertex
 10
235.2238850323399
 20
128.6228121965769
 30
0.0
  0
VERTEX
  5
47D
330
47A
100
AcDbEntity
  8
STANDARDEBENE
 62
     7
100
AcDbVertex
100
AcDb2dVertex
 10
235.8109293030265
 20
128.2385117951973
 30
0.0
  0
SEQEND
  5
47E
330
47A
100
AcDbEntity
  8
STANDARDEBENE
  0
POLYLINE
  5
47F
330
1F
100
AcDbEntity
  8
STANDARDEBENE
 62
     7
100
AcDb2dPolyline
 66
     1
 10
0.0
 20
0.0
 30
0.0
  0
VERTEX
  5
480
330
47F
100
AcDbEntity
  8
STANDARDEBENE
 62
     7
100
AcDbVertex
100
AcDb2dVertex
 10
236.5926214686296
 20
127.6414767476035
 30
0.0
  0
VERTEX
  5
481
330
47F
100
AcDbEntity
  8
STANDARDEBENE
 62
     7
100
AcDbVertex
100
AcDb2dVertex
 10
237.1846611277698
 20
127.0962903870627
 30
0.0
  0
VERTEX
  5
482
330
47F
100
AcDbEntity
  8
STANDARDEBENE
 62
     7
100
AcDbVertex
100
AcDb2dVertex
 10
237.2967989858147
 20
126.9524576505536
 30
0.0
  0
SEQEND
  5
483
330
47F
100
AcDbEntity
  8
STANDARDEBENE
  0
POLYLINE
  5
484
330
1F
100
AcDbEntity
  8
STANDARDEBENE
 62
     7
100
AcDb2dPolyline
 66
     1
 10
0.0
 20
0.0
 30
0.0
  0
VERTEX
  5
485
330
484
100
AcDbEntity
  8
STANDARDEBENE
 62
     7
100
AcDbVertex
100
AcDb2dVertex
 10
237.9029635364444
 20
126.1738660708871
 30
0.0
  0
VERTEX
  5
486
330
484
100
AcDbEntity
  8
STANDARDEBENE
 62
     7
100
AcDbVertex
100
AcDb2dVertex
 10
237.9508503636894
 20
126.1116820973783
 30
0.0
  0
VERTEX
  5
487
330
484
100
AcDbEntity
  8
STANDARDEBENE
 62
     7
100
AcDbVertex
100
AcDb2dVertex
 10
238.383726611411
 20
125.3122476900261
 30
0.0
  0
SEQEND
  5
488
330
484
100
AcDbEntity
  8
STANDARDEBENE
  0
POLYLINE
  5
489
330
1F
100
AcDbEntity
  8
STANDARDEBENE
 62
     7
100
AcDb2dPolyline
 66
     1
 10
0.0
 20
0.0
 30
0.0
  0
VERTEX
  5
48A
330
489
100
AcDbEntity
  8
STANDARDEBENE
 62
     7
100
AcDbVertex
100
AcDb2dVertex
 10
238.7551079047209
 20
124.4013644437261
 30
0.0
  0
VERTEX
  5
48B
330
489
100
AcDbEntity
  8
STANDARDEBENE
 62
     7
100
AcDbVertex
100
AcDb2dVertex
 10
238.9488945257663
 20
123.8363687841451
 30
0.0
  0
VERTEX
  5
48C
330
489
100
AcDbEntity
  8
STANDARDEBENE
 62
     7
100
AcDbVertex
100
AcDb2dVertex
 10
239.0131455565662
 20
123.4517238732169
 30
0.0
  0
SEQEND
  5
48D
330
489
100
AcDbEntity
  8
STANDARDEBENE
  0
POLYLINE
  5
48E
330
1F
100
AcDbEntity
  8
STANDARDEBENE
 62
     7
100
AcDb2dPolyline
 66
     1
 10
0.0
 20
0.0
 30
0.0
  0
VERTEX
  5
48F
330
48E
100
AcDbEntity
  8
STANDARDEBENE
 62
     7
100
AcDbVertex
100
AcDb2dVertex
 10
239.1542222166871
 20
122.4762450865684
 30
0.0
  0
VERTEX
  5
490
330
48E
100
AcDbEntity
  8
STANDARDEBENE
 62
     7
100
AcDbVertex
100
AcDb2dVertex
 10
239.1542222166871
 20
121.4892252300444
 30
0.0
  0
SEQEND
  5
491
330
48E
100
AcDbEntity
  8
STANDARDEBENE
  0
POLYLINE
  5
492
330
1F
100
AcDbEntity
  8
STANDARDEBENE
 62
     7
100
AcDb2dPolyline
 66
     1
 10
0.0
 20
0.0
 30
0.0
  0
VERTEX
  5
493
330
492
100
AcDbEntity
  8
STANDARDEBENE
 62
     7
100
AcDbVertex
100
AcDb2dVertex
 10
239.0131455565662
 20
120.5139186981701
 30
0.0
  0
VERTEX
  5
494
330
492
100
AcDbEntity
  8
STANDARDEBENE
 62
     7
100
AcDbVertex
100
AcDb2dVertex
 10
238.9492390353148
 20
120.129273787242
 30
0.0
  0
VERTEX
  5
495
330
492
100
AcDbEntity
  8
STANDARDEBENE
 62
     7
100
AcDbVertex
100
AcDb2dVertex
 10
238.7551079047209
 20
119.5641058728868
 30
0.0
  0
SEQEND
  5
496
330
492
100
AcDbEntity
  8
STANDARDEBENE
  0
POLYLINE
  5
497
330
1F
100
AcDbEntity
  8
STANDARDEBENE
 62
     7
100
AcDb2dPolyline
 66
     1
 10
0.0
 20
0.0
 30
0.0
  0
VERTEX
  5
498
330
497
100
AcDbEntity
  8
STANDARDEBENE
 62
     7
100
AcDbVertex
100
AcDb2dVertex
 10
238.3840711209596
 20
118.6528781170382
 30
0.0
  0
VERTEX
  5
499
330
497
100
AcDbEntity
  8
STANDARDEBENE
 62
     7
100
AcDbVertex
100
AcDb2dVertex
 10
237.9511948732379
 20
117.8532714549117
 30
0.0
  0
VERTEX
  5
49A
330
497
100
AcDbEntity
  8
STANDARDEBENE
 62
     7
100
AcDbVertex
100
AcDb2dVertex
 10
237.9029635364444
 20
117.7917765005
 30
0.0
  0
SEQEND
  5
49B
330
497
100
AcDbEntity
  8
STANDARDEBENE
  0
POLYLINE
  5
49C
330
1F
100
AcDbEntity
  8
STANDARDEBENE
 62
     7
100
AcDb2dPolyline
 66
     1
 10
0.0
 20
0.0
 30
0.0
  0
VERTEX
  5
49D
330
49C
100
AcDbEntity
  8
STANDARDEBENE
 62
     7
100
AcDbVertex
100
AcDb2dVertex
 10
237.2967989858147
 20
117.012840411285
 30
0.0
  0
VERTEX
  5
49E
330
49C
100
AcDbEntity
  8
STANDARDEBENE
 62
     7
100
AcDbVertex
100
AcDb2dVertex
 10
237.1850056373183
 20
116.8693521843243
 30
0.0
  0
VERTEX
  5
49F
330
49C
100
AcDbEntity
  8
STANDARDEBENE
 62
     7
100
AcDbVertex
100
AcDb2dVertex
 10
236.5929659781782
 20
116.3236490594608
 30
0.0
  0
SEQEND
  5
4A0
330
49C
100
AcDbEntity
  8
STANDARDEBENE
  0
POLYLINE
  5
4A1
330
1F
100
AcDbEntity
  8
STANDARDEBENE
 62
     7
100
AcDb2dPolyline
 66
     1
 10
0.0
 20
0.0
 30
0.0
  0
VERTEX
  5
4A2
330
4A1
100
AcDbEntity
  8
STANDARDEBENE
 62
     7
100
AcDbVertex
100
AcDb2dVertex
 10
235.8109293030265
 20
115.7262695023184
 30
0.0
  0
VERTEX
  5
4A3
330
4A1
100
AcDbEntity
  8
STANDARDEBENE
 62
     7
100
AcDbVertex
100
AcDb2dVertex
 10
235.2242295418884
 20
115.3428303748101
 30
0.0
  0
VERTEX
  5
4A4
330
4A1
100
AcDbEntity
  8
STANDARDEBENE
 62
     7
100
AcDbVertex
100
AcDb2dVertex
 10
234.9624022850094
 20
115.2274196760543
 30
0.0
  0
SEQEND
  5
4A5
330
4A1
100
AcDbEntity
  8
STANDARDEBENE
  0
POLYLINE
  5
4A6
330
1F
100
AcDbEntity
  8
STANDARDEBENE
 62
     7
100
AcDb2dPolyline
 66
     1
 10
0.0
 20
0.0
 30
0.0
  0
VERTEX
  5
4A7
330
4A6
100
AcDbEntity
  8
STANDARDEBENE
 62
     7
100
AcDbVertex
100
AcDb2dVertex
 10
234.0568589367115
 20
114.8355400646071
 30
0.0
  0
VERTEX
  5
4A8
330
4A6
100
AcDbEntity
  8
STANDARDEBENE
 62
     7
100
AcDbVertex
100
AcDb2dVertex
 10
233.1001559204576
 20
114.5931775972198
 30
0.0
  0
SEQEND
  5
4A9
330
4A6
100
AcDbEntity
  8
STANDARDEBENE
  0
POLYLINE
  5
4AA
330
1F
100
AcDbEntity
  8
STANDARDEBENE
 62
     7
100
AcDb2dPolyline
 66
     1
 10
0.0
 20
0.0
 30
0.0
  0
VERTEX
  5
4AB
330
4AA
100
AcDbEntity
  8
STANDARDEBENE
 62
     7
100
AcDbVertex
100
AcDb2dVertex
 10
232.1222655669694
 20
114.4732882743331
 30
0.0
  0
VERTEX
  5
4AC
330
4AA
100
AcDbEntity
  8
STANDARDEBENE
 62
     7
100
AcDbVertex
100
AcDb2dVertex
 10
231.63047818645
 20
114.4322916380586
 30
0.0
  0
VERTEX
  5
4AD
330
4AA
100
AcDbEntity
  8
STANDARDEBENE
 62
     7
100
AcDbVertex
100
AcDb2dVertex
 10
231.1386908059306
 20
114.4729437647845
 30
0.0
  0
SEQEND
  5
4AE
330
4AA
100
AcDbEntity
  8
STANDARDEBENE
  0
POLYLINE
  5
4AF
330
1F
100
AcDbEntity
  8
STANDARDEBENE
 62
     7
100
AcDb2dPolyline
 66
     1
 10
0.0
 20
0.0
 30
0.0
  0
VERTEX
  5
4B0
330
4AF
100
AcDbEntity
  8
STANDARDEBENE
 62
     7
100
AcDbVertex
100
AcDb2dVertex
 10
230.1614894715395
 20
114.5928330876712
 30
0.0
  0
VERTEX
  5
4B1
330
4AF
100
AcDbEntity
  8
STANDARDEBENE
 62
     7
100
AcDbVertex
100
AcDb2dVertex
 10
229.2044419457371
 20
114.8351955550586
 30
0.0
  0
SEQEND
  5
4B2
330
4AF
100
AcDbEntity
  8
STANDARDEBENE
  0
POLYLINE
  5
4B3
330
1F
100
AcDbEntity
  8
STANDARDEBENE
 62
     7
100
AcDb2dPolyline
 66
     1
 10
0.0
 20
0.0
 30
0.0
  0
VERTEX
  5
4B4
330
4B3
100
AcDbEntity
  8
STANDARDEBENE
 62
     7
100
AcDbVertex
100
AcDb2dVertex
 10
228.2992431069877
 20
115.2274196760543
 30
0.0
  0
VERTEX
  5
4B5
330
4B3
100
AcDbEntity
  8
STANDARDEBENE
 62
     7
100
AcDbVertex
100
AcDb2dVertex
 10
228.0374158501087
 20
115.3424858652616
 30
0.0
  0
VERTEX
  5
4B6
330
4B3
100
AcDbEntity
  8
STANDARDEBENE
 62
     7
100
AcDbVertex
100
AcDb2dVertex
 10
227.4496825603251
 20
115.7259249927699
 30
0.0
  0
SEQEND
  5
4B7
330
4B3
100
AcDbEntity
  8
STANDARDEBENE
  0
POLYLINE
  5
4B8
330
1F
100
AcDbEntity
  8
STANDARDEBENE
 62
     7
100
AcDb2dPolyline
 66
     1
 10
0.0
 20
0.0
 30
0.0
  0
VERTEX
  5
4B9
330
4B8
100
AcDbEntity
  8
STANDARDEBENE
 62
     7
100
AcDbVertex
100
AcDb2dVertex
 10
226.6686794138189
 20
116.3233045499122
 30
0.0
  0
VERTEX
  5
4BA
330
4B8
100
AcDbEntity
  8
STANDARDEBENE
 62
     7
100
AcDbVertex
100
AcDb2dVertex
 10
226.0756062260332
 20
116.8690076747758
 30
0.0
  0
VERTEX
  5
4BB
330
4B8
100
AcDbEntity
  8
STANDARDEBENE
 62
     7
100
AcDbVertex
100
AcDb2dVertex
 10
225.9641573870854
 20
117.0118068826394
 30
0.0
  0
SEQEND
  5
4BC
330
4B8
100
AcDbEntity
  8
STANDARDEBENE
  0
POLYLINE
  5
4BD
330
1F
100
AcDbEntity
  8
STANDARDEBENE
 62
     7
100
AcDb2dPolyline
 66
     1
 10
0.0
 20
0.0
 30
0.0
  0
VERTEX
  5
4BE
330
4BD
100
AcDbEntity
  8
STANDARDEBENE
 62
     7
100
AcDbVertex
100
AcDb2dVertex
 10
225.3581650912299
 20
117.7907429718544
 30
0.0
  0
VERTEX
  5
4BF
330
4BD
100
AcDbEntity
  8
STANDARDEBENE
 62
     7
100
AcDbVertex
100
AcDb2dVertex
 10
225.3101060092107
 20
117.8529269453632
 30
0.0
  0
VERTEX
  5
4C0
330
4BD
100
AcDbEntity
  8
STANDARDEBENE
 62
     7
100
AcDbVertex
100
AcDb2dVertex
 10
224.8768852519405
 20
118.6518445883926
 30
0.0
  0
SEQEND
  5
4C1
330
4BD
100
AcDbEntity
  8
STANDARDEBENE
  0
POLYLINE
  5
4C2
330
1F
100
AcDbEntity
  8
STANDARDEBENE
 62
     7
100
AcDb2dPolyline
 66
     1
 10
0.0
 20
0.0
 30
0.0
  0
VERTEX
  5
4C3
330
4C2
100
AcDbEntity
  8
STANDARDEBENE
 62
     7
100
AcDbVertex
100
AcDb2dVertex
 10
224.5055039586306
 20
119.5630723442412
 30
0.0
  0
VERTEX
  5
4C4
330
4C2
100
AcDbEntity
  8
STANDARDEBENE
 62
     7
100
AcDbVertex
100
AcDb2dVertex
 10
224.3117173375853
 20
120.1285847681449
 30
0.0
  0
VERTEX
  5
4C5
330
4C2
100
AcDbEntity
  8
STANDARDEBENE
 62
     7
100
AcDbVertex
100
AcDb2dVertex
 10
224.2471217972368
 20
120.5128851695246
 30
0.0
  0
SEQEND
  5
4C6
330
4C2
100
AcDbEntity
  8
STANDARDEBENE
  0
POLYLINE
  5
4C7
330
1F
100
AcDbEntity
  8
STANDARDEBENE
 62
     7
100
AcDb2dPolyline
 66
     1
 10
0.0
 20
0.0
 30
0.0
  0
VERTEX
  5
4C8
330
4C7
100
AcDbEntity
  8
STANDARDEBENE
 62
     7
100
AcDbVertex
100
AcDb2dVertex
 10
224.1063896466644
 20
121.4881917013988
 30
0.0
  0
VERTEX
  5
4C9
330
4C7
100
AcDbEntity
  8
STANDARDEBENE
 62
     7
100
AcDbVertex
100
AcDb2dVertex
 10
224.1060451371159
 20
122.4752115579229
 30
0.0
  0
SEQEND
  5
4CA
330
4C7
100
AcDbEntity
  8
STANDARDEBENE
  0
POLYLINE
  5
4CB
330
1F
100
AcDbEntity
  8
STANDARDEBENE
 62
     7
100
AcDb2dPolyline
 66
     1
 10
0.0
 20
0.0
 30
0.0
  0
VERTEX
  5
4CC
330
4CB
100
AcDbEntity
  8
STANDARDEBENE
 62
     7
100
AcDbVertex
100
AcDb2dVertex
 10
224.2471217972368
 20
123.4510348541199
 30
0.0
  0
VERTEX
  5
4CD
330
4CB
100
AcDbEntity
  8
STANDARDEBENE
 62
     7
100
AcDbVertex
100
AcDb2dVertex
 10
224.3113728280368
 20
123.8353352554995
 30
0.0
  0
VERTEX
  5
4CE
330
4CB
100
AcDbEntity
  8
STANDARDEBENE
 62
     7
100
AcDbVertex
100
AcDb2dVertex
 10
224.505159449082
 20
124.4003309150805
 30
0.0
  0
SEQEND
  5
4CF
330
4CB
100
AcDbEntity
  8
STANDARDEBENE
  0
POLYLINE
  5
4D0
330
1F
100
AcDbEntity
  8
STANDARDEBENE
 62
     7
100
AcDb2dPolyline
 66
     1
 10
0.0
 20
0.0
 30
0.0
  0
VERTEX
  5
4D1
330
4D0
100
AcDbEntity
  8
STANDARDEBENE
 62
     7
100
AcDbVertex
100
AcDb2dVertex
 10
224.876540742392
 20
125.3119031804776
 30
0.0
  0
VERTEX
  5
4D2
330
4D0
100
AcDbEntity
  8
STANDARDEBENE
 62
     7
100
AcDbVertex
100
AcDb2dVertex
 10
225.3090724805651
 20
126.1113375878298
 30
0.0
  0
VERTEX
  5
4D3
330
4D0
100
AcDbEntity
  8
STANDARDEBENE
 62
     7
100
AcDbVertex
100
AcDb2dVertex
 10
225.3571315625843
 20
126.1728325422415
 30
0.0
  0
SEQEND
  5
4D4
330
4D0
100
AcDbEntity
  8
STANDARDEBENE
  0
POLYLINE
  5
4D5
330
1F
100
AcDbEntity
  8
STANDARDEBENE
 62
     7
100
AcDb2dPolyline
 66
     1
 10
0.0
 20
0.0
 30
0.0
  0
VERTEX
  5
4D6
330
4D5
100
AcDbEntity
  8
STANDARDEBENE
 62
     7
100
AcDbVertex
100
AcDb2dVertex
 10
225.9634683679883
 20
126.952113141005
 30
0.0
  0
VERTEX
  5
4D7
330
4D5
100
AcDbEntity
  8
STANDARDEBENE
 62
     7
100
AcDbVertex
100
AcDb2dVertex
 10
226.0752617164847
 20
127.0952568584172
 30
0.0
  0
VERTEX
  5
4D8
330
4D5
100
AcDbEntity
  8
STANDARDEBENE
 62
     7
100
AcDbVertex
100
AcDb2dVertex
 10
226.6676458851734
 20
127.6409599832807
 30
0.0
  0
SEQEND
  5
4D9
330
4D5
100
AcDbEntity
  8
STANDARDEBENE
  0
POLYLINE
  5
4DA
330
1F
100
AcDbEntity
  8
STANDARDEBENE
 62
     7
100
AcDb2dPolyline
 66
     1
 10
0.0
 20
0.0
 30
0.0
  0
VERTEX
  5
4DB
330
4DA
100
AcDbEntity
  8
STANDARDEBENE
 62
     7
100
AcDbVertex
100
AcDb2dVertex
 10
227.4493380507766
 20
128.2381672856488
 30
0.0
  0
VERTEX
  5
4DC
330
4DA
100
AcDbEntity
  8
STANDARDEBENE
 62
     7
100
AcDbVertex
100
AcDb2dVertex
 10
228.0363823214632
 20
128.6224676870284
 30
0.0
  0
VERTEX
  5
4DD
330
4DA
100
AcDbEntity
  8
STANDARDEBENE
 62
     7
100
AcDbVertex
100
AcDb2dVertex
 10
228.2978650687936
 20
128.7366726023645
 30
0.0
  0
SEQEND
  5
4DE
330
4DA
100
AcDbEntity
  8
STANDARDEBENE
  0
POLYLINE
  5
4DF
330
1F
100
AcDbEntity
  8
STANDARDEBENE
 62
     7
100
AcDb2dPolyline
 66
     1
 10
0.0
 20
0.0
 30
0.0
  0
VERTEX
  5
4E0
330
4DF
100
AcDbEntity
  8
STANDARDEBENE
 62
     7
100
AcDbVertex
100
AcDb2dVertex
 10
229.203063907543
 20
129.1297579972315
 30
0.0
  0
VERTEX
  5
4E1
330
4DF
100
AcDbEntity
  8
STANDARDEBENE
 62
     7
100
AcDbVertex
100
AcDb2dVertex
 10
230.1601114333454
 20
129.3721204646188
 30
0.0
  0
SEQEND
  5
4E2
330
4DF
100
AcDbEntity
  8
STANDARDEBENE
  0
POLYLINE
  5
4E3
330
1F
100
AcDbEntity
  8
STANDARDEBENE
 62
     7
100
AcDb2dPolyline
 66
     1
 10
0.0
 20
0.0
 30
0.0
  0
VERTEX
  5
4E4
330
4E3
100
AcDbEntity
  8
STANDARDEBENE
 62
     7
100
AcDbVertex
100
AcDb2dVertex
 10
231.1373127677365
 20
129.4913207684084
 30
0.0
  0
VERTEX
  5
4E5
330
4E3
100
AcDbEntity
  8
STANDARDEBENE
 62
     7
100
AcDbVertex
100
AcDb2dVertex
 10
231.629789167353
 20
129.5321451499086
 30
0.0
  0
SEQEND
  5
4E6
330
4E3
100
AcDbEntity
  8
STANDARDEBENE
  0
POLYLINE
  5
4E7
330
1F
100
AcDbEntity
  8
STANDARDEBENE
 62
     7
100
AcDb2dPolyline
 66
     1
 10
0.0
 20
0.0
 30
0.0
  0
VERTEX
  5
4E8
330
4E7
100
AcDbEntity
  8
STANDARDEBENE
 62
     7
100
AcDbVertex
100
AcDb2dVertex
 10
231.6301336769015
 20
127.7820366434017
 30
0.0
  0
VERTEX
  5
4E9
330
4E7
100
AcDbEntity
  8
STANDARDEBENE
 62
     7
100
AcDbVertex
100
AcDb2dVertex
 10
232.1336343820708
 20
127.7341498161567
 30
0.0
  0
SEQEND
  5
4EA
330
4E7
100
AcDbEntity
  8
STANDARDEBENE
  0
POLYLINE
  5
4EB
330
1F
100
AcDbEntity
  8
STANDARDEBENE
 62
     7
100
AcDb2dPolyline
 66
     1
 10
0.0
 20
0.0
 30
0.0
  0
VERTEX
  5
4EC
330
4EB
100
AcDbEntity
  8
STANDARDEBENE
 62
     7
100
AcDbVertex
100
AcDb2dVertex
 10
233.1244438436286
 20
127.5612060227972
 30
0.0
  0
VERTEX
  5
4ED
330
4EB
100
AcDbEntity
  8
STANDARDEBENE
 62
     7
100
AcDbVertex
100
AcDb2dVertex
 10
233.7859021767966
 20
127.3672471469776
 30
0.0
  0
VERTEX
  5
4EE
330
4EB
100
AcDbEntity
  8
STANDARDEBENE
 62
     7
100
AcDbVertex
100
AcDb2dVertex
 10
234.0720173568466
 20
127.2197970602089
 30
0.0
  0
SEQEND
  5
4EF
330
4EB
100
AcDbEntity
  8
STANDARDEBENE
  0
POLYLINE
  5
4F0
330
1F
100
AcDbEntity
  8
STANDARDEBENE
 62
     7
100
AcDb2dPolyline
 66
     1
 10
0.0
 20
0.0
 30
0.0
  0
VERTEX
  5
4F1
330
4F0
100
AcDbEntity
  8
STANDARDEBENE
 62
     7
100
AcDbVertex
100
AcDb2dVertex
 10
234.9462103362287
 20
126.7199137052992
 30
0.0
  0
VERTEX
  5
4F2
330
4F0
100
AcDbEntity
  8
STANDARDEBENE
 62
     7
100
AcDbVertex
100
AcDb2dVertex
 10
235.632817866439
 20
126.1800672427605
 30
0.0
  0
VERTEX
  5
4F3
330
4F0
100
AcDbEntity
  8
STANDARDEBENE
 62
     7
100
AcDbVertex
100
AcDb2dVertex
 10
235.722734858604
 20
126.0756808495575
 30
0.0
  0
SEQEND
  5
4F4
330
4F0
100
AcDbEntity
  8
STANDARDEBENE
  0
POLYLINE
  5
4F5
330
1F
100
AcDbEntity
  8
STANDARDEBENE
 62
     7
100
AcDb2dPolyline
 66
     1
 10
0.0
 20
0.0
 30
0.0
  0
VERTEX
  5
4F6
330
4F5
100
AcDbEntity
  8
STANDARDEBENE
 62
     7
100
AcDbVertex
100
AcDb2dVertex
 10
236.3774752555758
 20
125.3070800467982
 30
0.0
  0
VERTEX
  5
4F7
330
4F5
100
AcDbEntity
  8
STANDARDEBENE
 62
     7
100
AcDbVertex
100
AcDb2dVertex
 10
236.8830430180362
 20
124.4316812839963
 30
0.0
  0
SEQEND
  5
4F8
330
4F5
100
AcDbEntity
  8
STANDARDEBENE
  0
POLYLINE
  5
4F9
330
1F
100
AcDbEntity
  8
STANDARDEBENE
 62
     7
100
AcDb2dPolyline
 66
     1
 10
0.0
 20
0.0
 30
0.0
  0
VERTEX
  5
4FA
330
4F9
100
AcDbEntity
  8
STANDARDEBENE
 62
     7
100
AcDbVertex
100
AcDb2dVertex
 10
237.2220404137848
 20
123.4803181657445
 30
0.0
  0
VERTEX
  5
4FB
330
4F9
100
AcDbEntity
  8
STANDARDEBENE
 62
     7
100
AcDbVertex
100
AcDb2dVertex
 10
237.2664821455445
 20
123.3499213016278
 30
0.0
  0
VERTEX
  5
4FC
330
4F9
100
AcDbEntity
  8
STANDARDEBENE
 62
     7
100
AcDbVertex
100
AcDb2dVertex
 10
237.3913668568848
 20
122.4862358634757
 30
0.0
  0
SEQEND
  5
4FD
330
4F9
100
AcDbEntity
  8
STANDARDEBENE
  0
POLYLINE
  5
4FE
330
1F
100
AcDbEntity
  8
STANDARDEBENE
 62
     7
100
AcDb2dPolyline
 66
     1
 10
0.0
 20
0.0
 30
0.0
  0
VERTEX
  5
4FF
330
4FE
100
AcDbEntity
  8
STANDARDEBENE
 62
     7
100
AcDbVertex
100
AcDb2dVertex
 10
237.3867159779797
 20
121.4787176888144
 30
0.0
  0
VERTEX
  5
500
330
4FE
100
AcDbEntity
  8
STANDARDEBENE
 62
     7
100
AcDbVertex
100
AcDb2dVertex
 10
237.3712130482961
 20
121.156945770492
 30
0.0
  0
VERTEX
  5
501
330
4FE
100
AcDbEntity
  8
STANDARDEBENE
 62
     7
100
AcDbVertex
100
AcDb2dVertex
 10
237.2086045413923
 20
120.4873914629337
 30
0.0
  0
SEQEND
  5
502
330
4FE
100
AcDbEntity
  8
STANDARDEBENE
  0
POLYLINE
  5
503
330
1F
100
AcDbEntity
  8
STANDARDEBENE
 62
     7
100
AcDb2dPolyline
 66
     1
 10
0.0
 20
0.0
 30
0.0
  0
VERTEX
  5
504
330
503
100
AcDbEntity
  8
STANDARDEBENE
 62
     7
100
AcDbVertex
100
AcDb2dVertex
 10
236.8635782285445
 20
119.5422295165554
 30
0.0
  0
VERTEX
  5
505
330
503
100
AcDbEntity
  8
STANDARDEBENE
 62
     7
100
AcDbVertex
100
AcDb2dVertex
 10
236.6534274039443
 20
119.0826537788231
 30
0.0
  0
VERTEX
  5
506
330
503
100
AcDbEntity
  8
STANDARDEBENE
 62
     7
100
AcDbVertex
100
AcDb2dVertex
 10
236.3605942876981
 20
118.6706203587872
 30
0.0
  0
SEQEND
  5
507
330
503
100
AcDbEntity
  8
STANDARDEBENE
  0
POLYLINE
  5
508
330
1F
100
AcDbEntity
  8
STANDARDEBENE
 62
     7
100
AcDb2dPolyline
 66
     1
 10
0.0
 20
0.0
 30
0.0
  0
VERTEX
  5
509
330
508
100
AcDbEntity
  8
STANDARDEBENE
 62
     7
100
AcDbVertex
100
AcDb2dVertex
 10
235.7142943746652
 20
117.8990912248655
 30
0.0
  0
VERTEX
  5
50A
330
508
100
AcDbEntity
  8
STANDARDEBENE
 62
     7
100
AcDbVertex
100
AcDb2dVertex
 10
235.2157890579495
 20
117.4234957931268
 30
0.0
  0
VERTEX
  5
50B
330
508
100
AcDbEntity
  8
STANDARDEBENE
 62
     7
100
AcDbVertex
100
AcDb2dVertex
 10
234.9455213171317
 20
117.2496907258959
 30
0.0
  0
SEQEND
  5
50C
330
508
100
AcDbEntity
  8
STANDARDEBENE
  0
POLYLINE
  5
50D
330
1F
100
AcDbEntity
  8
STANDARDEBENE
 62
     7
100
AcDb2dPolyline
 66
     1
 10
0.0
 20
0.0
 30
0.0
  0
VERTEX
  5
50E
330
50D
100
AcDbEntity
  8
STANDARDEBENE
 62
     7
100
AcDbVertex
100
AcDb2dVertex
 10
234.0749456880091
 20
116.7418836513701
 30
0.0
  0
VERTEX
  5
50F
330
50D
100
AcDbEntity
  8
STANDARDEBENE
 62
     7
100
AcDbVertex
100
AcDb2dVertex
 10
233.2650037394268
 20
116.4177001662081
 30
0.0
  0
VERTEX
  5
510
330
50D
100
AcDbEntity
  8
STANDARDEBENE
 62
     7
100
AcDbVertex
100
AcDb2dVertex
 10
233.1294392320822
 20
116.3911729309717
 30
0.0
  0
SEQEND
  5
511
330
50D
100
AcDbEntity
  8
STANDARDEBENE
  0
POLYLINE
  5
512
330
1F
100
AcDbEntity
  8
STANDARDEBENE
 62
     7
100
AcDb2dPolyline
 66
     1
 10
0.0
 20
0.0
 30
0.0
  0
VERTEX
  5
513
330
512
100
AcDbEntity
  8
STANDARDEBENE
 62
     7
100
AcDbVertex
100
AcDb2dVertex
 10
232.1357014393619
 20
116.2085828702534
 30
0.0
  0
VERTEX
  5
514
330
512
100
AcDbEntity
  8
STANDARDEBENE
 62
     7
100
AcDbVertex
100
AcDb2dVertex
 10
231.1249104239896
 20
116.2085828702534
 30
0.0
  0
SEQEND
  5
515
330
512
100
AcDbEntity
  8
STANDARDEBENE
  0
POLYLINE
  5
516
330
1F
100
AcDbEntity
  8
STANDARDEBENE
 62
     7
100
AcDb2dPolyline
 66
     1
 10
0.0
 20
0.0
 30
0.0
  0
VERTEX
  5
517
330
516
100
AcDbEntity
  8
STANDARDEBENE
 62
     7
100
AcDbVertex
100
AcDb2dVertex
 10
230.1315171408178
 20
116.3908284214231
 30
0.0
  0
VERTEX
  5
518
330
516
100
AcDbEntity
  8
STANDARDEBENE
 62
     7
100
AcDbVertex
100
AcDb2dVertex
 10
229.9968139073445
 20
116.417011147111
 30
0.0
  0
VERTEX
  5
519
330
516
100
AcDbEntity
  8
STANDARDEBENE
 62
     7
100
AcDbVertex
100
AcDb2dVertex
 10
229.186010684891
 20
116.7418836513701
 30
0.0
  0
SEQEND
  5
51A
330
516
100
AcDbEntity
  8
STANDARDEBENE
  0
POLYLINE
  5
51B
330
1F
100
AcDbEntity
  8
STANDARDEBENE
 62
     7
100
AcDb2dPolyline
 66
     1
 10
0.0
 20
0.0
 30
0.0
  0
VERTEX
  5
51C
330
51B
100
AcDbEntity
  8
STANDARDEBENE
 62
     7
100
AcDbVertex
100
AcDb2dVertex
 10
228.3161240748654
 20
117.2491739615731
 30
0.0
  0
VERTEX
  5
51D
330
51B
100
AcDbEntity
  8
STANDARDEBENE
 62
     7
100
AcDbVertex
100
AcDb2dVertex
 10
228.0451673149505
 20
117.4228067740297
 30
0.0
  0
VERTEX
  5
51E
330
51B
100
AcDbEntity
  8
STANDARDEBENE
 62
     7
100
AcDbVertex
100
AcDb2dVertex
 10
227.5464897434606
 20
117.898746715317
 30
0.0
  0
SEQEND
  5
51F
330
51B
100
AcDbEntity
  8
STANDARDEBENE
  0
POLYLINE
  5
520
330
1F
100
AcDbEntity
  8
STANDARDEBENE
 62
     7
100
AcDb2dPolyline
 66
     1
 10
0.0
 20
0.0
 30
0.0
  0
VERTEX
  5
521
330
520
100
AcDbEntity
  8
STANDARDEBENE
 62
     7
100
AcDbVertex
100
AcDb2dVertex
 10
226.9005343399763
 20
118.6706203587872
 30
0.0
  0
VERTEX
  5
522
330
520
100
AcDbEntity
  8
STANDARDEBENE
 62
     7
100
AcDbVertex
100
AcDb2dVertex
 10
226.60770122373
 20
119.0823092692746
 30
0.0
  0
VERTEX
  5
523
330
520
100
AcDbEntity
  8
STANDARDEBENE
 62
     7
100
AcDbVertex
100
AcDb2dVertex
 10
226.3977226539041
 20
119.5418850070069
 30
0.0
  0
SEQEND
  5
524
330
520
100
AcDbEntity
  8
STANDARDEBENE
  0
POLYLINE
  5
525
330
1F
100
AcDbEntity
  8
STANDARDEBENE
 62
     7
100
AcDb2dPolyline
 66
     1
 10
0.0
 20
0.0
 30
0.0
  0
VERTEX
  5
526
330
525
100
AcDbEntity
  8
STANDARDEBENE
 62
     7
100
AcDbVertex
100
AcDb2dVertex
 10
226.0520073219592
 20
120.4870469533852
 30
0.0
  0
VERTEX
  5
527
330
525
100
AcDbEntity
  8
STANDARDEBENE
 62
     7
100
AcDbVertex
100
AcDb2dVertex
 10
225.8890543055069
 20
121.1566012609435
 30
0.0
  0
VERTEX
  5
528
330
525
100
AcDbEntity
  8
STANDARDEBENE
 62
     7
100
AcDbVertex
100
AcDb2dVertex
 10
225.8738958853718
 20
121.4775119053945
 30
0.0
  0
SEQEND
  5
529
330
525
100
AcDbEntity
  8
STANDARDEBENE
  0
POLYLINE
  5
52A
330
1F
100
AcDbEntity
  8
STANDARDEBENE
 62
     7
100
AcDb2dPolyline
 66
     1
 10
0.0
 20
0.0
 30
0.0
  0
VERTEX
  5
52B
330
52A
100
AcDbEntity
  8
STANDARDEBENE
 62
     7
100
AcDbVertex
100
AcDb2dVertex
 10
225.8692450064667
 20
122.4852023348301
 30
0.0
  0
VERTEX
  5
52C
330
52A
100
AcDbEntity
  8
STANDARDEBENE
 62
     7
100
AcDbVertex
100
AcDb2dVertex
 10
225.9937852082585
 20
123.3495767920793
 30
0.0
  0
VERTEX
  5
52D
330
52A
100
AcDbEntity
  8
STANDARDEBENE
 62
     7
100
AcDbVertex
100
AcDb2dVertex
 10
226.0385714495667
 20
123.479973656196
 30
0.0
  0
SEQEND
  5
52E
330
52A
100
AcDbEntity
  8
STANDARDEBENE
  0
POLYLINE
  5
52F
330
1F
100
AcDbEntity
  8
STANDARDEBENE
 62
     7
100
AcDb2dPolyline
 66
     1
 10
0.0
 20
0.0
 30
0.0
  0
VERTEX
  5
530
330
52F
100
AcDbEntity
  8
STANDARDEBENE
 62
     7
100
AcDbVertex
100
AcDb2dVertex
 10
226.3772243357668
 20
124.4313367744477
 30
0.0
  0
VERTEX
  5
531
330
52F
100
AcDbEntity
  8
STANDARDEBENE
 62
     7
100
AcDbVertex
100
AcDb2dVertex
 10
226.8827920982272
 20
125.3067355372497
 30
0.0
  0
SEQEND
  5
532
330
52F
100
AcDbEntity
  8
STANDARDEBENE
  0
POLYLINE
  5
533
330
1F
100
AcDbEntity
  8
STANDARDEBENE
 62
     7
100
AcDb2dPolyline
 66
     1
 10
0.0
 20
0.0
 30
0.0
  0
VERTEX
  5
534
330
533
100
AcDbEntity
  8
STANDARDEBENE
 62
     7
100
AcDbVertex
100
AcDb2dVertex
 10
227.5371879856504
 20
126.0753363400089
 30
0.0
  0
VERTEX
  5
535
330
533
100
AcDbEntity
  8
STANDARDEBENE
 62
     7
100
AcDbVertex
100
AcDb2dVertex
 10
227.627449487364
 20
126.1793782236635
 30
0.0
  0
VERTEX
  5
536
330
533
100
AcDbEntity
  8
STANDARDEBENE
 62
     7
100
AcDbVertex
100
AcDb2dVertex
 10
228.3133679984772
 20
126.7195691957507
 30
0.0
  0
SEQEND
  5
537
330
533
100
AcDbEntity
  8
STANDARDEBENE
  0
POLYLINE
  5
538
330
1F
100
AcDbEntity
  8
STANDARDEBENE
 62
     7
100
AcDb2dPolyline
 66
     1
 10
0.0
 20
0.0
 30
0.0
  0
VERTEX
  5
539
330
538
100
AcDbEntity
  8
STANDARDEBENE
 62
     7
100
AcDbVertex
100
AcDb2dVertex
 10
229.1882499969564
 20
127.2191080411119
 30
0.0
  0
VERTEX
  5
53A
330
538
100
AcDbEntity
  8
STANDARDEBENE
 62
     7
100
AcDbVertex
100
AcDb2dVertex
 10
229.4743651770064
 20
127.3665581278806
 30
0.0
  0
VERTEX
  5
53B
330
538
100
AcDbEntity
  8
STANDARDEBENE
 62
     7
100
AcDbVertex
100
AcDb2dVertex
 10
230.1354790006258
 20
127.5612060227972
 30
0.0
  0
SEQEND
  5
53C
330
538
100
AcDbEntity
  8
STANDARDEBENE
  0
POLYLINE
  5
53D
330
1F
100
AcDbEntity
  8
STANDARDEBENE
 62
     7
100
AcDb2dPolyline
 66
     1
 10
0.0
 20
0.0
 30
0.0
  0
VERTEX
  5
53E
330
53D
100
AcDbEntity
  8
STANDARDEBENE
 62
     7
100
AcDbVertex
100
AcDb2dVertex
 10
231.1262884621837
 20
127.7341498161567
 30
0.0
  0
VERTEX
  5
53F
330
53D
100
AcDbEntity
  8
STANDARDEBENE
 62
     7
100
AcDbVertex
100
AcDb2dVertex
 10
231.629789167353
 20
127.7820366434017
 30
0.0
  0
VERTEX
  5
540
330
53D
100
AcDbEntity
  8
STANDARDEBENE
 62
     7
100
AcDbVertex
100
AcDb2dVertex
 10
232.1336343820708
 20
127.7341498161567
 30
0.0
  0
SEQEND
  5
541
330
53D
100
AcDbEntity
  8
STANDARDEBENE
  0
POLYLINE
  5
542
330
1F
100
AcDbEntity
  8
STANDARDEBENE
 62
     7
100
AcDb2dPolyline
 66
     1
 10
0.0
 20
0.0
 30
0.0
  0
VERTEX
  5
543
330
542
100
AcDbEntity
  8
STANDARDEBENE
 62
     7
100
AcDbVertex
100
AcDb2dVertex
 10
233.1244438436286
 20
127.5612060227972
 30
0.0
  0
VERTEX
  5
544
330
542
100
AcDbEntity
  8
STANDARDEBENE
 62
     7
100
AcDbVertex
100
AcDb2dVertex
 10
233.7859021767966
 20
127.3672471469776
 30
0.0
  0
VERTEX
  5
545
330
542
100
AcDbEntity
  8
STANDARDEBENE
 62
     7
100
AcDbVertex
100
AcDb2dVertex
 10
234.0720173568466
 20
127.2197970602089
 30
0.0
  0
SEQEND
  5
546
330
542
100
AcDbEntity
  8
STANDARDEBENE
  0
POLYLINE
  5
547
330
1F
100
AcDbEntity
  8
STANDARDEBENE
 62
     7
100
AcDb2dPolyline
 66
     1
 10
0.0
 20
0.0
 30
0.0
  0
VERTEX
  5
548
330
547
100
AcDbEntity
  8
STANDARDEBENE
 62
     7
100
AcDbVertex
100
AcDb2dVertex
 10
234.9462103362287
 20
126.7199137052992
 30
0.0
  0
VERTEX
  5
549
330
547
100
AcDbEntity
  8
STANDARDEBENE
 62
     7
100
AcDbVertex
100
AcDb2dVertex
 10
235.632817866439
 20
126.1800672427605
 30
0.0
  0
VERTEX
  5
54A
330
547
100
AcDbEntity
  8
STANDARDEBENE
 62
     7
100
AcDbVertex
100
AcDb2dVertex
 10
235.722734858604
 20
126.0756808495575
 30
0.0
  0
SEQEND
  5
54B
330
547
100
AcDbEntity
  8
STANDARDEBENE
  0
POLYLINE
  5
54C
330
1F
100
AcDbEntity
  8
STANDARDEBENE
 62
     7
100
AcDb2dPolyline
 66
     1
 10
0.0
 20
0.0
 30
0.0
  0
VERTEX
  5
54D
330
54C
100
AcDbEntity
  8
STANDARDEBENE
 62
     7
100
AcDbVertex
100
AcDb2dVertex
 10
236.3774752555758
 20
125.3070800467982
 30
0.0
  0
VERTEX
  5
54E
330
54C
100
AcDbEntity
  8
STANDARDEBENE
 62
     7
100
AcDbVertex
100
AcDb2dVertex
 10
236.8830430180362
 20
124.4316812839963
 30
0.0
  0
SEQEND
  5
54F
330
54C
100
AcDbEntity
  8
STANDARDEBENE
  0
POLYLINE
  5
550
330
1F
100
AcDbEntity
  8
STANDARDEBENE
 62
     7
100
AcDb2dPolyline
 66
     1
 10
0.0
 20
0.0
 30
0.0
  0
VERTEX
  5
551
330
550
100
AcDbEntity
  8
STANDARDEBENE
 62
     7
100
AcDbVertex
100
AcDb2dVertex
 10
237.2220404137848
 20
123.4803181657445
 30
0.0
  0
VERTEX
  5
552
330
550
100
AcDbEntity
  8
STANDARDEBENE
 62
     7
100
AcDbVertex
100
AcDb2dVertex
 10
237.2664821455445
 20
123.3499213016278
 30
0.0
  0
VERTEX
  5
553
330
550
100
AcDbEntity
  8
STANDARDEBENE
 62
     7
100
AcDbVertex
100
AcDb2dVertex
 10
237.3913668568848
 20
122.4855468443786
 30
0.0
  0
SEQEND
  5
554
330
550
100
AcDbEntity
  8
STANDARDEBENE
  0
POLYLINE
  5
555
330
1F
100
AcDbEntity
  8
STANDARDEBENE
 62
     7
100
AcDb2dPolyline
 66
     1
 10
0.0
 20
0.0
 30
0.0
  0
VERTEX
  5
556
330
555
100
AcDbEntity
  8
STANDARDEBENE
 62
     7
100
AcDbVertex
100
AcDb2dVertex
 10
237.3867159779797
 20
121.4780286697173
 30
0.0
  0
VERTEX
  5
557
330
555
100
AcDbEntity
  8
STANDARDEBENE
 62
     7
100
AcDbVertex
100
AcDb2dVertex
 10
237.3712130482961
 20
121.156945770492
 30
0.0
  0
VERTEX
  5
558
330
555
100
AcDbEntity
  8
STANDARDEBENE
 62
     7
100
AcDbVertex
100
AcDb2dVertex
 10
237.2086045413923
 20
120.4870469533852
 30
0.0
  0
SEQEND
  5
559
330
555
100
AcDbEntity
  8
STANDARDEBENE
  0
POLYLINE
  5
55A
330
1F
100
AcDbEntity
  8
STANDARDEBENE
 62
     7
100
AcDb2dPolyline
 66
     1
 10
0.0
 20
0.0
 30
0.0
  0
VERTEX
  5
55B
330
55A
100
AcDbEntity
  8
STANDARDEBENE
 62
     7
100
AcDbVertex
100
AcDb2dVertex
 10
236.8628892094475
 20
119.5422295165554
 30
0.0
  0
VERTEX
  5
55C
330
55A
100
AcDbEntity
  8
STANDARDEBENE
 62
     7
100
AcDbVertex
100
AcDb2dVertex
 10
236.6534274039443
 20
119.0826537788231
 30
0.0
  0
VERTEX
  5
55D
330
55A
100
AcDbEntity
  8
STANDARDEBENE
 62
     7
100
AcDbVertex
100
AcDb2dVertex
 10
236.3602497781495
 20
118.6706203587872
 30
0.0
  0
SEQEND
  5
55E
330
55A
100
AcDbEntity
  8
STANDARDEBENE
  0
POLYLINE
  5
55F
330
1F
100
AcDbEntity
  8
STANDARDEBENE
 62
     7
100
AcDb2dPolyline
 66
     1
 10
0.0
 20
0.0
 30
0.0
  0
VERTEX
  5
560
330
55F
100
AcDbEntity
  8
STANDARDEBENE
 62
     7
100
AcDbVertex
100
AcDb2dVertex
 10
235.7142943746652
 20
117.898746715317
 30
0.0
  0
VERTEX
  5
561
330
55F
100
AcDbEntity
  8
STANDARDEBENE
 62
     7
100
AcDbVertex
100
AcDb2dVertex
 10
235.2157890579495
 20
117.4234957931268
 30
0.0
  0
VERTEX
  5
562
330
55F
100
AcDbEntity
  8
STANDARDEBENE
 62
     7
100
AcDbVertex
100
AcDb2dVertex
 10
234.9448322980346
 20
117.2491739615731
 30
0.0
  0
SEQEND
  5
563
330
55F
100
AcDbEntity
  8
STANDARDEBENE
  0
POLYLINE
  5
564
330
1F
100
AcDbEntity
  8
STANDARDEBENE
 62
     7
100
AcDb2dPolyline
 66
     1
 10
0.0
 20
0.0
 30
0.0
  0
VERTEX
  5
565
330
564
100
AcDbEntity
  8
STANDARDEBENE
 62
     7
100
AcDbVertex
100
AcDb2dVertex
 10
234.0746011784605
 20
116.7418836513701
 30
0.0
  0
VERTEX
  5
566
330
564
100
AcDbEntity
  8
STANDARDEBENE
 62
     7
100
AcDbVertex
100
AcDb2dVertex
 10
233.2646592298783
 20
116.4177001662081
 30
0.0
  0
VERTEX
  5
567
330
564
100
AcDbEntity
  8
STANDARDEBENE
 62
     7
100
AcDbVertex
100
AcDb2dVertex
 10
233.1290947225337
 20
116.3911729309717
 30
0.0
  0
SEQEND
  5
568
330
564
100
AcDbEntity
  8
STANDARDEBENE
  0
POLYLINE
  5
569
330
1F
100
AcDbEntity
  8
STANDARDEBENE
 62
     7
100
AcDb2dPolyline
 66
     1
 10
0.0
 20
0.0
 30
0.0
  0
VERTEX
  5
56A
330
569
100
AcDbEntity
  8
STANDARDEBENE
 62
     7
100
AcDbVertex
100
AcDb2dVertex
 10
232.1357014393619
 20
116.2085828702534
 30
0.0
  0
VERTEX
  5
56B
330
569
100
AcDbEntity
  8
STANDARDEBENE
 62
     7
100
AcDbVertex
100
AcDb2dVertex
 10
231.1249104239896
 20
116.2085828702534
 30
0.0
  0
SEQEND
  5
56C
330
569
100
AcDbEntity
  8
STANDARDEBENE
  0
POLYLINE
  5
56D
330
1F
100
AcDbEntity
  8
STANDARDEBENE
 62
     7
100
AcDb2dPolyline
 66
     1
 10
0.0
 20
0.0
 30
0.0
  0
VERTEX
  5
56E
330
56D
100
AcDbEntity
  8
STANDARDEBENE
 62
     7
100
AcDbVertex
100
AcDb2dVertex
 10
230.1315171408178
 20
116.3911729309717
 30
0.0
  0
VERTEX
  5
56F
330
56D
100
AcDbEntity
  8
STANDARDEBENE
 62
     7
100
AcDbVertex
100
AcDb2dVertex
 10
229.996469397796
 20
116.4177001662081
 30
0.0
  0
VERTEX
  5
570
330
56D
100
AcDbEntity
  8
STANDARDEBENE
 62
     7
100
AcDbVertex
100
AcDb2dVertex
 10
229.186010684891
 20
116.7418836513701
 30
0.0
  0
SEQEND
  5
571
330
56D
100
AcDbEntity
  8
STANDARDEBENE
  0
POLYLINE
  5
572
330
1F
100
AcDbEntity
  8
STANDARDEBENE
 62
     7
100
AcDb2dPolyline
 66
     1
 10
0.0
 20
0.0
 30
0.0
  0
VERTEX
  5
573
330
572
100
AcDbEntity
  8
STANDARDEBENE
 62
     7
100
AcDbVertex
100
AcDb2dVertex
 10
228.3157795653169
 20
117.2491739615731
 30
0.0
  0
VERTEX
  5
574
330
572
100
AcDbEntity
  8
STANDARDEBENE
 62
     7
100
AcDbVertex
100
AcDb2dVertex
 10
228.044822805402
 20
117.4234957931268
 30
0.0
  0
VERTEX
  5
575
330
572
100
AcDbEntity
  8
STANDARDEBENE
 62
     7
100
AcDbVertex
100
AcDb2dVertex
 10
227.5459729791378
 20
117.898746715317
 30
0.0
  0
SEQEND
  5
576
330
572
100
AcDbEntity
  8
STANDARDEBENE
  0
POLYLINE
  5
577
330
1F
100
AcDbEntity
  8
STANDARDEBENE
 62
     7
100
AcDb2dPolyline
 66
     1
 10
0.0
 20
0.0
 30
0.0
  0
VERTEX
  5
578
330
577
100
AcDbEntity
  8
STANDARDEBENE
 62
     7
100
AcDbVertex
100
AcDb2dVertex
 10
226.9005343399763
 20
118.6706203587872
 30
0.0
  0
VERTEX
  5
579
330
577
100
AcDbEntity
  8
STANDARDEBENE
 62
     7
100
AcDbVertex
100
AcDb2dVertex
 10
226.60770122373
 20
119.0826537788231
 30
0.0
  0
VERTEX
  5
57A
330
577
100
AcDbEntity
  8
STANDARDEBENE
 62
     7
100
AcDbVertex
100
AcDb2dVertex
 10
226.3977226539041
 20
119.5422295165554
 30
0.0
  0
SEQEND
  5
57B
330
577
100
AcDbEntity
  8
STANDARDEBENE
  0
POLYLINE
  5
57C
330
1F
100
AcDbEntity
  8
STANDARDEBENE
 62
     7
100
AcDb2dPolyline
 66
     1
 10
0.0
 20
0.0
 30
0.0
  0
VERTEX
  5
57D
330
57C
100
AcDbEntity
  8
STANDARDEBENE
 62
     7
100
AcDbVertex
100
AcDb2dVertex
 10
226.0520073219592
 20
120.4870469533852
 30
0.0
  0
VERTEX
  5
57E
330
57C
100
AcDbEntity
  8
STANDARDEBENE
 62
     7
100
AcDbVertex
100
AcDb2dVertex
 10
225.8890543055069
 20
121.156945770492
 30
0.0
  0
VERTEX
  5
57F
330
57C
100
AcDbEntity
  8
STANDARDEBENE
 62
     7
100
AcDbVertex
100
AcDb2dVertex
 10
225.8738958853718
 20
121.4780286697173
 30
0.0
  0
SEQEND
  5
580
330
57C
100
AcDbEntity
  8
STANDARDEBENE
  0
POLYLINE
  5
581
330
1F
100
AcDbEntity
  8
STANDARDEBENE
 62
     7
100
AcDb2dPolyline
 66
     1
 10
0.0
 20
0.0
 30
0.0
  0
VERTEX
  5
582
330
581
100
AcDbEntity
  8
STANDARDEBENE
 62
     7
100
AcDbVertex
100
AcDb2dVertex
 10
225.8692450064667
 20
122.4855468443786
 30
0.0
  0
VERTEX
  5
583
330
581
100
AcDbEntity
  8
STANDARDEBENE
 62
     7
100
AcDbVertex
100
AcDb2dVertex
 10
225.9937852082585
 20
123.3499213016278
 30
0.0
  0
VERTEX
  5
584
330
581
100
AcDbEntity
  8
STANDARDEBENE
 62
     7
100
AcDbVertex
100
AcDb2dVertex
 10
226.0385714495667
 20
123.4803181657445
 30
0.0
  0
SEQEND
  5
585
330
581
100
AcDbEntity
  8
STANDARDEBENE
  0
POLYLINE
  5
586
330
1F
100
AcDbEntity
  8
STANDARDEBENE
 62
     7
100
AcDb2dPolyline
 66
     1
 10
0.0
 20
0.0
 30
0.0
  0
VERTEX
  5
587
330
586
100
AcDbEntity
  8
STANDARDEBENE
 62
     7
100
AcDbVertex
100
AcDb2dVertex
 10
226.3775688453154
 20
124.4316812839963
 30
0.0
  0
VERTEX
  5
588
330
586
100
AcDbEntity
  8
STANDARDEBENE
 62
     7
100
AcDbVertex
100
AcDb2dVertex
 10
226.8827920982272
 20
125.3070800467982
 30
0.0
  0
SEQEND
  5
589
330
586
100
AcDbEntity
  8
STANDARDEBENE
  0
POLYLINE
  5
58A
330
1F
100
AcDbEntity
  8
STANDARDEBENE
 62
     7
100
AcDb2dPolyline
 66
     1
 10
0.0
 20
0.0
 30
0.0
  0
VERTEX
  5
58B
330
58A
100
AcDbEntity
  8
STANDARDEBENE
 62
     7
100
AcDbVertex
100
AcDb2dVertex
 10
227.537532495199
 20
126.0756808495575
 30
0.0
  0
VERTEX
  5
58C
330
58A
100
AcDbEntity
  8
STANDARDEBENE
 62
     7
100
AcDbVertex
100
AcDb2dVertex
 10
227.627449487364
 20
126.1800672427605
 30
0.0
  0
VERTEX
  5
58D
330
58A
100
AcDbEntity
  8
STANDARDEBENE
 62
     7
100
AcDbVertex
100
AcDb2dVertex
 10
228.3140570175743
 20
126.7199137052992
 30
0.0
  0
SEQEND
  5
58E
330
58A
100
AcDbEntity
  8
STANDARDEBENE
  0
POLYLINE
  5
58F
330
1F
100
AcDbEntity
  8
STANDARDEBENE
 62
     7
100
AcDb2dPolyline
 66
     1
 10
0.0
 20
0.0
 30
0.0
  0
VERTEX
  5
590
330
58F
100
AcDbEntity
  8
STANDARDEBENE
 62
     7
100
AcDbVertex
100
AcDb2dVertex
 10
229.188594506505
 20
127.2197970602089
 30
0.0
  0
VERTEX
  5
591
330
58F
100
AcDbEntity
  8
STANDARDEBENE
 62
     7
100
AcDbVertex
100
AcDb2dVertex
 10
229.4747096865549
 20
127.3672471469776
 30
0.0
  0
VERTEX
  5
592
330
58F
100
AcDbEntity
  8
STANDARDEBENE
 62
     7
100
AcDbVertex
100
AcDb2dVertex
 10
230.1361680197229
 20
127.5612060227972
 30
0.0
  0
SEQEND
  5
593
330
58F
100
AcDbEntity
  8
STANDARDEBENE
  0
POLYLINE
  5
594
330
1F
100
AcDbEntity
  8
STANDARDEBENE
 62
     7
100
AcDb2dPolyline
 66
     1
 10
0.0
 20
0.0
 30
0.0
  0
VERTEX
  5
595
330
594
100
AcDbEntity
  8
STANDARDEBENE
 62
     7
100
AcDbVertex
100
AcDb2dVertex
 10
231.127149736055
 20
127.7341498161567
 30
0.0
  0
VERTEX
  5
596
330
594
100
AcDbEntity
  8
STANDARDEBENE
 62
     7
100
AcDbVertex
100
AcDb2dVertex
 10
231.6301336769015
 20
127.7820366434017
 30
0.0
  0
SEQEND
  5
597
330
594
100
AcDbEntity
  8
STANDARDEBENE
  0
POLYLINE
  5
598
330
1F
100
AcDbEntity
  8
STANDARDEBENE
 62
     7
100
AcDb2dPolyline
 66
     1
 10
0.0
 20
0.0
 30
0.0
  0
VERTEX
  5
599
330
598
100
AcDbEntity
  8
STANDARDEBENE
 62
     7
100
AcDbVertex
100
AcDb2dVertex
 10
231.6301336769015
 20
129.5321451499086
 30
0.0
  0
VERTEX
  5
59A
330
598
100
AcDbEntity
  8
STANDARDEBENE
 62
     7
100
AcDbVertex
100
AcDb2dVertex
 10
232.1222655669694
 20
129.4913207684084
 30
0.0
  0
SEQEND
  5
59B
330
598
100
AcDbEntity
  8
STANDARDEBENE
  0
POLYLINE
  5
59C
330
1F
100
AcDbEntity
  8
STANDARDEBENE
 62
     7
100
AcDb2dPolyline
 66
     1
 10
0.0
 20
0.0
 30
0.0
  0
VERTEX
  5
59D
330
59C
100
AcDbEntity
  8
STANDARDEBENE
 62
     7
100
AcDbVertex
100
AcDb2dVertex
 10
233.0994669013606
 20
129.3721204646188
 30
0.0
  0
VERTEX
  5
59E
330
59C
100
AcDbEntity
  8
STANDARDEBENE
 62
     7
100
AcDbVertex
100
AcDb2dVertex
 10
234.0568589367115
 20
129.1297579972315
 30
0.0
  0
SEQEND
  5
59F
330
59C
100
AcDbEntity
  8
STANDARDEBENE
  0
POLYLINE
  5
5A0
330
1F
100
AcDbEntity
  8
STANDARDEBENE
 62
     7
100
AcDb2dPolyline
 66
     1
 10
0.0
 20
0.0
 30
0.0
  0
VERTEX
  5
5A1
330
5A0
100
AcDbEntity
  8
STANDARDEBENE
 62
     7
100
AcDbVertex
100
AcDb2dVertex
 10
234.9617132659124
 20
128.737017111913
 30
0.0
  0
VERTEX
  5
5A2
330
5A0
100
AcDbEntity
  8
STANDARDEBENE
 62
     7
100
AcDbVertex
100
AcDb2dVertex
 10
235.2238850323399
 20
128.6228121965769
 30
0.0
  0
VERTEX
  5
5A3
330
5A0
100
AcDbEntity
  8
STANDARDEBENE
 62
     7
100
AcDbVertex
100
AcDb2dVertex
 10
235.8109293030265
 20
128.2385117951973
 30
0.0
  0
SEQEND
  5
5A4
330
5A0
100
AcDbEntity
  8
STANDARDEBENE
  0
POLYLINE
  5
5A5
330
1F
100
AcDbEntity
  8
STANDARDEBENE
 62
     7
100
AcDb2dPolyline
 66
     1
 10
0.0
 20
0.0
 30
0.0
  0
VERTEX
  5
5A6
330
5A5
100
AcDbEntity
  8
STANDARDEBENE
 62
     7
100
AcDbVertex
100
AcDb2dVertex
 10
236.5926214686296
 20
127.6409599832807
 30
0.0
  0
VERTEX
  5
5A7
330
5A5
100
AcDbEntity
  8
STANDARDEBENE
 62
     7
100
AcDbVertex
100
AcDb2dVertex
 10
237.1850056373183
 20
127.0959458775142
 30
0.0
  0
VERTEX
  5
5A8
330
5A5
100
AcDbEntity
  8
STANDARDEBENE
 62
     7
100
AcDbVertex
100
AcDb2dVertex
 10
237.2967989858147
 20
126.9524576505536
 30
0.0
  0
SEQEND
  5
5A9
330
5A5
100
AcDbEntity
  8
STANDARDEBENE
  0
POLYLINE
  5
5AA
330
1F
100
AcDbEntity
  8
STANDARDEBENE
 62
     7
100
AcDb2dPolyline
 66
     1
 10
0.0
 20
0.0
 30
0.0
  0
VERTEX
  5
5AB
330
5AA
100
AcDbEntity
  8
STANDARDEBENE
 62
     7
100
AcDbVertex
100
AcDb2dVertex
 10
237.9029635364444
 20
126.1735215613386
 30
0.0
  0
VERTEX
  5
5AC
330
5AA
100
AcDbEntity
  8
STANDARDEBENE
 62
     7
100
AcDbVertex
100
AcDb2dVertex
 10
237.9511948732379
 20
126.1116820973783
 30
0.0
  0
VERTEX
  5
5AD
330
5AA
100
AcDbEntity
  8
STANDARDEBENE
 62
     7
100
AcDbVertex
100
AcDb2dVertex
 10
238.383726611411
 20
125.3122476900261
 30
0.0
  0
SEQEND
  5
5AE
330
5AA
100
AcDbEntity
  8
STANDARDEBENE
  0
POLYLINE
  5
5AF
330
1F
100
AcDbEntity
  8
STANDARDEBENE
 62
     7
100
AcDb2dPolyline
 66
     1
 10
0.0
 20
0.0
 30
0.0
  0
VERTEX
  5
5B0
330
5AF
100
AcDbEntity
  8
STANDARDEBENE
 62
     7
100
AcDbVertex
100
AcDb2dVertex
 10
238.7551079047209
 20
124.4010199341775
 30
0.0
  0
VERTEX
  5
5B1
330
5AF
100
AcDbEntity
  8
STANDARDEBENE
 62
     7
100
AcDbVertex
100
AcDb2dVertex
 10
238.9492390353148
 20
123.835679765048
 30
0.0
  0
VERTEX
  5
5B2
330
5AF
100
AcDbEntity
  8
STANDARDEBENE
 62
     7
100
AcDbVertex
100
AcDb2dVertex
 10
239.0131455565662
 20
123.4517238732169
 30
0.0
  0
SEQEND
  5
5B3
330
5AF
100
AcDbEntity
  8
STANDARDEBENE
  0
POLYLINE
  5
5B4
330
1F
100
AcDbEntity
  8
STANDARDEBENE
 62
     7
100
AcDb2dPolyline
 66
     1
 10
0.0
 20
0.0
 30
0.0
  0
VERTEX
  5
5B5
330
5B4
100
AcDbEntity
  8
STANDARDEBENE
 62
     7
100
AcDbVertex
100
AcDb2dVertex
 10
239.1542222166871
 20
122.4762450865684
 30
0.0
  0
VERTEX
  5
5B6
330
5B4
100
AcDbEntity
  8
STANDARDEBENE
 62
     7
100
AcDbVertex
100
AcDb2dVertex
 10
239.1542222166871
 20
121.4888807204958
 30
0.0
  0
SEQEND
  5
5B7
330
5B4
100
AcDbEntity
  8
STANDARDEBENE
  0
POLYLINE
  5
5B8
330
1F
100
AcDbEntity
  8
STANDARDEBENE
 62
     7
100
AcDb2dPolyline
 66
     1
 10
0.0
 20
0.0
 30
0.0
  0
VERTEX
  5
5B9
330
5B8
100
AcDbEntity
  8
STANDARDEBENE
 62
     7
100
AcDbVertex
100
AcDb2dVertex
 10
239.0131455565662
 20
120.5135741886216
 30
0.0
  0
VERTEX
  5
5BA
330
5B8
100
AcDbEntity
  8
STANDARDEBENE
 62
     7
100
AcDbVertex
100
AcDb2dVertex
 10
238.9492390353148
 20
120.129273787242
 30
0.0
  0
VERTEX
  5
5BB
330
5B8
100
AcDbEntity
  8
STANDARDEBENE
 62
     7
100
AcDbVertex
100
AcDb2dVertex
 10
238.7551079047209
 20
119.5641058728868
 30
0.0
  0
SEQEND
  5
5BC
330
5B8
100
AcDbEntity
  8
STANDARDEBENE
  0
POLYLINE
  5
5BD
330
1F
100
AcDbEntity
  8
STANDARDEBENE
 62
     7
100
AcDb2dPolyline
 66
     1
 10
0.0
 20
0.0
 30
0.0
  0
VERTEX
  5
5BE
330
5BD
100
AcDbEntity
  8
STANDARDEBENE
 62
     7
100
AcDbVertex
100
AcDb2dVertex
 10
238.383726611411
 20
118.6528781170382
 30
0.0
  0
VERTEX
  5
5BF
330
5BD
100
AcDbEntity
  8
STANDARDEBENE
 62
     7
100
AcDbVertex
100
AcDb2dVertex
 10
237.9511948732379
 20
117.8532714549117
 30
0.0
  0
VERTEX
  5
5C0
330
5BD
100
AcDbEntity
  8
STANDARDEBENE
 62
     7
100
AcDbVertex
100
AcDb2dVertex
 10
237.9029635364444
 20
117.7917765005
 30
0.0
  0
SEQEND
  5
5C1
330
5BD
100
AcDbEntity
  8
STANDARDEBENE
  0
POLYLINE
  5
5C2
330
1F
100
AcDbEntity
  8
STANDARDEBENE
 62
     7
100
AcDb2dPolyline
 66
     1
 10
0.0
 20
0.0
 30
0.0
  0
VERTEX
  5
5C3
330
5C2
100
AcDbEntity
  8
STANDARDEBENE
 62
     7
100
AcDbVertex
100
AcDb2dVertex
 10
237.2967989858147
 20
117.0121513921879
 30
0.0
  0
VERTEX
  5
5C4
330
5C2
100
AcDbEntity
  8
STANDARDEBENE
 62
     7
100
AcDbVertex
100
AcDb2dVertex
 10
237.1850056373183
 20
116.8693521843243
 30
0.0
  0
VERTEX
  5
5C5
330
5C2
100
AcDbEntity
  8
STANDARDEBENE
 62
     7
100
AcDbVertex
100
AcDb2dVertex
 10
236.5926214686296
 20
116.3233045499122
 30
0.0
  0
SEQEND
  5
5C6
330
5C2
100
AcDbEntity
  8
STANDARDEBENE
  0
POLYLINE
  5
5C7
330
1F
100
AcDbEntity
  8
STANDARDEBENE
 62
     7
100
AcDb2dPolyline
 66
     1
 10
0.0
 20
0.0
 30
0.0
  0
VERTEX
  5
5C8
330
5C7
100
AcDbEntity
  8
STANDARDEBENE
 62
     7
100
AcDbVertex
100
AcDb2dVertex
 10
235.8109293030265
 20
115.7262695023184
 30
0.0
  0
VERTEX
  5
5C9
330
5C7
100
AcDbEntity
  8
STANDARDEBENE
 62
     7
100
AcDbVertex
100
AcDb2dVertex
 10
235.2238850323399
 20
115.3424858652616
 30
0.0
  0
VERTEX
  5
5CA
330
5C7
100
AcDbEntity
  8
STANDARDEBENE
 62
     7
100
AcDbVertex
100
AcDb2dVertex
 10
234.9617132659124
 20
115.2274196760543
 30
0.0
  0
SEQEND
  5
5CB
330
5C7
100
AcDbEntity
  8
STANDARDEBENE
  0
POLYLINE
  5
5CC
330
1F
100
AcDbEntity
  8
STANDARDEBENE
 62
     7
100
AcDb2dPolyline
 66
     1
 10
0.0
 20
0.0
 30
0.0
  0
VERTEX
  5
5CD
330
5CC
100
AcDbEntity
  8
STANDARDEBENE
 62
     7
100
AcDbVertex
100
AcDb2dVertex
 10
234.0568589367115
 20
114.8351955550586
 30
0.0
  0
VERTEX
  5
5CE
330
5CC
100
AcDbEntity
  8
STANDARDEBENE
 62
     7
100
AcDbVertex
100
AcDb2dVertex
 10
233.0994669013606
 20
114.5928330876712
 30
0.0
  0
SEQEND
  5
5CF
330
5CC
100
AcDbEntity
  8
STANDARDEBENE
  0
POLYLINE
  5
5D0
330
1F
100
AcDbEntity
  8
STANDARDEBENE
 62
     7
100
AcDb2dPolyline
 66
     1
 10
0.0
 20
0.0
 30
0.0
  0
VERTEX
  5
5D1
330
5D0
100
AcDbEntity
  8
STANDARDEBENE
 62
     7
100
AcDbVertex
100
AcDb2dVertex
 10
232.1222655669694
 20
114.4729437647845
 30
0.0
  0
VERTEX
  5
5D2
330
5D0
100
AcDbEntity
  8
STANDARDEBENE
 62
     7
100
AcDbVertex
100
AcDb2dVertex
 10
231.6301336769015
 20
114.4322916380586
 30
0.0
  0
VERTEX
  5
5D3
330
5D0
100
AcDbEntity
  8
STANDARDEBENE
 62
     7
100
AcDbVertex
100
AcDb2dVertex
 10
231.1383462963821
 20
114.4729437647845
 30
0.0
  0
SEQEND
  5
5D4
330
5D0
100
AcDbEntity
  8
STANDARDEBENE
  0
POLYLINE
  5
5D5
330
1F
100
AcDbEntity
  8
STANDARDEBENE
 62
     7
100
AcDb2dPolyline
 66
     1
 10
0.0
 20
0.0
 30
0.0
  0
VERTEX
  5
5D6
330
5D5
100
AcDbEntity
  8
STANDARDEBENE
 62
     7
100
AcDbVertex
100
AcDb2dVertex
 10
230.161144961991
 20
114.5928330876712
 30
0.0
  0
VERTEX
  5
5D7
330
5D5
100
AcDbEntity
  8
STANDARDEBENE
 62
     7
100
AcDbVertex
100
AcDb2dVertex
 10
229.20375292664
 20
114.8351955550586
 30
0.0
  0
SEQEND
  5
5D8
330
5D5
100
AcDbEntity
  8
STANDARDEBENE
  0
POLYLINE
  5
5D9
330
1F
100
AcDbEntity
  8
STANDARDEBENE
 62
     7
100
AcDb2dPolyline
 66
     1
 10
0.0
 20
0.0
 30
0.0
  0
VERTEX
  5
5DA
330
5D9
100
AcDbEntity
  8
STANDARDEBENE
 62
     7
100
AcDbVertex
100
AcDb2dVertex
 10
228.2988985974392
 20
115.2274196760543
 30
0.0
  0
VERTEX
  5
5DB
330
5D9
100
AcDbEntity
  8
STANDARDEBENE
 62
     7
100
AcDbVertex
100
AcDb2dVertex
 10
228.0367268310117
 20
115.3424858652616
 30
0.0
  0
VERTEX
  5
5DC
330
5D9
100
AcDbEntity
  8
STANDARDEBENE
 62
     7
100
AcDbVertex
100
AcDb2dVertex
 10
227.4493380507766
 20
115.7262695023184
 30
0.0
  0
SEQEND
  5
5DD
330
5D9
100
AcDbEntity
  8
STANDARDEBENE
  0
POLYLINE
  5
5DE
330
1F
100
AcDbEntity
  8
STANDARDEBENE
 62
     7
100
AcDb2dPolyline
 66
     1
 10
0.0
 20
0.0
 30
0.0
  0
VERTEX
  5
5DF
330
5DE
100
AcDbEntity
  8
STANDARDEBENE
 62
     7
100
AcDbVertex
100
AcDb2dVertex
 10
226.6679903947219
 20
116.3233045499122
 30
0.0
  0
VERTEX
  5
5E0
330
5DE
100
AcDbEntity
  8
STANDARDEBENE
 62
     7
100
AcDbVertex
100
AcDb2dVertex
 10
226.0756062260332
 20
116.8693521843243
 30
0.0
  0
VERTEX
  5
5E1
330
5DE
100
AcDbEntity
  8
STANDARDEBENE
 62
     7
100
AcDbVertex
100
AcDb2dVertex
 10
225.9638128775368
 20
117.0121513921879
 30
0.0
  0
SEQEND
  5
5E2
330
5DE
100
AcDbEntity
  8
STANDARDEBENE
  0
POLYLINE
  5
5E3
330
1F
100
AcDbEntity
  8
STANDARDEBENE
 62
     7
100
AcDb2dPolyline
 66
     1
 10
0.0
 20
0.0
 30
0.0
  0
VERTEX
  5
5E4
330
5E3
100
AcDbEntity
  8
STANDARDEBENE
 62
     7
100
AcDbVertex
100
AcDb2dVertex
 10
225.3578205816814
 20
117.7917765005
 30
0.0
  0
VERTEX
  5
5E5
330
5E3
100
AcDbEntity
  8
STANDARDEBENE
 62
     7
100
AcDbVertex
100
AcDb2dVertex
 10
225.3094169901136
 20
117.8532714549117
 30
0.0
  0
VERTEX
  5
5E6
330
5E3
100
AcDbEntity
  8
STANDARDEBENE
 62
     7
100
AcDbVertex
100
AcDb2dVertex
 10
224.8768852519405
 20
118.6528781170382
 30
0.0
  0
SEQEND
  5
5E7
330
5E3
100
AcDbEntity
  8
STANDARDEBENE
  0
POLYLINE
  5
5E8
330
1F
100
AcDbEntity
  8
STANDARDEBENE
 62
     7
100
AcDb2dPolyline
 66
     1
 10
0.0
 20
0.0
 30
0.0
  0
VERTEX
  5
5E9
330
5E8
100
AcDbEntity
  8
STANDARDEBENE
 62
     7
100
AcDbVertex
100
AcDb2dVertex
 10
224.505159449082
 20
119.5641058728868
 30
0.0
  0
VERTEX
  5
5EA
330
5E8
100
AcDbEntity
  8
STANDARDEBENE
 62
     7
100
AcDbVertex
100
AcDb2dVertex
 10
224.3113728280368
 20
120.129273787242
 30
0.0
  0
VERTEX
  5
5EB
330
5E8
100
AcDbEntity
  8
STANDARDEBENE
 62
     7
100
AcDbVertex
100
AcDb2dVertex
 10
224.2471217972368
 20
120.5135741886216
 30
0.0
  0
SEQEND
  5
5EC
330
5E8
100
AcDbEntity
  8
STANDARDEBENE
  0
POLYLINE
  5
5ED
330
1F
100
AcDbEntity
  8
STANDARDEBENE
 62
     7
100
AcDb2dPolyline
 66
     1
 10
0.0
 20
0.0
 30
0.0
  0
VERTEX
  5
5EE
330
5ED
100
AcDbEntity
  8
STANDARDEBENE
 62
     7
100
AcDbVertex
100
AcDb2dVertex
 10
224.1060451371159
 20
121.4888807204958
 30
0.0
  0
VERTEX
  5
5EF
330
5ED
100
AcDbEntity
  8
STANDARDEBENE
 62
     7
100
AcDbVertex
100
AcDb2dVertex
 10
224.1060451371159
 20
122.4762450865684
 30
0.0
  0
SEQEND
  5
5F0
330
5ED
100
AcDbEntity
  8
STANDARDEBENE
  0
POLYLINE
  5
5F1
330
1F
100
AcDbEntity
  8
STANDARDEBENE
 62
     7
100
AcDb2dPolyline
 66
     1
 10
0.0
 20
0.0
 30
0.0
  0
VERTEX
  5
5F2
330
5F1
100
AcDbEntity
  8
STANDARDEBENE
 62
     7
100
AcDbVertex
100
AcDb2dVertex
 10
224.2471217972368
 20
123.4517238732169
 30
0.0
  0
VERTEX
  5
5F3
330
5F1
100
AcDbEntity
  8
STANDARDEBENE
 62
     7
100
AcDbVertex
100
AcDb2dVertex
 10
224.3113728280368
 20
123.835679765048
 30
0.0
  0
VERTEX
  5
5F4
330
5F1
100
AcDbEntity
  8
STANDARDEBENE
 62
     7
100
AcDbVertex
100
AcDb2dVertex
 10
224.505159449082
 20
124.4010199341775
 30
0.0
  0
SEQEND
  5
5F5
330
5F1
100
AcDbEntity
  8
STANDARDEBENE
  0
POLYLINE
  5
5F6
330
1F
100
AcDbEntity
  8
STANDARDEBENE
 62
     7
100
AcDb2dPolyline
 66
     1
 10
0.0
 20
0.0
 30
0.0
  0
VERTEX
  5
5F7
330
5F6
100
AcDbEntity
  8
STANDARDEBENE
 62
     7
100
AcDbVertex
100
AcDb2dVertex
 10
224.8768852519405
 20
125.3122476900261
 30
0.0
  0
VERTEX
  5
5F8
330
5F6
100
AcDbEntity
  8
STANDARDEBENE
 62
     7
100
AcDbVertex
100
AcDb2dVertex
 10
225.3094169901136
 20
126.1116820973783
 30
0.0
  0
VERTEX
  5
5F9
330
5F6
100
AcDbEntity
  8
STANDARDEBENE
 62
     7
100
AcDbVertex
100
AcDb2dVertex
 10
225.3578205816814
 20
126.1735215613386
 30
0.0
  0
SEQEND
  5
5FA
330
5F6
100
AcDbEntity
  8
STANDARDEBENE
  0
POLYLINE
  5
5FB
330
1F
100
AcDbEntity
  8
STANDARDEBENE
 62
     7
100
AcDb2dPolyline
 66
     1
 10
0.0
 20
0.0
 30
0.0
  0
VERTEX
  5
5FC
330
5FB
100
AcDbEntity
  8
STANDARDEBENE
 62
     7
100
AcDbVertex
100
AcDb2dVertex
 10
225.9638128775368
 20
126.9524576505536
 30
0.0
  0
VERTEX
  5
5FD
330
5FB
100
AcDbEntity
  8
STANDARDEBENE
 62
     7
100
AcDbVertex
100
AcDb2dVertex
 10
226.0756062260332
 20
127.0959458775142
 30
0.0
  0
VERTEX
  5
5FE
330
5FB
100
AcDbEntity
  8
STANDARDEBENE
 62
     7
100
AcDbVertex
100
AcDb2dVertex
 10
226.6679903947219
 20
127.6409599832807
 30
0.0
  0
SEQEND
  5
5FF
330
5FB
100
AcDbEntity
  8
STANDARDEBENE
  0
POLYLINE
  5
600
330
1F
100
AcDbEntity
  8
STANDARDEBENE
 62
     7
100
AcDb2dPolyline
 66
     1
 10
0.0
 20
0.0
 30
0.0
  0
VERTEX
  5
601
330
600
100
AcDbEntity
  8
STANDARDEBENE
 62
     7
100
AcDbVertex
100
AcDb2dVertex
 10
227.4493380507766
 20
128.2385117951973
 30
0.0
  0
VERTEX
  5
602
330
600
100
AcDbEntity
  8
STANDARDEBENE
 62
     7
100
AcDbVertex
100
AcDb2dVertex
 10
228.0367268310117
 20
128.6228121965769
 30
0.0
  0
VERTEX
  5
603
330
600
100
AcDbEntity
  8
STANDARDEBENE
 62
     7
100
AcDbVertex
100
AcDb2dVertex
 10
228.2988985974392
 20
128.737017111913
 30
0.0
  0
SEQEND
  5
604
330
600
100
AcDbEntity
  8
STANDARDEBENE
  0
POLYLINE
  5
605
330
1F
100
AcDbEntity
  8
STANDARDEBENE
 62
     7
100
AcDb2dPolyline
 66
     1
 10
0.0
 20
0.0
 30
0.0
  0
VERTEX
  5
606
330
605
100
AcDbEntity
  8
STANDARDEBENE
 62
     7
100
AcDbVertex
100
AcDb2dVertex
 10
229.20375292664
 20
129.1297579972315
 30
0.0
  0
VERTEX
  5
607
330
605
100
AcDbEntity
  8
STANDARDEBENE
 62
     7
100
AcDbVertex
100
AcDb2dVertex
 10
230.161144961991
 20
129.3721204646188
 30
0.0
  0
SEQEND
  5
608
330
605
100
AcDbEntity
  8
STANDARDEBENE
  0
POLYLINE
  5
609
330
1F
100
AcDbEntity
  8
STANDARDEBENE
 62
     7
100
AcDb2dPolyline
 66
     1
 10
0.0
 20
0.0
 30
0.0
  0
VERTEX
  5
60A
330
609
100
AcDbEntity
  8
STANDARDEBENE
 62
     7
100
AcDbVertex
100
AcDb2dVertex
 10
231.1383462963821
 20
129.4913207684084
 30
0.0
  0
VERTEX
  5
60B
330
609
100
AcDbEntity
  8
STANDARDEBENE
 62
     7
100
AcDbVertex
100
AcDb2dVertex
 10
231.6301336769015
 20
129.5321451499086
 30
0.0
  0
SEQEND
  5
60C
330
609
100
AcDbEntity
  8
STANDARDEBENE
  0
POLYLINE
  5
60E
330
1F
100
AcDbEntity
  8
BEMAßUNG
 62
     7
100
AcDb2dPolyline
 66
     1
 10
0.0
 20
0.0
 30
0.0
  0
VERTEX
  5
60F
330
60E
100
AcDbEntity
  8
BEMAßUNG
 62
     7
100
AcDbVertex
100
AcDb2dVertex
 10
141.62339677449
 20
130.9821858396503
 30
0.0
  0
VERTEX
  5
610
330
60E
100
AcDbEntity
  8
BEMAßUNG
 62
     7
100
AcDbVertex
100
AcDb2dVertex
 10
129.1233845705837
 20
130.9821858396503
 30
0.0
  0
SEQEND
  5
611
330
60E
100
AcDbEntity
  8
BEMAßUNG
  0
POLYLINE
  5
612
330
1F
100
AcDbEntity
  8
BEMAßUNG
 62
     7
100
AcDb2dPolyline
 66
     1
 10
0.0
 20
0.0
 30
0.0
  0
VERTEX
  5
613
330
612
100
AcDbEntity
  8
BEMAßUNG
 62
     7
100
AcDbVertex
100
AcDb2dVertex
 10
141.62339677449
 20
112.9824232030912
 30
0.0
  0
VERTEX
  5
614
330
612
100
AcDbEntity
  8
BEMAßUNG
 62
     7
100
AcDbVertex
100
AcDb2dVertex
 10
129.1233845705837
 20
112.9824232030912
 30
0.0
  0
SEQEND
  5
615
330
612
100
AcDbEntity
  8
BEMAßUNG
  0
POLYLINE
  5
616
330
1F
100
AcDbEntity
  8
BEMAßUNG
 62
     7
100
AcDb2dPolyline
 66
     1
 10
0.0
 20
0.0
 30
0.0
  0
VERTEX
  5
617
330
616
100
AcDbEntity
  8
BEMAßUNG
 62
     7
100
AcDbVertex
100
AcDb2dVertex
 10
131.1236070093198
 20
130.9821858396503
 30
0.0
  0
VERTEX
  5
618
330
616
100
AcDbEntity
  8
BEMAßUNG
 62
     7
100
AcDbVertex
100
AcDb2dVertex
 10
131.1236070093198
 20
112.9824232030912
 30
0.0
  0
SEQEND
  5
619
330
616
100
AcDbEntity
  8
BEMAßUNG
  0
POLYLINE
  5
61A
330
1F
100
AcDbEntity
  8
BEMAßUNG
 62
     7
100
AcDb2dPolyline
 66
     1
 10
0.0
 20
0.0
 30
0.0
  0
VERTEX
  5
61B
330
61A
100
AcDbEntity
  8
BEMAßUNG
 62
     7
100
AcDbVertex
100
AcDb2dVertex
 10
131.1236070093198
 20
130.9821858396503
 30
0.0
  0
VERTEX
  5
61C
330
61A
100
AcDbEntity
  8
BEMAßUNG
 62
     7
100
AcDbVertex
100
AcDb2dVertex
 10
130.6624809786191
 20
127.4826578457335
 30
0.0
  0
VERTEX
  5
61D
330
61A
100
AcDbEntity
  8
BEMAßUNG
 62
     7
100
AcDbVertex
100
AcDb2dVertex
 10
131.584388530472
 20
127.4826578457335
 30
0.0
  0
VERTEX
  5
61E
330
61A
100
AcDbEntity
  8
BEMAßUNG
 62
     7
100
AcDbVertex
100
AcDb2dVertex
 10
131.1236070093198
 20
130.9821858396503
 30
0.0
  0
SEQEND
  5
61F
330
61A
100
AcDbEntity
  8
BEMAßUNG
  0
POLYLINE
  5
620
330
1F
100
AcDbEntity
  8
BEMAßUNG
 62
     7
100
AcDb2dPolyline
 66
     1
 10
0.0
 20
0.0
 30
0.0
  0
VERTEX
  5
621
330
620
100
AcDbEntity
  8
BEMAßUNG
 62
     7
100
AcDbVertex
100
AcDb2dVertex
 10
130.6660983288786
 20
127.4826578457335
 30
0.0
  0
VERTEX
  5
622
330
620
100
AcDbEntity
  8
BEMAßUNG
 62
     7
100
AcDbVertex
100
AcDb2dVertex
 10
130.6660983288786
 20
127.509874100067
 30
0.0
  0
SEQEND
  5
623
330
620
100
AcDbEntity
  8
BEMAßUNG
  0
POLYLINE
  5
624
330
1F
100
AcDbEntity
  8
BEMAßUNG
 62
     7
100
AcDb2dPolyline
 66
     1
 10
0.0
 20
0.0
 30
0.0
  0
VERTEX
  5
625
330
624
100
AcDbEntity
  8
BEMAßUNG
 62
     7
100
AcDbVertex
100
AcDb2dVertex
 10
130.6660983288786
 20
127.4826578457335
 30
0.0
  0
VERTEX
  5
626
330
624
100
AcDbEntity
  8
BEMAßUNG
 62
     7
100
AcDbVertex
100
AcDb2dVertex
 10
130.6660983288786
 20
127.509874100067
 30
0.0
  0
SEQEND
  5
627
330
624
100
AcDbEntity
  8
BEMAßUNG
  0
POLYLINE
  5
628
330
1F
100
AcDbEntity
  8
BEMAßUNG
 62
     7
100
AcDb2dPolyline
 66
     1
 10
0.0
 20
0.0
 30
0.0
  0
VERTEX
  5
629
330
628
100
AcDbEntity
  8
BEMAßUNG
 62
     7
100
AcDbVertex
100
AcDb2dVertex
 10
130.7169134872861
 20
127.4826578457335
 30
0.0
  0
VERTEX
  5
62A
330
628
100
AcDbEntity
  8
BEMAßUNG
 62
     7
100
AcDbVertex
100
AcDb2dVertex
 10
130.7169134872861
 20
127.8953802848664
 30
0.0
  0
SEQEND
  5
62B
330
628
100
AcDbEntity
  8
BEMAßUNG
  0
POLYLINE
  5
62C
330
1F
100
AcDbEntity
  8
BEMAßUNG
 62
     7
100
AcDb2dPolyline
 66
     1
 10
0.0
 20
0.0
 30
0.0
  0
VERTEX
  5
62D
330
62C
100
AcDbEntity
  8
BEMAßUNG
 62
     7
100
AcDbVertex
100
AcDb2dVertex
 10
130.7677286456935
 20
127.4826578457335
 30
0.0
  0
VERTEX
  5
62E
330
62C
100
AcDbEntity
  8
BEMAßUNG
 62
     7
100
AcDbVertex
100
AcDb2dVertex
 10
130.7677286456935
 20
128.2815754887629
 30
0.0
  0
SEQEND
  5
62F
330
62C
100
AcDbEntity
  8
BEMAßUNG
  0
POLYLINE
  5
630
330
1F
100
AcDbEntity
  8
BEMAßUNG
 62
     7
100
AcDb2dPolyline
 66
     1
 10
0.0
 20
0.0
 30
0.0
  0
VERTEX
  5
631
330
630
100
AcDbEntity
  8
BEMAßUNG
 62
     7
100
AcDbVertex
100
AcDb2dVertex
 10
130.8185438041009
 20
127.4826578457335
 30
0.0
  0
VERTEX
  5
632
330
630
100
AcDbEntity
  8
BEMAßUNG
 62
     7
100
AcDbVertex
100
AcDb2dVertex
 10
130.8185438041009
 20
128.6672539283367
 30
0.0
  0
SEQEND
  5
633
330
630
100
AcDbEntity
  8
BEMAßUNG
  0
POLYLINE
  5
634
330
1F
100
AcDbEntity
  8
BEMAßUNG
 62
     7
100
AcDb2dPolyline
 66
     1
 10
0.0
 20
0.0
 30
0.0
  0
VERTEX
  5
635
330
634
100
AcDbEntity
  8
BEMAßUNG
 62
     7
100
AcDbVertex
100
AcDb2dVertex
 10
130.8691867077341
 20
127.4826578457335
 30
0.0
  0
VERTEX
  5
636
330
634
100
AcDbEntity
  8
BEMAßUNG
 62
     7
100
AcDbVertex
100
AcDb2dVertex
 10
130.8691867077341
 20
129.0532768774589
 30
0.0
  0
SEQEND
  5
637
330
634
100
AcDbEntity
  8
BEMAßUNG
  0
POLYLINE
  5
638
330
1F
100
AcDbEntity
  8
BEMAßUNG
 62
     7
100
AcDb2dPolyline
 66
     1
 10
0.0
 20
0.0
 30
0.0
  0
VERTEX
  5
639
330
638
100
AcDbEntity
  8
BEMAßUNG
 62
     7
100
AcDbVertex
100
AcDb2dVertex
 10
130.9200018661415
 20
127.4826578457335
 30
0.0
  0
VERTEX
  5
63A
330
638
100
AcDbEntity
  8
BEMAßUNG
 62
     7
100
AcDbVertex
100
AcDb2dVertex
 10
130.9200018661415
 20
129.4387830622584
 30
0.0
  0
SEQEND
  5
63B
330
638
100
AcDbEntity
  8
BEMAßUNG
  0
POLYLINE
  5
63C
330
1F
100
AcDbEntity
  8
BEMAßUNG
 62
     7
100
AcDb2dPolyline
 66
     1
 10
0.0
 20
0.0
 30
0.0
  0
VERTEX
  5
63D
330
63C
100
AcDbEntity
  8
BEMAßUNG
 62
     7
100
AcDbVertex
100
AcDb2dVertex
 10
130.9711615340975
 20
127.4826578457335
 30
0.0
  0
VERTEX
  5
63E
330
63C
100
AcDbEntity
  8
BEMAßUNG
 62
     7
100
AcDbVertex
100
AcDb2dVertex
 10
130.9711615340975
 20
129.8249782661549
 30
0.0
  0
SEQEND
  5
63F
330
63C
100
AcDbEntity
  8
BEMAßUNG
  0
POLYLINE
  5
640
330
1F
100
AcDbEntity
  8
BEMAßUNG
 62
     7
100
AcDb2dPolyline
 66
     1
 10
0.0
 20
0.0
 30
0.0
  0
VERTEX
  5
641
330
640
100
AcDbEntity
  8
BEMAßUNG
 62
     7
100
AcDbVertex
100
AcDb2dVertex
 10
131.0219766925049
 20
127.4826578457335
 30
0.0
  0
VERTEX
  5
642
330
640
100
AcDbEntity
  8
BEMAßUNG
 62
     7
100
AcDbVertex
100
AcDb2dVertex
 10
131.0219766925049
 20
130.2106567057286
 30
0.0
  0
SEQEND
  5
643
330
640
100
AcDbEntity
  8
BEMAßUNG
  0
POLYLINE
  5
644
330
1F
100
AcDbEntity
  8
BEMAßUNG
 62
     7
100
AcDb2dPolyline
 66
     1
 10
0.0
 20
0.0
 30
0.0
  0
VERTEX
  5
645
330
644
100
AcDbEntity
  8
BEMAßUNG
 62
     7
100
AcDbVertex
100
AcDb2dVertex
 10
131.0727918509124
 20
127.4826578457335
 30
0.0
  0
VERTEX
  5
646
330
644
100
AcDbEntity
  8
BEMAßUNG
 62
     7
100
AcDbVertex
100
AcDb2dVertex
 10
131.0727918509124
 20
130.5966796548508
 30
0.0
  0
SEQEND
  5
647
330
644
100
AcDbEntity
  8
BEMAßUNG
  0
POLYLINE
  5
648
330
1F
100
AcDbEntity
  8
BEMAßUNG
 62
     7
100
AcDb2dPolyline
 66
     1
 10
0.0
 20
0.0
 30
0.0
  0
VERTEX
  5
649
330
648
100
AcDbEntity
  8
BEMAßUNG
 62
     7
100
AcDbVertex
100
AcDb2dVertex
 10
131.1236070093198
 20
127.4826578457335
 30
0.0
  0
VERTEX
  5
64A
330
648
100
AcDbEntity
  8
BEMAßUNG
 62
     7
100
AcDbVertex
100
AcDb2dVertex
 10
131.1236070093198
 20
130.9821858396503
 30
0.0
  0
SEQEND
  5
64B
330
648
100
AcDbEntity
  8
BEMAßUNG
  0
POLYLINE
  5
64C
330
1F
100
AcDbEntity
  8
BEMAßUNG
 62
     7
100
AcDb2dPolyline
 66
     1
 10
0.0
 20
0.0
 30
0.0
  0
VERTEX
  5
64D
330
64C
100
AcDbEntity
  8
BEMAßUNG
 62
     7
100
AcDbVertex
100
AcDb2dVertex
 10
131.5807711802125
 20
127.4826578457335
 30
0.0
  0
VERTEX
  5
64E
330
64C
100
AcDbEntity
  8
BEMAßUNG
 62
     7
100
AcDbVertex
100
AcDb2dVertex
 10
131.5807711802125
 20
127.509874100067
 30
0.0
  0
SEQEND
  5
64F
330
64C
100
AcDbEntity
  8
BEMAßUNG
  0
POLYLINE
  5
650
330
1F
100
AcDbEntity
  8
BEMAßUNG
 62
     7
100
AcDb2dPolyline
 66
     1
 10
0.0
 20
0.0
 30
0.0
  0
VERTEX
  5
651
330
650
100
AcDbEntity
  8
BEMAßUNG
 62
     7
100
AcDbVertex
100
AcDb2dVertex
 10
131.5807711802125
 20
127.4826578457335
 30
0.0
  0
VERTEX
  5
652
330
650
100
AcDbEntity
  8
BEMAßUNG
 62
     7
100
AcDbVertex
100
AcDb2dVertex
 10
131.5807711802125
 20
127.509874100067
 30
0.0
  0
SEQEND
  5
653
330
650
100
AcDbEntity
  8
BEMAßUNG
  0
POLYLINE
  5
654
330
1F
100
AcDbEntity
  8
BEMAßUNG
 62
     7
100
AcDb2dPolyline
 66
     1
 10
0.0
 20
0.0
 30
0.0
  0
VERTEX
  5
655
330
654
100
AcDbEntity
  8
BEMAßUNG
 62
     7
100
AcDbVertex
100
AcDb2dVertex
 10
131.529956021805
 20
127.4826578457335
 30
0.0
  0
VERTEX
  5
656
330
654
100
AcDbEntity
  8
BEMAßUNG
 62
     7
100
AcDbVertex
100
AcDb2dVertex
 10
131.529956021805
 20
127.8953802848664
 30
0.0
  0
SEQEND
  5
657
330
654
100
AcDbEntity
  8
BEMAßUNG
  0
POLYLINE
  5
658
330
1F
100
AcDbEntity
  8
BEMAßUNG
 62
     7
100
AcDb2dPolyline
 66
     1
 10
0.0
 20
0.0
 30
0.0
  0
VERTEX
  5
659
330
658
100
AcDbEntity
  8
BEMAßUNG
 62
     7
100
AcDbVertex
100
AcDb2dVertex
 10
131.4793131181718
 20
127.4826578457335
 30
0.0
  0
VERTEX
  5
65A
330
658
100
AcDbEntity
  8
BEMAßUNG
 62
     7
100
AcDbVertex
100
AcDb2dVertex
 10
131.4793131181718
 20
128.2815754887629
 30
0.0
  0
SEQEND
  5
65B
330
658
100
AcDbEntity
  8
BEMAßUNG
  0
POLYLINE
  5
65C
330
1F
100
AcDbEntity
  8
BEMAßUNG
 62
     7
100
AcDb2dPolyline
 66
     1
 10
0.0
 20
0.0
 30
0.0
  0
VERTEX
  5
65D
330
65C
100
AcDbEntity
  8
BEMAßUNG
 62
     7
100
AcDbVertex
100
AcDb2dVertex
 10
131.4279811954416
 20
127.4826578457335
 30
0.0
  0
VERTEX
  5
65E
330
65C
100
AcDbEntity
  8
BEMAßUNG
 62
     7
100
AcDbVertex
100
AcDb2dVertex
 10
131.4279811954416
 20
128.6672539283367
 30
0.0
  0
SEQEND
  5
65F
330
65C
100
AcDbEntity
  8
BEMAßUNG
  0
POLYLINE
  5
660
330
1F
100
AcDbEntity
  8
BEMAßUNG
 62
     7
100
AcDb2dPolyline
 66
     1
 10
0.0
 20
0.0
 30
0.0
  0
VERTEX
  5
661
330
660
100
AcDbEntity
  8
BEMAßUNG
 62
     7
100
AcDbVertex
100
AcDb2dVertex
 10
131.3773382918085
 20
127.4826578457335
 30
0.0
  0
VERTEX
  5
662
330
660
100
AcDbEntity
  8
BEMAßUNG
 62
     7
100
AcDbVertex
100
AcDb2dVertex
 10
131.3773382918085
 20
129.0532768774589
 30
0.0
  0
SEQEND
  5
663
330
660
100
AcDbEntity
  8
BEMAßUNG
  0
POLYLINE
  5
664
330
1F
100
AcDbEntity
  8
BEMAßUNG
 62
     7
100
AcDb2dPolyline
 66
     1
 10
0.0
 20
0.0
 30
0.0
  0
VERTEX
  5
665
330
664
100
AcDbEntity
  8
BEMAßUNG
 62
     7
100
AcDbVertex
100
AcDb2dVertex
 10
131.326523133401
 20
127.4826578457335
 30
0.0
  0
VERTEX
  5
666
330
664
100
AcDbEntity
  8
BEMAßUNG
 62
     7
100
AcDbVertex
100
AcDb2dVertex
 10
131.326523133401
 20
129.4387830622584
 30
0.0
  0
SEQEND
  5
667
330
664
100
AcDbEntity
  8
BEMAßUNG
  0
POLYLINE
  5
668
330
1F
100
AcDbEntity
  8
BEMAßUNG
 62
     7
100
AcDb2dPolyline
 66
     1
 10
0.0
 20
0.0
 30
0.0
  0
VERTEX
  5
669
330
668
100
AcDbEntity
  8
BEMAßUNG
 62
     7
100
AcDbVertex
100
AcDb2dVertex
 10
131.2757079749936
 20
127.4826578457335
 30
0.0
  0
VERTEX
  5
66A
330
668
100
AcDbEntity
  8
BEMAßUNG
 62
     7
100
AcDbVertex
100
AcDb2dVertex
 10
131.2757079749936
 20
129.8249782661549
 30
0.0
  0
SEQEND
  5
66B
330
668
100
AcDbEntity
  8
BEMAßUNG
  0
POLYLINE
  5
66C
330
1F
100
AcDbEntity
  8
BEMAßUNG
 62
     7
100
AcDb2dPolyline
 66
     1
 10
0.0
 20
0.0
 30
0.0
  0
VERTEX
  5
66D
330
66C
100
AcDbEntity
  8
BEMAßUNG
 62
     7
100
AcDbVertex
100
AcDb2dVertex
 10
131.2248928165861
 20
127.4826578457335
 30
0.0
  0
VERTEX
  5
66E
330
66C
100
AcDbEntity
  8
BEMAßUNG
 62
     7
100
AcDbVertex
100
AcDb2dVertex
 10
131.2248928165861
 20
130.2106567057286
 30
0.0
  0
SEQEND
  5
66F
330
66C
100
AcDbEntity
  8
BEMAßUNG
  0
POLYLINE
  5
670
330
1F
100
AcDbEntity
  8
BEMAßUNG
 62
     7
100
AcDb2dPolyline
 66
     1
 10
0.0
 20
0.0
 30
0.0
  0
VERTEX
  5
671
330
670
100
AcDbEntity
  8
BEMAßUNG
 62
     7
100
AcDbVertex
100
AcDb2dVertex
 10
131.1744221677272
 20
127.4826578457335
 30
0.0
  0
VERTEX
  5
672
330
670
100
AcDbEntity
  8
BEMAßUNG
 62
     7
100
AcDbVertex
100
AcDb2dVertex
 10
131.1744221677272
 20
130.5966796548508
 30
0.0
  0
SEQEND
  5
673
330
670
100
AcDbEntity
  8
BEMAßUNG
  0
POLYLINE
  5
674
330
1F
100
AcDbEntity
  8
BEMAßUNG
 62
     7
100
AcDb2dPolyline
 66
     1
 10
0.0
 20
0.0
 30
0.0
  0
VERTEX
  5
675
330
674
100
AcDbEntity
  8
BEMAßUNG
 62
     7
100
AcDbVertex
100
AcDb2dVertex
 10
131.1236070093198
 20
127.4826578457335
 30
0.0
  0
VERTEX
  5
676
330
674
100
AcDbEntity
  8
BEMAßUNG
 62
     7
100
AcDbVertex
100
AcDb2dVertex
 10
131.1236070093198
 20
130.9821858396503
 30
0.0
  0
SEQEND
  5
677
330
674
100
AcDbEntity
  8
BEMAßUNG
  0
POLYLINE
  5
678
330
1F
100
AcDbEntity
  8
BEMAßUNG
 62
     7
100
AcDb2dPolyline
 66
     1
 10
0.0
 20
0.0
 30
0.0
  0
VERTEX
  5
679
330
678
100
AcDbEntity
  8
BEMAßUNG
 62
     7
100
AcDbVertex
100
AcDb2dVertex
 10
131.1236070093198
 20
112.9824232030912
 30
0.0
  0
VERTEX
  5
67A
330
678
100
AcDbEntity
  8
BEMAßUNG
 62
     7
100
AcDbVertex
100
AcDb2dVertex
 10
131.584388530472
 20
116.482640216105
 30
0.0
  0
VERTEX
  5
67B
330
678
100
AcDbEntity
  8
BEMAßUNG
 62
     7
100
AcDbVertex
100
AcDb2dVertex
 10
130.6624809786191
 20
116.482640216105
 30
0.0
  0
VERTEX
  5
67C
330
678
100
AcDbEntity
  8
BEMAßUNG
 62
     7
100
AcDbVertex
100
AcDb2dVertex
 10
131.1236070093198
 20
112.9824232030912
 30
0.0
  0
SEQEND
  5
67D
330
678
100
AcDbEntity
  8
BEMAßUNG
  0
POLYLINE
  5
67E
330
1F
100
AcDbEntity
  8
BEMAßUNG
 62
     7
100
AcDb2dPolyline
 66
     1
 10
0.0
 20
0.0
 30
0.0
  0
VERTEX
  5
67F
330
67E
100
AcDbEntity
  8
BEMAßUNG
 62
     7
100
AcDbVertex
100
AcDb2dVertex
 10
131.5807711802125
 20
116.482640216105
 30
0.0
  0
VERTEX
  5
680
330
67E
100
AcDbEntity
  8
BEMAßUNG
 62
     7
100
AcDbVertex
100
AcDb2dVertex
 10
131.5807711802125
 20
116.4554239617716
 30
0.0
  0
SEQEND
  5
681
330
67E
100
AcDbEntity
  8
BEMAßUNG
  0
POLYLINE
  5
682
330
1F
100
AcDbEntity
  8
BEMAßUNG
 62
     7
100
AcDb2dPolyline
 66
     1
 10
0.0
 20
0.0
 30
0.0
  0
VERTEX
  5
683
330
682
100
AcDbEntity
  8
BEMAßUNG
 62
     7
100
AcDbVertex
100
AcDb2dVertex
 10
131.5807711802125
 20
116.482640216105
 30
0.0
  0
VERTEX
  5
684
330
682
100
AcDbEntity
  8
BEMAßUNG
 62
     7
100
AcDbVertex
100
AcDb2dVertex
 10
131.5807711802125
 20
116.4554239617716
 30
0.0
  0
SEQEND
  5
685
330
682
100
AcDbEntity
  8
BEMAßUNG
  0
POLYLINE
  5
686
330
1F
100
AcDbEntity
  8
BEMAßUNG
 62
     7
100
AcDb2dPolyline
 66
     1
 10
0.0
 20
0.0
 30
0.0
  0
VERTEX
  5
687
330
686
100
AcDbEntity
  8
BEMAßUNG
 62
     7
100
AcDbVertex
100
AcDb2dVertex
 10
131.529956021805
 20
116.482640216105
 30
0.0
  0
VERTEX
  5
688
330
686
100
AcDbEntity
  8
BEMAßUNG
 62
     7
100
AcDbVertex
100
AcDb2dVertex
 10
131.529956021805
 20
116.0692287578751
 30
0.0
  0
SEQEND
  5
689
330
686
100
AcDbEntity
  8
BEMAßUNG
  0
POLYLINE
  5
68A
330
1F
100
AcDbEntity
  8
BEMAßUNG
 62
     7
100
AcDb2dPolyline
 66
     1
 10
0.0
 20
0.0
 30
0.0
  0
VERTEX
  5
68B
330
68A
100
AcDbEntity
  8
BEMAßUNG
 62
     7
100
AcDbVertex
100
AcDb2dVertex
 10
131.4793131181718
 20
116.482640216105
 30
0.0
  0
VERTEX
  5
68C
330
68A
100
AcDbEntity
  8
BEMAßUNG
 62
     7
100
AcDbVertex
100
AcDb2dVertex
 10
131.4793131181718
 20
115.6835503183013
 30
0.0
  0
SEQEND
  5
68D
330
68A
100
AcDbEntity
  8
BEMAßUNG
  0
POLYLINE
  5
68E
330
1F
100
AcDbEntity
  8
BEMAßUNG
 62
     7
100
AcDb2dPolyline
 66
     1
 10
0.0
 20
0.0
 30
0.0
  0
VERTEX
  5
68F
330
68E
100
AcDbEntity
  8
BEMAßUNG
 62
     7
100
AcDbVertex
100
AcDb2dVertex
 10
131.4279811954416
 20
116.482640216105
 30
0.0
  0
VERTEX
  5
690
330
68E
100
AcDbEntity
  8
BEMAßUNG
 62
     7
100
AcDbVertex
100
AcDb2dVertex
 10
131.4279811954416
 20
115.2973551144048
 30
0.0
  0
SEQEND
  5
691
330
68E
100
AcDbEntity
  8
BEMAßUNG
  0
POLYLINE
  5
692
330
1F
100
AcDbEntity
  8
BEMAßUNG
 62
     7
100
AcDb2dPolyline
 66
     1
 10
0.0
 20
0.0
 30
0.0
  0
VERTEX
  5
693
330
692
100
AcDbEntity
  8
BEMAßUNG
 62
     7
100
AcDbVertex
100
AcDb2dVertex
 10
131.3773382918085
 20
116.482640216105
 30
0.0
  0
VERTEX
  5
694
330
692
100
AcDbEntity
  8
BEMAßUNG
 62
     7
100
AcDbVertex
100
AcDb2dVertex
 10
131.3773382918085
 20
114.9121934391539
 30
0.0
  0
SEQEND
  5
695
330
692
100
AcDbEntity
  8
BEMAßUNG
  0
POLYLINE
  5
696
330
1F
100
AcDbEntity
  8
BEMAßUNG
 62
     7
100
AcDb2dPolyline
 66
     1
 10
0.0
 20
0.0
 30
0.0
  0
VERTEX
  5
697
330
696
100
AcDbEntity
  8
BEMAßUNG
 62
     7
100
AcDbVertex
100
AcDb2dVertex
 10
131.326523133401
 20
116.482640216105
 30
0.0
  0
VERTEX
  5
698
330
696
100
AcDbEntity
  8
BEMAßUNG
 62
     7
100
AcDbVertex
100
AcDb2dVertex
 10
131.326523133401
 20
114.5258259804831
 30
0.0
  0
SEQEND
  5
699
330
696
100
AcDbEntity
  8
BEMAßUNG
  0
POLYLINE
  5
69A
330
1F
100
AcDbEntity
  8
BEMAßUNG
 62
     7
100
AcDb2dPolyline
 66
     1
 10
0.0
 20
0.0
 30
0.0
  0
VERTEX
  5
69B
330
69A
100
AcDbEntity
  8
BEMAßUNG
 62
     7
100
AcDbVertex
100
AcDb2dVertex
 10
131.2757079749936
 20
116.482640216105
 30
0.0
  0
VERTEX
  5
69C
330
69A
100
AcDbEntity
  8
BEMAßUNG
 62
     7
100
AcDbVertex
100
AcDb2dVertex
 10
131.2757079749936
 20
114.1401475409094
 30
0.0
  0
SEQEND
  5
69D
330
69A
100
AcDbEntity
  8
BEMAßUNG
  0
POLYLINE
  5
69E
330
1F
100
AcDbEntity
  8
BEMAßUNG
 62
     7
100
AcDb2dPolyline
 66
     1
 10
0.0
 20
0.0
 30
0.0
  0
VERTEX
  5
69F
330
69E
100
AcDbEntity
  8
BEMAßUNG
 62
     7
100
AcDbVertex
100
AcDb2dVertex
 10
131.2248928165861
 20
116.482640216105
 30
0.0
  0
VERTEX
  5
6A0
330
69E
100
AcDbEntity
  8
BEMAßUNG
 62
     7
100
AcDbVertex
100
AcDb2dVertex
 10
131.2248928165861
 20
113.7539523370129
 30
0.0
  0
SEQEND
  5
6A1
330
69E
100
AcDbEntity
  8
BEMAßUNG
  0
POLYLINE
  5
6A2
330
1F
100
AcDbEntity
  8
BEMAßUNG
 62
     7
100
AcDb2dPolyline
 66
     1
 10
0.0
 20
0.0
 30
0.0
  0
VERTEX
  5
6A3
330
6A2
100
AcDbEntity
  8
BEMAßUNG
 62
     7
100
AcDbVertex
100
AcDb2dVertex
 10
131.1744221677272
 20
116.482640216105
 30
0.0
  0
VERTEX
  5
6A4
330
6A2
100
AcDbEntity
  8
BEMAßUNG
 62
     7
100
AcDbVertex
100
AcDb2dVertex
 10
131.1744221677272
 20
113.3682738974392
 30
0.0
  0
SEQEND
  5
6A5
330
6A2
100
AcDbEntity
  8
BEMAßUNG
  0
POLYLINE
  5
6A6
330
1F
100
AcDbEntity
  8
BEMAßUNG
 62
     7
100
AcDb2dPolyline
 66
     1
 10
0.0
 20
0.0
 30
0.0
  0
VERTEX
  5
6A7
330
6A6
100
AcDbEntity
  8
BEMAßUNG
 62
     7
100
AcDbVertex
100
AcDb2dVertex
 10
131.1236070093198
 20
116.482640216105
 30
0.0
  0
VERTEX
  5
6A8
330
6A6
100
AcDbEntity
  8
BEMAßUNG
 62
     7
100
AcDbVertex
100
AcDb2dVertex
 10
131.1236070093198
 20
112.9824232030912
 30
0.0
  0
SEQEND
  5
6A9
330
6A6
100
AcDbEntity
  8
BEMAßUNG
  0
POLYLINE
  5
6AA
330
1F
100
AcDbEntity
  8
BEMAßUNG
 62
     7
100
AcDb2dPolyline
 66
     1
 10
0.0
 20
0.0
 30
0.0
  0
VERTEX
  5
6AB
330
6AA
100
AcDbEntity
  8
BEMAßUNG
 62
     7
100
AcDbVertex
100
AcDb2dVertex
 10
130.6660983288786
 20
116.482640216105
 30
0.0
  0
VERTEX
  5
6AC
330
6AA
100
AcDbEntity
  8
BEMAßUNG
 62
     7
100
AcDbVertex
100
AcDb2dVertex
 10
130.6660983288786
 20
116.4554239617716
 30
0.0
  0
SEQEND
  5
6AD
330
6AA
100
AcDbEntity
  8
BEMAßUNG
  0
POLYLINE
  5
6AE
330
1F
100
AcDbEntity
  8
BEMAßUNG
 62
     7
100
AcDb2dPolyline
 66
     1
 10
0.0
 20
0.0
 30
0.0
  0
VERTEX
  5
6AF
330
6AE
100
AcDbEntity
  8
BEMAßUNG
 62
     7
100
AcDbVertex
100
AcDb2dVertex
 10
130.6660983288786
 20
116.482640216105
 30
0.0
  0
VERTEX
  5
6B0
330
6AE
100
AcDbEntity
  8
BEMAßUNG
 62
     7
100
AcDbVertex
100
AcDb2dVertex
 10
130.6660983288786
 20
116.4554239617716
 30
0.0
  0
SEQEND
  5
6B1
330
6AE
100
AcDbEntity
  8
BEMAßUNG
  0
POLYLINE
  5
6B2
330
1F
100
AcDbEntity
  8
BEMAßUNG
 62
     7
100
AcDb2dPolyline
 66
     1
 10
0.0
 20
0.0
 30
0.0
  0
VERTEX
  5
6B3
330
6B2
100
AcDbEntity
  8
BEMAßUNG
 62
     7
100
AcDbVertex
100
AcDb2dVertex
 10
130.7169134872861
 20
116.482640216105
 30
0.0
  0
VERTEX
  5
6B4
330
6B2
100
AcDbEntity
  8
BEMAßUNG
 62
     7
100
AcDbVertex
100
AcDb2dVertex
 10
130.7169134872861
 20
116.0692287578751
 30
0.0
  0
SEQEND
  5
6B5
330
6B2
100
AcDbEntity
  8
BEMAßUNG
  0
POLYLINE
  5
6B6
330
1F
100
AcDbEntity
  8
BEMAßUNG
 62
     7
100
AcDb2dPolyline
 66
     1
 10
0.0
 20
0.0
 30
0.0
  0
VERTEX
  5
6B7
330
6B6
100
AcDbEntity
  8
BEMAßUNG
 62
     7
100
AcDbVertex
100
AcDb2dVertex
 10
130.7677286456935
 20
116.482640216105
 30
0.0
  0
VERTEX
  5
6B8
330
6B6
100
AcDbEntity
  8
BEMAßUNG
 62
     7
100
AcDbVertex
100
AcDb2dVertex
 10
130.7677286456935
 20
115.6835503183013
 30
0.0
  0
SEQEND
  5
6B9
330
6B6
100
AcDbEntity
  8
BEMAßUNG
  0
POLYLINE
  5
6BA
330
1F
100
AcDbEntity
  8
BEMAßUNG
 62
     7
100
AcDb2dPolyline
 66
     1
 10
0.0
 20
0.0
 30
0.0
  0
VERTEX
  5
6BB
330
6BA
100
AcDbEntity
  8
BEMAßUNG
 62
     7
100
AcDbVertex
100
AcDb2dVertex
 10
130.8185438041009
 20
116.482640216105
 30
0.0
  0
VERTEX
  5
6BC
330
6BA
100
AcDbEntity
  8
BEMAßUNG
 62
     7
100
AcDbVertex
100
AcDb2dVertex
 10
130.8185438041009
 20
115.2973551144048
 30
0.0
  0
SEQEND
  5
6BD
330
6BA
100
AcDbEntity
  8
BEMAßUNG
  0
POLYLINE
  5
6BE
330
1F
100
AcDbEntity
  8
BEMAßUNG
 62
     7
100
AcDb2dPolyline
 66
     1
 10
0.0
 20
0.0
 30
0.0
  0
VERTEX
  5
6BF
330
6BE
100
AcDbEntity
  8
BEMAßUNG
 62
     7
100
AcDbVertex
100
AcDb2dVertex
 10
130.8691867077341
 20
116.482640216105
 30
0.0
  0
VERTEX
  5
6C0
330
6BE
100
AcDbEntity
  8
BEMAßUNG
 62
     7
100
AcDbVertex
100
AcDb2dVertex
 10
130.8691867077341
 20
114.9121934391539
 30
0.0
  0
SEQEND
  5
6C1
330
6BE
100
AcDbEntity
  8
BEMAßUNG
  0
POLYLINE
  5
6C2
330
1F
100
AcDbEntity
  8
BEMAßUNG
 62
     7
100
AcDb2dPolyline
 66
     1
 10
0.0
 20
0.0
 30
0.0
  0
VERTEX
  5
6C3
330
6C2
100
AcDbEntity
  8
BEMAßUNG
 62
     7
100
AcDbVertex
100
AcDb2dVertex
 10
130.9200018661415
 20
116.482640216105
 30
0.0
  0
VERTEX
  5
6C4
330
6C2
100
AcDbEntity
  8
BEMAßUNG
 62
     7
100
AcDbVertex
100
AcDb2dVertex
 10
130.9200018661415
 20
114.5258259804831
 30
0.0
  0
SEQEND
  5
6C5
330
6C2
100
AcDbEntity
  8
BEMAßUNG
  0
POLYLINE
  5
6C6
330
1F
100
AcDbEntity
  8
BEMAßUNG
 62
     7
100
AcDb2dPolyline
 66
     1
 10
0.0
 20
0.0
 30
0.0
  0
VERTEX
  5
6C7
330
6C6
100
AcDbEntity
  8
BEMAßUNG
 62
     7
100
AcDbVertex
100
AcDb2dVertex
 10
130.9711615340975
 20
116.482640216105
 30
0.0
  0
VERTEX
  5
6C8
330
6C6
100
AcDbEntity
  8
BEMAßUNG
 62
     7
100
AcDbVertex
100
AcDb2dVertex
 10
130.9711615340975
 20
114.1401475409094
 30
0.0
  0
SEQEND
  5
6C9
330
6C6
100
AcDbEntity
  8
BEMAßUNG
  0
POLYLINE
  5
6CA
330
1F
100
AcDbEntity
  8
BEMAßUNG
 62
     7
100
AcDb2dPolyline
 66
     1
 10
0.0
 20
0.0
 30
0.0
  0
VERTEX
  5
6CB
330
6CA
100
AcDbEntity
  8
BEMAßUNG
 62
     7
100
AcDbVertex
100
AcDb2dVertex
 10
131.0219766925049
 20
116.482640216105
 30
0.0
  0
VERTEX
  5
6CC
330
6CA
100
AcDbEntity
  8
BEMAßUNG
 62
     7
100
AcDbVertex
100
AcDb2dVertex
 10
131.0219766925049
 20
113.7539523370129
 30
0.0
  0
SEQEND
  5
6CD
330
6CA
100
AcDbEntity
  8
BEMAßUNG
  0
POLYLINE
  5
6CE
330
1F
100
AcDbEntity
  8
BEMAßUNG
 62
     7
100
AcDb2dPolyline
 66
     1
 10
0.0
 20
0.0
 30
0.0
  0
VERTEX
  5
6CF
330
6CE
100
AcDbEntity
  8
BEMAßUNG
 62
     7
100
AcDbVertex
100
AcDb2dVertex
 10
131.0727918509124
 20
116.482640216105
 30
0.0
  0
VERTEX
  5
6D0
330
6CE
100
AcDbEntity
  8
BEMAßUNG
 62
     7
100
AcDbVertex
100
AcDb2dVertex
 10
131.0727918509124
 20
113.3682738974392
 30
0.0
  0
SEQEND
  5
6D1
330
6CE
100
AcDbEntity
  8
BEMAßUNG
  0
POLYLINE
  5
6D2
330
1F
100
AcDbEntity
  8
BEMAßUNG
 62
     7
100
AcDb2dPolyline
 66
     1
 10
0.0
 20
0.0
 30
0.0
  0
VERTEX
  5
6D3
330
6D2
100
AcDbEntity
  8
BEMAßUNG
 62
     7
100
AcDbVertex
100
AcDb2dVertex
 10
131.1236070093198
 20
116.482640216105
 30
0.0
  0
VERTEX
  5
6D4
330
6D2
100
AcDbEntity
  8
BEMAßUNG
 62
     7
100
AcDbVertex
100
AcDb2dVertex
 10
131.1236070093198
 20
112.9824232030912
 30
0.0
  0
SEQEND
  5
6D5
330
6D2
100
AcDbEntity
  8
BEMAßUNG
  0
POLYLINE
  5
6D6
330
1F
100
AcDbEntity
  8
BEMAßUNG
 62
     7
100
AcDb2dPolyline
 66
     1
 10
0.0
 20
0.0
 30
0.0
  0
VERTEX
  5
6D7
330
6D6
100
AcDbEntity
  8
BEMAßUNG
 62
     7
100
AcDbVertex
100
AcDb2dVertex
 10
174.228124956443
 20
127.9821966910947
 30
0.0
  0
VERTEX
  5
6D8
330
6D6
100
AcDbEntity
  8
BEMAßUNG
 62
     7
100
AcDbVertex
100
AcDb2dVertex
 10
199.6234740711879
 20
127.9821966910947
 30
0.0
  0
SEQEND
  5
6D9
330
6D6
100
AcDbEntity
  8
BEMAßUNG
  0
POLYLINE
  5
6DA
330
1F
100
AcDbEntity
  8
BEMAßUNG
 62
     7
100
AcDb2dPolyline
 66
     1
 10
0.0
 20
0.0
 30
0.0
  0
VERTEX
  5
6DB
330
6DA
100
AcDbEntity
  8
BEMAßUNG
 62
     7
100
AcDbVertex
100
AcDb2dVertex
 10
174.228124956443
 20
115.9824123516468
 30
0.0
  0
VERTEX
  5
6DC
330
6DA
100
AcDbEntity
  8
BEMAßUNG
 62
     7
100
AcDbVertex
100
AcDb2dVertex
 10
199.6234740711879
 20
115.9824123516468
 30
0.0
  0
SEQEND
  5
6DD
330
6DA
100
AcDbEntity
  8
BEMAßUNG
  0
POLYLINE
  5
6DE
330
1F
100
AcDbEntity
  8
BEMAßUNG
 62
     7
100
AcDb2dPolyline
 66
     1
 10
0.0
 20
0.0
 30
0.0
  0
VERTEX
  5
6DF
330
6DE
100
AcDbEntity
  8
BEMAßUNG
 62
     7
100
AcDbVertex
100
AcDb2dVertex
 10
197.6232516324518
 20
115.9824123516468
 30
0.0
  0
VERTEX
  5
6E0
330
6DE
100
AcDbEntity
  8
BEMAßUNG
 62
     7
100
AcDbVertex
100
AcDb2dVertex
 10
197.6232516324518
 20
143.3089097406485
 30
0.0
  0
SEQEND
  5
6E1
330
6DE
100
AcDbEntity
  8
BEMAßUNG
  0
POLYLINE
  5
6E2
330
1F
100
AcDbEntity
  8
BEMAßUNG
 62
     7
100
AcDb2dPolyline
 66
     1
 10
0.0
 20
0.0
 30
0.0
  0
VERTEX
  5
6E3
330
6E2
100
AcDbEntity
  8
BEMAßUNG
 62
     7
100
AcDbVertex
100
AcDb2dVertex
 10
197.6232516324518
 20
127.9821966910947
 30
0.0
  0
VERTEX
  5
6E4
330
6E2
100
AcDbEntity
  8
BEMAßUNG
 62
     7
100
AcDbVertex
100
AcDb2dVertex
 10
197.1629868756225
 20
124.482668697178
 30
0.0
  0
VERTEX
  5
6E5
330
6E2
100
AcDbEntity
  8
BEMAßUNG
 62
     7
100
AcDbVertex
100
AcDb2dVertex
 10
198.0843776631525
 20
124.482668697178
 30
0.0
  0
VERTEX
  5
6E6
330
6E2
100
AcDbEntity
  8
BEMAßUNG
 62
     7
100
AcDbVertex
100
AcDb2dVertex
 10
197.6232516324518
 20
127.9821966910947
 30
0.0
  0
SEQEND
  5
6E7
330
6E2
100
AcDbEntity
  8
BEMAßUNG
  0
POLYLINE
  5
6E8
330
1F
100
AcDbEntity
  8
BEMAßUNG
 62
     7
100
AcDb2dPolyline
 66
     1
 10
0.0
 20
0.0
 30
0.0
  0
VERTEX
  5
6E9
330
6E8
100
AcDbEntity
  8
BEMAßUNG
 62
     7
100
AcDbVertex
100
AcDb2dVertex
 10
197.1660874615592
 20
124.482668697178
 30
0.0
  0
VERTEX
  5
6EA
330
6E8
100
AcDbEntity
  8
BEMAßUNG
 62
     7
100
AcDbVertex
100
AcDb2dVertex
 10
197.1660874615592
 20
124.5097126967372
 30
0.0
  0
SEQEND
  5
6EB
330
6E8
100
AcDbEntity
  8
BEMAßUNG
  0
POLYLINE
  5
6EC
330
1F
100
AcDbEntity
  8
BEMAßUNG
 62
     7
100
AcDb2dPolyline
 66
     1
 10
0.0
 20
0.0
 30
0.0
  0
VERTEX
  5
6ED
330
6EC
100
AcDbEntity
  8
BEMAßUNG
 62
     7
100
AcDbVertex
100
AcDb2dVertex
 10
197.1660874615592
 20
124.482668697178
 30
0.0
  0
VERTEX
  5
6EE
330
6EC
100
AcDbEntity
  8
BEMAßUNG
 62
     7
100
AcDbVertex
100
AcDb2dVertex
 10
197.1660874615592
 20
124.5097126967372
 30
0.0
  0
SEQEND
  5
6EF
330
6EC
100
AcDbEntity
  8
BEMAßUNG
  0
POLYLINE
  5
6F0
330
1F
100
AcDbEntity
  8
BEMAßUNG
 62
     7
100
AcDb2dPolyline
 66
     1
 10
0.0
 20
0.0
 30
0.0
  0
VERTEX
  5
6F1
330
6F0
100
AcDbEntity
  8
BEMAßUNG
 62
     7
100
AcDbVertex
100
AcDb2dVertex
 10
197.2169026199666
 20
124.482668697178
 30
0.0
  0
VERTEX
  5
6F2
330
6F0
100
AcDbEntity
  8
BEMAßUNG
 62
     7
100
AcDbVertex
100
AcDb2dVertex
 10
197.2169026199666
 20
124.8953911363109
 30
0.0
  0
SEQEND
  5
6F3
330
6F0
100
AcDbEntity
  8
BEMAßUNG
  0
POLYLINE
  5
6F4
330
1F
100
AcDbEntity
  8
BEMAßUNG
 62
     7
100
AcDb2dPolyline
 66
     1
 10
0.0
 20
0.0
 30
0.0
  0
VERTEX
  5
6F5
330
6F4
100
AcDbEntity
  8
BEMAßUNG
 62
     7
100
AcDbVertex
100
AcDb2dVertex
 10
197.2680622879226
 20
124.482668697178
 30
0.0
  0
VERTEX
  5
6F6
330
6F4
100
AcDbEntity
  8
BEMAßUNG
 62
     7
100
AcDbVertex
100
AcDb2dVertex
 10
197.2680622879226
 20
125.2815863402074
 30
0.0
  0
SEQEND
  5
6F7
330
6F4
100
AcDbEntity
  8
BEMAßUNG
  0
POLYLINE
  5
6F8
330
1F
100
AcDbEntity
  8
BEMAßUNG
 62
     7
100
AcDb2dPolyline
 66
     1
 10
0.0
 20
0.0
 30
0.0
  0
VERTEX
  5
6F9
330
6F8
100
AcDbEntity
  8
BEMAßUNG
 62
     7
100
AcDbVertex
100
AcDb2dVertex
 10
197.31887744633
 20
124.482668697178
 30
0.0
  0
VERTEX
  5
6FA
330
6F8
100
AcDbEntity
  8
BEMAßUNG
 62
     7
100
AcDbVertex
100
AcDb2dVertex
 10
197.31887744633
 20
125.6672647797811
 30
0.0
  0
SEQEND
  5
6FB
330
6F8
100
AcDbEntity
  8
BEMAßUNG
  0
POLYLINE
  5
6FC
330
1F
100
AcDbEntity
  8
BEMAßUNG
 62
     7
100
AcDb2dPolyline
 66
     1
 10
0.0
 20
0.0
 30
0.0
  0
VERTEX
  5
6FD
330
6FC
100
AcDbEntity
  8
BEMAßUNG
 62
     7
100
AcDbVertex
100
AcDb2dVertex
 10
197.3696926047375
 20
124.482668697178
 30
0.0
  0
VERTEX
  5
6FE
330
6FC
100
AcDbEntity
  8
BEMAßUNG
 62
     7
100
AcDbVertex
100
AcDb2dVertex
 10
197.3696926047375
 20
126.0531154741291
 30
0.0
  0
SEQEND
  5
6FF
330
6FC
100
AcDbEntity
  8
BEMAßUNG
  0
POLYLINE
  5
700
330
1F
100
AcDbEntity
  8
BEMAßUNG
 62
     7
100
AcDb2dPolyline
 66
     1
 10
0.0
 20
0.0
 30
0.0
  0
VERTEX
  5
701
330
700
100
AcDbEntity
  8
BEMAßUNG
 62
     7
100
AcDbVertex
100
AcDb2dVertex
 10
197.4205077631449
 20
124.482668697178
 30
0.0
  0
VERTEX
  5
702
330
700
100
AcDbEntity
  8
BEMAßUNG
 62
     7
100
AcDbVertex
100
AcDb2dVertex
 10
197.4205077631449
 20
126.4387939137028
 30
0.0
  0
SEQEND
  5
703
330
700
100
AcDbEntity
  8
BEMAßUNG
  0
POLYLINE
  5
704
330
1F
100
AcDbEntity
  8
BEMAßUNG
 62
     7
100
AcDb2dPolyline
 66
     1
 10
0.0
 20
0.0
 30
0.0
  0
VERTEX
  5
705
330
704
100
AcDbEntity
  8
BEMAßUNG
 62
     7
100
AcDbVertex
100
AcDb2dVertex
 10
197.4713229215523
 20
124.482668697178
 30
0.0
  0
VERTEX
  5
706
330
704
100
AcDbEntity
  8
BEMAßUNG
 62
     7
100
AcDbVertex
100
AcDb2dVertex
 10
197.4713229215523
 20
126.8249891175993
 30
0.0
  0
SEQEND
  5
707
330
704
100
AcDbEntity
  8
BEMAßUNG
  0
POLYLINE
  5
708
330
1F
100
AcDbEntity
  8
BEMAßUNG
 62
     7
100
AcDb2dPolyline
 66
     1
 10
0.0
 20
0.0
 30
0.0
  0
VERTEX
  5
709
330
708
100
AcDbEntity
  8
BEMAßUNG
 62
     7
100
AcDbVertex
100
AcDb2dVertex
 10
197.521621315637
 20
124.482668697178
 30
0.0
  0
VERTEX
  5
70A
330
708
100
AcDbEntity
  8
BEMAßUNG
 62
     7
100
AcDbVertex
100
AcDb2dVertex
 10
197.521621315637
 20
127.210667557173
 30
0.0
  0
SEQEND
  5
70B
330
708
100
AcDbEntity
  8
BEMAßUNG
  0
POLYLINE
  5
70C
330
1F
100
AcDbEntity
  8
BEMAßUNG
 62
     7
100
AcDb2dPolyline
 66
     1
 10
0.0
 20
0.0
 30
0.0
  0
VERTEX
  5
70D
330
70C
100
AcDbEntity
  8
BEMAßUNG
 62
     7
100
AcDbVertex
100
AcDb2dVertex
 10
197.5724364740444
 20
124.482668697178
 30
0.0
  0
VERTEX
  5
70E
330
70C
100
AcDbEntity
  8
BEMAßUNG
 62
     7
100
AcDbVertex
100
AcDb2dVertex
 10
197.5724364740444
 20
127.5968627610695
 30
0.0
  0
SEQEND
  5
70F
330
70C
100
AcDbEntity
  8
BEMAßUNG
  0
POLYLINE
  5
710
330
1F
100
AcDbEntity
  8
BEMAßUNG
 62
     7
100
AcDb2dPolyline
 66
     1
 10
0.0
 20
0.0
 30
0.0
  0
VERTEX
  5
711
330
710
100
AcDbEntity
  8
BEMAßUNG
 62
     7
100
AcDbVertex
100
AcDb2dVertex
 10
197.6232516324518
 20
124.482668697178
 30
0.0
  0
VERTEX
  5
712
330
710
100
AcDbEntity
  8
BEMAßUNG
 62
     7
100
AcDbVertex
100
AcDb2dVertex
 10
197.6232516324518
 20
127.9821966910947
 30
0.0
  0
SEQEND
  5
713
330
710
100
AcDbEntity
  8
BEMAßUNG
  0
POLYLINE
  5
714
330
1F
100
AcDbEntity
  8
BEMAßUNG
 62
     7
100
AcDb2dPolyline
 66
     1
 10
0.0
 20
0.0
 30
0.0
  0
VERTEX
  5
715
330
714
100
AcDbEntity
  8
BEMAßUNG
 62
     7
100
AcDbVertex
100
AcDb2dVertex
 10
198.0805880581188
 20
124.482668697178
 30
0.0
  0
VERTEX
  5
716
330
714
100
AcDbEntity
  8
BEMAßUNG
 62
     7
100
AcDbVertex
100
AcDb2dVertex
 10
198.0805880581188
 20
124.5097126967372
 30
0.0
  0
SEQEND
  5
717
330
714
100
AcDbEntity
  8
BEMAßUNG
  0
POLYLINE
  5
718
330
1F
100
AcDbEntity
  8
BEMAßUNG
 62
     7
100
AcDb2dPolyline
 66
     1
 10
0.0
 20
0.0
 30
0.0
  0
VERTEX
  5
719
330
718
100
AcDbEntity
  8
BEMAßUNG
 62
     7
100
AcDbVertex
100
AcDb2dVertex
 10
198.0805880581188
 20
124.482668697178
 30
0.0
  0
VERTEX
  5
71A
330
718
100
AcDbEntity
  8
BEMAßUNG
 62
     7
100
AcDbVertex
100
AcDb2dVertex
 10
198.0805880581188
 20
124.5097126967372
 30
0.0
  0
SEQEND
  5
71B
330
718
100
AcDbEntity
  8
BEMAßUNG
  0
POLYLINE
  5
71C
330
1F
100
AcDbEntity
  8
BEMAßUNG
 62
     7
100
AcDb2dPolyline
 66
     1
 10
0.0
 20
0.0
 30
0.0
  0
VERTEX
  5
71D
330
71C
100
AcDbEntity
  8
BEMAßUNG
 62
     7
100
AcDbVertex
100
AcDb2dVertex
 10
198.0301174092598
 20
124.482668697178
 30
0.0
  0
VERTEX
  5
71E
330
71C
100
AcDbEntity
  8
BEMAßUNG
 62
     7
100
AcDbVertex
100
AcDb2dVertex
 10
198.0301174092598
 20
124.8953911363109
 30
0.0
  0
SEQEND
  5
71F
330
71C
100
AcDbEntity
  8
BEMAßUNG
  0
POLYLINE
  5
720
330
1F
100
AcDbEntity
  8
BEMAßUNG
 62
     7
100
AcDb2dPolyline
 66
     1
 10
0.0
 20
0.0
 30
0.0
  0
VERTEX
  5
721
330
720
100
AcDbEntity
  8
BEMAßUNG
 62
     7
100
AcDbVertex
100
AcDb2dVertex
 10
197.9793022508524
 20
124.482668697178
 30
0.0
  0
VERTEX
  5
722
330
720
100
AcDbEntity
  8
BEMAßUNG
 62
     7
100
AcDbVertex
100
AcDb2dVertex
 10
197.9793022508524
 20
125.2815863402074
 30
0.0
  0
SEQEND
  5
723
330
720
100
AcDbEntity
  8
BEMAßUNG
  0
POLYLINE
  5
724
330
1F
100
AcDbEntity
  8
BEMAßUNG
 62
     7
100
AcDb2dPolyline
 66
     1
 10
0.0
 20
0.0
 30
0.0
  0
VERTEX
  5
725
330
724
100
AcDbEntity
  8
BEMAßUNG
 62
     7
100
AcDbVertex
100
AcDb2dVertex
 10
197.928487092445
 20
124.482668697178
 30
0.0
  0
VERTEX
  5
726
330
724
100
AcDbEntity
  8
BEMAßUNG
 62
     7
100
AcDbVertex
100
AcDb2dVertex
 10
197.928487092445
 20
125.6672647797811
 30
0.0
  0
SEQEND
  5
727
330
724
100
AcDbEntity
  8
BEMAßUNG
  0
POLYLINE
  5
728
330
1F
100
AcDbEntity
  8
BEMAßUNG
 62
     7
100
AcDb2dPolyline
 66
     1
 10
0.0
 20
0.0
 30
0.0
  0
VERTEX
  5
729
330
728
100
AcDbEntity
  8
BEMAßUNG
 62
     7
100
AcDbVertex
100
AcDb2dVertex
 10
197.8776719340375
 20
124.482668697178
 30
0.0
  0
VERTEX
  5
72A
330
728
100
AcDbEntity
  8
BEMAßUNG
 62
     7
100
AcDbVertex
100
AcDb2dVertex
 10
197.8776719340375
 20
126.0531154741291
 30
0.0
  0
SEQEND
  5
72B
330
728
100
AcDbEntity
  8
BEMAßUNG
  0
POLYLINE
  5
72C
330
1F
100
AcDbEntity
  8
BEMAßUNG
 62
     7
100
AcDb2dPolyline
 66
     1
 10
0.0
 20
0.0
 30
0.0
  0
VERTEX
  5
72D
330
72C
100
AcDbEntity
  8
BEMAßUNG
 62
     7
100
AcDbVertex
100
AcDb2dVertex
 10
197.8268567756301
 20
124.482668697178
 30
0.0
  0
VERTEX
  5
72E
330
72C
100
AcDbEntity
  8
BEMAßUNG
 62
     7
100
AcDbVertex
100
AcDb2dVertex
 10
197.8268567756301
 20
126.4387939137028
 30
0.0
  0
SEQEND
  5
72F
330
72C
100
AcDbEntity
  8
BEMAßUNG
  0
POLYLINE
  5
730
330
1F
100
AcDbEntity
  8
BEMAßUNG
 62
     7
100
AcDb2dPolyline
 66
     1
 10
0.0
 20
0.0
 30
0.0
  0
VERTEX
  5
731
330
730
100
AcDbEntity
  8
BEMAßUNG
 62
     7
100
AcDbVertex
100
AcDb2dVertex
 10
197.7760416172227
 20
124.482668697178
 30
0.0
  0
VERTEX
  5
732
330
730
100
AcDbEntity
  8
BEMAßUNG
 62
     7
100
AcDbVertex
100
AcDb2dVertex
 10
197.7760416172227
 20
126.8249891175993
 30
0.0
  0
SEQEND
  5
733
330
730
100
AcDbEntity
  8
BEMAßUNG
  0
POLYLINE
  5
734
330
1F
100
AcDbEntity
  8
BEMAßUNG
 62
     7
100
AcDb2dPolyline
 66
     1
 10
0.0
 20
0.0
 30
0.0
  0
VERTEX
  5
735
330
734
100
AcDbEntity
  8
BEMAßUNG
 62
     7
100
AcDbVertex
100
AcDb2dVertex
 10
197.7248819492667
 20
124.482668697178
 30
0.0
  0
VERTEX
  5
736
330
734
100
AcDbEntity
  8
BEMAßUNG
 62
     7
100
AcDbVertex
100
AcDb2dVertex
 10
197.7248819492667
 20
127.210667557173
 30
0.0
  0
SEQEND
  5
737
330
734
100
AcDbEntity
  8
BEMAßUNG
  0
POLYLINE
  5
738
330
1F
100
AcDbEntity
  8
BEMAßUNG
 62
     7
100
AcDb2dPolyline
 66
     1
 10
0.0
 20
0.0
 30
0.0
  0
VERTEX
  5
739
330
738
100
AcDbEntity
  8
BEMAßUNG
 62
     7
100
AcDbVertex
100
AcDb2dVertex
 10
197.6740667908593
 20
124.482668697178
 30
0.0
  0
VERTEX
  5
73A
330
738
100
AcDbEntity
  8
BEMAßUNG
 62
     7
100
AcDbVertex
100
AcDb2dVertex
 10
197.6740667908593
 20
127.5968627610695
 30
0.0
  0
SEQEND
  5
73B
330
738
100
AcDbEntity
  8
BEMAßUNG
  0
POLYLINE
  5
73C
330
1F
100
AcDbEntity
  8
BEMAßUNG
 62
     7
100
AcDb2dPolyline
 66
     1
 10
0.0
 20
0.0
 30
0.0
  0
VERTEX
  5
73D
330
73C
100
AcDbEntity
  8
BEMAßUNG
 62
     7
100
AcDbVertex
100
AcDb2dVertex
 10
197.6232516324518
 20
124.482668697178
 30
0.0
  0
VERTEX
  5
73E
330
73C
100
AcDbEntity
  8
BEMAßUNG
 62
     7
100
AcDbVertex
100
AcDb2dVertex
 10
197.6232516324518
 20
127.9821966910947
 30
0.0
  0
SEQEND
  5
73F
330
73C
100
AcDbEntity
  8
BEMAßUNG
  0
POLYLINE
  5
740
330
1F
100
AcDbEntity
  8
BEMAßUNG
 62
     7
100
AcDb2dPolyline
 66
     1
 10
0.0
 20
0.0
 30
0.0
  0
VERTEX
  5
741
330
740
100
AcDbEntity
  8
BEMAßUNG
 62
     7
100
AcDbVertex
100
AcDb2dVertex
 10
197.6232516324518
 20
115.9824123516468
 30
0.0
  0
VERTEX
  5
742
330
740
100
AcDbEntity
  8
BEMAßUNG
 62
     7
100
AcDbVertex
100
AcDb2dVertex
 10
198.0843776631525
 20
119.4826293646606
 30
0.0
  0
VERTEX
  5
743
330
740
100
AcDbEntity
  8
BEMAßUNG
 62
     7
100
AcDbVertex
100
AcDb2dVertex
 10
197.1629868756225
 20
119.4826293646606
 30
0.0
  0
VERTEX
  5
744
330
740
100
AcDbEntity
  8
BEMAßUNG
 62
     7
100
AcDbVertex
100
AcDb2dVertex
 10
197.6232516324518
 20
115.9824123516468
 30
0.0
  0
SEQEND
  5
745
330
740
100
AcDbEntity
  8
BEMAßUNG
  0
POLYLINE
  5
746
330
1F
100
AcDbEntity
  8
BEMAßUNG
 62
     7
100
AcDb2dPolyline
 66
     1
 10
0.0
 20
0.0
 30
0.0
  0
VERTEX
  5
747
330
746
100
AcDbEntity
  8
BEMAßUNG
 62
     7
100
AcDbVertex
100
AcDb2dVertex
 10
198.0805880581188
 20
119.4826293646606
 30
0.0
  0
VERTEX
  5
748
330
746
100
AcDbEntity
  8
BEMAßUNG
 62
     7
100
AcDbVertex
100
AcDb2dVertex
 10
198.0805880581188
 20
119.4555853651014
 30
0.0
  0
SEQEND
  5
749
330
746
100
AcDbEntity
  8
BEMAßUNG
  0
POLYLINE
  5
74A
330
1F
100
AcDbEntity
  8
BEMAßUNG
 62
     7
100
AcDb2dPolyline
 66
     1
 10
0.0
 20
0.0
 30
0.0
  0
VERTEX
  5
74B
330
74A
100
AcDbEntity
  8
BEMAßUNG
 62
     7
100
AcDbVertex
100
AcDb2dVertex
 10
198.0805880581188
 20
119.4826293646606
 30
0.0
  0
VERTEX
  5
74C
330
74A
100
AcDbEntity
  8
BEMAßUNG
 62
     7
100
AcDbVertex
100
AcDb2dVertex
 10
198.0805880581188
 20
119.4555853651014
 30
0.0
  0
SEQEND
  5
74D
330
74A
100
AcDbEntity
  8
BEMAßUNG
  0
POLYLINE
  5
74E
330
1F
100
AcDbEntity
  8
BEMAßUNG
 62
     7
100
AcDb2dPolyline
 66
     1
 10
0.0
 20
0.0
 30
0.0
  0
VERTEX
  5
74F
330
74E
100
AcDbEntity
  8
BEMAßUNG
 62
     7
100
AcDbVertex
100
AcDb2dVertex
 10
198.0301174092598
 20
119.4826293646606
 30
0.0
  0
VERTEX
  5
750
330
74E
100
AcDbEntity
  8
BEMAßUNG
 62
     7
100
AcDbVertex
100
AcDb2dVertex
 10
198.0301174092598
 20
119.0692179064306
 30
0.0
  0
SEQEND
  5
751
330
74E
100
AcDbEntity
  8
BEMAßUNG
  0
POLYLINE
  5
752
330
1F
100
AcDbEntity
  8
BEMAßUNG
 62
     7
100
AcDb2dPolyline
 66
     1
 10
0.0
 20
0.0
 30
0.0
  0
VERTEX
  5
753
330
752
100
AcDbEntity
  8
BEMAßUNG
 62
     7
100
AcDbVertex
100
AcDb2dVertex
 10
197.9793022508524
 20
119.4826293646606
 30
0.0
  0
VERTEX
  5
754
330
752
100
AcDbEntity
  8
BEMAßUNG
 62
     7
100
AcDbVertex
100
AcDb2dVertex
 10
197.9793022508524
 20
118.6835394668569
 30
0.0
  0
SEQEND
  5
755
330
752
100
AcDbEntity
  8
BEMAßUNG
  0
POLYLINE
  5
756
330
1F
100
AcDbEntity
  8
BEMAßUNG
 62
     7
100
AcDb2dPolyline
 66
     1
 10
0.0
 20
0.0
 30
0.0
  0
VERTEX
  5
757
330
756
100
AcDbEntity
  8
BEMAßUNG
 62
     7
100
AcDbVertex
100
AcDb2dVertex
 10
197.928487092445
 20
119.4826293646606
 30
0.0
  0
VERTEX
  5
758
330
756
100
AcDbEntity
  8
BEMAßUNG
 62
     7
100
AcDbVertex
100
AcDb2dVertex
 10
197.928487092445
 20
118.2973442629604
 30
0.0
  0
SEQEND
  5
759
330
756
100
AcDbEntity
  8
BEMAßUNG
  0
POLYLINE
  5
75A
330
1F
100
AcDbEntity
  8
BEMAßUNG
 62
     7
100
AcDb2dPolyline
 66
     1
 10
0.0
 20
0.0
 30
0.0
  0
VERTEX
  5
75B
330
75A
100
AcDbEntity
  8
BEMAßUNG
 62
     7
100
AcDbVertex
100
AcDb2dVertex
 10
197.8776719340375
 20
119.4826293646606
 30
0.0
  0
VERTEX
  5
75C
330
75A
100
AcDbEntity
  8
BEMAßUNG
 62
     7
100
AcDbVertex
100
AcDb2dVertex
 10
197.8776719340375
 20
117.9118380781609
 30
0.0
  0
SEQEND
  5
75D
330
75A
100
AcDbEntity
  8
BEMAßUNG
  0
POLYLINE
  5
75E
330
1F
100
AcDbEntity
  8
BEMAßUNG
 62
     7
100
AcDb2dPolyline
 66
     1
 10
0.0
 20
0.0
 30
0.0
  0
VERTEX
  5
75F
330
75E
100
AcDbEntity
  8
BEMAßUNG
 62
     7
100
AcDbVertex
100
AcDb2dVertex
 10
197.8268567756301
 20
119.4826293646606
 30
0.0
  0
VERTEX
  5
760
330
75E
100
AcDbEntity
  8
BEMAßUNG
 62
     7
100
AcDbVertex
100
AcDb2dVertex
 10
197.8268567756301
 20
117.5258151290387
 30
0.0
  0
SEQEND
  5
761
330
75E
100
AcDbEntity
  8
BEMAßUNG
  0
POLYLINE
  5
762
330
1F
100
AcDbEntity
  8
BEMAßUNG
 62
     7
100
AcDb2dPolyline
 66
     1
 10
0.0
 20
0.0
 30
0.0
  0
VERTEX
  5
763
330
762
100
AcDbEntity
  8
BEMAßUNG
 62
     7
100
AcDbVertex
100
AcDb2dVertex
 10
197.7760416172227
 20
119.4826293646606
 30
0.0
  0
VERTEX
  5
764
330
762
100
AcDbEntity
  8
BEMAßUNG
 62
     7
100
AcDbVertex
100
AcDb2dVertex
 10
197.7760416172227
 20
117.140136689465
 30
0.0
  0
SEQEND
  5
765
330
762
100
AcDbEntity
  8
BEMAßUNG
  0
POLYLINE
  5
766
330
1F
100
AcDbEntity
  8
BEMAßUNG
 62
     7
100
AcDb2dPolyline
 66
     1
 10
0.0
 20
0.0
 30
0.0
  0
VERTEX
  5
767
330
766
100
AcDbEntity
  8
BEMAßUNG
 62
     7
100
AcDbVertex
100
AcDb2dVertex
 10
197.7248819492667
 20
119.4826293646606
 30
0.0
  0
VERTEX
  5
768
330
766
100
AcDbEntity
  8
BEMAßUNG
 62
     7
100
AcDbVertex
100
AcDb2dVertex
 10
197.7248819492667
 20
116.7539414855685
 30
0.0
  0
SEQEND
  5
769
330
766
100
AcDbEntity
  8
BEMAßUNG
  0
POLYLINE
  5
76A
330
1F
100
AcDbEntity
  8
BEMAßUNG
 62
     7
100
AcDb2dPolyline
 66
     1
 10
0.0
 20
0.0
 30
0.0
  0
VERTEX
  5
76B
330
76A
100
AcDbEntity
  8
BEMAßUNG
 62
     7
100
AcDbVertex
100
AcDb2dVertex
 10
197.6740667908593
 20
119.4826293646606
 30
0.0
  0
VERTEX
  5
76C
330
76A
100
AcDbEntity
  8
BEMAßUNG
 62
     7
100
AcDbVertex
100
AcDb2dVertex
 10
197.6740667908593
 20
116.368435300769
 30
0.0
  0
SEQEND
  5
76D
330
76A
100
AcDbEntity
  8
BEMAßUNG
  0
POLYLINE
  5
76E
330
1F
100
AcDbEntity
  8
BEMAßUNG
 62
     7
100
AcDb2dPolyline
 66
     1
 10
0.0
 20
0.0
 30
0.0
  0
VERTEX
  5
76F
330
76E
100
AcDbEntity
  8
BEMAßUNG
 62
     7
100
AcDbVertex
100
AcDb2dVertex
 10
197.6232516324518
 20
119.4826293646606
 30
0.0
  0
VERTEX
  5
770
330
76E
100
AcDbEntity
  8
BEMAßUNG
 62
     7
100
AcDbVertex
100
AcDb2dVertex
 10
197.6232516324518
 20
115.9824123516468
 30
0.0
  0
SEQEND
  5
771
330
76E
100
AcDbEntity
  8
BEMAßUNG
  0
POLYLINE
  5
772
330
1F
100
AcDbEntity
  8
BEMAßUNG
 62
     7
100
AcDb2dPolyline
 66
     1
 10
0.0
 20
0.0
 30
0.0
  0
VERTEX
  5
773
330
772
100
AcDbEntity
  8
BEMAßUNG
 62
     7
100
AcDbVertex
100
AcDb2dVertex
 10
197.1660874615592
 20
119.4826293646606
 30
0.0
  0
VERTEX
  5
774
330
772
100
AcDbEntity
  8
BEMAßUNG
 62
     7
100
AcDbVertex
100
AcDb2dVertex
 10
197.1660874615592
 20
119.4555853651014
 30
0.0
  0
SEQEND
  5
775
330
772
100
AcDbEntity
  8
BEMAßUNG
  0
POLYLINE
  5
776
330
1F
100
AcDbEntity
  8
BEMAßUNG
 62
     7
100
AcDb2dPolyline
 66
     1
 10
0.0
 20
0.0
 30
0.0
  0
VERTEX
  5
777
330
776
100
AcDbEntity
  8
BEMAßUNG
 62
     7
100
AcDbVertex
100
AcDb2dVertex
 10
197.1660874615592
 20
119.4826293646606
 30
0.0
  0
VERTEX
  5
778
330
776
100
AcDbEntity
  8
BEMAßUNG
 62
     7
100
AcDbVertex
100
AcDb2dVertex
 10
197.1660874615592
 20
119.4555853651014
 30
0.0
  0
SEQEND
  5
779
330
776
100
AcDbEntity
  8
BEMAßUNG
  0
POLYLINE
  5
77A
330
1F
100
AcDbEntity
  8
BEMAßUNG
 62
     7
100
AcDb2dPolyline
 66
     1
 10
0.0
 20
0.0
 30
0.0
  0
VERTEX
  5
77B
330
77A
100
AcDbEntity
  8
BEMAßUNG
 62
     7
100
AcDbVertex
100
AcDb2dVertex
 10
197.2169026199666
 20
119.4826293646606
 30
0.0
  0
VERTEX
  5
77C
330
77A
100
AcDbEntity
  8
BEMAßUNG
 62
     7
100
AcDbVertex
100
AcDb2dVertex
 10
197.2169026199666
 20
119.0692179064306
 30
0.0
  0
SEQEND
  5
77D
330
77A
100
AcDbEntity
  8
BEMAßUNG
  0
POLYLINE
  5
77E
330
1F
100
AcDbEntity
  8
BEMAßUNG
 62
     7
100
AcDb2dPolyline
 66
     1
 10
0.0
 20
0.0
 30
0.0
  0
VERTEX
  5
77F
330
77E
100
AcDbEntity
  8
BEMAßUNG
 62
     7
100
AcDbVertex
100
AcDb2dVertex
 10
197.2680622879226
 20
119.4826293646606
 30
0.0
  0
VERTEX
  5
780
330
77E
100
AcDbEntity
  8
BEMAßUNG
 62
     7
100
AcDbVertex
100
AcDb2dVertex
 10
197.2680622879226
 20
118.6835394668569
 30
0.0
  0
SEQEND
  5
781
330
77E
100
AcDbEntity
  8
BEMAßUNG
  0
POLYLINE
  5
782
330
1F
100
AcDbEntity
  8
BEMAßUNG
 62
     7
100
AcDb2dPolyline
 66
     1
 10
0.0
 20
0.0
 30
0.0
  0
VERTEX
  5
783
330
782
100
AcDbEntity
  8
BEMAßUNG
 62
     7
100
AcDbVertex
100
AcDb2dVertex
 10
197.31887744633
 20
119.4826293646606
 30
0.0
  0
VERTEX
  5
784
330
782
100
AcDbEntity
  8
BEMAßUNG
 62
     7
100
AcDbVertex
100
AcDb2dVertex
 10
197.31887744633
 20
118.2973442629604
 30
0.0
  0
SEQEND
  5
785
330
782
100
AcDbEntity
  8
BEMAßUNG
  0
POLYLINE
  5
786
330
1F
100
AcDbEntity
  8
BEMAßUNG
 62
     7
100
AcDb2dPolyline
 66
     1
 10
0.0
 20
0.0
 30
0.0
  0
VERTEX
  5
787
330
786
100
AcDbEntity
  8
BEMAßUNG
 62
     7
100
AcDbVertex
100
AcDb2dVertex
 10
197.3696926047375
 20
119.4826293646606
 30
0.0
  0
VERTEX
  5
788
330
786
100
AcDbEntity
  8
BEMAßUNG
 62
     7
100
AcDbVertex
100
AcDb2dVertex
 10
197.3696926047375
 20
117.9118380781609
 30
0.0
  0
SEQEND
  5
789
330
786
100
AcDbEntity
  8
BEMAßUNG
  0
POLYLINE
  5
78A
330
1F
100
AcDbEntity
  8
BEMAßUNG
 62
     7
100
AcDb2dPolyline
 66
     1
 10
0.0
 20
0.0
 30
0.0
  0
VERTEX
  5
78B
330
78A
100
AcDbEntity
  8
BEMAßUNG
 62
     7
100
AcDbVertex
100
AcDb2dVertex
 10
197.4205077631449
 20
119.4826293646606
 30
0.0
  0
VERTEX
  5
78C
330
78A
100
AcDbEntity
  8
BEMAßUNG
 62
     7
100
AcDbVertex
100
AcDb2dVertex
 10
197.4205077631449
 20
117.5258151290387
 30
0.0
  0
SEQEND
  5
78D
330
78A
100
AcDbEntity
  8
BEMAßUNG
  0
POLYLINE
  5
78E
330
1F
100
AcDbEntity
  8
BEMAßUNG
 62
     7
100
AcDb2dPolyline
 66
     1
 10
0.0
 20
0.0
 30
0.0
  0
VERTEX
  5
78F
330
78E
100
AcDbEntity
  8
BEMAßUNG
 62
     7
100
AcDbVertex
100
AcDb2dVertex
 10
197.4713229215523
 20
119.4826293646606
 30
0.0
  0
VERTEX
  5
790
330
78E
100
AcDbEntity
  8
BEMAßUNG
 62
     7
100
AcDbVertex
100
AcDb2dVertex
 10
197.4713229215523
 20
117.140136689465
 30
0.0
  0
SEQEND
  5
791
330
78E
100
AcDbEntity
  8
BEMAßUNG
  0
POLYLINE
  5
792
330
1F
100
AcDbEntity
  8
BEMAßUNG
 62
     7
100
AcDb2dPolyline
 66
     1
 10
0.0
 20
0.0
 30
0.0
  0
VERTEX
  5
793
330
792
100
AcDbEntity
  8
BEMAßUNG
 62
     7
100
AcDbVertex
100
AcDb2dVertex
 10
197.521621315637
 20
119.4826293646606
 30
0.0
  0
VERTEX
  5
794
330
792
100
AcDbEntity
  8
BEMAßUNG
 62
     7
100
AcDbVertex
100
AcDb2dVertex
 10
197.521621315637
 20
116.7539414855685
 30
0.0
  0
SEQEND
  5
795
330
792
100
AcDbEntity
  8
BEMAßUNG
  0
POLYLINE
  5
796
330
1F
100
AcDbEntity
  8
BEMAßUNG
 62
     7
100
AcDb2dPolyline
 66
     1
 10
0.0
 20
0.0
 30
0.0
  0
VERTEX
  5
797
330
796
100
AcDbEntity
  8
BEMAßUNG
 62
     7
100
AcDbVertex
100
AcDb2dVertex
 10
197.5724364740444
 20
119.4826293646606
 30
0.0
  0
VERTEX
  5
798
330
796
100
AcDbEntity
  8
BEMAßUNG
 62
     7
100
AcDbVertex
100
AcDb2dVertex
 10
197.5724364740444
 20
116.368435300769
 30
0.0
  0
SEQEND
  5
799
330
796
100
AcDbEntity
  8
BEMAßUNG
  0
POLYLINE
  5
79A
330
1F
100
AcDbEntity
  8
BEMAßUNG
 62
     7
100
AcDb2dPolyline
 66
     1
 10
0.0
 20
0.0
 30
0.0
  0
VERTEX
  5
79B
330
79A
100
AcDbEntity
  8
BEMAßUNG
 62
     7
100
AcDbVertex
100
AcDb2dVertex
 10
197.6232516324518
 20
119.4826293646606
 30
0.0
  0
VERTEX
  5
79C
330
79A
100
AcDbEntity
  8
BEMAßUNG
 62
     7
100
AcDbVertex
100
AcDb2dVertex
 10
197.6232516324518
 20
115.9824123516468
 30
0.0
  0
SEQEND
  5
79D
330
79A
100
AcDbEntity
  8
BEMAßUNG
  0
POLYLINE
  5
79E
330
1F
100
AcDbEntity
  8
BEMAßUNG
 62
     7
100
AcDb2dPolyline
 66
     1
 10
0.0
 20
0.0
 30
0.0
  0
VERTEX
  5
79F
330
79E
100
AcDbEntity
  8
BEMAßUNG
 62
     7
100
AcDbVertex
100
AcDb2dVertex
 10
141.1235134195802
 20
113.482306558001
 30
0.0
  0
VERTEX
  5
7A0
330
79E
100
AcDbEntity
  8
BEMAßUNG
 62
     7
100
AcDbVertex
100
AcDb2dVertex
 10
141.1235134195802
 20
90.98238794383427
 30
0.0
  0
SEQEND
  5
7A1
330
79E
100
AcDbEntity
  8
BEMAßUNG
  0
POLYLINE
  5
7A2
330
1F
100
AcDbEntity
  8
BEMAßUNG
 62
     7
100
AcDb2dPolyline
 66
     1
 10
0.0
 20
0.0
 30
0.0
  0
VERTEX
  5
7A3
330
7A2
100
AcDbEntity
  8
BEMAßUNG
 62
     7
100
AcDbVertex
100
AcDb2dVertex
 10
177.6236110667052
 20
117.937504039526
 30
0.0
  0
VERTEX
  5
7A4
330
7A2
100
AcDbEntity
  8
BEMAßUNG
 62
     7
100
AcDbVertex
100
AcDb2dVertex
 10
177.6236110667052
 20
90.98238794383427
 30
0.0
  0
SEQEND
  5
7A5
330
7A2
100
AcDbEntity
  8
BEMAßUNG
  0
POLYLINE
  5
7A6
330
1F
100
AcDbEntity
  8
BEMAßUNG
 62
     7
100
AcDb2dPolyline
 66
     1
 10
0.0
 20
0.0
 30
0.0
  0
VERTEX
  5
7A7
330
7A6
100
AcDbEntity
  8
BEMAßUNG
 62
     7
100
AcDbVertex
100
AcDb2dVertex
 10
141.1235134195802
 20
92.98243812779606
 30
0.0
  0
VERTEX
  5
7A8
330
7A6
100
AcDbEntity
  8
BEMAßUNG
 62
     7
100
AcDbVertex
100
AcDb2dVertex
 10
177.6236110667052
 20
92.98243812779606
 30
0.0
  0
SEQEND
  5
7A9
330
7A6
100
AcDbEntity
  8
BEMAßUNG
  0
POLYLINE
  5
7AA
330
1F
100
AcDbEntity
  8
BEMAßUNG
 62
     7
100
AcDb2dPolyline
 66
     1
 10
0.0
 20
0.0
 30
0.0
  0
VERTEX
  5
7AB
330
7AA
100
AcDbEntity
  8
BEMAßUNG
 62
     7
100
AcDbVertex
100
AcDb2dVertex
 10
141.1235134195802
 20
92.98243812779606
 30
0.0
  0
VERTEX
  5
7AC
330
7AA
100
AcDbEntity
  8
BEMAßUNG
 62
     7
100
AcDbVertex
100
AcDb2dVertex
 10
144.6233859230456
 20
92.52200111619243
 30
0.0
  0
VERTEX
  5
7AD
330
7AA
100
AcDbEntity
  8
BEMAßUNG
 62
     7
100
AcDbVertex
100
AcDb2dVertex
 10
144.6233859230456
 20
93.44339190372249
 30
0.0
  0
VERTEX
  5
7AE
330
7AA
100
AcDbEntity
  8
BEMAßUNG
 62
     7
100
AcDbVertex
100
AcDb2dVertex
 10
141.1235134195802
 20
92.98243812779606
 30
0.0
  0
SEQEND
  5
7AF
330
7AA
100
AcDbEntity
  8
BEMAßUNG
  0
POLYLINE
  5
7B0
330
1F
100
AcDbEntity
  8
BEMAßUNG
 62
     7
100
AcDb2dPolyline
 66
     1
 10
0.0
 20
0.0
 30
0.0
  0
VERTEX
  5
7B1
330
7B0
100
AcDbEntity
  8
BEMAßUNG
 62
     7
100
AcDbVertex
100
AcDb2dVertex
 10
144.6233859230456
 20
92.52544621167768
 30
0.0
  0
VERTEX
  5
7B2
330
7B0
100
AcDbEntity
  8
BEMAßUNG
 62
     7
100
AcDbVertex
100
AcDb2dVertex
 10
144.5961696687121
 20
92.52544621167768
 30
0.0
  0
SEQEND
  5
7B3
330
7B0
100
AcDbEntity
  8
BEMAßUNG
  0
POLYLINE
  5
7B4
330
1F
100
AcDbEntity
  8
BEMAßUNG
 62
     7
100
AcDb2dPolyline
 66
     1
 10
0.0
 20
0.0
 30
0.0
  0
VERTEX
  5
7B5
330
7B4
100
AcDbEntity
  8
BEMAßUNG
 62
     7
100
AcDbVertex
100
AcDb2dVertex
 10
144.6233859230456
 20
92.52544621167768
 30
0.0
  0
VERTEX
  5
7B6
330
7B4
100
AcDbEntity
  8
BEMAßUNG
 62
     7
100
AcDbVertex
100
AcDb2dVertex
 10
144.5961696687121
 20
92.52544621167768
 30
0.0
  0
SEQEND
  5
7B7
330
7B4
100
AcDbEntity
  8
BEMAßUNG
  0
POLYLINE
  5
7B8
330
1F
100
AcDbEntity
  8
BEMAßUNG
 62
     7
100
AcDb2dPolyline
 66
     1
 10
0.0
 20
0.0
 30
0.0
  0
VERTEX
  5
7B9
330
7B8
100
AcDbEntity
  8
BEMAßUNG
 62
     7
100
AcDbVertex
100
AcDb2dVertex
 10
144.6233859230456
 20
92.5762613700851
 30
0.0
  0
VERTEX
  5
7BA
330
7B8
100
AcDbEntity
  8
BEMAßUNG
 62
     7
100
AcDbVertex
100
AcDb2dVertex
 10
144.2106634839126
 20
92.5762613700851
 30
0.0
  0
SEQEND
  5
7BB
330
7B8
100
AcDbEntity
  8
BEMAßUNG
  0
POLYLINE
  5
7BC
330
1F
100
AcDbEntity
  8
BEMAßUNG
 62
     7
100
AcDb2dPolyline
 66
     1
 10
0.0
 20
0.0
 30
0.0
  0
VERTEX
  5
7BD
330
7BC
100
AcDbEntity
  8
BEMAßUNG
 62
     7
100
AcDbVertex
100
AcDb2dVertex
 10
144.6233859230456
 20
92.62707652849254
 30
0.0
  0
VERTEX
  5
7BE
330
7BC
100
AcDbEntity
  8
BEMAßUNG
 62
     7
100
AcDbVertex
100
AcDb2dVertex
 10
143.8246405347904
 20
92.62707652849254
 30
0.0
  0
SEQEND
  5
7BF
330
7BC
100
AcDbEntity
  8
BEMAßUNG
  0
POLYLINE
  5
7C0
330
1F
100
AcDbEntity
  8
BEMAßUNG
 62
     7
100
AcDb2dPolyline
 66
     1
 10
0.0
 20
0.0
 30
0.0
  0
VERTEX
  5
7C1
330
7C0
100
AcDbEntity
  8
BEMAßUNG
 62
     7
100
AcDbVertex
100
AcDb2dVertex
 10
144.6233859230456
 20
92.67754717735146
 30
0.0
  0
VERTEX
  5
7C2
330
7C0
100
AcDbEntity
  8
BEMAßUNG
 62
     7
100
AcDbVertex
100
AcDb2dVertex
 10
143.4387898404424
 20
92.67754717735146
 30
0.0
  0
SEQEND
  5
7C3
330
7C0
100
AcDbEntity
  8
BEMAßUNG
  0
POLYLINE
  5
7C4
330
1F
100
AcDbEntity
  8
BEMAßUNG
 62
     7
100
AcDb2dPolyline
 66
     1
 10
0.0
 20
0.0
 30
0.0
  0
VERTEX
  5
7C5
330
7C4
100
AcDbEntity
  8
BEMAßUNG
 62
     7
100
AcDbVertex
100
AcDb2dVertex
 10
144.6233859230456
 20
92.72836233575889
 30
0.0
  0
VERTEX
  5
7C6
330
7C4
100
AcDbEntity
  8
BEMAßUNG
 62
     7
100
AcDbVertex
100
AcDb2dVertex
 10
143.0527668913201
 20
92.72836233575889
 30
0.0
  0
SEQEND
  5
7C7
330
7C4
100
AcDbEntity
  8
BEMAßUNG
  0
POLYLINE
  5
7C8
330
1F
100
AcDbEntity
  8
BEMAßUNG
 62
     7
100
AcDb2dPolyline
 66
     1
 10
0.0
 20
0.0
 30
0.0
  0
VERTEX
  5
7C9
330
7C8
100
AcDbEntity
  8
BEMAßUNG
 62
     7
100
AcDbVertex
100
AcDb2dVertex
 10
144.6233859230456
 20
92.77917749416632
 30
0.0
  0
VERTEX
  5
7CA
330
7C8
100
AcDbEntity
  8
BEMAßUNG
 62
     7
100
AcDbVertex
100
AcDb2dVertex
 10
142.6672607065207
 20
92.77917749416632
 30
0.0
  0
SEQEND
  5
7CB
330
7C8
100
AcDbEntity
  8
BEMAßUNG
  0
POLYLINE
  5
7CC
330
1F
100
AcDbEntity
  8
BEMAßUNG
 62
     7
100
AcDb2dPolyline
 66
     1
 10
0.0
 20
0.0
 30
0.0
  0
VERTEX
  5
7CD
330
7CC
100
AcDbEntity
  8
BEMAßUNG
 62
     7
100
AcDbVertex
100
AcDb2dVertex
 10
144.6233859230456
 20
92.82999265257375
 30
0.0
  0
VERTEX
  5
7CE
330
7CC
100
AcDbEntity
  8
BEMAßUNG
 62
     7
100
AcDbVertex
100
AcDb2dVertex
 10
142.2812377573985
 20
92.82999265257375
 30
0.0
  0
SEQEND
  5
7CF
330
7CC
100
AcDbEntity
  8
BEMAßUNG
  0
POLYLINE
  5
7D0
330
1F
100
AcDbEntity
  8
BEMAßUNG
 62
     7
100
AcDb2dPolyline
 66
     1
 10
0.0
 20
0.0
 30
0.0
  0
VERTEX
  5
7D1
330
7D0
100
AcDbEntity
  8
BEMAßUNG
 62
     7
100
AcDbVertex
100
AcDb2dVertex
 10
144.6233859230456
 20
92.8808078109812
 30
0.0
  0
VERTEX
  5
7D2
330
7D0
100
AcDbEntity
  8
BEMAßUNG
 62
     7
100
AcDbVertex
100
AcDb2dVertex
 10
141.8953870630505
 20
92.8808078109812
 30
0.0
  0
SEQEND
  5
7D3
330
7D0
100
AcDbEntity
  8
BEMAßUNG
  0
POLYLINE
  5
7D4
330
1F
100
AcDbEntity
  8
BEMAßUNG
 62
     7
100
AcDb2dPolyline
 66
     1
 10
0.0
 20
0.0
 30
0.0
  0
VERTEX
  5
7D5
330
7D4
100
AcDbEntity
  8
BEMAßUNG
 62
     7
100
AcDbVertex
100
AcDb2dVertex
 10
144.6233859230456
 20
92.93162296938863
 30
0.0
  0
VERTEX
  5
7D6
330
7D4
100
AcDbEntity
  8
BEMAßUNG
 62
     7
100
AcDbVertex
100
AcDb2dVertex
 10
141.5093641139282
 20
92.93162296938863
 30
0.0
  0
SEQEND
  5
7D7
330
7D4
100
AcDbEntity
  8
BEMAßUNG
  0
POLYLINE
  5
7D8
330
1F
100
AcDbEntity
  8
BEMAßUNG
 62
     7
100
AcDb2dPolyline
 66
     1
 10
0.0
 20
0.0
 30
0.0
  0
VERTEX
  5
7D9
330
7D8
100
AcDbEntity
  8
BEMAßUNG
 62
     7
100
AcDbVertex
100
AcDb2dVertex
 10
144.6233859230456
 20
92.98243812779606
 30
0.0
  0
VERTEX
  5
7DA
330
7D8
100
AcDbEntity
  8
BEMAßUNG
 62
     7
100
AcDbVertex
100
AcDb2dVertex
 10
141.1235134195802
 20
92.98243812779606
 30
0.0
  0
SEQEND
  5
7DB
330
7D8
100
AcDbEntity
  8
BEMAßUNG
  0
POLYLINE
  5
7DC
330
1F
100
AcDbEntity
  8
BEMAßUNG
 62
     7
100
AcDb2dPolyline
 66
     1
 10
0.0
 20
0.0
 30
0.0
  0
VERTEX
  5
7DD
330
7DC
100
AcDbEntity
  8
BEMAßUNG
 62
     7
100
AcDbVertex
100
AcDb2dVertex
 10
144.6233859230456
 20
93.43994680823724
 30
0.0
  0
VERTEX
  5
7DE
330
7DC
100
AcDbEntity
  8
BEMAßUNG
 62
     7
100
AcDbVertex
100
AcDb2dVertex
 10
144.5961696687121
 20
93.43994680823724
 30
0.0
  0
SEQEND
  5
7DF
330
7DC
100
AcDbEntity
  8
BEMAßUNG
  0
POLYLINE
  5
7E0
330
1F
100
AcDbEntity
  8
BEMAßUNG
 62
     7
100
AcDb2dPolyline
 66
     1
 10
0.0
 20
0.0
 30
0.0
  0
VERTEX
  5
7E1
330
7E0
100
AcDbEntity
  8
BEMAßUNG
 62
     7
100
AcDbVertex
100
AcDb2dVertex
 10
144.6233859230456
 20
93.43994680823724
 30
0.0
  0
VERTEX
  5
7E2
330
7E0
100
AcDbEntity
  8
BEMAßUNG
 62
     7
100
AcDbVertex
100
AcDb2dVertex
 10
144.5961696687121
 20
93.43994680823724
 30
0.0
  0
SEQEND
  5
7E3
330
7E0
100
AcDbEntity
  8
BEMAßUNG
  0
POLYLINE
  5
7E4
330
1F
100
AcDbEntity
  8
BEMAßUNG
 62
     7
100
AcDb2dPolyline
 66
     1
 10
0.0
 20
0.0
 30
0.0
  0
VERTEX
  5
7E5
330
7E4
100
AcDbEntity
  8
BEMAßUNG
 62
     7
100
AcDbVertex
100
AcDb2dVertex
 10
144.6233859230456
 20
93.3891316498298
 30
0.0
  0
VERTEX
  5
7E6
330
7E4
100
AcDbEntity
  8
BEMAßUNG
 62
     7
100
AcDbVertex
100
AcDb2dVertex
 10
144.2106634839126
 20
93.3891316498298
 30
0.0
  0
SEQEND
  5
7E7
330
7E4
100
AcDbEntity
  8
BEMAßUNG
  0
POLYLINE
  5
7E8
330
1F
100
AcDbEntity
  8
BEMAßUNG
 62
     7
100
AcDb2dPolyline
 66
     1
 10
0.0
 20
0.0
 30
0.0
  0
VERTEX
  5
7E9
330
7E8
100
AcDbEntity
  8
BEMAßUNG
 62
     7
100
AcDbVertex
100
AcDb2dVertex
 10
144.6233859230456
 20
93.33831649142238
 30
0.0
  0
VERTEX
  5
7EA
330
7E8
100
AcDbEntity
  8
BEMAßUNG
 62
     7
100
AcDbVertex
100
AcDb2dVertex
 10
143.8246405347904
 20
93.33831649142238
 30
0.0
  0
SEQEND
  5
7EB
330
7E8
100
AcDbEntity
  8
BEMAßUNG
  0
POLYLINE
  5
7EC
330
1F
100
AcDbEntity
  8
BEMAßUNG
 62
     7
100
AcDb2dPolyline
 66
     1
 10
0.0
 20
0.0
 30
0.0
  0
VERTEX
  5
7ED
330
7EC
100
AcDbEntity
  8
BEMAßUNG
 62
     7
100
AcDbVertex
100
AcDb2dVertex
 10
144.6233859230456
 20
93.28750133301493
 30
0.0
  0
VERTEX
  5
7EE
330
7EC
100
AcDbEntity
  8
BEMAßUNG
 62
     7
100
AcDbVertex
100
AcDb2dVertex
 10
143.4387898404424
 20
93.28750133301493
 30
0.0
  0
SEQEND
  5
7EF
330
7EC
100
AcDbEntity
  8
BEMAßUNG
  0
POLYLINE
  5
7F0
330
1F
100
AcDbEntity
  8
BEMAßUNG
 62
     7
100
AcDb2dPolyline
 66
     1
 10
0.0
 20
0.0
 30
0.0
  0
VERTEX
  5
7F1
330
7F0
100
AcDbEntity
  8
BEMAßUNG
 62
     7
100
AcDbVertex
100
AcDb2dVertex
 10
144.6233859230456
 20
93.2366861746075
 30
0.0
  0
VERTEX
  5
7F2
330
7F0
100
AcDbEntity
  8
BEMAßUNG
 62
     7
100
AcDbVertex
100
AcDb2dVertex
 10
143.0527668913201
 20
93.2366861746075
 30
0.0
  0
SEQEND
  5
7F3
330
7F0
100
AcDbEntity
  8
BEMAßUNG
  0
POLYLINE
  5
7F4
330
1F
100
AcDbEntity
  8
BEMAßUNG
 62
     7
100
AcDb2dPolyline
 66
     1
 10
0.0
 20
0.0
 30
0.0
  0
VERTEX
  5
7F5
330
7F4
100
AcDbEntity
  8
BEMAßUNG
 62
     7
100
AcDbVertex
100
AcDb2dVertex
 10
144.6233859230456
 20
93.18587101620007
 30
0.0
  0
VERTEX
  5
7F6
330
7F4
100
AcDbEntity
  8
BEMAßUNG
 62
     7
100
AcDbVertex
100
AcDb2dVertex
 10
142.6672607065207
 20
93.18587101620007
 30
0.0
  0
SEQEND
  5
7F7
330
7F4
100
AcDbEntity
  8
BEMAßUNG
  0
POLYLINE
  5
7F8
330
1F
100
AcDbEntity
  8
BEMAßUNG
 62
     7
100
AcDb2dPolyline
 66
     1
 10
0.0
 20
0.0
 30
0.0
  0
VERTEX
  5
7F9
330
7F8
100
AcDbEntity
  8
BEMAßUNG
 62
     7
100
AcDbVertex
100
AcDb2dVertex
 10
144.6233859230456
 20
93.13471134824411
 30
0.0
  0
VERTEX
  5
7FA
330
7F8
100
AcDbEntity
  8
BEMAßUNG
 62
     7
100
AcDbVertex
100
AcDb2dVertex
 10
142.2812377573985
 20
93.13471134824411
 30
0.0
  0
SEQEND
  5
7FB
330
7F8
100
AcDbEntity
  8
BEMAßUNG
  0
POLYLINE
  5
7FC
330
1F
100
AcDbEntity
  8
BEMAßUNG
 62
     7
100
AcDb2dPolyline
 66
     1
 10
0.0
 20
0.0
 30
0.0
  0
VERTEX
  5
7FD
330
7FC
100
AcDbEntity
  8
BEMAßUNG
 62
     7
100
AcDbVertex
100
AcDb2dVertex
 10
144.6233859230456
 20
93.08389618983666
 30
0.0
  0
VERTEX
  5
7FE
330
7FC
100
AcDbEntity
  8
BEMAßUNG
 62
     7
100
AcDbVertex
100
AcDb2dVertex
 10
141.8953870630505
 20
93.08389618983666
 30
0.0
  0
SEQEND
  5
7FF
330
7FC
100
AcDbEntity
  8
BEMAßUNG
  0
POLYLINE
  5
800
330
1F
100
AcDbEntity
  8
BEMAßUNG
 62
     7
100
AcDb2dPolyline
 66
     1
 10
0.0
 20
0.0
 30
0.0
  0
VERTEX
  5
801
330
800
100
AcDbEntity
  8
BEMAßUNG
 62
     7
100
AcDbVertex
100
AcDb2dVertex
 10
144.6233859230456
 20
93.03308103142923
 30
0.0
  0
VERTEX
  5
802
330
800
100
AcDbEntity
  8
BEMAßUNG
 62
     7
100
AcDbVertex
100
AcDb2dVertex
 10
141.5093641139282
 20
93.03308103142923
 30
0.0
  0
SEQEND
  5
803
330
800
100
AcDbEntity
  8
BEMAßUNG
  0
POLYLINE
  5
804
330
1F
100
AcDbEntity
  8
BEMAßUNG
 62
     7
100
AcDb2dPolyline
 66
     1
 10
0.0
 20
0.0
 30
0.0
  0
VERTEX
  5
805
330
804
100
AcDbEntity
  8
BEMAßUNG
 62
     7
100
AcDbVertex
100
AcDb2dVertex
 10
144.6233859230456
 20
92.98243812779606
 30
0.0
  0
VERTEX
  5
806
330
804
100
AcDbEntity
  8
BEMAßUNG
 62
     7
100
AcDbVertex
100
AcDb2dVertex
 10
141.1235134195802
 20
92.98243812779606
 30
0.0
  0
SEQEND
  5
807
330
804
100
AcDbEntity
  8
BEMAßUNG
  0
POLYLINE
  5
808
330
1F
100
AcDbEntity
  8
BEMAßUNG
 62
     7
100
AcDb2dPolyline
 66
     1
 10
0.0
 20
0.0
 30
0.0
  0
VERTEX
  5
809
330
808
100
AcDbEntity
  8
BEMAßUNG
 62
     7
100
AcDbVertex
100
AcDb2dVertex
 10
177.6236110667052
 20
92.98243812779606
 30
0.0
  0
VERTEX
  5
80A
330
808
100
AcDbEntity
  8
BEMAßUNG
 62
     7
100
AcDbVertex
100
AcDb2dVertex
 10
174.1237385632399
 20
93.44339190372249
 30
0.0
  0
VERTEX
  5
80B
330
808
100
AcDbEntity
  8
BEMAßUNG
 62
     7
100
AcDbVertex
100
AcDb2dVertex
 10
174.1237385632399
 20
92.52200111619243
 30
0.0
  0
VERTEX
  5
80C
330
808
100
AcDbEntity
  8
BEMAßUNG
 62
     7
100
AcDbVertex
100
AcDb2dVertex
 10
177.6236110667052
 20
92.98243812779606
 30
0.0
  0
SEQEND
  5
80D
330
808
100
AcDbEntity
  8
BEMAßUNG
  0
POLYLINE
  5
80E
330
1F
100
AcDbEntity
  8
BEMAßUNG
 62
     7
100
AcDb2dPolyline
 66
     1
 10
0.0
 20
0.0
 30
0.0
  0
VERTEX
  5
80F
330
80E
100
AcDbEntity
  8
BEMAßUNG
 62
     7
100
AcDbVertex
100
AcDb2dVertex
 10
174.1237385632399
 20
93.43994680823724
 30
0.0
  0
VERTEX
  5
810
330
80E
100
AcDbEntity
  8
BEMAßUNG
 62
     7
100
AcDbVertex
100
AcDb2dVertex
 10
174.1509548175734
 20
93.43994680823724
 30
0.0
  0
SEQEND
  5
811
330
80E
100
AcDbEntity
  8
BEMAßUNG
  0
POLYLINE
  5
812
330
1F
100
AcDbEntity
  8
BEMAßUNG
 62
     7
100
AcDb2dPolyline
 66
     1
 10
0.0
 20
0.0
 30
0.0
  0
VERTEX
  5
813
330
812
100
AcDbEntity
  8
BEMAßUNG
 62
     7
100
AcDbVertex
100
AcDb2dVertex
 10
174.1237385632399
 20
93.43994680823724
 30
0.0
  0
VERTEX
  5
814
330
812
100
AcDbEntity
  8
BEMAßUNG
 62
     7
100
AcDbVertex
100
AcDb2dVertex
 10
174.1509548175734
 20
93.43994680823724
 30
0.0
  0
SEQEND
  5
815
330
812
100
AcDbEntity
  8
BEMAßUNG
  0
POLYLINE
  5
816
330
1F
100
AcDbEntity
  8
BEMAßUNG
 62
     7
100
AcDb2dPolyline
 66
     1
 10
0.0
 20
0.0
 30
0.0
  0
VERTEX
  5
817
330
816
100
AcDbEntity
  8
BEMAßUNG
 62
     7
100
AcDbVertex
100
AcDb2dVertex
 10
174.1237385632399
 20
93.3891316498298
 30
0.0
  0
VERTEX
  5
818
330
816
100
AcDbEntity
  8
BEMAßUNG
 62
     7
100
AcDbVertex
100
AcDb2dVertex
 10
174.5368055119214
 20
93.3891316498298
 30
0.0
  0
SEQEND
  5
819
330
816
100
AcDbEntity
  8
BEMAßUNG
  0
POLYLINE
  5
81A
330
1F
100
AcDbEntity
  8
BEMAßUNG
 62
     7
100
AcDb2dPolyline
 66
     1
 10
0.0
 20
0.0
 30
0.0
  0
VERTEX
  5
81B
330
81A
100
AcDbEntity
  8
BEMAßUNG
 62
     7
100
AcDbVertex
100
AcDb2dVertex
 10
174.1237385632399
 20
93.33831649142238
 30
0.0
  0
VERTEX
  5
81C
330
81A
100
AcDbEntity
  8
BEMAßUNG
 62
     7
100
AcDbVertex
100
AcDb2dVertex
 10
174.9223116967208
 20
93.33831649142238
 30
0.0
  0
SEQEND
  5
81D
330
81A
100
AcDbEntity
  8
BEMAßUNG
  0
POLYLINE
  5
81E
330
1F
100
AcDbEntity
  8
BEMAßUNG
 62
     7
100
AcDb2dPolyline
 66
     1
 10
0.0
 20
0.0
 30
0.0
  0
VERTEX
  5
81F
330
81E
100
AcDbEntity
  8
BEMAßUNG
 62
     7
100
AcDbVertex
100
AcDb2dVertex
 10
174.1237385632399
 20
93.28750133301493
 30
0.0
  0
VERTEX
  5
820
330
81E
100
AcDbEntity
  8
BEMAßUNG
 62
     7
100
AcDbVertex
100
AcDb2dVertex
 10
175.3083346458431
 20
93.28750133301493
 30
0.0
  0
SEQEND
  5
821
330
81E
100
AcDbEntity
  8
BEMAßUNG
  0
POLYLINE
  5
822
330
1F
100
AcDbEntity
  8
BEMAßUNG
 62
     7
100
AcDb2dPolyline
 66
     1
 10
0.0
 20
0.0
 30
0.0
  0
VERTEX
  5
823
330
822
100
AcDbEntity
  8
BEMAßUNG
 62
     7
100
AcDbVertex
100
AcDb2dVertex
 10
174.1237385632399
 20
93.2366861746075
 30
0.0
  0
VERTEX
  5
824
330
822
100
AcDbEntity
  8
BEMAßUNG
 62
     7
100
AcDbVertex
100
AcDb2dVertex
 10
175.6943575949653
 20
93.2366861746075
 30
0.0
  0
SEQEND
  5
825
330
822
100
AcDbEntity
  8
BEMAßUNG
  0
POLYLINE
  5
826
330
1F
100
AcDbEntity
  8
BEMAßUNG
 62
     7
100
AcDb2dPolyline
 66
     1
 10
0.0
 20
0.0
 30
0.0
  0
VERTEX
  5
827
330
826
100
AcDbEntity
  8
BEMAßUNG
 62
     7
100
AcDbVertex
100
AcDb2dVertex
 10
174.1237385632399
 20
93.18587101620007
 30
0.0
  0
VERTEX
  5
828
330
826
100
AcDbEntity
  8
BEMAßUNG
 62
     7
100
AcDbVertex
100
AcDb2dVertex
 10
176.0802082893133
 20
93.18587101620007
 30
0.0
  0
SEQEND
  5
829
330
826
100
AcDbEntity
  8
BEMAßUNG
  0
POLYLINE
  5
82A
330
1F
100
AcDbEntity
  8
BEMAßUNG
 62
     7
100
AcDb2dPolyline
 66
     1
 10
0.0
 20
0.0
 30
0.0
  0
VERTEX
  5
82B
330
82A
100
AcDbEntity
  8
BEMAßUNG
 62
     7
100
AcDbVertex
100
AcDb2dVertex
 10
174.1237385632399
 20
93.13471134824411
 30
0.0
  0
VERTEX
  5
82C
330
82A
100
AcDbEntity
  8
BEMAßUNG
 62
     7
100
AcDbVertex
100
AcDb2dVertex
 10
176.4657144741128
 20
93.13471134824411
 30
0.0
  0
SEQEND
  5
82D
330
82A
100
AcDbEntity
  8
BEMAßUNG
  0
POLYLINE
  5
82E
330
1F
100
AcDbEntity
  8
BEMAßUNG
 62
     7
100
AcDb2dPolyline
 66
     1
 10
0.0
 20
0.0
 30
0.0
  0
VERTEX
  5
82F
330
82E
100
AcDbEntity
  8
BEMAßUNG
 62
     7
100
AcDbVertex
100
AcDb2dVertex
 10
174.1237385632399
 20
93.08389618983666
 30
0.0
  0
VERTEX
  5
830
330
82E
100
AcDbEntity
  8
BEMAßUNG
 62
     7
100
AcDbVertex
100
AcDb2dVertex
 10
176.851737423235
 20
93.08389618983666
 30
0.0
  0
SEQEND
  5
831
330
82E
100
AcDbEntity
  8
BEMAßUNG
  0
POLYLINE
  5
832
330
1F
100
AcDbEntity
  8
BEMAßUNG
 62
     7
100
AcDb2dPolyline
 66
     1
 10
0.0
 20
0.0
 30
0.0
  0
VERTEX
  5
833
330
832
100
AcDbEntity
  8
BEMAßUNG
 62
     7
100
AcDbVertex
100
AcDb2dVertex
 10
174.1237385632399
 20
93.03308103142923
 30
0.0
  0
VERTEX
  5
834
330
832
100
AcDbEntity
  8
BEMAßUNG
 62
     7
100
AcDbVertex
100
AcDb2dVertex
 10
177.2377603723572
 20
93.03308103142923
 30
0.0
  0
SEQEND
  5
835
330
832
100
AcDbEntity
  8
BEMAßUNG
  0
POLYLINE
  5
836
330
1F
100
AcDbEntity
  8
BEMAßUNG
 62
     7
100
AcDb2dPolyline
 66
     1
 10
0.0
 20
0.0
 30
0.0
  0
VERTEX
  5
837
330
836
100
AcDbEntity
  8
BEMAßUNG
 62
     7
100
AcDbVertex
100
AcDb2dVertex
 10
174.1237385632399
 20
92.98243812779606
 30
0.0
  0
VERTEX
  5
838
330
836
100
AcDbEntity
  8
BEMAßUNG
 62
     7
100
AcDbVertex
100
AcDb2dVertex
 10
177.6236110667052
 20
92.98243812779606
 30
0.0
  0
SEQEND
  5
839
330
836
100
AcDbEntity
  8
BEMAßUNG
  0
POLYLINE
  5
83A
330
1F
100
AcDbEntity
  8
BEMAßUNG
 62
     7
100
AcDb2dPolyline
 66
     1
 10
0.0
 20
0.0
 30
0.0
  0
VERTEX
  5
83B
330
83A
100
AcDbEntity
  8
BEMAßUNG
 62
     7
100
AcDbVertex
100
AcDb2dVertex
 10
174.1237385632399
 20
92.52544621167768
 30
0.0
  0
VERTEX
  5
83C
330
83A
100
AcDbEntity
  8
BEMAßUNG
 62
     7
100
AcDbVertex
100
AcDb2dVertex
 10
174.1509548175734
 20
92.52544621167768
 30
0.0
  0
SEQEND
  5
83D
330
83A
100
AcDbEntity
  8
BEMAßUNG
  0
POLYLINE
  5
83E
330
1F
100
AcDbEntity
  8
BEMAßUNG
 62
     7
100
AcDb2dPolyline
 66
     1
 10
0.0
 20
0.0
 30
0.0
  0
VERTEX
  5
83F
330
83E
100
AcDbEntity
  8
BEMAßUNG
 62
     7
100
AcDbVertex
100
AcDb2dVertex
 10
174.1237385632399
 20
92.52544621167768
 30
0.0
  0
VERTEX
  5
840
330
83E
100
AcDbEntity
  8
BEMAßUNG
 62
     7
100
AcDbVertex
100
AcDb2dVertex
 10
174.1509548175734
 20
92.52544621167768
 30
0.0
  0
SEQEND
  5
841
330
83E
100
AcDbEntity
  8
BEMAßUNG
  0
POLYLINE
  5
842
330
1F
100
AcDbEntity
  8
BEMAßUNG
 62
     7
100
AcDb2dPolyline
 66
     1
 10
0.0
 20
0.0
 30
0.0
  0
VERTEX
  5
843
330
842
100
AcDbEntity
  8
BEMAßUNG
 62
     7
100
AcDbVertex
100
AcDb2dVertex
 10
174.1237385632399
 20
92.5762613700851
 30
0.0
  0
VERTEX
  5
844
330
842
100
AcDbEntity
  8
BEMAßUNG
 62
     7
100
AcDbVertex
100
AcDb2dVertex
 10
174.5368055119214
 20
92.5762613700851
 30
0.0
  0
SEQEND
  5
845
330
842
100
AcDbEntity
  8
BEMAßUNG
  0
POLYLINE
  5
846
330
1F
100
AcDbEntity
  8
BEMAßUNG
 62
     7
100
AcDb2dPolyline
 66
     1
 10
0.0
 20
0.0
 30
0.0
  0
VERTEX
  5
847
330
846
100
AcDbEntity
  8
BEMAßUNG
 62
     7
100
AcDbVertex
100
AcDb2dVertex
 10
174.1237385632399
 20
92.62707652849254
 30
0.0
  0
VERTEX
  5
848
330
846
100
AcDbEntity
  8
BEMAßUNG
 62
     7
100
AcDbVertex
100
AcDb2dVertex
 10
174.9223116967208
 20
92.62707652849254
 30
0.0
  0
SEQEND
  5
849
330
846
100
AcDbEntity
  8
BEMAßUNG
  0
POLYLINE
  5
84A
330
1F
100
AcDbEntity
  8
BEMAßUNG
 62
     7
100
AcDb2dPolyline
 66
     1
 10
0.0
 20
0.0
 30
0.0
  0
VERTEX
  5
84B
330
84A
100
AcDbEntity
  8
BEMAßUNG
 62
     7
100
AcDbVertex
100
AcDb2dVertex
 10
174.1237385632399
 20
92.67754717735146
 30
0.0
  0
VERTEX
  5
84C
330
84A
100
AcDbEntity
  8
BEMAßUNG
 62
     7
100
AcDbVertex
100
AcDb2dVertex
 10
175.3083346458431
 20
92.67754717735146
 30
0.0
  0
SEQEND
  5
84D
330
84A
100
AcDbEntity
  8
BEMAßUNG
  0
POLYLINE
  5
84E
330
1F
100
AcDbEntity
  8
BEMAßUNG
 62
     7
100
AcDb2dPolyline
 66
     1
 10
0.0
 20
0.0
 30
0.0
  0
VERTEX
  5
84F
330
84E
100
AcDbEntity
  8
BEMAßUNG
 62
     7
100
AcDbVertex
100
AcDb2dVertex
 10
174.1237385632399
 20
92.72836233575889
 30
0.0
  0
VERTEX
  5
850
330
84E
100
AcDbEntity
  8
BEMAßUNG
 62
     7
100
AcDbVertex
100
AcDb2dVertex
 10
175.6943575949653
 20
92.72836233575889
 30
0.0
  0
SEQEND
  5
851
330
84E
100
AcDbEntity
  8
BEMAßUNG
  0
POLYLINE
  5
852
330
1F
100
AcDbEntity
  8
BEMAßUNG
 62
     7
100
AcDb2dPolyline
 66
     1
 10
0.0
 20
0.0
 30
0.0
  0
VERTEX
  5
853
330
852
100
AcDbEntity
  8
BEMAßUNG
 62
     7
100
AcDbVertex
100
AcDb2dVertex
 10
174.1237385632399
 20
92.77917749416632
 30
0.0
  0
VERTEX
  5
854
330
852
100
AcDbEntity
  8
BEMAßUNG
 62
     7
100
AcDbVertex
100
AcDb2dVertex
 10
176.0802082893133
 20
92.77917749416632
 30
0.0
  0
SEQEND
  5
855
330
852
100
AcDbEntity
  8
BEMAßUNG
  0
POLYLINE
  5
856
330
1F
100
AcDbEntity
  8
BEMAßUNG
 62
     7
100
AcDb2dPolyline
 66
     1
 10
0.0
 20
0.0
 30
0.0
  0
VERTEX
  5
857
330
856
100
AcDbEntity
  8
BEMAßUNG
 62
     7
100
AcDbVertex
100
AcDb2dVertex
 10
174.1237385632399
 20
92.82999265257375
 30
0.0
  0
VERTEX
  5
858
330
856
100
AcDbEntity
  8
BEMAßUNG
 62
     7
100
AcDbVertex
100
AcDb2dVertex
 10
176.4657144741128
 20
92.82999265257375
 30
0.0
  0
SEQEND
  5
859
330
856
100
AcDbEntity
  8
BEMAßUNG
  0
POLYLINE
  5
85A
330
1F
100
AcDbEntity
  8
BEMAßUNG
 62
     7
100
AcDb2dPolyline
 66
     1
 10
0.0
 20
0.0
 30
0.0
  0
VERTEX
  5
85B
330
85A
100
AcDbEntity
  8
BEMAßUNG
 62
     7
100
AcDbVertex
100
AcDb2dVertex
 10
174.1237385632399
 20
92.8808078109812
 30
0.0
  0
VERTEX
  5
85C
330
85A
100
AcDbEntity
  8
BEMAßUNG
 62
     7
100
AcDbVertex
100
AcDb2dVertex
 10
176.851737423235
 20
92.8808078109812
 30
0.0
  0
SEQEND
  5
85D
330
85A
100
AcDbEntity
  8
BEMAßUNG
  0
POLYLINE
  5
85E
330
1F
100
AcDbEntity
  8
BEMAßUNG
 62
     7
100
AcDb2dPolyline
 66
     1
 10
0.0
 20
0.0
 30
0.0
  0
VERTEX
  5
85F
330
85E
100
AcDbEntity
  8
BEMAßUNG
 62
     7
100
AcDbVertex
100
AcDb2dVertex
 10
174.1237385632399
 20
92.93162296938863
 30
0.0
  0
VERTEX
  5
860
330
85E
100
AcDbEntity
  8
BEMAßUNG
 62
     7
100
AcDbVertex
100
AcDb2dVertex
 10
177.2377603723572
 20
92.93162296938863
 30
0.0
  0
SEQEND
  5
861
330
85E
100
AcDbEntity
  8
BEMAßUNG
  0
POLYLINE
  5
862
330
1F
100
AcDbEntity
  8
BEMAßUNG
 62
     7
100
AcDb2dPolyline
 66
     1
 10
0.0
 20
0.0
 30
0.0
  0
VERTEX
  5
863
330
862
100
AcDbEntity
  8
BEMAßUNG
 62
     7
100
AcDbVertex
100
AcDb2dVertex
 10
174.1237385632399
 20
92.98243812779606
 30
0.0
  0
VERTEX
  5
864
330
862
100
AcDbEntity
  8
BEMAßUNG
 62
     7
100
AcDbVertex
100
AcDb2dVertex
 10
177.6236110667052
 20
92.98243812779606
 30
0.0
  0
SEQEND
  5
865
330
862
100
AcDbEntity
  8
BEMAßUNG
  0
POLYLINE
  5
866
330
1F
100
AcDbEntity
  8
BEMAßUNG
 62
     7
100
AcDb2dPolyline
 66
     1
 10
0.0
 20
0.0
 30
0.0
  0
VERTEX
  5
867
330
866
100
AcDbEntity
  8
BEMAßUNG
 62
     7
100
AcDbVertex
100
AcDb2dVertex
 10
157.6236259914101
 20
115.9824123516468
 30
0.0
  0
VERTEX
  5
868
330
866
100
AcDbEntity
  8
BEMAßUNG
 62
     7
100
AcDbVertex
100
AcDb2dVertex
 10
157.6236259914101
 20
100.9826388636432
 30
0.0
  0
SEQEND
  5
869
330
866
100
AcDbEntity
  8
BEMAßUNG
  0
POLYLINE
  5
86A
330
1F
100
AcDbEntity
  8
BEMAßUNG
 62
     7
100
AcDb2dPolyline
 66
     1
 10
0.0
 20
0.0
 30
0.0
  0
VERTEX
  5
86B
330
86A
100
AcDbEntity
  8
BEMAßUNG
 62
     7
100
AcDbVertex
100
AcDb2dVertex
 10
177.6236110667052
 20
117.937504039526
 30
0.0
  0
VERTEX
  5
86C
330
86A
100
AcDbEntity
  8
BEMAßUNG
 62
     7
100
AcDbVertex
100
AcDb2dVertex
 10
177.6236110667052
 20
100.9826388636432
 30
0.0
  0
SEQEND
  5
86D
330
86A
100
AcDbEntity
  8
BEMAßUNG
  0
POLYLINE
  5
86E
330
1F
100
AcDbEntity
  8
BEMAßUNG
 62
     7
100
AcDb2dPolyline
 66
     1
 10
0.0
 20
0.0
 30
0.0
  0
VERTEX
  5
86F
330
86E
100
AcDbEntity
  8
BEMAßUNG
 62
     7
100
AcDbVertex
100
AcDb2dVertex
 10
157.6236259914101
 20
102.9821722832822
 30
0.0
  0
VERTEX
  5
870
330
86E
100
AcDbEntity
  8
BEMAßUNG
 62
     7
100
AcDbVertex
100
AcDb2dVertex
 10
177.6236110667052
 20
102.9821722832822
 30
0.0
  0
SEQEND
  5
871
330
86E
100
AcDbEntity
  8
BEMAßUNG
  0
POLYLINE
  5
872
330
1F
100
AcDbEntity
  8
BEMAßUNG
 62
     7
100
AcDb2dPolyline
 66
     1
 10
0.0
 20
0.0
 30
0.0
  0
VERTEX
  5
873
330
872
100
AcDbEntity
  8
BEMAßUNG
 62
     7
100
AcDbVertex
100
AcDb2dVertex
 10
157.6236259914101
 20
102.9821722832822
 30
0.0
  0
VERTEX
  5
874
330
872
100
AcDbEntity
  8
BEMAßUNG
 62
     7
100
AcDbVertex
100
AcDb2dVertex
 10
161.1234984948754
 20
102.5219075264529
 30
0.0
  0
VERTEX
  5
875
330
872
100
AcDbEntity
  8
BEMAßUNG
 62
     7
100
AcDbVertex
100
AcDb2dVertex
 10
161.1234984948754
 20
103.4432983139829
 30
0.0
  0
VERTEX
  5
876
330
872
100
AcDbEntity
  8
BEMAßUNG
 62
     7
100
AcDbVertex
100
AcDb2dVertex
 10
157.6236259914101
 20
102.9821722832822
 30
0.0
  0
SEQEND
  5
877
330
872
100
AcDbEntity
  8
BEMAßUNG
  0
POLYLINE
  5
878
330
1F
100
AcDbEntity
  8
BEMAßUNG
 62
     7
100
AcDb2dPolyline
 66
     1
 10
0.0
 20
0.0
 30
0.0
  0
VERTEX
  5
879
330
878
100
AcDbEntity
  8
BEMAßUNG
 62
     7
100
AcDbVertex
100
AcDb2dVertex
 10
161.1234984948754
 20
102.5253526219381
 30
0.0
  0
VERTEX
  5
87A
330
878
100
AcDbEntity
  8
BEMAßUNG
 62
     7
100
AcDbVertex
100
AcDb2dVertex
 10
161.0962822405419
 20
102.5253526219381
 30
0.0
  0
SEQEND
  5
87B
330
878
100
AcDbEntity
  8
BEMAßUNG
  0
POLYLINE
  5
87C
330
1F
100
AcDbEntity
  8
BEMAßUNG
 62
     7
100
AcDb2dPolyline
 66
     1
 10
0.0
 20
0.0
 30
0.0
  0
VERTEX
  5
87D
330
87C
100
AcDbEntity
  8
BEMAßUNG
 62
     7
100
AcDbVertex
100
AcDb2dVertex
 10
161.1234984948754
 20
102.5253526219381
 30
0.0
  0
VERTEX
  5
87E
330
87C
100
AcDbEntity
  8
BEMAßUNG
 62
     7
100
AcDbVertex
100
AcDb2dVertex
 10
161.0962822405419
 20
102.5253526219381
 30
0.0
  0
SEQEND
  5
87F
330
87C
100
AcDbEntity
  8
BEMAßUNG
  0
POLYLINE
  5
880
330
1F
100
AcDbEntity
  8
BEMAßUNG
 62
     7
100
AcDb2dPolyline
 66
     1
 10
0.0
 20
0.0
 30
0.0
  0
VERTEX
  5
881
330
880
100
AcDbEntity
  8
BEMAßUNG
 62
     7
100
AcDbVertex
100
AcDb2dVertex
 10
161.1234984948754
 20
102.5761677803455
 30
0.0
  0
VERTEX
  5
882
330
880
100
AcDbEntity
  8
BEMAßUNG
 62
     7
100
AcDbVertex
100
AcDb2dVertex
 10
160.7104315461939
 20
102.5761677803455
 30
0.0
  0
SEQEND
  5
883
330
880
100
AcDbEntity
  8
BEMAßUNG
  0
POLYLINE
  5
884
330
1F
100
AcDbEntity
  8
BEMAßUNG
 62
     7
100
AcDb2dPolyline
 66
     1
 10
0.0
 20
0.0
 30
0.0
  0
VERTEX
  5
885
330
884
100
AcDbEntity
  8
BEMAßUNG
 62
     7
100
AcDbVertex
100
AcDb2dVertex
 10
161.1234984948754
 20
102.6266384292045
 30
0.0
  0
VERTEX
  5
886
330
884
100
AcDbEntity
  8
BEMAßUNG
 62
     7
100
AcDbVertex
100
AcDb2dVertex
 10
160.3244085970717
 20
102.6266384292045
 30
0.0
  0
SEQEND
  5
887
330
884
100
AcDbEntity
  8
BEMAßUNG
  0
POLYLINE
  5
888
330
1F
100
AcDbEntity
  8
BEMAßUNG
 62
     7
100
AcDb2dPolyline
 66
     1
 10
0.0
 20
0.0
 30
0.0
  0
VERTEX
  5
889
330
888
100
AcDbEntity
  8
BEMAßUNG
 62
     7
100
AcDbVertex
100
AcDb2dVertex
 10
161.1234984948754
 20
102.6774535876119
 30
0.0
  0
VERTEX
  5
88A
330
888
100
AcDbEntity
  8
BEMAßUNG
 62
     7
100
AcDbVertex
100
AcDb2dVertex
 10
159.9389024122722
 20
102.6774535876119
 30
0.0
  0
SEQEND
  5
88B
330
888
100
AcDbEntity
  8
BEMAßUNG
  0
POLYLINE
  5
88C
330
1F
100
AcDbEntity
  8
BEMAßUNG
 62
     7
100
AcDb2dPolyline
 66
     1
 10
0.0
 20
0.0
 30
0.0
  0
VERTEX
  5
88D
330
88C
100
AcDbEntity
  8
BEMAßUNG
 62
     7
100
AcDbVertex
100
AcDb2dVertex
 10
161.1234984948754
 20
102.7282687460193
 30
0.0
  0
VERTEX
  5
88E
330
88C
100
AcDbEntity
  8
BEMAßUNG
 62
     7
100
AcDbVertex
100
AcDb2dVertex
 10
159.55287946315
 20
102.7282687460193
 30
0.0
  0
SEQEND
  5
88F
330
88C
100
AcDbEntity
  8
BEMAßUNG
  0
POLYLINE
  5
890
330
1F
100
AcDbEntity
  8
BEMAßUNG
 62
     7
100
AcDb2dPolyline
 66
     1
 10
0.0
 20
0.0
 30
0.0
  0
VERTEX
  5
891
330
890
100
AcDbEntity
  8
BEMAßUNG
 62
     7
100
AcDbVertex
100
AcDb2dVertex
 10
161.1234984948754
 20
102.7789116496525
 30
0.0
  0
VERTEX
  5
892
330
890
100
AcDbEntity
  8
BEMAßUNG
 62
     7
100
AcDbVertex
100
AcDb2dVertex
 10
159.167028768802
 20
102.7789116496525
 30
0.0
  0
SEQEND
  5
893
330
890
100
AcDbEntity
  8
BEMAßUNG
  0
POLYLINE
  5
894
330
1F
100
AcDbEntity
  8
BEMAßUNG
 62
     7
100
AcDb2dPolyline
 66
     1
 10
0.0
 20
0.0
 30
0.0
  0
VERTEX
  5
895
330
894
100
AcDbEntity
  8
BEMAßUNG
 62
     7
100
AcDbVertex
100
AcDb2dVertex
 10
161.1234984948754
 20
102.8297268080599
 30
0.0
  0
VERTEX
  5
896
330
894
100
AcDbEntity
  8
BEMAßUNG
 62
     7
100
AcDbVertex
100
AcDb2dVertex
 10
158.7810058196798
 20
102.8297268080599
 30
0.0
  0
SEQEND
  5
897
330
894
100
AcDbEntity
  8
BEMAßUNG
  0
POLYLINE
  5
898
330
1F
100
AcDbEntity
  8
BEMAßUNG
 62
     7
100
AcDb2dPolyline
 66
     1
 10
0.0
 20
0.0
 30
0.0
  0
VERTEX
  5
899
330
898
100
AcDbEntity
  8
BEMAßUNG
 62
     7
100
AcDbVertex
100
AcDb2dVertex
 10
161.1234984948754
 20
102.8805419664674
 30
0.0
  0
VERTEX
  5
89A
330
898
100
AcDbEntity
  8
BEMAßUNG
 62
     7
100
AcDbVertex
100
AcDb2dVertex
 10
158.3954996348803
 20
102.8805419664674
 30
0.0
  0
SEQEND
  5
89B
330
898
100
AcDbEntity
  8
BEMAßUNG
  0
POLYLINE
  5
89C
330
1F
100
AcDbEntity
  8
BEMAßUNG
 62
     7
100
AcDb2dPolyline
 66
     1
 10
0.0
 20
0.0
 30
0.0
  0
VERTEX
  5
89D
330
89C
100
AcDbEntity
  8
BEMAßUNG
 62
     7
100
AcDbVertex
100
AcDb2dVertex
 10
161.1234984948754
 20
102.9313571248748
 30
0.0
  0
VERTEX
  5
89E
330
89C
100
AcDbEntity
  8
BEMAßUNG
 62
     7
100
AcDbVertex
100
AcDb2dVertex
 10
158.009476685758
 20
102.9313571248748
 30
0.0
  0
SEQEND
  5
89F
330
89C
100
AcDbEntity
  8
BEMAßUNG
  0
POLYLINE
  5
8A0
330
1F
100
AcDbEntity
  8
BEMAßUNG
 62
     7
100
AcDb2dPolyline
 66
     1
 10
0.0
 20
0.0
 30
0.0
  0
VERTEX
  5
8A1
330
8A0
100
AcDbEntity
  8
BEMAßUNG
 62
     7
100
AcDbVertex
100
AcDb2dVertex
 10
161.1234984948754
 20
102.9821722832822
 30
0.0
  0
VERTEX
  5
8A2
330
8A0
100
AcDbEntity
  8
BEMAßUNG
 62
     7
100
AcDbVertex
100
AcDb2dVertex
 10
157.6236259914101
 20
102.9821722832822
 30
0.0
  0
SEQEND
  5
8A3
330
8A0
100
AcDbEntity
  8
BEMAßUNG
  0
POLYLINE
  5
8A4
330
1F
100
AcDbEntity
  8
BEMAßUNG
 62
     7
100
AcDb2dPolyline
 66
     1
 10
0.0
 20
0.0
 30
0.0
  0
VERTEX
  5
8A5
330
8A4
100
AcDbEntity
  8
BEMAßUNG
 62
     7
100
AcDbVertex
100
AcDb2dVertex
 10
161.1234984948754
 20
103.4396809637234
 30
0.0
  0
VERTEX
  5
8A6
330
8A4
100
AcDbEntity
  8
BEMAßUNG
 62
     7
100
AcDbVertex
100
AcDb2dVertex
 10
161.0962822405419
 20
103.4396809637234
 30
0.0
  0
SEQEND
  5
8A7
330
8A4
100
AcDbEntity
  8
BEMAßUNG
  0
POLYLINE
  5
8A8
330
1F
100
AcDbEntity
  8
BEMAßUNG
 62
     7
100
AcDb2dPolyline
 66
     1
 10
0.0
 20
0.0
 30
0.0
  0
VERTEX
  5
8A9
330
8A8
100
AcDbEntity
  8
BEMAßUNG
 62
     7
100
AcDbVertex
100
AcDb2dVertex
 10
161.1234984948754
 20
103.4396809637234
 30
0.0
  0
VERTEX
  5
8AA
330
8A8
100
AcDbEntity
  8
BEMAßUNG
 62
     7
100
AcDbVertex
100
AcDb2dVertex
 10
161.0962822405419
 20
103.4396809637234
 30
0.0
  0
SEQEND
  5
8AB
330
8A8
100
AcDbEntity
  8
BEMAßUNG
  0
POLYLINE
  5
8AC
330
1F
100
AcDbEntity
  8
BEMAßUNG
 62
     7
100
AcDb2dPolyline
 66
     1
 10
0.0
 20
0.0
 30
0.0
  0
VERTEX
  5
8AD
330
8AC
100
AcDbEntity
  8
BEMAßUNG
 62
     7
100
AcDbVertex
100
AcDb2dVertex
 10
161.1234984948754
 20
103.3890380600902
 30
0.0
  0
VERTEX
  5
8AE
330
8AC
100
AcDbEntity
  8
BEMAßUNG
 62
     7
100
AcDbVertex
100
AcDb2dVertex
 10
160.7104315461939
 20
103.3890380600902
 30
0.0
  0
SEQEND
  5
8AF
330
8AC
100
AcDbEntity
  8
BEMAßUNG
  0
POLYLINE
  5
8B0
330
1F
100
AcDbEntity
  8
BEMAßUNG
 62
     7
100
AcDb2dPolyline
 66
     1
 10
0.0
 20
0.0
 30
0.0
  0
VERTEX
  5
8B1
330
8B0
100
AcDbEntity
  8
BEMAßUNG
 62
     7
100
AcDbVertex
100
AcDb2dVertex
 10
161.1234984948754
 20
103.3380506469085
 30
0.0
  0
VERTEX
  5
8B2
330
8B0
100
AcDbEntity
  8
BEMAßUNG
 62
     7
100
AcDbVertex
100
AcDb2dVertex
 10
160.3244085970717
 20
103.3380506469085
 30
0.0
  0
SEQEND
  5
8B3
330
8B0
100
AcDbEntity
  8
BEMAßUNG
  0
POLYLINE
  5
8B4
330
1F
100
AcDbEntity
  8
BEMAßUNG
 62
     7
100
AcDb2dPolyline
 66
     1
 10
0.0
 20
0.0
 30
0.0
  0
VERTEX
  5
8B5
330
8B4
100
AcDbEntity
  8
BEMAßUNG
 62
     7
100
AcDbVertex
100
AcDb2dVertex
 10
161.1234984948754
 20
103.2874077432754
 30
0.0
  0
VERTEX
  5
8B6
330
8B4
100
AcDbEntity
  8
BEMAßUNG
 62
     7
100
AcDbVertex
100
AcDb2dVertex
 10
159.9389024122722
 20
103.2874077432754
 30
0.0
  0
SEQEND
  5
8B7
330
8B4
100
AcDbEntity
  8
BEMAßUNG
  0
POLYLINE
  5
8B8
330
1F
100
AcDbEntity
  8
BEMAßUNG
 62
     7
100
AcDb2dPolyline
 66
     1
 10
0.0
 20
0.0
 30
0.0
  0
VERTEX
  5
8B9
330
8B8
100
AcDbEntity
  8
BEMAßUNG
 62
     7
100
AcDbVertex
100
AcDb2dVertex
 10
161.1234984948754
 20
103.2365925848679
 30
0.0
  0
VERTEX
  5
8BA
330
8B8
100
AcDbEntity
  8
BEMAßUNG
 62
     7
100
AcDbVertex
100
AcDb2dVertex
 10
159.55287946315
 20
103.2365925848679
 30
0.0
  0
SEQEND
  5
8BB
330
8B8
100
AcDbEntity
  8
BEMAßUNG
  0
POLYLINE
  5
8BC
330
1F
100
AcDbEntity
  8
BEMAßUNG
 62
     7
100
AcDb2dPolyline
 66
     1
 10
0.0
 20
0.0
 30
0.0
  0
VERTEX
  5
8BD
330
8BC
100
AcDbEntity
  8
BEMAßUNG
 62
     7
100
AcDbVertex
100
AcDb2dVertex
 10
161.1234984948754
 20
103.1857774264605
 30
0.0
  0
VERTEX
  5
8BE
330
8BC
100
AcDbEntity
  8
BEMAßUNG
 62
     7
100
AcDbVertex
100
AcDb2dVertex
 10
159.167028768802
 20
103.1857774264605
 30
0.0
  0
SEQEND
  5
8BF
330
8BC
100
AcDbEntity
  8
BEMAßUNG
  0
POLYLINE
  5
8C0
330
1F
100
AcDbEntity
  8
BEMAßUNG
 62
     7
100
AcDb2dPolyline
 66
     1
 10
0.0
 20
0.0
 30
0.0
  0
VERTEX
  5
8C1
330
8C0
100
AcDbEntity
  8
BEMAßUNG
 62
     7
100
AcDbVertex
100
AcDb2dVertex
 10
161.1234984948754
 20
103.1346177585045
 30
0.0
  0
VERTEX
  5
8C2
330
8C0
100
AcDbEntity
  8
BEMAßUNG
 62
     7
100
AcDbVertex
100
AcDb2dVertex
 10
158.7810058196798
 20
103.1346177585045
 30
0.0
  0
SEQEND
  5
8C3
330
8C0
100
AcDbEntity
  8
BEMAßUNG
  0
POLYLINE
  5
8C4
330
1F
100
AcDbEntity
  8
BEMAßUNG
 62
     7
100
AcDb2dPolyline
 66
     1
 10
0.0
 20
0.0
 30
0.0
  0
VERTEX
  5
8C5
330
8C4
100
AcDbEntity
  8
BEMAßUNG
 62
     7
100
AcDbVertex
100
AcDb2dVertex
 10
161.1234984948754
 20
103.0838026000971
 30
0.0
  0
VERTEX
  5
8C6
330
8C4
100
AcDbEntity
  8
BEMAßUNG
 62
     7
100
AcDbVertex
100
AcDb2dVertex
 10
158.3954996348803
 20
103.0838026000971
 30
0.0
  0
SEQEND
  5
8C7
330
8C4
100
AcDbEntity
  8
BEMAßUNG
  0
POLYLINE
  5
8C8
330
1F
100
AcDbEntity
  8
BEMAßUNG
 62
     7
100
AcDb2dPolyline
 66
     1
 10
0.0
 20
0.0
 30
0.0
  0
VERTEX
  5
8C9
330
8C8
100
AcDbEntity
  8
BEMAßUNG
 62
     7
100
AcDbVertex
100
AcDb2dVertex
 10
161.1234984948754
 20
103.0329874416897
 30
0.0
  0
VERTEX
  5
8CA
330
8C8
100
AcDbEntity
  8
BEMAßUNG
 62
     7
100
AcDbVertex
100
AcDb2dVertex
 10
158.009476685758
 20
103.0329874416897
 30
0.0
  0
SEQEND
  5
8CB
330
8C8
100
AcDbEntity
  8
BEMAßUNG
  0
POLYLINE
  5
8CC
330
1F
100
AcDbEntity
  8
BEMAßUNG
 62
     7
100
AcDb2dPolyline
 66
     1
 10
0.0
 20
0.0
 30
0.0
  0
VERTEX
  5
8CD
330
8CC
100
AcDbEntity
  8
BEMAßUNG
 62
     7
100
AcDbVertex
100
AcDb2dVertex
 10
161.1234984948754
 20
102.9821722832822
 30
0.0
  0
VERTEX
  5
8CE
330
8CC
100
AcDbEntity
  8
BEMAßUNG
 62
     7
100
AcDbVertex
100
AcDb2dVertex
 10
157.6236259914101
 20
102.9821722832822
 30
0.0
  0
SEQEND
  5
8CF
330
8CC
100
AcDbEntity
  8
BEMAßUNG
  0
POLYLINE
  5
8D0
330
1F
100
AcDbEntity
  8
BEMAßUNG
 62
     7
100
AcDb2dPolyline
 66
     1
 10
0.0
 20
0.0
 30
0.0
  0
VERTEX
  5
8D1
330
8D0
100
AcDbEntity
  8
BEMAßUNG
 62
     7
100
AcDbVertex
100
AcDb2dVertex
 10
177.6236110667052
 20
102.9821722832822
 30
0.0
  0
VERTEX
  5
8D2
330
8D0
100
AcDbEntity
  8
BEMAßUNG
 62
     7
100
AcDbVertex
100
AcDb2dVertex
 10
174.1237385632399
 20
103.4432983139829
 30
0.0
  0
VERTEX
  5
8D3
330
8D0
100
AcDbEntity
  8
BEMAßUNG
 62
     7
100
AcDbVertex
100
AcDb2dVertex
 10
174.1237385632399
 20
102.5219075264529
 30
0.0
  0
VERTEX
  5
8D4
330
8D0
100
AcDbEntity
  8
BEMAßUNG
 62
     7
100
AcDbVertex
100
AcDb2dVertex
 10
177.6236110667052
 20
102.9821722832822
 30
0.0
  0
SEQEND
  5
8D5
330
8D0
100
AcDbEntity
  8
BEMAßUNG
  0
POLYLINE
  5
8D6
330
1F
100
AcDbEntity
  8
BEMAßUNG
 62
     7
100
AcDb2dPolyline
 66
     1
 10
0.0
 20
0.0
 30
0.0
  0
VERTEX
  5
8D7
330
8D6
100
AcDbEntity
  8
BEMAßUNG
 62
     7
100
AcDbVertex
100
AcDb2dVertex
 10
174.1237385632399
 20
103.4396809637234
 30
0.0
  0
VERTEX
  5
8D8
330
8D6
100
AcDbEntity
  8
BEMAßUNG
 62
     7
100
AcDbVertex
100
AcDb2dVertex
 10
174.1509548175734
 20
103.4396809637234
 30
0.0
  0
SEQEND
  5
8D9
330
8D6
100
AcDbEntity
  8
BEMAßUNG
  0
POLYLINE
  5
8DA
330
1F
100
AcDbEntity
  8
BEMAßUNG
 62
     7
100
AcDb2dPolyline
 66
     1
 10
0.0
 20
0.0
 30
0.0
  0
VERTEX
  5
8DB
330
8DA
100
AcDbEntity
  8
BEMAßUNG
 62
     7
100
AcDbVertex
100
AcDb2dVertex
 10
174.1237385632399
 20
103.4396809637234
 30
0.0
  0
VERTEX
  5
8DC
330
8DA
100
AcDbEntity
  8
BEMAßUNG
 62
     7
100
AcDbVertex
100
AcDb2dVertex
 10
174.1509548175734
 20
103.4396809637234
 30
0.0
  0
SEQEND
  5
8DD
330
8DA
100
AcDbEntity
  8
BEMAßUNG
  0
POLYLINE
  5
8DE
330
1F
100
AcDbEntity
  8
BEMAßUNG
 62
     7
100
AcDb2dPolyline
 66
     1
 10
0.0
 20
0.0
 30
0.0
  0
VERTEX
  5
8DF
330
8DE
100
AcDbEntity
  8
BEMAßUNG
 62
     7
100
AcDbVertex
100
AcDb2dVertex
 10
174.1237385632399
 20
103.3890380600902
 30
0.0
  0
VERTEX
  5
8E0
330
8DE
100
AcDbEntity
  8
BEMAßUNG
 62
     7
100
AcDbVertex
100
AcDb2dVertex
 10
174.5368055119214
 20
103.3890380600902
 30
0.0
  0
SEQEND
  5
8E1
330
8DE
100
AcDbEntity
  8
BEMAßUNG
  0
POLYLINE
  5
8E2
330
1F
100
AcDbEntity
  8
BEMAßUNG
 62
     7
100
AcDb2dPolyline
 66
     1
 10
0.0
 20
0.0
 30
0.0
  0
VERTEX
  5
8E3
330
8E2
100
AcDbEntity
  8
BEMAßUNG
 62
     7
100
AcDbVertex
100
AcDb2dVertex
 10
174.1237385632399
 20
103.3380506469085
 30
0.0
  0
VERTEX
  5
8E4
330
8E2
100
AcDbEntity
  8
BEMAßUNG
 62
     7
100
AcDbVertex
100
AcDb2dVertex
 10
174.9223116967208
 20
103.3380506469085
 30
0.0
  0
SEQEND
  5
8E5
330
8E2
100
AcDbEntity
  8
BEMAßUNG
  0
POLYLINE
  5
8E6
330
1F
100
AcDbEntity
  8
BEMAßUNG
 62
     7
100
AcDb2dPolyline
 66
     1
 10
0.0
 20
0.0
 30
0.0
  0
VERTEX
  5
8E7
330
8E6
100
AcDbEntity
  8
BEMAßUNG
 62
     7
100
AcDbVertex
100
AcDb2dVertex
 10
174.1237385632399
 20
103.2874077432754
 30
0.0
  0
VERTEX
  5
8E8
330
8E6
100
AcDbEntity
  8
BEMAßUNG
 62
     7
100
AcDbVertex
100
AcDb2dVertex
 10
175.3083346458431
 20
103.2874077432754
 30
0.0
  0
SEQEND
  5
8E9
330
8E6
100
AcDbEntity
  8
BEMAßUNG
  0
POLYLINE
  5
8EA
330
1F
100
AcDbEntity
  8
BEMAßUNG
 62
     7
100
AcDb2dPolyline
 66
     1
 10
0.0
 20
0.0
 30
0.0
  0
VERTEX
  5
8EB
330
8EA
100
AcDbEntity
  8
BEMAßUNG
 62
     7
100
AcDbVertex
100
AcDb2dVertex
 10
174.1237385632399
 20
103.2365925848679
 30
0.0
  0
VERTEX
  5
8EC
330
8EA
100
AcDbEntity
  8
BEMAßUNG
 62
     7
100
AcDbVertex
100
AcDb2dVertex
 10
175.6943575949653
 20
103.2365925848679
 30
0.0
  0
SEQEND
  5
8ED
330
8EA
100
AcDbEntity
  8
BEMAßUNG
  0
POLYLINE
  5
8EE
330
1F
100
AcDbEntity
  8
BEMAßUNG
 62
     7
100
AcDb2dPolyline
 66
     1
 10
0.0
 20
0.0
 30
0.0
  0
VERTEX
  5
8EF
330
8EE
100
AcDbEntity
  8
BEMAßUNG
 62
     7
100
AcDbVertex
100
AcDb2dVertex
 10
174.1237385632399
 20
103.1857774264605
 30
0.0
  0
VERTEX
  5
8F0
330
8EE
100
AcDbEntity
  8
BEMAßUNG
 62
     7
100
AcDbVertex
100
AcDb2dVertex
 10
176.0802082893133
 20
103.1857774264605
 30
0.0
  0
SEQEND
  5
8F1
330
8EE
100
AcDbEntity
  8
BEMAßUNG
  0
POLYLINE
  5
8F2
330
1F
100
AcDbEntity
  8
BEMAßUNG
 62
     7
100
AcDb2dPolyline
 66
     1
 10
0.0
 20
0.0
 30
0.0
  0
VERTEX
  5
8F3
330
8F2
100
AcDbEntity
  8
BEMAßUNG
 62
     7
100
AcDbVertex
100
AcDb2dVertex
 10
174.1237385632399
 20
103.1346177585045
 30
0.0
  0
VERTEX
  5
8F4
330
8F2
100
AcDbEntity
  8
BEMAßUNG
 62
     7
100
AcDbVertex
100
AcDb2dVertex
 10
176.4657144741128
 20
103.1346177585045
 30
0.0
  0
SEQEND
  5
8F5
330
8F2
100
AcDbEntity
  8
BEMAßUNG
  0
POLYLINE
  5
8F6
330
1F
100
AcDbEntity
  8
BEMAßUNG
 62
     7
100
AcDb2dPolyline
 66
     1
 10
0.0
 20
0.0
 30
0.0
  0
VERTEX
  5
8F7
330
8F6
100
AcDbEntity
  8
BEMAßUNG
 62
     7
100
AcDbVertex
100
AcDb2dVertex
 10
174.1237385632399
 20
103.0838026000971
 30
0.0
  0
VERTEX
  5
8F8
330
8F6
100
AcDbEntity
  8
BEMAßUNG
 62
     7
100
AcDbVertex
100
AcDb2dVertex
 10
176.851737423235
 20
103.0838026000971
 30
0.0
  0
SEQEND
  5
8F9
330
8F6
100
AcDbEntity
  8
BEMAßUNG
  0
POLYLINE
  5
8FA
330
1F
100
AcDbEntity
  8
BEMAßUNG
 62
     7
100
AcDb2dPolyline
 66
     1
 10
0.0
 20
0.0
 30
0.0
  0
VERTEX
  5
8FB
330
8FA
100
AcDbEntity
  8
BEMAßUNG
 62
     7
100
AcDbVertex
100
AcDb2dVertex
 10
174.1237385632399
 20
103.0329874416897
 30
0.0
  0
VERTEX
  5
8FC
330
8FA
100
AcDbEntity
  8
BEMAßUNG
 62
     7
100
AcDbVertex
100
AcDb2dVertex
 10
177.2377603723572
 20
103.0329874416897
 30
0.0
  0
SEQEND
  5
8FD
330
8FA
100
AcDbEntity
  8
BEMAßUNG
  0
POLYLINE
  5
8FE
330
1F
100
AcDbEntity
  8
BEMAßUNG
 62
     7
100
AcDb2dPolyline
 66
     1
 10
0.0
 20
0.0
 30
0.0
  0
VERTEX
  5
8FF
330
8FE
100
AcDbEntity
  8
BEMAßUNG
 62
     7
100
AcDbVertex
100
AcDb2dVertex
 10
174.1237385632399
 20
102.9821722832822
 30
0.0
  0
VERTEX
  5
900
330
8FE
100
AcDbEntity
  8
BEMAßUNG
 62
     7
100
AcDbVertex
100
AcDb2dVertex
 10
177.6236110667052
 20
102.9821722832822
 30
0.0
  0
SEQEND
  5
901
330
8FE
100
AcDbEntity
  8
BEMAßUNG
  0
POLYLINE
  5
902
330
1F
100
AcDbEntity
  8
BEMAßUNG
 62
     7
100
AcDb2dPolyline
 66
     1
 10
0.0
 20
0.0
 30
0.0
  0
VERTEX
  5
903
330
902
100
AcDbEntity
  8
BEMAßUNG
 62
     7
100
AcDbVertex
100
AcDb2dVertex
 10
174.1237385632399
 20
102.5253526219381
 30
0.0
  0
VERTEX
  5
904
330
902
100
AcDbEntity
  8
BEMAßUNG
 62
     7
100
AcDbVertex
100
AcDb2dVertex
 10
174.1509548175734
 20
102.5253526219381
 30
0.0
  0
SEQEND
  5
905
330
902
100
AcDbEntity
  8
BEMAßUNG
  0
POLYLINE
  5
906
330
1F
100
AcDbEntity
  8
BEMAßUNG
 62
     7
100
AcDb2dPolyline
 66
     1
 10
0.0
 20
0.0
 30
0.0
  0
VERTEX
  5
907
330
906
100
AcDbEntity
  8
BEMAßUNG
 62
     7
100
AcDbVertex
100
AcDb2dVertex
 10
174.1237385632399
 20
102.5253526219381
 30
0.0
  0
VERTEX
  5
908
330
906
100
AcDbEntity
  8
BEMAßUNG
 62
     7
100
AcDbVertex
100
AcDb2dVertex
 10
174.1509548175734
 20
102.5253526219381
 30
0.0
  0
SEQEND
  5
909
330
906
100
AcDbEntity
  8
BEMAßUNG
  0
POLYLINE
  5
90A
330
1F
100
AcDbEntity
  8
BEMAßUNG
 62
     7
100
AcDb2dPolyline
 66
     1
 10
0.0
 20
0.0
 30
0.0
  0
VERTEX
  5
90B
330
90A
100
AcDbEntity
  8
BEMAßUNG
 62
     7
100
AcDbVertex
100
AcDb2dVertex
 10
174.1237385632399
 20
102.5761677803455
 30
0.0
  0
VERTEX
  5
90C
330
90A
100
AcDbEntity
  8
BEMAßUNG
 62
     7
100
AcDbVertex
100
AcDb2dVertex
 10
174.5368055119214
 20
102.5761677803455
 30
0.0
  0
SEQEND
  5
90D
330
90A
100
AcDbEntity
  8
BEMAßUNG
  0
POLYLINE
  5
90E
330
1F
100
AcDbEntity
  8
BEMAßUNG
 62
     7
100
AcDb2dPolyline
 66
     1
 10
0.0
 20
0.0
 30
0.0
  0
VERTEX
  5
90F
330
90E
100
AcDbEntity
  8
BEMAßUNG
 62
     7
100
AcDbVertex
100
AcDb2dVertex
 10
174.1237385632399
 20
102.6266384292045
 30
0.0
  0
VERTEX
  5
910
330
90E
100
AcDbEntity
  8
BEMAßUNG
 62
     7
100
AcDbVertex
100
AcDb2dVertex
 10
174.9223116967208
 20
102.6266384292045
 30
0.0
  0
SEQEND
  5
911
330
90E
100
AcDbEntity
  8
BEMAßUNG
  0
POLYLINE
  5
912
330
1F
100
AcDbEntity
  8
BEMAßUNG
 62
     7
100
AcDb2dPolyline
 66
     1
 10
0.0
 20
0.0
 30
0.0
  0
VERTEX
  5
913
330
912
100
AcDbEntity
  8
BEMAßUNG
 62
     7
100
AcDbVertex
100
AcDb2dVertex
 10
174.1237385632399
 20
102.6774535876119
 30
0.0
  0
VERTEX
  5
914
330
912
100
AcDbEntity
  8
BEMAßUNG
 62
     7
100
AcDbVertex
100
AcDb2dVertex
 10
175.3083346458431
 20
102.6774535876119
 30
0.0
  0
SEQEND
  5
915
330
912
100
AcDbEntity
  8
BEMAßUNG
  0
POLYLINE
  5
916
330
1F
100
AcDbEntity
  8
BEMAßUNG
 62
     7
100
AcDb2dPolyline
 66
     1
 10
0.0
 20
0.0
 30
0.0
  0
VERTEX
  5
917
330
916
100
AcDbEntity
  8
BEMAßUNG
 62
     7
100
AcDbVertex
100
AcDb2dVertex
 10
174.1237385632399
 20
102.7282687460193
 30
0.0
  0
VERTEX
  5
918
330
916
100
AcDbEntity
  8
BEMAßUNG
 62
     7
100
AcDbVertex
100
AcDb2dVertex
 10
175.6943575949653
 20
102.7282687460193
 30
0.0
  0
SEQEND
  5
919
330
916
100
AcDbEntity
  8
BEMAßUNG
  0
POLYLINE
  5
91A
330
1F
100
AcDbEntity
  8
BEMAßUNG
 62
     7
100
AcDb2dPolyline
 66
     1
 10
0.0
 20
0.0
 30
0.0
  0
VERTEX
  5
91B
330
91A
100
AcDbEntity
  8
BEMAßUNG
 62
     7
100
AcDbVertex
100
AcDb2dVertex
 10
174.1237385632399
 20
102.7789116496525
 30
0.0
  0
VERTEX
  5
91C
330
91A
100
AcDbEntity
  8
BEMAßUNG
 62
     7
100
AcDbVertex
100
AcDb2dVertex
 10
176.0802082893133
 20
102.7789116496525
 30
0.0
  0
SEQEND
  5
91D
330
91A
100
AcDbEntity
  8
BEMAßUNG
  0
POLYLINE
  5
91E
330
1F
100
AcDbEntity
  8
BEMAßUNG
 62
     7
100
AcDb2dPolyline
 66
     1
 10
0.0
 20
0.0
 30
0.0
  0
VERTEX
  5
91F
330
91E
100
AcDbEntity
  8
BEMAßUNG
 62
     7
100
AcDbVertex
100
AcDb2dVertex
 10
174.1237385632399
 20
102.8297268080599
 30
0.0
  0
VERTEX
  5
920
330
91E
100
AcDbEntity
  8
BEMAßUNG
 62
     7
100
AcDbVertex
100
AcDb2dVertex
 10
176.4657144741128
 20
102.8297268080599
 30
0.0
  0
SEQEND
  5
921
330
91E
100
AcDbEntity
  8
BEMAßUNG
  0
POLYLINE
  5
922
330
1F
100
AcDbEntity
  8
BEMAßUNG
 62
     7
100
AcDb2dPolyline
 66
     1
 10
0.0
 20
0.0
 30
0.0
  0
VERTEX
  5
923
330
922
100
AcDbEntity
  8
BEMAßUNG
 62
     7
100
AcDbVertex
100
AcDb2dVertex
 10
174.1237385632399
 20
102.8805419664674
 30
0.0
  0
VERTEX
  5
924
330
922
100
AcDbEntity
  8
BEMAßUNG
 62
     7
100
AcDbVertex
100
AcDb2dVertex
 10
176.851737423235
 20
102.8805419664674
 30
0.0
  0
SEQEND
  5
925
330
922
100
AcDbEntity
  8
BEMAßUNG
  0
POLYLINE
  5
926
330
1F
100
AcDbEntity
  8
BEMAßUNG
 62
     7
100
AcDb2dPolyline
 66
     1
 10
0.0
 20
0.0
 30
0.0
  0
VERTEX
  5
927
330
926
100
AcDbEntity
  8
BEMAßUNG
 62
     7
100
AcDbVertex
100
AcDb2dVertex
 10
174.1237385632399
 20
102.9313571248748
 30
0.0
  0
VERTEX
  5
928
330
926
100
AcDbEntity
  8
BEMAßUNG
 62
     7
100
AcDbVertex
100
AcDb2dVertex
 10
177.2377603723572
 20
102.9313571248748
 30
0.0
  0
SEQEND
  5
929
330
926
100
AcDbEntity
  8
BEMAßUNG
  0
POLYLINE
  5
92A
330
1F
100
AcDbEntity
  8
BEMAßUNG
 62
     7
100
AcDb2dPolyline
 66
     1
 10
0.0
 20
0.0
 30
0.0
  0
VERTEX
  5
92B
330
92A
100
AcDbEntity
  8
BEMAßUNG
 62
     7
100
AcDbVertex
100
AcDb2dVertex
 10
174.1237385632399
 20
102.9821722832822
 30
0.0
  0
VERTEX
  5
92C
330
92A
100
AcDbEntity
  8
BEMAßUNG
 62
     7
100
AcDbVertex
100
AcDb2dVertex
 10
177.6236110667052
 20
102.9821722832822
 30
0.0
  0
SEQEND
  5
92D
330
92A
100
AcDbEntity
  8
BEMAßUNG
  0
POLYLINE
  5
92E
330
1F
100
AcDbEntity
  8
BEMAßUNG
 62
     7
100
AcDb2dPolyline
 66
     1
 10
0.0
 20
0.0
 30
0.0
  0
VERTEX
  5
92F
330
92E
100
AcDbEntity
  8
BEMAßUNG
 62
     7
100
AcDbVertex
100
AcDb2dVertex
 10
240.5431124615656
 20
123.2327880551293
 30
0.0
  0
VERTEX
  5
930
330
92E
100
AcDbEntity
  8
BEMAßUNG
 62
     7
100
AcDbVertex
100
AcDb2dVertex
 10
252.6302299715647
 20
123.2327880551293
 30
0.0
  0
SEQEND
  5
931
330
92E
100
AcDbEntity
  8
BEMAßUNG
  0
POLYLINE
  5
932
330
1F
100
AcDbEntity
  8
BEMAßUNG
 62
     7
100
AcDb2dPolyline
 66
     1
 10
0.0
 20
0.0
 30
0.0
  0
VERTEX
  5
933
330
932
100
AcDbEntity
  8
BEMAßUNG
 62
     7
100
AcDbVertex
100
AcDb2dVertex
 10
240.5431124615656
 20
120.7325100067092
 30
0.0
  0
VERTEX
  5
934
330
932
100
AcDbEntity
  8
BEMAßUNG
 62
     7
100
AcDbVertex
100
AcDb2dVertex
 10
252.6302299715647
 20
120.7325100067092
 30
0.0
  0
SEQEND
  5
935
330
932
100
AcDbEntity
  8
BEMAßUNG
  0
POLYLINE
  5
936
330
1F
100
AcDbEntity
  8
BEMAßUNG
 62
     7
100
AcDb2dPolyline
 66
     1
 10
0.0
 20
0.0
 30
0.0
  0
VERTEX
  5
937
330
936
100
AcDbEntity
  8
BEMAßUNG
 62
     7
100
AcDbVertex
100
AcDb2dVertex
 10
250.6303520423772
 20
111.9826564932717
 30
0.0
  0
VERTEX
  5
938
330
936
100
AcDbEntity
  8
BEMAßUNG
 62
     7
100
AcDbVertex
100
AcDb2dVertex
 10
250.6303520423772
 20
133.0321899081482
 30
0.0
  0
SEQEND
  5
939
330
936
100
AcDbEntity
  8
BEMAßUNG
  0
POLYLINE
  5
93A
330
1F
100
AcDbEntity
  8
BEMAßUNG
 62
     7
100
AcDb2dPolyline
 66
     1
 10
0.0
 20
0.0
 30
0.0
  0
VERTEX
  5
93B
330
93A
100
AcDbEntity
  8
BEMAßUNG
 62
     7
100
AcDbVertex
100
AcDb2dVertex
 10
250.6303520423772
 20
123.2327880551293
 30
0.0
  0
VERTEX
  5
93C
330
93A
100
AcDbEntity
  8
BEMAßUNG
 62
     7
100
AcDbVertex
100
AcDb2dVertex
 10
251.0907890539808
 20
126.7323160490461
 30
0.0
  0
VERTEX
  5
93D
330
93A
100
AcDbEntity
  8
BEMAßUNG
 62
     7
100
AcDbVertex
100
AcDb2dVertex
 10
250.1697427759993
 20
126.7323160490461
 30
0.0
  0
VERTEX
  5
93E
330
93A
100
AcDbEntity
  8
BEMAßUNG
 62
     7
100
AcDbVertex
100
AcDb2dVertex
 10
250.6303520423772
 20
123.2327880551293
 30
0.0
  0
SEQEND
  5
93F
330
93A
100
AcDbEntity
  8
BEMAßUNG
  0
POLYLINE
  5
940
330
1F
100
AcDbEntity
  8
BEMAßUNG
 62
     7
100
AcDb2dPolyline
 66
     1
 10
0.0
 20
0.0
 30
0.0
  0
VERTEX
  5
941
330
940
100
AcDbEntity
  8
BEMAßUNG
 62
     7
100
AcDbVertex
100
AcDb2dVertex
 10
251.0871717037213
 20
126.7323160490461
 30
0.0
  0
VERTEX
  5
942
330
940
100
AcDbEntity
  8
BEMAßUNG
 62
     7
100
AcDbVertex
100
AcDb2dVertex
 10
251.0871717037213
 20
126.7050997947126
 30
0.0
  0
SEQEND
  5
943
330
940
100
AcDbEntity
  8
BEMAßUNG
  0
POLYLINE
  5
944
330
1F
100
AcDbEntity
  8
BEMAßUNG
 62
     7
100
AcDb2dPolyline
 66
     1
 10
0.0
 20
0.0
 30
0.0
  0
VERTEX
  5
945
330
944
100
AcDbEntity
  8
BEMAßUNG
 62
     7
100
AcDbVertex
100
AcDb2dVertex
 10
251.0871717037213
 20
126.7323160490461
 30
0.0
  0
VERTEX
  5
946
330
944
100
AcDbEntity
  8
BEMAßUNG
 62
     7
100
AcDbVertex
100
AcDb2dVertex
 10
251.0871717037213
 20
126.7050997947126
 30
0.0
  0
SEQEND
  5
947
330
944
100
AcDbEntity
  8
BEMAßUNG
  0
POLYLINE
  5
948
330
1F
100
AcDbEntity
  8
BEMAßUNG
 62
     7
100
AcDb2dPolyline
 66
     1
 10
0.0
 20
0.0
 30
0.0
  0
VERTEX
  5
949
330
948
100
AcDbEntity
  8
BEMAßUNG
 62
     7
100
AcDbVertex
100
AcDb2dVertex
 10
251.0365288000881
 20
126.7323160490461
 30
0.0
  0
VERTEX
  5
94A
330
948
100
AcDbEntity
  8
BEMAßUNG
 62
     7
100
AcDbVertex
100
AcDb2dVertex
 10
251.0365288000881
 20
126.3195936099132
 30
0.0
  0
SEQEND
  5
94B
330
948
100
AcDbEntity
  8
BEMAßUNG
  0
POLYLINE
  5
94C
330
1F
100
AcDbEntity
  8
BEMAßUNG
 62
     7
100
AcDb2dPolyline
 66
     1
 10
0.0
 20
0.0
 30
0.0
  0
VERTEX
  5
94D
330
94C
100
AcDbEntity
  8
BEMAßUNG
 62
     7
100
AcDbVertex
100
AcDb2dVertex
 10
250.9857136416807
 20
126.7323160490461
 30
0.0
  0
VERTEX
  5
94E
330
94C
100
AcDbEntity
  8
BEMAßUNG
 62
     7
100
AcDbVertex
100
AcDb2dVertex
 10
250.9857136416807
 20
125.9332261512424
 30
0.0
  0
SEQEND
  5
94F
330
94C
100
AcDbEntity
  8
BEMAßUNG
  0
POLYLINE
  5
950
330
1F
100
AcDbEntity
  8
BEMAßUNG
 62
     7
100
AcDb2dPolyline
 66
     1
 10
0.0
 20
0.0
 30
0.0
  0
VERTEX
  5
951
330
950
100
AcDbEntity
  8
BEMAßUNG
 62
     7
100
AcDbVertex
100
AcDb2dVertex
 10
250.9348984832732
 20
126.7323160490461
 30
0.0
  0
VERTEX
  5
952
330
950
100
AcDbEntity
  8
BEMAßUNG
 62
     7
100
AcDbVertex
100
AcDb2dVertex
 10
250.9348984832732
 20
125.5475477116687
 30
0.0
  0
SEQEND
  5
953
330
950
100
AcDbEntity
  8
BEMAßUNG
  0
POLYLINE
  5
954
330
1F
100
AcDbEntity
  8
BEMAßUNG
 62
     7
100
AcDb2dPolyline
 66
     1
 10
0.0
 20
0.0
 30
0.0
  0
VERTEX
  5
955
330
954
100
AcDbEntity
  8
BEMAßUNG
 62
     7
100
AcDbVertex
100
AcDb2dVertex
 10
250.8840833248658
 20
126.7323160490461
 30
0.0
  0
VERTEX
  5
956
330
954
100
AcDbEntity
  8
BEMAßUNG
 62
     7
100
AcDbVertex
100
AcDb2dVertex
 10
250.8840833248658
 20
125.1616970173207
 30
0.0
  0
SEQEND
  5
957
330
954
100
AcDbEntity
  8
BEMAßUNG
  0
POLYLINE
  5
958
330
1F
100
AcDbEntity
  8
BEMAßUNG
 62
     7
100
AcDb2dPolyline
 66
     1
 10
0.0
 20
0.0
 30
0.0
  0
VERTEX
  5
959
330
958
100
AcDbEntity
  8
BEMAßUNG
 62
     7
100
AcDbVertex
100
AcDb2dVertex
 10
250.8332681664584
 20
126.7323160490461
 30
0.0
  0
VERTEX
  5
95A
330
958
100
AcDbEntity
  8
BEMAßUNG
 62
     7
100
AcDbVertex
100
AcDb2dVertex
 10
250.8332681664584
 20
124.7761908325212
 30
0.0
  0
SEQEND
  5
95B
330
958
100
AcDbEntity
  8
BEMAßUNG
  0
POLYLINE
  5
95C
330
1F
100
AcDbEntity
  8
BEMAßUNG
 62
     7
100
AcDb2dPolyline
 66
     1
 10
0.0
 20
0.0
 30
0.0
  0
VERTEX
  5
95D
330
95C
100
AcDbEntity
  8
BEMAßUNG
 62
     7
100
AcDbVertex
100
AcDb2dVertex
 10
250.7824530080509
 20
126.7323160490461
 30
0.0
  0
VERTEX
  5
95E
330
95C
100
AcDbEntity
  8
BEMAßUNG
 62
     7
100
AcDbVertex
100
AcDb2dVertex
 10
250.7824530080509
 20
124.3898233738505
 30
0.0
  0
SEQEND
  5
95F
330
95C
100
AcDbEntity
  8
BEMAßUNG
  0
POLYLINE
  5
960
330
1F
100
AcDbEntity
  8
BEMAßUNG
 62
     7
100
AcDb2dPolyline
 66
     1
 10
0.0
 20
0.0
 30
0.0
  0
VERTEX
  5
961
330
960
100
AcDbEntity
  8
BEMAßUNG
 62
     7
100
AcDbVertex
100
AcDb2dVertex
 10
250.7316378496435
 20
126.7323160490461
 30
0.0
  0
VERTEX
  5
962
330
960
100
AcDbEntity
  8
BEMAßUNG
 62
     7
100
AcDbVertex
100
AcDb2dVertex
 10
250.7316378496435
 20
124.0041449342768
 30
0.0
  0
SEQEND
  5
963
330
960
100
AcDbEntity
  8
BEMAßUNG
  0
POLYLINE
  5
964
330
1F
100
AcDbEntity
  8
BEMAßUNG
 62
     7
100
AcDb2dPolyline
 66
     1
 10
0.0
 20
0.0
 30
0.0
  0
VERTEX
  5
965
330
964
100
AcDbEntity
  8
BEMAßUNG
 62
     7
100
AcDbVertex
100
AcDb2dVertex
 10
250.680822691236
 20
126.7323160490461
 30
0.0
  0
VERTEX
  5
966
330
964
100
AcDbEntity
  8
BEMAßUNG
 62
     7
100
AcDbVertex
100
AcDb2dVertex
 10
250.680822691236
 20
123.6179497303802
 30
0.0
  0
SEQEND
  5
967
330
964
100
AcDbEntity
  8
BEMAßUNG
  0
POLYLINE
  5
968
330
1F
100
AcDbEntity
  8
BEMAßUNG
 62
     7
100
AcDb2dPolyline
 66
     1
 10
0.0
 20
0.0
 30
0.0
  0
VERTEX
  5
969
330
968
100
AcDbEntity
  8
BEMAßUNG
 62
     7
100
AcDbVertex
100
AcDb2dVertex
 10
250.6303520423772
 20
126.7323160490461
 30
0.0
  0
VERTEX
  5
96A
330
968
100
AcDbEntity
  8
BEMAßUNG
 62
     7
100
AcDbVertex
100
AcDb2dVertex
 10
250.6303520423772
 20
123.2327880551293
 30
0.0
  0
SEQEND
  5
96B
330
968
100
AcDbEntity
  8
BEMAßUNG
  0
POLYLINE
  5
96C
330
1F
100
AcDbEntity
  8
BEMAßUNG
 62
     7
100
AcDb2dPolyline
 66
     1
 10
0.0
 20
0.0
 30
0.0
  0
VERTEX
  5
96D
330
96C
100
AcDbEntity
  8
BEMAßUNG
 62
     7
100
AcDbVertex
100
AcDb2dVertex
 10
250.1731878714845
 20
126.7323160490461
 30
0.0
  0
VERTEX
  5
96E
330
96C
100
AcDbEntity
  8
BEMAßUNG
 62
     7
100
AcDbVertex
100
AcDb2dVertex
 10
250.1731878714845
 20
126.7050997947126
 30
0.0
  0
SEQEND
  5
96F
330
96C
100
AcDbEntity
  8
BEMAßUNG
  0
POLYLINE
  5
970
330
1F
100
AcDbEntity
  8
BEMAßUNG
 62
     7
100
AcDb2dPolyline
 66
     1
 10
0.0
 20
0.0
 30
0.0
  0
VERTEX
  5
971
330
970
100
AcDbEntity
  8
BEMAßUNG
 62
     7
100
AcDbVertex
100
AcDb2dVertex
 10
250.1731878714845
 20
126.7323160490461
 30
0.0
  0
VERTEX
  5
972
330
970
100
AcDbEntity
  8
BEMAßUNG
 62
     7
100
AcDbVertex
100
AcDb2dVertex
 10
250.1731878714845
 20
126.7050997947126
 30
0.0
  0
SEQEND
  5
973
330
970
100
AcDbEntity
  8
BEMAßUNG
  0
POLYLINE
  5
974
330
1F
100
AcDbEntity
  8
BEMAßUNG
 62
     7
100
AcDb2dPolyline
 66
     1
 10
0.0
 20
0.0
 30
0.0
  0
VERTEX
  5
975
330
974
100
AcDbEntity
  8
BEMAßUNG
 62
     7
100
AcDbVertex
100
AcDb2dVertex
 10
250.2240030298919
 20
126.7323160490461
 30
0.0
  0
VERTEX
  5
976
330
974
100
AcDbEntity
  8
BEMAßUNG
 62
     7
100
AcDbVertex
100
AcDb2dVertex
 10
250.2240030298919
 20
126.3195936099132
 30
0.0
  0
SEQEND
  5
977
330
974
100
AcDbEntity
  8
BEMAßUNG
  0
POLYLINE
  5
978
330
1F
100
AcDbEntity
  8
BEMAßUNG
 62
     7
100
AcDb2dPolyline
 66
     1
 10
0.0
 20
0.0
 30
0.0
  0
VERTEX
  5
979
330
978
100
AcDbEntity
  8
BEMAßUNG
 62
     7
100
AcDbVertex
100
AcDb2dVertex
 10
250.2748181882993
 20
126.7323160490461
 30
0.0
  0
VERTEX
  5
97A
330
978
100
AcDbEntity
  8
BEMAßUNG
 62
     7
100
AcDbVertex
100
AcDb2dVertex
 10
250.2748181882993
 20
125.9332261512424
 30
0.0
  0
SEQEND
  5
97B
330
978
100
AcDbEntity
  8
BEMAßUNG
  0
POLYLINE
  5
97C
330
1F
100
AcDbEntity
  8
BEMAßUNG
 62
     7
100
AcDb2dPolyline
 66
     1
 10
0.0
 20
0.0
 30
0.0
  0
VERTEX
  5
97D
330
97C
100
AcDbEntity
  8
BEMAßUNG
 62
     7
100
AcDbVertex
100
AcDb2dVertex
 10
250.3256333467068
 20
126.7323160490461
 30
0.0
  0
VERTEX
  5
97E
330
97C
100
AcDbEntity
  8
BEMAßUNG
 62
     7
100
AcDbVertex
100
AcDb2dVertex
 10
250.3256333467068
 20
125.5475477116687
 30
0.0
  0
SEQEND
  5
97F
330
97C
100
AcDbEntity
  8
BEMAßUNG
  0
POLYLINE
  5
980
330
1F
100
AcDbEntity
  8
BEMAßUNG
 62
     7
100
AcDb2dPolyline
 66
     1
 10
0.0
 20
0.0
 30
0.0
  0
VERTEX
  5
981
330
980
100
AcDbEntity
  8
BEMAßUNG
 62
     7
100
AcDbVertex
100
AcDb2dVertex
 10
250.3764485051142
 20
126.7323160490461
 30
0.0
  0
VERTEX
  5
982
330
980
100
AcDbEntity
  8
BEMAßUNG
 62
     7
100
AcDbVertex
100
AcDb2dVertex
 10
250.3764485051142
 20
125.1616970173207
 30
0.0
  0
SEQEND
  5
983
330
980
100
AcDbEntity
  8
BEMAßUNG
  0
POLYLINE
  5
984
330
1F
100
AcDbEntity
  8
BEMAßUNG
 62
     7
100
AcDb2dPolyline
 66
     1
 10
0.0
 20
0.0
 30
0.0
  0
VERTEX
  5
985
330
984
100
AcDbEntity
  8
BEMAßUNG
 62
     7
100
AcDbVertex
100
AcDb2dVertex
 10
250.4272636635217
 20
126.7323160490461
 30
0.0
  0
VERTEX
  5
986
330
984
100
AcDbEntity
  8
BEMAßUNG
 62
     7
100
AcDbVertex
100
AcDb2dVertex
 10
250.4272636635217
 20
124.7761908325212
 30
0.0
  0
SEQEND
  5
987
330
984
100
AcDbEntity
  8
BEMAßUNG
  0
POLYLINE
  5
988
330
1F
100
AcDbEntity
  8
BEMAßUNG
 62
     7
100
AcDb2dPolyline
 66
     1
 10
0.0
 20
0.0
 30
0.0
  0
VERTEX
  5
989
330
988
100
AcDbEntity
  8
BEMAßUNG
 62
     7
100
AcDbVertex
100
AcDb2dVertex
 10
250.4780788219291
 20
126.7323160490461
 30
0.0
  0
VERTEX
  5
98A
330
988
100
AcDbEntity
  8
BEMAßUNG
 62
     7
100
AcDbVertex
100
AcDb2dVertex
 10
250.4780788219291
 20
124.3898233738505
 30
0.0
  0
SEQEND
  5
98B
330
988
100
AcDbEntity
  8
BEMAßUNG
  0
POLYLINE
  5
98C
330
1F
100
AcDbEntity
  8
BEMAßUNG
 62
     7
100
AcDb2dPolyline
 66
     1
 10
0.0
 20
0.0
 30
0.0
  0
VERTEX
  5
98D
330
98C
100
AcDbEntity
  8
BEMAßUNG
 62
     7
100
AcDbVertex
100
AcDb2dVertex
 10
250.5287217255623
 20
126.7323160490461
 30
0.0
  0
VERTEX
  5
98E
330
98C
100
AcDbEntity
  8
BEMAßUNG
 62
     7
100
AcDbVertex
100
AcDb2dVertex
 10
250.5287217255623
 20
124.0041449342768
 30
0.0
  0
SEQEND
  5
98F
330
98C
100
AcDbEntity
  8
BEMAßUNG
  0
POLYLINE
  5
990
330
1F
100
AcDbEntity
  8
BEMAßUNG
 62
     7
100
AcDb2dPolyline
 66
     1
 10
0.0
 20
0.0
 30
0.0
  0
VERTEX
  5
991
330
990
100
AcDbEntity
  8
BEMAßUNG
 62
     7
100
AcDbVertex
100
AcDb2dVertex
 10
250.5795368839697
 20
126.7323160490461
 30
0.0
  0
VERTEX
  5
992
330
990
100
AcDbEntity
  8
BEMAßUNG
 62
     7
100
AcDbVertex
100
AcDb2dVertex
 10
250.5795368839697
 20
123.6179497303802
 30
0.0
  0
SEQEND
  5
993
330
990
100
AcDbEntity
  8
BEMAßUNG
  0
POLYLINE
  5
994
330
1F
100
AcDbEntity
  8
BEMAßUNG
 62
     7
100
AcDb2dPolyline
 66
     1
 10
0.0
 20
0.0
 30
0.0
  0
VERTEX
  5
995
330
994
100
AcDbEntity
  8
BEMAßUNG
 62
     7
100
AcDbVertex
100
AcDb2dVertex
 10
250.6303520423772
 20
126.7323160490461
 30
0.0
  0
VERTEX
  5
996
330
994
100
AcDbEntity
  8
BEMAßUNG
 62
     7
100
AcDbVertex
100
AcDb2dVertex
 10
250.6303520423772
 20
123.2327880551293
 30
0.0
  0
SEQEND
  5
997
330
994
100
AcDbEntity
  8
BEMAßUNG
  0
POLYLINE
  5
998
330
1F
100
AcDbEntity
  8
BEMAßUNG
 62
     7
100
AcDb2dPolyline
 66
     1
 10
0.0
 20
0.0
 30
0.0
  0
VERTEX
  5
999
330
998
100
AcDbEntity
  8
BEMAßUNG
 62
     7
100
AcDbVertex
100
AcDb2dVertex
 10
250.6303520423772
 20
120.7325100067092
 30
0.0
  0
VERTEX
  5
99A
330
998
100
AcDbEntity
  8
BEMAßUNG
 62
     7
100
AcDbVertex
100
AcDb2dVertex
 10
250.1697427759993
 20
117.2322929936954
 30
0.0
  0
VERTEX
  5
99B
330
998
100
AcDbEntity
  8
BEMAßUNG
 62
     7
100
AcDbVertex
100
AcDb2dVertex
 10
251.0907890539808
 20
117.2322929936954
 30
0.0
  0
VERTEX
  5
99C
330
998
100
AcDbEntity
  8
BEMAßUNG
 62
     7
100
AcDbVertex
100
AcDb2dVertex
 10
250.6303520423772
 20
120.7325100067092
 30
0.0
  0
SEQEND
  5
99D
330
998
100
AcDbEntity
  8
BEMAßUNG
  0
POLYLINE
  5
99E
330
1F
100
AcDbEntity
  8
BEMAßUNG
 62
     7
100
AcDb2dPolyline
 66
     1
 10
0.0
 20
0.0
 30
0.0
  0
VERTEX
  5
99F
330
99E
100
AcDbEntity
  8
BEMAßUNG
 62
     7
100
AcDbVertex
100
AcDb2dVertex
 10
250.1731878714845
 20
117.2322929936954
 30
0.0
  0
VERTEX
  5
9A0
330
99E
100
AcDbEntity
  8
BEMAßUNG
 62
     7
100
AcDbVertex
100
AcDb2dVertex
 10
250.1731878714845
 20
117.2595092480289
 30
0.0
  0
SEQEND
  5
9A1
330
99E
100
AcDbEntity
  8
BEMAßUNG
  0
POLYLINE
  5
9A2
330
1F
100
AcDbEntity
  8
BEMAßUNG
 62
     7
100
AcDb2dPolyline
 66
     1
 10
0.0
 20
0.0
 30
0.0
  0
VERTEX
  5
9A3
330
9A2
100
AcDbEntity
  8
BEMAßUNG
 62
     7
100
AcDbVertex
100
AcDb2dVertex
 10
250.1731878714845
 20
117.2322929936954
 30
0.0
  0
VERTEX
  5
9A4
330
9A2
100
AcDbEntity
  8
BEMAßUNG
 62
     7
100
AcDbVertex
100
AcDb2dVertex
 10
250.1731878714845
 20
117.2595092480289
 30
0.0
  0
SEQEND
  5
9A5
330
9A2
100
AcDbEntity
  8
BEMAßUNG
  0
POLYLINE
  5
9A6
330
1F
100
AcDbEntity
  8
BEMAßUNG
 62
     7
100
AcDb2dPolyline
 66
     1
 10
0.0
 20
0.0
 30
0.0
  0
VERTEX
  5
9A7
330
9A6
100
AcDbEntity
  8
BEMAßUNG
 62
     7
100
AcDbVertex
100
AcDb2dVertex
 10
250.2240030298919
 20
117.2322929936954
 30
0.0
  0
VERTEX
  5
9A8
330
9A6
100
AcDbEntity
  8
BEMAßUNG
 62
     7
100
AcDbVertex
100
AcDb2dVertex
 10
250.2240030298919
 20
117.6457044519254
 30
0.0
  0
SEQEND
  5
9A9
330
9A6
100
AcDbEntity
  8
BEMAßUNG
  0
POLYLINE
  5
9AA
330
1F
100
AcDbEntity
  8
BEMAßUNG
 62
     7
100
AcDb2dPolyline
 66
     1
 10
0.0
 20
0.0
 30
0.0
  0
VERTEX
  5
9AB
330
9AA
100
AcDbEntity
  8
BEMAßUNG
 62
     7
100
AcDbVertex
100
AcDb2dVertex
 10
250.2748181882993
 20
117.2322929936954
 30
0.0
  0
VERTEX
  5
9AC
330
9AA
100
AcDbEntity
  8
BEMAßUNG
 62
     7
100
AcDbVertex
100
AcDb2dVertex
 10
250.2748181882993
 20
118.0313828914991
 30
0.0
  0
SEQEND
  5
9AD
330
9AA
100
AcDbEntity
  8
BEMAßUNG
  0
POLYLINE
  5
9AE
330
1F
100
AcDbEntity
  8
BEMAßUNG
 62
     7
100
AcDb2dPolyline
 66
     1
 10
0.0
 20
0.0
 30
0.0
  0
VERTEX
  5
9AF
330
9AE
100
AcDbEntity
  8
BEMAßUNG
 62
     7
100
AcDbVertex
100
AcDb2dVertex
 10
250.3256333467068
 20
117.2322929936954
 30
0.0
  0
VERTEX
  5
9B0
330
9AE
100
AcDbEntity
  8
BEMAßUNG
 62
     7
100
AcDbVertex
100
AcDb2dVertex
 10
250.3256333467068
 20
118.4172335858471
 30
0.0
  0
SEQEND
  5
9B1
330
9AE
100
AcDbEntity
  8
BEMAßUNG
  0
POLYLINE
  5
9B2
330
1F
100
AcDbEntity
  8
BEMAßUNG
 62
     7
100
AcDb2dPolyline
 66
     1
 10
0.0
 20
0.0
 30
0.0
  0
VERTEX
  5
9B3
330
9B2
100
AcDbEntity
  8
BEMAßUNG
 62
     7
100
AcDbVertex
100
AcDb2dVertex
 10
250.3764485051142
 20
117.2322929936954
 30
0.0
  0
VERTEX
  5
9B4
330
9B2
100
AcDbEntity
  8
BEMAßUNG
 62
     7
100
AcDbVertex
100
AcDb2dVertex
 10
250.3764485051142
 20
118.8029120254208
 30
0.0
  0
SEQEND
  5
9B5
330
9B2
100
AcDbEntity
  8
BEMAßUNG
  0
POLYLINE
  5
9B6
330
1F
100
AcDbEntity
  8
BEMAßUNG
 62
     7
100
AcDb2dPolyline
 66
     1
 10
0.0
 20
0.0
 30
0.0
  0
VERTEX
  5
9B7
330
9B6
100
AcDbEntity
  8
BEMAßUNG
 62
     7
100
AcDbVertex
100
AcDb2dVertex
 10
250.4272636635217
 20
117.2322929936954
 30
0.0
  0
VERTEX
  5
9B8
330
9B6
100
AcDbEntity
  8
BEMAßUNG
 62
     7
100
AcDbVertex
100
AcDb2dVertex
 10
250.4272636635217
 20
119.1891072293173
 30
0.0
  0
SEQEND
  5
9B9
330
9B6
100
AcDbEntity
  8
BEMAßUNG
  0
POLYLINE
  5
9BA
330
1F
100
AcDbEntity
  8
BEMAßUNG
 62
     7
100
AcDb2dPolyline
 66
     1
 10
0.0
 20
0.0
 30
0.0
  0
VERTEX
  5
9BB
330
9BA
100
AcDbEntity
  8
BEMAßUNG
 62
     7
100
AcDbVertex
100
AcDb2dVertex
 10
250.4780788219291
 20
117.2322929936954
 30
0.0
  0
VERTEX
  5
9BC
330
9BA
100
AcDbEntity
  8
BEMAßUNG
 62
     7
100
AcDbVertex
100
AcDb2dVertex
 10
250.4780788219291
 20
119.574785668891
 30
0.0
  0
SEQEND
  5
9BD
330
9BA
100
AcDbEntity
  8
BEMAßUNG
  0
POLYLINE
  5
9BE
330
1F
100
AcDbEntity
  8
BEMAßUNG
 62
     7
100
AcDb2dPolyline
 66
     1
 10
0.0
 20
0.0
 30
0.0
  0
VERTEX
  5
9BF
330
9BE
100
AcDbEntity
  8
BEMAßUNG
 62
     7
100
AcDbVertex
100
AcDb2dVertex
 10
250.5287217255623
 20
117.2322929936954
 30
0.0
  0
VERTEX
  5
9C0
330
9BE
100
AcDbEntity
  8
BEMAßUNG
 62
     7
100
AcDbVertex
100
AcDb2dVertex
 10
250.5287217255623
 20
119.9609808727875
 30
0.0
  0
SEQEND
  5
9C1
330
9BE
100
AcDbEntity
  8
BEMAßUNG
  0
POLYLINE
  5
9C2
330
1F
100
AcDbEntity
  8
BEMAßUNG
 62
     7
100
AcDb2dPolyline
 66
     1
 10
0.0
 20
0.0
 30
0.0
  0
VERTEX
  5
9C3
330
9C2
100
AcDbEntity
  8
BEMAßUNG
 62
     7
100
AcDbVertex
100
AcDb2dVertex
 10
250.5795368839697
 20
117.2322929936954
 30
0.0
  0
VERTEX
  5
9C4
330
9C2
100
AcDbEntity
  8
BEMAßUNG
 62
     7
100
AcDbVertex
100
AcDb2dVertex
 10
250.5795368839697
 20
120.3463148028127
 30
0.0
  0
SEQEND
  5
9C5
330
9C2
100
AcDbEntity
  8
BEMAßUNG
  0
POLYLINE
  5
9C6
330
1F
100
AcDbEntity
  8
BEMAßUNG
 62
     7
100
AcDb2dPolyline
 66
     1
 10
0.0
 20
0.0
 30
0.0
  0
VERTEX
  5
9C7
330
9C6
100
AcDbEntity
  8
BEMAßUNG
 62
     7
100
AcDbVertex
100
AcDb2dVertex
 10
250.6303520423772
 20
117.2322929936954
 30
0.0
  0
VERTEX
  5
9C8
330
9C6
100
AcDbEntity
  8
BEMAßUNG
 62
     7
100
AcDbVertex
100
AcDb2dVertex
 10
250.6303520423772
 20
120.7325100067092
 30
0.0
  0
SEQEND
  5
9C9
330
9C6
100
AcDbEntity
  8
BEMAßUNG
  0
POLYLINE
  5
9CA
330
1F
100
AcDbEntity
  8
BEMAßUNG
 62
     7
100
AcDb2dPolyline
 66
     1
 10
0.0
 20
0.0
 30
0.0
  0
VERTEX
  5
9CB
330
9CA
100
AcDbEntity
  8
BEMAßUNG
 62
     7
100
AcDbVertex
100
AcDb2dVertex
 10
251.0871717037213
 20
117.2322929936954
 30
0.0
  0
VERTEX
  5
9CC
330
9CA
100
AcDbEntity
  8
BEMAßUNG
 62
     7
100
AcDbVertex
100
AcDb2dVertex
 10
251.0871717037213
 20
117.2595092480289
 30
0.0
  0
SEQEND
  5
9CD
330
9CA
100
AcDbEntity
  8
BEMAßUNG
  0
POLYLINE
  5
9CE
330
1F
100
AcDbEntity
  8
BEMAßUNG
 62
     7
100
AcDb2dPolyline
 66
     1
 10
0.0
 20
0.0
 30
0.0
  0
VERTEX
  5
9CF
330
9CE
100
AcDbEntity
  8
BEMAßUNG
 62
     7
100
AcDbVertex
100
AcDb2dVertex
 10
251.0871717037213
 20
117.2322929936954
 30
0.0
  0
VERTEX
  5
9D0
330
9CE
100
AcDbEntity
  8
BEMAßUNG
 62
     7
100
AcDbVertex
100
AcDb2dVertex
 10
251.0871717037213
 20
117.2595092480289
 30
0.0
  0
SEQEND
  5
9D1
330
9CE
100
AcDbEntity
  8
BEMAßUNG
  0
POLYLINE
  5
9D2
330
1F
100
AcDbEntity
  8
BEMAßUNG
 62
     7
100
AcDb2dPolyline
 66
     1
 10
0.0
 20
0.0
 30
0.0
  0
VERTEX
  5
9D3
330
9D2
100
AcDbEntity
  8
BEMAßUNG
 62
     7
100
AcDbVertex
100
AcDb2dVertex
 10
251.0365288000881
 20
117.2322929936954
 30
0.0
  0
VERTEX
  5
9D4
330
9D2
100
AcDbEntity
  8
BEMAßUNG
 62
     7
100
AcDbVertex
100
AcDb2dVertex
 10
251.0365288000881
 20
117.6457044519254
 30
0.0
  0
SEQEND
  5
9D5
330
9D2
100
AcDbEntity
  8
BEMAßUNG
  0
POLYLINE
  5
9D6
330
1F
100
AcDbEntity
  8
BEMAßUNG
 62
     7
100
AcDb2dPolyline
 66
     1
 10
0.0
 20
0.0
 30
0.0
  0
VERTEX
  5
9D7
330
9D6
100
AcDbEntity
  8
BEMAßUNG
 62
     7
100
AcDbVertex
100
AcDb2dVertex
 10
250.9857136416807
 20
117.2322929936954
 30
0.0
  0
VERTEX
  5
9D8
330
9D6
100
AcDbEntity
  8
BEMAßUNG
 62
     7
100
AcDbVertex
100
AcDb2dVertex
 10
250.9857136416807
 20
118.0313828914991
 30
0.0
  0
SEQEND
  5
9D9
330
9D6
100
AcDbEntity
  8
BEMAßUNG
  0
POLYLINE
  5
9DA
330
1F
100
AcDbEntity
  8
BEMAßUNG
 62
     7
100
AcDb2dPolyline
 66
     1
 10
0.0
 20
0.0
 30
0.0
  0
VERTEX
  5
9DB
330
9DA
100
AcDbEntity
  8
BEMAßUNG
 62
     7
100
AcDbVertex
100
AcDb2dVertex
 10
250.9348984832732
 20
117.2322929936954
 30
0.0
  0
VERTEX
  5
9DC
330
9DA
100
AcDbEntity
  8
BEMAßUNG
 62
     7
100
AcDbVertex
100
AcDb2dVertex
 10
250.9348984832732
 20
118.4172335858471
 30
0.0
  0
SEQEND
  5
9DD
330
9DA
100
AcDbEntity
  8
BEMAßUNG
  0
POLYLINE
  5
9DE
330
1F
100
AcDbEntity
  8
BEMAßUNG
 62
     7
100
AcDb2dPolyline
 66
     1
 10
0.0
 20
0.0
 30
0.0
  0
VERTEX
  5
9DF
330
9DE
100
AcDbEntity
  8
BEMAßUNG
 62
     7
100
AcDbVertex
100
AcDb2dVertex
 10
250.8840833248658
 20
117.2322929936954
 30
0.0
  0
VERTEX
  5
9E0
330
9DE
100
AcDbEntity
  8
BEMAßUNG
 62
     7
100
AcDbVertex
100
AcDb2dVertex
 10
250.8840833248658
 20
118.8029120254208
 30
0.0
  0
SEQEND
  5
9E1
330
9DE
100
AcDbEntity
  8
BEMAßUNG
  0
POLYLINE
  5
9E2
330
1F
100
AcDbEntity
  8
BEMAßUNG
 62
     7
100
AcDb2dPolyline
 66
     1
 10
0.0
 20
0.0
 30
0.0
  0
VERTEX
  5
9E3
330
9E2
100
AcDbEntity
  8
BEMAßUNG
 62
     7
100
AcDbVertex
100
AcDb2dVertex
 10
250.8332681664584
 20
117.2322929936954
 30
0.0
  0
VERTEX
  5
9E4
330
9E2
100
AcDbEntity
  8
BEMAßUNG
 62
     7
100
AcDbVertex
100
AcDb2dVertex
 10
250.8332681664584
 20
119.1891072293173
 30
0.0
  0
SEQEND
  5
9E5
330
9E2
100
AcDbEntity
  8
BEMAßUNG
  0
POLYLINE
  5
9E6
330
1F
100
AcDbEntity
  8
BEMAßUNG
 62
     7
100
AcDb2dPolyline
 66
     1
 10
0.0
 20
0.0
 30
0.0
  0
VERTEX
  5
9E7
330
9E6
100
AcDbEntity
  8
BEMAßUNG
 62
     7
100
AcDbVertex
100
AcDb2dVertex
 10
250.7824530080509
 20
117.2322929936954
 30
0.0
  0
VERTEX
  5
9E8
330
9E6
100
AcDbEntity
  8
BEMAßUNG
 62
     7
100
AcDbVertex
100
AcDb2dVertex
 10
250.7824530080509
 20
119.574785668891
 30
0.0
  0
SEQEND
  5
9E9
330
9E6
100
AcDbEntity
  8
BEMAßUNG
  0
POLYLINE
  5
9EA
330
1F
100
AcDbEntity
  8
BEMAßUNG
 62
     7
100
AcDb2dPolyline
 66
     1
 10
0.0
 20
0.0
 30
0.0
  0
VERTEX
  5
9EB
330
9EA
100
AcDbEntity
  8
BEMAßUNG
 62
     7
100
AcDbVertex
100
AcDb2dVertex
 10
250.7316378496435
 20
117.2322929936954
 30
0.0
  0
VERTEX
  5
9EC
330
9EA
100
AcDbEntity
  8
BEMAßUNG
 62
     7
100
AcDbVertex
100
AcDb2dVertex
 10
250.7316378496435
 20
119.9609808727875
 30
0.0
  0
SEQEND
  5
9ED
330
9EA
100
AcDbEntity
  8
BEMAßUNG
  0
POLYLINE
  5
9EE
330
1F
100
AcDbEntity
  8
BEMAßUNG
 62
     7
100
AcDb2dPolyline
 66
     1
 10
0.0
 20
0.0
 30
0.0
  0
VERTEX
  5
9EF
330
9EE
100
AcDbEntity
  8
BEMAßUNG
 62
     7
100
AcDbVertex
100
AcDb2dVertex
 10
250.680822691236
 20
117.2322929936954
 30
0.0
  0
VERTEX
  5
9F0
330
9EE
100
AcDbEntity
  8
BEMAßUNG
 62
     7
100
AcDbVertex
100
AcDb2dVertex
 10
250.680822691236
 20
120.3463148028127
 30
0.0
  0
SEQEND
  5
9F1
330
9EE
100
AcDbEntity
  8
BEMAßUNG
  0
POLYLINE
  5
9F2
330
1F
100
AcDbEntity
  8
BEMAßUNG
 62
     7
100
AcDb2dPolyline
 66
     1
 10
0.0
 20
0.0
 30
0.0
  0
VERTEX
  5
9F3
330
9F2
100
AcDbEntity
  8
BEMAßUNG
 62
     7
100
AcDbVertex
100
AcDb2dVertex
 10
250.6303520423772
 20
117.2322929936954
 30
0.0
  0
VERTEX
  5
9F4
330
9F2
100
AcDbEntity
  8
BEMAßUNG
 62
     7
100
AcDbVertex
100
AcDb2dVertex
 10
250.6303520423772
 20
120.7325100067092
 30
0.0
  0
SEQEND
  5
9F5
330
9F2
100
AcDbEntity
  8
BEMAßUNG
  0
MTEXT
  5
9F7
330
1F
100
AcDbEntity
  8
TEXT
 62
     7
100
AcDbMText
 10
130.3382974934571
 20
117.6386420061806
 30
0.0
 40
3.311186211711877
 41
0.0
 71
     7
 72
     1
  1
\fINDEX Univers 45 Light|b0|i0|c0|p34;\W1;M18
 11
-4.371139000186241E-8
 21
0.999999999999999
 31
0.0
  0
MTEXT
  5
9F8
330
1F
100
AcDbEntity
  8
TEXT
 62
     7
100
AcDbMText
 10
194.9925767199151
 20
140.507185837269
 30
0.0
 40
3.311186211711877
 41
0.0
 71
     7
 72
     1
  1
\fINDEX Univers 45 Light|b0|i0|c0|p34;\W1;ø12
 11
-4.371139000186241E-8
 21
0.999999999999999
 31
0.0
  0
MTEXT
  5
9F9
330
1F
100
AcDbEntity
  8
TEXT
 62
     7
100
AcDbMText
 10
156.0249294314799
 20
94.73771427753086
 30
0.0
 40
3.311186211711877
 41
0.0
 71
     7
 72
     1
  1
\fINDEX Univers 45 Light|b0|i0|c0|p34;\W1;36,5
  0
MTEXT
  5
9FA
330
1F
100
AcDbEntity
  8
TEXT
 62
     7
100
AcDbMText
 10
165.913042493244
 20
104.7379651973398
 30
0.0
 40
3.311186211711877
 41
0.0
 71
     7
 72
     1
  1
\fINDEX Univers 45 Light|b0|i0|c0|p34;\W1;20
  0
MTEXT
  5
9FB
330
1F
100
AcDbEntity
  8
TEXT
 62
     7
100
AcDbMText
 10
248.8750758926423
 20
128.5191148224709
 30
0.0
 40
3.311186211711877
 41
0.0
 71
     7
 72
     1
  1
\fINDEX Univers 45 Light|b0|i0|c0|p34;\W1;2,5
 11
-4.371139000186241E-8
 21
0.999999999999999
 31
0.0
  0
ENDSEC
  0
SECTION
  2
OBJECTS
  0
DICTIONARY
  5
C
330
0
100
AcDbDictionary
  3
ACAD_GROUP
350
D
  3
ACAD_LAYOUT
350
1A
  3
ACAD_MLINESTYLE
350
17
  3
ACAD_PLOTSETTINGS
350
19
  3
ACAD_TABLESTYLE
350
A1C
  3
ACAD_VISUALSTYLE
350
2A
  3
ACDBHEADERROUNDTRIPXREC
350
9FC
  0
DICTIONARY
  5
D
102
{ACAD_REACTORS
330
C
102
}
330
C
100
AcDbDictionary
  0
DICTIONARY
  5
1A
102
{ACAD_REACTORS
330
C
102
}
330
C
100
AcDbDictionary
  0
DICTIONARY
  5
17
102
{ACAD_REACTORS
330
C
102
}
330
C
100
AcDbDictionary
  3
STANDARD
350
18
  0
DICTIONARY
  5
19
102
{ACAD_REACTORS
330
C
102
}
330
C
100
AcDbDictionary
  0
DICTIONARY
  5
A1C
102
{ACAD_REACTORS
330
C
102
}
330
C
100
AcDbDictionary
  0
DICTIONARY
  5
2A
102
{ACAD_REACTORS
330
C
102
}
330
C
100
AcDbDictionary
  3
2DWIREFRAME
350
2F
  3
3D_HIDDEN
350
31
  3
3DWIREFRAME
350
30
  3
BASIC
350
32
  3
BRIGHTEN
350
36
  3
COLORCHANGE
350
3A
  3
CONCEPTUAL
350
34
  3
DIM
350
35
  3
FACEPATTERN
350
39
  3
FLAT
350
2B
  3
FLATWITHEDGES
350
2C
  3
GOURAUD
350
2D
  3
GOURAUDWITHEDGES
350
2E
  3
LINEPATTERN
350
38
  3
REALISTIC
350
33
  3
THICKEN
350
37
  0
DICTIONARY
  5
9FC
102
{ACAD_REACTORS
330
C
102
}
330
C
100
AcDbDictionary
  3
CEPSNTYPE
350
A05
  3
DIMSTYLEDATA
350
A1B
  3
FINGERPRINTGUID
350
A06
  3
HYPERLINKBASE
350
9FF
  3
INSUNITS
350
A04
  3
LAYOUTDICT
350
A01
  3
LWETCUNION
350
A03
  3
PLOTSETDICT
350
A02
  3
PSVPSCALE
350
A08
  3
PUCSBASE
350
A0B
  3
PUCSORGBACK
350
A11
  3
PUCSORGBOTTOM
350
A0D
  3
PUCSORGFRONT
350
A10
  3
PUCSORGLEFT
350
A0E
  3
PUCSORGRIGHT
350
A0F
  3
PUCSORGTOP
350
A0C
  3
PUCSORTHOREF
350
A09
  3
PUCSORTHOVIEW
350
A0A
  3
STYLESHEET
350
A00
  3
TSTACKALIGN
350
9FD
  3
TSTACKSIZE
350
9FE
  3
UCSBASE
350
A14
  3
UCSORGBACK
350
A1A
  3
UCSORGBOTTOM
350
A16
  3
UCSORGFRONT
350
A19
  3
UCSORGLEFT
350
A17
  3
UCSORGRIGHT
350
A18
  3
UCSORGTOP
350
A15
  3
UCSORTHOREF
350
A12
  3
UCSORTHOVIEW
350
A13
  3
VERSIONGUID
350
A07
  0
MLINESTYLE
  5
18
102
{ACAD_REACTORS
330
17
102
}
330
17
100
AcDbMlineStyle
  2
Standard
 70
     0
  3

 62
   256
 51
90.0
 52
90.0
 71
     2
 49
0.5
 62
   256
  6
BYLAYER
 49
-0.5
 62
   256
  6
BYLAYER
  0
VISUALSTYLE
  5
2F
102
{ACAD_REACTORS
330
2A
102
}
330
2A
100
AcDbVisualStyle
  2
2dWireframe
 70
     4
 71
     0
 72
     2
 73
     0
 90
        0
 40
-0.6
 41
-30.0
 62
     5
 63
     7
 74
     1
 91
        4
 64
     7
 65
   257
 75
     1
175
     1
 42
1.0
 92
        0
 66
   257
 43
1.0
 76
     1
 77
     6
 78
     2
 67
     7
 79
     5
170
     0
171
     0
290
     0
174
     0
 93
        1
 44
0.0
173
     0
291
     0
 45
0.0
1001
ACAD
1000
AcDbSavedByObjectVersion
1070
     0
  0
VISUALSTYLE
  5
31
102
{ACAD_REACTORS
330
2A
102
}
330
2A
100
AcDbVisualStyle
  2
3D Hidden
 70
     6
 71
     1
 72
     2
 73
     2
 90
        0
 40
-0.6
 41
-30.0
 62
     5
 63
     7
 74
     2
 91
        2
 64
     7
 65
   257
 75
     2
175
     1
 42
40.0
 92
        0
 66
   257
 43
1.0
 76
     1
 77
     6
 78
     2
 67
     7
 79
     3
170
     0
171
     0
290
     0
174
     0
 93
        1
 44
0.0
173
     0
291
     0
 45
0.0
1001
ACAD
1000
AcDbSavedByObjectVersion
1070
     0
  0
VISUALSTYLE
  5
30
102
{ACAD_REACTORS
330
2A
102
}
330
2A
100
AcDbVisualStyle
  2
3dWireframe
 70
     5
 71
     0
 72
     2
 73
     0
 90
        0
 40
-0.6
 41
-30.0
 62
     5
 63
     7
 74
     1
 91
        4
 64
     7
 65
   257
 75
     1
175
     1
 42
1.0
 92
        0
 66
   257
 43
1.0
 76
     1
 77
     6
 78
     2
 67
     7
 79
     5
170
     0
171
     0
290
     0
174
     0
 93
        1
 44
0.0
173
     0
291
     0
 45
0.0
1001
ACAD
1000
AcDbSavedByObjectVersion
1070
     0
  0
VISUALSTYLE
  5
32
102
{ACAD_REACTORS
330
2A
102
}
330
2A
100
AcDbVisualStyle
  2
Basic
 70
     7
 71
     1
 72
     0
 73
     1
 90
        0
 40
-0.6
 41
-30.0
 62
     5
 63
     7
 74
     0
 91
        4
 64
     7
 65
   257
 75
     1
175
     1
 42
1.0
 92
        8
 66
     7
 43
1.0
 76
     1
 77
     6
 78
     2
 67
     7
 79
     5
170
     0
171
     0
290
     0
174
     0
 93
        1
 44
0.0
173
     0
291
     1
 45
0.0
1001
ACAD
1000
AcDbSavedByObjectVersion
1070
     0
  0
VISUALSTYLE
  5
36
102
{ACAD_REACTORS
330
2A
102
}
330
2A
100
AcDbVisualStyle
  2
Brighten
 70
    12
 71
     2
 72
     2
 73
     0
 90
        0
 40
-0.6
 41
-30.0
 62
     5
 63
     7
 74
     1
 91
        4
 64
     7
 65
   257
 75
     1
175
     1
 42
1.0
 92
        8
 66
     7
 43
1.0
 76
     1
 77
     6
 78
     2
 67
     7
 79
     5
170
     0
171
     0
290
     0
174
     0
 93
        1
 44
50.0
173
     0
291
     1
 45
0.0
1001
ACAD
1000
AcDbSavedByObjectVersion
1070
     0
  0
VISUALSTYLE
  5
3A
102
{ACAD_REACTORS
330
2A
102
}
330
2A
100
AcDbVisualStyle
  2
ColorChange
 70
    16
 71
     2
 72
     2
 73
     3
 90
        0
 40
-0.6
 41
-30.0
 62
     5
 63
     8
 74
     1
 91
        4
 64
     7
 65
   257
 75
     1
175
     1
 42
1.0
 92
        8
 66
     8
 43
1.0
 76
     1
 77
     6
 78
     2
 67
     7
 79
     5
170
     0
171
     0
290
     0
174
     0
 93
        1
 44
0.0
173
     0
291
     1
 45
0.0
1001
ACAD
1000
AcDbSavedByObjectVersion
1070
     0
  0
VISUALSTYLE
  5
34
102
{ACAD_REACTORS
330
2A
102
}
330
2A
100
AcDbVisualStyle
  2
Conceptual
 70
     9
 71
     3
 72
     2
 73
     0
 90
        0
 40
-0.6
 41
-30.0
 62
     5
 63
     7
 74
     2
 91
        2
 64
     7
 65
   257
 75
     1
175
     1
 42
40.0
 92
        8
 66
     7
 43
1.0
 76
     1
 77
     6
 78
     2
 67
     7
 79
     3
170
     0
171
     0
290
     0
174
     0
 93
        1
 44
0.0
173
     0
291
     0
 45
0.0
1001
ACAD
1000
AcDbSavedByObjectVersion
1070
     0
  0
VISUALSTYLE
  5
35
102
{ACAD_REACTORS
330
2A
102
}
330
2A
100
AcDbVisualStyle
  2
Dim
 70
    11
 71
     2
 72
     2
 73
     0
 90
        0
 40
-0.6
 41
-30.0
 62
     5
 63
     7
 74
     1
 91
        4
 64
     7
 65
   257
 75
     1
175
     1
 42
1.0
 92
        8
 66
     7
 43
1.0
 76
     1
 77
     6
 78
     2
 67
     7
 79
     5
170
     0
171
     0
290
     0
174
     0
 93
        1
 44
-50.0
173
     0
291
     1
 45
0.0
1001
ACAD
1000
AcDbSavedByObjectVersion
1070
     0
  0
VISUALSTYLE
  5
39
102
{ACAD_REACTORS
330
2A
102
}
330
2A
100
AcDbVisualStyle
  2
Facepattern
 70
    15
 71
     2
 72
     2
 73
     0
 90
        0
 40
-0.6
 41
-30.0
 62
     5
 63
     7
 74
     1
 91
        4
 64
     7
 65
   257
 75
     1
175
     1
 42
1.0
 92
        8
 66
     7
 43
1.0
 76
     1
 77
     6
 78
     2
 67
     7
 79
     5
170
     0
171
     0
290
     0
174
     0
 93
        1
 44
0.0
173
     0
291
     1
 45
0.0
1001
ACAD
1000
AcDbSavedByObjectVersion
1070
     0
  0
VISUALSTYLE
  5
2B
102
{ACAD_REACTORS
330
2A
102
}
330
2A
100
AcDbVisualStyle
  2
Flat
 70
     0
 71
     2
 72
     1
 73
     1
 90
        2
 40
-0.6
 41
30.0
 62
     5
 63
     7
 74
     0
 91
        4
 64
     7
 65
   257
 75
     1
175
     1
 42
1.0
 92
        8
 66
     7
 43
1.0
 76
     1
 77
     6
 78
     2
 67
     7
 79
     5
170
     0
171
     0
290
     0
174
     0
 93
       13
 44
0.0
173
     0
291
     1
 45
0.0
1001
ACAD
1000
AcDbSavedByObjectVersion
1070
     0
  0
VISUALSTYLE
  5
2C
102
{ACAD_REACTORS
330
2A
102
}
330
2A
100
AcDbVisualStyle
  2
FlatWithEdges
 70
     1
 71
     2
 72
     1
 73
     1
 90
        2
 40
-0.6
 41
30.0
 62
     5
 63
     7
 74
     1
 91
        4
 64
     7
 65
   257
 75
     1
175
     1
 42
1.0
 92
        0
 66
   257
 43
1.0
 76
     1
 77
     6
 78
     2
 67
     7
 79
     5
170
     0
171
     0
290
     0
174
     0
 93
       13
 44
0.0
173
     0
291
     1
 45
0.0
1001
ACAD
1000
AcDbSavedByObjectVersion
1070
     0
  0
VISUALSTYLE
  5
2D
102
{ACAD_REACTORS
330
2A
102
}
330
2A
100
AcDbVisualStyle
  2
Gouraud
 70
     2
 71
     2
 72
     2
 73
     1
 90
        2
 40
-0.6
 41
30.0
 62
     5
 63
     7
 74
     0
 91
        4
 64
     7
 65
   257
 75
     1
175
     1
 42
1.0
 92
        0
 66
     7
 43
1.0
 76
     1
 77
     6
 78
     2
 67
     7
 79
     5
170
     0
171
     0
290
     0
174
     0
 93
       13
 44
0.0
173
     0
291
     1
 45
0.0
1001
ACAD
1000
AcDbSavedByObjectVersion
1070
     0
  0
VISUALSTYLE
  5
2E
102
{ACAD_REACTORS
330
2A
102
}
330
2A
100
AcDbVisualStyle
  2
GouraudWithEdges
 70
     3
 71
     2
 72
     2
 73
     1
 90
        2
 40
-0.6
 41
30.0
 62
     5
 63
     7
 74
     1
 91
        4
 64
     7
 65
   257
 75
     1
175
     1
 42
1.0
 92
        0
 66
   257
 43
1.0
 76
     1
 77
     6
 78
     2
 67
     7
 79
     5
170
     0
171
     0
290
     0
174
     0
 93
       13
 44
0.0
173
     0
291
     1
 45
0.0
1001
ACAD
1000
AcDbSavedByObjectVersion
1070
     0
  0
VISUALSTYLE
  5
38
102
{ACAD_REACTORS
330
2A
102
}
330
2A
100
AcDbVisualStyle
  2
Linepattern
 70
    14
 71
     2
 72
     2
 73
     0
 90
        0
 40
-0.6
 41
-30.0
 62
     5
 63
     7
 74
     1
 91
        4
 64
     7
 65
   257
 75
     7
175
     7
 42
1.0
 92
        8
 66
     7
 43
1.0
 76
     1
 77
     6
 78
     2
 67
     7
 79
     5
170
     0
171
     0
290
     0
174
     0
 93
        1
 44
0.0
173
     0
291
     1
 45
0.0
1001
ACAD
1000
AcDbSavedByObjectVersion
1070
     0
  0
VISUALSTYLE
  5
33
102
{ACAD_REACTORS
330
2A
102
}
330
2A
100
AcDbVisualStyle
  2
Realistic
 70
     8
 71
     2
 72
     2
 73
     0
 90
        0
 40
-0.6
 41
-30.0
 62
     5
 63
     7
 74
     1
 91
        0
 64
     7
 65
   257
 75
     1
175
     1
 42
1.0
 92
        8
 66
     8
 43
1.0
 76
     1
 77
     6
 78
     2
 67
     7
 79
     5
170
     0
171
     0
290
     0
174
     0
 93
       13
 44
0.0
173
     0
291
     0
 45
0.0
1001
ACAD
1000
AcDbSavedByObjectVersion
1070
     0
  0
VISUALSTYLE
  5
37
102
{ACAD_REACTORS
330
2A
102
}
330
2A
100
AcDbVisualStyle
  2
Thicken
 70
    13
 71
     2
 72
     2
 73
     0
 90
        0
 40
-0.6
 41
-30.0
 62
     5
 63
     7
 74
     1
 91
        4
 64
     7
 65
   257
 75
     1
175
     1
 42
1.0
 92
       12
 66
     7
 43
1.0
 76
     1
 77
     6
 78
     2
 67
     7
 79
     5
170
     0
171
     0
290
     0
174
     0
 93
        1
 44
0.0
173
     0
291
     1
 45
0.0
1001
ACAD
1000
AcDbSavedByObjectVersion
1070
     0
  0
XRECORD
  5
A05
102
{ACAD_REACTORS
330
9FC
102
}
330
9FC
100
AcDbXrecord
 90
        0
  0
XRECORD
  5
A1B
102
{ACAD_REACTORS
330
9FC
102
}
330
9FC
100
AcDbXrecord
1000
DSTYLE
1002
{
1070
   340
340
11
1002
}
  0
XRECORD
  5
A06
102
{ACAD_REACTORS
330
9FC
102
}
330
9FC
100
AcDbXrecord
  1
{DE27D457-6E52-42E4-8641-92F4C8E70495}
  0
XRECORD
  5
9FF
102
{ACAD_REACTORS
330
9FC
102
}
330
9FC
100
AcDbXrecord
  1

  0
XRECORD
  5
A04
102
{ACAD_REACTORS
330
9FC
102
}
330
9FC
100
AcDbXrecord
 90
        1
  0
XRECORD
  5
A01
102
{ACAD_REACTORS
330
9FC
102
}
330
9FC
100
AcDbXrecord
340
1A
  0
XRECORD
  5
A03
102
{ACAD_REACTORS
330
9FC
102
}
330
9FC
100
AcDbXrecord
 90
    10269
  0
XRECORD
  5
A02
102
{ACAD_REACTORS
330
9FC
102
}
330
9FC
100
AcDbXrecord
340
19
  0
XRECORD
  5
A08
102
{ACAD_REACTORS
330
9FC
102
}
330
9FC
100
AcDbXrecord
 40
0.0
  0
XRECORD
  5
A0B
102
{ACAD_REACTORS
330
9FC
102
}
330
9FC
100
AcDbXrecord
340
0
  0
XRECORD
  5
A11
102
{ACAD_REACTORS
330
9FC
102
}
330
9FC
100
AcDbXrecord
 10
0.0
 20
0.0
 30
0.0
  0
XRECORD
  5
A0D
102
{ACAD_REACTORS
330
9FC
102
}
330
9FC
100
AcDbXrecord
 10
0.0
 20
0.0
 30
0.0
  0
XRECORD
  5
A10
102
{ACAD_REACTORS
330
9FC
102
}
330
9FC
100
AcDbXrecord
 10
0.0
 20
0.0
 30
0.0
  0
XRECORD
  5
A0E
102
{ACAD_REACTORS
330
9FC
102
}
330
9FC
100
AcDbXrecord
 10
0.0
 20
0.0
 30
0.0
  0
XRECORD
  5
A0F
102
{ACAD_REACTORS
330
9FC
102
}
330
9FC
100
AcDbXrecord
 10
0.0
 20
0.0
 30
0.0
  0
XRECORD
  5
A0C
102
{ACAD_REACTORS
330
9FC
102
}
330
9FC
100
AcDbXrecord
 10
0.0
 20
0.0
 30
0.0
  0
XRECORD
  5
A09
102
{ACAD_REACTORS
330
9FC
102
}
330
9FC
100
AcDbXrecord
340
0
  0
XRECORD
  5
A0A
102
{ACAD_REACTORS
330
9FC
102
}
330
9FC
100
AcDbXrecord
 70
     0
  0
XRECORD
  5
A00
102
{ACAD_REACTORS
330
9FC
102
}
330
9FC
100
AcDbXrecord
  1

  0
XRECORD
  5
9FD
102
{ACAD_REACTORS
330
9FC
102
}
330
9FC
100
AcDbXrecord
 90
        1
  0
XRECORD
  5
9FE
102
{ACAD_REACTORS
330
9FC
102
}
330
9FC
100
AcDbXrecord
 90
       70
  0
XRECORD
  5
A14
102
{ACAD_REACTORS
330
9FC
102
}
330
9FC
100
AcDbXrecord
340
0
  0
XRECORD
  5
A1A
102
{ACAD_REACTORS
330
9FC
102
}
330
9FC
100
AcDbXrecord
 10
0.0
 20
0.0
 30
0.0
  0
XRECORD
  5
A16
102
{ACAD_REACTORS
330
9FC
102
}
330
9FC
100
AcDbXrecord
 10
0.0
 20
0.0
 30
0.0
  0
XRECORD
  5
A19
102
{ACAD_REACTORS
330
9FC
102
}
330
9FC
100
AcDbXrecord
 10
0.0
 20
0.0
 30
0.0
  0
XRECORD
  5
A17
102
{ACAD_REACTORS
330
9FC
102
}
330
9FC
100
AcDbXrecord
 10
0.0
 20
0.0
 30
0.0
  0
XRECORD
  5
A18
102
{ACAD_REACTORS
330
9FC
102
}
330
9FC
100
AcDbXrecord
 10
0.0
 20
0.0
 30
0.0
  0
XRECORD
  5
A15
102
{ACAD_REACTORS
330
9FC
102
}
330
9FC
100
AcDbXrecord
 10
0.0
 20
0.0
 30
0.0
  0
XRECORD
  5
A12
102
{ACAD_REACTORS
330
9FC
102
}
330
9FC
100
AcDbXrecord
340
0
  0
XRECORD
  5
A13
102
{ACAD_REACTORS
330
9FC
102
}
330
9FC
100
AcDbXrecord
 70
     0
  0
XRECORD
  5
A07
102
{ACAD_REACTORS
330
9FC
102
}
330
9FC
100
AcDbXrecord
  1
{FAEB1C32-E019-11D5-929B-00C0DF256EC4}
  0
ENDSEC
  0
EOF
