  0
SECTION
  2
HEADER
  9
$ACADVER
  1
AC1014
  9
$ACADMAINTVER
 70
     9
  9
$DWGCODEPAGE
  3
ANSI_1252
  9
$INSBASE
 10
0.0
 20
0.0
 30
0.0
  9
$EXTMIN
 10
1.000000000000000E+20
 20
1.000000000000000E+20
 30
1.000000000000000E+20
  9
$EXTMAX
 10
-1.000000000000000E+20
 20
-1.000000000000000E+20
 30
-1.000000000000000E+20
  9
$LIMMIN
 10
0.0
 20
0.0
  9
$LIMMAX
 10
12.0
 20
9.0
  9
$ORTHOMODE
 70
     0
  9
$REGENMODE
 70
     1
  9
$FILLMODE
 70
     1
  9
$QTEXTMODE
 70
     0
  9
$MIRRTEXT
 70
     1
  9
$DRAGMODE
 70
     2
  9
$LTSCALE
 40
1.0
  9
$OSMODE
 70
    37
  9
$ATTMODE
 70
     1
  9
$TEXTSIZE
 40
0.2
  9
$TRACEWID
 40
0.05
  9
$TEXTSTYLE
  7
STANDARD
  9
$CLAYER
  8
0
  9
$CELTYPE
  6
BYLAYER
  9
$CECOLOR
 62
   256
  9
$CELTSCALE
 40
1.0
  9
$DELOBJ
 70
     1
  9
$DISPSILH
 70
     0
  9
$DIMSCALE
 40
1.0
  9
$DIMASZ
 40
0.18
  9
$DIMEXO
 40
0.0625
  9
$DIMDLI
 40
0.38
  9
$DIMRND
 40
0.0
  9
$DIMDLE
 40
0.0
  9
$DIMEXE
 40
0.18
  9
$DIMTP
 40
0.0
  9
$DIMTM
 40
0.0
  9
$DIMTXT
 40
0.18
  9
$DIMCEN
 40
0.09
  9
$DIMTSZ
 40
0.0
  9
$DIMTOL
 70
     0
  9
$DIMLIM
 70
     0
  9
$DIMTIH
 70
     1
  9
$DIMTOH
 70
     1
  9
$DIMSE1
 70
     0
  9
$DIMSE2
 70
     0
  9
$DIMTAD
 70
     0
  9
$DIMZIN
 70
     0
  9
$DIMBLK
  1

  9
$DIMASO
 70
     1
  9
$DIMSHO
 70
     1
  9
$DIMPOST
  1

  9
$DIMAPOST
  1

  9
$DIMALT
 70
     0
  9
$DIMALTD
 70
     2
  9
$DIMALTF
 40
25.4
  9
$DIMLFAC
 40
1.0
  9
$DIMTOFL
 70
     0
  9
$DIMTVP
 40
0.0
  9
$DIMTIX
 70
     0
  9
$DIMSOXD
 70
     0
  9
$DIMSAH
 70
     0
  9
$DIMBLK1
  1

  9
$DIMBLK2
  1

  9
$DIMSTYLE
  2
STANDARD
  9
$DIMCLRD
 70
     0
  9
$DIMCLRE
 70
     0
  9
$DIMCLRT
 70
     0
  9
$DIMTFAC
 40
1.0
  9
$DIMGAP
 40
0.09
  9
$DIMJUST
 70
     0
  9
$DIMSD1
 70
     0
  9
$DIMSD2
 70
     0
  9
$DIMTOLJ
 70
     1
  9
$DIMTZIN
 70
     0
  9
$DIMALTZ
 70
     0
  9
$DIMALTTZ
 70
     0
  9
$DIMFIT
 70
     3
  9
$DIMUPT
 70
     0
  9
$DIMUNIT
 70
     2
  9
$DIMDEC
 70
     4
  9
$DIMTDEC
 70
     4
  9
$DIMALTU
 70
     2
  9
$DIMALTTD
 70
     2
  9
$DIMTXSTY
  7
STANDARD
  9
$DIMAUNIT
 70
     0
  9
$LUNITS
 70
     2
  9
$LUPREC
 70
     4
  9
$SKETCHINC
 40
0.1
  9
$FILLETRAD
 40
0.5
  9
$AUNITS
 70
     0
  9
$AUPREC
 70
     0
  9
$MENU
  1
.
  9
$ELEVATION
 40
0.0
  9
$PELEVATION
 40
0.0
  9
$THICKNESS
 40
0.0
  9
$LIMCHECK
 70
     0
  9
$CHAMFERA
 40
0.5
  9
$CHAMFERB
 40
0.5
  9
$CHAMFERC
 40
1.0
  9
$CHAMFERD
 40
0.0
  9
$SKPOLY
 70
     0
  9
$TDCREATE
 40
2458284.363819491
  9
$TDUPDATE
 40
2458284.363819502
  9
$TDINDWG
 40
0.0000000116
  9
$TDUSRTIMER
 40
0.0000000116
  9
$USRTIMER
 70
     1
  9
$ANGBASE
 50
0.0
  9
$ANGDIR
 70
     0
  9
$PDMODE
 70
     0
  9
$PDSIZE
 40
0.0
  9
$PLINEWID
 40
0.0
  9
$COORDS
 70
     1
  9
$SPLFRAME
 70
     0
  9
$SPLINETYPE
 70
     6
  9
$SPLINESEGS
 70
     8
  9
$ATTDIA
 70
     0
  9
$ATTREQ
 70
     1
  9
$HANDLING
 70
     1
  9
$HANDSEED
  5
3B0
  9
$SURFTAB1
 70
     6
  9
$SURFTAB2
 70
     6
  9
$SURFTYPE
 70
     6
  9
$SURFU
 70
     6
  9
$SURFV
 70
     6
  9
$UCSNAME
  2

  9
$UCSORG
 10
0.0
 20
0.0
 30
0.0
  9
$UCSXDIR
 10
1.0
 20
0.0
 30
0.0
  9
$UCSYDIR
 10
0.0
 20
1.0
 30
0.0
  9
$PUCSNAME
  2

  9
$PUCSORG
 10
0.0
 20
0.0
 30
0.0
  9
$PUCSXDIR
 10
1.0
 20
0.0
 30
0.0
  9
$PUCSYDIR
 10
0.0
 20
1.0
 30
0.0
  9
$USERI1
 70
     0
  9
$USERI2
 70
     0
  9
$USERI3
 70
     0
  9
$USERI4
 70
     0
  9
$USERI5
 70
     0
  9
$USERR1
 40
0.0
  9
$USERR2
 40
0.0
  9
$USERR3
 40
0.0
  9
$USERR4
 40
0.0
  9
$USERR5
 40
0.0
  9
$WORLDVIEW
 70
     1
  9
$SHADEDGE
 70
     3
  9
$SHADEDIF
 70
    70
  9
$TILEMODE
 70
     1
  9
$MAXACTVP
 70
    64
  9
$PINSBASE
 10
0.0
 20
0.0
 30
0.0
  9
$PLIMCHECK
 70
     0
  9
$PEXTMIN
 10
1.000000000000000E+20
 20
1.000000000000000E+20
 30
1.000000000000000E+20
  9
$PEXTMAX
 10
-1.000000000000000E+20
 20
-1.000000000000000E+20
 30
-1.000000000000000E+20
  9
$PLIMMIN
 10
0.0
 20
0.0
  9
$PLIMMAX
 10
12.0
 20
9.0
  9
$UNITMODE
 70
     0
  9
$VISRETAIN
 70
     1
  9
$PLINEGEN
 70
     0
  9
$PSLTSCALE
 70
     1
  9
$TREEDEPTH
 70
  3020
  9
$PICKSTYLE
 70
     1
  9
$CMLSTYLE
  2
STANDARD
  9
$CMLJUST
 70
     0
  9
$CMLSCALE
 40
1.0
  9
$PROXYGRAPHICS
 70
     1
  9
$MEASUREMENT
 70
     0
  0
ENDSEC
  0
SECTION
  2
CLASSES
  0
CLASS
  1
ACDBDICTIONARYWDFLT
  2
AcDbDictionaryWithDefault
  3
ObjectDBX Classes
 90
        0
280
     0
281
     0
  0
CLASS
  1
VISUALSTYLE
  2
AcDbVisualStyle
  3
ObjectDBX Classes
 90
     4095
280
     0
281
     0
  0
CLASS
  1
XRECORD
  2
AcDbXrecord
  3
AutoCAD 2000
 90
        0
280
     0
281
     0
  0
CLASS
  1
LWPOLYLINE
  2
AcDbPolyline
  3
AutoCAD 2000
 90
        0
280
     0
281
     1
  0
CLASS
  1
HATCH
  2
AcDbHatch
  3
AutoCAD 2000
 90
        0
280
     0
281
     1
  0
CLASS
  1
ACDBPLACEHOLDER
  2
AcDbPlaceHolder
  3
ObjectDBX Classes
 90
        0
280
     0
281
     0
  0
CLASS
  1
LAYOUT
  2
AcDbLayout
  3
ObjectDBX Classes
 90
        0
280
     0
281
     0
  0
ENDSEC
  0
SECTION
  2
TABLES
  0
TABLE
  2
VPORT
  5
8
330
0
100
AcDbSymbolTable
 70
     1
  0
VPORT
  5
29
330
8
100
AcDbSymbolTableRecord
100
AcDbViewportTableRecord
  2
*ACTIVE
 70
     0
 10
0.0
 20
0.0
 11
1.0
 21
1.0
 12
0.0
 22
0.0
 13
0.0
 23
0.0
 14
0.5
 24
0.5
 15
0.5
 25
0.5
 16
0.0
 26
0.0
 36
1.0
 17
-2.73828125
 27
-151.6982421875
 37
0.0
 40
620.0
 41
1.188709677419355
 42
50.0
 43
0.0
 44
0.0
 50
0.0
 51
0.0
 71
     0
 72
   100
 73
     1
 74
     3
 75
     0
 76
     0
 77
     0
 78
     0
  0
ENDTAB
  0
TABLE
  2
LTYPE
  5
5
330
0
100
AcDbSymbolTable
 70
     2
  0
LTYPE
  5
14
330
5
100
AcDbSymbolTableRecord
100
AcDbLinetypeTableRecord
  2
BYBLOCK
 70
     0
  3

 72
    65
 73
     0
 40
0.0
  0
LTYPE
  5
15
330
5
100
AcDbSymbolTableRecord
100
AcDbLinetypeTableRecord
  2
BYLAYER
 70
     0
  3

 72
    65
 73
     0
 40
0.0
  0
LTYPE
  5
16
330
5
100
AcDbSymbolTableRecord
100
AcDbLinetypeTableRecord
  2
CONTINUOUS
 70
     0
  3
Solid line
 72
    65
 73
     0
 40
0.0
  0
LTYPE
  5
11F
330
5
100
AcDbSymbolTableRecord
100
AcDbLinetypeTableRecord
  2
AI-LINETYPE-1
 70
     0
  3
Adobe Illustrator Linetype No. 1
 72
    65
 73
     4
 40
25.0
 49
20.0
 74
     0
 49
-2.0
 74
     0
 49
1.0
 74
     0
 49
-2.0
 74
     0
  0
ENDTAB
  0
TABLE
  2
LAYER
  5
2
330
0
100
AcDbSymbolTable
 70
     5
  0
LAYER
  5
10
330
2
100
AcDbSymbolTableRecord
100
AcDbLayerTableRecord
  2
0
 70
     0
 62
     7
  6
CONTINUOUS
  0
LAYER
  5
3B
330
2
100
AcDbSymbolTableRecord
100
AcDbLayerTableRecord
  2
GRAU_10_
 70
     1
 62
     7
  6
CONTINUOUS
  0
LAYER
  5
52
330
2
100
AcDbSymbolTableRecord
100
AcDbLayerTableRecord
  2
STANDARDEBENE
 70
     0
 62
     7
  6
CONTINUOUS
  0
LAYER
  5
2F4
330
2
100
AcDbSymbolTableRecord
100
AcDbLayerTableRecord
  2
BEMAßUNG
 70
     1
 62
     7
  6
CONTINUOUS
  0
LAYER
  5
38D
330
2
100
AcDbSymbolTableRecord
100
AcDbLayerTableRecord
  2
TEXT
 70
     1
 62
     7
  6
CONTINUOUS
  0
ENDTAB
  0
TABLE
  2
STYLE
  5
3
330
0
100
AcDbSymbolTable
 70
     1
  0
STYLE
  5
11
330
3
100
AcDbSymbolTableRecord
100
AcDbTextStyleTableRecord
  2
STANDARD
 70
     0
 40
0.0
 41
1.0
 50
0.0
 71
     0
 42
0.2
  3
txt
  4

  0
ENDTAB
  0
TABLE
  2
VIEW
  5
6
330
0
100
AcDbSymbolTable
 70
     0
  0
ENDTAB
  0
TABLE
  2
UCS
  5
7
330
0
100
AcDbSymbolTable
 70
     0
  0
ENDTAB
  0
TABLE
  2
APPID
  5
9
330
0
100
AcDbSymbolTable
 70
     1
  0
APPID
  5
12
330
9
100
AcDbSymbolTableRecord
100
AcDbRegAppTableRecord
  2
ACAD
 70
     0
  0
ENDTAB
  0
TABLE
  2
DIMSTYLE
  5
A
330
0
100
AcDbSymbolTable
 70
     1
  0
DIMSTYLE
105
27
330
A
100
AcDbSymbolTableRecord
100
AcDbDimStyleTableRecord
  2
STANDARD
 70
     0
  3

  4

  5

  6

  7

 40
1.0
 41
0.18
 42
0.0625
 43
0.38
 44
0.18
 45
0.0
 46
0.0
 47
0.0
 48
0.0
140
0.18
141
0.09
142
0.0
143
25.4
144
1.0
145
0.0
146
1.0
147
0.09
 71
     0
 72
     0
 73
     1
 74
     1
 75
     0
 76
     0
 77
     0
 78
     0
170
     0
171
     2
172
     0
173
     0
174
     0
175
     0
176
     0
177
     0
178
     0
270
     2
271
     4
272
     4
273
     2
274
     2
340
11
275
     0
280
     0
281
     0
282
     0
283
     1
284
     0
285
     0
286
     0
287
     3
288
     0
  0
ENDTAB
  0
TABLE
  2
BLOCK_RECORD
  5
1
330
0
100
AcDbSymbolTable
 70
     1
  0
BLOCK_RECORD
  5
1F
330
1
100
AcDbSymbolTableRecord
100
AcDbBlockTableRecord
  2
*MODEL_SPACE
  0
BLOCK_RECORD
  5
1B
330
1
100
AcDbSymbolTableRecord
100
AcDbBlockTableRecord
  2
*PAPER_SPACE
  0
ENDTAB
  0
ENDSEC
  0
SECTION
  2
BLOCKS
  0
BLOCK
  5
20
330
1F
100
AcDbEntity
  8
0
100
AcDbBlockBegin
  2
*MODEL_SPACE
 70
     0
 71
     0
 10
0.0
 20
0.0
 30
0.0
  3
*MODEL_SPACE
  1

  0
ENDBLK
  5
21
330
1F
100
AcDbEntity
  8
0
100
AcDbBlockEnd
  0
BLOCK
  5
1C
330
1B
100
AcDbEntity
 67
     1
  8
0
100
AcDbBlockBegin
  2
*PAPER_SPACE
 70
     0
 71
     0
 10
0.0
 20
0.0
 30
0.0
  3
*PAPER_SPACE
  1

  0
ENDBLK
  5
1D
330
1B
100
AcDbEntity
 67
     1
  8
0
100
AcDbBlockEnd
  0
ENDSEC
  0
SECTION
  2
ENTITIES
  0
POLYLINE
  5
3C
330
1F
100
AcDbEntity
  8
GRAU_10_
100
AcDb2dPolyline
 66
     1
 10
0.0
 20
0.0
 30
0.0
  0
VERTEX
  5
3D
330
3C
100
AcDbEntity
  8
GRAU_10_
100
AcDbVertex
100
AcDb2dVertex
 10
-233.68310546875
 20
55.08056640625
 30
0.0
  0
VERTEX
  5
3E
330
3C
100
AcDbEntity
  8
GRAU_10_
100
AcDbVertex
100
AcDb2dVertex
 10
-214.9033203125
 20
66.150390625
 30
0.0
  0
VERTEX
  5
3F
330
3C
100
AcDbEntity
  8
GRAU_10_
100
AcDbVertex
100
AcDb2dVertex
 10
-213.81591796875
 20
66.150390625
 30
0.0
  0
VERTEX
  5
40
330
3C
100
AcDbEntity
  8
GRAU_10_
100
AcDbVertex
100
AcDb2dVertex
 10
-213.91455078125
 20
59.62744140625
 30
0.0
  0
VERTEX
  5
41
330
3C
100
AcDbEntity
  8
GRAU_10_
100
AcDbVertex
100
AcDb2dVertex
 10
-202.0537109375
 20
59.33056640625
 30
0.0
  0
VERTEX
  5
42
330
3C
100
AcDbEntity
  8
GRAU_10_
100
AcDbVertex
100
AcDb2dVertex
 10
-202.15234375
 20
66.150390625
 30
0.0
  0
VERTEX
  5
43
330
3C
100
AcDbEntity
  8
GRAU_10_
100
AcDbVertex
100
AcDb2dVertex
 10
-103.21240234375
 20
52.60986328125
 30
0.0
  0
VERTEX
  5
44
330
3C
100
AcDbEntity
  8
GRAU_10_
100
AcDbVertex
100
AcDb2dVertex
 10
-103.31201171875
 20
-35.95263671875
 30
0.0
  0
VERTEX
  5
45
330
3C
100
AcDbEntity
  8
GRAU_10_
100
AcDbVertex
100
AcDb2dVertex
 10
-202.15185546875
 20
-50.18505859375
 30
0.0
  0
VERTEX
  5
46
330
3C
100
AcDbEntity
  8
GRAU_10_
100
AcDbVertex
100
AcDb2dVertex
 10
-202.15185546875
 20
-43.16748046875
 30
0.0
  0
VERTEX
  5
47
330
3C
100
AcDbEntity
  8
GRAU_10_
100
AcDbVertex
100
AcDb2dVertex
 10
-213.8154296875
 20
-43.26611328125
 30
0.0
  0
VERTEX
  5
48
330
3C
100
AcDbEntity
  8
GRAU_10_
100
AcDbVertex
100
AcDb2dVertex
 10
-213.61767578125
 20
-49.98779296875
 30
0.0
  0
VERTEX
  5
49
330
3C
100
AcDbEntity
  8
GRAU_10_
100
AcDbVertex
100
AcDb2dVertex
 10
-214.8037109375
 20
-49.98779296875
 30
0.0
  0
VERTEX
  5
4A
330
3C
100
AcDbEntity
  8
GRAU_10_
100
AcDbVertex
100
AcDb2dVertex
 10
-233.88037109375
 20
-39.01513671875
 30
0.0
  0
VERTEX
  5
4B
330
3C
100
AcDbEntity
  8
GRAU_10_
100
AcDbVertex
100
AcDb2dVertex
 10
-233.3857421875
 20
6.15478515625
 30
0.0
  0
VERTEX
  5
4C
330
3C
100
AcDbEntity
  8
GRAU_10_
100
AcDbVertex
100
AcDb2dVertex
 10
-120.70849609375
 20
6.15478515625
 30
0.0
  0
VERTEX
  5
4D
330
3C
100
AcDbEntity
  8
GRAU_10_
100
AcDbVertex
100
AcDb2dVertex
 10
-120.60888671875
 20
10.20654296875
 30
0.0
  0
VERTEX
  5
4E
330
3C
100
AcDbEntity
  8
GRAU_10_
100
AcDbVertex
100
AcDb2dVertex
 10
-233.68359375
 20
10.10791015625
 30
0.0
  0
VERTEX
  5
4F
330
3C
100
AcDbEntity
  8
GRAU_10_
100
AcDbVertex
100
AcDb2dVertex
 10
-233.68310546875
 20
55.08056640625
 30
0.0
  0
SEQEND
  5
50
330
3C
100
AcDbEntity
  8
GRAU_10_
  0
HATCH
  5
51
330
1F
100
AcDbEntity
  8
GRAU_10_
 62
   255
100
AcDbHatch
 10
0.0
 20
0.0
 30
0.0
210
0.0
220
0.0
230
1.0
  2
SOLID
 70
     1
 71
     0
 91
        1
 92
        1
 93
       18
 72
     1
 10
-233.68310546875
 20
55.08056640625
 11
-214.9033203125
 21
66.150390625
 72
     1
 10
-214.9033203125
 20
66.150390625
 11
-213.81591796875
 21
66.150390625
 72
     1
 10
-213.81591796875
 20
66.150390625
 11
-213.91455078125
 21
59.62744140625
 72
     1
 10
-213.91455078125
 20
59.62744140625
 11
-202.0537109375
 21
59.33056640625
 72
     1
 10
-202.0537109375
 20
59.33056640625
 11
-202.15234375
 21
66.150390625
 72
     1
 10
-202.15234375
 20
66.150390625
 11
-103.21240234375
 21
52.60986328125
 72
     1
 10
-103.21240234375
 20
52.60986328125
 11
-103.31201171875
 21
-35.95263671875
 72
     1
 10
-103.31201171875
 20
-35.95263671875
 11
-202.15185546875
 21
-50.18505859375
 72
     1
 10
-202.15185546875
 20
-50.18505859375
 11
-202.15185546875
 21
-43.16748046875
 72
     1
 10
-202.15185546875
 20
-43.16748046875
 11
-213.8154296875
 21
-43.26611328125
 72
     1
 10
-213.8154296875
 20
-43.26611328125
 11
-213.61767578125
 21
-49.98779296875
 72
     1
 10
-213.61767578125
 20
-49.98779296875
 11
-214.8037109375
 21
-49.98779296875
 72
     1
 10
-214.8037109375
 20
-49.98779296875
 11
-233.88037109375
 21
-39.01513671875
 72
     1
 10
-233.88037109375
 20
-39.01513671875
 11
-233.3857421875
 21
6.15478515625
 72
     1
 10
-233.3857421875
 20
6.15478515625
 11
-120.70849609375
 21
6.15478515625
 72
     1
 10
-120.70849609375
 20
6.15478515625
 11
-120.60888671875
 21
10.20654296875
 72
     1
 10
-120.60888671875
 20
10.20654296875
 11
-233.68359375
 21
10.10791015625
 72
     1
 10
-233.68359375
 20
10.10791015625
 11
-233.68310546875
 21
55.08056640625
 97
        0
 75
     0
 76
     1
 98
        0
  0
POLYLINE
  5
53
330
1F
100
AcDbEntity
  8
STANDARDEBENE
 62
     7
100
AcDb2dPolyline
 66
     1
 10
0.0
 20
0.0
 30
0.0
  0
VERTEX
  5
54
330
53
100
AcDbEntity
  8
STANDARDEBENE
 62
     7
100
AcDbVertex
100
AcDb2dVertex
 10
-103.21240234375
 20
44.97119140625
 30
0.0
  0
VERTEX
  5
55
330
53
100
AcDbEntity
  8
STANDARDEBENE
 62
     7
100
AcDbVertex
100
AcDb2dVertex
 10
-104.62939453125
 20
44.97119140625
 30
0.0
  0
SEQEND
  5
56
330
53
100
AcDbEntity
  8
STANDARDEBENE
  0
POLYLINE
  5
57
330
1F
100
AcDbEntity
  8
STANDARDEBENE
 62
     7
100
AcDb2dPolyline
 66
     1
 10
0.0
 20
0.0
 30
0.0
  0
VERTEX
  5
58
330
57
100
AcDbEntity
  8
STANDARDEBENE
 62
     7
100
AcDbVertex
100
AcDb2dVertex
 10
-107.46240234375
 20
44.97119140625
 30
0.0
  0
VERTEX
  5
59
330
57
100
AcDbEntity
  8
STANDARDEBENE
 62
     7
100
AcDbVertex
100
AcDb2dVertex
 10
-110.30029296875
 20
44.97119140625
 30
0.0
  0
SEQEND
  5
5A
330
57
100
AcDbEntity
  8
STANDARDEBENE
  0
POLYLINE
  5
5B
330
1F
100
AcDbEntity
  8
STANDARDEBENE
 62
     7
100
AcDb2dPolyline
 66
     1
 10
0.0
 20
0.0
 30
0.0
  0
VERTEX
  5
5C
330
5B
100
AcDbEntity
  8
STANDARDEBENE
 62
     7
100
AcDbVertex
100
AcDb2dVertex
 10
-113.13330078125
 20
44.97119140625
 30
0.0
  0
VERTEX
  5
5D
330
5B
100
AcDbEntity
  8
STANDARDEBENE
 62
     7
100
AcDbVertex
100
AcDb2dVertex
 10
-115.96728515625
 20
44.97119140625
 30
0.0
  0
SEQEND
  5
5E
330
5B
100
AcDbEntity
  8
STANDARDEBENE
  0
POLYLINE
  5
5F
330
1F
100
AcDbEntity
  8
STANDARDEBENE
 62
     7
100
AcDb2dPolyline
 66
     1
 10
0.0
 20
0.0
 30
0.0
  0
VERTEX
  5
60
330
5F
100
AcDbEntity
  8
STANDARDEBENE
 62
     7
100
AcDbVertex
100
AcDb2dVertex
 10
-118.80419921875
 20
44.97119140625
 30
0.0
  0
VERTEX
  5
61
330
5F
100
AcDbEntity
  8
STANDARDEBENE
 62
     7
100
AcDbVertex
100
AcDb2dVertex
 10
-121.63720703125
 20
44.97119140625
 30
0.0
  0
SEQEND
  5
62
330
5F
100
AcDbEntity
  8
STANDARDEBENE
  0
POLYLINE
  5
63
330
1F
100
AcDbEntity
  8
STANDARDEBENE
 62
     7
100
AcDb2dPolyline
 66
     1
 10
0.0
 20
0.0
 30
0.0
  0
VERTEX
  5
64
330
63
100
AcDbEntity
  8
STANDARDEBENE
 62
     7
100
AcDbVertex
100
AcDb2dVertex
 10
-124.47119140625
 20
44.97119140625
 30
0.0
  0
VERTEX
  5
65
330
63
100
AcDbEntity
  8
STANDARDEBENE
 62
     7
100
AcDbVertex
100
AcDb2dVertex
 10
-127.30419921875
 20
44.97119140625
 30
0.0
  0
SEQEND
  5
66
330
63
100
AcDbEntity
  8
STANDARDEBENE
  0
POLYLINE
  5
67
330
1F
100
AcDbEntity
  8
STANDARDEBENE
 62
     7
100
AcDb2dPolyline
 66
     1
 10
0.0
 20
0.0
 30
0.0
  0
VERTEX
  5
68
330
67
100
AcDbEntity
  8
STANDARDEBENE
 62
     7
100
AcDbVertex
100
AcDb2dVertex
 10
-130.14111328125
 20
44.97119140625
 30
0.0
  0
VERTEX
  5
69
330
67
100
AcDbEntity
  8
STANDARDEBENE
 62
     7
100
AcDbVertex
100
AcDb2dVertex
 10
-132.97509765625
 20
44.97119140625
 30
0.0
  0
SEQEND
  5
6A
330
67
100
AcDbEntity
  8
STANDARDEBENE
  0
POLYLINE
  5
6B
330
1F
100
AcDbEntity
  8
STANDARDEBENE
 62
     7
100
AcDb2dPolyline
 66
     1
 10
0.0
 20
0.0
 30
0.0
  0
VERTEX
  5
6C
330
6B
100
AcDbEntity
  8
STANDARDEBENE
 62
     7
100
AcDbVertex
100
AcDb2dVertex
 10
-135.80908203125
 20
44.97119140625
 30
0.0
  0
VERTEX
  5
6D
330
6B
100
AcDbEntity
  8
STANDARDEBENE
 62
     7
100
AcDbVertex
100
AcDb2dVertex
 10
-138.64501953125
 20
44.97119140625
 30
0.0
  0
SEQEND
  5
6E
330
6B
100
AcDbEntity
  8
STANDARDEBENE
  0
POLYLINE
  5
6F
330
1F
100
AcDbEntity
  8
STANDARDEBENE
 62
     7
100
AcDb2dPolyline
 66
     1
 10
0.0
 20
0.0
 30
0.0
  0
VERTEX
  5
70
330
6F
100
AcDbEntity
  8
STANDARDEBENE
 62
     7
100
AcDbVertex
100
AcDb2dVertex
 10
-141.48095703125
 20
44.97119140625
 30
0.0
  0
VERTEX
  5
71
330
6F
100
AcDbEntity
  8
STANDARDEBENE
 62
     7
100
AcDbVertex
100
AcDb2dVertex
 10
-144.31298828125
 20
44.97119140625
 30
0.0
  0
SEQEND
  5
72
330
6F
100
AcDbEntity
  8
STANDARDEBENE
  0
POLYLINE
  5
73
330
1F
100
AcDbEntity
  8
STANDARDEBENE
 62
     7
100
AcDb2dPolyline
 66
     1
 10
0.0
 20
0.0
 30
0.0
  0
VERTEX
  5
74
330
73
100
AcDbEntity
  8
STANDARDEBENE
 62
     7
100
AcDbVertex
100
AcDb2dVertex
 10
-147.14892578125
 20
44.97119140625
 30
0.0
  0
VERTEX
  5
75
330
73
100
AcDbEntity
  8
STANDARDEBENE
 62
     7
100
AcDbVertex
100
AcDb2dVertex
 10
-149.98291015625
 20
44.97119140625
 30
0.0
  0
SEQEND
  5
76
330
73
100
AcDbEntity
  8
STANDARDEBENE
  0
POLYLINE
  5
77
330
1F
100
AcDbEntity
  8
STANDARDEBENE
 62
     7
100
AcDb2dPolyline
 66
     1
 10
0.0
 20
0.0
 30
0.0
  0
VERTEX
  5
78
330
77
100
AcDbEntity
  8
STANDARDEBENE
 62
     7
100
AcDbVertex
100
AcDb2dVertex
 10
-152.81884765625
 20
44.97119140625
 30
0.0
  0
VERTEX
  5
79
330
77
100
AcDbEntity
  8
STANDARDEBENE
 62
     7
100
AcDbVertex
100
AcDb2dVertex
 10
-155.65283203125
 20
44.97119140625
 30
0.0
  0
SEQEND
  5
7A
330
77
100
AcDbEntity
  8
STANDARDEBENE
  0
POLYLINE
  5
7B
330
1F
100
AcDbEntity
  8
STANDARDEBENE
 62
     7
100
AcDb2dPolyline
 66
     1
 10
0.0
 20
0.0
 30
0.0
  0
VERTEX
  5
7C
330
7B
100
AcDbEntity
  8
STANDARDEBENE
 62
     7
100
AcDbVertex
100
AcDb2dVertex
 10
-158.48681640625
 20
44.97119140625
 30
0.0
  0
VERTEX
  5
7D
330
7B
100
AcDbEntity
  8
STANDARDEBENE
 62
     7
100
AcDbVertex
100
AcDb2dVertex
 10
-161.32275390625
 20
44.97119140625
 30
0.0
  0
SEQEND
  5
7E
330
7B
100
AcDbEntity
  8
STANDARDEBENE
  0
POLYLINE
  5
7F
330
1F
100
AcDbEntity
  8
STANDARDEBENE
 62
     7
100
AcDb2dPolyline
 66
     1
 10
0.0
 20
0.0
 30
0.0
  0
VERTEX
  5
80
330
7F
100
AcDbEntity
  8
STANDARDEBENE
 62
     7
100
AcDbVertex
100
AcDb2dVertex
 10
-164.15673828125
 20
44.97119140625
 30
0.0
  0
VERTEX
  5
81
330
7F
100
AcDbEntity
  8
STANDARDEBENE
 62
     7
100
AcDbVertex
100
AcDb2dVertex
 10
-166.99072265625
 20
44.97119140625
 30
0.0
  0
SEQEND
  5
82
330
7F
100
AcDbEntity
  8
STANDARDEBENE
  0
POLYLINE
  5
83
330
1F
100
AcDbEntity
  8
STANDARDEBENE
 62
     7
100
AcDb2dPolyline
 66
     1
 10
0.0
 20
0.0
 30
0.0
  0
VERTEX
  5
84
330
83
100
AcDbEntity
  8
STANDARDEBENE
 62
     7
100
AcDbVertex
100
AcDb2dVertex
 10
-169.82666015625
 20
44.97119140625
 30
0.0
  0
VERTEX
  5
85
330
83
100
AcDbEntity
  8
STANDARDEBENE
 62
     7
100
AcDbVertex
100
AcDb2dVertex
 10
-172.66064453125
 20
44.97119140625
 30
0.0
  0
SEQEND
  5
86
330
83
100
AcDbEntity
  8
STANDARDEBENE
  0
POLYLINE
  5
87
330
1F
100
AcDbEntity
  8
STANDARDEBENE
 62
     7
100
AcDb2dPolyline
 66
     1
 10
0.0
 20
0.0
 30
0.0
  0
VERTEX
  5
88
330
87
100
AcDbEntity
  8
STANDARDEBENE
 62
     7
100
AcDbVertex
100
AcDb2dVertex
 10
-175.49462890625
 20
44.97119140625
 30
0.0
  0
VERTEX
  5
89
330
87
100
AcDbEntity
  8
STANDARDEBENE
 62
     7
100
AcDbVertex
100
AcDb2dVertex
 10
-178.3291015625
 20
44.97119140625
 30
0.0
  0
SEQEND
  5
8A
330
87
100
AcDbEntity
  8
STANDARDEBENE
  0
POLYLINE
  5
8B
330
1F
100
AcDbEntity
  8
STANDARDEBENE
 62
     7
100
AcDb2dPolyline
 66
     1
 10
0.0
 20
0.0
 30
0.0
  0
VERTEX
  5
8C
330
8B
100
AcDbEntity
  8
STANDARDEBENE
 62
     7
100
AcDbVertex
100
AcDb2dVertex
 10
-181.1640625
 20
44.97119140625
 30
0.0
  0
VERTEX
  5
8D
330
8B
100
AcDbEntity
  8
STANDARDEBENE
 62
     7
100
AcDbVertex
100
AcDb2dVertex
 10
-183.9990234375
 20
44.97119140625
 30
0.0
  0
SEQEND
  5
8E
330
8B
100
AcDbEntity
  8
STANDARDEBENE
  0
POLYLINE
  5
8F
330
1F
100
AcDbEntity
  8
STANDARDEBENE
 62
     7
100
AcDb2dPolyline
 66
     1
 10
0.0
 20
0.0
 30
0.0
  0
VERTEX
  5
90
330
8F
100
AcDbEntity
  8
STANDARDEBENE
 62
     7
100
AcDbVertex
100
AcDb2dVertex
 10
-186.8330078125
 20
44.97119140625
 30
0.0
  0
VERTEX
  5
91
330
8F
100
AcDbEntity
  8
STANDARDEBENE
 62
     7
100
AcDbVertex
100
AcDb2dVertex
 10
-189.66943359375
 20
44.97119140625
 30
0.0
  0
SEQEND
  5
92
330
8F
100
AcDbEntity
  8
STANDARDEBENE
  0
POLYLINE
  5
93
330
1F
100
AcDbEntity
  8
STANDARDEBENE
 62
     7
100
AcDb2dPolyline
 66
     1
 10
0.0
 20
0.0
 30
0.0
  0
VERTEX
  5
94
330
93
100
AcDbEntity
  8
STANDARDEBENE
 62
     7
100
AcDbVertex
100
AcDb2dVertex
 10
-192.50341796875
 20
44.97119140625
 30
0.0
  0
VERTEX
  5
95
330
93
100
AcDbEntity
  8
STANDARDEBENE
 62
     7
100
AcDbVertex
100
AcDb2dVertex
 10
-195.33740234375
 20
44.97119140625
 30
0.0
  0
SEQEND
  5
96
330
93
100
AcDbEntity
  8
STANDARDEBENE
  0
POLYLINE
  5
97
330
1F
100
AcDbEntity
  8
STANDARDEBENE
 62
     7
100
AcDb2dPolyline
 66
     1
 10
0.0
 20
0.0
 30
0.0
  0
VERTEX
  5
98
330
97
100
AcDbEntity
  8
STANDARDEBENE
 62
     7
100
AcDbVertex
100
AcDb2dVertex
 10
-198.17236328125
 20
44.97119140625
 30
0.0
  0
VERTEX
  5
99
330
97
100
AcDbEntity
  8
STANDARDEBENE
 62
     7
100
AcDbVertex
100
AcDb2dVertex
 10
-201.00634765625
 20
44.97119140625
 30
0.0
  0
SEQEND
  5
9A
330
97
100
AcDbEntity
  8
STANDARDEBENE
  0
POLYLINE
  5
9B
330
1F
100
AcDbEntity
  8
STANDARDEBENE
 62
     7
100
AcDb2dPolyline
 66
     1
 10
0.0
 20
0.0
 30
0.0
  0
VERTEX
  5
9C
330
9B
100
AcDbEntity
  8
STANDARDEBENE
 62
     7
100
AcDbVertex
100
AcDb2dVertex
 10
-203.84228515625
 20
44.97119140625
 30
0.0
  0
VERTEX
  5
9D
330
9B
100
AcDbEntity
  8
STANDARDEBENE
 62
     7
100
AcDbVertex
100
AcDb2dVertex
 10
-206.67626953125
 20
44.97119140625
 30
0.0
  0
SEQEND
  5
9E
330
9B
100
AcDbEntity
  8
STANDARDEBENE
  0
POLYLINE
  5
9F
330
1F
100
AcDbEntity
  8
STANDARDEBENE
 62
     7
100
AcDb2dPolyline
 66
     1
 10
0.0
 20
0.0
 30
0.0
  0
VERTEX
  5
A0
330
9F
100
AcDbEntity
  8
STANDARDEBENE
 62
     7
100
AcDbVertex
100
AcDb2dVertex
 10
-209.51025390625
 20
44.97119140625
 30
0.0
  0
VERTEX
  5
A1
330
9F
100
AcDbEntity
  8
STANDARDEBENE
 62
     7
100
AcDbVertex
100
AcDb2dVertex
 10
-212.34521484375
 20
44.97119140625
 30
0.0
  0
SEQEND
  5
A2
330
9F
100
AcDbEntity
  8
STANDARDEBENE
  0
POLYLINE
  5
A3
330
1F
100
AcDbEntity
  8
STANDARDEBENE
 62
     7
100
AcDb2dPolyline
 66
     1
 10
0.0
 20
0.0
 30
0.0
  0
VERTEX
  5
A4
330
A3
100
AcDbEntity
  8
STANDARDEBENE
 62
     7
100
AcDbVertex
100
AcDb2dVertex
 10
-215.18115234375
 20
44.97119140625
 30
0.0
  0
VERTEX
  5
A5
330
A3
100
AcDbEntity
  8
STANDARDEBENE
 62
     7
100
AcDbVertex
100
AcDb2dVertex
 10
-218.01513671875
 20
44.97119140625
 30
0.0
  0
SEQEND
  5
A6
330
A3
100
AcDbEntity
  8
STANDARDEBENE
  0
POLYLINE
  5
A7
330
1F
100
AcDbEntity
  8
STANDARDEBENE
 62
     7
100
AcDb2dPolyline
 66
     1
 10
0.0
 20
0.0
 30
0.0
  0
VERTEX
  5
A8
330
A7
100
AcDbEntity
  8
STANDARDEBENE
 62
     7
100
AcDbVertex
100
AcDb2dVertex
 10
-220.84912109375
 20
44.97119140625
 30
0.0
  0
VERTEX
  5
A9
330
A7
100
AcDbEntity
  8
STANDARDEBENE
 62
     7
100
AcDbVertex
100
AcDb2dVertex
 10
-223.68310546875
 20
44.97119140625
 30
0.0
  0
SEQEND
  5
AA
330
A7
100
AcDbEntity
  8
STANDARDEBENE
  0
POLYLINE
  5
AB
330
1F
100
AcDbEntity
  8
STANDARDEBENE
 62
     7
100
AcDb2dPolyline
 66
     1
 10
0.0
 20
0.0
 30
0.0
  0
VERTEX
  5
AC
330
AB
100
AcDbEntity
  8
STANDARDEBENE
 62
     7
100
AcDbVertex
100
AcDb2dVertex
 10
-226.51806640625
 20
44.97119140625
 30
0.0
  0
VERTEX
  5
AD
330
AB
100
AcDbEntity
  8
STANDARDEBENE
 62
     7
100
AcDbVertex
100
AcDb2dVertex
 10
-229.3544921875
 20
44.97119140625
 30
0.0
  0
SEQEND
  5
AE
330
AB
100
AcDbEntity
  8
STANDARDEBENE
  0
POLYLINE
  5
AF
330
1F
100
AcDbEntity
  8
STANDARDEBENE
 62
     7
100
AcDb2dPolyline
 66
     1
 10
0.0
 20
0.0
 30
0.0
  0
VERTEX
  5
B0
330
AF
100
AcDbEntity
  8
STANDARDEBENE
 62
     7
100
AcDbVertex
100
AcDb2dVertex
 10
-232.1884765625
 20
44.97119140625
 30
0.0
  0
VERTEX
  5
B1
330
AF
100
AcDbEntity
  8
STANDARDEBENE
 62
     7
100
AcDbVertex
100
AcDb2dVertex
 10
-233.6064453125
 20
44.97119140625
 30
0.0
  0
SEQEND
  5
B2
330
AF
100
AcDbEntity
  8
STANDARDEBENE
  0
POLYLINE
  5
B3
330
1F
100
AcDbEntity
  8
STANDARDEBENE
 62
     7
100
AcDb2dPolyline
 66
     1
 10
0.0
 20
0.0
 30
0.0
  0
VERTEX
  5
B4
330
B3
100
AcDbEntity
  8
STANDARDEBENE
 62
     7
100
AcDbVertex
100
AcDb2dVertex
 10
-103.21240234375
 20
-28.72998046875
 30
0.0
  0
VERTEX
  5
B5
330
B3
100
AcDbEntity
  8
STANDARDEBENE
 62
     7
100
AcDbVertex
100
AcDb2dVertex
 10
-104.62939453125
 20
-28.72998046875
 30
0.0
  0
SEQEND
  5
B6
330
B3
100
AcDbEntity
  8
STANDARDEBENE
  0
POLYLINE
  5
B7
330
1F
100
AcDbEntity
  8
STANDARDEBENE
 62
     7
100
AcDb2dPolyline
 66
     1
 10
0.0
 20
0.0
 30
0.0
  0
VERTEX
  5
B8
330
B7
100
AcDbEntity
  8
STANDARDEBENE
 62
     7
100
AcDbVertex
100
AcDb2dVertex
 10
-107.46240234375
 20
-28.72998046875
 30
0.0
  0
VERTEX
  5
B9
330
B7
100
AcDbEntity
  8
STANDARDEBENE
 62
     7
100
AcDbVertex
100
AcDb2dVertex
 10
-110.30029296875
 20
-28.72998046875
 30
0.0
  0
SEQEND
  5
BA
330
B7
100
AcDbEntity
  8
STANDARDEBENE
  0
POLYLINE
  5
BB
330
1F
100
AcDbEntity
  8
STANDARDEBENE
 62
     7
100
AcDb2dPolyline
 66
     1
 10
0.0
 20
0.0
 30
0.0
  0
VERTEX
  5
BC
330
BB
100
AcDbEntity
  8
STANDARDEBENE
 62
     7
100
AcDbVertex
100
AcDb2dVertex
 10
-113.13330078125
 20
-28.72998046875
 30
0.0
  0
VERTEX
  5
BD
330
BB
100
AcDbEntity
  8
STANDARDEBENE
 62
     7
100
AcDbVertex
100
AcDb2dVertex
 10
-115.96728515625
 20
-28.72998046875
 30
0.0
  0
SEQEND
  5
BE
330
BB
100
AcDbEntity
  8
STANDARDEBENE
  0
POLYLINE
  5
BF
330
1F
100
AcDbEntity
  8
STANDARDEBENE
 62
     7
100
AcDb2dPolyline
 66
     1
 10
0.0
 20
0.0
 30
0.0
  0
VERTEX
  5
C0
330
BF
100
AcDbEntity
  8
STANDARDEBENE
 62
     7
100
AcDbVertex
100
AcDb2dVertex
 10
-118.80419921875
 20
-28.72998046875
 30
0.0
  0
VERTEX
  5
C1
330
BF
100
AcDbEntity
  8
STANDARDEBENE
 62
     7
100
AcDbVertex
100
AcDb2dVertex
 10
-121.63720703125
 20
-28.72998046875
 30
0.0
  0
SEQEND
  5
C2
330
BF
100
AcDbEntity
  8
STANDARDEBENE
  0
POLYLINE
  5
C3
330
1F
100
AcDbEntity
  8
STANDARDEBENE
 62
     7
100
AcDb2dPolyline
 66
     1
 10
0.0
 20
0.0
 30
0.0
  0
VERTEX
  5
C4
330
C3
100
AcDbEntity
  8
STANDARDEBENE
 62
     7
100
AcDbVertex
100
AcDb2dVertex
 10
-124.47119140625
 20
-28.72998046875
 30
0.0
  0
VERTEX
  5
C5
330
C3
100
AcDbEntity
  8
STANDARDEBENE
 62
     7
100
AcDbVertex
100
AcDb2dVertex
 10
-127.30419921875
 20
-28.72998046875
 30
0.0
  0
SEQEND
  5
C6
330
C3
100
AcDbEntity
  8
STANDARDEBENE
  0
POLYLINE
  5
C7
330
1F
100
AcDbEntity
  8
STANDARDEBENE
 62
     7
100
AcDb2dPolyline
 66
     1
 10
0.0
 20
0.0
 30
0.0
  0
VERTEX
  5
C8
330
C7
100
AcDbEntity
  8
STANDARDEBENE
 62
     7
100
AcDbVertex
100
AcDb2dVertex
 10
-130.14111328125
 20
-28.72998046875
 30
0.0
  0
VERTEX
  5
C9
330
C7
100
AcDbEntity
  8
STANDARDEBENE
 62
     7
100
AcDbVertex
100
AcDb2dVertex
 10
-132.97509765625
 20
-28.72998046875
 30
0.0
  0
SEQEND
  5
CA
330
C7
100
AcDbEntity
  8
STANDARDEBENE
  0
POLYLINE
  5
CB
330
1F
100
AcDbEntity
  8
STANDARDEBENE
 62
     7
100
AcDb2dPolyline
 66
     1
 10
0.0
 20
0.0
 30
0.0
  0
VERTEX
  5
CC
330
CB
100
AcDbEntity
  8
STANDARDEBENE
 62
     7
100
AcDbVertex
100
AcDb2dVertex
 10
-135.80908203125
 20
-28.72998046875
 30
0.0
  0
VERTEX
  5
CD
330
CB
100
AcDbEntity
  8
STANDARDEBENE
 62
     7
100
AcDbVertex
100
AcDb2dVertex
 10
-138.64501953125
 20
-28.72998046875
 30
0.0
  0
SEQEND
  5
CE
330
CB
100
AcDbEntity
  8
STANDARDEBENE
  0
POLYLINE
  5
CF
330
1F
100
AcDbEntity
  8
STANDARDEBENE
 62
     7
100
AcDb2dPolyline
 66
     1
 10
0.0
 20
0.0
 30
0.0
  0
VERTEX
  5
D0
330
CF
100
AcDbEntity
  8
STANDARDEBENE
 62
     7
100
AcDbVertex
100
AcDb2dVertex
 10
-141.48095703125
 20
-28.72998046875
 30
0.0
  0
VERTEX
  5
D1
330
CF
100
AcDbEntity
  8
STANDARDEBENE
 62
     7
100
AcDbVertex
100
AcDb2dVertex
 10
-144.31298828125
 20
-28.72998046875
 30
0.0
  0
SEQEND
  5
D2
330
CF
100
AcDbEntity
  8
STANDARDEBENE
  0
POLYLINE
  5
D3
330
1F
100
AcDbEntity
  8
STANDARDEBENE
 62
     7
100
AcDb2dPolyline
 66
     1
 10
0.0
 20
0.0
 30
0.0
  0
VERTEX
  5
D4
330
D3
100
AcDbEntity
  8
STANDARDEBENE
 62
     7
100
AcDbVertex
100
AcDb2dVertex
 10
-147.14892578125
 20
-28.72998046875
 30
0.0
  0
VERTEX
  5
D5
330
D3
100
AcDbEntity
  8
STANDARDEBENE
 62
     7
100
AcDbVertex
100
AcDb2dVertex
 10
-149.98291015625
 20
-28.72998046875
 30
0.0
  0
SEQEND
  5
D6
330
D3
100
AcDbEntity
  8
STANDARDEBENE
  0
POLYLINE
  5
D7
330
1F
100
AcDbEntity
  8
STANDARDEBENE
 62
     7
100
AcDb2dPolyline
 66
     1
 10
0.0
 20
0.0
 30
0.0
  0
VERTEX
  5
D8
330
D7
100
AcDbEntity
  8
STANDARDEBENE
 62
     7
100
AcDbVertex
100
AcDb2dVertex
 10
-152.81884765625
 20
-28.72998046875
 30
0.0
  0
VERTEX
  5
D9
330
D7
100
AcDbEntity
  8
STANDARDEBENE
 62
     7
100
AcDbVertex
100
AcDb2dVertex
 10
-155.65283203125
 20
-28.72998046875
 30
0.0
  0
SEQEND
  5
DA
330
D7
100
AcDbEntity
  8
STANDARDEBENE
  0
POLYLINE
  5
DB
330
1F
100
AcDbEntity
  8
STANDARDEBENE
 62
     7
100
AcDb2dPolyline
 66
     1
 10
0.0
 20
0.0
 30
0.0
  0
VERTEX
  5
DC
330
DB
100
AcDbEntity
  8
STANDARDEBENE
 62
     7
100
AcDbVertex
100
AcDb2dVertex
 10
-158.48681640625
 20
-28.72998046875
 30
0.0
  0
VERTEX
  5
DD
330
DB
100
AcDbEntity
  8
STANDARDEBENE
 62
     7
100
AcDbVertex
100
AcDb2dVertex
 10
-161.32275390625
 20
-28.72998046875
 30
0.0
  0
SEQEND
  5
DE
330
DB
100
AcDbEntity
  8
STANDARDEBENE
  0
POLYLINE
  5
DF
330
1F
100
AcDbEntity
  8
STANDARDEBENE
 62
     7
100
AcDb2dPolyline
 66
     1
 10
0.0
 20
0.0
 30
0.0
  0
VERTEX
  5
E0
330
DF
100
AcDbEntity
  8
STANDARDEBENE
 62
     7
100
AcDbVertex
100
AcDb2dVertex
 10
-164.15673828125
 20
-28.72998046875
 30
0.0
  0
VERTEX
  5
E1
330
DF
100
AcDbEntity
  8
STANDARDEBENE
 62
     7
100
AcDbVertex
100
AcDb2dVertex
 10
-166.99072265625
 20
-28.72998046875
 30
0.0
  0
SEQEND
  5
E2
330
DF
100
AcDbEntity
  8
STANDARDEBENE
  0
POLYLINE
  5
E3
330
1F
100
AcDbEntity
  8
STANDARDEBENE
 62
     7
100
AcDb2dPolyline
 66
     1
 10
0.0
 20
0.0
 30
0.0
  0
VERTEX
  5
E4
330
E3
100
AcDbEntity
  8
STANDARDEBENE
 62
     7
100
AcDbVertex
100
AcDb2dVertex
 10
-169.82666015625
 20
-28.72998046875
 30
0.0
  0
VERTEX
  5
E5
330
E3
100
AcDbEntity
  8
STANDARDEBENE
 62
     7
100
AcDbVertex
100
AcDb2dVertex
 10
-172.66064453125
 20
-28.72998046875
 30
0.0
  0
SEQEND
  5
E6
330
E3
100
AcDbEntity
  8
STANDARDEBENE
  0
POLYLINE
  5
E7
330
1F
100
AcDbEntity
  8
STANDARDEBENE
 62
     7
100
AcDb2dPolyline
 66
     1
 10
0.0
 20
0.0
 30
0.0
  0
VERTEX
  5
E8
330
E7
100
AcDbEntity
  8
STANDARDEBENE
 62
     7
100
AcDbVertex
100
AcDb2dVertex
 10
-175.49462890625
 20
-28.72998046875
 30
0.0
  0
VERTEX
  5
E9
330
E7
100
AcDbEntity
  8
STANDARDEBENE
 62
     7
100
AcDbVertex
100
AcDb2dVertex
 10
-178.3291015625
 20
-28.72998046875
 30
0.0
  0
SEQEND
  5
EA
330
E7
100
AcDbEntity
  8
STANDARDEBENE
  0
POLYLINE
  5
EB
330
1F
100
AcDbEntity
  8
STANDARDEBENE
 62
     7
100
AcDb2dPolyline
 66
     1
 10
0.0
 20
0.0
 30
0.0
  0
VERTEX
  5
EC
330
EB
100
AcDbEntity
  8
STANDARDEBENE
 62
     7
100
AcDbVertex
100
AcDb2dVertex
 10
-181.1640625
 20
-28.72998046875
 30
0.0
  0
VERTEX
  5
ED
330
EB
100
AcDbEntity
  8
STANDARDEBENE
 62
     7
100
AcDbVertex
100
AcDb2dVertex
 10
-183.9990234375
 20
-28.72998046875
 30
0.0
  0
SEQEND
  5
EE
330
EB
100
AcDbEntity
  8
STANDARDEBENE
  0
POLYLINE
  5
EF
330
1F
100
AcDbEntity
  8
STANDARDEBENE
 62
     7
100
AcDb2dPolyline
 66
     1
 10
0.0
 20
0.0
 30
0.0
  0
VERTEX
  5
F0
330
EF
100
AcDbEntity
  8
STANDARDEBENE
 62
     7
100
AcDbVertex
100
AcDb2dVertex
 10
-186.8330078125
 20
-28.72998046875
 30
0.0
  0
VERTEX
  5
F1
330
EF
100
AcDbEntity
  8
STANDARDEBENE
 62
     7
100
AcDbVertex
100
AcDb2dVertex
 10
-189.66943359375
 20
-28.72998046875
 30
0.0
  0
SEQEND
  5
F2
330
EF
100
AcDbEntity
  8
STANDARDEBENE
  0
POLYLINE
  5
F3
330
1F
100
AcDbEntity
  8
STANDARDEBENE
 62
     7
100
AcDb2dPolyline
 66
     1
 10
0.0
 20
0.0
 30
0.0
  0
VERTEX
  5
F4
330
F3
100
AcDbEntity
  8
STANDARDEBENE
 62
     7
100
AcDbVertex
100
AcDb2dVertex
 10
-192.50341796875
 20
-28.72998046875
 30
0.0
  0
VERTEX
  5
F5
330
F3
100
AcDbEntity
  8
STANDARDEBENE
 62
     7
100
AcDbVertex
100
AcDb2dVertex
 10
-195.33740234375
 20
-28.72998046875
 30
0.0
  0
SEQEND
  5
F6
330
F3
100
AcDbEntity
  8
STANDARDEBENE
  0
POLYLINE
  5
F7
330
1F
100
AcDbEntity
  8
STANDARDEBENE
 62
     7
100
AcDb2dPolyline
 66
     1
 10
0.0
 20
0.0
 30
0.0
  0
VERTEX
  5
F8
330
F7
100
AcDbEntity
  8
STANDARDEBENE
 62
     7
100
AcDbVertex
100
AcDb2dVertex
 10
-198.17236328125
 20
-28.72998046875
 30
0.0
  0
VERTEX
  5
F9
330
F7
100
AcDbEntity
  8
STANDARDEBENE
 62
     7
100
AcDbVertex
100
AcDb2dVertex
 10
-201.00634765625
 20
-28.72998046875
 30
0.0
  0
SEQEND
  5
FA
330
F7
100
AcDbEntity
  8
STANDARDEBENE
  0
POLYLINE
  5
FB
330
1F
100
AcDbEntity
  8
STANDARDEBENE
 62
     7
100
AcDb2dPolyline
 66
     1
 10
0.0
 20
0.0
 30
0.0
  0
VERTEX
  5
FC
330
FB
100
AcDbEntity
  8
STANDARDEBENE
 62
     7
100
AcDbVertex
100
AcDb2dVertex
 10
-203.84228515625
 20
-28.72998046875
 30
0.0
  0
VERTEX
  5
FD
330
FB
100
AcDbEntity
  8
STANDARDEBENE
 62
     7
100
AcDbVertex
100
AcDb2dVertex
 10
-206.67626953125
 20
-28.72998046875
 30
0.0
  0
SEQEND
  5
FE
330
FB
100
AcDbEntity
  8
STANDARDEBENE
  0
POLYLINE
  5
FF
330
1F
100
AcDbEntity
  8
STANDARDEBENE
 62
     7
100
AcDb2dPolyline
 66
     1
 10
0.0
 20
0.0
 30
0.0
  0
VERTEX
  5
100
330
FF
100
AcDbEntity
  8
STANDARDEBENE
 62
     7
100
AcDbVertex
100
AcDb2dVertex
 10
-209.51025390625
 20
-28.72998046875
 30
0.0
  0
VERTEX
  5
101
330
FF
100
AcDbEntity
  8
STANDARDEBENE
 62
     7
100
AcDbVertex
100
AcDb2dVertex
 10
-212.34521484375
 20
-28.72998046875
 30
0.0
  0
SEQEND
  5
102
330
FF
100
AcDbEntity
  8
STANDARDEBENE
  0
POLYLINE
  5
103
330
1F
100
AcDbEntity
  8
STANDARDEBENE
 62
     7
100
AcDb2dPolyline
 66
     1
 10
0.0
 20
0.0
 30
0.0
  0
VERTEX
  5
104
330
103
100
AcDbEntity
  8
STANDARDEBENE
 62
     7
100
AcDbVertex
100
AcDb2dVertex
 10
-215.18115234375
 20
-28.72998046875
 30
0.0
  0
VERTEX
  5
105
330
103
100
AcDbEntity
  8
STANDARDEBENE
 62
     7
100
AcDbVertex
100
AcDb2dVertex
 10
-218.01513671875
 20
-28.72998046875
 30
0.0
  0
SEQEND
  5
106
330
103
100
AcDbEntity
  8
STANDARDEBENE
  0
POLYLINE
  5
107
330
1F
100
AcDbEntity
  8
STANDARDEBENE
 62
     7
100
AcDb2dPolyline
 66
     1
 10
0.0
 20
0.0
 30
0.0
  0
VERTEX
  5
108
330
107
100
AcDbEntity
  8
STANDARDEBENE
 62
     7
100
AcDbVertex
100
AcDb2dVertex
 10
-220.84912109375
 20
-28.72998046875
 30
0.0
  0
VERTEX
  5
109
330
107
100
AcDbEntity
  8
STANDARDEBENE
 62
     7
100
AcDbVertex
100
AcDb2dVertex
 10
-223.68310546875
 20
-28.72998046875
 30
0.0
  0
SEQEND
  5
10A
330
107
100
AcDbEntity
  8
STANDARDEBENE
  0
POLYLINE
  5
10B
330
1F
100
AcDbEntity
  8
STANDARDEBENE
 62
     7
100
AcDb2dPolyline
 66
     1
 10
0.0
 20
0.0
 30
0.0
  0
VERTEX
  5
10C
330
10B
100
AcDbEntity
  8
STANDARDEBENE
 62
     7
100
AcDbVertex
100
AcDb2dVertex
 10
-226.51806640625
 20
-28.72998046875
 30
0.0
  0
VERTEX
  5
10D
330
10B
100
AcDbEntity
  8
STANDARDEBENE
 62
     7
100
AcDbVertex
100
AcDb2dVertex
 10
-229.3544921875
 20
-28.72998046875
 30
0.0
  0
SEQEND
  5
10E
330
10B
100
AcDbEntity
  8
STANDARDEBENE
  0
POLYLINE
  5
10F
330
1F
100
AcDbEntity
  8
STANDARDEBENE
 62
     7
100
AcDb2dPolyline
 66
     1
 10
0.0
 20
0.0
 30
0.0
  0
VERTEX
  5
110
330
10F
100
AcDbEntity
  8
STANDARDEBENE
 62
     7
100
AcDbVertex
100
AcDb2dVertex
 10
-232.1884765625
 20
-28.72998046875
 30
0.0
  0
VERTEX
  5
111
330
10F
100
AcDbEntity
  8
STANDARDEBENE
 62
     7
100
AcDbVertex
100
AcDb2dVertex
 10
-233.6064453125
 20
-28.72998046875
 30
0.0
  0
SEQEND
  5
112
330
10F
100
AcDbEntity
  8
STANDARDEBENE
  0
POLYLINE
  5
113
330
1F
100
AcDbEntity
  8
STANDARDEBENE
 62
     7
100
AcDb2dPolyline
 66
     1
 10
0.0
 20
0.0
 30
0.0
  0
VERTEX
  5
114
330
113
100
AcDbEntity
  8
STANDARDEBENE
 62
     7
100
AcDbVertex
100
AcDb2dVertex
 10
-103.21240234375
 20
52.28369140625
 30
0.0
  0
VERTEX
  5
115
330
113
100
AcDbEntity
  8
STANDARDEBENE
 62
     7
100
AcDbVertex
100
AcDb2dVertex
 10
-202.14013671875
 20
66.1982421875
 30
0.0
  0
SEQEND
  5
116
330
113
100
AcDbEntity
  8
STANDARDEBENE
  0
POLYLINE
  5
117
330
1F
100
AcDbEntity
  8
STANDARDEBENE
 62
     7
100
AcDb2dPolyline
 66
     1
 10
0.0
 20
0.0
 30
0.0
  0
VERTEX
  5
118
330
117
100
AcDbEntity
  8
STANDARDEBENE
 62
     7
100
AcDbVertex
100
AcDb2dVertex
 10
-103.21240234375
 20
-36.04248046875
 30
0.0
  0
VERTEX
  5
119
330
117
100
AcDbEntity
  8
STANDARDEBENE
 62
     7
100
AcDbVertex
100
AcDb2dVertex
 10
-202.14013671875
 20
-49.95654296875
 30
0.0
  0
SEQEND
  5
11A
330
117
100
AcDbEntity
  8
STANDARDEBENE
  0
POLYLINE
  5
11B
330
1F
100
AcDbEntity
  8
STANDARDEBENE
  6
AI-LINETYPE-1
 62
     7
100
AcDb2dPolyline
 66
     1
 10
0.0
 20
0.0
 30
0.0
  0
VERTEX
  5
11C
330
11B
100
AcDbEntity
  8
STANDARDEBENE
  6
AI-LINETYPE-1
 62
     7
100
AcDbVertex
100
AcDb2dVertex
 10
-99.77099609375
 20
8.12060546875
 30
0.0
  0
VERTEX
  5
11D
330
11B
100
AcDbEntity
  8
STANDARDEBENE
  6
AI-LINETYPE-1
 62
     7
100
AcDbVertex
100
AcDb2dVertex
 10
-238.1630859375
 20
8.12060546875
 30
0.0
  0
SEQEND
  5
11E
330
11B
100
AcDbEntity
  8
STANDARDEBENE
  6
AI-LINETYPE-1
  0
POLYLINE
  5
120
330
1F
100
AcDbEntity
  8
STANDARDEBENE
 62
     7
100
AcDb2dPolyline
 66
     1
 10
0.0
 20
0.0
 30
0.0
  0
VERTEX
  5
121
330
120
100
AcDbEntity
  8
STANDARDEBENE
 62
     7
100
AcDbVertex
100
AcDb2dVertex
 10
-202.14013671875
 20
66.1982421875
 30
0.0
  0
VERTEX
  5
122
330
120
100
AcDbEntity
  8
STANDARDEBENE
 62
     7
100
AcDbVertex
100
AcDb2dVertex
 10
-195.91943359375
 20
65.32421875
 30
0.0
  0
VERTEX
  5
123
330
120
100
AcDbEntity
  8
STANDARDEBENE
 62
     7
100
AcDbVertex
100
AcDb2dVertex
 10
-115.95166015625
 20
54.07666015625
 30
0.0
  0
VERTEX
  5
124
330
120
100
AcDbEntity
  8
STANDARDEBENE
 62
     7
100
AcDbVertex
100
AcDb2dVertex
 10
-103.21240234375
 20
52.28369140625
 30
0.0
  0
SEQEND
  5
125
330
120
100
AcDbEntity
  8
STANDARDEBENE
  0
POLYLINE
  5
126
330
1F
100
AcDbEntity
  8
STANDARDEBENE
 62
     7
100
AcDb2dPolyline
 66
     1
 10
0.0
 20
0.0
 30
0.0
  0
VERTEX
  5
127
330
126
100
AcDbEntity
  8
STANDARDEBENE
 62
     7
100
AcDbVertex
100
AcDb2dVertex
 10
-202.14013671875
 20
66.1982421875
 30
0.0
  0
VERTEX
  5
128
330
126
100
AcDbEntity
  8
STANDARDEBENE
 62
     7
100
AcDbVertex
100
AcDb2dVertex
 10
-202.14013671875
 20
65.60009765625
 30
0.0
  0
VERTEX
  5
129
330
126
100
AcDbEntity
  8
STANDARDEBENE
 62
     7
100
AcDbVertex
100
AcDb2dVertex
 10
-202.14013671875
 20
64.25146484375
 30
0.0
  0
VERTEX
  5
12A
330
126
100
AcDbEntity
  8
STANDARDEBENE
 62
     7
100
AcDbVertex
100
AcDb2dVertex
 10
-202.14013671875
 20
62.17041015625
 30
0.0
  0
VERTEX
  5
12B
330
126
100
AcDbEntity
  8
STANDARDEBENE
 62
     7
100
AcDbVertex
100
AcDb2dVertex
 10
-202.14013671875
 20
59.38623046875
 30
0.0
  0
SEQEND
  5
12C
330
126
100
AcDbEntity
  8
STANDARDEBENE
  0
POLYLINE
  5
12D
330
1F
100
AcDbEntity
  8
STANDARDEBENE
 62
     7
100
AcDb2dPolyline
 66
     1
 10
0.0
 20
0.0
 30
0.0
  0
VERTEX
  5
12E
330
12D
100
AcDbEntity
  8
STANDARDEBENE
 62
     7
100
AcDbVertex
100
AcDb2dVertex
 10
-120.64599609375
 20
49.46142578125
 30
0.0
  0
VERTEX
  5
12F
330
12D
100
AcDbEntity
  8
STANDARDEBENE
 62
     7
100
AcDbVertex
100
AcDb2dVertex
 10
-202.14013671875
 20
59.38623046875
 30
0.0
  0
SEQEND
  5
130
330
12D
100
AcDbEntity
  8
STANDARDEBENE
  0
POLYLINE
  5
131
330
1F
100
AcDbEntity
  8
STANDARDEBENE
 62
     7
100
AcDb2dPolyline
 66
     1
 10
0.0
 20
0.0
 30
0.0
  0
VERTEX
  5
132
330
131
100
AcDbEntity
  8
STANDARDEBENE
 62
     7
100
AcDbVertex
100
AcDb2dVertex
 10
-120.64599609375
 20
47.52392578125
 30
0.0
  0
VERTEX
  5
133
330
131
100
AcDbEntity
  8
STANDARDEBENE
 62
     7
100
AcDbVertex
100
AcDb2dVertex
 10
-120.64599609375
 20
48.52587890625
 30
0.0
  0
VERTEX
  5
134
330
131
100
AcDbEntity
  8
STANDARDEBENE
 62
     7
100
AcDbVertex
100
AcDb2dVertex
 10
-120.64599609375
 20
49.46142578125
 30
0.0
  0
SEQEND
  5
135
330
131
100
AcDbEntity
  8
STANDARDEBENE
  0
POLYLINE
  5
136
330
1F
100
AcDbEntity
  8
STANDARDEBENE
 62
     7
100
AcDb2dPolyline
 66
     1
 10
0.0
 20
0.0
 30
0.0
  0
VERTEX
  5
137
330
136
100
AcDbEntity
  8
STANDARDEBENE
 62
     7
100
AcDbVertex
100
AcDb2dVertex
 10
-202.14013671875
 20
57.44970703125
 30
0.0
  0
VERTEX
  5
138
330
136
100
AcDbEntity
  8
STANDARDEBENE
 62
     7
100
AcDbVertex
100
AcDb2dVertex
 10
-120.64599609375
 20
47.52392578125
 30
0.0
  0
SEQEND
  5
139
330
136
100
AcDbEntity
  8
STANDARDEBENE
  0
POLYLINE
  5
13A
330
1F
100
AcDbEntity
  8
STANDARDEBENE
 62
     7
100
AcDb2dPolyline
 66
     1
 10
0.0
 20
0.0
 30
0.0
  0
VERTEX
  5
13B
330
13A
100
AcDbEntity
  8
STANDARDEBENE
 62
     7
100
AcDbVertex
100
AcDb2dVertex
 10
-202.14013671875
 20
57.44970703125
 30
0.0
  0
VERTEX
  5
13C
330
13A
100
AcDbEntity
  8
STANDARDEBENE
 62
     7
100
AcDbVertex
100
AcDb2dVertex
 10
-202.14013671875
 20
53.62646484375
 30
0.0
  0
VERTEX
  5
13D
330
13A
100
AcDbEntity
  8
STANDARDEBENE
 62
     7
100
AcDbVertex
100
AcDb2dVertex
 10
-202.14013671875
 20
49.21240234375
 30
0.0
  0
VERTEX
  5
13E
330
13A
100
AcDbEntity
  8
STANDARDEBENE
 62
     7
100
AcDbVertex
100
AcDb2dVertex
 10
-202.14013671875
 20
44.26025390625
 30
0.0
  0
VERTEX
  5
13F
330
13A
100
AcDbEntity
  8
STANDARDEBENE
 62
     7
100
AcDbVertex
100
AcDb2dVertex
 10
-202.14013671875
 20
38.83740234375
 30
0.0
  0
SEQEND
  5
140
330
13A
100
AcDbEntity
  8
STANDARDEBENE
  0
POLYLINE
  5
141
330
1F
100
AcDbEntity
  8
STANDARDEBENE
 62
     7
100
AcDb2dPolyline
 66
     1
 10
0.0
 20
0.0
 30
0.0
  0
VERTEX
  5
142
330
141
100
AcDbEntity
  8
STANDARDEBENE
 62
     7
100
AcDbVertex
100
AcDb2dVertex
 10
-103.21240234375
 20
31.88037109375
 30
0.0
  0
VERTEX
  5
143
330
141
100
AcDbEntity
  8
STANDARDEBENE
 62
     7
100
AcDbVertex
100
AcDb2dVertex
 10
-180.0673828125
 20
37.28564453125
 30
0.0
  0
VERTEX
  5
144
330
141
100
AcDbEntity
  8
STANDARDEBENE
 62
     7
100
AcDbVertex
100
AcDb2dVertex
 10
-202.14013671875
 20
38.83740234375
 30
0.0
  0
SEQEND
  5
145
330
141
100
AcDbEntity
  8
STANDARDEBENE
  0
POLYLINE
  5
146
330
1F
100
AcDbEntity
  8
STANDARDEBENE
 62
     7
100
AcDb2dPolyline
 66
     1
 10
0.0
 20
0.0
 30
0.0
  0
VERTEX
  5
147
330
146
100
AcDbEntity
  8
STANDARDEBENE
 62
     7
100
AcDbVertex
100
AcDb2dVertex
 10
-103.21240234375
 20
31.88037109375
 30
0.0
  0
VERTEX
  5
148
330
146
100
AcDbEntity
  8
STANDARDEBENE
 62
     7
100
AcDbVertex
100
AcDb2dVertex
 10
-103.21240234375
 20
36.17041015625
 30
0.0
  0
VERTEX
  5
149
330
146
100
AcDbEntity
  8
STANDARDEBENE
 62
     7
100
AcDbVertex
100
AcDb2dVertex
 10
-103.21240234375
 20
40.05810546875
 30
0.0
  0
VERTEX
  5
14A
330
146
100
AcDbEntity
  8
STANDARDEBENE
 62
     7
100
AcDbVertex
100
AcDb2dVertex
 10
-103.21240234375
 20
43.48681640625
 30
0.0
  0
VERTEX
  5
14B
330
146
100
AcDbEntity
  8
STANDARDEBENE
 62
     7
100
AcDbVertex
100
AcDb2dVertex
 10
-103.21240234375
 20
46.40478515625
 30
0.0
  0
VERTEX
  5
14C
330
146
100
AcDbEntity
  8
STANDARDEBENE
 62
     7
100
AcDbVertex
100
AcDb2dVertex
 10
-103.21240234375
 20
48.77392578125
 30
0.0
  0
VERTEX
  5
14D
330
146
100
AcDbEntity
  8
STANDARDEBENE
 62
     7
100
AcDbVertex
100
AcDb2dVertex
 10
-103.21240234375
 20
50.56103515625
 30
0.0
  0
VERTEX
  5
14E
330
146
100
AcDbEntity
  8
STANDARDEBENE
 62
     7
100
AcDbVertex
100
AcDb2dVertex
 10
-103.21240234375
 20
51.73681640625
 30
0.0
  0
VERTEX
  5
14F
330
146
100
AcDbEntity
  8
STANDARDEBENE
 62
     7
100
AcDbVertex
100
AcDb2dVertex
 10
-103.21240234375
 20
52.28369140625
 30
0.0
  0
SEQEND
  5
150
330
146
100
AcDbEntity
  8
STANDARDEBENE
  0
POLYLINE
  5
151
330
1F
100
AcDbEntity
  8
STANDARDEBENE
 62
     7
100
AcDb2dPolyline
 66
     1
 10
0.0
 20
0.0
 30
0.0
  0
VERTEX
  5
152
330
151
100
AcDbEntity
  8
STANDARDEBENE
 62
     7
100
AcDbVertex
100
AcDb2dVertex
 10
-213.76318359375
 20
35.48291015625
 30
0.0
  0
VERTEX
  5
153
330
151
100
AcDbEntity
  8
STANDARDEBENE
 62
     7
100
AcDbVertex
100
AcDb2dVertex
 10
-213.76318359375
 20
38.83740234375
 30
0.0
  0
VERTEX
  5
154
330
151
100
AcDbEntity
  8
STANDARDEBENE
 62
     7
100
AcDbVertex
100
AcDb2dVertex
 10
-213.76318359375
 20
44.26025390625
 30
0.0
  0
VERTEX
  5
155
330
151
100
AcDbEntity
  8
STANDARDEBENE
 62
     7
100
AcDbVertex
100
AcDb2dVertex
 10
-213.76318359375
 20
49.21240234375
 30
0.0
  0
VERTEX
  5
156
330
151
100
AcDbEntity
  8
STANDARDEBENE
 62
     7
100
AcDbVertex
100
AcDb2dVertex
 10
-213.76318359375
 20
53.62646484375
 30
0.0
  0
VERTEX
  5
157
330
151
100
AcDbEntity
  8
STANDARDEBENE
 62
     7
100
AcDbVertex
100
AcDb2dVertex
 10
-213.76318359375
 20
57.44970703125
 30
0.0
  0
SEQEND
  5
158
330
151
100
AcDbEntity
  8
STANDARDEBENE
  0
POLYLINE
  5
159
330
1F
100
AcDbEntity
  8
STANDARDEBENE
 62
     7
100
AcDb2dPolyline
 66
     1
 10
0.0
 20
0.0
 30
0.0
  0
VERTEX
  5
15A
330
159
100
AcDbEntity
  8
STANDARDEBENE
 62
     7
100
AcDbVertex
100
AcDb2dVertex
 10
-202.14013671875
 20
38.83740234375
 30
0.0
  0
VERTEX
  5
15B
330
159
100
AcDbEntity
  8
STANDARDEBENE
 62
     7
100
AcDbVertex
100
AcDb2dVertex
 10
-202.14013671875
 20
35.48291015625
 30
0.0
  0
SEQEND
  5
15C
330
159
100
AcDbEntity
  8
STANDARDEBENE
  0
POLYLINE
  5
15D
330
1F
100
AcDbEntity
  8
STANDARDEBENE
 62
     7
100
AcDb2dPolyline
 66
     1
 10
0.0
 20
0.0
 30
0.0
  0
VERTEX
  5
15E
330
15D
100
AcDbEntity
  8
STANDARDEBENE
 62
     7
100
AcDbVertex
100
AcDb2dVertex
 10
-202.14013671875
 20
35.43310546875
 30
0.0
  0
VERTEX
  5
15F
330
15D
100
AcDbEntity
  8
STANDARDEBENE
 62
     7
100
AcDbVertex
100
AcDb2dVertex
 10
-213.76318359375
 20
35.43310546875
 30
0.0
  0
SEQEND
  5
160
330
15D
100
AcDbEntity
  8
STANDARDEBENE
  0
POLYLINE
  5
161
330
1F
100
AcDbEntity
  8
STANDARDEBENE
 62
     7
100
AcDb2dPolyline
 66
     1
 10
0.0
 20
0.0
 30
0.0
  0
VERTEX
  5
162
330
161
100
AcDbEntity
  8
STANDARDEBENE
 62
     7
100
AcDbVertex
100
AcDb2dVertex
 10
-213.76318359375
 20
51.55322265625
 30
0.0
  0
VERTEX
  5
163
330
161
100
AcDbEntity
  8
STANDARDEBENE
 62
     7
100
AcDbVertex
100
AcDb2dVertex
 10
-202.14013671875
 20
51.55322265625
 30
0.0
  0
SEQEND
  5
164
330
161
100
AcDbEntity
  8
STANDARDEBENE
  0
POLYLINE
  5
165
330
1F
100
AcDbEntity
  8
STANDARDEBENE
 62
     7
100
AcDb2dPolyline
 66
     1
 10
0.0
 20
0.0
 30
0.0
  0
VERTEX
  5
166
330
165
100
AcDbEntity
  8
STANDARDEBENE
 62
     7
100
AcDbVertex
100
AcDb2dVertex
 10
-213.76318359375
 20
38.83740234375
 30
0.0
  0
VERTEX
  5
167
330
165
100
AcDbEntity
  8
STANDARDEBENE
 62
     7
100
AcDbVertex
100
AcDb2dVertex
 10
-214.744140625
 20
38.83740234375
 30
0.0
  0
SEQEND
  5
168
330
165
100
AcDbEntity
  8
STANDARDEBENE
  0
POLYLINE
  5
169
330
1F
100
AcDbEntity
  8
STANDARDEBENE
 62
     7
100
AcDb2dPolyline
 66
     1
 10
0.0
 20
0.0
 30
0.0
  0
VERTEX
  5
16A
330
169
100
AcDbEntity
  8
STANDARDEBENE
 62
     7
100
AcDbVertex
100
AcDb2dVertex
 10
-214.744140625
 20
57.44970703125
 30
0.0
  0
VERTEX
  5
16B
330
169
100
AcDbEntity
  8
STANDARDEBENE
 62
     7
100
AcDbVertex
100
AcDb2dVertex
 10
-213.76318359375
 20
57.44970703125
 30
0.0
  0
SEQEND
  5
16C
330
169
100
AcDbEntity
  8
STANDARDEBENE
  0
POLYLINE
  5
16D
330
1F
100
AcDbEntity
  8
STANDARDEBENE
 62
     7
100
AcDb2dPolyline
 66
     1
 10
0.0
 20
0.0
 30
0.0
  0
VERTEX
  5
16E
330
16D
100
AcDbEntity
  8
STANDARDEBENE
 62
     7
100
AcDbVertex
100
AcDb2dVertex
 10
-214.744140625
 20
38.83740234375
 30
0.0
  0
VERTEX
  5
16F
330
16D
100
AcDbEntity
  8
STANDARDEBENE
 62
     7
100
AcDbVertex
100
AcDb2dVertex
 10
-214.744140625
 20
44.26025390625
 30
0.0
  0
VERTEX
  5
170
330
16D
100
AcDbEntity
  8
STANDARDEBENE
 62
     7
100
AcDbVertex
100
AcDb2dVertex
 10
-214.744140625
 20
49.21240234375
 30
0.0
  0
VERTEX
  5
171
330
16D
100
AcDbEntity
  8
STANDARDEBENE
 62
     7
100
AcDbVertex
100
AcDb2dVertex
 10
-214.744140625
 20
53.62646484375
 30
0.0
  0
VERTEX
  5
172
330
16D
100
AcDbEntity
  8
STANDARDEBENE
 62
     7
100
AcDbVertex
100
AcDb2dVertex
 10
-214.744140625
 20
57.44970703125
 30
0.0
  0
SEQEND
  5
173
330
16D
100
AcDbEntity
  8
STANDARDEBENE
  0
POLYLINE
  5
174
330
1F
100
AcDbEntity
  8
STANDARDEBENE
 62
     7
100
AcDb2dPolyline
 66
     1
 10
0.0
 20
0.0
 30
0.0
  0
VERTEX
  5
175
330
174
100
AcDbEntity
  8
STANDARDEBENE
 62
     7
100
AcDbVertex
100
AcDb2dVertex
 10
-214.744140625
 20
38.83740234375
 30
0.0
  0
VERTEX
  5
176
330
174
100
AcDbEntity
  8
STANDARDEBENE
 62
     7
100
AcDbVertex
100
AcDb2dVertex
 10
-233.6064453125
 20
33.39013671875
 30
0.0
  0
SEQEND
  5
177
330
174
100
AcDbEntity
  8
STANDARDEBENE
  0
POLYLINE
  5
178
330
1F
100
AcDbEntity
  8
STANDARDEBENE
 62
     7
100
AcDb2dPolyline
 66
     1
 10
0.0
 20
0.0
 30
0.0
  0
VERTEX
  5
179
330
178
100
AcDbEntity
  8
STANDARDEBENE
 62
     7
100
AcDbVertex
100
AcDb2dVertex
 10
-233.6064453125
 20
48.01318359375
 30
0.0
  0
VERTEX
  5
17A
330
178
100
AcDbEntity
  8
STANDARDEBENE
 62
     7
100
AcDbVertex
100
AcDb2dVertex
 10
-214.744140625
 20
57.44970703125
 30
0.0
  0
SEQEND
  5
17B
330
178
100
AcDbEntity
  8
STANDARDEBENE
  0
POLYLINE
  5
17C
330
1F
100
AcDbEntity
  8
STANDARDEBENE
 62
     7
100
AcDb2dPolyline
 66
     1
 10
0.0
 20
0.0
 30
0.0
  0
VERTEX
  5
17D
330
17C
100
AcDbEntity
  8
STANDARDEBENE
 62
     7
100
AcDbVertex
100
AcDb2dVertex
 10
-233.6064453125
 20
33.39013671875
 30
0.0
  0
VERTEX
  5
17E
330
17C
100
AcDbEntity
  8
STANDARDEBENE
 62
     7
100
AcDbVertex
100
AcDb2dVertex
 10
-233.6064453125
 20
38.96630859375
 30
0.0
  0
VERTEX
  5
17F
330
17C
100
AcDbEntity
  8
STANDARDEBENE
 62
     7
100
AcDbVertex
100
AcDb2dVertex
 10
-233.6064453125
 20
43.87548828125
 30
0.0
  0
VERTEX
  5
180
330
17C
100
AcDbEntity
  8
STANDARDEBENE
 62
     7
100
AcDbVertex
100
AcDb2dVertex
 10
-233.6064453125
 20
48.01318359375
 30
0.0
  0
SEQEND
  5
181
330
17C
100
AcDbEntity
  8
STANDARDEBENE
  0
POLYLINE
  5
182
330
1F
100
AcDbEntity
  8
STANDARDEBENE
 62
     7
100
AcDb2dPolyline
 66
     1
 10
0.0
 20
0.0
 30
0.0
  0
VERTEX
  5
183
330
182
100
AcDbEntity
  8
STANDARDEBENE
 62
     7
100
AcDbVertex
100
AcDb2dVertex
 10
-202.14013671875
 20
35.48291015625
 30
0.0
  0
VERTEX
  5
184
330
182
100
AcDbEntity
  8
STANDARDEBENE
 62
     7
100
AcDbVertex
100
AcDb2dVertex
 10
-103.21240234375
 20
28.52587890625
 30
0.0
  0
SEQEND
  5
185
330
182
100
AcDbEntity
  8
STANDARDEBENE
  0
POLYLINE
  5
186
330
1F
100
AcDbEntity
  8
STANDARDEBENE
 62
     7
100
AcDb2dPolyline
 66
     1
 10
0.0
 20
0.0
 30
0.0
  0
VERTEX
  5
187
330
186
100
AcDbEntity
  8
STANDARDEBENE
 62
     7
100
AcDbVertex
100
AcDb2dVertex
 10
-202.14013671875
 20
35.48291015625
 30
0.0
  0
VERTEX
  5
188
330
186
100
AcDbEntity
  8
STANDARDEBENE
 62
     7
100
AcDbVertex
100
AcDb2dVertex
 10
-202.14013671875
 20
29.46142578125
 30
0.0
  0
VERTEX
  5
189
330
186
100
AcDbEntity
  8
STANDARDEBENE
 62
     7
100
AcDbVertex
100
AcDb2dVertex
 10
-202.14013671875
 20
23.16064453125
 30
0.0
  0
VERTEX
  5
18A
330
186
100
AcDbEntity
  8
STANDARDEBENE
 62
     7
100
AcDbVertex
100
AcDb2dVertex
 10
-202.14013671875
 20
16.66552734375
 30
0.0
  0
VERTEX
  5
18B
330
186
100
AcDbEntity
  8
STANDARDEBENE
 62
     7
100
AcDbVertex
100
AcDb2dVertex
 10
-202.14013671875
 20
10.05810546875
 30
0.0
  0
SEQEND
  5
18C
330
186
100
AcDbEntity
  8
STANDARDEBENE
  0
POLYLINE
  5
18D
330
1F
100
AcDbEntity
  8
STANDARDEBENE
 62
     7
100
AcDb2dPolyline
 66
     1
 10
0.0
 20
0.0
 30
0.0
  0
VERTEX
  5
18E
330
18D
100
AcDbEntity
  8
STANDARDEBENE
 62
     7
100
AcDbVertex
100
AcDb2dVertex
 10
-120.64599609375
 20
10.05810546875
 30
0.0
  0
VERTEX
  5
18F
330
18D
100
AcDbEntity
  8
STANDARDEBENE
 62
     7
100
AcDbVertex
100
AcDb2dVertex
 10
-130.21728515625
 20
10.05810546875
 30
0.0
  0
VERTEX
  5
190
330
18D
100
AcDbEntity
  8
STANDARDEBENE
 62
     7
100
AcDbVertex
100
AcDb2dVertex
 10
-202.14013671875
 20
10.05810546875
 30
0.0
  0
SEQEND
  5
191
330
18D
100
AcDbEntity
  8
STANDARDEBENE
  0
POLYLINE
  5
192
330
1F
100
AcDbEntity
  8
STANDARDEBENE
 62
     7
100
AcDb2dPolyline
 66
     1
 10
0.0
 20
0.0
 30
0.0
  0
VERTEX
  5
193
330
192
100
AcDbEntity
  8
STANDARDEBENE
 62
     7
100
AcDbVertex
100
AcDb2dVertex
 10
-120.64599609375
 20
6.18310546875
 30
0.0
  0
VERTEX
  5
194
330
192
100
AcDbEntity
  8
STANDARDEBENE
 62
     7
100
AcDbVertex
100
AcDb2dVertex
 10
-120.64599609375
 20
8.12060546875
 30
0.0
  0
VERTEX
  5
195
330
192
100
AcDbEntity
  8
STANDARDEBENE
 62
     7
100
AcDbVertex
100
AcDb2dVertex
 10
-120.64599609375
 20
10.05810546875
 30
0.0
  0
SEQEND
  5
196
330
192
100
AcDbEntity
  8
STANDARDEBENE
  0
POLYLINE
  5
197
330
1F
100
AcDbEntity
  8
STANDARDEBENE
 62
     7
100
AcDb2dPolyline
 66
     1
 10
0.0
 20
0.0
 30
0.0
  0
VERTEX
  5
198
330
197
100
AcDbEntity
  8
STANDARDEBENE
 62
     7
100
AcDbVertex
100
AcDb2dVertex
 10
-202.14013671875
 20
6.18310546875
 30
0.0
  0
VERTEX
  5
199
330
197
100
AcDbEntity
  8
STANDARDEBENE
 62
     7
100
AcDbVertex
100
AcDb2dVertex
 10
-130.21728515625
 20
6.18310546875
 30
0.0
  0
VERTEX
  5
19A
330
197
100
AcDbEntity
  8
STANDARDEBENE
 62
     7
100
AcDbVertex
100
AcDb2dVertex
 10
-120.64599609375
 20
6.18310546875
 30
0.0
  0
SEQEND
  5
19B
330
197
100
AcDbEntity
  8
STANDARDEBENE
  0
POLYLINE
  5
19C
330
1F
100
AcDbEntity
  8
STANDARDEBENE
 62
     7
100
AcDb2dPolyline
 66
     1
 10
0.0
 20
0.0
 30
0.0
  0
VERTEX
  5
19D
330
19C
100
AcDbEntity
  8
STANDARDEBENE
 62
     7
100
AcDbVertex
100
AcDb2dVertex
 10
-202.14013671875
 20
6.18310546875
 30
0.0
  0
VERTEX
  5
19E
330
19C
100
AcDbEntity
  8
STANDARDEBENE
 62
     7
100
AcDbVertex
100
AcDb2dVertex
 10
-202.14013671875
 20
-0.42333984375
 30
0.0
  0
VERTEX
  5
19F
330
19C
100
AcDbEntity
  8
STANDARDEBENE
 62
     7
100
AcDbVertex
100
AcDb2dVertex
 10
-202.14013671875
 20
-6.91845703125
 30
0.0
  0
VERTEX
  5
1A0
330
19C
100
AcDbEntity
  8
STANDARDEBENE
 62
     7
100
AcDbVertex
100
AcDb2dVertex
 10
-202.14013671875
 20
-13.21826171875
 30
0.0
  0
VERTEX
  5
1A1
330
19C
100
AcDbEntity
  8
STANDARDEBENE
 62
     7
100
AcDbVertex
100
AcDb2dVertex
 10
-202.14013671875
 20
-19.23974609375
 30
0.0
  0
SEQEND
  5
1A2
330
19C
100
AcDbEntity
  8
STANDARDEBENE
  0
POLYLINE
  5
1A3
330
1F
100
AcDbEntity
  8
STANDARDEBENE
 62
     7
100
AcDb2dPolyline
 66
     1
 10
0.0
 20
0.0
 30
0.0
  0
VERTEX
  5
1A4
330
1A3
100
AcDbEntity
  8
STANDARDEBENE
 62
     7
100
AcDbVertex
100
AcDb2dVertex
 10
-103.21240234375
 20
-12.28271484375
 30
0.0
  0
VERTEX
  5
1A5
330
1A3
100
AcDbEntity
  8
STANDARDEBENE
 62
     7
100
AcDbVertex
100
AcDb2dVertex
 10
-180.0673828125
 20
-17.68798828125
 30
0.0
  0
VERTEX
  5
1A6
330
1A3
100
AcDbEntity
  8
STANDARDEBENE
 62
     7
100
AcDbVertex
100
AcDb2dVertex
 10
-202.14013671875
 20
-19.23974609375
 30
0.0
  0
SEQEND
  5
1A7
330
1A3
100
AcDbEntity
  8
STANDARDEBENE
  0
POLYLINE
  5
1A8
330
1F
100
AcDbEntity
  8
STANDARDEBENE
 62
     7
100
AcDb2dPolyline
 66
     1
 10
0.0
 20
0.0
 30
0.0
  0
VERTEX
  5
1A9
330
1A8
100
AcDbEntity
  8
STANDARDEBENE
 62
     7
100
AcDbVertex
100
AcDb2dVertex
 10
-103.21240234375
 20
-12.28271484375
 30
0.0
  0
VERTEX
  5
1AA
330
1A8
100
AcDbEntity
  8
STANDARDEBENE
 62
     7
100
AcDbVertex
100
AcDb2dVertex
 10
-103.21240234375
 20
-7.44384765625
 30
0.0
  0
VERTEX
  5
1AB
330
1A8
100
AcDbEntity
  8
STANDARDEBENE
 62
     7
100
AcDbVertex
100
AcDb2dVertex
 10
-103.21240234375
 20
-2.38232421875
 30
0.0
  0
VERTEX
  5
1AC
330
1A8
100
AcDbEntity
  8
STANDARDEBENE
 62
     7
100
AcDbVertex
100
AcDb2dVertex
 10
-103.21240234375
 20
2.83251953125
 30
0.0
  0
VERTEX
  5
1AD
330
1A8
100
AcDbEntity
  8
STANDARDEBENE
 62
     7
100
AcDbVertex
100
AcDb2dVertex
 10
-103.21240234375
 20
8.12060546875
 30
0.0
  0
VERTEX
  5
1AE
330
1A8
100
AcDbEntity
  8
STANDARDEBENE
 62
     7
100
AcDbVertex
100
AcDb2dVertex
 10
-103.21240234375
 20
13.41064453125
 30
0.0
  0
VERTEX
  5
1AF
330
1A8
100
AcDbEntity
  8
STANDARDEBENE
 62
     7
100
AcDbVertex
100
AcDb2dVertex
 10
-103.21240234375
 20
18.62451171875
 30
0.0
  0
VERTEX
  5
1B0
330
1A8
100
AcDbEntity
  8
STANDARDEBENE
 62
     7
100
AcDbVertex
100
AcDb2dVertex
 10
-103.21240234375
 20
23.68701171875
 30
0.0
  0
VERTEX
  5
1B1
330
1A8
100
AcDbEntity
  8
STANDARDEBENE
 62
     7
100
AcDbVertex
100
AcDb2dVertex
 10
-103.21240234375
 20
28.52587890625
 30
0.0
  0
SEQEND
  5
1B2
330
1A8
100
AcDbEntity
  8
STANDARDEBENE
  0
POLYLINE
  5
1B3
330
1F
100
AcDbEntity
  8
STANDARDEBENE
 62
     7
100
AcDb2dPolyline
 66
     1
 10
0.0
 20
0.0
 30
0.0
  0
VERTEX
  5
1B4
330
1B3
100
AcDbEntity
  8
STANDARDEBENE
 62
     7
100
AcDbVertex
100
AcDb2dVertex
 10
-213.76318359375
 20
-19.23974609375
 30
0.0
  0
VERTEX
  5
1B5
330
1B3
100
AcDbEntity
  8
STANDARDEBENE
 62
     7
100
AcDbVertex
100
AcDb2dVertex
 10
-213.76318359375
 20
-13.21826171875
 30
0.0
  0
VERTEX
  5
1B6
330
1B3
100
AcDbEntity
  8
STANDARDEBENE
 62
     7
100
AcDbVertex
100
AcDb2dVertex
 10
-213.76318359375
 20
-6.91845703125
 30
0.0
  0
VERTEX
  5
1B7
330
1B3
100
AcDbEntity
  8
STANDARDEBENE
 62
     7
100
AcDbVertex
100
AcDb2dVertex
 10
-213.76318359375
 20
-0.42333984375
 30
0.0
  0
VERTEX
  5
1B8
330
1B3
100
AcDbEntity
  8
STANDARDEBENE
 62
     7
100
AcDbVertex
100
AcDb2dVertex
 10
-213.76318359375
 20
6.18310546875
 30
0.0
  0
SEQEND
  5
1B9
330
1B3
100
AcDbEntity
  8
STANDARDEBENE
  0
POLYLINE
  5
1BA
330
1F
100
AcDbEntity
  8
STANDARDEBENE
 62
     7
100
AcDb2dPolyline
 66
     1
 10
0.0
 20
0.0
 30
0.0
  0
VERTEX
  5
1BB
330
1BA
100
AcDbEntity
  8
STANDARDEBENE
 62
     7
100
AcDbVertex
100
AcDb2dVertex
 10
-202.14013671875
 20
-15.83544921875
 30
0.0
  0
VERTEX
  5
1BC
330
1BA
100
AcDbEntity
  8
STANDARDEBENE
 62
     7
100
AcDbVertex
100
AcDb2dVertex
 10
-213.76318359375
 20
-15.83544921875
 30
0.0
  0
SEQEND
  5
1BD
330
1BA
100
AcDbEntity
  8
STANDARDEBENE
  0
POLYLINE
  5
1BE
330
1F
100
AcDbEntity
  8
STANDARDEBENE
 62
     7
100
AcDb2dPolyline
 66
     1
 10
0.0
 20
0.0
 30
0.0
  0
VERTEX
  5
1BF
330
1BE
100
AcDbEntity
  8
STANDARDEBENE
 62
     7
100
AcDbVertex
100
AcDb2dVertex
 10
-213.76318359375
 20
6.18310546875
 30
0.0
  0
VERTEX
  5
1C0
330
1BE
100
AcDbEntity
  8
STANDARDEBENE
 62
     7
100
AcDbVertex
100
AcDb2dVertex
 10
-202.14013671875
 20
6.18310546875
 30
0.0
  0
SEQEND
  5
1C1
330
1BE
100
AcDbEntity
  8
STANDARDEBENE
  0
POLYLINE
  5
1C2
330
1F
100
AcDbEntity
  8
STANDARDEBENE
 62
     7
100
AcDb2dPolyline
 66
     1
 10
0.0
 20
0.0
 30
0.0
  0
VERTEX
  5
1C3
330
1C2
100
AcDbEntity
  8
STANDARDEBENE
 62
     7
100
AcDbVertex
100
AcDb2dVertex
 10
-213.76318359375
 20
-19.23974609375
 30
0.0
  0
VERTEX
  5
1C4
330
1C2
100
AcDbEntity
  8
STANDARDEBENE
 62
     7
100
AcDbVertex
100
AcDb2dVertex
 10
-214.744140625
 20
-19.23974609375
 30
0.0
  0
SEQEND
  5
1C5
330
1C2
100
AcDbEntity
  8
STANDARDEBENE
  0
POLYLINE
  5
1C6
330
1F
100
AcDbEntity
  8
STANDARDEBENE
 62
     7
100
AcDb2dPolyline
 66
     1
 10
0.0
 20
0.0
 30
0.0
  0
VERTEX
  5
1C7
330
1C6
100
AcDbEntity
  8
STANDARDEBENE
 62
     7
100
AcDbVertex
100
AcDb2dVertex
 10
-214.744140625
 20
6.18310546875
 30
0.0
  0
VERTEX
  5
1C8
330
1C6
100
AcDbEntity
  8
STANDARDEBENE
 62
     7
100
AcDbVertex
100
AcDb2dVertex
 10
-213.76318359375
 20
6.18310546875
 30
0.0
  0
SEQEND
  5
1C9
330
1C6
100
AcDbEntity
  8
STANDARDEBENE
  0
POLYLINE
  5
1CA
330
1F
100
AcDbEntity
  8
STANDARDEBENE
 62
     7
100
AcDb2dPolyline
 66
     1
 10
0.0
 20
0.0
 30
0.0
  0
VERTEX
  5
1CB
330
1CA
100
AcDbEntity
  8
STANDARDEBENE
 62
     7
100
AcDbVertex
100
AcDb2dVertex
 10
-214.744140625
 20
-19.23974609375
 30
0.0
  0
VERTEX
  5
1CC
330
1CA
100
AcDbEntity
  8
STANDARDEBENE
 62
     7
100
AcDbVertex
100
AcDb2dVertex
 10
-214.744140625
 20
-13.21826171875
 30
0.0
  0
VERTEX
  5
1CD
330
1CA
100
AcDbEntity
  8
STANDARDEBENE
 62
     7
100
AcDbVertex
100
AcDb2dVertex
 10
-214.744140625
 20
-6.91845703125
 30
0.0
  0
VERTEX
  5
1CE
330
1CA
100
AcDbEntity
  8
STANDARDEBENE
 62
     7
100
AcDbVertex
100
AcDb2dVertex
 10
-214.744140625
 20
-0.42333984375
 30
0.0
  0
VERTEX
  5
1CF
330
1CA
100
AcDbEntity
  8
STANDARDEBENE
 62
     7
100
AcDbVertex
100
AcDb2dVertex
 10
-214.744140625
 20
6.18310546875
 30
0.0
  0
SEQEND
  5
1D0
330
1CA
100
AcDbEntity
  8
STANDARDEBENE
  0
POLYLINE
  5
1D1
330
1F
100
AcDbEntity
  8
STANDARDEBENE
 62
     7
100
AcDb2dPolyline
 66
     1
 10
0.0
 20
0.0
 30
0.0
  0
VERTEX
  5
1D2
330
1D1
100
AcDbEntity
  8
STANDARDEBENE
 62
     7
100
AcDbVertex
100
AcDb2dVertex
 10
-214.744140625
 20
-19.23974609375
 30
0.0
  0
VERTEX
  5
1D3
330
1D1
100
AcDbEntity
  8
STANDARDEBENE
 62
     7
100
AcDbVertex
100
AcDb2dVertex
 10
-233.6064453125
 20
-13.79248046875
 30
0.0
  0
SEQEND
  5
1D4
330
1D1
100
AcDbEntity
  8
STANDARDEBENE
  0
POLYLINE
  5
1D5
330
1F
100
AcDbEntity
  8
STANDARDEBENE
 62
     7
100
AcDb2dPolyline
 66
     1
 10
0.0
 20
0.0
 30
0.0
  0
VERTEX
  5
1D6
330
1D5
100
AcDbEntity
  8
STANDARDEBENE
 62
     7
100
AcDbVertex
100
AcDb2dVertex
 10
-233.6064453125
 20
6.18310546875
 30
0.0
  0
VERTEX
  5
1D7
330
1D5
100
AcDbEntity
  8
STANDARDEBENE
 62
     7
100
AcDbVertex
100
AcDb2dVertex
 10
-224.9482421875
 20
6.18310546875
 30
0.0
  0
VERTEX
  5
1D8
330
1D5
100
AcDbEntity
  8
STANDARDEBENE
 62
     7
100
AcDbVertex
100
AcDb2dVertex
 10
-214.744140625
 20
6.18310546875
 30
0.0
  0
SEQEND
  5
1D9
330
1D5
100
AcDbEntity
  8
STANDARDEBENE
  0
POLYLINE
  5
1DA
330
1F
100
AcDbEntity
  8
STANDARDEBENE
 62
     7
100
AcDb2dPolyline
 66
     1
 10
0.0
 20
0.0
 30
0.0
  0
VERTEX
  5
1DB
330
1DA
100
AcDbEntity
  8
STANDARDEBENE
 62
     7
100
AcDbVertex
100
AcDb2dVertex
 10
-233.6064453125
 20
-13.79248046875
 30
0.0
  0
VERTEX
  5
1DC
330
1DA
100
AcDbEntity
  8
STANDARDEBENE
 62
     7
100
AcDbVertex
100
AcDb2dVertex
 10
-233.6064453125
 20
-7.42138671875
 30
0.0
  0
VERTEX
  5
1DD
330
1DA
100
AcDbEntity
  8
STANDARDEBENE
 62
     7
100
AcDbVertex
100
AcDb2dVertex
 10
-233.6064453125
 20
-0.71435546875
 30
0.0
  0
VERTEX
  5
1DE
330
1DA
100
AcDbEntity
  8
STANDARDEBENE
 62
     7
100
AcDbVertex
100
AcDb2dVertex
 10
-233.6064453125
 20
6.18310546875
 30
0.0
  0
SEQEND
  5
1DF
330
1DA
100
AcDbEntity
  8
STANDARDEBENE
  0
POLYLINE
  5
1E0
330
1F
100
AcDbEntity
  8
STANDARDEBENE
 62
     7
100
AcDb2dPolyline
 66
     1
 10
0.0
 20
0.0
 30
0.0
  0
VERTEX
  5
1E1
330
1E0
100
AcDbEntity
  8
STANDARDEBENE
 62
     7
100
AcDbVertex
100
AcDb2dVertex
 10
-202.14013671875
 20
-22.59521484375
 30
0.0
  0
VERTEX
  5
1E2
330
1E0
100
AcDbEntity
  8
STANDARDEBENE
 62
     7
100
AcDbVertex
100
AcDb2dVertex
 10
-103.21240234375
 20
-15.63818359375
 30
0.0
  0
SEQEND
  5
1E3
330
1E0
100
AcDbEntity
  8
STANDARDEBENE
  0
POLYLINE
  5
1E4
330
1F
100
AcDbEntity
  8
STANDARDEBENE
 62
     7
100
AcDb2dPolyline
 66
     1
 10
0.0
 20
0.0
 30
0.0
  0
VERTEX
  5
1E5
330
1E4
100
AcDbEntity
  8
STANDARDEBENE
 62
     7
100
AcDbVertex
100
AcDb2dVertex
 10
-202.14013671875
 20
-22.59521484375
 30
0.0
  0
VERTEX
  5
1E6
330
1E4
100
AcDbEntity
  8
STANDARDEBENE
 62
     7
100
AcDbVertex
100
AcDb2dVertex
 10
-202.14013671875
 20
-28.01708984375
 30
0.0
  0
VERTEX
  5
1E7
330
1E4
100
AcDbEntity
  8
STANDARDEBENE
 62
     7
100
AcDbVertex
100
AcDb2dVertex
 10
-202.14013671875
 20
-32.97021484375
 30
0.0
  0
VERTEX
  5
1E8
330
1E4
100
AcDbEntity
  8
STANDARDEBENE
 62
     7
100
AcDbVertex
100
AcDb2dVertex
 10
-202.14013671875
 20
-37.38427734375
 30
0.0
  0
VERTEX
  5
1E9
330
1E4
100
AcDbEntity
  8
STANDARDEBENE
 62
     7
100
AcDbVertex
100
AcDb2dVertex
 10
-202.14013671875
 20
-41.20654296875
 30
0.0
  0
SEQEND
  5
1EA
330
1E4
100
AcDbEntity
  8
STANDARDEBENE
  0
POLYLINE
  5
1EB
330
1F
100
AcDbEntity
  8
STANDARDEBENE
 62
     7
100
AcDb2dPolyline
 66
     1
 10
0.0
 20
0.0
 30
0.0
  0
VERTEX
  5
1EC
330
1EB
100
AcDbEntity
  8
STANDARDEBENE
 62
     7
100
AcDbVertex
100
AcDb2dVertex
 10
-120.64599609375
 20
-31.28173828125
 30
0.0
  0
VERTEX
  5
1ED
330
1EB
100
AcDbEntity
  8
STANDARDEBENE
 62
     7
100
AcDbVertex
100
AcDb2dVertex
 10
-202.14013671875
 20
-41.20654296875
 30
0.0
  0
SEQEND
  5
1EE
330
1EB
100
AcDbEntity
  8
STANDARDEBENE
  0
POLYLINE
  5
1EF
330
1F
100
AcDbEntity
  8
STANDARDEBENE
 62
     7
100
AcDb2dPolyline
 66
     1
 10
0.0
 20
0.0
 30
0.0
  0
VERTEX
  5
1F0
330
1EF
100
AcDbEntity
  8
STANDARDEBENE
 62
     7
100
AcDbVertex
100
AcDb2dVertex
 10
-120.64599609375
 20
-33.21826171875
 30
0.0
  0
VERTEX
  5
1F1
330
1EF
100
AcDbEntity
  8
STANDARDEBENE
 62
     7
100
AcDbVertex
100
AcDb2dVertex
 10
-120.64599609375
 20
-32.28466796875
 30
0.0
  0
VERTEX
  5
1F2
330
1EF
100
AcDbEntity
  8
STANDARDEBENE
 62
     7
100
AcDbVertex
100
AcDb2dVertex
 10
-120.64599609375
 20
-31.28173828125
 30
0.0
  0
SEQEND
  5
1F3
330
1EF
100
AcDbEntity
  8
STANDARDEBENE
  0
POLYLINE
  5
1F4
330
1F
100
AcDbEntity
  8
STANDARDEBENE
 62
     7
100
AcDb2dPolyline
 66
     1
 10
0.0
 20
0.0
 30
0.0
  0
VERTEX
  5
1F5
330
1F4
100
AcDbEntity
  8
STANDARDEBENE
 62
     7
100
AcDbVertex
100
AcDb2dVertex
 10
-202.14013671875
 20
-43.14404296875
 30
0.0
  0
VERTEX
  5
1F6
330
1F4
100
AcDbEntity
  8
STANDARDEBENE
 62
     7
100
AcDbVertex
100
AcDb2dVertex
 10
-120.64599609375
 20
-33.21826171875
 30
0.0
  0
SEQEND
  5
1F7
330
1F4
100
AcDbEntity
  8
STANDARDEBENE
  0
POLYLINE
  5
1F8
330
1F
100
AcDbEntity
  8
STANDARDEBENE
 62
     7
100
AcDb2dPolyline
 66
     1
 10
0.0
 20
0.0
 30
0.0
  0
VERTEX
  5
1F9
330
1F8
100
AcDbEntity
  8
STANDARDEBENE
 62
     7
100
AcDbVertex
100
AcDb2dVertex
 10
-202.14013671875
 20
-43.14404296875
 30
0.0
  0
VERTEX
  5
1FA
330
1F8
100
AcDbEntity
  8
STANDARDEBENE
 62
     7
100
AcDbVertex
100
AcDb2dVertex
 10
-202.14013671875
 20
-45.92919921875
 30
0.0
  0
VERTEX
  5
1FB
330
1F8
100
AcDbEntity
  8
STANDARDEBENE
 62
     7
100
AcDbVertex
100
AcDb2dVertex
 10
-202.14013671875
 20
-48.00927734375
 30
0.0
  0
VERTEX
  5
1FC
330
1F8
100
AcDbEntity
  8
STANDARDEBENE
 62
     7
100
AcDbVertex
100
AcDb2dVertex
 10
-202.14013671875
 20
-49.35693359375
 30
0.0
  0
VERTEX
  5
1FD
330
1F8
100
AcDbEntity
  8
STANDARDEBENE
 62
     7
100
AcDbVertex
100
AcDb2dVertex
 10
-202.14013671875
 20
-49.95654296875
 30
0.0
  0
SEQEND
  5
1FE
330
1F8
100
AcDbEntity
  8
STANDARDEBENE
  0
POLYLINE
  5
1FF
330
1F
100
AcDbEntity
  8
STANDARDEBENE
 62
     7
100
AcDb2dPolyline
 66
     1
 10
0.0
 20
0.0
 30
0.0
  0
VERTEX
  5
200
330
1FF
100
AcDbEntity
  8
STANDARDEBENE
 62
     7
100
AcDbVertex
100
AcDb2dVertex
 10
-103.21240234375
 20
-36.04248046875
 30
0.0
  0
VERTEX
  5
201
330
1FF
100
AcDbEntity
  8
STANDARDEBENE
 62
     7
100
AcDbVertex
100
AcDb2dVertex
 10
-115.95166015625
 20
-37.83544921875
 30
0.0
  0
VERTEX
  5
202
330
1FF
100
AcDbEntity
  8
STANDARDEBENE
 62
     7
100
AcDbVertex
100
AcDb2dVertex
 10
-195.91943359375
 20
-49.08154296875
 30
0.0
  0
VERTEX
  5
203
330
1FF
100
AcDbEntity
  8
STANDARDEBENE
 62
     7
100
AcDbVertex
100
AcDb2dVertex
 10
-202.14013671875
 20
-49.95654296875
 30
0.0
  0
SEQEND
  5
204
330
1FF
100
AcDbEntity
  8
STANDARDEBENE
  0
POLYLINE
  5
205
330
1F
100
AcDbEntity
  8
STANDARDEBENE
 62
     7
100
AcDb2dPolyline
 66
     1
 10
0.0
 20
0.0
 30
0.0
  0
VERTEX
  5
206
330
205
100
AcDbEntity
  8
STANDARDEBENE
 62
     7
100
AcDbVertex
100
AcDb2dVertex
 10
-103.21240234375
 20
-36.04248046875
 30
0.0
  0
VERTEX
  5
207
330
205
100
AcDbEntity
  8
STANDARDEBENE
 62
     7
100
AcDbVertex
100
AcDb2dVertex
 10
-103.21240234375
 20
-35.49462890625
 30
0.0
  0
VERTEX
  5
208
330
205
100
AcDbEntity
  8
STANDARDEBENE
 62
     7
100
AcDbVertex
100
AcDb2dVertex
 10
-103.21240234375
 20
-34.31787109375
 30
0.0
  0
VERTEX
  5
209
330
205
100
AcDbEntity
  8
STANDARDEBENE
 62
     7
100
AcDbVertex
100
AcDb2dVertex
 10
-103.21240234375
 20
-32.53271484375
 30
0.0
  0
VERTEX
  5
20A
330
205
100
AcDbEntity
  8
STANDARDEBENE
 62
     7
100
AcDbVertex
100
AcDb2dVertex
 10
-103.21240234375
 20
-30.16259765625
 30
0.0
  0
VERTEX
  5
20B
330
205
100
AcDbEntity
  8
STANDARDEBENE
 62
     7
100
AcDbVertex
100
AcDb2dVertex
 10
-103.21240234375
 20
-27.24365234375
 30
0.0
  0
VERTEX
  5
20C
330
205
100
AcDbEntity
  8
STANDARDEBENE
 62
     7
100
AcDbVertex
100
AcDb2dVertex
 10
-103.21240234375
 20
-23.81591796875
 30
0.0
  0
VERTEX
  5
20D
330
205
100
AcDbEntity
  8
STANDARDEBENE
 62
     7
100
AcDbVertex
100
AcDb2dVertex
 10
-103.21240234375
 20
-19.92724609375
 30
0.0
  0
VERTEX
  5
20E
330
205
100
AcDbEntity
  8
STANDARDEBENE
 62
     7
100
AcDbVertex
100
AcDb2dVertex
 10
-103.21240234375
 20
-15.63818359375
 30
0.0
  0
SEQEND
  5
20F
330
205
100
AcDbEntity
  8
STANDARDEBENE
  0
POLYLINE
  5
210
330
1F
100
AcDbEntity
  8
STANDARDEBENE
 62
     7
100
AcDb2dPolyline
 66
     1
 10
0.0
 20
0.0
 30
0.0
  0
VERTEX
  5
211
330
210
100
AcDbEntity
  8
STANDARDEBENE
 62
     7
100
AcDbVertex
100
AcDb2dVertex
 10
-213.76318359375
 20
-43.14404296875
 30
0.0
  0
VERTEX
  5
212
330
210
100
AcDbEntity
  8
STANDARDEBENE
 62
     7
100
AcDbVertex
100
AcDb2dVertex
 10
-213.76318359375
 20
-41.20654296875
 30
0.0
  0
SEQEND
  5
213
330
210
100
AcDbEntity
  8
STANDARDEBENE
  0
POLYLINE
  5
214
330
1F
100
AcDbEntity
  8
STANDARDEBENE
 62
     7
100
AcDb2dPolyline
 66
     1
 10
0.0
 20
0.0
 30
0.0
  0
VERTEX
  5
215
330
214
100
AcDbEntity
  8
STANDARDEBENE
 62
     7
100
AcDbVertex
100
AcDb2dVertex
 10
-213.76318359375
 20
-49.95654296875
 30
0.0
  0
VERTEX
  5
216
330
214
100
AcDbEntity
  8
STANDARDEBENE
 62
     7
100
AcDbVertex
100
AcDb2dVertex
 10
-213.76318359375
 20
-49.35693359375
 30
0.0
  0
VERTEX
  5
217
330
214
100
AcDbEntity
  8
STANDARDEBENE
 62
     7
100
AcDbVertex
100
AcDb2dVertex
 10
-213.76318359375
 20
-48.00927734375
 30
0.0
  0
VERTEX
  5
218
330
214
100
AcDbEntity
  8
STANDARDEBENE
 62
     7
100
AcDbVertex
100
AcDb2dVertex
 10
-213.76318359375
 20
-45.92919921875
 30
0.0
  0
VERTEX
  5
219
330
214
100
AcDbEntity
  8
STANDARDEBENE
 62
     7
100
AcDbVertex
100
AcDb2dVertex
 10
-213.76318359375
 20
-43.14404296875
 30
0.0
  0
SEQEND
  5
21A
330
214
100
AcDbEntity
  8
STANDARDEBENE
  0
POLYLINE
  5
21B
330
1F
100
AcDbEntity
  8
STANDARDEBENE
 62
     7
100
AcDb2dPolyline
 66
     1
 10
0.0
 20
0.0
 30
0.0
  0
VERTEX
  5
21C
330
21B
100
AcDbEntity
  8
STANDARDEBENE
 62
     7
100
AcDbVertex
100
AcDb2dVertex
 10
-202.14013671875
 20
-41.20654296875
 30
0.0
  0
VERTEX
  5
21D
330
21B
100
AcDbEntity
  8
STANDARDEBENE
 62
     7
100
AcDbVertex
100
AcDb2dVertex
 10
-202.14013671875
 20
-43.14404296875
 30
0.0
  0
VERTEX
  5
21E
330
21B
100
AcDbEntity
  8
STANDARDEBENE
 62
     7
100
AcDbVertex
100
AcDb2dVertex
 10
-213.76318359375
 20
-43.14892578125
 30
0.0
  0
SEQEND
  5
21F
330
21B
100
AcDbEntity
  8
STANDARDEBENE
  0
POLYLINE
  5
220
330
1F
100
AcDbEntity
  8
STANDARDEBENE
 62
     7
100
AcDb2dPolyline
 66
     1
 10
0.0
 20
0.0
 30
0.0
  0
VERTEX
  5
221
330
220
100
AcDbEntity
  8
STANDARDEBENE
 62
     7
100
AcDbVertex
100
AcDb2dVertex
 10
-213.76318359375
 20
-37.24951171875
 30
0.0
  0
VERTEX
  5
222
330
220
100
AcDbEntity
  8
STANDARDEBENE
 62
     7
100
AcDbVertex
100
AcDb2dVertex
 10
-202.14013671875
 20
-37.24951171875
 30
0.0
  0
SEQEND
  5
223
330
220
100
AcDbEntity
  8
STANDARDEBENE
  0
POLYLINE
  5
224
330
1F
100
AcDbEntity
  8
STANDARDEBENE
 62
     7
100
AcDb2dPolyline
 66
     1
 10
0.0
 20
0.0
 30
0.0
  0
VERTEX
  5
225
330
224
100
AcDbEntity
  8
STANDARDEBENE
 62
     7
100
AcDbVertex
100
AcDb2dVertex
 10
-213.76318359375
 20
-49.95654296875
 30
0.0
  0
VERTEX
  5
226
330
224
100
AcDbEntity
  8
STANDARDEBENE
 62
     7
100
AcDbVertex
100
AcDb2dVertex
 10
-214.744140625
 20
-49.95654296875
 30
0.0
  0
SEQEND
  5
227
330
224
100
AcDbEntity
  8
STANDARDEBENE
  0
POLYLINE
  5
228
330
1F
100
AcDbEntity
  8
STANDARDEBENE
 62
     7
100
AcDb2dPolyline
 66
     1
 10
0.0
 20
0.0
 30
0.0
  0
VERTEX
  5
229
330
228
100
AcDbEntity
  8
STANDARDEBENE
 62
     7
100
AcDbVertex
100
AcDb2dVertex
 10
-214.744140625
 20
-43.14404296875
 30
0.0
  0
VERTEX
  5
22A
330
228
100
AcDbEntity
  8
STANDARDEBENE
 62
     7
100
AcDbVertex
100
AcDb2dVertex
 10
-213.76318359375
 20
-43.14404296875
 30
0.0
  0
SEQEND
  5
22B
330
228
100
AcDbEntity
  8
STANDARDEBENE
  0
POLYLINE
  5
22C
330
1F
100
AcDbEntity
  8
STANDARDEBENE
 62
     7
100
AcDb2dPolyline
 66
     1
 10
0.0
 20
0.0
 30
0.0
  0
VERTEX
  5
22D
330
22C
100
AcDbEntity
  8
STANDARDEBENE
 62
     7
100
AcDbVertex
100
AcDb2dVertex
 10
-214.744140625
 20
-49.95654296875
 30
0.0
  0
VERTEX
  5
22E
330
22C
100
AcDbEntity
  8
STANDARDEBENE
 62
     7
100
AcDbVertex
100
AcDb2dVertex
 10
-214.744140625
 20
-49.35693359375
 30
0.0
  0
VERTEX
  5
22F
330
22C
100
AcDbEntity
  8
STANDARDEBENE
 62
     7
100
AcDbVertex
100
AcDb2dVertex
 10
-214.744140625
 20
-48.00927734375
 30
0.0
  0
VERTEX
  5
230
330
22C
100
AcDbEntity
  8
STANDARDEBENE
 62
     7
100
AcDbVertex
100
AcDb2dVertex
 10
-214.744140625
 20
-45.92919921875
 30
0.0
  0
VERTEX
  5
231
330
22C
100
AcDbEntity
  8
STANDARDEBENE
 62
     7
100
AcDbVertex
100
AcDb2dVertex
 10
-214.744140625
 20
-43.14404296875
 30
0.0
  0
SEQEND
  5
232
330
22C
100
AcDbEntity
  8
STANDARDEBENE
  0
POLYLINE
  5
233
330
1F
100
AcDbEntity
  8
STANDARDEBENE
 62
     7
100
AcDb2dPolyline
 66
     1
 10
0.0
 20
0.0
 30
0.0
  0
VERTEX
  5
234
330
233
100
AcDbEntity
  8
STANDARDEBENE
 62
     7
100
AcDbVertex
100
AcDb2dVertex
 10
-214.744140625
 20
-49.95654296875
 30
0.0
  0
VERTEX
  5
235
330
233
100
AcDbEntity
  8
STANDARDEBENE
 62
     7
100
AcDbVertex
100
AcDb2dVertex
 10
-217.38037109375
 20
-48.43310546875
 30
0.0
  0
VERTEX
  5
236
330
233
100
AcDbEntity
  8
STANDARDEBENE
 62
     7
100
AcDbVertex
100
AcDb2dVertex
 10
-233.6064453125
 20
-39.06005859375
 30
0.0
  0
SEQEND
  5
237
330
233
100
AcDbEntity
  8
STANDARDEBENE
  0
POLYLINE
  5
238
330
1F
100
AcDbEntity
  8
STANDARDEBENE
 62
     7
100
AcDb2dPolyline
 66
     1
 10
0.0
 20
0.0
 30
0.0
  0
VERTEX
  5
239
330
238
100
AcDbEntity
  8
STANDARDEBENE
 62
     7
100
AcDbVertex
100
AcDb2dVertex
 10
-233.6064453125
 20
-33.70654296875
 30
0.0
  0
VERTEX
  5
23A
330
238
100
AcDbEntity
  8
STANDARDEBENE
 62
     7
100
AcDbVertex
100
AcDb2dVertex
 10
-214.744140625
 20
-43.14404296875
 30
0.0
  0
SEQEND
  5
23B
330
238
100
AcDbEntity
  8
STANDARDEBENE
  0
POLYLINE
  5
23C
330
1F
100
AcDbEntity
  8
STANDARDEBENE
 62
     7
100
AcDb2dPolyline
 66
     1
 10
0.0
 20
0.0
 30
0.0
  0
VERTEX
  5
23D
330
23C
100
AcDbEntity
  8
STANDARDEBENE
 62
     7
100
AcDbVertex
100
AcDb2dVertex
 10
-233.6064453125
 20
-39.06005859375
 30
0.0
  0
VERTEX
  5
23E
330
23C
100
AcDbEntity
  8
STANDARDEBENE
 62
     7
100
AcDbVertex
100
AcDb2dVertex
 10
-233.6064453125
 20
-38.26513671875
 30
0.0
  0
VERTEX
  5
23F
330
23C
100
AcDbEntity
  8
STANDARDEBENE
 62
     7
100
AcDbVertex
100
AcDb2dVertex
 10
-233.6064453125
 20
-36.47021484375
 30
0.0
  0
VERTEX
  5
240
330
23C
100
AcDbEntity
  8
STANDARDEBENE
 62
     7
100
AcDbVertex
100
AcDb2dVertex
 10
-233.6064453125
 20
-33.70654296875
 30
0.0
  0
SEQEND
  5
241
330
23C
100
AcDbEntity
  8
STANDARDEBENE
  0
POLYLINE
  5
242
330
1F
100
AcDbEntity
  8
STANDARDEBENE
 62
     7
100
AcDb2dPolyline
 66
     1
 10
0.0
 20
0.0
 30
0.0
  0
VERTEX
  5
243
330
242
100
AcDbEntity
  8
STANDARDEBENE
 62
     7
100
AcDbVertex
100
AcDb2dVertex
 10
-233.6064453125
 20
-31.76904296875
 30
0.0
  0
VERTEX
  5
244
330
242
100
AcDbEntity
  8
STANDARDEBENE
 62
     7
100
AcDbVertex
100
AcDb2dVertex
 10
-233.6064453125
 20
-33.70654296875
 30
0.0
  0
SEQEND
  5
245
330
242
100
AcDbEntity
  8
STANDARDEBENE
  0
POLYLINE
  5
246
330
1F
100
AcDbEntity
  8
STANDARDEBENE
 62
     7
100
AcDb2dPolyline
 66
     1
 10
0.0
 20
0.0
 30
0.0
  0
VERTEX
  5
247
330
246
100
AcDbEntity
  8
STANDARDEBENE
 62
     7
100
AcDbVertex
100
AcDb2dVertex
 10
-213.76318359375
 20
59.38623046875
 30
0.0
  0
VERTEX
  5
248
330
246
100
AcDbEntity
  8
STANDARDEBENE
 62
     7
100
AcDbVertex
100
AcDb2dVertex
 10
-213.76318359375
 20
62.17041015625
 30
0.0
  0
VERTEX
  5
249
330
246
100
AcDbEntity
  8
STANDARDEBENE
 62
     7
100
AcDbVertex
100
AcDb2dVertex
 10
-213.76318359375
 20
64.25146484375
 30
0.0
  0
VERTEX
  5
24A
330
246
100
AcDbEntity
  8
STANDARDEBENE
 62
     7
100
AcDbVertex
100
AcDb2dVertex
 10
-213.76318359375
 20
65.60009765625
 30
0.0
  0
VERTEX
  5
24B
330
246
100
AcDbEntity
  8
STANDARDEBENE
 62
     7
100
AcDbVertex
100
AcDb2dVertex
 10
-213.76318359375
 20
66.1982421875
 30
0.0
  0
SEQEND
  5
24C
330
246
100
AcDbEntity
  8
STANDARDEBENE
  0
POLYLINE
  5
24D
330
1F
100
AcDbEntity
  8
STANDARDEBENE
 62
     7
100
AcDb2dPolyline
 66
     1
 10
0.0
 20
0.0
 30
0.0
  0
VERTEX
  5
24E
330
24D
100
AcDbEntity
  8
STANDARDEBENE
 62
     7
100
AcDbVertex
100
AcDb2dVertex
 10
-213.76318359375
 20
57.44970703125
 30
0.0
  0
VERTEX
  5
24F
330
24D
100
AcDbEntity
  8
STANDARDEBENE
 62
     7
100
AcDbVertex
100
AcDb2dVertex
 10
-213.76318359375
 20
59.38623046875
 30
0.0
  0
SEQEND
  5
250
330
24D
100
AcDbEntity
  8
STANDARDEBENE
  0
POLYLINE
  5
251
330
1F
100
AcDbEntity
  8
STANDARDEBENE
 62
     7
100
AcDb2dPolyline
 66
     1
 10
0.0
 20
0.0
 30
0.0
  0
VERTEX
  5
252
330
251
100
AcDbEntity
  8
STANDARDEBENE
 62
     7
100
AcDbVertex
100
AcDb2dVertex
 10
-202.14013671875
 20
59.38623046875
 30
0.0
  0
VERTEX
  5
253
330
251
100
AcDbEntity
  8
STANDARDEBENE
 62
     7
100
AcDbVertex
100
AcDb2dVertex
 10
-202.14013671875
 20
57.44970703125
 30
0.0
  0
SEQEND
  5
254
330
251
100
AcDbEntity
  8
STANDARDEBENE
  0
POLYLINE
  5
255
330
1F
100
AcDbEntity
  8
STANDARDEBENE
 62
     7
100
AcDb2dPolyline
 66
     1
 10
0.0
 20
0.0
 30
0.0
  0
VERTEX
  5
256
330
255
100
AcDbEntity
  8
STANDARDEBENE
 62
     7
100
AcDbVertex
100
AcDb2dVertex
 10
-213.76318359375
 20
59.39111328125
 30
0.0
  0
VERTEX
  5
257
330
255
100
AcDbEntity
  8
STANDARDEBENE
 62
     7
100
AcDbVertex
100
AcDb2dVertex
 10
-202.14013671875
 20
59.39111328125
 30
0.0
  0
SEQEND
  5
258
330
255
100
AcDbEntity
  8
STANDARDEBENE
  0
POLYLINE
  5
259
330
1F
100
AcDbEntity
  8
STANDARDEBENE
 62
     7
100
AcDb2dPolyline
 66
     1
 10
0.0
 20
0.0
 30
0.0
  0
VERTEX
  5
25A
330
259
100
AcDbEntity
  8
STANDARDEBENE
 62
     7
100
AcDbVertex
100
AcDb2dVertex
 10
-202.14013671875
 20
53.49072265625
 30
0.0
  0
VERTEX
  5
25B
330
259
100
AcDbEntity
  8
STANDARDEBENE
 62
     7
100
AcDbVertex
100
AcDb2dVertex
 10
-213.76318359375
 20
53.49072265625
 30
0.0
  0
SEQEND
  5
25C
330
259
100
AcDbEntity
  8
STANDARDEBENE
  0
POLYLINE
  5
25D
330
1F
100
AcDbEntity
  8
STANDARDEBENE
 62
     7
100
AcDb2dPolyline
 66
     1
 10
0.0
 20
0.0
 30
0.0
  0
VERTEX
  5
25E
330
25D
100
AcDbEntity
  8
STANDARDEBENE
 62
     7
100
AcDbVertex
100
AcDb2dVertex
 10
-214.744140625
 20
66.1982421875
 30
0.0
  0
VERTEX
  5
25F
330
25D
100
AcDbEntity
  8
STANDARDEBENE
 62
     7
100
AcDbVertex
100
AcDb2dVertex
 10
-213.76318359375
 20
66.1982421875
 30
0.0
  0
SEQEND
  5
260
330
25D
100
AcDbEntity
  8
STANDARDEBENE
  0
POLYLINE
  5
261
330
1F
100
AcDbEntity
  8
STANDARDEBENE
 62
     7
100
AcDb2dPolyline
 66
     1
 10
0.0
 20
0.0
 30
0.0
  0
VERTEX
  5
262
330
261
100
AcDbEntity
  8
STANDARDEBENE
 62
     7
100
AcDbVertex
100
AcDb2dVertex
 10
-214.744140625
 20
59.38623046875
 30
0.0
  0
VERTEX
  5
263
330
261
100
AcDbEntity
  8
STANDARDEBENE
 62
     7
100
AcDbVertex
100
AcDb2dVertex
 10
-214.744140625
 20
62.17041015625
 30
0.0
  0
VERTEX
  5
264
330
261
100
AcDbEntity
  8
STANDARDEBENE
 62
     7
100
AcDbVertex
100
AcDb2dVertex
 10
-214.744140625
 20
64.25146484375
 30
0.0
  0
VERTEX
  5
265
330
261
100
AcDbEntity
  8
STANDARDEBENE
 62
     7
100
AcDbVertex
100
AcDb2dVertex
 10
-214.744140625
 20
65.60009765625
 30
0.0
  0
VERTEX
  5
266
330
261
100
AcDbEntity
  8
STANDARDEBENE
 62
     7
100
AcDbVertex
100
AcDb2dVertex
 10
-214.744140625
 20
66.1982421875
 30
0.0
  0
SEQEND
  5
267
330
261
100
AcDbEntity
  8
STANDARDEBENE
  0
POLYLINE
  5
268
330
1F
100
AcDbEntity
  8
STANDARDEBENE
 62
     7
100
AcDb2dPolyline
 66
     1
 10
0.0
 20
0.0
 30
0.0
  0
VERTEX
  5
269
330
268
100
AcDbEntity
  8
STANDARDEBENE
 62
     7
100
AcDbVertex
100
AcDb2dVertex
 10
-213.76318359375
 20
59.38623046875
 30
0.0
  0
VERTEX
  5
26A
330
268
100
AcDbEntity
  8
STANDARDEBENE
 62
     7
100
AcDbVertex
100
AcDb2dVertex
 10
-214.744140625
 20
59.38623046875
 30
0.0
  0
SEQEND
  5
26B
330
268
100
AcDbEntity
  8
STANDARDEBENE
  0
POLYLINE
  5
26C
330
1F
100
AcDbEntity
  8
STANDARDEBENE
 62
     7
100
AcDb2dPolyline
 66
     1
 10
0.0
 20
0.0
 30
0.0
  0
VERTEX
  5
26D
330
26C
100
AcDbEntity
  8
STANDARDEBENE
 62
     7
100
AcDbVertex
100
AcDb2dVertex
 10
-233.6064453125
 20
48.01318359375
 30
0.0
  0
VERTEX
  5
26E
330
26C
100
AcDbEntity
  8
STANDARDEBENE
 62
     7
100
AcDbVertex
100
AcDb2dVertex
 10
-233.6064453125
 20
49.94970703125
 30
0.0
  0
VERTEX
  5
26F
330
26C
100
AcDbEntity
  8
STANDARDEBENE
 62
     7
100
AcDbVertex
100
AcDb2dVertex
 10
-233.6064453125
 20
52.71142578125
 30
0.0
  0
VERTEX
  5
270
330
26C
100
AcDbEntity
  8
STANDARDEBENE
 62
     7
100
AcDbVertex
100
AcDb2dVertex
 10
-233.6064453125
 20
54.50927734375
 30
0.0
  0
VERTEX
  5
271
330
26C
100
AcDbEntity
  8
STANDARDEBENE
 62
     7
100
AcDbVertex
100
AcDb2dVertex
 10
-233.6064453125
 20
55.30322265625
 30
0.0
  0
VERTEX
  5
272
330
26C
100
AcDbEntity
  8
STANDARDEBENE
 62
     7
100
AcDbVertex
100
AcDb2dVertex
 10
-217.38037109375
 20
64.67724609375
 30
0.0
  0
VERTEX
  5
273
330
26C
100
AcDbEntity
  8
STANDARDEBENE
 62
     7
100
AcDbVertex
100
AcDb2dVertex
 10
-214.744140625
 20
66.1982421875
 30
0.0
  0
SEQEND
  5
274
330
26C
100
AcDbEntity
  8
STANDARDEBENE
  0
POLYLINE
  5
275
330
1F
100
AcDbEntity
  8
STANDARDEBENE
 62
     7
100
AcDb2dPolyline
 66
     1
 10
0.0
 20
0.0
 30
0.0
  0
VERTEX
  5
276
330
275
100
AcDbEntity
  8
STANDARDEBENE
 62
     7
100
AcDbVertex
100
AcDb2dVertex
 10
-214.744140625
 20
59.38623046875
 30
0.0
  0
VERTEX
  5
277
330
275
100
AcDbEntity
  8
STANDARDEBENE
 62
     7
100
AcDbVertex
100
AcDb2dVertex
 10
-233.6064453125
 20
49.94970703125
 30
0.0
  0
SEQEND
  5
278
330
275
100
AcDbEntity
  8
STANDARDEBENE
  0
POLYLINE
  5
279
330
1F
100
AcDbEntity
  8
STANDARDEBENE
 62
     7
100
AcDb2dPolyline
 66
     1
 10
0.0
 20
0.0
 30
0.0
  0
VERTEX
  5
27A
330
279
100
AcDbEntity
  8
STANDARDEBENE
 62
     7
100
AcDbVertex
100
AcDb2dVertex
 10
-213.76318359375
 20
10.05810546875
 30
0.0
  0
VERTEX
  5
27B
330
279
100
AcDbEntity
  8
STANDARDEBENE
 62
     7
100
AcDbVertex
100
AcDb2dVertex
 10
-213.76318359375
 20
16.66552734375
 30
0.0
  0
VERTEX
  5
27C
330
279
100
AcDbEntity
  8
STANDARDEBENE
 62
     7
100
AcDbVertex
100
AcDb2dVertex
 10
-213.76318359375
 20
23.16064453125
 30
0.0
  0
VERTEX
  5
27D
330
279
100
AcDbEntity
  8
STANDARDEBENE
 62
     7
100
AcDbVertex
100
AcDb2dVertex
 10
-213.76318359375
 20
29.46142578125
 30
0.0
  0
VERTEX
  5
27E
330
279
100
AcDbEntity
  8
STANDARDEBENE
 62
     7
100
AcDbVertex
100
AcDb2dVertex
 10
-213.76318359375
 20
35.48291015625
 30
0.0
  0
SEQEND
  5
27F
330
279
100
AcDbEntity
  8
STANDARDEBENE
  0
POLYLINE
  5
280
330
1F
100
AcDbEntity
  8
STANDARDEBENE
 62
     7
100
AcDb2dPolyline
 66
     1
 10
0.0
 20
0.0
 30
0.0
  0
VERTEX
  5
281
330
280
100
AcDbEntity
  8
STANDARDEBENE
 62
     7
100
AcDbVertex
100
AcDb2dVertex
 10
-213.76318359375
 20
32.07861328125
 30
0.0
  0
VERTEX
  5
282
330
280
100
AcDbEntity
  8
STANDARDEBENE
 62
     7
100
AcDbVertex
100
AcDb2dVertex
 10
-202.14013671875
 20
32.07861328125
 30
0.0
  0
SEQEND
  5
283
330
280
100
AcDbEntity
  8
STANDARDEBENE
  0
POLYLINE
  5
284
330
1F
100
AcDbEntity
  8
STANDARDEBENE
 62
     7
100
AcDb2dPolyline
 66
     1
 10
0.0
 20
0.0
 30
0.0
  0
VERTEX
  5
285
330
284
100
AcDbEntity
  8
STANDARDEBENE
 62
     7
100
AcDbVertex
100
AcDb2dVertex
 10
-202.14013671875
 20
10.05810546875
 30
0.0
  0
VERTEX
  5
286
330
284
100
AcDbEntity
  8
STANDARDEBENE
 62
     7
100
AcDbVertex
100
AcDb2dVertex
 10
-213.76318359375
 20
10.05810546875
 30
0.0
  0
SEQEND
  5
287
330
284
100
AcDbEntity
  8
STANDARDEBENE
  0
POLYLINE
  5
288
330
1F
100
AcDbEntity
  8
STANDARDEBENE
 62
     7
100
AcDb2dPolyline
 66
     1
 10
0.0
 20
0.0
 30
0.0
  0
VERTEX
  5
289
330
288
100
AcDbEntity
  8
STANDARDEBENE
 62
     7
100
AcDbVertex
100
AcDb2dVertex
 10
-214.744140625
 20
35.48291015625
 30
0.0
  0
VERTEX
  5
28A
330
288
100
AcDbEntity
  8
STANDARDEBENE
 62
     7
100
AcDbVertex
100
AcDb2dVertex
 10
-213.76318359375
 20
35.48291015625
 30
0.0
  0
SEQEND
  5
28B
330
288
100
AcDbEntity
  8
STANDARDEBENE
  0
POLYLINE
  5
28C
330
1F
100
AcDbEntity
  8
STANDARDEBENE
 62
     7
100
AcDb2dPolyline
 66
     1
 10
0.0
 20
0.0
 30
0.0
  0
VERTEX
  5
28D
330
28C
100
AcDbEntity
  8
STANDARDEBENE
 62
     7
100
AcDbVertex
100
AcDb2dVertex
 10
-214.744140625
 20
10.05810546875
 30
0.0
  0
VERTEX
  5
28E
330
28C
100
AcDbEntity
  8
STANDARDEBENE
 62
     7
100
AcDbVertex
100
AcDb2dVertex
 10
-214.744140625
 20
16.66552734375
 30
0.0
  0
VERTEX
  5
28F
330
28C
100
AcDbEntity
  8
STANDARDEBENE
 62
     7
100
AcDbVertex
100
AcDb2dVertex
 10
-214.744140625
 20
23.16064453125
 30
0.0
  0
VERTEX
  5
290
330
28C
100
AcDbEntity
  8
STANDARDEBENE
 62
     7
100
AcDbVertex
100
AcDb2dVertex
 10
-214.744140625
 20
29.46142578125
 30
0.0
  0
VERTEX
  5
291
330
28C
100
AcDbEntity
  8
STANDARDEBENE
 62
     7
100
AcDbVertex
100
AcDb2dVertex
 10
-214.744140625
 20
35.48291015625
 30
0.0
  0
SEQEND
  5
292
330
28C
100
AcDbEntity
  8
STANDARDEBENE
  0
POLYLINE
  5
293
330
1F
100
AcDbEntity
  8
STANDARDEBENE
 62
     7
100
AcDb2dPolyline
 66
     1
 10
0.0
 20
0.0
 30
0.0
  0
VERTEX
  5
294
330
293
100
AcDbEntity
  8
STANDARDEBENE
 62
     7
100
AcDbVertex
100
AcDb2dVertex
 10
-213.76318359375
 20
10.05810546875
 30
0.0
  0
VERTEX
  5
295
330
293
100
AcDbEntity
  8
STANDARDEBENE
 62
     7
100
AcDbVertex
100
AcDb2dVertex
 10
-214.744140625
 20
10.05810546875
 30
0.0
  0
SEQEND
  5
296
330
293
100
AcDbEntity
  8
STANDARDEBENE
  0
POLYLINE
  5
297
330
1F
100
AcDbEntity
  8
STANDARDEBENE
 62
     7
100
AcDb2dPolyline
 66
     1
 10
0.0
 20
0.0
 30
0.0
  0
VERTEX
  5
298
330
297
100
AcDbEntity
  8
STANDARDEBENE
 62
     7
100
AcDbVertex
100
AcDb2dVertex
 10
-233.6064453125
 20
33.39013671875
 30
0.0
  0
VERTEX
  5
299
330
297
100
AcDbEntity
  8
STANDARDEBENE
 62
     7
100
AcDbVertex
100
AcDb2dVertex
 10
-233.6064453125
 20
30.03369140625
 30
0.0
  0
SEQEND
  5
29A
330
297
100
AcDbEntity
  8
STANDARDEBENE
  0
POLYLINE
  5
29B
330
1F
100
AcDbEntity
  8
STANDARDEBENE
 62
     7
100
AcDb2dPolyline
 66
     1
 10
0.0
 20
0.0
 30
0.0
  0
VERTEX
  5
29C
330
29B
100
AcDbEntity
  8
STANDARDEBENE
 62
     7
100
AcDbVertex
100
AcDb2dVertex
 10
-233.6064453125
 20
10.05810546875
 30
0.0
  0
VERTEX
  5
29D
330
29B
100
AcDbEntity
  8
STANDARDEBENE
 62
     7
100
AcDbVertex
100
AcDb2dVertex
 10
-233.6064453125
 20
16.95654296875
 30
0.0
  0
VERTEX
  5
29E
330
29B
100
AcDbEntity
  8
STANDARDEBENE
 62
     7
100
AcDbVertex
100
AcDb2dVertex
 10
-233.6064453125
 20
23.66455078125
 30
0.0
  0
VERTEX
  5
29F
330
29B
100
AcDbEntity
  8
STANDARDEBENE
 62
     7
100
AcDbVertex
100
AcDb2dVertex
 10
-233.6064453125
 20
30.03369140625
 30
0.0
  0
VERTEX
  5
2A0
330
29B
100
AcDbEntity
  8
STANDARDEBENE
 62
     7
100
AcDbVertex
100
AcDb2dVertex
 10
-214.744140625
 20
35.48291015625
 30
0.0
  0
SEQEND
  5
2A1
330
29B
100
AcDbEntity
  8
STANDARDEBENE
  0
POLYLINE
  5
2A2
330
1F
100
AcDbEntity
  8
STANDARDEBENE
 62
     7
100
AcDb2dPolyline
 66
     1
 10
0.0
 20
0.0
 30
0.0
  0
VERTEX
  5
2A3
330
2A2
100
AcDbEntity
  8
STANDARDEBENE
 62
     7
100
AcDbVertex
100
AcDb2dVertex
 10
-214.744140625
 20
10.05810546875
 30
0.0
  0
VERTEX
  5
2A4
330
2A2
100
AcDbEntity
  8
STANDARDEBENE
 62
     7
100
AcDbVertex
100
AcDb2dVertex
 10
-224.9482421875
 20
10.05810546875
 30
0.0
  0
VERTEX
  5
2A5
330
2A2
100
AcDbEntity
  8
STANDARDEBENE
 62
     7
100
AcDbVertex
100
AcDb2dVertex
 10
-233.6064453125
 20
10.05810546875
 30
0.0
  0
SEQEND
  5
2A6
330
2A2
100
AcDbEntity
  8
STANDARDEBENE
  0
POLYLINE
  5
2A7
330
1F
100
AcDbEntity
  8
STANDARDEBENE
 62
     7
100
AcDb2dPolyline
 66
     1
 10
0.0
 20
0.0
 30
0.0
  0
VERTEX
  5
2A8
330
2A7
100
AcDbEntity
  8
STANDARDEBENE
 62
     7
100
AcDbVertex
100
AcDb2dVertex
 10
-213.76318359375
 20
-22.59521484375
 30
0.0
  0
VERTEX
  5
2A9
330
2A7
100
AcDbEntity
  8
STANDARDEBENE
 62
     7
100
AcDbVertex
100
AcDb2dVertex
 10
-213.76318359375
 20
-19.23974609375
 30
0.0
  0
SEQEND
  5
2AA
330
2A7
100
AcDbEntity
  8
STANDARDEBENE
  0
POLYLINE
  5
2AB
330
1F
100
AcDbEntity
  8
STANDARDEBENE
 62
     7
100
AcDb2dPolyline
 66
     1
 10
0.0
 20
0.0
 30
0.0
  0
VERTEX
  5
2AC
330
2AB
100
AcDbEntity
  8
STANDARDEBENE
 62
     7
100
AcDbVertex
100
AcDb2dVertex
 10
-213.76318359375
 20
-41.20654296875
 30
0.0
  0
VERTEX
  5
2AD
330
2AB
100
AcDbEntity
  8
STANDARDEBENE
 62
     7
100
AcDbVertex
100
AcDb2dVertex
 10
-213.76318359375
 20
-37.38427734375
 30
0.0
  0
VERTEX
  5
2AE
330
2AB
100
AcDbEntity
  8
STANDARDEBENE
 62
     7
100
AcDbVertex
100
AcDb2dVertex
 10
-213.76318359375
 20
-32.97021484375
 30
0.0
  0
VERTEX
  5
2AF
330
2AB
100
AcDbEntity
  8
STANDARDEBENE
 62
     7
100
AcDbVertex
100
AcDb2dVertex
 10
-213.76318359375
 20
-28.01708984375
 30
0.0
  0
VERTEX
  5
2B0
330
2AB
100
AcDbEntity
  8
STANDARDEBENE
 62
     7
100
AcDbVertex
100
AcDb2dVertex
 10
-213.76318359375
 20
-22.59521484375
 30
0.0
  0
SEQEND
  5
2B1
330
2AB
100
AcDbEntity
  8
STANDARDEBENE
  0
POLYLINE
  5
2B2
330
1F
100
AcDbEntity
  8
STANDARDEBENE
 62
     7
100
AcDb2dPolyline
 66
     1
 10
0.0
 20
0.0
 30
0.0
  0
VERTEX
  5
2B3
330
2B2
100
AcDbEntity
  8
STANDARDEBENE
 62
     7
100
AcDbVertex
100
AcDb2dVertex
 10
-202.14013671875
 20
-19.23974609375
 30
0.0
  0
VERTEX
  5
2B4
330
2B2
100
AcDbEntity
  8
STANDARDEBENE
 62
     7
100
AcDbVertex
100
AcDb2dVertex
 10
-202.14013671875
 20
-22.59521484375
 30
0.0
  0
SEQEND
  5
2B5
330
2B2
100
AcDbEntity
  8
STANDARDEBENE
  0
POLYLINE
  5
2B6
330
1F
100
AcDbEntity
  8
STANDARDEBENE
 62
     7
100
AcDb2dPolyline
 66
     1
 10
0.0
 20
0.0
 30
0.0
  0
VERTEX
  5
2B7
330
2B6
100
AcDbEntity
  8
STANDARDEBENE
 62
     7
100
AcDbVertex
100
AcDb2dVertex
 10
-103.21240234375
 20
31.88037109375
 30
0.0
  0
VERTEX
  5
2B8
330
2B6
100
AcDbEntity
  8
STANDARDEBENE
 62
     7
100
AcDbVertex
100
AcDb2dVertex
 10
-103.21240234375
 20
29.35693359375
 30
0.0
  0
SEQEND
  5
2B9
330
2B6
100
AcDbEntity
  8
STANDARDEBENE
  0
POLYLINE
  5
2BA
330
1F
100
AcDbEntity
  8
STANDARDEBENE
 62
     7
100
AcDb2dPolyline
 66
     1
 10
0.0
 20
0.0
 30
0.0
  0
VERTEX
  5
2BB
330
2BA
100
AcDbEntity
  8
STANDARDEBENE
 62
     7
100
AcDbVertex
100
AcDb2dVertex
 10
-103.21240234375
 20
28.52587890625
 30
0.0
  0
VERTEX
  5
2BC
330
2BA
100
AcDbEntity
  8
STANDARDEBENE
 62
     7
100
AcDbVertex
100
AcDb2dVertex
 10
-103.21240234375
 20
29.35693359375
 30
0.0
  0
SEQEND
  5
2BD
330
2BA
100
AcDbEntity
  8
STANDARDEBENE
  0
POLYLINE
  5
2BE
330
1F
100
AcDbEntity
  8
STANDARDEBENE
 62
     7
100
AcDb2dPolyline
 66
     1
 10
0.0
 20
0.0
 30
0.0
  0
VERTEX
  5
2BF
330
2BE
100
AcDbEntity
  8
STANDARDEBENE
 62
     7
100
AcDbVertex
100
AcDb2dVertex
 10
-103.21240234375
 20
-13.11474609375
 30
0.0
  0
VERTEX
  5
2C0
330
2BE
100
AcDbEntity
  8
STANDARDEBENE
 62
     7
100
AcDbVertex
100
AcDb2dVertex
 10
-103.21240234375
 20
-12.28271484375
 30
0.0
  0
SEQEND
  5
2C1
330
2BE
100
AcDbEntity
  8
STANDARDEBENE
  0
POLYLINE
  5
2C2
330
1F
100
AcDbEntity
  8
STANDARDEBENE
 62
     7
100
AcDb2dPolyline
 66
     1
 10
0.0
 20
0.0
 30
0.0
  0
VERTEX
  5
2C3
330
2C2
100
AcDbEntity
  8
STANDARDEBENE
 62
     7
100
AcDbVertex
100
AcDb2dVertex
 10
-103.21240234375
 20
-15.63818359375
 30
0.0
  0
VERTEX
  5
2C4
330
2C2
100
AcDbEntity
  8
STANDARDEBENE
 62
     7
100
AcDbVertex
100
AcDb2dVertex
 10
-103.21240234375
 20
-13.11474609375
 30
0.0
  0
SEQEND
  5
2C5
330
2C2
100
AcDbEntity
  8
STANDARDEBENE
  0
POLYLINE
  5
2C6
330
1F
100
AcDbEntity
  8
STANDARDEBENE
 62
     7
100
AcDb2dPolyline
 66
     1
 10
0.0
 20
0.0
 30
0.0
  0
VERTEX
  5
2C7
330
2C6
100
AcDbEntity
  8
STANDARDEBENE
 62
     7
100
AcDbVertex
100
AcDb2dVertex
 10
-213.76318359375
 20
-19.19189453125
 30
0.0
  0
VERTEX
  5
2C8
330
2C6
100
AcDbEntity
  8
STANDARDEBENE
 62
     7
100
AcDbVertex
100
AcDb2dVertex
 10
-202.14013671875
 20
-19.19189453125
 30
0.0
  0
SEQEND
  5
2C9
330
2C6
100
AcDbEntity
  8
STANDARDEBENE
  0
POLYLINE
  5
2CA
330
1F
100
AcDbEntity
  8
STANDARDEBENE
 62
     7
100
AcDb2dPolyline
 66
     1
 10
0.0
 20
0.0
 30
0.0
  0
VERTEX
  5
2CB
330
2CA
100
AcDbEntity
  8
STANDARDEBENE
 62
     7
100
AcDbVertex
100
AcDb2dVertex
 10
-202.14013671875
 20
-35.31201171875
 30
0.0
  0
VERTEX
  5
2CC
330
2CA
100
AcDbEntity
  8
STANDARDEBENE
 62
     7
100
AcDbVertex
100
AcDb2dVertex
 10
-213.76318359375
 20
-35.31201171875
 30
0.0
  0
SEQEND
  5
2CD
330
2CA
100
AcDbEntity
  8
STANDARDEBENE
  0
POLYLINE
  5
2CE
330
1F
100
AcDbEntity
  8
STANDARDEBENE
 62
     7
100
AcDb2dPolyline
 66
     1
 10
0.0
 20
0.0
 30
0.0
  0
VERTEX
  5
2CF
330
2CE
100
AcDbEntity
  8
STANDARDEBENE
 62
     7
100
AcDbVertex
100
AcDb2dVertex
 10
-214.744140625
 20
-22.59521484375
 30
0.0
  0
VERTEX
  5
2D0
330
2CE
100
AcDbEntity
  8
STANDARDEBENE
 62
     7
100
AcDbVertex
100
AcDb2dVertex
 10
-213.76318359375
 20
-22.59521484375
 30
0.0
  0
SEQEND
  5
2D1
330
2CE
100
AcDbEntity
  8
STANDARDEBENE
  0
POLYLINE
  5
2D2
330
1F
100
AcDbEntity
  8
STANDARDEBENE
 62
     7
100
AcDb2dPolyline
 66
     1
 10
0.0
 20
0.0
 30
0.0
  0
VERTEX
  5
2D3
330
2D2
100
AcDbEntity
  8
STANDARDEBENE
 62
     7
100
AcDbVertex
100
AcDb2dVertex
 10
-214.744140625
 20
-41.20654296875
 30
0.0
  0
VERTEX
  5
2D4
330
2D2
100
AcDbEntity
  8
STANDARDEBENE
 62
     7
100
AcDbVertex
100
AcDb2dVertex
 10
-214.744140625
 20
-37.38427734375
 30
0.0
  0
VERTEX
  5
2D5
330
2D2
100
AcDbEntity
  8
STANDARDEBENE
 62
     7
100
AcDbVertex
100
AcDb2dVertex
 10
-214.744140625
 20
-32.97021484375
 30
0.0
  0
VERTEX
  5
2D6
330
2D2
100
AcDbEntity
  8
STANDARDEBENE
 62
     7
100
AcDbVertex
100
AcDb2dVertex
 10
-214.744140625
 20
-28.01708984375
 30
0.0
  0
VERTEX
  5
2D7
330
2D2
100
AcDbEntity
  8
STANDARDEBENE
 62
     7
100
AcDbVertex
100
AcDb2dVertex
 10
-214.744140625
 20
-22.59521484375
 30
0.0
  0
SEQEND
  5
2D8
330
2D2
100
AcDbEntity
  8
STANDARDEBENE
  0
POLYLINE
  5
2D9
330
1F
100
AcDbEntity
  8
STANDARDEBENE
 62
     7
100
AcDb2dPolyline
 66
     1
 10
0.0
 20
0.0
 30
0.0
  0
VERTEX
  5
2DA
330
2D9
100
AcDbEntity
  8
STANDARDEBENE
 62
     7
100
AcDbVertex
100
AcDb2dVertex
 10
-213.76318359375
 20
-41.20654296875
 30
0.0
  0
VERTEX
  5
2DB
330
2D9
100
AcDbEntity
  8
STANDARDEBENE
 62
     7
100
AcDbVertex
100
AcDb2dVertex
 10
-214.744140625
 20
-41.20654296875
 30
0.0
  0
SEQEND
  5
2DC
330
2D9
100
AcDbEntity
  8
STANDARDEBENE
  0
POLYLINE
  5
2DD
330
1F
100
AcDbEntity
  8
STANDARDEBENE
 62
     7
100
AcDb2dPolyline
 66
     1
 10
0.0
 20
0.0
 30
0.0
  0
VERTEX
  5
2DE
330
2DD
100
AcDbEntity
  8
STANDARDEBENE
 62
     7
100
AcDbVertex
100
AcDb2dVertex
 10
-233.6064453125
 20
-31.76904296875
 30
0.0
  0
VERTEX
  5
2DF
330
2DD
100
AcDbEntity
  8
STANDARDEBENE
 62
     7
100
AcDbVertex
100
AcDb2dVertex
 10
-233.6064453125
 20
-27.63427734375
 30
0.0
  0
VERTEX
  5
2E0
330
2DD
100
AcDbEntity
  8
STANDARDEBENE
 62
     7
100
AcDbVertex
100
AcDb2dVertex
 10
-233.6064453125
 20
-22.72412109375
 30
0.0
  0
VERTEX
  5
2E1
330
2DD
100
AcDbEntity
  8
STANDARDEBENE
 62
     7
100
AcDbVertex
100
AcDb2dVertex
 10
-233.6064453125
 20
-17.14794921875
 30
0.0
  0
VERTEX
  5
2E2
330
2DD
100
AcDbEntity
  8
STANDARDEBENE
 62
     7
100
AcDbVertex
100
AcDb2dVertex
 10
-233.6064453125
 20
-13.79248046875
 30
0.0
  0
SEQEND
  5
2E3
330
2DD
100
AcDbEntity
  8
STANDARDEBENE
  0
POLYLINE
  5
2E4
330
1F
100
AcDbEntity
  8
STANDARDEBENE
 62
     7
100
AcDb2dPolyline
 66
     1
 10
0.0
 20
0.0
 30
0.0
  0
VERTEX
  5
2E5
330
2E4
100
AcDbEntity
  8
STANDARDEBENE
 62
     7
100
AcDbVertex
100
AcDb2dVertex
 10
-233.6064453125
 20
-17.14794921875
 30
0.0
  0
VERTEX
  5
2E6
330
2E4
100
AcDbEntity
  8
STANDARDEBENE
 62
     7
100
AcDbVertex
100
AcDb2dVertex
 10
-214.744140625
 20
-22.59521484375
 30
0.0
  0
SEQEND
  5
2E7
330
2E4
100
AcDbEntity
  8
STANDARDEBENE
  0
POLYLINE
  5
2E8
330
1F
100
AcDbEntity
  8
STANDARDEBENE
 62
     7
100
AcDb2dPolyline
 66
     1
 10
0.0
 20
0.0
 30
0.0
  0
VERTEX
  5
2E9
330
2E8
100
AcDbEntity
  8
STANDARDEBENE
 62
     7
100
AcDbVertex
100
AcDb2dVertex
 10
-214.744140625
 20
-41.20654296875
 30
0.0
  0
VERTEX
  5
2EA
330
2E8
100
AcDbEntity
  8
STANDARDEBENE
 62
     7
100
AcDbVertex
100
AcDb2dVertex
 10
-233.6064453125
 20
-31.76904296875
 30
0.0
  0
SEQEND
  5
2EB
330
2E8
100
AcDbEntity
  8
STANDARDEBENE
  0
POLYLINE
  5
2EC
330
1F
100
AcDbEntity
  8
STANDARDEBENE
 62
     7
100
AcDb2dPolyline
 66
     1
 10
0.0
 20
0.0
 30
0.0
  0
VERTEX
  5
2ED
330
2EC
100
AcDbEntity
  8
STANDARDEBENE
 62
     7
100
AcDbVertex
100
AcDb2dVertex
 10
-115.04248046875
 20
-13.11474609375
 30
0.0
  0
VERTEX
  5
2EE
330
2EC
100
AcDbEntity
  8
STANDARDEBENE
 62
     7
100
AcDbVertex
100
AcDb2dVertex
 10
-103.21240234375
 20
-13.11474609375
 30
0.0
  0
SEQEND
  5
2EF
330
2EC
100
AcDbEntity
  8
STANDARDEBENE
  0
POLYLINE
  5
2F0
330
1F
100
AcDbEntity
  8
STANDARDEBENE
 62
     7
100
AcDb2dPolyline
 66
     1
 10
0.0
 20
0.0
 30
0.0
  0
VERTEX
  5
2F1
330
2F0
100
AcDbEntity
  8
STANDARDEBENE
 62
     7
100
AcDbVertex
100
AcDb2dVertex
 10
-115.04248046875
 20
29.35693359375
 30
0.0
  0
VERTEX
  5
2F2
330
2F0
100
AcDbEntity
  8
STANDARDEBENE
 62
     7
100
AcDbVertex
100
AcDb2dVertex
 10
-103.21240234375
 20
29.35693359375
 30
0.0
  0
SEQEND
  5
2F3
330
2F0
100
AcDbEntity
  8
STANDARDEBENE
  0
POLYLINE
  5
2F5
330
1F
100
AcDbEntity
  8
BEMAßUNG
 62
     7
100
AcDb2dPolyline
 66
     1
 10
0.0
 20
0.0
 30
0.0
  0
VERTEX
  5
2F6
330
2F5
100
AcDbEntity
  8
BEMAßUNG
 62
     7
100
AcDbVertex
100
AcDb2dVertex
 10
-233.6064453125
 20
44.97119140625
 30
0.0
  0
VERTEX
  5
2F7
330
2F5
100
AcDbEntity
  8
BEMAßUNG
 62
     7
100
AcDbVertex
100
AcDb2dVertex
 10
-267.611328125
 20
44.97119140625
 30
0.0
  0
SEQEND
  5
2F8
330
2F5
100
AcDbEntity
  8
BEMAßUNG
  0
POLYLINE
  5
2F9
330
1F
100
AcDbEntity
  8
BEMAßUNG
 62
     7
100
AcDb2dPolyline
 66
     1
 10
0.0
 20
0.0
 30
0.0
  0
VERTEX
  5
2FA
330
2F9
100
AcDbEntity
  8
BEMAßUNG
 62
     7
100
AcDbVertex
100
AcDb2dVertex
 10
-233.6064453125
 20
-28.72998046875
 30
0.0
  0
VERTEX
  5
2FB
330
2F9
100
AcDbEntity
  8
BEMAßUNG
 62
     7
100
AcDbVertex
100
AcDb2dVertex
 10
-267.611328125
 20
-28.72998046875
 30
0.0
  0
SEQEND
  5
2FC
330
2F9
100
AcDbEntity
  8
BEMAßUNG
  0
POLYLINE
  5
2FD
330
1F
100
AcDbEntity
  8
BEMAßUNG
 62
     7
100
AcDb2dPolyline
 66
     1
 10
0.0
 20
0.0
 30
0.0
  0
VERTEX
  5
2FE
330
2FD
100
AcDbEntity
  8
BEMAßUNG
 62
     7
100
AcDbVertex
100
AcDb2dVertex
 10
-261.94140625
 20
44.97119140625
 30
0.0
  0
VERTEX
  5
2FF
330
2FD
100
AcDbEntity
  8
BEMAßUNG
 62
     7
100
AcDbVertex
100
AcDb2dVertex
 10
-261.94140625
 20
-28.72998046875
 30
0.0
  0
SEQEND
  5
300
330
2FD
100
AcDbEntity
  8
BEMAßUNG
  0
POLYLINE
  5
301
330
1F
100
AcDbEntity
  8
BEMAßUNG
 62
     7
100
AcDb2dPolyline
 66
     1
 10
0.0
 20
0.0
 30
0.0
  0
VERTEX
  5
302
330
301
100
AcDbEntity
  8
BEMAßUNG
 62
     7
100
AcDbVertex
100
AcDb2dVertex
 10
-261.94140625
 20
44.97119140625
 30
0.0
  0
VERTEX
  5
303
330
301
100
AcDbEntity
  8
BEMAßUNG
 62
     7
100
AcDbVertex
100
AcDb2dVertex
 10
-262.8740234375
 20
37.88525390625
 30
0.0
  0
VERTEX
  5
304
330
301
100
AcDbEntity
  8
BEMAßUNG
 62
     7
100
AcDbVertex
100
AcDb2dVertex
 10
-261.00830078125
 20
37.88525390625
 30
0.0
  0
VERTEX
  5
305
330
301
100
AcDbEntity
  8
BEMAßUNG
 62
     7
100
AcDbVertex
100
AcDb2dVertex
 10
-261.94140625
 20
44.97119140625
 30
0.0
  0
SEQEND
  5
306
330
301
100
AcDbEntity
  8
BEMAßUNG
  0
POLYLINE
  5
307
330
1F
100
AcDbEntity
  8
BEMAßUNG
 62
     7
100
AcDb2dPolyline
 66
     1
 10
0.0
 20
0.0
 30
0.0
  0
VERTEX
  5
308
330
307
100
AcDbEntity
  8
BEMAßUNG
 62
     7
100
AcDbVertex
100
AcDb2dVertex
 10
-262.80615234375
 20
37.88525390625
 30
0.0
  0
VERTEX
  5
309
330
307
100
AcDbEntity
  8
BEMAßUNG
 62
     7
100
AcDbVertex
100
AcDb2dVertex
 10
-262.80615234375
 20
38.40869140625
 30
0.0
  0
SEQEND
  5
30A
330
307
100
AcDbEntity
  8
BEMAßUNG
  0
POLYLINE
  5
30B
330
1F
100
AcDbEntity
  8
BEMAßUNG
 62
     7
100
AcDb2dPolyline
 66
     1
 10
0.0
 20
0.0
 30
0.0
  0
VERTEX
  5
30C
330
30B
100
AcDbEntity
  8
BEMAßUNG
 62
     7
100
AcDbVertex
100
AcDb2dVertex
 10
-262.80615234375
 20
37.88525390625
 30
0.0
  0
VERTEX
  5
30D
330
30B
100
AcDbEntity
  8
BEMAßUNG
 62
     7
100
AcDbVertex
100
AcDb2dVertex
 10
-262.80615234375
 20
38.40869140625
 30
0.0
  0
SEQEND
  5
30E
330
30B
100
AcDbEntity
  8
BEMAßUNG
  0
POLYLINE
  5
30F
330
1F
100
AcDbEntity
  8
BEMAßUNG
 62
     7
100
AcDb2dPolyline
 66
     1
 10
0.0
 20
0.0
 30
0.0
  0
VERTEX
  5
310
330
30F
100
AcDbEntity
  8
BEMAßUNG
 62
     7
100
AcDbVertex
100
AcDb2dVertex
 10
-262.662109375
 20
37.88525390625
 30
0.0
  0
VERTEX
  5
311
330
30F
100
AcDbEntity
  8
BEMAßUNG
 62
     7
100
AcDbVertex
100
AcDb2dVertex
 10
-262.662109375
 20
39.50244140625
 30
0.0
  0
SEQEND
  5
312
330
30F
100
AcDbEntity
  8
BEMAßUNG
  0
POLYLINE
  5
313
330
1F
100
AcDbEntity
  8
BEMAßUNG
 62
     7
100
AcDb2dPolyline
 66
     1
 10
0.0
 20
0.0
 30
0.0
  0
VERTEX
  5
314
330
313
100
AcDbEntity
  8
BEMAßUNG
 62
     7
100
AcDbVertex
100
AcDb2dVertex
 10
-262.51806640625
 20
37.88525390625
 30
0.0
  0
VERTEX
  5
315
330
313
100
AcDbEntity
  8
BEMAßUNG
 62
     7
100
AcDbVertex
100
AcDb2dVertex
 10
-262.51806640625
 20
40.59619140625
 30
0.0
  0
SEQEND
  5
316
330
313
100
AcDbEntity
  8
BEMAßUNG
  0
POLYLINE
  5
317
330
1F
100
AcDbEntity
  8
BEMAßUNG
 62
     7
100
AcDb2dPolyline
 66
     1
 10
0.0
 20
0.0
 30
0.0
  0
VERTEX
  5
318
330
317
100
AcDbEntity
  8
BEMAßUNG
 62
     7
100
AcDbVertex
100
AcDb2dVertex
 10
-262.3740234375
 20
37.88525390625
 30
0.0
  0
VERTEX
  5
319
330
317
100
AcDbEntity
  8
BEMAßUNG
 62
     7
100
AcDbVertex
100
AcDb2dVertex
 10
-262.3740234375
 20
41.68994140625
 30
0.0
  0
SEQEND
  5
31A
330
317
100
AcDbEntity
  8
BEMAßUNG
  0
POLYLINE
  5
31B
330
1F
100
AcDbEntity
  8
BEMAßUNG
 62
     7
100
AcDb2dPolyline
 66
     1
 10
0.0
 20
0.0
 30
0.0
  0
VERTEX
  5
31C
330
31B
100
AcDbEntity
  8
BEMAßUNG
 62
     7
100
AcDbVertex
100
AcDb2dVertex
 10
-262.22900390625
 20
37.88525390625
 30
0.0
  0
VERTEX
  5
31D
330
31B
100
AcDbEntity
  8
BEMAßUNG
 62
     7
100
AcDbVertex
100
AcDb2dVertex
 10
-262.22900390625
 20
42.78369140625
 30
0.0
  0
SEQEND
  5
31E
330
31B
100
AcDbEntity
  8
BEMAßUNG
  0
POLYLINE
  5
31F
330
1F
100
AcDbEntity
  8
BEMAßUNG
 62
     7
100
AcDb2dPolyline
 66
     1
 10
0.0
 20
0.0
 30
0.0
  0
VERTEX
  5
320
330
31F
100
AcDbEntity
  8
BEMAßUNG
 62
     7
100
AcDbVertex
100
AcDb2dVertex
 10
-262.0849609375
 20
37.88525390625
 30
0.0
  0
VERTEX
  5
321
330
31F
100
AcDbEntity
  8
BEMAßUNG
 62
     7
100
AcDbVertex
100
AcDb2dVertex
 10
-262.0849609375
 20
43.87744140625
 30
0.0
  0
SEQEND
  5
322
330
31F
100
AcDbEntity
  8
BEMAßUNG
  0
POLYLINE
  5
323
330
1F
100
AcDbEntity
  8
BEMAßUNG
 62
     7
100
AcDb2dPolyline
 66
     1
 10
0.0
 20
0.0
 30
0.0
  0
VERTEX
  5
324
330
323
100
AcDbEntity
  8
BEMAßUNG
 62
     7
100
AcDbVertex
100
AcDb2dVertex
 10
-261.94140625
 20
37.88525390625
 30
0.0
  0
VERTEX
  5
325
330
323
100
AcDbEntity
  8
BEMAßUNG
 62
     7
100
AcDbVertex
100
AcDb2dVertex
 10
-261.94140625
 20
44.97119140625
 30
0.0
  0
SEQEND
  5
326
330
323
100
AcDbEntity
  8
BEMAßUNG
  0
POLYLINE
  5
327
330
1F
100
AcDbEntity
  8
BEMAßUNG
 62
     7
100
AcDb2dPolyline
 66
     1
 10
0.0
 20
0.0
 30
0.0
  0
VERTEX
  5
328
330
327
100
AcDbEntity
  8
BEMAßUNG
 62
     7
100
AcDbVertex
100
AcDb2dVertex
 10
-261.078125
 20
37.88525390625
 30
0.0
  0
VERTEX
  5
329
330
327
100
AcDbEntity
  8
BEMAßUNG
 62
     7
100
AcDbVertex
100
AcDb2dVertex
 10
-261.078125
 20
38.40869140625
 30
0.0
  0
SEQEND
  5
32A
330
327
100
AcDbEntity
  8
BEMAßUNG
  0
POLYLINE
  5
32B
330
1F
100
AcDbEntity
  8
BEMAßUNG
 62
     7
100
AcDb2dPolyline
 66
     1
 10
0.0
 20
0.0
 30
0.0
  0
VERTEX
  5
32C
330
32B
100
AcDbEntity
  8
BEMAßUNG
 62
     7
100
AcDbVertex
100
AcDb2dVertex
 10
-261.078125
 20
37.88525390625
 30
0.0
  0
VERTEX
  5
32D
330
32B
100
AcDbEntity
  8
BEMAßUNG
 62
     7
100
AcDbVertex
100
AcDb2dVertex
 10
-261.078125
 20
38.40869140625
 30
0.0
  0
SEQEND
  5
32E
330
32B
100
AcDbEntity
  8
BEMAßUNG
  0
POLYLINE
  5
32F
330
1F
100
AcDbEntity
  8
BEMAßUNG
 62
     7
100
AcDb2dPolyline
 66
     1
 10
0.0
 20
0.0
 30
0.0
  0
VERTEX
  5
330
330
32F
100
AcDbEntity
  8
BEMAßUNG
 62
     7
100
AcDbVertex
100
AcDb2dVertex
 10
-261.22216796875
 20
37.88525390625
 30
0.0
  0
VERTEX
  5
331
330
32F
100
AcDbEntity
  8
BEMAßUNG
 62
     7
100
AcDbVertex
100
AcDb2dVertex
 10
-261.22216796875
 20
39.50244140625
 30
0.0
  0
SEQEND
  5
332
330
32F
100
AcDbEntity
  8
BEMAßUNG
  0
POLYLINE
  5
333
330
1F
100
AcDbEntity
  8
BEMAßUNG
 62
     7
100
AcDb2dPolyline
 66
     1
 10
0.0
 20
0.0
 30
0.0
  0
VERTEX
  5
334
330
333
100
AcDbEntity
  8
BEMAßUNG
 62
     7
100
AcDbVertex
100
AcDb2dVertex
 10
-261.3662109375
 20
37.88525390625
 30
0.0
  0
VERTEX
  5
335
330
333
100
AcDbEntity
  8
BEMAßUNG
 62
     7
100
AcDbVertex
100
AcDb2dVertex
 10
-261.3662109375
 20
40.59619140625
 30
0.0
  0
SEQEND
  5
336
330
333
100
AcDbEntity
  8
BEMAßUNG
  0
POLYLINE
  5
337
330
1F
100
AcDbEntity
  8
BEMAßUNG
 62
     7
100
AcDb2dPolyline
 66
     1
 10
0.0
 20
0.0
 30
0.0
  0
VERTEX
  5
338
330
337
100
AcDbEntity
  8
BEMAßUNG
 62
     7
100
AcDbVertex
100
AcDb2dVertex
 10
-261.51025390625
 20
37.88525390625
 30
0.0
  0
VERTEX
  5
339
330
337
100
AcDbEntity
  8
BEMAßUNG
 62
     7
100
AcDbVertex
100
AcDb2dVertex
 10
-261.51025390625
 20
41.68994140625
 30
0.0
  0
SEQEND
  5
33A
330
337
100
AcDbEntity
  8
BEMAßUNG
  0
POLYLINE
  5
33B
330
1F
100
AcDbEntity
  8
BEMAßUNG
 62
     7
100
AcDb2dPolyline
 66
     1
 10
0.0
 20
0.0
 30
0.0
  0
VERTEX
  5
33C
330
33B
100
AcDbEntity
  8
BEMAßUNG
 62
     7
100
AcDbVertex
100
AcDb2dVertex
 10
-261.6533203125
 20
37.88525390625
 30
0.0
  0
VERTEX
  5
33D
330
33B
100
AcDbEntity
  8
BEMAßUNG
 62
     7
100
AcDbVertex
100
AcDb2dVertex
 10
-261.6533203125
 20
42.78369140625
 30
0.0
  0
SEQEND
  5
33E
330
33B
100
AcDbEntity
  8
BEMAßUNG
  0
POLYLINE
  5
33F
330
1F
100
AcDbEntity
  8
BEMAßUNG
 62
     7
100
AcDb2dPolyline
 66
     1
 10
0.0
 20
0.0
 30
0.0
  0
VERTEX
  5
340
330
33F
100
AcDbEntity
  8
BEMAßUNG
 62
     7
100
AcDbVertex
100
AcDb2dVertex
 10
-261.79736328125
 20
37.88525390625
 30
0.0
  0
VERTEX
  5
341
330
33F
100
AcDbEntity
  8
BEMAßUNG
 62
     7
100
AcDbVertex
100
AcDb2dVertex
 10
-261.79736328125
 20
43.87744140625
 30
0.0
  0
SEQEND
  5
342
330
33F
100
AcDbEntity
  8
BEMAßUNG
  0
POLYLINE
  5
343
330
1F
100
AcDbEntity
  8
BEMAßUNG
 62
     7
100
AcDb2dPolyline
 66
     1
 10
0.0
 20
0.0
 30
0.0
  0
VERTEX
  5
344
330
343
100
AcDbEntity
  8
BEMAßUNG
 62
     7
100
AcDbVertex
100
AcDb2dVertex
 10
-261.94140625
 20
37.88525390625
 30
0.0
  0
VERTEX
  5
345
330
343
100
AcDbEntity
  8
BEMAßUNG
 62
     7
100
AcDbVertex
100
AcDb2dVertex
 10
-261.94140625
 20
44.97119140625
 30
0.0
  0
SEQEND
  5
346
330
343
100
AcDbEntity
  8
BEMAßUNG
  0
POLYLINE
  5
347
330
1F
100
AcDbEntity
  8
BEMAßUNG
 62
     7
100
AcDb2dPolyline
 66
     1
 10
0.0
 20
0.0
 30
0.0
  0
VERTEX
  5
348
330
347
100
AcDbEntity
  8
BEMAßUNG
 62
     7
100
AcDbVertex
100
AcDb2dVertex
 10
-261.94140625
 20
-28.72998046875
 30
0.0
  0
VERTEX
  5
349
330
347
100
AcDbEntity
  8
BEMAßUNG
 62
     7
100
AcDbVertex
100
AcDb2dVertex
 10
-261.00830078125
 20
-21.64208984375
 30
0.0
  0
VERTEX
  5
34A
330
347
100
AcDbEntity
  8
BEMAßUNG
 62
     7
100
AcDbVertex
100
AcDb2dVertex
 10
-262.8740234375
 20
-21.64208984375
 30
0.0
  0
VERTEX
  5
34B
330
347
100
AcDbEntity
  8
BEMAßUNG
 62
     7
100
AcDbVertex
100
AcDb2dVertex
 10
-261.94140625
 20
-28.72998046875
 30
0.0
  0
SEQEND
  5
34C
330
347
100
AcDbEntity
  8
BEMAßUNG
  0
POLYLINE
  5
34D
330
1F
100
AcDbEntity
  8
BEMAßUNG
 62
     7
100
AcDb2dPolyline
 66
     1
 10
0.0
 20
0.0
 30
0.0
  0
VERTEX
  5
34E
330
34D
100
AcDbEntity
  8
BEMAßUNG
 62
     7
100
AcDbVertex
100
AcDb2dVertex
 10
-261.078125
 20
-21.64208984375
 30
0.0
  0
VERTEX
  5
34F
330
34D
100
AcDbEntity
  8
BEMAßUNG
 62
     7
100
AcDbVertex
100
AcDb2dVertex
 10
-261.078125
 20
-22.16650390625
 30
0.0
  0
SEQEND
  5
350
330
34D
100
AcDbEntity
  8
BEMAßUNG
  0
POLYLINE
  5
351
330
1F
100
AcDbEntity
  8
BEMAßUNG
 62
     7
100
AcDb2dPolyline
 66
     1
 10
0.0
 20
0.0
 30
0.0
  0
VERTEX
  5
352
330
351
100
AcDbEntity
  8
BEMAßUNG
 62
     7
100
AcDbVertex
100
AcDb2dVertex
 10
-261.078125
 20
-21.64208984375
 30
0.0
  0
VERTEX
  5
353
330
351
100
AcDbEntity
  8
BEMAßUNG
 62
     7
100
AcDbVertex
100
AcDb2dVertex
 10
-261.078125
 20
-22.16650390625
 30
0.0
  0
SEQEND
  5
354
330
351
100
AcDbEntity
  8
BEMAßUNG
  0
POLYLINE
  5
355
330
1F
100
AcDbEntity
  8
BEMAßUNG
 62
     7
100
AcDb2dPolyline
 66
     1
 10
0.0
 20
0.0
 30
0.0
  0
VERTEX
  5
356
330
355
100
AcDbEntity
  8
BEMAßUNG
 62
     7
100
AcDbVertex
100
AcDb2dVertex
 10
-261.22216796875
 20
-21.64208984375
 30
0.0
  0
VERTEX
  5
357
330
355
100
AcDbEntity
  8
BEMAßUNG
 62
     7
100
AcDbVertex
100
AcDb2dVertex
 10
-261.22216796875
 20
-23.25927734375
 30
0.0
  0
SEQEND
  5
358
330
355
100
AcDbEntity
  8
BEMAßUNG
  0
POLYLINE
  5
359
330
1F
100
AcDbEntity
  8
BEMAßUNG
 62
     7
100
AcDb2dPolyline
 66
     1
 10
0.0
 20
0.0
 30
0.0
  0
VERTEX
  5
35A
330
359
100
AcDbEntity
  8
BEMAßUNG
 62
     7
100
AcDbVertex
100
AcDb2dVertex
 10
-261.3662109375
 20
-21.64208984375
 30
0.0
  0
VERTEX
  5
35B
330
359
100
AcDbEntity
  8
BEMAßUNG
 62
     7
100
AcDbVertex
100
AcDb2dVertex
 10
-261.3662109375
 20
-24.35498046875
 30
0.0
  0
SEQEND
  5
35C
330
359
100
AcDbEntity
  8
BEMAßUNG
  0
POLYLINE
  5
35D
330
1F
100
AcDbEntity
  8
BEMAßUNG
 62
     7
100
AcDb2dPolyline
 66
     1
 10
0.0
 20
0.0
 30
0.0
  0
VERTEX
  5
35E
330
35D
100
AcDbEntity
  8
BEMAßUNG
 62
     7
100
AcDbVertex
100
AcDb2dVertex
 10
-261.51025390625
 20
-21.64208984375
 30
0.0
  0
VERTEX
  5
35F
330
35D
100
AcDbEntity
  8
BEMAßUNG
 62
     7
100
AcDbVertex
100
AcDb2dVertex
 10
-261.51025390625
 20
-25.44775390625
 30
0.0
  0
SEQEND
  5
360
330
35D
100
AcDbEntity
  8
BEMAßUNG
  0
POLYLINE
  5
361
330
1F
100
AcDbEntity
  8
BEMAßUNG
 62
     7
100
AcDb2dPolyline
 66
     1
 10
0.0
 20
0.0
 30
0.0
  0
VERTEX
  5
362
330
361
100
AcDbEntity
  8
BEMAßUNG
 62
     7
100
AcDbVertex
100
AcDb2dVertex
 10
-261.6533203125
 20
-21.64208984375
 30
0.0
  0
VERTEX
  5
363
330
361
100
AcDbEntity
  8
BEMAßUNG
 62
     7
100
AcDbVertex
100
AcDb2dVertex
 10
-261.6533203125
 20
-26.54150390625
 30
0.0
  0
SEQEND
  5
364
330
361
100
AcDbEntity
  8
BEMAßUNG
  0
POLYLINE
  5
365
330
1F
100
AcDbEntity
  8
BEMAßUNG
 62
     7
100
AcDb2dPolyline
 66
     1
 10
0.0
 20
0.0
 30
0.0
  0
VERTEX
  5
366
330
365
100
AcDbEntity
  8
BEMAßUNG
 62
     7
100
AcDbVertex
100
AcDb2dVertex
 10
-261.79736328125
 20
-21.64208984375
 30
0.0
  0
VERTEX
  5
367
330
365
100
AcDbEntity
  8
BEMAßUNG
 62
     7
100
AcDbVertex
100
AcDb2dVertex
 10
-261.79736328125
 20
-27.63427734375
 30
0.0
  0
SEQEND
  5
368
330
365
100
AcDbEntity
  8
BEMAßUNG
  0
POLYLINE
  5
369
330
1F
100
AcDbEntity
  8
BEMAßUNG
 62
     7
100
AcDb2dPolyline
 66
     1
 10
0.0
 20
0.0
 30
0.0
  0
VERTEX
  5
36A
330
369
100
AcDbEntity
  8
BEMAßUNG
 62
     7
100
AcDbVertex
100
AcDb2dVertex
 10
-261.94140625
 20
-21.64208984375
 30
0.0
  0
VERTEX
  5
36B
330
369
100
AcDbEntity
  8
BEMAßUNG
 62
     7
100
AcDbVertex
100
AcDb2dVertex
 10
-261.94140625
 20
-28.72998046875
 30
0.0
  0
SEQEND
  5
36C
330
369
100
AcDbEntity
  8
BEMAßUNG
  0
POLYLINE
  5
36D
330
1F
100
AcDbEntity
  8
BEMAßUNG
 62
     7
100
AcDb2dPolyline
 66
     1
 10
0.0
 20
0.0
 30
0.0
  0
VERTEX
  5
36E
330
36D
100
AcDbEntity
  8
BEMAßUNG
 62
     7
100
AcDbVertex
100
AcDb2dVertex
 10
-262.80615234375
 20
-21.64208984375
 30
0.0
  0
VERTEX
  5
36F
330
36D
100
AcDbEntity
  8
BEMAßUNG
 62
     7
100
AcDbVertex
100
AcDb2dVertex
 10
-262.80615234375
 20
-22.16650390625
 30
0.0
  0
SEQEND
  5
370
330
36D
100
AcDbEntity
  8
BEMAßUNG
  0
POLYLINE
  5
371
330
1F
100
AcDbEntity
  8
BEMAßUNG
 62
     7
100
AcDb2dPolyline
 66
     1
 10
0.0
 20
0.0
 30
0.0
  0
VERTEX
  5
372
330
371
100
AcDbEntity
  8
BEMAßUNG
 62
     7
100
AcDbVertex
100
AcDb2dVertex
 10
-262.80615234375
 20
-21.64208984375
 30
0.0
  0
VERTEX
  5
373
330
371
100
AcDbEntity
  8
BEMAßUNG
 62
     7
100
AcDbVertex
100
AcDb2dVertex
 10
-262.80615234375
 20
-22.16650390625
 30
0.0
  0
SEQEND
  5
374
330
371
100
AcDbEntity
  8
BEMAßUNG
  0
POLYLINE
  5
375
330
1F
100
AcDbEntity
  8
BEMAßUNG
 62
     7
100
AcDb2dPolyline
 66
     1
 10
0.0
 20
0.0
 30
0.0
  0
VERTEX
  5
376
330
375
100
AcDbEntity
  8
BEMAßUNG
 62
     7
100
AcDbVertex
100
AcDb2dVertex
 10
-262.662109375
 20
-21.64208984375
 30
0.0
  0
VERTEX
  5
377
330
375
100
AcDbEntity
  8
BEMAßUNG
 62
     7
100
AcDbVertex
100
AcDb2dVertex
 10
-262.662109375
 20
-23.25927734375
 30
0.0
  0
SEQEND
  5
378
330
375
100
AcDbEntity
  8
BEMAßUNG
  0
POLYLINE
  5
379
330
1F
100
AcDbEntity
  8
BEMAßUNG
 62
     7
100
AcDb2dPolyline
 66
     1
 10
0.0
 20
0.0
 30
0.0
  0
VERTEX
  5
37A
330
379
100
AcDbEntity
  8
BEMAßUNG
 62
     7
100
AcDbVertex
100
AcDb2dVertex
 10
-262.51806640625
 20
-21.64208984375
 30
0.0
  0
VERTEX
  5
37B
330
379
100
AcDbEntity
  8
BEMAßUNG
 62
     7
100
AcDbVertex
100
AcDb2dVertex
 10
-262.51806640625
 20
-24.35498046875
 30
0.0
  0
SEQEND
  5
37C
330
379
100
AcDbEntity
  8
BEMAßUNG
  0
POLYLINE
  5
37D
330
1F
100
AcDbEntity
  8
BEMAßUNG
 62
     7
100
AcDb2dPolyline
 66
     1
 10
0.0
 20
0.0
 30
0.0
  0
VERTEX
  5
37E
330
37D
100
AcDbEntity
  8
BEMAßUNG
 62
     7
100
AcDbVertex
100
AcDb2dVertex
 10
-262.3740234375
 20
-21.64208984375
 30
0.0
  0
VERTEX
  5
37F
330
37D
100
AcDbEntity
  8
BEMAßUNG
 62
     7
100
AcDbVertex
100
AcDb2dVertex
 10
-262.3740234375
 20
-25.44775390625
 30
0.0
  0
SEQEND
  5
380
330
37D
100
AcDbEntity
  8
BEMAßUNG
  0
POLYLINE
  5
381
330
1F
100
AcDbEntity
  8
BEMAßUNG
 62
     7
100
AcDb2dPolyline
 66
     1
 10
0.0
 20
0.0
 30
0.0
  0
VERTEX
  5
382
330
381
100
AcDbEntity
  8
BEMAßUNG
 62
     7
100
AcDbVertex
100
AcDb2dVertex
 10
-262.22900390625
 20
-21.64208984375
 30
0.0
  0
VERTEX
  5
383
330
381
100
AcDbEntity
  8
BEMAßUNG
 62
     7
100
AcDbVertex
100
AcDb2dVertex
 10
-262.22900390625
 20
-26.54150390625
 30
0.0
  0
SEQEND
  5
384
330
381
100
AcDbEntity
  8
BEMAßUNG
  0
POLYLINE
  5
385
330
1F
100
AcDbEntity
  8
BEMAßUNG
 62
     7
100
AcDb2dPolyline
 66
     1
 10
0.0
 20
0.0
 30
0.0
  0
VERTEX
  5
386
330
385
100
AcDbEntity
  8
BEMAßUNG
 62
     7
100
AcDbVertex
100
AcDb2dVertex
 10
-262.0849609375
 20
-21.64208984375
 30
0.0
  0
VERTEX
  5
387
330
385
100
AcDbEntity
  8
BEMAßUNG
 62
     7
100
AcDbVertex
100
AcDb2dVertex
 10
-262.0849609375
 20
-27.63427734375
 30
0.0
  0
SEQEND
  5
388
330
385
100
AcDbEntity
  8
BEMAßUNG
  0
POLYLINE
  5
389
330
1F
100
AcDbEntity
  8
BEMAßUNG
 62
     7
100
AcDb2dPolyline
 66
     1
 10
0.0
 20
0.0
 30
0.0
  0
VERTEX
  5
38A
330
389
100
AcDbEntity
  8
BEMAßUNG
 62
     7
100
AcDbVertex
100
AcDb2dVertex
 10
-261.94140625
 20
-21.64208984375
 30
0.0
  0
VERTEX
  5
38B
330
389
100
AcDbEntity
  8
BEMAßUNG
 62
     7
100
AcDbVertex
100
AcDb2dVertex
 10
-261.94140625
 20
-28.72998046875
 30
0.0
  0
SEQEND
  5
38C
330
389
100
AcDbEntity
  8
BEMAßUNG
  0
MTEXT
  5
38E
330
1F
100
AcDbEntity
  8
TEXT
 62
     7
100
AcDbMText
 10
-264.0673828125
 20
3.62060546875
 30
0.0
 40
17.0
 41
0.0
 71
     7
 72
     1
  1
\fINDEX Univers 45 Light|b0|i0|c0|p34;\W1;D
 11
-4.371139000186241E-8
 21
0.999999999999999
 31
0.0
  0
ENDSEC
  0
SECTION
  2
OBJECTS
  0
DICTIONARY
  5
C
330
0
100
AcDbDictionary
  3
ACAD_GROUP
350
D
  3
ACAD_LAYOUT
350
1A
  3
ACAD_MLINESTYLE
350
17
  3
ACAD_PLOTSETTINGS
350
19
  3
ACAD_TABLESTYLE
350
3AF
  3
ACAD_VISUALSTYLE
350
2A
  3
ACDBHEADERROUNDTRIPXREC
350
38F
  0
DICTIONARY
  5
D
102
{ACAD_REACTORS
330
C
102
}
330
C
100
AcDbDictionary
  0
DICTIONARY
  5
1A
102
{ACAD_REACTORS
330
C
102
}
330
C
100
AcDbDictionary
  0
DICTIONARY
  5
17
102
{ACAD_REACTORS
330
C
102
}
330
C
100
AcDbDictionary
  3
STANDARD
350
18
  0
DICTIONARY
  5
19
102
{ACAD_REACTORS
330
C
102
}
330
C
100
AcDbDictionary
  0
DICTIONARY
  5
3AF
102
{ACAD_REACTORS
330
C
102
}
330
C
100
AcDbDictionary
  0
DICTIONARY
  5
2A
102
{ACAD_REACTORS
330
C
102
}
330
C
100
AcDbDictionary
  3
2DWIREFRAME
350
2F
  3
3D_HIDDEN
350
31
  3
3DWIREFRAME
350
30
  3
BASIC
350
32
  3
BRIGHTEN
350
36
  3
COLORCHANGE
350
3A
  3
CONCEPTUAL
350
34
  3
DIM
350
35
  3
FACEPATTERN
350
39
  3
FLAT
350
2B
  3
FLATWITHEDGES
350
2C
  3
GOURAUD
350
2D
  3
GOURAUDWITHEDGES
350
2E
  3
LINEPATTERN
350
38
  3
REALISTIC
350
33
  3
THICKEN
350
37
  0
DICTIONARY
  5
38F
102
{ACAD_REACTORS
330
C
102
}
330
C
100
AcDbDictionary
  3
CEPSNTYPE
350
398
  3
DIMSTYLEDATA
350
3AE
  3
FINGERPRINTGUID
350
399
  3
HYPERLINKBASE
350
392
  3
INSUNITS
350
397
  3
LAYOUTDICT
350
394
  3
LWETCUNION
350
396
  3
PLOTSETDICT
350
395
  3
PSVPSCALE
350
39B
  3
PUCSBASE
350
39E
  3
PUCSORGBACK
350
3A4
  3
PUCSORGBOTTOM
350
3A0
  3
PUCSORGFRONT
350
3A3
  3
PUCSORGLEFT
350
3A1
  3
PUCSORGRIGHT
350
3A2
  3
PUCSORGTOP
350
39F
  3
PUCSORTHOREF
350
39C
  3
PUCSORTHOVIEW
350
39D
  3
STYLESHEET
350
393
  3
TSTACKALIGN
350
390
  3
TSTACKSIZE
350
391
  3
UCSBASE
350
3A7
  3
UCSORGBACK
350
3AD
  3
UCSORGBOTTOM
350
3A9
  3
UCSORGFRONT
350
3AC
  3
UCSORGLEFT
350
3AA
  3
UCSORGRIGHT
350
3AB
  3
UCSORGTOP
350
3A8
  3
UCSORTHOREF
350
3A5
  3
UCSORTHOVIEW
350
3A6
  3
VERSIONGUID
350
39A
  0
MLINESTYLE
  5
18
102
{ACAD_REACTORS
330
17
102
}
330
17
100
AcDbMlineStyle
  2
Standard
 70
     0
  3

 62
   256
 51
90.0
 52
90.0
 71
     2
 49
0.5
 62
   256
  6
BYLAYER
 49
-0.5
 62
   256
  6
BYLAYER
  0
VISUALSTYLE
  5
2F
102
{ACAD_REACTORS
330
2A
102
}
330
2A
100
AcDbVisualStyle
  2
2dWireframe
 70
     4
 71
     0
 72
     2
 73
     0
 90
        0
 40
-0.6
 41
-30.0
 62
     5
 63
     7
 74
     1
 91
        4
 64
     7
 65
   257
 75
     1
175
     1
 42
1.0
 92
        0
 66
   257
 43
1.0
 76
     1
 77
     6
 78
     2
 67
     7
 79
     5
170
     0
171
     0
290
     0
174
     0
 93
        1
 44
0.0
173
     0
291
     0
 45
0.0
1001
ACAD
1000
AcDbSavedByObjectVersion
1070
     0
  0
VISUALSTYLE
  5
31
102
{ACAD_REACTORS
330
2A
102
}
330
2A
100
AcDbVisualStyle
  2
3D Hidden
 70
     6
 71
     1
 72
     2
 73
     2
 90
        0
 40
-0.6
 41
-30.0
 62
     5
 63
     7
 74
     2
 91
        2
 64
     7
 65
   257
 75
     2
175
     1
 42
40.0
 92
        0
 66
   257
 43
1.0
 76
     1
 77
     6
 78
     2
 67
     7
 79
     3
170
     0
171
     0
290
     0
174
     0
 93
        1
 44
0.0
173
     0
291
     0
 45
0.0
1001
ACAD
1000
AcDbSavedByObjectVersion
1070
     0
  0
VISUALSTYLE
  5
30
102
{ACAD_REACTORS
330
2A
102
}
330
2A
100
AcDbVisualStyle
  2
3dWireframe
 70
     5
 71
     0
 72
     2
 73
     0
 90
        0
 40
-0.6
 41
-30.0
 62
     5
 63
     7
 74
     1
 91
        4
 64
     7
 65
   257
 75
     1
175
     1
 42
1.0
 92
        0
 66
   257
 43
1.0
 76
     1
 77
     6
 78
     2
 67
     7
 79
     5
170
     0
171
     0
290
     0
174
     0
 93
        1
 44
0.0
173
     0
291
     0
 45
0.0
1001
ACAD
1000
AcDbSavedByObjectVersion
1070
     0
  0
VISUALSTYLE
  5
32
102
{ACAD_REACTORS
330
2A
102
}
330
2A
100
AcDbVisualStyle
  2
Basic
 70
     7
 71
     1
 72
     0
 73
     1
 90
        0
 40
-0.6
 41
-30.0
 62
     5
 63
     7
 74
     0
 91
        4
 64
     7
 65
   257
 75
     1
175
     1
 42
1.0
 92
        8
 66
     7
 43
1.0
 76
     1
 77
     6
 78
     2
 67
     7
 79
     5
170
     0
171
     0
290
     0
174
     0
 93
        1
 44
0.0
173
     0
291
     1
 45
0.0
1001
ACAD
1000
AcDbSavedByObjectVersion
1070
     0
  0
VISUALSTYLE
  5
36
102
{ACAD_REACTORS
330
2A
102
}
330
2A
100
AcDbVisualStyle
  2
Brighten
 70
    12
 71
     2
 72
     2
 73
     0
 90
        0
 40
-0.6
 41
-30.0
 62
     5
 63
     7
 74
     1
 91
        4
 64
     7
 65
   257
 75
     1
175
     1
 42
1.0
 92
        8
 66
     7
 43
1.0
 76
     1
 77
     6
 78
     2
 67
     7
 79
     5
170
     0
171
     0
290
     0
174
     0
 93
        1
 44
50.0
173
     0
291
     1
 45
0.0
1001
ACAD
1000
AcDbSavedByObjectVersion
1070
     0
  0
VISUALSTYLE
  5
3A
102
{ACAD_REACTORS
330
2A
102
}
330
2A
100
AcDbVisualStyle
  2
ColorChange
 70
    16
 71
     2
 72
     2
 73
     3
 90
        0
 40
-0.6
 41
-30.0
 62
     5
 63
     8
 74
     1
 91
        4
 64
     7
 65
   257
 75
     1
175
     1
 42
1.0
 92
        8
 66
     8
 43
1.0
 76
     1
 77
     6
 78
     2
 67
     7
 79
     5
170
     0
171
     0
290
     0
174
     0
 93
        1
 44
0.0
173
     0
291
     1
 45
0.0
1001
ACAD
1000
AcDbSavedByObjectVersion
1070
     0
  0
VISUALSTYLE
  5
34
102
{ACAD_REACTORS
330
2A
102
}
330
2A
100
AcDbVisualStyle
  2
Conceptual
 70
     9
 71
     3
 72
     2
 73
     0
 90
        0
 40
-0.6
 41
-30.0
 62
     5
 63
     7
 74
     2
 91
        2
 64
     7
 65
   257
 75
     1
175
     1
 42
40.0
 92
        8
 66
     7
 43
1.0
 76
     1
 77
     6
 78
     2
 67
     7
 79
     3
170
     0
171
     0
290
     0
174
     0
 93
        1
 44
0.0
173
     0
291
     0
 45
0.0
1001
ACAD
1000
AcDbSavedByObjectVersion
1070
     0
  0
VISUALSTYLE
  5
35
102
{ACAD_REACTORS
330
2A
102
}
330
2A
100
AcDbVisualStyle
  2
Dim
 70
    11
 71
     2
 72
     2
 73
     0
 90
        0
 40
-0.6
 41
-30.0
 62
     5
 63
     7
 74
     1
 91
        4
 64
     7
 65
   257
 75
     1
175
     1
 42
1.0
 92
        8
 66
     7
 43
1.0
 76
     1
 77
     6
 78
     2
 67
     7
 79
     5
170
     0
171
     0
290
     0
174
     0
 93
        1
 44
-50.0
173
     0
291
     1
 45
0.0
1001
ACAD
1000
AcDbSavedByObjectVersion
1070
     0
  0
VISUALSTYLE
  5
39
102
{ACAD_REACTORS
330
2A
102
}
330
2A
100
AcDbVisualStyle
  2
Facepattern
 70
    15
 71
     2
 72
     2
 73
     0
 90
        0
 40
-0.6
 41
-30.0
 62
     5
 63
     7
 74
     1
 91
        4
 64
     7
 65
   257
 75
     1
175
     1
 42
1.0
 92
        8
 66
     7
 43
1.0
 76
     1
 77
     6
 78
     2
 67
     7
 79
     5
170
     0
171
     0
290
     0
174
     0
 93
        1
 44
0.0
173
     0
291
     1
 45
0.0
1001
ACAD
1000
AcDbSavedByObjectVersion
1070
     0
  0
VISUALSTYLE
  5
2B
102
{ACAD_REACTORS
330
2A
102
}
330
2A
100
AcDbVisualStyle
  2
Flat
 70
     0
 71
     2
 72
     1
 73
     1
 90
        2
 40
-0.6
 41
30.0
 62
     5
 63
     7
 74
     0
 91
        4
 64
     7
 65
   257
 75
     1
175
     1
 42
1.0
 92
        8
 66
     7
 43
1.0
 76
     1
 77
     6
 78
     2
 67
     7
 79
     5
170
     0
171
     0
290
     0
174
     0
 93
       13
 44
0.0
173
     0
291
     1
 45
0.0
1001
ACAD
1000
AcDbSavedByObjectVersion
1070
     0
  0
VISUALSTYLE
  5
2C
102
{ACAD_REACTORS
330
2A
102
}
330
2A
100
AcDbVisualStyle
  2
FlatWithEdges
 70
     1
 71
     2
 72
     1
 73
     1
 90
        2
 40
-0.6
 41
30.0
 62
     5
 63
     7
 74
     1
 91
        4
 64
     7
 65
   257
 75
     1
175
     1
 42
1.0
 92
        0
 66
   257
 43
1.0
 76
     1
 77
     6
 78
     2
 67
     7
 79
     5
170
     0
171
     0
290
     0
174
     0
 93
       13
 44
0.0
173
     0
291
     1
 45
0.0
1001
ACAD
1000
AcDbSavedByObjectVersion
1070
     0
  0
VISUALSTYLE
  5
2D
102
{ACAD_REACTORS
330
2A
102
}
330
2A
100
AcDbVisualStyle
  2
Gouraud
 70
     2
 71
     2
 72
     2
 73
     1
 90
        2
 40
-0.6
 41
30.0
 62
     5
 63
     7
 74
     0
 91
        4
 64
     7
 65
   257
 75
     1
175
     1
 42
1.0
 92
        0
 66
     7
 43
1.0
 76
     1
 77
     6
 78
     2
 67
     7
 79
     5
170
     0
171
     0
290
     0
174
     0
 93
       13
 44
0.0
173
     0
291
     1
 45
0.0
1001
ACAD
1000
AcDbSavedByObjectVersion
1070
     0
  0
VISUALSTYLE
  5
2E
102
{ACAD_REACTORS
330
2A
102
}
330
2A
100
AcDbVisualStyle
  2
GouraudWithEdges
 70
     3
 71
     2
 72
     2
 73
     1
 90
        2
 40
-0.6
 41
30.0
 62
     5
 63
     7
 74
     1
 91
        4
 64
     7
 65
   257
 75
     1
175
     1
 42
1.0
 92
        0
 66
   257
 43
1.0
 76
     1
 77
     6
 78
     2
 67
     7
 79
     5
170
     0
171
     0
290
     0
174
     0
 93
       13
 44
0.0
173
     0
291
     1
 45
0.0
1001
ACAD
1000
AcDbSavedByObjectVersion
1070
     0
  0
VISUALSTYLE
  5
38
102
{ACAD_REACTORS
330
2A
102
}
330
2A
100
AcDbVisualStyle
  2
Linepattern
 70
    14
 71
     2
 72
     2
 73
     0
 90
        0
 40
-0.6
 41
-30.0
 62
     5
 63
     7
 74
     1
 91
        4
 64
     7
 65
   257
 75
     7
175
     7
 42
1.0
 92
        8
 66
     7
 43
1.0
 76
     1
 77
     6
 78
     2
 67
     7
 79
     5
170
     0
171
     0
290
     0
174
     0
 93
        1
 44
0.0
173
     0
291
     1
 45
0.0
1001
ACAD
1000
AcDbSavedByObjectVersion
1070
     0
  0
VISUALSTYLE
  5
33
102
{ACAD_REACTORS
330
2A
102
}
330
2A
100
AcDbVisualStyle
  2
Realistic
 70
     8
 71
     2
 72
     2
 73
     0
 90
        0
 40
-0.6
 41
-30.0
 62
     5
 63
     7
 74
     1
 91
        0
 64
     7
 65
   257
 75
     1
175
     1
 42
1.0
 92
        8
 66
     8
 43
1.0
 76
     1
 77
     6
 78
     2
 67
     7
 79
     5
170
     0
171
     0
290
     0
174
     0
 93
       13
 44
0.0
173
     0
291
     0
 45
0.0
1001
ACAD
1000
AcDbSavedByObjectVersion
1070
     0
  0
VISUALSTYLE
  5
37
102
{ACAD_REACTORS
330
2A
102
}
330
2A
100
AcDbVisualStyle
  2
Thicken
 70
    13
 71
     2
 72
     2
 73
     0
 90
        0
 40
-0.6
 41
-30.0
 62
     5
 63
     7
 74
     1
 91
        4
 64
     7
 65
   257
 75
     1
175
     1
 42
1.0
 92
       12
 66
     7
 43
1.0
 76
     1
 77
     6
 78
     2
 67
     7
 79
     5
170
     0
171
     0
290
     0
174
     0
 93
        1
 44
0.0
173
     0
291
     1
 45
0.0
1001
ACAD
1000
AcDbSavedByObjectVersion
1070
     0
  0
XRECORD
  5
398
102
{ACAD_REACTORS
330
38F
102
}
330
38F
100
AcDbXrecord
 90
        0
  0
XRECORD
  5
3AE
102
{ACAD_REACTORS
330
38F
102
}
330
38F
100
AcDbXrecord
1000
DSTYLE
1002
{
1070
   340
340
11
1002
}
  0
XRECORD
  5
399
102
{ACAD_REACTORS
330
38F
102
}
330
38F
100
AcDbXrecord
  1
{7E729794-90B2-4A3C-B2C4-268709346D1E}
  0
XRECORD
  5
392
102
{ACAD_REACTORS
330
38F
102
}
330
38F
100
AcDbXrecord
  1

  0
XRECORD
  5
397
102
{ACAD_REACTORS
330
38F
102
}
330
38F
100
AcDbXrecord
 90
        1
  0
XRECORD
  5
394
102
{ACAD_REACTORS
330
38F
102
}
330
38F
100
AcDbXrecord
340
1A
  0
XRECORD
  5
396
102
{ACAD_REACTORS
330
38F
102
}
330
38F
100
AcDbXrecord
 90
    10269
  0
XRECORD
  5
395
102
{ACAD_REACTORS
330
38F
102
}
330
38F
100
AcDbXrecord
340
19
  0
XRECORD
  5
39B
102
{ACAD_REACTORS
330
38F
102
}
330
38F
100
AcDbXrecord
 40
0.0
  0
XRECORD
  5
39E
102
{ACAD_REACTORS
330
38F
102
}
330
38F
100
AcDbXrecord
340
0
  0
XRECORD
  5
3A4
102
{ACAD_REACTORS
330
38F
102
}
330
38F
100
AcDbXrecord
 10
0.0
 20
0.0
 30
0.0
  0
XRECORD
  5
3A0
102
{ACAD_REACTORS
330
38F
102
}
330
38F
100
AcDbXrecord
 10
0.0
 20
0.0
 30
0.0
  0
XRECORD
  5
3A3
102
{ACAD_REACTORS
330
38F
102
}
330
38F
100
AcDbXrecord
 10
0.0
 20
0.0
 30
0.0
  0
XRECORD
  5
3A1
102
{ACAD_REACTORS
330
38F
102
}
330
38F
100
AcDbXrecord
 10
0.0
 20
0.0
 30
0.0
  0
XRECORD
  5
3A2
102
{ACAD_REACTORS
330
38F
102
}
330
38F
100
AcDbXrecord
 10
0.0
 20
0.0
 30
0.0
  0
XRECORD
  5
39F
102
{ACAD_REACTORS
330
38F
102
}
330
38F
100
AcDbXrecord
 10
0.0
 20
0.0
 30
0.0
  0
XRECORD
  5
39C
102
{ACAD_REACTORS
330
38F
102
}
330
38F
100
AcDbXrecord
340
0
  0
XRECORD
  5
39D
102
{ACAD_REACTORS
330
38F
102
}
330
38F
100
AcDbXrecord
 70
     0
  0
XRECORD
  5
393
102
{ACAD_REACTORS
330
38F
102
}
330
38F
100
AcDbXrecord
  1

  0
XRECORD
  5
390
102
{ACAD_REACTORS
330
38F
102
}
330
38F
100
AcDbXrecord
 90
        1
  0
XRECORD
  5
391
102
{ACAD_REACTORS
330
38F
102
}
330
38F
100
AcDbXrecord
 90
       70
  0
XRECORD
  5
3A7
102
{ACAD_REACTORS
330
38F
102
}
330
38F
100
AcDbXrecord
340
0
  0
XRECORD
  5
3AD
102
{ACAD_REACTORS
330
38F
102
}
330
38F
100
AcDbXrecord
 10
0.0
 20
0.0
 30
0.0
  0
XRECORD
  5
3A9
102
{ACAD_REACTORS
330
38F
102
}
330
38F
100
AcDbXrecord
 10
0.0
 20
0.0
 30
0.0
  0
XRECORD
  5
3AC
102
{ACAD_REACTORS
330
38F
102
}
330
38F
100
AcDbXrecord
 10
0.0
 20
0.0
 30
0.0
  0
XRECORD
  5
3AA
102
{ACAD_REACTORS
330
38F
102
}
330
38F
100
AcDbXrecord
 10
0.0
 20
0.0
 30
0.0
  0
XRECORD
  5
3AB
102
{ACAD_REACTORS
330
38F
102
}
330
38F
100
AcDbXrecord
 10
0.0
 20
0.0
 30
0.0
  0
XRECORD
  5
3A8
102
{ACAD_REACTORS
330
38F
102
}
330
38F
100
AcDbXrecord
 10
0.0
 20
0.0
 30
0.0
  0
XRECORD
  5
3A5
102
{ACAD_REACTORS
330
38F
102
}
330
38F
100
AcDbXrecord
340
0
  0
XRECORD
  5
3A6
102
{ACAD_REACTORS
330
38F
102
}
330
38F
100
AcDbXrecord
 70
     0
  0
XRECORD
  5
39A
102
{ACAD_REACTORS
330
38F
102
}
330
38F
100
AcDbXrecord
  1
{FAEB1C32-E019-11D5-929B-00C0DF256EC4}
  0
ENDSEC
  0
EOF
