  0
SECTION
  2
HEADER
  9
$ACADVER
  1
AC1014
  9
$ACADMAINTVER
 70
     9
  9
$DWGCODEPAGE
  3
ASCII
  9
$INSBASE
 10
0.0
 20
0.0
 30
0.0
  9
$EXTMIN
 10
1.000000000000000E+20
 20
1.000000000000000E+20
 30
1.000000000000000E+20
  9
$EXTMAX
 10
-1.000000000000000E+20
 20
-1.000000000000000E+20
 30
-1.000000000000000E+20
  9
$LIMMIN
 10
0.0
 20
0.0
  9
$LIMMAX
 10
12.0
 20
9.0
  9
$ORTHOMODE
 70
     0
  9
$REGENMODE
 70
     1
  9
$FILLMODE
 70
     1
  9
$QTEXTMODE
 70
     0
  9
$MIRRTEXT
 70
     1
  9
$DRAGMODE
 70
     2
  9
$LTSCALE
 40
1.0
  9
$OSMODE
 70
    37
  9
$ATTMODE
 70
     1
  9
$TEXTSIZE
 40
0.2
  9
$TRACEWID
 40
0.05
  9
$TEXTSTYLE
  7
STANDARD
  9
$CLAYER
  8
0
  9
$CELTYPE
  6
BYLAYER
  9
$CECOLOR
 62
   256
  9
$CELTSCALE
 40
1.0
  9
$DELOBJ
 70
     1
  9
$DISPSILH
 70
     0
  9
$DIMSCALE
 40
1.0
  9
$DIMASZ
 40
0.18
  9
$DIMEXO
 40
0.0625
  9
$DIMDLI
 40
0.38
  9
$DIMRND
 40
0.0
  9
$DIMDLE
 40
0.0
  9
$DIMEXE
 40
0.18
  9
$DIMTP
 40
0.0
  9
$DIMTM
 40
0.0
  9
$DIMTXT
 40
0.18
  9
$DIMCEN
 40
0.09
  9
$DIMTSZ
 40
0.0
  9
$DIMTOL
 70
     0
  9
$DIMLIM
 70
     0
  9
$DIMTIH
 70
     1
  9
$DIMTOH
 70
     1
  9
$DIMSE1
 70
     0
  9
$DIMSE2
 70
     0
  9
$DIMTAD
 70
     0
  9
$DIMZIN
 70
     0
  9
$DIMBLK
  1

  9
$DIMASO
 70
     1
  9
$DIMSHO
 70
     1
  9
$DIMPOST
  1

  9
$DIMAPOST
  1

  9
$DIMALT
 70
     0
  9
$DIMALTD
 70
     2
  9
$DIMALTF
 40
25.4
  9
$DIMLFAC
 40
1.0
  9
$DIMTOFL
 70
     0
  9
$DIMTVP
 40
0.0
  9
$DIMTIX
 70
     0
  9
$DIMSOXD
 70
     0
  9
$DIMSAH
 70
     0
  9
$DIMBLK1
  1

  9
$DIMBLK2
  1

  9
$DIMSTYLE
  2
STANDARD
  9
$DIMCLRD
 70
     0
  9
$DIMCLRE
 70
     0
  9
$DIMCLRT
 70
     0
  9
$DIMTFAC
 40
1.0
  9
$DIMGAP
 40
0.09
  9
$DIMJUST
 70
     0
  9
$DIMSD1
 70
     0
  9
$DIMSD2
 70
     0
  9
$DIMTOLJ
 70
     1
  9
$DIMTZIN
 70
     0
  9
$DIMALTZ
 70
     0
  9
$DIMALTTZ
 70
     0
  9
$DIMFIT
 70
     3
  9
$DIMUPT
 70
     0
  9
$DIMUNIT
 70
     2
  9
$DIMDEC
 70
     4
  9
$DIMTDEC
 70
     4
  9
$DIMALTU
 70
     2
  9
$DIMALTTD
 70
     2
  9
$DIMTXSTY
  7
STANDARD
  9
$DIMAUNIT
 70
     0
  9
$LUNITS
 70
     2
  9
$LUPREC
 70
     4
  9
$SKETCHINC
 40
0.1
  9
$FILLETRAD
 40
0.5
  9
$AUNITS
 70
     0
  9
$AUPREC
 70
     0
  9
$MENU
  1
.
  9
$ELEVATION
 40
0.0
  9
$PELEVATION
 40
0.0
  9
$THICKNESS
 40
0.0
  9
$LIMCHECK
 70
     0
  9
$CHAMFERA
 40
0.5
  9
$CHAMFERB
 40
0.5
  9
$CHAMFERC
 40
1.0
  9
$CHAMFERD
 40
0.0
  9
$SKPOLY
 70
     0
  9
$TDCREATE
 40
2456035.485860717
  9
$TDUPDATE
 40
2456035.485860729
  9
$TDINDWG
 40
0.0000000116
  9
$TDUSRTIMER
 40
0.0000000116
  9
$USRTIMER
 70
     1
  9
$ANGBASE
 50
0.0
  9
$ANGDIR
 70
     0
  9
$PDMODE
 70
     0
  9
$PDSIZE
 40
0.0
  9
$PLINEWID
 40
0.0
  9
$COORDS
 70
     1
  9
$SPLFRAME
 70
     0
  9
$SPLINETYPE
 70
     6
  9
$SPLINESEGS
 70
     8
  9
$ATTDIA
 70
     0
  9
$ATTREQ
 70
     1
  9
$HANDLING
 70
     1
  9
$HANDSEED
  5
9E7
  9
$SURFTAB1
 70
     6
  9
$SURFTAB2
 70
     6
  9
$SURFTYPE
 70
     6
  9
$SURFU
 70
     6
  9
$SURFV
 70
     6
  9
$UCSNAME
  2

  9
$UCSORG
 10
0.0
 20
0.0
 30
0.0
  9
$UCSXDIR
 10
1.0
 20
0.0
 30
0.0
  9
$UCSYDIR
 10
0.0
 20
1.0
 30
0.0
  9
$PUCSNAME
  2

  9
$PUCSORG
 10
0.0
 20
0.0
 30
0.0
  9
$PUCSXDIR
 10
1.0
 20
0.0
 30
0.0
  9
$PUCSYDIR
 10
0.0
 20
1.0
 30
0.0
  9
$USERI1
 70
     0
  9
$USERI2
 70
     0
  9
$USERI3
 70
     0
  9
$USERI4
 70
     0
  9
$USERI5
 70
     0
  9
$USERR1
 40
0.0
  9
$USERR2
 40
0.0
  9
$USERR3
 40
0.0
  9
$USERR4
 40
0.0
  9
$USERR5
 40
0.0
  9
$WORLDVIEW
 70
     1
  9
$SHADEDGE
 70
     3
  9
$SHADEDIF
 70
    70
  9
$TILEMODE
 70
     1
  9
$MAXACTVP
 70
    64
  9
$PINSBASE
 10
0.0
 20
0.0
 30
0.0
  9
$PLIMCHECK
 70
     0
  9
$PEXTMIN
 10
1.000000000000000E+20
 20
1.000000000000000E+20
 30
1.000000000000000E+20
  9
$PEXTMAX
 10
-1.000000000000000E+20
 20
-1.000000000000000E+20
 30
-1.000000000000000E+20
  9
$PLIMMIN
 10
0.0
 20
0.0
  9
$PLIMMAX
 10
12.0
 20
9.0
  9
$UNITMODE
 70
     0
  9
$VISRETAIN
 70
     1
  9
$PLINEGEN
 70
     0
  9
$PSLTSCALE
 70
     1
  9
$TREEDEPTH
 70
  3020
  9
$PICKSTYLE
 70
     1
  9
$CMLSTYLE
  2
STANDARD
  9
$CMLJUST
 70
     0
  9
$CMLSCALE
 40
1.0
  9
$PROXYGRAPHICS
 70
     1
  9
$MEASUREMENT
 70
     0
  0
ENDSEC
  0
SECTION
  2
CLASSES
  0
CLASS
  1
ACDBDICTIONARYWDFLT
  2
AcDbDictionaryWithDefault
  3
ObjectDBX Classes
 90
        0
280
     0
281
     0
  0
CLASS
  1
VISUALSTYLE
  2
AcDbVisualStyle
  3
ObjectDBX Classes
 90
     4095
280
     0
281
     0
  0
CLASS
  1
XRECORD
  2
AcDbXrecord
  3
AutoCAD 2000
 90
        0
280
     0
281
     0
  0
CLASS
  1
LWPOLYLINE
  2
AcDbPolyline
  3
AutoCAD 2000
 90
        0
280
     0
281
     1
  0
CLASS
  1
HATCH
  2
AcDbHatch
  3
AutoCAD 2000
 90
        0
280
     0
281
     1
  0
CLASS
  1
ACDBPLACEHOLDER
  2
AcDbPlaceHolder
  3
ObjectDBX Classes
 90
        0
280
     0
281
     0
  0
CLASS
  1
LAYOUT
  2
AcDbLayout
  3
ObjectDBX Classes
 90
        0
280
     0
281
     0
  0
ENDSEC
  0
SECTION
  2
TABLES
  0
TABLE
  2
VPORT
  5
8
330
0
100
AcDbSymbolTable
 70
     1
  0
VPORT
  5
29
330
8
100
AcDbSymbolTableRecord
100
AcDbViewportTableRecord
  2
*ACTIVE
 70
     0
 10
0.0
 20
0.0
 11
1.0
 21
1.0
 12
0.0
 22
0.0
 13
0.0
 23
0.0
 14
0.5
 24
0.5
 15
0.5
 25
0.5
 16
0.0
 26
0.0
 36
1.0
 17
59.69880713605886
 27
-41.17916737347211
 37
0.0
 40
115.9909810306237
 41
1.326497163587891
 42
50.0
 43
0.0
 44
0.0
 50
0.0
 51
0.0
 71
     0
 72
   100
 73
     1
 74
     3
 75
     0
 76
     0
 77
     0
 78
     0
  0
ENDTAB
  0
TABLE
  2
LTYPE
  5
5
330
0
100
AcDbSymbolTable
 70
     5
  0
LTYPE
  5
14
330
5
100
AcDbSymbolTableRecord
100
AcDbLinetypeTableRecord
  2
BYBLOCK
 70
     0
  3

 72
    65
 73
     0
 40
0.0
  0
LTYPE
  5
15
330
5
100
AcDbSymbolTableRecord
100
AcDbLinetypeTableRecord
  2
BYLAYER
 70
     0
  3

 72
    65
 73
     0
 40
0.0
  0
LTYPE
  5
16
330
5
100
AcDbSymbolTableRecord
100
AcDbLinetypeTableRecord
  2
CONTINUOUS
 70
     0
  3
Solid line
 72
    65
 73
     0
 40
0.0
  0
LTYPE
  5
40
330
5
100
AcDbSymbolTableRecord
100
AcDbLinetypeTableRecord
  2
AI-LINETYPE-1
 70
     0
  3
Adobe Illustrator Linetype No. 1
 72
    65
 73
     4
 40
8.819450260381924
 49
7.055560208305538
 74
     0
 49
-0.7055560208305538
 74
     0
 49
0.3527780104152769
 74
     0
 49
-0.7055560208305538
 74
     0
  0
LTYPE
  5
45
330
5
100
AcDbSymbolTableRecord
100
AcDbLinetypeTableRecord
  2
AI-LINETYPE-2
 70
     0
  3
Adobe Illustrator Linetype No. 2
 72
    65
 73
     4
 40
8.819450260381924
 49
7.055560208305538
 74
     0
 49
-0.7055560208305538
 74
     0
 49
0.3527780104152769
 74
     0
 49
-0.7055560208305538
 74
     0
  0
LTYPE
  5
4A
330
5
100
AcDbSymbolTableRecord
100
AcDbLinetypeTableRecord
  2
AI-LINETYPE-3
 70
     0
  3
Adobe Illustrator Linetype No. 3
 72
    65
 73
     4
 40
8.819450260381924
 49
7.055560208305538
 74
     0
 49
-0.7055560208305538
 74
     0
 49
0.3527780104152769
 74
     0
 49
-0.7055560208305538
 74
     0
  0
LTYPE
  5
4F
330
5
100
AcDbSymbolTableRecord
100
AcDbLinetypeTableRecord
  2
AI-LINETYPE-4
 70
     0
  3
Adobe Illustrator Linetype No. 4
 72
    65
 73
     4
 40
8.819450260381924
 49
7.055560208305538
 74
     0
 49
-0.7055560208305538
 74
     0
 49
0.3527780104152769
 74
     0
 49
-0.7055560208305538
 74
     0
  0
ENDTAB
  0
TABLE
  2
LAYER
  5
2
330
0
100
AcDbSymbolTable
 70
     5
  0
LAYER
  5
10
330
2
100
AcDbSymbolTableRecord
100
AcDbLayerTableRecord
  2
0
 70
     0
 62
     7
  6
CONTINUOUS
  0
LAYER
  5
3B
330
2
100
AcDbSymbolTableRecord
100
AcDbLayerTableRecord
  2
GRAU_10_
 70
     0
 62
     7
  6
CONTINUOUS
  0
LAYER
  5
470
330
2
100
AcDbSymbolTableRecord
100
AcDbLayerTableRecord
  2
STANDARDEBENE
 70
     0
 62
     7
  6
CONTINUOUS
  0
LAYER
  5
639
330
2
100
AcDbSymbolTableRecord
100
AcDbLayerTableRecord
  2
BEMA_UNG
 70
     1
 62
     7
  6
CONTINUOUS
  0
LAYER
  5
9C0
330
2
100
AcDbSymbolTableRecord
100
AcDbLayerTableRecord
  2
TEXT
 70
     1
 62
     7
  6
CONTINUOUS
  0
ENDTAB
  0
TABLE
  2
STYLE
  5
3
330
0
100
AcDbSymbolTable
 70
     1
  0
STYLE
  5
11
330
3
100
AcDbSymbolTableRecord
100
AcDbTextStyleTableRecord
  2
STANDARD
 70
     0
 40
0.0
 41
1.0
 50
0.0
 71
     0
 42
0.2
  3
txt
  4

  0
ENDTAB
  0
TABLE
  2
VIEW
  5
6
330
0
100
AcDbSymbolTable
 70
     0
  0
ENDTAB
  0
TABLE
  2
UCS
  5
7
330
0
100
AcDbSymbolTable
 70
     0
  0
ENDTAB
  0
TABLE
  2
APPID
  5
9
330
0
100
AcDbSymbolTable
 70
     1
  0
APPID
  5
12
330
9
100
AcDbSymbolTableRecord
100
AcDbRegAppTableRecord
  2
ACAD
 70
     0
  0
ENDTAB
  0
TABLE
  2
DIMSTYLE
  5
A
330
0
100
AcDbSymbolTable
 70
     1
  0
DIMSTYLE
105
27
330
A
100
AcDbSymbolTableRecord
100
AcDbDimStyleTableRecord
  2
STANDARD
 70
     0
  3

  4

  5

  6

  7

 40
1.0
 41
0.18
 42
0.0625
 43
0.38
 44
0.18
 45
0.0
 46
0.0
 47
0.0
 48
0.0
140
0.18
141
0.09
142
0.0
143
25.4
144
1.0
145
0.0
146
1.0
147
0.09
 71
     0
 72
     0
 73
     1
 74
     1
 75
     0
 76
     0
 77
     0
 78
     0
170
     0
171
     2
172
     0
173
     0
174
     0
175
     0
176
     0
177
     0
178
     0
270
     2
271
     4
272
     4
273
     2
274
     2
340
11
275
     0
280
     0
281
     0
282
     0
283
     1
284
     0
285
     0
286
     0
287
     3
288
     0
  0
ENDTAB
  0
TABLE
  2
BLOCK_RECORD
  5
1
330
0
100
AcDbSymbolTable
 70
     1
  0
BLOCK_RECORD
  5
1F
330
1
100
AcDbSymbolTableRecord
100
AcDbBlockTableRecord
  2
*MODEL_SPACE
  0
BLOCK_RECORD
  5
1B
330
1
100
AcDbSymbolTableRecord
100
AcDbBlockTableRecord
  2
*PAPER_SPACE
  0
ENDTAB
  0
ENDSEC
  0
SECTION
  2
BLOCKS
  0
BLOCK
  5
20
330
1F
100
AcDbEntity
  8
0
100
AcDbBlockBegin
  2
*MODEL_SPACE
 70
     0
 71
     0
 10
0.0
 20
0.0
 30
0.0
  3
*MODEL_SPACE
  1

  0
ENDBLK
  5
21
330
1F
100
AcDbEntity
  8
0
100
AcDbBlockEnd
  0
BLOCK
  5
1C
330
1B
100
AcDbEntity
 67
     1
  8
0
100
AcDbBlockBegin
  2
*PAPER_SPACE
 70
     0
 71
     0
 10
0.0
 20
0.0
 30
0.0
  3
*PAPER_SPACE
  1

  0
ENDBLK
  5
1D
330
1B
100
AcDbEntity
 67
     1
  8
0
100
AcDbBlockEnd
  0
ENDSEC
  0
SECTION
  2
ENTITIES
  0
POLYLINE
  5
3C
330
1F
100
AcDbEntity
  8
GRAU_10_
  6
AI-LINETYPE-1
 62
     7
100
AcDb2dPolyline
 66
     1
 10
0.0
 20
0.0
 30
0.0
  0
VERTEX
  5
3D
330
3C
100
AcDbEntity
  8
GRAU_10_
  6
AI-LINETYPE-1
 62
     7
100
AcDbVertex
100
AcDb2dVertex
 10
55.91255857261502
 20
-17.0220557672008
 30
0.0
  0
VERTEX
  5
3E
330
3C
100
AcDbEntity
  8
GRAU_10_
  6
AI-LINETYPE-1
 62
     7
100
AcDbVertex
100
AcDb2dVertex
 10
-2.726794875426676
 20
-17.0220557672008
 30
0.0
  0
SEQEND
  5
3F
330
3C
100
AcDbEntity
  8
GRAU_10_
  6
AI-LINETYPE-1
  0
POLYLINE
  5
41
330
1F
100
AcDbEntity
  8
GRAU_10_
  6
AI-LINETYPE-2
 62
     7
100
AcDb2dPolyline
 66
     1
 10
0.0
 20
0.0
 30
0.0
  0
VERTEX
  5
42
330
41
100
AcDbEntity
  8
GRAU_10_
  6
AI-LINETYPE-2
 62
     7
100
AcDbVertex
100
AcDb2dVertex
 10
55.7701037803233
 20
-80.86109526133407
 30
0.0
  0
VERTEX
  5
43
330
41
100
AcDbEntity
  8
GRAU_10_
  6
AI-LINETYPE-2
 62
     7
100
AcDbVertex
100
AcDb2dVertex
 10
-3.012048969785904
 20
-80.86109526133407
 30
0.0
  0
SEQEND
  5
44
330
41
100
AcDbEntity
  8
GRAU_10_
  6
AI-LINETYPE-2
  0
POLYLINE
  5
46
330
1F
100
AcDbEntity
  8
GRAU_10_
  6
AI-LINETYPE-3
 62
     7
100
AcDb2dPolyline
 66
     1
 10
0.0
 20
0.0
 30
0.0
  0
VERTEX
  5
47
330
46
100
AcDbEntity
  8
GRAU_10_
  6
AI-LINETYPE-3
 62
     7
100
AcDbVertex
100
AcDb2dVertex
 10
115.8009322128057
 20
2.076274291279561
 30
0.0
  0
VERTEX
  5
48
330
46
100
AcDbEntity
  8
GRAU_10_
  6
AI-LINETYPE-3
 62
     7
100
AcDbVertex
100
AcDb2dVertex
 10
115.8009322128057
 20
-35.73255394557863
 30
0.0
  0
SEQEND
  5
49
330
46
100
AcDbEntity
  8
GRAU_10_
  6
AI-LINETYPE-3
  0
POLYLINE
  5
4B
330
1F
100
AcDbEntity
  8
GRAU_10_
  6
AI-LINETYPE-4
 62
     7
100
AcDb2dPolyline
 66
     1
 10
0.0
 20
0.0
 30
0.0
  0
VERTEX
  5
4C
330
4B
100
AcDbEntity
  8
GRAU_10_
  6
AI-LINETYPE-4
 62
     7
100
AcDbVertex
100
AcDb2dVertex
 10
96.69752063513236
 20
-17.0220557672008
 30
0.0
  0
VERTEX
  5
4D
330
4B
100
AcDbEntity
  8
GRAU_10_
  6
AI-LINETYPE-4
 62
     7
100
AcDbVertex
100
AcDb2dVertex
 10
135.0771154430409
 20
-17.0220557672008
 30
0.0
  0
SEQEND
  5
4E
330
4B
100
AcDbEntity
  8
GRAU_10_
  6
AI-LINETYPE-4
  0
SPLINE
  5
50
330
1F
100
AcDbEntity
  8
GRAU_10_
 62
     7
100
AcDbSpline
210
0.0
220
0.0
230
1.0
 70
     8
 71
     3
 72
    11
 73
     7
 74
     0
 42
0.0000000001
 43
0.0000000001
 40
0.0
 40
0.0
 40
0.0
 40
0.0
 40
1.0
 40
1.0
 40
1.0
 40
2.0
 40
2.0
 40
2.0
 40
2.0
 10
132.8005948445798
 20
-17.0220557672008
 30
0.0
 10
132.8005948445798
 20
-7.633130847427815
 30
0.0
 10
125.1896848776908
 20
-0.0216179884312096
 30
0.0
 10
115.8009322128057
 20
-0.0216179884312096
 30
0.0
 10
115.5995662488529
 20
-0.0216179884312096
 30
0.0
 10
115.3994060691153
 20
-0.0251492136331203
 30
0.0
 10
115.2293904947599
 20
-0.0315226444853495
 30
0.0
  0
SPLINE
  5
51
330
1F
100
AcDbEntity
  8
GRAU_10_
 62
     7
100
AcDbSpline
210
0.0
220
0.0
230
1.0
 70
     8
 71
     3
 72
     8
 73
     4
 74
     0
 42
0.0000000001
 43
0.0000000001
 40
0.0
 40
0.0
 40
0.0
 40
0.0
 40
1.0
 40
1.0
 40
1.0
 40
1.0
 10
130.800715596083
 20
-25.02157276118784
 30
0.0
 10
132.1794437188193
 20
-22.43774944271658
 30
0.0
 10
132.8224712153428
 20
-19.65824457159309
 30
0.0
 10
132.8005948445798
 20
-17.0220557672008
 30
0.0
  0
SPLINE
  5
52
330
1F
100
AcDbEntity
  8
GRAU_10_
 62
     7
100
AcDbSpline
210
0.0
220
0.0
230
1.0
 70
     8
 71
     3
 72
     8
 73
     4
 74
     0
 42
0.0000000001
 43
0.0000000001
 40
0.0
 40
0.0
 40
0.0
 40
0.0
 40
1.0
 40
1.0
 40
1.0
 40
1.0
 10
116.3724739308516
 20
-34.01207212525257
 30
0.0
 10
122.6285992044221
 20
-33.80157665224111
 30
0.0
 10
127.9805585714156
 20
-30.23676174719025
 30
0.0
 10
130.800715596083
 20
-25.02157276118784
 30
0.0
  0
SPLINE
  5
53
330
1F
100
AcDbEntity
  8
GRAU_10_
 62
     7
100
AcDbSpline
210
0.0
220
0.0
230
1.0
 70
     8
 71
     3
 72
    11
 73
     7
 74
     0
 42
0.0000000001
 43
0.0000000001
 40
0.0
 40
0.0
 40
0.0
 40
0.0
 40
1.0
 40
1.0
 40
1.0
 40
2.0
 40
2.0
 40
2.0
 40
2.0
 10
115.2293904947599
 20
-0.0315226444853495
 30
0.0
 10
106.0469991855767
 20
-0.3402034035987168
 30
0.0
 10
98.81039909009027
 20
-7.876871513803605
 30
0.0
 10
98.80126958103168
 20
-17.0220557672008
 30
0.0
 10
98.80126958103168
 20
-26.20978697790883
 30
0.0
 10
106.0897183977754
 20
-33.6946063668564
 30
0.0
 10
115.2293904947599
 20
-34.01207212525257
 30
0.0
  0
SPLINE
  5
54
330
1F
100
AcDbEntity
  8
GRAU_10_
 62
     7
100
AcDbSpline
210
0.0
220
0.0
230
1.0
 70
     8
 71
     3
 72
     8
 73
     4
 74
     0
 42
0.0000000001
 43
0.0000000001
 40
0.0
 40
0.0
 40
0.0
 40
0.0
 40
1.0
 40
1.0
 40
1.0
 40
1.0
 10
115.2293904947599
 20
-34.01207212525257
 30
0.0
 10
115.6312611482261
 20
-34.02550800650862
 30
0.0
 10
116.0298589588223
 20
-34.02516349673282
 30
0.0
 10
116.3724739308516
 20
-34.01207212525257
 30
0.0
  0
POLYLINE
  5
55
330
1F
100
AcDbEntity
  8
GRAU_10_
 62
     7
100
AcDb2dPolyline
 66
     1
 10
0.0
 20
0.0
 30
0.0
  0
VERTEX
  5
56
330
55
100
AcDbEntity
  8
GRAU_10_
 62
     7
100
AcDbVertex
100
AcDb2dVertex
 10
130.2291738780372
 20
-8.031728658023983
 30
0.0
  0
VERTEX
  5
57
330
55
100
AcDbEntity
  8
GRAU_10_
 62
     7
100
AcDbVertex
100
AcDb2dVertex
 10
128.5214389194156
 20
-7.045741679695348
 30
0.0
  0
VERTEX
  5
58
330
55
100
AcDbEntity
  8
GRAU_10_
 62
     7
100
AcDbVertex
100
AcDb2dVertex
 10
126.7387730845583
 20
-6.016346469616395
 30
0.0
  0
VERTEX
  5
59
330
55
100
AcDbEntity
  8
GRAU_10_
 62
     7
100
AcDbVertex
100
AcDb2dVertex
 10
126.6827902459914
 20
-5.984307060467351
 30
0.0
  0
SEQEND
  5
5A
330
55
100
AcDbEntity
  8
GRAU_10_
  0
SPLINE
  5
5B
330
1F
100
AcDbEntity
  8
GRAU_10_
 62
     7
100
AcDbSpline
210
0.0
220
0.0
230
1.0
 70
     8
 71
     3
 72
     8
 73
     4
 74
     0
 42
0.0000000001
 43
0.0000000001
 40
0.0
 40
0.0
 40
0.0
 40
0.0
 40
1.0
 40
1.0
 40
1.0
 40
1.0
 10
130.800715596083
 20
-13.11634843899964
 30
0.0
 10
130.0627756563276
 20
-10.28034396464558
 30
0.0
 10
128.5844842083863
 20
-7.832774262501695
 30
0.0
 10
126.6827902459914
 20
-5.984307060467351
 30
0.0
  0
POLYLINE
  5
5C
330
1F
100
AcDbEntity
  8
GRAU_10_
 62
     7
100
AcDb2dPolyline
 66
     1
 10
0.0
 20
0.0
 30
0.0
  0
VERTEX
  5
5D
330
5C
100
AcDbEntity
  8
GRAU_10_
 62
     7
100
AcDbVertex
100
AcDb2dVertex
 10
130.800715596083
 20
-13.11634843899964
 30
0.0
  0
VERTEX
  5
5E
330
5C
100
AcDbEntity
  8
GRAU_10_
 62
     7
100
AcDbVertex
100
AcDb2dVertex
 10
130.800715596083
 20
-12.84332444168117
 30
0.0
  0
VERTEX
  5
5F
330
5C
100
AcDbEntity
  8
GRAU_10_
 62
     7
100
AcDbVertex
100
AcDb2dVertex
 10
130.800715596083
 20
-10.90872979569779
 30
0.0
  0
VERTEX
  5
60
330
5C
100
AcDbEntity
  8
GRAU_10_
 62
     7
100
AcDbVertex
100
AcDb2dVertex
 10
130.800715596083
 20
-9.02202200855007
 30
0.0
  0
SEQEND
  5
61
330
5C
100
AcDbEntity
  8
GRAU_10_
  0
SPLINE
  5
62
330
1F
100
AcDbEntity
  8
GRAU_10_
 62
     7
100
AcDbSpline
210
0.0
220
0.0
230
1.0
 70
     8
 71
     3
 72
     8
 73
     4
 74
     0
 42
0.0000000001
 43
0.0000000001
 40
0.0
 40
0.0
 40
0.0
 40
0.0
 40
1.0
 40
1.0
 40
1.0
 40
1.0
 10
119.9188575628973
 20
-2.078685859710134
 30
0.0
 10
117.0931883818172
 20
-1.300093766410792
 30
0.0
 10
114.2349630269242
 20
-1.356162732421619
 30
0.0
 10
111.6830068627141
 20
-2.078685859710134
 30
0.0
  0
POLYLINE
  5
63
330
1F
100
AcDbEntity
  8
GRAU_10_
 62
     7
100
AcDb2dPolyline
 66
     1
 10
0.0
 20
0.0
 30
0.0
  0
VERTEX
  5
64
330
63
100
AcDbEntity
  8
GRAU_10_
 62
     7
100
AcDbVertex
100
AcDb2dVertex
 10
119.9188575628973
 20
-2.078685859710134
 30
0.0
  0
VERTEX
  5
65
330
63
100
AcDbEntity
  8
GRAU_10_
 62
     7
100
AcDbVertex
100
AcDb2dVertex
 10
117.7108944098197
 20
-0.8044303264840542
 30
0.0
  0
VERTEX
  5
66
330
63
100
AcDbEntity
  8
GRAU_10_
 62
     7
100
AcDbVertex
100
AcDb2dVertex
 10
116.3724739308516
 20
-0.0315226444853495
 30
0.0
  0
SEQEND
  5
67
330
63
100
AcDbEntity
  8
GRAU_10_
  0
POLYLINE
  5
68
330
1F
100
AcDbEntity
  8
GRAU_10_
 62
     7
100
AcDb2dPolyline
 66
     1
 10
0.0
 20
0.0
 30
0.0
  0
VERTEX
  5
69
330
68
100
AcDbEntity
  8
GRAU_10_
 62
     7
100
AcDbVertex
100
AcDb2dVertex
 10
115.2293904947599
 20
-0.0315226444853495
 30
0.0
  0
VERTEX
  5
6A
330
68
100
AcDbEntity
  8
GRAU_10_
 62
     7
100
AcDbVertex
100
AcDb2dVertex
 10
113.5213110263625
 20
-1.017165113038188
 30
0.0
  0
VERTEX
  5
6B
330
68
100
AcDbEntity
  8
GRAU_10_
 62
     7
100
AcDbVertex
100
AcDb2dVertex
 10
111.738989701281
 20
-2.046560323117141
 30
0.0
  0
VERTEX
  5
6C
330
68
100
AcDbEntity
  8
GRAU_10_
 62
     7
100
AcDbVertex
100
AcDb2dVertex
 10
111.6830068627141
 20
-2.078685859710134
 30
0.0
  0
SEQEND
  5
6D
330
68
100
AcDbEntity
  8
GRAU_10_
  0
SPLINE
  5
6E
330
1F
100
AcDbEntity
  8
GRAU_10_
 62
     7
100
AcDbSpline
210
0.0
220
0.0
230
1.0
 70
     8
 71
     3
 72
     8
 73
     4
 74
     0
 42
0.0000000001
 43
0.0000000001
 40
0.0
 40
0.0
 40
0.0
 40
0.0
 40
1.0
 40
1.0
 40
1.0
 40
1.0
 10
104.91907417962
 20
-5.984307060467351
 30
0.0
 10
102.831689448071
 20
-8.042063951297868
 30
0.0
 10
101.4510665215679
 20
-10.54527198223283
 30
0.0
 10
100.8011488295284
 20
-13.11634843899964
 30
0.0
  0
POLYLINE
  5
6F
330
1F
100
AcDbEntity
  8
GRAU_10_
 62
     7
100
AcDb2dPolyline
 66
     1
 10
0.0
 20
0.0
 30
0.0
  0
VERTEX
  5
70
330
6F
100
AcDbEntity
  8
GRAU_10_
 62
     7
100
AcDbVertex
100
AcDb2dVertex
 10
104.91907417962
 20
-5.984307060467351
 30
0.0
  0
VERTEX
  5
71
330
6F
100
AcDbEntity
  8
GRAU_10_
 62
     7
100
AcDbVertex
100
AcDb2dVertex
 10
102.7107665167666
 20
-7.258476466249482
 30
0.0
  0
VERTEX
  5
72
330
6F
100
AcDbEntity
  8
GRAU_10_
 62
     7
100
AcDbVertex
100
AcDb2dVertex
 10
101.3726905475743
 20
-8.031728658023983
 30
0.0
  0
SEQEND
  5
73
330
6F
100
AcDbEntity
  8
GRAU_10_
  0
POLYLINE
  5
74
330
1F
100
AcDbEntity
  8
GRAU_10_
 62
     7
100
AcDb2dPolyline
 66
     1
 10
0.0
 20
0.0
 30
0.0
  0
VERTEX
  5
75
330
74
100
AcDbEntity
  8
GRAU_10_
 62
     7
100
AcDbVertex
100
AcDb2dVertex
 10
100.8011488295284
 20
-9.02202200855007
 30
0.0
  0
VERTEX
  5
76
330
74
100
AcDbEntity
  8
GRAU_10_
 62
     7
100
AcDbVertex
100
AcDb2dVertex
 10
100.8011488295284
 20
-9.181530034743696
 30
0.0
  0
VERTEX
  5
77
330
74
100
AcDbEntity
  8
GRAU_10_
 62
     7
100
AcDbVertex
100
AcDb2dVertex
 10
100.8011488295284
 20
-11.10802870099587
 30
0.0
  0
VERTEX
  5
78
330
74
100
AcDbEntity
  8
GRAU_10_
 62
     7
100
AcDbVertex
100
AcDb2dVertex
 10
100.8011488295284
 20
-13.11634843899964
 30
0.0
  0
SEQEND
  5
79
330
74
100
AcDbEntity
  8
GRAU_10_
  0
SPLINE
  5
7A
330
1F
100
AcDbEntity
  8
GRAU_10_
 62
     7
100
AcDbSpline
210
0.0
220
0.0
230
1.0
 70
     8
 71
     3
 72
     8
 73
     4
 74
     0
 42
0.0000000001
 43
0.0000000001
 40
0.0
 40
0.0
 40
0.0
 40
0.0
 40
1.0
 40
1.0
 40
1.0
 40
1.0
 10
100.8011488295284
 20
-20.92690182096248
 30
0.0
 10
101.5392610241717
 20
-23.76325080509234
 30
0.0
 10
103.0173802172252
 20
-26.21116501701202
 30
0.0
 10
104.91907417962
 20
-28.05980447393426
 30
0.0
  0
POLYLINE
  5
7B
330
1F
100
AcDbEntity
  8
GRAU_10_
 62
     7
100
AcDb2dPolyline
 66
     1
 10
0.0
 20
0.0
 30
0.0
  0
VERTEX
  5
7C
330
7B
100
AcDbEntity
  8
GRAU_10_
 62
     7
100
AcDbVertex
100
AcDb2dVertex
 10
100.8011488295284
 20
-20.92690182096248
 30
0.0
  0
VERTEX
  5
7D
330
7B
100
AcDbEntity
  8
GRAU_10_
 62
     7
100
AcDbVertex
100
AcDb2dVertex
 10
100.8011488295284
 20
-21.19992581828095
 30
0.0
  0
VERTEX
  5
7E
330
7B
100
AcDbEntity
  8
GRAU_10_
 62
     7
100
AcDbVertex
100
AcDb2dVertex
 10
100.8011488295284
 20
-23.13503722892802
 30
0.0
  0
VERTEX
  5
7F
330
7B
100
AcDbEntity
  8
GRAU_10_
 62
     7
100
AcDbVertex
100
AcDb2dVertex
 10
100.8011488295284
 20
-25.02157276118784
 30
0.0
  0
SEQEND
  5
80
330
7B
100
AcDbEntity
  8
GRAU_10_
  0
POLYLINE
  5
81
330
1F
100
AcDbEntity
  8
GRAU_10_
 62
     7
100
AcDb2dPolyline
 66
     1
 10
0.0
 20
0.0
 30
0.0
  0
VERTEX
  5
82
330
81
100
AcDbEntity
  8
GRAU_10_
 62
     7
100
AcDbVertex
100
AcDb2dVertex
 10
101.3726905475743
 20
-26.01221062148973
 30
0.0
  0
VERTEX
  5
83
330
81
100
AcDbEntity
  8
GRAU_10_
 62
     7
100
AcDbVertex
100
AcDb2dVertex
 10
103.0804255061959
 20
-26.99819759981836
 30
0.0
  0
VERTEX
  5
84
330
81
100
AcDbEntity
  8
GRAU_10_
 62
     7
100
AcDbVertex
100
AcDb2dVertex
 10
104.8630913410532
 20
-28.02759280989732
 30
0.0
  0
VERTEX
  5
85
330
81
100
AcDbEntity
  8
GRAU_10_
 62
     7
100
AcDbVertex
100
AcDb2dVertex
 10
104.91907417962
 20
-28.05980447393426
 30
0.0
  0
SEQEND
  5
86
330
81
100
AcDbEntity
  8
GRAU_10_
  0
SPLINE
  5
87
330
1F
100
AcDbEntity
  8
GRAU_10_
 62
     7
100
AcDbSpline
210
0.0
220
0.0
230
1.0
 70
     8
 71
     3
 72
     8
 73
     4
 74
     0
 42
0.0000000001
 43
0.0000000001
 40
0.0
 40
0.0
 40
0.0
 40
0.0
 40
1.0
 40
1.0
 40
1.0
 40
1.0
 10
111.6830068627141
 20
-31.96465052769593
 30
0.0
 10
114.5086760437943
 20
-32.74324262099528
 30
0.0
 10
117.3669013986872
 20
-32.6870875275405
 30
0.0
 10
119.9188575628973
 20
-31.96465052769593
 30
0.0
  0
POLYLINE
  5
88
330
1F
100
AcDbEntity
  8
GRAU_10_
 62
     7
100
AcDb2dPolyline
 66
     1
 10
0.0
 20
0.0
 30
0.0
  0
VERTEX
  5
89
330
88
100
AcDbEntity
  8
GRAU_10_
 62
     7
100
AcDbVertex
100
AcDb2dVertex
 10
111.6830068627141
 20
-31.96465052769593
 30
0.0
  0
VERTEX
  5
8A
330
88
100
AcDbEntity
  8
GRAU_10_
 62
     7
100
AcDbVertex
100
AcDb2dVertex
 10
113.8909700157918
 20
-33.23950895302966
 30
0.0
  0
VERTEX
  5
8B
330
88
100
AcDbEntity
  8
GRAU_10_
 62
     7
100
AcDbVertex
100
AcDb2dVertex
 10
115.2293904947599
 20
-34.01207212525257
 30
0.0
  0
SEQEND
  5
8C
330
88
100
AcDbEntity
  8
GRAU_10_
  0
POLYLINE
  5
8D
330
1F
100
AcDbEntity
  8
GRAU_10_
 62
     7
100
AcDb2dPolyline
 66
     1
 10
0.0
 20
0.0
 30
0.0
  0
VERTEX
  5
8E
330
8D
100
AcDbEntity
  8
GRAU_10_
 62
     7
100
AcDbVertex
100
AcDb2dVertex
 10
116.3724739308516
 20
-34.01207212525257
 30
0.0
  0
VERTEX
  5
8F
330
8D
100
AcDbEntity
  8
GRAU_10_
 62
     7
100
AcDbVertex
100
AcDb2dVertex
 10
118.080553399249
 20
-33.02642965669973
 30
0.0
  0
VERTEX
  5
90
330
8D
100
AcDbEntity
  8
GRAU_10_
 62
     7
100
AcDbVertex
100
AcDb2dVertex
 10
119.8628747243305
 20
-31.99703444662077
 30
0.0
  0
VERTEX
  5
91
330
8D
100
AcDbEntity
  8
GRAU_10_
 62
     7
100
AcDbVertex
100
AcDb2dVertex
 10
119.9188575628973
 20
-31.96465052769593
 30
0.0
  0
SEQEND
  5
92
330
8D
100
AcDbEntity
  8
GRAU_10_
  0
SPLINE
  5
93
330
1F
100
AcDbEntity
  8
GRAU_10_
 62
     7
100
AcDbSpline
210
0.0
220
0.0
230
1.0
 70
     8
 71
     3
 72
     8
 73
     4
 74
     0
 42
0.0000000001
 43
0.0000000001
 40
0.0
 40
0.0
 40
0.0
 40
0.0
 40
1.0
 40
1.0
 40
1.0
 40
1.0
 10
126.6827902459914
 20
-28.05980447393426
 30
0.0
 10
128.7701749775404
 20
-26.00170307332795
 30
0.0
 10
130.1509701589314
 20
-23.49797827772929
 30
0.0
 10
130.800715596083
 20
-20.92690182096248
 30
0.0
  0
POLYLINE
  5
94
330
1F
100
AcDbEntity
  8
GRAU_10_
 62
     7
100
AcDb2dPolyline
 66
     1
 10
0.0
 20
0.0
 30
0.0
  0
VERTEX
  5
95
330
94
100
AcDbEntity
  8
GRAU_10_
 62
     7
100
AcDbVertex
100
AcDb2dVertex
 10
126.6827902459914
 20
-28.05980447393426
 30
0.0
  0
VERTEX
  5
96
330
94
100
AcDbEntity
  8
GRAU_10_
 62
     7
100
AcDbVertex
100
AcDb2dVertex
 10
128.8910979088448
 20
-26.78477379371264
 30
0.0
  0
VERTEX
  5
97
330
94
100
AcDbEntity
  8
GRAU_10_
 62
     7
100
AcDbVertex
100
AcDb2dVertex
 10
130.2291738780372
 20
-26.01221062148973
 30
0.0
  0
SEQEND
  5
98
330
94
100
AcDbEntity
  8
GRAU_10_
  0
POLYLINE
  5
99
330
1F
100
AcDbEntity
  8
GRAU_10_
 62
     7
100
AcDb2dPolyline
 66
     1
 10
0.0
 20
0.0
 30
0.0
  0
VERTEX
  5
9A
330
99
100
AcDbEntity
  8
GRAU_10_
 62
     7
100
AcDbVertex
100
AcDb2dVertex
 10
130.800715596083
 20
-25.02157276118784
 30
0.0
  0
VERTEX
  5
9B
330
99
100
AcDbEntity
  8
GRAU_10_
 62
     7
100
AcDbVertex
100
AcDb2dVertex
 10
130.800715596083
 20
-24.86172022521842
 30
0.0
  0
VERTEX
  5
9C
330
99
100
AcDbEntity
  8
GRAU_10_
 62
     7
100
AcDbVertex
100
AcDb2dVertex
 10
130.800715596083
 20
-22.93522155896625
 30
0.0
  0
VERTEX
  5
9D
330
99
100
AcDbEntity
  8
GRAU_10_
 62
     7
100
AcDbVertex
100
AcDb2dVertex
 10
130.800715596083
 20
-20.92690182096248
 30
0.0
  0
SEQEND
  5
9E
330
99
100
AcDbEntity
  8
GRAU_10_
  0
POLYLINE
  5
9F
330
1F
100
AcDbEntity
  8
GRAU_10_
 62
     7
100
AcDb2dPolyline
 66
     1
 10
0.0
 20
0.0
 30
0.0
  0
VERTEX
  5
A0
330
9F
100
AcDbEntity
  8
GRAU_10_
 62
     7
100
AcDbVertex
100
AcDb2dVertex
 10
126.6827902459914
 20
-5.984307060467351
 30
0.0
  0
VERTEX
  5
A1
330
9F
100
AcDbEntity
  8
GRAU_10_
 62
     7
100
AcDbVertex
100
AcDb2dVertex
 10
119.9188575628973
 20
-2.078685859710134
 30
0.0
  0
SEQEND
  5
A2
330
9F
100
AcDbEntity
  8
GRAU_10_
  0
POLYLINE
  5
A3
330
1F
100
AcDbEntity
  8
GRAU_10_
 62
     7
100
AcDb2dPolyline
 66
     1
 10
0.0
 20
0.0
 30
0.0
  0
VERTEX
  5
A4
330
A3
100
AcDbEntity
  8
GRAU_10_
 62
     7
100
AcDbVertex
100
AcDb2dVertex
 10
111.6830068627141
 20
-2.078685859710134
 30
0.0
  0
VERTEX
  5
A5
330
A3
100
AcDbEntity
  8
GRAU_10_
 62
     7
100
AcDbVertex
100
AcDb2dVertex
 10
104.91907417962
 20
-5.984307060467351
 30
0.0
  0
SEQEND
  5
A6
330
A3
100
AcDbEntity
  8
GRAU_10_
  0
POLYLINE
  5
A7
330
1F
100
AcDbEntity
  8
GRAU_10_
 62
     7
100
AcDb2dPolyline
 66
     1
 10
0.0
 20
0.0
 30
0.0
  0
VERTEX
  5
A8
330
A7
100
AcDbEntity
  8
GRAU_10_
 62
     7
100
AcDbVertex
100
AcDb2dVertex
 10
100.8011488295284
 20
-13.11634843899964
 30
0.0
  0
VERTEX
  5
A9
330
A7
100
AcDbEntity
  8
GRAU_10_
 62
     7
100
AcDbVertex
100
AcDb2dVertex
 10
100.8011488295284
 20
-20.92690182096248
 30
0.0
  0
SEQEND
  5
AA
330
A7
100
AcDbEntity
  8
GRAU_10_
  0
POLYLINE
  5
AB
330
1F
100
AcDbEntity
  8
GRAU_10_
 62
     7
100
AcDb2dPolyline
 66
     1
 10
0.0
 20
0.0
 30
0.0
  0
VERTEX
  5
AC
330
AB
100
AcDbEntity
  8
GRAU_10_
 62
     7
100
AcDbVertex
100
AcDb2dVertex
 10
104.91907417962
 20
-28.05980447393426
 30
0.0
  0
VERTEX
  5
AD
330
AB
100
AcDbEntity
  8
GRAU_10_
 62
     7
100
AcDbVertex
100
AcDb2dVertex
 10
111.6830068627141
 20
-31.96465052769593
 30
0.0
  0
SEQEND
  5
AE
330
AB
100
AcDbEntity
  8
GRAU_10_
  0
POLYLINE
  5
AF
330
1F
100
AcDbEntity
  8
GRAU_10_
 62
     7
100
AcDb2dPolyline
 66
     1
 10
0.0
 20
0.0
 30
0.0
  0
VERTEX
  5
B0
330
AF
100
AcDbEntity
  8
GRAU_10_
 62
     7
100
AcDbVertex
100
AcDb2dVertex
 10
119.9188575628973
 20
-31.96465052769593
 30
0.0
  0
VERTEX
  5
B1
330
AF
100
AcDbEntity
  8
GRAU_10_
 62
     7
100
AcDbVertex
100
AcDb2dVertex
 10
126.6827902459914
 20
-28.05980447393426
 30
0.0
  0
SEQEND
  5
B2
330
AF
100
AcDbEntity
  8
GRAU_10_
  0
POLYLINE
  5
B3
330
1F
100
AcDbEntity
  8
GRAU_10_
 62
     7
100
AcDb2dPolyline
 66
     1
 10
0.0
 20
0.0
 30
0.0
  0
VERTEX
  5
B4
330
B3
100
AcDbEntity
  8
GRAU_10_
 62
     7
100
AcDbVertex
100
AcDb2dVertex
 10
130.800715596083
 20
-20.92690182096248
 30
0.0
  0
VERTEX
  5
B5
330
B3
100
AcDbEntity
  8
GRAU_10_
 62
     7
100
AcDbVertex
100
AcDb2dVertex
 10
130.800715596083
 20
-13.11634843899964
 30
0.0
  0
SEQEND
  5
B6
330
B3
100
AcDbEntity
  8
GRAU_10_
  0
SPLINE
  5
B7
330
1F
100
AcDbEntity
  8
GRAU_10_
 62
     7
100
AcDbSpline
210
0.0
220
0.0
230
1.0
 70
    11
 71
     3
 72
    17
 73
    13
 74
     0
 42
0.0000000001
 43
0.0000000001
 40
0.0
 40
0.0
 40
0.0
 40
0.0
 40
1.0
 40
1.0
 40
1.0
 40
2.0
 40
2.0
 40
2.0
 40
3.0
 40
3.0
 40
3.0
 40
4.0
 40
4.0
 40
4.0
 40
4.0
 10
122.551084504868
 20
-17.0220557672008
 30
0.0
 10
122.551084504868
 20
-13.29411548331046
 30
0.0
 10
119.5287002418082
 20
-10.27190347513857
 30
0.0
 10
115.8009322128057
 20
-10.27190347513857
 30
0.0
 10
112.0731641838033
 20
-10.27190347513857
 30
0.0
 10
109.0509521756314
 20
-13.29411548331046
 30
0.0
 10
109.0509521756314
 20
-17.0220557672008
 30
0.0
 10
109.0509521756314
 20
-20.74982379620325
 30
0.0
 10
112.0731641838033
 20
-23.77169129459935
 30
0.0
 10
115.8009322128057
 20
-23.77169129459935
 30
0.0
 10
119.5287002418082
 20
-23.77169129459935
 30
0.0
 10
122.551084504868
 20
-20.74982379620325
 30
0.0
 10
122.551084504868
 20
-17.0220557672008
 30
0.0
  0
POLYLINE
  5
B8
330
1F
100
AcDbEntity
  8
GRAU_10_
 62
     7
100
AcDb2dPolyline
 66
     1
 10
0.0
 20
0.0
 30
0.0
  0
VERTEX
  5
B9
330
B8
100
AcDbEntity
  8
GRAU_10_
 62
     7
100
AcDbVertex
100
AcDb2dVertex
 10
22.38848454477773
 20
-33.02143426495068
 30
0.0
  0
VERTEX
  5
BA
330
B8
100
AcDbEntity
  8
GRAU_10_
 62
     7
100
AcDbVertex
100
AcDb2dVertex
 10
34.88850499487802
 20
-33.02143426495068
 30
0.0
  0
SEQEND
  5
BB
330
B8
100
AcDbEntity
  8
GRAU_10_
  0
POLYLINE
  5
BC
330
1F
100
AcDbEntity
  8
GRAU_10_
 62
     7
100
AcDb2dPolyline
 66
     1
 10
0.0
 20
0.0
 30
0.0
  0
VERTEX
  5
BD
330
BC
100
AcDbEntity
  8
GRAU_10_
 62
     7
100
AcDbVertex
100
AcDb2dVertex
 10
34.88850499487802
 20
-1.022074377343284
 30
0.0
  0
VERTEX
  5
BE
330
BC
100
AcDbEntity
  8
GRAU_10_
 62
     7
100
AcDbVertex
100
AcDb2dVertex
 10
22.38848454477773
 20
-1.022074377343284
 30
0.0
  0
SEQEND
  5
BF
330
BC
100
AcDbEntity
  8
GRAU_10_
  0
POLYLINE
  5
C0
330
1F
100
AcDbEntity
  8
GRAU_10_
 62
     7
100
AcDb2dPolyline
 66
     1
 10
0.0
 20
0.0
 30
0.0
  0
VERTEX
  5
C1
330
C0
100
AcDbEntity
  8
GRAU_10_
 62
     7
100
AcDbVertex
100
AcDb2dVertex
 10
18.88826522268865
 20
-29.5219039624132
 30
0.0
  0
VERTEX
  5
C2
330
C0
100
AcDbEntity
  8
GRAU_10_
 62
     7
100
AcDbVertex
100
AcDb2dVertex
 10
22.38848454477773
 20
-29.5219039624132
 30
0.0
  0
SEQEND
  5
C3
330
C0
100
AcDbEntity
  8
GRAU_10_
  0
POLYLINE
  5
C4
330
1F
100
AcDbEntity
  8
GRAU_10_
 62
     7
100
AcDb2dPolyline
 66
     1
 10
0.0
 20
0.0
 30
0.0
  0
VERTEX
  5
C5
330
C4
100
AcDbEntity
  8
GRAU_10_
 62
     7
100
AcDbVertex
100
AcDb2dVertex
 10
22.38848454477773
 20
-4.522035317100512
 30
0.0
  0
VERTEX
  5
C6
330
C4
100
AcDbEntity
  8
GRAU_10_
 62
     7
100
AcDbVertex
100
AcDb2dVertex
 10
18.88826522268865
 20
-4.522035317100512
 30
0.0
  0
SEQEND
  5
C7
330
C4
100
AcDbEntity
  8
GRAU_10_
  0
POLYLINE
  5
C8
330
1F
100
AcDbEntity
  8
GRAU_10_
 62
     7
100
AcDb2dPolyline
 66
     1
 10
0.0
 20
0.0
 30
0.0
  0
VERTEX
  5
C9
330
C8
100
AcDbEntity
  8
GRAU_10_
 62
     7
100
AcDbVertex
100
AcDb2dVertex
 10
35.38873318933405
 20
-6.521914565597273
 30
0.0
  0
VERTEX
  5
CA
330
C8
100
AcDbEntity
  8
GRAU_10_
 62
     7
100
AcDbVertex
100
AcDb2dVertex
 10
34.88850499487802
 20
-6.521914565597273
 30
0.0
  0
SEQEND
  5
CB
330
C8
100
AcDbEntity
  8
GRAU_10_
  0
POLYLINE
  5
CC
330
1F
100
AcDbEntity
  8
GRAU_10_
 62
     7
100
AcDb2dPolyline
 66
     1
 10
0.0
 20
0.0
 30
0.0
  0
VERTEX
  5
CD
330
CC
100
AcDbEntity
  8
GRAU_10_
 62
     7
100
AcDbVertex
100
AcDb2dVertex
 10
34.88850499487802
 20
-27.52202471391644
 30
0.0
  0
VERTEX
  5
CE
330
CC
100
AcDbEntity
  8
GRAU_10_
 62
     7
100
AcDbVertex
100
AcDb2dVertex
 10
35.38873318933405
 20
-27.52202471391644
 30
0.0
  0
SEQEND
  5
CF
330
CC
100
AcDbEntity
  8
GRAU_10_
  0
POLYLINE
  5
D0
330
1F
100
AcDbEntity
  8
GRAU_10_
 62
     7
100
AcDb2dPolyline
 66
     1
 10
0.0
 20
0.0
 30
0.0
  0
VERTEX
  5
D1
330
D0
100
AcDbEntity
  8
GRAU_10_
 62
     7
100
AcDbVertex
100
AcDb2dVertex
 10
35.86398442504487
 20
-6.17051459428518
 30
0.0
  0
VERTEX
  5
D2
330
D0
100
AcDbEntity
  8
GRAU_10_
 62
     7
100
AcDbVertex
100
AcDb2dVertex
 10
35.6007789563366
 20
-6.434064572769249
 30
0.0
  0
SEQEND
  5
D3
330
D0
100
AcDbEntity
  8
GRAU_10_
  0
POLYLINE
  5
D4
330
1F
100
AcDbEntity
  8
GRAU_10_
 62
     7
100
AcDb2dPolyline
 66
     1
 10
0.0
 20
0.0
 30
0.0
  0
VERTEX
  5
D5
330
D4
100
AcDbEntity
  8
GRAU_10_
 62
     7
100
AcDbVertex
100
AcDb2dVertex
 10
35.6007789563366
 20
-27.60953019696867
 30
0.0
  0
VERTEX
  5
D6
330
D4
100
AcDbEntity
  8
GRAU_10_
 62
     7
100
AcDbVertex
100
AcDb2dVertex
 10
35.86432893482067
 20
-27.87376919500433
 30
0.0
  0
SEQEND
  5
D7
330
D4
100
AcDbEntity
  8
GRAU_10_
  0
POLYLINE
  5
D8
330
1F
100
AcDbEntity
  8
GRAU_10_
 62
     7
100
AcDb2dPolyline
 66
     1
 10
0.0
 20
0.0
 30
0.0
  0
VERTEX
  5
D9
330
D8
100
AcDbEntity
  8
GRAU_10_
 62
     7
100
AcDbVertex
100
AcDb2dVertex
 10
18.88826522268865
 20
-0.0216179884312096
 30
0.0
  0
VERTEX
  5
DA
330
D8
100
AcDbEntity
  8
GRAU_10_
 62
     7
100
AcDbVertex
100
AcDb2dVertex
 10
1.38837439645856
 20
-0.0216179884312096
 30
0.0
  0
SEQEND
  5
DB
330
D8
100
AcDbEntity
  8
GRAU_10_
  0
POLYLINE
  5
DC
330
1F
100
AcDbEntity
  8
GRAU_10_
 62
     7
100
AcDb2dPolyline
 66
     1
 10
0.0
 20
0.0
 30
0.0
  0
VERTEX
  5
DD
330
DC
100
AcDbEntity
  8
GRAU_10_
 62
     7
100
AcDbVertex
100
AcDb2dVertex
 10
1.38837439645856
 20
-34.02206290875066
 30
0.0
  0
VERTEX
  5
DE
330
DC
100
AcDbEntity
  8
GRAU_10_
 62
     7
100
AcDbVertex
100
AcDb2dVertex
 10
18.88826522268865
 20
-34.02206290875066
 30
0.0
  0
SEQEND
  5
DF
330
DC
100
AcDbEntity
  8
GRAU_10_
  0
POLYLINE
  5
E0
330
1F
100
AcDbEntity
  8
GRAU_10_
 62
     7
100
AcDb2dPolyline
 66
     1
 10
0.0
 20
0.0
 30
0.0
  0
VERTEX
  5
E1
330
E0
100
AcDbEntity
  8
GRAU_10_
 62
     7
100
AcDbVertex
100
AcDb2dVertex
 10
1.38837439645856
 20
-0.0216179884312096
 30
0.0
  0
VERTEX
  5
E2
330
E0
100
AcDbEntity
  8
GRAU_10_
 62
     7
100
AcDbVertex
100
AcDb2dVertex
 10
-0.1112766575821625
 20
-1.521958062023525
 30
0.0
  0
SEQEND
  5
E3
330
E0
100
AcDbEntity
  8
GRAU_10_
  0
POLYLINE
  5
E4
330
1F
100
AcDbEntity
  8
GRAU_10_
 62
     7
100
AcDb2dPolyline
 66
     1
 10
0.0
 20
0.0
 30
0.0
  0
VERTEX
  5
E5
330
E4
100
AcDbEntity
  8
GRAU_10_
 62
     7
100
AcDbVertex
100
AcDb2dVertex
 10
-0.1112766575821625
 20
-32.52155058027044
 30
0.0
  0
VERTEX
  5
E6
330
E4
100
AcDbEntity
  8
GRAU_10_
 62
     7
100
AcDbVertex
100
AcDb2dVertex
 10
1.38837439645856
 20
-34.02206290875066
 30
0.0
  0
SEQEND
  5
E7
330
E4
100
AcDbEntity
  8
GRAU_10_
  0
SPLINE
  5
E8
330
1F
100
AcDbEntity
  8
GRAU_10_
 62
     7
100
AcDbSpline
210
0.0
220
0.0
230
1.0
 70
     8
 71
     3
 72
     8
 73
     4
 74
     0
 42
0.0000000001
 43
0.0000000001
 40
0.0
 40
0.0
 40
0.0
 40
0.0
 40
1.0
 40
1.0
 40
1.0
 40
1.0
 10
35.38873318933405
 20
-6.521914565597273
 30
0.0
 10
35.47176004530093
 20
-6.521914565597273
 30
0.0
 10
35.5465186666487
 20
-6.488324862457146
 30
0.0
 10
35.6007789563366
 20
-6.434064572769249
 30
0.0
  0
SPLINE
  5
E9
330
1F
100
AcDbEntity
  8
GRAU_10_
 62
     7
100
AcDbSpline
210
0.0
220
0.0
230
1.0
 70
     8
 71
     3
 72
     8
 73
     4
 74
     0
 42
0.0000000001
 43
0.0000000001
 40
0.0
 40
0.0
 40
0.0
 40
0.0
 40
1.0
 40
1.0
 40
1.0
 40
1.0
 10
35.6007789563366
 20
-27.60953019696867
 30
0.0
 10
35.54186778467545
 20
-27.55130804485911
 30
0.0
 10
35.4653866144487
 20
-27.52202471391644
 30
0.0
 10
35.38873318933405
 20
-27.52202471391644
 30
0.0
  0
POLYLINE
  5
EA
330
1F
100
AcDbEntity
  8
GRAU_10_
 62
     7
100
AcDb2dPolyline
 66
     1
 10
0.0
 20
0.0
 30
0.0
  0
VERTEX
  5
EB
330
EA
100
AcDbEntity
  8
GRAU_10_
 62
     7
100
AcDbVertex
100
AcDb2dVertex
 10
52.86192450793995
 20
-6.401508398956511
 30
0.0
  0
VERTEX
  5
EC
330
EA
100
AcDbEntity
  8
GRAU_10_
 62
     7
100
AcDbVertex
100
AcDb2dVertex
 10
44.6107431227338
 20
-6.208582924510657
 30
0.0
  0
VERTEX
  5
ED
330
EA
100
AcDbEntity
  8
GRAU_10_
 62
     7
100
AcDbVertex
100
AcDb2dVertex
 10
36.35921722775186
 20
-6.016346469616395
 30
0.0
  0
SEQEND
  5
EE
330
EA
100
AcDbEntity
  8
GRAU_10_
  0
POLYLINE
  5
EF
330
1F
100
AcDbEntity
  8
GRAU_10_
 62
     7
100
AcDb2dPolyline
 66
     1
 10
0.0
 20
0.0
 30
0.0
  0
VERTEX
  5
F0
330
EF
100
AcDbEntity
  8
GRAU_10_
 62
     7
100
AcDbVertex
100
AcDb2dVertex
 10
53.88563530671826
 20
-7.421085080425273
 30
0.0
  0
VERTEX
  5
F1
330
EF
100
AcDbEntity
  8
GRAU_10_
 62
     7
100
AcDbVertex
100
AcDb2dVertex
 10
53.37334927010936
 20
-6.90966031825586
 30
0.0
  0
VERTEX
  5
F2
330
EF
100
AcDbEntity
  8
GRAU_10_
 62
     7
100
AcDbVertex
100
AcDb2dVertex
 10
52.86157999816415
 20
-6.398407810974346
 30
0.0
  0
SEQEND
  5
F3
330
EF
100
AcDbEntity
  8
GRAU_10_
  0
POLYLINE
  5
F4
330
1F
100
AcDbEntity
  8
GRAU_10_
 62
     7
100
AcDb2dPolyline
 66
     1
 10
0.0
 20
0.0
 30
0.0
  0
VERTEX
  5
F5
330
F4
100
AcDbEntity
  8
GRAU_10_
 62
     7
100
AcDbVertex
100
AcDb2dVertex
 10
36.30151184030601
 20
-28.04499055357502
 30
0.0
  0
VERTEX
  5
F6
330
F4
100
AcDbEntity
  8
GRAU_10_
 62
     7
100
AcDbVertex
100
AcDb2dVertex
 10
44.58180430156693
 20
-27.85120380468968
 30
0.0
  0
VERTEX
  5
F7
330
F4
100
AcDbEntity
  8
GRAU_10_
 62
     7
100
AcDbVertex
100
AcDb2dVertex
 10
52.86192450793995
 20
-27.65707254602854
 30
0.0
  0
SEQEND
  5
F8
330
F4
100
AcDbEntity
  8
GRAU_10_
  0
POLYLINE
  5
F9
330
1F
100
AcDbEntity
  8
GRAU_10_
 62
     7
100
AcDb2dPolyline
 66
     1
 10
0.0
 20
0.0
 30
0.0
  0
VERTEX
  5
FA
330
F9
100
AcDbEntity
  8
GRAU_10_
 62
     7
100
AcDbVertex
100
AcDb2dVertex
 10
52.86157999816415
 20
-27.58558676755083
 30
0.0
  0
VERTEX
  5
FB
330
F9
100
AcDbEntity
  8
GRAU_10_
 62
     7
100
AcDbVertex
100
AcDb2dVertex
 10
53.37334927010936
 20
-27.07829612269097
 30
0.0
  0
VERTEX
  5
FC
330
F9
100
AcDbEntity
  8
GRAU_10_
 62
     7
100
AcDbVertex
100
AcDb2dVertex
 10
53.88563530671826
 20
-26.56997194850373
 30
0.0
  0
SEQEND
  5
FD
330
F9
100
AcDbEntity
  8
GRAU_10_
  0
POLYLINE
  5
FE
330
1F
100
AcDbEntity
  8
GRAU_10_
 62
     7
100
AcDb2dPolyline
 66
     1
 10
0.0
 20
0.0
 30
0.0
  0
VERTEX
  5
FF
330
FE
100
AcDbEntity
  8
GRAU_10_
 62
     7
100
AcDbVertex
100
AcDb2dVertex
 10
34.88850499487802
 20
-17.0220557672008
 30
0.0
  0
VERTEX
  5
100
330
FE
100
AcDbEntity
  8
GRAU_10_
 62
     7
100
AcDbVertex
100
AcDb2dVertex
 10
34.88850499487802
 20
-15.09297327763016
 30
0.0
  0
VERTEX
  5
101
330
FE
100
AcDbEntity
  8
GRAU_10_
 62
     7
100
AcDbVertex
100
AcDb2dVertex
 10
34.88850499487802
 20
-13.19282960922639
 30
0.0
  0
VERTEX
  5
102
330
FE
100
AcDbEntity
  8
GRAU_10_
 62
     7
100
AcDbVertex
100
AcDb2dVertex
 10
34.88850499487802
 20
-11.3479797598379
 30
0.0
  0
VERTEX
  5
103
330
FE
100
AcDbEntity
  8
GRAU_10_
 62
     7
100
AcDbVertex
100
AcDb2dVertex
 10
34.88850499487802
 20
-9.586501276192092
 30
0.0
  0
VERTEX
  5
104
330
FE
100
AcDbEntity
  8
GRAU_10_
 62
     7
100
AcDbVertex
100
AcDb2dVertex
 10
34.88850499487802
 20
-7.93302660725838
 30
0.0
  0
VERTEX
  5
105
330
FE
100
AcDbEntity
  8
GRAU_10_
 62
     7
100
AcDbVertex
100
AcDb2dVertex
 10
34.88850499487802
 20
-6.411843692230397
 30
0.0
  0
VERTEX
  5
106
330
FE
100
AcDbEntity
  8
GRAU_10_
 62
     7
100
AcDbVertex
100
AcDb2dVertex
 10
34.88850499487802
 20
-5.045517921422791
 30
0.0
  0
VERTEX
  5
107
330
FE
100
AcDbEntity
  8
GRAU_10_
 62
     7
100
AcDbVertex
100
AcDb2dVertex
 10
34.88850499487802
 20
-3.854203116719639
 30
0.0
  0
VERTEX
  5
108
330
FE
100
AcDbEntity
  8
GRAU_10_
 62
     7
100
AcDbVertex
100
AcDb2dVertex
 10
34.88850499487802
 20
-2.854780257134953
 30
0.0
  0
VERTEX
  5
109
330
FE
100
AcDbEntity
  8
GRAU_10_
 62
     7
100
AcDbVertex
100
AcDb2dVertex
 10
34.88850499487802
 20
-2.061718753252173
 30
0.0
  0
VERTEX
  5
10A
330
FE
100
AcDbEntity
  8
GRAU_10_
 62
     7
100
AcDbVertex
100
AcDb2dVertex
 10
34.88850499487802
 20
-1.486731937448367
 30
0.0
  0
VERTEX
  5
10B
330
FE
100
AcDbEntity
  8
GRAU_10_
 62
     7
100
AcDbVertex
100
AcDb2dVertex
 10
34.88850499487802
 20
-1.138518681562389
 30
0.0
  0
VERTEX
  5
10C
330
FE
100
AcDbEntity
  8
GRAU_10_
 62
     7
100
AcDbVertex
100
AcDb2dVertex
 10
34.88850499487802
 20
-1.022074377343284
 30
0.0
  0
SEQEND
  5
10D
330
FE
100
AcDbEntity
  8
GRAU_10_
  0
POLYLINE
  5
10E
330
1F
100
AcDbEntity
  8
GRAU_10_
 62
     7
100
AcDb2dPolyline
 66
     1
 10
0.0
 20
0.0
 30
0.0
  0
VERTEX
  5
10F
330
10E
100
AcDbEntity
  8
GRAU_10_
 62
     7
100
AcDbVertex
100
AcDb2dVertex
 10
34.88850499487802
 20
-33.02143426495068
 30
0.0
  0
VERTEX
  5
110
330
10E
100
AcDbEntity
  8
GRAU_10_
 62
     7
100
AcDbVertex
100
AcDb2dVertex
 10
34.88850499487802
 20
-32.90550672539527
 30
0.0
  0
VERTEX
  5
111
330
10E
100
AcDbEntity
  8
GRAU_10_
 62
     7
100
AcDbVertex
100
AcDb2dVertex
 10
34.88850499487802
 20
-32.55651832251375
 30
0.0
  0
VERTEX
  5
112
330
10E
100
AcDbEntity
  8
GRAU_10_
 62
     7
100
AcDbVertex
100
AcDb2dVertex
 10
34.88850499487802
 20
-31.98187601648574
 30
0.0
  0
VERTEX
  5
113
330
10E
100
AcDbEntity
  8
GRAU_10_
 62
     7
100
AcDbVertex
100
AcDb2dVertex
 10
34.88850499487802
 20
-31.18915902237876
 30
0.0
  0
VERTEX
  5
114
330
10E
100
AcDbEntity
  8
GRAU_10_
 62
     7
100
AcDbVertex
100
AcDb2dVertex
 10
34.88850499487802
 20
-30.18939165301828
 30
0.0
  0
VERTEX
  5
115
330
10E
100
AcDbEntity
  8
GRAU_10_
 62
     7
100
AcDbVertex
100
AcDb2dVertex
 10
34.88850499487802
 20
-28.99807684831513
 30
0.0
  0
VERTEX
  5
116
330
10E
100
AcDbEntity
  8
GRAU_10_
 62
     7
100
AcDbVertex
100
AcDb2dVertex
 10
34.88850499487802
 20
-27.63140656773172
 30
0.0
  0
VERTEX
  5
117
330
10E
100
AcDbEntity
  8
GRAU_10_
 62
     7
100
AcDbVertex
100
AcDb2dVertex
 10
34.88850499487802
 20
-26.11091267225533
 30
0.0
  0
VERTEX
  5
118
330
10E
100
AcDbEntity
  8
GRAU_10_
 62
     7
100
AcDbVertex
100
AcDb2dVertex
 10
34.88850499487802
 20
-24.45743800332162
 30
0.0
  0
VERTEX
  5
119
330
10E
100
AcDbEntity
  8
GRAU_10_
 62
     7
100
AcDbVertex
100
AcDb2dVertex
 10
34.88850499487802
 20
-22.69578726478791
 30
0.0
  0
VERTEX
  5
11A
330
10E
100
AcDbEntity
  8
GRAU_10_
 62
     7
100
AcDbVertex
100
AcDb2dVertex
 10
34.88850499487802
 20
-20.85059290562363
 30
0.0
  0
VERTEX
  5
11B
330
10E
100
AcDbEntity
  8
GRAU_10_
 62
     7
100
AcDbVertex
100
AcDb2dVertex
 10
34.88850499487802
 20
-18.95062149210776
 30
0.0
  0
VERTEX
  5
11C
330
10E
100
AcDbEntity
  8
GRAU_10_
 62
     7
100
AcDbVertex
100
AcDb2dVertex
 10
34.88850499487802
 20
-17.0220557672008
 30
0.0
  0
SEQEND
  5
11D
330
10E
100
AcDbEntity
  8
GRAU_10_
  0
POLYLINE
  5
11E
330
1F
100
AcDbEntity
  8
GRAU_10_
 62
     7
100
AcDb2dPolyline
 66
     1
 10
0.0
 20
0.0
 30
0.0
  0
VERTEX
  5
11F
330
11E
100
AcDbEntity
  8
GRAU_10_
 62
     7
100
AcDbVertex
100
AcDb2dVertex
 10
22.38848454477773
 20
-17.0220557672008
 30
0.0
  0
VERTEX
  5
120
330
11E
100
AcDbEntity
  8
GRAU_10_
 62
     7
100
AcDbVertex
100
AcDb2dVertex
 10
22.38848454477773
 20
-15.09297327763016
 30
0.0
  0
VERTEX
  5
121
330
11E
100
AcDbEntity
  8
GRAU_10_
 62
     7
100
AcDbVertex
100
AcDb2dVertex
 10
22.38848454477773
 20
-13.19282960922639
 30
0.0
  0
VERTEX
  5
122
330
11E
100
AcDbEntity
  8
GRAU_10_
 62
     7
100
AcDbVertex
100
AcDb2dVertex
 10
22.38848454477773
 20
-11.3479797598379
 30
0.0
  0
VERTEX
  5
123
330
11E
100
AcDbEntity
  8
GRAU_10_
 62
     7
100
AcDbVertex
100
AcDb2dVertex
 10
22.38848454477773
 20
-9.586501276192092
 30
0.0
  0
VERTEX
  5
124
330
11E
100
AcDbEntity
  8
GRAU_10_
 62
     7
100
AcDbVertex
100
AcDb2dVertex
 10
22.38848454477773
 20
-7.93302660725838
 30
0.0
  0
VERTEX
  5
125
330
11E
100
AcDbEntity
  8
GRAU_10_
 62
     7
100
AcDbVertex
100
AcDb2dVertex
 10
22.38848454477773
 20
-6.411843692230397
 30
0.0
  0
VERTEX
  5
126
330
11E
100
AcDbEntity
  8
GRAU_10_
 62
     7
100
AcDbVertex
100
AcDb2dVertex
 10
22.38848454477773
 20
-5.045517921422791
 30
0.0
  0
VERTEX
  5
127
330
11E
100
AcDbEntity
  8
GRAU_10_
 62
     7
100
AcDbVertex
100
AcDb2dVertex
 10
22.38848454477773
 20
-3.854203116719639
 30
0.0
  0
VERTEX
  5
128
330
11E
100
AcDbEntity
  8
GRAU_10_
 62
     7
100
AcDbVertex
100
AcDb2dVertex
 10
22.38848454477773
 20
-2.854780257134953
 30
0.0
  0
VERTEX
  5
129
330
11E
100
AcDbEntity
  8
GRAU_10_
 62
     7
100
AcDbVertex
100
AcDb2dVertex
 10
22.38848454477773
 20
-2.061718753252173
 30
0.0
  0
VERTEX
  5
12A
330
11E
100
AcDbEntity
  8
GRAU_10_
 62
     7
100
AcDbVertex
100
AcDb2dVertex
 10
22.38848454477773
 20
-1.486731937448367
 30
0.0
  0
VERTEX
  5
12B
330
11E
100
AcDbEntity
  8
GRAU_10_
 62
     7
100
AcDbVertex
100
AcDb2dVertex
 10
22.38848454477773
 20
-1.138518681562389
 30
0.0
  0
VERTEX
  5
12C
330
11E
100
AcDbEntity
  8
GRAU_10_
 62
     7
100
AcDbVertex
100
AcDb2dVertex
 10
22.38848454477773
 20
-1.022074377343284
 30
0.0
  0
SEQEND
  5
12D
330
11E
100
AcDbEntity
  8
GRAU_10_
  0
POLYLINE
  5
12E
330
1F
100
AcDbEntity
  8
GRAU_10_
 62
     7
100
AcDb2dPolyline
 66
     1
 10
0.0
 20
0.0
 30
0.0
  0
VERTEX
  5
12F
330
12E
100
AcDbEntity
  8
GRAU_10_
 62
     7
100
AcDbVertex
100
AcDb2dVertex
 10
22.38848454477773
 20
-33.02143426495068
 30
0.0
  0
VERTEX
  5
130
330
12E
100
AcDbEntity
  8
GRAU_10_
 62
     7
100
AcDbVertex
100
AcDb2dVertex
 10
22.38848454477773
 20
-32.90550672539527
 30
0.0
  0
VERTEX
  5
131
330
12E
100
AcDbEntity
  8
GRAU_10_
 62
     7
100
AcDbVertex
100
AcDb2dVertex
 10
22.38848454477773
 20
-32.55651832251375
 30
0.0
  0
VERTEX
  5
132
330
12E
100
AcDbEntity
  8
GRAU_10_
 62
     7
100
AcDbVertex
100
AcDb2dVertex
 10
22.38848454477773
 20
-31.98187601648574
 30
0.0
  0
VERTEX
  5
133
330
12E
100
AcDbEntity
  8
GRAU_10_
 62
     7
100
AcDbVertex
100
AcDb2dVertex
 10
22.38848454477773
 20
-31.18915902237876
 30
0.0
  0
VERTEX
  5
134
330
12E
100
AcDbEntity
  8
GRAU_10_
 62
     7
100
AcDbVertex
100
AcDb2dVertex
 10
22.38848454477773
 20
-30.18939165301828
 30
0.0
  0
VERTEX
  5
135
330
12E
100
AcDbEntity
  8
GRAU_10_
 62
     7
100
AcDbVertex
100
AcDb2dVertex
 10
22.38848454477773
 20
-28.99807684831513
 30
0.0
  0
VERTEX
  5
136
330
12E
100
AcDbEntity
  8
GRAU_10_
 62
     7
100
AcDbVertex
100
AcDb2dVertex
 10
22.38848454477773
 20
-27.63140656773172
 30
0.0
  0
VERTEX
  5
137
330
12E
100
AcDbEntity
  8
GRAU_10_
 62
     7
100
AcDbVertex
100
AcDb2dVertex
 10
22.38848454477773
 20
-26.11091267225533
 30
0.0
  0
VERTEX
  5
138
330
12E
100
AcDbEntity
  8
GRAU_10_
 62
     7
100
AcDbVertex
100
AcDb2dVertex
 10
22.38848454477773
 20
-24.45743800332162
 30
0.0
  0
VERTEX
  5
139
330
12E
100
AcDbEntity
  8
GRAU_10_
 62
     7
100
AcDbVertex
100
AcDb2dVertex
 10
22.38848454477773
 20
-22.69578726478791
 30
0.0
  0
VERTEX
  5
13A
330
12E
100
AcDbEntity
  8
GRAU_10_
 62
     7
100
AcDbVertex
100
AcDb2dVertex
 10
22.38848454477773
 20
-20.85059290562363
 30
0.0
  0
VERTEX
  5
13B
330
12E
100
AcDbEntity
  8
GRAU_10_
 62
     7
100
AcDbVertex
100
AcDb2dVertex
 10
22.38848454477773
 20
-18.95062149210776
 30
0.0
  0
VERTEX
  5
13C
330
12E
100
AcDbEntity
  8
GRAU_10_
 62
     7
100
AcDbVertex
100
AcDb2dVertex
 10
22.38848454477773
 20
-17.0220557672008
 30
0.0
  0
SEQEND
  5
13D
330
12E
100
AcDbEntity
  8
GRAU_10_
  0
POLYLINE
  5
13E
330
1F
100
AcDbEntity
  8
GRAU_10_
 62
     7
100
AcDb2dPolyline
 66
     1
 10
0.0
 20
0.0
 30
0.0
  0
VERTEX
  5
13F
330
13E
100
AcDbEntity
  8
GRAU_10_
 62
     7
100
AcDbVertex
100
AcDb2dVertex
 10
28.3882945451559
 20
-17.0220557672008
 30
0.0
  0
VERTEX
  5
140
330
13E
100
AcDbEntity
  8
GRAU_10_
 62
     7
100
AcDbVertex
100
AcDb2dVertex
 10
28.52730423968966
 20
-16.20005544215115
 30
0.0
  0
VERTEX
  5
141
330
13E
100
AcDbEntity
  8
GRAU_10_
 62
     7
100
AcDbVertex
100
AcDb2dVertex
 10
28.92762459916481
 20
-15.47072824679066
 30
0.0
  0
VERTEX
  5
142
330
13E
100
AcDbEntity
  8
GRAU_10_
 62
     7
100
AcDbVertex
100
AcDb2dVertex
 10
29.54963699936479
 20
-14.91055535134609
 30
0.0
  0
VERTEX
  5
143
330
13E
100
AcDbEntity
  8
GRAU_10_
 62
     7
100
AcDbVertex
100
AcDb2dVertex
 10
30.32788458288834
 20
-14.5853381229945
 30
0.0
  0
VERTEX
  5
144
330
13E
100
AcDbEntity
  8
GRAU_10_
 62
     7
100
AcDbVertex
100
AcDb2dVertex
 10
31.16314853430615
 20
-14.53676224460724
 30
0.0
  0
VERTEX
  5
145
330
13E
100
AcDbEntity
  8
GRAU_10_
 62
     7
100
AcDbVertex
100
AcDb2dVertex
 10
31.96120542993797
 20
-14.76344967708112
 30
0.0
  0
VERTEX
  5
146
330
13E
100
AcDbEntity
  8
GRAU_10_
 62
     7
100
AcDbVertex
100
AcDb2dVertex
 10
32.6421290017991
 20
-15.24007895189512
 30
0.0
  0
VERTEX
  5
147
330
13E
100
AcDbEntity
  8
GRAU_10_
 62
     7
100
AcDbVertex
100
AcDb2dVertex
 10
33.13339994208444
 20
-15.92169154330784
 30
0.0
  0
VERTEX
  5
148
330
13E
100
AcDbEntity
  8
GRAU_10_
 62
     7
100
AcDbVertex
100
AcDb2dVertex
 10
33.37128394227169
 20
-16.72956696754986
 30
0.0
  0
VERTEX
  5
149
330
13E
100
AcDbEntity
  8
GRAU_10_
 62
     7
100
AcDbVertex
100
AcDb2dVertex
 10
33.32959825940036
 20
-17.56241935053709
 30
0.0
  0
VERTEX
  5
14A
330
13E
100
AcDbEntity
  8
GRAU_10_
 62
     7
100
AcDbVertex
100
AcDb2dVertex
 10
33.01816142208062
 20
-18.33084840545045
 30
0.0
  0
VERTEX
  5
14B
330
13E
100
AcDbEntity
  8
GRAU_10_
 62
     7
100
AcDbVertex
100
AcDb2dVertex
 10
32.46918509434942
 20
-18.95871747183897
 30
0.0
  0
VERTEX
  5
14C
330
13E
100
AcDbEntity
  8
GRAU_10_
 62
     7
100
AcDbVertex
100
AcDb2dVertex
 10
31.73641280123097
 20
-19.37333498700966
 30
0.0
  0
VERTEX
  5
14D
330
13E
100
AcDbEntity
  8
GRAU_10_
 62
     7
100
AcDbVertex
100
AcDb2dVertex
 10
30.90958933932017
 20
-19.52147419060201
 30
0.0
  0
VERTEX
  5
14E
330
13E
100
AcDbEntity
  8
GRAU_10_
 62
     7
100
AcDbVertex
100
AcDb2dVertex
 10
30.0886225435979
 20
-19.39021596602367
 30
0.0
  0
VERTEX
  5
14F
330
13E
100
AcDbEntity
  8
GRAU_10_
 62
     7
100
AcDbVertex
100
AcDb2dVertex
 10
29.35808956402212
 20
-18.99816384116763
 30
0.0
  0
VERTEX
  5
150
330
13E
100
AcDbEntity
  8
GRAU_10_
 62
     7
100
AcDbVertex
100
AcDb2dVertex
 10
28.79154323772532
 20
-18.38269712670778
 30
0.0
  0
VERTEX
  5
151
330
13E
100
AcDbEntity
  8
GRAU_10_
 62
     7
100
AcDbVertex
100
AcDb2dVertex
 10
28.45840228453043
 20
-17.60806689583009
 30
0.0
  0
VERTEX
  5
152
330
13E
100
AcDbEntity
  8
GRAU_10_
 62
     7
100
AcDbVertex
100
AcDb2dVertex
 10
28.3882945451559
 20
-17.0220557672008
 30
0.0
  0
SEQEND
  5
153
330
13E
100
AcDbEntity
  8
GRAU_10_
  0
POLYLINE
  5
154
330
1F
100
AcDbEntity
  8
GRAU_10_
 62
     7
100
AcDb2dPolyline
 66
     1
 10
0.0
 20
0.0
 30
0.0
  0
VERTEX
  5
155
330
154
100
AcDbEntity
  8
GRAU_10_
 62
     7
100
AcDbVertex
100
AcDb2dVertex
 10
35.8522710926678
 20
-6.182572436438046
 30
0.0
  0
VERTEX
  5
156
330
154
100
AcDbEntity
  8
GRAU_10_
 62
     7
100
AcDbVertex
100
AcDb2dVertex
 10
35.86605148369965
 20
-6.173098417603652
 30
0.0
  0
SEQEND
  5
157
330
154
100
AcDbEntity
  8
GRAU_10_
  0
POLYLINE
  5
158
330
1F
100
AcDbEntity
  8
GRAU_10_
 62
     7
100
AcDb2dPolyline
 66
     1
 10
0.0
 20
0.0
 30
0.0
  0
VERTEX
  5
159
330
158
100
AcDbEntity
  8
GRAU_10_
 62
     7
100
AcDbVertex
100
AcDb2dVertex
 10
35.92013951849965
 20
-6.135546852041869
 30
0.0
  0
VERTEX
  5
15A
330
158
100
AcDbEntity
  8
GRAU_10_
 62
     7
100
AcDbVertex
100
AcDb2dVertex
 10
36.0949782297162
 20
-6.015657450064802
 30
0.0
  0
VERTEX
  5
15B
330
158
100
AcDbEntity
  8
GRAU_10_
 62
     7
100
AcDbVertex
100
AcDb2dVertex
 10
36.36111203151874
 20
-6.02030833203805
 30
0.0
  0
SEQEND
  5
15C
330
158
100
AcDbEntity
  8
GRAU_10_
  0
POLYLINE
  5
15D
330
1F
100
AcDbEntity
  8
GRAU_10_
 62
     7
100
AcDb2dPolyline
 66
     1
 10
0.0
 20
0.0
 30
0.0
  0
VERTEX
  5
15E
330
15D
100
AcDbEntity
  8
GRAU_10_
 62
     7
100
AcDbVertex
100
AcDb2dVertex
 10
52.86157999816415
 20
-6.574452306406188
 30
0.0
  0
VERTEX
  5
15F
330
15D
100
AcDbEntity
  8
GRAU_10_
 62
     7
100
AcDbVertex
100
AcDb2dVertex
 10
52.86157999816415
 20
-6.415288789988359
 30
0.0
  0
VERTEX
  5
160
330
15D
100
AcDbEntity
  8
GRAU_10_
 62
     7
100
AcDbVertex
100
AcDb2dVertex
 10
52.86157999816415
 20
-6.4114991824546
 30
0.0
  0
SEQEND
  5
161
330
15D
100
AcDbEntity
  8
GRAU_10_
  0
POLYLINE
  5
162
330
1F
100
AcDbEntity
  8
GRAU_10_
 62
     7
100
AcDb2dPolyline
 66
     1
 10
0.0
 20
0.0
 30
0.0
  0
VERTEX
  5
163
330
162
100
AcDbEntity
  8
GRAU_10_
 62
     7
100
AcDbVertex
100
AcDb2dVertex
 10
35.86932432656971
 20
-27.86171135285146
 30
0.0
  0
VERTEX
  5
164
330
162
100
AcDbEntity
  8
GRAU_10_
 62
     7
100
AcDbVertex
100
AcDb2dVertex
 10
35.6007789563366
 20
-27.46139099337631
 30
0.0
  0
SEQEND
  5
165
330
162
100
AcDbEntity
  8
GRAU_10_
  0
POLYLINE
  5
166
330
1F
100
AcDbEntity
  8
GRAU_10_
 62
     7
100
AcDb2dPolyline
 66
     1
 10
0.0
 20
0.0
 30
0.0
  0
VERTEX
  5
167
330
166
100
AcDbEntity
  8
GRAU_10_
 62
     7
100
AcDbVertex
100
AcDb2dVertex
 10
52.86157999816415
 20
-27.51358422440943
 30
0.0
  0
VERTEX
  5
168
330
166
100
AcDbEntity
  8
GRAU_10_
 62
     7
100
AcDbVertex
100
AcDb2dVertex
 10
52.86157999816415
 20
-27.03798847892282
 30
0.0
  0
VERTEX
  5
169
330
166
100
AcDbEntity
  8
GRAU_10_
 62
     7
100
AcDbVertex
100
AcDb2dVertex
 10
52.86157999816415
 20
-26.28971324589354
 30
0.0
  0
VERTEX
  5
16A
330
166
100
AcDbEntity
  8
GRAU_10_
 62
     7
100
AcDbVertex
100
AcDb2dVertex
 10
52.86157999816415
 20
-25.30269273823752
 30
0.0
  0
VERTEX
  5
16B
330
166
100
AcDbEntity
  8
GRAU_10_
 62
     7
100
AcDbVertex
100
AcDb2dVertex
 10
52.86157999816415
 20
-24.08605646501335
 30
0.0
  0
VERTEX
  5
16C
330
166
100
AcDbEntity
  8
GRAU_10_
 62
     7
100
AcDbVertex
100
AcDb2dVertex
 10
52.86157999816415
 20
-22.67063805115479
 30
0.0
  0
VERTEX
  5
16D
330
166
100
AcDbEntity
  8
GRAU_10_
 62
     7
100
AcDbVertex
100
AcDb2dVertex
 10
52.86157999816415
 20
-21.0414513214147
 30
0.0
  0
VERTEX
  5
16E
330
166
100
AcDbEntity
  8
GRAU_10_
 62
     7
100
AcDbVertex
100
AcDb2dVertex
 10
52.86157999816415
 20
-20.1426253163625
 30
0.0
  0
VERTEX
  5
16F
330
166
100
AcDbEntity
  8
GRAU_10_
 62
     7
100
AcDbVertex
100
AcDb2dVertex
 10
52.86157999816415
 20
-19.19332862915616
 30
0.0
  0
VERTEX
  5
170
330
166
100
AcDbEntity
  8
GRAU_10_
 62
     7
100
AcDbVertex
100
AcDb2dVertex
 10
52.86157999816415
 20
-18.19390576957147
 30
0.0
  0
VERTEX
  5
171
330
166
100
AcDbEntity
  8
GRAU_10_
 62
     7
100
AcDbVertex
100
AcDb2dVertex
 10
52.86157999816415
 20
-17.16123771662246
 30
0.0
  0
VERTEX
  5
172
330
166
100
AcDbEntity
  8
GRAU_10_
 62
     7
100
AcDbVertex
100
AcDb2dVertex
 10
52.86157999816415
 20
-16.11840662528745
 30
0.0
  0
VERTEX
  5
173
330
166
100
AcDbEntity
  8
GRAU_10_
 62
     7
100
AcDbVertex
100
AcDb2dVertex
 10
52.86157999816415
 20
-15.11071553108366
 30
0.0
  0
VERTEX
  5
174
330
166
100
AcDbEntity
  8
GRAU_10_
 62
     7
100
AcDbVertex
100
AcDb2dVertex
 10
52.86157999816415
 20
-14.14815521750916
 30
0.0
  0
VERTEX
  5
175
330
166
100
AcDbEntity
  8
GRAU_10_
 62
     7
100
AcDbVertex
100
AcDb2dVertex
 10
52.86157999816415
 20
-13.24243901694104
 30
0.0
  0
VERTEX
  5
176
330
166
100
AcDbEntity
  8
GRAU_10_
 62
     7
100
AcDbVertex
100
AcDb2dVertex
 10
52.86157999816415
 20
-11.57604523141497
 30
0.0
  0
VERTEX
  5
177
330
166
100
AcDbEntity
  8
GRAU_10_
 62
     7
100
AcDbVertex
100
AcDb2dVertex
 10
52.86157999816415
 20
-10.12807064374367
 30
0.0
  0
VERTEX
  5
178
330
166
100
AcDbEntity
  8
GRAU_10_
 62
     7
100
AcDbVertex
100
AcDb2dVertex
 10
52.86157999816415
 20
-8.8843903531195
 30
0.0
  0
VERTEX
  5
179
330
166
100
AcDbEntity
  8
GRAU_10_
 62
     7
100
AcDbVertex
100
AcDb2dVertex
 10
52.86157999816415
 20
-7.866708475417617
 30
0.0
  0
VERTEX
  5
17A
330
166
100
AcDbEntity
  8
GRAU_10_
 62
     7
100
AcDbVertex
100
AcDb2dVertex
 10
52.86157999816415
 20
-7.088460891894072
 30
0.0
  0
VERTEX
  5
17B
330
166
100
AcDbEntity
  8
GRAU_10_
 62
     7
100
AcDbVertex
100
AcDb2dVertex
 10
52.86157999816415
 20
-6.574452306406188
 30
0.0
  0
SEQEND
  5
17C
330
166
100
AcDbEntity
  8
GRAU_10_
  0
POLYLINE
  5
17D
330
1F
100
AcDbEntity
  8
GRAU_10_
 62
     7
100
AcDb2dPolyline
 66
     1
 10
0.0
 20
0.0
 30
0.0
  0
VERTEX
  5
17E
330
17D
100
AcDbEntity
  8
GRAU_10_
 62
     7
100
AcDbVertex
100
AcDb2dVertex
 10
35.6007789563366
 20
-6.582892795913194
 30
0.0
  0
VERTEX
  5
17F
330
17D
100
AcDbEntity
  8
GRAU_10_
 62
     7
100
AcDbVertex
100
AcDb2dVertex
 10
35.8522710926678
 20
-6.182572436438046
 30
0.0
  0
SEQEND
  5
180
330
17D
100
AcDbEntity
  8
GRAU_10_
  0
POLYLINE
  5
181
330
1F
100
AcDbEntity
  8
GRAU_10_
 62
     7
100
AcDb2dPolyline
 66
     1
 10
0.0
 20
0.0
 30
0.0
  0
VERTEX
  5
182
330
181
100
AcDbEntity
  8
GRAU_10_
 62
     7
100
AcDbVertex
100
AcDb2dVertex
 10
35.38873318933405
 20
-6.834557187132296
 30
0.0
  0
VERTEX
  5
183
330
181
100
AcDbEntity
  8
GRAU_10_
 62
     7
100
AcDbVertex
100
AcDb2dVertex
 10
35.40320259991749
 20
-6.832317873589621
 30
0.0
  0
VERTEX
  5
184
330
181
100
AcDbEntity
  8
GRAU_10_
 62
     7
100
AcDbVertex
100
AcDb2dVertex
 10
35.4212893631468
 20
-6.826288952513187
 30
0.0
  0
VERTEX
  5
185
330
181
100
AcDbEntity
  8
GRAU_10_
 62
     7
100
AcDbVertex
100
AcDb2dVertex
 10
35.45935769337227
 20
-6.802345523095354
 30
0.0
  0
VERTEX
  5
186
330
181
100
AcDbEntity
  8
GRAU_10_
 62
     7
100
AcDbVertex
100
AcDb2dVertex
 10
35.55220307794934
 20
-6.681594846678797
 30
0.0
  0
VERTEX
  5
187
330
181
100
AcDbEntity
  8
GRAU_10_
 62
     7
100
AcDbVertex
100
AcDb2dVertex
 10
35.6007789563366
 20
-6.582892795913194
 30
0.0
  0
SEQEND
  5
188
330
181
100
AcDbEntity
  8
GRAU_10_
  0
POLYLINE
  5
189
330
1F
100
AcDbEntity
  8
GRAU_10_
 62
     7
100
AcDb2dPolyline
 66
     1
 10
0.0
 20
0.0
 30
0.0
  0
VERTEX
  5
18A
330
189
100
AcDbEntity
  8
GRAU_10_
 62
     7
100
AcDbVertex
100
AcDb2dVertex
 10
34.88850499487802
 20
-6.863496008299174
 30
0.0
  0
VERTEX
  5
18B
330
189
100
AcDbEntity
  8
GRAU_10_
 62
     7
100
AcDbVertex
100
AcDb2dVertex
 10
35.38873318933405
 20
-6.834557187132296
 30
0.0
  0
SEQEND
  5
18C
330
189
100
AcDbEntity
  8
GRAU_10_
  0
POLYLINE
  5
18D
330
1F
100
AcDbEntity
  8
GRAU_10_
 62
     7
100
AcDb2dPolyline
 66
     1
 10
0.0
 20
0.0
 30
0.0
  0
VERTEX
  5
18E
330
18D
100
AcDbEntity
  8
GRAU_10_
 62
     7
100
AcDbVertex
100
AcDb2dVertex
 10
35.38873318933405
 20
-9.726199990277438
 30
0.0
  0
VERTEX
  5
18F
330
18D
100
AcDbEntity
  8
GRAU_10_
 62
     7
100
AcDbVertex
100
AcDb2dVertex
 10
34.88850499487802
 20
-9.641967350095275
 30
0.0
  0
SEQEND
  5
190
330
18D
100
AcDbEntity
  8
GRAU_10_
  0
POLYLINE
  5
191
330
1F
100
AcDbEntity
  8
GRAU_10_
 62
     7
100
AcDb2dPolyline
 66
     1
 10
0.0
 20
0.0
 30
0.0
  0
VERTEX
  5
192
330
191
100
AcDbEntity
  8
GRAU_10_
 62
     7
100
AcDbVertex
100
AcDb2dVertex
 10
35.6007789563366
 20
-10.27052543603538
 30
0.0
  0
VERTEX
  5
193
330
191
100
AcDbEntity
  8
GRAU_10_
 62
     7
100
AcDbVertex
100
AcDb2dVertex
 10
35.49777053337355
 20
-9.871927625439218
 30
0.0
  0
VERTEX
  5
194
330
191
100
AcDbEntity
  8
GRAU_10_
 62
     7
100
AcDbVertex
100
AcDb2dVertex
 10
35.47244906485253
 20
-9.814739002657054
 30
0.0
  0
VERTEX
  5
195
330
191
100
AcDbEntity
  8
GRAU_10_
 62
     7
100
AcDbVertex
100
AcDb2dVertex
 10
35.45160622341686
 20
-9.778048711534762
 30
0.0
  0
VERTEX
  5
196
330
191
100
AcDbEntity
  8
GRAU_10_
 62
     7
100
AcDbVertex
100
AcDb2dVertex
 10
35.42576799023215
 20
-9.746698321937311
 30
0.0
  0
VERTEX
  5
197
330
191
100
AcDbEntity
  8
GRAU_10_
 62
     7
100
AcDbVertex
100
AcDb2dVertex
 10
35.41129857964871
 20
-9.73498498956024
 30
0.0
  0
VERTEX
  5
198
330
191
100
AcDbEntity
  8
GRAU_10_
 62
     7
100
AcDbVertex
100
AcDb2dVertex
 10
35.39717367884106
 20
-9.72792253915642
 30
0.0
  0
VERTEX
  5
199
330
191
100
AcDbEntity
  8
GRAU_10_
 62
     7
100
AcDbVertex
100
AcDb2dVertex
 10
35.38873318933405
 20
-9.726199990277438
 30
0.0
  0
SEQEND
  5
19A
330
191
100
AcDbEntity
  8
GRAU_10_
  0
POLYLINE
  5
19B
330
1F
100
AcDbEntity
  8
GRAU_10_
 62
     7
100
AcDb2dPolyline
 66
     1
 10
0.0
 20
0.0
 30
0.0
  0
VERTEX
  5
19C
330
19B
100
AcDbEntity
  8
GRAU_10_
 62
     7
100
AcDbVertex
100
AcDb2dVertex
 10
35.6007789563366
 20
-23.77306933370253
 30
0.0
  0
VERTEX
  5
19D
330
19B
100
AcDbEntity
  8
GRAU_10_
 62
     7
100
AcDbVertex
100
AcDb2dVertex
 10
35.82264325194933
 20
-22.66013050299301
 30
0.0
  0
VERTEX
  5
19E
330
19B
100
AcDbEntity
  8
GRAU_10_
 62
     7
100
AcDbVertex
100
AcDb2dVertex
 10
36.08791577931238
 20
-21.43729305380451
 30
0.0
  0
VERTEX
  5
19F
330
19B
100
AcDbEntity
  8
GRAU_10_
 62
     7
100
AcDbVertex
100
AcDb2dVertex
 10
36.36421261950091
 20
-20.11368649519562
 30
0.0
  0
VERTEX
  5
1A0
330
19B
100
AcDbEntity
  8
GRAU_10_
 62
     7
100
AcDbVertex
100
AcDb2dVertex
 10
36.53853456605377
 20
-19.15594931848227
 30
0.0
  0
VERTEX
  5
1A1
330
19B
100
AcDbEntity
  8
GRAU_10_
 62
     7
100
AcDbVertex
100
AcDb2dVertex
 10
36.67185984928689
 20
-18.14980851826956
 30
0.0
  0
VERTEX
  5
1A2
330
19B
100
AcDbEntity
  8
GRAU_10_
 62
     7
100
AcDbVertex
100
AcDb2dVertex
 10
36.72577562919898
 20
-17.2833664321422
 30
0.0
  0
VERTEX
  5
1A3
330
19B
100
AcDbEntity
  8
GRAU_10_
 62
     7
100
AcDbVertex
100
AcDb2dVertex
 10
36.71320102238243
 20
-16.40986189561101
 30
0.0
  0
VERTEX
  5
1A4
330
19B
100
AcDbEntity
  8
GRAU_10_
 62
     7
100
AcDbVertex
100
AcDb2dVertex
 10
36.60588622722192
 20
-15.34136482597919
 30
0.0
  0
VERTEX
  5
1A5
330
19B
100
AcDbEntity
  8
GRAU_10_
 62
     7
100
AcDbVertex
100
AcDb2dVertex
 10
36.43897124084868
 20
-14.32075461518304
 30
0.0
  0
VERTEX
  5
1A6
330
19B
100
AcDbEntity
  8
GRAU_10_
 62
     7
100
AcDbVertex
100
AcDb2dVertex
 10
36.10669156209327
 20
-12.69484072831303
 30
0.0
  0
VERTEX
  5
1A7
330
19B
100
AcDbEntity
  8
GRAU_10_
 62
     7
100
AcDbVertex
100
AcDb2dVertex
 10
35.78715874504233
 20
-11.22412849543918
 30
0.0
  0
VERTEX
  5
1A8
330
19B
100
AcDbEntity
  8
GRAU_10_
 62
     7
100
AcDbVertex
100
AcDb2dVertex
 10
35.6007789563366
 20
-10.27052543603538
 30
0.0
  0
SEQEND
  5
1A9
330
19B
100
AcDbEntity
  8
GRAU_10_
  0
POLYLINE
  5
1AA
330
1F
100
AcDbEntity
  8
GRAU_10_
 62
     7
100
AcDb2dPolyline
 66
     1
 10
0.0
 20
0.0
 30
0.0
  0
VERTEX
  5
1AB
330
1AA
100
AcDbEntity
  8
GRAU_10_
 62
     7
100
AcDbVertex
100
AcDb2dVertex
 10
35.38873318933405
 20
-24.31739477946048
 30
0.0
  0
VERTEX
  5
1AC
330
1AA
100
AcDbEntity
  8
GRAU_10_
 62
     7
100
AcDbVertex
100
AcDb2dVertex
 10
35.40320259991749
 20
-24.31257164259933
 30
0.0
  0
VERTEX
  5
1AD
330
1AA
100
AcDbEntity
  8
GRAU_10_
 62
     7
100
AcDbVertex
100
AcDb2dVertex
 10
35.4212893631468
 20
-24.30051380044646
 30
0.0
  0
VERTEX
  5
1AE
330
1AA
100
AcDbEntity
  8
GRAU_10_
 62
     7
100
AcDbVertex
100
AcDb2dVertex
 10
35.45935769337227
 20
-24.2526269416108
 30
0.0
  0
VERTEX
  5
1AF
330
1AA
100
AcDbEntity
  8
GRAU_10_
 62
     7
100
AcDbVertex
100
AcDb2dVertex
 10
35.55220307794934
 20
-23.99992902106431
 30
0.0
  0
VERTEX
  5
1B0
330
1AA
100
AcDbEntity
  8
GRAU_10_
 62
     7
100
AcDbVertex
100
AcDb2dVertex
 10
35.6007789563366
 20
-23.77306933370253
 30
0.0
  0
SEQEND
  5
1B1
330
1AA
100
AcDbEntity
  8
GRAU_10_
  0
POLYLINE
  5
1B2
330
1F
100
AcDbEntity
  8
GRAU_10_
 62
     7
100
AcDb2dPolyline
 66
     1
 10
0.0
 20
0.0
 30
0.0
  0
VERTEX
  5
1B3
330
1B2
100
AcDbEntity
  8
GRAU_10_
 62
     7
100
AcDbVertex
100
AcDb2dVertex
 10
34.88850499487802
 20
-24.40179967453054
 30
0.0
  0
VERTEX
  5
1B4
330
1B2
100
AcDbEntity
  8
GRAU_10_
 62
     7
100
AcDbVertex
100
AcDb2dVertex
 10
35.38873318933405
 20
-24.31739477946048
 30
0.0
  0
SEQEND
  5
1B5
330
1B2
100
AcDbEntity
  8
GRAU_10_
  0
POLYLINE
  5
1B6
330
1F
100
AcDbEntity
  8
GRAU_10_
 62
     7
100
AcDb2dPolyline
 66
     1
 10
0.0
 20
0.0
 30
0.0
  0
VERTEX
  5
1B7
330
1B6
100
AcDbEntity
  8
GRAU_10_
 62
     7
100
AcDbVertex
100
AcDb2dVertex
 10
35.38873318933405
 20
-27.20920983749352
 30
0.0
  0
VERTEX
  5
1B8
330
1B6
100
AcDbEntity
  8
GRAU_10_
 62
     7
100
AcDbVertex
100
AcDb2dVertex
 10
34.88850499487802
 20
-27.18027101632664
 30
0.0
  0
SEQEND
  5
1B9
330
1B6
100
AcDbEntity
  8
GRAU_10_
  0
POLYLINE
  5
1BA
330
1F
100
AcDbEntity
  8
GRAU_10_
 62
     7
100
AcDb2dPolyline
 66
     1
 10
0.0
 20
0.0
 30
0.0
  0
VERTEX
  5
1BB
330
1BA
100
AcDbEntity
  8
GRAU_10_
 62
     7
100
AcDbVertex
100
AcDb2dVertex
 10
35.6007789563366
 20
-27.46139099337631
 30
0.0
  0
VERTEX
  5
1BC
330
1BA
100
AcDbEntity
  8
GRAU_10_
 62
     7
100
AcDbVertex
100
AcDb2dVertex
 10
35.49811504314934
 20
-27.28086787085912
 30
0.0
  0
VERTEX
  5
1BD
330
1BA
100
AcDbEntity
  8
GRAU_10_
 62
     7
100
AcDbVertex
100
AcDb2dVertex
 10
35.47279357462832
 20
-27.25296257901963
 30
0.0
  0
VERTEX
  5
1BE
330
1BA
100
AcDbEntity
  8
GRAU_10_
 62
     7
100
AcDbVertex
100
AcDb2dVertex
 10
35.45160622341686
 20
-27.23453130601454
 30
0.0
  0
VERTEX
  5
1BF
330
1BA
100
AcDbEntity
  8
GRAU_10_
 62
     7
100
AcDbVertex
100
AcDb2dVertex
 10
35.42611250000794
 20
-27.21902836610371
 30
0.0
  0
VERTEX
  5
1C0
330
1BA
100
AcDbEntity
  8
GRAU_10_
 62
     7
100
AcDbVertex
100
AcDb2dVertex
 10
35.41129857964871
 20
-27.21368846457887
 30
0.0
  0
VERTEX
  5
1C1
330
1BA
100
AcDbEntity
  8
GRAU_10_
 62
     7
100
AcDbVertex
100
AcDb2dVertex
 10
35.39717367884106
 20
-27.2105878765967
 30
0.0
  0
VERTEX
  5
1C2
330
1BA
100
AcDbEntity
  8
GRAU_10_
 62
     7
100
AcDbVertex
100
AcDb2dVertex
 10
35.38873318933405
 20
-27.20920983749352
 30
0.0
  0
SEQEND
  5
1C3
330
1BA
100
AcDbEntity
  8
GRAU_10_
  0
POLYLINE
  5
1C4
330
1F
100
AcDbEntity
  8
GRAU_10_
 62
     7
100
AcDb2dPolyline
 66
     1
 10
0.0
 20
0.0
 30
0.0
  0
VERTEX
  5
1C5
330
1C4
100
AcDbEntity
  8
GRAU_10_
 62
     7
100
AcDbVertex
100
AcDb2dVertex
 10
35.95889686827672
 20
-27.95455673742853
 30
0.0
  0
VERTEX
  5
1C6
330
1C4
100
AcDbEntity
  8
GRAU_10_
 62
     7
100
AcDbVertex
100
AcDb2dVertex
 10
35.92858000800666
 20
-27.93130232756229
 30
0.0
  0
VERTEX
  5
1C7
330
1C4
100
AcDbEntity
  8
GRAU_10_
 62
     7
100
AcDbVertex
100
AcDb2dVertex
 10
35.91342157787162
 20
-27.91821095608203
 30
0.0
  0
VERTEX
  5
1C8
330
1C4
100
AcDbEntity
  8
GRAU_10_
 62
     7
100
AcDbVertex
100
AcDb2dVertex
 10
35.89774638307289
 20
-27.90546409437757
 30
0.0
  0
SEQEND
  5
1C9
330
1C4
100
AcDbEntity
  8
GRAU_10_
  0
POLYLINE
  5
1CA
330
1F
100
AcDbEntity
  8
GRAU_10_
 62
     7
100
AcDb2dPolyline
 66
     1
 10
0.0
 20
0.0
 30
0.0
  0
VERTEX
  5
1CB
330
1CA
100
AcDbEntity
  8
GRAU_10_
 62
     7
100
AcDbVertex
100
AcDb2dVertex
 10
52.86157999816415
 20
-27.56233235768459
 30
0.0
  0
VERTEX
  5
1CC
330
1CA
100
AcDbEntity
  8
GRAU_10_
 62
     7
100
AcDbVertex
100
AcDb2dVertex
 10
52.86157999816415
 20
-27.51358422440943
 30
0.0
  0
SEQEND
  5
1CD
330
1CA
100
AcDbEntity
  8
GRAU_10_
  0
POLYLINE
  5
1CE
330
1F
100
AcDbEntity
  8
GRAU_10_
 62
     7
100
AcDb2dPolyline
 66
     1
 10
0.0
 20
0.0
 30
0.0
  0
VERTEX
  5
1CF
330
1CE
100
AcDbEntity
  8
GRAU_10_
 62
     7
100
AcDbVertex
100
AcDb2dVertex
 10
36.29996154631493
 20
-28.02363094747566
 30
0.0
  0
VERTEX
  5
1D0
330
1CE
100
AcDbEntity
  8
GRAU_10_
 62
     7
100
AcDbVertex
100
AcDb2dVertex
 10
36.19988145644614
 20
-28.05015820021196
 30
0.0
  0
VERTEX
  5
1D1
330
1CE
100
AcDbEntity
  8
GRAU_10_
 62
     7
100
AcDbVertex
100
AcDb2dVertex
 10
35.95889686827672
 20
-27.95455673742853
 30
0.0
  0
SEQEND
  5
1D2
330
1CE
100
AcDbEntity
  8
GRAU_10_
  0
POLYLINE
  5
1D3
330
1F
100
AcDbEntity
  8
GRAU_10_
 62
     7
100
AcDb2dPolyline
 66
     1
 10
0.0
 20
0.0
 30
0.0
  0
VERTEX
  5
1D4
330
1D3
100
AcDbEntity
  8
GRAU_10_
 62
     7
100
AcDbVertex
100
AcDb2dVertex
 10
52.86157999816415
 20
-27.64156960611771
 30
0.0
  0
VERTEX
  5
1D5
330
1D3
100
AcDbEntity
  8
GRAU_10_
 62
     7
100
AcDbVertex
100
AcDb2dVertex
 10
52.86157999816415
 20
-27.65672803625274
 30
0.0
  0
VERTEX
  5
1D6
330
1D3
100
AcDbEntity
  8
GRAU_10_
 62
     7
100
AcDbVertex
100
AcDb2dVertex
 10
52.86157999816415
 20
-27.56233235768459
 30
0.0
  0
SEQEND
  5
1D7
330
1D3
100
AcDbEntity
  8
GRAU_10_
  0
POLYLINE
  5
1D8
330
1F
100
AcDbEntity
  8
GRAU_10_
 62
     7
100
AcDb2dPolyline
 66
     1
 10
0.0
 20
0.0
 30
0.0
  0
VERTEX
  5
1D9
330
1D8
100
AcDbEntity
  8
GRAU_10_
 62
     7
100
AcDbVertex
100
AcDb2dVertex
 10
53.88563530671826
 20
-26.60493969074704
 30
0.0
  0
VERTEX
  5
1DA
330
1D8
100
AcDbEntity
  8
GRAU_10_
 62
     7
100
AcDbVertex
100
AcDb2dVertex
 10
53.88563530671826
 20
-26.56428753720309
 30
0.0
  0
SEQEND
  5
1DB
330
1D8
100
AcDbEntity
  8
GRAU_10_
  0
POLYLINE
  5
1DC
330
1F
100
AcDbEntity
  8
GRAU_10_
 62
     7
100
AcDb2dPolyline
 66
     1
 10
0.0
 20
0.0
 30
0.0
  0
VERTEX
  5
1DD
330
1DC
100
AcDbEntity
  8
GRAU_10_
 62
     7
100
AcDbVertex
100
AcDb2dVertex
 10
53.88563530671826
 20
-7.433487432353935
 30
0.0
  0
VERTEX
  5
1DE
330
1DC
100
AcDbEntity
  8
GRAU_10_
 62
     7
100
AcDbVertex
100
AcDb2dVertex
 10
53.88563530671826
 20
-7.409199493160306
 30
0.0
  0
VERTEX
  5
1DF
330
1DC
100
AcDbEntity
  8
GRAU_10_
 62
     7
100
AcDbVertex
100
AcDb2dVertex
 10
53.88563530671826
 20
-7.435209981232916
 30
0.0
  0
VERTEX
  5
1E0
330
1DC
100
AcDbEntity
  8
GRAU_10_
 62
     7
100
AcDbVertex
100
AcDb2dVertex
 10
53.88563530671826
 20
-7.58231565549788
 30
0.0
  0
VERTEX
  5
1E1
330
1DC
100
AcDbEntity
  8
GRAU_10_
 62
     7
100
AcDbVertex
100
AcDb2dVertex
 10
53.88563530671826
 20
-8.035690520445637
 30
0.0
  0
VERTEX
  5
1E2
330
1DC
100
AcDbEntity
  8
GRAU_10_
 62
     7
100
AcDbVertex
100
AcDb2dVertex
 10
53.88563530671826
 20
-8.745552913473643
 30
0.0
  0
VERTEX
  5
1E3
330
1DC
100
AcDbEntity
  8
GRAU_10_
 62
     7
100
AcDbVertex
100
AcDb2dVertex
 10
53.88563530671826
 20
-9.335698159412482
 30
0.0
  0
VERTEX
  5
1E4
330
1DC
100
AcDbEntity
  8
GRAU_10_
 62
     7
100
AcDbVertex
100
AcDb2dVertex
 10
53.88563530671826
 20
-10.01300437862775
 30
0.0
  0
VERTEX
  5
1E5
330
1DC
100
AcDbEntity
  8
GRAU_10_
 62
     7
100
AcDbVertex
100
AcDb2dVertex
 10
53.88563530671826
 20
-10.77816059067104
 30
0.0
  0
VERTEX
  5
1E6
330
1DC
100
AcDbEntity
  8
GRAU_10_
 62
     7
100
AcDbVertex
100
AcDb2dVertex
 10
53.88563530671826
 20
-11.30526054763918
 30
0.0
  0
VERTEX
  5
1E7
330
1DC
100
AcDbEntity
  8
GRAU_10_
 62
     7
100
AcDbVertex
100
AcDb2dVertex
 10
53.88563530671826
 20
-11.84855246406974
 30
0.0
  0
VERTEX
  5
1E8
330
1DC
100
AcDbEntity
  8
GRAU_10_
 62
     7
100
AcDbVertex
100
AcDb2dVertex
 10
53.88563530671826
 20
-12.4090698692901
 30
0.0
  0
VERTEX
  5
1E9
330
1DC
100
AcDbEntity
  8
GRAU_10_
 62
     7
100
AcDbVertex
100
AcDb2dVertex
 10
53.88563530671826
 20
-12.98543472419709
 30
0.0
  0
VERTEX
  5
1EA
330
1DC
100
AcDbEntity
  8
GRAU_10_
 62
     7
100
AcDbVertex
100
AcDb2dVertex
 10
53.88563530671826
 20
-13.5781637934544
 30
0.0
  0
VERTEX
  5
1EB
330
1DC
100
AcDbEntity
  8
GRAU_10_
 62
     7
100
AcDbVertex
100
AcDb2dVertex
 10
53.88563530671826
 20
-14.52883851976393
 30
0.0
  0
VERTEX
  5
1EC
330
1DC
100
AcDbEntity
  8
GRAU_10_
 62
     7
100
AcDbVertex
100
AcDb2dVertex
 10
53.88563530671826
 20
-15.43627726921104
 30
0.0
  0
VERTEX
  5
1ED
330
1DC
100
AcDbEntity
  8
GRAU_10_
 62
     7
100
AcDbVertex
100
AcDb2dVertex
 10
53.88563530671826
 20
-16.30134131623522
 30
0.0
  0
VERTEX
  5
1EE
330
1DC
100
AcDbEntity
  8
GRAU_10_
 62
     7
100
AcDbVertex
100
AcDb2dVertex
 10
53.88563530671826
 20
-17.12403066083647
 30
0.0
  0
VERTEX
  5
1EF
330
1DC
100
AcDbEntity
  8
GRAU_10_
 62
     7
100
AcDbVertex
100
AcDb2dVertex
 10
53.88563530671826
 20
-17.94482520167084
 30
0.0
  0
VERTEX
  5
1F0
330
1DC
100
AcDbEntity
  8
GRAU_10_
 62
     7
100
AcDbVertex
100
AcDb2dVertex
 10
53.88563530671826
 20
-18.80454934717018
 30
0.0
  0
VERTEX
  5
1F1
330
1DC
100
AcDbEntity
  8
GRAU_10_
 62
     7
100
AcDbVertex
100
AcDb2dVertex
 10
53.88563530671826
 20
-19.24896695794724
 30
0.0
  0
VERTEX
  5
1F2
330
1DC
100
AcDbEntity
  8
GRAU_10_
 62
     7
100
AcDbVertex
100
AcDb2dVertex
 10
53.88563530671826
 20
-19.70268633267079
 30
0.0
  0
VERTEX
  5
1F3
330
1DC
100
AcDbEntity
  8
GRAU_10_
 62
     7
100
AcDbVertex
100
AcDb2dVertex
 10
53.88563530671826
 20
-20.16708551044403
 30
0.0
  0
VERTEX
  5
1F4
330
1DC
100
AcDbEntity
  8
GRAU_10_
 62
     7
100
AcDbVertex
100
AcDb2dVertex
 10
53.88563530671826
 20
-20.64044194238797
 30
0.0
  0
VERTEX
  5
1F5
330
1DC
100
AcDbEntity
  8
GRAU_10_
 62
     7
100
AcDbVertex
100
AcDb2dVertex
 10
53.88563530671826
 20
-21.61161500035736
 30
0.0
  0
VERTEX
  5
1F6
330
1DC
100
AcDbEntity
  8
GRAU_10_
 62
     7
100
AcDbVertex
100
AcDb2dVertex
 10
53.88563530671826
 20
-22.53352316038792
 30
0.0
  0
VERTEX
  5
1F7
330
1DC
100
AcDbEntity
  8
GRAU_10_
 62
     7
100
AcDbVertex
100
AcDb2dVertex
 10
53.88563530671826
 20
-23.4068554420312
 30
0.0
  0
VERTEX
  5
1F8
330
1DC
100
AcDbEntity
  8
GRAU_10_
 62
     7
100
AcDbVertex
100
AcDb2dVertex
 10
53.88563530671826
 20
-24.50153525462353
 30
0.0
  0
VERTEX
  5
1F9
330
1DC
100
AcDbEntity
  8
GRAU_10_
 62
     7
100
AcDbVertex
100
AcDb2dVertex
 10
53.88563530671826
 20
-25.39588263259038
 30
0.0
  0
VERTEX
  5
1FA
330
1DC
100
AcDbEntity
  8
GRAU_10_
 62
     7
100
AcDbVertex
100
AcDb2dVertex
 10
53.88563530671826
 20
-26.08094032176107
 30
0.0
  0
VERTEX
  5
1FB
330
1DC
100
AcDbEntity
  8
GRAU_10_
 62
     7
100
AcDbVertex
100
AcDb2dVertex
 10
53.88563530671826
 20
-26.50193126778398
 30
0.0
  0
SEQEND
  5
1FC
330
1DC
100
AcDbEntity
  8
GRAU_10_
  0
POLYLINE
  5
1FD
330
1F
100
AcDbEntity
  8
GRAU_10_
 62
     7
100
AcDb2dPolyline
 66
     1
 10
0.0
 20
0.0
 30
0.0
  0
VERTEX
  5
1FE
330
1FD
100
AcDbEntity
  8
GRAU_10_
 62
     7
100
AcDbVertex
100
AcDb2dVertex
 10
18.88826522268865
 20
-0.0216179884312096
 30
0.0
  0
VERTEX
  5
1FF
330
1FD
100
AcDbEntity
  8
GRAU_10_
 62
     7
100
AcDbVertex
100
AcDb2dVertex
 10
18.88826522268865
 20
-0.128502146371971
 30
0.0
  0
VERTEX
  5
200
330
1FD
100
AcDbEntity
  8
GRAU_10_
 62
     7
100
AcDbVertex
100
AcDb2dVertex
 10
18.88826522268865
 20
-0.4481210908668666
 30
0.0
  0
VERTEX
  5
201
330
1FD
100
AcDbEntity
  8
GRAU_10_
 62
     7
100
AcDbVertex
100
AcDb2dVertex
 10
18.88826522268865
 20
-0.9758239399426483
 30
0.0
  0
VERTEX
  5
202
330
1FD
100
AcDbEntity
  8
GRAU_10_
 62
     7
100
AcDbVertex
100
AcDb2dVertex
 10
18.88826522268865
 20
-1.705409517634985
 30
0.0
  0
VERTEX
  5
203
330
1FD
100
AcDbEntity
  8
GRAU_10_
 62
     7
100
AcDbVertex
100
AcDb2dVertex
 10
18.88826522268865
 20
-2.62757605999738
 30
0.0
  0
VERTEX
  5
204
330
1FD
100
AcDbEntity
  8
GRAU_10_
 62
     7
100
AcDbVertex
100
AcDb2dVertex
 10
18.88826522268865
 20
-3.730696362096713
 30
0.0
  0
VERTEX
  5
205
330
1FD
100
AcDbEntity
  8
GRAU_10_
 62
     7
100
AcDbVertex
100
AcDb2dVertex
 10
18.88826522268865
 20
-5.000731650569289
 30
0.0
  0
VERTEX
  5
206
330
1FD
100
AcDbEntity
  8
GRAU_10_
 62
     7
100
AcDbVertex
100
AcDb2dVertex
 10
18.88826522268865
 20
-6.422523495280077
 30
0.0
  0
VERTEX
  5
207
330
1FD
100
AcDbEntity
  8
GRAU_10_
 62
     7
100
AcDbVertex
100
AcDb2dVertex
 10
18.88826522268865
 20
-7.977468368336086
 30
0.0
  0
VERTEX
  5
208
330
1FD
100
AcDbEntity
  8
GRAU_10_
 62
     7
100
AcDbVertex
100
AcDb2dVertex
 10
18.88826522268865
 20
-9.64610146740483
 30
0.0
  0
VERTEX
  5
209
330
1FD
100
AcDbEntity
  8
GRAU_10_
 62
     7
100
AcDbVertex
100
AcDb2dVertex
 10
18.88826522268865
 20
-11.40689093149905
 30
0.0
  0
VERTEX
  5
20A
330
1FD
100
AcDbEntity
  8
GRAU_10_
 62
     7
100
AcDbVertex
100
AcDb2dVertex
 10
18.88826522268865
 20
-13.23882166429518
 30
0.0
  0
VERTEX
  5
20B
330
1FD
100
AcDbEntity
  8
GRAU_10_
 62
     7
100
AcDbVertex
100
AcDb2dVertex
 10
18.88826522268865
 20
-15.11829474615118
 30
0.0
  0
VERTEX
  5
20C
330
1FD
100
AcDbEntity
  8
GRAU_10_
 62
     7
100
AcDbVertex
100
AcDb2dVertex
 10
18.88826522268865
 20
-17.0220557672008
 30
0.0
  0
VERTEX
  5
20D
330
1FD
100
AcDbEntity
  8
GRAU_10_
 62
     7
100
AcDbVertex
100
AcDb2dVertex
 10
18.88826522268865
 20
-18.92512776869884
 30
0.0
  0
VERTEX
  5
20E
330
1FD
100
AcDbEntity
  8
GRAU_10_
 62
     7
100
AcDbVertex
100
AcDb2dVertex
 10
18.88826522268865
 20
-20.80477310544274
 30
0.0
  0
VERTEX
  5
20F
330
1FD
100
AcDbEntity
  8
GRAU_10_
 62
     7
100
AcDbVertex
100
AcDb2dVertex
 10
18.88826522268865
 20
-22.63653158335097
 30
0.0
  0
VERTEX
  5
210
330
1FD
100
AcDbEntity
  8
GRAU_10_
 62
     7
100
AcDbVertex
100
AcDb2dVertex
 10
18.88826522268865
 20
-24.39749330233309
 30
0.0
  0
VERTEX
  5
211
330
1FD
100
AcDbEntity
  8
GRAU_10_
 62
     7
100
AcDbVertex
100
AcDb2dVertex
 10
18.88826522268865
 20
-26.06612640140183
 30
0.0
  0
VERTEX
  5
212
330
1FD
100
AcDbEntity
  8
GRAU_10_
 62
     7
100
AcDbVertex
100
AcDb2dVertex
 10
18.88826522268865
 20
-27.62124352934574
 30
0.0
  0
VERTEX
  5
213
330
1FD
100
AcDbEntity
  8
GRAU_10_
 62
     7
100
AcDbVertex
100
AcDb2dVertex
 10
18.88826522268865
 20
-29.04251860939283
 30
0.0
  0
VERTEX
  5
214
330
1FD
100
AcDbEntity
  8
GRAU_10_
 62
     7
100
AcDbVertex
100
AcDb2dVertex
 10
18.88826522268865
 20
-30.3128984076412
 30
0.0
  0
VERTEX
  5
215
330
1FD
100
AcDbEntity
  8
GRAU_10_
 62
     7
100
AcDbVertex
100
AcDb2dVertex
 10
18.88826522268865
 20
-31.41636321951633
 30
0.0
  0
VERTEX
  5
216
330
1FD
100
AcDbEntity
  8
GRAU_10_
 62
     7
100
AcDbVertex
100
AcDb2dVertex
 10
18.88826522268865
 20
-32.33827137954688
 30
0.0
  0
VERTEX
  5
217
330
1FD
100
AcDbEntity
  8
GRAU_10_
 62
     7
100
AcDbVertex
100
AcDb2dVertex
 10
18.88826522268865
 20
-33.06777082979526
 30
0.0
  0
VERTEX
  5
218
330
1FD
100
AcDbEntity
  8
GRAU_10_
 62
     7
100
AcDbVertex
100
AcDb2dVertex
 10
18.88826522268865
 20
-33.5959043160908
 30
0.0
  0
VERTEX
  5
219
330
1FD
100
AcDbEntity
  8
GRAU_10_
 62
     7
100
AcDbVertex
100
AcDb2dVertex
 10
18.88826522268865
 20
-33.91509262336594
 30
0.0
  0
VERTEX
  5
21A
330
1FD
100
AcDbEntity
  8
GRAU_10_
 62
     7
100
AcDbVertex
100
AcDb2dVertex
 10
18.88826522268865
 20
-34.02206290875066
 30
0.0
  0
SEQEND
  5
21B
330
1FD
100
AcDbEntity
  8
GRAU_10_
  0
POLYLINE
  5
21C
330
1F
100
AcDbEntity
  8
GRAU_10_
 62
     7
100
AcDb2dPolyline
 66
     1
 10
0.0
 20
0.0
 30
0.0
  0
VERTEX
  5
21D
330
21C
100
AcDbEntity
  8
GRAU_10_
 62
     7
100
AcDbVertex
100
AcDb2dVertex
 10
1.38837439645856
 20
-0.0216179884312096
 30
0.0
  0
VERTEX
  5
21E
330
21C
100
AcDbEntity
  8
GRAU_10_
 62
     7
100
AcDbVertex
100
AcDb2dVertex
 10
1.38837439645856
 20
-0.024460194081528
 30
0.0
  0
VERTEX
  5
21F
330
21C
100
AcDbEntity
  8
GRAU_10_
 62
     7
100
AcDbVertex
100
AcDb2dVertex
 10
1.38837439645856
 20
-0.0315226444853495
 30
0.0
  0
SEQEND
  5
220
330
21C
100
AcDbEntity
  8
GRAU_10_
  0
POLYLINE
  5
221
330
1F
100
AcDbEntity
  8
GRAU_10_
 62
     7
100
AcDb2dPolyline
 66
     1
 10
0.0
 20
0.0
 30
0.0
  0
VERTEX
  5
222
330
221
100
AcDbEntity
  8
GRAU_10_
 62
     7
100
AcDbVertex
100
AcDb2dVertex
 10
11.88886010783789
 20
-0.0315226444853495
 30
0.0
  0
VERTEX
  5
223
330
221
100
AcDbEntity
  8
GRAU_10_
 62
     7
100
AcDbVertex
100
AcDb2dVertex
 10
1.38837439645856
 20
-0.0315226444853495
 30
0.0
  0
SEQEND
  5
224
330
221
100
AcDbEntity
  8
GRAU_10_
  0
POLYLINE
  5
225
330
1F
100
AcDbEntity
  8
GRAU_10_
 62
     7
100
AcDb2dPolyline
 66
     1
 10
0.0
 20
0.0
 30
0.0
  0
VERTEX
  5
226
330
225
100
AcDbEntity
  8
GRAU_10_
 62
     7
100
AcDbVertex
100
AcDb2dVertex
 10
11.88886010783789
 20
-0.0315226444853495
 30
0.0
  0
VERTEX
  5
227
330
225
100
AcDbEntity
  8
GRAU_10_
 62
     7
100
AcDbVertex
100
AcDb2dVertex
 10
11.88886010783789
 20
-0.2283238539089109
 30
0.0
  0
VERTEX
  5
228
330
225
100
AcDbEntity
  8
GRAU_10_
 62
     7
100
AcDbVertex
100
AcDb2dVertex
 10
11.88886010783789
 20
-0.6774784741031661
 30
0.0
  0
VERTEX
  5
229
330
225
100
AcDbEntity
  8
GRAU_10_
 62
     7
100
AcDbVertex
100
AcDb2dVertex
 10
11.88886010783789
 20
-1.37132116255665
 30
0.0
  0
VERTEX
  5
22A
330
225
100
AcDbEntity
  8
GRAU_10_
 62
     7
100
AcDbVertex
100
AcDb2dVertex
 10
11.88886010783789
 20
-2.299172116219682
 30
0.0
  0
VERTEX
  5
22B
330
225
100
AcDbEntity
  8
GRAU_10_
 62
     7
100
AcDbVertex
100
AcDb2dVertex
 10
11.88886010783789
 20
-3.44854285571965
 30
0.0
  0
VERTEX
  5
22C
330
225
100
AcDbEntity
  8
GRAU_10_
 62
     7
100
AcDbVertex
100
AcDb2dVertex
 10
11.88886010783789
 20
-4.800743725719613
 30
0.0
  0
VERTEX
  5
22D
330
225
100
AcDbEntity
  8
GRAU_10_
 62
     7
100
AcDbVertex
100
AcDb2dVertex
 10
11.88886010783789
 20
-6.335707031779443
 30
0.0
  0
VERTEX
  5
22E
330
225
100
AcDbEntity
  8
GRAU_10_
 62
     7
100
AcDbVertex
100
AcDb2dVertex
 10
11.88886010783789
 20
-8.031728658023983
 30
0.0
  0
SEQEND
  5
22F
330
225
100
AcDbEntity
  8
GRAU_10_
  0
POLYLINE
  5
230
330
1F
100
AcDbEntity
  8
GRAU_10_
 62
     7
100
AcDb2dPolyline
 66
     1
 10
0.0
 20
0.0
 30
0.0
  0
VERTEX
  5
231
330
230
100
AcDbEntity
  8
GRAU_10_
 62
     7
100
AcDbVertex
100
AcDb2dVertex
 10
1.38837439645856
 20
-8.031728658023983
 30
0.0
  0
VERTEX
  5
232
330
230
100
AcDbEntity
  8
GRAU_10_
 62
     7
100
AcDbVertex
100
AcDb2dVertex
 10
11.88886010783789
 20
-8.031728658023983
 30
0.0
  0
SEQEND
  5
233
330
230
100
AcDbEntity
  8
GRAU_10_
  0
POLYLINE
  5
234
330
1F
100
AcDbEntity
  8
GRAU_10_
 62
     7
100
AcDb2dPolyline
 66
     1
 10
0.0
 20
0.0
 30
0.0
  0
VERTEX
  5
235
330
234
100
AcDbEntity
  8
GRAU_10_
 62
     7
100
AcDbVertex
100
AcDb2dVertex
 10
1.38837439645856
 20
-8.031728658023983
 30
0.0
  0
VERTEX
  5
236
330
234
100
AcDbEntity
  8
GRAU_10_
 62
     7
100
AcDbVertex
100
AcDb2dVertex
 10
1.38837439645856
 20
-8.521793814094032
 30
0.0
  0
VERTEX
  5
237
330
234
100
AcDbEntity
  8
GRAU_10_
 62
     7
100
AcDbVertex
100
AcDb2dVertex
 10
1.38837439645856
 20
-9.02202200855007
 30
0.0
  0
SEQEND
  5
238
330
234
100
AcDbEntity
  8
GRAU_10_
  0
POLYLINE
  5
239
330
1F
100
AcDbEntity
  8
GRAU_10_
 62
     7
100
AcDb2dPolyline
 66
     1
 10
0.0
 20
0.0
 30
0.0
  0
VERTEX
  5
23A
330
239
100
AcDbEntity
  8
GRAU_10_
 62
     7
100
AcDbVertex
100
AcDb2dVertex
 10
11.88886010783789
 20
-9.02202200855007
 30
0.0
  0
VERTEX
  5
23B
330
239
100
AcDbEntity
  8
GRAU_10_
 62
     7
100
AcDbVertex
100
AcDb2dVertex
 10
1.38837439645856
 20
-9.02202200855007
 30
0.0
  0
SEQEND
  5
23C
330
239
100
AcDbEntity
  8
GRAU_10_
  0
POLYLINE
  5
23D
330
1F
100
AcDbEntity
  8
GRAU_10_
 62
     7
100
AcDb2dPolyline
 66
     1
 10
0.0
 20
0.0
 30
0.0
  0
VERTEX
  5
23E
330
23D
100
AcDbEntity
  8
GRAU_10_
 62
     7
100
AcDbVertex
100
AcDb2dVertex
 10
11.88886010783789
 20
-9.02202200855007
 30
0.0
  0
VERTEX
  5
23F
330
23D
100
AcDbEntity
  8
GRAU_10_
 62
     7
100
AcDbVertex
100
AcDb2dVertex
 10
11.88886010783789
 20
-10.91458646188632
 30
0.0
  0
VERTEX
  5
240
330
23D
100
AcDbEntity
  8
GRAU_10_
 62
     7
100
AcDbVertex
100
AcDb2dVertex
 10
11.88886010783789
 20
-12.89827375092066
 30
0.0
  0
VERTEX
  5
241
330
23D
100
AcDbEntity
  8
GRAU_10_
 62
     7
100
AcDbVertex
100
AcDb2dVertex
 10
11.88886010783789
 20
-14.94483407403781
 30
0.0
  0
VERTEX
  5
242
330
23D
100
AcDbEntity
  8
GRAU_10_
 62
     7
100
AcDbVertex
100
AcDb2dVertex
 10
11.88886010783789
 20
-17.0220557672008
 30
0.0
  0
VERTEX
  5
243
330
23D
100
AcDbEntity
  8
GRAU_10_
 62
     7
100
AcDbVertex
100
AcDb2dVertex
 10
11.88886010783789
 20
-19.09876069570011
 30
0.0
  0
VERTEX
  5
244
330
23D
100
AcDbEntity
  8
GRAU_10_
 62
     7
100
AcDbVertex
100
AcDb2dVertex
 10
11.88886010783789
 20
-21.14514876392935
 30
0.0
  0
VERTEX
  5
245
330
23D
100
AcDbEntity
  8
GRAU_10_
 62
     7
100
AcDbVertex
100
AcDb2dVertex
 10
11.88886010783789
 20
-23.1288360529637
 30
0.0
  0
VERTEX
  5
246
330
23D
100
AcDbEntity
  8
GRAU_10_
 62
     7
100
AcDbVertex
100
AcDb2dVertex
 10
11.88886010783789
 20
-25.02157276118784
 30
0.0
  0
SEQEND
  5
247
330
23D
100
AcDbEntity
  8
GRAU_10_
  0
POLYLINE
  5
248
330
1F
100
AcDbEntity
  8
GRAU_10_
 62
     7
100
AcDb2dPolyline
 66
     1
 10
0.0
 20
0.0
 30
0.0
  0
VERTEX
  5
249
330
248
100
AcDbEntity
  8
GRAU_10_
 62
     7
100
AcDbVertex
100
AcDb2dVertex
 10
1.38837439645856
 20
-25.02157276118784
 30
0.0
  0
VERTEX
  5
24A
330
248
100
AcDbEntity
  8
GRAU_10_
 62
     7
100
AcDbVertex
100
AcDb2dVertex
 10
11.88886010783789
 20
-25.02157276118784
 30
0.0
  0
SEQEND
  5
24B
330
248
100
AcDbEntity
  8
GRAU_10_
  0
POLYLINE
  5
24C
330
1F
100
AcDbEntity
  8
GRAU_10_
 62
     7
100
AcDb2dPolyline
 66
     1
 10
0.0
 20
0.0
 30
0.0
  0
VERTEX
  5
24D
330
24C
100
AcDbEntity
  8
GRAU_10_
 62
     7
100
AcDbVertex
100
AcDb2dVertex
 10
1.38837439645856
 20
-25.02157276118784
 30
0.0
  0
VERTEX
  5
24E
330
24C
100
AcDbEntity
  8
GRAU_10_
 62
     7
100
AcDbVertex
100
AcDb2dVertex
 10
1.38837439645856
 20
-25.52145644586809
 30
0.0
  0
VERTEX
  5
24F
330
24C
100
AcDbEntity
  8
GRAU_10_
 62
     7
100
AcDbVertex
100
AcDb2dVertex
 10
1.38837439645856
 20
-26.01221062148973
 30
0.0
  0
SEQEND
  5
250
330
24C
100
AcDbEntity
  8
GRAU_10_
  0
POLYLINE
  5
251
330
1F
100
AcDbEntity
  8
GRAU_10_
 62
     7
100
AcDb2dPolyline
 66
     1
 10
0.0
 20
0.0
 30
0.0
  0
VERTEX
  5
252
330
251
100
AcDbEntity
  8
GRAU_10_
 62
     7
100
AcDbVertex
100
AcDb2dVertex
 10
11.88886010783789
 20
-26.01221062148973
 30
0.0
  0
VERTEX
  5
253
330
251
100
AcDbEntity
  8
GRAU_10_
 62
     7
100
AcDbVertex
100
AcDb2dVertex
 10
1.38837439645856
 20
-26.01221062148973
 30
0.0
  0
SEQEND
  5
254
330
251
100
AcDbEntity
  8
GRAU_10_
  0
POLYLINE
  5
255
330
1F
100
AcDbEntity
  8
GRAU_10_
 62
     7
100
AcDb2dPolyline
 66
     1
 10
0.0
 20
0.0
 30
0.0
  0
VERTEX
  5
256
330
255
100
AcDbEntity
  8
GRAU_10_
 62
     7
100
AcDbVertex
100
AcDb2dVertex
 10
11.88886010783789
 20
-26.01221062148973
 30
0.0
  0
VERTEX
  5
257
330
255
100
AcDbEntity
  8
GRAU_10_
 62
     7
100
AcDbVertex
100
AcDb2dVertex
 10
11.88886010783789
 20
-27.70771548307057
 30
0.0
  0
VERTEX
  5
258
330
255
100
AcDbEntity
  8
GRAU_10_
 62
     7
100
AcDbVertex
100
AcDb2dVertex
 10
11.88886010783789
 20
-29.2428510440183
 30
0.0
  0
VERTEX
  5
259
330
255
100
AcDbEntity
  8
GRAU_10_
 62
     7
100
AcDbVertex
100
AcDb2dVertex
 10
11.88886010783789
 20
-30.59539642379406
 30
0.0
  0
VERTEX
  5
25A
330
255
100
AcDbEntity
  8
GRAU_10_
 62
     7
100
AcDbVertex
100
AcDb2dVertex
 10
11.88886010783789
 20
-31.74416427118638
 30
0.0
  0
VERTEX
  5
25B
330
255
100
AcDbEntity
  8
GRAU_10_
 62
     7
100
AcDbVertex
100
AcDb2dVertex
 10
11.88886010783789
 20
-32.67227360718127
 30
0.0
  0
VERTEX
  5
25C
330
255
100
AcDbEntity
  8
GRAU_10_
 62
     7
100
AcDbVertex
100
AcDb2dVertex
 10
11.88886010783789
 20
-33.36611629563475
 30
0.0
  0
VERTEX
  5
25D
330
255
100
AcDbEntity
  8
GRAU_10_
 62
     7
100
AcDbVertex
100
AcDb2dVertex
 10
11.88886010783789
 20
-33.81484027860926
 30
0.0
  0
VERTEX
  5
25E
330
255
100
AcDbEntity
  8
GRAU_10_
 62
     7
100
AcDbVertex
100
AcDb2dVertex
 10
11.88886010783789
 20
-34.01207212525257
 30
0.0
  0
SEQEND
  5
25F
330
255
100
AcDbEntity
  8
GRAU_10_
  0
POLYLINE
  5
260
330
1F
100
AcDbEntity
  8
GRAU_10_
 62
     7
100
AcDb2dPolyline
 66
     1
 10
0.0
 20
0.0
 30
0.0
  0
VERTEX
  5
261
330
260
100
AcDbEntity
  8
GRAU_10_
 62
     7
100
AcDbVertex
100
AcDb2dVertex
 10
1.38837439645856
 20
-34.01207212525257
 30
0.0
  0
VERTEX
  5
262
330
260
100
AcDbEntity
  8
GRAU_10_
 62
     7
100
AcDbVertex
100
AcDb2dVertex
 10
11.88886010783789
 20
-34.01207212525257
 30
0.0
  0
SEQEND
  5
263
330
260
100
AcDbEntity
  8
GRAU_10_
  0
POLYLINE
  5
264
330
1F
100
AcDbEntity
  8
GRAU_10_
 62
     7
100
AcDb2dPolyline
 66
     1
 10
0.0
 20
0.0
 30
0.0
  0
VERTEX
  5
265
330
264
100
AcDbEntity
  8
GRAU_10_
 62
     7
100
AcDbVertex
100
AcDb2dVertex
 10
1.38837439645856
 20
-34.01207212525257
 30
0.0
  0
VERTEX
  5
266
330
264
100
AcDbEntity
  8
GRAU_10_
 62
     7
100
AcDbVertex
100
AcDb2dVertex
 10
1.38837439645856
 20
-34.01913457565639
 30
0.0
  0
VERTEX
  5
267
330
264
100
AcDbEntity
  8
GRAU_10_
 62
     7
100
AcDbVertex
100
AcDb2dVertex
 10
1.38837439645856
 20
-34.02206290875066
 30
0.0
  0
SEQEND
  5
268
330
264
100
AcDbEntity
  8
GRAU_10_
  0
POLYLINE
  5
269
330
1F
100
AcDbEntity
  8
GRAU_10_
 62
     7
100
AcDb2dPolyline
 66
     1
 10
0.0
 20
0.0
 30
0.0
  0
VERTEX
  5
26A
330
269
100
AcDbEntity
  8
GRAU_10_
 62
     7
100
AcDbVertex
100
AcDb2dVertex
 10
1.38837439645856
 20
-8.031728658023983
 30
0.0
  0
VERTEX
  5
26B
330
269
100
AcDbEntity
  8
GRAU_10_
 62
     7
100
AcDbVertex
100
AcDb2dVertex
 10
0.5544884841439338
 20
-7.045741679695348
 30
0.0
  0
VERTEX
  5
26C
330
269
100
AcDbEntity
  8
GRAU_10_
 62
     7
100
AcDbVertex
100
AcDb2dVertex
 10
-0.0954292078955388
 20
-6.016346469616395
 30
0.0
  0
VERTEX
  5
26D
330
269
100
AcDbEntity
  8
GRAU_10_
 62
     7
100
AcDbVertex
100
AcDb2dVertex
 10
-0.1112766575821625
 20
-5.984307060467351
 30
0.0
  0
SEQEND
  5
26E
330
269
100
AcDbEntity
  8
GRAU_10_
  0
POLYLINE
  5
26F
330
1F
100
AcDbEntity
  8
GRAU_10_
 62
     7
100
AcDb2dPolyline
 66
     1
 10
0.0
 20
0.0
 30
0.0
  0
VERTEX
  5
270
330
26F
100
AcDbEntity
  8
GRAU_10_
 62
     7
100
AcDbVertex
100
AcDb2dVertex
 10
-0.1112766575821625
 20
-13.11634843899964
 30
0.0
  0
VERTEX
  5
271
330
26F
100
AcDbEntity
  8
GRAU_10_
 62
     7
100
AcDbVertex
100
AcDb2dVertex
 10
-0.1112766575821625
 20
-11.1412738943602
 30
0.0
  0
VERTEX
  5
272
330
26F
100
AcDbEntity
  8
GRAU_10_
 62
     7
100
AcDbVertex
100
AcDb2dVertex
 10
-0.1112766575821625
 20
-9.271791596002291
 30
0.0
  0
VERTEX
  5
273
330
26F
100
AcDbEntity
  8
GRAU_10_
 62
     7
100
AcDbVertex
100
AcDb2dVertex
 10
-0.1112766575821625
 20
-7.542180266617627
 30
0.0
  0
VERTEX
  5
274
330
26F
100
AcDbEntity
  8
GRAU_10_
 62
     7
100
AcDbVertex
100
AcDb2dVertex
 10
-0.1112766575821625
 20
-5.984307060467351
 30
0.0
  0
SEQEND
  5
275
330
26F
100
AcDbEntity
  8
GRAU_10_
  0
POLYLINE
  5
276
330
1F
100
AcDbEntity
  8
GRAU_10_
 62
     7
100
AcDb2dPolyline
 66
     1
 10
0.0
 20
0.0
 30
0.0
  0
VERTEX
  5
277
330
276
100
AcDbEntity
  8
GRAU_10_
 62
     7
100
AcDbVertex
100
AcDb2dVertex
 10
-0.1112766575821625
 20
-13.11634843899964
 30
0.0
  0
VERTEX
  5
278
330
276
100
AcDbEntity
  8
GRAU_10_
 62
     7
100
AcDbVertex
100
AcDb2dVertex
 10
-0.0406521535439479
 20
-12.84332444168117
 30
0.0
  0
VERTEX
  5
279
330
276
100
AcDbEntity
  8
GRAU_10_
 62
     7
100
AcDbVertex
100
AcDb2dVertex
 10
0.5861833835171812
 20
-10.90872979569779
 30
0.0
  0
VERTEX
  5
27A
330
276
100
AcDbEntity
  8
GRAU_10_
 62
     7
100
AcDbVertex
100
AcDb2dVertex
 10
1.38837439645856
 20
-9.02202200855007
 30
0.0
  0
SEQEND
  5
27B
330
276
100
AcDbEntity
  8
GRAU_10_
  0
POLYLINE
  5
27C
330
1F
100
AcDbEntity
  8
GRAU_10_
 62
     7
100
AcDb2dPolyline
 66
     1
 10
0.0
 20
0.0
 30
0.0
  0
VERTEX
  5
27D
330
27C
100
AcDbEntity
  8
GRAU_10_
 62
     7
100
AcDbVertex
100
AcDb2dVertex
 10
-0.1112766575821625
 20
-2.078685859710134
 30
0.0
  0
VERTEX
  5
27E
330
27C
100
AcDbEntity
  8
GRAU_10_
 62
     7
100
AcDbVertex
100
AcDb2dVertex
 10
-0.1112766575821625
 20
-1.661312266333075
 30
0.0
  0
VERTEX
  5
27F
330
27C
100
AcDbEntity
  8
GRAU_10_
 62
     7
100
AcDbVertex
100
AcDb2dVertex
 10
-0.1112766575821625
 20
-1.521958062023525
 30
0.0
  0
SEQEND
  5
280
330
27C
100
AcDbEntity
  8
GRAU_10_
  0
POLYLINE
  5
281
330
1F
100
AcDbEntity
  8
GRAU_10_
 62
     7
100
AcDb2dPolyline
 66
     1
 10
0.0
 20
0.0
 30
0.0
  0
VERTEX
  5
282
330
281
100
AcDbEntity
  8
GRAU_10_
 62
     7
100
AcDbVertex
100
AcDb2dVertex
 10
-0.1112766575821625
 20
-2.078685859710134
 30
0.0
  0
VERTEX
  5
283
330
281
100
AcDbEntity
  8
GRAU_10_
 62
     7
100
AcDbVertex
100
AcDb2dVertex
 10
0.7184751374229101
 20
-0.8044303264840542
 30
0.0
  0
VERTEX
  5
284
330
281
100
AcDbEntity
  8
GRAU_10_
 62
     7
100
AcDbVertex
100
AcDb2dVertex
 10
1.38837439645856
 20
-0.0315226444853495
 30
0.0
  0
SEQEND
  5
285
330
281
100
AcDbEntity
  8
GRAU_10_
  0
POLYLINE
  5
286
330
1F
100
AcDbEntity
  8
GRAU_10_
 62
     7
100
AcDb2dPolyline
 66
     1
 10
0.0
 20
0.0
 30
0.0
  0
VERTEX
  5
287
330
286
100
AcDbEntity
  8
GRAU_10_
 62
     7
100
AcDbVertex
100
AcDb2dVertex
 10
-0.1112766575821625
 20
-32.52155058027044
 30
0.0
  0
VERTEX
  5
288
330
286
100
AcDbEntity
  8
GRAU_10_
 62
     7
100
AcDbVertex
100
AcDb2dVertex
 10
-0.1112766575821625
 20
-32.38202412107299
 30
0.0
  0
VERTEX
  5
289
330
286
100
AcDbEntity
  8
GRAU_10_
 62
     7
100
AcDbVertex
100
AcDb2dVertex
 10
-0.1112766575821625
 20
-31.96465052769593
 30
0.0
  0
SEQEND
  5
28A
330
286
100
AcDbEntity
  8
GRAU_10_
  0
POLYLINE
  5
28B
330
1F
100
AcDbEntity
  8
GRAU_10_
 62
     7
100
AcDb2dPolyline
 66
     1
 10
0.0
 20
0.0
 30
0.0
  0
VERTEX
  5
28C
330
28B
100
AcDbEntity
  8
GRAU_10_
 62
     7
100
AcDbVertex
100
AcDb2dVertex
 10
1.38837439645856
 20
-34.01207212525257
 30
0.0
  0
VERTEX
  5
28D
330
28B
100
AcDbEntity
  8
GRAU_10_
 62
     7
100
AcDbVertex
100
AcDb2dVertex
 10
0.5544884841439338
 20
-33.02642965669973
 30
0.0
  0
VERTEX
  5
28E
330
28B
100
AcDbEntity
  8
GRAU_10_
 62
     7
100
AcDbVertex
100
AcDb2dVertex
 10
-0.0954292078955388
 20
-31.99703444662077
 30
0.0
  0
VERTEX
  5
28F
330
28B
100
AcDbEntity
  8
GRAU_10_
 62
     7
100
AcDbVertex
100
AcDb2dVertex
 10
-0.1112766575821625
 20
-31.96465052769593
 30
0.0
  0
SEQEND
  5
290
330
28B
100
AcDbEntity
  8
GRAU_10_
  0
POLYLINE
  5
291
330
1F
100
AcDbEntity
  8
GRAU_10_
 62
     7
100
AcDb2dPolyline
 66
     1
 10
0.0
 20
0.0
 30
0.0
  0
VERTEX
  5
292
330
291
100
AcDbEntity
  8
GRAU_10_
 62
     7
100
AcDbVertex
100
AcDb2dVertex
 10
-0.1112766575821625
 20
-28.05980447393426
 30
0.0
  0
VERTEX
  5
293
330
291
100
AcDbEntity
  8
GRAU_10_
 62
     7
100
AcDbVertex
100
AcDb2dVertex
 10
-0.1112766575821625
 20
-26.50158675800819
 30
0.0
  0
VERTEX
  5
294
330
291
100
AcDbEntity
  8
GRAU_10_
 62
     7
100
AcDbVertex
100
AcDb2dVertex
 10
-0.1112766575821625
 20
-24.77180317373562
 30
0.0
  0
VERTEX
  5
295
330
291
100
AcDbEntity
  8
GRAU_10_
 62
     7
100
AcDbVertex
100
AcDb2dVertex
 10
-0.1112766575821625
 20
-22.90283764004141
 30
0.0
  0
VERTEX
  5
296
330
291
100
AcDbEntity
  8
GRAU_10_
 62
     7
100
AcDbVertex
100
AcDb2dVertex
 10
-0.1112766575821625
 20
-20.92690182096248
 30
0.0
  0
SEQEND
  5
297
330
291
100
AcDbEntity
  8
GRAU_10_
  0
POLYLINE
  5
298
330
1F
100
AcDbEntity
  8
GRAU_10_
 62
     7
100
AcDb2dPolyline
 66
     1
 10
0.0
 20
0.0
 30
0.0
  0
VERTEX
  5
299
330
298
100
AcDbEntity
  8
GRAU_10_
 62
     7
100
AcDbVertex
100
AcDb2dVertex
 10
-0.1112766575821625
 20
-28.05980447393426
 30
0.0
  0
VERTEX
  5
29A
330
298
100
AcDbEntity
  8
GRAU_10_
 62
     7
100
AcDbVertex
100
AcDb2dVertex
 10
0.7184751374229101
 20
-26.78477379371264
 30
0.0
  0
VERTEX
  5
29B
330
298
100
AcDbEntity
  8
GRAU_10_
 62
     7
100
AcDbVertex
100
AcDb2dVertex
 10
1.38837439645856
 20
-26.01221062148973
 30
0.0
  0
SEQEND
  5
29C
330
298
100
AcDbEntity
  8
GRAU_10_
  0
POLYLINE
  5
29D
330
1F
100
AcDbEntity
  8
GRAU_10_
 62
     7
100
AcDb2dPolyline
 66
     1
 10
0.0
 20
0.0
 30
0.0
  0
VERTEX
  5
29E
330
29D
100
AcDbEntity
  8
GRAU_10_
 62
     7
100
AcDbVertex
100
AcDb2dVertex
 10
1.38837439645856
 20
-25.02157276118784
 30
0.0
  0
VERTEX
  5
29F
330
29D
100
AcDbEntity
  8
GRAU_10_
 62
     7
100
AcDbVertex
100
AcDb2dVertex
 10
1.313960284886588
 20
-24.86172022521842
 30
0.0
  0
VERTEX
  5
2A0
330
29D
100
AcDbEntity
  8
GRAU_10_
 62
     7
100
AcDbVertex
100
AcDb2dVertex
 10
0.512113781721005
 20
-22.93522155896625
 30
0.0
  0
VERTEX
  5
2A1
330
29D
100
AcDbEntity
  8
GRAU_10_
 62
     7
100
AcDbVertex
100
AcDb2dVertex
 10
-0.1112766575821625
 20
-20.92690182096248
 30
0.0
  0
SEQEND
  5
2A2
330
29D
100
AcDbEntity
  8
GRAU_10_
  0
POLYLINE
  5
2A3
330
1F
100
AcDbEntity
  8
GRAU_10_
 62
     7
100
AcDb2dPolyline
 66
     1
 10
0.0
 20
0.0
 30
0.0
  0
VERTEX
  5
2A4
330
2A3
100
AcDbEntity
  8
GRAU_10_
 62
     7
100
AcDbVertex
100
AcDb2dVertex
 10
-0.1112766575821625
 20
-5.984307060467351
 30
0.0
  0
VERTEX
  5
2A5
330
2A3
100
AcDbEntity
  8
GRAU_10_
 62
     7
100
AcDbVertex
100
AcDb2dVertex
 10
-0.1112766575821625
 20
-2.078685859710134
 30
0.0
  0
SEQEND
  5
2A6
330
2A3
100
AcDbEntity
  8
GRAU_10_
  0
POLYLINE
  5
2A7
330
1F
100
AcDbEntity
  8
GRAU_10_
 62
     7
100
AcDb2dPolyline
 66
     1
 10
0.0
 20
0.0
 30
0.0
  0
VERTEX
  5
2A8
330
2A7
100
AcDbEntity
  8
GRAU_10_
 62
     7
100
AcDbVertex
100
AcDb2dVertex
 10
-0.1112766575821625
 20
-31.96465052769593
 30
0.0
  0
VERTEX
  5
2A9
330
2A7
100
AcDbEntity
  8
GRAU_10_
 62
     7
100
AcDbVertex
100
AcDb2dVertex
 10
-0.1112766575821625
 20
-28.05980447393426
 30
0.0
  0
SEQEND
  5
2AA
330
2A7
100
AcDbEntity
  8
GRAU_10_
  0
POLYLINE
  5
2AB
330
1F
100
AcDbEntity
  8
GRAU_10_
 62
     7
100
AcDb2dPolyline
 66
     1
 10
0.0
 20
0.0
 30
0.0
  0
VERTEX
  5
2AC
330
2AB
100
AcDbEntity
  8
GRAU_10_
 62
     7
100
AcDbVertex
100
AcDb2dVertex
 10
-0.1112766575821625
 20
-20.92690182096248
 30
0.0
  0
VERTEX
  5
2AD
330
2AB
100
AcDbEntity
  8
GRAU_10_
 62
     7
100
AcDbVertex
100
AcDb2dVertex
 10
-0.1112766575821625
 20
-13.11634843899964
 30
0.0
  0
SEQEND
  5
2AE
330
2AB
100
AcDbEntity
  8
GRAU_10_
  0
POLYLINE
  5
2AF
330
1F
100
AcDbEntity
  8
GRAU_10_
 62
     7
100
AcDb2dPolyline
 66
     1
 10
0.0
 20
0.0
 30
0.0
  0
VERTEX
  5
2B0
330
2AF
100
AcDbEntity
  8
GRAU_10_
 62
     7
100
AcDbVertex
100
AcDb2dVertex
 10
33.38144698065768
 20
-96.86133503352345
 30
0.0
  0
VERTEX
  5
2B1
330
2AF
100
AcDbEntity
  8
GRAU_10_
 62
     7
100
AcDbVertex
100
AcDb2dVertex
 10
34.88850499487802
 20
-96.86133503352345
 30
0.0
  0
SEQEND
  5
2B2
330
2AF
100
AcDbEntity
  8
GRAU_10_
  0
POLYLINE
  5
2B3
330
1F
100
AcDbEntity
  8
GRAU_10_
 62
     7
100
AcDb2dPolyline
 66
     1
 10
0.0
 20
0.0
 30
0.0
  0
VERTEX
  5
2B4
330
2B3
100
AcDbEntity
  8
GRAU_10_
 62
     7
100
AcDbVertex
100
AcDb2dVertex
 10
22.38848454477773
 20
-96.86133503352345
 30
0.0
  0
VERTEX
  5
2B5
330
2B3
100
AcDbEntity
  8
GRAU_10_
 62
     7
100
AcDbVertex
100
AcDb2dVertex
 10
28.3882945451559
 20
-96.86133503352345
 30
0.0
  0
SEQEND
  5
2B6
330
2B3
100
AcDbEntity
  8
GRAU_10_
  0
POLYLINE
  5
2B7
330
1F
100
AcDbEntity
  8
GRAU_10_
 62
     7
100
AcDb2dPolyline
 66
     1
 10
0.0
 20
0.0
 30
0.0
  0
VERTEX
  5
2B8
330
2B7
100
AcDbEntity
  8
GRAU_10_
 62
     7
100
AcDbVertex
100
AcDb2dVertex
 10
34.88850499487802
 20
-64.86119999892051
 30
0.0
  0
VERTEX
  5
2B9
330
2B7
100
AcDbEntity
  8
GRAU_10_
 62
     7
100
AcDbVertex
100
AcDb2dVertex
 10
22.38848454477773
 20
-64.86119999892051
 30
0.0
  0
SEQEND
  5
2BA
330
2B7
100
AcDbEntity
  8
GRAU_10_
  0
POLYLINE
  5
2BB
330
1F
100
AcDbEntity
  8
GRAU_10_
 62
     7
100
AcDb2dPolyline
 66
     1
 10
0.0
 20
0.0
 30
0.0
  0
VERTEX
  5
2BC
330
2BB
100
AcDbEntity
  8
GRAU_10_
 62
     7
100
AcDbVertex
100
AcDb2dVertex
 10
18.88826522268865
 20
-93.36146022121017
 30
0.0
  0
VERTEX
  5
2BD
330
2BB
100
AcDbEntity
  8
GRAU_10_
 62
     7
100
AcDbVertex
100
AcDb2dVertex
 10
22.38848454477773
 20
-93.36146022121017
 30
0.0
  0
SEQEND
  5
2BE
330
2BB
100
AcDbEntity
  8
GRAU_10_
  0
POLYLINE
  5
2BF
330
1F
100
AcDbEntity
  8
GRAU_10_
 62
     7
100
AcDb2dPolyline
 66
     1
 10
0.0
 20
0.0
 30
0.0
  0
VERTEX
  5
2C0
330
2BF
100
AcDbEntity
  8
GRAU_10_
 62
     7
100
AcDbVertex
100
AcDb2dVertex
 10
22.38848454477773
 20
-68.36107481123378
 30
0.0
  0
VERTEX
  5
2C1
330
2BF
100
AcDbEntity
  8
GRAU_10_
 62
     7
100
AcDbVertex
100
AcDb2dVertex
 10
18.88826522268865
 20
-68.36107481123378
 30
0.0
  0
SEQEND
  5
2C2
330
2BF
100
AcDbEntity
  8
GRAU_10_
  0
POLYLINE
  5
2C3
330
1F
100
AcDbEntity
  8
GRAU_10_
 62
     7
100
AcDb2dPolyline
 66
     1
 10
0.0
 20
0.0
 30
0.0
  0
VERTEX
  5
2C4
330
2C3
100
AcDbEntity
  8
GRAU_10_
 62
     7
100
AcDbVertex
100
AcDb2dVertex
 10
34.88850499487802
 20
-91.36106420804971
 30
0.0
  0
VERTEX
  5
2C5
330
2C3
100
AcDbEntity
  8
GRAU_10_
 62
     7
100
AcDbVertex
100
AcDb2dVertex
 10
35.38873318933405
 20
-91.36106420804971
 30
0.0
  0
SEQEND
  5
2C6
330
2C3
100
AcDbEntity
  8
GRAU_10_
  0
POLYLINE
  5
2C7
330
1F
100
AcDbEntity
  8
GRAU_10_
 62
     7
100
AcDb2dPolyline
 66
     1
 10
0.0
 20
0.0
 30
0.0
  0
VERTEX
  5
2C8
330
2C7
100
AcDbEntity
  8
GRAU_10_
 62
     7
100
AcDbVertex
100
AcDb2dVertex
 10
35.6007789563366
 20
-91.44925871065352
 30
0.0
  0
VERTEX
  5
2C9
330
2C7
100
AcDbEntity
  8
GRAU_10_
 62
     7
100
AcDbVertex
100
AcDb2dVertex
 10
36.72870396229325
 20
-92.5771837166102
 30
0.0
  0
SEQEND
  5
2CA
330
2C7
100
AcDbEntity
  8
GRAU_10_
  0
POLYLINE
  5
2CB
330
1F
100
AcDbEntity
  8
GRAU_10_
 62
     7
100
AcDb2dPolyline
 66
     1
 10
0.0
 20
0.0
 30
0.0
  0
VERTEX
  5
2CC
330
2CB
100
AcDbEntity
  8
GRAU_10_
 62
     7
100
AcDbVertex
100
AcDb2dVertex
 10
18.88826522268865
 20
-63.86143262956002
 30
0.0
  0
VERTEX
  5
2CD
330
2CB
100
AcDbEntity
  8
GRAU_10_
 62
     7
100
AcDbVertex
100
AcDb2dVertex
 10
11.88886010783789
 20
-63.86143262956002
 30
0.0
  0
SEQEND
  5
2CE
330
2CB
100
AcDbEntity
  8
GRAU_10_
  0
POLYLINE
  5
2CF
330
1F
100
AcDbEntity
  8
GRAU_10_
 62
     7
100
AcDb2dPolyline
 66
     1
 10
0.0
 20
0.0
 30
0.0
  0
VERTEX
  5
2D0
330
2CF
100
AcDbEntity
  8
GRAU_10_
 62
     7
100
AcDbVertex
100
AcDb2dVertex
 10
11.88886010783789
 20
-97.86110240288393
 30
0.0
  0
VERTEX
  5
2D1
330
2CF
100
AcDbEntity
  8
GRAU_10_
 62
     7
100
AcDbVertex
100
AcDb2dVertex
 10
18.88826522268865
 20
-97.86110240288393
 30
0.0
  0
SEQEND
  5
2D2
330
2CF
100
AcDbEntity
  8
GRAU_10_
  0
SPLINE
  5
2D3
330
1F
100
AcDbEntity
  8
GRAU_10_
 62
     7
100
AcDbSpline
210
0.0
220
0.0
230
1.0
 70
     8
 71
     3
 72
     8
 73
     4
 74
     0
 42
0.0000000001
 43
0.0000000001
 40
0.0
 40
0.0
 40
0.0
 40
0.0
 40
1.0
 40
1.0
 40
1.0
 40
1.0
 10
35.6007789563366
 20
-91.44925871065352
 30
0.0
 10
35.54186778467545
 20
-91.39069204876819
 30
0.0
 10
35.4653866144487
 20
-91.36106420804971
 30
0.0
 10
35.38873318933405
 20
-91.36106420804971
 30
0.0
  0
POLYLINE
  5
2D4
330
1F
100
AcDbEntity
  8
GRAU_10_
 62
     7
100
AcDb2dPolyline
 66
     1
 10
0.0
 20
0.0
 30
0.0
  0
VERTEX
  5
2D5
330
2D4
100
AcDbEntity
  8
GRAU_10_
 62
     7
100
AcDbVertex
100
AcDb2dVertex
 10
36.72870396229325
 20
-92.57890626548917
 30
0.0
  0
VERTEX
  5
2D6
330
2D4
100
AcDbEntity
  8
GRAU_10_
 62
     7
100
AcDbVertex
100
AcDb2dVertex
 10
44.79522810767265
 20
-92.39045941812866
 30
0.0
  0
VERTEX
  5
2D7
330
2D4
100
AcDbEntity
  8
GRAU_10_
 62
     7
100
AcDbVertex
100
AcDb2dVertex
 10
52.86192450793995
 20
-92.20149580610446
 30
0.0
  0
VERTEX
  5
2D8
330
2D4
100
AcDbEntity
  8
GRAU_10_
 62
     7
100
AcDbVertex
100
AcDb2dVertex
 10
53.37334927010936
 20
-91.68920976949556
 30
0.0
  0
VERTEX
  5
2D9
330
2D4
100
AcDbEntity
  8
GRAU_10_
 62
     7
100
AcDbVertex
100
AcDb2dVertex
 10
53.88563530671826
 20
-91.17726824266245
 30
0.0
  0
SEQEND
  5
2DA
330
2D4
100
AcDbEntity
  8
GRAU_10_
  0
POLYLINE
  5
2DB
330
1F
100
AcDbEntity
  8
GRAU_10_
 62
     7
100
AcDb2dPolyline
 66
     1
 10
0.0
 20
0.0
 30
0.0
  0
VERTEX
  5
2DC
330
2DB
100
AcDbEntity
  8
GRAU_10_
 62
     7
100
AcDbVertex
100
AcDb2dVertex
 10
41.29931515778102
 20
-70.69151118960697
 30
0.0
  0
VERTEX
  5
2DD
330
2DB
100
AcDbEntity
  8
GRAU_10_
 62
     7
100
AcDbVertex
100
AcDb2dVertex
 10
38.09382394888557
 20
-70.6167525682592
 30
0.0
  0
VERTEX
  5
2DE
330
2DB
100
AcDbEntity
  8
GRAU_10_
 62
     7
100
AcDbVertex
100
AcDb2dVertex
 10
34.88850499487802
 20
-70.54233845668723
 30
0.0
  0
SEQEND
  5
2DF
330
2DB
100
AcDbEntity
  8
GRAU_10_
  0
POLYLINE
  5
2E0
330
1F
100
AcDbEntity
  8
GRAU_10_
 62
     7
100
AcDb2dPolyline
 66
     1
 10
0.0
 20
0.0
 30
0.0
  0
VERTEX
  5
2E1
330
2E0
100
AcDbEntity
  8
GRAU_10_
 62
     7
100
AcDbVertex
100
AcDb2dVertex
 10
52.86157999816415
 20
-70.96177910871906
 30
0.0
  0
VERTEX
  5
2E2
330
2E0
100
AcDbEntity
  8
GRAU_10_
 62
     7
100
AcDbVertex
100
AcDb2dVertex
 10
44.49998322981534
 20
-70.76661432073054
 30
0.0
  0
SEQEND
  5
2E3
330
2E0
100
AcDbEntity
  8
GRAU_10_
  0
POLYLINE
  5
2E4
330
1F
100
AcDbEntity
  8
GRAU_10_
 62
     7
100
AcDb2dPolyline
 66
     1
 10
0.0
 20
0.0
 30
0.0
  0
VERTEX
  5
2E5
330
2E4
100
AcDbEntity
  8
GRAU_10_
 62
     7
100
AcDbVertex
100
AcDb2dVertex
 10
53.88563530671826
 20
-71.97601588866299
 30
0.0
  0
VERTEX
  5
2E6
330
2E4
100
AcDbEntity
  8
GRAU_10_
 62
     7
100
AcDbVertex
100
AcDb2dVertex
 10
53.37334927010936
 20
-71.46476338138147
 30
0.0
  0
VERTEX
  5
2E7
330
2E4
100
AcDbEntity
  8
GRAU_10_
 62
     7
100
AcDbVertex
100
AcDb2dVertex
 10
52.86157999816415
 20
-70.95437214853945
 30
0.0
  0
SEQEND
  5
2E8
330
2E4
100
AcDbEntity
  8
GRAU_10_
  0
POLYLINE
  5
2E9
330
1F
100
AcDbEntity
  8
GRAU_10_
 62
     7
100
AcDb2dPolyline
 66
     1
 10
0.0
 20
0.0
 30
0.0
  0
VERTEX
  5
2EA
330
2E9
100
AcDbEntity
  8
GRAU_10_
 62
     7
100
AcDbVertex
100
AcDb2dVertex
 10
34.88850499487802
 20
-96.86133503352345
 30
0.0
  0
VERTEX
  5
2EB
330
2E9
100
AcDbEntity
  8
GRAU_10_
 62
     7
100
AcDbVertex
100
AcDb2dVertex
 10
34.88850499487802
 20
-96.75298670903555
 30
0.0
  0
VERTEX
  5
2EC
330
2E9
100
AcDbEntity
  8
GRAU_10_
 62
     7
100
AcDbVertex
100
AcDb2dVertex
 10
34.88850499487802
 20
-96.42983653933874
 30
0.0
  0
VERTEX
  5
2ED
330
2E9
100
AcDbEntity
  8
GRAU_10_
 62
     7
100
AcDbVertex
100
AcDb2dVertex
 10
34.88850499487802
 20
-95.89653540640627
 30
0.0
  0
VERTEX
  5
2EE
330
2E9
100
AcDbEntity
  8
GRAU_10_
 62
     7
100
AcDbVertex
100
AcDb2dVertex
 10
34.88850499487802
 20
-95.15945674109037
 30
0.0
  0
VERTEX
  5
2EF
330
2E9
100
AcDbEntity
  8
GRAU_10_
 62
     7
100
AcDbVertex
100
AcDb2dVertex
 10
34.88850499487802
 20
-94.22928034644072
 30
0.0
  0
VERTEX
  5
2F0
330
2E9
100
AcDbEntity
  8
GRAU_10_
 62
     7
100
AcDbVertex
100
AcDb2dVertex
 10
34.88850499487802
 20
-93.11840857438597
 30
0.0
  0
VERTEX
  5
2F1
330
2E9
100
AcDbEntity
  8
GRAU_10_
 62
     7
100
AcDbVertex
100
AcDb2dVertex
 10
34.88850499487802
 20
-91.84131083550957
 30
0.0
  0
VERTEX
  5
2F2
330
2E9
100
AcDbEntity
  8
GRAU_10_
 62
     7
100
AcDbVertex
100
AcDb2dVertex
 10
34.88850499487802
 20
-90.41572938326502
 30
0.0
  0
VERTEX
  5
2F3
330
2E9
100
AcDbEntity
  8
GRAU_10_
 62
     7
100
AcDbVertex
100
AcDb2dVertex
 10
34.88850499487802
 20
-88.86095676509692
 30
0.0
  0
VERTEX
  5
2F4
330
2E9
100
AcDbEntity
  8
GRAU_10_
 62
     7
100
AcDbVertex
100
AcDb2dVertex
 10
34.88850499487802
 20
-87.19835258710461
 30
0.0
  0
VERTEX
  5
2F5
330
2E9
100
AcDbEntity
  8
GRAU_10_
 62
     7
100
AcDbVertex
100
AcDb2dVertex
 10
34.88850499487802
 20
-85.45030998471483
 30
0.0
  0
VERTEX
  5
2F6
330
2E9
100
AcDbEntity
  8
GRAU_10_
 62
     7
100
AcDbVertex
100
AcDb2dVertex
 10
34.88850499487802
 20
-83.63991111290598
 30
0.0
  0
VERTEX
  5
2F7
330
2E9
100
AcDbEntity
  8
GRAU_10_
 62
     7
100
AcDbVertex
100
AcDb2dVertex
 10
34.88850499487802
 20
-81.79127165598373
 30
0.0
  0
VERTEX
  5
2F8
330
2E9
100
AcDbEntity
  8
GRAU_10_
 62
     7
100
AcDbVertex
100
AcDb2dVertex
 10
34.88850499487802
 20
-79.93074661179652
 30
0.0
  0
VERTEX
  5
2F9
330
2E9
100
AcDbEntity
  8
GRAU_10_
 62
     7
100
AcDbVertex
100
AcDb2dVertex
 10
34.88850499487802
 20
-78.08296842931377
 30
0.0
  0
VERTEX
  5
2FA
330
2E9
100
AcDbEntity
  8
GRAU_10_
 62
     7
100
AcDbVertex
100
AcDb2dVertex
 10
34.88850499487802
 20
-76.27205279284121
 30
0.0
  0
VERTEX
  5
2FB
330
2E9
100
AcDbEntity
  8
GRAU_10_
 62
     7
100
AcDbVertex
100
AcDb2dVertex
 10
34.88850499487802
 20
-74.52366568067565
 30
0.0
  0
VERTEX
  5
2FC
330
2E9
100
AcDbEntity
  8
GRAU_10_
 62
     7
100
AcDbVertex
100
AcDb2dVertex
 10
34.88850499487802
 20
-72.86140601245914
 30
0.0
  0
VERTEX
  5
2FD
330
2E9
100
AcDbEntity
  8
GRAU_10_
 62
     7
100
AcDbVertex
100
AcDb2dVertex
 10
34.88850499487802
 20
-71.30646113940313
 30
0.0
  0
VERTEX
  5
2FE
330
2E9
100
AcDbEntity
  8
GRAU_10_
 62
     7
100
AcDbVertex
100
AcDb2dVertex
 10
34.88850499487802
 20
-69.88156870671017
 30
0.0
  0
VERTEX
  5
2FF
330
2E9
100
AcDbEntity
  8
GRAU_10_
 62
     7
100
AcDbVertex
100
AcDb2dVertex
 10
34.88850499487802
 20
-68.60447096783378
 30
0.0
  0
VERTEX
  5
300
330
2E9
100
AcDbEntity
  8
GRAU_10_
 62
     7
100
AcDbVertex
100
AcDb2dVertex
 10
34.88850499487802
 20
-67.49359919577903
 30
0.0
  0
VERTEX
  5
301
330
2E9
100
AcDbEntity
  8
GRAU_10_
 62
     7
100
AcDbVertex
100
AcDb2dVertex
 10
34.88850499487802
 20
-66.56325054624148
 30
0.0
  0
VERTEX
  5
302
330
2E9
100
AcDbEntity
  8
GRAU_10_
 62
     7
100
AcDbVertex
100
AcDb2dVertex
 10
34.88850499487802
 20
-65.82634413581347
 30
0.0
  0
VERTEX
  5
303
330
2E9
100
AcDbEntity
  8
GRAU_10_
 62
     7
100
AcDbVertex
100
AcDb2dVertex
 10
34.88850499487802
 20
-65.2921817284415
 30
0.0
  0
VERTEX
  5
304
330
2E9
100
AcDbEntity
  8
GRAU_10_
 62
     7
100
AcDbVertex
100
AcDb2dVertex
 10
34.88850499487802
 20
-64.9690315587447
 30
0.0
  0
VERTEX
  5
305
330
2E9
100
AcDbEntity
  8
GRAU_10_
 62
     7
100
AcDbVertex
100
AcDb2dVertex
 10
34.88850499487802
 20
-64.86119999892051
 30
0.0
  0
SEQEND
  5
306
330
2E9
100
AcDbEntity
  8
GRAU_10_
  0
POLYLINE
  5
307
330
1F
100
AcDbEntity
  8
GRAU_10_
 62
     7
100
AcDb2dPolyline
 66
     1
 10
0.0
 20
0.0
 30
0.0
  0
VERTEX
  5
308
330
307
100
AcDbEntity
  8
GRAU_10_
 62
     7
100
AcDbVertex
100
AcDb2dVertex
 10
22.38848454477773
 20
-96.86133503352345
 30
0.0
  0
VERTEX
  5
309
330
307
100
AcDbEntity
  8
GRAU_10_
 62
     7
100
AcDbVertex
100
AcDb2dVertex
 10
22.38848454477773
 20
-96.75298670903555
 30
0.0
  0
VERTEX
  5
30A
330
307
100
AcDbEntity
  8
GRAU_10_
 62
     7
100
AcDbVertex
100
AcDb2dVertex
 10
22.38848454477773
 20
-96.42983653933874
 30
0.0
  0
VERTEX
  5
30B
330
307
100
AcDbEntity
  8
GRAU_10_
 62
     7
100
AcDbVertex
100
AcDb2dVertex
 10
22.38848454477773
 20
-95.89653540640627
 30
0.0
  0
VERTEX
  5
30C
330
307
100
AcDbEntity
  8
GRAU_10_
 62
     7
100
AcDbVertex
100
AcDb2dVertex
 10
22.38848454477773
 20
-95.15945674109037
 30
0.0
  0
VERTEX
  5
30D
330
307
100
AcDbEntity
  8
GRAU_10_
 62
     7
100
AcDbVertex
100
AcDb2dVertex
 10
22.38848454477773
 20
-94.22928034644072
 30
0.0
  0
VERTEX
  5
30E
330
307
100
AcDbEntity
  8
GRAU_10_
 62
     7
100
AcDbVertex
100
AcDb2dVertex
 10
22.38848454477773
 20
-93.11840857438597
 30
0.0
  0
VERTEX
  5
30F
330
307
100
AcDbEntity
  8
GRAU_10_
 62
     7
100
AcDbVertex
100
AcDb2dVertex
 10
22.38848454477773
 20
-91.84131083550957
 30
0.0
  0
VERTEX
  5
310
330
307
100
AcDbEntity
  8
GRAU_10_
 62
     7
100
AcDbVertex
100
AcDb2dVertex
 10
22.38848454477773
 20
-90.41572938326502
 30
0.0
  0
VERTEX
  5
311
330
307
100
AcDbEntity
  8
GRAU_10_
 62
     7
100
AcDbVertex
100
AcDb2dVertex
 10
22.38848454477773
 20
-88.86095676509692
 30
0.0
  0
VERTEX
  5
312
330
307
100
AcDbEntity
  8
GRAU_10_
 62
     7
100
AcDbVertex
100
AcDb2dVertex
 10
22.38848454477773
 20
-87.19835258710461
 30
0.0
  0
VERTEX
  5
313
330
307
100
AcDbEntity
  8
GRAU_10_
 62
     7
100
AcDbVertex
100
AcDb2dVertex
 10
22.38848454477773
 20
-85.45030998471483
 30
0.0
  0
VERTEX
  5
314
330
307
100
AcDbEntity
  8
GRAU_10_
 62
     7
100
AcDbVertex
100
AcDb2dVertex
 10
22.38848454477773
 20
-83.63991111290598
 30
0.0
  0
VERTEX
  5
315
330
307
100
AcDbEntity
  8
GRAU_10_
 62
     7
100
AcDbVertex
100
AcDb2dVertex
 10
22.38848454477773
 20
-81.79127165598373
 30
0.0
  0
VERTEX
  5
316
330
307
100
AcDbEntity
  8
GRAU_10_
 62
     7
100
AcDbVertex
100
AcDb2dVertex
 10
22.38848454477773
 20
-79.93074661179652
 30
0.0
  0
VERTEX
  5
317
330
307
100
AcDbEntity
  8
GRAU_10_
 62
     7
100
AcDbVertex
100
AcDb2dVertex
 10
22.38848454477773
 20
-78.08296842931377
 30
0.0
  0
VERTEX
  5
318
330
307
100
AcDbEntity
  8
GRAU_10_
 62
     7
100
AcDbVertex
100
AcDb2dVertex
 10
22.38848454477773
 20
-76.27205279284121
 30
0.0
  0
VERTEX
  5
319
330
307
100
AcDbEntity
  8
GRAU_10_
 62
     7
100
AcDbVertex
100
AcDb2dVertex
 10
22.38848454477773
 20
-74.52366568067565
 30
0.0
  0
VERTEX
  5
31A
330
307
100
AcDbEntity
  8
GRAU_10_
 62
     7
100
AcDbVertex
100
AcDb2dVertex
 10
22.38848454477773
 20
-72.86140601245914
 30
0.0
  0
VERTEX
  5
31B
330
307
100
AcDbEntity
  8
GRAU_10_
 62
     7
100
AcDbVertex
100
AcDb2dVertex
 10
22.38848454477773
 20
-71.30646113940313
 30
0.0
  0
VERTEX
  5
31C
330
307
100
AcDbEntity
  8
GRAU_10_
 62
     7
100
AcDbVertex
100
AcDb2dVertex
 10
22.38848454477773
 20
-69.88156870671017
 30
0.0
  0
VERTEX
  5
31D
330
307
100
AcDbEntity
  8
GRAU_10_
 62
     7
100
AcDbVertex
100
AcDb2dVertex
 10
22.38848454477773
 20
-68.60447096783378
 30
0.0
  0
VERTEX
  5
31E
330
307
100
AcDbEntity
  8
GRAU_10_
 62
     7
100
AcDbVertex
100
AcDb2dVertex
 10
22.38848454477773
 20
-67.49359919577903
 30
0.0
  0
VERTEX
  5
31F
330
307
100
AcDbEntity
  8
GRAU_10_
 62
     7
100
AcDbVertex
100
AcDb2dVertex
 10
22.38848454477773
 20
-66.56325054624148
 30
0.0
  0
VERTEX
  5
320
330
307
100
AcDbEntity
  8
GRAU_10_
 62
     7
100
AcDbVertex
100
AcDb2dVertex
 10
22.38848454477773
 20
-65.82634413581347
 30
0.0
  0
VERTEX
  5
321
330
307
100
AcDbEntity
  8
GRAU_10_
 62
     7
100
AcDbVertex
100
AcDb2dVertex
 10
22.38848454477773
 20
-65.2921817284415
 30
0.0
  0
VERTEX
  5
322
330
307
100
AcDbEntity
  8
GRAU_10_
 62
     7
100
AcDbVertex
100
AcDb2dVertex
 10
22.38848454477773
 20
-64.9690315587447
 30
0.0
  0
VERTEX
  5
323
330
307
100
AcDbEntity
  8
GRAU_10_
 62
     7
100
AcDbVertex
100
AcDb2dVertex
 10
22.38848454477773
 20
-64.86119999892051
 30
0.0
  0
SEQEND
  5
324
330
307
100
AcDbEntity
  8
GRAU_10_
  0
POLYLINE
  5
325
330
1F
100
AcDbEntity
  8
GRAU_10_
 62
     7
100
AcDb2dPolyline
 66
     1
 10
0.0
 20
0.0
 30
0.0
  0
VERTEX
  5
326
330
325
100
AcDbEntity
  8
GRAU_10_
 62
     7
100
AcDbVertex
100
AcDb2dVertex
 10
28.3882945451559
 20
-96.86133503352345
 30
0.0
  0
VERTEX
  5
327
330
325
100
AcDbEntity
  8
GRAU_10_
 62
     7
100
AcDbVertex
100
AcDb2dVertex
 10
28.52730423968966
 20
-96.84014768231198
 30
0.0
  0
VERTEX
  5
328
330
325
100
AcDbEntity
  8
GRAU_10_
 62
     7
100
AcDbVertex
100
AcDb2dVertex
 10
28.92762459916481
 20
-96.78571513773619
 30
0.0
  0
VERTEX
  5
329
330
325
100
AcDbEntity
  8
GRAU_10_
 62
     7
100
AcDbVertex
100
AcDb2dVertex
 10
29.54963699936479
 20
-96.7216363194381
 30
0.0
  0
VERTEX
  5
32A
330
325
100
AcDbEntity
  8
GRAU_10_
 62
     7
100
AcDbVertex
100
AcDb2dVertex
 10
30.32788458288834
 20
-96.67461073504192
 30
0.0
  0
VERTEX
  5
32B
330
325
100
AcDbEntity
  8
GRAU_10_
 62
     7
100
AcDbVertex
100
AcDb2dVertex
 10
31.16314853430615
 20
-96.6672037748623
 30
0.0
  0
VERTEX
  5
32C
330
325
100
AcDbEntity
  8
GRAU_10_
 62
     7
100
AcDbVertex
100
AcDb2dVertex
 10
31.96120542993797
 20
-96.70113798777822
 30
0.0
  0
VERTEX
  5
32D
330
325
100
AcDbEntity
  8
GRAU_10_
 62
     7
100
AcDbVertex
100
AcDb2dVertex
 10
32.6421290017991
 20
-96.76142719854255
 30
0.0
  0
VERTEX
  5
32E
330
325
100
AcDbEntity
  8
GRAU_10_
 62
     7
100
AcDbVertex
100
AcDb2dVertex
 10
33.13339994208444
 20
-96.82326670329797
 30
0.0
  0
VERTEX
  5
32F
330
325
100
AcDbEntity
  8
GRAU_10_
 62
     7
100
AcDbVertex
100
AcDb2dVertex
 10
33.35681453168825
 20
-96.8563396417744
 30
0.0
  0
SEQEND
  5
330
330
325
100
AcDbEntity
  8
GRAU_10_
  0
POLYLINE
  5
331
330
1F
100
AcDbEntity
  8
GRAU_10_
 62
     7
100
AcDb2dPolyline
 66
     1
 10
0.0
 20
0.0
 30
0.0
  0
VERTEX
  5
332
330
331
100
AcDbEntity
  8
GRAU_10_
 62
     7
100
AcDbVertex
100
AcDb2dVertex
 10
35.8522710926678
 20
-80.93895447066402
 30
0.0
  0
VERTEX
  5
333
330
331
100
AcDbEntity
  8
GRAU_10_
 62
     7
100
AcDbVertex
100
AcDb2dVertex
 10
36.0949782297162
 20
-79.56677203366787
 30
0.0
  0
VERTEX
  5
334
330
331
100
AcDbEntity
  8
GRAU_10_
 62
     7
100
AcDbVertex
100
AcDb2dVertex
 10
36.3473316404869
 20
-78.18201498985518
 30
0.0
  0
VERTEX
  5
335
330
331
100
AcDbEntity
  8
GRAU_10_
 62
     7
100
AcDbVertex
100
AcDb2dVertex
 10
36.57264103385759
 20
-76.81431117994438
 30
0.0
  0
VERTEX
  5
336
330
331
100
AcDbEntity
  8
GRAU_10_
 62
     7
100
AcDbVertex
100
AcDb2dVertex
 10
36.68529573054294
 20
-75.89223076502593
 30
0.0
  0
VERTEX
  5
337
330
331
100
AcDbEntity
  8
GRAU_10_
 62
     7
100
AcDbVertex
100
AcDb2dVertex
 10
36.73077102094803
 20
-75.01803720894316
 30
0.0
  0
VERTEX
  5
338
330
331
100
AcDbEntity
  8
GRAU_10_
 62
     7
100
AcDbVertex
100
AcDb2dVertex
 10
36.68805180874931
 20
-74.22359766595719
 30
0.0
  0
VERTEX
  5
339
330
331
100
AcDbEntity
  8
GRAU_10_
 62
     7
100
AcDbVertex
100
AcDb2dVertex
 10
36.57625838650345
 20
-73.52544860530625
 30
0.0
  0
VERTEX
  5
33A
330
331
100
AcDbEntity
  8
GRAU_10_
 62
     7
100
AcDbVertex
100
AcDb2dVertex
 10
36.32183791707798
 20
-72.58907103469227
 30
0.0
  0
VERTEX
  5
33B
330
331
100
AcDbEntity
  8
GRAU_10_
 62
     7
100
AcDbVertex
100
AcDb2dVertex
 10
36.04037343025251
 20
-71.85147560471268
 30
0.0
  0
VERTEX
  5
33C
330
331
100
AcDbEntity
  8
GRAU_10_
 62
     7
100
AcDbVertex
100
AcDb2dVertex
 10
35.80111139096207
 20
-71.32764849061459
 30
0.0
  0
VERTEX
  5
33D
330
331
100
AcDbEntity
  8
GRAU_10_
 62
     7
100
AcDbVertex
100
AcDb2dVertex
 10
35.6007789563366
 20
-70.93628538531014
 30
0.0
  0
SEQEND
  5
33E
330
331
100
AcDbEntity
  8
GRAU_10_
  0
POLYLINE
  5
33F
330
1F
100
AcDbEntity
  8
GRAU_10_
 62
     7
100
AcDb2dPolyline
 66
     1
 10
0.0
 20
0.0
 30
0.0
  0
VERTEX
  5
340
330
33F
100
AcDbEntity
  8
GRAU_10_
 62
     7
100
AcDbVertex
100
AcDb2dVertex
 10
52.86157999816415
 20
-80.86953575084108
 30
0.0
  0
VERTEX
  5
341
330
33F
100
AcDbEntity
  8
GRAU_10_
 62
     7
100
AcDbVertex
100
AcDb2dVertex
 10
52.86157999816415
 20
-79.63377918506022
 30
0.0
  0
VERTEX
  5
342
330
33F
100
AcDbEntity
  8
GRAU_10_
 62
     7
100
AcDbVertex
100
AcDb2dVertex
 10
52.86157999816415
 20
-78.38734281622969
 30
0.0
  0
VERTEX
  5
343
330
33F
100
AcDbEntity
  8
GRAU_10_
 62
     7
100
AcDbVertex
100
AcDb2dVertex
 10
52.86157999816415
 20
-77.15158625044883
 30
0.0
  0
VERTEX
  5
344
330
33F
100
AcDbEntity
  8
GRAU_10_
 62
     7
100
AcDbVertex
100
AcDb2dVertex
 10
52.86157999816415
 20
-76.24345848145013
 30
0.0
  0
VERTEX
  5
345
330
33F
100
AcDbEntity
  8
GRAU_10_
 62
     7
100
AcDbVertex
100
AcDb2dVertex
 10
52.86157999816415
 20
-75.37994472841703
 30
0.0
  0
VERTEX
  5
346
330
33F
100
AcDbEntity
  8
GRAU_10_
 62
     7
100
AcDbVertex
100
AcDb2dVertex
 10
52.86157999816415
 20
-74.59497920426546
 30
0.0
  0
VERTEX
  5
347
330
33F
100
AcDbEntity
  8
GRAU_10_
 62
     7
100
AcDbVertex
100
AcDb2dVertex
 10
52.86157999816415
 20
-73.90458161356993
 30
0.0
  0
VERTEX
  5
348
330
33F
100
AcDbEntity
  8
GRAU_10_
 62
     7
100
AcDbVertex
100
AcDb2dVertex
 10
52.86157999816415
 20
-73.1266785398222
 30
0.0
  0
VERTEX
  5
349
330
33F
100
AcDbEntity
  8
GRAU_10_
 62
     7
100
AcDbVertex
100
AcDb2dVertex
 10
52.86157999816415
 20
-72.48434006285024
 30
0.0
  0
VERTEX
  5
34A
330
33F
100
AcDbEntity
  8
GRAU_10_
 62
     7
100
AcDbVertex
100
AcDb2dVertex
 10
52.86157999816415
 20
-71.96860892848336
 30
0.0
  0
VERTEX
  5
34B
330
33F
100
AcDbEntity
  8
GRAU_10_
 62
     7
100
AcDbVertex
100
AcDb2dVertex
 10
52.86157999816415
 20
-71.39534466155854
 30
0.0
  0
VERTEX
  5
34C
330
33F
100
AcDbEntity
  8
GRAU_10_
 62
     7
100
AcDbVertex
100
AcDb2dVertex
 10
52.86157999816415
 20
-71.04928459177128
 30
0.0
  0
SEQEND
  5
34D
330
33F
100
AcDbEntity
  8
GRAU_10_
  0
POLYLINE
  5
34E
330
1F
100
AcDbEntity
  8
GRAU_10_
 62
     7
100
AcDb2dPolyline
 66
     1
 10
0.0
 20
0.0
 30
0.0
  0
VERTEX
  5
34F
330
34E
100
AcDbEntity
  8
GRAU_10_
 62
     7
100
AcDbVertex
100
AcDb2dVertex
 10
35.38873318933405
 20
-70.76695883050633
 30
0.0
  0
VERTEX
  5
350
330
34E
100
AcDbEntity
  8
GRAU_10_
 62
     7
100
AcDbVertex
100
AcDb2dVertex
 10
34.88850499487802
 20
-70.73560844090888
 30
0.0
  0
SEQEND
  5
351
330
34E
100
AcDbEntity
  8
GRAU_10_
  0
POLYLINE
  5
352
330
1F
100
AcDbEntity
  8
GRAU_10_
 62
     7
100
AcDb2dPolyline
 66
     1
 10
0.0
 20
0.0
 30
0.0
  0
VERTEX
  5
353
330
352
100
AcDbEntity
  8
GRAU_10_
 62
     7
100
AcDbVertex
100
AcDb2dVertex
 10
35.6007789563366
 20
-70.93628538531014
 30
0.0
  0
VERTEX
  5
354
330
352
100
AcDbEntity
  8
GRAU_10_
 62
     7
100
AcDbVertex
100
AcDb2dVertex
 10
35.49777053337355
 20
-70.81071157203245
 30
0.0
  0
VERTEX
  5
355
330
352
100
AcDbEntity
  8
GRAU_10_
 62
     7
100
AcDbVertex
100
AcDb2dVertex
 10
35.47244906485253
 20
-70.79383059301843
 30
0.0
  0
VERTEX
  5
356
330
352
100
AcDbEntity
  8
GRAU_10_
 62
     7
100
AcDbVertex
100
AcDb2dVertex
 10
35.45160622341686
 20
-70.78280628019296
 30
0.0
  0
VERTEX
  5
357
330
352
100
AcDbEntity
  8
GRAU_10_
 62
     7
100
AcDbVertex
100
AcDb2dVertex
 10
35.42576799023215
 20
-70.77367677113436
 30
0.0
  0
VERTEX
  5
358
330
352
100
AcDbEntity
  8
GRAU_10_
 62
     7
100
AcDbVertex
100
AcDb2dVertex
 10
35.41095406987291
 20
-70.77023167337639
 30
0.0
  0
VERTEX
  5
359
330
352
100
AcDbEntity
  8
GRAU_10_
 62
     7
100
AcDbVertex
100
AcDb2dVertex
 10
35.39751818861686
 20
-70.76833686960951
 30
0.0
  0
VERTEX
  5
35A
330
352
100
AcDbEntity
  8
GRAU_10_
 62
     7
100
AcDbVertex
100
AcDb2dVertex
 10
35.38873318933405
 20
-70.76695883050633
 30
0.0
  0
SEQEND
  5
35B
330
352
100
AcDbEntity
  8
GRAU_10_
  0
POLYLINE
  5
35C
330
1F
100
AcDbEntity
  8
GRAU_10_
 62
     7
100
AcDb2dPolyline
 66
     1
 10
0.0
 20
0.0
 30
0.0
  0
VERTEX
  5
35D
330
35C
100
AcDbEntity
  8
GRAU_10_
 62
     7
100
AcDbVertex
100
AcDb2dVertex
 10
52.86157999816415
 20
-92.18737090529682
 30
0.0
  0
VERTEX
  5
35E
330
35C
100
AcDbEntity
  8
GRAU_10_
 62
     7
100
AcDbVertex
100
AcDb2dVertex
 10
52.86157999816415
 20
-92.12277532233504
 30
0.0
  0
VERTEX
  5
35F
330
35C
100
AcDbEntity
  8
GRAU_10_
 62
     7
100
AcDbVertex
100
AcDb2dVertex
 10
52.86157999816415
 20
-91.85956985362677
 30
0.0
  0
VERTEX
  5
360
330
35C
100
AcDbEntity
  8
GRAU_10_
 62
     7
100
AcDbVertex
100
AcDb2dVertex
 10
52.86157999816415
 20
-91.4609720430306
 30
0.0
  0
VERTEX
  5
361
330
35C
100
AcDbEntity
  8
GRAU_10_
 62
     7
100
AcDbVertex
100
AcDb2dVertex
 10
52.86157999816415
 20
-90.96005482902297
 30
0.0
  0
VERTEX
  5
362
330
35C
100
AcDbEntity
  8
GRAU_10_
 62
     7
100
AcDbVertex
100
AcDb2dVertex
 10
52.86157999816415
 20
-89.72033640082046
 30
0.0
  0
VERTEX
  5
363
330
35C
100
AcDbEntity
  8
GRAU_10_
 62
     7
100
AcDbVertex
100
AcDb2dVertex
 10
52.86157999816415
 20
-88.25461955969566
 30
0.0
  0
VERTEX
  5
364
330
35C
100
AcDbEntity
  8
GRAU_10_
 62
     7
100
AcDbVertex
100
AcDb2dVertex
 10
52.86157999816415
 20
-86.59752753811608
 30
0.0
  0
VERTEX
  5
365
330
35C
100
AcDbEntity
  8
GRAU_10_
 62
     7
100
AcDbVertex
100
AcDb2dVertex
 10
52.86157999816415
 20
-84.80022003778747
 30
0.0
  0
VERTEX
  5
366
330
35C
100
AcDbEntity
  8
GRAU_10_
 62
     7
100
AcDbVertex
100
AcDb2dVertex
 10
52.86157999816415
 20
-82.88784627234294
 30
0.0
  0
VERTEX
  5
367
330
35C
100
AcDbEntity
  8
GRAU_10_
 62
     7
100
AcDbVertex
100
AcDb2dVertex
 10
52.86157999816415
 20
-80.86953575084108
 30
0.0
  0
SEQEND
  5
368
330
35C
100
AcDbEntity
  8
GRAU_10_
  0
POLYLINE
  5
369
330
1F
100
AcDbEntity
  8
GRAU_10_
 62
     7
100
AcDb2dPolyline
 66
     1
 10
0.0
 20
0.0
 30
0.0
  0
VERTEX
  5
36A
330
369
100
AcDbEntity
  8
GRAU_10_
 62
     7
100
AcDbVertex
100
AcDb2dVertex
 10
35.6007789563366
 20
-82.62911943072001
 30
0.0
  0
VERTEX
  5
36B
330
369
100
AcDbEntity
  8
GRAU_10_
 62
     7
100
AcDbVertex
100
AcDb2dVertex
 10
35.8522710926678
 20
-80.93895447066402
 30
0.0
  0
SEQEND
  5
36C
330
369
100
AcDbEntity
  8
GRAU_10_
  0
POLYLINE
  5
36D
330
1F
100
AcDbEntity
  8
GRAU_10_
 62
     7
100
AcDb2dPolyline
 66
     1
 10
0.0
 20
0.0
 30
0.0
  0
VERTEX
  5
36E
330
36D
100
AcDbEntity
  8
GRAU_10_
 62
     7
100
AcDbVertex
100
AcDb2dVertex
 10
35.38873318933405
 20
-83.4042664262614
 30
0.0
  0
VERTEX
  5
36F
330
36D
100
AcDbEntity
  8
GRAU_10_
 62
     7
100
AcDbVertex
100
AcDb2dVertex
 10
35.40320259991749
 20
-83.39720397585758
 30
0.0
  0
VERTEX
  5
370
330
36D
100
AcDbEntity
  8
GRAU_10_
 62
     7
100
AcDbVertex
100
AcDb2dVertex
 10
35.4212893631468
 20
-83.38015074195566
 30
0.0
  0
VERTEX
  5
371
330
36D
100
AcDbEntity
  8
GRAU_10_
 62
     7
100
AcDbVertex
100
AcDb2dVertex
 10
35.45935769337227
 20
-83.31073202213274
 30
0.0
  0
VERTEX
  5
372
330
36D
100
AcDbEntity
  8
GRAU_10_
 62
     7
100
AcDbVertex
100
AcDb2dVertex
 10
35.55220307794934
 20
-82.94882450265887
 30
0.0
  0
VERTEX
  5
373
330
36D
100
AcDbEntity
  8
GRAU_10_
 62
     7
100
AcDbVertex
100
AcDb2dVertex
 10
35.6007789563366
 20
-82.62911943072001
 30
0.0
  0
SEQEND
  5
374
330
36D
100
AcDbEntity
  8
GRAU_10_
  0
POLYLINE
  5
375
330
1F
100
AcDbEntity
  8
GRAU_10_
 62
     7
100
AcDb2dPolyline
 66
     1
 10
0.0
 20
0.0
 30
0.0
  0
VERTEX
  5
376
330
375
100
AcDbEntity
  8
GRAU_10_
 62
     7
100
AcDbVertex
100
AcDb2dVertex
 10
34.88850499487802
 20
-83.51778239738623
 30
0.0
  0
VERTEX
  5
377
330
375
100
AcDbEntity
  8
GRAU_10_
 62
     7
100
AcDbVertex
100
AcDb2dVertex
 10
35.38873318933405
 20
-83.4042664262614
 30
0.0
  0
SEQEND
  5
378
330
375
100
AcDbEntity
  8
GRAU_10_
  0
POLYLINE
  5
379
330
1F
100
AcDbEntity
  8
GRAU_10_
 62
     7
100
AcDb2dPolyline
 66
     1
 10
0.0
 20
0.0
 30
0.0
  0
VERTEX
  5
37A
330
379
100
AcDbEntity
  8
GRAU_10_
 62
     7
100
AcDbVertex
100
AcDb2dVertex
 10
35.38873318933405
 20
-88.4125772918982
 30
0.0
  0
VERTEX
  5
37B
330
379
100
AcDbEntity
  8
GRAU_10_
 62
     7
100
AcDbVertex
100
AcDb2dVertex
 10
34.88850499487802
 20
-88.33041171037081
 30
0.0
  0
SEQEND
  5
37C
330
379
100
AcDbEntity
  8
GRAU_10_
  0
POLYLINE
  5
37D
330
1F
100
AcDbEntity
  8
GRAU_10_
 62
     7
100
AcDb2dPolyline
 66
     1
 10
0.0
 20
0.0
 30
0.0
  0
VERTEX
  5
37E
330
37D
100
AcDbEntity
  8
GRAU_10_
 62
     7
100
AcDbVertex
100
AcDb2dVertex
 10
35.6007789563366
 20
-89.01736420330838
 30
0.0
  0
VERTEX
  5
37F
330
37D
100
AcDbEntity
  8
GRAU_10_
 62
     7
100
AcDbVertex
100
AcDb2dVertex
 10
35.49777053337355
 20
-88.57949227827145
 30
0.0
  0
VERTEX
  5
380
330
37D
100
AcDbEntity
  8
GRAU_10_
 62
     7
100
AcDbVertex
100
AcDb2dVertex
 10
35.47244906485253
 20
-88.51420767575807
 30
0.0
  0
VERTEX
  5
381
330
37D
100
AcDbEntity
  8
GRAU_10_
 62
     7
100
AcDbVertex
100
AcDb2dVertex
 10
35.45160622341686
 20
-88.47114395378355
 30
0.0
  0
VERTEX
  5
382
330
37D
100
AcDbEntity
  8
GRAU_10_
 62
     7
100
AcDbVertex
100
AcDb2dVertex
 10
35.42576799023215
 20
-88.43548719198864
 30
0.0
  0
VERTEX
  5
383
330
37D
100
AcDbEntity
  8
GRAU_10_
 62
     7
100
AcDbVertex
100
AcDb2dVertex
 10
35.41129857964871
 20
-88.42256807539628
 30
0.0
  0
VERTEX
  5
384
330
37D
100
AcDbEntity
  8
GRAU_10_
 62
     7
100
AcDbVertex
100
AcDb2dVertex
 10
35.39717367884106
 20
-88.41429984077718
 30
0.0
  0
VERTEX
  5
385
330
37D
100
AcDbEntity
  8
GRAU_10_
 62
     7
100
AcDbVertex
100
AcDb2dVertex
 10
35.38873318933405
 20
-88.4125772918982
 30
0.0
  0
SEQEND
  5
386
330
37D
100
AcDbEntity
  8
GRAU_10_
  0
POLYLINE
  5
387
330
1F
100
AcDbEntity
  8
GRAU_10_
 62
     7
100
AcDb2dPolyline
 66
     1
 10
0.0
 20
0.0
 30
0.0
  0
VERTEX
  5
388
330
387
100
AcDbEntity
  8
GRAU_10_
 62
     7
100
AcDbVertex
100
AcDb2dVertex
 10
36.72198602166523
 20
-92.56271430602675
 30
0.0
  0
VERTEX
  5
389
330
387
100
AcDbEntity
  8
GRAU_10_
 62
     7
100
AcDbVertex
100
AcDb2dVertex
 10
36.71320102238243
 20
-92.54514430746114
 30
0.0
  0
VERTEX
  5
38A
330
387
100
AcDbEntity
  8
GRAU_10_
 62
     7
100
AcDbVertex
100
AcDb2dVertex
 10
36.60588622722192
 20
-92.33189275624332
 30
0.0
  0
VERTEX
  5
38B
330
387
100
AcDbEntity
  8
GRAU_10_
 62
     7
100
AcDbVertex
100
AcDb2dVertex
 10
36.43897124084868
 20
-91.96326729614141
 30
0.0
  0
VERTEX
  5
38C
330
387
100
AcDbEntity
  8
GRAU_10_
 62
     7
100
AcDbVertex
100
AcDb2dVertex
 10
36.10669156209327
 20
-91.07615462346628
 30
0.0
  0
VERTEX
  5
38D
330
387
100
AcDbEntity
  8
GRAU_10_
 62
     7
100
AcDbVertex
100
AcDb2dVertex
 10
35.78715874504233
 20
-89.94220069643319
 30
0.0
  0
VERTEX
  5
38E
330
387
100
AcDbEntity
  8
GRAU_10_
 62
     7
100
AcDbVertex
100
AcDb2dVertex
 10
35.6007789563366
 20
-89.01736420330838
 30
0.0
  0
SEQEND
  5
38F
330
387
100
AcDbEntity
  8
GRAU_10_
  0
POLYLINE
  5
390
330
1F
100
AcDbEntity
  8
GRAU_10_
 62
     7
100
AcDb2dPolyline
 66
     1
 10
0.0
 20
0.0
 30
0.0
  0
VERTEX
  5
391
330
390
100
AcDbEntity
  8
GRAU_10_
 62
     7
100
AcDbVertex
100
AcDb2dVertex
 10
52.86157999816415
 20
-71.04928459177128
 30
0.0
  0
VERTEX
  5
392
330
390
100
AcDbEntity
  8
GRAU_10_
 62
     7
100
AcDbVertex
100
AcDb2dVertex
 10
52.86157999816415
 20
-70.923021758942
 30
0.0
  0
VERTEX
  5
393
330
390
100
AcDbEntity
  8
GRAU_10_
 62
     7
100
AcDbVertex
100
AcDb2dVertex
 10
52.86157999816415
 20
-70.99312949831652
 30
0.0
  0
SEQEND
  5
394
330
390
100
AcDbEntity
  8
GRAU_10_
  0
POLYLINE
  5
395
330
1F
100
AcDbEntity
  8
GRAU_10_
 62
     7
100
AcDb2dPolyline
 66
     1
 10
0.0
 20
0.0
 30
0.0
  0
VERTEX
  5
396
330
395
100
AcDbEntity
  8
GRAU_10_
 62
     7
100
AcDbVertex
100
AcDb2dVertex
 10
44.5387405795924
 20
-70.76454726207575
 30
0.0
  0
VERTEX
  5
397
330
395
100
AcDbEntity
  8
GRAU_10_
 62
     7
100
AcDbVertex
100
AcDb2dVertex
 10
44.49998322981534
 20
-70.76764785005793
 30
0.0
  0
SEQEND
  5
398
330
395
100
AcDbEntity
  8
GRAU_10_
  0
POLYLINE
  5
399
330
1F
100
AcDbEntity
  8
GRAU_10_
 62
     7
100
AcDb2dPolyline
 66
     1
 10
0.0
 20
0.0
 30
0.0
  0
VERTEX
  5
39A
330
399
100
AcDbEntity
  8
GRAU_10_
 62
     7
100
AcDbVertex
100
AcDb2dVertex
 10
40.91329195400142
 20
-70.64465786009869
 30
0.0
  0
VERTEX
  5
39B
330
399
100
AcDbEntity
  8
GRAU_10_
 62
     7
100
AcDbVertex
100
AcDb2dVertex
 10
40.93861342252244
 20
-70.64810295785665
 30
0.0
  0
VERTEX
  5
39C
330
399
100
AcDbEntity
  8
GRAU_10_
 62
     7
100
AcDbVertex
100
AcDb2dVertex
 10
41.19165585284473
 20
-70.68203717077257
 30
0.0
  0
VERTEX
  5
39D
330
399
100
AcDbEntity
  8
GRAU_10_
 62
     7
100
AcDbVertex
100
AcDb2dVertex
 10
41.6343509147428
 20
-70.73216334315092
 30
0.0
  0
VERTEX
  5
39E
330
399
100
AcDbEntity
  8
GRAU_10_
 62
     7
100
AcDbVertex
100
AcDb2dVertex
 10
42.22242910202686
 20
-70.78039471176238
 30
0.0
  0
VERTEX
  5
39F
330
399
100
AcDbEntity
  8
GRAU_10_
 62
     7
100
AcDbVertex
100
AcDb2dVertex
 10
42.88595493021028
 20
-70.81002255248085
 30
0.0
  0
VERTEX
  5
3A0
330
399
100
AcDbEntity
  8
GRAU_10_
 62
     7
100
AcDbVertex
100
AcDb2dVertex
 10
43.54569115085994
 20
-70.81243412091142
 30
0.0
  0
VERTEX
  5
3A1
330
399
100
AcDbEntity
  8
GRAU_10_
 62
     7
100
AcDbVertex
100
AcDb2dVertex
 10
44.13032424038605
 20
-70.79210804413945
 30
0.0
  0
VERTEX
  5
3A2
330
399
100
AcDbEntity
  8
GRAU_10_
 62
     7
100
AcDbVertex
100
AcDb2dVertex
 10
44.57835920380897
 20
-70.76179118386939
 30
0.0
  0
VERTEX
  5
3A3
330
399
100
AcDbEntity
  8
GRAU_10_
 62
     7
100
AcDbVertex
100
AcDb2dVertex
 10
44.83760281009558
 20
-70.73957030333054
 30
0.0
  0
VERTEX
  5
3A4
330
399
100
AcDbEntity
  8
GRAU_10_
 62
     7
100
AcDbVertex
100
AcDb2dVertex
 10
44.88876251180131
 20
-70.73457491158149
 30
0.0
  0
SEQEND
  5
3A5
330
399
100
AcDbEntity
  8
GRAU_10_
  0
POLYLINE
  5
3A6
330
1F
100
AcDbEntity
  8
GRAU_10_
 62
     7
100
AcDb2dPolyline
 66
     1
 10
0.0
 20
0.0
 30
0.0
  0
VERTEX
  5
3A7
330
3A6
100
AcDbEntity
  8
GRAU_10_
 62
     7
100
AcDbVertex
100
AcDb2dVertex
 10
53.88563530671826
 20
-72.01012235646681
 30
0.0
  0
VERTEX
  5
3A8
330
3A6
100
AcDbEntity
  8
GRAU_10_
 62
     7
100
AcDbVertex
100
AcDb2dVertex
 10
53.88563530671826
 20
-71.94501000884132
 30
0.0
  0
VERTEX
  5
3A9
330
3A6
100
AcDbEntity
  8
GRAU_10_
 62
     7
100
AcDbVertex
100
AcDb2dVertex
 10
53.88563530671826
 20
-72.0645549010426
 30
0.0
  0
VERTEX
  5
3AA
330
3A6
100
AcDbEntity
  8
GRAU_10_
 62
     7
100
AcDbVertex
100
AcDb2dVertex
 10
53.88563530671826
 20
-72.19822469405152
 30
0.0
  0
VERTEX
  5
3AB
330
3A6
100
AcDbEntity
  8
GRAU_10_
 62
     7
100
AcDbVertex
100
AcDb2dVertex
 10
53.88563530671826
 20
-72.37564722858654
 30
0.0
  0
VERTEX
  5
3AC
330
3A6
100
AcDbEntity
  8
GRAU_10_
 62
     7
100
AcDbVertex
100
AcDb2dVertex
 10
53.88563530671826
 20
-72.59871730841456
 30
0.0
  0
VERTEX
  5
3AD
330
3A6
100
AcDbEntity
  8
GRAU_10_
 62
     7
100
AcDbVertex
100
AcDb2dVertex
 10
53.88563530671826
 20
-72.86640140420818
 30
0.0
  0
VERTEX
  5
3AE
330
3A6
100
AcDbEntity
  8
GRAU_10_
 62
     7
100
AcDbVertex
100
AcDb2dVertex
 10
53.88563530671826
 20
-73.21780137552028
 30
0.0
  0
VERTEX
  5
3AF
330
3A6
100
AcDbEntity
  8
GRAU_10_
 62
     7
100
AcDbVertex
100
AcDb2dVertex
 10
53.88563530671826
 20
-73.61433212746167
 30
0.0
  0
VERTEX
  5
3B0
330
3A6
100
AcDbEntity
  8
GRAU_10_
 62
     7
100
AcDbVertex
100
AcDb2dVertex
 10
53.88563530671826
 20
-74.05633816980814
 30
0.0
  0
VERTEX
  5
3B1
330
3A6
100
AcDbEntity
  8
GRAU_10_
 62
     7
100
AcDbVertex
100
AcDb2dVertex
 10
53.88563530671826
 20
-74.54381950255973
 30
0.0
  0
VERTEX
  5
3B2
330
3A6
100
AcDbEntity
  8
GRAU_10_
 62
     7
100
AcDbVertex
100
AcDb2dVertex
 10
53.88563530671826
 20
-75.16118102078646
 30
0.0
  0
VERTEX
  5
3B3
330
3A6
100
AcDbEntity
  8
GRAU_10_
 62
     7
100
AcDbVertex
100
AcDb2dVertex
 10
53.88563530671826
 20
-75.84486067085396
 30
0.0
  0
VERTEX
  5
3B4
330
3A6
100
AcDbEntity
  8
GRAU_10_
 62
     7
100
AcDbVertex
100
AcDb2dVertex
 10
53.88563530671826
 20
-76.56385257294056
 30
0.0
  0
VERTEX
  5
3B5
330
3A6
100
AcDbEntity
  8
GRAU_10_
 62
     7
100
AcDbVertex
100
AcDb2dVertex
 10
53.88563530671826
 20
-77.37310603628576
 30
0.0
  0
VERTEX
  5
3B6
330
3A6
100
AcDbEntity
  8
GRAU_10_
 62
     7
100
AcDbVertex
100
AcDb2dVertex
 10
53.88563530671826
 20
-78.47450378950612
 30
0.0
  0
VERTEX
  5
3B7
330
3A6
100
AcDbEntity
  8
GRAU_10_
 62
     7
100
AcDbVertex
100
AcDb2dVertex
 10
53.88563530671826
 20
-79.55264713286023
 30
0.0
  0
VERTEX
  5
3B8
330
3A6
100
AcDbEntity
  8
GRAU_10_
 62
     7
100
AcDbVertex
100
AcDb2dVertex
 10
53.88563530671826
 20
-80.69073517720287
 30
0.0
  0
VERTEX
  5
3B9
330
3A6
100
AcDbEntity
  8
GRAU_10_
 62
     7
100
AcDbVertex
100
AcDb2dVertex
 10
53.88563530671826
 20
-82.49269355950473
 30
0.0
  0
VERTEX
  5
3BA
330
3A6
100
AcDbEntity
  8
GRAU_10_
 62
     7
100
AcDbVertex
100
AcDb2dVertex
 10
53.88563530671826
 20
-84.26571312063972
 30
0.0
  0
VERTEX
  5
3BB
330
3A6
100
AcDbEntity
  8
GRAU_10_
 62
     7
100
AcDbVertex
100
AcDb2dVertex
 10
53.88563530671826
 20
-85.38261381377089
 30
0.0
  0
VERTEX
  5
3BC
330
3A6
100
AcDbEntity
  8
GRAU_10_
 62
     7
100
AcDbVertex
100
AcDb2dVertex
 10
53.88563530671826
 20
-86.44025882546514
 30
0.0
  0
VERTEX
  5
3BD
330
3A6
100
AcDbEntity
  8
GRAU_10_
 62
     7
100
AcDbVertex
100
AcDb2dVertex
 10
53.88563530671826
 20
-87.43761462639505
 30
0.0
  0
VERTEX
  5
3BE
330
3A6
100
AcDbEntity
  8
GRAU_10_
 62
     7
100
AcDbVertex
100
AcDb2dVertex
 10
53.88563530671826
 20
-88.0351668325135
 30
0.0
  0
VERTEX
  5
3BF
330
3A6
100
AcDbEntity
  8
GRAU_10_
 62
     7
100
AcDbVertex
100
AcDb2dVertex
 10
53.88563530671826
 20
-88.58621021889947
 30
0.0
  0
VERTEX
  5
3C0
330
3A6
100
AcDbEntity
  8
GRAU_10_
 62
     7
100
AcDbVertex
100
AcDb2dVertex
 10
53.88563530671826
 20
-89.09108929532876
 30
0.0
  0
VERTEX
  5
3C1
330
3A6
100
AcDbEntity
  8
GRAU_10_
 62
     7
100
AcDbVertex
100
AcDb2dVertex
 10
53.88563530671826
 20
-89.54894278736187
 30
0.0
  0
VERTEX
  5
3C2
330
3A6
100
AcDbEntity
  8
GRAU_10_
 62
     7
100
AcDbVertex
100
AcDb2dVertex
 10
53.88563530671826
 20
-89.96097647921408
 30
0.0
  0
VERTEX
  5
3C3
330
3A6
100
AcDbEntity
  8
GRAU_10_
 62
     7
100
AcDbVertex
100
AcDb2dVertex
 10
53.88563530671826
 20
-90.50805800317839
 30
0.0
  0
VERTEX
  5
3C4
330
3A6
100
AcDbEntity
  8
GRAU_10_
 62
     7
100
AcDbVertex
100
AcDb2dVertex
 10
53.88563530671826
 20
-90.89304767763062
 30
0.0
  0
VERTEX
  5
3C5
330
3A6
100
AcDbEntity
  8
GRAU_10_
 62
     7
100
AcDbVertex
100
AcDb2dVertex
 10
53.88563530671826
 20
-91.16676069450067
 30
0.0
  0
SEQEND
  5
3C6
330
3A6
100
AcDbEntity
  8
GRAU_10_
  0
POLYLINE
  5
3C7
330
1F
100
AcDbEntity
  8
GRAU_10_
 62
     7
100
AcDb2dPolyline
 66
     1
 10
0.0
 20
0.0
 30
0.0
  0
VERTEX
  5
3C8
330
3C7
100
AcDbEntity
  8
GRAU_10_
 62
     7
100
AcDbVertex
100
AcDb2dVertex
 10
18.88826522268865
 20
-63.86143262956002
 30
0.0
  0
VERTEX
  5
3C9
330
3C7
100
AcDbEntity
  8
GRAU_10_
 62
     7
100
AcDbVertex
100
AcDb2dVertex
 10
18.88826522268865
 20
-63.96823066005683
 30
0.0
  0
VERTEX
  5
3CA
330
3C7
100
AcDbEntity
  8
GRAU_10_
 62
     7
100
AcDbVertex
100
AcDb2dVertex
 10
18.88826522268865
 20
-64.28724671244409
 30
0.0
  0
VERTEX
  5
3CB
330
3C7
100
AcDbEntity
  8
GRAU_10_
 62
     7
100
AcDbVertex
100
AcDb2dVertex
 10
18.88826522268865
 20
-64.81520794385172
 30
0.0
  0
VERTEX
  5
3CC
330
3C7
100
AcDbEntity
  8
GRAU_10_
 62
     7
100
AcDbVertex
100
AcDb2dVertex
 10
18.88826522268865
 20
-65.544879648988
 30
0.0
  0
VERTEX
  5
3CD
330
3C7
100
AcDbEntity
  8
GRAU_10_
 62
     7
100
AcDbVertex
100
AcDb2dVertex
 10
18.88826522268865
 20
-66.46661555413066
 30
0.0
  0
VERTEX
  5
3CE
330
3C7
100
AcDbEntity
  8
GRAU_10_
 62
     7
100
AcDbVertex
100
AcDb2dVertex
 10
18.88826522268865
 20
-67.56973585622998
 30
0.0
  0
VERTEX
  5
3CF
330
3C7
100
AcDbEntity
  8
GRAU_10_
 62
     7
100
AcDbVertex
100
AcDb2dVertex
 10
18.88826522268865
 20
-68.84011565447835
 30
0.0
  0
VERTEX
  5
3D0
330
3C7
100
AcDbEntity
  8
GRAU_10_
 62
     7
100
AcDbVertex
100
AcDb2dVertex
 10
18.88826522268865
 20
-70.26225200896494
 30
0.0
  0
VERTEX
  5
3D1
330
3C7
100
AcDbEntity
  8
GRAU_10_
 62
     7
100
AcDbVertex
100
AcDb2dVertex
 10
18.88826522268865
 20
-71.81685237224515
 30
0.0
  0
VERTEX
  5
3D2
330
3C7
100
AcDbEntity
  8
GRAU_10_
 62
     7
100
AcDbVertex
100
AcDb2dVertex
 10
18.88826522268865
 20
-73.4854854713139
 30
0.0
  0
VERTEX
  5
3D3
330
3C7
100
AcDbEntity
  8
GRAU_10_
 62
     7
100
AcDbVertex
100
AcDb2dVertex
 10
18.88826522268865
 20
-75.24627493540811
 30
0.0
  0
VERTEX
  5
3D4
330
3C7
100
AcDbEntity
  8
GRAU_10_
 62
     7
100
AcDbVertex
100
AcDb2dVertex
 10
18.88826522268865
 20
-77.07855017798003
 30
0.0
  0
VERTEX
  5
3D5
330
3C7
100
AcDbEntity
  8
GRAU_10_
 62
     7
100
AcDbVertex
100
AcDb2dVertex
 10
18.88826522268865
 20
-78.95785100494814
 30
0.0
  0
VERTEX
  5
3D6
330
3C7
100
AcDbEntity
  8
GRAU_10_
 62
     7
100
AcDbVertex
100
AcDb2dVertex
 10
18.88826522268865
 20
-80.86109526133407
 30
0.0
  0
VERTEX
  5
3D7
330
3C7
100
AcDbEntity
  8
GRAU_10_
 62
     7
100
AcDbVertex
100
AcDb2dVertex
 10
18.88826522268865
 20
-82.7646840274958
 30
0.0
  0
VERTEX
  5
3D8
330
3C7
100
AcDbEntity
  8
GRAU_10_
 62
     7
100
AcDbVertex
100
AcDb2dVertex
 10
18.88826522268865
 20
-84.64381259957601
 30
0.0
  0
VERTEX
  5
3D9
330
3C7
100
AcDbEntity
  8
GRAU_10_
 62
     7
100
AcDbVertex
100
AcDb2dVertex
 10
18.88826522268865
 20
-86.47591558726003
 30
0.0
  0
VERTEX
  5
3DA
330
3C7
100
AcDbEntity
  8
GRAU_10_
 62
     7
100
AcDbVertex
100
AcDb2dVertex
 10
18.88826522268865
 20
-88.23687730624215
 30
0.0
  0
VERTEX
  5
3DB
330
3C7
100
AcDbEntity
  8
GRAU_10_
 62
     7
100
AcDbVertex
100
AcDb2dVertex
 10
18.88826522268865
 20
-89.90585491508669
 30
0.0
  0
VERTEX
  5
3DC
330
3C7
100
AcDbEntity
  8
GRAU_10_
 62
     7
100
AcDbVertex
100
AcDb2dVertex
 10
18.88826522268865
 20
-91.46028302347901
 30
0.0
  0
VERTEX
  5
3DD
330
3C7
100
AcDbEntity
  8
GRAU_10_
 62
     7
100
AcDbVertex
100
AcDb2dVertex
 10
18.88826522268865
 20
-92.88224712307769
 30
0.0
  0
VERTEX
  5
3DE
330
3C7
100
AcDbEntity
  8
GRAU_10_
 62
     7
100
AcDbVertex
100
AcDb2dVertex
 10
18.88826522268865
 20
-94.15262692132606
 30
0.0
  0
VERTEX
  5
3DF
330
3C7
100
AcDbEntity
  8
GRAU_10_
 62
     7
100
AcDbVertex
100
AcDb2dVertex
 10
18.88826522268865
 20
-95.2554027136496
 30
0.0
  0
VERTEX
  5
3E0
330
3C7
100
AcDbEntity
  8
GRAU_10_
 62
     7
100
AcDbVertex
100
AcDb2dVertex
 10
18.88826522268865
 20
-96.17799989323174
 30
0.0
  0
VERTEX
  5
3E1
330
3C7
100
AcDbEntity
  8
GRAU_10_
 62
     7
100
AcDbVertex
100
AcDb2dVertex
 10
18.88826522268865
 20
-96.90715483370434
 30
0.0
  0
VERTEX
  5
3E2
330
3C7
100
AcDbEntity
  8
GRAU_10_
 62
     7
100
AcDbVertex
100
AcDb2dVertex
 10
18.88826522268865
 20
-97.43494381022407
 30
0.0
  0
VERTEX
  5
3E3
330
3C7
100
AcDbEntity
  8
GRAU_10_
 62
     7
100
AcDbVertex
100
AcDb2dVertex
 10
18.88826522268865
 20
-97.75447662727501
 30
0.0
  0
VERTEX
  5
3E4
330
3C7
100
AcDbEntity
  8
GRAU_10_
 62
     7
100
AcDbVertex
100
AcDb2dVertex
 10
18.88826522268865
 20
-97.86110240288393
 30
0.0
  0
SEQEND
  5
3E5
330
3C7
100
AcDbEntity
  8
GRAU_10_
  0
POLYLINE
  5
3E6
330
1F
100
AcDbEntity
  8
GRAU_10_
 62
     7
100
AcDb2dPolyline
 66
     1
 10
0.0
 20
0.0
 30
0.0
  0
VERTEX
  5
3E7
330
3E6
100
AcDbEntity
  8
GRAU_10_
 62
     7
100
AcDbVertex
100
AcDb2dVertex
 10
1.38837439645856
 20
-80.28920903351244
 30
0.0
  0
VERTEX
  5
3E8
330
3E6
100
AcDbEntity
  8
GRAU_10_
 62
     7
100
AcDbVertex
100
AcDb2dVertex
 10
11.88886010783789
 20
-80.28920903351244
 30
0.0
  0
SEQEND
  5
3E9
330
3E6
100
AcDbEntity
  8
GRAU_10_
  0
POLYLINE
  5
3EA
330
1F
100
AcDbEntity
  8
GRAU_10_
 62
     7
100
AcDb2dPolyline
 66
     1
 10
0.0
 20
0.0
 30
0.0
  0
VERTEX
  5
3EB
330
3EA
100
AcDbEntity
  8
GRAU_10_
 62
     7
100
AcDbVertex
100
AcDb2dVertex
 10
1.38837439645856
 20
-80.28920903351244
 30
0.0
  0
VERTEX
  5
3EC
330
3EA
100
AcDbEntity
  8
GRAU_10_
 62
     7
100
AcDbVertex
100
AcDb2dVertex
 10
1.38837439645856
 20
-80.86109526133407
 30
0.0
  0
VERTEX
  5
3ED
330
3EA
100
AcDbEntity
  8
GRAU_10_
 62
     7
100
AcDbVertex
100
AcDb2dVertex
 10
1.38837439645856
 20
-81.43332599893151
 30
0.0
  0
SEQEND
  5
3EE
330
3EA
100
AcDbEntity
  8
GRAU_10_
  0
POLYLINE
  5
3EF
330
1F
100
AcDbEntity
  8
GRAU_10_
 62
     7
100
AcDb2dPolyline
 66
     1
 10
0.0
 20
0.0
 30
0.0
  0
VERTEX
  5
3F0
330
3EF
100
AcDbEntity
  8
GRAU_10_
 62
     7
100
AcDbVertex
100
AcDb2dVertex
 10
11.88886010783789
 20
-81.43332599893151
 30
0.0
  0
VERTEX
  5
3F1
330
3EF
100
AcDbEntity
  8
GRAU_10_
 62
     7
100
AcDbVertex
100
AcDb2dVertex
 10
1.38837439645856
 20
-81.43332599893151
 30
0.0
  0
SEQEND
  5
3F2
330
3EF
100
AcDbEntity
  8
GRAU_10_
  0
POLYLINE
  5
3F3
330
1F
100
AcDbEntity
  8
GRAU_10_
 62
     7
100
AcDb2dPolyline
 66
     1
 10
0.0
 20
0.0
 30
0.0
  0
VERTEX
  5
3F4
330
3F3
100
AcDbEntity
  8
GRAU_10_
 62
     7
100
AcDbVertex
100
AcDb2dVertex
 10
11.88886010783789
 20
-81.43332599893151
 30
0.0
  0
VERTEX
  5
3F5
330
3F3
100
AcDbEntity
  8
GRAU_10_
 62
     7
100
AcDbVertex
100
AcDb2dVertex
 10
11.88886010783789
 20
-83.50434651613018
 30
0.0
  0
VERTEX
  5
3F6
330
3F3
100
AcDbEntity
  8
GRAU_10_
 62
     7
100
AcDbVertex
100
AcDb2dVertex
 10
11.88886010783789
 20
-85.53678193843967
 30
0.0
  0
VERTEX
  5
3F7
330
3F3
100
AcDbEntity
  8
GRAU_10_
 62
     7
100
AcDbVertex
100
AcDb2dVertex
 10
11.88886010783789
 20
-87.49859285671096
 30
0.0
  0
VERTEX
  5
3F8
330
3F3
100
AcDbEntity
  8
GRAU_10_
 62
     7
100
AcDbVertex
100
AcDb2dVertex
 10
11.88886010783789
 20
-89.36152946932874
 30
0.0
  0
VERTEX
  5
3F9
330
3F3
100
AcDbEntity
  8
GRAU_10_
 62
     7
100
AcDbVertex
100
AcDb2dVertex
 10
11.88886010783789
 20
-91.09648070023826
 30
0.0
  0
VERTEX
  5
3FA
330
3F3
100
AcDbEntity
  8
GRAU_10_
 62
     7
100
AcDbVertex
100
AcDb2dVertex
 10
11.88886010783789
 20
-92.67812508091846
 30
0.0
  0
VERTEX
  5
3FB
330
3F3
100
AcDbEntity
  8
GRAU_10_
 62
     7
100
AcDbVertex
100
AcDb2dVertex
 10
11.88886010783789
 20
-94.08320820150314
 30
0.0
  0
VERTEX
  5
3FC
330
3F3
100
AcDbEntity
  8
GRAU_10_
 62
     7
100
AcDbVertex
100
AcDb2dVertex
 10
11.88886010783789
 20
-95.28933692656553
 30
0.0
  0
SEQEND
  5
3FD
330
3F3
100
AcDbEntity
  8
GRAU_10_
  0
POLYLINE
  5
3FE
330
1F
100
AcDbEntity
  8
GRAU_10_
 62
     7
100
AcDb2dPolyline
 66
     1
 10
0.0
 20
0.0
 30
0.0
  0
VERTEX
  5
3FF
330
3FE
100
AcDbEntity
  8
GRAU_10_
 62
     7
100
AcDbVertex
100
AcDb2dVertex
 10
1.38837439645856
 20
-95.28933692656553
 30
0.0
  0
VERTEX
  5
400
330
3FE
100
AcDbEntity
  8
GRAU_10_
 62
     7
100
AcDbVertex
100
AcDb2dVertex
 10
11.88886010783789
 20
-95.28933692656553
 30
0.0
  0
SEQEND
  5
401
330
3FE
100
AcDbEntity
  8
GRAU_10_
  0
POLYLINE
  5
402
330
1F
100
AcDbEntity
  8
GRAU_10_
 62
     7
100
AcDb2dPolyline
 66
     1
 10
0.0
 20
0.0
 30
0.0
  0
VERTEX
  5
403
330
402
100
AcDbEntity
  8
GRAU_10_
 62
     7
100
AcDbVertex
100
AcDb2dVertex
 10
1.38837439645856
 20
-95.28933692656553
 30
0.0
  0
VERTEX
  5
404
330
402
100
AcDbEntity
  8
GRAU_10_
 62
     7
100
AcDbVertex
100
AcDb2dVertex
 10
1.38837439645856
 20
-95.58354827509545
 30
0.0
  0
VERTEX
  5
405
330
402
100
AcDbEntity
  8
GRAU_10_
 62
     7
100
AcDbVertex
100
AcDb2dVertex
 10
1.38837439645856
 20
-95.86156766416296
 30
0.0
  0
SEQEND
  5
406
330
402
100
AcDbEntity
  8
GRAU_10_
  0
POLYLINE
  5
407
330
1F
100
AcDbEntity
  8
GRAU_10_
 62
     7
100
AcDb2dPolyline
 66
     1
 10
0.0
 20
0.0
 30
0.0
  0
VERTEX
  5
408
330
407
100
AcDbEntity
  8
GRAU_10_
 62
     7
100
AcDbVertex
100
AcDb2dVertex
 10
11.88886010783789
 20
-95.86156766416296
 30
0.0
  0
VERTEX
  5
409
330
407
100
AcDbEntity
  8
GRAU_10_
 62
     7
100
AcDbVertex
100
AcDb2dVertex
 10
1.38837439645856
 20
-95.86156766416296
 30
0.0
  0
SEQEND
  5
40A
330
407
100
AcDbEntity
  8
GRAU_10_
  0
POLYLINE
  5
40B
330
1F
100
AcDbEntity
  8
GRAU_10_
 62
     7
100
AcDb2dPolyline
 66
     1
 10
0.0
 20
0.0
 30
0.0
  0
VERTEX
  5
40C
330
40B
100
AcDbEntity
  8
GRAU_10_
 62
     7
100
AcDbVertex
100
AcDb2dVertex
 10
11.88886010783789
 20
-95.86156766416296
 30
0.0
  0
VERTEX
  5
40D
330
40B
100
AcDbEntity
  8
GRAU_10_
 62
     7
100
AcDbVertex
100
AcDb2dVertex
 10
11.88886010783789
 20
-96.72645945629924
 30
0.0
  0
VERTEX
  5
40E
330
40B
100
AcDbEntity
  8
GRAU_10_
 62
     7
100
AcDbVertex
100
AcDb2dVertex
 10
11.88886010783789
 20
-97.35346724824826
 30
0.0
  0
VERTEX
  5
40F
330
40B
100
AcDbEntity
  8
GRAU_10_
 62
     7
100
AcDbVertex
100
AcDb2dVertex
 10
11.88886010783789
 20
-97.73415055050303
 30
0.0
  0
VERTEX
  5
410
330
40B
100
AcDbEntity
  8
GRAU_10_
 62
     7
100
AcDbVertex
100
AcDb2dVertex
 10
11.88886010783789
 20
-97.86110240288393
 30
0.0
  0
SEQEND
  5
411
330
40B
100
AcDbEntity
  8
GRAU_10_
  0
POLYLINE
  5
412
330
1F
100
AcDbEntity
  8
GRAU_10_
 62
     7
100
AcDb2dPolyline
 66
     1
 10
0.0
 20
0.0
 30
0.0
  0
VERTEX
  5
413
330
412
100
AcDbEntity
  8
GRAU_10_
 62
     7
100
AcDbVertex
100
AcDb2dVertex
 10
11.88886010783789
 20
-63.86143262956002
 30
0.0
  0
VERTEX
  5
414
330
412
100
AcDbEntity
  8
GRAU_10_
 62
     7
100
AcDbVertex
100
AcDb2dVertex
 10
11.88886010783789
 20
-63.98872899171671
 30
0.0
  0
VERTEX
  5
415
330
412
100
AcDbEntity
  8
GRAU_10_
 62
     7
100
AcDbVertex
100
AcDb2dVertex
 10
11.88886010783789
 20
-64.36872327441988
 30
0.0
  0
VERTEX
  5
416
330
412
100
AcDbEntity
  8
GRAU_10_
 62
     7
100
AcDbVertex
100
AcDb2dVertex
 10
11.88886010783789
 20
-64.9959033212568
 30
0.0
  0
VERTEX
  5
417
330
412
100
AcDbEntity
  8
GRAU_10_
 62
     7
100
AcDbVertex
100
AcDb2dVertex
 10
11.88886010783789
 20
-65.86096736828098
 30
0.0
  0
SEQEND
  5
418
330
412
100
AcDbEntity
  8
GRAU_10_
  0
POLYLINE
  5
419
330
1F
100
AcDbEntity
  8
GRAU_10_
 62
     7
100
AcDb2dPolyline
 66
     1
 10
0.0
 20
0.0
 30
0.0
  0
VERTEX
  5
41A
330
419
100
AcDbEntity
  8
GRAU_10_
 62
     7
100
AcDbVertex
100
AcDb2dVertex
 10
1.38837439645856
 20
-65.86096736828098
 30
0.0
  0
VERTEX
  5
41B
330
419
100
AcDbEntity
  8
GRAU_10_
 62
     7
100
AcDbVertex
100
AcDb2dVertex
 10
11.88886010783789
 20
-65.86096736828098
 30
0.0
  0
SEQEND
  5
41C
330
419
100
AcDbEntity
  8
GRAU_10_
  0
POLYLINE
  5
41D
330
1F
100
AcDbEntity
  8
GRAU_10_
 62
     7
100
AcDb2dPolyline
 66
     1
 10
0.0
 20
0.0
 30
0.0
  0
VERTEX
  5
41E
330
41D
100
AcDbEntity
  8
GRAU_10_
 62
     7
100
AcDbVertex
100
AcDb2dVertex
 10
1.38837439645856
 20
-65.86096736828098
 30
0.0
  0
VERTEX
  5
41F
330
41D
100
AcDbEntity
  8
GRAU_10_
 62
     7
100
AcDbVertex
100
AcDb2dVertex
 10
1.38837439645856
 20
-66.1386422475727
 30
0.0
  0
VERTEX
  5
420
330
41D
100
AcDbEntity
  8
GRAU_10_
 62
     7
100
AcDbVertex
100
AcDb2dVertex
 10
1.38837439645856
 20
-66.43285359610263
 30
0.0
  0
SEQEND
  5
421
330
41D
100
AcDbEntity
  8
GRAU_10_
  0
POLYLINE
  5
422
330
1F
100
AcDbEntity
  8
GRAU_10_
 62
     7
100
AcDb2dPolyline
 66
     1
 10
0.0
 20
0.0
 30
0.0
  0
VERTEX
  5
423
330
422
100
AcDbEntity
  8
GRAU_10_
 62
     7
100
AcDbVertex
100
AcDb2dVertex
 10
11.88886010783789
 20
-66.43285359610263
 30
0.0
  0
VERTEX
  5
424
330
422
100
AcDbEntity
  8
GRAU_10_
 62
     7
100
AcDbVertex
100
AcDb2dVertex
 10
1.38837439645856
 20
-66.43285359610263
 30
0.0
  0
SEQEND
  5
425
330
422
100
AcDbEntity
  8
GRAU_10_
  0
POLYLINE
  5
426
330
1F
100
AcDbEntity
  8
GRAU_10_
 62
     7
100
AcDb2dPolyline
 66
     1
 10
0.0
 20
0.0
 30
0.0
  0
VERTEX
  5
427
330
426
100
AcDbEntity
  8
GRAU_10_
 62
     7
100
AcDbVertex
100
AcDb2dVertex
 10
11.88886010783789
 20
-66.43285359610263
 30
0.0
  0
VERTEX
  5
428
330
426
100
AcDbEntity
  8
GRAU_10_
 62
     7
100
AcDbVertex
100
AcDb2dVertex
 10
11.88886010783789
 20
-67.63932683094082
 30
0.0
  0
VERTEX
  5
429
330
426
100
AcDbEntity
  8
GRAU_10_
 62
     7
100
AcDbVertex
100
AcDb2dVertex
 10
11.88886010783789
 20
-69.04440995152548
 30
0.0
  0
VERTEX
  5
42A
330
426
100
AcDbEntity
  8
GRAU_10_
 62
     7
100
AcDbVertex
100
AcDb2dVertex
 10
11.88886010783789
 20
-70.6262265870936
 30
0.0
  0
VERTEX
  5
42B
330
426
100
AcDbEntity
  8
GRAU_10_
 62
     7
100
AcDbVertex
100
AcDb2dVertex
 10
11.88886010783789
 20
-72.3611778180031
 30
0.0
  0
VERTEX
  5
42C
330
426
100
AcDbEntity
  8
GRAU_10_
 62
     7
100
AcDbVertex
100
AcDb2dVertex
 10
11.88886010783789
 20
-74.22359766595719
 30
0.0
  0
VERTEX
  5
42D
330
426
100
AcDbEntity
  8
GRAU_10_
 62
     7
100
AcDbVertex
100
AcDb2dVertex
 10
11.88886010783789
 20
-76.18575309400427
 30
0.0
  0
VERTEX
  5
42E
330
426
100
AcDbEntity
  8
GRAU_10_
 62
     7
100
AcDbVertex
100
AcDb2dVertex
 10
11.88886010783789
 20
-78.21767175165007
 30
0.0
  0
VERTEX
  5
42F
330
426
100
AcDbEntity
  8
GRAU_10_
 62
     7
100
AcDbVertex
100
AcDb2dVertex
 10
11.88886010783789
 20
-80.28920903351244
 30
0.0
  0
SEQEND
  5
430
330
426
100
AcDbEntity
  8
GRAU_10_
  0
POLYLINE
  5
431
330
1F
100
AcDbEntity
  8
GRAU_10_
 62
     7
100
AcDb2dPolyline
 66
     1
 10
0.0
 20
0.0
 30
0.0
  0
VERTEX
  5
432
330
431
100
AcDbEntity
  8
GRAU_10_
 62
     7
100
AcDbVertex
100
AcDb2dVertex
 10
1.38837439645856
 20
-95.28933692656553
 30
0.0
  0
VERTEX
  5
433
330
431
100
AcDbEntity
  8
GRAU_10_
 62
     7
100
AcDbVertex
100
AcDb2dVertex
 10
0.5544884841439338
 20
-93.58194647771971
 30
0.0
  0
VERTEX
  5
434
330
431
100
AcDbEntity
  8
GRAU_10_
 62
     7
100
AcDbVertex
100
AcDb2dVertex
 10
-0.0954292078955388
 20
-91.79893613308664
 30
0.0
  0
VERTEX
  5
435
330
431
100
AcDbEntity
  8
GRAU_10_
 62
     7
100
AcDbVertex
100
AcDb2dVertex
 10
-0.1112766575821625
 20
-91.74278103963186
 30
0.0
  0
SEQEND
  5
436
330
431
100
AcDbEntity
  8
GRAU_10_
  0
POLYLINE
  5
437
330
1F
100
AcDbEntity
  8
GRAU_10_
 62
     7
100
AcDb2dPolyline
 66
     1
 10
0.0
 20
0.0
 30
0.0
  0
VERTEX
  5
438
330
437
100
AcDbEntity
  8
GRAU_10_
 62
     7
100
AcDbVertex
100
AcDb2dVertex
 10
-0.1112766575821625
 20
-95.86156766416296
 30
0.0
  0
VERTEX
  5
439
330
437
100
AcDbEntity
  8
GRAU_10_
 62
     7
100
AcDbVertex
100
AcDb2dVertex
 10
-0.1112766575821625
 20
-95.20252046306489
 30
0.0
  0
VERTEX
  5
43A
330
437
100
AcDbEntity
  8
GRAU_10_
 62
     7
100
AcDbVertex
100
AcDb2dVertex
 10
-0.1112766575821625
 20
-94.2849186752318
 30
0.0
  0
VERTEX
  5
43B
330
437
100
AcDbEntity
  8
GRAU_10_
 62
     7
100
AcDbVertex
100
AcDb2dVertex
 10
-0.1112766575821625
 20
-93.1242652405745
 30
0.0
  0
VERTEX
  5
43C
330
437
100
AcDbEntity
  8
GRAU_10_
 62
     7
100
AcDbVertex
100
AcDb2dVertex
 10
-0.1112766575821625
 20
-91.74278103963186
 30
0.0
  0
SEQEND
  5
43D
330
437
100
AcDbEntity
  8
GRAU_10_
  0
POLYLINE
  5
43E
330
1F
100
AcDbEntity
  8
GRAU_10_
 62
     7
100
AcDb2dPolyline
 66
     1
 10
0.0
 20
0.0
 30
0.0
  0
VERTEX
  5
43F
330
43E
100
AcDbEntity
  8
GRAU_10_
 62
     7
100
AcDbVertex
100
AcDb2dVertex
 10
-0.1112766575821625
 20
-95.86156766416296
 30
0.0
  0
VERTEX
  5
440
330
43E
100
AcDbEntity
  8
GRAU_10_
 62
     7
100
AcDbVertex
100
AcDb2dVertex
 10
-0.0406521535439479
 20
-95.86156766416296
 30
0.0
  0
VERTEX
  5
441
330
43E
100
AcDbEntity
  8
GRAU_10_
 62
     7
100
AcDbVertex
100
AcDb2dVertex
 10
0.5861833835171812
 20
-95.86156766416296
 30
0.0
  0
VERTEX
  5
442
330
43E
100
AcDbEntity
  8
GRAU_10_
 62
     7
100
AcDbVertex
100
AcDb2dVertex
 10
1.38837439645856
 20
-95.86156766416296
 30
0.0
  0
SEQEND
  5
443
330
43E
100
AcDbEntity
  8
GRAU_10_
  0
POLYLINE
  5
444
330
1F
100
AcDbEntity
  8
GRAU_10_
 62
     7
100
AcDb2dPolyline
 66
     1
 10
0.0
 20
0.0
 30
0.0
  0
VERTEX
  5
445
330
444
100
AcDbEntity
  8
GRAU_10_
 62
     7
100
AcDbVertex
100
AcDb2dVertex
 10
-0.1112766575821625
 20
-84.97902061142568
 30
0.0
  0
VERTEX
  5
446
330
444
100
AcDbEntity
  8
GRAU_10_
 62
     7
100
AcDbVertex
100
AcDb2dVertex
 10
-0.1112766575821625
 20
-82.93917822893657
 30
0.0
  0
VERTEX
  5
447
330
444
100
AcDbEntity
  8
GRAU_10_
 62
     7
100
AcDbVertex
100
AcDb2dVertex
 10
-0.1112766575821625
 20
-80.86109526133407
 30
0.0
  0
VERTEX
  5
448
330
444
100
AcDbEntity
  8
GRAU_10_
 62
     7
100
AcDbVertex
100
AcDb2dVertex
 10
-0.1112766575821625
 20
-78.78318454861949
 30
0.0
  0
VERTEX
  5
449
330
444
100
AcDbEntity
  8
GRAU_10_
 62
     7
100
AcDbVertex
100
AcDb2dVertex
 10
-0.1112766575821625
 20
-76.74299765635458
 30
0.0
  0
SEQEND
  5
44A
330
444
100
AcDbEntity
  8
GRAU_10_
  0
POLYLINE
  5
44B
330
1F
100
AcDbEntity
  8
GRAU_10_
 62
     7
100
AcDb2dPolyline
 66
     1
 10
0.0
 20
0.0
 30
0.0
  0
VERTEX
  5
44C
330
44B
100
AcDbEntity
  8
GRAU_10_
 62
     7
100
AcDbVertex
100
AcDb2dVertex
 10
-0.1112766575821625
 20
-84.97902061142568
 30
0.0
  0
VERTEX
  5
44D
330
44B
100
AcDbEntity
  8
GRAU_10_
 62
     7
100
AcDbVertex
100
AcDb2dVertex
 10
0.7184751374229101
 20
-82.77140196812384
 30
0.0
  0
VERTEX
  5
44E
330
44B
100
AcDbEntity
  8
GRAU_10_
 62
     7
100
AcDbVertex
100
AcDb2dVertex
 10
1.38837439645856
 20
-81.43332599893151
 30
0.0
  0
SEQEND
  5
44F
330
44B
100
AcDbEntity
  8
GRAU_10_
  0
POLYLINE
  5
450
330
1F
100
AcDbEntity
  8
GRAU_10_
 62
     7
100
AcDb2dPolyline
 66
     1
 10
0.0
 20
0.0
 30
0.0
  0
VERTEX
  5
451
330
450
100
AcDbEntity
  8
GRAU_10_
 62
     7
100
AcDbVertex
100
AcDb2dVertex
 10
1.38837439645856
 20
-80.28920903351244
 30
0.0
  0
VERTEX
  5
452
330
450
100
AcDbEntity
  8
GRAU_10_
 62
     7
100
AcDbVertex
100
AcDb2dVertex
 10
0.5544884841439338
 20
-78.58216309444242
 30
0.0
  0
VERTEX
  5
453
330
450
100
AcDbEntity
  8
GRAU_10_
 62
     7
100
AcDbVertex
100
AcDb2dVertex
 10
-0.0954292078955388
 20
-76.79880824003355
 30
0.0
  0
VERTEX
  5
454
330
450
100
AcDbEntity
  8
GRAU_10_
 62
     7
100
AcDbVertex
100
AcDb2dVertex
 10
-0.1112766575821625
 20
-76.74299765635458
 30
0.0
  0
SEQEND
  5
455
330
450
100
AcDbEntity
  8
GRAU_10_
  0
POLYLINE
  5
456
330
1F
100
AcDbEntity
  8
GRAU_10_
 62
     7
100
AcDb2dPolyline
 66
     1
 10
0.0
 20
0.0
 30
0.0
  0
VERTEX
  5
457
330
456
100
AcDbEntity
  8
GRAU_10_
 62
     7
100
AcDbVertex
100
AcDb2dVertex
 10
-0.1112766575821625
 20
-69.97923722814839
 30
0.0
  0
VERTEX
  5
458
330
456
100
AcDbEntity
  8
GRAU_10_
 62
     7
100
AcDbVertex
100
AcDb2dVertex
 10
-0.1112766575821625
 20
-68.59775302720575
 30
0.0
  0
VERTEX
  5
459
330
456
100
AcDbEntity
  8
GRAU_10_
 62
     7
100
AcDbVertex
100
AcDb2dVertex
 10
-0.1112766575821625
 20
-67.43813312187585
 30
0.0
  0
VERTEX
  5
45A
330
456
100
AcDbEntity
  8
GRAU_10_
 62
     7
100
AcDbVertex
100
AcDb2dVertex
 10
-0.1112766575821625
 20
-66.51984231449116
 30
0.0
  0
VERTEX
  5
45B
330
456
100
AcDbEntity
  8
GRAU_10_
 62
     7
100
AcDbVertex
100
AcDb2dVertex
 10
-0.1112766575821625
 20
-65.86096736828098
 30
0.0
  0
SEQEND
  5
45C
330
456
100
AcDbEntity
  8
GRAU_10_
  0
POLYLINE
  5
45D
330
1F
100
AcDbEntity
  8
GRAU_10_
 62
     7
100
AcDb2dPolyline
 66
     1
 10
0.0
 20
0.0
 30
0.0
  0
VERTEX
  5
45E
330
45D
100
AcDbEntity
  8
GRAU_10_
 62
     7
100
AcDbVertex
100
AcDb2dVertex
 10
-0.1112766575821625
 20
-69.97923722814839
 30
0.0
  0
VERTEX
  5
45F
330
45D
100
AcDbEntity
  8
GRAU_10_
 62
     7
100
AcDbVertex
100
AcDb2dVertex
 10
0.7184751374229101
 20
-67.77161858484654
 30
0.0
  0
VERTEX
  5
460
330
45D
100
AcDbEntity
  8
GRAU_10_
 62
     7
100
AcDbVertex
100
AcDb2dVertex
 10
1.38837439645856
 20
-66.43285359610263
 30
0.0
  0
SEQEND
  5
461
330
45D
100
AcDbEntity
  8
GRAU_10_
  0
POLYLINE
  5
462
330
1F
100
AcDbEntity
  8
GRAU_10_
 62
     7
100
AcDb2dPolyline
 66
     1
 10
0.0
 20
0.0
 30
0.0
  0
VERTEX
  5
463
330
462
100
AcDbEntity
  8
GRAU_10_
 62
     7
100
AcDbVertex
100
AcDb2dVertex
 10
1.38837439645856
 20
-65.86096736828098
 30
0.0
  0
VERTEX
  5
464
330
462
100
AcDbEntity
  8
GRAU_10_
 62
     7
100
AcDbVertex
100
AcDb2dVertex
 10
1.313960284886588
 20
-65.86096736828098
 30
0.0
  0
VERTEX
  5
465
330
462
100
AcDbEntity
  8
GRAU_10_
 62
     7
100
AcDbVertex
100
AcDb2dVertex
 10
0.512113781721005
 20
-65.86096736828098
 30
0.0
  0
VERTEX
  5
466
330
462
100
AcDbEntity
  8
GRAU_10_
 62
     7
100
AcDbVertex
100
AcDb2dVertex
 10
-0.1112766575821625
 20
-65.86096736828098
 30
0.0
  0
SEQEND
  5
467
330
462
100
AcDbEntity
  8
GRAU_10_
  0
POLYLINE
  5
468
330
1F
100
AcDbEntity
  8
GRAU_10_
 62
     7
100
AcDb2dPolyline
 66
     1
 10
0.0
 20
0.0
 30
0.0
  0
VERTEX
  5
469
330
468
100
AcDbEntity
  8
GRAU_10_
 62
     7
100
AcDbVertex
100
AcDb2dVertex
 10
-0.1112766575821625
 20
-91.74278103963186
 30
0.0
  0
VERTEX
  5
46A
330
468
100
AcDbEntity
  8
GRAU_10_
 62
     7
100
AcDbVertex
100
AcDb2dVertex
 10
-0.1112766575821625
 20
-84.97902061142568
 30
0.0
  0
SEQEND
  5
46B
330
468
100
AcDbEntity
  8
GRAU_10_
  0
POLYLINE
  5
46C
330
1F
100
AcDbEntity
  8
GRAU_10_
 62
     7
100
AcDb2dPolyline
 66
     1
 10
0.0
 20
0.0
 30
0.0
  0
VERTEX
  5
46D
330
46C
100
AcDbEntity
  8
GRAU_10_
 62
     7
100
AcDbVertex
100
AcDb2dVertex
 10
-0.1112766575821625
 20
-76.74299765635458
 30
0.0
  0
VERTEX
  5
46E
330
46C
100
AcDbEntity
  8
GRAU_10_
 62
     7
100
AcDbVertex
100
AcDb2dVertex
 10
-0.1112766575821625
 20
-69.97923722814839
 30
0.0
  0
SEQEND
  5
46F
330
46C
100
AcDbEntity
  8
GRAU_10_
  0
POLYLINE
  5
471
330
1F
100
AcDbEntity
  8
STANDARDEBENE
 62
     7
100
AcDb2dPolyline
 66
     1
 10
0.0
 20
0.0
 30
0.0
  0
VERTEX
  5
472
330
471
100
AcDbEntity
  8
STANDARDEBENE
 62
     7
100
AcDbVertex
100
AcDb2dVertex
 10
109.9528787686658
 20
-19.85943828065805
 30
0.0
  0
VERTEX
  5
473
330
471
100
AcDbEntity
  8
STANDARDEBENE
 62
     7
100
AcDbVertex
100
AcDb2dVertex
 10
109.7360098648021
 20
-19.98501209393575
 30
0.0
  0
SEQEND
  5
474
330
471
100
AcDbEntity
  8
STANDARDEBENE
  0
SPLINE
  5
475
330
1F
100
AcDbEntity
  8
STANDARDEBENE
 62
     7
100
AcDbSpline
210
0.0
220
0.0
230
1.0
 70
     8
 71
     3
 72
     8
 73
     4
 74
     0
 42
0.0000000001
 43
0.0000000001
 40
0.0
 40
0.0
 40
0.0
 40
0.0
 40
1.0
 40
1.0
 40
1.0
 40
1.0
 10
109.9528787686658
 20
-14.18467325374356
 30
0.0
 10
109.0519857049588
 20
-16.0419254550607
 30
0.0
 10
109.1146864841537
 20
-18.11759685423262
 30
0.0
 10
109.9528787686658
 20
-19.85943828065805
 30
0.0
  0
POLYLINE
  5
476
330
1F
100
AcDbEntity
  8
STANDARDEBENE
 62
     7
100
AcDb2dPolyline
 66
     1
 10
0.0
 20
0.0
 30
0.0
  0
VERTEX
  5
477
330
476
100
AcDbEntity
  8
STANDARDEBENE
 62
     7
100
AcDbVertex
100
AcDb2dVertex
 10
109.9528787686658
 20
-14.18467325374356
 30
0.0
  0
VERTEX
  5
478
330
476
100
AcDbEntity
  8
STANDARDEBENE
 62
     7
100
AcDbVertex
100
AcDb2dVertex
 10
109.7360098648021
 20
-14.05927169535375
 30
0.0
  0
SEQEND
  5
479
330
476
100
AcDbEntity
  8
STANDARDEBENE
  0
POLYLINE
  5
47A
330
1F
100
AcDbEntity
  8
STANDARDEBENE
 62
     7
100
AcDb2dPolyline
 66
     1
 10
0.0
 20
0.0
 30
0.0
  0
VERTEX
  5
47B
330
47A
100
AcDbEntity
  8
STANDARDEBENE
 62
     7
100
AcDbVertex
100
AcDb2dVertex
 10
110.4193450050938
 20
-13.37610880994995
 30
0.0
  0
VERTEX
  5
47C
330
47A
100
AcDbEntity
  8
STANDARDEBENE
 62
     7
100
AcDbVertex
100
AcDb2dVertex
 10
110.2023038463422
 20
-13.25036274178435
 30
0.0
  0
SEQEND
  5
47D
330
47A
100
AcDbEntity
  8
STANDARDEBENE
  0
SPLINE
  5
47E
330
1F
100
AcDbEntity
  8
STANDARDEBENE
 62
     7
100
AcDbSpline
210
0.0
220
0.0
230
1.0
 70
     8
 71
     3
 72
     8
 73
     4
 74
     0
 42
0.0000000001
 43
0.0000000001
 40
0.0
 40
0.0
 40
0.0
 40
0.0
 40
1.0
 40
1.0
 40
1.0
 40
1.0
 10
115.3346382312656
 20
-10.5387262964927
 30
0.0
 10
113.2749865366682
 20
-10.68721000986085
 30
0.0
 10
111.5086849161613
 20
-11.77930599913471
 30
0.0
 10
110.4193450050938
 20
-13.37610880994995
 30
0.0
  0
POLYLINE
  5
47F
330
1F
100
AcDbEntity
  8
STANDARDEBENE
 62
     7
100
AcDb2dPolyline
 66
     1
 10
0.0
 20
0.0
 30
0.0
  0
VERTEX
  5
480
330
47F
100
AcDbEntity
  8
STANDARDEBENE
 62
     7
100
AcDbVertex
100
AcDb2dVertex
 10
115.3346382312656
 20
-10.5387262964927
 30
0.0
  0
VERTEX
  5
481
330
47F
100
AcDbEntity
  8
STANDARDEBENE
 62
     7
100
AcDbVertex
100
AcDb2dVertex
 10
115.3346382312656
 20
-10.28792317971309
 30
0.0
  0
SEQEND
  5
482
330
47F
100
AcDbEntity
  8
STANDARDEBENE
  0
POLYLINE
  5
483
330
1F
100
AcDbEntity
  8
STANDARDEBENE
 62
     7
100
AcDb2dPolyline
 66
     1
 10
0.0
 20
0.0
 30
0.0
  0
VERTEX
  5
484
330
483
100
AcDbEntity
  8
STANDARDEBENE
 62
     7
100
AcDbVertex
100
AcDb2dVertex
 10
116.2672261943458
 20
-10.5387262964927
 30
0.0
  0
VERTEX
  5
485
330
483
100
AcDbEntity
  8
STANDARDEBENE
 62
     7
100
AcDbVertex
100
AcDb2dVertex
 10
116.2672261943458
 20
-10.28792317971309
 30
0.0
  0
SEQEND
  5
486
330
483
100
AcDbEntity
  8
STANDARDEBENE
  0
SPLINE
  5
487
330
1F
100
AcDbEntity
  8
STANDARDEBENE
 62
     7
100
AcDbSpline
210
0.0
220
0.0
230
1.0
 70
     8
 71
     3
 72
     8
 73
     4
 74
     0
 42
0.0000000001
 43
0.0000000001
 40
0.0
 40
0.0
 40
0.0
 40
0.0
 40
1.0
 40
1.0
 40
1.0
 40
1.0
 10
121.1825194205177
 20
-13.37610880994995
 30
0.0
 10
120.0241052994031
 20
-11.66647904756146
 30
0.0
 10
118.1952751545891
 20
-10.6832481474392
 30
0.0
 10
116.2672261943458
 20
-10.5387262964927
 30
0.0
  0
POLYLINE
  5
488
330
1F
100
AcDbEntity
  8
STANDARDEBENE
 62
     7
100
AcDb2dPolyline
 66
     1
 10
0.0
 20
0.0
 30
0.0
  0
VERTEX
  5
489
330
488
100
AcDbEntity
  8
STANDARDEBENE
 62
     7
100
AcDbVertex
100
AcDb2dVertex
 10
121.1825194205177
 20
-13.37610880994995
 30
0.0
  0
VERTEX
  5
48A
330
488
100
AcDbEntity
  8
STANDARDEBENE
 62
     7
100
AcDbVertex
100
AcDb2dVertex
 10
121.3995605792693
 20
-13.25036274178435
 30
0.0
  0
SEQEND
  5
48B
330
488
100
AcDbEntity
  8
STANDARDEBENE
  0
POLYLINE
  5
48C
330
1F
100
AcDbEntity
  8
STANDARDEBENE
 62
     7
100
AcDb2dPolyline
 66
     1
 10
0.0
 20
0.0
 30
0.0
  0
VERTEX
  5
48D
330
48C
100
AcDbEntity
  8
STANDARDEBENE
 62
     7
100
AcDbVertex
100
AcDb2dVertex
 10
121.6489856569457
 20
-14.18467325374356
 30
0.0
  0
VERTEX
  5
48E
330
48C
100
AcDbEntity
  8
STANDARDEBENE
 62
     7
100
AcDbVertex
100
AcDb2dVertex
 10
121.8658545608094
 20
-14.05927169535375
 30
0.0
  0
SEQEND
  5
48F
330
48C
100
AcDbEntity
  8
STANDARDEBENE
  0
SPLINE
  5
490
330
1F
100
AcDbEntity
  8
STANDARDEBENE
 62
     7
100
AcDbSpline
210
0.0
220
0.0
230
1.0
 70
     8
 71
     3
 72
     8
 73
     4
 74
     0
 42
0.0000000001
 43
0.0000000001
 40
0.0
 40
0.0
 40
0.0
 40
0.0
 40
1.0
 40
1.0
 40
1.0
 40
1.0
 10
122.3013149174157
 20
-17.0220557672008
 30
0.0
 10
122.3013149174157
 20
-15.98973222402758
 30
0.0
 10
122.0599858194705
 20
-15.01287475475755
 30
0.0
 10
121.6489856569457
 20
-14.18467325374356
 30
0.0
  0
SPLINE
  5
491
330
1F
100
AcDbEntity
  8
STANDARDEBENE
 62
     7
100
AcDbSpline
210
0.0
220
0.0
230
1.0
 70
     8
 71
     3
 72
     8
 73
     4
 74
     0
 42
0.0000000001
 43
0.0000000001
 40
0.0
 40
0.0
 40
0.0
 40
0.0
 40
1.0
 40
1.0
 40
1.0
 40
1.0
 10
121.6489856569457
 20
-19.85943828065805
 30
0.0
 10
122.099776698575
 20
-18.93046767022368
 30
0.0
 10
122.3088941324832
 20
-17.94706451521352
 30
0.0
 10
122.3013149174157
 20
-17.0220557672008
 30
0.0
  0
POLYLINE
  5
492
330
1F
100
AcDbEntity
  8
STANDARDEBENE
 62
     7
100
AcDb2dPolyline
 66
     1
 10
0.0
 20
0.0
 30
0.0
  0
VERTEX
  5
493
330
492
100
AcDbEntity
  8
STANDARDEBENE
 62
     7
100
AcDbVertex
100
AcDb2dVertex
 10
121.6489856569457
 20
-19.85943828065805
 30
0.0
  0
VERTEX
  5
494
330
492
100
AcDbEntity
  8
STANDARDEBENE
 62
     7
100
AcDbVertex
100
AcDb2dVertex
 10
121.8658545608094
 20
-19.98501209393575
 30
0.0
  0
SEQEND
  5
495
330
492
100
AcDbEntity
  8
STANDARDEBENE
  0
POLYLINE
  5
496
330
1F
100
AcDbEntity
  8
STANDARDEBENE
 62
     7
100
AcDb2dPolyline
 66
     1
 10
0.0
 20
0.0
 30
0.0
  0
VERTEX
  5
497
330
496
100
AcDbEntity
  8
STANDARDEBENE
 62
     7
100
AcDbVertex
100
AcDb2dVertex
 10
121.1825194205177
 20
-20.66731370490007
 30
0.0
  0
VERTEX
  5
498
330
496
100
AcDbEntity
  8
STANDARDEBENE
 62
     7
100
AcDbVertex
100
AcDb2dVertex
 10
121.3995605792693
 20
-20.79271526328987
 30
0.0
  0
SEQEND
  5
499
330
496
100
AcDbEntity
  8
STANDARDEBENE
  0
SPLINE
  5
49A
330
1F
100
AcDbEntity
  8
STANDARDEBENE
 62
     7
100
AcDbSpline
210
0.0
220
0.0
230
1.0
 70
     8
 71
     3
 72
     8
 73
     4
 74
     0
 42
0.0000000001
 43
0.0000000001
 40
0.0
 40
0.0
 40
0.0
 40
0.0
 40
1.0
 40
1.0
 40
1.0
 40
1.0
 10
116.2672261943458
 20
-23.50504072813311
 30
0.0
 10
118.3268778889432
 20
-23.35690152454076
 30
0.0
 10
120.0931795094502
 20
-22.26463328037901
 30
0.0
 10
121.1825194205177
 20
-20.66731370490007
 30
0.0
  0
POLYLINE
  5
49B
330
1F
100
AcDbEntity
  8
STANDARDEBENE
 62
     7
100
AcDb2dPolyline
 66
     1
 10
0.0
 20
0.0
 30
0.0
  0
VERTEX
  5
49C
330
49B
100
AcDbEntity
  8
STANDARDEBENE
 62
     7
100
AcDbVertex
100
AcDb2dVertex
 10
116.2672261943458
 20
-23.50504072813311
 30
0.0
  0
VERTEX
  5
49D
330
49B
100
AcDbEntity
  8
STANDARDEBENE
 62
     7
100
AcDbVertex
100
AcDb2dVertex
 10
116.2672261943458
 20
-23.75584384491272
 30
0.0
  0
SEQEND
  5
49E
330
49B
100
AcDbEntity
  8
STANDARDEBENE
  0
POLYLINE
  5
49F
330
1F
100
AcDbEntity
  8
STANDARDEBENE
 62
     7
100
AcDb2dPolyline
 66
     1
 10
0.0
 20
0.0
 30
0.0
  0
VERTEX
  5
4A0
330
49F
100
AcDbEntity
  8
STANDARDEBENE
 62
     7
100
AcDbVertex
100
AcDb2dVertex
 10
115.3346382312656
 20
-23.50504072813311
 30
0.0
  0
VERTEX
  5
4A1
330
49F
100
AcDbEntity
  8
STANDARDEBENE
 62
     7
100
AcDbVertex
100
AcDb2dVertex
 10
115.3346382312656
 20
-23.75584384491272
 30
0.0
  0
SEQEND
  5
4A2
330
49F
100
AcDbEntity
  8
STANDARDEBENE
  0
SPLINE
  5
4A3
330
1F
100
AcDbEntity
  8
STANDARDEBENE
 62
     7
100
AcDbSpline
210
0.0
220
0.0
230
1.0
 70
     8
 71
     3
 72
     8
 73
     4
 74
     0
 42
0.0000000001
 43
0.0000000001
 40
0.0
 40
0.0
 40
0.0
 40
0.0
 40
1.0
 40
1.0
 40
1.0
 40
1.0
 10
110.4193450050938
 20
-20.66731370490007
 30
0.0
 10
111.5777591262084
 20
-22.37677121240066
 30
0.0
 10
113.4065892710224
 20
-23.36034662229872
 30
0.0
 10
115.3346382312656
 20
-23.50504072813311
 30
0.0
  0
POLYLINE
  5
4A4
330
1F
100
AcDbEntity
  8
STANDARDEBENE
 62
     7
100
AcDb2dPolyline
 66
     1
 10
0.0
 20
0.0
 30
0.0
  0
VERTEX
  5
4A5
330
4A4
100
AcDbEntity
  8
STANDARDEBENE
 62
     7
100
AcDbVertex
100
AcDb2dVertex
 10
110.4193450050938
 20
-20.66731370490007
 30
0.0
  0
VERTEX
  5
4A6
330
4A4
100
AcDbEntity
  8
STANDARDEBENE
 62
     7
100
AcDbVertex
100
AcDb2dVertex
 10
110.2023038463422
 20
-20.79271526328987
 30
0.0
  0
SEQEND
  5
4A7
330
4A4
100
AcDbEntity
  8
STANDARDEBENE
  0
SPLINE
  5
4A8
330
1F
100
AcDbEntity
  8
STANDARDEBENE
 62
     7
100
AcDbSpline
210
0.0
220
0.0
230
1.0
 70
     8
 71
     3
 72
     8
 73
     4
 74
     0
 42
0.0000000001
 43
0.0000000001
 40
0.0
 40
0.0
 40
0.0
 40
0.0
 40
1.0
 40
1.0
 40
1.0
 40
1.0
 10
121.6489856569457
 20
-14.18467325374356
 30
0.0
 10
121.5053250804387
 20
-13.88856710144675
 30
0.0
 10
121.3430609760387
 20
-13.60882516350026
 30
0.0
 10
121.1825194205177
 20
-13.37610880994995
 30
0.0
  0
SPLINE
  5
4A9
330
1F
100
AcDbEntity
  8
STANDARDEBENE
 62
     7
100
AcDbSpline
210
0.0
220
0.0
230
1.0
 70
     8
 71
     3
 72
     8
 73
     4
 74
     0
 42
0.0000000001
 43
0.0000000001
 40
0.0
 40
0.0
 40
0.0
 40
0.0
 40
1.0
 40
1.0
 40
1.0
 40
1.0
 10
116.2672261943458
 20
-10.5387262964927
 30
0.0
 10
115.9399419073395
 20
-10.51461061218697
 30
0.0
 10
115.6161027180911
 20
-10.51633316106595
 30
0.0
 10
115.3346382312656
 20
-10.5387262964927
 30
0.0
  0
SPLINE
  5
4AA
330
1F
100
AcDbEntity
  8
STANDARDEBENE
 62
     7
100
AcDbSpline
210
0.0
220
0.0
230
1.0
 70
     8
 71
     3
 72
     8
 73
     4
 74
     0
 42
0.0000000001
 43
0.0000000001
 40
0.0
 40
0.0
 40
0.0
 40
0.0
 40
1.0
 40
1.0
 40
1.0
 40
1.0
 10
110.4193450050938
 20
-13.37610880994995
 30
0.0
 10
110.2352045299307
 20
-13.64758251327733
 30
0.0
 10
110.0746629744097
 20
-13.9288747452149
 30
0.0
 10
109.9528787686658
 20
-14.18467325374356
 30
0.0
  0
SPLINE
  5
4AB
330
1F
100
AcDbEntity
  8
STANDARDEBENE
 62
     7
100
AcDbSpline
210
0.0
220
0.0
230
1.0
 70
     8
 71
     3
 72
     8
 73
     4
 74
     0
 42
0.0000000001
 43
0.0000000001
 40
0.0
 40
0.0
 40
0.0
 40
0.0
 40
1.0
 40
1.0
 40
1.0
 40
1.0
 10
109.9528787686658
 20
-19.85943828065805
 30
0.0
 10
110.0965393451728
 20
-20.15502766829117
 30
0.0
 10
110.2588034495728
 20
-20.43476960623765
 30
0.0
 10
110.4193450050938
 20
-20.66731370490007
 30
0.0
  0
SPLINE
  5
4AC
330
1F
100
AcDbEntity
  8
STANDARDEBENE
 62
     7
100
AcDbSpline
210
0.0
220
0.0
230
1.0
 70
     8
 71
     3
 72
     8
 73
     4
 74
     0
 42
0.0000000001
 43
0.0000000001
 40
0.0
 40
0.0
 40
0.0
 40
0.0
 40
1.0
 40
1.0
 40
1.0
 40
1.0
 10
115.3346382312656
 20
-23.50504072813311
 30
0.0
 10
115.661922518272
 20
-23.52863964777515
 30
0.0
 10
115.9857617075204
 20
-23.52726160867196
 30
0.0
 10
116.2672261943458
 20
-23.50504072813311
 30
0.0
  0
SPLINE
  5
4AD
330
1F
100
AcDbEntity
  8
STANDARDEBENE
 62
     7
100
AcDbSpline
210
0.0
220
0.0
230
1.0
 70
     8
 71
     3
 72
     8
 73
     4
 74
     0
 42
0.0000000001
 43
0.0000000001
 40
0.0
 40
0.0
 40
0.0
 40
0.0
 40
1.0
 40
1.0
 40
1.0
 40
1.0
 10
121.1825194205177
 20
-20.66731370490007
 30
0.0
 10
121.3666598956807
 20
-20.39601225646058
 30
0.0
 10
121.5272014512017
 20
-20.11437551474722
 30
0.0
 10
121.6489856569457
 20
-19.85943828065805
 30
0.0
  0
POLYLINE
  5
4AE
330
1F
100
AcDbEntity
  8
STANDARDEBENE
 62
     7
100
AcDb2dPolyline
 66
     1
 10
0.0
 20
0.0
 30
0.0
  0
VERTEX
  5
4AF
330
4AE
100
AcDbEntity
  8
STANDARDEBENE
 62
     7
100
AcDbVertex
100
AcDb2dVertex
 10
34.93656410860159
 20
-10.27190347513857
 30
0.0
  0
VERTEX
  5
4B0
330
4AE
100
AcDbEntity
  8
STANDARDEBENE
 62
     7
100
AcDbVertex
100
AcDb2dVertex
 10
34.93656410860159
 20
-10.75387265147741
 30
0.0
  0
SEQEND
  5
4B1
330
4AE
100
AcDbEntity
  8
STANDARDEBENE
  0
POLYLINE
  5
4B2
330
1F
100
AcDbEntity
  8
STANDARDEBENE
 62
     7
100
AcDb2dPolyline
 66
     1
 10
0.0
 20
0.0
 30
0.0
  0
VERTEX
  5
4B3
330
4B2
100
AcDbEntity
  8
STANDARDEBENE
 62
     7
100
AcDbVertex
100
AcDb2dVertex
 10
34.93656410860159
 20
-11.71832776881879
 30
0.0
  0
VERTEX
  5
4B4
330
4B2
100
AcDbEntity
  8
STANDARDEBENE
 62
     7
100
AcDbVertex
100
AcDb2dVertex
 10
34.93656410860159
 20
-12.68243837638436
 30
0.0
  0
SEQEND
  5
4B5
330
4B2
100
AcDbEntity
  8
STANDARDEBENE
  0
POLYLINE
  5
4B6
330
1F
100
AcDbEntity
  8
STANDARDEBENE
 62
     7
100
AcDb2dPolyline
 66
     1
 10
0.0
 20
0.0
 30
0.0
  0
VERTEX
  5
4B7
330
4B6
100
AcDbEntity
  8
STANDARDEBENE
 62
     7
100
AcDbVertex
100
AcDb2dVertex
 10
34.93656410860159
 20
-13.64689349372574
 30
0.0
  0
VERTEX
  5
4B8
330
4B6
100
AcDbEntity
  8
STANDARDEBENE
 62
     7
100
AcDbVertex
100
AcDb2dVertex
 10
34.93656410860159
 20
-14.61083184640342
 30
0.0
  0
SEQEND
  5
4B9
330
4B6
100
AcDbEntity
  8
STANDARDEBENE
  0
POLYLINE
  5
4BA
330
1F
100
AcDbEntity
  8
STANDARDEBENE
 62
     7
100
AcDb2dPolyline
 66
     1
 10
0.0
 20
0.0
 30
0.0
  0
VERTEX
  5
4BB
330
4BA
100
AcDbEntity
  8
STANDARDEBENE
 62
     7
100
AcDbVertex
100
AcDb2dVertex
 10
34.93656410860159
 20
-15.57563147352059
 30
0.0
  0
VERTEX
  5
4BC
330
4BA
100
AcDbEntity
  8
STANDARDEBENE
 62
     7
100
AcDbVertex
100
AcDb2dVertex
 10
34.93656410860159
 20
-16.53939757131037
 30
0.0
  0
SEQEND
  5
4BD
330
4BA
100
AcDbEntity
  8
STANDARDEBENE
  0
POLYLINE
  5
4BE
330
1F
100
AcDbEntity
  8
STANDARDEBENE
 62
     7
100
AcDb2dPolyline
 66
     1
 10
0.0
 20
0.0
 30
0.0
  0
VERTEX
  5
4BF
330
4BE
100
AcDbEntity
  8
STANDARDEBENE
 62
     7
100
AcDbVertex
100
AcDb2dVertex
 10
34.93656410860159
 20
-17.50419719842754
 30
0.0
  0
VERTEX
  5
4C0
330
4BE
100
AcDbEntity
  8
STANDARDEBENE
 62
     7
100
AcDbVertex
100
AcDb2dVertex
 10
34.93656410860159
 20
-18.46796329621732
 30
0.0
  0
SEQEND
  5
4C1
330
4BE
100
AcDbEntity
  8
STANDARDEBENE
  0
POLYLINE
  5
4C2
330
1F
100
AcDbEntity
  8
STANDARDEBENE
 62
     7
100
AcDb2dPolyline
 66
     1
 10
0.0
 20
0.0
 30
0.0
  0
VERTEX
  5
4C3
330
4C2
100
AcDbEntity
  8
STANDARDEBENE
 62
     7
100
AcDbVertex
100
AcDb2dVertex
 10
34.93656410860159
 20
-19.4325906684466
 30
0.0
  0
VERTEX
  5
4C4
330
4C2
100
AcDbEntity
  8
STANDARDEBENE
 62
     7
100
AcDbVertex
100
AcDb2dVertex
 10
34.93656410860159
 20
-20.39704578578797
 30
0.0
  0
SEQEND
  5
4C5
330
4C2
100
AcDbEntity
  8
STANDARDEBENE
  0
POLYLINE
  5
4C6
330
1F
100
AcDbEntity
  8
STANDARDEBENE
 62
     7
100
AcDb2dPolyline
 66
     1
 10
0.0
 20
0.0
 30
0.0
  0
VERTEX
  5
4C7
330
4C6
100
AcDbEntity
  8
STANDARDEBENE
 62
     7
100
AcDbVertex
100
AcDb2dVertex
 10
34.93656410860159
 20
-21.36081188357776
 30
0.0
  0
VERTEX
  5
4C8
330
4C6
100
AcDbEntity
  8
STANDARDEBENE
 62
     7
100
AcDbVertex
100
AcDb2dVertex
 10
34.93656410860159
 20
-22.32561151069493
 30
0.0
  0
SEQEND
  5
4C9
330
4C6
100
AcDbEntity
  8
STANDARDEBENE
  0
POLYLINE
  5
4CA
330
1F
100
AcDbEntity
  8
STANDARDEBENE
 62
     7
100
AcDb2dPolyline
 66
     1
 10
0.0
 20
0.0
 30
0.0
  0
VERTEX
  5
4CB
330
4CA
100
AcDbEntity
  8
STANDARDEBENE
 62
     7
100
AcDbVertex
100
AcDb2dVertex
 10
34.93656410860159
 20
-23.28937760848471
 30
0.0
  0
VERTEX
  5
4CC
330
4CA
100
AcDbEntity
  8
STANDARDEBENE
 62
     7
100
AcDbVertex
100
AcDb2dVertex
 10
34.93656410860159
 20
-23.77169129459935
 30
0.0
  0
VERTEX
  5
4CD
330
4CA
100
AcDbEntity
  8
STANDARDEBENE
 62
     7
100
AcDbVertex
100
AcDb2dVertex
 10
34.42358905244109
 20
-23.84403834751654
 30
0.0
  0
SEQEND
  5
4CE
330
4CA
100
AcDbEntity
  8
STANDARDEBENE
  0
POLYLINE
  5
4CF
330
1F
100
AcDbEntity
  8
STANDARDEBENE
 62
     7
100
AcDb2dPolyline
 66
     1
 10
0.0
 20
0.0
 30
0.0
  0
VERTEX
  5
4D0
330
4CF
100
AcDbEntity
  8
STANDARDEBENE
 62
     7
100
AcDbVertex
100
AcDb2dVertex
 10
33.3972944303443
 20
-23.98769892402354
 30
0.0
  0
VERTEX
  5
4D1
330
4CF
100
AcDbEntity
  8
STANDARDEBENE
 62
     7
100
AcDbVertex
100
AcDb2dVertex
 10
32.37082755335962
 20
-24.13118724564265
 30
0.0
  0
SEQEND
  5
4D2
330
4CF
100
AcDbEntity
  8
STANDARDEBENE
  0
POLYLINE
  5
4D3
330
1F
100
AcDbEntity
  8
STANDARDEBENE
 62
     7
100
AcDb2dPolyline
 66
     1
 10
0.0
 20
0.0
 30
0.0
  0
VERTEX
  5
4D4
330
4D3
100
AcDbEntity
  8
STANDARDEBENE
 62
     7
100
AcDbVertex
100
AcDb2dVertex
 10
31.34453293126283
 20
-24.27502007703755
 30
0.0
  0
VERTEX
  5
4D5
330
4D3
100
AcDbEntity
  8
STANDARDEBENE
 62
     7
100
AcDbVertex
100
AcDb2dVertex
 10
30.31823830916604
 20
-24.41902516332035
 30
0.0
  0
SEQEND
  5
4D6
330
4D3
100
AcDbEntity
  8
STANDARDEBENE
  0
POLYLINE
  5
4D7
330
1F
100
AcDbEntity
  8
STANDARDEBENE
 62
     7
100
AcDb2dPolyline
 66
     1
 10
0.0
 20
0.0
 30
0.0
  0
VERTEX
  5
4D8
330
4D7
100
AcDbEntity
  8
STANDARDEBENE
 62
     7
100
AcDbVertex
100
AcDb2dVertex
 10
29.29211594195715
 20
-24.56303024960314
 30
0.0
  0
VERTEX
  5
4D9
330
4D7
100
AcDbEntity
  8
STANDARDEBENE
 62
     7
100
AcDbVertex
100
AcDb2dVertex
 10
28.26582131986037
 20
-24.70686308099804
 30
0.0
  0
SEQEND
  5
4DA
330
4D7
100
AcDbEntity
  8
STANDARDEBENE
  0
POLYLINE
  5
4DB
330
1F
100
AcDbEntity
  8
STANDARDEBENE
 62
     7
100
AcDb2dPolyline
 66
     1
 10
0.0
 20
0.0
 30
0.0
  0
VERTEX
  5
4DC
330
4DB
100
AcDbEntity
  8
STANDARDEBENE
 62
     7
100
AcDbVertex
100
AcDb2dVertex
 10
27.23952669776358
 20
-24.85086816728084
 30
0.0
  0
VERTEX
  5
4DD
330
4DB
100
AcDbEntity
  8
STANDARDEBENE
 62
     7
100
AcDbVertex
100
AcDb2dVertex
 10
26.21340433055469
 20
-24.99401197912415
 30
0.0
  0
SEQEND
  5
4DE
330
4DB
100
AcDbEntity
  8
STANDARDEBENE
  0
POLYLINE
  5
4DF
330
1F
100
AcDbEntity
  8
STANDARDEBENE
 62
     7
100
AcDb2dPolyline
 66
     1
 10
0.0
 20
0.0
 30
0.0
  0
VERTEX
  5
4E0
330
4DF
100
AcDbEntity
  8
STANDARDEBENE
 62
     7
100
AcDbVertex
100
AcDb2dVertex
 10
25.1871097084579
 20
-25.13801706540695
 30
0.0
  0
VERTEX
  5
4E1
330
4DF
100
AcDbEntity
  8
STANDARDEBENE
 62
     7
100
AcDbVertex
100
AcDb2dVertex
 10
24.16098734124902
 20
-25.28236666146555
 30
0.0
  0
SEQEND
  5
4E2
330
4DF
100
AcDbEntity
  8
STANDARDEBENE
  0
POLYLINE
  5
4E3
330
1F
100
AcDbEntity
  8
STANDARDEBENE
 62
     7
100
AcDb2dPolyline
 66
     1
 10
0.0
 20
0.0
 30
0.0
  0
VERTEX
  5
4E4
330
4E3
100
AcDbEntity
  8
STANDARDEBENE
 62
     7
100
AcDbVertex
100
AcDb2dVertex
 10
23.13469271915223
 20
-25.42619949286044
 30
0.0
  0
VERTEX
  5
4E5
330
4E3
100
AcDbEntity
  8
STANDARDEBENE
 62
     7
100
AcDbVertex
100
AcDb2dVertex
 10
22.10839809705544
 20
-25.56934330470375
 30
0.0
  0
SEQEND
  5
4E6
330
4E3
100
AcDbEntity
  8
STANDARDEBENE
  0
POLYLINE
  5
4E7
330
1F
100
AcDbEntity
  8
STANDARDEBENE
 62
     7
100
AcDb2dPolyline
 66
     1
 10
0.0
 20
0.0
 30
0.0
  0
VERTEX
  5
4E8
330
4E7
100
AcDbEntity
  8
STANDARDEBENE
 62
     7
100
AcDbVertex
100
AcDb2dVertex
 10
21.08193122007076
 20
-25.71334839098655
 30
0.0
  0
VERTEX
  5
4E9
330
4E7
100
AcDbEntity
  8
STANDARDEBENE
 62
     7
100
AcDbVertex
100
AcDb2dVertex
 10
20.05563659797397
 20
-25.85735347726935
 30
0.0
  0
SEQEND
  5
4EA
330
4E7
100
AcDbEntity
  8
STANDARDEBENE
  0
POLYLINE
  5
4EB
330
1F
100
AcDbEntity
  8
STANDARDEBENE
 62
     7
100
AcDb2dPolyline
 66
     1
 10
0.0
 20
0.0
 30
0.0
  0
VERTEX
  5
4EC
330
4EB
100
AcDbEntity
  8
STANDARDEBENE
 62
     7
100
AcDbVertex
100
AcDb2dVertex
 10
19.02934197587718
 20
-26.00135856355215
 30
0.0
  0
VERTEX
  5
4ED
330
4EB
100
AcDbEntity
  8
STANDARDEBENE
 62
     7
100
AcDbVertex
100
AcDb2dVertex
 10
18.00321960866829
 20
-26.14519139494705
 30
0.0
  0
SEQEND
  5
4EE
330
4EB
100
AcDbEntity
  8
STANDARDEBENE
  0
POLYLINE
  5
4EF
330
1F
100
AcDbEntity
  8
STANDARDEBENE
 62
     7
100
AcDb2dPolyline
 66
     1
 10
0.0
 20
0.0
 30
0.0
  0
VERTEX
  5
4F0
330
4EF
100
AcDbEntity
  8
STANDARDEBENE
 62
     7
100
AcDbVertex
100
AcDb2dVertex
 10
16.97692498657151
 20
-26.28902422634195
 30
0.0
  0
VERTEX
  5
4F1
330
4EF
100
AcDbEntity
  8
STANDARDEBENE
 62
     7
100
AcDbVertex
100
AcDb2dVertex
 10
15.95063036447472
 20
-26.43268480284895
 30
0.0
  0
SEQEND
  5
4F2
330
4EF
100
AcDbEntity
  8
STANDARDEBENE
  0
POLYLINE
  5
4F3
330
1F
100
AcDbEntity
  8
STANDARDEBENE
 62
     7
100
AcDb2dPolyline
 66
     1
 10
0.0
 20
0.0
 30
0.0
  0
VERTEX
  5
4F4
330
4F3
100
AcDbEntity
  8
STANDARDEBENE
 62
     7
100
AcDbVertex
100
AcDb2dVertex
 10
14.92450799726583
 20
-26.57634537935596
 30
0.0
  0
VERTEX
  5
4F5
330
4F3
100
AcDbEntity
  8
STANDARDEBENE
 62
     7
100
AcDbVertex
100
AcDb2dVertex
 10
13.89855788494484
 20
-26.72052272052665
 30
0.0
  0
SEQEND
  5
4F6
330
4F3
100
AcDbEntity
  8
STANDARDEBENE
  0
POLYLINE
  5
4F7
330
1F
100
AcDbEntity
  8
STANDARDEBENE
 62
     7
100
AcDb2dPolyline
 66
     1
 10
0.0
 20
0.0
 30
0.0
  0
VERTEX
  5
4F8
330
4F7
100
AcDbEntity
  8
STANDARDEBENE
 62
     7
100
AcDbVertex
100
AcDb2dVertex
 10
12.87243551773595
 20
-26.86452780680945
 30
0.0
  0
VERTEX
  5
4F9
330
4F7
100
AcDbEntity
  8
STANDARDEBENE
 62
     7
100
AcDbVertex
100
AcDb2dVertex
 10
11.84579638586337
 20
-27.00767161865276
 30
0.0
  0
SEQEND
  5
4FA
330
4F7
100
AcDbEntity
  8
STANDARDEBENE
  0
POLYLINE
  5
4FB
330
1F
100
AcDbEntity
  8
STANDARDEBENE
 62
     7
100
AcDb2dPolyline
 66
     1
 10
0.0
 20
0.0
 30
0.0
  0
VERTEX
  5
4FC
330
4FB
100
AcDbEntity
  8
STANDARDEBENE
 62
     7
100
AcDbVertex
100
AcDb2dVertex
 10
10.81950176376658
 20
-27.15167670493556
 30
0.0
  0
VERTEX
  5
4FD
330
4FB
100
AcDbEntity
  8
STANDARDEBENE
 62
     7
100
AcDbVertex
100
AcDb2dVertex
 10
9.793034886781896
 20
-27.29568179121836
 30
0.0
  0
SEQEND
  5
4FE
330
4FB
100
AcDbEntity
  8
STANDARDEBENE
  0
POLYLINE
  5
4FF
330
1F
100
AcDbEntity
  8
STANDARDEBENE
 62
     7
100
AcDb2dPolyline
 66
     1
 10
0.0
 20
0.0
 30
0.0
  0
VERTEX
  5
500
330
4FF
100
AcDbEntity
  8
STANDARDEBENE
 62
     7
100
AcDbVertex
100
AcDb2dVertex
 10
8.766740264685108
 20
-27.43951462261326
 30
0.0
  0
VERTEX
  5
501
330
4FF
100
AcDbEntity
  8
STANDARDEBENE
 62
     7
100
AcDbVertex
100
AcDb2dVertex
 10
8.254109718300409
 20
-27.51117265597886
 30
0.0
  0
VERTEX
  5
502
330
4FF
100
AcDbEntity
  8
STANDARDEBENE
 62
     7
100
AcDbVertex
100
AcDb2dVertex
 10
8.254109718300409
 20
-27.06107063390116
 30
0.0
  0
SEQEND
  5
503
330
4FF
100
AcDbEntity
  8
STANDARDEBENE
  0
POLYLINE
  5
504
330
1F
100
AcDbEntity
  8
STANDARDEBENE
 62
     7
100
AcDb2dPolyline
 66
     1
 10
0.0
 20
0.0
 30
0.0
  0
VERTEX
  5
505
330
504
100
AcDbEntity
  8
STANDARDEBENE
 62
     7
100
AcDbVertex
100
AcDb2dVertex
 10
8.254109718300409
 20
-26.15966080553049
 30
0.0
  0
VERTEX
  5
506
330
504
100
AcDbEntity
  8
STANDARDEBENE
 62
     7
100
AcDbVertex
100
AcDb2dVertex
 10
8.254109718300409
 20
-25.7095587834528
 30
0.0
  0
VERTEX
  5
507
330
504
100
AcDbEntity
  8
STANDARDEBENE
 62
     7
100
AcDbVertex
100
AcDb2dVertex
 10
7.553893598994696
 20
-25.7095587834528
 30
0.0
  0
SEQEND
  5
508
330
504
100
AcDbEntity
  8
STANDARDEBENE
  0
POLYLINE
  5
509
330
1F
100
AcDbEntity
  8
STANDARDEBENE
 62
     7
100
AcDb2dPolyline
 66
     1
 10
0.0
 20
0.0
 30
0.0
  0
VERTEX
  5
50A
330
509
100
AcDbEntity
  8
STANDARDEBENE
 62
     7
100
AcDbVertex
100
AcDb2dVertex
 10
6.154150379934862
 20
-25.7095587834528
 30
0.0
  0
VERTEX
  5
50B
330
509
100
AcDbEntity
  8
STANDARDEBENE
 62
     7
100
AcDbVertex
100
AcDb2dVertex
 10
5.453762005741251
 20
-25.7095587834528
 30
0.0
  0
VERTEX
  5
50C
330
509
100
AcDbEntity
  8
STANDARDEBENE
 62
     7
100
AcDbVertex
100
AcDb2dVertex
 10
5.453762005741251
 20
-26.15966080553049
 30
0.0
  0
SEQEND
  5
50D
330
509
100
AcDbEntity
  8
STANDARDEBENE
  0
POLYLINE
  5
50E
330
1F
100
AcDbEntity
  8
STANDARDEBENE
 62
     7
100
AcDb2dPolyline
 66
     1
 10
0.0
 20
0.0
 30
0.0
  0
VERTEX
  5
50F
330
50E
100
AcDbEntity
  8
STANDARDEBENE
 62
     7
100
AcDbVertex
100
AcDb2dVertex
 10
5.453762005741251
 20
-27.06107063390116
 30
0.0
  0
VERTEX
  5
510
330
50E
100
AcDbEntity
  8
STANDARDEBENE
 62
     7
100
AcDbVertex
100
AcDb2dVertex
 10
5.453762005741251
 20
-27.51117265597886
 30
0.0
  0
VERTEX
  5
511
330
50E
100
AcDbEntity
  8
STANDARDEBENE
 62
     7
100
AcDbVertex
100
AcDb2dVertex
 10
5.389338677667367
 20
-27.51117265597886
 30
0.0
  0
SEQEND
  5
512
330
50E
100
AcDbEntity
  8
STANDARDEBENE
  0
POLYLINE
  5
513
330
1F
100
AcDbEntity
  8
STANDARDEBENE
 62
     7
100
AcDb2dPolyline
 66
     1
 10
0.0
 20
0.0
 30
0.0
  0
VERTEX
  5
514
330
513
100
AcDbEntity
  8
STANDARDEBENE
 62
     7
100
AcDbVertex
100
AcDb2dVertex
 10
5.258769472640619
 20
-27.51117265597886
 30
0.0
  0
VERTEX
  5
515
330
513
100
AcDbEntity
  8
STANDARDEBENE
 62
     7
100
AcDbVertex
100
AcDb2dVertex
 10
5.194173889678837
 20
-27.51117265597886
 30
0.0
  0
VERTEX
  5
516
330
513
100
AcDbEntity
  8
STANDARDEBENE
 62
     7
100
AcDbVertex
100
AcDb2dVertex
 10
4.751823337556557
 20
-27.25606316700179
 30
0.0
  0
SEQEND
  5
517
330
513
100
AcDbEntity
  8
STANDARDEBENE
  0
POLYLINE
  5
518
330
1F
100
AcDbEntity
  8
STANDARDEBENE
 62
     7
100
AcDb2dPolyline
 66
     1
 10
0.0
 20
0.0
 30
0.0
  0
VERTEX
  5
519
330
518
100
AcDbEntity
  8
STANDARDEBENE
 62
     7
100
AcDbVertex
100
AcDb2dVertex
 10
3.86763899797569
 20
-26.74446614994449
 30
0.0
  0
VERTEX
  5
51A
330
518
100
AcDbEntity
  8
STANDARDEBENE
 62
     7
100
AcDbVertex
100
AcDb2dVertex
 10
2.983282403506924
 20
-26.23338589755087
 30
0.0
  0
SEQEND
  5
51B
330
518
100
AcDbEntity
  8
STANDARDEBENE
  0
POLYLINE
  5
51C
330
1F
100
AcDbEntity
  8
STANDARDEBENE
 62
     7
100
AcDb2dPolyline
 66
     1
 10
0.0
 20
0.0
 30
0.0
  0
VERTEX
  5
51D
330
51C
100
AcDbEntity
  8
STANDARDEBENE
 62
     7
100
AcDbVertex
100
AcDb2dVertex
 10
2.099270318813955
 20
-25.72196113538146
 30
0.0
  0
VERTEX
  5
51E
330
51C
100
AcDbEntity
  8
STANDARDEBENE
 62
     7
100
AcDbVertex
100
AcDb2dVertex
 10
1.215258234120986
 20
-25.21105313787574
 30
0.0
  0
SEQEND
  5
51F
330
51C
100
AcDbEntity
  8
STANDARDEBENE
  0
POLYLINE
  5
520
330
1F
100
AcDbEntity
  8
STANDARDEBENE
 62
     7
100
AcDb2dPolyline
 66
     1
 10
0.0
 20
0.0
 30
0.0
  0
VERTEX
  5
521
330
520
100
AcDbEntity
  8
STANDARDEBENE
 62
     7
100
AcDbVertex
100
AcDb2dVertex
 10
0.3303848749885259
 20
-24.69980063059422
 30
0.0
  0
VERTEX
  5
522
330
520
100
AcDbEntity
  8
STANDARDEBENE
 62
     7
100
AcDbVertex
100
AcDb2dVertex
 10
-0.1112766575821625
 20
-24.44417437695347
 30
0.0
  0
SEQEND
  5
523
330
520
100
AcDbEntity
  8
STANDARDEBENE
  0
POLYLINE
  5
524
330
1F
100
AcDbEntity
  8
STANDARDEBENE
 62
     7
100
AcDb2dPolyline
 66
     1
 10
0.0
 20
0.0
 30
0.0
  0
VERTEX
  5
525
330
524
100
AcDbEntity
  8
STANDARDEBENE
 62
     7
100
AcDbVertex
100
AcDb2dVertex
 10
34.93656410860159
 20
-10.27190347513857
 30
0.0
  0
VERTEX
  5
526
330
524
100
AcDbEntity
  8
STANDARDEBENE
 62
     7
100
AcDbVertex
100
AcDb2dVertex
 10
34.42358905244109
 20
-10.19972867710927
 30
0.0
  0
SEQEND
  5
527
330
524
100
AcDbEntity
  8
STANDARDEBENE
  0
POLYLINE
  5
528
330
1F
100
AcDbEntity
  8
STANDARDEBENE
 62
     7
100
AcDb2dPolyline
 66
     1
 10
0.0
 20
0.0
 30
0.0
  0
VERTEX
  5
529
330
528
100
AcDbEntity
  8
STANDARDEBENE
 62
     7
100
AcDbVertex
100
AcDb2dVertex
 10
33.3972944303443
 20
-10.05641261037807
 30
0.0
  0
VERTEX
  5
52A
330
528
100
AcDbEntity
  8
STANDARDEBENE
 62
     7
100
AcDbVertex
100
AcDb2dVertex
 10
32.37082755335962
 20
-9.912407524095268
 30
0.0
  0
SEQEND
  5
52B
330
528
100
AcDbEntity
  8
STANDARDEBENE
  0
POLYLINE
  5
52C
330
1F
100
AcDbEntity
  8
STANDARDEBENE
 62
     7
100
AcDb2dPolyline
 66
     1
 10
0.0
 20
0.0
 30
0.0
  0
VERTEX
  5
52D
330
52C
100
AcDbEntity
  8
STANDARDEBENE
 62
     7
100
AcDbVertex
100
AcDb2dVertex
 10
31.34453293126283
 20
-9.768402437812469
 30
0.0
  0
VERTEX
  5
52E
330
52C
100
AcDbEntity
  8
STANDARDEBENE
 62
     7
100
AcDbVertex
100
AcDb2dVertex
 10
30.31823830916604
 20
-9.624225096641773
 30
0.0
  0
SEQEND
  5
52F
330
52C
100
AcDbEntity
  8
STANDARDEBENE
  0
POLYLINE
  5
530
330
1F
100
AcDbEntity
  8
STANDARDEBENE
 62
     7
100
AcDb2dPolyline
 66
     1
 10
0.0
 20
0.0
 30
0.0
  0
VERTEX
  5
531
330
530
100
AcDbEntity
  8
STANDARDEBENE
 62
     7
100
AcDbVertex
100
AcDb2dVertex
 10
29.29211594195715
 20
-9.480736775022669
 30
0.0
  0
VERTEX
  5
532
330
530
100
AcDbEntity
  8
STANDARDEBENE
 62
     7
100
AcDbVertex
100
AcDb2dVertex
 10
28.26582131986037
 20
-9.337076198515666
 30
0.0
  0
SEQEND
  5
533
330
530
100
AcDbEntity
  8
STANDARDEBENE
  0
POLYLINE
  5
534
330
1F
100
AcDbEntity
  8
STANDARDEBENE
 62
     7
100
AcDb2dPolyline
 66
     1
 10
0.0
 20
0.0
 30
0.0
  0
VERTEX
  5
535
330
534
100
AcDbEntity
  8
STANDARDEBENE
 62
     7
100
AcDbVertex
100
AcDb2dVertex
 10
27.23952669776358
 20
-9.193071112232868
 30
0.0
  0
VERTEX
  5
536
330
534
100
AcDbEntity
  8
STANDARDEBENE
 62
     7
100
AcDbVertex
100
AcDb2dVertex
 10
26.21340433055469
 20
-9.049238280837967
 30
0.0
  0
SEQEND
  5
537
330
534
100
AcDbEntity
  8
STANDARDEBENE
  0
POLYLINE
  5
538
330
1F
100
AcDbEntity
  8
STANDARDEBENE
 62
     7
100
AcDb2dPolyline
 66
     1
 10
0.0
 20
0.0
 30
0.0
  0
VERTEX
  5
539
330
538
100
AcDbEntity
  8
STANDARDEBENE
 62
     7
100
AcDbVertex
100
AcDb2dVertex
 10
25.1871097084579
 20
-8.90523319455517
 30
0.0
  0
VERTEX
  5
53A
330
538
100
AcDbEntity
  8
STANDARDEBENE
 62
     7
100
AcDbVertex
100
AcDb2dVertex
 10
24.16098734124902
 20
-8.761400363160268
 30
0.0
  0
SEQEND
  5
53B
330
538
100
AcDbEntity
  8
STANDARDEBENE
  0
POLYLINE
  5
53C
330
1F
100
AcDbEntity
  8
STANDARDEBENE
 62
     7
100
AcDb2dPolyline
 66
     1
 10
0.0
 20
0.0
 30
0.0
  0
VERTEX
  5
53D
330
53C
100
AcDbEntity
  8
STANDARDEBENE
 62
     7
100
AcDbVertex
100
AcDb2dVertex
 10
23.13469271915223
 20
-8.617395276877469
 30
0.0
  0
VERTEX
  5
53E
330
53C
100
AcDbEntity
  8
STANDARDEBENE
 62
     7
100
AcDbVertex
100
AcDb2dVertex
 10
22.10839809705544
 20
-8.474079210146263
 30
0.0
  0
SEQEND
  5
53F
330
53C
100
AcDbEntity
  8
STANDARDEBENE
  0
POLYLINE
  5
540
330
1F
100
AcDbEntity
  8
STANDARDEBENE
 62
     7
100
AcDb2dPolyline
 66
     1
 10
0.0
 20
0.0
 30
0.0
  0
VERTEX
  5
541
330
540
100
AcDbEntity
  8
STANDARDEBENE
 62
     7
100
AcDbVertex
100
AcDb2dVertex
 10
21.08193122007076
 20
-8.330246378751363
 30
0.0
  0
VERTEX
  5
542
330
540
100
AcDbEntity
  8
STANDARDEBENE
 62
     7
100
AcDbVertex
100
AcDb2dVertex
 10
20.05563659797397
 20
-8.186069037580666
 30
0.0
  0
SEQEND
  5
543
330
540
100
AcDbEntity
  8
STANDARDEBENE
  0
POLYLINE
  5
544
330
1F
100
AcDbEntity
  8
STANDARDEBENE
 62
     7
100
AcDb2dPolyline
 66
     1
 10
0.0
 20
0.0
 30
0.0
  0
VERTEX
  5
545
330
544
100
AcDbEntity
  8
STANDARDEBENE
 62
     7
100
AcDbVertex
100
AcDb2dVertex
 10
19.02934197587718
 20
-8.042408461073663
 30
0.0
  0
VERTEX
  5
546
330
544
100
AcDbEntity
  8
STANDARDEBENE
 62
     7
100
AcDbVertex
100
AcDb2dVertex
 10
18.00321960866829
 20
-7.898747884566661
 30
0.0
  0
SEQEND
  5
547
330
544
100
AcDbEntity
  8
STANDARDEBENE
  0
POLYLINE
  5
548
330
1F
100
AcDbEntity
  8
STANDARDEBENE
 62
     7
100
AcDb2dPolyline
 66
     1
 10
0.0
 20
0.0
 30
0.0
  0
VERTEX
  5
549
330
548
100
AcDbEntity
  8
STANDARDEBENE
 62
     7
100
AcDbVertex
100
AcDb2dVertex
 10
16.97692498657151
 20
-7.754742798283862
 30
0.0
  0
VERTEX
  5
54A
330
548
100
AcDbEntity
  8
STANDARDEBENE
 62
     7
100
AcDbVertex
100
AcDb2dVertex
 10
15.95063036447472
 20
-7.610909966888962
 30
0.0
  0
SEQEND
  5
54B
330
548
100
AcDbEntity
  8
STANDARDEBENE
  0
POLYLINE
  5
54C
330
1F
100
AcDbEntity
  8
STANDARDEBENE
 62
     7
100
AcDb2dPolyline
 66
     1
 10
0.0
 20
0.0
 30
0.0
  0
VERTEX
  5
54D
330
54C
100
AcDbEntity
  8
STANDARDEBENE
 62
     7
100
AcDbVertex
100
AcDb2dVertex
 10
14.92450799726583
 20
-7.467077135494062
 30
0.0
  0
VERTEX
  5
54E
330
54C
100
AcDbEntity
  8
STANDARDEBENE
 62
     7
100
AcDbVertex
100
AcDb2dVertex
 10
13.89855788494484
 20
-7.323072049211263
 30
0.0
  0
SEQEND
  5
54F
330
54C
100
AcDbEntity
  8
STANDARDEBENE
  0
POLYLINE
  5
550
330
1F
100
AcDbEntity
  8
STANDARDEBENE
 62
     7
100
AcDb2dPolyline
 66
     1
 10
0.0
 20
0.0
 30
0.0
  0
VERTEX
  5
551
330
550
100
AcDbEntity
  8
STANDARDEBENE
 62
     7
100
AcDbVertex
100
AcDb2dVertex
 10
12.87243551773595
 20
-7.179066962928465
 30
0.0
  0
VERTEX
  5
552
330
550
100
AcDbEntity
  8
STANDARDEBENE
 62
     7
100
AcDbVertex
100
AcDb2dVertex
 10
11.84579638586337
 20
-7.035923151085156
 30
0.0
  0
SEQEND
  5
553
330
550
100
AcDbEntity
  8
STANDARDEBENE
  0
POLYLINE
  5
554
330
1F
100
AcDbEntity
  8
STANDARDEBENE
 62
     7
100
AcDb2dPolyline
 66
     1
 10
0.0
 20
0.0
 30
0.0
  0
VERTEX
  5
555
330
554
100
AcDbEntity
  8
STANDARDEBENE
 62
     7
100
AcDbVertex
100
AcDb2dVertex
 10
10.81950176376658
 20
-6.891918064802358
 30
0.0
  0
VERTEX
  5
556
330
554
100
AcDbEntity
  8
STANDARDEBENE
 62
     7
100
AcDbVertex
100
AcDb2dVertex
 10
9.793034886781896
 20
-6.747740723631662
 30
0.0
  0
SEQEND
  5
557
330
554
100
AcDbEntity
  8
STANDARDEBENE
  0
POLYLINE
  5
558
330
1F
100
AcDbEntity
  8
STANDARDEBENE
 62
     7
100
AcDb2dPolyline
 66
     1
 10
0.0
 20
0.0
 30
0.0
  0
VERTEX
  5
559
330
558
100
AcDbEntity
  8
STANDARDEBENE
 62
     7
100
AcDbVertex
100
AcDb2dVertex
 10
8.766740264685108
 20
-6.603735637348863
 30
0.0
  0
VERTEX
  5
55A
330
558
100
AcDbEntity
  8
STANDARDEBENE
 62
     7
100
AcDbVertex
100
AcDb2dVertex
 10
8.254109718300409
 20
-6.532422113759056
 30
0.0
  0
VERTEX
  5
55B
330
558
100
AcDbEntity
  8
STANDARDEBENE
 62
     7
100
AcDbVertex
100
AcDb2dVertex
 10
8.254109718300409
 20
-6.983040900500445
 30
0.0
  0
SEQEND
  5
55C
330
558
100
AcDbEntity
  8
STANDARDEBENE
  0
POLYLINE
  5
55D
330
1F
100
AcDbEntity
  8
STANDARDEBENE
 62
     7
100
AcDb2dPolyline
 66
     1
 10
0.0
 20
0.0
 30
0.0
  0
VERTEX
  5
55E
330
55D
100
AcDbEntity
  8
STANDARDEBENE
 62
     7
100
AcDbVertex
100
AcDb2dVertex
 10
8.254109718300409
 20
-7.883933964207426
 30
0.0
  0
VERTEX
  5
55F
330
55D
100
AcDbEntity
  8
STANDARDEBENE
 62
     7
100
AcDbVertex
100
AcDb2dVertex
 10
8.254109718300409
 20
-8.334208241173018
 30
0.0
  0
VERTEX
  5
560
330
55D
100
AcDbEntity
  8
STANDARDEBENE
 62
     7
100
AcDbVertex
100
AcDb2dVertex
 10
7.553893598994696
 20
-8.334208241173018
 30
0.0
  0
SEQEND
  5
561
330
55D
100
AcDbEntity
  8
STANDARDEBENE
  0
POLYLINE
  5
562
330
1F
100
AcDbEntity
  8
STANDARDEBENE
 62
     7
100
AcDb2dPolyline
 66
     1
 10
0.0
 20
0.0
 30
0.0
  0
VERTEX
  5
563
330
562
100
AcDbEntity
  8
STANDARDEBENE
 62
     7
100
AcDbVertex
100
AcDb2dVertex
 10
6.154150379934862
 20
-8.334208241173018
 30
0.0
  0
VERTEX
  5
564
330
562
100
AcDbEntity
  8
STANDARDEBENE
 62
     7
100
AcDbVertex
100
AcDb2dVertex
 10
5.453762005741251
 20
-8.334208241173018
 30
0.0
  0
VERTEX
  5
565
330
562
100
AcDbEntity
  8
STANDARDEBENE
 62
     7
100
AcDbVertex
100
AcDb2dVertex
 10
5.453762005741251
 20
-7.883933964207426
 30
0.0
  0
SEQEND
  5
566
330
562
100
AcDbEntity
  8
STANDARDEBENE
  0
POLYLINE
  5
567
330
1F
100
AcDbEntity
  8
STANDARDEBENE
 62
     7
100
AcDb2dPolyline
 66
     1
 10
0.0
 20
0.0
 30
0.0
  0
VERTEX
  5
568
330
567
100
AcDbEntity
  8
STANDARDEBENE
 62
     7
100
AcDbVertex
100
AcDb2dVertex
 10
5.453762005741251
 20
-6.983040900500445
 30
0.0
  0
VERTEX
  5
569
330
567
100
AcDbEntity
  8
STANDARDEBENE
 62
     7
100
AcDbVertex
100
AcDb2dVertex
 10
5.453762005741251
 20
-6.532422113759056
 30
0.0
  0
VERTEX
  5
56A
330
567
100
AcDbEntity
  8
STANDARDEBENE
 62
     7
100
AcDbVertex
100
AcDb2dVertex
 10
5.389338677667367
 20
-6.532422113759056
 30
0.0
  0
SEQEND
  5
56B
330
567
100
AcDbEntity
  8
STANDARDEBENE
  0
POLYLINE
  5
56C
330
1F
100
AcDbEntity
  8
STANDARDEBENE
 62
     7
100
AcDb2dPolyline
 66
     1
 10
0.0
 20
0.0
 30
0.0
  0
VERTEX
  5
56D
330
56C
100
AcDbEntity
  8
STANDARDEBENE
 62
     7
100
AcDbVertex
100
AcDb2dVertex
 10
5.258769472640619
 20
-6.532422113759056
 30
0.0
  0
VERTEX
  5
56E
330
56C
100
AcDbEntity
  8
STANDARDEBENE
 62
     7
100
AcDbVertex
100
AcDb2dVertex
 10
5.194173889678837
 20
-6.532422113759056
 30
0.0
  0
VERTEX
  5
56F
330
56C
100
AcDbEntity
  8
STANDARDEBENE
 62
     7
100
AcDbVertex
100
AcDb2dVertex
 10
4.751823337556557
 20
-6.787876112511915
 30
0.0
  0
SEQEND
  5
570
330
56C
100
AcDbEntity
  8
STANDARDEBENE
  0
POLYLINE
  5
571
330
1F
100
AcDbEntity
  8
STANDARDEBENE
 62
     7
100
AcDb2dPolyline
 66
     1
 10
0.0
 20
0.0
 30
0.0
  0
VERTEX
  5
572
330
571
100
AcDbEntity
  8
STANDARDEBENE
 62
     7
100
AcDbVertex
100
AcDb2dVertex
 10
3.86763899797569
 20
-7.298956364905531
 30
0.0
  0
VERTEX
  5
573
330
571
100
AcDbEntity
  8
STANDARDEBENE
 62
     7
100
AcDbVertex
100
AcDb2dVertex
 10
2.983282403506924
 20
-7.810553381962842
 30
0.0
  0
SEQEND
  5
574
330
571
100
AcDbEntity
  8
STANDARDEBENE
  0
POLYLINE
  5
575
330
1F
100
AcDbEntity
  8
STANDARDEBENE
 62
     7
100
AcDb2dPolyline
 66
     1
 10
0.0
 20
0.0
 30
0.0
  0
VERTEX
  5
576
330
575
100
AcDbEntity
  8
STANDARDEBENE
 62
     7
100
AcDbVertex
100
AcDb2dVertex
 10
2.099270318813955
 20
-8.321805889244356
 30
0.0
  0
VERTEX
  5
577
330
575
100
AcDbEntity
  8
STANDARDEBENE
 62
     7
100
AcDbVertex
100
AcDb2dVertex
 10
1.215258234120986
 20
-8.832713886750074
 30
0.0
  0
SEQEND
  5
578
330
575
100
AcDbEntity
  8
STANDARDEBENE
  0
POLYLINE
  5
579
330
1F
100
AcDbEntity
  8
STANDARDEBENE
 62
     7
100
AcDb2dPolyline
 66
     1
 10
0.0
 20
0.0
 30
0.0
  0
VERTEX
  5
57A
330
579
100
AcDbEntity
  8
STANDARDEBENE
 62
     7
100
AcDbVertex
100
AcDb2dVertex
 10
0.3303848749885259
 20
-9.344138648919488
 30
0.0
  0
VERTEX
  5
57B
330
579
100
AcDbEntity
  8
STANDARDEBENE
 62
     7
100
AcDbVertex
100
AcDb2dVertex
 10
-0.1112766575821625
 20
-9.599592647672347
 30
0.0
  0
SEQEND
  5
57C
330
579
100
AcDbEntity
  8
STANDARDEBENE
  0
POLYLINE
  5
57D
330
1F
100
AcDbEntity
  8
STANDARDEBENE
 62
     7
100
AcDb2dPolyline
 66
     1
 10
0.0
 20
0.0
 30
0.0
  0
VERTEX
  5
57E
330
57D
100
AcDbEntity
  8
STANDARDEBENE
 62
     7
100
AcDbVertex
100
AcDb2dVertex
 10
32.15413090438383
 20
-9.88071262472202
 30
0.0
  0
VERTEX
  5
57F
330
57D
100
AcDbEntity
  8
STANDARDEBENE
 62
     7
100
AcDbVertex
100
AcDb2dVertex
 10
32.15413090438383
 20
-10.39093160267615
 30
0.0
  0
SEQEND
  5
580
330
57D
100
AcDbEntity
  8
STANDARDEBENE
  0
POLYLINE
  5
581
330
1F
100
AcDbEntity
  8
STANDARDEBENE
 62
     7
100
AcDb2dPolyline
 66
     1
 10
0.0
 20
0.0
 30
0.0
  0
VERTEX
  5
582
330
581
100
AcDbEntity
  8
STANDARDEBENE
 62
     7
100
AcDbVertex
100
AcDb2dVertex
 10
32.15413090438383
 20
-11.41068053903281
 30
0.0
  0
VERTEX
  5
583
330
581
100
AcDbEntity
  8
STANDARDEBENE
 62
     7
100
AcDbVertex
100
AcDb2dVertex
 10
32.15413090438383
 20
-12.43129074982896
 30
0.0
  0
SEQEND
  5
584
330
581
100
AcDbEntity
  8
STANDARDEBENE
  0
POLYLINE
  5
585
330
1F
100
AcDbEntity
  8
STANDARDEBENE
 62
     7
100
AcDb2dPolyline
 66
     1
 10
0.0
 20
0.0
 30
0.0
  0
VERTEX
  5
586
330
585
100
AcDbEntity
  8
STANDARDEBENE
 62
     7
100
AcDbVertex
100
AcDb2dVertex
 10
32.15413090438383
 20
-13.45086743129772
 30
0.0
  0
VERTEX
  5
587
330
585
100
AcDbEntity
  8
STANDARDEBENE
 62
     7
100
AcDbVertex
100
AcDb2dVertex
 10
32.15413090438383
 20
-14.47130538720597
 30
0.0
  0
SEQEND
  5
588
330
585
100
AcDbEntity
  8
STANDARDEBENE
  0
POLYLINE
  5
589
330
1F
100
AcDbEntity
  8
STANDARDEBENE
 62
     7
100
AcDb2dPolyline
 66
     1
 10
0.0
 20
0.0
 30
0.0
  0
VERTEX
  5
58A
330
589
100
AcDbEntity
  8
STANDARDEBENE
 62
     7
100
AcDbVertex
100
AcDb2dVertex
 10
32.15413090438383
 20
-15.49088206867473
 30
0.0
  0
VERTEX
  5
58B
330
589
100
AcDbEntity
  8
STANDARDEBENE
 62
     7
100
AcDbVertex
100
AcDb2dVertex
 10
32.15413090438383
 20
-16.51149227947088
 30
0.0
  0
SEQEND
  5
58C
330
589
100
AcDbEntity
  8
STANDARDEBENE
  0
POLYLINE
  5
58D
330
1F
100
AcDbEntity
  8
STANDARDEBENE
 62
     7
100
AcDb2dPolyline
 66
     1
 10
0.0
 20
0.0
 30
0.0
  0
VERTEX
  5
58E
330
58D
100
AcDbEntity
  8
STANDARDEBENE
 62
     7
100
AcDbVertex
100
AcDb2dVertex
 10
32.15413090438383
 20
-17.53141347071544
 30
0.0
  0
VERTEX
  5
58F
330
58D
100
AcDbEntity
  8
STANDARDEBENE
 62
     7
100
AcDbVertex
100
AcDb2dVertex
 10
32.15413090438383
 20
-18.55133466196
 30
0.0
  0
SEQEND
  5
590
330
58D
100
AcDbEntity
  8
STANDARDEBENE
  0
POLYLINE
  5
591
330
1F
100
AcDbEntity
  8
STANDARDEBENE
 62
     7
100
AcDb2dPolyline
 66
     1
 10
0.0
 20
0.0
 30
0.0
  0
VERTEX
  5
592
330
591
100
AcDbEntity
  8
STANDARDEBENE
 62
     7
100
AcDbVertex
100
AcDb2dVertex
 10
32.15413090438383
 20
-19.57142810809246
 30
0.0
  0
VERTEX
  5
593
330
591
100
AcDbEntity
  8
STANDARDEBENE
 62
     7
100
AcDbVertex
100
AcDb2dVertex
 10
32.15413090438383
 20
-20.59134929933701
 30
0.0
  0
SEQEND
  5
594
330
591
100
AcDbEntity
  8
STANDARDEBENE
  0
POLYLINE
  5
595
330
1F
100
AcDbEntity
  8
STANDARDEBENE
 62
     7
100
AcDb2dPolyline
 66
     1
 10
0.0
 20
0.0
 30
0.0
  0
VERTEX
  5
596
330
595
100
AcDbEntity
  8
STANDARDEBENE
 62
     7
100
AcDbVertex
100
AcDb2dVertex
 10
32.15413090438383
 20
-21.61161500035736
 30
0.0
  0
VERTEX
  5
597
330
595
100
AcDbEntity
  8
STANDARDEBENE
 62
     7
100
AcDbVertex
100
AcDb2dVertex
 10
32.15413090438383
 20
-22.63153619160192
 30
0.0
  0
SEQEND
  5
598
330
595
100
AcDbEntity
  8
STANDARDEBENE
  0
POLYLINE
  5
599
330
1F
100
AcDbEntity
  8
STANDARDEBENE
 62
     7
100
AcDb2dPolyline
 66
     1
 10
0.0
 20
0.0
 30
0.0
  0
VERTEX
  5
59A
330
599
100
AcDbEntity
  8
STANDARDEBENE
 62
     7
100
AcDbVertex
100
AcDb2dVertex
 10
32.15413090438383
 20
-23.65214640239807
 30
0.0
  0
VERTEX
  5
59B
330
599
100
AcDbEntity
  8
STANDARDEBENE
 62
     7
100
AcDbVertex
100
AcDb2dVertex
 10
32.15413090438383
 20
-24.16150410591271
 30
0.0
  0
SEQEND
  5
59C
330
599
100
AcDbEntity
  8
STANDARDEBENE
  0
POLYLINE
  5
59D
330
1F
100
AcDbEntity
  8
STANDARDEBENE
 62
     7
100
AcDb2dPolyline
 66
     1
 10
0.0
 20
0.0
 30
0.0
  0
VERTEX
  5
59E
330
59D
100
AcDbEntity
  8
STANDARDEBENE
 62
     7
100
AcDbVertex
100
AcDb2dVertex
 10
32.15413090438383
 20
-23.52157719737133
 30
0.0
  0
VERTEX
  5
59F
330
59D
100
AcDbEntity
  8
STANDARDEBENE
 62
     7
100
AcDbVertex
100
AcDb2dVertex
 10
31.64959633773034
 20
-23.52157719737133
 30
0.0
  0
SEQEND
  5
5A0
330
59D
100
AcDbEntity
  8
STANDARDEBENE
  0
POLYLINE
  5
5A1
330
1F
100
AcDbEntity
  8
STANDARDEBENE
 62
     7
100
AcDb2dPolyline
 66
     1
 10
0.0
 20
0.0
 30
0.0
  0
VERTEX
  5
5A2
330
5A1
100
AcDbEntity
  8
STANDARDEBENE
 62
     7
100
AcDbVertex
100
AcDb2dVertex
 10
30.64173298863864
 20
-23.52157719737133
 30
0.0
  0
VERTEX
  5
5A3
330
5A1
100
AcDbEntity
  8
STANDARDEBENE
 62
     7
100
AcDbVertex
100
AcDb2dVertex
 10
29.63283611021956
 20
-23.52157719737133
 30
0.0
  0
SEQEND
  5
5A4
330
5A1
100
AcDbEntity
  8
STANDARDEBENE
  0
POLYLINE
  5
5A5
330
1F
100
AcDbEntity
  8
STANDARDEBENE
 62
     7
100
AcDb2dPolyline
 66
     1
 10
0.0
 20
0.0
 30
0.0
  0
VERTEX
  5
5A6
330
5A5
100
AcDbEntity
  8
STANDARDEBENE
 62
     7
100
AcDbVertex
100
AcDb2dVertex
 10
28.62497276112788
 20
-23.52157719737133
 30
0.0
  0
VERTEX
  5
5A7
330
5A5
100
AcDbEntity
  8
STANDARDEBENE
 62
     7
100
AcDbVertex
100
AcDb2dVertex
 10
27.61642039248459
 20
-23.52157719737133
 30
0.0
  0
SEQEND
  5
5A8
330
5A5
100
AcDbEntity
  8
STANDARDEBENE
  0
POLYLINE
  5
5A9
330
1F
100
AcDbEntity
  8
STANDARDEBENE
 62
     7
100
AcDb2dPolyline
 66
     1
 10
0.0
 20
0.0
 30
0.0
  0
VERTEX
  5
5AA
330
5A9
100
AcDbEntity
  8
STANDARDEBENE
 62
     7
100
AcDbVertex
100
AcDb2dVertex
 10
26.6085570433929
 20
-23.52157719737133
 30
0.0
  0
VERTEX
  5
5AB
330
5A9
100
AcDbEntity
  8
STANDARDEBENE
 62
     7
100
AcDbVertex
100
AcDb2dVertex
 10
25.59983241986172
 20
-23.52157719737133
 30
0.0
  0
SEQEND
  5
5AC
330
5A9
100
AcDbEntity
  8
STANDARDEBENE
  0
POLYLINE
  5
5AD
330
1F
100
AcDbEntity
  8
STANDARDEBENE
 62
     7
100
AcDb2dPolyline
 66
     1
 10
0.0
 20
0.0
 30
0.0
  0
VERTEX
  5
5AE
330
5AD
100
AcDbEntity
  8
STANDARDEBENE
 62
     7
100
AcDbVertex
100
AcDb2dVertex
 10
24.59196907077002
 20
-23.52157719737133
 30
0.0
  0
VERTEX
  5
5AF
330
5AD
100
AcDbEntity
  8
STANDARDEBENE
 62
     7
100
AcDbVertex
100
AcDb2dVertex
 10
23.58341670212674
 20
-23.52157719737133
 30
0.0
  0
SEQEND
  5
5B0
330
5AD
100
AcDbEntity
  8
STANDARDEBENE
  0
POLYLINE
  5
5B1
330
1F
100
AcDbEntity
  8
STANDARDEBENE
 62
     7
100
AcDb2dPolyline
 66
     1
 10
0.0
 20
0.0
 30
0.0
  0
VERTEX
  5
5B2
330
5B1
100
AcDbEntity
  8
STANDARDEBENE
 62
     7
100
AcDbVertex
100
AcDb2dVertex
 10
22.57520884325925
 20
-23.52157719737133
 30
0.0
  0
VERTEX
  5
5B3
330
5B1
100
AcDbEntity
  8
STANDARDEBENE
 62
     7
100
AcDbVertex
100
AcDb2dVertex
 10
21.56665647461596
 20
-23.52157719737133
 30
0.0
  0
SEQEND
  5
5B4
330
5B1
100
AcDbEntity
  8
STANDARDEBENE
  0
POLYLINE
  5
5B5
330
1F
100
AcDbEntity
  8
STANDARDEBENE
 62
     7
100
AcDb2dPolyline
 66
     1
 10
0.0
 20
0.0
 30
0.0
  0
VERTEX
  5
5B6
330
5B5
100
AcDbEntity
  8
STANDARDEBENE
 62
     7
100
AcDbVertex
100
AcDb2dVertex
 10
20.55879312552428
 20
-23.52157719737133
 30
0.0
  0
VERTEX
  5
5B7
330
5B5
100
AcDbEntity
  8
STANDARDEBENE
 62
     7
100
AcDbVertex
100
AcDb2dVertex
 10
19.55006850199309
 20
-23.52157719737133
 30
0.0
  0
SEQEND
  5
5B8
330
5B5
100
AcDbEntity
  8
STANDARDEBENE
  0
POLYLINE
  5
5B9
330
1F
100
AcDbEntity
  8
STANDARDEBENE
 62
     7
100
AcDb2dPolyline
 66
     1
 10
0.0
 20
0.0
 30
0.0
  0
VERTEX
  5
5BA
330
5B9
100
AcDbEntity
  8
STANDARDEBENE
 62
     7
100
AcDbVertex
100
AcDb2dVertex
 10
18.5422051529014
 20
-23.52157719737133
 30
0.0
  0
VERTEX
  5
5BB
330
5B9
100
AcDbEntity
  8
STANDARDEBENE
 62
     7
100
AcDbVertex
100
AcDb2dVertex
 10
17.53365278425812
 20
-23.52157719737133
 30
0.0
  0
SEQEND
  5
5BC
330
5B9
100
AcDbEntity
  8
STANDARDEBENE
  0
POLYLINE
  5
5BD
330
1F
100
AcDbEntity
  8
STANDARDEBENE
 62
     7
100
AcDb2dPolyline
 66
     1
 10
0.0
 20
0.0
 30
0.0
  0
VERTEX
  5
5BE
330
5BD
100
AcDbEntity
  8
STANDARDEBENE
 62
     7
100
AcDbVertex
100
AcDb2dVertex
 10
16.52544492539063
 20
-23.52157719737133
 30
0.0
  0
VERTEX
  5
5BF
330
5BD
100
AcDbEntity
  8
STANDARDEBENE
 62
     7
100
AcDbVertex
100
AcDb2dVertex
 10
15.51689255674734
 20
-23.52157719737133
 30
0.0
  0
SEQEND
  5
5C0
330
5BD
100
AcDbEntity
  8
STANDARDEBENE
  0
POLYLINE
  5
5C1
330
1F
100
AcDbEntity
  8
STANDARDEBENE
 62
     7
100
AcDb2dPolyline
 66
     1
 10
0.0
 20
0.0
 30
0.0
  0
VERTEX
  5
5C2
330
5C1
100
AcDbEntity
  8
STANDARDEBENE
 62
     7
100
AcDbVertex
100
AcDb2dVertex
 10
14.50885695276775
 20
-23.52157719737133
 30
0.0
  0
VERTEX
  5
5C3
330
5C1
100
AcDbEntity
  8
STANDARDEBENE
 62
     7
100
AcDbVertex
100
AcDb2dVertex
 10
13.50030458412447
 20
-23.52157719737133
 30
0.0
  0
SEQEND
  5
5C4
330
5C1
100
AcDbEntity
  8
STANDARDEBENE
  0
POLYLINE
  5
5C5
330
1F
100
AcDbEntity
  8
STANDARDEBENE
 62
     7
100
AcDb2dPolyline
 66
     1
 10
0.0
 20
0.0
 30
0.0
  0
VERTEX
  5
5C6
330
5C5
100
AcDbEntity
  8
STANDARDEBENE
 62
     7
100
AcDbVertex
100
AcDb2dVertex
 10
12.49244123503278
 20
-23.52157719737133
 30
0.0
  0
VERTEX
  5
5C7
330
5C5
100
AcDbEntity
  8
STANDARDEBENE
 62
     7
100
AcDbVertex
100
AcDb2dVertex
 10
11.48388886638949
 20
-23.52157719737133
 30
0.0
  0
SEQEND
  5
5C8
330
5C5
100
AcDbEntity
  8
STANDARDEBENE
  0
POLYLINE
  5
5C9
330
1F
100
AcDbEntity
  8
STANDARDEBENE
 62
     7
100
AcDb2dPolyline
 66
     1
 10
0.0
 20
0.0
 30
0.0
  0
VERTEX
  5
5CA
330
5C9
100
AcDbEntity
  8
STANDARDEBENE
 62
     7
100
AcDbVertex
100
AcDb2dVertex
 10
10.475681007522
 20
-23.52157719737133
 30
0.0
  0
VERTEX
  5
5CB
330
5C9
100
AcDbEntity
  8
STANDARDEBENE
 62
     7
100
AcDbVertex
100
AcDb2dVertex
 10
9.466956383990821
 20
-23.52157719737133
 30
0.0
  0
SEQEND
  5
5CC
330
5C9
100
AcDbEntity
  8
STANDARDEBENE
  0
POLYLINE
  5
5CD
330
1F
100
AcDbEntity
  8
STANDARDEBENE
 62
     7
100
AcDb2dPolyline
 66
     1
 10
0.0
 20
0.0
 30
0.0
  0
VERTEX
  5
5CE
330
5CD
100
AcDbEntity
  8
STANDARDEBENE
 62
     7
100
AcDbVertex
100
AcDb2dVertex
 10
8.45909303489913
 20
-23.52157719737133
 30
0.0
  0
VERTEX
  5
5CF
330
5CD
100
AcDbEntity
  8
STANDARDEBENE
 62
     7
100
AcDbVertex
100
AcDb2dVertex
 10
7.450540666255845
 20
-23.52157719737133
 30
0.0
  0
SEQEND
  5
5D0
330
5CD
100
AcDbEntity
  8
STANDARDEBENE
  0
POLYLINE
  5
5D1
330
1F
100
AcDbEntity
  8
STANDARDEBENE
 62
     7
100
AcDb2dPolyline
 66
     1
 10
0.0
 20
0.0
 30
0.0
  0
VERTEX
  5
5D2
330
5D1
100
AcDbEntity
  8
STANDARDEBENE
 62
     7
100
AcDbVertex
100
AcDb2dVertex
 10
6.442677317164153
 20
-23.52157719737133
 30
0.0
  0
VERTEX
  5
5D3
330
5D1
100
AcDbEntity
  8
STANDARDEBENE
 62
     7
100
AcDbVertex
100
AcDb2dVertex
 10
5.43412494852087
 20
-23.52157719737133
 30
0.0
  0
SEQEND
  5
5D4
330
5D1
100
AcDbEntity
  8
STANDARDEBENE
  0
POLYLINE
  5
5D5
330
1F
100
AcDbEntity
  8
STANDARDEBENE
 62
     7
100
AcDb2dPolyline
 66
     1
 10
0.0
 20
0.0
 30
0.0
  0
VERTEX
  5
5D6
330
5D5
100
AcDbEntity
  8
STANDARDEBENE
 62
     7
100
AcDbVertex
100
AcDb2dVertex
 10
4.426089344541279
 20
-23.52157719737133
 30
0.0
  0
VERTEX
  5
5D7
330
5D5
100
AcDbEntity
  8
STANDARDEBENE
 62
     7
100
AcDbVertex
100
AcDb2dVertex
 10
3.417192466122199
 20
-23.52157719737133
 30
0.0
  0
SEQEND
  5
5D8
330
5D5
100
AcDbEntity
  8
STANDARDEBENE
  0
POLYLINE
  5
5D9
330
1F
100
AcDbEntity
  8
STANDARDEBENE
 62
     7
100
AcDb2dPolyline
 66
     1
 10
0.0
 20
0.0
 30
0.0
  0
VERTEX
  5
5DA
330
5D9
100
AcDbEntity
  8
STANDARDEBENE
 62
     7
100
AcDbVertex
100
AcDb2dVertex
 10
2.409329117030507
 20
-23.52157719737133
 30
0.0
  0
VERTEX
  5
5DB
330
5D9
100
AcDbEntity
  8
STANDARDEBENE
 62
     7
100
AcDbVertex
100
AcDb2dVertex
 10
1.400776748387222
 20
-23.52157719737133
 30
0.0
  0
SEQEND
  5
5DC
330
5D9
100
AcDbEntity
  8
STANDARDEBENE
  0
POLYLINE
  5
5DD
330
1F
100
AcDbEntity
  8
STANDARDEBENE
 62
     7
100
AcDb2dPolyline
 66
     1
 10
0.0
 20
0.0
 30
0.0
  0
VERTEX
  5
5DE
330
5DD
100
AcDbEntity
  8
STANDARDEBENE
 62
     7
100
AcDbVertex
100
AcDb2dVertex
 10
0.3929133992955306
 20
-23.52157719737133
 30
0.0
  0
VERTEX
  5
5DF
330
5DD
100
AcDbEntity
  8
STANDARDEBENE
 62
     7
100
AcDbVertex
100
AcDb2dVertex
 10
-0.1112766575821625
 20
-23.52157719737133
 30
0.0
  0
SEQEND
  5
5E0
330
5DD
100
AcDbEntity
  8
STANDARDEBENE
  0
POLYLINE
  5
5E1
330
1F
100
AcDbEntity
  8
STANDARDEBENE
 62
     7
100
AcDb2dPolyline
 66
     1
 10
0.0
 20
0.0
 30
0.0
  0
VERTEX
  5
5E2
330
5E1
100
AcDbEntity
  8
STANDARDEBENE
 62
     7
100
AcDbVertex
100
AcDb2dVertex
 10
32.15413090438383
 20
-10.52167306259079
 30
0.0
  0
VERTEX
  5
5E3
330
5E1
100
AcDbEntity
  8
STANDARDEBENE
 62
     7
100
AcDbVertex
100
AcDb2dVertex
 10
31.64959633773034
 20
-10.52167306259079
 30
0.0
  0
SEQEND
  5
5E4
330
5E1
100
AcDbEntity
  8
STANDARDEBENE
  0
POLYLINE
  5
5E5
330
1F
100
AcDbEntity
  8
STANDARDEBENE
 62
     7
100
AcDb2dPolyline
 66
     1
 10
0.0
 20
0.0
 30
0.0
  0
VERTEX
  5
5E6
330
5E5
100
AcDbEntity
  8
STANDARDEBENE
 62
     7
100
AcDbVertex
100
AcDb2dVertex
 10
30.64173298863864
 20
-10.52167306259079
 30
0.0
  0
VERTEX
  5
5E7
330
5E5
100
AcDbEntity
  8
STANDARDEBENE
 62
     7
100
AcDbVertex
100
AcDb2dVertex
 10
29.63283611021956
 20
-10.52167306259079
 30
0.0
  0
SEQEND
  5
5E8
330
5E5
100
AcDbEntity
  8
STANDARDEBENE
  0
POLYLINE
  5
5E9
330
1F
100
AcDbEntity
  8
STANDARDEBENE
 62
     7
100
AcDb2dPolyline
 66
     1
 10
0.0
 20
0.0
 30
0.0
  0
VERTEX
  5
5EA
330
5E9
100
AcDbEntity
  8
STANDARDEBENE
 62
     7
100
AcDbVertex
100
AcDb2dVertex
 10
28.62497276112788
 20
-10.52167306259079
 30
0.0
  0
VERTEX
  5
5EB
330
5E9
100
AcDbEntity
  8
STANDARDEBENE
 62
     7
100
AcDbVertex
100
AcDb2dVertex
 10
27.61642039248459
 20
-10.52167306259079
 30
0.0
  0
SEQEND
  5
5EC
330
5E9
100
AcDbEntity
  8
STANDARDEBENE
  0
POLYLINE
  5
5ED
330
1F
100
AcDbEntity
  8
STANDARDEBENE
 62
     7
100
AcDb2dPolyline
 66
     1
 10
0.0
 20
0.0
 30
0.0
  0
VERTEX
  5
5EE
330
5ED
100
AcDbEntity
  8
STANDARDEBENE
 62
     7
100
AcDbVertex
100
AcDb2dVertex
 10
26.6085570433929
 20
-10.52167306259079
 30
0.0
  0
VERTEX
  5
5EF
330
5ED
100
AcDbEntity
  8
STANDARDEBENE
 62
     7
100
AcDbVertex
100
AcDb2dVertex
 10
25.59983241986172
 20
-10.52167306259079
 30
0.0
  0
SEQEND
  5
5F0
330
5ED
100
AcDbEntity
  8
STANDARDEBENE
  0
POLYLINE
  5
5F1
330
1F
100
AcDbEntity
  8
STANDARDEBENE
 62
     7
100
AcDb2dPolyline
 66
     1
 10
0.0
 20
0.0
 30
0.0
  0
VERTEX
  5
5F2
330
5F1
100
AcDbEntity
  8
STANDARDEBENE
 62
     7
100
AcDbVertex
100
AcDb2dVertex
 10
24.59196907077002
 20
-10.52167306259079
 30
0.0
  0
VERTEX
  5
5F3
330
5F1
100
AcDbEntity
  8
STANDARDEBENE
 62
     7
100
AcDbVertex
100
AcDb2dVertex
 10
23.58341670212674
 20
-10.52167306259079
 30
0.0
  0
SEQEND
  5
5F4
330
5F1
100
AcDbEntity
  8
STANDARDEBENE
  0
POLYLINE
  5
5F5
330
1F
100
AcDbEntity
  8
STANDARDEBENE
 62
     7
100
AcDb2dPolyline
 66
     1
 10
0.0
 20
0.0
 30
0.0
  0
VERTEX
  5
5F6
330
5F5
100
AcDbEntity
  8
STANDARDEBENE
 62
     7
100
AcDbVertex
100
AcDb2dVertex
 10
22.57520884325925
 20
-10.52167306259079
 30
0.0
  0
VERTEX
  5
5F7
330
5F5
100
AcDbEntity
  8
STANDARDEBENE
 62
     7
100
AcDbVertex
100
AcDb2dVertex
 10
21.56665647461596
 20
-10.52167306259079
 30
0.0
  0
SEQEND
  5
5F8
330
5F5
100
AcDbEntity
  8
STANDARDEBENE
  0
POLYLINE
  5
5F9
330
1F
100
AcDbEntity
  8
STANDARDEBENE
 62
     7
100
AcDb2dPolyline
 66
     1
 10
0.0
 20
0.0
 30
0.0
  0
VERTEX
  5
5FA
330
5F9
100
AcDbEntity
  8
STANDARDEBENE
 62
     7
100
AcDbVertex
100
AcDb2dVertex
 10
20.55879312552428
 20
-10.52167306259079
 30
0.0
  0
VERTEX
  5
5FB
330
5F9
100
AcDbEntity
  8
STANDARDEBENE
 62
     7
100
AcDbVertex
100
AcDb2dVertex
 10
19.55006850199309
 20
-10.52167306259079
 30
0.0
  0
SEQEND
  5
5FC
330
5F9
100
AcDbEntity
  8
STANDARDEBENE
  0
POLYLINE
  5
5FD
330
1F
100
AcDbEntity
  8
STANDARDEBENE
 62
     7
100
AcDb2dPolyline
 66
     1
 10
0.0
 20
0.0
 30
0.0
  0
VERTEX
  5
5FE
330
5FD
100
AcDbEntity
  8
STANDARDEBENE
 62
     7
100
AcDbVertex
100
AcDb2dVertex
 10
18.5422051529014
 20
-10.52167306259079
 30
0.0
  0
VERTEX
  5
5FF
330
5FD
100
AcDbEntity
  8
STANDARDEBENE
 62
     7
100
AcDbVertex
100
AcDb2dVertex
 10
17.53365278425812
 20
-10.52167306259079
 30
0.0
  0
SEQEND
  5
600
330
5FD
100
AcDbEntity
  8
STANDARDEBENE
  0
POLYLINE
  5
601
330
1F
100
AcDbEntity
  8
STANDARDEBENE
 62
     7
100
AcDb2dPolyline
 66
     1
 10
0.0
 20
0.0
 30
0.0
  0
VERTEX
  5
602
330
601
100
AcDbEntity
  8
STANDARDEBENE
 62
     7
100
AcDbVertex
100
AcDb2dVertex
 10
16.52544492539063
 20
-10.52167306259079
 30
0.0
  0
VERTEX
  5
603
330
601
100
AcDbEntity
  8
STANDARDEBENE
 62
     7
100
AcDbVertex
100
AcDb2dVertex
 10
15.51689255674734
 20
-10.52167306259079
 30
0.0
  0
SEQEND
  5
604
330
601
100
AcDbEntity
  8
STANDARDEBENE
  0
POLYLINE
  5
605
330
1F
100
AcDbEntity
  8
STANDARDEBENE
 62
     7
100
AcDb2dPolyline
 66
     1
 10
0.0
 20
0.0
 30
0.0
  0
VERTEX
  5
606
330
605
100
AcDbEntity
  8
STANDARDEBENE
 62
     7
100
AcDbVertex
100
AcDb2dVertex
 10
14.50885695276775
 20
-10.52167306259079
 30
0.0
  0
VERTEX
  5
607
330
605
100
AcDbEntity
  8
STANDARDEBENE
 62
     7
100
AcDbVertex
100
AcDb2dVertex
 10
13.50030458412447
 20
-10.52167306259079
 30
0.0
  0
SEQEND
  5
608
330
605
100
AcDbEntity
  8
STANDARDEBENE
  0
POLYLINE
  5
609
330
1F
100
AcDbEntity
  8
STANDARDEBENE
 62
     7
100
AcDb2dPolyline
 66
     1
 10
0.0
 20
0.0
 30
0.0
  0
VERTEX
  5
60A
330
609
100
AcDbEntity
  8
STANDARDEBENE
 62
     7
100
AcDbVertex
100
AcDb2dVertex
 10
12.49244123503278
 20
-10.52167306259079
 30
0.0
  0
VERTEX
  5
60B
330
609
100
AcDbEntity
  8
STANDARDEBENE
 62
     7
100
AcDbVertex
100
AcDb2dVertex
 10
11.48388886638949
 20
-10.52167306259079
 30
0.0
  0
SEQEND
  5
60C
330
609
100
AcDbEntity
  8
STANDARDEBENE
  0
POLYLINE
  5
60D
330
1F
100
AcDbEntity
  8
STANDARDEBENE
 62
     7
100
AcDb2dPolyline
 66
     1
 10
0.0
 20
0.0
 30
0.0
  0
VERTEX
  5
60E
330
60D
100
AcDbEntity
  8
STANDARDEBENE
 62
     7
100
AcDbVertex
100
AcDb2dVertex
 10
10.475681007522
 20
-10.52167306259079
 30
0.0
  0
VERTEX
  5
60F
330
60D
100
AcDbEntity
  8
STANDARDEBENE
 62
     7
100
AcDbVertex
100
AcDb2dVertex
 10
9.466956383990821
 20
-10.52167306259079
 30
0.0
  0
SEQEND
  5
610
330
60D
100
AcDbEntity
  8
STANDARDEBENE
  0
POLYLINE
  5
611
330
1F
100
AcDbEntity
  8
STANDARDEBENE
 62
     7
100
AcDb2dPolyline
 66
     1
 10
0.0
 20
0.0
 30
0.0
  0
VERTEX
  5
612
330
611
100
AcDbEntity
  8
STANDARDEBENE
 62
     7
100
AcDbVertex
100
AcDb2dVertex
 10
8.45909303489913
 20
-10.52167306259079
 30
0.0
  0
VERTEX
  5
613
330
611
100
AcDbEntity
  8
STANDARDEBENE
 62
     7
100
AcDbVertex
100
AcDb2dVertex
 10
7.450540666255845
 20
-10.52167306259079
 30
0.0
  0
SEQEND
  5
614
330
611
100
AcDbEntity
  8
STANDARDEBENE
  0
POLYLINE
  5
615
330
1F
100
AcDbEntity
  8
STANDARDEBENE
 62
     7
100
AcDb2dPolyline
 66
     1
 10
0.0
 20
0.0
 30
0.0
  0
VERTEX
  5
616
330
615
100
AcDbEntity
  8
STANDARDEBENE
 62
     7
100
AcDbVertex
100
AcDb2dVertex
 10
6.442677317164153
 20
-10.52167306259079
 30
0.0
  0
VERTEX
  5
617
330
615
100
AcDbEntity
  8
STANDARDEBENE
 62
     7
100
AcDbVertex
100
AcDb2dVertex
 10
5.43412494852087
 20
-10.52167306259079
 30
0.0
  0
SEQEND
  5
618
330
615
100
AcDbEntity
  8
STANDARDEBENE
  0
POLYLINE
  5
619
330
1F
100
AcDbEntity
  8
STANDARDEBENE
 62
     7
100
AcDb2dPolyline
 66
     1
 10
0.0
 20
0.0
 30
0.0
  0
VERTEX
  5
61A
330
619
100
AcDbEntity
  8
STANDARDEBENE
 62
     7
100
AcDbVertex
100
AcDb2dVertex
 10
4.426089344541279
 20
-10.52167306259079
 30
0.0
  0
VERTEX
  5
61B
330
619
100
AcDbEntity
  8
STANDARDEBENE
 62
     7
100
AcDbVertex
100
AcDb2dVertex
 10
3.417192466122199
 20
-10.52167306259079
 30
0.0
  0
SEQEND
  5
61C
330
619
100
AcDbEntity
  8
STANDARDEBENE
  0
POLYLINE
  5
61D
330
1F
100
AcDbEntity
  8
STANDARDEBENE
 62
     7
100
AcDb2dPolyline
 66
     1
 10
0.0
 20
0.0
 30
0.0
  0
VERTEX
  5
61E
330
61D
100
AcDbEntity
  8
STANDARDEBENE
 62
     7
100
AcDbVertex
100
AcDb2dVertex
 10
2.409329117030507
 20
-10.52167306259079
 30
0.0
  0
VERTEX
  5
61F
330
61D
100
AcDbEntity
  8
STANDARDEBENE
 62
     7
100
AcDbVertex
100
AcDb2dVertex
 10
1.400776748387222
 20
-10.52167306259079
 30
0.0
  0
SEQEND
  5
620
330
61D
100
AcDbEntity
  8
STANDARDEBENE
  0
POLYLINE
  5
621
330
1F
100
AcDbEntity
  8
STANDARDEBENE
 62
     7
100
AcDb2dPolyline
 66
     1
 10
0.0
 20
0.0
 30
0.0
  0
VERTEX
  5
622
330
621
100
AcDbEntity
  8
STANDARDEBENE
 62
     7
100
AcDbVertex
100
AcDb2dVertex
 10
0.3929133992955306
 20
-10.52167306259079
 30
0.0
  0
VERTEX
  5
623
330
621
100
AcDbEntity
  8
STANDARDEBENE
 62
     7
100
AcDbVertex
100
AcDb2dVertex
 10
-0.1112766575821625
 20
-10.52167306259079
 30
0.0
  0
SEQEND
  5
624
330
621
100
AcDbEntity
  8
STANDARDEBENE
  0
POLYLINE
  5
625
330
1F
100
AcDbEntity
  8
STANDARDEBENE
 62
     7
100
AcDb2dPolyline
 66
     1
 10
0.0
 20
0.0
 30
0.0
  0
VERTEX
  5
626
330
625
100
AcDbEntity
  8
STANDARDEBENE
 62
     7
100
AcDbVertex
100
AcDb2dVertex
 10
35.51292896350858
 20
-21.1318851375612
 30
0.0
  0
VERTEX
  5
627
330
625
100
AcDbEntity
  8
STANDARDEBENE
 62
     7
100
AcDbVertex
100
AcDb2dVertex
 10
35.51292896350858
 20
-12.91136512240092
 30
0.0
  0
SEQEND
  5
628
330
625
100
AcDbEntity
  8
STANDARDEBENE
  0
POLYLINE
  5
629
330
1F
100
AcDbEntity
  8
STANDARDEBENE
 62
     7
100
AcDb2dPolyline
 66
     1
 10
0.0
 20
0.0
 30
0.0
  0
VERTEX
  5
62A
330
629
100
AcDbEntity
  8
STANDARDEBENE
 62
     7
100
AcDbVertex
100
AcDb2dVertex
 10
38.92891564541549
 20
-27.86308939195465
 30
0.0
  0
VERTEX
  5
62B
330
629
100
AcDbEntity
  8
STANDARDEBENE
 62
     7
100
AcDbVertex
100
AcDb2dVertex
 10
49.86176112541901
 20
-27.60953019696867
 30
0.0
  0
SEQEND
  5
62C
330
629
100
AcDbEntity
  8
STANDARDEBENE
  0
POLYLINE
  5
62D
330
1F
100
AcDbEntity
  8
STANDARDEBENE
 62
     7
100
AcDb2dPolyline
 66
     1
 10
0.0
 20
0.0
 30
0.0
  0
VERTEX
  5
62E
330
62D
100
AcDbEntity
  8
STANDARDEBENE
 62
     7
100
AcDbVertex
100
AcDb2dVertex
 10
52.86157999816415
 20
-27.54011147714574
 30
0.0
  0
VERTEX
  5
62F
330
62D
100
AcDbEntity
  8
STANDARDEBENE
 62
     7
100
AcDbVertex
100
AcDb2dVertex
 10
53.88563530671826
 20
-26.52656371675341
 30
0.0
  0
SEQEND
  5
630
330
62D
100
AcDbEntity
  8
STANDARDEBENE
  0
POLYLINE
  5
631
330
1F
100
AcDbEntity
  8
STANDARDEBENE
 62
     7
100
AcDb2dPolyline
 66
     1
 10
0.0
 20
0.0
 30
0.0
  0
VERTEX
  5
632
330
631
100
AcDbEntity
  8
STANDARDEBENE
 62
     7
100
AcDbVertex
100
AcDb2dVertex
 10
38.92891564541549
 20
-80.4811009786309
 30
0.0
  0
VERTEX
  5
633
330
631
100
AcDbEntity
  8
STANDARDEBENE
 62
     7
100
AcDbVertex
100
AcDb2dVertex
 10
49.86141661564321
 20
-80.44509970706021
 30
0.0
  0
SEQEND
  5
634
330
631
100
AcDbEntity
  8
STANDARDEBENE
  0
POLYLINE
  5
635
330
1F
100
AcDbEntity
  8
STANDARDEBENE
 62
     7
100
AcDb2dPolyline
 66
     1
 10
0.0
 20
0.0
 30
0.0
  0
VERTEX
  5
636
330
635
100
AcDbEntity
  8
STANDARDEBENE
 62
     7
100
AcDbVertex
100
AcDb2dVertex
 10
35.51292896350858
 20
-91.38828048033761
 30
0.0
  0
VERTEX
  5
637
330
635
100
AcDbEntity
  8
STANDARDEBENE
 62
     7
100
AcDbVertex
100
AcDb2dVertex
 10
35.51292896350858
 20
-88.62358952957335
 30
0.0
  0
SEQEND
  5
638
330
635
100
AcDbEntity
  8
STANDARDEBENE
  0
POLYLINE
  5
63A
330
1F
100
AcDbEntity
  8
BEMA_UNG
 62
     7
100
AcDb2dPolyline
 66
     1
 10
0.0
 20
0.0
 30
0.0
  0
VERTEX
  5
63B
330
63A
100
AcDbEntity
  8
BEMA_UNG
 62
     7
100
AcDbVertex
100
AcDb2dVertex
 10
34.88850499487802
 20
-1.022074377343284
 30
0.0
  0
VERTEX
  5
63C
330
63A
100
AcDbEntity
  8
BEMA_UNG
 62
     7
100
AcDbVertex
100
AcDb2dVertex
 10
70.9133754852197
 20
-1.022074377343284
 30
0.0
  0
SEQEND
  5
63D
330
63A
100
AcDbEntity
  8
BEMA_UNG
  0
POLYLINE
  5
63E
330
1F
100
AcDbEntity
  8
BEMA_UNG
 62
     7
100
AcDb2dPolyline
 66
     1
 10
0.0
 20
0.0
 30
0.0
  0
VERTEX
  5
63F
330
63E
100
AcDbEntity
  8
BEMA_UNG
 62
     7
100
AcDbVertex
100
AcDb2dVertex
 10
34.88850499487802
 20
-33.02143426495068
 30
0.0
  0
VERTEX
  5
640
330
63E
100
AcDbEntity
  8
BEMA_UNG
 62
     7
100
AcDbVertex
100
AcDb2dVertex
 10
70.9133754852197
 20
-33.02143426495068
 30
0.0
  0
SEQEND
  5
641
330
63E
100
AcDbEntity
  8
BEMA_UNG
  0
POLYLINE
  5
642
330
1F
100
AcDbEntity
  8
BEMA_UNG
 62
     7
100
AcDb2dPolyline
 66
     1
 10
0.0
 20
0.0
 30
0.0
  0
VERTEX
  5
643
330
642
100
AcDbEntity
  8
BEMA_UNG
 62
     7
100
AcDbVertex
100
AcDb2dVertex
 10
68.91280721717135
 20
-1.022074377343284
 30
0.0
  0
VERTEX
  5
644
330
642
100
AcDbEntity
  8
BEMA_UNG
 62
     7
100
AcDbVertex
100
AcDb2dVertex
 10
68.91280721717135
 20
-33.02143426495068
 30
0.0
  0
SEQEND
  5
645
330
642
100
AcDbEntity
  8
BEMA_UNG
  0
POLYLINE
  5
646
330
1F
100
AcDbEntity
  8
BEMA_UNG
 62
     7
100
AcDb2dPolyline
 66
     1
 10
0.0
 20
0.0
 30
0.0
  0
VERTEX
  5
647
330
646
100
AcDbEntity
  8
BEMA_UNG
 62
     7
100
AcDbVertex
100
AcDb2dVertex
 10
68.91280721717135
 20
-1.022074377343284
 30
0.0
  0
VERTEX
  5
648
330
646
100
AcDbEntity
  8
BEMA_UNG
 62
     7
100
AcDbVertex
100
AcDb2dVertex
 10
68.45236990181976
 20
-4.522035317100512
 30
0.0
  0
VERTEX
  5
649
330
646
100
AcDbEntity
  8
BEMA_UNG
 62
     7
100
AcDbVertex
100
AcDb2dVertex
 10
69.37376129718662
 20
-4.522035317100512
 30
0.0
  0
VERTEX
  5
64A
330
646
100
AcDbEntity
  8
BEMA_UNG
 62
     7
100
AcDbVertex
100
AcDb2dVertex
 10
68.91280721717135
 20
-1.022074377343284
 30
0.0
  0
SEQEND
  5
64B
330
646
100
AcDbEntity
  8
BEMA_UNG
  0
POLYLINE
  5
64C
330
1F
100
AcDbEntity
  8
BEMA_UNG
 62
     7
100
AcDb2dPolyline
 66
     1
 10
0.0
 20
0.0
 30
0.0
  0
VERTEX
  5
64D
330
64C
100
AcDbEntity
  8
BEMA_UNG
 62
     7
100
AcDbVertex
100
AcDb2dVertex
 10
68.45581499957773
 20
-4.522035317100512
 30
0.0
  0
VERTEX
  5
64E
330
64C
100
AcDbEntity
  8
BEMA_UNG
 62
     7
100
AcDbVertex
100
AcDb2dVertex
 10
68.45581499957773
 20
-4.494819044812615
 30
0.0
  0
SEQEND
  5
64F
330
64C
100
AcDbEntity
  8
BEMA_UNG
  0
POLYLINE
  5
650
330
1F
100
AcDbEntity
  8
BEMA_UNG
 62
     7
100
AcDb2dPolyline
 66
     1
 10
0.0
 20
0.0
 30
0.0
  0
VERTEX
  5
651
330
650
100
AcDbEntity
  8
BEMA_UNG
 62
     7
100
AcDbVertex
100
AcDb2dVertex
 10
68.45581499957773
 20
-4.522035317100512
 30
0.0
  0
VERTEX
  5
652
330
650
100
AcDbEntity
  8
BEMA_UNG
 62
     7
100
AcDbVertex
100
AcDb2dVertex
 10
68.45581499957773
 20
-4.494819044812615
 30
0.0
  0
SEQEND
  5
653
330
650
100
AcDbEntity
  8
BEMA_UNG
  0
POLYLINE
  5
654
330
1F
100
AcDbEntity
  8
BEMA_UNG
 62
     7
100
AcDb2dPolyline
 66
     1
 10
0.0
 20
0.0
 30
0.0
  0
VERTEX
  5
655
330
654
100
AcDbEntity
  8
BEMA_UNG
 62
     7
100
AcDbVertex
100
AcDb2dVertex
 10
68.50663019150767
 20
-4.522035317100512
 30
0.0
  0
VERTEX
  5
656
330
654
100
AcDbEntity
  8
BEMA_UNG
 62
     7
100
AcDbVertex
100
AcDb2dVertex
 10
68.50663019150767
 20
-4.108795841033007
 30
0.0
  0
SEQEND
  5
657
330
654
100
AcDbEntity
  8
BEMA_UNG
  0
POLYLINE
  5
658
330
1F
100
AcDbEntity
  8
BEMA_UNG
 62
     7
100
AcDb2dPolyline
 66
     1
 10
0.0
 20
0.0
 30
0.0
  0
VERTEX
  5
659
330
658
100
AcDbEntity
  8
BEMA_UNG
 62
     7
100
AcDbVertex
100
AcDb2dVertex
 10
68.5574453834376
 20
-4.522035317100512
 30
0.0
  0
VERTEX
  5
65A
330
658
100
AcDbEntity
  8
BEMA_UNG
 62
     7
100
AcDbVertex
100
AcDb2dVertex
 10
68.5574453834376
 20
-3.722600382365502
 30
0.0
  0
SEQEND
  5
65B
330
658
100
AcDbEntity
  8
BEMA_UNG
  0
POLYLINE
  5
65C
330
1F
100
AcDbEntity
  8
BEMA_UNG
 62
     7
100
AcDb2dPolyline
 66
     1
 10
0.0
 20
0.0
 30
0.0
  0
VERTEX
  5
65D
330
65C
100
AcDbEntity
  8
BEMA_UNG
 62
     7
100
AcDbVertex
100
AcDb2dVertex
 10
68.60826057536754
 20
-4.522035317100512
 30
0.0
  0
VERTEX
  5
65E
330
65C
100
AcDbEntity
  8
BEMA_UNG
 62
     7
100
AcDbVertex
100
AcDb2dVertex
 10
68.60826057536754
 20
-3.337007815805641
 30
0.0
  0
SEQEND
  5
65F
330
65C
100
AcDbEntity
  8
BEMA_UNG
  0
POLYLINE
  5
660
330
1F
100
AcDbEntity
  8
BEMA_UNG
 62
     7
100
AcDb2dPolyline
 66
     1
 10
0.0
 20
0.0
 30
0.0
  0
VERTEX
  5
661
330
660
100
AcDbEntity
  8
BEMA_UNG
 62
     7
100
AcDbVertex
100
AcDb2dVertex
 10
68.65907576729747
 20
-4.522035317100512
 30
0.0
  0
VERTEX
  5
662
330
660
100
AcDbEntity
  8
BEMA_UNG
 62
     7
100
AcDbVertex
100
AcDb2dVertex
 10
68.65907576729747
 20
-2.951415249245779
 30
0.0
  0
SEQEND
  5
663
330
660
100
AcDbEntity
  8
BEMA_UNG
  0
POLYLINE
  5
664
330
1F
100
AcDbEntity
  8
BEMA_UNG
 62
     7
100
AcDb2dPolyline
 66
     1
 10
0.0
 20
0.0
 30
0.0
  0
VERTEX
  5
665
330
664
100
AcDbEntity
  8
BEMA_UNG
 62
     7
100
AcDbVertex
100
AcDb2dVertex
 10
68.70989095922741
 20
-4.522035317100512
 30
0.0
  0
VERTEX
  5
666
330
664
100
AcDbEntity
  8
BEMA_UNG
 62
     7
100
AcDbVertex
100
AcDb2dVertex
 10
68.70989095922741
 20
-2.56547817291012
 30
0.0
  0
SEQEND
  5
667
330
664
100
AcDbEntity
  8
BEMA_UNG
  0
POLYLINE
  5
668
330
1F
100
AcDbEntity
  8
BEMA_UNG
 62
     7
100
AcDb2dPolyline
 66
     1
 10
0.0
 20
0.0
 30
0.0
  0
VERTEX
  5
669
330
668
100
AcDbEntity
  8
BEMA_UNG
 62
     7
100
AcDbVertex
100
AcDb2dVertex
 10
68.76070615115734
 20
-4.522035317100512
 30
0.0
  0
VERTEX
  5
66A
330
668
100
AcDbEntity
  8
BEMA_UNG
 62
     7
100
AcDbVertex
100
AcDb2dVertex
 10
68.76070615115734
 20
-2.179196586798666
 30
0.0
  0
SEQEND
  5
66B
330
668
100
AcDbEntity
  8
BEMA_UNG
  0
POLYLINE
  5
66C
330
1F
100
AcDbEntity
  8
BEMA_UNG
 62
     7
100
AcDb2dPolyline
 66
     1
 10
0.0
 20
0.0
 30
0.0
  0
VERTEX
  5
66D
330
66C
100
AcDbEntity
  8
BEMA_UNG
 62
     7
100
AcDbVertex
100
AcDb2dVertex
 10
68.81152134308728
 20
-4.522035317100512
 30
0.0
  0
VERTEX
  5
66E
330
66C
100
AcDbEntity
  8
BEMA_UNG
 62
     7
100
AcDbVertex
100
AcDb2dVertex
 10
68.81152134308728
 20
-1.793604020238804
 30
0.0
  0
SEQEND
  5
66F
330
66C
100
AcDbEntity
  8
BEMA_UNG
  0
POLYLINE
  5
670
330
1F
100
AcDbEntity
  8
BEMA_UNG
 62
     7
100
AcDb2dPolyline
 66
     1
 10
0.0
 20
0.0
 30
0.0
  0
VERTEX
  5
671
330
670
100
AcDbEntity
  8
BEMA_UNG
 62
     7
100
AcDbVertex
100
AcDb2dVertex
 10
68.86199202524142
 20
-4.522035317100512
 30
0.0
  0
VERTEX
  5
672
330
670
100
AcDbEntity
  8
BEMA_UNG
 62
     7
100
AcDbVertex
100
AcDb2dVertex
 10
68.86199202524142
 20
-1.40732243412735
 30
0.0
  0
SEQEND
  5
673
330
670
100
AcDbEntity
  8
BEMA_UNG
  0
POLYLINE
  5
674
330
1F
100
AcDbEntity
  8
BEMA_UNG
 62
     7
100
AcDb2dPolyline
 66
     1
 10
0.0
 20
0.0
 30
0.0
  0
VERTEX
  5
675
330
674
100
AcDbEntity
  8
BEMA_UNG
 62
     7
100
AcDbVertex
100
AcDb2dVertex
 10
68.91280721717135
 20
-4.522035317100512
 30
0.0
  0
VERTEX
  5
676
330
674
100
AcDbEntity
  8
BEMA_UNG
 62
     7
100
AcDbVertex
100
AcDb2dVertex
 10
68.91280721717135
 20
-1.022074377343284
 30
0.0
  0
SEQEND
  5
677
330
674
100
AcDbEntity
  8
BEMA_UNG
  0
POLYLINE
  5
678
330
1F
100
AcDbEntity
  8
BEMA_UNG
 62
     7
100
AcDb2dPolyline
 66
     1
 10
0.0
 20
0.0
 30
0.0
  0
VERTEX
  5
679
330
678
100
AcDbEntity
  8
BEMA_UNG
 62
     7
100
AcDbVertex
100
AcDb2dVertex
 10
69.36997168965287
 20
-4.522035317100512
 30
0.0
  0
VERTEX
  5
67A
330
678
100
AcDbEntity
  8
BEMA_UNG
 62
     7
100
AcDbVertex
100
AcDb2dVertex
 10
69.36997168965287
 20
-4.494819044812615
 30
0.0
  0
SEQEND
  5
67B
330
678
100
AcDbEntity
  8
BEMA_UNG
  0
POLYLINE
  5
67C
330
1F
100
AcDbEntity
  8
BEMA_UNG
 62
     7
100
AcDb2dPolyline
 66
     1
 10
0.0
 20
0.0
 30
0.0
  0
VERTEX
  5
67D
330
67C
100
AcDbEntity
  8
BEMA_UNG
 62
     7
100
AcDbVertex
100
AcDb2dVertex
 10
69.36997168965287
 20
-4.522035317100512
 30
0.0
  0
VERTEX
  5
67E
330
67C
100
AcDbEntity
  8
BEMA_UNG
 62
     7
100
AcDbVertex
100
AcDb2dVertex
 10
69.36997168965287
 20
-4.494819044812615
 30
0.0
  0
SEQEND
  5
67F
330
67C
100
AcDbEntity
  8
BEMA_UNG
  0
POLYLINE
  5
680
330
1F
100
AcDbEntity
  8
BEMA_UNG
 62
     7
100
AcDb2dPolyline
 66
     1
 10
0.0
 20
0.0
 30
0.0
  0
VERTEX
  5
681
330
680
100
AcDbEntity
  8
BEMA_UNG
 62
     7
100
AcDbVertex
100
AcDb2dVertex
 10
69.31915649772293
 20
-4.522035317100512
 30
0.0
  0
VERTEX
  5
682
330
680
100
AcDbEntity
  8
BEMA_UNG
 62
     7
100
AcDbVertex
100
AcDb2dVertex
 10
69.31915649772293
 20
-4.108795841033007
 30
0.0
  0
SEQEND
  5
683
330
680
100
AcDbEntity
  8
BEMA_UNG
  0
POLYLINE
  5
684
330
1F
100
AcDbEntity
  8
BEMA_UNG
 62
     7
100
AcDb2dPolyline
 66
     1
 10
0.0
 20
0.0
 30
0.0
  0
VERTEX
  5
685
330
684
100
AcDbEntity
  8
BEMA_UNG
 62
     7
100
AcDbVertex
100
AcDb2dVertex
 10
69.268341305793
 20
-4.522035317100512
 30
0.0
  0
VERTEX
  5
686
330
684
100
AcDbEntity
  8
BEMA_UNG
 62
     7
100
AcDbVertex
100
AcDb2dVertex
 10
69.268341305793
 20
-3.722600382365502
 30
0.0
  0
SEQEND
  5
687
330
684
100
AcDbEntity
  8
BEMA_UNG
  0
POLYLINE
  5
688
330
1F
100
AcDbEntity
  8
BEMA_UNG
 62
     7
100
AcDb2dPolyline
 66
     1
 10
0.0
 20
0.0
 30
0.0
  0
VERTEX
  5
689
330
688
100
AcDbEntity
  8
BEMA_UNG
 62
     7
100
AcDbVertex
100
AcDb2dVertex
 10
69.21752611386306
 20
-4.522035317100512
 30
0.0
  0
VERTEX
  5
68A
330
688
100
AcDbEntity
  8
BEMA_UNG
 62
     7
100
AcDbVertex
100
AcDb2dVertex
 10
69.21752611386306
 20
-3.337007815805641
 30
0.0
  0
SEQEND
  5
68B
330
688
100
AcDbEntity
  8
BEMA_UNG
  0
POLYLINE
  5
68C
330
1F
100
AcDbEntity
  8
BEMA_UNG
 62
     7
100
AcDb2dPolyline
 66
     1
 10
0.0
 20
0.0
 30
0.0
  0
VERTEX
  5
68D
330
68C
100
AcDbEntity
  8
BEMA_UNG
 62
     7
100
AcDbVertex
100
AcDb2dVertex
 10
69.16671092193313
 20
-4.522035317100512
 30
0.0
  0
VERTEX
  5
68E
330
68C
100
AcDbEntity
  8
BEMA_UNG
 62
     7
100
AcDbVertex
100
AcDb2dVertex
 10
69.16671092193313
 20
-2.951415249245779
 30
0.0
  0
SEQEND
  5
68F
330
68C
100
AcDbEntity
  8
BEMA_UNG
  0
POLYLINE
  5
690
330
1F
100
AcDbEntity
  8
BEMA_UNG
 62
     7
100
AcDb2dPolyline
 66
     1
 10
0.0
 20
0.0
 30
0.0
  0
VERTEX
  5
691
330
690
100
AcDbEntity
  8
BEMA_UNG
 62
     7
100
AcDbVertex
100
AcDb2dVertex
 10
69.11589573000319
 20
-4.522035317100512
 30
0.0
  0
VERTEX
  5
692
330
690
100
AcDbEntity
  8
BEMA_UNG
 62
     7
100
AcDbVertex
100
AcDb2dVertex
 10
69.11589573000319
 20
-2.56547817291012
 30
0.0
  0
SEQEND
  5
693
330
690
100
AcDbEntity
  8
BEMA_UNG
  0
POLYLINE
  5
694
330
1F
100
AcDbEntity
  8
BEMA_UNG
 62
     7
100
AcDb2dPolyline
 66
     1
 10
0.0
 20
0.0
 30
0.0
  0
VERTEX
  5
695
330
694
100
AcDbEntity
  8
BEMA_UNG
 62
     7
100
AcDbVertex
100
AcDb2dVertex
 10
69.06508053807326
 20
-4.522035317100512
 30
0.0
  0
VERTEX
  5
696
330
694
100
AcDbEntity
  8
BEMA_UNG
 62
     7
100
AcDbVertex
100
AcDb2dVertex
 10
69.06508053807326
 20
-2.179196586798666
 30
0.0
  0
SEQEND
  5
697
330
694
100
AcDbEntity
  8
BEMA_UNG
  0
POLYLINE
  5
698
330
1F
100
AcDbEntity
  8
BEMA_UNG
 62
     7
100
AcDb2dPolyline
 66
     1
 10
0.0
 20
0.0
 30
0.0
  0
VERTEX
  5
699
330
698
100
AcDbEntity
  8
BEMA_UNG
 62
     7
100
AcDbVertex
100
AcDb2dVertex
 10
69.01426534614332
 20
-4.522035317100512
 30
0.0
  0
VERTEX
  5
69A
330
698
100
AcDbEntity
  8
BEMA_UNG
 62
     7
100
AcDbVertex
100
AcDb2dVertex
 10
69.01426534614332
 20
-1.793604020238804
 30
0.0
  0
SEQEND
  5
69B
330
698
100
AcDbEntity
  8
BEMA_UNG
  0
POLYLINE
  5
69C
330
1F
100
AcDbEntity
  8
BEMA_UNG
 62
     7
100
AcDb2dPolyline
 66
     1
 10
0.0
 20
0.0
 30
0.0
  0
VERTEX
  5
69D
330
69C
100
AcDbEntity
  8
BEMA_UNG
 62
     7
100
AcDbVertex
100
AcDb2dVertex
 10
68.96362240910129
 20
-4.522035317100512
 30
0.0
  0
VERTEX
  5
69E
330
69C
100
AcDbEntity
  8
BEMA_UNG
 62
     7
100
AcDbVertex
100
AcDb2dVertex
 10
68.96362240910129
 20
-1.40732243412735
 30
0.0
  0
SEQEND
  5
69F
330
69C
100
AcDbEntity
  8
BEMA_UNG
  0
POLYLINE
  5
6A0
330
1F
100
AcDbEntity
  8
BEMA_UNG
 62
     7
100
AcDb2dPolyline
 66
     1
 10
0.0
 20
0.0
 30
0.0
  0
VERTEX
  5
6A1
330
6A0
100
AcDbEntity
  8
BEMA_UNG
 62
     7
100
AcDbVertex
100
AcDb2dVertex
 10
68.91280721717135
 20
-4.522035317100512
 30
0.0
  0
VERTEX
  5
6A2
330
6A0
100
AcDbEntity
  8
BEMA_UNG
 62
     7
100
AcDbVertex
100
AcDb2dVertex
 10
68.91280721717135
 20
-1.022074377343284
 30
0.0
  0
SEQEND
  5
6A3
330
6A0
100
AcDbEntity
  8
BEMA_UNG
  0
POLYLINE
  5
6A4
330
1F
100
AcDbEntity
  8
BEMA_UNG
 62
     7
100
AcDb2dPolyline
 66
     1
 10
0.0
 20
0.0
 30
0.0
  0
VERTEX
  5
6A5
330
6A4
100
AcDbEntity
  8
BEMA_UNG
 62
     7
100
AcDbVertex
100
AcDb2dVertex
 10
68.91280721717135
 20
-33.02143426495068
 30
0.0
  0
VERTEX
  5
6A6
330
6A4
100
AcDbEntity
  8
BEMA_UNG
 62
     7
100
AcDbVertex
100
AcDb2dVertex
 10
69.37376129718662
 20
-29.5219039624132
 30
0.0
  0
VERTEX
  5
6A7
330
6A4
100
AcDbEntity
  8
BEMA_UNG
 62
     7
100
AcDbVertex
100
AcDb2dVertex
 10
68.45236990181976
 20
-29.5219039624132
 30
0.0
  0
VERTEX
  5
6A8
330
6A4
100
AcDbEntity
  8
BEMA_UNG
 62
     7
100
AcDbVertex
100
AcDb2dVertex
 10
68.91280721717135
 20
-33.02143426495068
 30
0.0
  0
SEQEND
  5
6A9
330
6A4
100
AcDbEntity
  8
BEMA_UNG
  0
POLYLINE
  5
6AA
330
1F
100
AcDbEntity
  8
BEMA_UNG
 62
     7
100
AcDb2dPolyline
 66
     1
 10
0.0
 20
0.0
 30
0.0
  0
VERTEX
  5
6AB
330
6AA
100
AcDbEntity
  8
BEMA_UNG
 62
     7
100
AcDbVertex
100
AcDb2dVertex
 10
69.36997168965287
 20
-29.5219039624132
 30
0.0
  0
VERTEX
  5
6AC
330
6AA
100
AcDbEntity
  8
BEMA_UNG
 62
     7
100
AcDbVertex
100
AcDb2dVertex
 10
69.36997168965287
 20
-29.5491202347011
 30
0.0
  0
SEQEND
  5
6AD
330
6AA
100
AcDbEntity
  8
BEMA_UNG
  0
POLYLINE
  5
6AE
330
1F
100
AcDbEntity
  8
BEMA_UNG
 62
     7
100
AcDb2dPolyline
 66
     1
 10
0.0
 20
0.0
 30
0.0
  0
VERTEX
  5
6AF
330
6AE
100
AcDbEntity
  8
BEMA_UNG
 62
     7
100
AcDbVertex
100
AcDb2dVertex
 10
69.36997168965287
 20
-29.5219039624132
 30
0.0
  0
VERTEX
  5
6B0
330
6AE
100
AcDbEntity
  8
BEMA_UNG
 62
     7
100
AcDbVertex
100
AcDb2dVertex
 10
69.36997168965287
 20
-29.5491202347011
 30
0.0
  0
SEQEND
  5
6B1
330
6AE
100
AcDbEntity
  8
BEMA_UNG
  0
POLYLINE
  5
6B2
330
1F
100
AcDbEntity
  8
BEMA_UNG
 62
     7
100
AcDb2dPolyline
 66
     1
 10
0.0
 20
0.0
 30
0.0
  0
VERTEX
  5
6B3
330
6B2
100
AcDbEntity
  8
BEMA_UNG
 62
     7
100
AcDbVertex
100
AcDb2dVertex
 10
69.31915649772293
 20
-29.5219039624132
 30
0.0
  0
VERTEX
  5
6B4
330
6B2
100
AcDbEntity
  8
BEMA_UNG
 62
     7
100
AcDbVertex
100
AcDb2dVertex
 10
69.31915649772293
 20
-29.93462667381701
 30
0.0
  0
SEQEND
  5
6B5
330
6B2
100
AcDbEntity
  8
BEMA_UNG
  0
POLYLINE
  5
6B6
330
1F
100
AcDbEntity
  8
BEMA_UNG
 62
     7
100
AcDb2dPolyline
 66
     1
 10
0.0
 20
0.0
 30
0.0
  0
VERTEX
  5
6B7
330
6B6
100
AcDbEntity
  8
BEMA_UNG
 62
     7
100
AcDbVertex
100
AcDb2dVertex
 10
69.268341305793
 20
-29.5219039624132
 30
0.0
  0
VERTEX
  5
6B8
330
6B6
100
AcDbEntity
  8
BEMA_UNG
 62
     7
100
AcDbVertex
100
AcDb2dVertex
 10
69.268341305793
 20
-30.32099438737241
 30
0.0
  0
SEQEND
  5
6B9
330
6B6
100
AcDbEntity
  8
BEMA_UNG
  0
POLYLINE
  5
6BA
330
1F
100
AcDbEntity
  8
BEMA_UNG
 62
     7
100
AcDb2dPolyline
 66
     1
 10
0.0
 20
0.0
 30
0.0
  0
VERTEX
  5
6BB
330
6BA
100
AcDbEntity
  8
BEMA_UNG
 62
     7
100
AcDbVertex
100
AcDb2dVertex
 10
69.21752611386306
 20
-29.5219039624132
 30
0.0
  0
VERTEX
  5
6BC
330
6BA
100
AcDbEntity
  8
BEMA_UNG
 62
     7
100
AcDbVertex
100
AcDb2dVertex
 10
69.21752611386306
 20
-30.70667308137622
 30
0.0
  0
SEQEND
  5
6BD
330
6BA
100
AcDbEntity
  8
BEMA_UNG
  0
POLYLINE
  5
6BE
330
1F
100
AcDbEntity
  8
BEMA_UNG
 62
     7
100
AcDb2dPolyline
 66
     1
 10
0.0
 20
0.0
 30
0.0
  0
VERTEX
  5
6BF
330
6BE
100
AcDbEntity
  8
BEMA_UNG
 62
     7
100
AcDbVertex
100
AcDb2dVertex
 10
69.16671092193313
 20
-29.5219039624132
 30
0.0
  0
VERTEX
  5
6C0
330
6BE
100
AcDbEntity
  8
BEMA_UNG
 62
     7
100
AcDbVertex
100
AcDb2dVertex
 10
69.16671092193313
 20
-31.09252403026793
 30
0.0
  0
SEQEND
  5
6C1
330
6BE
100
AcDbEntity
  8
BEMA_UNG
  0
POLYLINE
  5
6C2
330
1F
100
AcDbEntity
  8
BEMA_UNG
 62
     7
100
AcDb2dPolyline
 66
     1
 10
0.0
 20
0.0
 30
0.0
  0
VERTEX
  5
6C3
330
6C2
100
AcDbEntity
  8
BEMA_UNG
 62
     7
100
AcDbVertex
100
AcDb2dVertex
 10
69.11589573000319
 20
-29.5219039624132
 30
0.0
  0
VERTEX
  5
6C4
330
6C2
100
AcDbEntity
  8
BEMA_UNG
 62
     7
100
AcDbVertex
100
AcDb2dVertex
 10
69.11589573000319
 20
-31.47803046938385
 30
0.0
  0
SEQEND
  5
6C5
330
6C2
100
AcDbEntity
  8
BEMA_UNG
  0
POLYLINE
  5
6C6
330
1F
100
AcDbEntity
  8
BEMA_UNG
 62
     7
100
AcDb2dPolyline
 66
     1
 10
0.0
 20
0.0
 30
0.0
  0
VERTEX
  5
6C7
330
6C6
100
AcDbEntity
  8
BEMA_UNG
 62
     7
100
AcDbVertex
100
AcDb2dVertex
 10
69.06508053807326
 20
-29.5219039624132
 30
0.0
  0
VERTEX
  5
6C8
330
6C6
100
AcDbEntity
  8
BEMA_UNG
 62
     7
100
AcDbVertex
100
AcDb2dVertex
 10
69.06508053807326
 20
-31.86439818293925
 30
0.0
  0
SEQEND
  5
6C9
330
6C6
100
AcDbEntity
  8
BEMA_UNG
  0
POLYLINE
  5
6CA
330
1F
100
AcDbEntity
  8
BEMA_UNG
 62
     7
100
AcDb2dPolyline
 66
     1
 10
0.0
 20
0.0
 30
0.0
  0
VERTEX
  5
6CB
330
6CA
100
AcDbEntity
  8
BEMA_UNG
 62
     7
100
AcDbVertex
100
AcDb2dVertex
 10
69.01426534614332
 20
-29.5219039624132
 30
0.0
  0
VERTEX
  5
6CC
330
6CA
100
AcDbEntity
  8
BEMA_UNG
 62
     7
100
AcDbVertex
100
AcDb2dVertex
 10
69.01426534614332
 20
-32.25007687694306
 30
0.0
  0
SEQEND
  5
6CD
330
6CA
100
AcDbEntity
  8
BEMA_UNG
  0
POLYLINE
  5
6CE
330
1F
100
AcDbEntity
  8
BEMA_UNG
 62
     7
100
AcDb2dPolyline
 66
     1
 10
0.0
 20
0.0
 30
0.0
  0
VERTEX
  5
6CF
330
6CE
100
AcDbEntity
  8
BEMA_UNG
 62
     7
100
AcDbVertex
100
AcDb2dVertex
 10
68.96362240910129
 20
-29.5219039624132
 30
0.0
  0
VERTEX
  5
6D0
330
6CE
100
AcDbEntity
  8
BEMA_UNG
 62
     7
100
AcDbVertex
100
AcDb2dVertex
 10
68.96362240910129
 20
-32.63627233561056
 30
0.0
  0
SEQEND
  5
6D1
330
6CE
100
AcDbEntity
  8
BEMA_UNG
  0
POLYLINE
  5
6D2
330
1F
100
AcDbEntity
  8
BEMA_UNG
 62
     7
100
AcDb2dPolyline
 66
     1
 10
0.0
 20
0.0
 30
0.0
  0
VERTEX
  5
6D3
330
6D2
100
AcDbEntity
  8
BEMA_UNG
 62
     7
100
AcDbVertex
100
AcDb2dVertex
 10
68.91280721717135
 20
-29.5219039624132
 30
0.0
  0
VERTEX
  5
6D4
330
6D2
100
AcDbEntity
  8
BEMA_UNG
 62
     7
100
AcDbVertex
100
AcDb2dVertex
 10
68.91280721717135
 20
-33.02143426495068
 30
0.0
  0
SEQEND
  5
6D5
330
6D2
100
AcDbEntity
  8
BEMA_UNG
  0
POLYLINE
  5
6D6
330
1F
100
AcDbEntity
  8
BEMA_UNG
 62
     7
100
AcDb2dPolyline
 66
     1
 10
0.0
 20
0.0
 30
0.0
  0
VERTEX
  5
6D7
330
6D6
100
AcDbEntity
  8
BEMA_UNG
 62
     7
100
AcDbVertex
100
AcDb2dVertex
 10
68.45581499957773
 20
-29.5219039624132
 30
0.0
  0
VERTEX
  5
6D8
330
6D6
100
AcDbEntity
  8
BEMA_UNG
 62
     7
100
AcDbVertex
100
AcDb2dVertex
 10
68.45581499957773
 20
-29.5491202347011
 30
0.0
  0
SEQEND
  5
6D9
330
6D6
100
AcDbEntity
  8
BEMA_UNG
  0
POLYLINE
  5
6DA
330
1F
100
AcDbEntity
  8
BEMA_UNG
 62
     7
100
AcDb2dPolyline
 66
     1
 10
0.0
 20
0.0
 30
0.0
  0
VERTEX
  5
6DB
330
6DA
100
AcDbEntity
  8
BEMA_UNG
 62
     7
100
AcDbVertex
100
AcDb2dVertex
 10
68.45581499957773
 20
-29.5219039624132
 30
0.0
  0
VERTEX
  5
6DC
330
6DA
100
AcDbEntity
  8
BEMA_UNG
 62
     7
100
AcDbVertex
100
AcDb2dVertex
 10
68.45581499957773
 20
-29.5491202347011
 30
0.0
  0
SEQEND
  5
6DD
330
6DA
100
AcDbEntity
  8
BEMA_UNG
  0
POLYLINE
  5
6DE
330
1F
100
AcDbEntity
  8
BEMA_UNG
 62
     7
100
AcDb2dPolyline
 66
     1
 10
0.0
 20
0.0
 30
0.0
  0
VERTEX
  5
6DF
330
6DE
100
AcDbEntity
  8
BEMA_UNG
 62
     7
100
AcDbVertex
100
AcDb2dVertex
 10
68.50663019150767
 20
-29.5219039624132
 30
0.0
  0
VERTEX
  5
6E0
330
6DE
100
AcDbEntity
  8
BEMA_UNG
 62
     7
100
AcDbVertex
100
AcDb2dVertex
 10
68.50663019150767
 20
-29.93462667381701
 30
0.0
  0
SEQEND
  5
6E1
330
6DE
100
AcDbEntity
  8
BEMA_UNG
  0
POLYLINE
  5
6E2
330
1F
100
AcDbEntity
  8
BEMA_UNG
 62
     7
100
AcDb2dPolyline
 66
     1
 10
0.0
 20
0.0
 30
0.0
  0
VERTEX
  5
6E3
330
6E2
100
AcDbEntity
  8
BEMA_UNG
 62
     7
100
AcDbVertex
100
AcDb2dVertex
 10
68.5574453834376
 20
-29.5219039624132
 30
0.0
  0
VERTEX
  5
6E4
330
6E2
100
AcDbEntity
  8
BEMA_UNG
 62
     7
100
AcDbVertex
100
AcDb2dVertex
 10
68.5574453834376
 20
-30.32099438737241
 30
0.0
  0
SEQEND
  5
6E5
330
6E2
100
AcDbEntity
  8
BEMA_UNG
  0
POLYLINE
  5
6E6
330
1F
100
AcDbEntity
  8
BEMA_UNG
 62
     7
100
AcDb2dPolyline
 66
     1
 10
0.0
 20
0.0
 30
0.0
  0
VERTEX
  5
6E7
330
6E6
100
AcDbEntity
  8
BEMA_UNG
 62
     7
100
AcDbVertex
100
AcDb2dVertex
 10
68.60826057536754
 20
-29.5219039624132
 30
0.0
  0
VERTEX
  5
6E8
330
6E6
100
AcDbEntity
  8
BEMA_UNG
 62
     7
100
AcDbVertex
100
AcDb2dVertex
 10
68.60826057536754
 20
-30.70667308137622
 30
0.0
  0
SEQEND
  5
6E9
330
6E6
100
AcDbEntity
  8
BEMA_UNG
  0
POLYLINE
  5
6EA
330
1F
100
AcDbEntity
  8
BEMA_UNG
 62
     7
100
AcDb2dPolyline
 66
     1
 10
0.0
 20
0.0
 30
0.0
  0
VERTEX
  5
6EB
330
6EA
100
AcDbEntity
  8
BEMA_UNG
 62
     7
100
AcDbVertex
100
AcDb2dVertex
 10
68.65907576729747
 20
-29.5219039624132
 30
0.0
  0
VERTEX
  5
6EC
330
6EA
100
AcDbEntity
  8
BEMA_UNG
 62
     7
100
AcDbVertex
100
AcDb2dVertex
 10
68.65907576729747
 20
-31.09252403026793
 30
0.0
  0
SEQEND
  5
6ED
330
6EA
100
AcDbEntity
  8
BEMA_UNG
  0
POLYLINE
  5
6EE
330
1F
100
AcDbEntity
  8
BEMA_UNG
 62
     7
100
AcDb2dPolyline
 66
     1
 10
0.0
 20
0.0
 30
0.0
  0
VERTEX
  5
6EF
330
6EE
100
AcDbEntity
  8
BEMA_UNG
 62
     7
100
AcDbVertex
100
AcDb2dVertex
 10
68.70989095922741
 20
-29.5219039624132
 30
0.0
  0
VERTEX
  5
6F0
330
6EE
100
AcDbEntity
  8
BEMA_UNG
 62
     7
100
AcDbVertex
100
AcDb2dVertex
 10
68.70989095922741
 20
-31.47803046938385
 30
0.0
  0
SEQEND
  5
6F1
330
6EE
100
AcDbEntity
  8
BEMA_UNG
  0
POLYLINE
  5
6F2
330
1F
100
AcDbEntity
  8
BEMA_UNG
 62
     7
100
AcDb2dPolyline
 66
     1
 10
0.0
 20
0.0
 30
0.0
  0
VERTEX
  5
6F3
330
6F2
100
AcDbEntity
  8
BEMA_UNG
 62
     7
100
AcDbVertex
100
AcDb2dVertex
 10
68.76070615115734
 20
-29.5219039624132
 30
0.0
  0
VERTEX
  5
6F4
330
6F2
100
AcDbEntity
  8
BEMA_UNG
 62
     7
100
AcDbVertex
100
AcDb2dVertex
 10
68.76070615115734
 20
-31.86439818293925
 30
0.0
  0
SEQEND
  5
6F5
330
6F2
100
AcDbEntity
  8
BEMA_UNG
  0
POLYLINE
  5
6F6
330
1F
100
AcDbEntity
  8
BEMA_UNG
 62
     7
100
AcDb2dPolyline
 66
     1
 10
0.0
 20
0.0
 30
0.0
  0
VERTEX
  5
6F7
330
6F6
100
AcDbEntity
  8
BEMA_UNG
 62
     7
100
AcDbVertex
100
AcDb2dVertex
 10
68.81152134308728
 20
-29.5219039624132
 30
0.0
  0
VERTEX
  5
6F8
330
6F6
100
AcDbEntity
  8
BEMA_UNG
 62
     7
100
AcDbVertex
100
AcDb2dVertex
 10
68.81152134308728
 20
-32.25007687694306
 30
0.0
  0
SEQEND
  5
6F9
330
6F6
100
AcDbEntity
  8
BEMA_UNG
  0
POLYLINE
  5
6FA
330
1F
100
AcDbEntity
  8
BEMA_UNG
 62
     7
100
AcDb2dPolyline
 66
     1
 10
0.0
 20
0.0
 30
0.0
  0
VERTEX
  5
6FB
330
6FA
100
AcDbEntity
  8
BEMA_UNG
 62
     7
100
AcDbVertex
100
AcDb2dVertex
 10
68.86199202524142
 20
-29.5219039624132
 30
0.0
  0
VERTEX
  5
6FC
330
6FA
100
AcDbEntity
  8
BEMA_UNG
 62
     7
100
AcDbVertex
100
AcDb2dVertex
 10
68.86199202524142
 20
-32.63627233561056
 30
0.0
  0
SEQEND
  5
6FD
330
6FA
100
AcDbEntity
  8
BEMA_UNG
  0
POLYLINE
  5
6FE
330
1F
100
AcDbEntity
  8
BEMA_UNG
 62
     7
100
AcDb2dPolyline
 66
     1
 10
0.0
 20
0.0
 30
0.0
  0
VERTEX
  5
6FF
330
6FE
100
AcDbEntity
  8
BEMA_UNG
 62
     7
100
AcDbVertex
100
AcDb2dVertex
 10
68.91280721717135
 20
-29.5219039624132
 30
0.0
  0
VERTEX
  5
700
330
6FE
100
AcDbEntity
  8
BEMA_UNG
 62
     7
100
AcDbVertex
100
AcDb2dVertex
 10
68.91280721717135
 20
-33.02143426495068
 30
0.0
  0
SEQEND
  5
701
330
6FE
100
AcDbEntity
  8
BEMA_UNG
  0
POLYLINE
  5
702
330
1F
100
AcDbEntity
  8
BEMA_UNG
 62
     7
100
AcDb2dPolyline
 66
     1
 10
0.0
 20
0.0
 30
0.0
  0
VERTEX
  5
703
330
702
100
AcDbEntity
  8
BEMA_UNG
 62
     7
100
AcDbVertex
100
AcDb2dVertex
 10
53.88563530671826
 20
-7.58231565549788
 30
0.0
  0
VERTEX
  5
704
330
702
100
AcDbEntity
  8
BEMA_UNG
 62
     7
100
AcDbVertex
100
AcDb2dVertex
 10
53.88563530671826
 20
-45.85614596223695
 30
0.0
  0
SEQEND
  5
705
330
702
100
AcDbEntity
  8
BEMA_UNG
  0
POLYLINE
  5
706
330
1F
100
AcDbEntity
  8
BEMA_UNG
 62
     7
100
AcDb2dPolyline
 66
     1
 10
0.0
 20
0.0
 30
0.0
  0
VERTEX
  5
707
330
706
100
AcDbEntity
  8
BEMA_UNG
 62
     7
100
AcDbVertex
100
AcDb2dVertex
 10
-0.1112766575821625
 20
-20.92690182096248
 30
0.0
  0
VERTEX
  5
708
330
706
100
AcDbEntity
  8
BEMA_UNG
 62
     7
100
AcDbVertex
100
AcDb2dVertex
 10
-0.1112766575821625
 20
-45.85614596223695
 30
0.0
  0
SEQEND
  5
709
330
706
100
AcDbEntity
  8
BEMA_UNG
  0
POLYLINE
  5
70A
330
1F
100
AcDbEntity
  8
BEMA_UNG
 62
     7
100
AcDb2dPolyline
 66
     1
 10
0.0
 20
0.0
 30
0.0
  0
VERTEX
  5
70B
330
70A
100
AcDbEntity
  8
BEMA_UNG
 62
     7
100
AcDbVertex
100
AcDb2dVertex
 10
53.88563530671826
 20
-43.85626671374019
 30
0.0
  0
VERTEX
  5
70C
330
70A
100
AcDbEntity
  8
BEMA_UNG
 62
     7
100
AcDbVertex
100
AcDb2dVertex
 10
-0.1112766575821625
 20
-43.85626671374019
 30
0.0
  0
SEQEND
  5
70D
330
70A
100
AcDbEntity
  8
BEMA_UNG
  0
POLYLINE
  5
70E
330
1F
100
AcDbEntity
  8
BEMA_UNG
 62
     7
100
AcDb2dPolyline
 66
     1
 10
0.0
 20
0.0
 30
0.0
  0
VERTEX
  5
70F
330
70E
100
AcDbEntity
  8
BEMA_UNG
 62
     7
100
AcDbVertex
100
AcDb2dVertex
 10
53.88563530671826
 20
-43.85626671374019
 30
0.0
  0
VERTEX
  5
710
330
70E
100
AcDbEntity
  8
BEMA_UNG
 62
     7
100
AcDbVertex
100
AcDb2dVertex
 10
50.38541598462918
 20
-43.39548488861281
 30
0.0
  0
VERTEX
  5
711
330
70E
100
AcDbEntity
  8
BEMA_UNG
 62
     7
100
AcDbVertex
100
AcDb2dVertex
 10
50.38541598462918
 20
-44.31670402909177
 30
0.0
  0
VERTEX
  5
712
330
70E
100
AcDbEntity
  8
BEMA_UNG
 62
     7
100
AcDbVertex
100
AcDb2dVertex
 10
53.88563530671826
 20
-43.85626671374019
 30
0.0
  0
SEQEND
  5
713
330
70E
100
AcDbEntity
  8
BEMA_UNG
  0
POLYLINE
  5
714
330
1F
100
AcDbEntity
  8
BEMA_UNG
 62
     7
100
AcDb2dPolyline
 66
     1
 10
0.0
 20
0.0
 30
0.0
  0
VERTEX
  5
715
330
714
100
AcDbEntity
  8
BEMA_UNG
 62
     7
100
AcDbVertex
100
AcDb2dVertex
 10
50.38541598462918
 20
-43.39858547659498
 30
0.0
  0
VERTEX
  5
716
330
714
100
AcDbEntity
  8
BEMA_UNG
 62
     7
100
AcDbVertex
100
AcDb2dVertex
 10
50.41297676669288
 20
-43.39858547659498
 30
0.0
  0
SEQEND
  5
717
330
714
100
AcDbEntity
  8
BEMA_UNG
  0
POLYLINE
  5
718
330
1F
100
AcDbEntity
  8
BEMA_UNG
 62
     7
100
AcDb2dPolyline
 66
     1
 10
0.0
 20
0.0
 30
0.0
  0
VERTEX
  5
719
330
718
100
AcDbEntity
  8
BEMA_UNG
 62
     7
100
AcDbVertex
100
AcDb2dVertex
 10
50.38541598462918
 20
-43.39858547659498
 30
0.0
  0
VERTEX
  5
71A
330
718
100
AcDbEntity
  8
BEMA_UNG
 62
     7
100
AcDbVertex
100
AcDb2dVertex
 10
50.41297676669288
 20
-43.39858547659498
 30
0.0
  0
SEQEND
  5
71B
330
718
100
AcDbEntity
  8
BEMA_UNG
  0
POLYLINE
  5
71C
330
1F
100
AcDbEntity
  8
BEMA_UNG
 62
     7
100
AcDb2dPolyline
 66
     1
 10
0.0
 20
0.0
 30
0.0
  0
VERTEX
  5
71D
330
71C
100
AcDbEntity
  8
BEMA_UNG
 62
     7
100
AcDbVertex
100
AcDb2dVertex
 10
50.38541598462918
 20
-43.44991743318861
 30
0.0
  0
VERTEX
  5
71E
330
71C
100
AcDbEntity
  8
BEMA_UNG
 62
     7
100
AcDbVertex
100
AcDb2dVertex
 10
50.79813869603299
 20
-43.44991743318861
 30
0.0
  0
SEQEND
  5
71F
330
71C
100
AcDbEntity
  8
BEMA_UNG
  0
POLYLINE
  5
720
330
1F
100
AcDbEntity
  8
BEMA_UNG
 62
     7
100
AcDb2dPolyline
 66
     1
 10
0.0
 20
0.0
 30
0.0
  0
VERTEX
  5
721
330
720
100
AcDbEntity
  8
BEMA_UNG
 62
     7
100
AcDbVertex
100
AcDb2dVertex
 10
50.38541598462918
 20
-43.50056037023064
 30
0.0
  0
VERTEX
  5
722
330
720
100
AcDbEntity
  8
BEMA_UNG
 62
     7
100
AcDbVertex
100
AcDb2dVertex
 10
51.1843341547005
 20
-43.50056037023064
 30
0.0
  0
SEQEND
  5
723
330
720
100
AcDbEntity
  8
BEMA_UNG
  0
POLYLINE
  5
724
330
1F
100
AcDbEntity
  8
BEMA_UNG
 62
     7
100
AcDb2dPolyline
 66
     1
 10
0.0
 20
0.0
 30
0.0
  0
VERTEX
  5
725
330
724
100
AcDbEntity
  8
BEMA_UNG
 62
     7
100
AcDbVertex
100
AcDb2dVertex
 10
50.38541598462918
 20
-43.55137556216058
 30
0.0
  0
VERTEX
  5
726
330
724
100
AcDbEntity
  8
BEMA_UNG
 62
     7
100
AcDbVertex
100
AcDb2dVertex
 10
51.57001284870431
 20
-43.55137556216058
 30
0.0
  0
SEQEND
  5
727
330
724
100
AcDbEntity
  8
BEMA_UNG
  0
POLYLINE
  5
728
330
1F
100
AcDbEntity
  8
BEMA_UNG
 62
     7
100
AcDb2dPolyline
 66
     1
 10
0.0
 20
0.0
 30
0.0
  0
VERTEX
  5
729
330
728
100
AcDbEntity
  8
BEMA_UNG
 62
     7
100
AcDbVertex
100
AcDb2dVertex
 10
50.38541598462918
 20
-43.60219075409051
 30
0.0
  0
VERTEX
  5
72A
330
728
100
AcDbEntity
  8
BEMA_UNG
 62
     7
100
AcDbVertex
100
AcDb2dVertex
 10
51.95638056225972
 20
-43.60219075409051
 30
0.0
  0
SEQEND
  5
72B
330
728
100
AcDbEntity
  8
BEMA_UNG
  0
POLYLINE
  5
72C
330
1F
100
AcDbEntity
  8
BEMA_UNG
 62
     7
100
AcDb2dPolyline
 66
     1
 10
0.0
 20
0.0
 30
0.0
  0
VERTEX
  5
72D
330
72C
100
AcDbEntity
  8
BEMA_UNG
 62
     7
100
AcDbVertex
100
AcDb2dVertex
 10
50.38541598462918
 20
-43.65300594602045
 30
0.0
  0
VERTEX
  5
72E
330
72C
100
AcDbEntity
  8
BEMA_UNG
 62
     7
100
AcDbVertex
100
AcDb2dVertex
 10
52.34223151115143
 20
-43.65300594602045
 30
0.0
  0
SEQEND
  5
72F
330
72C
100
AcDbEntity
  8
BEMA_UNG
  0
POLYLINE
  5
730
330
1F
100
AcDbEntity
  8
BEMA_UNG
 62
     7
100
AcDb2dPolyline
 66
     1
 10
0.0
 20
0.0
 30
0.0
  0
VERTEX
  5
731
330
730
100
AcDbEntity
  8
BEMA_UNG
 62
     7
100
AcDbVertex
100
AcDb2dVertex
 10
50.38541598462918
 20
-43.70382113795038
 30
0.0
  0
VERTEX
  5
732
330
730
100
AcDbEntity
  8
BEMA_UNG
 62
     7
100
AcDbVertex
100
AcDb2dVertex
 10
52.72773795026734
 20
-43.70382113795038
 30
0.0
  0
SEQEND
  5
733
330
730
100
AcDbEntity
  8
BEMA_UNG
  0
POLYLINE
  5
734
330
1F
100
AcDbEntity
  8
BEMA_UNG
 62
     7
100
AcDb2dPolyline
 66
     1
 10
0.0
 20
0.0
 30
0.0
  0
VERTEX
  5
735
330
734
100
AcDbEntity
  8
BEMA_UNG
 62
     7
100
AcDbVertex
100
AcDb2dVertex
 10
50.38541598462918
 20
-43.75463632988032
 30
0.0
  0
VERTEX
  5
736
330
734
100
AcDbEntity
  8
BEMA_UNG
 62
     7
100
AcDbVertex
100
AcDb2dVertex
 10
53.11341664427115
 20
-43.75463632988032
 30
0.0
  0
SEQEND
  5
737
330
734
100
AcDbEntity
  8
BEMA_UNG
  0
POLYLINE
  5
738
330
1F
100
AcDbEntity
  8
BEMA_UNG
 62
     7
100
AcDb2dPolyline
 66
     1
 10
0.0
 20
0.0
 30
0.0
  0
VERTEX
  5
739
330
738
100
AcDbEntity
  8
BEMA_UNG
 62
     7
100
AcDbVertex
100
AcDb2dVertex
 10
50.38541598462918
 20
-43.80545152181026
 30
0.0
  0
VERTEX
  5
73A
330
738
100
AcDbEntity
  8
BEMA_UNG
 62
     7
100
AcDbVertex
100
AcDb2dVertex
 10
53.49978435782655
 20
-43.80545152181026
 30
0.0
  0
SEQEND
  5
73B
330
738
100
AcDbEntity
  8
BEMA_UNG
  0
POLYLINE
  5
73C
330
1F
100
AcDbEntity
  8
BEMA_UNG
 62
     7
100
AcDb2dPolyline
 66
     1
 10
0.0
 20
0.0
 30
0.0
  0
VERTEX
  5
73D
330
73C
100
AcDbEntity
  8
BEMA_UNG
 62
     7
100
AcDbVertex
100
AcDb2dVertex
 10
50.38541598462918
 20
-43.85626671374019
 30
0.0
  0
VERTEX
  5
73E
330
73C
100
AcDbEntity
  8
BEMA_UNG
 62
     7
100
AcDbVertex
100
AcDb2dVertex
 10
53.88563530671826
 20
-43.85626671374019
 30
0.0
  0
SEQEND
  5
73F
330
73C
100
AcDbEntity
  8
BEMA_UNG
  0
POLYLINE
  5
740
330
1F
100
AcDbEntity
  8
BEMA_UNG
 62
     7
100
AcDb2dPolyline
 66
     1
 10
0.0
 20
0.0
 30
0.0
  0
VERTEX
  5
741
330
740
100
AcDbEntity
  8
BEMA_UNG
 62
     7
100
AcDbVertex
100
AcDb2dVertex
 10
50.38541598462918
 20
-44.31308667644591
 30
0.0
  0
VERTEX
  5
742
330
740
100
AcDbEntity
  8
BEMA_UNG
 62
     7
100
AcDbVertex
100
AcDb2dVertex
 10
50.41297676669288
 20
-44.31308667644591
 30
0.0
  0
SEQEND
  5
743
330
740
100
AcDbEntity
  8
BEMA_UNG
  0
POLYLINE
  5
744
330
1F
100
AcDbEntity
  8
BEMA_UNG
 62
     7
100
AcDb2dPolyline
 66
     1
 10
0.0
 20
0.0
 30
0.0
  0
VERTEX
  5
745
330
744
100
AcDbEntity
  8
BEMA_UNG
 62
     7
100
AcDbVertex
100
AcDb2dVertex
 10
50.38541598462918
 20
-44.31308667644591
 30
0.0
  0
VERTEX
  5
746
330
744
100
AcDbEntity
  8
BEMA_UNG
 62
     7
100
AcDbVertex
100
AcDb2dVertex
 10
50.41297676669288
 20
-44.31308667644591
 30
0.0
  0
SEQEND
  5
747
330
744
100
AcDbEntity
  8
BEMA_UNG
  0
POLYLINE
  5
748
330
1F
100
AcDbEntity
  8
BEMA_UNG
 62
     7
100
AcDb2dPolyline
 66
     1
 10
0.0
 20
0.0
 30
0.0
  0
VERTEX
  5
749
330
748
100
AcDbEntity
  8
BEMA_UNG
 62
     7
100
AcDbVertex
100
AcDb2dVertex
 10
50.38541598462918
 20
-44.26227148451598
 30
0.0
  0
VERTEX
  5
74A
330
748
100
AcDbEntity
  8
BEMA_UNG
 62
     7
100
AcDbVertex
100
AcDb2dVertex
 10
50.79813869603299
 20
-44.26227148451598
 30
0.0
  0
SEQEND
  5
74B
330
748
100
AcDbEntity
  8
BEMA_UNG
  0
POLYLINE
  5
74C
330
1F
100
AcDbEntity
  8
BEMA_UNG
 62
     7
100
AcDb2dPolyline
 66
     1
 10
0.0
 20
0.0
 30
0.0
  0
VERTEX
  5
74D
330
74C
100
AcDbEntity
  8
BEMA_UNG
 62
     7
100
AcDbVertex
100
AcDb2dVertex
 10
50.38541598462918
 20
-44.21145629258604
 30
0.0
  0
VERTEX
  5
74E
330
74C
100
AcDbEntity
  8
BEMA_UNG
 62
     7
100
AcDbVertex
100
AcDb2dVertex
 10
51.1843341547005
 20
-44.21145629258604
 30
0.0
  0
SEQEND
  5
74F
330
74C
100
AcDbEntity
  8
BEMA_UNG
  0
POLYLINE
  5
750
330
1F
100
AcDbEntity
  8
BEMA_UNG
 62
     7
100
AcDb2dPolyline
 66
     1
 10
0.0
 20
0.0
 30
0.0
  0
VERTEX
  5
751
330
750
100
AcDbEntity
  8
BEMA_UNG
 62
     7
100
AcDbVertex
100
AcDb2dVertex
 10
50.38541598462918
 20
-44.16064110065611
 30
0.0
  0
VERTEX
  5
752
330
750
100
AcDbEntity
  8
BEMA_UNG
 62
     7
100
AcDbVertex
100
AcDb2dVertex
 10
51.57001284870431
 20
-44.16064110065611
 30
0.0
  0
SEQEND
  5
753
330
750
100
AcDbEntity
  8
BEMA_UNG
  0
POLYLINE
  5
754
330
1F
100
AcDbEntity
  8
BEMA_UNG
 62
     7
100
AcDb2dPolyline
 66
     1
 10
0.0
 20
0.0
 30
0.0
  0
VERTEX
  5
755
330
754
100
AcDbEntity
  8
BEMA_UNG
 62
     7
100
AcDbVertex
100
AcDb2dVertex
 10
50.38541598462918
 20
-44.10982590872617
 30
0.0
  0
VERTEX
  5
756
330
754
100
AcDbEntity
  8
BEMA_UNG
 62
     7
100
AcDbVertex
100
AcDb2dVertex
 10
51.95638056225972
 20
-44.10982590872617
 30
0.0
  0
SEQEND
  5
757
330
754
100
AcDbEntity
  8
BEMA_UNG
  0
POLYLINE
  5
758
330
1F
100
AcDbEntity
  8
BEMA_UNG
 62
     7
100
AcDb2dPolyline
 66
     1
 10
0.0
 20
0.0
 30
0.0
  0
VERTEX
  5
759
330
758
100
AcDbEntity
  8
BEMA_UNG
 62
     7
100
AcDbVertex
100
AcDb2dVertex
 10
50.38541598462918
 20
-44.05901071679624
 30
0.0
  0
VERTEX
  5
75A
330
758
100
AcDbEntity
  8
BEMA_UNG
 62
     7
100
AcDbVertex
100
AcDb2dVertex
 10
52.34223151115143
 20
-44.05901071679624
 30
0.0
  0
SEQEND
  5
75B
330
758
100
AcDbEntity
  8
BEMA_UNG
  0
POLYLINE
  5
75C
330
1F
100
AcDbEntity
  8
BEMA_UNG
 62
     7
100
AcDb2dPolyline
 66
     1
 10
0.0
 20
0.0
 30
0.0
  0
VERTEX
  5
75D
330
75C
100
AcDbEntity
  8
BEMA_UNG
 62
     7
100
AcDbVertex
100
AcDb2dVertex
 10
50.38541598462918
 20
-44.0081955248663
 30
0.0
  0
VERTEX
  5
75E
330
75C
100
AcDbEntity
  8
BEMA_UNG
 62
     7
100
AcDbVertex
100
AcDb2dVertex
 10
52.72773795026734
 20
-44.0081955248663
 30
0.0
  0
SEQEND
  5
75F
330
75C
100
AcDbEntity
  8
BEMA_UNG
  0
POLYLINE
  5
760
330
1F
100
AcDbEntity
  8
BEMA_UNG
 62
     7
100
AcDb2dPolyline
 66
     1
 10
0.0
 20
0.0
 30
0.0
  0
VERTEX
  5
761
330
760
100
AcDbEntity
  8
BEMA_UNG
 62
     7
100
AcDbVertex
100
AcDb2dVertex
 10
50.38541598462918
 20
-43.95738033293637
 30
0.0
  0
VERTEX
  5
762
330
760
100
AcDbEntity
  8
BEMA_UNG
 62
     7
100
AcDbVertex
100
AcDb2dVertex
 10
53.11341664427115
 20
-43.95738033293637
 30
0.0
  0
SEQEND
  5
763
330
760
100
AcDbEntity
  8
BEMA_UNG
  0
POLYLINE
  5
764
330
1F
100
AcDbEntity
  8
BEMA_UNG
 62
     7
100
AcDb2dPolyline
 66
     1
 10
0.0
 20
0.0
 30
0.0
  0
VERTEX
  5
765
330
764
100
AcDbEntity
  8
BEMA_UNG
 62
     7
100
AcDbVertex
100
AcDb2dVertex
 10
50.38541598462918
 20
-43.90708190567013
 30
0.0
  0
VERTEX
  5
766
330
764
100
AcDbEntity
  8
BEMA_UNG
 62
     7
100
AcDbVertex
100
AcDb2dVertex
 10
53.49978435782655
 20
-43.90708190567013
 30
0.0
  0
SEQEND
  5
767
330
764
100
AcDbEntity
  8
BEMA_UNG
  0
POLYLINE
  5
768
330
1F
100
AcDbEntity
  8
BEMA_UNG
 62
     7
100
AcDb2dPolyline
 66
     1
 10
0.0
 20
0.0
 30
0.0
  0
VERTEX
  5
769
330
768
100
AcDbEntity
  8
BEMA_UNG
 62
     7
100
AcDbVertex
100
AcDb2dVertex
 10
50.38541598462918
 20
-43.85626671374019
 30
0.0
  0
VERTEX
  5
76A
330
768
100
AcDbEntity
  8
BEMA_UNG
 62
     7
100
AcDbVertex
100
AcDb2dVertex
 10
53.88563530671826
 20
-43.85626671374019
 30
0.0
  0
SEQEND
  5
76B
330
768
100
AcDbEntity
  8
BEMA_UNG
  0
POLYLINE
  5
76C
330
1F
100
AcDbEntity
  8
BEMA_UNG
 62
     7
100
AcDb2dPolyline
 66
     1
 10
0.0
 20
0.0
 30
0.0
  0
VERTEX
  5
76D
330
76C
100
AcDbEntity
  8
BEMA_UNG
 62
     7
100
AcDbVertex
100
AcDb2dVertex
 10
-0.1112766575821625
 20
-43.85626671374019
 30
0.0
  0
VERTEX
  5
76E
330
76C
100
AcDbEntity
  8
BEMA_UNG
 62
     7
100
AcDbVertex
100
AcDb2dVertex
 10
3.38825364495532
 20
-44.31670402909177
 30
0.0
  0
VERTEX
  5
76F
330
76C
100
AcDbEntity
  8
BEMA_UNG
 62
     7
100
AcDbVertex
100
AcDb2dVertex
 10
3.38825364495532
 20
-43.39548488861281
 30
0.0
  0
VERTEX
  5
770
330
76C
100
AcDbEntity
  8
BEMA_UNG
 62
     7
100
AcDbVertex
100
AcDb2dVertex
 10
-0.1112766575821625
 20
-43.85626671374019
 30
0.0
  0
SEQEND
  5
771
330
76C
100
AcDbEntity
  8
BEMA_UNG
  0
POLYLINE
  5
772
330
1F
100
AcDbEntity
  8
BEMA_UNG
 62
     7
100
AcDb2dPolyline
 66
     1
 10
0.0
 20
0.0
 30
0.0
  0
VERTEX
  5
773
330
772
100
AcDbEntity
  8
BEMA_UNG
 62
     7
100
AcDbVertex
100
AcDb2dVertex
 10
3.38825364495532
 20
-44.31308667644591
 30
0.0
  0
VERTEX
  5
774
330
772
100
AcDbEntity
  8
BEMA_UNG
 62
     7
100
AcDbVertex
100
AcDb2dVertex
 10
3.361209627555321
 20
-44.31308667644591
 30
0.0
  0
SEQEND
  5
775
330
772
100
AcDbEntity
  8
BEMA_UNG
  0
POLYLINE
  5
776
330
1F
100
AcDbEntity
  8
BEMA_UNG
 62
     7
100
AcDb2dPolyline
 66
     1
 10
0.0
 20
0.0
 30
0.0
  0
VERTEX
  5
777
330
776
100
AcDbEntity
  8
BEMA_UNG
 62
     7
100
AcDbVertex
100
AcDb2dVertex
 10
3.38825364495532
 20
-44.31308667644591
 30
0.0
  0
VERTEX
  5
778
330
776
100
AcDbEntity
  8
BEMA_UNG
 62
     7
100
AcDbVertex
100
AcDb2dVertex
 10
3.361209627555321
 20
-44.31308667644591
 30
0.0
  0
SEQEND
  5
779
330
776
100
AcDbEntity
  8
BEMA_UNG
  0
POLYLINE
  5
77A
330
1F
100
AcDbEntity
  8
BEMA_UNG
 62
     7
100
AcDb2dPolyline
 66
     1
 10
0.0
 20
0.0
 30
0.0
  0
VERTEX
  5
77B
330
77A
100
AcDbEntity
  8
BEMA_UNG
 62
     7
100
AcDbVertex
100
AcDb2dVertex
 10
3.38825364495532
 20
-44.26227148451598
 30
0.0
  0
VERTEX
  5
77C
330
77A
100
AcDbEntity
  8
BEMA_UNG
 62
     7
100
AcDbVertex
100
AcDb2dVertex
 10
2.97553093355151
 20
-44.26227148451598
 30
0.0
  0
SEQEND
  5
77D
330
77A
100
AcDbEntity
  8
BEMA_UNG
  0
POLYLINE
  5
77E
330
1F
100
AcDbEntity
  8
BEMA_UNG
 62
     7
100
AcDb2dPolyline
 66
     1
 10
0.0
 20
0.0
 30
0.0
  0
VERTEX
  5
77F
330
77E
100
AcDbEntity
  8
BEMA_UNG
 62
     7
100
AcDbVertex
100
AcDb2dVertex
 10
3.38825364495532
 20
-44.21145629258604
 30
0.0
  0
VERTEX
  5
780
330
77E
100
AcDbEntity
  8
BEMA_UNG
 62
     7
100
AcDbVertex
100
AcDb2dVertex
 10
2.589163219996107
 20
-44.21145629258604
 30
0.0
  0
SEQEND
  5
781
330
77E
100
AcDbEntity
  8
BEMA_UNG
  0
POLYLINE
  5
782
330
1F
100
AcDbEntity
  8
BEMA_UNG
 62
     7
100
AcDb2dPolyline
 66
     1
 10
0.0
 20
0.0
 30
0.0
  0
VERTEX
  5
783
330
782
100
AcDbEntity
  8
BEMA_UNG
 62
     7
100
AcDbVertex
100
AcDb2dVertex
 10
3.38825364495532
 20
-44.16064110065611
 30
0.0
  0
VERTEX
  5
784
330
782
100
AcDbEntity
  8
BEMA_UNG
 62
     7
100
AcDbVertex
100
AcDb2dVertex
 10
2.20400129065599
 20
-44.16064110065611
 30
0.0
  0
SEQEND
  5
785
330
782
100
AcDbEntity
  8
BEMA_UNG
  0
POLYLINE
  5
786
330
1F
100
AcDbEntity
  8
BEMA_UNG
 62
     7
100
AcDb2dPolyline
 66
     1
 10
0.0
 20
0.0
 30
0.0
  0
VERTEX
  5
787
330
786
100
AcDbEntity
  8
BEMA_UNG
 62
     7
100
AcDbVertex
100
AcDb2dVertex
 10
3.38825364495532
 20
-44.10982590872617
 30
0.0
  0
VERTEX
  5
788
330
786
100
AcDbEntity
  8
BEMA_UNG
 62
     7
100
AcDbVertex
100
AcDb2dVertex
 10
1.817805831988485
 20
-44.10982590872617
 30
0.0
  0
SEQEND
  5
789
330
786
100
AcDbEntity
  8
BEMA_UNG
  0
POLYLINE
  5
78A
330
1F
100
AcDbEntity
  8
BEMA_UNG
 62
     7
100
AcDb2dPolyline
 66
     1
 10
0.0
 20
0.0
 30
0.0
  0
VERTEX
  5
78B
330
78A
100
AcDbEntity
  8
BEMA_UNG
 62
     7
100
AcDbVertex
100
AcDb2dVertex
 10
3.38825364495532
 20
-44.05901071679624
 30
0.0
  0
VERTEX
  5
78C
330
78A
100
AcDbEntity
  8
BEMA_UNG
 62
     7
100
AcDbVertex
100
AcDb2dVertex
 10
1.432127137984674
 20
-44.05901071679624
 30
0.0
  0
SEQEND
  5
78D
330
78A
100
AcDbEntity
  8
BEMA_UNG
  0
POLYLINE
  5
78E
330
1F
100
AcDbEntity
  8
BEMA_UNG
 62
     7
100
AcDb2dPolyline
 66
     1
 10
0.0
 20
0.0
 30
0.0
  0
VERTEX
  5
78F
330
78E
100
AcDbEntity
  8
BEMA_UNG
 62
     7
100
AcDbVertex
100
AcDb2dVertex
 10
3.38825364495532
 20
-44.0081955248663
 30
0.0
  0
VERTEX
  5
790
330
78E
100
AcDbEntity
  8
BEMA_UNG
 62
     7
100
AcDbVertex
100
AcDb2dVertex
 10
1.045759424429271
 20
-44.0081955248663
 30
0.0
  0
SEQEND
  5
791
330
78E
100
AcDbEntity
  8
BEMA_UNG
  0
POLYLINE
  5
792
330
1F
100
AcDbEntity
  8
BEMA_UNG
 62
     7
100
AcDb2dPolyline
 66
     1
 10
0.0
 20
0.0
 30
0.0
  0
VERTEX
  5
793
330
792
100
AcDbEntity
  8
BEMA_UNG
 62
     7
100
AcDbVertex
100
AcDb2dVertex
 10
3.38825364495532
 20
-43.95738033293637
 30
0.0
  0
VERTEX
  5
794
330
792
100
AcDbEntity
  8
BEMA_UNG
 62
     7
100
AcDbVertex
100
AcDb2dVertex
 10
0.6602529853133576
 20
-43.95738033293637
 30
0.0
  0
SEQEND
  5
795
330
792
100
AcDbEntity
  8
BEMA_UNG
  0
POLYLINE
  5
796
330
1F
100
AcDbEntity
  8
BEMA_UNG
 62
     7
100
AcDb2dPolyline
 66
     1
 10
0.0
 20
0.0
 30
0.0
  0
VERTEX
  5
797
330
796
100
AcDbEntity
  8
BEMA_UNG
 62
     7
100
AcDbVertex
100
AcDb2dVertex
 10
3.38825364495532
 20
-43.90708190567013
 30
0.0
  0
VERTEX
  5
798
330
796
100
AcDbEntity
  8
BEMA_UNG
 62
     7
100
AcDbVertex
100
AcDb2dVertex
 10
0.2744020364216485
 20
-43.90708190567013
 30
0.0
  0
SEQEND
  5
799
330
796
100
AcDbEntity
  8
BEMA_UNG
  0
POLYLINE
  5
79A
330
1F
100
AcDbEntity
  8
BEMA_UNG
 62
     7
100
AcDb2dPolyline
 66
     1
 10
0.0
 20
0.0
 30
0.0
  0
VERTEX
  5
79B
330
79A
100
AcDbEntity
  8
BEMA_UNG
 62
     7
100
AcDbVertex
100
AcDb2dVertex
 10
3.38825364495532
 20
-43.85626671374019
 30
0.0
  0
VERTEX
  5
79C
330
79A
100
AcDbEntity
  8
BEMA_UNG
 62
     7
100
AcDbVertex
100
AcDb2dVertex
 10
-0.1112766575821625
 20
-43.85626671374019
 30
0.0
  0
SEQEND
  5
79D
330
79A
100
AcDbEntity
  8
BEMA_UNG
  0
POLYLINE
  5
79E
330
1F
100
AcDbEntity
  8
BEMA_UNG
 62
     7
100
AcDb2dPolyline
 66
     1
 10
0.0
 20
0.0
 30
0.0
  0
VERTEX
  5
79F
330
79E
100
AcDbEntity
  8
BEMA_UNG
 62
     7
100
AcDbVertex
100
AcDb2dVertex
 10
3.38825364495532
 20
-43.39858547659498
 30
0.0
  0
VERTEX
  5
7A0
330
79E
100
AcDbEntity
  8
BEMA_UNG
 62
     7
100
AcDbVertex
100
AcDb2dVertex
 10
3.361209627555321
 20
-43.39858547659498
 30
0.0
  0
SEQEND
  5
7A1
330
79E
100
AcDbEntity
  8
BEMA_UNG
  0
POLYLINE
  5
7A2
330
1F
100
AcDbEntity
  8
BEMA_UNG
 62
     7
100
AcDb2dPolyline
 66
     1
 10
0.0
 20
0.0
 30
0.0
  0
VERTEX
  5
7A3
330
7A2
100
AcDbEntity
  8
BEMA_UNG
 62
     7
100
AcDbVertex
100
AcDb2dVertex
 10
3.38825364495532
 20
-43.39858547659498
 30
0.0
  0
VERTEX
  5
7A4
330
7A2
100
AcDbEntity
  8
BEMA_UNG
 62
     7
100
AcDbVertex
100
AcDb2dVertex
 10
3.361209627555321
 20
-43.39858547659498
 30
0.0
  0
SEQEND
  5
7A5
330
7A2
100
AcDbEntity
  8
BEMA_UNG
  0
POLYLINE
  5
7A6
330
1F
100
AcDbEntity
  8
BEMA_UNG
 62
     7
100
AcDb2dPolyline
 66
     1
 10
0.0
 20
0.0
 30
0.0
  0
VERTEX
  5
7A7
330
7A6
100
AcDbEntity
  8
BEMA_UNG
 62
     7
100
AcDbVertex
100
AcDb2dVertex
 10
3.38825364495532
 20
-43.44991743318861
 30
0.0
  0
VERTEX
  5
7A8
330
7A6
100
AcDbEntity
  8
BEMA_UNG
 62
     7
100
AcDbVertex
100
AcDb2dVertex
 10
2.97553093355151
 20
-43.44991743318861
 30
0.0
  0
SEQEND
  5
7A9
330
7A6
100
AcDbEntity
  8
BEMA_UNG
  0
POLYLINE
  5
7AA
330
1F
100
AcDbEntity
  8
BEMA_UNG
 62
     7
100
AcDb2dPolyline
 66
     1
 10
0.0
 20
0.0
 30
0.0
  0
VERTEX
  5
7AB
330
7AA
100
AcDbEntity
  8
BEMA_UNG
 62
     7
100
AcDbVertex
100
AcDb2dVertex
 10
3.38825364495532
 20
-43.50056037023064
 30
0.0
  0
VERTEX
  5
7AC
330
7AA
100
AcDbEntity
  8
BEMA_UNG
 62
     7
100
AcDbVertex
100
AcDb2dVertex
 10
2.589163219996107
 20
-43.50056037023064
 30
0.0
  0
SEQEND
  5
7AD
330
7AA
100
AcDbEntity
  8
BEMA_UNG
  0
POLYLINE
  5
7AE
330
1F
100
AcDbEntity
  8
BEMA_UNG
 62
     7
100
AcDb2dPolyline
 66
     1
 10
0.0
 20
0.0
 30
0.0
  0
VERTEX
  5
7AF
330
7AE
100
AcDbEntity
  8
BEMA_UNG
 62
     7
100
AcDbVertex
100
AcDb2dVertex
 10
3.38825364495532
 20
-43.55137556216058
 30
0.0
  0
VERTEX
  5
7B0
330
7AE
100
AcDbEntity
  8
BEMA_UNG
 62
     7
100
AcDbVertex
100
AcDb2dVertex
 10
2.20400129065599
 20
-43.55137556216058
 30
0.0
  0
SEQEND
  5
7B1
330
7AE
100
AcDbEntity
  8
BEMA_UNG
  0
POLYLINE
  5
7B2
330
1F
100
AcDbEntity
  8
BEMA_UNG
 62
     7
100
AcDb2dPolyline
 66
     1
 10
0.0
 20
0.0
 30
0.0
  0
VERTEX
  5
7B3
330
7B2
100
AcDbEntity
  8
BEMA_UNG
 62
     7
100
AcDbVertex
100
AcDb2dVertex
 10
3.38825364495532
 20
-43.60219075409051
 30
0.0
  0
VERTEX
  5
7B4
330
7B2
100
AcDbEntity
  8
BEMA_UNG
 62
     7
100
AcDbVertex
100
AcDb2dVertex
 10
1.817805831988485
 20
-43.60219075409051
 30
0.0
  0
SEQEND
  5
7B5
330
7B2
100
AcDbEntity
  8
BEMA_UNG
  0
POLYLINE
  5
7B6
330
1F
100
AcDbEntity
  8
BEMA_UNG
 62
     7
100
AcDb2dPolyline
 66
     1
 10
0.0
 20
0.0
 30
0.0
  0
VERTEX
  5
7B7
330
7B6
100
AcDbEntity
  8
BEMA_UNG
 62
     7
100
AcDbVertex
100
AcDb2dVertex
 10
3.38825364495532
 20
-43.65300594602045
 30
0.0
  0
VERTEX
  5
7B8
330
7B6
100
AcDbEntity
  8
BEMA_UNG
 62
     7
100
AcDbVertex
100
AcDb2dVertex
 10
1.432127137984674
 20
-43.65300594602045
 30
0.0
  0
SEQEND
  5
7B9
330
7B6
100
AcDbEntity
  8
BEMA_UNG
  0
POLYLINE
  5
7BA
330
1F
100
AcDbEntity
  8
BEMA_UNG
 62
     7
100
AcDb2dPolyline
 66
     1
 10
0.0
 20
0.0
 30
0.0
  0
VERTEX
  5
7BB
330
7BA
100
AcDbEntity
  8
BEMA_UNG
 62
     7
100
AcDbVertex
100
AcDb2dVertex
 10
3.38825364495532
 20
-43.70382113795038
 30
0.0
  0
VERTEX
  5
7BC
330
7BA
100
AcDbEntity
  8
BEMA_UNG
 62
     7
100
AcDbVertex
100
AcDb2dVertex
 10
1.045759424429271
 20
-43.70382113795038
 30
0.0
  0
SEQEND
  5
7BD
330
7BA
100
AcDbEntity
  8
BEMA_UNG
  0
POLYLINE
  5
7BE
330
1F
100
AcDbEntity
  8
BEMA_UNG
 62
     7
100
AcDb2dPolyline
 66
     1
 10
0.0
 20
0.0
 30
0.0
  0
VERTEX
  5
7BF
330
7BE
100
AcDbEntity
  8
BEMA_UNG
 62
     7
100
AcDbVertex
100
AcDb2dVertex
 10
3.38825364495532
 20
-43.75463632988032
 30
0.0
  0
VERTEX
  5
7C0
330
7BE
100
AcDbEntity
  8
BEMA_UNG
 62
     7
100
AcDbVertex
100
AcDb2dVertex
 10
0.6602529853133576
 20
-43.75463632988032
 30
0.0
  0
SEQEND
  5
7C1
330
7BE
100
AcDbEntity
  8
BEMA_UNG
  0
POLYLINE
  5
7C2
330
1F
100
AcDbEntity
  8
BEMA_UNG
 62
     7
100
AcDb2dPolyline
 66
     1
 10
0.0
 20
0.0
 30
0.0
  0
VERTEX
  5
7C3
330
7C2
100
AcDbEntity
  8
BEMA_UNG
 62
     7
100
AcDbVertex
100
AcDb2dVertex
 10
3.38825364495532
 20
-43.80545152181026
 30
0.0
  0
VERTEX
  5
7C4
330
7C2
100
AcDbEntity
  8
BEMA_UNG
 62
     7
100
AcDbVertex
100
AcDb2dVertex
 10
0.2744020364216485
 20
-43.80545152181026
 30
0.0
  0
SEQEND
  5
7C5
330
7C2
100
AcDbEntity
  8
BEMA_UNG
  0
POLYLINE
  5
7C6
330
1F
100
AcDbEntity
  8
BEMA_UNG
 62
     7
100
AcDb2dPolyline
 66
     1
 10
0.0
 20
0.0
 30
0.0
  0
VERTEX
  5
7C7
330
7C6
100
AcDbEntity
  8
BEMA_UNG
 62
     7
100
AcDbVertex
100
AcDb2dVertex
 10
3.38825364495532
 20
-43.85626671374019
 30
0.0
  0
VERTEX
  5
7C8
330
7C6
100
AcDbEntity
  8
BEMA_UNG
 62
     7
100
AcDbVertex
100
AcDb2dVertex
 10
-0.1112766575821625
 20
-43.85626671374019
 30
0.0
  0
SEQEND
  5
7C9
330
7C6
100
AcDbEntity
  8
BEMA_UNG
  0
POLYLINE
  5
7CA
330
1F
100
AcDbEntity
  8
BEMA_UNG
 62
     7
100
AcDb2dPolyline
 66
     1
 10
0.0
 20
0.0
 30
0.0
  0
VERTEX
  5
7CB
330
7CA
100
AcDbEntity
  8
BEMA_UNG
 62
     7
100
AcDbVertex
100
AcDb2dVertex
 10
34.88850499487802
 20
-1.022074377343284
 30
0.0
  0
VERTEX
  5
7CC
330
7CA
100
AcDbEntity
  8
BEMA_UNG
 62
     7
100
AcDbVertex
100
AcDb2dVertex
 10
34.88850499487802
 20
11.8881710882863
 30
0.0
  0
SEQEND
  5
7CD
330
7CA
100
AcDbEntity
  8
BEMA_UNG
  0
POLYLINE
  5
7CE
330
1F
100
AcDbEntity
  8
BEMA_UNG
 62
     7
100
AcDb2dPolyline
 66
     1
 10
0.0
 20
0.0
 30
0.0
  0
VERTEX
  5
7CF
330
7CE
100
AcDbEntity
  8
BEMA_UNG
 62
     7
100
AcDbVertex
100
AcDb2dVertex
 10
-0.1112766575821625
 20
-5.984307060467351
 30
0.0
  0
VERTEX
  5
7D0
330
7CE
100
AcDbEntity
  8
BEMA_UNG
 62
     7
100
AcDbVertex
100
AcDb2dVertex
 10
-0.1112766575821625
 20
11.8881710882863
 30
0.0
  0
SEQEND
  5
7D1
330
7CE
100
AcDbEntity
  8
BEMA_UNG
  0
POLYLINE
  5
7D2
330
1F
100
AcDbEntity
  8
BEMA_UNG
 62
     7
100
AcDb2dPolyline
 66
     1
 10
0.0
 20
0.0
 30
0.0
  0
VERTEX
  5
7D3
330
7D2
100
AcDbEntity
  8
BEMA_UNG
 62
     7
100
AcDbVertex
100
AcDb2dVertex
 10
34.88850499487802
 20
9.888291839789536
 30
0.0
  0
VERTEX
  5
7D4
330
7D2
100
AcDbEntity
  8
BEMA_UNG
 62
     7
100
AcDbVertex
100
AcDb2dVertex
 10
-0.1112766575821625
 20
9.888291839789536
 30
0.0
  0
SEQEND
  5
7D5
330
7D2
100
AcDbEntity
  8
BEMA_UNG
  0
POLYLINE
  5
7D6
330
1F
100
AcDbEntity
  8
BEMA_UNG
 62
     7
100
AcDb2dPolyline
 66
     1
 10
0.0
 20
0.0
 30
0.0
  0
VERTEX
  5
7D7
330
7D6
100
AcDbEntity
  8
BEMA_UNG
 62
     7
100
AcDbVertex
100
AcDb2dVertex
 10
34.88850499487802
 20
9.888291839789536
 30
0.0
  0
VERTEX
  5
7D8
330
7D6
100
AcDbEntity
  8
BEMA_UNG
 62
     7
100
AcDbVertex
100
AcDb2dVertex
 10
31.38828567278894
 20
10.34864302769717
 30
0.0
  0
VERTEX
  5
7D9
330
7D6
100
AcDbEntity
  8
BEMA_UNG
 62
     7
100
AcDbVertex
100
AcDb2dVertex
 10
31.38828567278894
 20
9.427165504886364
 30
0.0
  0
VERTEX
  5
7DA
330
7D6
100
AcDbEntity
  8
BEMA_UNG
 62
     7
100
AcDbVertex
100
AcDb2dVertex
 10
34.88850499487802
 20
9.888291839789536
 30
0.0
  0
SEQEND
  5
7DB
330
7D6
100
AcDbEntity
  8
BEMA_UNG
  0
POLYLINE
  5
7DC
330
1F
100
AcDbEntity
  8
BEMA_UNG
 62
     7
100
AcDb2dPolyline
 66
     1
 10
0.0
 20
0.0
 30
0.0
  0
VERTEX
  5
7DD
330
7DC
100
AcDbEntity
  8
BEMA_UNG
 62
     7
100
AcDbVertex
100
AcDb2dVertex
 10
31.38828567278894
 20
10.34511180249526
 30
0.0
  0
VERTEX
  5
7DE
330
7DC
100
AcDbEntity
  8
BEMA_UNG
 62
     7
100
AcDbVertex
100
AcDb2dVertex
 10
31.41550194507684
 20
10.34511180249526
 30
0.0
  0
SEQEND
  5
7DF
330
7DC
100
AcDbEntity
  8
BEMA_UNG
  0
POLYLINE
  5
7E0
330
1F
100
AcDbEntity
  8
BEMA_UNG
 62
     7
100
AcDb2dPolyline
 66
     1
 10
0.0
 20
0.0
 30
0.0
  0
VERTEX
  5
7E1
330
7E0
100
AcDbEntity
  8
BEMA_UNG
 62
     7
100
AcDbVertex
100
AcDb2dVertex
 10
31.38828567278894
 20
10.34511180249526
 30
0.0
  0
VERTEX
  5
7E2
330
7E0
100
AcDbEntity
  8
BEMA_UNG
 62
     7
100
AcDbVertex
100
AcDb2dVertex
 10
31.41550194507684
 20
10.34511180249526
 30
0.0
  0
SEQEND
  5
7E3
330
7E0
100
AcDbEntity
  8
BEMA_UNG
  0
POLYLINE
  5
7E4
330
1F
100
AcDbEntity
  8
BEMA_UNG
 62
     7
100
AcDb2dPolyline
 66
     1
 10
0.0
 20
0.0
 30
0.0
  0
VERTEX
  5
7E5
330
7E4
100
AcDbEntity
  8
BEMA_UNG
 62
     7
100
AcDbVertex
100
AcDb2dVertex
 10
31.38828567278894
 20
10.29429661056532
 30
0.0
  0
VERTEX
  5
7E6
330
7E4
100
AcDbEntity
  8
BEMA_UNG
 62
     7
100
AcDbVertex
100
AcDb2dVertex
 10
31.80169740374435
 20
10.29429661056532
 30
0.0
  0
SEQEND
  5
7E7
330
7E4
100
AcDbEntity
  8
BEMA_UNG
  0
POLYLINE
  5
7E8
330
1F
100
AcDbEntity
  8
BEMA_UNG
 62
     7
100
AcDb2dPolyline
 66
     1
 10
0.0
 20
0.0
 30
0.0
  0
VERTEX
  5
7E9
330
7E8
100
AcDbEntity
  8
BEMA_UNG
 62
     7
100
AcDbVertex
100
AcDb2dVertex
 10
31.38828567278894
 20
10.24348141863539
 30
0.0
  0
VERTEX
  5
7EA
330
7E8
100
AcDbEntity
  8
BEMA_UNG
 62
     7
100
AcDbVertex
100
AcDb2dVertex
 10
32.18737609774816
 20
10.24348141863539
 30
0.0
  0
SEQEND
  5
7EB
330
7E8
100
AcDbEntity
  8
BEMA_UNG
  0
POLYLINE
  5
7EC
330
1F
100
AcDbEntity
  8
BEMA_UNG
 62
     7
100
AcDb2dPolyline
 66
     1
 10
0.0
 20
0.0
 30
0.0
  0
VERTEX
  5
7ED
330
7EC
100
AcDbEntity
  8
BEMA_UNG
 62
     7
100
AcDbVertex
100
AcDb2dVertex
 10
31.38828567278894
 20
10.1927523541494
 30
0.0
  0
VERTEX
  5
7EE
330
7EC
100
AcDbEntity
  8
BEMA_UNG
 62
     7
100
AcDbVertex
100
AcDb2dVertex
 10
32.57357155641566
 20
10.1927523541494
 30
0.0
  0
SEQEND
  5
7EF
330
7EC
100
AcDbEntity
  8
BEMA_UNG
  0
POLYLINE
  5
7F0
330
1F
100
AcDbEntity
  8
BEMA_UNG
 62
     7
100
AcDb2dPolyline
 66
     1
 10
0.0
 20
0.0
 30
0.0
  0
VERTEX
  5
7F1
330
7F0
100
AcDbEntity
  8
BEMA_UNG
 62
     7
100
AcDbVertex
100
AcDb2dVertex
 10
31.38828567278894
 20
10.14193716221946
 30
0.0
  0
VERTEX
  5
7F2
330
7F0
100
AcDbEntity
  8
BEMA_UNG
 62
     7
100
AcDbVertex
100
AcDb2dVertex
 10
32.95925025041947
 20
10.14193716221946
 30
0.0
  0
SEQEND
  5
7F3
330
7F0
100
AcDbEntity
  8
BEMA_UNG
  0
POLYLINE
  5
7F4
330
1F
100
AcDbEntity
  8
BEMA_UNG
 62
     7
100
AcDb2dPolyline
 66
     1
 10
0.0
 20
0.0
 30
0.0
  0
VERTEX
  5
7F5
330
7F4
100
AcDbEntity
  8
BEMA_UNG
 62
     7
100
AcDbVertex
100
AcDb2dVertex
 10
31.38828567278894
 20
10.09112197028953
 30
0.0
  0
VERTEX
  5
7F6
330
7F4
100
AcDbEntity
  8
BEMA_UNG
 62
     7
100
AcDbVertex
100
AcDb2dVertex
 10
33.34510119931118
 20
10.09112197028953
 30
0.0
  0
SEQEND
  5
7F7
330
7F4
100
AcDbEntity
  8
BEMA_UNG
  0
POLYLINE
  5
7F8
330
1F
100
AcDbEntity
  8
BEMA_UNG
 62
     7
100
AcDb2dPolyline
 66
     1
 10
0.0
 20
0.0
 30
0.0
  0
VERTEX
  5
7F9
330
7F8
100
AcDbEntity
  8
BEMA_UNG
 62
     7
100
AcDbVertex
100
AcDb2dVertex
 10
31.38828567278894
 20
10.0403067783596
 30
0.0
  0
VERTEX
  5
7FA
330
7F8
100
AcDbEntity
  8
BEMA_UNG
 62
     7
100
AcDbVertex
100
AcDb2dVertex
 10
33.730779893315
 20
10.0403067783596
 30
0.0
  0
SEQEND
  5
7FB
330
7F8
100
AcDbEntity
  8
BEMA_UNG
  0
POLYLINE
  5
7FC
330
1F
100
AcDbEntity
  8
BEMA_UNG
 62
     7
100
AcDb2dPolyline
 66
     1
 10
0.0
 20
0.0
 30
0.0
  0
VERTEX
  5
7FD
330
7FC
100
AcDbEntity
  8
BEMA_UNG
 62
     7
100
AcDbVertex
100
AcDb2dVertex
 10
31.38828567278894
 20
9.989922223649407
 30
0.0
  0
VERTEX
  5
7FE
330
7FC
100
AcDbEntity
  8
BEMA_UNG
 62
     7
100
AcDbVertex
100
AcDb2dVertex
 10
34.1169753519825
 20
9.989922223649407
 30
0.0
  0
SEQEND
  5
7FF
330
7FC
100
AcDbEntity
  8
BEMA_UNG
  0
POLYLINE
  5
800
330
1F
100
AcDbEntity
  8
BEMA_UNG
 62
     7
100
AcDb2dPolyline
 66
     1
 10
0.0
 20
0.0
 30
0.0
  0
VERTEX
  5
801
330
800
100
AcDbEntity
  8
BEMA_UNG
 62
     7
100
AcDbVertex
100
AcDb2dVertex
 10
31.38828567278894
 20
9.939107031719471
 30
0.0
  0
VERTEX
  5
802
330
800
100
AcDbEntity
  8
BEMA_UNG
 62
     7
100
AcDbVertex
100
AcDb2dVertex
 10
34.50265404598631
 20
9.939107031719471
 30
0.0
  0
SEQEND
  5
803
330
800
100
AcDbEntity
  8
BEMA_UNG
  0
POLYLINE
  5
804
330
1F
100
AcDbEntity
  8
BEMA_UNG
 62
     7
100
AcDb2dPolyline
 66
     1
 10
0.0
 20
0.0
 30
0.0
  0
VERTEX
  5
805
330
804
100
AcDbEntity
  8
BEMA_UNG
 62
     7
100
AcDbVertex
100
AcDb2dVertex
 10
31.38828567278894
 20
9.888291839789536
 30
0.0
  0
VERTEX
  5
806
330
804
100
AcDbEntity
  8
BEMA_UNG
 62
     7
100
AcDbVertex
100
AcDb2dVertex
 10
34.88850499487802
 20
9.888291839789536
 30
0.0
  0
SEQEND
  5
807
330
804
100
AcDbEntity
  8
BEMA_UNG
  0
POLYLINE
  5
808
330
1F
100
AcDbEntity
  8
BEMA_UNG
 62
     7
100
AcDb2dPolyline
 66
     1
 10
0.0
 20
0.0
 30
0.0
  0
VERTEX
  5
809
330
808
100
AcDbEntity
  8
BEMA_UNG
 62
     7
100
AcDbVertex
100
AcDb2dVertex
 10
31.38828567278894
 20
9.430696730088275
 30
0.0
  0
VERTEX
  5
80A
330
808
100
AcDbEntity
  8
BEMA_UNG
 62
     7
100
AcDbVertex
100
AcDb2dVertex
 10
31.41550194507684
 20
9.430696730088275
 30
0.0
  0
SEQEND
  5
80B
330
808
100
AcDbEntity
  8
BEMA_UNG
  0
POLYLINE
  5
80C
330
1F
100
AcDbEntity
  8
BEMA_UNG
 62
     7
100
AcDb2dPolyline
 66
     1
 10
0.0
 20
0.0
 30
0.0
  0
VERTEX
  5
80D
330
80C
100
AcDbEntity
  8
BEMA_UNG
 62
     7
100
AcDbVertex
100
AcDb2dVertex
 10
31.38828567278894
 20
9.430696730088275
 30
0.0
  0
VERTEX
  5
80E
330
80C
100
AcDbEntity
  8
BEMA_UNG
 62
     7
100
AcDbVertex
100
AcDb2dVertex
 10
31.41550194507684
 20
9.430696730088275
 30
0.0
  0
SEQEND
  5
80F
330
80C
100
AcDbEntity
  8
BEMA_UNG
  0
POLYLINE
  5
810
330
1F
100
AcDbEntity
  8
BEMA_UNG
 62
     7
100
AcDb2dPolyline
 66
     1
 10
0.0
 20
0.0
 30
0.0
  0
VERTEX
  5
811
330
810
100
AcDbEntity
  8
BEMA_UNG
 62
     7
100
AcDbVertex
100
AcDb2dVertex
 10
31.38828567278894
 20
9.48151192201821
 30
0.0
  0
VERTEX
  5
812
330
810
100
AcDbEntity
  8
BEMA_UNG
 62
     7
100
AcDbVertex
100
AcDb2dVertex
 10
31.80169740374435
 20
9.48151192201821
 30
0.0
  0
SEQEND
  5
813
330
810
100
AcDbEntity
  8
BEMA_UNG
  0
POLYLINE
  5
814
330
1F
100
AcDbEntity
  8
BEMA_UNG
 62
     7
100
AcDb2dPolyline
 66
     1
 10
0.0
 20
0.0
 30
0.0
  0
VERTEX
  5
815
330
814
100
AcDbEntity
  8
BEMA_UNG
 62
     7
100
AcDbVertex
100
AcDb2dVertex
 10
31.38828567278894
 20
9.53267162372394
 30
0.0
  0
VERTEX
  5
816
330
814
100
AcDbEntity
  8
BEMA_UNG
 62
     7
100
AcDbVertex
100
AcDb2dVertex
 10
32.18737609774816
 20
9.53267162372394
 30
0.0
  0
SEQEND
  5
817
330
814
100
AcDbEntity
  8
BEMA_UNG
  0
POLYLINE
  5
818
330
1F
100
AcDbEntity
  8
BEMA_UNG
 62
     7
100
AcDb2dPolyline
 66
     1
 10
0.0
 20
0.0
 30
0.0
  0
VERTEX
  5
819
330
818
100
AcDbEntity
  8
BEMA_UNG
 62
     7
100
AcDbVertex
100
AcDb2dVertex
 10
31.38828567278894
 20
9.583486815653876
 30
0.0
  0
VERTEX
  5
81A
330
818
100
AcDbEntity
  8
BEMA_UNG
 62
     7
100
AcDbVertex
100
AcDb2dVertex
 10
32.57357155641566
 20
9.583486815653876
 30
0.0
  0
SEQEND
  5
81B
330
818
100
AcDbEntity
  8
BEMA_UNG
  0
POLYLINE
  5
81C
330
1F
100
AcDbEntity
  8
BEMA_UNG
 62
     7
100
AcDb2dPolyline
 66
     1
 10
0.0
 20
0.0
 30
0.0
  0
VERTEX
  5
81D
330
81C
100
AcDbEntity
  8
BEMA_UNG
 62
     7
100
AcDbVertex
100
AcDb2dVertex
 10
31.38828567278894
 20
9.63430200758381
 30
0.0
  0
VERTEX
  5
81E
330
81C
100
AcDbEntity
  8
BEMA_UNG
 62
     7
100
AcDbVertex
100
AcDb2dVertex
 10
32.95925025041947
 20
9.63430200758381
 30
0.0
  0
SEQEND
  5
81F
330
81C
100
AcDbEntity
  8
BEMA_UNG
  0
POLYLINE
  5
820
330
1F
100
AcDbEntity
  8
BEMA_UNG
 62
     7
100
AcDb2dPolyline
 66
     1
 10
0.0
 20
0.0
 30
0.0
  0
VERTEX
  5
821
330
820
100
AcDbEntity
  8
BEMA_UNG
 62
     7
100
AcDbVertex
100
AcDb2dVertex
 10
31.38828567278894
 20
9.685031072069796
 30
0.0
  0
VERTEX
  5
822
330
820
100
AcDbEntity
  8
BEMA_UNG
 62
     7
100
AcDbVertex
100
AcDb2dVertex
 10
33.34510119931118
 20
9.685031072069796
 30
0.0
  0
SEQEND
  5
823
330
820
100
AcDbEntity
  8
BEMA_UNG
  0
POLYLINE
  5
824
330
1F
100
AcDbEntity
  8
BEMA_UNG
 62
     7
100
AcDb2dPolyline
 66
     1
 10
0.0
 20
0.0
 30
0.0
  0
VERTEX
  5
825
330
824
100
AcDbEntity
  8
BEMA_UNG
 62
     7
100
AcDbVertex
100
AcDb2dVertex
 10
31.38828567278894
 20
9.735846263999731
 30
0.0
  0
VERTEX
  5
826
330
824
100
AcDbEntity
  8
BEMA_UNG
 62
     7
100
AcDbVertex
100
AcDb2dVertex
 10
33.730779893315
 20
9.735846263999731
 30
0.0
  0
SEQEND
  5
827
330
824
100
AcDbEntity
  8
BEMA_UNG
  0
POLYLINE
  5
828
330
1F
100
AcDbEntity
  8
BEMA_UNG
 62
     7
100
AcDb2dPolyline
 66
     1
 10
0.0
 20
0.0
 30
0.0
  0
VERTEX
  5
829
330
828
100
AcDbEntity
  8
BEMA_UNG
 62
     7
100
AcDbVertex
100
AcDb2dVertex
 10
31.38828567278894
 20
9.786661455929666
 30
0.0
  0
VERTEX
  5
82A
330
828
100
AcDbEntity
  8
BEMA_UNG
 62
     7
100
AcDbVertex
100
AcDb2dVertex
 10
34.1169753519825
 20
9.786661455929666
 30
0.0
  0
SEQEND
  5
82B
330
828
100
AcDbEntity
  8
BEMA_UNG
  0
POLYLINE
  5
82C
330
1F
100
AcDbEntity
  8
BEMA_UNG
 62
     7
100
AcDb2dPolyline
 66
     1
 10
0.0
 20
0.0
 30
0.0
  0
VERTEX
  5
82D
330
82C
100
AcDbEntity
  8
BEMA_UNG
 62
     7
100
AcDbVertex
100
AcDb2dVertex
 10
31.38828567278894
 20
9.837476647859601
 30
0.0
  0
VERTEX
  5
82E
330
82C
100
AcDbEntity
  8
BEMA_UNG
 62
     7
100
AcDbVertex
100
AcDb2dVertex
 10
34.50265404598631
 20
9.837476647859601
 30
0.0
  0
SEQEND
  5
82F
330
82C
100
AcDbEntity
  8
BEMA_UNG
  0
POLYLINE
  5
830
330
1F
100
AcDbEntity
  8
BEMA_UNG
 62
     7
100
AcDb2dPolyline
 66
     1
 10
0.0
 20
0.0
 30
0.0
  0
VERTEX
  5
831
330
830
100
AcDbEntity
  8
BEMA_UNG
 62
     7
100
AcDbVertex
100
AcDb2dVertex
 10
31.38828567278894
 20
9.888291839789536
 30
0.0
  0
VERTEX
  5
832
330
830
100
AcDbEntity
  8
BEMA_UNG
 62
     7
100
AcDbVertex
100
AcDb2dVertex
 10
34.88850499487802
 20
9.888291839789536
 30
0.0
  0
SEQEND
  5
833
330
830
100
AcDbEntity
  8
BEMA_UNG
  0
POLYLINE
  5
834
330
1F
100
AcDbEntity
  8
BEMA_UNG
 62
     7
100
AcDb2dPolyline
 66
     1
 10
0.0
 20
0.0
 30
0.0
  0
VERTEX
  5
835
330
834
100
AcDbEntity
  8
BEMA_UNG
 62
     7
100
AcDbVertex
100
AcDb2dVertex
 10
-0.1112766575821625
 20
9.888291839789536
 30
0.0
  0
VERTEX
  5
836
330
834
100
AcDbEntity
  8
BEMA_UNG
 62
     7
100
AcDbVertex
100
AcDb2dVertex
 10
3.38825364495532
 20
9.427165504886364
 30
0.0
  0
VERTEX
  5
837
330
834
100
AcDbEntity
  8
BEMA_UNG
 62
     7
100
AcDbVertex
100
AcDb2dVertex
 10
3.38825364495532
 20
10.34864302769717
 30
0.0
  0
VERTEX
  5
838
330
834
100
AcDbEntity
  8
BEMA_UNG
 62
     7
100
AcDbVertex
100
AcDb2dVertex
 10
-0.1112766575821625
 20
9.888291839789536
 30
0.0
  0
SEQEND
  5
839
330
834
100
AcDbEntity
  8
BEMA_UNG
  0
POLYLINE
  5
83A
330
1F
100
AcDbEntity
  8
BEMA_UNG
 62
     7
100
AcDb2dPolyline
 66
     1
 10
0.0
 20
0.0
 30
0.0
  0
VERTEX
  5
83B
330
83A
100
AcDbEntity
  8
BEMA_UNG
 62
     7
100
AcDbVertex
100
AcDb2dVertex
 10
3.38825364495532
 20
9.430696730088275
 30
0.0
  0
VERTEX
  5
83C
330
83A
100
AcDbEntity
  8
BEMA_UNG
 62
     7
100
AcDbVertex
100
AcDb2dVertex
 10
3.361209627555321
 20
9.430696730088275
 30
0.0
  0
SEQEND
  5
83D
330
83A
100
AcDbEntity
  8
BEMA_UNG
  0
POLYLINE
  5
83E
330
1F
100
AcDbEntity
  8
BEMA_UNG
 62
     7
100
AcDb2dPolyline
 66
     1
 10
0.0
 20
0.0
 30
0.0
  0
VERTEX
  5
83F
330
83E
100
AcDbEntity
  8
BEMA_UNG
 62
     7
100
AcDbVertex
100
AcDb2dVertex
 10
3.38825364495532
 20
9.430696730088275
 30
0.0
  0
VERTEX
  5
840
330
83E
100
AcDbEntity
  8
BEMA_UNG
 62
     7
100
AcDbVertex
100
AcDb2dVertex
 10
3.361209627555321
 20
9.430696730088275
 30
0.0
  0
SEQEND
  5
841
330
83E
100
AcDbEntity
  8
BEMA_UNG
  0
POLYLINE
  5
842
330
1F
100
AcDbEntity
  8
BEMA_UNG
 62
     7
100
AcDb2dPolyline
 66
     1
 10
0.0
 20
0.0
 30
0.0
  0
VERTEX
  5
843
330
842
100
AcDbEntity
  8
BEMA_UNG
 62
     7
100
AcDbVertex
100
AcDb2dVertex
 10
3.38825364495532
 20
9.48151192201821
 30
0.0
  0
VERTEX
  5
844
330
842
100
AcDbEntity
  8
BEMA_UNG
 62
     7
100
AcDbVertex
100
AcDb2dVertex
 10
2.97553093355151
 20
9.48151192201821
 30
0.0
  0
SEQEND
  5
845
330
842
100
AcDbEntity
  8
BEMA_UNG
  0
POLYLINE
  5
846
330
1F
100
AcDbEntity
  8
BEMA_UNG
 62
     7
100
AcDb2dPolyline
 66
     1
 10
0.0
 20
0.0
 30
0.0
  0
VERTEX
  5
847
330
846
100
AcDbEntity
  8
BEMA_UNG
 62
     7
100
AcDbVertex
100
AcDb2dVertex
 10
3.38825364495532
 20
9.53267162372394
 30
0.0
  0
VERTEX
  5
848
330
846
100
AcDbEntity
  8
BEMA_UNG
 62
     7
100
AcDbVertex
100
AcDb2dVertex
 10
2.589163219996107
 20
9.53267162372394
 30
0.0
  0
SEQEND
  5
849
330
846
100
AcDbEntity
  8
BEMA_UNG
  0
POLYLINE
  5
84A
330
1F
100
AcDbEntity
  8
BEMA_UNG
 62
     7
100
AcDb2dPolyline
 66
     1
 10
0.0
 20
0.0
 30
0.0
  0
VERTEX
  5
84B
330
84A
100
AcDbEntity
  8
BEMA_UNG
 62
     7
100
AcDbVertex
100
AcDb2dVertex
 10
3.38825364495532
 20
9.583486815653876
 30
0.0
  0
VERTEX
  5
84C
330
84A
100
AcDbEntity
  8
BEMA_UNG
 62
     7
100
AcDbVertex
100
AcDb2dVertex
 10
2.20400129065599
 20
9.583486815653876
 30
0.0
  0
SEQEND
  5
84D
330
84A
100
AcDbEntity
  8
BEMA_UNG
  0
POLYLINE
  5
84E
330
1F
100
AcDbEntity
  8
BEMA_UNG
 62
     7
100
AcDb2dPolyline
 66
     1
 10
0.0
 20
0.0
 30
0.0
  0
VERTEX
  5
84F
330
84E
100
AcDbEntity
  8
BEMA_UNG
 62
     7
100
AcDbVertex
100
AcDb2dVertex
 10
3.38825364495532
 20
9.63430200758381
 30
0.0
  0
VERTEX
  5
850
330
84E
100
AcDbEntity
  8
BEMA_UNG
 62
     7
100
AcDbVertex
100
AcDb2dVertex
 10
1.817805831988485
 20
9.63430200758381
 30
0.0
  0
SEQEND
  5
851
330
84E
100
AcDbEntity
  8
BEMA_UNG
  0
POLYLINE
  5
852
330
1F
100
AcDbEntity
  8
BEMA_UNG
 62
     7
100
AcDb2dPolyline
 66
     1
 10
0.0
 20
0.0
 30
0.0
  0
VERTEX
  5
853
330
852
100
AcDbEntity
  8
BEMA_UNG
 62
     7
100
AcDbVertex
100
AcDb2dVertex
 10
3.38825364495532
 20
9.685031072069796
 30
0.0
  0
VERTEX
  5
854
330
852
100
AcDbEntity
  8
BEMA_UNG
 62
     7
100
AcDbVertex
100
AcDb2dVertex
 10
1.432127137984674
 20
9.685031072069796
 30
0.0
  0
SEQEND
  5
855
330
852
100
AcDbEntity
  8
BEMA_UNG
  0
POLYLINE
  5
856
330
1F
100
AcDbEntity
  8
BEMA_UNG
 62
     7
100
AcDb2dPolyline
 66
     1
 10
0.0
 20
0.0
 30
0.0
  0
VERTEX
  5
857
330
856
100
AcDbEntity
  8
BEMA_UNG
 62
     7
100
AcDbVertex
100
AcDb2dVertex
 10
3.38825364495532
 20
9.735846263999731
 30
0.0
  0
VERTEX
  5
858
330
856
100
AcDbEntity
  8
BEMA_UNG
 62
     7
100
AcDbVertex
100
AcDb2dVertex
 10
1.045759424429271
 20
9.735846263999731
 30
0.0
  0
SEQEND
  5
859
330
856
100
AcDbEntity
  8
BEMA_UNG
  0
POLYLINE
  5
85A
330
1F
100
AcDbEntity
  8
BEMA_UNG
 62
     7
100
AcDb2dPolyline
 66
     1
 10
0.0
 20
0.0
 30
0.0
  0
VERTEX
  5
85B
330
85A
100
AcDbEntity
  8
BEMA_UNG
 62
     7
100
AcDbVertex
100
AcDb2dVertex
 10
3.38825364495532
 20
9.786661455929666
 30
0.0
  0
VERTEX
  5
85C
330
85A
100
AcDbEntity
  8
BEMA_UNG
 62
     7
100
AcDbVertex
100
AcDb2dVertex
 10
0.6602529853133576
 20
9.786661455929666
 30
0.0
  0
SEQEND
  5
85D
330
85A
100
AcDbEntity
  8
BEMA_UNG
  0
POLYLINE
  5
85E
330
1F
100
AcDbEntity
  8
BEMA_UNG
 62
     7
100
AcDb2dPolyline
 66
     1
 10
0.0
 20
0.0
 30
0.0
  0
VERTEX
  5
85F
330
85E
100
AcDbEntity
  8
BEMA_UNG
 62
     7
100
AcDbVertex
100
AcDb2dVertex
 10
3.38825364495532
 20
9.837476647859601
 30
0.0
  0
VERTEX
  5
860
330
85E
100
AcDbEntity
  8
BEMA_UNG
 62
     7
100
AcDbVertex
100
AcDb2dVertex
 10
0.2744020364216485
 20
9.837476647859601
 30
0.0
  0
SEQEND
  5
861
330
85E
100
AcDbEntity
  8
BEMA_UNG
  0
POLYLINE
  5
862
330
1F
100
AcDbEntity
  8
BEMA_UNG
 62
     7
100
AcDb2dPolyline
 66
     1
 10
0.0
 20
0.0
 30
0.0
  0
VERTEX
  5
863
330
862
100
AcDbEntity
  8
BEMA_UNG
 62
     7
100
AcDbVertex
100
AcDb2dVertex
 10
3.38825364495532
 20
9.888291839789536
 30
0.0
  0
VERTEX
  5
864
330
862
100
AcDbEntity
  8
BEMA_UNG
 62
     7
100
AcDbVertex
100
AcDb2dVertex
 10
-0.1112766575821625
 20
9.888291839789536
 30
0.0
  0
SEQEND
  5
865
330
862
100
AcDbEntity
  8
BEMA_UNG
  0
POLYLINE
  5
866
330
1F
100
AcDbEntity
  8
BEMA_UNG
 62
     7
100
AcDb2dPolyline
 66
     1
 10
0.0
 20
0.0
 30
0.0
  0
VERTEX
  5
867
330
866
100
AcDbEntity
  8
BEMA_UNG
 62
     7
100
AcDbVertex
100
AcDb2dVertex
 10
3.38825364495532
 20
10.34511180249526
 30
0.0
  0
VERTEX
  5
868
330
866
100
AcDbEntity
  8
BEMA_UNG
 62
     7
100
AcDbVertex
100
AcDb2dVertex
 10
3.361209627555321
 20
10.34511180249526
 30
0.0
  0
SEQEND
  5
869
330
866
100
AcDbEntity
  8
BEMA_UNG
  0
POLYLINE
  5
86A
330
1F
100
AcDbEntity
  8
BEMA_UNG
 62
     7
100
AcDb2dPolyline
 66
     1
 10
0.0
 20
0.0
 30
0.0
  0
VERTEX
  5
86B
330
86A
100
AcDbEntity
  8
BEMA_UNG
 62
     7
100
AcDbVertex
100
AcDb2dVertex
 10
3.38825364495532
 20
10.34511180249526
 30
0.0
  0
VERTEX
  5
86C
330
86A
100
AcDbEntity
  8
BEMA_UNG
 62
     7
100
AcDbVertex
100
AcDb2dVertex
 10
3.361209627555321
 20
10.34511180249526
 30
0.0
  0
SEQEND
  5
86D
330
86A
100
AcDbEntity
  8
BEMA_UNG
  0
POLYLINE
  5
86E
330
1F
100
AcDbEntity
  8
BEMA_UNG
 62
     7
100
AcDb2dPolyline
 66
     1
 10
0.0
 20
0.0
 30
0.0
  0
VERTEX
  5
86F
330
86E
100
AcDbEntity
  8
BEMA_UNG
 62
     7
100
AcDbVertex
100
AcDb2dVertex
 10
3.38825364495532
 20
10.29429661056532
 30
0.0
  0
VERTEX
  5
870
330
86E
100
AcDbEntity
  8
BEMA_UNG
 62
     7
100
AcDbVertex
100
AcDb2dVertex
 10
2.97553093355151
 20
10.29429661056532
 30
0.0
  0
SEQEND
  5
871
330
86E
100
AcDbEntity
  8
BEMA_UNG
  0
POLYLINE
  5
872
330
1F
100
AcDbEntity
  8
BEMA_UNG
 62
     7
100
AcDb2dPolyline
 66
     1
 10
0.0
 20
0.0
 30
0.0
  0
VERTEX
  5
873
330
872
100
AcDbEntity
  8
BEMA_UNG
 62
     7
100
AcDbVertex
100
AcDb2dVertex
 10
3.38825364495532
 20
10.24348141863539
 30
0.0
  0
VERTEX
  5
874
330
872
100
AcDbEntity
  8
BEMA_UNG
 62
     7
100
AcDbVertex
100
AcDb2dVertex
 10
2.589163219996107
 20
10.24348141863539
 30
0.0
  0
SEQEND
  5
875
330
872
100
AcDbEntity
  8
BEMA_UNG
  0
POLYLINE
  5
876
330
1F
100
AcDbEntity
  8
BEMA_UNG
 62
     7
100
AcDb2dPolyline
 66
     1
 10
0.0
 20
0.0
 30
0.0
  0
VERTEX
  5
877
330
876
100
AcDbEntity
  8
BEMA_UNG
 62
     7
100
AcDbVertex
100
AcDb2dVertex
 10
3.38825364495532
 20
10.1927523541494
 30
0.0
  0
VERTEX
  5
878
330
876
100
AcDbEntity
  8
BEMA_UNG
 62
     7
100
AcDbVertex
100
AcDb2dVertex
 10
2.20400129065599
 20
10.1927523541494
 30
0.0
  0
SEQEND
  5
879
330
876
100
AcDbEntity
  8
BEMA_UNG
  0
POLYLINE
  5
87A
330
1F
100
AcDbEntity
  8
BEMA_UNG
 62
     7
100
AcDb2dPolyline
 66
     1
 10
0.0
 20
0.0
 30
0.0
  0
VERTEX
  5
87B
330
87A
100
AcDbEntity
  8
BEMA_UNG
 62
     7
100
AcDbVertex
100
AcDb2dVertex
 10
3.38825364495532
 20
10.14193716221946
 30
0.0
  0
VERTEX
  5
87C
330
87A
100
AcDbEntity
  8
BEMA_UNG
 62
     7
100
AcDbVertex
100
AcDb2dVertex
 10
1.817805831988485
 20
10.14193716221946
 30
0.0
  0
SEQEND
  5
87D
330
87A
100
AcDbEntity
  8
BEMA_UNG
  0
POLYLINE
  5
87E
330
1F
100
AcDbEntity
  8
BEMA_UNG
 62
     7
100
AcDb2dPolyline
 66
     1
 10
0.0
 20
0.0
 30
0.0
  0
VERTEX
  5
87F
330
87E
100
AcDbEntity
  8
BEMA_UNG
 62
     7
100
AcDbVertex
100
AcDb2dVertex
 10
3.38825364495532
 20
10.09112197028953
 30
0.0
  0
VERTEX
  5
880
330
87E
100
AcDbEntity
  8
BEMA_UNG
 62
     7
100
AcDbVertex
100
AcDb2dVertex
 10
1.432127137984674
 20
10.09112197028953
 30
0.0
  0
SEQEND
  5
881
330
87E
100
AcDbEntity
  8
BEMA_UNG
  0
POLYLINE
  5
882
330
1F
100
AcDbEntity
  8
BEMA_UNG
 62
     7
100
AcDb2dPolyline
 66
     1
 10
0.0
 20
0.0
 30
0.0
  0
VERTEX
  5
883
330
882
100
AcDbEntity
  8
BEMA_UNG
 62
     7
100
AcDbVertex
100
AcDb2dVertex
 10
3.38825364495532
 20
10.0403067783596
 30
0.0
  0
VERTEX
  5
884
330
882
100
AcDbEntity
  8
BEMA_UNG
 62
     7
100
AcDbVertex
100
AcDb2dVertex
 10
1.045759424429271
 20
10.0403067783596
 30
0.0
  0
SEQEND
  5
885
330
882
100
AcDbEntity
  8
BEMA_UNG
  0
POLYLINE
  5
886
330
1F
100
AcDbEntity
  8
BEMA_UNG
 62
     7
100
AcDb2dPolyline
 66
     1
 10
0.0
 20
0.0
 30
0.0
  0
VERTEX
  5
887
330
886
100
AcDbEntity
  8
BEMA_UNG
 62
     7
100
AcDbVertex
100
AcDb2dVertex
 10
3.38825364495532
 20
9.989922223649407
 30
0.0
  0
VERTEX
  5
888
330
886
100
AcDbEntity
  8
BEMA_UNG
 62
     7
100
AcDbVertex
100
AcDb2dVertex
 10
0.6602529853133576
 20
9.989922223649407
 30
0.0
  0
SEQEND
  5
889
330
886
100
AcDbEntity
  8
BEMA_UNG
  0
POLYLINE
  5
88A
330
1F
100
AcDbEntity
  8
BEMA_UNG
 62
     7
100
AcDb2dPolyline
 66
     1
 10
0.0
 20
0.0
 30
0.0
  0
VERTEX
  5
88B
330
88A
100
AcDbEntity
  8
BEMA_UNG
 62
     7
100
AcDbVertex
100
AcDb2dVertex
 10
3.38825364495532
 20
9.939107031719471
 30
0.0
  0
VERTEX
  5
88C
330
88A
100
AcDbEntity
  8
BEMA_UNG
 62
     7
100
AcDbVertex
100
AcDb2dVertex
 10
0.2744020364216485
 20
9.939107031719471
 30
0.0
  0
SEQEND
  5
88D
330
88A
100
AcDbEntity
  8
BEMA_UNG
  0
POLYLINE
  5
88E
330
1F
100
AcDbEntity
  8
BEMA_UNG
 62
     7
100
AcDb2dPolyline
 66
     1
 10
0.0
 20
0.0
 30
0.0
  0
VERTEX
  5
88F
330
88E
100
AcDbEntity
  8
BEMA_UNG
 62
     7
100
AcDbVertex
100
AcDb2dVertex
 10
3.38825364495532
 20
9.888291839789536
 30
0.0
  0
VERTEX
  5
890
330
88E
100
AcDbEntity
  8
BEMA_UNG
 62
     7
100
AcDbVertex
100
AcDb2dVertex
 10
-0.1112766575821625
 20
9.888291839789536
 30
0.0
  0
SEQEND
  5
891
330
88E
100
AcDbEntity
  8
BEMA_UNG
  0
POLYLINE
  5
892
330
1F
100
AcDbEntity
  8
BEMA_UNG
 62
     7
100
AcDb2dPolyline
 66
     1
 10
0.0
 20
0.0
 30
0.0
  0
VERTEX
  5
893
330
892
100
AcDbEntity
  8
BEMA_UNG
 62
     7
100
AcDbVertex
100
AcDb2dVertex
 10
-0.1112766575821625
 20
-10.52167306259079
 30
0.0
  0
VERTEX
  5
894
330
892
100
AcDbEntity
  8
BEMA_UNG
 62
     7
100
AcDbVertex
100
AcDb2dVertex
 10
-11.932612849364
 20
-10.52167306259079
 30
0.0
  0
SEQEND
  5
895
330
892
100
AcDbEntity
  8
BEMA_UNG
  0
POLYLINE
  5
896
330
1F
100
AcDbEntity
  8
BEMA_UNG
 62
     7
100
AcDb2dPolyline
 66
     1
 10
0.0
 20
0.0
 30
0.0
  0
VERTEX
  5
897
330
896
100
AcDbEntity
  8
BEMA_UNG
 62
     7
100
AcDbVertex
100
AcDb2dVertex
 10
-0.1112766575821625
 20
-23.52157719737133
 30
0.0
  0
VERTEX
  5
898
330
896
100
AcDbEntity
  8
BEMA_UNG
 62
     7
100
AcDbVertex
100
AcDb2dVertex
 10
-11.932612849364
 20
-23.52157719737133
 30
0.0
  0
SEQEND
  5
899
330
896
100
AcDbEntity
  8
BEMA_UNG
  0
POLYLINE
  5
89A
330
1F
100
AcDbEntity
  8
BEMA_UNG
 62
     7
100
AcDb2dPolyline
 66
     1
 10
0.0
 20
0.0
 30
0.0
  0
VERTEX
  5
89B
330
89A
100
AcDbEntity
  8
BEMA_UNG
 62
     7
100
AcDbVertex
100
AcDb2dVertex
 10
-9.932561345979344
 20
-10.52167306259079
 30
0.0
  0
VERTEX
  5
89C
330
89A
100
AcDbEntity
  8
BEMA_UNG
 62
     7
100
AcDbVertex
100
AcDb2dVertex
 10
-9.932561345979344
 20
-23.52157719737133
 30
0.0
  0
SEQEND
  5
89D
330
89A
100
AcDbEntity
  8
BEMA_UNG
  0
POLYLINE
  5
89E
330
1F
100
AcDbEntity
  8
BEMA_UNG
 62
     7
100
AcDb2dPolyline
 66
     1
 10
0.0
 20
0.0
 30
0.0
  0
VERTEX
  5
89F
330
89E
100
AcDbEntity
  8
BEMA_UNG
 62
     7
100
AcDbVertex
100
AcDb2dVertex
 10
-9.932561345979344
 20
-10.52167306259079
 30
0.0
  0
VERTEX
  5
8A0
330
89E
100
AcDbEntity
  8
BEMA_UNG
 62
     7
100
AcDbVertex
100
AcDb2dVertex
 10
-10.39334317110672
 20
-14.02206463956777
 30
0.0
  0
VERTEX
  5
8A1
330
89E
100
AcDbEntity
  8
BEMA_UNG
 62
     7
100
AcDbVertex
100
AcDb2dVertex
 10
-9.472296285515663
 20
-14.02206463956777
 30
0.0
  0
VERTEX
  5
8A2
330
89E
100
AcDbEntity
  8
BEMA_UNG
 62
     7
100
AcDbVertex
100
AcDb2dVertex
 10
-9.932561345979344
 20
-10.52167306259079
 30
0.0
  0
SEQEND
  5
8A3
330
89E
100
AcDbEntity
  8
BEMA_UNG
  0
POLYLINE
  5
8A4
330
1F
100
AcDbEntity
  8
BEMA_UNG
 62
     7
100
AcDb2dPolyline
 66
     1
 10
0.0
 20
0.0
 30
0.0
  0
VERTEX
  5
8A5
330
8A4
100
AcDbEntity
  8
BEMA_UNG
 62
     7
100
AcDbVertex
100
AcDb2dVertex
 10
-10.38989807334876
 20
-14.02206463956777
 30
0.0
  0
VERTEX
  5
8A6
330
8A4
100
AcDbEntity
  8
BEMA_UNG
 62
     7
100
AcDbVertex
100
AcDb2dVertex
 10
-10.38989807334876
 20
-13.99484836727987
 30
0.0
  0
SEQEND
  5
8A7
330
8A4
100
AcDbEntity
  8
BEMA_UNG
  0
POLYLINE
  5
8A8
330
1F
100
AcDbEntity
  8
BEMA_UNG
 62
     7
100
AcDb2dPolyline
 66
     1
 10
0.0
 20
0.0
 30
0.0
  0
VERTEX
  5
8A9
330
8A8
100
AcDbEntity
  8
BEMA_UNG
 62
     7
100
AcDbVertex
100
AcDb2dVertex
 10
-10.38989807334876
 20
-14.02206463956777
 30
0.0
  0
VERTEX
  5
8AA
330
8A8
100
AcDbEntity
  8
BEMA_UNG
 62
     7
100
AcDbVertex
100
AcDb2dVertex
 10
-10.38989807334876
 20
-13.99484836727987
 30
0.0
  0
SEQEND
  5
8AB
330
8A8
100
AcDbEntity
  8
BEMA_UNG
  0
POLYLINE
  5
8AC
330
1F
100
AcDbEntity
  8
BEMA_UNG
 62
     7
100
AcDb2dPolyline
 66
     1
 10
0.0
 20
0.0
 30
0.0
  0
VERTEX
  5
8AD
330
8AC
100
AcDbEntity
  8
BEMA_UNG
 62
     7
100
AcDbVertex
100
AcDb2dVertex
 10
-10.33908288141882
 20
-14.02206463956777
 30
0.0
  0
VERTEX
  5
8AE
330
8AC
100
AcDbEntity
  8
BEMA_UNG
 62
     7
100
AcDbVertex
100
AcDb2dVertex
 10
-10.33908288141882
 20
-13.60848065372446
 30
0.0
  0
SEQEND
  5
8AF
330
8AC
100
AcDbEntity
  8
BEMA_UNG
  0
POLYLINE
  5
8B0
330
1F
100
AcDbEntity
  8
BEMA_UNG
 62
     7
100
AcDb2dPolyline
 66
     1
 10
0.0
 20
0.0
 30
0.0
  0
VERTEX
  5
8B1
330
8B0
100
AcDbEntity
  8
BEMA_UNG
 62
     7
100
AcDbVertex
100
AcDb2dVertex
 10
-10.28826768948889
 20
-14.02206463956777
 30
0.0
  0
VERTEX
  5
8B2
330
8B0
100
AcDbEntity
  8
BEMA_UNG
 62
     7
100
AcDbVertex
100
AcDb2dVertex
 10
-10.28826768948889
 20
-13.22280195972066
 30
0.0
  0
SEQEND
  5
8B3
330
8B0
100
AcDbEntity
  8
BEMA_UNG
  0
POLYLINE
  5
8B4
330
1F
100
AcDbEntity
  8
BEMA_UNG
 62
     7
100
AcDb2dPolyline
 66
     1
 10
0.0
 20
0.0
 30
0.0
  0
VERTEX
  5
8B5
330
8B4
100
AcDbEntity
  8
BEMA_UNG
 62
     7
100
AcDbVertex
100
AcDb2dVertex
 10
-10.23745249755895
 20
-14.02206463956777
 30
0.0
  0
VERTEX
  5
8B6
330
8B4
100
AcDbEntity
  8
BEMA_UNG
 62
     7
100
AcDbVertex
100
AcDb2dVertex
 10
-10.23745249755895
 20
-12.83695101082895
 30
0.0
  0
SEQEND
  5
8B7
330
8B4
100
AcDbEntity
  8
BEMA_UNG
  0
POLYLINE
  5
8B8
330
1F
100
AcDbEntity
  8
BEMA_UNG
 62
     7
100
AcDb2dPolyline
 66
     1
 10
0.0
 20
0.0
 30
0.0
  0
VERTEX
  5
8B9
330
8B8
100
AcDbEntity
  8
BEMA_UNG
 62
     7
100
AcDbVertex
100
AcDb2dVertex
 10
-10.18698181540482
 20
-14.02206463956777
 30
0.0
  0
VERTEX
  5
8BA
330
8B8
100
AcDbEntity
  8
BEMA_UNG
 62
     7
100
AcDbVertex
100
AcDb2dVertex
 10
-10.18698181540482
 20
-12.45144457171303
 30
0.0
  0
SEQEND
  5
8BB
330
8B8
100
AcDbEntity
  8
BEMA_UNG
  0
POLYLINE
  5
8BC
330
1F
100
AcDbEntity
  8
BEMA_UNG
 62
     7
100
AcDb2dPolyline
 66
     1
 10
0.0
 20
0.0
 30
0.0
  0
VERTEX
  5
8BD
330
8BC
100
AcDbEntity
  8
BEMA_UNG
 62
     7
100
AcDbVertex
100
AcDb2dVertex
 10
-10.13616662347488
 20
-14.02206463956777
 30
0.0
  0
VERTEX
  5
8BE
330
8BC
100
AcDbEntity
  8
BEMA_UNG
 62
     7
100
AcDbVertex
100
AcDb2dVertex
 10
-10.13616662347488
 20
-12.06507685815763
 30
0.0
  0
SEQEND
  5
8BF
330
8BC
100
AcDbEntity
  8
BEMA_UNG
  0
POLYLINE
  5
8C0
330
1F
100
AcDbEntity
  8
BEMA_UNG
 62
     7
100
AcDb2dPolyline
 66
     1
 10
0.0
 20
0.0
 30
0.0
  0
VERTEX
  5
8C1
330
8C0
100
AcDbEntity
  8
BEMA_UNG
 62
     7
100
AcDbVertex
100
AcDb2dVertex
 10
-10.08535143154494
 20
-14.02206463956777
 30
0.0
  0
VERTEX
  5
8C2
330
8C0
100
AcDbEntity
  8
BEMA_UNG
 62
     7
100
AcDbVertex
100
AcDb2dVertex
 10
-10.08535143154494
 20
-11.67939816415382
 30
0.0
  0
SEQEND
  5
8C3
330
8C0
100
AcDbEntity
  8
BEMA_UNG
  0
POLYLINE
  5
8C4
330
1F
100
AcDbEntity
  8
BEMA_UNG
 62
     7
100
AcDb2dPolyline
 66
     1
 10
0.0
 20
0.0
 30
0.0
  0
VERTEX
  5
8C5
330
8C4
100
AcDbEntity
  8
BEMA_UNG
 62
     7
100
AcDbVertex
100
AcDb2dVertex
 10
-10.03453623961501
 20
-14.02206463956777
 30
0.0
  0
VERTEX
  5
8C6
330
8C4
100
AcDbEntity
  8
BEMA_UNG
 62
     7
100
AcDbVertex
100
AcDb2dVertex
 10
-10.03453623961501
 20
-11.29320270548631
 30
0.0
  0
SEQEND
  5
8C7
330
8C4
100
AcDbEntity
  8
BEMA_UNG
  0
POLYLINE
  5
8C8
330
1F
100
AcDbEntity
  8
BEMA_UNG
 62
     7
100
AcDb2dPolyline
 66
     1
 10
0.0
 20
0.0
 30
0.0
  0
VERTEX
  5
8C9
330
8C8
100
AcDbEntity
  8
BEMA_UNG
 62
     7
100
AcDbVertex
100
AcDb2dVertex
 10
-9.983721047685075
 20
-14.02206463956777
 30
0.0
  0
VERTEX
  5
8CA
330
8C8
100
AcDbEntity
  8
BEMA_UNG
 62
     7
100
AcDbVertex
100
AcDb2dVertex
 10
-9.983721047685075
 20
-10.9080407761462
 30
0.0
  0
SEQEND
  5
8CB
330
8C8
100
AcDbEntity
  8
BEMA_UNG
  0
POLYLINE
  5
8CC
330
1F
100
AcDbEntity
  8
BEMA_UNG
 62
     7
100
AcDb2dPolyline
 66
     1
 10
0.0
 20
0.0
 30
0.0
  0
VERTEX
  5
8CD
330
8CC
100
AcDbEntity
  8
BEMA_UNG
 62
     7
100
AcDbVertex
100
AcDb2dVertex
 10
-9.932561345979344
 20
-14.02206463956777
 30
0.0
  0
VERTEX
  5
8CE
330
8CC
100
AcDbEntity
  8
BEMA_UNG
 62
     7
100
AcDbVertex
100
AcDb2dVertex
 10
-9.932561345979344
 20
-10.52167306259079
 30
0.0
  0
SEQEND
  5
8CF
330
8CC
100
AcDbEntity
  8
BEMA_UNG
  0
POLYLINE
  5
8D0
330
1F
100
AcDbEntity
  8
BEMA_UNG
 62
     7
100
AcDb2dPolyline
 66
     1
 10
0.0
 20
0.0
 30
0.0
  0
VERTEX
  5
8D1
330
8D0
100
AcDbEntity
  8
BEMA_UNG
 62
     7
100
AcDbVertex
100
AcDb2dVertex
 10
-9.475741383273624
 20
-14.02206463956777
 30
0.0
  0
VERTEX
  5
8D2
330
8D0
100
AcDbEntity
  8
BEMA_UNG
 62
     7
100
AcDbVertex
100
AcDb2dVertex
 10
-9.475741383273624
 20
-13.99484836727987
 30
0.0
  0
SEQEND
  5
8D3
330
8D0
100
AcDbEntity
  8
BEMA_UNG
  0
POLYLINE
  5
8D4
330
1F
100
AcDbEntity
  8
BEMA_UNG
 62
     7
100
AcDb2dPolyline
 66
     1
 10
0.0
 20
0.0
 30
0.0
  0
VERTEX
  5
8D5
330
8D4
100
AcDbEntity
  8
BEMA_UNG
 62
     7
100
AcDbVertex
100
AcDb2dVertex
 10
-9.475741383273624
 20
-14.02206463956777
 30
0.0
  0
VERTEX
  5
8D6
330
8D4
100
AcDbEntity
  8
BEMA_UNG
 62
     7
100
AcDbVertex
100
AcDb2dVertex
 10
-9.475741383273624
 20
-13.99484836727987
 30
0.0
  0
SEQEND
  5
8D7
330
8D4
100
AcDbEntity
  8
BEMA_UNG
  0
POLYLINE
  5
8D8
330
1F
100
AcDbEntity
  8
BEMA_UNG
 62
     7
100
AcDb2dPolyline
 66
     1
 10
0.0
 20
0.0
 30
0.0
  0
VERTEX
  5
8D9
330
8D8
100
AcDbEntity
  8
BEMA_UNG
 62
     7
100
AcDbVertex
100
AcDb2dVertex
 10
-9.526556575203559
 20
-14.02206463956777
 30
0.0
  0
VERTEX
  5
8DA
330
8D8
100
AcDbEntity
  8
BEMA_UNG
 62
     7
100
AcDbVertex
100
AcDb2dVertex
 10
-9.526556575203559
 20
-13.60848065372446
 30
0.0
  0
SEQEND
  5
8DB
330
8D8
100
AcDbEntity
  8
BEMA_UNG
  0
POLYLINE
  5
8DC
330
1F
100
AcDbEntity
  8
BEMA_UNG
 62
     7
100
AcDb2dPolyline
 66
     1
 10
0.0
 20
0.0
 30
0.0
  0
VERTEX
  5
8DD
330
8DC
100
AcDbEntity
  8
BEMA_UNG
 62
     7
100
AcDbVertex
100
AcDb2dVertex
 10
-9.577371767133494
 20
-14.02206463956777
 30
0.0
  0
VERTEX
  5
8DE
330
8DC
100
AcDbEntity
  8
BEMA_UNG
 62
     7
100
AcDbVertex
100
AcDb2dVertex
 10
-9.577371767133494
 20
-13.22280195972066
 30
0.0
  0
SEQEND
  5
8DF
330
8DC
100
AcDbEntity
  8
BEMA_UNG
  0
POLYLINE
  5
8E0
330
1F
100
AcDbEntity
  8
BEMA_UNG
 62
     7
100
AcDb2dPolyline
 66
     1
 10
0.0
 20
0.0
 30
0.0
  0
VERTEX
  5
8E1
330
8E0
100
AcDbEntity
  8
BEMA_UNG
 62
     7
100
AcDbVertex
100
AcDb2dVertex
 10
-9.628186959063429
 20
-14.02206463956777
 30
0.0
  0
VERTEX
  5
8E2
330
8E0
100
AcDbEntity
  8
BEMA_UNG
 62
     7
100
AcDbVertex
100
AcDb2dVertex
 10
-9.628186959063429
 20
-12.83695101082895
 30
0.0
  0
SEQEND
  5
8E3
330
8E0
100
AcDbEntity
  8
BEMA_UNG
  0
POLYLINE
  5
8E4
330
1F
100
AcDbEntity
  8
BEMA_UNG
 62
     7
100
AcDb2dPolyline
 66
     1
 10
0.0
 20
0.0
 30
0.0
  0
VERTEX
  5
8E5
330
8E4
100
AcDbEntity
  8
BEMA_UNG
 62
     7
100
AcDbVertex
100
AcDb2dVertex
 10
-9.678657641217567
 20
-14.02206463956777
 30
0.0
  0
VERTEX
  5
8E6
330
8E4
100
AcDbEntity
  8
BEMA_UNG
 62
     7
100
AcDbVertex
100
AcDb2dVertex
 10
-9.678657641217567
 20
-12.45144457171303
 30
0.0
  0
SEQEND
  5
8E7
330
8E4
100
AcDbEntity
  8
BEMA_UNG
  0
POLYLINE
  5
8E8
330
1F
100
AcDbEntity
  8
BEMA_UNG
 62
     7
100
AcDb2dPolyline
 66
     1
 10
0.0
 20
0.0
 30
0.0
  0
VERTEX
  5
8E9
330
8E8
100
AcDbEntity
  8
BEMA_UNG
 62
     7
100
AcDbVertex
100
AcDb2dVertex
 10
-9.729472833147502
 20
-14.02206463956777
 30
0.0
  0
VERTEX
  5
8EA
330
8E8
100
AcDbEntity
  8
BEMA_UNG
 62
     7
100
AcDbVertex
100
AcDb2dVertex
 10
-9.729472833147502
 20
-12.06507685815763
 30
0.0
  0
SEQEND
  5
8EB
330
8E8
100
AcDbEntity
  8
BEMA_UNG
  0
POLYLINE
  5
8EC
330
1F
100
AcDbEntity
  8
BEMA_UNG
 62
     7
100
AcDb2dPolyline
 66
     1
 10
0.0
 20
0.0
 30
0.0
  0
VERTEX
  5
8ED
330
8EC
100
AcDbEntity
  8
BEMA_UNG
 62
     7
100
AcDbVertex
100
AcDb2dVertex
 10
-9.780288025077438
 20
-14.02206463956777
 30
0.0
  0
VERTEX
  5
8EE
330
8EC
100
AcDbEntity
  8
BEMA_UNG
 62
     7
100
AcDbVertex
100
AcDb2dVertex
 10
-9.780288025077438
 20
-11.67939816415382
 30
0.0
  0
SEQEND
  5
8EF
330
8EC
100
AcDbEntity
  8
BEMA_UNG
  0
POLYLINE
  5
8F0
330
1F
100
AcDbEntity
  8
BEMA_UNG
 62
     7
100
AcDb2dPolyline
 66
     1
 10
0.0
 20
0.0
 30
0.0
  0
VERTEX
  5
8F1
330
8F0
100
AcDbEntity
  8
BEMA_UNG
 62
     7
100
AcDbVertex
100
AcDb2dVertex
 10
-9.831103217007373
 20
-14.02206463956777
 30
0.0
  0
VERTEX
  5
8F2
330
8F0
100
AcDbEntity
  8
BEMA_UNG
 62
     7
100
AcDbVertex
100
AcDb2dVertex
 10
-9.831103217007373
 20
-11.29320270548631
 30
0.0
  0
SEQEND
  5
8F3
330
8F0
100
AcDbEntity
  8
BEMA_UNG
  0
POLYLINE
  5
8F4
330
1F
100
AcDbEntity
  8
BEMA_UNG
 62
     7
100
AcDb2dPolyline
 66
     1
 10
0.0
 20
0.0
 30
0.0
  0
VERTEX
  5
8F5
330
8F4
100
AcDbEntity
  8
BEMA_UNG
 62
     7
100
AcDbVertex
100
AcDb2dVertex
 10
-9.88174615404941
 20
-14.02206463956777
 30
0.0
  0
VERTEX
  5
8F6
330
8F4
100
AcDbEntity
  8
BEMA_UNG
 62
     7
100
AcDbVertex
100
AcDb2dVertex
 10
-9.88174615404941
 20
-10.9080407761462
 30
0.0
  0
SEQEND
  5
8F7
330
8F4
100
AcDbEntity
  8
BEMA_UNG
  0
POLYLINE
  5
8F8
330
1F
100
AcDbEntity
  8
BEMA_UNG
 62
     7
100
AcDb2dPolyline
 66
     1
 10
0.0
 20
0.0
 30
0.0
  0
VERTEX
  5
8F9
330
8F8
100
AcDbEntity
  8
BEMA_UNG
 62
     7
100
AcDbVertex
100
AcDb2dVertex
 10
-9.932561345979344
 20
-14.02206463956777
 30
0.0
  0
VERTEX
  5
8FA
330
8F8
100
AcDbEntity
  8
BEMA_UNG
 62
     7
100
AcDbVertex
100
AcDb2dVertex
 10
-9.932561345979344
 20
-10.52167306259079
 30
0.0
  0
SEQEND
  5
8FB
330
8F8
100
AcDbEntity
  8
BEMA_UNG
  0
POLYLINE
  5
8FC
330
1F
100
AcDbEntity
  8
BEMA_UNG
 62
     7
100
AcDb2dPolyline
 66
     1
 10
0.0
 20
0.0
 30
0.0
  0
VERTEX
  5
8FD
330
8FC
100
AcDbEntity
  8
BEMA_UNG
 62
     7
100
AcDbVertex
100
AcDb2dVertex
 10
-9.932561345979344
 20
-23.52157719737133
 30
0.0
  0
VERTEX
  5
8FE
330
8FC
100
AcDbEntity
  8
BEMA_UNG
 62
     7
100
AcDbVertex
100
AcDb2dVertex
 10
-9.472296285515663
 20
-20.02170238505805
 30
0.0
  0
VERTEX
  5
8FF
330
8FC
100
AcDbEntity
  8
BEMA_UNG
 62
     7
100
AcDbVertex
100
AcDb2dVertex
 10
-10.39334317110672
 20
-20.02170238505805
 30
0.0
  0
VERTEX
  5
900
330
8FC
100
AcDbEntity
  8
BEMA_UNG
 62
     7
100
AcDbVertex
100
AcDb2dVertex
 10
-9.932561345979344
 20
-23.52157719737133
 30
0.0
  0
SEQEND
  5
901
330
8FC
100
AcDbEntity
  8
BEMA_UNG
  0
POLYLINE
  5
902
330
1F
100
AcDbEntity
  8
BEMA_UNG
 62
     7
100
AcDb2dPolyline
 66
     1
 10
0.0
 20
0.0
 30
0.0
  0
VERTEX
  5
903
330
902
100
AcDbEntity
  8
BEMA_UNG
 62
     7
100
AcDbVertex
100
AcDb2dVertex
 10
-9.475741383273624
 20
-20.02170238505805
 30
0.0
  0
VERTEX
  5
904
330
902
100
AcDbEntity
  8
BEMA_UNG
 62
     7
100
AcDbVertex
100
AcDb2dVertex
 10
-9.475741383273624
 20
-20.04891865734594
 30
0.0
  0
SEQEND
  5
905
330
902
100
AcDbEntity
  8
BEMA_UNG
  0
POLYLINE
  5
906
330
1F
100
AcDbEntity
  8
BEMA_UNG
 62
     7
100
AcDb2dPolyline
 66
     1
 10
0.0
 20
0.0
 30
0.0
  0
VERTEX
  5
907
330
906
100
AcDbEntity
  8
BEMA_UNG
 62
     7
100
AcDbVertex
100
AcDb2dVertex
 10
-9.475741383273624
 20
-20.02170238505805
 30
0.0
  0
VERTEX
  5
908
330
906
100
AcDbEntity
  8
BEMA_UNG
 62
     7
100
AcDbVertex
100
AcDb2dVertex
 10
-9.475741383273624
 20
-20.04891865734594
 30
0.0
  0
SEQEND
  5
909
330
906
100
AcDbEntity
  8
BEMA_UNG
  0
POLYLINE
  5
90A
330
1F
100
AcDbEntity
  8
BEMA_UNG
 62
     7
100
AcDb2dPolyline
 66
     1
 10
0.0
 20
0.0
 30
0.0
  0
VERTEX
  5
90B
330
90A
100
AcDbEntity
  8
BEMA_UNG
 62
     7
100
AcDbVertex
100
AcDb2dVertex
 10
-9.526556575203559
 20
-20.02170238505805
 30
0.0
  0
VERTEX
  5
90C
330
90A
100
AcDbEntity
  8
BEMA_UNG
 62
     7
100
AcDbVertex
100
AcDb2dVertex
 10
-9.526556575203559
 20
-20.43476960623765
 30
0.0
  0
SEQEND
  5
90D
330
90A
100
AcDbEntity
  8
BEMA_UNG
  0
POLYLINE
  5
90E
330
1F
100
AcDbEntity
  8
BEMA_UNG
 62
     7
100
AcDb2dPolyline
 66
     1
 10
0.0
 20
0.0
 30
0.0
  0
VERTEX
  5
90F
330
90E
100
AcDbEntity
  8
BEMA_UNG
 62
     7
100
AcDbVertex
100
AcDb2dVertex
 10
-9.577371767133494
 20
-20.02170238505805
 30
0.0
  0
VERTEX
  5
910
330
90E
100
AcDbEntity
  8
BEMA_UNG
 62
     7
100
AcDbVertex
100
AcDb2dVertex
 10
-9.577371767133494
 20
-20.82096506490516
 30
0.0
  0
SEQEND
  5
911
330
90E
100
AcDbEntity
  8
BEMA_UNG
  0
POLYLINE
  5
912
330
1F
100
AcDbEntity
  8
BEMA_UNG
 62
     7
100
AcDb2dPolyline
 66
     1
 10
0.0
 20
0.0
 30
0.0
  0
VERTEX
  5
913
330
912
100
AcDbEntity
  8
BEMA_UNG
 62
     7
100
AcDbVertex
100
AcDb2dVertex
 10
-9.628186959063429
 20
-20.02170238505805
 30
0.0
  0
VERTEX
  5
914
330
912
100
AcDbEntity
  8
BEMA_UNG
 62
     7
100
AcDbVertex
100
AcDb2dVertex
 10
-9.628186959063429
 20
-21.20664375890897
 30
0.0
  0
SEQEND
  5
915
330
912
100
AcDbEntity
  8
BEMA_UNG
  0
POLYLINE
  5
916
330
1F
100
AcDbEntity
  8
BEMA_UNG
 62
     7
100
AcDb2dPolyline
 66
     1
 10
0.0
 20
0.0
 30
0.0
  0
VERTEX
  5
917
330
916
100
AcDbEntity
  8
BEMA_UNG
 62
     7
100
AcDbVertex
100
AcDb2dVertex
 10
-9.678657641217567
 20
-20.02170238505805
 30
0.0
  0
VERTEX
  5
918
330
916
100
AcDbEntity
  8
BEMA_UNG
 62
     7
100
AcDbVertex
100
AcDb2dVertex
 10
-9.678657641217567
 20
-21.59232245291278
 30
0.0
  0
SEQEND
  5
919
330
916
100
AcDbEntity
  8
BEMA_UNG
  0
POLYLINE
  5
91A
330
1F
100
AcDbEntity
  8
BEMA_UNG
 62
     7
100
AcDb2dPolyline
 66
     1
 10
0.0
 20
0.0
 30
0.0
  0
VERTEX
  5
91B
330
91A
100
AcDbEntity
  8
BEMA_UNG
 62
     7
100
AcDbVertex
100
AcDb2dVertex
 10
-9.729472833147502
 20
-20.02170238505805
 30
0.0
  0
VERTEX
  5
91C
330
91A
100
AcDbEntity
  8
BEMA_UNG
 62
     7
100
AcDbVertex
100
AcDb2dVertex
 10
-9.729472833147502
 20
-21.97817340180449
 30
0.0
  0
SEQEND
  5
91D
330
91A
100
AcDbEntity
  8
BEMA_UNG
  0
POLYLINE
  5
91E
330
1F
100
AcDbEntity
  8
BEMA_UNG
 62
     7
100
AcDb2dPolyline
 66
     1
 10
0.0
 20
0.0
 30
0.0
  0
VERTEX
  5
91F
330
91E
100
AcDbEntity
  8
BEMA_UNG
 62
     7
100
AcDbVertex
100
AcDb2dVertex
 10
-9.780288025077438
 20
-20.02170238505805
 30
0.0
  0
VERTEX
  5
920
330
91E
100
AcDbEntity
  8
BEMA_UNG
 62
     7
100
AcDbVertex
100
AcDb2dVertex
 10
-9.780288025077438
 20
-22.36436886047199
 30
0.0
  0
SEQEND
  5
921
330
91E
100
AcDbEntity
  8
BEMA_UNG
  0
POLYLINE
  5
922
330
1F
100
AcDbEntity
  8
BEMA_UNG
 62
     7
100
AcDb2dPolyline
 66
     1
 10
0.0
 20
0.0
 30
0.0
  0
VERTEX
  5
923
330
922
100
AcDbEntity
  8
BEMA_UNG
 62
     7
100
AcDbVertex
100
AcDb2dVertex
 10
-9.831103217007373
 20
-20.02170238505805
 30
0.0
  0
VERTEX
  5
924
330
922
100
AcDbEntity
  8
BEMA_UNG
 62
     7
100
AcDbVertex
100
AcDb2dVertex
 10
-9.831103217007373
 20
-22.75004755447581
 30
0.0
  0
SEQEND
  5
925
330
922
100
AcDbEntity
  8
BEMA_UNG
  0
POLYLINE
  5
926
330
1F
100
AcDbEntity
  8
BEMA_UNG
 62
     7
100
AcDb2dPolyline
 66
     1
 10
0.0
 20
0.0
 30
0.0
  0
VERTEX
  5
927
330
926
100
AcDbEntity
  8
BEMA_UNG
 62
     7
100
AcDbVertex
100
AcDb2dVertex
 10
-9.88174615404941
 20
-20.02170238505805
 30
0.0
  0
VERTEX
  5
928
330
926
100
AcDbEntity
  8
BEMA_UNG
 62
     7
100
AcDbVertex
100
AcDb2dVertex
 10
-9.88174615404941
 20
-23.13572624847962
 30
0.0
  0
SEQEND
  5
929
330
926
100
AcDbEntity
  8
BEMA_UNG
  0
POLYLINE
  5
92A
330
1F
100
AcDbEntity
  8
BEMA_UNG
 62
     7
100
AcDb2dPolyline
 66
     1
 10
0.0
 20
0.0
 30
0.0
  0
VERTEX
  5
92B
330
92A
100
AcDbEntity
  8
BEMA_UNG
 62
     7
100
AcDbVertex
100
AcDb2dVertex
 10
-9.932561345979344
 20
-20.02170238505805
 30
0.0
  0
VERTEX
  5
92C
330
92A
100
AcDbEntity
  8
BEMA_UNG
 62
     7
100
AcDbVertex
100
AcDb2dVertex
 10
-9.932561345979344
 20
-23.52157719737133
 30
0.0
  0
SEQEND
  5
92D
330
92A
100
AcDbEntity
  8
BEMA_UNG
  0
POLYLINE
  5
92E
330
1F
100
AcDbEntity
  8
BEMA_UNG
 62
     7
100
AcDb2dPolyline
 66
     1
 10
0.0
 20
0.0
 30
0.0
  0
VERTEX
  5
92F
330
92E
100
AcDbEntity
  8
BEMA_UNG
 62
     7
100
AcDbVertex
100
AcDb2dVertex
 10
-10.38989807334876
 20
-20.02170238505805
 30
0.0
  0
VERTEX
  5
930
330
92E
100
AcDbEntity
  8
BEMA_UNG
 62
     7
100
AcDbVertex
100
AcDb2dVertex
 10
-10.38989807334876
 20
-20.04891865734594
 30
0.0
  0
SEQEND
  5
931
330
92E
100
AcDbEntity
  8
BEMA_UNG
  0
POLYLINE
  5
932
330
1F
100
AcDbEntity
  8
BEMA_UNG
 62
     7
100
AcDb2dPolyline
 66
     1
 10
0.0
 20
0.0
 30
0.0
  0
VERTEX
  5
933
330
932
100
AcDbEntity
  8
BEMA_UNG
 62
     7
100
AcDbVertex
100
AcDb2dVertex
 10
-10.38989807334876
 20
-20.02170238505805
 30
0.0
  0
VERTEX
  5
934
330
932
100
AcDbEntity
  8
BEMA_UNG
 62
     7
100
AcDbVertex
100
AcDb2dVertex
 10
-10.38989807334876
 20
-20.04891865734594
 30
0.0
  0
SEQEND
  5
935
330
932
100
AcDbEntity
  8
BEMA_UNG
  0
POLYLINE
  5
936
330
1F
100
AcDbEntity
  8
BEMA_UNG
 62
     7
100
AcDb2dPolyline
 66
     1
 10
0.0
 20
0.0
 30
0.0
  0
VERTEX
  5
937
330
936
100
AcDbEntity
  8
BEMA_UNG
 62
     7
100
AcDbVertex
100
AcDb2dVertex
 10
-10.33908288141882
 20
-20.02170238505805
 30
0.0
  0
VERTEX
  5
938
330
936
100
AcDbEntity
  8
BEMA_UNG
 62
     7
100
AcDbVertex
100
AcDb2dVertex
 10
-10.33908288141882
 20
-20.43476960623765
 30
0.0
  0
SEQEND
  5
939
330
936
100
AcDbEntity
  8
BEMA_UNG
  0
POLYLINE
  5
93A
330
1F
100
AcDbEntity
  8
BEMA_UNG
 62
     7
100
AcDb2dPolyline
 66
     1
 10
0.0
 20
0.0
 30
0.0
  0
VERTEX
  5
93B
330
93A
100
AcDbEntity
  8
BEMA_UNG
 62
     7
100
AcDbVertex
100
AcDb2dVertex
 10
-10.28826768948889
 20
-20.02170238505805
 30
0.0
  0
VERTEX
  5
93C
330
93A
100
AcDbEntity
  8
BEMA_UNG
 62
     7
100
AcDbVertex
100
AcDb2dVertex
 10
-10.28826768948889
 20
-20.82096506490516
 30
0.0
  0
SEQEND
  5
93D
330
93A
100
AcDbEntity
  8
BEMA_UNG
  0
POLYLINE
  5
93E
330
1F
100
AcDbEntity
  8
BEMA_UNG
 62
     7
100
AcDb2dPolyline
 66
     1
 10
0.0
 20
0.0
 30
0.0
  0
VERTEX
  5
93F
330
93E
100
AcDbEntity
  8
BEMA_UNG
 62
     7
100
AcDbVertex
100
AcDb2dVertex
 10
-10.23745249755895
 20
-20.02170238505805
 30
0.0
  0
VERTEX
  5
940
330
93E
100
AcDbEntity
  8
BEMA_UNG
 62
     7
100
AcDbVertex
100
AcDb2dVertex
 10
-10.23745249755895
 20
-21.20664375890897
 30
0.0
  0
SEQEND
  5
941
330
93E
100
AcDbEntity
  8
BEMA_UNG
  0
POLYLINE
  5
942
330
1F
100
AcDbEntity
  8
BEMA_UNG
 62
     7
100
AcDb2dPolyline
 66
     1
 10
0.0
 20
0.0
 30
0.0
  0
VERTEX
  5
943
330
942
100
AcDbEntity
  8
BEMA_UNG
 62
     7
100
AcDbVertex
100
AcDb2dVertex
 10
-10.18698181540482
 20
-20.02170238505805
 30
0.0
  0
VERTEX
  5
944
330
942
100
AcDbEntity
  8
BEMA_UNG
 62
     7
100
AcDbVertex
100
AcDb2dVertex
 10
-10.18698181540482
 20
-21.59232245291278
 30
0.0
  0
SEQEND
  5
945
330
942
100
AcDbEntity
  8
BEMA_UNG
  0
POLYLINE
  5
946
330
1F
100
AcDbEntity
  8
BEMA_UNG
 62
     7
100
AcDb2dPolyline
 66
     1
 10
0.0
 20
0.0
 30
0.0
  0
VERTEX
  5
947
330
946
100
AcDbEntity
  8
BEMA_UNG
 62
     7
100
AcDbVertex
100
AcDb2dVertex
 10
-10.13616662347488
 20
-20.02170238505805
 30
0.0
  0
VERTEX
  5
948
330
946
100
AcDbEntity
  8
BEMA_UNG
 62
     7
100
AcDbVertex
100
AcDb2dVertex
 10
-10.13616662347488
 20
-21.97817340180449
 30
0.0
  0
SEQEND
  5
949
330
946
100
AcDbEntity
  8
BEMA_UNG
  0
POLYLINE
  5
94A
330
1F
100
AcDbEntity
  8
BEMA_UNG
 62
     7
100
AcDb2dPolyline
 66
     1
 10
0.0
 20
0.0
 30
0.0
  0
VERTEX
  5
94B
330
94A
100
AcDbEntity
  8
BEMA_UNG
 62
     7
100
AcDbVertex
100
AcDb2dVertex
 10
-10.08535143154494
 20
-20.02170238505805
 30
0.0
  0
VERTEX
  5
94C
330
94A
100
AcDbEntity
  8
BEMA_UNG
 62
     7
100
AcDbVertex
100
AcDb2dVertex
 10
-10.08535143154494
 20
-22.36436886047199
 30
0.0
  0
SEQEND
  5
94D
330
94A
100
AcDbEntity
  8
BEMA_UNG
  0
POLYLINE
  5
94E
330
1F
100
AcDbEntity
  8
BEMA_UNG
 62
     7
100
AcDb2dPolyline
 66
     1
 10
0.0
 20
0.0
 30
0.0
  0
VERTEX
  5
94F
330
94E
100
AcDbEntity
  8
BEMA_UNG
 62
     7
100
AcDbVertex
100
AcDb2dVertex
 10
-10.03453623961501
 20
-20.02170238505805
 30
0.0
  0
VERTEX
  5
950
330
94E
100
AcDbEntity
  8
BEMA_UNG
 62
     7
100
AcDbVertex
100
AcDb2dVertex
 10
-10.03453623961501
 20
-22.75004755447581
 30
0.0
  0
SEQEND
  5
951
330
94E
100
AcDbEntity
  8
BEMA_UNG
  0
POLYLINE
  5
952
330
1F
100
AcDbEntity
  8
BEMA_UNG
 62
     7
100
AcDb2dPolyline
 66
     1
 10
0.0
 20
0.0
 30
0.0
  0
VERTEX
  5
953
330
952
100
AcDbEntity
  8
BEMA_UNG
 62
     7
100
AcDbVertex
100
AcDb2dVertex
 10
-9.983721047685075
 20
-20.02170238505805
 30
0.0
  0
VERTEX
  5
954
330
952
100
AcDbEntity
  8
BEMA_UNG
 62
     7
100
AcDbVertex
100
AcDb2dVertex
 10
-9.983721047685075
 20
-23.13572624847962
 30
0.0
  0
SEQEND
  5
955
330
952
100
AcDbEntity
  8
BEMA_UNG
  0
POLYLINE
  5
956
330
1F
100
AcDbEntity
  8
BEMA_UNG
 62
     7
100
AcDb2dPolyline
 66
     1
 10
0.0
 20
0.0
 30
0.0
  0
VERTEX
  5
957
330
956
100
AcDbEntity
  8
BEMA_UNG
 62
     7
100
AcDbVertex
100
AcDb2dVertex
 10
-9.932561345979344
 20
-20.02170238505805
 30
0.0
  0
VERTEX
  5
958
330
956
100
AcDbEntity
  8
BEMA_UNG
 62
     7
100
AcDbVertex
100
AcDb2dVertex
 10
-9.932561345979344
 20
-23.52157719737133
 30
0.0
  0
SEQEND
  5
959
330
956
100
AcDbEntity
  8
BEMA_UNG
  0
POLYLINE
  5
95A
330
1F
100
AcDbEntity
  8
BEMA_UNG
 62
     7
100
AcDb2dPolyline
 66
     1
 10
0.0
 20
0.0
 30
0.0
  0
VERTEX
  5
95B
330
95A
100
AcDbEntity
  8
BEMA_UNG
 62
     7
100
AcDbVertex
100
AcDb2dVertex
 10
80.14468718256595
 20
10.07148491306915
 30
0.0
  0
VERTEX
  5
95C
330
95A
100
AcDbEntity
  8
BEMA_UNG
 62
     7
100
AcDbVertex
100
AcDb2dVertex
 10
56.57453410680736
 20
10.07148491306915
 30
0.0
  0
SEQEND
  5
95D
330
95A
100
AcDbEntity
  8
BEMA_UNG
  0
POLYLINE
  5
95E
330
1F
100
AcDbEntity
  8
BEMA_UNG
 62
     7
100
AcDb2dPolyline
 66
     1
 10
0.0
 20
0.0
 30
0.0
  0
VERTEX
  5
95F
330
95E
100
AcDbEntity
  8
BEMA_UNG
 62
     7
100
AcDbVertex
100
AcDb2dVertex
 10
47.41574171726621
 20
-6.274556546575623
 30
0.0
  0
VERTEX
  5
960
330
95E
100
AcDbEntity
  8
BEMA_UNG
 62
     7
100
AcDbVertex
100
AcDb2dVertex
 10
56.57453410680736
 20
10.07148491306915
 30
0.0
  0
SEQEND
  5
961
330
95E
100
AcDbEntity
  8
BEMA_UNG
  0
POLYLINE
  5
962
330
1F
100
AcDbEntity
  8
BEMA_UNG
 62
     7
100
AcDb2dPolyline
 66
     1
 10
0.0
 20
0.0
 30
0.0
  0
VERTEX
  5
963
330
962
100
AcDbEntity
  8
BEMA_UNG
 62
     7
100
AcDbVertex
100
AcDb2dVertex
 10
47.41574171726621
 20
-6.274556546575623
 30
0.0
  0
VERTEX
  5
964
330
962
100
AcDbEntity
  8
BEMA_UNG
 62
     7
100
AcDbVertex
100
AcDb2dVertex
 10
49.63782977115149
 20
-3.530708437247037
 30
0.0
  0
VERTEX
  5
965
330
962
100
AcDbEntity
  8
BEMA_UNG
 62
     7
100
AcDbVertex
100
AcDb2dVertex
 10
48.85183071767254
 20
-3.049169898127941
 30
0.0
  0
VERTEX
  5
966
330
962
100
AcDbEntity
  8
BEMA_UNG
 62
     7
100
AcDbVertex
100
AcDb2dVertex
 10
47.41574171726621
 20
-6.274556546575623
 30
0.0
  0
SEQEND
  5
967
330
962
100
AcDbEntity
  8
BEMA_UNG
  0
POLYLINE
  5
968
330
1F
100
AcDbEntity
  8
BEMA_UNG
 62
     7
100
AcDb2dPolyline
 66
     1
 10
0.0
 20
0.0
 30
0.0
  0
VERTEX
  5
969
330
968
100
AcDbEntity
  8
BEMA_UNG
 62
     7
100
AcDbVertex
100
AcDb2dVertex
 10
49.63438467339353
 20
-3.528899760924106
 30
0.0
  0
VERTEX
  5
96A
330
968
100
AcDbEntity
  8
BEMA_UNG
 62
     7
100
AcDbVertex
100
AcDb2dVertex
 10
49.62060428236169
 20
-3.552240298234297
 30
0.0
  0
SEQEND
  5
96B
330
968
100
AcDbEntity
  8
BEMA_UNG
  0
POLYLINE
  5
96C
330
1F
100
AcDbEntity
  8
BEMA_UNG
 62
     7
100
AcDb2dPolyline
 66
     1
 10
0.0
 20
0.0
 30
0.0
  0
VERTEX
  5
96D
330
96C
100
AcDbEntity
  8
BEMA_UNG
 62
     7
100
AcDbVertex
100
AcDb2dVertex
 10
49.63438467339353
 20
-3.528899760924106
 30
0.0
  0
VERTEX
  5
96E
330
96C
100
AcDbEntity
  8
BEMA_UNG
 62
     7
100
AcDbVertex
100
AcDb2dVertex
 10
49.62060428236169
 20
-3.552240298234297
 30
0.0
  0
SEQEND
  5
96F
330
96C
100
AcDbEntity
  8
BEMA_UNG
  0
POLYLINE
  5
970
330
1F
100
AcDbEntity
  8
BEMA_UNG
 62
     7
100
AcDb2dPolyline
 66
     1
 10
0.0
 20
0.0
 30
0.0
  0
VERTEX
  5
971
330
970
100
AcDbEntity
  8
BEMA_UNG
 62
     7
100
AcDbVertex
100
AcDb2dVertex
 10
49.59132095141901
 20
-3.502114125855954
 30
0.0
  0
VERTEX
  5
972
330
970
100
AcDbEntity
  8
BEMA_UNG
 62
     7
100
AcDbVertex
100
AcDb2dVertex
 10
49.37496881221902
 20
-3.854547626495435
 30
0.0
  0
SEQEND
  5
973
330
970
100
AcDbEntity
  8
BEMA_UNG
  0
POLYLINE
  5
974
330
1F
100
AcDbEntity
  8
BEMA_UNG
 62
     7
100
AcDb2dPolyline
 66
     1
 10
0.0
 20
0.0
 30
0.0
  0
VERTEX
  5
975
330
974
100
AcDbEntity
  8
BEMA_UNG
 62
     7
100
AcDbVertex
100
AcDb2dVertex
 10
49.54791271966869
 20
-3.476017510339394
 30
0.0
  0
VERTEX
  5
976
330
974
100
AcDbEntity
  8
BEMA_UNG
 62
     7
100
AcDbVertex
100
AcDb2dVertex
 10
49.13053912629164
 20
-4.156854954756573
 30
0.0
  0
SEQEND
  5
977
330
974
100
AcDbEntity
  8
BEMA_UNG
  0
POLYLINE
  5
978
330
1F
100
AcDbEntity
  8
BEMA_UNG
 62
     7
100
AcDb2dPolyline
 66
     1
 10
0.0
 20
0.0
 30
0.0
  0
VERTEX
  5
979
330
978
100
AcDbEntity
  8
BEMA_UNG
 62
     7
100
AcDbVertex
100
AcDb2dVertex
 10
49.50484899769418
 20
-3.449231875271242
 30
0.0
  0
VERTEX
  5
97A
330
978
100
AcDbEntity
  8
BEMA_UNG
 62
     7
100
AcDbVertex
100
AcDb2dVertex
 10
48.88576493058846
 20
-4.459506792793507
 30
0.0
  0
SEQEND
  5
97B
330
978
100
AcDbEntity
  8
BEMA_UNG
  0
POLYLINE
  5
97C
330
1F
100
AcDbEntity
  8
BEMA_UNG
 62
     7
100
AcDb2dPolyline
 66
     1
 10
0.0
 20
0.0
 30
0.0
  0
VERTEX
  5
97D
330
97C
100
AcDbEntity
  8
BEMA_UNG
 62
     7
100
AcDbVertex
100
AcDb2dVertex
 10
49.46144076594386
 20
-3.423049132310734
 30
0.0
  0
VERTEX
  5
97E
330
97C
100
AcDbEntity
  8
BEMA_UNG
 62
     7
100
AcDbVertex
100
AcDb2dVertex
 10
48.64047397022159
 20
-4.761986375942544
 30
0.0
  0
SEQEND
  5
97F
330
97C
100
AcDbEntity
  8
BEMA_UNG
  0
POLYLINE
  5
980
330
1F
100
AcDbEntity
  8
BEMA_UNG
 62
     7
100
AcDb2dPolyline
 66
     1
 10
0.0
 20
0.0
 30
0.0
  0
VERTEX
  5
981
330
980
100
AcDbEntity
  8
BEMA_UNG
 62
     7
100
AcDbVertex
100
AcDb2dVertex
 10
49.41768802441774
 20
-3.396263497242582
 30
0.0
  0
VERTEX
  5
982
330
980
100
AcDbEntity
  8
BEMA_UNG
 62
     7
100
AcDbVertex
100
AcDb2dVertex
 10
48.39569977451841
 20
-5.064121449315784
 30
0.0
  0
SEQEND
  5
983
330
980
100
AcDbEntity
  8
BEMA_UNG
  0
POLYLINE
  5
984
330
1F
100
AcDbEntity
  8
BEMA_UNG
 62
     7
100
AcDb2dPolyline
 66
     1
 10
0.0
 20
0.0
 30
0.0
  0
VERTEX
  5
985
330
984
100
AcDbEntity
  8
BEMA_UNG
 62
     7
100
AcDbVertex
100
AcDb2dVertex
 10
49.37462430244322
 20
-3.369477862174429
 30
0.0
  0
VERTEX
  5
986
330
984
100
AcDbEntity
  8
BEMA_UNG
 62
     7
100
AcDbVertex
100
AcDb2dVertex
 10
48.15058106903944
 20
-5.367290052016412
 30
0.0
  0
SEQEND
  5
987
330
984
100
AcDbEntity
  8
BEMA_UNG
  0
POLYLINE
  5
988
330
1F
100
AcDbEntity
  8
BEMA_UNG
 62
     7
100
AcDb2dPolyline
 66
     1
 10
0.0
 20
0.0
 30
0.0
  0
VERTEX
  5
989
330
988
100
AcDbEntity
  8
BEMA_UNG
 62
     7
100
AcDbVertex
100
AcDb2dVertex
 10
49.33121607069291
 20
-3.34338124665787
 30
0.0
  0
VERTEX
  5
98A
330
988
100
AcDbEntity
  8
BEMA_UNG
 62
     7
100
AcDbVertex
100
AcDb2dVertex
 10
47.90597912822416
 20
-5.669252870501754
 30
0.0
  0
SEQEND
  5
98B
330
988
100
AcDbEntity
  8
BEMA_UNG
  0
POLYLINE
  5
98C
330
1F
100
AcDbEntity
  8
BEMA_UNG
 62
     7
100
AcDb2dPolyline
 66
     1
 10
0.0
 20
0.0
 30
0.0
  0
VERTEX
  5
98D
330
98C
100
AcDbEntity
  8
BEMA_UNG
 62
     7
100
AcDbVertex
100
AcDb2dVertex
 10
49.28815234871838
 20
-3.316595611589717
 30
0.0
  0
VERTEX
  5
98E
330
98C
100
AcDbEntity
  8
BEMA_UNG
 62
     7
100
AcDbVertex
100
AcDb2dVertex
 10
47.66051591296939
 20
-5.971560198762893
 30
0.0
  0
SEQEND
  5
98F
330
98C
100
AcDbEntity
  8
BEMA_UNG
  0
POLYLINE
  5
990
330
1F
100
AcDbEntity
  8
BEMA_UNG
 62
     7
100
AcDb2dPolyline
 66
     1
 10
0.0
 20
0.0
 30
0.0
  0
VERTEX
  5
991
330
990
100
AcDbEntity
  8
BEMA_UNG
 62
     7
100
AcDbVertex
100
AcDb2dVertex
 10
49.24439960719227
 20
-3.289723849077616
 30
0.0
  0
VERTEX
  5
992
330
990
100
AcDbEntity
  8
BEMA_UNG
 62
     7
100
AcDbVertex
100
AcDb2dVertex
 10
47.41574171726621
 20
-6.274556546575623
 30
0.0
  0
SEQEND
  5
993
330
990
100
AcDbEntity
  8
BEMA_UNG
  0
POLYLINE
  5
994
330
1F
100
AcDbEntity
  8
BEMA_UNG
 62
     7
100
AcDb2dPolyline
 66
     1
 10
0.0
 20
0.0
 30
0.0
  0
VERTEX
  5
995
330
994
100
AcDbEntity
  8
BEMA_UNG
 62
     7
100
AcDbVertex
100
AcDb2dVertex
 10
48.85475905076681
 20
-3.050892447006922
 30
0.0
  0
VERTEX
  5
996
330
994
100
AcDbEntity
  8
BEMA_UNG
 62
     7
100
AcDbVertex
100
AcDb2dVertex
 10
48.84063414995916
 20
-3.074232984317113
 30
0.0
  0
SEQEND
  5
997
330
994
100
AcDbEntity
  8
BEMA_UNG
  0
POLYLINE
  5
998
330
1F
100
AcDbEntity
  8
BEMA_UNG
 62
     7
100
AcDb2dPolyline
 66
     1
 10
0.0
 20
0.0
 30
0.0
  0
VERTEX
  5
999
330
998
100
AcDbEntity
  8
BEMA_UNG
 62
     7
100
AcDbVertex
100
AcDb2dVertex
 10
48.85475905076681
 20
-3.050892447006922
 30
0.0
  0
VERTEX
  5
99A
330
998
100
AcDbEntity
  8
BEMA_UNG
 62
     7
100
AcDbVertex
100
AcDb2dVertex
 10
48.84063414995916
 20
-3.074232984317113
 30
0.0
  0
SEQEND
  5
99B
330
998
100
AcDbEntity
  8
BEMA_UNG
  0
POLYLINE
  5
99C
330
1F
100
AcDbEntity
  8
BEMA_UNG
 62
     7
100
AcDb2dPolyline
 66
     1
 10
0.0
 20
0.0
 30
0.0
  0
VERTEX
  5
99D
330
99C
100
AcDbEntity
  8
BEMA_UNG
 62
     7
100
AcDbVertex
100
AcDb2dVertex
 10
48.89799502762923
 20
-3.077678082075074
 30
0.0
  0
VERTEX
  5
99E
330
99C
100
AcDbEntity
  8
BEMA_UNG
 62
     7
100
AcDbVertex
100
AcDb2dVertex
 10
48.68250416286872
 20
-3.430111582714555
 30
0.0
  0
SEQEND
  5
99F
330
99C
100
AcDbEntity
  8
BEMA_UNG
  0
POLYLINE
  5
9A0
330
1F
100
AcDbEntity
  8
BEMA_UNG
 62
     7
100
AcDb2dPolyline
 66
     1
 10
0.0
 20
0.0
 30
0.0
  0
VERTEX
  5
9A1
330
9A0
100
AcDbEntity
  8
BEMA_UNG
 62
     7
100
AcDbVertex
100
AcDb2dVertex
 10
48.94174776915534
 20
-3.104549844587176
 30
0.0
  0
VERTEX
  5
9A2
330
9A0
100
AcDbEntity
  8
BEMA_UNG
 62
     7
100
AcDbVertex
100
AcDb2dVertex
 10
48.52368515622669
 20
-3.785387289004354
 30
0.0
  0
SEQEND
  5
9A3
330
9A0
100
AcDbEntity
  8
BEMA_UNG
  0
POLYLINE
  5
9A4
330
1F
100
AcDbEntity
  8
BEMA_UNG
 62
     7
100
AcDb2dPolyline
 66
     1
 10
0.0
 20
0.0
 30
0.0
  0
VERTEX
  5
9A5
330
9A4
100
AcDbEntity
  8
BEMA_UNG
 62
     7
100
AcDbVertex
100
AcDb2dVertex
 10
48.98481149112986
 20
-3.130646460103735
 30
0.0
  0
VERTEX
  5
9A6
330
9A4
100
AcDbEntity
  8
BEMA_UNG
 62
     7
100
AcDbVertex
100
AcDb2dVertex
 10
48.36572742402414
 20
-4.14100750506995
 30
0.0
  0
SEQEND
  5
9A7
330
9A4
100
AcDbEntity
  8
BEMA_UNG
  0
POLYLINE
  5
9A8
330
1F
100
AcDbEntity
  8
BEMA_UNG
 62
     7
100
AcDb2dPolyline
 66
     1
 10
0.0
 20
0.0
 30
0.0
  0
VERTEX
  5
9A9
330
9A8
100
AcDbEntity
  8
BEMA_UNG
 62
     7
100
AcDbVertex
100
AcDb2dVertex
 10
49.02821972288018
 20
-3.157432095171887
 30
0.0
  0
VERTEX
  5
9AA
330
9A8
100
AcDbEntity
  8
BEMA_UNG
 62
     7
100
AcDbVertex
100
AcDb2dVertex
 10
48.2077696918216
 20
-4.496713848579494
 30
0.0
  0
SEQEND
  5
9AB
330
9A8
100
AcDbEntity
  8
BEMA_UNG
  0
POLYLINE
  5
9AC
330
1F
100
AcDbEntity
  8
BEMA_UNG
 62
     7
100
AcDb2dPolyline
 66
     1
 10
0.0
 20
0.0
 30
0.0
  0
VERTEX
  5
9AD
330
9AC
100
AcDbEntity
  8
BEMA_UNG
 62
     7
100
AcDbVertex
100
AcDb2dVertex
 10
49.0712834448547
 20
-3.183959347908193
 30
0.0
  0
VERTEX
  5
9AE
330
9AC
100
AcDbEntity
  8
BEMA_UNG
 62
     7
100
AcDbVertex
100
AcDb2dVertex
 10
48.04895068517957
 20
-4.851903427425344
 30
0.0
  0
SEQEND
  5
9AF
330
9AC
100
AcDbEntity
  8
BEMA_UNG
  0
POLYLINE
  5
9B0
330
1F
100
AcDbEntity
  8
BEMA_UNG
 62
     7
100
AcDb2dPolyline
 66
     1
 10
0.0
 20
0.0
 30
0.0
  0
VERTEX
  5
9B1
330
9B0
100
AcDbEntity
  8
BEMA_UNG
 62
     7
100
AcDbVertex
100
AcDb2dVertex
 10
49.11503618638081
 20
-3.210400473200548
 30
0.0
  0
VERTEX
  5
9B2
330
9B0
100
AcDbEntity
  8
BEMA_UNG
 62
     7
100
AcDbVertex
100
AcDb2dVertex
 10
47.89082069808912
 20
-5.207782025822786
 30
0.0
  0
SEQEND
  5
9B3
330
9B0
100
AcDbEntity
  8
BEMA_UNG
  0
POLYLINE
  5
9B4
330
1F
100
AcDbEntity
  8
BEMA_UNG
 62
     7
100
AcDb2dPolyline
 66
     1
 10
0.0
 20
0.0
 30
0.0
  0
VERTEX
  5
9B5
330
9B4
100
AcDbEntity
  8
BEMA_UNG
 62
     7
100
AcDbVertex
100
AcDb2dVertex
 10
49.15775539857954
 20
-3.236841598492904
 30
0.0
  0
VERTEX
  5
9B6
330
9B4
100
AcDbEntity
  8
BEMA_UNG
 62
     7
100
AcDbVertex
100
AcDb2dVertex
 10
47.73286296588658
 20
-5.563316114444433
 30
0.0
  0
SEQEND
  5
9B7
330
9B4
100
AcDbEntity
  8
BEMA_UNG
  0
POLYLINE
  5
9B8
330
1F
100
AcDbEntity
  8
BEMA_UNG
 62
     7
100
AcDb2dPolyline
 66
     1
 10
0.0
 20
0.0
 30
0.0
  0
VERTEX
  5
9B9
330
9B8
100
AcDbEntity
  8
BEMA_UNG
 62
     7
100
AcDbVertex
100
AcDb2dVertex
 10
49.20150814010565
 20
-3.263627233561056
 30
0.0
  0
VERTEX
  5
9BA
330
9B8
100
AcDbEntity
  8
BEMA_UNG
 62
     7
100
AcDbVertex
100
AcDb2dVertex
 10
47.57404395924455
 20
-5.918677948178181
 30
0.0
  0
SEQEND
  5
9BB
330
9B8
100
AcDbEntity
  8
BEMA_UNG
  0
POLYLINE
  5
9BC
330
1F
100
AcDbEntity
  8
BEMA_UNG
 62
     7
100
AcDb2dPolyline
 66
     1
 10
0.0
 20
0.0
 30
0.0
  0
VERTEX
  5
9BD
330
9BC
100
AcDbEntity
  8
BEMA_UNG
 62
     7
100
AcDbVertex
100
AcDb2dVertex
 10
49.24439960719227
 20
-3.289723849077616
 30
0.0
  0
VERTEX
  5
9BE
330
9BC
100
AcDbEntity
  8
BEMA_UNG
 62
     7
100
AcDbVertex
100
AcDb2dVertex
 10
47.41574171726621
 20
-6.274556546575623
 30
0.0
  0
SEQEND
  5
9BF
330
9BC
100
AcDbEntity
  8
BEMA_UNG
  0
MTEXT
  5
9C1
330
1F
100
AcDbEntity
  8
TEXT
 62
     7
100
AcDbMText
 10
68.39242520083124
 20
-21.11793249164145
 30
0.0
 40
3.311188396084465
 41
0.0
 71
     7
 72
     1
  1
\fINDEX Univers 45 Light|b0|i0|c0|p34;\W1;\U+00F832
 11
-4.371139000186241E-8
 21
0.999999999999999
 31
0.0
  0
MTEXT
  5
9C2
330
1F
100
AcDbEntity
  8
TEXT
 62
     7
100
AcDbMText
 10
25.05137285679421
 20
-42.26514831422558
 30
0.0
 40
3.311188396084465
 41
0.0
 71
     7
 72
     1
  1
\fINDEX Univers 45 Light|b0|i0|c0|p34;\W1;54
  0
MTEXT
  5
9C3
330
1F
100
AcDbEntity
  8
TEXT
 62
     7
100
AcDbMText
 10
15.71498567783014
 20
11.47932411186019
 30
0.0
 40
3.311188396084465
 41
0.0
 71
     7
 72
     1
  1
\fINDEX Univers 45 Light|b0|i0|c0|p34;\W1;35
  0
MTEXT
  5
9C4
330
1F
100
AcDbEntity
  8
TEXT
 62
     7
100
AcDbMText
 10
59.38228877954614
 20
11.03869610861689
 30
0.0
 40
3.311188396084465
 41
0.0
 71
     7
 72
     1
  1
\fINDEX Univers 45 Light|b0|i0|c0|p34;\W1;Capto C3
  0
MTEXT
  5
9C5
330
1F
100
AcDbEntity
  8
TEXT
 62
     7
100
AcDbMText
 10
-11.52367974549395
 20
-21.00355524607713
 30
0.0
 40
3.311188396084465
 41
0.0
 71
     7
 72
     1
  1
\fINDEX Univers 45 Light|b0|i0|c0|p34;\W1;ER20
 11
-4.371139000186241E-8
 21
0.999999999999999
 31
0.0
  0
ENDSEC
  0
SECTION
  2
OBJECTS
  0
DICTIONARY
  5
C
330
0
100
AcDbDictionary
  3
ACAD_GROUP
350
D
  3
ACAD_LAYOUT
350
1A
  3
ACAD_MLINESTYLE
350
17
  3
ACAD_PLOTSETTINGS
350
19
  3
ACAD_TABLESTYLE
350
9E6
  3
ACAD_VISUALSTYLE
350
2A
  3
ACDBHEADERROUNDTRIPXREC
350
9C6
  0
DICTIONARY
  5
D
102
{ACAD_REACTORS
330
C
102
}
330
C
100
AcDbDictionary
  0
DICTIONARY
  5
1A
102
{ACAD_REACTORS
330
C
102
}
330
C
100
AcDbDictionary
  0
DICTIONARY
  5
17
102
{ACAD_REACTORS
330
C
102
}
330
C
100
AcDbDictionary
  3
STANDARD
350
18
  0
DICTIONARY
  5
19
102
{ACAD_REACTORS
330
C
102
}
330
C
100
AcDbDictionary
  0
DICTIONARY
  5
9E6
102
{ACAD_REACTORS
330
C
102
}
330
C
100
AcDbDictionary
  0
DICTIONARY
  5
2A
102
{ACAD_REACTORS
330
C
102
}
330
C
100
AcDbDictionary
  3
2DWIREFRAME
350
2F
  3
3D_HIDDEN
350
31
  3
3DWIREFRAME
350
30
  3
BASIC
350
32
  3
BRIGHTEN
350
36
  3
COLORCHANGE
350
3A
  3
CONCEPTUAL
350
34
  3
DIM
350
35
  3
FACEPATTERN
350
39
  3
FLAT
350
2B
  3
FLATWITHEDGES
350
2C
  3
GOURAUD
350
2D
  3
GOURAUDWITHEDGES
350
2E
  3
LINEPATTERN
350
38
  3
REALISTIC
350
33
  3
THICKEN
350
37
  0
DICTIONARY
  5
9C6
102
{ACAD_REACTORS
330
C
102
}
330
C
100
AcDbDictionary
  3
CEPSNTYPE
350
9CF
  3
DIMSTYLEDATA
350
9E5
  3
FINGERPRINTGUID
350
9D0
  3
HYPERLINKBASE
350
9C9
  3
INSUNITS
350
9CE
  3
LAYOUTDICT
350
9CB
  3
LWETCUNION
350
9CD
  3
PLOTSETDICT
350
9CC
  3
PSVPSCALE
350
9D2
  3
PUCSBASE
350
9D5
  3
PUCSORGBACK
350
9DB
  3
PUCSORGBOTTOM
350
9D7
  3
PUCSORGFRONT
350
9DA
  3
PUCSORGLEFT
350
9D8
  3
PUCSORGRIGHT
350
9D9
  3
PUCSORGTOP
350
9D6
  3
PUCSORTHOREF
350
9D3
  3
PUCSORTHOVIEW
350
9D4
  3
STYLESHEET
350
9CA
  3
TSTACKALIGN
350
9C7
  3
TSTACKSIZE
350
9C8
  3
UCSBASE
350
9DE
  3
UCSORGBACK
350
9E4
  3
UCSORGBOTTOM
350
9E0
  3
UCSORGFRONT
350
9E3
  3
UCSORGLEFT
350
9E1
  3
UCSORGRIGHT
350
9E2
  3
UCSORGTOP
350
9DF
  3
UCSORTHOREF
350
9DC
  3
UCSORTHOVIEW
350
9DD
  3
VERSIONGUID
350
9D1
  0
MLINESTYLE
  5
18
102
{ACAD_REACTORS
330
17
102
}
330
17
100
AcDbMlineStyle
  2
Standard
 70
     0
  3

 62
   256
 51
90.0
 52
90.0
 71
     2
 49
0.5
 62
   256
  6
BYLAYER
 49
-0.5
 62
   256
  6
BYLAYER
  0
VISUALSTYLE
  5
2F
102
{ACAD_REACTORS
330
2A
102
}
330
2A
100
AcDbVisualStyle
  2
2dWireframe
 70
     4
 71
     0
 72
     2
 73
     0
 90
        0
 40
-0.6
 41
-30.0
 62
     5
 63
     7
 74
     1
 91
        4
 64
     7
 65
   257
 75
     1
175
     1
 42
1.0
 92
        0
 66
   257
 43
1.0
 76
     1
 77
     6
 78
     2
 67
     7
 79
     5
170
     0
171
     0
290
     0
174
     0
 93
        1
 44
0.0
173
     0
291
     0
 45
0.0
1001
ACAD
1000
AcDbSavedByObjectVersion
1070
     0
  0
VISUALSTYLE
  5
31
102
{ACAD_REACTORS
330
2A
102
}
330
2A
100
AcDbVisualStyle
  2
3D Hidden
 70
     6
 71
     1
 72
     2
 73
     2
 90
        0
 40
-0.6
 41
-30.0
 62
     5
 63
     7
 74
     2
 91
        2
 64
     7
 65
   257
 75
     2
175
     1
 42
40.0
 92
        0
 66
   257
 43
1.0
 76
     1
 77
     6
 78
     2
 67
     7
 79
     3
170
     0
171
     0
290
     0
174
     0
 93
        1
 44
0.0
173
     0
291
     0
 45
0.0
1001
ACAD
1000
AcDbSavedByObjectVersion
1070
     0
  0
VISUALSTYLE
  5
30
102
{ACAD_REACTORS
330
2A
102
}
330
2A
100
AcDbVisualStyle
  2
3dWireframe
 70
     5
 71
     0
 72
     2
 73
     0
 90
        0
 40
-0.6
 41
-30.0
 62
     5
 63
     7
 74
     1
 91
        4
 64
     7
 65
   257
 75
     1
175
     1
 42
1.0
 92
        0
 66
   257
 43
1.0
 76
     1
 77
     6
 78
     2
 67
     7
 79
     5
170
     0
171
     0
290
     0
174
     0
 93
        1
 44
0.0
173
     0
291
     0
 45
0.0
1001
ACAD
1000
AcDbSavedByObjectVersion
1070
     0
  0
VISUALSTYLE
  5
32
102
{ACAD_REACTORS
330
2A
102
}
330
2A
100
AcDbVisualStyle
  2
Basic
 70
     7
 71
     1
 72
     0
 73
     1
 90
        0
 40
-0.6
 41
-30.0
 62
     5
 63
     7
 74
     0
 91
        4
 64
     7
 65
   257
 75
     1
175
     1
 42
1.0
 92
        8
 66
     7
 43
1.0
 76
     1
 77
     6
 78
     2
 67
     7
 79
     5
170
     0
171
     0
290
     0
174
     0
 93
        1
 44
0.0
173
     0
291
     1
 45
0.0
1001
ACAD
1000
AcDbSavedByObjectVersion
1070
     0
  0
VISUALSTYLE
  5
36
102
{ACAD_REACTORS
330
2A
102
}
330
2A
100
AcDbVisualStyle
  2
Brighten
 70
    12
 71
     2
 72
     2
 73
     0
 90
        0
 40
-0.6
 41
-30.0
 62
     5
 63
     7
 74
     1
 91
        4
 64
     7
 65
   257
 75
     1
175
     1
 42
1.0
 92
        8
 66
     7
 43
1.0
 76
     1
 77
     6
 78
     2
 67
     7
 79
     5
170
     0
171
     0
290
     0
174
     0
 93
        1
 44
50.0
173
     0
291
     1
 45
0.0
1001
ACAD
1000
AcDbSavedByObjectVersion
1070
     0
  0
VISUALSTYLE
  5
3A
102
{ACAD_REACTORS
330
2A
102
}
330
2A
100
AcDbVisualStyle
  2
ColorChange
 70
    16
 71
     2
 72
     2
 73
     3
 90
        0
 40
-0.6
 41
-30.0
 62
     5
 63
     8
 74
     1
 91
        4
 64
     7
 65
   257
 75
     1
175
     1
 42
1.0
 92
        8
 66
     8
 43
1.0
 76
     1
 77
     6
 78
     2
 67
     7
 79
     5
170
     0
171
     0
290
     0
174
     0
 93
        1
 44
0.0
173
     0
291
     1
 45
0.0
1001
ACAD
1000
AcDbSavedByObjectVersion
1070
     0
  0
VISUALSTYLE
  5
34
102
{ACAD_REACTORS
330
2A
102
}
330
2A
100
AcDbVisualStyle
  2
Conceptual
 70
     9
 71
     3
 72
     2
 73
     0
 90
        0
 40
-0.6
 41
-30.0
 62
     5
 63
     7
 74
     2
 91
        2
 64
     7
 65
   257
 75
     1
175
     1
 42
40.0
 92
        8
 66
     7
 43
1.0
 76
     1
 77
     6
 78
     2
 67
     7
 79
     3
170
     0
171
     0
290
     0
174
     0
 93
        1
 44
0.0
173
     0
291
     0
 45
0.0
1001
ACAD
1000
AcDbSavedByObjectVersion
1070
     0
  0
VISUALSTYLE
  5
35
102
{ACAD_REACTORS
330
2A
102
}
330
2A
100
AcDbVisualStyle
  2
Dim
 70
    11
 71
     2
 72
     2
 73
     0
 90
        0
 40
-0.6
 41
-30.0
 62
     5
 63
     7
 74
     1
 91
        4
 64
     7
 65
   257
 75
     1
175
     1
 42
1.0
 92
        8
 66
     7
 43
1.0
 76
     1
 77
     6
 78
     2
 67
     7
 79
     5
170
     0
171
     0
290
     0
174
     0
 93
        1
 44
-50.0
173
     0
291
     1
 45
0.0
1001
ACAD
1000
AcDbSavedByObjectVersion
1070
     0
  0
VISUALSTYLE
  5
39
102
{ACAD_REACTORS
330
2A
102
}
330
2A
100
AcDbVisualStyle
  2
Facepattern
 70
    15
 71
     2
 72
     2
 73
     0
 90
        0
 40
-0.6
 41
-30.0
 62
     5
 63
     7
 74
     1
 91
        4
 64
     7
 65
   257
 75
     1
175
     1
 42
1.0
 92
        8
 66
     7
 43
1.0
 76
     1
 77
     6
 78
     2
 67
     7
 79
     5
170
     0
171
     0
290
     0
174
     0
 93
        1
 44
0.0
173
     0
291
     1
 45
0.0
1001
ACAD
1000
AcDbSavedByObjectVersion
1070
     0
  0
VISUALSTYLE
  5
2B
102
{ACAD_REACTORS
330
2A
102
}
330
2A
100
AcDbVisualStyle
  2
Flat
 70
     0
 71
     2
 72
     1
 73
     1
 90
        2
 40
-0.6
 41
30.0
 62
     5
 63
     7
 74
     0
 91
        4
 64
     7
 65
   257
 75
     1
175
     1
 42
1.0
 92
        8
 66
     7
 43
1.0
 76
     1
 77
     6
 78
     2
 67
     7
 79
     5
170
     0
171
     0
290
     0
174
     0
 93
       13
 44
0.0
173
     0
291
     1
 45
0.0
1001
ACAD
1000
AcDbSavedByObjectVersion
1070
     0
  0
VISUALSTYLE
  5
2C
102
{ACAD_REACTORS
330
2A
102
}
330
2A
100
AcDbVisualStyle
  2
FlatWithEdges
 70
     1
 71
     2
 72
     1
 73
     1
 90
        2
 40
-0.6
 41
30.0
 62
     5
 63
     7
 74
     1
 91
        4
 64
     7
 65
   257
 75
     1
175
     1
 42
1.0
 92
        0
 66
   257
 43
1.0
 76
     1
 77
     6
 78
     2
 67
     7
 79
     5
170
     0
171
     0
290
     0
174
     0
 93
       13
 44
0.0
173
     0
291
     1
 45
0.0
1001
ACAD
1000
AcDbSavedByObjectVersion
1070
     0
  0
VISUALSTYLE
  5
2D
102
{ACAD_REACTORS
330
2A
102
}
330
2A
100
AcDbVisualStyle
  2
Gouraud
 70
     2
 71
     2
 72
     2
 73
     1
 90
        2
 40
-0.6
 41
30.0
 62
     5
 63
     7
 74
     0
 91
        4
 64
     7
 65
   257
 75
     1
175
     1
 42
1.0
 92
        0
 66
     7
 43
1.0
 76
     1
 77
     6
 78
     2
 67
     7
 79
     5
170
     0
171
     0
290
     0
174
     0
 93
       13
 44
0.0
173
     0
291
     1
 45
0.0
1001
ACAD
1000
AcDbSavedByObjectVersion
1070
     0
  0
VISUALSTYLE
  5
2E
102
{ACAD_REACTORS
330
2A
102
}
330
2A
100
AcDbVisualStyle
  2
GouraudWithEdges
 70
     3
 71
     2
 72
     2
 73
     1
 90
        2
 40
-0.6
 41
30.0
 62
     5
 63
     7
 74
     1
 91
        4
 64
     7
 65
   257
 75
     1
175
     1
 42
1.0
 92
        0
 66
   257
 43
1.0
 76
     1
 77
     6
 78
     2
 67
     7
 79
     5
170
     0
171
     0
290
     0
174
     0
 93
       13
 44
0.0
173
     0
291
     1
 45
0.0
1001
ACAD
1000
AcDbSavedByObjectVersion
1070
     0
  0
VISUALSTYLE
  5
38
102
{ACAD_REACTORS
330
2A
102
}
330
2A
100
AcDbVisualStyle
  2
Linepattern
 70
    14
 71
     2
 72
     2
 73
     0
 90
        0
 40
-0.6
 41
-30.0
 62
     5
 63
     7
 74
     1
 91
        4
 64
     7
 65
   257
 75
     7
175
     7
 42
1.0
 92
        8
 66
     7
 43
1.0
 76
     1
 77
     6
 78
     2
 67
     7
 79
     5
170
     0
171
     0
290
     0
174
     0
 93
        1
 44
0.0
173
     0
291
     1
 45
0.0
1001
ACAD
1000
AcDbSavedByObjectVersion
1070
     0
  0
VISUALSTYLE
  5
33
102
{ACAD_REACTORS
330
2A
102
}
330
2A
100
AcDbVisualStyle
  2
Realistic
 70
     8
 71
     2
 72
     2
 73
     0
 90
        0
 40
-0.6
 41
-30.0
 62
     5
 63
     7
 74
     1
 91
        0
 64
     7
 65
   257
 75
     1
175
     1
 42
1.0
 92
        8
 66
     8
 43
1.0
 76
     1
 77
     6
 78
     2
 67
     7
 79
     5
170
     0
171
     0
290
     0
174
     0
 93
       13
 44
0.0
173
     0
291
     0
 45
0.0
1001
ACAD
1000
AcDbSavedByObjectVersion
1070
     0
  0
VISUALSTYLE
  5
37
102
{ACAD_REACTORS
330
2A
102
}
330
2A
100
AcDbVisualStyle
  2
Thicken
 70
    13
 71
     2
 72
     2
 73
     0
 90
        0
 40
-0.6
 41
-30.0
 62
     5
 63
     7
 74
     1
 91
        4
 64
     7
 65
   257
 75
     1
175
     1
 42
1.0
 92
       12
 66
     7
 43
1.0
 76
     1
 77
     6
 78
     2
 67
     7
 79
     5
170
     0
171
     0
290
     0
174
     0
 93
        1
 44
0.0
173
     0
291
     1
 45
0.0
1001
ACAD
1000
AcDbSavedByObjectVersion
1070
     0
  0
XRECORD
  5
9CF
102
{ACAD_REACTORS
330
9C6
102
}
330
9C6
100
AcDbXrecord
 90
        0
  0
XRECORD
  5
9E5
102
{ACAD_REACTORS
330
9C6
102
}
330
9C6
100
AcDbXrecord
1000
DSTYLE
1002
{
1070
   340
340
11
1002
}
  0
XRECORD
  5
9D0
102
{ACAD_REACTORS
330
9C6
102
}
330
9C6
100
AcDbXrecord
  1
{41085105-0DDD-464E-AEDA-D2F54C985FF1}
  0
XRECORD
  5
9C9
102
{ACAD_REACTORS
330
9C6
102
}
330
9C6
100
AcDbXrecord
  1

  0
XRECORD
  5
9CE
102
{ACAD_REACTORS
330
9C6
102
}
330
9C6
100
AcDbXrecord
 90
        1
  0
XRECORD
  5
9CB
102
{ACAD_REACTORS
330
9C6
102
}
330
9C6
100
AcDbXrecord
340
1A
  0
XRECORD
  5
9CD
102
{ACAD_REACTORS
330
9C6
102
}
330
9C6
100
AcDbXrecord
 90
    10269
  0
XRECORD
  5
9CC
102
{ACAD_REACTORS
330
9C6
102
}
330
9C6
100
AcDbXrecord
340
19
  0
XRECORD
  5
9D2
102
{ACAD_REACTORS
330
9C6
102
}
330
9C6
100
AcDbXrecord
 40
0.0
  0
XRECORD
  5
9D5
102
{ACAD_REACTORS
330
9C6
102
}
330
9C6
100
AcDbXrecord
340
0
  0
XRECORD
  5
9DB
102
{ACAD_REACTORS
330
9C6
102
}
330
9C6
100
AcDbXrecord
 10
0.0
 20
0.0
 30
0.0
  0
XRECORD
  5
9D7
102
{ACAD_REACTORS
330
9C6
102
}
330
9C6
100
AcDbXrecord
 10
0.0
 20
0.0
 30
0.0
  0
XRECORD
  5
9DA
102
{ACAD_REACTORS
330
9C6
102
}
330
9C6
100
AcDbXrecord
 10
0.0
 20
0.0
 30
0.0
  0
XRECORD
  5
9D8
102
{ACAD_REACTORS
330
9C6
102
}
330
9C6
100
AcDbXrecord
 10
0.0
 20
0.0
 30
0.0
  0
XRECORD
  5
9D9
102
{ACAD_REACTORS
330
9C6
102
}
330
9C6
100
AcDbXrecord
 10
0.0
 20
0.0
 30
0.0
  0
XRECORD
  5
9D6
102
{ACAD_REACTORS
330
9C6
102
}
330
9C6
100
AcDbXrecord
 10
0.0
 20
0.0
 30
0.0
  0
XRECORD
  5
9D3
102
{ACAD_REACTORS
330
9C6
102
}
330
9C6
100
AcDbXrecord
340
0
  0
XRECORD
  5
9D4
102
{ACAD_REACTORS
330
9C6
102
}
330
9C6
100
AcDbXrecord
 70
     0
  0
XRECORD
  5
9CA
102
{ACAD_REACTORS
330
9C6
102
}
330
9C6
100
AcDbXrecord
  1

  0
XRECORD
  5
9C7
102
{ACAD_REACTORS
330
9C6
102
}
330
9C6
100
AcDbXrecord
 90
        1
  0
XRECORD
  5
9C8
102
{ACAD_REACTORS
330
9C6
102
}
330
9C6
100
AcDbXrecord
 90
       70
  0
XRECORD
  5
9DE
102
{ACAD_REACTORS
330
9C6
102
}
330
9C6
100
AcDbXrecord
340
0
  0
XRECORD
  5
9E4
102
{ACAD_REACTORS
330
9C6
102
}
330
9C6
100
AcDbXrecord
 10
0.0
 20
0.0
 30
0.0
  0
XRECORD
  5
9E0
102
{ACAD_REACTORS
330
9C6
102
}
330
9C6
100
AcDbXrecord
 10
0.0
 20
0.0
 30
0.0
  0
XRECORD
  5
9E3
102
{ACAD_REACTORS
330
9C6
102
}
330
9C6
100
AcDbXrecord
 10
0.0
 20
0.0
 30
0.0
  0
XRECORD
  5
9E1
102
{ACAD_REACTORS
330
9C6
102
}
330
9C6
100
AcDbXrecord
 10
0.0
 20
0.0
 30
0.0
  0
XRECORD
  5
9E2
102
{ACAD_REACTORS
330
9C6
102
}
330
9C6
100
AcDbXrecord
 10
0.0
 20
0.0
 30
0.0
  0
XRECORD
  5
9DF
102
{ACAD_REACTORS
330
9C6
102
}
330
9C6
100
AcDbXrecord
 10
0.0
 20
0.0
 30
0.0
  0
XRECORD
  5
9DC
102
{ACAD_REACTORS
330
9C6
102
}
330
9C6
100
AcDbXrecord
340
0
  0
XRECORD
  5
9DD
102
{ACAD_REACTORS
330
9C6
102
}
330
9C6
100
AcDbXrecord
 70
     0
  0
XRECORD
  5
9D1
102
{ACAD_REACTORS
330
9C6
102
}
330
9C6
100
AcDbXrecord
  1
{FAEB1C32-E019-11D5-929B-00C0DF256EC4}
  0
ENDSEC
  0
EOF
