  0
SECTION
  2
HEADER
  9
$ACADVER
  1
AC1032
  9
$ACADMAINTVER
 90
      228
  9
$DWGCODEPAGE
  3
ANSI_1252
  9
$REQUIREDVERSIONS
160
                 0
  9
$INSBASE
 10
0.0
 20
0.0
 30
0.0
  9
$EXTMIN
 10
1.000000000000000E+20
 20
1.000000000000000E+20
 30
1.000000000000000E+20
  9
$EXTMAX
 10
-1.000000000000000E+20
 20
-1.000000000000000E+20
 30
-1.000000000000000E+20
  9
$LIMMIN
 10
0.0
 20
0.0
  9
$LIMMAX
 10
12.0
 20
9.0
  9
$ORTHOMODE
 70
     0
  9
$REGENMODE
 70
     1
  9
$FILLMODE
 70
     1
  9
$QTEXTMODE
 70
     0
  9
$MIRRTEXT
 70
     0
  9
$LTSCALE
 40
1.0
  9
$ATTMODE
 70
     1
  9
$TEXTSIZE
 40
0.2
  9
$TRACEWID
 40
0.05
  9
$TEXTSTYLE
  7
Standard
  9
$CLAYER
  8
0
  9
$CELTYPE
  6
ByLayer
  9
$CECOLOR
 62
   256
  9
$CELTSCALE
 40
1.0
  9
$DISPSILH
 70
     0
  9
$DIMSCALE
 40
1.0
  9
$DIMASZ
 40
0.18
  9
$DIMEXO
 40
0.0625
  9
$DIMDLI
 40
0.38
  9
$DIMRND
 40
0.0
  9
$DIMDLE
 40
0.0
  9
$DIMEXE
 40
0.18
  9
$DIMTP
 40
0.0
  9
$DIMTM
 40
0.0
  9
$DIMTXT
 40
0.18
  9
$DIMCEN
 40
0.09
  9
$DIMTSZ
 40
0.0
  9
$DIMTOL
 70
     0
  9
$DIMLIM
 70
     0
  9
$DIMTIH
 70
     1
  9
$DIMTOH
 70
     1
  9
$DIMSE1
 70
     0
  9
$DIMSE2
 70
     0
  9
$DIMTAD
 70
     0
  9
$DIMZIN
 70
     0
  9
$DIMBLK
  1

  9
$DIMASO
 70
     1
  9
$DIMSHO
 70
     1
  9
$DIMPOST
  1

  9
$DIMAPOST
  1

  9
$DIMALT
 70
     0
  9
$DIMALTD
 70
     2
  9
$DIMALTF
 40
25.4
  9
$DIMLFAC
 40
1.0
  9
$DIMTOFL
 70
     0
  9
$DIMTVP
 40
0.0
  9
$DIMTIX
 70
     0
  9
$DIMSOXD
 70
     0
  9
$DIMSAH
 70
     0
  9
$DIMBLK1
  1

  9
$DIMBLK2
  1

  9
$DIMSTYLE
  2
Standard
  9
$DIMCLRD
 70
     0
  9
$DIMCLRE
 70
     0
  9
$DIMCLRT
 70
     0
  9
$DIMTFAC
 40
1.0
  9
$DIMGAP
 40
0.09
  9
$DIMJUST
 70
     0
  9
$DIMSD1
 70
     0
  9
$DIMSD2
 70
     0
  9
$DIMTOLJ
 70
     1
  9
$DIMTZIN
 70
     0
  9
$DIMALTZ
 70
     0
  9
$DIMALTTZ
 70
     0
  9
$DIMUPT
 70
     0
  9
$DIMDEC
 70
     4
  9
$DIMTDEC
 70
     4
  9
$DIMALTU
 70
     2
  9
$DIMALTTD
 70
     2
  9
$DIMTXSTY
  7
Standard
  9
$DIMAUNIT
 70
     0
  9
$DIMADEC
 70
     0
  9
$DIMALTRND
 40
0.0
  9
$DIMAZIN
 70
     0
  9
$DIMDSEP
 70
    46
  9
$DIMATFIT
 70
     3
  9
$DIMFRAC
 70
     0
  9
$DIMLDRBLK
  1

  9
$DIMLUNIT
 70
     2
  9
$DIMLWD
 70
    -2
  9
$DIMLWE
 70
    -2
  9
$DIMTMOVE
 70
     0
  9
$DIMFXL
 40
1.0
  9
$DIMFXLON
 70
     0
  9
$DIMJOGANG
 40
0.7853981633974483
  9
$DIMTFILL
 70
     0
  9
$DIMTFILLCLR
 70
     0
  9
$DIMARCSYM
 70
     0
  9
$DIMLTYPE
  6

  9
$DIMLTEX1
  6

  9
$DIMLTEX2
  6

  9
$DIMTXTDIRECTION
 70
     0
  9
$LUNITS
 70
     2
  9
$LUPREC
 70
     4
  9
$SKETCHINC
 40
0.1
  9
$FILLETRAD
 40
0.0
  9
$AUNITS
 70
     0
  9
$AUPREC
 70
     0
  9
$MENU
  1
.
  9
$ELEVATION
 40
0.0
  9
$PELEVATION
 40
0.0
  9
$THICKNESS
 40
0.0
  9
$LIMCHECK
 70
     0
  9
$CHAMFERA
 40
0.0
  9
$CHAMFERB
 40
0.0
  9
$CHAMFERC
 40
0.0
  9
$CHAMFERD
 40
0.0
  9
$SKPOLY
 70
     0
  9
$TDCREATE
 40
2460280.343125000
  9
$TDUCREATE
 40
2460280.301458333
  9
$TDUPDATE
 40
2460280.343125000
  9
$TDUUPDATE
 40
2460280.301458333
  9
$TDINDWG
 40
0.0000000000
  9
$TDUSRTIMER
 40
0.0000000000
  9
$USRTIMER
 70
     1
  9
$ANGBASE
 50
0.0
  9
$ANGDIR
 70
     0
  9
$PDMODE
 70
     0
  9
$PDSIZE
 40
0.0
  9
$PLINEWID
 40
0.0
  9
$SPLFRAME
 70
     0
  9
$SPLINETYPE
 70
     6
  9
$SPLINESEGS
 70
     8
  9
$HANDSEED
  5
378
  9
$SURFTAB1
 70
     6
  9
$SURFTAB2
 70
     6
  9
$SURFTYPE
 70
     6
  9
$SURFU
 70
     6
  9
$SURFV
 70
     6
  9
$UCSBASE
  2

  9
$UCSNAME
  2

  9
$UCSORG
 10
0.0
 20
0.0
 30
0.0
  9
$UCSXDIR
 10
1.0
 20
0.0
 30
0.0
  9
$UCSYDIR
 10
0.0
 20
1.0
 30
0.0
  9
$UCSORTHOREF
  2

  9
$UCSORTHOVIEW
 70
     0
  9
$UCSORGTOP
 10
0.0
 20
0.0
 30
0.0
  9
$UCSORGBOTTOM
 10
0.0
 20
0.0
 30
0.0
  9
$UCSORGLEFT
 10
0.0
 20
0.0
 30
0.0
  9
$UCSORGRIGHT
 10
0.0
 20
0.0
 30
0.0
  9
$UCSORGFRONT
 10
0.0
 20
0.0
 30
0.0
  9
$UCSORGBACK
 10
0.0
 20
0.0
 30
0.0
  9
$PUCSBASE
  2

  9
$PUCSNAME
  2

  9
$PUCSORG
 10
0.0
 20
0.0
 30
0.0
  9
$PUCSXDIR
 10
1.0
 20
0.0
 30
0.0
  9
$PUCSYDIR
 10
0.0
 20
1.0
 30
0.0
  9
$PUCSORTHOREF
  2

  9
$PUCSORTHOVIEW
 70
     0
  9
$PUCSORGTOP
 10
0.0
 20
0.0
 30
0.0
  9
$PUCSORGBOTTOM
 10
0.0
 20
0.0
 30
0.0
  9
$PUCSORGLEFT
 10
0.0
 20
0.0
 30
0.0
  9
$PUCSORGRIGHT
 10
0.0
 20
0.0
 30
0.0
  9
$PUCSORGFRONT
 10
0.0
 20
0.0
 30
0.0
  9
$PUCSORGBACK
 10
0.0
 20
0.0
 30
0.0
  9
$USERI1
 70
     0
  9
$USERI2
 70
     0
  9
$USERI3
 70
     0
  9
$USERI4
 70
     0
  9
$USERI5
 70
     0
  9
$USERR1
 40
0.0
  9
$USERR2
 40
0.0
  9
$USERR3
 40
0.0
  9
$USERR4
 40
0.0
  9
$USERR5
 40
0.0
  9
$WORLDVIEW
 70
     1
  9
$SHADEDGE
 70
     3
  9
$SHADEDIF
 70
    70
  9
$TILEMODE
 70
     1
  9
$MAXACTVP
 70
    64
  9
$PINSBASE
 10
0.0
 20
0.0
 30
0.0
  9
$PLIMCHECK
 70
     0
  9
$PEXTMIN
 10
1.000000000000000E+20
 20
1.000000000000000E+20
 30
1.000000000000000E+20
  9
$PEXTMAX
 10
-1.000000000000000E+20
 20
-1.000000000000000E+20
 30
-1.000000000000000E+20
  9
$PLIMMIN
 10
0.0
 20
0.0
  9
$PLIMMAX
 10
12.0
 20
9.0
  9
$UNITMODE
 70
     0
  9
$VISRETAIN
 70
     1
  9
$PLINEGEN
 70
     0
  9
$PSLTSCALE
 70
     1
  9
$TREEDEPTH
 70
  3020
  9
$CMLSTYLE
  2
Standard
  9
$CMLJUST
 70
     0
  9
$CMLSCALE
 40
1.0
  9
$PROXYGRAPHICS
 70
     1
  9
$MEASUREMENT
 70
     0
  9
$CELWEIGHT
370
    -1
  9
$ENDCAPS
280
     0
  9
$JOINSTYLE
280
     0
  9
$LWDISPLAY
290
     1
  9
$INSUNITS
 70
     4
  9
$HYPERLINKBASE
  1

  9
$STYLESHEET
  1

  9
$XEDIT
290
     1
  9
$CEPSNTYPE
380
     0
  9
$PSTYLEMODE
290
     1
  9
$FINGERPRINTGUID
  2
{4448408B-FD9E-E64B-ABBA-E7AFA3918564}
  9
$VERSIONGUID
  2
{CFA82381-68CA-8549-A49D-35154944A8A3}
  9
$EXTNAMES
290
     1
  9
$PSVPSCALE
 40
0.0
  9
$OLESTARTUP
290
     0
  9
$SORTENTS
280
   127
  9
$INDEXCTL
280
     0
  9
$HIDETEXT
280
     1
  9
$XCLIPFRAME
280
     2
  9
$HALOGAP
280
     0
  9
$OBSCOLOR
 70
   257
  9
$OBSLTYPE
280
     0
  9
$INTERSECTIONDISPLAY
280
     0
  9
$INTERSECTIONCOLOR
 70
   257
  9
$DIMASSOC
280
     2
  9
$PROJECTNAME
  1

  9
$CAMERADISPLAY
290
     0
  9
$LENSLENGTH
 40
50.0
  9
$CAMERAHEIGHT
 40
0.0
  9
$STEPSPERSEC
 40
2.0
  9
$STEPSIZE
 40
6.0
  9
$3DDWFPREC
 40
2.0
  9
$PSOLWIDTH
 40
0.25
  9
$PSOLHEIGHT
 40
4.0
  9
$LOFTANG1
 40
1.570796326794896
  9
$LOFTANG2
 40
1.570796326794896
  9
$LOFTMAG1
 40
0.0
  9
$LOFTMAG2
 40
0.0
  9
$LOFTPARAM
 70
     7
  9
$LOFTNORMALS
280
     1
  9
$LATITUDE
 40
37.795
  9
$LONGITUDE
 40
-122.394
  9
$NORTHDIRECTION
 40
0.0
  9
$TIMEZONE
 70
 -8000
  9
$LIGHTGLYPHDISPLAY
280
     1
  9
$TILEMODELIGHTSYNCH
280
     1
  9
$CMATERIAL
347
11
  9
$SOLIDHIST
280
     0
  9
$SHOWHIST
280
     1
  9
$DWFFRAME
280
     2
  9
$DGNFRAME
280
     0
  9
$REALWORLDSCALE
290
     1
  9
$INTERFERECOLOR
 62
     1
  9
$INTERFEREOBJVS
345
33
  9
$INTERFEREVPVS
346
30
  9
$CSHADOW
280
     0
  9
$SHADOWPLANELOCATION
 40
0.0
  0
ENDSEC
  0
SECTION
  2
CLASSES
  0
CLASS
  1
ACDBDICTIONARYWDFLT
  2
AcDbDictionaryWithDefault
  3
ObjectDBX Classes
 90
        0
 91
        1
280
     0
281
     0
  0
CLASS
  1
MATERIAL
  2
AcDbMaterial
  3
ObjectDBX Classes
 90
     1153
 91
        3
280
     0
281
     0
  0
CLASS
  1
VISUALSTYLE
  2
AcDbVisualStyle
  3
ObjectDBX Classes
 90
     4095
 91
       24
280
     0
281
     0
  0
CLASS
  1
SCALE
  2
AcDbScale
  3
ObjectDBX Classes
 90
     1153
 91
       17
280
     0
281
     0
  0
CLASS
  1
TABLESTYLE
  2
AcDbTableStyle
  3
ObjectDBX Classes
 90
     4095
 91
        1
280
     0
281
     0
  0
CLASS
  1
MLEADERSTYLE
  2
AcDbMLeaderStyle
  3
ACDB_MLEADERSTYLE_CLASS
 90
     4095
 91
        1
280
     0
281
     0
  0
CLASS
  1
ACDBSECTIONVIEWSTYLE
  2
AcDbSectionViewStyle
  3
ObjectDBX Classes
 90
     1025
 91
        1
280
     0
281
     0
  0
CLASS
  1
ACDBDETAILVIEWSTYLE
  2
AcDbDetailViewStyle
  3
ObjectDBX Classes
 90
     1025
 91
        1
280
     0
281
     0
  0
CLASS
  1
DICTIONARYVAR
  2
AcDbDictionaryVar
  3
ObjectDBX Classes
 90
        0
 91
        5
280
     0
281
     0
  0
CLASS
  1
CELLSTYLEMAP
  2
AcDbCellStyleMap
  3
ObjectDBX Classes
 90
     1152
 91
        1
280
     0
281
     0
  0
ENDSEC
  0
SECTION
  2
TABLES
  0
TABLE
  2
VPORT
  5
8
330
0
100
AcDbSymbolTable
 70
     1
  0
VPORT
  5
57
330
8
100
AcDbSymbolTableRecord
100
AcDbViewportTableRecord
  2
*Active
 70
     0
 10
0.0
 20
0.0
 11
1.0
 21
1.0
 12
0.0
 22
0.0
 13
0.0
 23
0.0
 14
1.0
 24
1.0
 15
0.0
 25
0.0
 16
0.0
 26
0.0
 36
1.0
 17
89.27605424631604
 27
161.6923333536157
 37
0.0
 40
149.2685343700937
 41
1.171778215336754
 42
50.0
 43
0.0
 44
0.0
 50
0.0
 51
0.0
 71
     0
 72
   100
 73
     1
 74
     1
 75
     0
 76
     0
 77
     0
 78
     0
281
     0
 65
     1
110
0.0
120
0.0
130
0.0
111
1.0
121
0.0
131
0.0
112
0.0
122
1.0
132
0.0
 79
     0
146
0.0
 60
     3
 61
     5
292
     1
282
     1
141
0.0
142
0.0
 63
   250
421
  3355443
  0
ENDTAB
  0
TABLE
  2
LTYPE
  5
5
330
0
100
AcDbSymbolTable
 70
    13
  0
LTYPE
  5
5B
330
5
100
AcDbSymbolTableRecord
100
AcDbLinetypeTableRecord
  2
ByBlock
 70
     0
  3

 72
    65
 73
     0
 40
0.0
  0
LTYPE
  5
5C
330
5
100
AcDbSymbolTableRecord
100
AcDbLinetypeTableRecord
  2
ByLayer
 70
     0
  3

 72
    65
 73
     0
 40
0.0
  0
LTYPE
  5
5D
330
5
100
AcDbSymbolTableRecord
100
AcDbLinetypeTableRecord
  2
Continuous
 70
     0
  3
Solid line
 72
    65
 73
     0
 40
0.0
  0
LTYPE
  5
101
330
5
100
AcDbSymbolTableRecord
100
AcDbLinetypeTableRecord
  2
AI-Linetype-0
 70
     0
  3
Adobe Illustrator Linetype No. 0
 72
    65
 73
     4
 40
8.819444442239584
 49
7.055555553791666
 74
     0
 49
-0.7055555553791667
 74
     0
 49
0.3527777776895833
 74
     0
 49
-0.7055555553791667
 74
     0
  0
LTYPE
  5
103
330
5
100
AcDbSymbolTableRecord
100
AcDbLinetypeTableRecord
  2
AI-Linetype-1
 70
     0
  3
Adobe Illustrator Linetype No. 1
 72
    65
 73
     4
 40
8.819444442239584
 49
7.055555553791666
 74
     0
 49
-0.7055555553791667
 74
     0
 49
0.3527777776895833
 74
     0
 49
-0.7055555553791667
 74
     0
  0
LTYPE
  5
105
330
5
100
AcDbSymbolTableRecord
100
AcDbLinetypeTableRecord
  2
AI-Linetype-2
 70
     0
  3
Adobe Illustrator Linetype No. 2
 72
    65
 73
     4
 40
8.819444442239584
 49
7.055555553791666
 74
     0
 49
-0.7055555553791667
 74
     0
 49
0.3527777776895833
 74
     0
 49
-0.7055555553791667
 74
     0
  0
LTYPE
  5
107
330
5
100
AcDbSymbolTableRecord
100
AcDbLinetypeTableRecord
  2
AI-Linetype-3
 70
     0
  3
Adobe Illustrator Linetype No. 3
 72
    65
 73
     4
 40
8.819444442239584
 49
7.055555553791666
 74
     0
 49
-0.7055555553791667
 74
     0
 49
0.3527777776895833
 74
     0
 49
-0.7055555553791667
 74
     0
  0
LTYPE
  5
1D6
330
5
100
AcDbSymbolTableRecord
100
AcDbLinetypeTableRecord
  2
AI-Linetype-4
 70
     0
  3
Adobe Illustrator Linetype No. 4
 72
    65
 73
     4
 40
4.938888887654167
 49
1.763888888447916
 74
     0
 49
-0.7055555553791667
 74
     0
 49
1.763888888447916
 74
     0
 49
-0.7055555553791667
 74
     0
  0
LTYPE
  5
1D8
330
5
100
AcDbSymbolTableRecord
100
AcDbLinetypeTableRecord
  2
AI-Linetype-5
 70
     0
  3
Adobe Illustrator Linetype No. 5
 72
    65
 73
     4
 40
4.938888887654167
 49
1.763888888447916
 74
     0
 49
-0.7055555553791667
 74
     0
 49
1.763888888447916
 74
     0
 49
-0.7055555553791667
 74
     0
  0
LTYPE
  5
1DA
330
5
100
AcDbSymbolTableRecord
100
AcDbLinetypeTableRecord
  2
AI-Linetype-6
 70
     0
  3
Adobe Illustrator Linetype No. 6
 72
    65
 73
     4
 40
4.938888887654167
 49
1.763888888447916
 74
     0
 49
-0.7055555553791667
 74
     0
 49
1.763888888447916
 74
     0
 49
-0.7055555553791667
 74
     0
  0
LTYPE
  5
1DC
330
5
100
AcDbSymbolTableRecord
100
AcDbLinetypeTableRecord
  2
AI-Linetype-7
 70
     0
  3
Adobe Illustrator Linetype No. 7
 72
    65
 73
     4
 40
4.938888887654167
 49
1.763888888447916
 74
     0
 49
-0.7055555553791667
 74
     0
 49
1.763888888447916
 74
     0
 49
-0.7055555553791667
 74
     0
  0
LTYPE
  5
1DE
330
5
100
AcDbSymbolTableRecord
100
AcDbLinetypeTableRecord
  2
AI-Linetype-8
 70
     0
  3
Adobe Illustrator Linetype No. 8
 72
    65
 73
     4
 40
4.938888887654167
 49
1.763888888447916
 74
     0
 49
-0.7055555553791667
 74
     0
 49
1.763888888447916
 74
     0
 49
-0.7055555553791667
 74
     0
  0
LTYPE
  5
1E0
330
5
100
AcDbSymbolTableRecord
100
AcDbLinetypeTableRecord
  2
AI-Linetype-9
 70
     0
  3
Adobe Illustrator Linetype No. 9
 72
    65
 73
     4
 40
4.938888887654167
 49
1.763888888447916
 74
     0
 49
-0.7055555553791667
 74
     0
 49
1.763888888447916
 74
     0
 49
-0.7055555553791667
 74
     0
  0
LTYPE
  5
1E2
330
5
100
AcDbSymbolTableRecord
100
AcDbLinetypeTableRecord
  2
AI-Linetype-10
 70
     0
  3
Adobe Illustrator Linetype No. 10
 72
    65
 73
     4
 40
4.938888887654167
 49
1.763888888447916
 74
     0
 49
-0.7055555553791667
 74
     0
 49
1.763888888447916
 74
     0
 49
-0.7055555553791667
 74
     0
  0
LTYPE
  5
1E4
330
5
100
AcDbSymbolTableRecord
100
AcDbLinetypeTableRecord
  2
AI-Linetype-11
 70
     0
  3
Adobe Illustrator Linetype No. 11
 72
    65
 73
     4
 40
4.938888887654167
 49
1.763888888447916
 74
     0
 49
-0.7055555553791667
 74
     0
 49
1.763888888447916
 74
     0
 49
-0.7055555553791667
 74
     0
  0
ENDTAB
  0
TABLE
  2
LAYER
  5
2
330
0
100
AcDbSymbolTable
 70
     5
  0
LAYER
  5
54
330
2
100
AcDbSymbolTableRecord
100
AcDbLayerTableRecord
  2
0
 70
     0
 62
     7
  6
Continuous
370
    -3
390
F
347
21
348
0
  0
LAYER
  5
78
330
2
100
AcDbSymbolTableRecord
100
AcDbLayerTableRecord
  2
grau 10%
 70
     0
 62
     7
  6
Continuous
370
     0
390
F
347
21
348
0
  0
LAYER
  5
79
330
2
100
AcDbSymbolTableRecord
100
AcDbLayerTableRecord
  2
Standardebene
 70
     0
 62
     7
  6
Continuous
370
     0
390
F
347
21
348
0
  0
LAYER
  5
273
330
2
100
AcDbSymbolTableRecord
100
AcDbLayerTableRecord
  2
Bemaßung
 70
     1
 62
     7
  6
Continuous
370
     0
390
F
347
21
348
0
  0
LAYER
  5
369
330
2
100
AcDbSymbolTableRecord
100
AcDbLayerTableRecord
  2
Text
 70
     1
 62
     7
  6
Continuous
370
     0
390
F
347
21
348
0
  0
ENDTAB
  0
TABLE
  2
STYLE
  5
3
330
0
100
AcDbSymbolTable
 70
     2
  0
STYLE
  5
55
330
3
100
AcDbSymbolTableRecord
100
AcDbTextStyleTableRecord
  2
Standard
 70
     0
 40
0.0
 41
1.0
 50
0.0
 71
     0
 42
0.2
  3
txt
  4

  0
STYLE
  5
5A
330
3
100
AcDbSymbolTableRecord
100
AcDbTextStyleTableRecord
  2
Annotative
 70
     0
 40
0.0
 41
1.0
 50
0.0
 71
     0
 42
0.2
  3
txt
  4

1001
AcadAnnotative
1000
AnnotativeData
1002
{
1070
     1
1070
     1
1002
}
  0
ENDTAB
  0
TABLE
  2
VIEW
  5
6
330
0
100
AcDbSymbolTable
 70
     0
  0
ENDTAB
  0
TABLE
  2
UCS
  5
7
330
0
100
AcDbSymbolTable
 70
     0
  0
ENDTAB
  0
TABLE
  2
APPID
  5
9
330
0
100
AcDbSymbolTable
 70
     2
  0
APPID
  5
56
330
9
100
AcDbSymbolTableRecord
100
AcDbRegAppTableRecord
  2
ACAD
 70
     0
  0
APPID
  5
5E
330
9
100
AcDbSymbolTableRecord
100
AcDbRegAppTableRecord
  2
AcadAnnotative
 70
     0
  0
ENDTAB
  0
TABLE
  2
DIMSTYLE
  5
A
330
0
100
AcDbSymbolTable
 70
     2
100
AcDbDimStyleTable
 71
     0
  0
DIMSTYLE
105
58
330
A
100
AcDbSymbolTableRecord
100
AcDbDimStyleTableRecord
  2
Standard
 70
     0
340
55
  0
DIMSTYLE
105
59
330
A
100
AcDbSymbolTableRecord
100
AcDbDimStyleTableRecord
  2
Annotative
 70
     0
340
55
1001
AcadAnnotative
1000
AnnotativeData
1002
{
1070
     1
1070
     1
1002
}
  0
ENDTAB
  0
TABLE
  2
BLOCK_RECORD
  5
1
330
0
100
AcDbSymbolTable
 70
     1
  0
BLOCK_RECORD
  5
70
330
1
100
AcDbSymbolTableRecord
100
AcDbBlockTableRecord
  2
*Model_Space
340
73
 70
     0
280
     1
281
     0
  0
BLOCK_RECORD
  5
6C
330
1
100
AcDbSymbolTableRecord
100
AcDbBlockTableRecord
  2
*Paper_Space
340
6F
 70
     0
280
     1
281
     0
  0
BLOCK_RECORD
  5
74
330
1
100
AcDbSymbolTableRecord
100
AcDbBlockTableRecord
  2
*Paper_Space0
340
77
 70
     0
280
     1
281
     0
  0
ENDTAB
  0
ENDSEC
  0
SECTION
  2
BLOCKS
  0
BLOCK
  5
71
330
70
100
AcDbEntity
  8
0
100
AcDbBlockBegin
  2
*Model_Space
 70
     0
 10
0.0
 20
0.0
 30
0.0
  3
*Model_Space
  1

  0
ENDBLK
  5
72
330
70
100
AcDbEntity
  8
0
100
AcDbBlockEnd
  0
BLOCK
  5
6D
330
6C
100
AcDbEntity
 67
     1
  8
0
100
AcDbBlockBegin
  2
*Paper_Space
 70
     0
 10
0.0
 20
0.0
 30
0.0
  3
*Paper_Space
  1

  0
ENDBLK
  5
6E
330
6C
100
AcDbEntity
 67
     1
  8
0
100
AcDbBlockEnd
  0
BLOCK
  5
75
330
74
100
AcDbEntity
 67
     1
  8
0
100
AcDbBlockBegin
  2
*Paper_Space0
 70
     0
 10
0.0
 20
0.0
 30
0.0
  3
*Paper_Space0
  1

  0
ENDBLK
  5
76
330
74
100
AcDbEntity
 67
     1
  8
0
100
AcDbBlockEnd
  0
ENDSEC
  0
SECTION
  2
ENTITIES
  0
LINE
  5
7A
330
70
100
AcDbEntity
  8
Standardebene
 62
     7
370
     9
100
AcDbLine
 10
21.4532237372257
 20
195.7337294793847
 30
0.0
 11
21.55129595942317
 21
195.7337294793847
 31
0.0
  0
LINE
  5
7B
330
70
100
AcDbEntity
  8
Standardebene
 62
     7
370
     9
100
AcDbLine
 10
21.4532237372257
 20
195.8811905904588
 30
0.0
 11
21.4532237372257
 21
195.7337294793847
 31
0.0
  0
LINE
  5
7C
330
70
100
AcDbEntity
  8
Standardebene
 62
     7
370
     9
100
AcDbLine
 10
21.4532237372257
 20
191.3666933693654
 30
0.0
 11
21.4532237372257
 21
190.9197239250324
 31
0.0
  0
LINE
  5
7D
330
70
100
AcDbEntity
  8
Standardebene
 62
     7
370
     9
100
AcDbLine
 10
21.4532237372257
 20
191.3666933693654
 30
0.0
 11
21.55129595942317
 21
191.3666933693654
 31
0.0
  0
LINE
  5
7E
330
70
100
AcDbEntity
  8
Standardebene
 62
     7
370
     9
100
AcDbLine
 10
21.4532237372257
 20
194.965026701799
 30
0.0
 11
21.4532237372257
 21
195.7337294793847
 31
0.0
  0
LINE
  5
7F
330
70
100
AcDbEntity
  8
Standardebene
 62
     7
370
     9
100
AcDbLine
 10
21.4532237372257
 20
188.2509600368108
 30
0.0
 11
21.53930151498185
 21
188.2509600368108
 31
0.0
  0
LWPOLYLINE
  5
80
330
70
100
AcDbEntity
  8
Standardebene
 62
     7
370
     9
100
AcDbPolyline
 90
        3
 70
     0
 43
0.0
 10
21.4532237372257
 20
187.6745211480661
 10
21.4532237372257
 20
188.2509600368108
 10
21.4532237372257
 20
188.2883544812459
  0
LINE
  5
81
330
70
100
AcDbEntity
  8
Standardebene
 62
     7
370
     9
100
AcDbLine
 10
21.4532237372257
 20
186.2796378150815
 30
0.0
 11
21.4532237372257
 21
186.1000739262376
 31
0.0
  0
LINE
  5
82
330
70
100
AcDbEntity
  8
Standardebene
 62
     7
370
     9
100
AcDbLine
 10
21.4532237372257
 20
186.0288128151442
 30
0.0
 11
21.53365707053895
 21
185.9825989262667
 31
0.0
  0
LINE
  5
83
330
70
100
AcDbEntity
  8
Standardebene
 62
     7
370
     9
100
AcDbLine
 10
29.60133206852192
 20
211.7664211420432
 30
0.0
 11
29.60133206852192
 21
176.0490822620836
 31
0.0
  0
LINE
  5
84
330
70
100
AcDbEntity
  8
Standardebene
 62
     7
370
     9
100
AcDbLine
 10
38.99086539950786
 20
209.6127128092482
 30
0.0
 11
38.99086539950786
 21
178.2020850393229
 31
0.0
  0
LWPOLYLINE
  5
85
330
70
100
AcDbEntity
  8
Standardebene
 62
     7
370
     9
100
AcDbPolyline
 90
        3
 70
     0
 43
0.0
 10
21.4532237372257
 20
191.8023739248119
 10
21.4532237372257
 20
193.3725878133082
 10
21.4532237372257
 20
194.965026701799
  0
LWPOLYLINE
  5
86
330
70
100
AcDbEntity
  8
Standardebene
 62
     7
370
     9
100
AcDbPolyline
 90
        3
 70
     0
 43
0.0
 10
21.4532237372257
 20
195.8811905904588
 10
21.4532237372257
 20
196.2068044792662
 10
21.4532237372257
 20
196.528890590297
  0
LWPOLYLINE
  5
87
330
70
100
AcDbEntity
  8
Standardebene
 62
     7
370
     9
100
AcDbPolyline
 90
        3
 70
     0
 43
0.0
 10
21.4532237372257
 20
188.2883544812459
 10
21.4532237372257
 20
189.5142572587173
 10
21.4532237372257
 20
190.9197239250324
  0
LWPOLYLINE
  5
88
330
70
100
AcDbEntity
  8
Standardebene
 62
     7
370
     9
100
AcDbPolyline
 90
        3
 70
     0
 43
0.0
 10
21.4532237372257
 20
191.8023739248119
 10
21.4532237372257
 20
191.5832989248666
 10
21.4532237372257
 20
191.3666933693654
  0
LWPOLYLINE
  5
89
330
70
100
AcDbEntity
  8
Standardebene
 62
     7
370
     9
100
AcDbPolyline
 90
        3
 70
     0
 43
0.0
 10
21.4532237372257
 20
186.2796378150815
 10
21.4532237372257
 20
186.8327933704986
 10
21.4532237372257
 20
187.6745211480661
  0
LWPOLYLINE
  5
8A
330
70
100
AcDbEntity
  8
Standardebene
 62
     7
370
     9
100
AcDbPolyline
 90
        3
 70
     0
 43
0.0
 10
21.4532237372257
 20
186.0288128151442
 10
21.4532237372257
 20
186.0468044818065
 10
21.4532237372257
 20
186.1000739262376
  0
LINE
  5
8B
330
70
100
AcDbEntity
  8
Standardebene
 62
     7
370
     9
100
AcDbLine
 10
21.55129595942317
 20
191.7840294803718
 30
0.0
 11
21.4532237372257
 21
191.8023739248119
 31
0.0
  0
LINE
  5
8C
330
70
100
AcDbEntity
  8
Standardebene
 62
     7
370
     9
100
AcDbLine
 10
21.4532237372257
 20
194.965026701799
 30
0.0
 11
21.55129595942317
 21
194.9759628129074
 31
0.0
  0
LINE
  5
8D
330
70
100
AcDbEntity
  8
Standardebene
 62
     7
370
     9
100
AcDbLine
 10
21.55129595942317
 20
195.8917739237894
 30
0.0
 11
21.4532237372257
 21
195.8811905904588
 31
0.0
  0
LINE
  5
8E
330
70
100
AcDbEntity
  8
Standardebene
 62
     7
370
     9
100
AcDbLine
 10
21.4532237372257
 20
190.9197239250324
 30
0.0
 11
21.55129595942317
 21
190.9013794805927
 31
0.0
  0
LINE
  5
8F
330
70
100
AcDbEntity
  8
Standardebene
 62
     7
370
     9
100
AcDbLine
 10
21.55129595942317
 20
188.2456683701454
 30
0.0
 11
21.4532237372257
 21
188.2883544812459
 31
0.0
  0
LINE
  5
90
330
70
100
AcDbEntity
  8
Standardebene
 62
     7
370
     9
100
AcDbLine
 10
21.4532237372257
 20
187.6745211480661
 30
0.0
 11
21.55129595942317
 21
187.6318350369656
 31
0.0
  0
LINE
  5
91
330
70
100
AcDbEntity
  8
Standardebene
 62
     7
370
     9
100
AcDbLine
 10
21.55129595942317
 20
186.2238989262065
 30
0.0
 11
21.4532237372257
 21
186.2796378150815
 31
0.0
  0
LINE
  5
92
330
70
100
AcDbEntity
  8
Standardebene
 62
     7
370
     9
100
AcDbLine
 10
21.4532237372257
 20
186.1000739262376
 30
0.0
 11
21.55129595942317
 21
186.0439822595847
 31
0.0
  0
LINE
  5
93
330
70
100
AcDbEntity
  8
Standardebene
 62
     7
370
     9
100
AcDbLine
 10
153.342316605796
 20
188.2509600368108
 30
0.0
 11
154.0450499389534
 21
188.8647933699907
 31
0.0
  0
LINE
  5
94
330
70
100
AcDbEntity
  8
Standardebene
 62
     7
370
     9
100
AcDbLine
 10
153.844672161226
 20
187.6745211480661
 30
0.0
 11
153.342316605796
 21
188.2509600368108
 31
0.0
  0
LINE
  5
95
330
70
100
AcDbEntity
  8
Standardebene
 62
     7
370
     9
100
AcDbLine
 10
150.7324666064485
 20
187.6353628147426
 30
0.0
 11
150.9984610508264
 21
186.2796378150815
 31
0.0
  0
LINE
  5
96
330
70
100
AcDbEntity
  8
Standardebene
 62
     7
370
     9
100
AcDbLine
 10
155.0081332720462
 20
191.3666933693654
 30
0.0
 11
156.3155277161638
 21
190.9197239250324
 31
0.0
  0
LINE
  5
97
330
70
100
AcDbEntity
  8
Standardebene
 62
     7
370
     9
100
AcDbLine
 10
154.5484638277167
 20
188.2883544812459
 30
0.0
 11
154.0450499389534
 21
188.8647933699907
 31
0.0
  0
LINE
  5
98
330
70
100
AcDbEntity
  8
Standardebene
 62
     7
370
     9
100
AcDbLine
 10
144.7084332746211
 20
199.5638378117605
 30
0.0
 11
144.0056999414634
 21
198.9503572563581
 31
0.0
  0
LINE
  5
99
330
70
100
AcDbEntity
  8
Standardebene
 62
     7
370
     9
100
AcDbLine
 10
143.0422638305932
 20
196.4477517014282
 30
0.0
 11
141.7348693864756
 21
196.8954267013164
 31
0.0
  0
LINE
  5
9A
330
70
100
AcDbEntity
  8
Standardebene
 62
     7
370
     9
100
AcDbLine
 10
143.5022860527005
 20
199.5264433673252
 30
0.0
 11
144.0056999414634
 21
198.9503572563581
 31
0.0
  0
LINE
  5
9B
330
70
100
AcDbEntity
  8
Standardebene
 62
     7
370
     9
100
AcDbLine
 10
144.2057249414134
 20
200.1399239227275
 30
0.0
 11
144.7084332746211
 21
199.5638378117605
 31
0.0
  0
LINE
  5
9C
330
70
100
AcDbEntity
  8
Standardebene
 62
     7
370
     9
100
AcDbLine
 10
147.3182832739687
 20
200.179082256051
 30
0.0
 11
147.051936051813
 21
201.5351600334898
 31
0.0
  0
LINE
  5
9D
330
70
100
AcDbEntity
  8
Standardebene
 62
     7
370
     9
100
AcDbLine
 10
141.9687610530836
 20
192.9975850356242
 30
0.0
 11
142.1486777197054
 21
192.0817739247422
 31
0.0
  0
LINE
  5
9E
330
70
100
AcDbEntity
  8
Standardebene
 62
     7
370
     9
100
AcDbLine
 10
142.740286052891
 20
195.565101701649
 30
0.0
 11
141.4328916087734
 21
196.0120711459817
 31
0.0
  0
LINE
  5
9F
330
70
100
AcDbEntity
  8
Standardebene
 62
     7
370
     9
100
AcDbLine
 10
143.8338971637286
 20
189.9961517030412
 30
0.0
 11
142.7928499417666
 21
189.0881017032681
 31
0.0
  0
LINE
  5
A0
330
70
100
AcDbEntity
  8
Standardebene
 62
     7
370
     9
100
AcDbLine
 10
141.3976138310043
 20
191.9343128136677
 30
0.0
 11
142.1486777197054
 21
192.0817739247422
 31
0.0
  0
LINE
  5
A1
330
70
100
AcDbEntity
  8
Standardebene
 62
     7
370
     9
100
AcDbLine
 10
141.2176971643825
 20
192.85012392455
 30
0.0
 11
141.9687610530836
 21
192.9975850356242
 31
0.0
  0
LINE
  5
A2
330
70
100
AcDbEntity
  8
Standardebene
 62
     7
370
     9
100
AcDbLine
 10
146.2853499408933
 20
187.3411461481495
 30
0.0
 11
147.1683527184506
 21
187.039168370447
 31
0.0
  0
LINE
  5
A3
330
70
100
AcDbEntity
  8
Standardebene
 62
     7
370
     9
100
AcDbLine
 10
144.4473777191309
 20
189.2934183698836
 30
0.0
 11
143.4066832749464
 21
188.3846628145552
 31
0.0
  0
LINE
  5
A4
330
70
100
AcDbEntity
  8
Standardebene
 62
     7
370
     9
100
AcDbLine
 10
149.8166554955661
 20
187.4557989258986
 30
0.0
 11
150.0826499399441
 21
186.1000739262376
 31
0.0
  0
LINE
  5
A5
330
70
100
AcDbEntity
  8
Standardebene
 62
     7
370
     9
100
AcDbLine
 10
146.9207027185124
 20
186.3152683706281
 30
0.0
 11
147.1683527184506
 21
187.039168370447
 31
0.0
  0
LINE
  5
A6
330
70
100
AcDbEntity
  8
Standardebene
 62
     7
370
     9
100
AcDbLine
 10
146.0376999409555
 20
186.6172461483303
 30
0.0
 11
146.2853499408933
 21
187.3411461481495
 31
0.0
  0
LINE
  5
A7
330
70
100
AcDbEntity
  8
Standardebene
 62
     7
370
     9
100
AcDbLine
 10
151.1303999396822
 20
201.4998822557207
 30
0.0
 11
150.882749939744
 21
200.7759822559018
 31
0.0
  0
LWPOLYLINE
  5
A8
330
70
100
AcDbEntity
  8
Standardebene
 62
     7
370
     9
100
AcDbPolyline
 90
        3
 70
     0
 43
0.0
 10
152.0130499394617
 20
201.1979044780185
 10
151.7653999395235
 20
200.4740044781996
 10
150.882749939744
 20
200.7759822559018
  0
LINE
  5
A9
330
70
100
AcDbEntity
  8
Standardebene
 62
     7
370
     9
100
AcDbLine
 10
153.603724939064
 20
198.5217322564652
 30
0.0
 11
154.6444193832482
 21
199.4304878117936
 31
0.0
  0
LINE
  5
AA
330
70
100
AcDbEntity
  8
Standardebene
 62
     7
370
     9
100
AcDbLine
 10
148.2340943848507
 20
200.3589989226728
 30
0.0
 11
147.967747162695
 21
201.7150767001116
 31
0.0
  0
LINE
  5
AB
330
70
100
AcDbEntity
  8
Standardebene
 62
     7
370
     9
100
AcDbLine
 10
154.217205494466
 20
197.8182933677523
 30
0.0
 11
155.2578999386502
 21
198.7270489230807
 31
0.0
  0
LWPOLYLINE
  5
AC
330
70
100
AcDbEntity
  8
Standardebene
 62
     7
370
     9
100
AcDbPolyline
 90
        3
 70
     0
 43
0.0
 10
156.8330527160343
 20
194.965026701799
 10
156.0819888273332
 20
194.8175655907246
 10
155.9024249384892
 20
195.7337294793847
  0
LINE
  5
AD
330
70
100
AcDbEntity
  8
Standardebene
 62
     7
370
     9
100
AcDbLine
 10
156.6531360494125
 20
195.8811905904588
 30
0.0
 11
155.9024249384892
 21
195.7337294793847
 31
0.0
  0
LINE
  5
AE
330
70
100
AcDbEntity
  8
Standardebene
 62
     7
370
     9
100
AcDbLine
 10
155.3104638275261
 20
192.2500489247001
 30
0.0
 11
156.617505493866
 21
191.8023739248119
 31
0.0
  0
SPLINE
  5
AF
330
70
100
AcDbEntity
  8
Standardebene
 62
     7
370
     9
100
AcDbSpline
210
0.0
220
0.0
230
1.0
 70
     8
 71
     3
 72
     8
 73
     4
 74
     0
 42
0.0000000001
 43
0.0000000001
 40
0.0
 40
0.0
 40
0.0
 40
0.0
 40
1.0
 40
1.0
 40
1.0
 40
1.0
 10
150.9984610508264
 20
186.2796378150815
 30
0.0
 10
152.085369383888
 20
186.5611544816778
 30
0.0
 10
153.0593888280888
 20
187.0550433704431
 30
0.0
 10
153.844672161226
 20
187.6745211480661
 30
0.0
  0
SPLINE
  5
B0
330
70
100
AcDbEntity
  8
Standardebene
 62
     7
370
     9
100
AcDbSpline
210
0.0
220
0.0
230
1.0
 70
     8
 71
     3
 72
     8
 73
     4
 74
     0
 42
0.0000000001
 43
0.0000000001
 40
0.0
 40
0.0
 40
0.0
 40
0.0
 40
1.0
 40
1.0
 40
1.0
 40
1.0
 10
150.7324666064485
 20
187.6353628147426
 30
0.0
 10
152.7249554948393
 20
188.177935036829
 30
0.0
 10
154.2475443833474
 20
189.5904572586981
 30
0.0
 10
155.0081332720462
 20
191.3666933693654
 30
0.0
  0
SPLINE
  5
B1
330
70
100
AcDbEntity
  8
Standardebene
 62
     7
370
     9
100
AcDbSpline
210
0.0
220
0.0
230
1.0
 70
     8
 71
     3
 72
     8
 73
     4
 74
     0
 42
0.0000000001
 43
0.0000000001
 40
0.0
 40
0.0
 40
0.0
 40
0.0
 40
1.0
 40
1.0
 40
1.0
 40
1.0
 10
147.051936051813
 20
201.5351600334898
 30
0.0
 10
145.9660860520843
 20
201.2543489224488
 30
0.0
 10
144.9910082745503
 20
200.7594017003502
 30
0.0
 10
144.2057249414134
 20
200.1399239227275
 30
0.0
  0
SPLINE
  5
B2
330
70
100
AcDbEntity
  8
Standardebene
 62
     7
370
     9
100
AcDbSpline
210
0.0
220
0.0
230
1.0
 70
     8
 71
     3
 72
     8
 73
     4
 74
     0
 42
0.0000000001
 43
0.0000000001
 40
0.0
 40
0.0
 40
0.0
 40
0.0
 40
1.0
 40
1.0
 40
1.0
 40
1.0
 10
154.5484638277167
 20
188.2883544812459
 30
0.0
 10
155.3485638275166
 20
189.0750489254938
 30
0.0
 10
155.9454638273674
 20
189.990507258598
 30
0.0
 10
156.3155277161638
 20
190.9197239250324
 30
0.0
  0
SPLINE
  5
B3
330
70
100
AcDbEntity
  8
Standardebene
 62
     7
370
     9
100
AcDbSpline
210
0.0
220
0.0
230
1.0
 70
     8
 71
     3
 72
     8
 73
     4
 74
     0
 42
0.0000000001
 43
0.0000000001
 40
0.0
 40
0.0
 40
0.0
 40
0.0
 40
1.0
 40
1.0
 40
1.0
 40
1.0
 10
147.3182832739687
 20
200.179082256051
 30
0.0
 10
145.3257943855779
 20
199.6372155895198
 30
0.0
 10
143.8035582748472
 20
198.2250461454285
 30
0.0
 10
143.0422638305932
 20
196.4477517014282
 30
0.0
  0
SPLINE
  5
B4
330
70
100
AcDbEntity
  8
Standardebene
 62
     7
370
     9
100
AcDbSpline
210
0.0
220
0.0
230
1.0
 70
     8
 71
     3
 72
     8
 73
     4
 74
     0
 42
0.0000000001
 43
0.0000000001
 40
0.0
 40
0.0
 40
0.0
 40
0.0
 40
1.0
 40
1.0
 40
1.0
 40
1.0
 10
143.5022860527005
 20
199.5264433673252
 30
0.0
 10
142.7025388306782
 20
198.7401017008553
 30
0.0
 10
142.1059916086049
 20
197.8246433677507
 30
0.0
 10
141.7348693864756
 20
196.8954267013164
 30
0.0
  0
SPLINE
  5
B5
330
70
100
AcDbEntity
  8
Standardebene
 62
     7
370
     9
100
AcDbSpline
210
0.0
220
0.0
230
1.0
 70
     8
 71
     3
 72
     8
 73
     4
 74
     0
 42
0.0000000001
 43
0.0000000001
 40
0.0
 40
0.0
 40
0.0
 40
0.0
 40
1.0
 40
1.0
 40
1.0
 40
1.0
 10
141.4328916087734
 20
196.0120711459817
 30
0.0
 10
141.1330304977371
 20
194.9311600351407
 30
0.0
 10
141.0744693866406
 20
193.8396655909691
 30
0.0
 10
141.2176971643825
 20
192.85012392455
 30
0.0
  0
SPLINE
  5
B6
330
70
100
AcDbEntity
  8
Standardebene
 62
     7
370
     9
100
AcDbSpline
210
0.0
220
0.0
230
1.0
 70
     8
 71
     3
 72
     8
 73
     4
 74
     0
 42
0.0000000001
 43
0.0000000001
 40
0.0
 40
0.0
 40
0.0
 40
0.0
 40
1.0
 40
1.0
 40
1.0
 40
1.0
 10
142.740286052891
 20
195.565101701649
 30
0.0
 10
142.2135888308003
 20
193.5683794799261
 30
0.0
 10
142.6757277195735
 20
191.5441405915431
 30
0.0
 10
143.8338971637286
 20
189.9961517030412
 30
0.0
  0
SPLINE
  5
B7
330
70
100
AcDbEntity
  8
Standardebene
 62
     7
370
     9
100
AcDbSpline
210
0.0
220
0.0
230
1.0
 70
     8
 71
     3
 72
     8
 73
     4
 74
     0
 42
0.0000000001
 43
0.0000000001
 40
0.0
 40
0.0
 40
0.0
 40
0.0
 40
1.0
 40
1.0
 40
1.0
 40
1.0
 10
141.3976138310043
 20
191.9343128136677
 30
0.0
 10
141.6787777198231
 20
190.8477572583839
 30
0.0
 10
142.1733721641439
 20
189.8733850364053
 30
0.0
 10
142.7928499417666
 20
189.0881017032681
 30
0.0
  0
SPLINE
  5
B8
330
70
100
AcDbEntity
  8
Standardebene
 62
     7
370
     9
100
AcDbSpline
210
0.0
220
0.0
230
1.0
 70
     8
 71
     3
 72
     8
 73
     4
 74
     0
 42
0.0000000001
 43
0.0000000001
 40
0.0
 40
0.0
 40
0.0
 40
0.0
 40
1.0
 40
1.0
 40
1.0
 40
1.0
 10
143.4066832749464
 20
188.3846628145552
 30
0.0
 10
144.1926721636388
 20
187.5842100369774
 30
0.0
 10
145.1081304967433
 20
186.9876628149044
 30
0.0
 10
146.0376999409555
 20
186.6172461483303
 30
0.0
  0
SPLINE
  5
B9
330
70
100
AcDbEntity
  8
Standardebene
 62
     7
370
     9
100
AcDbSpline
210
0.0
220
0.0
230
1.0
 70
     8
 71
     3
 72
     8
 73
     4
 74
     0
 42
0.0000000001
 43
0.0000000001
 40
0.0
 40
0.0
 40
0.0
 40
0.0
 40
1.0
 40
1.0
 40
1.0
 40
1.0
 10
144.4473777191309
 20
189.2934183698836
 30
0.0
 10
145.9135221632088
 20
187.8389155924695
 30
0.0
 10
147.897544384935
 20
187.2264933704001
 30
0.0
 10
149.8166554955661
 20
187.4557989258986
 30
0.0
  0
SPLINE
  5
BA
330
70
100
AcDbEntity
  8
Standardebene
 62
     7
370
     9
100
AcDbSpline
210
0.0
220
0.0
230
1.0
 70
     8
 71
     3
 72
     8
 73
     4
 74
     0
 42
0.0000000001
 43
0.0000000001
 40
0.0
 40
0.0
 40
0.0
 40
0.0
 40
1.0
 40
1.0
 40
1.0
 40
1.0
 10
156.6531360494125
 20
195.8808378126811
 30
0.0
 10
156.3716193828163
 20
196.9670405901875
 30
0.0
 10
155.877730494051
 20
197.9417655899438
 30
0.0
 10
155.2578999386502
 20
198.7270489230807
 30
0.0
  0
SPLINE
  5
BB
330
70
100
AcDbEntity
  8
Standardebene
 62
     7
370
     9
100
AcDbSpline
210
0.0
220
0.0
230
1.0
 70
     8
 71
     3
 72
     8
 73
     4
 74
     0
 42
0.0000000001
 43
0.0000000001
 40
0.0
 40
0.0
 40
0.0
 40
0.0
 40
1.0
 40
1.0
 40
1.0
 40
1.0
 10
154.6444193832482
 20
199.4304878117936
 30
0.0
 10
153.858077716778
 20
200.2302350338159
 30
0.0
 10
152.942266605896
 20
200.827135033667
 30
0.0
 10
152.0130499394617
 20
201.1979044780185
 30
0.0
  0
SPLINE
  5
BC
330
70
100
AcDbEntity
  8
Standardebene
 62
     7
370
     9
100
AcDbSpline
210
0.0
220
0.0
230
1.0
 70
     8
 71
     3
 72
     8
 73
     4
 74
     0
 42
0.0000000001
 43
0.0000000001
 40
0.0
 40
0.0
 40
0.0
 40
0.0
 40
1.0
 40
1.0
 40
1.0
 40
1.0
 10
151.1303999396822
 20
201.4998822557207
 30
0.0
 10
150.048783273286
 20
201.799743366757
 30
0.0
 10
148.9579943846699
 20
201.8586572556309
 30
0.0
 10
147.967747162695
 20
201.7150767001116
 30
0.0
  0
SPLINE
  5
BD
330
70
100
AcDbEntity
  8
Standardebene
 62
     7
370
     9
100
AcDbSpline
210
0.0
220
0.0
230
1.0
 70
     8
 71
     3
 72
     8
 73
     4
 74
     0
 42
0.0000000001
 43
0.0000000001
 40
0.0
 40
0.0
 40
0.0
 40
0.0
 40
1.0
 40
1.0
 40
1.0
 40
1.0
 10
146.9207027185124
 20
186.3152683706281
 30
0.0
 10
148.0016138293534
 20
186.0150544818144
 30
0.0
 10
149.0927554957472
 20
185.9561405929401
 30
0.0
 10
150.0826499399441
 20
186.1000739262376
 30
0.0
  0
SPLINE
  5
BE
330
70
100
AcDbEntity
  8
Standardebene
 62
     7
370
     9
100
AcDbSpline
210
0.0
220
0.0
230
1.0
 70
     8
 71
     3
 72
     8
 73
     4
 74
     0
 42
0.0000000001
 43
0.0000000001
 40
0.0
 40
0.0
 40
0.0
 40
0.0
 40
1.0
 40
1.0
 40
1.0
 40
1.0
 10
153.603724939064
 20
198.5217322564652
 30
0.0
 10
152.1379332727635
 20
199.9758822561018
 30
0.0
 10
150.1535582732597
 20
200.5883044781709
 30
0.0
 10
148.2340943848507
 20
200.3589989226728
 30
0.0
  0
SPLINE
  5
BF
330
70
100
AcDbEntity
  8
Standardebene
 62
     7
370
     9
100
AcDbSpline
210
0.0
220
0.0
230
1.0
 70
     8
 71
     3
 72
     8
 73
     4
 74
     0
 42
0.0000000001
 43
0.0000000001
 40
0.0
 40
0.0
 40
0.0
 40
0.0
 40
1.0
 40
1.0
 40
1.0
 40
1.0
 10
156.9043138271277
 20
193.9073989242855
 30
0.0
 10
156.9043138271277
 20
194.2802850353037
 30
0.0
 10
156.8785610493562
 20
194.6475267018782
 30
0.0
 10
156.8330527160343
 20
194.965026701799
 30
0.0
  0
SPLINE
  5
C0
330
70
100
AcDbEntity
  8
Standardebene
 62
     7
370
     9
100
AcDbSpline
210
0.0
220
0.0
230
1.0
 70
     8
 71
     3
 72
     8
 73
     4
 74
     0
 42
0.0000000001
 43
0.0000000001
 40
0.0
 40
0.0
 40
0.0
 40
0.0
 40
1.0
 40
1.0
 40
1.0
 40
1.0
 10
156.617505493866
 20
191.8023739248119
 30
0.0
 10
156.8178832715938
 20
192.5245100357423
 30
0.0
 10
156.9110166049039
 20
193.2505267022275
 30
0.0
 10
156.9043138271277
 20
193.9073989242855
 30
0.0
  0
SPLINE
  5
C1
330
70
100
AcDbEntity
  8
Standardebene
 62
     7
370
     9
100
AcDbSpline
210
0.0
220
0.0
230
1.0
 70
     8
 71
     3
 72
     8
 73
     4
 74
     0
 42
0.0000000001
 43
0.0000000001
 40
0.0
 40
0.0
 40
0.0
 40
0.0
 40
1.0
 40
1.0
 40
1.0
 40
1.0
 10
155.5253054941392
 20
193.9073989242855
 30
0.0
 10
155.5253054941392
 20
195.3827155905836
 30
0.0
 10
155.0335332720399
 20
196.7433794791323
 30
0.0
 10
154.217205494466
 20
197.8182933677523
 30
0.0
  0
SPLINE
  5
C2
330
70
100
AcDbEntity
  8
Standardebene
 62
     7
370
     9
100
AcDbSpline
210
0.0
220
0.0
230
1.0
 70
     8
 71
     3
 72
     8
 73
     4
 74
     0
 42
0.0000000001
 43
0.0000000001
 40
0.0
 40
0.0
 40
0.0
 40
0.0
 40
1.0
 40
1.0
 40
1.0
 40
1.0
 10
155.3104638275261
 20
192.2500489247001
 30
0.0
 10
155.4607471608217
 20
192.8197850356687
 30
0.0
 10
155.5302443830266
 20
193.3916378133035
 30
0.0
 10
155.5253054941392
 20
193.9073989242855
 30
0.0
  0
SPLINE
  5
C3
330
70
100
AcDbEntity
  8
Standardebene
 62
     7
370
     9
100
AcDbSpline
210
0.0
220
0.0
230
1.0
 70
     8
 71
     3
 72
     8
 73
     4
 74
     0
 42
0.0000000001
 43
0.0000000001
 40
0.0
 40
0.0
 40
0.0
 40
0.0
 40
1.0
 40
1.0
 40
1.0
 40
1.0
 10
155.147127716456
 20
198.6300350342162
 30
0.0
 10
154.9463971609504
 20
198.8900322563731
 30
0.0
 10
154.7326138276706
 20
199.1338017007569
 30
0.0
 10
154.5329416054984
 20
199.3331211451513
 30
0.0
  0
SPLINE
  5
C4
330
70
100
AcDbEntity
  8
Standardebene
 62
     7
370
     9
100
AcDbSpline
210
0.0
220
0.0
230
1.0
 70
     8
 71
     3
 72
     8
 73
     4
 74
     0
 42
0.0000000001
 43
0.0000000001
 40
0.0
 40
0.0
 40
0.0
 40
0.0
 40
1.0
 40
1.0
 40
1.0
 40
1.0
 10
154.217205494466
 20
197.8182933677523
 30
0.0
 10
154.0192971611823
 20
198.0807600343533
 30
0.0
 10
153.8055138279025
 20
198.3238239231815
 30
0.0
 10
153.603724939064
 20
198.5217322564652
 30
0.0
  0
SPLINE
  5
C5
330
70
100
AcDbEntity
  8
Standardebene
 62
     7
370
     9
100
AcDbSpline
210
0.0
220
0.0
230
1.0
 70
     8
 71
     3
 72
     8
 73
     4
 74
     0
 42
0.0000000001
 43
0.0000000001
 40
0.0
 40
0.0
 40
0.0
 40
0.0
 40
1.0
 40
1.0
 40
1.0
 40
1.0
 10
150.0544277177289
 20
186.2447128150902
 30
0.0
 10
150.3796888287589
 20
186.2884572595237
 30
0.0
 10
150.6978943842349
 20
186.3523100372857
 30
0.0
 10
150.9702388286112
 20
186.424629481712
 30
0.0
  0
SPLINE
  5
C6
330
70
100
AcDbEntity
  8
Standardebene
 62
     7
370
     9
100
AcDbSpline
210
0.0
220
0.0
230
1.0
 70
     8
 71
     3
 72
     8
 73
     4
 74
     0
 42
0.0000000001
 43
0.0000000001
 40
0.0
 40
0.0
 40
0.0
 40
0.0
 40
1.0
 40
1.0
 40
1.0
 40
1.0
 10
149.8166554955661
 20
187.4557989258986
 30
0.0
 10
150.1426221621513
 20
187.496015592555
 30
0.0
 10
150.4597693842944
 20
187.5591628147615
 30
0.0
 10
150.7324666064485
 20
187.6353628147426
 30
0.0
  0
SPLINE
  5
C7
330
70
100
AcDbEntity
  8
Standardebene
 62
     7
370
     9
100
AcDbSpline
210
0.0
220
0.0
230
1.0
 70
     8
 71
     3
 72
     8
 73
     4
 74
     0
 42
0.0000000001
 43
0.0000000001
 40
0.0
 40
0.0
 40
0.0
 40
0.0
 40
1.0
 40
1.0
 40
1.0
 40
1.0
 10
142.9036221639612
 20
189.1851155921329
 30
0.0
 10
143.1047054972442
 20
188.9251183699757
 30
0.0
 10
143.318488830524
 20
188.6813489255922
 30
0.0
 10
143.517455497141
 20
188.4816767034197
 30
0.0
  0
SPLINE
  5
C8
330
70
100
AcDbEntity
  8
Standardebene
 62
     7
370
     9
100
AcDbSpline
210
0.0
220
0.0
230
1.0
 70
     8
 71
     3
 72
     8
 73
     4
 74
     0
 42
0.0000000001
 43
0.0000000001
 40
0.0
 40
0.0
 40
0.0
 40
0.0
 40
1.0
 40
1.0
 40
1.0
 40
1.0
 10
143.8338971637286
 20
189.9961517030412
 30
0.0
 10
144.0310999414571
 20
189.7343905919955
 30
0.0
 10
144.2448832747369
 20
189.4906211476121
 30
0.0
 10
144.4473777191309
 20
189.2934183698836
 30
0.0
  0
SPLINE
  5
C9
330
70
100
AcDbEntity
  8
Standardebene
 62
     7
370
     9
100
AcDbSpline
210
0.0
220
0.0
230
1.0
 70
     8
 71
     3
 72
     8
 73
     4
 74
     0
 42
0.0000000001
 43
0.0000000001
 40
0.0
 40
0.0
 40
0.0
 40
0.0
 40
1.0
 40
1.0
 40
1.0
 40
1.0
 10
147.9966749404657
 20
201.5697322557034
 30
0.0
 10
147.6710610516583
 20
201.5259878112699
 30
0.0
 10
147.3532082739597
 20
201.4628405890634
 30
0.0
 10
147.0805110518059
 20
201.3901683668594
 30
0.0
  0
SPLINE
  5
CA
330
70
100
AcDbEntity
  8
Standardebene
 62
     7
370
     9
100
AcDbSpline
210
0.0
220
0.0
230
1.0
 70
     8
 71
     3
 72
     8
 73
     4
 74
     0
 42
0.0000000001
 43
0.0000000001
 40
0.0
 40
0.0
 40
0.0
 40
0.0
 40
1.0
 40
1.0
 40
1.0
 40
1.0
 10
148.2340943848507
 20
200.3589989226728
 30
0.0
 10
147.9081277182655
 20
200.3194878115715
 30
0.0
 10
147.5909804961228
 20
200.2556350338096
 30
0.0
 10
147.3182832739687
 20
200.179082256051
 30
0.0
  0
SPLINE
  5
CB
330
70
100
AcDbEntity
  8
Standardebene
 62
     7
370
     9
100
AcDbSpline
210
0.0
220
0.0
230
1.0
 70
     8
 71
     3
 72
     8
 73
     4
 74
     0
 42
0.0000000001
 43
0.0000000001
 40
0.0
 40
0.0
 40
0.0
 40
0.0
 40
1.0
 40
1.0
 40
1.0
 40
1.0
 10
156.1761804939763
 20
190.9677017027983
 30
0.0
 10
156.3007110495007
 20
191.2710905916113
 30
0.0
 10
156.4051332716969
 20
191.5783600359789
 30
0.0
 10
156.4781582716785
 20
191.8507044803553
 30
0.0
  0
SPLINE
  5
CC
330
70
100
AcDbEntity
  8
Standardebene
 62
     7
370
     9
100
AcDbSpline
210
0.0
220
0.0
230
1.0
 70
     8
 71
     3
 72
     8
 73
     4
 74
     0
 42
0.0000000001
 43
0.0000000001
 40
0.0
 40
0.0
 40
0.0
 40
0.0
 40
1.0
 40
1.0
 40
1.0
 40
1.0
 10
155.0081332720462
 20
191.3666933693654
 30
0.0
 10
155.1368971609028
 20
191.6693767026228
 30
0.0
 10
155.2402610497657
 20
191.9755878136575
 30
0.0
 10
155.3104638275261
 20
192.2500489247001
 30
0.0
  0
SPLINE
  5
CD
330
70
100
AcDbEntity
  8
Standardebene
 62
     7
370
     9
100
AcDbSpline
210
0.0
220
0.0
230
1.0
 70
     8
 71
     3
 72
     8
 73
     4
 74
     0
 42
0.0000000001
 43
0.0000000001
 40
0.0
 40
0.0
 40
0.0
 40
0.0
 40
1.0
 40
1.0
 40
1.0
 40
1.0
 10
141.8749221642183
 20
196.8478017013282
 30
0.0
 10
141.7500388309161
 20
196.5440600347375
 30
0.0
 10
141.6459693864977
 20
196.2371433681476
 30
0.0
 10
141.5729443865161
 20
195.9644461459935
 30
0.0
  0
SPLINE
  5
CE
330
70
100
AcDbEntity
  8
Standardebene
 62
     7
370
     9
100
AcDbSpline
210
0.0
220
0.0
230
1.0
 70
     8
 71
     3
 72
     8
 73
     4
 74
     0
 42
0.0000000001
 43
0.0000000001
 40
0.0
 40
0.0
 40
0.0
 40
0.0
 40
1.0
 40
1.0
 40
1.0
 40
1.0
 10
143.0422638305932
 20
196.4477517014282
 30
0.0
 10
142.913852719514
 20
196.145773923726
 30
0.0
 10
142.8101360528733
 20
195.8388572571361
 30
0.0
 10
142.740286052891
 20
195.565101701649
 30
0.0
  0
LINE
  5
CF
330
70
100
AcDbEntity
  8
Standardebene
 62
     7
370
     9
100
AcDbLine
 10
151.0153943841554
 20
186.1932072595473
 30
0.0
 11
150.9984610508264
 21
186.2796378150815
 31
0.0
  0
LINE
  5
D0
330
70
100
AcDbEntity
  8
Standardebene
 62
     7
370
     9
100
AcDbLine
 10
153.844672161226
 20
187.6745211480661
 30
0.0
 11
153.9088777167654
 21
187.6014961480842
 31
0.0
  0
LINE
  5
D1
330
70
100
AcDbEntity
  8
Standardebene
 62
     7
370
     9
100
AcDbLine
 10
143.3340110527423
 20
188.3218683701264
 30
0.0
 11
143.4066832749464
 21
188.3846628145552
 31
0.0
  0
LINE
  5
D2
330
70
100
AcDbEntity
  8
Standardebene
 62
     7
370
     9
100
AcDbLine
 10
146.0376999409555
 20
186.6172461483303
 30
0.0
 11
146.0087721631848
 21
186.5343433705733
 31
0.0
  0
LINE
  5
D3
330
70
100
AcDbEntity
  8
Standardebene
 62
     7
370
     9
100
AcDbLine
 10
141.7348693864756
 20
196.8954267013164
 30
0.0
 11
141.6258610531694
 21
196.9328211457514
 31
0.0
  0
LINE
  5
D4
330
70
100
AcDbEntity
  8
Standardebene
 62
     7
370
     9
100
AcDbLine
 10
143.4253804971639
 20
199.6156961450808
 30
0.0
 11
143.5022860527005
 21
199.5264433673252
 31
0.0
  0
LINE
  5
D5
330
70
100
AcDbEntity
  8
Standardebene
 62
     7
370
     9
100
AcDbLine
 10
151.1596804952306
 20
201.5849017001439
 30
0.0
 11
151.1303999396822
 21
201.4998822557207
 31
0.0
  0
LINE
  5
D6
330
70
100
AcDbEntity
  8
Standardebene
 62
     7
370
     9
100
AcDbLine
 10
147.967747162695
 20
201.7150767001116
 30
0.0
 11
147.950813829366
 21
201.8025655889784
 31
0.0
  0
LINE
  5
D7
330
70
100
AcDbEntity
  8
Standardebene
 62
     7
370
     9
100
AcDbLine
 10
156.3155277161638
 20
190.9197239250324
 30
0.0
 11
156.3987832716985
 21
190.8911489250398
 31
0.0
  0
LINE
  5
D8
330
70
100
AcDbEntity
  8
Standardebene
 62
     7
370
     9
100
AcDbLine
 10
154.6066721610355
 20
188.2216794812624
 30
0.0
 11
154.5484638277167
 21
188.2883544812459
 31
0.0
  0
LINE
  5
D9
330
70
100
AcDbEntity
  8
Standardebene
 62
     7
370
     9
100
AcDbLine
 10
155.2578999386502
 20
198.7270489230807
 30
0.0
 11
155.3453888275174
 21
198.8032489230618
 31
0.0
  0
LINE
  5
DA
330
70
100
AcDbEntity
  8
Standardebene
 62
     7
370
     9
100
AcDbLine
 10
156.7684943827171
 20
195.9034155904533
 30
0.0
 11
156.6531360494125
 21
195.8811905904588
 31
0.0
  0
LINE
  5
DB
330
70
100
AcDbEntity
  8
Standardebene
 62
     7
370
     9
100
AcDbLine
 10
152.0130499394617
 20
201.1979044780185
 30
0.0
 11
152.0447999394538
 21
201.2899794779956
 31
0.0
  0
LINE
  5
DC
330
70
100
AcDbEntity
  8
Standardebene
 62
     7
370
     9
100
AcDbLine
 10
154.7110943832313
 20
199.4883433673349
 30
0.0
 11
154.6444193832482
 21
199.4304878117936
 31
0.0
  0
LINE
  5
DD
330
70
100
AcDbEntity
  8
Standardebene
 62
     7
370
     9
100
AcDbLine
 10
150.0826499399441
 20
186.1000739262376
 30
0.0
 11
150.1048749399385
 21
185.9864794818214
 31
0.0
  0
LINE
  5
DE
330
70
100
AcDbEntity
  8
Standardebene
 62
     7
370
     9
100
AcDbLine
 10
146.8822499407444
 20
186.2034378151005
 30
0.0
 11
146.9207027185124
 21
186.3152683706281
 31
0.0
  0
LINE
  5
DF
330
70
100
AcDbEntity
  8
Standardebene
 62
     7
370
     9
100
AcDbLine
 10
141.3104777199149
 20
191.917026702561
 30
0.0
 11
141.3976138310043
 21
191.9343128136677
 31
0.0
  0
LINE
  5
E0
330
70
100
AcDbEntity
  8
Standardebene
 62
     7
370
     9
100
AcDbLine
 10
142.7928499417666
 20
189.0881017032681
 30
0.0
 11
142.7251166084502
 21
189.0291878143941
 31
0.0
  0
LINE
  5
E1
330
70
100
AcDbEntity
  8
Standardebene
 62
     7
370
     9
100
AcDbLine
 10
144.2057249414134
 20
200.1399239227275
 30
0.0
 11
144.1482221636502
 21
200.2062461449332
 31
0.0
  0
LINE
  5
E2
330
70
100
AcDbEntity
  8
Standardebene
 62
     7
370
     9
100
AcDbLine
 10
147.0332388295955
 20
201.6289989223551
 30
0.0
 11
147.051936051813
 21
201.5351600334898
 31
0.0
  0
LINE
  5
E3
330
70
100
AcDbEntity
  8
Standardebene
 62
     7
370
     9
100
AcDbLine
 10
156.8330527160343
 20
194.965026701799
 30
0.0
 11
156.9191304937904
 21
194.9819600351281
 31
0.0
  0
LINE
  5
E4
330
70
100
AcDbEntity
  8
Standardebene
 62
     7
370
     9
100
AcDbLine
 10
156.7240443827282
 20
191.7663905914876
 30
0.0
 11
156.617505493866
 21
191.8023739248119
 31
0.0
  0
LINE
  5
E5
330
70
100
AcDbEntity
  8
Standardebene
 62
     7
370
     9
100
AcDbLine
 10
141.3496360532383
 20
196.0406461459746
 30
0.0
 11
141.4328916087734
 21
196.0120711459817
 31
0.0
  0
LINE
  5
E6
330
70
100
AcDbEntity
  8
Standardebene
 62
     7
370
     9
100
AcDbLine
 10
141.2176971643825
 20
192.85012392455
 30
0.0
 11
141.1224471644065
 21
192.8314267023325
 31
0.0
  0
LWPOLYLINE
  5
E7
330
70
100
AcDbEntity
  8
Standardebene
 62
     7
370
     9
100
AcDbPolyline
 90
        3
 70
     0
 43
0.0
 10
21.55129595942317
 20
115.4052664988097
 10
21.4532237372257
 20
115.4052664988097
 10
21.4532237372257
 20
115.6709081654098
  0
LWPOLYLINE
  5
E8
330
70
100
AcDbEntity
  8
Standardebene
 62
     7
370
     9
100
AcDbPolyline
 90
        3
 70
     0
 43
0.0
 10
21.4532237372257
 20
110.7097942777612
 10
21.4532237372257
 20
110.9574442776993
 10
21.55129595942317
 20
110.9574442776993
  0
LINE
  5
E9
330
70
100
AcDbEntity
  8
Standardebene
 62
     7
370
     9
100
AcDbLine
 10
21.4532237372257
 20
118.717849831315
 30
0.0
 11
21.55129595942317
 21
118.717849831315
 31
0.0
  0
LINE
  5
EA
330
70
100
AcDbEntity
  8
Standardebene
 62
     7
370
     9
100
AcDbLine
 10
21.4532237372257
 20
119.2205581645224
 30
0.0
 11
21.4532237372257
 21
118.717849831315
 31
0.0
  0
LINE
  5
EB
330
70
100
AcDbEntity
  8
Standardebene
 62
     7
370
     9
100
AcDbLine
 10
21.4532237372257
 20
108.0787776117524
 30
0.0
 11
21.4532237372257
 21
107.46529705635
 31
0.0
  0
LINE
  5
EC
330
70
100
AcDbEntity
  8
Standardebene
 62
     7
370
     9
100
AcDbLine
 10
21.4532237372257
 20
110.9574442776993
 30
0.0
 11
21.4532237372257
 21
111.5927970553184
 31
0.0
  0
LINE
  5
ED
330
70
100
AcDbEntity
  8
Standardebene
 62
     7
370
     9
100
AcDbLine
 10
21.4532237372257
 20
118.5174720535872
 30
0.0
 11
21.4532237372257
 21
118.717849831315
 31
0.0
  0
LINE
  5
EE
330
70
100
AcDbEntity
  8
Standardebene
 62
     7
370
     9
100
AcDbLine
 10
29.60133206852192
 20
113.6981748325698
 30
0.0
 11
29.60133206852192
 21
95.83915261481243
 31
0.0
  0
LINE
  5
EF
330
70
100
AcDbEntity
  8
Standardebene
 62
     7
370
     9
100
AcDbLine
 10
38.99086539950786
 20
113.6981748325698
 30
0.0
 11
38.99086539950786
 21
97.9925081698294
 31
0.0
  0
LINE
  5
F0
330
70
100
AcDbEntity
  8
Standardebene
 62
     7
370
     9
100
AcDbLine
 10
29.60133206852192
 20
131.5568442725494
 30
0.0
 11
29.60133206852192
 21
113.6981748325698
 31
0.0
  0
LINE
  5
F1
330
70
100
AcDbEntity
  8
Standardebene
 62
     7
370
     9
100
AcDbLine
 10
38.99086539950786
 20
129.4027831619769
 30
0.0
 11
38.99086539950786
 21
113.6981748325698
 31
0.0
  0
LWPOLYLINE
  5
F2
330
70
100
AcDbEntity
  8
Standardebene
 62
     7
370
     9
100
AcDbPolyline
 90
        3
 70
     0
 43
0.0
 10
21.4532237372257
 20
111.5927970553184
 10
21.4532237372257
 20
113.1633637215922
 10
21.4532237372257
 20
114.7550970545278
  0
LWPOLYLINE
  5
F3
330
70
100
AcDbEntity
  8
Standardebene
 62
     7
370
     9
100
AcDbPolyline
 90
        3
 70
     0
 43
0.0
 10
21.4532237372257
 20
115.6709081654098
 10
21.4532237372257
 20
117.1652748317028
 10
21.4532237372257
 20
118.5174720535872
  0
LWPOLYLINE
  5
F4
330
70
100
AcDbEntity
  8
Standardebene
 62
     7
370
     9
100
AcDbPolyline
 90
        3
 70
     0
 43
0.0
 10
21.4532237372257
 20
108.0787776117524
 10
21.4532237372257
 20
109.3046803892235
 10
21.4532237372257
 20
110.7097942777612
  0
LWPOLYLINE
  5
F5
330
70
100
AcDbEntity
  8
Standardebene
 62
     7
370
     9
100
AcDbPolyline
 90
        3
 70
     0
 43
0.0
 10
21.4532237372257
 20
115.4052664988097
 10
21.4532237372257
 20
115.0821220544459
 10
21.4532237372257
 20
114.7550970545278
  0
LWPOLYLINE
  5
F6
330
70
100
AcDbEntity
  8
Standardebene
 62
     7
370
     9
100
AcDbPolyline
 90
        3
 70
     0
 43
0.0
 10
21.4532237372257
 20
119.2205581645224
 10
21.4532237372257
 20
119.5006637200078
 10
21.4532237372257
 20
119.765247053275
  0
LWPOLYLINE
  5
F7
330
70
100
AcDbEntity
  8
Standardebene
 62
     7
370
     9
100
AcDbPolyline
 90
        3
 70
     0
 43
0.0
 10
21.4532237372257
 20
107.2913776119492
 10
21.4532237372257
 20
107.3771026119276
 10
21.4532237372257
 20
107.46529705635
  0
LINE
  5
F8
330
70
100
AcDbEntity
  8
Standardebene
 62
     7
370
     9
100
AcDbLine
 10
21.4532237372257
 20
114.7550970545278
 30
0.0
 11
21.55129595942317
 21
114.7660331656362
 31
0.0
  0
LINE
  5
F9
330
70
100
AcDbEntity
  8
Standardebene
 62
     7
370
     9
100
AcDbLine
 10
21.55129595942317
 20
111.5748053886561
 30
0.0
 11
21.4532237372257
 21
111.5927970553184
 31
0.0
  0
LINE
  5
FA
330
70
100
AcDbEntity
  8
Standardebene
 62
     7
370
     9
100
AcDbLine
 10
21.55129595942317
 20
115.6818442765182
 30
0.0
 11
21.4532237372257
 21
115.6709081654098
 31
0.0
  0
LINE
  5
FB
330
70
100
AcDbEntity
  8
Standardebene
 62
     7
370
     9
100
AcDbLine
 10
21.4532237372257
 20
118.5174720535872
 30
0.0
 11
21.55129595942317
 21
118.5548664980222
 31
0.0
  0
LINE
  5
FC
330
70
100
AcDbEntity
  8
Standardebene
 62
     7
370
     9
100
AcDbLine
 10
21.4532237372257
 20
110.7097942777612
 30
0.0
 11
21.55129595942317
 21
110.6914498333214
 31
0.0
  0
LINE
  5
FD
330
70
100
AcDbEntity
  8
Standardebene
 62
     7
370
     9
100
AcDbLine
 10
21.55129595942317
 20
108.0360915006519
 30
0.0
 11
21.4532237372257
 21
108.0787776117524
 31
0.0
  0
LINE
  5
FE
330
70
100
AcDbEntity
  8
Standardebene
 62
     7
370
     9
100
AcDbLine
 10
21.55129595942317
 20
119.2579526089577
 30
0.0
 11
21.4532237372257
 21
119.2205581645224
 31
0.0
  0
LINE
  5
FF
330
70
100
AcDbEntity
  8
Standardebene
 62
     7
370
     9
100
AcDbLine
 10
21.4532237372257
 20
107.46529705635
 30
0.0
 11
21.55129595942317
 21
107.4222581674721
 31
0.0
  0
LINE
  5
100
330
70
100
AcDbEntity
  8
Standardebene
  6
AI-Linetype-0
 62
     7
370
     9
100
AcDbLine
 10
18.42789216836222
 20
193.9073989242855
 30
0.0
 11
80.51831111607167
 21
193.9073989242855
 31
0.0
  0
LINE
  5
102
330
70
100
AcDbEntity
  8
Standardebene
  6
AI-Linetype-1
 62
     7
370
     9
100
AcDbLine
 10
17.17774950498549
 20
113.6981748325698
 30
0.0
 11
80.65721585644707
 21
113.6981748325698
 31
0.0
  0
LINE
  5
104
330
70
100
AcDbEntity
  8
Standardebene
  6
AI-Linetype-2
 62
     7
370
     9
100
AcDbLine
 10
149.025727717986
 20
221.6114464878135
 30
0.0
 11
149.025727717986
 21
167.9073239307855
 31
0.0
  0
LINE
  5
106
330
70
100
AcDbEntity
  8
Standardebene
  6
AI-Linetype-3
 62
     7
370
     9
100
AcDbLine
 10
174.9719652643604
 20
193.9073989242855
 30
0.0
 11
122.1922242822352
 21
193.9073989242855
 31
0.0
  0
LINE
  5
108
330
70
100
AcDbEntity
  8
Standardebene
 62
     7
370
    35
100
AcDbLine
 10
31.610401512464
 20
168.9078017083133
 30
0.0
 11
33.86077095634581
 21
168.9078017083133
 31
0.0
  0
LINE
  5
109
330
70
100
AcDbEntity
  8
Standardebene
 62
     7
370
    35
100
AcDbLine
 10
31.610401512464
 20
218.9077016958133
 30
0.0
 11
33.86077095634581
 21
218.9077016958133
 31
0.0
  0
LINE
  5
10A
330
70
100
AcDbEntity
  8
Standardebene
 62
     7
370
    35
100
AcDbLine
 10
35.3604292893043
 20
168.9078017083133
 30
0.0
 11
37.11055984442241
 21
168.9078017083133
 31
0.0
  0
LINE
  5
10B
330
70
100
AcDbEntity
  8
Standardebene
 62
     7
370
    35
100
AcDbLine
 10
35.3604292893043
 20
218.9077016958133
 30
0.0
 11
37.11055984442241
 21
218.9077016958133
 31
0.0
  0
LINE
  5
10C
330
70
100
AcDbEntity
  8
Standardebene
 62
     7
370
    35
100
AcDbLine
 10
29.79959317958343
 20
175.6659655955127
 30
0.0
 11
31.610401512464
 21
168.9078017083133
 31
0.0
  0
LINE
  5
10D
330
70
100
AcDbEntity
  8
Standardebene
 62
     7
370
    35
100
AcDbLine
 10
29.79959317958343
 20
212.1484794752809
 30
0.0
 11
31.610401512464
 21
218.9077016958133
 31
0.0
  0
LINE
  5
10E
330
70
100
AcDbEntity
  8
Standardebene
 62
     7
370
    35
100
AcDbLine
 10
27.61095984679735
 20
176.4071517064384
 30
0.0
 11
28.83368762426925
 21
176.4071517064384
 31
0.0
  0
LINE
  5
10F
330
70
100
AcDbEntity
  8
Standardebene
 62
     7
370
    35
100
AcDbLine
 10
27.61095984679735
 20
177.9075155949524
 30
0.0
 11
24.61058484754741
 21
177.9075155949524
 31
0.0
  0
LINE
  5
110
330
70
100
AcDbEntity
  8
Standardebene
 62
     7
370
    35
100
AcDbLine
 10
27.61095984679735
 20
209.907282253619
 30
0.0
 11
24.61058484754741
 21
209.907282253619
 31
0.0
  0
LINE
  5
111
330
70
100
AcDbEntity
  8
Standardebene
 62
     7
370
    35
100
AcDbLine
 10
27.61095984679735
 20
211.4072933643552
 30
0.0
 11
28.83368762426925
 21
211.4072933643552
 31
0.0
  0
LINE
  5
112
330
70
100
AcDbEntity
  8
Standardebene
 62
     7
370
    35
100
AcDbLine
 10
21.61091540385266
 20
178.1392905948942
 30
0.0
 11
22.0123765148637
 21
177.9075155949524
 31
0.0
  0
LINE
  5
113
330
70
100
AcDbEntity
  8
Standardebene
 62
     7
370
    35
100
AcDbLine
 10
21.61091540385266
 20
209.6751544758994
 30
0.0
 11
22.0123765148637
 21
209.907282253619
 31
0.0
  0
LINE
  5
114
330
70
100
AcDbEntity
  8
Standardebene
 62
     7
370
    35
100
AcDbLine
 10
51.61078484079737
 20
188.3398600367888
 30
0.0
 11
42.26570150980039
 21
188.3398600367888
 31
0.0
  0
LINE
  5
115
330
70
100
AcDbEntity
  8
Standardebene
 62
     7
370
    35
100
AcDbLine
 10
40.11093484367235
 20
177.9075155949524
 30
0.0
 11
51.61078484079737
 21
177.9075155949524
 31
0.0
  0
LINE
  5
116
330
70
100
AcDbEntity
  8
Standardebene
 62
     7
370
    35
100
AcDbLine
 10
51.61078484079737
 20
209.907282253619
 30
0.0
 11
40.11093484367235
 21
209.907282253619
 31
0.0
  0
LINE
  5
117
330
70
100
AcDbEntity
  8
Standardebene
 62
     7
370
    35
100
AcDbLine
 10
42.26570150980039
 20
199.4749378117825
 30
0.0
 11
51.61078484079737
 21
199.4749378117825
 31
0.0
  0
LINE
  5
118
330
70
100
AcDbEntity
  8
Standardebene
 62
     7
370
    35
100
AcDbLine
 10
39.06706539948862
 20
178.1869155948823
 30
0.0
 11
40.11093484367235
 21
177.9075155949524
 31
0.0
  0
LINE
  5
119
330
70
100
AcDbEntity
  8
Standardebene
 62
     7
370
    35
100
AcDbLine
 10
39.06706539948862
 20
209.627882253689
 30
0.0
 11
40.11093484367235
 21
209.907282253619
 31
0.0
  0
LINE
  5
11A
330
70
100
AcDbEntity
  8
Standardebene
 62
     7
370
    35
100
AcDbLine
 10
38.21052095525835
 20
178.2077294837661
 30
0.0
 11
38.91184317730534
 21
178.2077294837661
 31
0.0
  0
LINE
  5
11B
330
70
100
AcDbEntity
  8
Standardebene
 62
     7
370
    35
100
AcDbLine
 10
38.21052095525835
 20
209.6074211425827
 30
0.0
 11
38.91184317730534
 21
209.6074211425827
 31
0.0
  0
LINE
  5
11C
330
70
100
AcDbEntity
  8
Standardebene
 62
     7
370
    35
100
AcDbLine
 10
53.58422372919292
 20
209.5597961425945
 30
0.0
 11
51.61078484079737
 21
209.907282253619
 31
0.0
  0
LINE
  5
11D
330
70
100
AcDbEntity
  8
Standardebene
 62
     7
370
    35
100
AcDbLine
 10
55.48816539538358
 20
209.2849822537745
 30
0.0
 11
56.11046539522805
 21
208.2075989207105
 31
0.0
  0
LINE
  5
11E
330
70
100
AcDbEntity
  8
Standardebene
 62
     7
370
    35
100
AcDbLine
 10
55.48816539538358
 20
178.5294628170191
 30
0.0
 11
56.11046539522805
 21
179.6075517056383
 31
0.0
  0
LINE
  5
11F
330
70
100
AcDbEntity
  8
Standardebene
 62
     7
370
    35
100
AcDbLine
 10
51.61078484079737
 20
177.9075155949524
 30
0.0
 11
53.58422372919292
 21
178.2557072615317
 31
0.0
  0
LINE
  5
120
330
70
100
AcDbEntity
  8
Standardebene
 62
     7
370
    35
100
AcDbLine
 10
58.11036261695026
 20
203.6983933662822
 30
0.0
 11
70.13585150283268
 21
202.0089405889268
 31
0.0
  0
LINE
  5
121
330
70
100
AcDbEntity
  8
Standardebene
 62
     7
370
    35
100
AcDbLine
 10
58.11036261695026
 20
184.1160517045111
 30
0.0
 11
70.13585150283268
 21
185.8065628151997
 31
0.0
  0
LINE
  5
122
330
70
100
AcDbEntity
  8
Standardebene
 62
     7
370
    35
100
AcDbLine
 10
56.31049039517804
 20
184.4074461488827
 30
0.0
 11
57.91069039477801
 21
184.4074461488827
 31
0.0
  0
LINE
  5
123
330
70
100
AcDbEntity
  8
Standardebene
 62
     7
370
    35
100
AcDbLine
 10
56.31049039517804
 20
203.4077044774661
 30
0.0
 11
57.91069039477801
 21
203.4077044774661
 31
0.0
  0
LINE
  5
124
330
70
100
AcDbEntity
  8
Standardebene
 62
     7
370
    35
100
AcDbLine
 10
72.05249316902018
 20
185.9078100373967
 30
0.0
 11
75.61096261257516
 21
185.9078100373967
 31
0.0
  0
LWPOLYLINE
  5
125
330
70
100
AcDbEntity
  8
Standardebene
 62
     7
370
    35
100
AcDbPolyline
 90
        3
 70
     0
 43
0.0
 10
72.05249316902018
 20
201.9073405889524
 10
75.61096261257516
 20
201.9073405889524
 10
76.81075983449739
 20
201.6956739223386
  0
LINE
  5
126
330
70
100
AcDbEntity
  8
Standardebene
 62
     7
370
    35
100
AcDbLine
 10
75.61096261257516
 20
185.9078100373967
 30
0.0
 11
76.81075983449739
 21
186.118771148455
 31
0.0
  0
LINE
  5
127
330
70
100
AcDbEntity
  8
Standardebene
 62
     7
370
    35
100
AcDbLine
 10
70.91090428041673
 20
186.4073433706049
 30
0.0
 11
71.31060150253897
 21
186.4073433706049
 31
0.0
  0
LINE
  5
128
330
70
100
AcDbEntity
  8
Standardebene
 62
     7
370
    35
100
AcDbLine
 10
70.91090428041673
 20
201.4074544779662
 30
0.0
 11
71.31060150253897
 21
201.4074544779662
 31
0.0
  0
LINE
  5
129
330
70
100
AcDbEntity
  8
Standardebene
 62
     7
370
    35
100
AcDbLine
 10
78.30830150078963
 20
201.3612405890887
 30
0.0
 11
78.61098483404735
 21
200.8373655892198
 31
0.0
  0
LINE
  5
12A
330
70
100
AcDbEntity
  8
Standardebene
 62
     7
370
    35
100
AcDbLine
 10
78.30830150078963
 20
186.4532044817046
 30
0.0
 11
78.61098483404735
 21
186.9774322593513
 31
0.0
  0
SPLINE
  5
12B
330
70
100
AcDbEntity
  8
Standardebene
 62
     7
370
    35
100
AcDbSpline
210
0.0
220
0.0
230
1.0
 70
     8
 71
     3
 72
     8
 73
     4
 74
     0
 42
0.0000000001
 43
0.0000000001
 40
0.0
 40
0.0
 40
0.0
 40
0.0
 40
1.0
 40
1.0
 40
1.0
 40
1.0
 10
37.61079873318613
 20
218.4078155848272
 30
0.0
 10
37.61079873318613
 20
218.6833350292027
 30
0.0
 10
37.38713762213092
 20
218.9077016958133
 30
0.0
 10
37.11055984442241
 20
218.9077016958133
 30
0.0
  0
LWPOLYLINE
  5
12C
330
70
100
AcDbEntity
  8
Standardebene
 62
     7
370
    35
100
AcDbPolyline
 90
       35
 70
     0
 43
0.0
 10
37.61079873318613
 20
218.4078155848272
 10
37.61079873318613
 20
218.3030405848533
 10
37.61079873318613
 20
217.9904794738204
 10
37.61079873318613
 20
217.4718961406168
 10
37.61079873318613
 20
216.7529350296852
 10
37.61079873318613
 20
215.8388878076916
 10
37.61079873318613
 20
214.7378683635225
 10
37.61079873318613
 20
213.4590489193978
 10
37.61079873318613
 20
212.0133655864259
 10
37.61079873318613
 20
210.4128128090481
 10
37.61079873318613
 20
208.6722072539277
 10
37.61079873318613
 20
206.8053072543946
 10
37.61079873318613
 20
204.8279878104443
 10
37.61079873318613
 20
202.7582405887398
 10
37.61079873318613
 20
200.6119405892761
 10
37.61079873318613
 20
198.4095489231602
 10
37.61079873318613
 20
196.1679989237205
 10
37.61079873318613
 20
193.9073989242855
 10
37.61079873318613
 20
191.6471517026286
 10
37.61079873318613
 20
189.4056017031889
 10
37.61079873318613
 20
187.2025044815175
 10
37.61079873318613
 20
185.0569100376093
 10
37.61079873318613
 20
182.9871628159045
 10
37.61079873318613
 20
181.0101961497323
 10
37.61079873318613
 20
179.1429433724211
 10
37.61079873318613
 20
177.4016322617455
 10
37.61079873318613
 20
175.8017850399232
 10
37.61079873318613
 20
174.3557489291736
 10
37.61079873318613
 20
173.0769294850488
 10
37.61079873318613
 20
171.9762628186574
 10
37.61079873318613
 20
171.0618628188858
 10
37.61079873318613
 20
170.3429017079546
 10
37.61079873318613
 20
169.8246711525285
 10
37.61079873318613
 20
169.511757263718
 10
37.61079873318613
 20
169.4076878192995
  0
SPLINE
  5
12D
330
70
100
AcDbEntity
  8
Standardebene
 62
     7
370
    35
100
AcDbSpline
210
0.0
220
0.0
230
1.0
 70
     8
 71
     3
 72
     8
 73
     4
 74
     0
 42
0.0000000001
 43
0.0000000001
 40
0.0
 40
0.0
 40
0.0
 40
0.0
 40
1.0
 40
1.0
 40
1.0
 40
1.0
 10
37.11055984442241
 20
168.9078017083133
 30
0.0
 10
37.38713762213092
 20
168.9078017083133
 30
0.0
 10
37.61079873318613
 20
169.1311100415907
 30
0.0
 10
37.61079873318613
 20
169.4076878192995
 30
0.0
  0
LWPOLYLINE
  5
12E
330
70
100
AcDbEntity
  8
Standardebene
 62
     7
370
    35
100
AcDbPolyline
 90
       35
 70
     0
 43
0.0
 10
35.3604292893043
 20
218.9077016958133
 10
35.3604292893043
 20
218.8011628069512
 10
35.3604292893043
 20
218.4815461403643
 10
35.3604292893043
 20
217.953437807163
 10
35.3604292893043
 20
217.2193072517909
 10
35.3604292893043
 20
216.2865628075798
 10
35.3604292893043
 20
215.1629655856384
 10
35.3604292893043
 20
213.8576878081869
 10
35.3604292893043
 20
212.3830766974445
 10
35.3604292893043
 20
210.7500683645195
 10
35.3604292893043
 20
208.9731266982969
 10
35.3604292893043
 20
207.0681266987733
 10
35.3604292893043
 20
205.0505905881665
 10
35.3604292893043
 20
202.938510033139
 10
35.3604292893043
 20
200.7488183670196
 10
35.3604292893043
 20
198.5012711453592
 10
35.3604292893043
 20
196.2138600348202
 10
35.3604292893043
 20
193.9073989242855
 10
35.3604292893043
 20
191.6005850359734
 10
35.3604292893043
 20
189.3138794809895
 10
35.3604292893043
 20
187.0656267037736
 10
35.3604292893043
 20
184.8766405932098
 10
35.3604292893043
 20
182.763854482627
 10
35.3604292893043
 20
180.7470239275758
 10
35.3604292893043
 20
178.8413183724967
 10
35.3604292893043
 20
177.0650822618294
 10
35.3604292893043
 20
175.4320739289043
 10
35.3604292893043
 20
173.9571100403843
 10
35.3604292893043
 20
172.6521850407103
 10
35.3604292893043
 20
171.5285878187692
 10
35.3604292893043
 20
170.5954905967801
 10
35.3604292893043
 20
169.8620655969636
 10
35.3604292893043
 20
169.3328989304292
 10
35.3604292893043
 20
169.013987819398
 10
35.3604292893043
 20
168.9078017083133
  0
SPLINE
  5
12F
330
70
100
AcDbEntity
  8
Standardebene
 62
     7
370
    35
100
AcDbSpline
210
0.0
220
0.0
230
1.0
 70
     8
 71
     3
 72
     8
 73
     4
 74
     0
 42
0.0000000001
 43
0.0000000001
 40
0.0
 40
0.0
 40
0.0
 40
0.0
 40
1.0
 40
1.0
 40
1.0
 40
1.0
 10
35.3604292893043
 20
168.9078017083133
 30
0.0
 10
35.3604292893043
 20
169.3219628193208
 30
0.0
 10
35.02458484494374
 20
169.6578072636814
 30
0.0
 10
34.61042373393617
 20
169.6578072636814
 30
0.0
  0
SPLINE
  5
130
330
70
100
AcDbEntity
  8
Standardebene
 62
     7
370
    35
100
AcDbSpline
210
0.0
220
0.0
230
1.0
 70
     8
 71
     3
 72
     8
 73
     4
 74
     0
 42
0.0000000001
 43
0.0000000001
 40
0.0
 40
0.0
 40
0.0
 40
0.0
 40
1.0
 40
1.0
 40
1.0
 40
1.0
 10
34.61042373393617
 20
218.1573433626676
 30
0.0
 10
35.02458484494374
 20
218.1573433626676
 30
0.0
 10
35.3604292893043
 20
218.493187807028
 30
0.0
 10
35.3604292893043
 20
218.9077016958133
 30
0.0
  0
LWPOLYLINE
  5
131
330
70
100
AcDbEntity
  8
Standardebene
 62
     7
370
    35
100
AcDbPolyline
 90
       35
 70
     0
 43
0.0
 10
33.86077095634581
 20
218.9077016958133
 10
33.86077095634581
 20
218.8011628069512
 10
33.86077095634581
 20
218.4815461403643
 10
33.86077095634581
 20
217.953437807163
 10
33.86077095634581
 20
217.2193072517909
 10
33.86077095634581
 20
216.2865628075798
 10
33.86077095634581
 20
215.1629655856384
 10
33.86077095634581
 20
213.8576878081869
 10
33.86077095634581
 20
212.3830766974445
 10
33.86077095634581
 20
210.7500683645195
 10
33.86077095634581
 20
208.9731266982969
 10
33.86077095634581
 20
207.0681266987733
 10
33.86077095634581
 20
205.0505905881665
 10
33.86077095634581
 20
202.938510033139
 10
33.86077095634581
 20
200.7488183670196
 10
33.86077095634581
 20
198.5012711453592
 10
33.86077095634581
 20
196.2138600348202
 10
33.86077095634581
 20
193.9073989242855
 10
33.86077095634581
 20
191.6005850359734
 10
33.86077095634581
 20
189.3138794809895
 10
33.86077095634581
 20
187.0656267037736
 10
33.86077095634581
 20
184.8766405932098
 10
33.86077095634581
 20
182.763854482627
 10
33.86077095634581
 20
180.7470239275758
 10
33.86077095634581
 20
178.8413183724967
 10
33.86077095634581
 20
177.0650822618294
 10
33.86077095634581
 20
175.4320739289043
 10
33.86077095634581
 20
173.9571100403843
 10
33.86077095634581
 20
172.6521850407103
 10
33.86077095634581
 20
171.5285878187692
 10
33.86077095634581
 20
170.5954905967801
 10
33.86077095634581
 20
169.8620655969636
 10
33.86077095634581
 20
169.3328989304292
 10
33.86077095634581
 20
169.013987819398
 10
33.86077095634581
 20
168.9078017083133
  0
LWPOLYLINE
  5
132
330
70
100
AcDbEntity
  8
Standardebene
 62
     7
370
    35
100
AcDbPolyline
 90
       35
 70
     0
 43
0.0
 10
31.610401512464
 20
218.9077016958133
 10
31.610401512464
 20
218.8011628069512
 10
31.610401512464
 20
218.4815461403643
 10
31.610401512464
 20
217.953437807163
 10
31.610401512464
 20
217.2193072517909
 10
31.610401512464
 20
216.2865628075798
 10
31.610401512464
 20
215.1629655856384
 10
31.610401512464
 20
213.8576878081869
 10
31.610401512464
 20
212.3830766974445
 10
31.610401512464
 20
210.7500683645195
 10
31.610401512464
 20
208.9731266982969
 10
31.610401512464
 20
207.0681266987733
 10
31.610401512464
 20
205.0505905881665
 10
31.610401512464
 20
202.938510033139
 10
31.610401512464
 20
200.7488183670196
 10
31.610401512464
 20
198.5012711453592
 10
31.610401512464
 20
196.2138600348202
 10
31.610401512464
 20
193.9073989242855
 10
31.610401512464
 20
191.6005850359734
 10
31.610401512464
 20
189.3138794809895
 10
31.610401512464
 20
187.0656267037736
 10
31.610401512464
 20
184.8766405932098
 10
31.610401512464
 20
182.763854482627
 10
31.610401512464
 20
180.7470239275758
 10
31.610401512464
 20
178.8413183724967
 10
31.610401512464
 20
177.0650822618294
 10
31.610401512464
 20
175.4320739289043
 10
31.610401512464
 20
173.9571100403843
 10
31.610401512464
 20
172.6521850407103
 10
31.610401512464
 20
171.5285878187692
 10
31.610401512464
 20
170.5954905967801
 10
31.610401512464
 20
169.8620655969636
 10
31.610401512464
 20
169.3328989304292
 10
31.610401512464
 20
169.013987819398
 10
31.610401512464
 20
168.9078017083133
  0
SPLINE
  5
133
330
70
100
AcDbEntity
  8
Standardebene
 62
     7
370
    35
100
AcDbSpline
210
0.0
220
0.0
230
1.0
 70
     8
 71
     3
 72
     8
 73
     4
 74
     0
 42
0.0000000001
 43
0.0000000001
 40
0.0
 40
0.0
 40
0.0
 40
0.0
 40
1.0
 40
1.0
 40
1.0
 40
1.0
 10
34.61042373393617
 20
169.6578072636814
 30
0.0
 10
34.19661540070638
 20
169.6578072636814
 30
0.0
 10
33.86077095634581
 20
169.3219628193208
 30
0.0
 10
33.86077095634581
 20
168.9078017083133
 30
0.0
  0
SPLINE
  5
134
330
70
100
AcDbEntity
  8
Standardebene
 62
     7
370
    35
100
AcDbSpline
210
0.0
220
0.0
230
1.0
 70
     8
 71
     3
 72
     8
 73
     4
 74
     0
 42
0.0000000001
 43
0.0000000001
 40
0.0
 40
0.0
 40
0.0
 40
0.0
 40
1.0
 40
1.0
 40
1.0
 40
1.0
 10
33.86077095634581
 20
218.9077016958133
 30
0.0
 10
33.86077095634581
 20
218.493187807028
 30
0.0
 10
34.19661540070638
 20
218.1573433626676
 30
0.0
 10
34.61042373393617
 20
218.1573433626676
 30
0.0
  0
SPLINE
  5
135
330
70
100
AcDbEntity
  8
Standardebene
 62
     7
370
    35
100
AcDbSpline
210
0.0
220
0.0
230
1.0
 70
     8
 71
     3
 72
     8
 73
     4
 74
     0
 42
0.0000000001
 43
0.0000000001
 40
0.0
 40
0.0
 40
0.0
 40
0.0
 40
1.0
 40
1.0
 40
1.0
 40
1.0
 10
29.79959317958343
 20
175.6659655955127
 30
0.0
 10
29.68035429072444
 20
176.110818373179
 30
0.0
 10
29.27995151304669
 20
176.4050350397724
 30
0.0
 10
28.83368762426925
 20
176.4071517064384
 30
0.0
  0
SPLINE
  5
136
330
70
100
AcDbEntity
  8
Standardebene
 62
     7
370
    35
100
AcDbSpline
210
0.0
220
0.0
230
1.0
 70
     8
 71
     3
 72
     8
 73
     4
 74
     0
 42
0.0000000001
 43
0.0000000001
 40
0.0
 40
0.0
 40
0.0
 40
0.0
 40
1.0
 40
1.0
 40
1.0
 40
1.0
 10
28.83368762426925
 20
211.4072933643552
 30
0.0
 10
29.2937098463765
 20
211.4072933643552
 30
0.0
 10
29.68176540183517
 20
211.7184433642773
 30
0.0
 10
29.79959317958343
 20
212.1484794752809
 30
0.0
  0
LWPOLYLINE
  5
137
330
70
100
AcDbEntity
  8
Standardebene
 62
     7
370
    35
100
AcDbPolyline
 90
        4
 70
     0
 43
0.0
 10
27.61095984679735
 20
176.4071517064384
 10
27.61095984679735
 20
176.5764850397295
 10
27.61095984679735
 20
177.0798989284925
 10
27.61095984679735
 20
177.9075155949524
  0
LWPOLYLINE
  5
138
330
70
100
AcDbEntity
  8
Standardebene
 62
     7
370
    35
100
AcDbPolyline
 90
       22
 70
     0
 43
0.0
 10
24.61058484754741
 20
209.907282253619
 10
24.61058484754741
 20
209.0338044760594
 10
24.61058484754741
 20
207.9772350318795
 10
24.61058484754741
 20
206.751332254408
 10
24.61058484754741
 20
205.3705600325308
 10
24.61058484754741
 20
203.8511461440221
 10
24.61058484754741
 20
202.2124933666539
 10
24.61058484754741
 20
200.4729461448663
 10
24.61058484754741
 20
198.6543767008766
 10
24.61058484754741
 20
196.7786572569011
 10
24.61058484754741
 20
194.8687183684898
 10
24.61058484754741
 20
192.9467850356368
 10
24.61058484754741
 20
191.03614059167
 10
24.61058484754741
 20
189.1607739254722
 10
24.61058484754741
 20
187.3418517037047
 10
24.61058484754741
 20
185.6030100374727
 10
24.61058484754741
 20
183.9632989267715
 10
24.61058484754741
 20
182.4445905938181
 10
24.61058484754741
 20
181.0638183719411
 10
24.61058484754741
 20
179.8379155944697
 10
24.61058484754741
 20
178.7813461502894
 10
24.61058484754741
 20
177.9075155949524
  0
LWPOLYLINE
  5
139
330
70
100
AcDbEntity
  8
Standardebene
 62
     7
370
    35
100
AcDbPolyline
 90
        4
 70
     0
 43
0.0
 10
27.61095984679735
 20
211.4072933643552
 10
27.61095984679735
 20
211.2386655866193
 10
27.61095984679735
 20
210.7352516978564
 10
27.61095984679735
 20
209.907282253619
  0
LWPOLYLINE
  5
13A
330
70
100
AcDbEntity
  8
Standardebene
 62
     7
370
    35
100
AcDbPolyline
 90
       28
 70
     0
 43
0.0
 10
21.61091540385266
 20
209.6751544758994
 10
21.61091540385266
 20
209.568615587037
 10
21.61091540385266
 20
209.2504100315609
 10
21.61091540385266
 20
208.7247711428036
 10
21.61091540385266
 20
207.9980489207629
 10
21.61091540385266
 20
207.0815322543253
 10
21.61091540385266
 20
205.9861572545993
 10
21.61091540385266
 20
204.7277989215806
 10
21.61091540385266
 20
203.3233905885981
 10
21.61091540385266
 20
201.7916294778701
 10
21.61091540385266
 20
200.1529767005021
 10
21.61091540385266
 20
198.4300100342662
 10
21.61091540385266
 20
196.6456600347123
 10
21.61091540385266
 20
194.8246211462786
 10
21.61091540385266
 20
192.990882257848
 10
21.61091540385266
 20
191.1694905916368
 10
21.61091540385266
 20
189.3851405920829
 10
21.61091540385266
 20
187.662173925847
 10
21.61091540385266
 20
186.0238739262565
 10
21.61091540385266
 20
184.4917600377507
 10
21.61091540385266
 20
183.086646149213
 10
21.61091540385266
 20
181.8282878161942
 10
21.61091540385266
 20
180.7336183720235
 10
21.61091540385266
 20
179.8163961500307
 10
21.61091540385266
 20
179.0903794835452
 10
21.61091540385266
 20
178.5643878170101
 10
21.61091540385266
 20
178.2458294837566
 10
21.61091540385266
 20
178.1392905948942
  0
SPLINE
  5
13B
330
70
100
AcDbEntity
  8
Standardebene
 62
     7
370
    35
100
AcDbSpline
210
0.0
220
0.0
230
1.0
 70
     8
 71
     3
 72
     8
 73
     4
 74
     0
 42
0.0000000001
 43
0.0000000001
 40
0.0
 40
0.0
 40
0.0
 40
0.0
 40
1.0
 40
1.0
 40
1.0
 40
1.0
 10
38.21052095525835
 20
178.2077294837661
 30
0.0
 10
37.87961539978549
 20
178.2077294837661
 30
0.0
 10
37.61079873318613
 20
177.938560039389
 30
0.0
 10
37.61079873318613
 20
177.6076544839161
 30
0.0
  0
SPLINE
  5
13C
330
70
100
AcDbEntity
  8
Standardebene
 62
     7
370
    35
100
AcDbSpline
210
0.0
220
0.0
230
1.0
 70
     8
 71
     3
 72
     8
 73
     4
 74
     0
 42
0.0000000001
 43
0.0000000001
 40
0.0
 40
0.0
 40
0.0
 40
0.0
 40
1.0
 40
1.0
 40
1.0
 40
1.0
 10
37.61079873318613
 20
210.207496142433
 30
0.0
 10
37.61079873318613
 20
209.8762378091824
 30
0.0
 10
37.87961539978549
 20
209.6074211425827
 30
0.0
 10
38.21052095525835
 20
209.6074211425827
 30
0.0
  0
LWPOLYLINE
  5
13D
330
70
100
AcDbEntity
  8
Standardebene
 62
     7
370
    35
100
AcDbPolyline
 90
       11
 70
     0
 43
0.0
 10
51.61078484079737
 20
188.3398600367888
 10
51.61078484079737
 20
186.5625655927885
 10
51.61078484079737
 20
184.8928683709836
 10
51.61078484079737
 20
183.3572267047008
 10
51.61078484079737
 20
181.9764544828239
 10
51.61078484079737
 20
180.7720711497917
 10
51.61078484079737
 20
179.7613628167109
 10
51.61078484079737
 20
178.9594989280227
 10
51.61078484079737
 20
178.3777683726125
 10
51.61078484079737
 20
178.0253433727006
 10
51.61078484079737
 20
177.9075155949524
  0
LWPOLYLINE
  5
13E
330
70
100
AcDbEntity
  8
Standardebene
 62
     7
370
    35
100
AcDbPolyline
 90
       14
 70
     0
 43
0.0
 10
40.11093484367235
 20
193.9073989242855
 10
40.11093484367235
 20
191.9787628136567
 10
40.11093484367235
 20
190.0787017030205
 10
40.11093484367235
 20
188.2336739257041
 10
40.11093484367235
 20
186.4719017039224
 10
40.11093484367235
 20
184.818432259891
 10
40.11093484367235
 20
183.2976072602713
 10
40.11093484367235
 20
181.9312989272797
 10
40.11093484367235
 20
180.7399683720219
 10
40.11093484367235
 20
179.7398433722719
 10
40.11093484367235
 20
178.947504483581
 10
40.11093484367235
 20
178.372476705947
 10
40.11093484367235
 20
178.0239322615899
 10
40.11093484367235
 20
177.9075155949524
  0
SPLINE
  5
13F
330
70
100
AcDbEntity
  8
Standardebene
 62
     7
370
    35
100
AcDbSpline
210
0.0
220
0.0
230
1.0
 70
     8
 71
     3
 72
     8
 73
     4
 74
     0
 42
0.0000000001
 43
0.0000000001
 40
0.0
 40
0.0
 40
0.0
 40
0.0
 40
1.0
 40
1.0
 40
1.0
 40
1.0
 10
42.26570150980039
 20
199.4749378117825
 30
0.0
 10
40.66444317686713
 20
195.7810017015951
 30
0.0
 10
40.78015428794947
 20
191.7748572581519
 30
0.0
 10
42.26570150980039
 20
188.3398600367888
 30
0.0
  0
LWPOLYLINE
  5
140
330
70
100
AcDbEntity
  8
Standardebene
 62
     7
370
    35
100
AcDbPolyline
 90
       11
 70
     0
 43
0.0
 10
51.61078484079737
 20
209.907282253619
 10
51.61078484079737
 20
209.7898072536482
 10
51.61078484079737
 20
209.4373822537364
 10
51.61078484079737
 20
208.8560044761042
 10
51.61078484079737
 20
208.053787809638
 10
51.61078484079737
 20
207.0427266987796
 10
51.61078484079737
 20
205.8386961435252
 10
51.61078484079737
 20
204.457923921648
 10
51.61078484079737
 20
202.92157669981
 10
51.61078484079737
 20
201.2525850335606
 10
51.61078484079737
 20
199.4749378117825
  0
LWPOLYLINE
  5
141
330
70
100
AcDbEntity
  8
Standardebene
 62
     7
370
    35
100
AcDbPolyline
 90
       14
 70
     0
 43
0.0
 10
40.11093484367235
 20
209.907282253619
 10
40.11093484367235
 20
209.7905128092037
 10
40.11093484367235
 20
209.4426739204018
 10
40.11093484367235
 20
208.8676461427677
 10
40.11093484367235
 20
208.0746016985217
 10
40.11093484367235
 20
207.0751822543269
 10
40.11093484367235
 20
205.8838516990694
 10
40.11093484367235
 20
204.5175433660775
 10
40.11093484367235
 20
202.99636558868
 10
40.11093484367235
 20
201.342896144649
 10
40.11093484367235
 20
199.581476700645
 10
40.11093484367235
 20
197.7364489233283
 10
40.11093484367235
 20
195.8363878126924
 10
40.11093484367235
 20
193.9073989242855
  0
SPLINE
  5
142
330
70
100
AcDbEntity
  8
Standardebene
 62
     7
370
    35
100
AcDbSpline
210
0.0
220
0.0
230
1.0
 70
     8
 71
     3
 72
     8
 73
     4
 74
     0
 42
0.0000000001
 43
0.0000000001
 40
0.0
 40
0.0
 40
0.0
 40
0.0
 40
1.0
 40
1.0
 40
1.0
 40
1.0
 10
39.06706539948862
 20
178.1869155948823
 30
0.0
 10
39.01414873283531
 20
178.2013794837677
 30
0.0
 10
38.96017373284872
 20
178.2080822615438
 30
0.0
 10
38.91184317730534
 20
178.2077294837661
 30
0.0
  0
SPLINE
  5
143
330
70
100
AcDbEntity
  8
Standardebene
 62
     7
370
    35
100
AcDbSpline
210
0.0
220
0.0
230
1.0
 70
     8
 71
     3
 72
     8
 73
     4
 74
     0
 42
0.0000000001
 43
0.0000000001
 40
0.0
 40
0.0
 40
0.0
 40
0.0
 40
1.0
 40
1.0
 40
1.0
 40
1.0
 10
38.91184317730534
 20
209.6074211425827
 30
0.0
 10
38.96758206618042
 20
209.6074211425827
 30
0.0
 10
39.02049873283373
 20
209.6151822536922
 30
0.0
 10
39.06706539948862
 20
209.627882253689
 30
0.0
  0
SPLINE
  5
144
330
70
100
AcDbEntity
  8
Standardebene
 62
     7
370
    35
100
AcDbSpline
210
0.0
220
0.0
230
1.0
 70
     8
 71
     3
 72
     8
 73
     4
 74
     0
 42
0.0000000001
 43
0.0000000001
 40
0.0
 40
0.0
 40
0.0
 40
0.0
 40
1.0
 40
1.0
 40
1.0
 40
1.0
 10
50.53657650773256
 20
193.9073989242855
 30
0.0
 10
50.53657650773256
 20
196.1859905903828
 30
0.0
 10
48.68943206374996
 20
198.0331350343654
 30
0.0
 10
46.41084039765299
 20
198.0331350343654
 30
0.0
  0
SPLINE
  5
145
330
70
100
AcDbEntity
  8
Standardebene
 62
     7
370
    35
100
AcDbSpline
210
0.0
220
0.0
230
1.0
 70
     8
 71
     3
 72
     8
 73
     4
 74
     0
 42
0.0000000001
 43
0.0000000001
 40
0.0
 40
0.0
 40
0.0
 40
0.0
 40
1.0
 40
1.0
 40
1.0
 40
1.0
 10
46.41084039765299
 20
189.7820155919837
 30
0.0
 10
48.68943206374996
 20
189.7820155919837
 30
0.0
 10
50.53657650773256
 20
191.6291600359663
 30
0.0
 10
50.53657650773256
 20
193.9073989242855
 30
0.0
  0
SPLINE
  5
146
330
70
100
AcDbEntity
  8
Standardebene
 62
     7
370
    35
100
AcDbSpline
210
0.0
220
0.0
230
1.0
 70
     8
 71
     3
 72
     8
 73
     4
 74
     0
 42
0.0000000001
 43
0.0000000001
 40
0.0
 40
0.0
 40
0.0
 40
0.0
 40
1.0
 40
1.0
 40
1.0
 40
1.0
 10
48.92861539702344
 20
193.9073989242855
 30
0.0
 10
48.92861539702344
 20
195.2980489239378
 30
0.0
 10
47.80149039730502
 20
196.4255267014337
 30
0.0
 10
46.41084039765299
 20
196.4255267014337
 30
0.0
  0
SPLINE
  5
147
330
70
100
AcDbEntity
  8
Standardebene
 62
     7
370
    35
100
AcDbSpline
210
0.0
220
0.0
230
1.0
 70
     8
 71
     3
 72
     8
 73
     4
 74
     0
 42
0.0000000001
 43
0.0000000001
 40
0.0
 40
0.0
 40
0.0
 40
0.0
 40
1.0
 40
1.0
 40
1.0
 40
1.0
 10
46.41084039765299
 20
191.3896239249151
 30
0.0
 10
47.80149039730502
 20
191.3896239249151
 30
0.0
 10
48.92861539702344
 20
192.5167489246332
 30
0.0
 10
48.92861539702344
 20
193.9073989242855
 30
0.0
  0
SPLINE
  5
148
330
70
100
AcDbEntity
  8
Standardebene
 62
     7
370
    35
100
AcDbSpline
210
0.0
220
0.0
230
1.0
 70
     8
 71
     3
 72
    11
 73
     7
 74
     0
 42
0.0000000001
 43
0.0000000001
 40
0.0
 40
0.0
 40
0.0
 40
0.0
 40
1.0
 40
1.0
 40
1.0
 40
2.0
 40
2.0
 40
2.0
 40
2.0
 10
46.41084039765299
 20
198.0331350343654
 30
0.0
 10
44.13224873155571
 20
198.0331350343654
 30
0.0
 10
42.28510428757309
 20
196.1859905903828
 30
0.0
 10
42.28510428757309
 20
193.9073989242855
 30
0.0
 10
42.28510428757309
 20
191.6291600359663
 30
0.0
 10
44.13224873155571
 20
189.7820155919837
 30
0.0
 10
46.41084039765299
 20
189.7820155919837
 30
0.0
  0
SPLINE
  5
149
330
70
100
AcDbEntity
  8
Standardebene
 62
     7
370
    35
100
AcDbSpline
210
0.0
220
0.0
230
1.0
 70
     8
 71
     3
 72
    11
 73
     7
 74
     0
 42
0.0000000001
 43
0.0000000001
 40
0.0
 40
0.0
 40
0.0
 40
0.0
 40
1.0
 40
1.0
 40
1.0
 40
2.0
 40
2.0
 40
2.0
 40
2.0
 10
46.41084039765299
 20
196.4255267014337
 30
0.0
 10
45.02019039800034
 20
196.4255267014337
 30
0.0
 10
43.89235984272701
 20
195.2980489239378
 30
0.0
 10
43.89235984272701
 20
193.9073989242855
 30
0.0
 10
43.89235984272701
 20
192.5167489246332
 30
0.0
 10
45.02019039800034
 20
191.3896239249151
 30
0.0
 10
46.41084039765299
 20
191.3896239249151
 30
0.0
  0
LWPOLYLINE
  5
14A
330
70
100
AcDbEntity
  8
Standardebene
 62
     7
370
    35
100
AcDbPolyline
 90
       12
 70
     0
 43
0.0
 10
53.58422372919292
 20
209.5597961425945
 10
53.58422372919292
 20
209.4532572537324
 10
53.58422372919292
 20
209.1371683649227
 10
53.58422372919292
 20
208.6136461428315
 10
53.58422372919292
 20
207.8918628096785
 10
53.58422372919292
 20
206.9799322543509
 10
53.58422372919292
 20
205.8912600324008
 10
53.58422372919292
 20
204.6396044771582
 10
53.58422372919292
 20
203.243310033063
 10
53.58422372919292
 20
201.720015588999
 10
53.58422372919292
 20
200.0908878116287
 10
53.58422372919292
 20
198.3781517009458
  0
LWPOLYLINE
  5
14B
330
70
100
AcDbEntity
  8
Standardebene
 62
     7
370
    35
100
AcDbPolyline
 90
       12
 70
     0
 43
0.0
 10
55.48816539538358
 20
190.5200267029102
 10
55.48816539538358
 20
188.7106294811403
 10
55.48816539538358
 20
186.9799017037953
 10
55.48816539538358
 20
185.3525378153131
 10
55.48816539538358
 20
183.8542905934657
 10
55.48816539538358
 20
182.5063267049138
 10
55.48816539538358
 20
181.3301655940965
 10
55.48816539538358
 20
180.3420350387881
 10
55.48816539538358
 20
179.5585155945394
 10
55.48816539538358
 20
178.9898378169038
 10
55.48816539538358
 20
178.6448211503233
 10
55.48816539538358
 20
178.5294628170191
  0
LWPOLYLINE
  5
14C
330
70
100
AcDbEntity
  8
Standardebene
 62
     7
370
    35
100
AcDbPolyline
 90
       12
 70
     0
 43
0.0
 10
55.48816539538358
 20
209.2849822537745
 10
55.48816539538358
 20
209.1696239204699
 10
55.48816539538358
 20
208.825312809445
 10
55.48816539538358
 20
208.2569878095872
 10
55.48816539538358
 20
207.4724100320055
 10
55.48816539538358
 20
206.4849850322523
 10
55.48816539538358
 20
205.3088239214353
 10
55.48816539538358
 20
203.9612128106612
 10
55.48816539538358
 20
202.462260033258
 10
55.48816539538358
 20
200.8352489225535
 10
55.48816539538358
 20
199.1041683674307
 10
55.48816539538358
 20
197.2954767012164
  0
LWPOLYLINE
  5
14D
330
70
100
AcDbEntity
  8
Standardebene
 62
     7
370
    35
100
AcDbPolyline
 90
       27
 70
     0
 43
0.0
 10
56.11046539522805
 20
208.2075989207105
 10
56.11046539522805
 20
208.1031766985146
 10
56.11046539522805
 20
207.7920266985922
 10
56.11046539522805
 20
207.2783822542761
 10
56.11046539522805
 20
206.5696516988978
 10
56.11046539522805
 20
205.6760655880099
 10
56.11046539522805
 20
204.6110294771653
 10
56.11046539522805
 20
203.3900655885815
 10
56.11046539522805
 20
202.0311655889214
 10
56.11046539522805
 20
200.5533794781799
 10
56.11046539522805
 20
198.9782267007955
 10
56.11046539522805
 20
197.3296961456522
 10
56.11046539522805
 20
195.6314239238547
 10
56.11046539522805
 20
193.9073989242855
 10
56.11046539522805
 20
192.1837267024944
 10
56.11046539522805
 20
190.4854544806966
 10
56.11046539522805
 20
188.8369239255533
 10
56.11046539522805
 20
187.2617711481692
 10
56.11046539522805
 20
185.7843378152052
 10
56.11046539522805
 20
184.4247322599895
 10
56.11046539522805
 20
183.2037683714061
 10
56.11046539522805
 20
182.1390850383389
 10
56.11046539522805
 20
181.245498927451
 10
56.11046539522805
 20
180.5367683720727
 10
56.11046539522805
 20
180.0231239277566
 10
56.11046539522805
 20
179.7116211500567
 10
56.11046539522805
 20
179.6075517056383
  0
SPLINE
  5
14E
330
70
100
AcDbEntity
  8
Standardebene
 62
     7
370
    35
100
AcDbSpline
210
0.0
220
0.0
230
1.0
 70
     8
 71
     3
 72
    11
 73
     7
 74
     0
 42
0.0000000001
 43
0.0000000001
 40
0.0
 40
0.0
 40
0.0
 40
0.0
 40
1.0
 40
1.0
 40
1.0
 40
2.0
 40
2.0
 40
2.0
 40
2.0
 10
53.58422372919292
 20
178.2557072615317
 30
0.0
 10
53.82340706246642
 20
178.0387489282527
 30
0.0
 10
54.12432650683566
 20
177.9318572616128
 30
0.0
 10
54.42207095120568
 20
177.9322100393905
 30
0.0
 10
54.87150983998201
 20
177.9322100393905
 30
0.0
 10
55.26520983988358
 20
178.1692767059978
 30
0.0
 10
55.48816539538358
 20
178.5294628170191
 30
0.0
  0
LWPOLYLINE
  5
14F
330
70
100
AcDbEntity
  8
Standardebene
 62
     7
370
    35
100
AcDbPolyline
 90
       12
 70
     0
 43
0.0
 10
53.58422372919292
 20
189.4366461476255
 10
53.58422372919292
 20
187.7242628147202
 10
53.58422372919292
 20
186.0947822595721
 10
53.58422372919292
 20
184.5718405932862
 10
53.58422372919292
 20
183.1755461491909
 10
53.58422372919292
 20
181.9242433717258
 10
53.58422372919292
 20
180.8352183719982
 10
53.58422372919292
 20
179.9232878166706
 10
53.58422372919292
 20
179.2011517057399
 10
53.58422372919292
 20
178.6779822614262
 10
53.58422372919292
 20
178.3611878170612
 10
53.58422372919292
 20
178.2557072615317
  0
SPLINE
  5
150
330
70
100
AcDbEntity
  8
Standardebene
 62
     7
370
    35
100
AcDbSpline
210
0.0
220
0.0
230
1.0
 70
     8
 71
     3
 72
    11
 73
     7
 74
     0
 42
0.0000000001
 43
0.0000000001
 40
0.0
 40
0.0
 40
0.0
 40
0.0
 40
1.0
 40
1.0
 40
1.0
 40
2.0
 40
2.0
 40
2.0
 40
2.0
 10
55.48816539538358
 20
209.2849822537745
 30
0.0
 10
55.25392095099746
 20
209.6680989203455
 30
0.0
 10
54.84681539554385
 20
209.8804711425146
 30
0.0
 10
54.42207095120568
 20
209.8822350314031
 30
0.0
 10
54.09892650684197
 20
209.8822350314031
 30
0.0
 10
53.80470984024891
 20
209.7598211425449
 30
0.0
 10
53.58422372919292
 20
209.5597961425945
 30
0.0
  0
LWPOLYLINE
  5
151
330
70
100
AcDbEntity
  8
Standardebene
 62
     7
370
    35
100
AcDbPolyline
 90
       20
 70
     0
 43
0.0
 10
70.13585150283268
 20
202.0089405889268
 10
70.13585150283268
 20
201.89852114451
 10
70.13585150283268
 20
201.5697322557034
 10
70.13585150283268
 20
201.0320989225046
 10
70.13585150283268
 20
200.300790589354
 10
70.13585150283268
 20
199.3941517006916
 10
70.13585150283268
 20
198.3386405898446
 10
70.13585150283268
 20
197.161773923472
 10
70.13585150283268
 20
195.8963600348994
 10
70.13585150283268
 20
194.5766183685626
 10
70.13585150283268
 20
193.2385322577862
 10
70.13585150283268
 20
191.9187905914494
 10
70.13585150283268
 20
190.6533767028767
 10
70.13585150283268
 20
189.4768628142823
 10
70.13585150283268
 20
188.4206461478795
 10
70.13585150283268
 20
187.5143600369951
 10
70.13585150283268
 20
186.782346148289
 10
70.13585150283268
 20
186.2454183706454
 10
70.13585150283268
 20
185.9169822596166
 10
70.13585150283268
 20
185.8065628151997
  0
LWPOLYLINE
  5
152
330
70
100
AcDbEntity
  8
Standardebene
 62
     7
370
    35
100
AcDbPolyline
 90
       22
 70
     0
 43
0.0
 10
58.11036261695026
 20
184.1160517045111
 10
58.11036261695026
 20
184.2257655933727
 10
58.11036261695026
 20
184.5513794821802
 10
58.11036261695026
 20
185.08583781538
 10
58.11036261695026
 20
185.8178517040858
 10
58.11036261695026
 20
186.7297822594134
 10
58.11036261695026
 20
187.8029322591449
 10
58.11036261695026
 20
189.0119017032873
 10
58.11036261695026
 20
190.3302322585133
 10
58.11036261695026
 20
191.7289961470526
 10
58.11036261695026
 20
193.1760905911352
 10
58.11036261695026
 20
194.6394128129917
 10
58.11036261695026
 20
196.0865072570743
 10
58.11036261695026
 20
197.4849183678357
 10
58.11036261695026
 20
198.8032489230618
 10
58.11036261695026
 20
200.0125711449816
 10
58.11036261695026
 20
201.0846628113802
 10
58.11036261695026
 20
201.997298922263
 10
58.11036261695026
 20
202.7293128109691
 10
58.11036261695026
 20
203.2637711441686
 10
58.11036261695026
 20
203.5893850329764
 10
58.11036261695026
 20
203.6983933662822
  0
SPLINE
  5
153
330
70
100
AcDbEntity
  8
Standardebene
 62
     7
370
    35
100
AcDbSpline
210
0.0
220
0.0
230
1.0
 70
     8
 71
     3
 72
     8
 73
     4
 74
     0
 42
0.0000000001
 43
0.0000000001
 40
0.0
 40
0.0
 40
0.0
 40
0.0
 40
1.0
 40
1.0
 40
1.0
 40
1.0
 10
58.11036261695026
 20
184.2074211489327
 30
0.0
 10
58.11036261695026
 20
184.3178405933496
 30
0.0
 10
58.02110983919457
 20
184.4074461488827
 30
0.0
 10
57.91069039477801
 20
184.4074461488827
 30
0.0
  0
SPLINE
  5
154
330
70
100
AcDbEntity
  8
Standardebene
 62
     7
370
    35
100
AcDbSpline
210
0.0
220
0.0
230
1.0
 70
     8
 71
     3
 72
     8
 73
     4
 74
     0
 42
0.0000000001
 43
0.0000000001
 40
0.0
 40
0.0
 40
0.0
 40
0.0
 40
1.0
 40
1.0
 40
1.0
 40
1.0
 10
57.91069039477801
 20
203.4077044774661
 30
0.0
 10
58.02110983919457
 20
203.4077044774661
 30
0.0
 10
58.11036261695026
 20
203.4969572552215
 30
0.0
 10
58.11036261695026
 20
203.6077294774161
 30
0.0
  0
SPLINE
  5
155
330
70
100
AcDbEntity
  8
Standardebene
 62
     7
370
    35
100
AcDbSpline
210
0.0
220
0.0
230
1.0
 70
     8
 71
     3
 72
     8
 73
     4
 74
     0
 42
0.0000000001
 43
0.0000000001
 40
0.0
 40
0.0
 40
0.0
 40
0.0
 40
1.0
 40
1.0
 40
1.0
 40
1.0
 10
56.31049039517804
 20
184.4074461488827
 30
0.0
 10
56.20042372853894
 20
184.4074461488827
 30
0.0
 10
56.11046539522805
 20
184.3178405933496
 30
0.0
 10
56.11046539522805
 20
184.2074211489327
 30
0.0
  0
SPLINE
  5
156
330
70
100
AcDbEntity
  8
Standardebene
 62
     7
370
    35
100
AcDbSpline
210
0.0
220
0.0
230
1.0
 70
     8
 71
     3
 72
     8
 73
     4
 74
     0
 42
0.0000000001
 43
0.0000000001
 40
0.0
 40
0.0
 40
0.0
 40
0.0
 40
1.0
 40
1.0
 40
1.0
 40
1.0
 10
56.11046539522805
 20
203.6077294774161
 30
0.0
 10
56.11046539522805
 20
203.4969572552215
 30
0.0
 10
56.20042372853894
 20
203.4077044774661
 30
0.0
 10
56.31049039517804
 20
203.4077044774661
 30
0.0
  0
SPLINE
  5
157
330
70
100
AcDbEntity
  8
Standardebene
 62
     7
370
    35
100
AcDbSpline
210
0.0
220
0.0
230
1.0
 70
     8
 71
     3
 72
     8
 73
     4
 74
     0
 42
0.0000000001
 43
0.0000000001
 40
0.0
 40
0.0
 40
0.0
 40
0.0
 40
1.0
 40
1.0
 40
1.0
 40
1.0
 10
70.91090428041673
 20
186.4073433706049
 30
0.0
 10
70.5397820582874
 20
186.4073433706049
 30
0.0
 10
70.22757372503204
 20
186.1544017040016
 30
0.0
 10
70.13585150283268
 20
185.8065628151997
 30
0.0
  0
SPLINE
  5
158
330
70
100
AcDbEntity
  8
Standardebene
 62
     7
370
    35
100
AcDbSpline
210
0.0
220
0.0
230
1.0
 70
     8
 71
     3
 72
     8
 73
     4
 74
     0
 42
0.0000000001
 43
0.0000000001
 40
0.0
 40
0.0
 40
0.0
 40
0.0
 40
1.0
 40
1.0
 40
1.0
 40
1.0
 10
70.13585150283268
 20
202.0089405889268
 30
0.0
 10
70.22827928058724
 20
201.6494600334614
 30
0.0
 10
70.55071816939577
 20
201.4099239224102
 30
0.0
 10
70.91090428041673
 20
201.4074544779662
 30
0.0
  0
LWPOLYLINE
  5
159
330
70
100
AcDbEntity
  8
Standardebene
 62
     7
370
    35
100
AcDbPolyline
 90
       20
 70
     0
 43
0.0
 10
75.61096261257516
 20
201.9073405889524
 10
75.61096261257516
 20
201.7986850334237
 10
75.61096261257516
 20
201.4741294779496
 10
75.61096261257516
 20
200.9435517003045
 10
75.61096261257516
 20
200.2207100338185
 10
75.61096261257516
 20
199.32571281182
 10
75.61096261257516
 20
198.2829017009695
 10
75.61096261257516
 20
197.12085170126
 10
75.61096261257516
 20
195.8713128126834
 10
75.61096261257516
 20
194.5681517018983
 10
75.61096261257516
 20
193.2469989244508
 10
75.61096261257516
 20
191.9434850358876
 10
75.61096261257516
 20
190.6939461473113
 10
75.61096261257516
 20
189.5322489253793
 10
75.61096261257516
 20
188.4894378145288
 10
75.61096261257516
 20
187.5940878147528
 10
75.61096261257516
 20
186.8715989260446
 10
75.61096261257516
 20
186.3410211483995
 10
75.61096261257516
 20
186.0168183707025
 10
75.61096261257516
 20
185.9078100373967
  0
LWPOLYLINE
  5
15A
330
70
100
AcDbEntity
  8
Standardebene
 62
     7
370
    35
100
AcDbPolyline
 90
       20
 70
     0
 43
0.0
 10
72.05249316902018
 20
185.9078100373967
 10
72.05249316902018
 20
186.0168183707025
 10
72.05249316902018
 20
186.3410211483995
 10
72.05249316902018
 20
186.8715989260446
 10
72.05249316902018
 20
187.5940878147528
 10
72.05249316902018
 20
188.4894378145288
 10
72.05249316902018
 20
189.5322489253793
 10
72.05249316902018
 20
190.6939461473113
 10
72.05249316902018
 20
191.9434850358876
 10
72.05249316902018
 20
193.2469989244508
 10
72.05249316902018
 20
194.5681517018983
 10
72.05249316902018
 20
195.8713128126834
 10
72.05249316902018
 20
197.12085170126
 10
72.05249316902018
 20
198.2829017009695
 10
72.05249316902018
 20
199.32571281182
 10
72.05249316902018
 20
200.2207100338185
 10
72.05249316902018
 20
200.9435517003045
 10
72.05249316902018
 20
201.4741294779496
 10
72.05249316902018
 20
201.7986850334237
 10
72.05249316902018
 20
201.9073405889524
  0
LWPOLYLINE
  5
15B
330
70
100
AcDbEntity
  8
Standardebene
 62
     7
370
    35
100
AcDbPolyline
 90
       20
 70
     0
 43
0.0
 10
76.81075983449739
 20
201.6956739223386
 10
76.81075983449739
 20
201.5898405890316
 10
76.81075983449739
 20
201.2741044779996
 10
76.81075983449739
 20
200.7572850336843
 10
76.81075983449739
 20
200.0534933671936
 10
76.81075983449739
 20
199.1821322563002
 10
76.81075983449739
 20
198.1675433676649
 10
76.81075983449739
 20
197.0361850346146
 10
76.81075983449739
 20
195.8194544793631
 10
76.81075983449739
 20
194.5508655907915
 10
76.81075983449739
 20
193.2642850355576
 10
76.81075983449739
 20
191.995343369208
 10
76.81075983449739
 20
190.7789655917344
 10
76.81075983449739
 20
189.6479600364616
 10
76.81075983449739
 20
188.6323128144933
 10
76.81075983449739
 20
187.7616572591555
 10
76.81075983449739
 20
187.0578655926648
 10
76.81075983449739
 20
186.5410461483495
 10
76.81075983449739
 20
186.2253100373172
 10
76.81075983449739
 20
186.118771148455
  0
SPLINE
  5
15C
330
70
100
AcDbEntity
  8
Standardebene
 62
     7
370
    35
100
AcDbSpline
210
0.0
220
0.0
230
1.0
 70
     8
 71
     3
 72
     8
 73
     4
 74
     0
 42
0.0000000001
 43
0.0000000001
 40
0.0
 40
0.0
 40
0.0
 40
0.0
 40
1.0
 40
1.0
 40
1.0
 40
1.0
 10
72.05249316902018
 20
185.9078100373967
 30
0.0
 10
71.92690428016277
 20
186.2168433706528
 30
0.0
 10
71.63021816912571
 20
186.4052267039389
 30
0.0
 10
71.31060150253897
 20
186.4073433706049
 30
0.0
  0
SPLINE
  5
15D
330
70
100
AcDbEntity
  8
Standardebene
 62
     7
370
    35
100
AcDbSpline
210
0.0
220
0.0
230
1.0
 70
     8
 71
     3
 72
     8
 73
     4
 74
     0
 42
0.0000000001
 43
0.0000000001
 40
0.0
 40
0.0
 40
0.0
 40
0.0
 40
1.0
 40
1.0
 40
1.0
 40
1.0
 10
71.31060150253897
 20
201.4074544779662
 30
0.0
 10
71.64468205801104
 20
201.4074544779662
 30
0.0
 10
71.93043205793974
 20
201.6120655890261
 30
0.0
 10
72.05249316902018
 20
201.9073405889524
 30
0.0
  0
SPLINE
  5
15E
330
70
100
AcDbEntity
  8
Standardebene
 62
     7
370
    35
100
AcDbSpline
210
0.0
220
0.0
230
1.0
 70
     8
 71
     3
 72
    11
 73
     7
 74
     0
 42
0.0000000001
 43
0.0000000001
 40
0.0
 40
0.0
 40
0.0
 40
0.0
 40
1.0
 40
1.0
 40
1.0
 40
2.0
 40
2.0
 40
2.0
 40
2.0
 10
76.81075983449739
 20
186.118771148455
 30
0.0
 10
76.99314594556283
 20
185.9917711484866
 30
0.0
 10
77.20269594551047
 20
185.9317989262794
 30
0.0
 10
77.40589594545967
 20
185.9321517040571
 30
0.0
 10
77.78936538980808
 20
185.9321517040571
 30
0.0
 10
78.12450427861344
 20
186.1395850373385
 30
0.0
 10
78.30830150078963
 20
186.4532044817046
 30
0.0
  0
SPLINE
  5
15F
330
70
100
AcDbEntity
  8
Standardebene
 62
     7
370
    35
100
AcDbSpline
210
0.0
220
0.0
230
1.0
 70
     8
 71
     3
 72
    11
 73
     7
 74
     0
 42
0.0000000001
 43
0.0000000001
 40
0.0
 40
0.0
 40
0.0
 40
0.0
 40
1.0
 40
1.0
 40
1.0
 40
2.0
 40
2.0
 40
2.0
 40
2.0
 10
78.30830150078963
 20
201.3612405890887
 30
0.0
 10
78.11603761194878
 20
201.6935572556726
 30
0.0
 10
77.7689042787021
 20
201.8801767000702
 30
0.0
 10
77.40589594545967
 20
201.8822933667365
 30
0.0
 10
77.18294038995967
 20
201.8822933667365
 30
0.0
 10
76.97691816778903
 20
201.8124433667539
 30
0.0
 10
76.81075983449739
 20
201.6956739223386
 30
0.0
  0
LWPOLYLINE
  5
160
330
70
100
AcDbEntity
  8
Standardebene
 62
     7
370
    35
100
AcDbPolyline
 90
       19
 70
     0
 43
0.0
 10
78.61098483404735
 20
200.8373655892198
 10
78.61098483404735
 20
200.7318850336906
 10
78.61098483404735
 20
200.4196767004352
 10
78.61098483404735
 20
199.9092072561183
 10
78.61098483404735
 20
199.2159989229586
 10
78.61098483404735
 20
198.3622767009498
 10
78.61098483404735
 20
197.3723822567527
 10
78.61098483404735
 20
196.2777128125818
 10
78.61098483404735
 20
195.1110767017624
 10
78.61098483404735
 20
193.9073989242855
 10
78.61098483404735
 20
192.7044267023641
 10
78.61098483404735
 20
191.5374378137669
 10
78.61098483404735
 20
190.4424155918184
 10
78.61098483404735
 20
189.4532267031767
 10
78.61098483404735
 20
188.5987989256127
 10
78.61098483404735
 20
187.9059433702304
 10
78.61098483404735
 20
187.3954739259135
 10
78.61098483404735
 20
187.082560037103
 10
78.61098483404735
 20
186.9774322593513
  0
LWPOLYLINE
  5
161
330
70
100
AcDbEntity
  8
Standardebene
 62
     7
370
    35
100
AcDbPolyline
 90
        7
 70
     0
 43
0.0
 10
24.61058484754741
 20
209.907282253619
 10
23.58647095891446
 20
209.907282253619
 10
22.76273484800927
 20
209.907282253619
 10
22.44594040364397
 20
209.907282253619
 10
22.20852095925896
 20
209.907282253619
 10
22.06282373707332
 20
209.907282253619
 10
22.0123765148637
 20
209.907282253619
  0
LWPOLYLINE
  5
162
330
70
100
AcDbEntity
  8
Standardebene
 62
     7
370
    35
100
AcDbPolyline
 90
        7
 70
     0
 43
0.0
 10
22.0123765148637
 20
177.9075155949524
 10
22.20781540370344
 20
177.9075155949524
 10
22.75744318134381
 20
177.9075155949524
 10
23.14232373680327
 20
177.9075155949524
 10
23.58470707002597
 20
177.9075155949524
 10
24.07647929212533
 20
177.9075155949524
 10
24.61058484754741
 20
177.9075155949524
  0
LWPOLYLINE
  5
163
330
70
100
AcDbEntity
  8
Standardebene
 62
     7
370
    35
100
AcDbPolyline
 90
       19
 70
     0
 43
0.0
 10
42.26570150980039
 20
188.3398600367888
 10
41.80603206547058
 20
188.9289989255301
 10
41.39045984335229
 20
189.5502405920416
 10
41.02251262122218
 20
190.2060544807664
 10
40.70712928796761
 20
190.8992628139264
 10
40.45171817692029
 20
191.6210461470794
 10
40.26509873252266
 20
192.3636433691158
 10
40.14974039921809
 20
193.128465591147
 10
40.11093484367235
 20
193.9073989242855
 10
40.14903484366288
 20
194.6817461463144
 10
40.26333484363418
 20
195.4402183683469
 10
40.3472959547244
 20
195.8134572571424
 10
40.4492487324766
 20
196.1835211459388
 10
40.56813484355783
 20
196.549351701403
 10
40.70360151019063
 20
196.908479479091
 10
41.01757373233448
 20
197.5992183678071
 10
41.38552095446459
 20
198.2567961454206
 10
41.8035626210269
 20
198.8829767008195
 10
42.26570150980039
 20
199.4749378117825
  0
LWPOLYLINE
  5
164
330
70
100
AcDbEntity
  8
Standardebene
 62
     7
370
    35
100
AcDbPolyline
 90
        5
 70
     0
 43
0.0
 10
53.58422372919292
 20
198.3781517009458
 10
53.09985984042494
 20
198.6688405897619
 10
52.60879317388111
 20
198.9475350341367
 10
52.11208206289406
 20
199.2156461451808
 10
51.61078484079737
 20
199.4749378117825
  0
LWPOLYLINE
  5
165
330
70
100
AcDbEntity
  8
Standardebene
 62
     7
370
    35
100
AcDbPolyline
 90
       27
 70
     0
 43
0.0
 10
55.48816539538358
 20
190.5200267029102
 10
55.58306261758216
 20
191.3666933693654
 10
55.65150150645377
 20
192.213712813598
 10
55.69242372866575
 20
193.0607322578307
 10
55.70618206199556
 20
193.9073989242855
 10
55.69242372866575
 20
194.7544183685181
 10
55.65150150645377
 20
195.6014378127511
 10
55.58306261758216
 20
196.448104479206
 10
55.48816539538358
 20
197.2954767012164
 10
55.41020150651402
 20
197.7773711455403
 10
55.29872372876418
 20
198.2522100343107
 10
55.22534595100488
 20
198.4857489231409
 10
55.1360931732492
 20
198.7136433675283
 10
55.02673206216561
 20
198.9323655896961
 10
54.88950150664432
 20
199.1338017007569
 10
54.71205428446656
 20
199.3038405896032
 10
54.48909872896656
 20
199.3976794784685
 10
54.36597928455285
 20
199.3987378118018
 10
54.24815150680458
 20
199.3676933673649
 10
54.14055428460915
 20
199.3087794784909
 10
54.04495150685537
 20
199.2311683673991
 10
53.96169595132068
 20
199.1412100340883
 10
53.88796539578361
 20
199.043843367446
 10
53.82270150691089
 20
198.9408322563605
 10
53.76484595136989
 20
198.8328822563876
 10
53.66500984028362
 20
198.6095739231102
 10
53.58422372919292
 20
198.3781517009458
  0
LWPOLYLINE
  5
166
330
70
100
AcDbEntity
  8
Standardebene
 62
     7
370
    35
100
AcDbPolyline
 90
       19
 70
     0
 43
0.0
 10
53.58422372919292
 20
189.4366461476255
 10
53.66500984028362
 20
189.2055767032389
 10
53.76414039581437
 20
188.9822683699615
 10
53.88867095133882
 20
188.7695433700146
 10
54.04706817352162
 20
188.5818655922837
 10
54.14302372905317
 20
188.5049600367474
 10
54.25097372902603
 20
188.4467517034287
 10
54.36950706232981
 20
188.4153544812143
 10
54.49262650674354
 20
188.4174711478802
 10
54.6104542844918
 20
188.4538072589823
 10
54.7173459511317
 20
188.5151905923003
 10
54.81118483999732
 20
188.5949183700583
 10
54.89373483997649
 20
188.6859350367022
 10
55.03025983994226
 20
188.8884294810958
 10
55.13891539547097
 20
189.1082100365966
 10
55.22710983989337
 20
189.3343405920955
 10
55.29907650654195
 20
189.5654100364821
 10
55.41020150651402
 20
190.0381322585862
 10
55.48816539538358
 20
190.5200267029102
  0
LWPOLYLINE
  5
167
330
70
100
AcDbEntity
  8
Standardebene
 62
     7
370
    35
100
AcDbPolyline
 90
        5
 70
     0
 43
0.0
 10
51.61078484079737
 20
188.3398600367888
 10
52.11208206289406
 20
188.5995044811683
 10
52.60879317388111
 20
188.8679683699899
 10
53.09985984042494
 20
189.1463100365868
 10
53.58422372919292
 20
189.4366461476255
  0
SPLINE
  5
168
330
70
100
AcDbEntity
  8
Standardebene
 62
     7
370
    35
100
AcDbSpline
210
0.0
220
0.0
230
1.0
 70
     8
 71
     3
 72
    11
 73
     7
 74
     0
 42
0.0000000001
 43
0.0000000001
 40
0.0
 40
0.0
 40
0.0
 40
0.0
 40
1.0
 40
1.0
 40
1.0
 40
2.0
 40
2.0
 40
2.0
 40
2.0
 10
151.1254610507945
 20
193.9073989242855
 30
0.0
 10
151.1254610507945
 20
195.0669794795513
 30
0.0
 10
150.184955495474
 20
196.0078378126495
 30
0.0
 10
149.025727717986
 20
196.0078378126495
 30
0.0
 10
147.8657943849428
 20
196.0078378126495
 30
0.0
 10
146.9252888296223
 20
195.0669794795513
 30
0.0
 10
146.9252888296223
 20
193.9073989242855
 30
0.0
  0
SPLINE
  5
169
330
70
100
AcDbEntity
  8
Standardebene
 62
     7
370
    35
100
AcDbSpline
210
0.0
220
0.0
230
1.0
 70
     9
 71
     3
 72
    17
 73
    13
 74
     0
 42
0.0000000001
 43
0.0000000001
 40
0.0
 40
0.0
 40
0.0
 40
0.0
 40
1.0
 40
1.0
 40
1.0
 40
2.0
 40
2.0
 40
2.0
 40
3.0
 40
3.0
 40
3.0
 40
4.0
 40
4.0
 40
4.0
 40
4.0
 10
151.0753666063626
 20
193.9073989242855
 30
0.0
 10
151.0753666063626
 20
195.0398155906691
 30
0.0
 10
150.1574388288144
 20
195.9573905904399
 30
0.0
 10
149.025727717986
 20
195.9573905904399
 30
0.0
 10
147.892958273825
 20
195.9573905904399
 30
0.0
 10
146.9753832740542
 20
195.0398155906691
 30
0.0
 10
146.9753832740542
 20
193.9073989242855
 30
0.0
 10
146.9753832740542
 20
192.7753350356797
 30
0.0
 10
147.892958273825
 20
191.8577600359092
 30
0.0
 10
149.025727717986
 20
191.8577600359092
 30
0.0
 10
150.1574388288144
 20
191.8577600359092
 30
0.0
 10
151.0753666063626
 20
192.7753350356797
 30
0.0
 10
151.0753666063626
 20
193.9073989242855
 30
0.0
  0
SPLINE
  5
16A
330
70
100
AcDbEntity
  8
Standardebene
 62
     7
370
    35
100
AcDbSpline
210
0.0
220
0.0
230
1.0
 70
     9
 71
     3
 72
    17
 73
    13
 74
     0
 42
0.0000000001
 43
0.0000000001
 40
0.0
 40
0.0
 40
0.0
 40
0.0
 40
1.0
 40
1.0
 40
1.0
 40
2.0
 40
2.0
 40
2.0
 40
3.0
 40
3.0
 40
3.0
 40
4.0
 40
4.0
 40
4.0
 40
4.0
 10
150.3253610509945
 20
193.9073989242855
 30
0.0
 10
150.3253610509945
 20
194.6256544796615
 30
0.0
 10
149.7436304955846
 20
195.2077378128495
 30
0.0
 10
149.025727717986
 20
195.2077378128495
 30
0.0
 10
148.3071193848326
 20
195.2077378128495
 30
0.0
 10
147.7253888294223
 20
194.6256544796615
 30
0.0
 10
147.7253888294223
 20
193.9073989242855
 30
0.0
 10
147.7253888294223
 20
193.1894961466873
 30
0.0
 10
148.3071193848326
 20
192.6077655912773
 30
0.0
 10
149.025727717986
 20
192.6077655912773
 30
0.0
 10
149.7436304955846
 20
192.6077655912773
 30
0.0
 10
150.3253610509945
 20
193.1894961466873
 30
0.0
 10
150.3253610509945
 20
193.9073989242855
 30
0.0
  0
SPLINE
  5
16B
330
70
100
AcDbEntity
  8
Standardebene
 62
     7
370
    35
100
AcDbSpline
210
0.0
220
0.0
230
1.0
 70
     8
 71
     3
 72
    11
 73
     7
 74
     0
 42
0.0000000001
 43
0.0000000001
 40
0.0
 40
0.0
 40
0.0
 40
0.0
 40
1.0
 40
1.0
 40
1.0
 40
2.0
 40
2.0
 40
2.0
 40
2.0
 10
146.9252888296223
 20
193.9073989242855
 30
0.0
 10
146.9252888296223
 20
192.7474655912423
 30
0.0
 10
147.8657943849428
 20
191.8073128136996
 30
0.0
 10
149.025727717986
 20
191.8073128136996
 30
0.0
 10
150.184955495474
 20
191.8073128136996
 30
0.0
 10
151.1254610507945
 20
192.7474655912423
 30
0.0
 10
151.1254610507945
 20
193.9073989242855
 30
0.0
  0
SPLINE
  5
16C
330
70
100
AcDbEntity
  8
Standardebene
 62
     7
370
    35
100
AcDbSpline
210
0.0
220
0.0
230
1.0
 70
     9
 71
     3
 72
    17
 73
    13
 74
     0
 42
0.0000000001
 43
0.0000000001
 40
0.0
 40
0.0
 40
0.0
 40
0.0
 40
1.0
 40
1.0
 40
1.0
 40
2.0
 40
2.0
 40
2.0
 40
3.0
 40
3.0
 40
3.0
 40
4.0
 40
4.0
 40
4.0
 40
4.0
 10
150.2756193843404
 20
193.9073989242855
 30
0.0
 10
150.2756193843404
 20
194.5977850352242
 30
0.0
 10
149.7157610511469
 20
195.1572905906399
 30
0.0
 10
149.025727717986
 20
195.1572905906399
 30
0.0
 10
148.3353416070477
 20
195.1572905906399
 30
0.0
 10
147.7754832738542
 20
194.5977850352242
 30
0.0
 10
147.7754832738542
 20
193.9073989242855
 30
0.0
 10
147.7754832738542
 20
193.2170128133472
 30
0.0
 10
148.3353416070477
 20
192.6571544801537
 30
0.0
 10
149.025727717986
 20
192.6571544801537
 30
0.0
 10
149.7157610511469
 20
192.6571544801537
 30
0.0
 10
150.2756193843404
 20
193.2170128133472
 30
0.0
 10
150.2756193843404
 20
193.9073989242855
 30
0.0
  0
SPLINE
  5
16D
330
70
100
AcDbEntity
  8
Standardebene
 62
     7
370
    35
100
AcDbSpline
210
0.0
220
0.0
230
1.0
 70
     9
 71
     3
 72
    17
 73
    13
 74
     0
 42
0.0000000001
 43
0.0000000001
 40
0.0
 40
0.0
 40
0.0
 40
0.0
 40
1.0
 40
1.0
 40
1.0
 40
2.0
 40
2.0
 40
2.0
 40
3.0
 40
3.0
 40
3.0
 40
4.0
 40
4.0
 40
4.0
 40
4.0
 10
162.2757082702291
 20
193.9073989242855
 30
0.0
 10
162.2757082702291
 20
201.2254211446781
 30
0.0
 10
156.3430443828234
 20
207.1577322543064
 30
0.0
 10
149.025727717986
 20
207.1577322543064
 30
0.0
 10
141.7077054975934
 20
207.1577322543064
 30
0.0
 10
135.7753943879654
 20
201.2254211446781
 30
0.0
 10
135.7753943879654
 20
193.9073989242855
 30
0.0
 10
135.7753943879654
 20
186.5900822594481
 30
0.0
 10
141.7077054975934
 20
180.6574183720427
 30
0.0
 10
149.025727717986
 20
180.6574183720427
 30
0.0
 10
156.3430443828234
 20
180.6574183720427
 30
0.0
 10
162.2757082702291
 20
186.5900822594481
 30
0.0
 10
162.2757082702291
 20
193.9073989242855
 30
0.0
  0
SPLINE
  5
16E
330
70
100
AcDbEntity
  8
Standardebene
 62
     7
370
    35
100
AcDbSpline
210
0.0
220
0.0
230
1.0
 70
     9
 71
     3
 72
    17
 73
    13
 74
     0
 42
0.0000000001
 43
0.0000000001
 40
0.0
 40
0.0
 40
0.0
 40
0.0
 40
1.0
 40
1.0
 40
1.0
 40
2.0
 40
2.0
 40
2.0
 40
3.0
 40
3.0
 40
3.0
 40
4.0
 40
4.0
 40
4.0
 40
4.0
 10
164.7931304918222
 20
193.9073989242855
 30
0.0
 10
164.7931304918222
 20
202.6160711443308
 30
0.0
 10
157.7336943824758
 20
209.6751544758994
 30
0.0
 10
149.025727717986
 20
209.6751544758994
 30
0.0
 10
140.3170554979411
 20
209.6751544758994
 30
0.0
 10
133.257619388595
 20
202.6160711443308
 30
0.0
 10
133.257619388595
 20
193.9073989242855
 30
0.0
 10
133.257619388595
 20
185.1994322597961
 30
0.0
 10
140.3170554979411
 20
178.1392905948942
 30
0.0
 10
149.025727717986
 20
178.1392905948942
 30
0.0
 10
157.7336943824758
 20
178.1392905948942
 30
0.0
 10
164.7931304918222
 20
185.1994322597961
 30
0.0
 10
164.7931304918222
 20
193.9073989242855
 30
0.0
  0
SPLINE
  5
16F
330
70
100
AcDbEntity
  8
Standardebene
 62
     7
370
    35
100
AcDbSpline
210
0.0
220
0.0
230
1.0
 70
     9
 71
     3
 72
    17
 73
    13
 74
     0
 42
0.0000000001
 43
0.0000000001
 40
0.0
 40
0.0
 40
0.0
 40
0.0
 40
1.0
 40
1.0
 40
1.0
 40
2.0
 40
2.0
 40
2.0
 40
3.0
 40
3.0
 40
3.0
 40
4.0
 40
4.0
 40
4.0
 40
4.0
 10
166.5256221580557
 20
193.9073989242855
 30
0.0
 10
166.5256221580557
 20
203.572451699647
 30
0.0
 10
158.6900749377923
 20
211.4072933643552
 30
0.0
 10
149.025727717986
 20
211.4072933643552
 30
0.0
 10
139.3603221648471
 20
211.4072933643552
 30
0.0
 10
131.5251277223614
 20
203.572451699647
 30
0.0
 10
131.5251277223614
 20
193.9073989242855
 30
0.0
 10
131.5251277223614
 20
184.2426989267018
 30
0.0
 10
139.3603221648471
 20
176.4071517064384
 30
0.0
 10
149.025727717986
 20
176.4071517064384
 30
0.0
 10
158.6900749377923
 20
176.4071517064384
 30
0.0
 10
166.5256221580557
 20
184.2426989267018
 30
0.0
 10
166.5256221580557
 20
193.9073989242855
 30
0.0
  0
SPLINE
  5
170
330
70
100
AcDbEntity
  8
Standardebene
 62
     7
370
    35
100
AcDbSpline
210
0.0
220
0.0
230
1.0
 70
     9
 71
     3
 72
    17
 73
    13
 74
     0
 42
0.0000000001
 43
0.0000000001
 40
0.0
 40
0.0
 40
0.0
 40
0.0
 40
1.0
 40
1.0
 40
1.0
 40
2.0
 40
2.0
 40
2.0
 40
3.0
 40
3.0
 40
3.0
 40
4.0
 40
4.0
 40
4.0
 40
4.0
 10
174.025677711736
 20
193.9073989242855
 30
0.0
 10
174.025677711736
 20
207.7144155875004
 30
0.0
 10
162.8320388256457
 20
218.9077016958133
 30
0.0
 10
149.025727717986
 20
218.9077016958133
 30
0.0
 10
135.2183582769937
 20
218.9077016958133
 30
0.0
 10
124.0250721686808
 20
207.7144155875004
 30
0.0
 10
124.0250721686808
 20
193.9073989242855
 30
0.0
 10
124.0250721686808
 20
180.1007350388484
 30
0.0
 10
135.2183582769937
 20
168.9078017083133
 30
0.0
 10
149.025727717986
 20
168.9078017083133
 30
0.0
 10
162.8320388256457
 20
168.9078017083133
 30
0.0
 10
174.025677711736
 20
180.1007350388484
 30
0.0
 10
174.025677711736
 20
193.9073989242855
 30
0.0
  0
SPLINE
  5
171
330
70
100
AcDbEntity
  8
Standardebene
 62
     7
370
    35
100
AcDbSpline
210
0.0
220
0.0
230
1.0
 70
    11
 71
     3
 72
    17
 73
    13
 74
     0
 42
0.0000000001
 43
0.0000000001
 40
0.0
 40
0.0
 40
0.0
 40
0.0
 40
1.0
 40
1.0
 40
1.0
 40
2.0
 40
2.0
 40
2.0
 40
3.0
 40
3.0
 40
3.0
 40
4.0
 40
4.0
 40
4.0
 40
4.0
 10
151.5255110506945
 20
193.9073989242855
 30
0.0
 10
151.5255110506945
 20
195.2881711461628
 30
0.0
 10
150.4061471620855
 20
196.407182256994
 30
0.0
 10
149.025727717986
 20
196.407182256994
 30
0.0
 10
147.6449554961091
 20
196.407182256994
 30
0.0
 10
146.5255916075001
 20
195.2881711461628
 30
0.0
 10
146.5255916075001
 20
193.9073989242855
 30
0.0
 10
146.5255916075001
 20
192.5266267024086
 30
0.0
 10
147.6449554961091
 20
191.4072628137996
 30
0.0
 10
149.025727717986
 20
191.4072628137996
 30
0.0
 10
150.4061471620855
 20
191.4072628137996
 30
0.0
 10
151.5255110506945
 20
192.5266267024086
 30
0.0
 10
151.5255110506945
 20
193.9073989242855
 30
0.0
  0
LWPOLYLINE
  5
172
330
70
100
AcDbEntity
  8
Standardebene
 62
     7
370
    35
100
AcDbPolyline
 90
        7
 70
     0
 43
0.0
 10
141.9366582753141
 20
177.9075155949524
 10
143.554849941576
 20
177.9075155949524
 10
145.2771110522568
 20
177.9075155949524
 10
146.1851610520296
 20
177.9075155949524
 10
147.1179054962409
 20
177.9075155949524
 10
148.0640554960043
 20
177.9075155949524
 10
149.025727717986
 20
177.9075155949524
  0
LWPOLYLINE
  5
173
330
70
100
AcDbEntity
  8
Standardebene
 62
     7
370
    35
100
AcDbPolyline
 90
        8
 70
     0
 43
0.0
 10
149.025727717986
 20
209.907282253619
 10
147.7490249405275
 20
209.907282253619
 10
146.5051304963941
 20
209.907282253619
 10
145.2915749411421
 20
209.907282253619
 10
144.4099832746956
 20
209.907282253619
 10
143.5597888304637
 20
209.907282253619
 10
142.7367582751141
 20
209.907282253619
 10
141.9366582753141
 20
209.907282253619
  0
LWPOLYLINE
  5
174
330
70
100
AcDbEntity
  8
Standardebene
 62
     7
370
    35
100
AcDbPolyline
 90
        7
 70
     0
 43
0.0
 10
156.1140916051031
 20
209.907282253619
 10
154.4958999388408
 20
209.907282253619
 10
152.7743443837156
 20
209.907282253619
 10
151.8652360506098
 20
209.907282253619
 10
150.9328443841762
 20
209.907282253619
 10
149.9870471621903
 20
209.907282253619
 10
149.025727717986
 20
209.907282253619
  0
LWPOLYLINE
  5
175
330
70
100
AcDbEntity
  8
Standardebene
 62
     7
370
    35
100
AcDbPolyline
 90
        7
 70
     0
 43
0.0
 10
149.025727717986
 20
177.9075155949524
 10
150.9275527175107
 20
177.9075155949524
 10
152.7591749392751
 20
177.9075155949524
 10
153.641119383499
 20
177.9075155949524
 10
154.4909610499531
 20
177.9075155949524
 10
155.3143443830809
 20
177.9075155949524
 10
156.1140916051031
 20
177.9075155949524
  0
LINE
  5
176
330
70
100
AcDbEntity
  8
Standardebene
 62
     7
370
    35
100
AcDbLine
 10
31.610401512464
 20
138.6981248263198
 30
0.0
 11
29.79959317958343
 21
131.9392553835649
 31
0.0
  0
LINE
  5
177
330
70
100
AcDbEntity
  8
Standardebene
 62
     7
370
    35
100
AcDbLine
 10
35.3604292893043
 20
88.69787206104204
 30
0.0
 11
37.11055984442241
 21
88.69787206104204
 31
0.0
  0
LINE
  5
178
330
70
100
AcDbEntity
  8
Standardebene
 62
     7
370
    35
100
AcDbLine
 10
37.11055984442241
 20
138.6981248263198
 30
0.0
 11
35.3604292893043
 21
138.6981248263198
 31
0.0
  0
LINE
  5
179
330
70
100
AcDbEntity
  8
Standardebene
 62
     7
370
    35
100
AcDbLine
 10
31.610401512464
 20
88.69787206104204
 30
0.0
 11
33.86077095634581
 21
88.69787206104204
 31
0.0
  0
LINE
  5
17A
330
70
100
AcDbEntity
  8
Standardebene
 62
     7
370
    35
100
AcDbLine
 10
29.79959317958343
 20
95.45638872601919
 30
0.0
 11
31.610401512464
 21
88.69787206104204
 31
0.0
  0
LINE
  5
17B
330
70
100
AcDbEntity
  8
Standardebene
 62
     7
370
    35
100
AcDbLine
 10
33.86077095634581
 20
138.6981248263198
 30
0.0
 11
31.610401512464
 21
138.6981248263198
 31
0.0
  0
LINE
  5
17C
330
70
100
AcDbEntity
  8
Standardebene
 62
     7
370
    35
100
AcDbLine
 10
24.61058484754741
 20
96.1975748369449
 30
0.0
 11
28.83368762426925
 21
96.1975748369449
 31
0.0
  0
LINE
  5
17D
330
70
100
AcDbEntity
  8
Standardebene
 62
     7
370
    35
100
AcDbLine
 10
27.61095984679735
 20
106.6091053898975
 30
0.0
 11
24.61058484754741
 21
106.6091053898975
 31
0.0
  0
LINE
  5
17E
330
70
100
AcDbEntity
  8
Standardebene
 62
     7
370
    35
100
AcDbLine
 10
28.83368762426925
 20
131.1980692726392
 30
0.0
 11
24.61058484754741
 21
131.1980692726392
 31
0.0
  0
LINE
  5
17F
330
70
100
AcDbEntity
  8
Standardebene
 62
     7
370
    35
100
AcDbLine
 10
27.61095984679735
 20
120.7868914974643
 30
0.0
 11
24.61058484754741
 21
120.7868914974643
 31
0.0
  0
LINE
  5
180
330
70
100
AcDbEntity
  8
Standardebene
 62
     7
370
    35
100
AcDbLine
 10
40.11093484367235
 20
129.6980581619032
 30
0.0
 11
39.06706539948862
 21
129.4183053841952
 31
0.0
  0
LINE
  5
181
330
70
100
AcDbEntity
  8
Standardebene
 62
     7
370
    35
100
AcDbLine
 10
21.61091540385266
 20
97.92971372540071
 30
0.0
 11
24.61058484754741
 21
96.1975748369449
 31
0.0
  0
LINE
  5
182
330
70
100
AcDbEntity
  8
Standardebene
 62
     7
370
    35
100
AcDbLine
 10
24.61058484754741
 20
131.1980692726392
 30
0.0
 11
21.61091540385266
 21
129.4655776064056
 31
0.0
  0
LINE
  5
183
330
70
100
AcDbEntity
  8
Standardebene
 62
     7
370
    35
100
AcDbLine
 10
51.61078484079737
 20
128.6975803843755
 30
0.0
 11
42.26570150980039
 21
128.6975803843755
 31
0.0
  0
LINE
  5
184
330
70
100
AcDbEntity
  8
Standardebene
 62
     7
370
    35
100
AcDbLine
 10
42.26570150980039
 20
98.69771094743114
 30
0.0
 11
51.61078484079737
 21
98.69771094743114
 31
0.0
  0
LINE
  5
185
330
70
100
AcDbEntity
  8
Standardebene
 62
     7
370
    35
100
AcDbLine
 10
39.06706539948862
 20
97.97769150316664
 30
0.0
 11
40.11093484367235
 21
97.69793872545861
 31
0.0
  0
LINE
  5
186
330
70
100
AcDbEntity
  8
Standardebene
 62
     7
370
    35
100
AcDbLine
 10
38.21052095525835
 20
97.99815261427262
 30
0.0
 11
38.91184317730534
 21
97.99815261427262
 31
0.0
  0
LINE
  5
187
330
70
100
AcDbEntity
  8
Standardebene
 62
     7
370
    35
100
AcDbLine
 10
38.91184317730534
 20
129.3978442730892
 30
0.0
 11
38.21052095525835
 21
129.3978442730892
 31
0.0
  0
LINE
  5
188
330
70
100
AcDbEntity
  8
Standardebene
 62
     7
370
    35
100
AcDbLine
 10
55.70618206199556
 20
98.69771094743114
 30
0.0
 11
56.11046539522805
 21
99.39797483614484
 31
0.0
  0
LINE
  5
189
330
70
100
AcDbEntity
  8
Standardebene
 62
     7
370
    35
100
AcDbLine
 10
56.11046539522805
 20
127.9976692734392
 30
0.0
 11
55.70618206199556
 21
128.6975803843755
 31
0.0
  0
LINE
  5
18A
330
70
100
AcDbEntity
  8
Standardebene
 62
     7
370
    35
100
AcDbLine
 10
70.13585150283268
 20
121.7993637194334
 30
0.0
 11
58.11036261695026
 21
123.4888164967887
 31
0.0
  0
LINE
  5
18B
330
70
100
AcDbEntity
  8
Standardebene
 62
     7
370
    35
100
AcDbLine
 10
58.11036261695026
 20
103.9064748350176
 30
0.0
 11
70.13585150283268
 21
105.5969859457062
 31
0.0
  0
LINE
  5
18C
330
70
100
AcDbEntity
  8
Standardebene
 62
     7
370
    35
100
AcDbLine
 10
57.91069039477801
 20
123.1977748301948
 30
0.0
 11
56.31049039517804
 21
123.1977748301948
 31
0.0
  0
LINE
  5
18D
330
70
100
AcDbEntity
  8
Standardebene
 62
     7
370
    35
100
AcDbLine
 10
56.31049039517804
 20
104.1978692793892
 30
0.0
 11
57.91069039477801
 21
104.1978692793892
 31
0.0
  0
LINE
  5
18E
330
70
100
AcDbEntity
  8
Standardebene
 62
     7
370
    35
100
AcDbLine
 10
72.05249316902018
 20
105.6975276123477
 30
0.0
 11
75.61096261257516
 21
105.6975276123477
 31
0.0
  0
LINE
  5
18F
330
70
100
AcDbEntity
  8
Standardebene
 62
     7
370
    35
100
AcDbLine
 10
75.61096261257516
 20
121.6977637194586
 30
0.0
 11
72.05249316902018
 21
121.6977637194586
 31
0.0
  0
LINE
  5
190
330
70
100
AcDbEntity
  8
Standardebene
 62
     7
370
    35
100
AcDbLine
 10
76.81075983449739
 20
121.4864498306228
 30
0.0
 11
75.61096261257516
 21
121.6977637194586
 31
0.0
  0
LINE
  5
191
330
70
100
AcDbEntity
  8
Standardebene
 62
     7
370
    35
100
AcDbLine
 10
75.61096261257516
 20
105.6975276123477
 30
0.0
 11
76.81075983449739
 21
105.9091942789613
 31
0.0
  0
LINE
  5
192
330
70
100
AcDbEntity
  8
Standardebene
 62
     7
370
    35
100
AcDbLine
 10
70.91090428041673
 20
106.1977665011114
 30
0.0
 11
71.31060150253897
 21
106.1977665011114
 31
0.0
  0
LINE
  5
193
330
70
100
AcDbEntity
  8
Standardebene
 62
     7
370
    35
100
AcDbLine
 10
71.31060150253897
 20
121.1975248306949
 30
0.0
 11
70.91090428041673
 21
121.1975248306949
 31
0.0
  0
LINE
  5
194
330
70
100
AcDbEntity
  8
Standardebene
 62
     7
370
    35
100
AcDbLine
 10
78.61098483404735
 20
120.6277887197263
 30
0.0
 11
78.30830150078963
 21
121.1516637195952
 31
0.0
  0
LINE
  5
195
330
70
100
AcDbEntity
  8
Standardebene
 62
     7
370
    35
100
AcDbLine
 10
78.30830150078963
 20
106.2436276122111
 30
0.0
 11
78.61098483404735
 21
106.7682081676355
 31
0.0
  0
SPLINE
  5
196
330
70
100
AcDbEntity
  8
Standardebene
 62
     7
370
    35
100
AcDbSpline
210
0.0
220
0.0
230
1.0
 70
     8
 71
     3
 72
     8
 73
     4
 74
     0
 42
0.0000000001
 43
0.0000000001
 40
0.0
 40
0.0
 40
0.0
 40
0.0
 40
1.0
 40
1.0
 40
1.0
 40
1.0
 10
37.11055984442241
 20
88.69787206104204
 30
0.0
 10
37.38713762213092
 20
88.69787206104204
 30
0.0
 10
37.61079873318613
 20
88.92153317209723
 30
0.0
 10
37.61079873318613
 20
89.19811094980575
 30
0.0
  0
LWPOLYLINE
  5
197
330
70
100
AcDbEntity
  8
Standardebene
 62
     7
370
    35
100
AcDbPolyline
 90
       18
 70
     0
 43
0.0
 10
37.61079873318613
 20
113.6981748325698
 10
37.61079873318613
 20
111.4375748331348
 10
37.61079873318613
 20
109.1960248336954
 10
37.61079873318613
 20
106.9929276120237
 10
37.61079873318613
 20
104.8476859458933
 10
37.61079873318613
 20
102.777585946411
 10
37.61079873318613
 20
100.8006192802385
 10
37.61079873318613
 20
98.93336650292766
 10
37.61079873318613
 20
97.192055392252
 10
37.61079873318613
 20
95.59220817042945
 10
37.61079873318613
 20
94.14652483745754
 10
37.61079873318613
 20
92.8677053933328
 10
37.61079873318613
 20
91.76633317138614
 10
37.61079873318613
 20
90.85228594939231
 10
37.61079873318613
 20
90.13297206068335
 10
37.61079873318613
 20
89.61509428303509
 10
37.61079873318613
 20
89.30253317200197
 10
37.61079873318613
 20
89.19811094980575
  0
LWPOLYLINE
  5
198
330
70
100
AcDbEntity
  8
Standardebene
 62
     7
370
    35
100
AcDbPolyline
 90
       18
 70
     0
 43
0.0
 10
31.610401512464
 20
138.6981248263198
 10
31.610401512464
 20
138.5912331596799
 10
31.610401512464
 20
138.2723220486483
 10
31.610401512464
 20
137.743155382114
 10
31.610401512464
 20
137.0097303822974
 10
31.610401512464
 20
136.0769859380861
 10
31.610401512464
 20
134.9533887161449
 10
31.610401512464
 20
133.6481109386932
 10
31.610401512464
 20
132.1727942723955
 10
31.610401512464
 20
130.5401387172482
 10
31.610401512464
 20
128.7635498288034
 10
31.610401512464
 20
126.8589026070572
 10
31.610401512464
 20
124.8413664964505
 10
31.610401512464
 20
122.7289331636455
 10
31.610401512464
 20
120.5392414975261
 10
31.610401512464
 20
118.291341498088
 10
31.610401512464
 20
116.0042831653264
 10
31.610401512464
 20
113.6981748325698
  0
SPLINE
  5
199
330
70
100
AcDbEntity
  8
Standardebene
 62
     7
370
    35
100
AcDbSpline
210
0.0
220
0.0
230
1.0
 70
     8
 71
     3
 72
     8
 73
     4
 74
     0
 42
0.0000000001
 43
0.0000000001
 40
0.0
 40
0.0
 40
0.0
 40
0.0
 40
1.0
 40
1.0
 40
1.0
 40
1.0
 10
37.61079873318613
 20
138.1978859375557
 30
0.0
 10
37.61079873318613
 20
138.4741109374868
 30
0.0
 10
37.38713762213092
 20
138.6981248263198
 30
0.0
 10
37.11055984442241
 20
138.6981248263198
 30
0.0
  0
LWPOLYLINE
  5
19A
330
70
100
AcDbEntity
  8
Standardebene
 62
     7
370
    35
100
AcDbPolyline
 90
       18
 70
     0
 43
0.0
 10
37.61079873318613
 20
138.1978859375557
 10
37.61079873318613
 20
138.0934637153599
 10
37.61079873318613
 20
137.780549826549
 10
37.61079873318613
 20
137.262319271123
 10
37.61079873318613
 20
136.5433581601918
 10
37.61079873318613
 20
135.6293109381979
 10
37.61079873318613
 20
134.5282914940287
 10
37.61079873318613
 20
133.249472049904
 10
37.61079873318613
 20
131.8037887169321
 10
37.61079873318613
 20
130.2035887173321
 10
37.61079873318613
 20
128.4626303844342
 10
37.61079873318613
 20
126.5957303849008
 10
37.61079873318613
 20
124.6184109409508
 10
37.61079873318613
 20
122.5483109414682
 10
37.61079873318613
 20
120.4027164975604
 10
37.61079873318613
 20
118.199619275889
 10
37.61079873318613
 20
115.958422054227
 10
37.61079873318613
 20
113.6981748325698
  0
LWPOLYLINE
  5
19B
330
70
100
AcDbEntity
  8
Standardebene
 62
     7
370
    35
100
AcDbPolyline
 90
       18
 70
     0
 43
0.0
 10
35.3604292893043
 20
113.6981748325698
 10
35.3604292893043
 20
111.3910081664799
 10
35.3604292893043
 20
109.1039498337183
 10
35.3604292893043
 20
106.8564026120579
 10
35.3604292893043
 20
104.6670637237163
 10
35.3604292893043
 20
102.554630390911
 10
35.3604292893043
 20
100.5370942803046
 10
35.3604292893043
 20
98.6317415030029
 10
35.3604292893043
 20
96.8555053923359
 10
35.3604292893043
 20
95.22249705941083
 10
35.3604292893043
 20
93.74753317089085
 10
35.3604292893043
 20
92.44225539343913
 10
35.3604292893043
 20
91.31901094927576
 10
35.3604292893043
 20
90.38626650506442
 10
35.3604292893043
 20
89.65213594969233
 10
35.3604292893043
 20
89.12367483871348
 10
35.3604292893043
 20
88.80476372768194
 10
35.3604292893043
 20
88.69787206104204
  0
LWPOLYLINE
  5
19C
330
70
100
AcDbEntity
  8
Standardebene
 62
     7
370
    35
100
AcDbPolyline
 90
       18
 70
     0
 43
0.0
 10
35.3604292893043
 20
138.6981248263198
 10
35.3604292893043
 20
138.5912331596799
 10
35.3604292893043
 20
138.2723220486483
 10
35.3604292893043
 20
137.743155382114
 10
35.3604292893043
 20
137.0097303822974
 10
35.3604292893043
 20
136.0769859380861
 10
35.3604292893043
 20
134.9533887161449
 10
35.3604292893043
 20
133.6481109386932
 10
35.3604292893043
 20
132.1727942723955
 10
35.3604292893043
 20
130.5401387172482
 10
35.3604292893043
 20
128.7635498288034
 10
35.3604292893043
 20
126.8589026070572
 10
35.3604292893043
 20
124.8413664964505
 10
35.3604292893043
 20
122.7289331636455
 10
35.3604292893043
 20
120.5392414975261
 10
35.3604292893043
 20
118.291341498088
 10
35.3604292893043
 20
116.0042831653264
 10
35.3604292893043
 20
113.6981748325698
  0
SPLINE
  5
19D
330
70
100
AcDbEntity
  8
Standardebene
 62
     7
370
    35
100
AcDbSpline
210
0.0
220
0.0
230
1.0
 70
     8
 71
     3
 72
     8
 73
     4
 74
     0
 42
0.0000000001
 43
0.0000000001
 40
0.0
 40
0.0
 40
0.0
 40
0.0
 40
1.0
 40
1.0
 40
1.0
 40
1.0
 10
34.61042373393617
 20
89.44787761641016
 30
0.0
 10
34.19661540070638
 20
89.44787761641016
 30
0.0
 10
33.86077095634581
 20
89.11203317204961
 30
0.0
 10
33.86077095634581
 20
88.69787206104204
 30
0.0
  0
LWPOLYLINE
  5
19E
330
70
100
AcDbEntity
  8
Standardebene
 62
     7
370
    35
100
AcDbPolyline
 90
       18
 70
     0
 43
0.0
 10
33.86077095634581
 20
113.6981748325698
 10
33.86077095634581
 20
111.3910081664799
 10
33.86077095634581
 20
109.1039498337183
 10
33.86077095634581
 20
106.8564026120579
 10
33.86077095634581
 20
104.6670637237163
 10
33.86077095634581
 20
102.554630390911
 10
33.86077095634581
 20
100.5370942803046
 10
33.86077095634581
 20
98.6317415030029
 10
33.86077095634581
 20
96.8555053923359
 10
33.86077095634581
 20
95.22249705941083
 10
33.86077095634581
 20
93.74753317089085
 10
33.86077095634581
 20
92.44225539343913
 10
33.86077095634581
 20
91.31901094927576
 10
33.86077095634581
 20
90.38626650506442
 10
33.86077095634581
 20
89.65213594969233
 10
33.86077095634581
 20
89.12367483871348
 10
33.86077095634581
 20
88.80476372768194
 10
33.86077095634581
 20
88.69787206104204
  0
SPLINE
  5
19F
330
70
100
AcDbEntity
  8
Standardebene
 62
     7
370
    35
100
AcDbSpline
210
0.0
220
0.0
230
1.0
 70
     8
 71
     3
 72
     8
 73
     4
 74
     0
 42
0.0000000001
 43
0.0000000001
 40
0.0
 40
0.0
 40
0.0
 40
0.0
 40
1.0
 40
1.0
 40
1.0
 40
1.0
 10
34.61042373393617
 20
137.9477664931739
 30
0.0
 10
35.02458484494374
 20
137.9477664931739
 30
0.0
 10
35.3604292893043
 20
138.2836109375345
 30
0.0
 10
35.3604292893043
 20
138.6981248263198
 30
0.0
  0
SPLINE
  5
1A0
330
70
100
AcDbEntity
  8
Standardebene
 62
     7
370
    35
100
AcDbSpline
210
0.0
220
0.0
230
1.0
 70
     8
 71
     3
 72
     8
 73
     4
 74
     0
 42
0.0000000001
 43
0.0000000001
 40
0.0
 40
0.0
 40
0.0
 40
0.0
 40
1.0
 40
1.0
 40
1.0
 40
1.0
 10
35.3604292893043
 20
88.69787206104204
 30
0.0
 10
35.3604292893043
 20
89.11203317204961
 30
0.0
 10
35.02458484494374
 20
89.44787761641016
 30
0.0
 10
34.61042373393617
 20
89.44787761641016
 30
0.0
  0
LWPOLYLINE
  5
1A1
330
70
100
AcDbEntity
  8
Standardebene
 62
     7
370
    35
100
AcDbPolyline
 90
       18
 70
     0
 43
0.0
 10
31.610401512464
 20
113.6981748325698
 10
31.610401512464
 20
111.3910081664799
 10
31.610401512464
 20
109.1039498337183
 10
31.610401512464
 20
106.8564026120579
 10
31.610401512464
 20
104.6670637237163
 10
31.610401512464
 20
102.554630390911
 10
31.610401512464
 20
100.5370942803046
 10
31.610401512464
 20
98.6317415030029
 10
31.610401512464
 20
96.8555053923359
 10
31.610401512464
 20
95.22249705941083
 10
31.610401512464
 20
93.74753317089085
 10
31.610401512464
 20
92.44225539343913
 10
31.610401512464
 20
91.31901094927576
 10
31.610401512464
 20
90.38626650506442
 10
31.610401512464
 20
89.65213594969233
 10
31.610401512464
 20
89.12367483871348
 10
31.610401512464
 20
88.80476372768194
 10
31.610401512464
 20
88.69787206104204
  0
SPLINE
  5
1A2
330
70
100
AcDbEntity
  8
Standardebene
 62
     7
370
    35
100
AcDbSpline
210
0.0
220
0.0
230
1.0
 70
     8
 71
     3
 72
     8
 73
     4
 74
     0
 42
0.0000000001
 43
0.0000000001
 40
0.0
 40
0.0
 40
0.0
 40
0.0
 40
1.0
 40
1.0
 40
1.0
 40
1.0
 10
33.86077095634581
 20
138.6981248263198
 30
0.0
 10
33.86077095634581
 20
138.2836109375345
 30
0.0
 10
34.19661540070638
 20
137.9477664931739
 30
0.0
 10
34.61042373393617
 20
137.9477664931739
 30
0.0
  0
LWPOLYLINE
  5
1A3
330
70
100
AcDbEntity
  8
Standardebene
 62
     7
370
    35
100
AcDbPolyline
 90
       18
 70
     0
 43
0.0
 10
33.86077095634581
 20
138.6981248263198
 10
33.86077095634581
 20
138.5912331596799
 10
33.86077095634581
 20
138.2723220486483
 10
33.86077095634581
 20
137.743155382114
 10
33.86077095634581
 20
137.0097303822974
 10
33.86077095634581
 20
136.0769859380861
 10
33.86077095634581
 20
134.9533887161449
 10
33.86077095634581
 20
133.6481109386932
 10
33.86077095634581
 20
132.1727942723955
 10
33.86077095634581
 20
130.5401387172482
 10
33.86077095634581
 20
128.7635498288034
 10
33.86077095634581
 20
126.8589026070572
 10
33.86077095634581
 20
124.8413664964505
 10
33.86077095634581
 20
122.7289331636455
 10
33.86077095634581
 20
120.5392414975261
 10
33.86077095634581
 20
118.291341498088
 10
33.86077095634581
 20
116.0042831653264
 10
33.86077095634581
 20
113.6981748325698
  0
SPLINE
  5
1A4
330
70
100
AcDbEntity
  8
Standardebene
 62
     7
370
    35
100
AcDbSpline
210
0.0
220
0.0
230
1.0
 70
     8
 71
     3
 72
     8
 73
     4
 74
     0
 42
0.0000000001
 43
0.0000000001
 40
0.0
 40
0.0
 40
0.0
 40
0.0
 40
1.0
 40
1.0
 40
1.0
 40
1.0
 10
29.79959317958343
 20
95.45638872601919
 30
0.0
 10
29.68035429072444
 20
95.90088872590783
 30
0.0
 10
29.27995151304669
 20
96.19510539250121
 30
0.0
 10
28.83368762426925
 20
96.1975748369449
 30
0.0
  0
SPLINE
  5
1A5
330
70
100
AcDbEntity
  8
Standardebene
 62
     7
370
    35
100
AcDbSpline
210
0.0
220
0.0
230
1.0
 70
     8
 71
     3
 72
     8
 73
     4
 74
     0
 42
0.0000000001
 43
0.0000000001
 40
0.0
 40
0.0
 40
0.0
 40
0.0
 40
1.0
 40
1.0
 40
1.0
 40
1.0
 10
28.83368762426925
 20
131.1980692726392
 30
0.0
 10
29.2937098463765
 20
131.1980692726392
 30
0.0
 10
29.68176540183517
 20
131.5085137170061
 30
0.0
 10
29.79959317958343
 20
131.9392553835649
 30
0.0
  0
LWPOLYLINE
  5
1A6
330
70
100
AcDbEntity
  8
Standardebene
 62
     7
370
    35
100
AcDbPolyline
 90
       11
 70
     0
 43
0.0
 10
24.61058484754741
 20
106.6091053898975
 10
24.61058484754741
 20
104.8145248347908
 10
24.61058484754741
 20
103.137772057432
 10
24.61058484754741
 20
101.601424835594
 10
24.61058484754741
 20
100.2259442803822
 10
24.61058484754741
 20
99.0300276140144
 10
24.61058484754741
 20
98.0284915031537
 10
24.61058484754741
 20
97.23579983668543
 10
24.61058484754741
 20
96.66147761460656
 10
24.61058484754741
 20
96.31434428136019
 10
24.61058484754741
 20
96.1975748369449
  0
LWPOLYLINE
  5
1A7
330
70
100
AcDbEntity
  8
Standardebene
 62
     7
370
    35
100
AcDbPolyline
 90
        4
 70
     0
 43
0.0
 10
27.61095984679735
 20
113.6981748325698
 10
27.61095984679735
 20
111.2731803887317
 10
27.61095984679735
 20
108.8943998337707
 10
27.61095984679735
 20
106.6091053898975
  0
LWPOLYLINE
  5
1A8
330
70
100
AcDbEntity
  8
Standardebene
 62
     7
370
    35
100
AcDbPolyline
 90
       11
 70
     0
 43
0.0
 10
24.61058484754741
 20
131.1980692726392
 10
24.61058484754741
 20
131.0812998282239
 10
24.61058484754741
 20
130.7341664949775
 10
24.61058484754741
 20
130.1601970506764
 10
24.61058484754741
 20
129.3671526064304
 10
24.61058484754741
 20
128.3659692733471
 10
24.61058484754741
 20
127.1693470514241
 10
24.61058484754741
 20
125.7945720517678
 10
24.61058484754741
 20
124.2578720521521
 10
24.61058484754741
 20
122.581472052571
 10
24.61058484754741
 20
120.7868914974643
  0
LWPOLYLINE
  5
1A9
330
70
100
AcDbEntity
  8
Standardebene
 62
     7
370
    35
100
AcDbPolyline
 90
        4
 70
     0
 43
0.0
 10
27.61095984679735
 20
120.7868914974643
 10
27.61095984679735
 20
118.5008914980356
 10
27.61095984679735
 20
116.1228164986301
 10
27.61095984679735
 20
113.6981748325698
  0
SPLINE
  5
1AA
330
70
100
AcDbEntity
  8
Standardebene
 62
     7
370
    35
100
AcDbSpline
210
0.0
220
0.0
230
1.0
 70
     8
 71
     3
 72
     8
 73
     4
 74
     0
 42
0.0000000001
 43
0.0000000001
 40
0.0
 40
0.0
 40
0.0
 40
0.0
 40
1.0
 40
1.0
 40
1.0
 40
1.0
 10
37.61079873318613
 20
129.9975664951614
 30
0.0
 10
37.61079873318613
 20
129.6666609396886
 30
0.0
 10
37.87961539978549
 20
129.3978442730892
 30
0.0
 10
38.21052095525835
 20
129.3978442730892
 30
0.0
  0
SPLINE
  5
1AB
330
70
100
AcDbEntity
  8
Standardebene
 62
     7
370
    35
100
AcDbSpline
210
0.0
220
0.0
230
1.0
 70
     8
 71
     3
 72
     8
 73
     4
 74
     0
 42
0.0000000001
 43
0.0000000001
 40
0.0
 40
0.0
 40
0.0
 40
0.0
 40
1.0
 40
1.0
 40
1.0
 40
1.0
 10
38.21052095525835
 20
97.99815261427262
 30
0.0
 10
37.87961539978549
 20
97.99815261427262
 30
0.0
 10
37.61079873318613
 20
97.72933594767295
 30
0.0
 10
37.61079873318613
 20
97.39807761442264
 30
0.0
  0
LWPOLYLINE
  5
1AC
330
70
100
AcDbEntity
  8
Standardebene
 62
     7
370
    35
100
AcDbPolyline
 90
       14
 70
     0
 43
0.0
 10
40.11093484367235
 20
129.6980581619032
 10
40.11093484367235
 20
129.5809359397102
 10
40.11093484367235
 20
129.2330970509083
 10
40.11093484367235
 20
128.658422051052
 10
40.11093484367235
 20
127.8653776068056
 10
40.11093484367235
 20
126.8656053848334
 10
40.11093484367235
 20
125.6742748295756
 10
40.11093484367235
 20
124.3079664965839
 10
40.11093484367235
 20
122.7867887191865
 10
40.11093484367235
 20
121.1336720529332
 10
40.11093484367235
 20
119.3715470533735
 10
40.11093484367235
 20
117.5272248316126
 10
40.11093484367235
 20
115.6261053876434
 10
40.11093484367235
 20
113.6981748325698
  0
LWPOLYLINE
  5
1AD
330
70
100
AcDbEntity
  8
Standardebene
 62
     7
370
    35
100
AcDbPolyline
 90
       14
 70
     0
 43
0.0
 10
21.61091540385266
 20
113.6981748325698
 10
21.61091540385266
 20
111.7970553886006
 10
21.61091540385266
 20
109.9245109446243
 10
21.61091540385266
 20
108.1066470561898
 10
21.61091540385266
 20
106.369922056624
 10
21.61091540385266
 20
104.7407942792534
 10
21.61091540385266
 20
103.2414887240727
 10
21.61091540385266
 20
101.895641502187
 10
21.61091540385266
 20
100.7212442802585
 10
21.61091540385266
 20
99.73628872494909
 10
21.61091540385266
 20
98.95453316958885
 10
21.61091540385266
 20
98.38832483639723
 10
21.61091540385266
 20
98.04471928092752
 10
21.61091540385266
 20
97.92971372540071
  0
LWPOLYLINE
  5
1AE
330
70
100
AcDbEntity
  8
Standardebene
 62
     7
370
    35
100
AcDbPolyline
 90
       14
 70
     0
 43
0.0
 10
21.61091540385266
 20
129.4655776064056
 10
21.61091540385266
 20
129.3505720508788
 10
21.61091540385266
 20
129.0076720509646
 10
21.61091540385266
 20
128.4411109399952
 10
21.61091540385266
 20
127.659355384635
 10
21.61091540385266
 20
126.6747526071033
 10
21.61091540385266
 20
125.5003553851748
 10
21.61091540385266
 20
124.1538026077336
 10
21.61091540385266
 20
122.6552026081081
 10
21.61091540385266
 20
121.0253692751823
 10
21.61091540385266
 20
119.289349831172
 10
21.61091540385266
 20
117.4711331649598
 10
21.61091540385266
 20
115.5985887209835
 10
21.61091540385266
 20
113.6981748325698
  0
LWPOLYLINE
  5
1AF
330
70
100
AcDbEntity
  8
Standardebene
 62
     7
370
    35
100
AcDbPolyline
 90
       21
 70
     0
 43
0.0
 10
51.61078484079737
 20
128.6975803843755
 10
51.61078484079737
 20
127.9119442734609
 10
51.61078484079737
 20
126.9167581625985
 10
51.61078484079737
 20
125.7261331628962
 10
51.61078484079737
 20
124.3587664965713
 10
51.61078484079737
 20
122.8333553858414
 10
51.61078484079737
 20
121.1735359418119
 10
51.61078484079737
 20
119.4029442755878
 10
51.61078484079737
 20
117.5490970538293
 10
51.61078484079737
 20
115.637747054307
 10
51.61078484079737
 20
113.6981748325698
 10
51.61078484079737
 20
111.7582498330548
 10
51.61078484079737
 20
109.8465470557547
 10
51.61078484079737
 20
107.9926998339962
 10
51.61078484079737
 20
106.2221081677721
 10
51.61078484079737
 20
104.5626415015204
 10
51.61078484079737
 20
103.0368776130127
 10
51.61078484079737
 20
101.6691581689104
 10
51.61078484079737
 20
100.4792387247632
 10
51.61078484079737
 20
99.48369983612323
 10
51.61078484079737
 20
98.69771094743114
  0
LWPOLYLINE
  5
1B0
330
70
100
AcDbEntity
  8
Standardebene
 62
     7
370
    35
100
AcDbPolyline
 90
       14
 70
     0
 43
0.0
 10
40.11093484367235
 20
113.6981748325698
 10
40.11093484367235
 20
111.7691859441632
 10
40.11093484367235
 20
109.8687720557492
 10
40.11093484367235
 20
108.0240970562106
 10
40.11093484367235
 20
106.2619720566508
 10
40.11093484367235
 20
104.6085026126198
 10
40.11093484367235
 20
103.0880303907779
 10
40.11093484367235
 20
101.721722057786
 10
40.11093484367235
 20
100.5303915025284
 10
40.11093484367235
 20
99.53061928055619
 10
40.11093484367235
 20
98.73757483630983
 10
40.11093484367235
 20
98.16254705867578
 10
40.11093484367235
 20
97.81435539209613
 10
40.11093484367235
 20
97.69793872545861
  0
LWPOLYLINE
  5
1B1
330
70
100
AcDbEntity
  8
Standardebene
 62
     7
370
    35
100
AcDbPolyline
 90
       23
 70
     0
 43
0.0
 10
53.58422372919292
 20
128.6975803843755
 10
53.58422372919292
 20
128.0766914956418
 10
53.58422372919292
 20
127.2607164958457
 10
53.58422372919292
 20
126.2609442738735
 10
53.58422372919292
 20
125.0907803852771
 10
53.58422372919292
 20
123.7668053856082
 10
53.58422372919292
 20
122.3059526081955
 10
53.58422372919292
 20
120.7286831641455
 10
53.58422372919292
 20
119.0561637201192
 10
53.58422372919292
 20
117.3109720538888
 10
53.58422372919292
 20
115.5163914987817
 10
53.58422372919292
 20
113.6981748325698
 10
53.58422372919292
 20
111.8792526108023
 10
53.58422372919292
 20
110.085024833473
 10
53.58422372919292
 20
108.3398331672426
 10
53.58422372919292
 20
106.6673137232163
 10
53.58422372919292
 20
105.0893387236108
 10
53.58422372919292
 20
103.6288387239758
 10
53.58422372919292
 20
102.3045109465291
 10
53.58422372919292
 20
101.1346998357105
 10
53.58422372919292
 20
100.1349276137383
 10
53.58422372919292
 20
99.31930539172007
 10
53.58422372919292
 20
98.69771094743114
  0
LWPOLYLINE
  5
1B2
330
70
100
AcDbEntity
  8
Standardebene
 62
     7
370
    35
100
AcDbPolyline
 90
       23
 70
     0
 43
0.0
 10
55.48816539538358
 20
128.6975803843755
 10
55.48816539538358
 20
128.1708831622848
 10
55.48816539538358
 20
127.4268748291377
 10
55.48816539538358
 20
126.4764914960418
 10
55.48816539538358
 20
125.3341970518828
 10
55.48816539538358
 20
124.0172776077679
 10
55.48816539538358
 20
122.5458414970245
 10
55.48816539538358
 20
120.9407026085368
 10
55.48816539538358
 20
119.2276137200763
 10
55.48816539538358
 20
117.4312692760808
 10
55.48816539538358
 20
115.5784803876552
 10
55.48816539538358
 20
113.6981748325698
 10
55.48816539538358
 20
111.8168109441511
 10
55.48816539538358
 20
109.9643748335033
 10
55.48816539538358
 20
108.1683831672855
 10
55.48816539538358
 20
106.4545887232694
 10
55.48816539538358
 20
104.8501553903373
 10
55.48816539538358
 20
103.378719279594
 10
55.48816539538358
 20
102.0617998354787
 10
55.48816539538358
 20
100.91950539132
 10
55.48816539538358
 20
99.96876928044642
 10
55.48816539538358
 20
99.22511372507702
 10
55.48816539538358
 20
98.69771094743114
  0
SPLINE
  5
1B3
330
70
100
AcDbEntity
  8
Standardebene
 62
     7
370
    35
100
AcDbSpline
210
0.0
220
0.0
230
1.0
 70
     8
 71
     3
 72
     8
 73
     4
 74
     0
 42
0.0000000001
 43
0.0000000001
 40
0.0
 40
0.0
 40
0.0
 40
0.0
 40
1.0
 40
1.0
 40
1.0
 40
1.0
 10
38.91184317730534
 20
129.3978442730892
 30
0.0
 10
38.96758206618042
 20
129.3978442730892
 30
0.0
 10
39.02049873283373
 20
129.4056053841984
 30
0.0
 10
39.06706539948862
 20
129.4183053841952
 30
0.0
  0
SPLINE
  5
1B4
330
70
100
AcDbEntity
  8
Standardebene
 62
     7
370
    35
100
AcDbSpline
210
0.0
220
0.0
230
1.0
 70
     8
 71
     3
 72
     8
 73
     4
 74
     0
 42
0.0000000001
 43
0.0000000001
 40
0.0
 40
0.0
 40
0.0
 40
0.0
 40
1.0
 40
1.0
 40
1.0
 40
1.0
 10
39.06706539948862
 20
97.97769150316664
 30
0.0
 10
39.01414873283531
 20
97.99180261427421
 30
0.0
 10
38.96017373284872
 20
97.99850539205007
 30
0.0
 10
38.91184317730534
 20
97.99815261427262
 30
0.0
  0
LWPOLYLINE
  5
1B5
330
70
100
AcDbEntity
  8
Standardebene
 62
     7
370
    35
100
AcDbPolyline
 90
       14
 70
     0
 43
0.0
 10
56.11046539522805
 20
113.6981748325698
 10
56.11046539522805
 20
111.9745026107783
 10
56.11046539522805
 20
110.2758776112031
 10
56.11046539522805
 20
108.6273470560598
 10
56.11046539522805
 20
107.0525470564532
 10
56.11046539522805
 20
105.574408167934
 10
56.11046539522805
 20
104.215155390496
 10
56.11046539522805
 20
102.9938387241348
 10
56.11046539522805
 20
101.9295081688451
 10
56.11046539522805
 20
101.0355692801798
 10
56.11046539522805
 20
100.3268387248014
 10
56.11046539522805
 20
99.81354705826312
 10
56.11046539522805
 20
99.50239705834107
 10
56.11046539522805
 20
99.39797483614484
  0
LWPOLYLINE
  5
1B6
330
70
100
AcDbEntity
  8
Standardebene
 62
     7
370
    35
100
AcDbPolyline
 90
       14
 70
     0
 43
0.0
 10
56.11046539522805
 20
127.9976692734392
 10
56.11046539522805
 20
127.8935998290208
 10
56.11046539522805
 20
127.5820970513209
 10
56.11046539522805
 20
127.0684526070049
 10
56.11046539522805
 20
126.3600748294043
 10
56.11046539522805
 20
125.4664887185164
 10
56.11046539522805
 20
124.4014526076718
 10
56.11046539522805
 20
123.1808414968658
 10
56.11046539522805
 20
121.8208831638723
 10
56.11046539522805
 20
120.3434498309083
 10
56.11046539522805
 20
118.768649831302
 10
56.11046539522805
 20
117.1201192761587
 10
56.11046539522805
 20
115.4214942765835
 10
56.11046539522805
 20
113.6981748325698
  0
LWPOLYLINE
  5
1B7
330
70
100
AcDbEntity
  8
Standardebene
 62
     7
370
    35
100
AcDbPolyline
 90
       11
 70
     0
 43
0.0
 10
58.11036261695026
 20
113.6981748325698
 10
58.11036261695026
 20
115.2292303877426
 10
58.11036261695026
 20
116.7232442762579
 10
58.11036261695026
 20
118.1428220536809
 10
58.11036261695026
 20
119.45303872002
 10
58.11036261695026
 20
120.6214387197279
 10
58.11036261695026
 20
121.6190942750338
 10
58.11036261695026
 20
122.4220164970556
 10
58.11036261695026
 20
123.0097442746862
 10
58.11036261695026
 20
123.3685192745964
 10
58.11036261695026
 20
123.4888164967887
  0
LWPOLYLINE
  5
1B8
330
70
100
AcDbEntity
  8
Standardebene
 62
     7
370
    35
100
AcDbPolyline
 90
       19
 70
     0
 43
0.0
 10
70.13585150283268
 20
121.7993637194334
 10
70.13585150283268
 20
121.6758914972419
 10
70.13585150283268
 20
121.3104137195554
 10
70.13585150283268
 20
120.7138664974824
 10
70.13585150283268
 20
119.9035359421296
 10
70.13585150283268
 20
118.9051748312681
 10
70.13585150283268
 20
117.7484164982238
 10
70.13585150283268
 20
116.4688914985439
 10
70.13585150283268
 20
115.1043470544404
 10
70.13585150283268
 20
113.6981748325698
 10
70.13585150283268
 20
112.2912970551436
 10
70.13585150283268
 20
110.9271053888179
 10
70.13585150283268
 20
109.6472276113602
 10
70.13585150283268
 20
108.4908220560937
 10
70.13585150283268
 20
107.491755389677
 10
70.13585150283268
 20
106.6817776121016
 10
70.13585150283268
 20
106.0848776122508
 10
70.13585150283268
 20
105.7193998345644
 10
70.13585150283268
 20
105.5969859457062
  0
LWPOLYLINE
  5
1B9
330
70
100
AcDbEntity
  8
Standardebene
 62
     7
370
    35
100
AcDbPolyline
 90
       11
 70
     0
 43
0.0
 10
58.11036261695026
 20
103.9064748350176
 10
58.11036261695026
 20
104.0274776127651
 10
58.11036261695026
 20
104.3855470571201
 10
58.11036261695026
 20
104.9739803903062
 10
58.11036261695026
 20
105.7769026123277
 10
58.11036261695026
 20
106.7742053898562
 10
58.11036261695026
 20
107.9429581673418
 10
58.11036261695026
 20
109.2528220559031
 10
58.11036261695026
 20
110.6723998333261
 10
58.11036261695026
 20
112.166060944064
 10
58.11036261695026
 20
113.6981748325698
  0
SPLINE
  5
1BA
330
70
100
AcDbEntity
  8
Standardebene
 62
     7
370
    35
100
AcDbSpline
210
0.0
220
0.0
230
1.0
 70
     8
 71
     3
 72
     8
 73
     4
 74
     0
 42
0.0000000001
 43
0.0000000001
 40
0.0
 40
0.0
 40
0.0
 40
0.0
 40
1.0
 40
1.0
 40
1.0
 40
1.0
 10
58.11036261695026
 20
103.9978442794392
 30
0.0
 10
58.11036261695026
 20
104.1082637238561
 30
0.0
 10
58.02110983919457
 20
104.1978692793892
 30
0.0
 10
57.91069039477801
 20
104.1978692793892
 30
0.0
  0
SPLINE
  5
1BB
330
70
100
AcDbEntity
  8
Standardebene
 62
     7
370
    35
100
AcDbSpline
210
0.0
220
0.0
230
1.0
 70
     8
 71
     3
 72
     8
 73
     4
 74
     0
 42
0.0000000001
 43
0.0000000001
 40
0.0
 40
0.0
 40
0.0
 40
0.0
 40
1.0
 40
1.0
 40
1.0
 40
1.0
 10
56.31049039517804
 20
104.1978692793892
 30
0.0
 10
56.20042372853894
 20
104.1978692793892
 30
0.0
 10
56.11046539522805
 20
104.1082637238561
 30
0.0
 10
56.11046539522805
 20
103.9978442794392
 30
0.0
  0
SPLINE
  5
1BC
330
70
100
AcDbEntity
  8
Standardebene
 62
     7
370
    35
100
AcDbSpline
210
0.0
220
0.0
230
1.0
 70
     8
 71
     3
 72
     8
 73
     4
 74
     0
 42
0.0000000001
 43
0.0000000001
 40
0.0
 40
0.0
 40
0.0
 40
0.0
 40
1.0
 40
1.0
 40
1.0
 40
1.0
 10
56.11046539522805
 20
123.3981526079226
 30
0.0
 10
56.11046539522805
 20
123.2877331635057
 30
0.0
 10
56.20042372853894
 20
123.1977748301948
 30
0.0
 10
56.31049039517804
 20
123.1977748301948
 30
0.0
  0
SPLINE
  5
1BD
330
70
100
AcDbEntity
  8
Standardebene
 62
     7
370
    35
100
AcDbSpline
210
0.0
220
0.0
230
1.0
 70
     8
 71
     3
 72
     8
 73
     4
 74
     0
 42
0.0000000001
 43
0.0000000001
 40
0.0
 40
0.0
 40
0.0
 40
0.0
 40
1.0
 40
1.0
 40
1.0
 40
1.0
 10
57.91069039477801
 20
123.1977748301948
 30
0.0
 10
58.02110983919457
 20
123.1977748301948
 30
0.0
 10
58.11036261695026
 20
123.2877331635057
 30
0.0
 10
58.11036261695026
 20
123.3981526079226
 30
0.0
  0
SPLINE
  5
1BE
330
70
100
AcDbEntity
  8
Standardebene
 62
     7
370
    35
100
AcDbSpline
210
0.0
220
0.0
230
1.0
 70
     8
 71
     3
 72
     8
 73
     4
 74
     0
 42
0.0000000001
 43
0.0000000001
 40
0.0
 40
0.0
 40
0.0
 40
0.0
 40
1.0
 40
1.0
 40
1.0
 40
1.0
 10
70.91090428041673
 20
106.1977665011114
 30
0.0
 10
70.5397820582874
 20
106.1977665011114
 30
0.0
 10
70.22757372503204
 20
105.9448248345081
 30
0.0
 10
70.13585150283268
 20
105.5969859457062
 30
0.0
  0
SPLINE
  5
1BF
330
70
100
AcDbEntity
  8
Standardebene
 62
     7
370
    35
100
AcDbSpline
210
0.0
220
0.0
230
1.0
 70
     8
 71
     3
 72
     8
 73
     4
 74
     0
 42
0.0000000001
 43
0.0000000001
 40
0.0
 40
0.0
 40
0.0
 40
0.0
 40
1.0
 40
1.0
 40
1.0
 40
1.0
 10
70.13585150283268
 20
121.7993637194334
 30
0.0
 10
70.22827928058724
 20
121.4391776084124
 30
0.0
 10
70.55071816939577
 20
121.1999942751386
 30
0.0
 10
70.91090428041673
 20
121.1975248306949
 30
0.0
  0
LWPOLYLINE
  5
1C0
330
70
100
AcDbEntity
  8
Standardebene
 62
     7
370
    35
100
AcDbPolyline
 90
       10
 70
     0
 43
0.0
 10
75.61096261257516
 20
113.6981748325698
 10
75.61096261257516
 20
112.3085831662504
 10
75.61096261257516
 20
110.9616776110315
 10
75.61096261257516
 20
109.6980276113476
 10
75.61096261257516
 20
108.5557331671886
 10
75.61096261257516
 20
107.5697192785462
 10
75.61096261257516
 20
106.769972056524
 10
75.61096261257516
 20
106.1804803900046
 10
75.61096261257516
 20
105.8192359456507
 10
75.61096261257516
 20
105.6975276123477
  0
LWPOLYLINE
  5
1C1
330
70
100
AcDbEntity
  8
Standardebene
 62
     7
370
    35
100
AcDbPolyline
 90
       10
 70
     0
 43
0.0
 10
72.05249316902018
 20
105.6975276123477
 10
72.05249316902018
 20
105.8192359456507
 10
72.05249316902018
 20
106.1804803900046
 10
72.05249316902018
 20
106.769972056524
 10
72.05249316902018
 20
107.5697192785462
 10
72.05249316902018
 20
108.5557331671886
 10
72.05249316902018
 20
109.6980276113476
 10
72.05249316902018
 20
110.9616776110315
 10
72.05249316902018
 20
112.3085831662504
 10
72.05249316902018
 20
113.6981748325698
  0
LWPOLYLINE
  5
1C2
330
70
100
AcDbEntity
  8
Standardebene
 62
     7
370
    35
100
AcDbPolyline
 90
       10
 70
     0
 43
0.0
 10
75.61096261257516
 20
121.6977637194586
 10
75.61096261257516
 20
121.5764081639334
 10
75.61096261257516
 20
121.2151637195794
 10
75.61096261257516
 20
120.6260248308378
 10
75.61096261257516
 20
119.8262776088156
 10
75.61096261257516
 20
118.8399109423954
 10
75.61096261257516
 20
117.6976164982364
 10
75.61096261257516
 20
116.4339664985525
 10
75.61096261257516
 20
115.0867081655559
 10
75.61096261257516
 20
113.6981748325698
  0
LWPOLYLINE
  5
1C3
330
70
100
AcDbEntity
  8
Standardebene
 62
     7
370
    35
100
AcDbPolyline
 90
       10
 70
     0
 43
0.0
 10
72.05249316902018
 20
113.6981748325698
 10
72.05249316902018
 20
115.0867081655559
 10
72.05249316902018
 20
116.4339664985525
 10
72.05249316902018
 20
117.6976164982364
 10
72.05249316902018
 20
118.8399109423954
 10
72.05249316902018
 20
119.8262776088156
 10
72.05249316902018
 20
120.6260248308378
 10
72.05249316902018
 20
121.2151637195794
 10
72.05249316902018
 20
121.5764081639334
 10
72.05249316902018
 20
121.6977637194586
  0
LWPOLYLINE
  5
1C4
330
70
100
AcDbEntity
  8
Standardebene
 62
     7
370
    35
100
AcDbPolyline
 90
       10
 70
     0
 43
0.0
 10
76.81075983449739
 20
121.4864498306228
 10
76.81075983449739
 20
121.367916497319
 10
76.81075983449739
 20
121.0169026085179
 10
76.81075983449739
 20
120.4425803864391
 10
76.81075983449739
 20
119.6643526088558
 10
76.81075983449739
 20
118.7044442757626
 10
76.81075983449739
 20
117.5917831649295
 10
76.81075983449739
 20
116.3619998319036
 10
76.81075983449739
 20
115.0500192766761
 10
76.81075983449739
 20
113.6981748325698
  0
SPLINE
  5
1C5
330
70
100
AcDbEntity
  8
Standardebene
 62
     7
370
    35
100
AcDbSpline
210
0.0
220
0.0
230
1.0
 70
     8
 71
     3
 72
     8
 73
     4
 74
     0
 42
0.0000000001
 43
0.0000000001
 40
0.0
 40
0.0
 40
0.0
 40
0.0
 40
1.0
 40
1.0
 40
1.0
 40
1.0
 10
72.05249316902018
 20
105.6975276123477
 30
0.0
 10
71.92690428016277
 20
106.0069137233813
 30
0.0
 10
71.63021816912571
 20
106.1960026122229
 30
0.0
 10
71.31060150253897
 20
106.1977665011114
 30
0.0
  0
SPLINE
  5
1C6
330
70
100
AcDbEntity
  8
Standardebene
 62
     7
370
    35
100
AcDbSpline
210
0.0
220
0.0
230
1.0
 70
     8
 71
     3
 72
     8
 73
     4
 74
     0
 42
0.0000000001
 43
0.0000000001
 40
0.0
 40
0.0
 40
0.0
 40
0.0
 40
1.0
 40
1.0
 40
1.0
 40
1.0
 10
71.31060150253897
 20
121.1975248306949
 30
0.0
 10
71.64468205801104
 20
121.1975248306949
 30
0.0
 10
71.93043205793974
 20
121.4024887195326
 30
0.0
 10
72.05249316902018
 20
121.6977637194586
 30
0.0
  0
LWPOLYLINE
  5
1C7
330
70
100
AcDbEntity
  8
Standardebene
 62
     7
370
    35
100
AcDbPolyline
 90
       10
 70
     0
 43
0.0
 10
76.81075983449739
 20
113.6981748325698
 10
76.81075983449739
 20
112.345624832908
 10
76.81075983449739
 20
111.0339970554578
 10
76.81075983449739
 20
109.8035081668768
 10
76.81075983449739
 20
108.6915526115992
 10
76.81075983449739
 20
107.7316442785057
 10
76.81075983449739
 20
106.953063723145
 10
76.81075983449739
 20
106.3790942788439
 10
76.81075983449739
 20
106.0280803900428
 10
76.81075983449739
 20
105.9091942789613
  0
SPLINE
  5
1C8
330
70
100
AcDbEntity
  8
Standardebene
 62
     7
370
    35
100
AcDbSpline
210
0.0
220
0.0
230
1.0
 70
     8
 71
     3
 72
    11
 73
     7
 74
     0
 42
0.0000000001
 43
0.0000000001
 40
0.0
 40
0.0
 40
0.0
 40
0.0
 40
1.0
 40
1.0
 40
1.0
 40
2.0
 40
2.0
 40
2.0
 40
2.0
 10
76.81075983449739
 20
105.9091942789613
 30
0.0
 10
76.99314594556283
 20
105.7821942789931
 30
0.0
 10
77.20269594551047
 20
105.7218692790081
 30
0.0
 10
77.40589594545967
 20
105.7225748345636
 30
0.0
 10
77.78936538980808
 20
105.7225748345636
 30
0.0
 10
78.12450427861344
 20
105.9303609456228
 30
0.0
 10
78.30830150078963
 20
106.2436276122111
 30
0.0
  0
SPLINE
  5
1C9
330
70
100
AcDbEntity
  8
Standardebene
 62
     7
370
    35
100
AcDbSpline
210
0.0
220
0.0
230
1.0
 70
     8
 71
     3
 72
    11
 73
     7
 74
     0
 42
0.0000000001
 43
0.0000000001
 40
0.0
 40
0.0
 40
0.0
 40
0.0
 40
1.0
 40
1.0
 40
1.0
 40
2.0
 40
2.0
 40
2.0
 40
2.0
 10
78.30830150078963
 20
121.1516637195952
 30
0.0
 10
78.11603761194878
 20
121.4839803861788
 30
0.0
 10
77.7689042787021
 20
121.6705998305767
 30
0.0
 10
77.40589594545967
 20
121.6730692750204
 30
0.0
 10
77.18294038995967
 20
121.6730692750204
 30
0.0
 10
76.97691816778903
 20
121.6028664972603
 30
0.0
 10
76.81075983449739
 20
121.4864498306228
 30
0.0
  0
LWPOLYLINE
  5
1CA
330
70
100
AcDbEntity
  8
Standardebene
 62
     7
370
    35
100
AcDbPolyline
 90
       19
 70
     0
 43
0.0
 10
78.61098483404735
 20
120.6277887197263
 10
78.61098483404735
 20
120.5223081641971
 10
78.61098483404735
 20
120.209747053164
 10
78.61098483404735
 20
119.6996303866249
 10
78.61098483404735
 20
119.0067748312426
 10
78.61098483404735
 20
118.1523470536785
 10
78.61098483404735
 20
117.1628053872592
 10
78.61098483404735
 20
116.0677831653106
 10
78.61098483404735
 20
114.901499832269
 10
78.61098483404735
 20
113.6981748325698
 10
78.61098483404735
 20
112.4941442773151
 10
78.61098483404735
 20
111.3275081664957
 10
78.61098483404735
 20
110.2331915001027
 10
78.61098483404735
 20
109.2436498336833
 10
78.61098483404735
 20
108.3888692783415
 10
78.61098483404735
 20
107.6960137229592
 10
78.61098483404735
 20
107.1855442786423
 10
78.61098483404735
 20
106.8733359453869
 10
78.61098483404735
 20
106.7682081676355
  0
LWPOLYLINE
  5
1CB
330
70
100
AcDbEntity
  8
Standardebene
 62
     7
370
    35
100
AcDbPolyline
 90
       14
 70
     0
 43
0.0
 10
24.61058484754741
 20
106.6091053898975
 10
23.58647095891446
 20
108.2276498339372
 10
22.76273484800927
 20
109.9492053890624
 10
22.44594040364397
 20
110.857608166613
 10
22.20852095925896
 20
111.7903526108244
 10
22.06282373707332
 20
112.7365026105878
 10
22.0123765148637
 20
113.6981748325698
 10
22.1005709592861
 20
114.9745248322505
 10
22.35457095922237
 20
116.2180664986065
 10
22.75744318134381
 20
117.4312692760808
 10
23.14232373680327
 20
118.3132137203047
 10
23.58470707002597
 20
119.1637609423143
 10
24.07647929212533
 20
119.9864387198865
 10
24.61058484754741
 20
120.7868914974643
  0
LWPOLYLINE
  5
1CC
330
70
100
AcDbEntity
  8
Standardebene
 62
     7
370
    35
100
AcDbPolyline
 90
       25
 70
     0
 43
0.0
 10
42.26570150980039
 20
128.6975803843755
 10
42.03004595430354
 20
128.8027081621269
 10
41.80603206547058
 20
128.9036026065462
 10
41.59224873219078
 20
129.0002637176332
 10
41.39045984335229
 20
129.093397050943
 10
41.20066539895545
 20
129.1808859398102
 10
41.02321817677738
 20
129.2637887175671
 10
40.93925706568747
 20
129.3029470508906
 10
40.85811817681871
 20
129.3410470508812
 10
40.81895984349521
 20
129.3597442730987
 10
40.78085984350467
 20
129.3773831619832
 10
40.74346539906966
 20
129.3953748286455
 10
40.70712928796761
 20
129.4123081619745
 10
40.57130984355704
 20
129.4768664952917
 10
40.45171817692029
 20
129.5336637174998
 10
40.35011817694584
 20
129.5826998285987
 10
40.26509873252266
 20
129.6232692730329
 10
40.19842373253922
 20
129.6557248285802
 10
40.14974039921809
 20
129.6786553841302
 10
40.14056817699822
 20
129.6835942730179
 10
40.13280706588907
 20
129.6871220507946
 10
40.12610428811289
 20
129.6902970507938
 10
40.12081262144742
 20
129.6931192730156
 10
40.11340428811604
 20
129.6969998285699
 10
40.11093484367235
 20
129.6980581619032
  0
LWPOLYLINE
  5
1CD
330
70
100
AcDbEntity
  8
Standardebene
 62
     7
370
    35
100
AcDbPolyline
 90
       23
 70
     0
 43
0.0
 10
40.11093484367235
 20
97.69793872545861
 10
40.12010706589222
 20
97.70252483656854
 10
40.14974039921809
 20
97.71663594767609
 10
40.19736539920626
 20
97.73991928100386
 10
40.26333484363418
 20
97.77166928099598
 10
40.3472959547244
 20
97.81153316987468
 10
40.4492487324766
 20
97.86021650319582
 10
40.47711817691398
 20
97.87432761430338
 10
40.50675151023985
 20
97.88773316985576
 10
40.53673762134347
 20
97.90254983651854
 10
40.56813484355783
 20
97.91736650318162
 10
40.63410428798607
 20
97.94876372539597
 10
40.70360151019063
 20
97.98157205872104
 10
40.85388484348653
 20
98.05283316981443
 10
41.01757373233448
 20
98.12938594757294
 10
41.19537373228999
 20
98.21228872533019
 10
41.38552095446459
 20
98.30048316975259
 10
41.48535706555088
 20
98.34634428085228
 10
41.5887209544138
 20
98.39326372528493
 10
41.6949070654985
 20
98.4415942808283
 10
41.8035626210269
 20
98.49133594748272
 10
42.02969317652578
 20
98.59293594745716
 10
42.26570150980039
 20
98.69771094743114
  0
LWPOLYLINE
  5
1CE
330
70
100
AcDbEntity
  8
Standardebene
 62
     7
370
    35
100
AcDbPolyline
 90
        3
 70
     0
 43
0.0
 10
51.61078484079737
 20
128.6975803843755
 10
52.60914595165887
 20
128.6975803843755
 10
53.58422372919292
 20
128.6975803843755
  0
LWPOLYLINE
  5
1CF
330
70
100
AcDbEntity
  8
Standardebene
 62
     7
370
    35
100
AcDbPolyline
 90
        3
 70
     0
 43
0.0
 10
53.58422372919292
 20
98.69771094743114
 10
52.60914595165887
 20
98.69771094743114
 10
51.61078484079737
 20
98.69771094743114
  0
LWPOLYLINE
  5
1D0
330
70
100
AcDbEntity
  8
Standardebene
 62
     7
370
    35
100
AcDbPolyline
 90
       19
 70
     0
 43
0.0
 10
53.58422372919292
 20
128.6975803843755
 10
53.66500984028362
 20
128.6975803843755
 10
53.76414039581437
 20
128.6975803843755
 10
53.88867095133882
 20
128.6975803843755
 10
54.04706817352162
 20
128.6975803843755
 10
54.14302372905317
 20
128.6975803843755
 10
54.25097372902603
 20
128.6975803843755
 10
54.36950706232981
 20
128.6975803843755
 10
54.49262650674354
 20
128.6975803843755
 10
54.6104542844918
 20
128.6975803843755
 10
54.7173459511317
 20
128.6975803843755
 10
54.81118483999732
 20
128.6975803843755
 10
54.89373483997649
 20
128.6975803843755
 10
55.03025983994226
 20
128.6975803843755
 10
55.13891539547097
 20
128.6975803843755
 10
55.22710983989337
 20
128.6975803843755
 10
55.29907650654195
 20
128.6975803843755
 10
55.41020150651402
 20
128.6975803843755
 10
55.48816539538358
 20
128.6975803843755
  0
LWPOLYLINE
  5
1D1
330
70
100
AcDbEntity
  8
Standardebene
 62
     7
370
    35
100
AcDbPolyline
 90
       19
 70
     0
 43
0.0
 10
55.48816539538358
 20
98.69771094743114
 10
55.41020150651402
 20
98.69771094743114
 10
55.29872372876418
 20
98.69771094743114
 10
55.22534595100488
 20
98.69771094743114
 10
55.1360931732492
 20
98.69771094743114
 10
55.02673206216561
 20
98.69771094743114
 10
54.88950150664432
 20
98.69771094743114
 10
54.71205428446656
 20
98.69771094743114
 10
54.48909872896656
 20
98.69771094743114
 10
54.36597928455285
 20
98.69771094743114
 10
54.24815150680458
 20
98.69771094743114
 10
54.14055428460915
 20
98.69771094743114
 10
54.04495150685537
 20
98.69771094743114
 10
53.96169595132068
 20
98.69771094743114
 10
53.88796539578361
 20
98.69771094743114
 10
53.82270150691089
 20
98.69771094743114
 10
53.76484595136989
 20
98.69771094743114
 10
53.66500984028362
 20
98.69771094743114
 10
53.58422372919292
 20
98.69771094743114
  0
LWPOLYLINE
  5
1D2
330
70
100
AcDbEntity
  8
Standardebene
 62
     7
370
    35
100
AcDbPolyline
 90
        3
 70
     0
 43
0.0
 10
55.70618206199556
 20
98.69771094743114
 10
55.65150150645377
 20
98.69771094743114
 10
55.48816539538358
 20
98.69771094743114
  0
LINE
  5
1D3
330
70
100
AcDbEntity
  8
Standardebene
 62
     7
370
    35
100
AcDbLine
 10
55.48816539538358
 20
128.6975803843755
 30
0.0
 11
55.70618206199556
 21
128.6975803843755
 31
0.0
  0
LINE
  5
1D4
330
70
100
AcDbEntity
  8
Standardebene
 62
     7
370
    35
100
AcDbLine
 10
40.11093484367235
 20
129.6980581619032
 30
0.0
 11
40.1268098436684
 21
129.6902970507938
 31
0.0
  0
LINE
  5
1D5
330
70
100
AcDbEntity
  8
Standardebene
  6
AI-Linetype-4
 62
     7
370
     9
100
AcDbLine
 10
30.61062929049177
 20
207.1577322543064
 30
0.0
 11
21.61091540385266
 21
207.1577322543064
 31
0.0
  0
LWPOLYLINE
  5
1D7
330
70
100
AcDbEntity
  8
Standardebene
  6
AI-Linetype-5
 62
     7
370
     9
100
AcDbPolyline
 90
        3
 70
     0
 43
0.0
 10
30.61062929049177
 20
207.1577322543064
 10
30.61062929049177
 20
208.1571516985009
 10
32.67437928997597
 20
208.1571516985009
  0
LINE
  5
1D9
330
70
100
AcDbEntity
  8
Standardebene
  6
AI-Linetype-6
 62
     7
370
     9
100
AcDbLine
 10
32.61087928999174
 20
208.1571516985009
 30
0.0
 11
32.61087928999174
 21
203.9072378106746
 31
0.0
  0
LINE
  5
1DB
330
70
100
AcDbEntity
  8
Standardebene
  6
AI-Linetype-7
 62
     7
370
     9
100
AcDbLine
 10
32.61087928999174
 20
179.6572933722924
 30
0.0
 11
32.61087928999174
 21
203.9072378106746
 31
0.0
  0
LWPOLYLINE
  5
1DD
330
70
100
AcDbEntity
  8
Standardebene
  6
AI-Linetype-8
 62
     7
370
     9
100
AcDbPolyline
 90
        3
 70
     0
 43
0.0
 10
32.61087928999174
 20
179.6572933722924
 10
30.61062929049177
 20
179.6572933722924
 10
30.61062929049177
 20
207.1577322543064
  0
LINE
  5
1DF
330
70
100
AcDbEntity
  8
Standardebene
  6
AI-Linetype-9
 62
     7
370
     9
100
AcDbLine
 10
30.61062929049177
 20
180.6574183720427
 30
0.0
 11
21.61091540385266
 21
180.6574183720427
 31
0.0
  0
LWPOLYLINE
  5
1E1
330
70
100
AcDbEntity
  8
Standardebene
  6
AI-Linetype-10
 62
     7
370
     9
100
AcDbPolyline
 90
        6
 70
     0
 43
0.0
 10
32.61087928999174
 20
183.907207260119
 10
55.73581539532143
 20
187.1577017037508
 10
59.110840394478
 20
187.1577017037508
 10
59.110840394478
 20
200.657448922598
 10
55.73581539532143
 20
200.657448922598
 10
55.73581539532143
 20
187.1577017037508
  0
LINE
  5
1E3
330
70
100
AcDbEntity
  8
Standardebene
  6
AI-Linetype-11
 62
     7
370
     9
100
AcDbLine
 10
55.73581539532143
 20
200.657448922598
 30
0.0
 11
32.61087928999174
 21
203.9072378106746
 31
0.0
  0
LINE
  5
1E5
330
70
100
AcDbEntity
  8
Standardebene
 62
     7
370
    35
100
AcDbLine
 10
19.65158762656501
 20
180.9071850386468
 30
0.0
 11
21.61091540385266
 21
180.9071850386468
 31
0.0
  0
LINE
  5
1E6
330
70
100
AcDbEntity
  8
Standardebene
 62
     7
370
    35
100
AcDbLine
 10
21.61091540385266
 20
206.9072600321468
 30
0.0
 11
21.55129595942317
 21
206.9072600321468
 31
0.0
  0
LINE
  5
1E7
330
70
100
AcDbEntity
  8
Standardebene
 62
     7
370
    35
100
AcDbLine
 10
19.55139873770097
 20
196.186696145938
 30
0.0
 11
19.55139873770097
 21
197.4633989233965
 31
0.0
  0
LINE
  5
1E8
330
70
100
AcDbEntity
  8
Standardebene
 62
     7
370
    35
100
AcDbLine
 10
19.55139873770097
 20
181.1971683719077
 30
0.0
 11
19.55139873770097
 21
185.9183933707273
 31
0.0
  0
LINE
  5
1E9
330
70
100
AcDbEntity
  8
Standardebene
 62
     7
370
    35
100
AcDbLine
 10
19.55139873770097
 20
181.0073739275105
 30
0.0
 11
19.65158762656501
 21
180.9071850386468
 31
0.0
  0
LINE
  5
1EA
330
70
100
AcDbEntity
  8
Standardebene
 62
     7
370
    35
100
AcDbLine
 10
19.55139873770097
 20
202.1729822555526
 30
0.0
 11
19.55139873770097
 21
202.8683072553789
 31
0.0
  0
LWPOLYLINE
  5
1EB
330
70
100
AcDbEntity
  8
Standardebene
 62
     7
370
    35
100
AcDbPolyline
 90
        3
 70
     0
 43
0.0
 10
19.65158762656501
 20
181.1301405941465
 10
19.65158762656501
 20
180.9629239275219
 10
19.65158762656501
 20
180.9071850386468
  0
LWPOLYLINE
  5
1EC
330
70
100
AcDbEntity
  8
Standardebene
 62
     7
370
    35
100
AcDbPolyline
 90
       14
 70
     0
 43
0.0
 10
21.55129595942317
 20
197.6009822566956
 10
21.55129595942317
 20
195.9485711459975
 10
21.55129595942317
 20
194.2608822575306
 10
21.55129595942317
 20
192.5671961468428
 10
21.55129595942317
 20
190.896440591705
 10
21.55129595942317
 20
189.2771905921097
 10
21.55129595942317
 20
187.7366100369393
 10
21.55129595942317
 20
186.300451703965
 10
21.55129595942317
 20
184.9941155931806
 10
21.55129595942317
 20
183.8387683712474
 10
21.55129595942317
 20
182.8541655937157
 10
21.55129595942317
 20
182.0582989272479
 10
21.55129595942317
 20
181.4631628162856
 10
21.55129595942317
 20
181.0796933719369
  0
LWPOLYLINE
  5
1ED
330
70
100
AcDbEntity
  8
Standardebene
 62
     7
370
    35
100
AcDbPolyline
 90
        4
 70
     0
 43
0.0
 10
19.65158762656501
 20
202.3698322555034
 10
19.65158762656501
 20
200.8257239225559
 10
19.65158762656501
 20
199.1313322563128
 10
19.65158762656501
 20
197.3233461456537
  0
LWPOLYLINE
  5
1EE
330
70
100
AcDbEntity
  8
Standardebene
 62
     7
370
    35
100
AcDbPolyline
 90
        8
 70
     0
 43
0.0
 10
21.55129595942317
 20
206.9072600321468
 10
21.55129595942317
 20
206.8038961432836
 10
21.55129595942317
 20
206.4948628100277
 10
21.55129595942317
 20
205.9850989212661
 10
21.55129595942317
 20
205.2834239214416
 10
21.55129595942317
 20
204.400068366107
 10
21.55129595942317
 20
203.3491433663696
 10
21.55129595942317
 20
202.1482878111141
  0
LWPOLYLINE
  5
1EF
330
70
100
AcDbEntity
  8
Standardebene
 62
     7
370
    35
100
AcDbPolyline
 90
        4
 70
     0
 43
0.0
 10
19.55139873770097
 20
197.4633989233965
 10
19.55139873770097
 20
199.1440322563097
 10
19.55139873770097
 20
200.7237711448037
 10
19.55139873770097
 20
202.1729822555526
  0
LWPOLYLINE
  5
1F0
330
70
100
AcDbEntity
  8
Standardebene
 62
     7
370
    35
100
AcDbPolyline
 90
        3
 70
     0
 43
0.0
 10
19.65158762656501
 20
186.1762739262183
 10
19.65158762656501
 20
186.0863155929074
 10
19.65158762656501
 20
186.0139961484811
  0
LWPOLYLINE
  5
1F1
330
70
100
AcDbEntity
  8
Standardebene
 62
     7
370
    35
100
AcDbPolyline
 90
        3
 70
     0
 43
0.0
 10
19.55139873770097
 20
181.0073739275105
 10
19.55139873770097
 20
181.0553517052765
 10
19.55139873770097
 20
181.1971683719077
  0
LWPOLYLINE
  5
1F2
330
70
100
AcDbEntity
  8
Standardebene
 62
     7
370
    35
100
AcDbPolyline
 90
        3
 70
     0
 43
0.0
 10
19.55139873770097
 20
185.9183933707273
 10
19.55139873770097
 20
185.9723683707139
 10
19.55139873770097
 20
186.0362211484756
  0
LINE
  5
1F3
330
70
100
AcDbEntity
  8
Standardebene
 62
     7
370
    35
100
AcDbLine
 10
20.95157373735094
 20
181.0281878163943
 30
0.0
 11
19.851612626515
 21
181.1301405941465
 31
0.0
  0
LINE
  5
1F4
330
70
100
AcDbEntity
  8
Standardebene
 62
     7
370
    35
100
AcDbLine
 10
20.95157373735094
 20
197.9318878121684
 30
0.0
 11
19.851612626515
 21
197.3233461456537
 31
0.0
  0
LINE
  5
1F5
330
70
100
AcDbEntity
  8
Standardebene
 62
     7
370
    35
100
AcDbLine
 10
20.95157373735094
 20
201.8777072556262
 30
0.0
 11
19.851612626515
 21
202.3698322555034
 31
0.0
  0
LINE
  5
1F6
330
70
100
AcDbEntity
  8
Standardebene
 62
     7
370
    35
100
AcDbLine
 10
20.95157373735094
 20
202.6005489221125
 30
0.0
 11
19.851612626515
 21
203.0623350331079
 31
0.0
  0
LINE
  5
1F7
330
70
100
AcDbEntity
  8
Standardebene
 62
     7
370
    35
100
AcDbLine
 10
20.95157373735094
 20
196.60015170139
 30
0.0
 11
19.851612626515
 21
195.9933739237642
 31
0.0
  0
LINE
  5
1F8
330
70
100
AcDbEntity
  8
Standardebene
 62
     7
370
    35
100
AcDbLine
 10
20.95157373735094
 20
185.9540239262738
 30
0.0
 11
19.851612626515
 21
186.0475100373617
 31
0.0
  0
LINE
  5
1F9
330
70
100
AcDbEntity
  8
Standardebene
 62
     7
370
    35
100
AcDbLine
 10
20.95157373735094
 20
186.0372794818088
 30
0.0
 11
19.851612626515
 21
186.1762739262183
 31
0.0
  0
LWPOLYLINE
  5
1FA
330
70
100
AcDbEntity
  8
Standardebene
 62
     7
370
    35
100
AcDbPolyline
 90
       13
 70
     0
 43
0.0
 10
19.851612626515
 20
181.1301405941465
 10
19.8279765154098
 20
181.1322572608127
 10
19.80328207097131
 20
181.1336683719235
 10
19.79058207097446
 20
181.1340211497012
 10
19.77752929320018
 20
181.134373927479
 10
19.76412373764781
 20
181.1350794830342
 10
19.7510709598732
 20
181.1350794830342
 10
19.73837095987635
 20
181.1350794830342
 10
19.72531818210207
 20
181.134373927479
 10
19.7119126265497
 20
181.1340211497012
 10
19.69921262655286
 20
181.1336683719235
 10
19.67487095989245
 20
181.1322572608127
 10
19.65158762656501
 20
181.1301405941465
  0
LWPOLYLINE
  5
1FB
330
70
100
AcDbEntity
  8
Standardebene
 62
     7
370
    35
100
AcDbPolyline
 90
        5
 70
     0
 43
0.0
 10
21.55129595942317
 20
181.0796933719369
 10
21.49661540388137
 20
181.049001705278
 10
21.35127095947317
 20
181.0281878163943
 10
21.15159873730094
 20
181.0207794830629
 10
20.95157373735094
 20
181.0281878163943
  0
LWPOLYLINE
  5
1FC
330
70
100
AcDbEntity
  8
Standardebene
 62
     7
370
    35
100
AcDbPolyline
 90
        5
 70
     0
 43
0.0
 10
20.95157373735094
 20
197.9318878121684
 10
21.15159873730094
 20
197.982335034378
 10
21.35127095947317
 20
197.9318878121684
 10
21.49661540388137
 20
197.7921878122034
 10
21.55129595942317
 20
197.6009822566956
  0
LWPOLYLINE
  5
1FD
330
70
100
AcDbEntity
  8
Standardebene
 62
     7
370
    35
100
AcDbPolyline
 90
       13
 70
     0
 43
0.0
 10
19.65158762656501
 20
197.3233461456537
 10
19.67487095989245
 20
197.3124100345454
 10
19.69921262655286
 20
197.303943367881
 10
19.71261818210522
 20
197.3011211456593
 10
19.72567095987983
 20
197.2990044789933
 10
19.73837095987635
 20
197.2975933678826
 10
19.7510709598732
 20
197.2972405901048
 10
19.76412373764781
 20
197.2975933678826
 10
19.77752929320018
 20
197.2990044789933
 10
19.79058207097446
 20
197.3011211456593
 10
19.80328207097131
 20
197.303943367881
 10
19.8279765154098
 20
197.3124100345454
 10
19.851612626515
 20
197.3233461456537
  0
LWPOLYLINE
  5
1FE
330
70
100
AcDbEntity
  8
Standardebene
 62
     7
370
    35
100
AcDbPolyline
 90
       13
 70
     0
 43
0.0
 10
19.851612626515
 20
202.3698322555034
 10
19.8279765154098
 20
202.3786516999455
 10
19.80328207097131
 20
202.3850016999439
 10
19.79058207097446
 20
202.3871183666102
 10
19.77752929320018
 20
202.3888822554986
 10
19.76412373764781
 20
202.3899405888316
 10
19.7510709598732
 20
202.3902933666093
 10
19.73837095987635
 20
202.3899405888316
 10
19.72531818210207
 20
202.3888822554986
 10
19.7119126265497
 20
202.3871183666102
 10
19.69921262655286
 20
202.3850016999439
 10
19.67487095989245
 20
202.3786516999455
 10
19.65158762656501
 20
202.3698322555034
  0
LWPOLYLINE
  5
1FF
330
70
100
AcDbEntity
  8
Standardebene
 62
     7
370
    35
100
AcDbPolyline
 90
        5
 70
     0
 43
0.0
 10
21.55129595942317
 20
202.1482878111141
 10
21.49661540388137
 20
201.9930655889308
 10
21.35127095947317
 20
201.8777072556262
 10
21.15159873730094
 20
201.836079477859
 10
20.95157373735094
 20
201.8777072556262
  0
LWPOLYLINE
  5
200
330
70
100
AcDbEntity
  8
Standardebene
 62
     7
370
    35
100
AcDbPolyline
 90
        5
 70
     0
 43
0.0
 10
20.95157373735094
 20
202.6005489221125
 10
21.15159873730094
 20
202.5613905887887
 10
21.35127095947317
 20
202.6005489221125
 10
21.49661540388137
 20
202.7092044776406
 10
21.55129595942317
 20
202.8552544776043
  0
LWPOLYLINE
  5
201
330
70
100
AcDbEntity
  8
Standardebene
 62
     7
370
    35
100
AcDbPolyline
 90
       13
 70
     0
 43
0.0
 10
19.65158762656501
 20
203.0623350331079
 10
19.67487095989245
 20
203.0708016997726
 10
19.69921262655286
 20
203.0767989219933
 10
19.71261818210522
 20
203.0785628108818
 10
19.72567095987983
 20
203.0803266997702
 10
19.73837095987635
 20
203.0806794775477
 10
19.7510709598732
 20
203.0810322553254
 10
19.76412373764781
 20
203.0806794775477
 10
19.77752929320018
 20
203.0803266997702
 10
19.79058207097446
 20
203.0785628108818
 10
19.80328207097131
 20
203.076093366438
 10
19.8279765154098
 20
203.0708016997726
 10
19.851612626515
 20
203.0623350331079
  0
LWPOLYLINE
  5
202
330
70
100
AcDbEntity
  8
Standardebene
 62
     7
370
    35
100
AcDbPolyline
 90
        5
 70
     0
 43
0.0
 10
19.65158762656501
 20
202.3698322555034
 10
19.61454595990743
 20
202.3246766999589
 10
19.58279595991532
 20
202.2752878110825
 10
19.55986540436564
 20
202.222723922207
 10
19.55139873770097
 20
202.1729822555526
  0
LWPOLYLINE
  5
203
330
70
100
AcDbEntity
  8
Standardebene
 62
     7
370
    35
100
AcDbPolyline
 90
       17
 70
     0
 43
0.0
 10
19.55139873770097
 20
197.4633989233965
 10
19.55175151547873
 20
197.4496405900667
 10
19.55351540436721
 20
197.4362350345146
 10
19.55492651547794
 20
197.4295322567384
 10
19.5559848488109
 20
197.4228294789623
 10
19.55774873769939
 20
197.4164794789638
 10
19.55986540436564
 20
197.4104822567432
 10
19.56409873769781
 20
197.3988405900793
 10
19.56974318214103
 20
197.3882572567487
 10
19.57609318213913
 20
197.3776739234181
 10
19.58279595991532
 20
197.3685017011982
 10
19.59761262657841
 20
197.3529794789796
 10
19.61419318212967
 20
197.3399267012053
 10
19.6230126265721
 20
197.3346350345399
 10
19.63253762656974
 20
197.3300489234299
 10
19.64170984878961
 20
197.326521145653
 10
19.65158762656501
 20
197.3233461456537
  0
LWPOLYLINE
  5
204
330
70
100
AcDbEntity
  8
Standardebene
 62
     7
370
    35
100
AcDbPolyline
 90
        5
 70
     0
 43
0.0
 10
21.55129595942317
 20
196.271010034806
 10
21.49661540388137
 20
196.4611572569806
 10
21.35127095947317
 20
196.60015170139
 10
21.15159873730094
 20
196.6495405902667
 10
20.95157373735094
 20
196.60015170139
  0
LWPOLYLINE
  5
205
330
70
100
AcDbEntity
  8
Standardebene
 62
     7
370
    35
100
AcDbPolyline
 90
       15
 70
     0
 43
0.0
 10
19.65158762656501
 20
195.9933739237642
 10
19.63253762656974
 20
196.0103072570932
 10
19.61454595990743
 20
196.0300628126437
 10
19.60607929324276
 20
196.0402933681968
 10
19.59761262657841
 20
196.0508767015274
 10
19.58985151546927
 20
196.0625183681913
 10
19.58279595991532
 20
196.0748655904104
 10
19.57609318213913
 20
196.087918368185
 10
19.57009595991847
 20
196.101323923737
 10
19.56445151547557
 20
196.1150822570669
 10
19.55986540436564
 20
196.128840590397
 10
19.5559848488109
 20
196.1429517015046
 10
19.55351540436721
 20
196.1577683681673
 10
19.55175151547873
 20
196.1725850348304
 10
19.55139873770097
 20
196.186696145938
  0
LWPOLYLINE
  5
206
330
70
100
AcDbEntity
  8
Standardebene
 62
     7
370
    35
100
AcDbPolyline
 90
       13
 70
     0
 43
0.0
 10
19.851612626515
 20
195.9933739237642
 10
19.8279765154098
 20
195.9824378126558
 10
19.80328207097131
 20
195.9743239237689
 10
19.79058207097446
 20
195.9711489237697
 10
19.77752929320018
 20
195.9693850348812
 10
19.76412373764781
 20
195.9679739237705
 10
19.7510709598732
 20
195.9676211459927
 10
19.73837095987635
 20
195.9679739237705
 10
19.72531818210207
 20
195.9693850348812
 10
19.7119126265497
 20
195.9711489237697
 10
19.69921262655286
 20
195.9743239237689
 10
19.67487095989245
 20
195.9824378126558
 10
19.65158762656501
 20
195.9933739237642
  0
LWPOLYLINE
  5
207
330
70
100
AcDbEntity
  8
Standardebene
 62
     7
370
    35
100
AcDbPolyline
 90
        7
 70
     0
 43
0.0
 10
20.95157373735094
 20
185.9540239262738
 10
21.04823484843801
 20
185.9494378151639
 10
21.15159873730094
 20
185.9480267040531
 10
21.25460984838642
 20
185.9494378151639
 10
21.35127095947317
 20
185.9540239262738
 10
21.49661540388137
 20
185.9709572596031
 10
21.55129595942317
 20
185.9984739262628
  0
LWPOLYLINE
  5
208
330
70
100
AcDbEntity
  8
Standardebene
 62
     7
370
    35
100
AcDbPolyline
 90
       13
 70
     0
 43
0.0
 10
19.65158762656501
 20
186.0475100373617
 10
19.67487095989245
 20
186.0492739262502
 10
19.69921262655286
 20
186.0510378151387
 10
19.71261818210522
 20
186.0513905929161
 10
19.72567095987983
 20
186.0524489262494
 10
19.73837095987635
 20
186.0524489262494
 10
19.7510709598732
 20
186.0524489262494
 10
19.76412373764781
 20
186.0524489262494
 10
19.77752929320018
 20
186.0524489262494
 10
19.79058207097446
 20
186.0513905929161
 10
19.80328207097131
 20
186.0510378151387
 10
19.8279765154098
 20
186.0492739262502
 10
19.851612626515
 20
186.0475100373617
  0
LWPOLYLINE
  5
209
330
70
100
AcDbEntity
  8
Standardebene
 62
     7
370
    35
100
AcDbPolyline
 90
       13
 70
     0
 43
0.0
 10
19.851612626515
 20
186.1762739262183
 10
19.8279765154098
 20
186.1790961484401
 10
19.80328207097131
 20
186.181212815106
 10
19.79058207097446
 20
186.1815655928838
 10
19.77752929320018
 20
186.1826239262167
 10
19.76412373764781
 20
186.1829767039945
 10
19.7510709598732
 20
186.1829767039945
 10
19.73837095987635
 20
186.1829767039945
 10
19.72531818210207
 20
186.1826239262167
 10
19.7119126265497
 20
186.1815655928838
 10
19.69921262655286
 20
186.181212815106
 10
19.67487095989245
 20
186.1790961484401
 10
19.65158762656501
 20
186.1762739262183
  0
LWPOLYLINE
  5
20A
330
70
100
AcDbEntity
  8
Standardebene
 62
     7
370
    35
100
AcDbPolyline
 90
        4
 70
     0
 43
0.0
 10
21.46239595944557
 20
186.0552711484708
 10
21.35127095947317
 20
186.0372794818088
 10
21.15159873730094
 20
186.0274017040335
 10
20.95157373735094
 20
186.0372794818088
  0
LWPOLYLINE
  5
20B
330
70
100
AcDbEntity
  8
Standardebene
 62
     7
370
    35
100
AcDbPolyline
 90
        5
 70
     0
 43
0.0
 10
19.65158762656501
 20
181.1301405941465
 10
19.61454595990743
 20
181.1611850385834
 10
19.58279595991532
 20
181.185173927466
 10
19.55986540436564
 20
181.1989322607962
 10
19.55139873770097
 20
181.1971683719077
  0
LWPOLYLINE
  5
20C
330
70
100
AcDbEntity
  8
Standardebene
 62
     7
370
    35
100
AcDbPolyline
 90
       15
 70
     0
 43
0.0
 10
19.55139873770097
 20
185.9183933707273
 10
19.55175151547873
 20
185.9219211485043
 10
19.55351540436721
 20
185.9254489262809
 10
19.55492651547794
 20
185.9282711485027
 10
19.5559848488109
 20
185.9303878151686
 10
19.55774873769939
 20
185.9339155929456
 10
19.55986540436564
 20
185.936737815167
 10
19.56409873769781
 20
185.943793370721
 10
19.57009595991847
 20
185.9508489262746
 10
19.57609318213913
 20
185.9593155929393
 10
19.58279595991532
 20
185.9677822596039
 10
19.59761262657841
 20
185.9864794818214
 10
19.61454595990743
 20
186.0055294818167
 10
19.63253762656974
 20
186.0266961484779
 10
19.65158762656501
 20
186.0475100373617
  0
LWPOLYLINE
  5
20D
330
70
100
AcDbEntity
  8
Standardebene
 62
     7
370
    35
100
AcDbPolyline
 90
        5
 70
     0
 43
0.0
 10
19.65158762656501
 20
186.1762739262183
 10
19.61454595990743
 20
186.1328822595626
 10
19.58279595991532
 20
186.0930183706836
 10
19.55986540436564
 20
186.0587989262478
 10
19.55139873770097
 20
186.0362211484756
  0
LWPOLYLINE
  5
20E
330
70
100
AcDbEntity
  8
Standardebene
 62
     7
370
    35
100
AcDbPolyline
 90
        5
 70
     0
 43
0.0
 10
19.55139873770097
 20
202.8683072553789
 10
19.55986540436564
 20
202.9159322553668
 10
19.58279595991532
 20
202.9670850331319
 10
19.61419318212967
 20
203.0164739220086
 10
19.65158762656501
 20
203.0623350331079
  0
LINE
  5
20F
330
70
100
AcDbEntity
  8
Standardebene
 62
     7
370
    35
100
AcDbLine
 10
143.3763443860653
 20
199.5715989228696
 30
0.0
 11
139.8146999425111
 21
203.0810322553254
 31
0.0
  0
LINE
  5
210
330
70
100
AcDbEntity
  8
Standardebene
 62
     7
370
    35
100
AcDbLine
 10
156.7554416049425
 20
195.9676211459927
 30
0.0
 11
161.5754443815155
 21
197.2972405901048
 31
0.0
  0
LINE
  5
211
330
70
100
AcDbEntity
  8
Standardebene
 62
     7
370
    35
100
AcDbLine
 10
146.9446916073954
 20
186.1829767039945
 30
0.0
 11
145.6863332743766
 21
181.3439239274266
 31
0.0
  0
LINE
  5
212
330
70
100
AcDbEntity
  8
Standardebene
 62
     7
370
    35
100
AcDbLine
 10
158.8766943821902
 20
202.3902933666093
 30
0.0
 11
155.0702221609193
 21
199.1475600340867
 31
0.0
  0
LINE
  5
213
330
70
100
AcDbEntity
  8
Standardebene
 62
     7
370
    35
100
AcDbLine
 10
151.4461360507145
 20
181.1350794830342
 30
0.0
 11
150.5412610509406
 21
186.0524489262494
 31
0.0
  0
LINE
  5
214
330
70
100
AcDbEntity
  8
Standardebene
 62
     7
370
    35
100
AcDbLine
 10
136.7536471654987
 20
198.1978822565463
 30
0.0
 11
141.4649943865429
 21
196.5221878125208
 31
0.0
  0
SPLINE
  5
215
330
70
100
AcDbEntity
  8
Standardebene
 62
     7
370
    35
100
AcDbSpline
210
0.0
220
0.0
230
1.0
 70
     8
 71
     3
 72
     8
 73
     4
 74
     0
 42
0.0000000001
 43
0.0000000001
 40
0.0
 40
0.0
 40
0.0
 40
0.0
 40
1.0
 40
1.0
 40
1.0
 40
1.0
 10
143.35729438607
 20
199.5529017006521
 30
0.0
 10
142.4697054974028
 20
198.6621378119857
 30
0.0
 10
141.8354110531171
 20
197.6143878122476
 30
0.0
 10
141.4734610532076
 20
196.5475878125145
 30
0.0
  0
SPLINE
  5
216
330
70
100
AcDbEntity
  8
Standardebene
 62
     7
370
    35
100
AcDbSpline
210
0.0
220
0.0
230
1.0
 70
     8
 71
     3
 72
     8
 73
     4
 74
     0
 42
0.0000000001
 43
0.0000000001
 40
0.0
 40
0.0
 40
0.0
 40
0.0
 40
1.0
 40
1.0
 40
1.0
 40
1.0
 10
143.1646777194514
 20
199.4989267006655
 30
0.0
 10
142.3705749418721
 20
198.6660183675405
 30
0.0
 10
141.7884916086844
 20
197.7082267011132
 30
0.0
 10
141.4381832754385
 20
196.7440850346875
 30
0.0
  0
SPLINE
  5
217
330
70
100
AcDbEntity
  8
Standardebene
 62
     7
370
    35
100
AcDbSpline
210
0.0
220
0.0
230
1.0
 70
     8
 71
     3
 72
     8
 73
     4
 74
     0
 42
0.0000000001
 43
0.0000000001
 40
0.0
 40
0.0
 40
0.0
 40
0.0
 40
1.0
 40
1.0
 40
1.0
 40
1.0
 10
146.9704443851668
 20
186.1759211484409
 30
0.0
 10
148.1854110515296
 20
185.8527767040772
 30
0.0
 10
149.4099027178899
 20
185.8273767040835
 30
0.0
 10
150.5151554953917
 20
186.0475100373617
 30
0.0
  0
SPLINE
  5
218
330
70
100
AcDbEntity
  8
Standardebene
 62
     7
370
    35
100
AcDbSpline
210
0.0
220
0.0
230
1.0
 70
     8
 71
     3
 72
     8
 73
     4
 74
     0
 42
0.0000000001
 43
0.0000000001
 40
0.0
 40
0.0
 40
0.0
 40
0.0
 40
1.0
 40
1.0
 40
1.0
 40
1.0
 10
156.7977749382655
 20
196.186696145938
 30
0.0
 10
156.4739249383463
 20
197.2915961456619
 30
0.0
 10
155.935586049592
 20
198.2744350343048
 30
0.0
 10
155.2755388275348
 20
199.059718367442
 30
0.0
  0
SPLINE
  5
219
330
70
100
AcDbEntity
  8
Standardebene
 62
     7
370
    35
100
AcDbSpline
210
0.0
220
0.0
230
1.0
 70
     8
 71
     3
 72
     8
 73
     4
 74
     0
 42
0.0000000001
 43
0.0000000001
 40
0.0
 40
0.0
 40
0.0
 40
0.0
 40
1.0
 40
1.0
 40
1.0
 40
1.0
 10
147.1129666073532
 20
186.0362211484756
 30
0.0
 10
148.2319777181845
 20
185.7645822596547
 30
0.0
 10
149.3520471623489
 20
185.7391822596611
 30
0.0
 10
150.3624027176521
 20
185.9183933707273
 30
0.0
  0
SPLINE
  5
21A
330
70
100
AcDbEntity
  8
Standardebene
 62
     7
370
    35
100
AcDbSpline
210
0.0
220
0.0
230
1.0
 70
     8
 71
     3
 72
     8
 73
     4
 74
     0
 42
0.0000000001
 43
0.0000000001
 40
0.0
 40
0.0
 40
0.0
 40
0.0
 40
1.0
 40
1.0
 40
1.0
 40
1.0
 10
156.7483860493889
 20
195.9933739237642
 30
0.0
 10
156.4206554939152
 20
197.207282256794
 30
0.0
 10
155.8304582718406
 20
198.2807850343032
 30
0.0
 10
155.0878610498039
 20
199.1274517007584
 30
0.0
  0
SPLINE
  5
21B
330
70
100
AcDbEntity
  8
Standardebene
 62
     7
370
    35
100
AcDbSpline
210
0.0
220
0.0
230
1.0
 70
     8
 71
     3
 72
     8
 73
     4
 74
     0
 42
0.0000000001
 43
0.0000000001
 40
0.0
 40
0.0
 40
0.0
 40
0.0
 40
1.0
 40
1.0
 40
1.0
 40
1.0
 10
145.9050554965441
 20
181.3904905940815
 30
0.0
 10
147.7366777183084
 20
180.9339961497512
 30
0.0
 10
149.5739443845157
 20
180.893426705317
 30
0.0
 10
151.2309416063237
 20
181.1971683719077
 30
0.0
  0
SPLINE
  5
21C
330
70
100
AcDbEntity
  8
Standardebene
 62
     7
370
    35
100
AcDbSpline
210
0.0
220
0.0
230
1.0
 70
     8
 71
     3
 72
     8
 73
     4
 74
     0
 42
0.0000000001
 43
0.0000000001
 40
0.0
 40
0.0
 40
0.0
 40
0.0
 40
1.0
 40
1.0
 40
1.0
 40
1.0
 10
161.5683888259615
 20
197.3233461456537
 30
0.0
 10
161.0363999372057
 20
199.2766767007211
 30
0.0
 10
160.0863693818876
 20
201.0045822558447
 30
0.0
 10
158.8939804932967
 20
202.3698322555034
 30
0.0
  0
SPLINE
  5
21D
330
70
100
AcDbEntity
  8
Standardebene
 62
     7
370
    35
100
AcDbSpline
210
0.0
220
0.0
230
1.0
 70
     8
 71
     3
 72
     8
 73
     4
 74
     0
 42
0.0000000001
 43
0.0000000001
 40
0.0
 40
0.0
 40
0.0
 40
0.0
 40
1.0
 40
1.0
 40
1.0
 40
1.0
 10
145.7120860521478
 20
181.3368683718726
 30
0.0
 10
147.6696499405475
 20
180.8207544831129
 30
0.0
 10
149.6406193844991
 20
180.7798322609009
 30
0.0
 10
151.4193249396101
 20
181.1301405941465
 30
0.0
  0
SPLINE
  5
21E
330
70
100
AcDbEntity
  8
Standardebene
 62
     7
370
    35
100
AcDbSpline
210
0.0
220
0.0
230
1.0
 70
     8
 71
     3
 72
     8
 73
     4
 74
     0
 42
0.0000000001
 43
0.0000000001
 40
0.0
 40
0.0
 40
0.0
 40
0.0
 40
1.0
 40
1.0
 40
1.0
 40
1.0
 10
161.4258666037751
 20
197.4633989233965
 30
0.0
 10
160.9051666039053
 20
199.2780878118318
 30
0.0
 10
160.0214582707929
 20
200.8895767003179
 30
0.0
 10
158.9296110488436
 20
202.1729822555526
 30
0.0
  0
SPLINE
  5
21F
330
70
100
AcDbEntity
  8
Standardebene
 62
     7
370
    35
100
AcDbSpline
210
0.0
220
0.0
230
1.0
 70
     8
 71
     3
 72
     8
 73
     4
 74
     0
 42
0.0000000001
 43
0.0000000001
 40
0.0
 40
0.0
 40
0.0
 40
0.0
 40
1.0
 40
1.0
 40
1.0
 40
1.0
 10
139.745555498084
 20
202.8683072553789
 30
0.0
 10
138.4342804984119
 20
201.5104655890517
 30
0.0
 10
137.4810749430946
 20
199.9395461449998
 30
0.0
 10
136.9152193876804
 20
198.3523989231744
 30
0.0
  0
SPLINE
  5
220
330
70
100
AcDbEntity
  8
Standardebene
 62
     7
370
    35
100
AcDbSpline
210
0.0
220
0.0
230
1.0
 70
     8
 71
     3
 72
     8
 73
     4
 74
     0
 42
0.0000000001
 43
0.0000000001
 40
0.0
 40
0.0
 40
0.0
 40
0.0
 40
1.0
 40
1.0
 40
1.0
 40
1.0
 10
139.7956499425158
 20
203.0623350331079
 30
0.0
 10
138.3697221650947
 20
201.6251183668007
 30
0.0
 10
137.348783276461
 20
199.938135033889
 30
0.0
 10
136.7624666099408
 20
198.2229294787622
 30
0.0
  0
SPLINE
  5
221
330
70
100
AcDbEntity
  8
Standardebene
 62
     7
370
    35
100
AcDbSpline
210
0.0
220
0.0
230
1.0
 70
     8
 71
     3
 72
    11
 73
     7
 74
     0
 42
0.0000000001
 43
0.0000000001
 40
0.0
 40
0.0
 40
0.0
 40
0.0
 40
1.0
 40
1.0
 40
1.0
 40
2.0
 40
2.0
 40
2.0
 40
2.0
 10
136.7536471654987
 20
198.1982350343241
 30
0.0
 10
136.246352721181
 20
196.7472600346867
 30
0.0
 10
136.0117554990175
 20
195.2666517017235
 30
0.0
 10
136.0255138323473
 20
193.9073989242855
 30
0.0
 10
136.0255138323473
 20
187.9062961480082
 30
0.0
 10
140.0926888313307
 20
182.8538128159379
 30
0.0
 10
145.7120860521478
 20
181.3372211496504
 30
0.0
  0
SPLINE
  5
222
330
70
100
AcDbEntity
  8
Standardebene
 62
     7
370
    35
100
AcDbSpline
210
0.0
220
0.0
230
1.0
 70
     8
 71
     3
 72
    11
 73
     7
 74
     0
 42
0.0000000001
 43
0.0000000001
 40
0.0
 40
0.0
 40
0.0
 40
0.0
 40
1.0
 40
1.0
 40
1.0
 40
2.0
 40
2.0
 40
2.0
 40
2.0
 10
141.4649943865429
 20
196.5221878125208
 30
0.0
 10
141.1584304977308
 20
195.6370683682976
 30
0.0
 10
141.0169666088773
 20
194.7346628129677
 30
0.0
 10
141.0254332755417
 20
193.9073989242855
 30
0.0
 10
141.0254332755417
 20
190.2286322585386
 30
0.0
 10
143.5082832749211
 20
187.1301850370912
 30
0.0
 10
146.9461027185061
 20
186.1826239262167
 30
0.0
  0
SPLINE
  5
223
330
70
100
AcDbEntity
  8
Standardebene
 62
     7
370
    35
100
AcDbSpline
210
0.0
220
0.0
230
1.0
 70
     8
 71
     3
 72
    11
 73
     7
 74
     0
 42
0.0000000001
 43
0.0000000001
 40
0.0
 40
0.0
 40
0.0
 40
0.0
 40
1.0
 40
1.0
 40
1.0
 40
2.0
 40
2.0
 40
2.0
 40
2.0
 10
158.8770471599677
 20
202.3892350332764
 30
0.0
 10
156.3123527161646
 20
205.3684433658648
 30
0.0
 10
152.6914416059587
 20
206.9002044765932
 30
0.0
 10
149.025727717986
 20
206.9072600321468
 30
0.0
 10
145.4196332744432
 20
206.9072600321468
 30
0.0
 10
142.1567916085923
 20
205.4397044769582
 30
0.0
 10
139.8009416091813
 20
203.0672739219956
 30
0.0
  0
SPLINE
  5
224
330
70
100
AcDbEntity
  8
Standardebene
 62
     7
370
    35
100
AcDbSpline
210
0.0
220
0.0
230
1.0
 70
     8
 71
     3
 72
    11
 73
     7
 74
     0
 42
0.0000000001
 43
0.0000000001
 40
0.0
 40
0.0
 40
0.0
 40
0.0
 40
1.0
 40
1.0
 40
1.0
 40
2.0
 40
2.0
 40
2.0
 40
2.0
 10
155.0825693831388
 20
199.1330961452013
 30
0.0
 10
153.5042416057555
 20
200.9626017002998
 30
0.0
 10
151.2785666063118
 20
201.9027544778422
 30
0.0
 10
149.025727717986
 20
201.9073405889524
 30
0.0
 10
146.8194554963154
 20
201.9073405889524
 30
0.0
 10
144.8220277190372
 20
201.0148128113975
 30
0.0
 10
143.3749332749543
 20
199.5712461450919
 30
0.0
  0
SPLINE
  5
225
330
70
100
AcDbEntity
  8
Standardebene
 62
     7
370
    35
100
AcDbSpline
210
0.0
220
0.0
230
1.0
 70
     8
 71
     3
 72
     8
 73
     4
 74
     0
 42
0.0000000001
 43
0.0000000001
 40
0.0
 40
0.0
 40
0.0
 40
0.0
 40
1.0
 40
1.0
 40
1.0
 40
1.0
 10
162.0255888258473
 20
193.9073989242855
 30
0.0
 10
162.0255888258473
 20
195.1198961462046
 30
0.0
 10
161.8594304925556
 20
196.2935878125779
 30
0.0
 10
161.5705054926277
 20
197.3159378123223
 30
0.0
  0
SPLINE
  5
226
330
70
100
AcDbEntity
  8
Standardebene
 62
     7
370
    35
100
AcDbSpline
210
0.0
220
0.0
230
1.0
 70
     8
 71
     3
 72
     8
 73
     4
 74
     0
 42
0.0000000001
 43
0.0000000001
 40
0.0
 40
0.0
 40
0.0
 40
0.0
 40
1.0
 40
1.0
 40
1.0
 40
1.0
 10
151.4447249396035
 20
181.134373927479
 30
0.0
 10
157.658552715828
 20
182.3115933716289
 30
0.0
 10
161.9952499369659
 20
187.7288489258301
 30
0.0
 10
162.0255888258473
 20
193.9073989242855
 30
0.0
  0
SPLINE
  5
227
330
70
100
AcDbEntity
  8
Standardebene
 62
     7
370
    35
100
AcDbSpline
210
0.0
220
0.0
230
1.0
 70
     8
 71
     3
 72
     8
 73
     4
 74
     0
 42
0.0000000001
 43
0.0000000001
 40
0.0
 40
0.0
 40
0.0
 40
0.0
 40
1.0
 40
1.0
 40
1.0
 40
1.0
 10
157.0256693826529
 20
193.9073989242855
 30
0.0
 10
157.0256693826529
 20
194.6397655907691
 30
0.0
 10
156.9268916048999
 20
195.3499072572582
 30
0.0
 10
156.7554416049425
 20
195.9676211459927
 30
0.0
  0
SPLINE
  5
228
330
70
100
AcDbEntity
  8
Standardebene
 62
     7
370
    35
100
AcDbSpline
210
0.0
220
0.0
230
1.0
 70
     8
 71
     3
 72
     8
 73
     4
 74
     0
 42
0.0000000001
 43
0.0000000001
 40
0.0
 40
0.0
 40
0.0
 40
0.0
 40
1.0
 40
1.0
 40
1.0
 40
1.0
 10
150.5412610509406
 20
186.0524489262494
 30
0.0
 10
154.3530249388766
 20
186.7883433705099
 30
0.0
 10
157.0069721604354
 20
190.1160961474558
 30
0.0
 10
157.0256693826529
 20
193.9073989242855
 30
0.0
  0
LWPOLYLINE
  5
229
330
70
100
AcDbEntity
  8
Standardebene
 62
     7
370
    35
100
AcDbPolyline
 90
       15
 70
     0
 43
0.0
 10
143.35729438607
 20
199.5529017006521
 10
143.3347166082978
 20
199.5574878117621
 10
143.3117860527481
 20
199.559604478428
 10
143.2997916083065
 20
199.559604478428
 10
143.2877971638651
 20
199.5581933673173
 10
143.2747443860905
 20
199.5567822562065
 10
143.2623971638714
 20
199.5546655895403
 10
143.2493443860969
 20
199.5511378117636
 10
143.2369971638778
 20
199.5465517006537
 10
143.2239443861031
 20
199.5412600339882
 10
143.2115971638841
 20
199.5345572562121
 10
143.1988971638872
 20
199.5275017006584
 10
143.1869027194459
 20
199.5190350339938
 10
143.1759666083376
 20
199.5095100339961
 10
143.1646777194514
 20
199.4989267006655
  0
LWPOLYLINE
  5
22A
330
70
100
AcDbEntity
  8
Standardebene
 62
     7
370
    35
100
AcDbPolyline
 90
       18
 70
     0
 43
0.0
 10
139.745555498084
 20
202.8683072553789
 10
139.7554332758594
 20
202.8792433664869
 10
139.7642527203015
 20
202.8908850331508
 10
139.7688388314114
 20
202.8972350331493
 10
139.7723666091884
 20
202.9028794775925
 10
139.7762471647431
 20
202.9095822553683
 10
139.7794221647423
 20
202.9159322553668
 10
139.7861249425182
 20
202.9282794775862
 10
139.7910638314059
 20
202.9413322553604
 10
139.7949443869606
 20
202.9540322553573
 10
139.7981193869599
 20
202.9670850331319
 10
139.802352720292
 20
202.9921322553478
 10
139.8027054980698
 20
203.0164739220086
 10
139.8016471647365
 20
203.0281155886721
 10
139.8005888314035
 20
203.0401100331134
 10
139.7981193869599
 20
203.0513989219996
 10
139.7956499425158
 20
203.0623350331079
 10
139.8143471647333
 20
203.0810322553254
  0
LINE
  5
22B
330
70
100
AcDbEntity
  8
Standardebene
 62
     7
370
    35
100
AcDbLine
 10
143.3759916082875
 20
199.5715989228696
 30
0.0
 11
143.35729438607
 21
199.5529017006521
 31
0.0
  0
LWPOLYLINE
  5
22C
330
70
100
AcDbEntity
  8
Standardebene
 62
     7
370
    35
100
AcDbPolyline
 90
       15
 70
     0
 43
0.0
 10
156.7483860493889
 20
195.9933739237642
 10
156.7635554938294
 20
196.0103072570932
 10
156.7769610493818
 20
196.0300628126437
 10
156.7826054938247
 20
196.0402933681968
 10
156.7886027160453
 20
196.0508767015274
 10
156.7928360493778
 20
196.0625183681913
 10
156.7974221604878
 20
196.0748655904104
 10
156.800597160487
 20
196.087918368185
 10
156.8030666049307
 20
196.101323923737
 10
156.8051832715969
 20
196.1150822570669
 10
156.8058888271521
 20
196.128840590397
 10
156.8058888271521
 20
196.1429517015046
 10
156.804124938264
 20
196.1577683681673
 10
156.8020082715977
 20
196.1725850348304
 10
156.7977749382655
 20
196.186696145938
  0
LWPOLYLINE
  5
22D
330
70
100
AcDbEntity
  8
Standardebene
 62
     7
370
    35
100
AcDbPolyline
 90
       18
 70
     0
 43
0.0
 10
161.4258666037751
 20
197.4633989233965
 10
161.430452714885
 20
197.4496405900667
 10
161.4357443815505
 20
197.4362350345146
 10
161.4389193815497
 20
197.4295322567384
 10
161.4424471593263
 20
197.4228294789623
 10
161.4459749371033
 20
197.4164794789638
 10
161.4495027148802
 20
197.4104822567432
 10
161.4576166037672
 20
197.3988405900793
 10
161.4660832704315
 20
197.3882572567487
 10
161.474902714874
 20
197.3776739234181
 10
161.4847804926494
 20
197.3685017011982
 10
161.5048888259776
 20
197.3529794789796
 10
161.5257027148613
 20
197.3399267012053
 10
161.5359332704142
 20
197.3346350345399
 10
161.5468693815225
 20
197.3300489234299
 10
161.5578054926309
 20
197.326521145653
 10
161.5683888259615
 20
197.3233461456537
 10
161.5754443815155
 20
197.2975933678826
  0
LINE
  5
22E
330
70
100
AcDbEntity
  8
Standardebene
 62
     7
370
    35
100
AcDbLine
 10
156.7554416049425
 20
195.9679739237705
 30
0.0
 11
156.7483860493889
 21
195.9933739237642
 31
0.0
  0
LWPOLYLINE
  5
22F
330
70
100
AcDbEntity
  8
Standardebene
 62
     7
370
    35
100
AcDbPolyline
 90
       15
 70
     0
 43
0.0
 10
141.4381832754385
 20
196.7440850346875
 10
141.4332443865508
 20
196.7296211458022
 10
141.4297166087742
 20
196.7155100346946
 10
141.4290110532187
 20
196.708454479141
 10
141.4275999421079
 20
196.701398923587
 10
141.426541608775
 20
196.6939905902556
 10
141.4261888309972
 20
196.6865822569243
 10
141.4261888309972
 20
196.6728239235941
 10
141.426541608775
 20
196.6590655902643
 10
141.4279527198857
 20
196.6456600347123
 10
141.4307749421071
 20
196.6326072569377
 10
141.4378304976608
 20
196.608265590277
 10
141.4480610532139
 20
196.5860405902828
 10
141.4600554976552
 20
196.5659322569542
 10
141.4734610532076
 20
196.5475878125145
  0
LWPOLYLINE
  5
230
330
70
100
AcDbEntity
  8
Standardebene
 62
     7
370
    35
100
AcDbPolyline
 90
       15
 70
     0
 43
0.0
 10
146.9704443851668
 20
186.1762739262183
 10
146.9774999407204
 20
186.1544017040016
 10
146.9873777184958
 20
186.1335878151178
 10
146.9937277184943
 20
186.123357259565
 10
147.0004304962701
 20
186.1131267040118
 10
147.0078388296018
 20
186.102896148459
 10
147.0163054962662
 20
186.0930183706836
 10
147.0261832740416
 20
186.083493370686
 10
147.036061051817
 20
186.0746739262438
 10
147.0469971629253
 20
186.0662072595792
 10
147.0586388295892
 20
186.0587989262478
 10
147.0716916073635
 20
186.0520961484716
 10
147.0850971629159
 20
186.0457461484732
 10
147.0988554962457
 20
186.0408072595855
 10
147.1129666073532
 20
186.0362211484756
  0
LWPOLYLINE
  5
231
330
70
100
AcDbEntity
  8
Standardebene
 62
     7
370
    35
100
AcDbPolyline
 90
       15
 70
     0
 43
0.0
 10
150.3624027176521
 20
185.9183933707273
 10
150.3772193843149
 20
185.9219211485043
 10
150.3913304954224
 20
185.9254489262809
 10
150.3980332731986
 20
185.9282711485027
 10
150.4050888287526
 20
185.9303878151686
 10
150.4117916065284
 20
185.9339155929456
 10
150.4181416065268
 20
185.936737815167
 10
150.4304888287459
 20
185.943793370721
 10
150.4421304954098
 20
185.9508489262746
 10
150.4527138287404
 20
185.9593155929393
 10
150.4625916065158
 20
185.9677822596039
 10
150.4798777176226
 20
185.9864794818214
 10
150.4946943842857
 20
186.0055294818167
 10
150.5063360509493
 20
186.0266961484779
 10
150.5151554953917
 20
186.0475100373617
  0
LWPOLYLINE
  5
232
330
70
100
AcDbEntity
  8
Standardebene
 62
     7
370
    35
100
AcDbPolyline
 90
       18
 70
     0
 43
0.0
 10
145.9050554965441
 20
181.3904905940815
 10
145.890238829881
 20
181.3936655940807
 10
145.8761277187735
 20
181.3954294829692
 10
145.8683666076643
 20
181.3964878163021
 10
145.8613110521107
 20
181.3968405940799
 10
145.8542554965567
 20
181.3968405940799
 10
145.8471999410031
 20
181.3964878163021
 10
145.8327360521178
 20
181.3950767051914
 10
145.818977718788
 20
181.3936655940807
 10
145.8062777187912
 20
181.3901378163037
 10
145.7932249410165
 20
181.3866100385268
 10
145.7695888299113
 20
181.3777905940846
 10
145.7480693854724
 20
181.3657961496433
 10
145.7385443854747
 20
181.3594461496449
 10
145.7290193854771
 20
181.3523905940909
 10
145.7205527188124
 20
181.3446294829818
 10
145.7120860521478
 20
181.3368683718726
 10
145.6866860521544
 20
181.3432183718711
  0
LINE
  5
233
330
70
100
AcDbEntity
  8
Standardebene
 62
     7
370
    35
100
AcDbLine
 10
146.9450443851731
 20
186.1829767039945
 30
0.0
 11
146.9704443851668
 21
186.1762739262183
 31
0.0
  0
LWPOLYLINE
  5
234
330
70
100
AcDbEntity
  8
Standardebene
 62
     7
370
    35
100
AcDbPolyline
 90
       16
 70
     0
 43
0.0
 10
155.2755388275348
 20
199.059718367442
 10
155.2656610497594
 20
199.0713600341056
 10
155.2550777164288
 20
199.081237811881
 10
155.2490804942081
 20
199.0861767007687
 10
155.2437888275427
 20
199.0904100341009
 10
155.2381443830998
 20
199.0949961452108
 10
155.2317943831013
 20
199.0985239229878
 10
155.2201527164375
 20
199.1059322563192
 10
155.2078054942184
 20
199.1122822563176
 10
155.1951054942215
 20
199.1175739229831
 10
155.1827582720025
 20
199.122160034093
 10
155.1577110497865
 20
199.1278044785362
 10
155.1337221609036
 20
199.1306267007577
 10
155.1100860497984
 20
199.1306267007577
 10
155.0878610498039
 20
199.1274517007584
 10
155.0705749386971
 20
199.1475600340867
  0
LWPOLYLINE
  5
235
330
70
100
AcDbEntity
  8
Standardebene
 62
     7
370
    35
100
AcDbPolyline
 90
       16
 70
     0
 43
0.0
 10
158.8766943821902
 20
202.3899405888316
 10
158.8939804932967
 20
202.3698322555034
 10
158.8879832710761
 20
202.3483128110644
 10
158.8837499377439
 20
202.3250294777366
 10
158.8830443821887
 20
202.3130350332953
 10
158.8823388266332
 20
202.3006878110762
 10
158.8833971599661
 20
202.2883405888571
 10
158.8841027155216
 20
202.2752878110825
 10
158.8869249377431
 20
202.262235033308
 10
158.8900999377423
 20
202.2491822555333
 10
158.8936277155193
 20
202.236129477759
 10
158.8989193821844
 20
202.222723922207
 10
158.9052693821829
 20
202.2093183666546
 10
158.9123249377368
 20
202.1969711444355
 10
158.9207916044014
 20
202.1842711444387
 10
158.9296110488436
 20
202.1729822555526
  0
LWPOLYLINE
  5
236
330
70
100
AcDbEntity
  8
Standardebene
 62
     7
370
    35
100
AcDbPolyline
 90
       15
 70
     0
 43
0.0
 10
151.4193249396101
 20
181.1301405941465
 10
151.4038027173915
 20
181.1460155941425
 10
151.3858110507295
 20
181.1611850385834
 10
151.3762860507319
 20
181.1678878163592
 10
151.3653499396235
 20
181.1745905941354
 10
151.3547666062929
 20
181.1798822608009
 10
151.3427721618513
 20
181.185173927466
 10
151.3304249396322
 20
181.1901128163537
 10
151.3173721618576
 20
181.1936405941307
 10
151.3039666063055
 20
181.1968155941299
 10
151.289855495198
 20
181.1989322607962
 10
151.2750388285349
 20
181.1999905941291
 10
151.2609277174273
 20
181.2003433719069
 10
151.2461110507645
 20
181.1996378163513
 10
151.2309416063237
 20
181.1971683719077
  0
LINE
  5
237
330
70
100
AcDbEntity
  8
Standardebene
 62
     7
370
    35
100
AcDbLine
 10
150.5151554953917
 20
186.0475100373617
 30
0.0
 11
150.5409082731628
 21
186.0524489262494
 31
0.0
  0
LINE
  5
238
330
70
100
AcDbEntity
  8
Standardebene
 62
     7
370
    35
100
AcDbLine
 10
151.4457832729368
 20
181.1350794830342
 30
0.0
 11
151.4193249396101
 21
181.1301405941465
 31
0.0
  0
LWPOLYLINE
  5
239
330
70
100
AcDbEntity
  8
Standardebene
 62
     7
370
    35
100
AcDbPolyline
 90
       15
 70
     0
 43
0.0
 10
136.7624666099408
 20
198.2229294787622
 10
136.7843388321575
 20
198.2282211454277
 10
136.8062110543742
 20
198.2363350343146
 10
136.8174999432604
 20
198.2416267009798
 10
136.8280832765913
 20
198.247271145423
 10
136.8386666099219
 20
198.2539739231988
 10
136.8488971654747
 20
198.2620878120858
 10
136.8591277210279
 20
198.2702017009727
 10
136.8690054988033
 20
198.2793739231925
 10
136.8788832765784
 20
198.2896044787457
 10
136.887349943243
 20
198.3008933676318
 10
136.8958166099074
 20
198.3128878120731
 10
136.9028721654613
 20
198.3252350342922
 10
136.9095749432375
 20
198.3386405898446
 10
136.9152193876804
 20
198.3523989231744
  0
LINE
  5
23A
330
70
100
AcDbEntity
  8
Standardebene
 62
     7
370
    35
100
AcDbLine
 10
141.4734610532076
 20
196.5475878125145
 30
0.0
 11
141.4649943865429
 21
196.5221878125208
 31
0.0
  0
LINE
  5
23B
330
70
100
AcDbEntity
  8
Standardebene
 62
     7
370
    35
100
AcDbLine
 10
136.7536471654987
 20
198.1978822565463
 30
0.0
 11
136.7624666099408
 21
198.2229294787622
 31
0.0
  0
LINE
  5
23C
330
70
100
AcDbEntity
  8
Standardebene
 62
     7
370
    35
100
AcDbLine
 10
21.55129595942317
 20
100.6979609469307
 30
0.0
 11
21.61091540385266
 21
100.6979609469307
 31
0.0
  0
LINE
  5
23D
330
70
100
AcDbEntity
  8
Standardebene
 62
     7
370
    35
100
AcDbLine
 10
21.61091540385266
 20
126.6976831626533
 30
0.0
 11
21.55129595942317
 21
126.6976831626533
 31
0.0
  0
LINE
  5
23E
330
70
100
AcDbEntity
  8
Standardebene
 62
     7
370
    35
100
AcDbLine
 10
19.55139873770097
 20
103.793585946157
 30
0.0
 11
19.55139873770097
 21
107.4476581674658
 31
0.0
  0
LINE
  5
23F
330
70
100
AcDbEntity
  8
Standardebene
 62
     7
370
    35
100
AcDbLine
 10
19.55139873770097
 20
119.5581664977714
 30
0.0
 11
19.55139873770097
 21
122.9772887191389
 31
0.0
  0
LINE
  5
240
330
70
100
AcDbEntity
  8
Standardebene
 62
     7
370
    35
100
AcDbLine
 10
19.55139873770097
 20
115.6098776098696
 30
0.0
 11
19.55139873770097
 21
116.8181414984565
 31
0.0
  0
LINE
  5
241
330
70
100
AcDbEntity
  8
Standardebene
 62
     7
370
    35
100
AcDbLine
 10
19.55139873770097
 20
111.4919026108992
 30
0.0
 11
19.55139873770097
 21
112.3604414995708
 31
0.0
  0
LWPOLYLINE
  5
242
330
70
100
AcDbEntity
  8
Standardebene
 62
     7
370
    35
100
AcDbPolyline
 90
        3
 70
     0
 43
0.0
 10
21.55129595942317
 20
101.2334776134635
 10
21.55129595942317
 20
100.8323692802306
 10
21.55129595942317
 20
100.6979609469307
  0
LWPOLYLINE
  5
243
330
70
100
AcDbEntity
  8
Standardebene
 62
     7
370
    35
100
AcDbPolyline
 90
        4
 70
     0
 43
0.0
 10
19.65158762656501
 20
103.8292165017036
 10
19.65158762656501
 20
102.6918609464323
 10
19.65158762656501
 20
101.7936887244348
 10
19.65158762656501
 20
101.1544553912613
  0
LWPOLYLINE
  5
244
330
70
100
AcDbEntity
  8
Standardebene
 62
     7
370
    35
100
AcDbPolyline
 90
       14
 70
     0
 43
0.0
 10
21.55129595942317
 20
123.1286303857677
 10
21.55129595942317
 20
121.8843831638565
 10
21.55129595942317
 20
120.5018470530911
 10
21.55129595942317
 20
119.0028942756878
 10
21.55129595942317
 20
117.4136303871965
 10
21.55129595942317
 20
115.7615720542762
 10
21.55129595942317
 20
114.0742359435868
 10
21.55129595942317
 20
112.3812553884545
 10
21.55129595942317
 20
110.7097942777612
 10
21.55129595942317
 20
109.089485944833
 10
21.55129595942317
 20
107.5474942785518
 10
21.55129595942317
 20
106.109572056689
 10
21.55129595942317
 20
104.8011192792384
 10
21.55129595942317
 20
103.6440081684167
  0
LWPOLYLINE
  5
245
330
70
100
AcDbEntity
  8
Standardebene
 62
     7
370
    35
100
AcDbPolyline
 90
        4
 70
     0
 43
0.0
 10
19.65158762656501
 20
125.9607303850598
 10
19.65158762656501
 20
125.1923803852516
 10
19.65158762656501
 20
124.1739109410619
 10
19.65158762656501
 20
122.9275470524844
  0
LWPOLYLINE
  5
246
330
70
100
AcDbEntity
  8
Standardebene
 62
     7
370
    35
100
AcDbPolyline
 90
        3
 70
     0
 43
0.0
 10
21.55129595942317
 20
126.6976831626533
 10
21.55129595942317
 20
126.4874276071501
 10
21.55129595942317
 20
125.861599829529
  0
LWPOLYLINE
  5
247
330
70
100
AcDbEntity
  8
Standardebene
 62
     7
370
    35
100
AcDbPolyline
 90
        3
 70
     0
 43
0.0
 10
19.65158762656501
 20
115.7531053876115
 10
19.65158762656501
 20
113.9874526102751
 10
19.65158762656501
 20
112.2083942773867
  0
LWPOLYLINE
  5
248
330
70
100
AcDbEntity
  8
Standardebene
 62
     7
370
    35
100
AcDbPolyline
 90
        4
 70
     0
 43
0.0
 10
19.55139873770097
 20
122.9772887191389
 10
19.55139873770097
 20
124.127344274407
 10
19.55139873770097
 20
125.0770220519473
 10
19.55139873770097
 20
125.8079776073202
  0
LWPOLYLINE
  5
249
330
70
100
AcDbEntity
  8
Standardebene
 62
     7
370
    35
100
AcDbPolyline
 90
        4
 70
     0
 43
0.0
 10
19.55139873770097
 20
101.2976831690033
 10
19.55139873770097
 20
101.9083415021839
 10
19.55139873770097
 20
102.7454831686411
 10
19.55139873770097
 20
103.793585946157
  0
LWPOLYLINE
  5
24A
330
70
100
AcDbEntity
  8
Standardebene
 62
     7
370
    35
100
AcDbPolyline
 90
        3
 70
     0
 43
0.0
 10
19.55139873770097
 20
112.3604414995708
 10
19.55139873770097
 20
113.9916859436073
 10
19.55139873770097
 20
115.6098776098696
  0
LINE
  5
24B
330
70
100
AcDbEntity
  8
Standardebene
 62
     7
370
    35
100
AcDbLine
 10
20.95157373735094
 20
116.393397054118
 30
0.0
 11
19.851612626515
 21
117.0114637206303
 31
0.0
  0
LINE
  5
24C
330
70
100
AcDbEntity
  8
Standardebene
 62
     7
370
    35
100
AcDbLine
 10
20.95157373735094
 20
111.9304053885672
 30
0.0
 11
19.851612626515
 21
111.3035192776127
 31
0.0
  0
LINE
  5
24D
330
70
100
AcDbEntity
  8
Standardebene
 62
     7
370
    35
100
AcDbLine
 10
20.95157373735094
 20
101.3368415023268
 30
0.0
 11
19.851612626515
 21
101.1544553912613
 31
0.0
  0
LINE
  5
24E
330
70
100
AcDbEntity
  8
Standardebene
 62
     7
370
    35
100
AcDbLine
 10
20.95157373735094
 20
103.4277553906928
 30
0.0
 11
19.851612626515
 21
103.8292165017036
 31
0.0
  0
LINE
  5
24F
330
70
100
AcDbEntity
  8
Standardebene
 62
     7
370
    35
100
AcDbLine
 10
20.95157373735094
 20
123.3639331634865
 30
0.0
 11
19.851612626515
 21
122.9275470524844
 31
0.0
  0
LINE
  5
250
330
70
100
AcDbEntity
  8
Standardebene
 62
     7
370
    35
100
AcDbLine
 10
20.95157373735094
 20
125.7353053851161
 30
0.0
 11
19.851612626515
 21
125.9607303850598
 31
0.0
  0
LINE
  5
251
330
70
100
AcDbEntity
  8
Standardebene
 62
     7
370
    35
100
AcDbLine
 10
20.95157373735094
 20
119.7966442754894
 30
0.0
 11
19.851612626515
 21
119.3659026089306
 31
0.0
  0
LINE
  5
252
330
70
100
AcDbEntity
  8
Standardebene
 62
     7
370
    35
100
AcDbLine
 10
20.95157373735094
 20
107.2405776119619
 30
0.0
 11
19.851612626515
 21
107.6356887229741
 31
0.0
  0
LINE
  5
253
330
70
100
AcDbEntity
  8
Standardebene
 62
     7
370
    35
100
AcDbLine
 10
20.95157373735094
 20
112.8366914994518
 30
0.0
 11
19.851612626515
 21
112.2083942773867
 31
0.0
  0
LINE
  5
254
330
70
100
AcDbEntity
  8
Standardebene
 62
     7
370
    35
100
AcDbLine
 10
20.95157373735094
 20
115.1325692766556
 30
0.0
 11
19.851612626515
 21
115.7531053876115
 31
0.0
  0
LWPOLYLINE
  5
255
330
70
100
AcDbEntity
  8
Standardebene
 62
     7
370
    35
100
AcDbPolyline
 90
       24
 70
     0
 43
0.0
 10
20.95157373735094
 20
116.393397054118
 10
20.99814040400615
 20
116.3704664985683
 10
21.04788207066025
 20
116.3542387207945
 10
21.07328207065394
 20
116.3485942763516
 10
21.09903484842539
 20
116.3443609430194
 10
21.12514040397428
 20
116.3415387207976
 10
21.15159873730094
 20
116.3408331652425
 10
21.17699873729463
 20
116.3415387207976
 10
21.20345707062128
 20
116.3443609430194
 10
21.21650984839589
 20
116.3457720541302
 10
21.22920984839274
 20
116.3485942763516
 10
21.24190984838958
 20
116.3510637207953
 10
21.25460984838642
 20
116.3542387207945
 10
21.27965707060236
 20
116.3612942763484
 10
21.30435151504053
 20
116.3704664985683
 10
21.31599318170441
 20
116.3757581652338
 10
21.32798762614573
 20
116.3806970541215
 10
21.33998207058705
 20
116.3866942763421
 10
21.35127095947317
 20
116.393397054118
 10
21.39501540390693
 20
116.4212664985557
 10
21.43382095945267
 20
116.4554859429915
 10
21.4433459594503
 20
116.4646581652114
 10
21.45181262611497
 20
116.4738303874313
 10
21.45428207055866
 20
116.476652609653
  0
LWPOLYLINE
  5
256
330
70
100
AcDbEntity
  8
Standardebene
 62
     7
370
    35
100
AcDbPolyline
 90
       13
 70
     0
 43
0.0
 10
19.65158762656501
 20
117.0114637206303
 10
19.67487095989245
 20
117.0227526095164
 10
19.69921262655286
 20
117.0305137206256
 10
19.71261818210522
 20
117.0336887206248
 10
19.72567095987983
 20
117.0354526095133
 10
19.73837095987635
 20
117.036863720624
 10
19.7510709598732
 20
117.0372164984017
 10
19.76412373764781
 20
117.036863720624
 10
19.77752929320018
 20
117.0354526095133
 10
19.79058207097446
 20
117.0336887206248
 10
19.80328207097131
 20
117.0301609428478
 10
19.8279765154098
 20
117.0227526095164
 10
19.851612626515
 20
117.0114637206303
  0
LWPOLYLINE
  5
257
330
70
100
AcDbEntity
  8
Standardebene
 62
     7
370
    35
100
AcDbPolyline
 90
       13
 70
     0
 43
0.0
 10
19.851612626515
 20
111.3035192776127
 10
19.8279765154098
 20
111.2918776109492
 10
19.80328207097131
 20
111.28411649984
 10
19.79058207097446
 20
111.2812942776183
 10
19.77752929320018
 20
111.2788248331746
 10
19.76412373764781
 20
111.2774137220639
 10
19.7510709598732
 20
111.2774137220639
 10
19.73837095987635
 20
111.2774137220639
 10
19.72531818210207
 20
111.2788248331746
 10
19.7119126265497
 20
111.2812942776183
 10
19.69921262655286
 20
111.28411649984
 10
19.67487095989245
 20
111.2925831665044
 10
19.65158762656501
 20
111.3035192776127
  0
LWPOLYLINE
  5
258
330
70
100
AcDbEntity
  8
Standardebene
 62
     7
370
    35
100
AcDbPolyline
 90
       28
 70
     0
 43
0.0
 10
21.45428207055866
 20
111.8460914996995
 10
21.45181262611497
 20
111.8489137219209
 10
21.4433459594503
 20
111.8580859441408
 10
21.43452651500787
 20
111.8676109441384
 10
21.41547651501293
 20
111.885249833023
 10
21.39501540390693
 20
111.9014776107968
 10
21.38478484835378
 20
111.9092387219059
 10
21.37384873724542
 20
111.9166470552373
 10
21.36291262613706
 20
111.9237026107913
 10
21.35127095947317
 20
111.9304053885672
 10
21.30470429281829
 20
111.9533359441171
 10
21.25496262616387
 20
111.9702692774461
 10
21.24226262616734
 20
111.9734442774454
 10
21.22920984839274
 20
111.9759137218891
 10
21.21686262617366
 20
111.9787359441108
 10
21.20380984839905
 20
111.9801470552216
 10
21.17735151507239
 20
111.982969277443
 10
21.15159873730094
 20
111.9836748329982
 10
21.13889873730409
 20
111.9836748329982
 10
21.12584595952949
 20
111.982969277443
 10
21.11208762619968
 20
111.98191094411
 10
21.09903484842539
 20
111.9801470552216
 10
21.0736348484317
 20
111.9759137218891
 10
21.04823484843801
 20
111.9702692774461
 10
21.02318762622208
 20
111.962508166337
 10
20.99849318178359
 20
111.9540414996723
 10
20.97485707067839
 20
111.943105388564
 10
20.95157373735094
 20
111.9304053885672
  0
LWPOLYLINE
  5
259
330
70
100
AcDbEntity
  8
Standardebene
 62
     7
370
    35
100
AcDbPolyline
 90
        5
 70
     0
 43
0.0
 10
20.95157373735094
 20
101.3368415023268
 10
21.15159873730094
 20
101.3527165023228
 10
21.35127095947317
 20
101.3368415023268
 10
21.49661540388137
 20
101.2916859467823
 10
21.55129595942317
 20
101.2334776134635
  0
LWPOLYLINE
  5
25A
330
70
100
AcDbEntity
  8
Standardebene
 62
     7
370
    35
100
AcDbPolyline
 90
       13
 70
     0
 43
0.0
 10
19.65158762656501
 20
101.1544553912613
 10
19.67487095989245
 20
101.1516331690396
 10
19.69921262655286
 20
101.1491637245959
 10
19.71261818210522
 20
101.1484581690404
 10
19.72567095987983
 20
101.1477526134852
 10
19.73837095987635
 20
101.1477526134852
 10
19.7510709598732
 20
101.1477526134852
 10
19.76412373764781
 20
101.1477526134852
 10
19.77752929320018
 20
101.1477526134852
 10
19.79058207097446
 20
101.1484581690404
 10
19.80328207097131
 20
101.1491637245959
 10
19.8279765154098
 20
101.1516331690396
 10
19.851612626515
 20
101.1544553912613
  0
LWPOLYLINE
  5
25B
330
70
100
AcDbEntity
  8
Standardebene
 62
     7
370
    35
100
AcDbPolyline
 90
       13
 70
     0
 43
0.0
 10
19.851612626515
 20
103.8292165017036
 10
19.8279765154098
 20
103.8366248350349
 10
19.80328207097131
 20
103.8419165017004
 10
19.79058207097446
 20
103.8443859461444
 10
19.77752929320018
 20
103.8454442794774
 10
19.76412373764781
 20
103.8461498350326
 10
19.7510709598732
 20
103.8468553905881
 10
19.73837095987635
 20
103.8461498350326
 10
19.72531818210207
 20
103.8454442794774
 10
19.7119126265497
 20
103.8443859461444
 10
19.69921262655286
 20
103.8419165017004
 10
19.67487095989245
 20
103.8366248350349
 10
19.65158762656501
 20
103.8292165017036
  0
LWPOLYLINE
  5
25C
330
70
100
AcDbEntity
  8
Standardebene
 62
     7
370
    35
100
AcDbPolyline
 90
        5
 70
     0
 43
0.0
 10
21.55129595942317
 20
103.6440081684167
 10
21.49661540388137
 20
103.5180665017815
 10
21.35127095947317
 20
103.4277553906928
 10
21.15159873730094
 20
103.3949470573678
 10
20.95157373735094
 20
103.4277553906928
  0
LWPOLYLINE
  5
25D
330
70
100
AcDbEntity
  8
Standardebene
 62
     7
370
    35
100
AcDbPolyline
 90
        5
 70
     0
 43
0.0
 10
20.95157373735094
 20
123.3639331634865
 10
21.15159873730094
 20
123.3988581634778
 10
21.35127095947317
 20
123.3639331634865
 10
21.49661540388137
 20
123.2648026079557
 10
21.55129595942317
 20
123.1286303857677
  0
LWPOLYLINE
  5
25E
330
70
100
AcDbEntity
  8
Standardebene
 62
     7
370
    35
100
AcDbPolyline
 90
       13
 70
     0
 43
0.0
 10
19.65158762656501
 20
122.9275470524844
 10
19.67487095989245
 20
122.9197859413753
 10
19.69921262655286
 20
122.9137887191546
 10
19.71261818210522
 20
122.9113192747109
 10
19.72567095987983
 20
122.910260941378
 10
19.73837095987635
 20
122.9088498302669
 10
19.7510709598732
 20
122.9088498302669
 10
19.76412373764781
 20
122.9088498302669
 10
19.77752929320018
 20
122.910260941378
 10
19.79058207097446
 20
122.9113192747109
 10
19.80328207097131
 20
122.9137887191546
 10
19.8279765154098
 20
122.9197859413753
 10
19.851612626515
 20
122.9275470524844
  0
LWPOLYLINE
  5
25F
330
70
100
AcDbEntity
  8
Standardebene
 62
     7
370
    35
100
AcDbPolyline
 90
       13
 70
     0
 43
0.0
 10
19.851612626515
 20
125.9607303850598
 10
19.8279765154098
 20
125.9642581628364
 10
19.80328207097131
 20
125.9674331628356
 10
19.79058207097446
 20
125.9684914961689
 10
19.77752929320018
 20
125.9691970517241
 10
19.76412373764781
 20
125.9691970517241
 10
19.7510709598732
 20
125.9699026072796
 10
19.73837095987635
 20
125.9691970517241
 10
19.72531818210207
 20
125.9691970517241
 10
19.7119126265497
 20
125.9684914961689
 10
19.69921262655286
 20
125.9674331628356
 10
19.67487095989245
 20
125.9642581628364
 10
19.65158762656501
 20
125.9607303850598
  0
LWPOLYLINE
  5
260
330
70
100
AcDbEntity
  8
Standardebene
 62
     7
370
    35
100
AcDbPolyline
 90
        5
 70
     0
 43
0.0
 10
21.55129595942317
 20
125.861599829529
 10
21.49661540388137
 20
125.7896331628801
 10
21.35127095947317
 20
125.7353053851161
 10
21.15159873730094
 20
125.7155498295653
 10
20.95157373735094
 20
125.7353053851161
  0
LWPOLYLINE
  5
261
330
70
100
AcDbEntity
  8
Standardebene
 62
     7
370
    35
100
AcDbPolyline
 90
       13
 70
     0
 43
0.0
 10
19.851612626515
 20
119.3659026089306
 10
19.8279765154098
 20
119.3581414978214
 10
19.80328207097131
 20
119.3521442756008
 10
19.79058207097446
 20
119.3496748311567
 10
19.77752929320018
 20
119.3486164978238
 10
19.76412373764781
 20
119.3472053867131
 10
19.7510709598732
 20
119.3472053867131
 10
19.73837095987635
 20
119.3472053867131
 10
19.72531818210207
 20
119.3486164978238
 10
19.7119126265497
 20
119.3496748311567
 10
19.69921262655286
 20
119.3521442756008
 10
19.67487095989245
 20
119.3581414978214
 10
19.65158762656501
 20
119.3659026089306
  0
LWPOLYLINE
  5
262
330
70
100
AcDbEntity
  8
Standardebene
 62
     7
370
    35
100
AcDbPolyline
 90
        5
 70
     0
 43
0.0
 10
21.55129595942317
 20
119.5659276088806
 10
21.49661540388137
 20
119.6999831644026
 10
21.35127095947317
 20
119.796291497712
 10
21.15159873730094
 20
119.8305109421477
 10
20.95157373735094
 20
119.7966442754894
  0
LWPOLYLINE
  5
263
330
70
100
AcDbEntity
  8
Standardebene
 62
     7
370
    35
100
AcDbPolyline
 90
        7
 70
     0
 43
0.0
 10
20.95157373735094
 20
107.2405776119619
 10
21.04823484843801
 20
107.2169415008566
 10
21.15159873730094
 20
107.2091803897475
 10
21.25460984838642
 20
107.2169415008566
 10
21.35127095947317
 20
107.2405776119619
 10
21.49661540388137
 20
107.3280665008291
 10
21.55129595942317
 20
107.4511859452424
  0
LWPOLYLINE
  5
264
330
70
100
AcDbEntity
  8
Standardebene
 62
     7
370
    35
100
AcDbPolyline
 90
       13
 70
     0
 43
0.0
 10
19.65158762656501
 20
107.6356887229741
 10
19.67487095989245
 20
107.6434498340833
 10
19.69921262655286
 20
107.6487415007488
 10
19.71261818210522
 20
107.6505053896372
 10
19.72567095987983
 20
107.651916500748
 10
19.73837095987635
 20
107.6529748340809
 10
19.7510709598732
 20
107.6529748340809
 10
19.76412373764781
 20
107.6529748340809
 10
19.77752929320018
 20
107.651916500748
 10
19.79058207097446
 20
107.6505053896372
 10
19.80328207097131
 20
107.6487415007488
 10
19.8279765154098
 20
107.6434498340833
 10
19.851612626515
 20
107.6356887229741
  0
LWPOLYLINE
  5
265
330
70
100
AcDbEntity
  8
Standardebene
 62
     7
370
    35
100
AcDbPolyline
 90
       24
 70
     0
 43
0.0
 10
20.95157373735094
 20
112.8366914994518
 10
20.99814040400615
 20
112.8596220550015
 10
21.04788207066025
 20
112.8765553883305
 10
21.07328207065394
 20
112.8825526105515
 10
21.09903484842539
 20
112.8867859438837
 10
21.12514040397428
 20
112.8892553883274
 10
21.15159873730094
 20
112.8903137216606
 10
21.17735151507239
 20
112.8892553883274
 10
21.20380984839905
 20
112.8867859438837
 10
21.21686262617366
 20
112.8850220549952
 10
21.22920984839274
 20
112.8825526105515
 10
21.24226262616734
 20
112.8800831661075
 10
21.25496262616387
 20
112.8765553883305
 10
21.27965707060236
 20
112.8691470549991
 10
21.30435151504053
 20
112.8596220550015
 10
21.31599318170441
 20
112.8546831661138
 10
21.32798762614573
 20
112.8493914994487
 10
21.33998207058705
 20
112.843394277228
 10
21.35127095947317
 20
112.8366914994518
 10
21.39501540390693
 20
112.8081164994589
 10
21.43382095945267
 20
112.7738970550231
 10
21.4433459594503
 20
112.7640192772477
 10
21.45181262611497
 20
112.7544942772501
 10
21.4539292927809
 20
112.7527303883616
  0
LWPOLYLINE
  5
266
330
70
100
AcDbEntity
  8
Standardebene
 62
     7
370
    35
100
AcDbPolyline
 90
       13
 70
     0
 43
0.0
 10
19.65158762656501
 20
112.2083942773867
 10
19.67487095989245
 20
112.1967526107228
 10
19.69921262655286
 20
112.1882859440584
 10
19.71261818210522
 20
112.1854637218367
 10
19.72567095987983
 20
112.1836998329482
 10
19.73837095987635
 20
112.1822887218375
 10
19.7510709598732
 20
112.18193594406
 10
19.76412373764781
 20
112.1822887218375
 10
19.77752929320018
 20
112.1836998329482
 10
19.79058207097446
 20
112.1854637218367
 10
19.80328207097131
 20
112.1882859440584
 10
19.8279765154098
 20
112.1967526107228
 10
19.851612626515
 20
112.2083942773867
  0
LWPOLYLINE
  5
267
330
70
100
AcDbEntity
  8
Standardebene
 62
     7
370
    35
100
AcDbPolyline
 90
       13
 70
     0
 43
0.0
 10
19.851612626515
 20
115.7531053876115
 10
19.8279765154098
 20
115.7640414987199
 10
19.80328207097131
 20
115.7718026098291
 10
19.79058207097446
 20
115.775330387606
 10
19.77752929320018
 20
115.7767414987167
 10
19.76412373764781
 20
115.7785053876052
 10
19.7510709598732
 20
115.7785053876052
 10
19.73837095987635
 20
115.7785053876052
 10
19.72531818210207
 20
115.7767414987167
 10
19.7119126265497
 20
115.775330387606
 10
19.69921262655286
 20
115.7718026098291
 10
19.67487095989245
 20
115.7640414987199
 10
19.65158762656501
 20
115.7531053876115
  0
LWPOLYLINE
  5
268
330
70
100
AcDbEntity
  8
Standardebene
 62
     7
370
    35
100
AcDbPolyline
 90
       28
 70
     0
 43
0.0
 10
21.45428207055866
 20
115.217235943301
 10
21.45181262611497
 20
115.2144137210795
 10
21.4433459594503
 20
115.2045359433041
 10
21.43452651500787
 20
115.1953637210843
 10
21.41547651501293
 20
115.1780776099775
 10
21.39501540390693
 20
115.1618498322037
 10
21.38478484835378
 20
115.1537359433171
 10
21.37420151502318
 20
115.1466803877631
 10
21.36291262613706
 20
115.1392720544317
 10
21.35127095947317
 20
115.1325692766556
 10
21.30470429281829
 20
115.1096387211059
 10
21.25496262616387
 20
115.0934109433321
 10
21.24226262616734
 20
115.0898831655551
 10
21.2295626261705
 20
115.0874137211114
 10
21.21686262617366
 20
115.0849442766674
 10
21.20380984839905
 20
115.0831803877789
 10
21.17805707062759
 20
115.0807109433352
 10
21.15159873730094
 20
115.0796526100023
 10
21.13889873730409
 20
115.0796526100023
 10
21.12584595952949
 20
115.0807109433352
 10
21.11244040397744
 20
115.0814164988904
 10
21.09903484842539
 20
115.0831803877789
 10
21.0736348484317
 20
115.0874137211114
 10
21.04823484843801
 20
115.0934109433321
 10
21.02318762622208
 20
115.1008192766634
 10
20.99849318178359
 20
115.1096387211059
 10
20.97485707067839
 20
115.1205748322142
 10
20.95157373735094
 20
115.1325692766556
  0
LWPOLYLINE
  5
269
330
70
100
AcDbEntity
  8
Standardebene
 62
     7
370
    35
100
AcDbPolyline
 90
        5
 70
     0
 43
0.0
 10
19.55139873770097
 20
122.9772887191389
 10
19.55986540436564
 20
122.9434220524805
 10
19.58279595991532
 20
122.924724830263
 10
19.61419318212967
 20
122.9204914969308
 10
19.65158762656501
 20
122.9275470524844
  0
LWPOLYLINE
  5
26A
330
70
100
AcDbEntity
  8
Standardebene
 62
     7
370
    35
100
AcDbPolyline
 90
        5
 70
     0
 43
0.0
 10
19.65158762656501
 20
125.9607303850598
 10
19.61454595990743
 20
125.9166331628486
 10
19.58279595991532
 20
125.8742998295256
 10
19.55986540436564
 20
125.8354942739798
 10
19.55139873770097
 20
125.8079776073202
  0
LWPOLYLINE
  5
26B
330
70
100
AcDbEntity
  8
Standardebene
 62
     7
370
    35
100
AcDbPolyline
 90
        5
 70
     0
 43
0.0
 10
19.65158762656501
 20
103.8292165017036
 10
19.61454595990743
 20
103.8394470572567
 10
19.58279595991532
 20
103.839094279479
 10
19.55986540436564
 20
103.8239248350384
 10
19.55139873770097
 20
103.793585946157
  0
LWPOLYLINE
  5
26C
330
70
100
AcDbEntity
  8
Standardebene
 62
     7
370
    35
100
AcDbPolyline
 90
        5
 70
     0
 43
0.0
 10
19.55139873770097
 20
107.4476581674658
 10
19.55986540436564
 20
107.4910498341215
 10
19.58279595991532
 20
107.5407915007756
 10
19.61454595990743
 20
107.5891220563193
 10
19.65158762656501
 20
107.6356887229741
  0
LWPOLYLINE
  5
26D
330
70
100
AcDbEntity
  8
Standardebene
 62
     7
370
    35
100
AcDbPolyline
 90
        5
 70
     0
 43
0.0
 10
19.65158762656501
 20
119.3659026089306
 10
19.61454595990743
 20
119.4114109422525
 10
19.58279595991532
 20
119.4607998311291
 10
19.55986540436564
 20
119.5123053866717
 10
19.55139873770097
 20
119.5581664977714
  0
LWPOLYLINE
  5
26E
330
70
100
AcDbEntity
  8
Standardebene
 62
     7
370
    35
100
AcDbPolyline
 90
        5
 70
     0
 43
0.0
 10
19.55139873770097
 20
101.2976831690033
 10
19.55986540436564
 20
101.2733415023426
 10
19.58279595991532
 20
101.2384165023513
 10
19.61419318212967
 20
101.197847057917
 10
19.65158762656501
 20
101.1544553912613
  0
LWPOLYLINE
  5
26F
330
70
100
AcDbEntity
  8
Standardebene
 62
     7
370
    35
100
AcDbPolyline
 90
       15
 70
     0
 43
0.0
 10
19.65158762656501
 20
115.7531053876115
 10
19.63253762656974
 20
115.7453442765024
 10
19.61454595990743
 20
115.735466498727
 10
19.60607929324276
 20
115.7294692765063
 10
19.59761262657841
 20
115.7227664987302
 10
19.58985151546927
 20
115.715005387621
 10
19.58279595991532
 20
115.7065387209567
 10
19.57609318213913
 20
115.6973664987365
 10
19.57009595991847
 20
115.6871359431836
 10
19.56445151547557
 20
115.6758470542975
 10
19.55986540436564
 20
115.6642053876336
 10
19.5559848488109
 20
115.6515053876368
 10
19.55351540436721
 20
115.6388053876403
 10
19.55175151547873
 20
115.6243414987549
 10
19.55139873770097
 20
115.6098776098696
  0
LWPOLYLINE
  5
270
330
70
100
AcDbEntity
  8
Standardebene
 62
     7
370
    35
100
AcDbPolyline
 90
       15
 70
     0
 43
0.0
 10
19.55139873770097
 20
112.3604414995708
 10
19.55175151547873
 20
112.3459776106854
 10
19.55351540436721
 20
112.3322192773556
 10
19.55492651547794
 20
112.3255164995794
 10
19.5559848488109
 20
112.3184609440258
 10
19.55774873769939
 20
112.3117581662496
 10
19.55986540436564
 20
112.3050553884734
 10
19.56409873769781
 20
112.2930609440321
 10
19.57009595991847
 20
112.2814192773682
 10
19.57609318213913
 20
112.2704831662599
 10
19.58279595991532
 20
112.260252610707
 10
19.59761262657841
 20
112.243319277378
 10
19.61454595990743
 20
112.2288553884927
 10
19.63253762656974
 20
112.216860944051
 10
19.65158762656501
 20
112.2083942773867
  0
LWPOLYLINE
  5
271
330
70
100
AcDbEntity
  8
Standardebene
 62
     7
370
    35
100
AcDbPolyline
 90
       17
 70
     0
 43
0.0
 10
19.55139873770097
 20
116.8181414984565
 10
19.55175151547873
 20
116.8326053873418
 10
19.55351540436721
 20
116.8470692762268
 10
19.55492651547794
 20
116.854830387336
 10
19.5559848488109
 20
116.8615331651122
 10
19.55774873769939
 20
116.8692942762213
 10
19.55986540436564
 20
116.8759970539975
 10
19.56409873769781
 20
116.8904609428828
 10
19.56974318214103
 20
116.9038664984349
 10
19.57609318213913
 20
116.917624831765
 10
19.58279595991532
 20
116.9303248317615
 10
19.59761262657841
 20
116.953960942867
 10
19.61419318212967
 20
116.9751276095283
 10
19.6230126265721
 20
116.9846526095259
 10
19.63253762656974
 20
116.9945303873013
 10
19.64170984878961
 20
117.0029970539656
 10
19.65158762656501
 20
117.0114637206303
  0
LWPOLYLINE
  5
272
330
70
100
AcDbEntity
  8
Standardebene
 62
     7
370
    35
100
AcDbPolyline
 90
       15
 70
     0
 43
0.0
 10
19.65158762656501
 20
111.3035192776127
 10
19.63253762656974
 20
111.319041499831
 10
19.61454595990743
 20
111.3373859442711
 10
19.60607929324276
 20
111.3469109442687
 10
19.59761262657841
 20
111.3578470553771
 10
19.58985151546927
 20
111.3687831664854
 10
19.58279595991532
 20
111.3807776109268
 10
19.57609318213913
 20
111.3927720553684
 10
19.57009595991847
 20
111.4061776109205
 10
19.56445151547557
 20
111.4195831664728
 10
19.55986540436564
 20
111.4333414998026
 10
19.5559848488109
 20
111.447805388688
 10
19.55351540436721
 20
111.462269277573
 10
19.55175151547873
 20
111.4774387220138
 10
19.55139873770097
 20
111.4919026108992
  0
LINE
  5
274
330
70
100
AcDbEntity
  8
Bemaßung
 62
     7
370
     9
100
AcDbLine
 10
51.61078484079737
 20
209.907282253619
 30
0.0
 11
95.61072093863236
 21
209.907282253619
 31
0.0
  0
LINE
  5
275
330
70
100
AcDbEntity
  8
Bemaßung
 62
     7
370
     9
100
AcDbLine
 10
51.61078484079737
 20
177.9075155949524
 30
0.0
 11
95.61072093863236
 21
177.9075155949524
 31
0.0
  0
LINE
  5
276
330
70
100
AcDbEntity
  8
Bemaßung
 62
     7
370
     9
100
AcDbLine
 10
93.61082371691017
 20
209.907282253619
 30
0.0
 11
93.61082371691017
 21
177.9075155949524
 31
0.0
  0
LWPOLYLINE
  5
277
330
70
100
AcDbEntity
  8
Bemaßung
 62
     7
370
     9
100
AcDbPolyline
 90
        4
 70
     0
 43
0.0
 10
93.61082371691017
 20
209.907282253619
 10
93.14974316146994
 20
206.4073739211605
 10
94.07155149457294
 20
206.4073739211605
 10
93.61082371691017
 20
209.907282253619
  0
LINE
  5
278
330
70
100
AcDbEntity
  8
Bemaßung
 62
     7
370
     9
100
AcDbLine
 10
93.15327093924691
 20
206.4073739211605
 30
0.0
 11
93.15327093924691
 21
206.4345378100427
 31
0.0
  0
LINE
  5
279
330
70
100
AcDbEntity
  8
Bemaßung
 62
     7
370
     9
100
AcDbLine
 10
93.15327093924691
 20
206.4073739211605
 30
0.0
 11
93.15327093924691
 21
206.4345378100427
 31
0.0
  0
LINE
  5
27A
330
70
100
AcDbEntity
  8
Bemaßung
 62
     7
370
     9
100
AcDbLine
 10
93.20407093923398
 20
206.4073739211605
 30
0.0
 11
93.20407093923398
 21
206.8204766988351
 31
0.0
  0
LINE
  5
27B
330
70
100
AcDbEntity
  8
Bemaßung
 62
     7
370
     9
100
AcDbLine
 10
93.25487093922136
 20
206.4073739211605
 30
0.0
 11
93.25487093922136
 21
207.2067683654053
 31
0.0
  0
LINE
  5
27C
330
70
100
AcDbEntity
  8
Bemaßung
 62
     7
370
     9
100
AcDbLine
 10
93.30567093920874
 20
206.4073739211605
 30
0.0
 11
93.30567093920874
 21
207.59235447642
 31
0.0
  0
LINE
  5
27D
330
70
100
AcDbEntity
  8
Bemaßung
 62
     7
370
     9
100
AcDbLine
 10
93.35647093919613
 20
206.4073739211605
 30
0.0
 11
93.35647093919613
 21
207.9779405874346
 31
0.0
  0
LINE
  5
27E
330
70
100
AcDbEntity
  8
Bemaßung
 62
     7
370
     9
100
AcDbLine
 10
93.40762371696095
 20
206.4073739211605
 30
0.0
 11
93.40762371696095
 21
208.3638794762271
 31
0.0
  0
LINE
  5
27F
330
70
100
AcDbEntity
  8
Bemaßung
 62
     7
370
     9
100
AcDbLine
 10
93.45842371694834
 20
206.4073739211605
 30
0.0
 11
93.45842371694834
 21
208.7501711427973
 31
0.0
  0
LINE
  5
280
330
70
100
AcDbEntity
  8
Bemaßung
 62
     7
370
     9
100
AcDbLine
 10
93.50922371693572
 20
206.4073739211605
 30
0.0
 11
93.50922371693572
 21
209.1357572538119
 31
0.0
  0
LINE
  5
281
330
70
100
AcDbEntity
  8
Bemaßung
 62
     7
370
     9
100
AcDbLine
 10
93.56002371692277
 20
206.4073739211605
 30
0.0
 11
93.56002371692277
 21
209.5213433648266
 31
0.0
  0
LINE
  5
282
330
70
100
AcDbEntity
  8
Bemaßung
 62
     7
370
     9
100
AcDbLine
 10
93.61082371691017
 20
206.4073739211605
 30
0.0
 11
93.61082371691017
 21
209.907282253619
 31
0.0
  0
LINE
  5
283
330
70
100
AcDbEntity
  8
Bemaßung
 62
     7
370
     9
100
AcDbLine
 10
94.06802371679596
 20
206.4073739211605
 30
0.0
 11
94.06802371679596
 21
206.4345378100427
 31
0.0
  0
LINE
  5
284
330
70
100
AcDbEntity
  8
Bemaßung
 62
     7
370
     9
100
AcDbLine
 10
94.06802371679596
 20
206.4073739211605
 30
0.0
 11
94.06802371679596
 21
206.4345378100427
 31
0.0
  0
LINE
  5
285
330
70
100
AcDbEntity
  8
Bemaßung
 62
     7
370
     9
100
AcDbLine
 10
94.01722371680858
 20
206.4073739211605
 30
0.0
 11
94.01722371680858
 21
206.8204766988351
 31
0.0
  0
LINE
  5
286
330
70
100
AcDbEntity
  8
Bemaßung
 62
     7
370
     9
100
AcDbLine
 10
93.96642371682119
 20
206.4073739211605
 30
0.0
 11
93.96642371682119
 21
207.2067683654053
 31
0.0
  0
LINE
  5
287
330
70
100
AcDbEntity
  8
Bemaßung
 62
     7
370
     9
100
AcDbLine
 10
93.91562371683413
 20
206.4073739211605
 30
0.0
 11
93.91562371683413
 21
207.59235447642
 31
0.0
  0
LINE
  5
288
330
70
100
AcDbEntity
  8
Bemaßung
 62
     7
370
     9
100
AcDbLine
 10
93.864470939069
 20
206.4073739211605
 30
0.0
 11
93.864470939069
 21
207.9779405874346
 31
0.0
  0
LINE
  5
289
330
70
100
AcDbEntity
  8
Bemaßung
 62
     7
370
     9
100
AcDbLine
 10
93.8136709390816
 20
206.4073739211605
 30
0.0
 11
93.8136709390816
 21
208.3638794762271
 31
0.0
  0
LINE
  5
28A
330
70
100
AcDbEntity
  8
Bemaßung
 62
     7
370
     9
100
AcDbLine
 10
93.76287093909454
 20
206.4073739211605
 30
0.0
 11
93.76287093909454
 21
208.7501711427973
 31
0.0
  0
LINE
  5
28B
330
70
100
AcDbEntity
  8
Bemaßung
 62
     7
370
     9
100
AcDbLine
 10
93.71207093910717
 20
206.4073739211605
 30
0.0
 11
93.71207093910717
 21
209.1357572538119
 31
0.0
  0
LINE
  5
28C
330
70
100
AcDbEntity
  8
Bemaßung
 62
     7
370
     9
100
AcDbLine
 10
93.66127093911977
 20
206.4073739211605
 30
0.0
 11
93.66127093911977
 21
209.5213433648266
 31
0.0
  0
LINE
  5
28D
330
70
100
AcDbEntity
  8
Bemaßung
 62
     7
370
     9
100
AcDbLine
 10
93.61082371691017
 20
206.4073739211605
 30
0.0
 11
93.61082371691017
 21
209.907282253619
 31
0.0
  0
LWPOLYLINE
  5
28E
330
70
100
AcDbEntity
  8
Bemaßung
 62
     7
370
     9
100
AcDbPolyline
 90
        4
 70
     0
 43
0.0
 10
93.61082371691017
 20
177.9075155949524
 10
94.07155149457294
 20
181.4074239274105
 10
93.14974316146994
 20
181.4074239274105
 10
93.61082371691017
 20
177.9075155949524
  0
LINE
  5
28F
330
70
100
AcDbEntity
  8
Bemaßung
 62
     7
370
     9
100
AcDbLine
 10
94.06802371679596
 20
181.4074239274105
 30
0.0
 11
94.06802371679596
 21
181.3802600385283
 31
0.0
  0
LINE
  5
290
330
70
100
AcDbEntity
  8
Bemaßung
 62
     7
370
     9
100
AcDbLine
 10
94.06802371679596
 20
181.4074239274105
 30
0.0
 11
94.06802371679596
 21
181.3802600385283
 31
0.0
  0
LINE
  5
291
330
70
100
AcDbEntity
  8
Bemaßung
 62
     7
370
     9
100
AcDbLine
 10
94.01722371680858
 20
181.4074239274105
 30
0.0
 11
94.01722371680858
 21
180.9946739275137
 31
0.0
  0
LINE
  5
292
330
70
100
AcDbEntity
  8
Bemaßung
 62
     7
370
     9
100
AcDbLine
 10
93.96642371682119
 20
181.4074239274105
 30
0.0
 11
93.96642371682119
 21
180.6083822609438
 31
0.0
  0
LINE
  5
293
330
70
100
AcDbEntity
  8
Bemaßung
 62
     7
370
     9
100
AcDbLine
 10
93.91562371683413
 20
181.4074239274105
 30
0.0
 11
93.91562371683413
 21
180.2227961499291
 31
0.0
  0
LINE
  5
294
330
70
100
AcDbEntity
  8
Bemaßung
 62
     7
370
     9
100
AcDbLine
 10
93.864470939069
 20
181.4074239274105
 30
0.0
 11
93.864470939069
 21
179.836504483359
 31
0.0
  0
LINE
  5
295
330
70
100
AcDbEntity
  8
Bemaßung
 62
     7
370
     9
100
AcDbLine
 10
93.8136709390816
 20
181.4074239274105
 30
0.0
 11
93.8136709390816
 21
179.4512711501217
 31
0.0
  0
LINE
  5
296
330
70
100
AcDbEntity
  8
Bemaßung
 62
     7
370
     9
100
AcDbLine
 10
93.76287093909454
 20
181.4074239274105
 30
0.0
 11
93.76287093909454
 21
179.0649794835519
 31
0.0
  0
LINE
  5
297
330
70
100
AcDbEntity
  8
Bemaßung
 62
     7
370
     9
100
AcDbLine
 10
93.71207093910717
 20
181.4074239274105
 30
0.0
 11
93.71207093910717
 21
178.6793933725372
 31
0.0
  0
LINE
  5
298
330
70
100
AcDbEntity
  8
Bemaßung
 62
     7
370
     9
100
AcDbLine
 10
93.66127093911977
 20
181.4074239274105
 30
0.0
 11
93.66127093911977
 21
178.293101705967
 31
0.0
  0
LINE
  5
299
330
70
100
AcDbEntity
  8
Bemaßung
 62
     7
370
     9
100
AcDbLine
 10
93.61082371691017
 20
181.4074239274105
 30
0.0
 11
93.61082371691017
 21
177.9075155949524
 31
0.0
  0
LINE
  5
29A
330
70
100
AcDbEntity
  8
Bemaßung
 62
     7
370
     9
100
AcDbLine
 10
93.15327093924691
 20
181.4074239274105
 30
0.0
 11
93.15327093924691
 21
181.3802600385283
 31
0.0
  0
LINE
  5
29B
330
70
100
AcDbEntity
  8
Bemaßung
 62
     7
370
     9
100
AcDbLine
 10
93.15327093924691
 20
181.4074239274105
 30
0.0
 11
93.15327093924691
 21
181.3802600385283
 31
0.0
  0
LINE
  5
29C
330
70
100
AcDbEntity
  8
Bemaßung
 62
     7
370
     9
100
AcDbLine
 10
93.20407093923398
 20
181.4074239274105
 30
0.0
 11
93.20407093923398
 21
180.9946739275137
 31
0.0
  0
LINE
  5
29D
330
70
100
AcDbEntity
  8
Bemaßung
 62
     7
370
     9
100
AcDbLine
 10
93.25487093922136
 20
181.4074239274105
 30
0.0
 11
93.25487093922136
 21
180.6083822609438
 31
0.0
  0
LINE
  5
29E
330
70
100
AcDbEntity
  8
Bemaßung
 62
     7
370
     9
100
AcDbLine
 10
93.30567093920874
 20
181.4074239274105
 30
0.0
 11
93.30567093920874
 21
180.2227961499291
 31
0.0
  0
LINE
  5
29F
330
70
100
AcDbEntity
  8
Bemaßung
 62
     7
370
     9
100
AcDbLine
 10
93.35647093919613
 20
181.4074239274105
 30
0.0
 11
93.35647093919613
 21
179.836504483359
 31
0.0
  0
LINE
  5
2A0
330
70
100
AcDbEntity
  8
Bemaßung
 62
     7
370
     9
100
AcDbLine
 10
93.40762371696095
 20
181.4074239274105
 30
0.0
 11
93.40762371696095
 21
179.4512711501217
 31
0.0
  0
LINE
  5
2A1
330
70
100
AcDbEntity
  8
Bemaßung
 62
     7
370
     9
100
AcDbLine
 10
93.45842371694834
 20
181.4074239274105
 30
0.0
 11
93.45842371694834
 21
179.0649794835519
 31
0.0
  0
LINE
  5
2A2
330
70
100
AcDbEntity
  8
Bemaßung
 62
     7
370
     9
100
AcDbLine
 10
93.50922371693572
 20
181.4074239274105
 30
0.0
 11
93.50922371693572
 21
178.6793933725372
 31
0.0
  0
LINE
  5
2A3
330
70
100
AcDbEntity
  8
Bemaßung
 62
     7
370
     9
100
AcDbLine
 10
93.56002371692277
 20
181.4074239274105
 30
0.0
 11
93.56002371692277
 21
178.293101705967
 31
0.0
  0
LINE
  5
2A4
330
70
100
AcDbEntity
  8
Bemaßung
 62
     7
370
     9
100
AcDbLine
 10
93.61082371691017
 20
181.4074239274105
 30
0.0
 11
93.61082371691017
 21
177.9075155949524
 31
0.0
  0
LINE
  5
2A5
330
70
100
AcDbEntity
  8
Bemaßung
 62
     7
370
     9
100
AcDbLine
 10
59.110840394478
 20
200.657448922598
 30
0.0
 11
59.110840394478
 21
230.9077905817022
 31
0.0
  0
LINE
  5
2A6
330
70
100
AcDbEntity
  8
Bemaßung
 62
     7
370
     9
100
AcDbLine
 10
21.61091540385266
 20
209.6751544758994
 30
0.0
 11
21.61091540385266
 21
230.9077905817022
 31
0.0
  0
LINE
  5
2A7
330
70
100
AcDbEntity
  8
Bemaßung
 62
     7
370
     9
100
AcDbLine
 10
59.110840394478
 20
228.9071878044246
 30
0.0
 11
21.61091540385266
 21
228.9071878044246
 31
0.0
  0
LWPOLYLINE
  5
2A8
330
70
100
AcDbEntity
  8
Bemaßung
 62
     7
370
     9
100
AcDbPolyline
 90
        4
 70
     0
 43
0.0
 10
59.110840394478
 20
228.9071878044246
 10
55.61093206201954
 20
229.3682683598649
 10
55.61093206201954
 20
228.4468128045396
 10
59.110840394478
 20
228.9071878044246
  0
LINE
  5
2A9
330
70
100
AcDbEntity
  8
Bemaßung
 62
     7
370
     9
100
AcDbLine
 10
55.61093206201954
 20
229.3643878043102
 30
0.0
 11
55.63809595090172
 21
229.3643878043102
 31
0.0
  0
LINE
  5
2AA
330
70
100
AcDbEntity
  8
Bemaßung
 62
     7
370
     9
100
AcDbLine
 10
55.61093206201954
 20
229.3643878043102
 30
0.0
 11
55.63809595090172
 21
229.3643878043102
 31
0.0
  0
LINE
  5
2AB
330
70
100
AcDbEntity
  8
Bemaßung
 62
     7
370
     9
100
AcDbLine
 10
55.61093206201954
 20
229.313587804323
 30
0.0
 11
56.02403483969414
 21
229.313587804323
 31
0.0
  0
LINE
  5
2AC
330
70
100
AcDbEntity
  8
Bemaßung
 62
     7
370
     9
100
AcDbLine
 10
55.61093206201954
 20
229.2627878043357
 30
0.0
 11
56.40926817293104
 21
229.2627878043357
 31
0.0
  0
LINE
  5
2AD
330
70
100
AcDbEntity
  8
Bemaßung
 62
     7
370
     9
100
AcDbLine
 10
55.61093206201954
 20
229.2119878043483
 30
0.0
 11
56.79555983950122
 21
229.2119878043483
 31
0.0
  0
LINE
  5
2AE
330
70
100
AcDbEntity
  8
Bemaßung
 62
     7
370
     9
100
AcDbLine
 10
55.61093206201954
 20
229.161187804361
 30
0.0
 11
57.18149872829364
 21
229.161187804361
 31
0.0
  0
LINE
  5
2AF
330
70
100
AcDbEntity
  8
Bemaßung
 62
     7
370
     9
100
AcDbLine
 10
55.61093206201954
 20
229.1103878043738
 30
0.0
 11
57.56743761708607
 21
229.1103878043738
 31
0.0
  0
LINE
  5
2B0
330
70
100
AcDbEntity
  8
Bemaßung
 62
     7
370
     9
100
AcDbLine
 10
55.61093206201954
 20
229.0595878043865
 30
0.0
 11
57.95337650587817
 21
229.0595878043865
 31
0.0
  0
LINE
  5
2B1
330
70
100
AcDbEntity
  8
Bemaßung
 62
     7
370
     9
100
AcDbLine
 10
55.61093206201954
 20
229.0087878043991
 30
0.0
 11
58.33896261689315
 21
229.0087878043991
 31
0.0
  0
LINE
  5
2B2
330
70
100
AcDbEntity
  8
Bemaßung
 62
     7
370
     9
100
AcDbLine
 10
55.61093206201954
 20
228.9579878044118
 30
0.0
 11
58.72490150568557
 21
228.9579878044118
 31
0.0
  0
LINE
  5
2B3
330
70
100
AcDbEntity
  8
Bemaßung
 62
     7
370
     9
100
AcDbLine
 10
55.61093206201954
 20
228.9071878044246
 30
0.0
 11
59.110840394478
 21
228.9071878044246
 31
0.0
  0
LINE
  5
2B4
330
70
100
AcDbEntity
  8
Bemaßung
 62
     7
370
     9
100
AcDbLine
 10
55.61093206201954
 20
228.4503405823166
 30
0.0
 11
55.63809595090172
 21
228.4503405823166
 31
0.0
  0
LINE
  5
2B5
330
70
100
AcDbEntity
  8
Bemaßung
 62
     7
370
     9
100
AcDbLine
 10
55.61093206201954
 20
228.4503405823166
 30
0.0
 11
55.63809595090172
 21
228.4503405823166
 31
0.0
  0
LINE
  5
2B6
330
70
100
AcDbEntity
  8
Bemaßung
 62
     7
370
     9
100
AcDbLine
 10
55.61093206201954
 20
228.5011405823038
 30
0.0
 11
56.02403483969414
 21
228.5011405823038
 31
0.0
  0
LINE
  5
2B7
330
70
100
AcDbEntity
  8
Bemaßung
 62
     7
370
     9
100
AcDbLine
 10
55.61093206201954
 20
228.5519405822912
 30
0.0
 11
56.40926817293104
 21
228.5519405822912
 31
0.0
  0
LINE
  5
2B8
330
70
100
AcDbEntity
  8
Bemaßung
 62
     7
370
     9
100
AcDbLine
 10
55.61093206201954
 20
228.6027405822784
 30
0.0
 11
56.79555983950122
 21
228.6027405822784
 31
0.0
  0
LINE
  5
2B9
330
70
100
AcDbEntity
  8
Bemaßung
 62
     7
370
     9
100
AcDbLine
 10
55.61093206201954
 20
228.6535405822658
 30
0.0
 11
57.18149872829364
 21
228.6535405822658
 31
0.0
  0
LINE
  5
2BA
330
70
100
AcDbEntity
  8
Bemaßung
 62
     7
370
     9
100
AcDbLine
 10
55.61093206201954
 20
228.704340582253
 30
0.0
 11
57.56743761708607
 21
228.704340582253
 31
0.0
  0
LINE
  5
2BB
330
70
100
AcDbEntity
  8
Bemaßung
 62
     7
370
     9
100
AcDbLine
 10
55.61093206201954
 20
228.7551405822404
 30
0.0
 11
57.95337650587817
 21
228.7551405822404
 31
0.0
  0
LINE
  5
2BC
330
70
100
AcDbEntity
  8
Bemaßung
 62
     7
370
     9
100
AcDbLine
 10
55.61093206201954
 20
228.8059405822276
 30
0.0
 11
58.33896261689315
 21
228.8059405822276
 31
0.0
  0
LINE
  5
2BD
330
70
100
AcDbEntity
  8
Bemaßung
 62
     7
370
     9
100
AcDbLine
 10
55.61093206201954
 20
228.856740582215
 30
0.0
 11
58.72490150568557
 21
228.856740582215
 31
0.0
  0
LINE
  5
2BE
330
70
100
AcDbEntity
  8
Bemaßung
 62
     7
370
     9
100
AcDbLine
 10
55.61093206201954
 20
228.9071878044246
 30
0.0
 11
59.110840394478
 21
228.9071878044246
 31
0.0
  0
LWPOLYLINE
  5
2BF
330
70
100
AcDbEntity
  8
Bemaßung
 62
     7
370
     9
100
AcDbPolyline
 90
        4
 70
     0
 43
0.0
 10
21.61091540385266
 20
228.9071878044246
 10
25.11082373631112
 20
228.4468128045396
 10
25.11082373631112
 20
229.3682683598649
 10
21.61091540385266
 20
228.9071878044246
  0
LINE
  5
2C0
330
70
100
AcDbEntity
  8
Bemaßung
 62
     7
370
     9
100
AcDbLine
 10
25.11082373631112
 20
228.4503405823166
 30
0.0
 11
25.08365984742894
 21
228.4503405823166
 31
0.0
  0
LINE
  5
2C1
330
70
100
AcDbEntity
  8
Bemaßung
 62
     7
370
     9
100
AcDbLine
 10
25.11082373631112
 20
228.4503405823166
 30
0.0
 11
25.08365984742894
 21
228.4503405823166
 31
0.0
  0
LINE
  5
2C2
330
70
100
AcDbEntity
  8
Bemaßung
 62
     7
370
     9
100
AcDbLine
 10
25.11082373631112
 20
228.5011405823038
 30
0.0
 11
24.69736818085908
 21
228.5011405823038
 31
0.0
  0
LINE
  5
2C3
330
70
100
AcDbEntity
  8
Bemaßung
 62
     7
370
     9
100
AcDbLine
 10
25.11082373631112
 20
228.5519405822912
 30
0.0
 11
24.31142929206666
 21
228.5519405822912
 31
0.0
  0
LINE
  5
2C4
330
70
100
AcDbEntity
  8
Bemaßung
 62
     7
370
     9
100
AcDbLine
 10
25.11082373631112
 20
228.6027405822784
 30
0.0
 11
23.92549040327423
 21
228.6027405822784
 31
0.0
  0
LINE
  5
2C5
330
70
100
AcDbEntity
  8
Bemaßung
 62
     7
370
     9
100
AcDbLine
 10
25.11082373631112
 20
228.6535405822658
 30
0.0
 11
23.54025707003701
 21
228.6535405822658
 31
0.0
  0
LINE
  5
2C6
330
70
100
AcDbEntity
  8
Bemaßung
 62
     7
370
     9
100
AcDbLine
 10
25.11082373631112
 20
228.704340582253
 30
0.0
 11
23.15431818124459
 21
228.704340582253
 31
0.0
  0
LINE
  5
2C7
330
70
100
AcDbEntity
  8
Bemaßung
 62
     7
370
     9
100
AcDbLine
 10
25.11082373631112
 20
228.7551405822404
 30
0.0
 11
22.76837929245249
 21
228.7551405822404
 31
0.0
  0
LINE
  5
2C8
330
70
100
AcDbEntity
  8
Bemaßung
 62
     7
370
     9
100
AcDbLine
 10
25.11082373631112
 20
228.8059405822276
 30
0.0
 11
22.3820876258823
 21
228.8059405822276
 31
0.0
  0
LINE
  5
2C9
330
70
100
AcDbEntity
  8
Bemaßung
 62
     7
370
     9
100
AcDbLine
 10
25.11082373631112
 20
228.856740582215
 30
0.0
 11
21.99650151486765
 21
228.856740582215
 31
0.0
  0
LINE
  5
2CA
330
70
100
AcDbEntity
  8
Bemaßung
 62
     7
370
     9
100
AcDbLine
 10
25.11082373631112
 20
228.9071878044246
 30
0.0
 11
21.61091540385266
 21
228.9071878044246
 31
0.0
  0
LINE
  5
2CB
330
70
100
AcDbEntity
  8
Bemaßung
 62
     7
370
     9
100
AcDbLine
 10
25.11082373631112
 20
229.3643878043102
 30
0.0
 11
25.08365984742894
 21
229.3643878043102
 31
0.0
  0
LINE
  5
2CC
330
70
100
AcDbEntity
  8
Bemaßung
 62
     7
370
     9
100
AcDbLine
 10
25.11082373631112
 20
229.3643878043102
 30
0.0
 11
25.08365984742894
 21
229.3643878043102
 31
0.0
  0
LINE
  5
2CD
330
70
100
AcDbEntity
  8
Bemaßung
 62
     7
370
     9
100
AcDbLine
 10
25.11082373631112
 20
229.313587804323
 30
0.0
 11
24.69736818085908
 21
229.313587804323
 31
0.0
  0
LINE
  5
2CE
330
70
100
AcDbEntity
  8
Bemaßung
 62
     7
370
     9
100
AcDbLine
 10
25.11082373631112
 20
229.2627878043357
 30
0.0
 11
24.31142929206666
 21
229.2627878043357
 31
0.0
  0
LINE
  5
2CF
330
70
100
AcDbEntity
  8
Bemaßung
 62
     7
370
     9
100
AcDbLine
 10
25.11082373631112
 20
229.2119878043483
 30
0.0
 11
23.92549040327423
 21
229.2119878043483
 31
0.0
  0
LINE
  5
2D0
330
70
100
AcDbEntity
  8
Bemaßung
 62
     7
370
     9
100
AcDbLine
 10
25.11082373631112
 20
229.161187804361
 30
0.0
 11
23.54025707003701
 21
229.161187804361
 31
0.0
  0
LINE
  5
2D1
330
70
100
AcDbEntity
  8
Bemaßung
 62
     7
370
     9
100
AcDbLine
 10
25.11082373631112
 20
229.1103878043738
 30
0.0
 11
23.15431818124459
 21
229.1103878043738
 31
0.0
  0
LINE
  5
2D2
330
70
100
AcDbEntity
  8
Bemaßung
 62
     7
370
     9
100
AcDbLine
 10
25.11082373631112
 20
229.0595878043865
 30
0.0
 11
22.76837929245249
 21
229.0595878043865
 31
0.0
  0
LINE
  5
2D3
330
70
100
AcDbEntity
  8
Bemaßung
 62
     7
370
     9
100
AcDbLine
 10
25.11082373631112
 20
229.0087878043991
 30
0.0
 11
22.3820876258823
 21
229.0087878043991
 31
0.0
  0
LINE
  5
2D4
330
70
100
AcDbEntity
  8
Bemaßung
 62
     7
370
     9
100
AcDbLine
 10
25.11082373631112
 20
228.9579878044118
 30
0.0
 11
21.99650151486765
 21
228.9579878044118
 31
0.0
  0
LINE
  5
2D5
330
70
100
AcDbEntity
  8
Bemaßung
 62
     7
370
     9
100
AcDbLine
 10
25.11082373631112
 20
228.9071878044246
 30
0.0
 11
21.61091540385266
 21
228.9071878044246
 31
0.0
  0
LINE
  5
2D6
330
70
100
AcDbEntity
  8
Bemaßung
 62
     7
370
     9
100
AcDbLine
 10
37.61079873318613
 20
193.9073989242855
 30
0.0
 11
37.61079873318613
 21
156.9077128224245
 31
0.0
  0
LINE
  5
2D7
330
70
100
AcDbEntity
  8
Bemaßung
 62
     7
370
     9
100
AcDbLine
 10
21.61091540385266
 20
178.1392905948942
 30
0.0
 11
21.61091540385266
 21
156.9077128224245
 31
0.0
  0
LINE
  5
2D8
330
70
100
AcDbEntity
  8
Bemaßung
 62
     7
370
     9
100
AcDbLine
 10
37.61079873318613
 20
158.907257266369
 30
0.0
 11
21.61091540385266
 21
158.907257266369
 31
0.0
  0
LWPOLYLINE
  5
2D9
330
70
100
AcDbEntity
  8
Bemaßung
 62
     7
370
     9
100
AcDbPolyline
 90
        4
 70
     0
 43
0.0
 10
37.61079873318613
 20
158.907257266369
 10
34.11089040072799
 20
159.3679850440314
 10
34.11089040072799
 20
158.446882266484
 10
37.61079873318613
 20
158.907257266369
  0
LINE
  5
2DA
330
70
100
AcDbEntity
  8
Bemaßung
 62
     7
370
     9
100
AcDbLine
 10
34.11089040072799
 20
159.3644572662548
 30
0.0
 11
34.13805428960985
 21
159.3644572662548
 31
0.0
  0
LINE
  5
2DB
330
70
100
AcDbEntity
  8
Bemaßung
 62
     7
370
     9
100
AcDbLine
 10
34.11089040072799
 20
159.3644572662548
 30
0.0
 11
34.13805428960985
 21
159.3644572662548
 31
0.0
  0
LINE
  5
2DC
330
70
100
AcDbEntity
  8
Bemaßung
 62
     7
370
     9
100
AcDbLine
 10
34.11089040072799
 20
159.3136572662674
 30
0.0
 11
34.52399317840227
 21
159.3136572662674
 31
0.0
  0
LINE
  5
2DD
330
70
100
AcDbEntity
  8
Bemaßung
 62
     7
370
     9
100
AcDbLine
 10
34.11089040072799
 20
159.26285726628
 30
0.0
 11
34.90993206719469
 21
159.26285726628
 31
0.0
  0
LINE
  5
2DE
330
70
100
AcDbEntity
  8
Bemaßung
 62
     7
370
     9
100
AcDbLine
 10
34.11089040072799
 20
159.2124100440704
 30
0.0
 11
35.29516540043192
 21
159.2124100440704
 31
0.0
  0
LINE
  5
2DF
330
70
100
AcDbEntity
  8
Bemaßung
 62
     7
370
     9
100
AcDbLine
 10
34.11089040072799
 20
159.161610044083
 30
0.0
 11
35.68145706700177
 21
159.161610044083
 31
0.0
  0
LINE
  5
2E0
330
70
100
AcDbEntity
  8
Bemaßung
 62
     7
370
     9
100
AcDbLine
 10
34.11089040072799
 20
159.1108100440959
 30
0.0
 11
36.0673959557942
 21
159.1108100440959
 31
0.0
  0
LINE
  5
2E1
330
70
100
AcDbEntity
  8
Bemaßung
 62
     7
370
     9
100
AcDbLine
 10
34.11089040072799
 20
159.0600100441085
 30
0.0
 11
36.45333484458662
 21
159.0600100441085
 31
0.0
  0
LINE
  5
2E2
330
70
100
AcDbEntity
  8
Bemaßung
 62
     7
370
     9
100
AcDbLine
 10
34.11089040072799
 20
159.0092100441212
 30
0.0
 11
36.83927373337904
 21
159.0092100441212
 31
0.0
  0
LINE
  5
2E3
330
70
100
AcDbEntity
  8
Bemaßung
 62
     7
370
     9
100
AcDbLine
 10
34.11089040072799
 20
158.9580572663564
 30
0.0
 11
37.2248598443937
 21
158.9580572663564
 31
0.0
  0
LINE
  5
2E4
330
70
100
AcDbEntity
  8
Bemaßung
 62
     7
370
     9
100
AcDbLine
 10
34.11089040072799
 20
158.907257266369
 30
0.0
 11
37.61079873318613
 21
158.907257266369
 31
0.0
  0
LINE
  5
2E5
330
70
100
AcDbEntity
  8
Bemaßung
 62
     7
370
     9
100
AcDbLine
 10
34.11089040072799
 20
158.4500572664832
 30
0.0
 11
34.13805428960985
 21
158.4500572664832
 31
0.0
  0
LINE
  5
2E6
330
70
100
AcDbEntity
  8
Bemaßung
 62
     7
370
     9
100
AcDbLine
 10
34.11089040072799
 20
158.4500572664832
 30
0.0
 11
34.13805428960985
 21
158.4500572664832
 31
0.0
  0
LINE
  5
2E7
330
70
100
AcDbEntity
  8
Bemaßung
 62
     7
370
     9
100
AcDbLine
 10
34.11089040072799
 20
158.5012100442483
 30
0.0
 11
34.52399317840227
 21
158.5012100442483
 31
0.0
  0
LINE
  5
2E8
330
70
100
AcDbEntity
  8
Bemaßung
 62
     7
370
     9
100
AcDbLine
 10
34.11089040072799
 20
158.5520100442357
 30
0.0
 11
34.90993206719469
 21
158.5520100442357
 31
0.0
  0
LINE
  5
2E9
330
70
100
AcDbEntity
  8
Bemaßung
 62
     7
370
     9
100
AcDbLine
 10
34.11089040072799
 20
158.6028100442228
 30
0.0
 11
35.29516540043192
 21
158.6028100442228
 31
0.0
  0
LINE
  5
2EA
330
70
100
AcDbEntity
  8
Bemaßung
 62
     7
370
     9
100
AcDbLine
 10
34.11089040072799
 20
158.6536100442101
 30
0.0
 11
35.68145706700177
 21
158.6536100442101
 31
0.0
  0
LINE
  5
2EB
330
70
100
AcDbEntity
  8
Bemaßung
 62
     7
370
     9
100
AcDbLine
 10
34.11089040072799
 20
158.7044100441975
 30
0.0
 11
36.0673959557942
 21
158.7044100441975
 31
0.0
  0
LINE
  5
2EC
330
70
100
AcDbEntity
  8
Bemaßung
 62
     7
370
     9
100
AcDbLine
 10
34.11089040072799
 20
158.7548572664071
 30
0.0
 11
36.45333484458662
 21
158.7548572664071
 31
0.0
  0
LINE
  5
2ED
330
70
100
AcDbEntity
  8
Bemaßung
 62
     7
370
     9
100
AcDbLine
 10
34.11089040072799
 20
158.8056572663942
 30
0.0
 11
36.83927373337904
 21
158.8056572663942
 31
0.0
  0
LINE
  5
2EE
330
70
100
AcDbEntity
  8
Bemaßung
 62
     7
370
     9
100
AcDbLine
 10
34.11089040072799
 20
158.8564572663816
 30
0.0
 11
37.2248598443937
 21
158.8564572663816
 31
0.0
  0
LINE
  5
2EF
330
70
100
AcDbEntity
  8
Bemaßung
 62
     7
370
     9
100
AcDbLine
 10
34.11089040072799
 20
158.907257266369
 30
0.0
 11
37.61079873318613
 21
158.907257266369
 31
0.0
  0
LWPOLYLINE
  5
2F0
330
70
100
AcDbEntity
  8
Bemaßung
 62
     7
370
     9
100
AcDbPolyline
 90
        4
 70
     0
 43
0.0
 10
21.61091540385266
 20
158.907257266369
 10
25.11082373631112
 20
158.446882266484
 10
25.11082373631112
 20
159.3679850440314
 10
21.61091540385266
 20
158.907257266369
  0
LINE
  5
2F1
330
70
100
AcDbEntity
  8
Bemaßung
 62
     7
370
     9
100
AcDbLine
 10
25.11082373631112
 20
158.4500572664832
 30
0.0
 11
25.08365984742894
 21
158.4500572664832
 31
0.0
  0
LINE
  5
2F2
330
70
100
AcDbEntity
  8
Bemaßung
 62
     7
370
     9
100
AcDbLine
 10
25.11082373631112
 20
158.4500572664832
 30
0.0
 11
25.08365984742894
 21
158.4500572664832
 31
0.0
  0
LINE
  5
2F3
330
70
100
AcDbEntity
  8
Bemaßung
 62
     7
370
     9
100
AcDbLine
 10
25.11082373631112
 20
158.5012100442483
 30
0.0
 11
24.69736818085908
 21
158.5012100442483
 31
0.0
  0
LINE
  5
2F4
330
70
100
AcDbEntity
  8
Bemaßung
 62
     7
370
     9
100
AcDbLine
 10
25.11082373631112
 20
158.5520100442357
 30
0.0
 11
24.31142929206666
 21
158.5520100442357
 31
0.0
  0
LINE
  5
2F5
330
70
100
AcDbEntity
  8
Bemaßung
 62
     7
370
     9
100
AcDbLine
 10
25.11082373631112
 20
158.6028100442228
 30
0.0
 11
23.92549040327423
 21
158.6028100442228
 31
0.0
  0
LINE
  5
2F6
330
70
100
AcDbEntity
  8
Bemaßung
 62
     7
370
     9
100
AcDbLine
 10
25.11082373631112
 20
158.6536100442101
 30
0.0
 11
23.54025707003701
 21
158.6536100442101
 31
0.0
  0
LINE
  5
2F7
330
70
100
AcDbEntity
  8
Bemaßung
 62
     7
370
     9
100
AcDbLine
 10
25.11082373631112
 20
158.7044100441975
 30
0.0
 11
23.15431818124459
 21
158.7044100441975
 31
0.0
  0
LINE
  5
2F8
330
70
100
AcDbEntity
  8
Bemaßung
 62
     7
370
     9
100
AcDbLine
 10
25.11082373631112
 20
158.7548572664071
 30
0.0
 11
22.76837929245249
 21
158.7548572664071
 31
0.0
  0
LINE
  5
2F9
330
70
100
AcDbEntity
  8
Bemaßung
 62
     7
370
     9
100
AcDbLine
 10
25.11082373631112
 20
158.8056572663942
 30
0.0
 11
22.3820876258823
 21
158.8056572663942
 31
0.0
  0
LINE
  5
2FA
330
70
100
AcDbEntity
  8
Bemaßung
 62
     7
370
     9
100
AcDbLine
 10
25.11082373631112
 20
158.8564572663816
 30
0.0
 11
21.99650151486765
 21
158.8564572663816
 31
0.0
  0
LINE
  5
2FB
330
70
100
AcDbEntity
  8
Bemaßung
 62
     7
370
     9
100
AcDbLine
 10
25.11082373631112
 20
158.907257266369
 30
0.0
 11
21.61091540385266
 21
158.907257266369
 31
0.0
  0
LINE
  5
2FC
330
70
100
AcDbEntity
  8
Bemaßung
 62
     7
370
     9
100
AcDbLine
 10
25.11082373631112
 20
159.3644572662548
 30
0.0
 11
25.08365984742894
 21
159.3644572662548
 31
0.0
  0
LINE
  5
2FD
330
70
100
AcDbEntity
  8
Bemaßung
 62
     7
370
     9
100
AcDbLine
 10
25.11082373631112
 20
159.3644572662548
 30
0.0
 11
25.08365984742894
 21
159.3644572662548
 31
0.0
  0
LINE
  5
2FE
330
70
100
AcDbEntity
  8
Bemaßung
 62
     7
370
     9
100
AcDbLine
 10
25.11082373631112
 20
159.3136572662674
 30
0.0
 11
24.69736818085908
 21
159.3136572662674
 31
0.0
  0
LINE
  5
2FF
330
70
100
AcDbEntity
  8
Bemaßung
 62
     7
370
     9
100
AcDbLine
 10
25.11082373631112
 20
159.26285726628
 30
0.0
 11
24.31142929206666
 21
159.26285726628
 31
0.0
  0
LINE
  5
300
330
70
100
AcDbEntity
  8
Bemaßung
 62
     7
370
     9
100
AcDbLine
 10
25.11082373631112
 20
159.2124100440704
 30
0.0
 11
23.92549040327423
 21
159.2124100440704
 31
0.0
  0
LINE
  5
301
330
70
100
AcDbEntity
  8
Bemaßung
 62
     7
370
     9
100
AcDbLine
 10
25.11082373631112
 20
159.161610044083
 30
0.0
 11
23.54025707003701
 21
159.161610044083
 31
0.0
  0
LINE
  5
302
330
70
100
AcDbEntity
  8
Bemaßung
 62
     7
370
     9
100
AcDbLine
 10
25.11082373631112
 20
159.1108100440959
 30
0.0
 11
23.15431818124459
 21
159.1108100440959
 31
0.0
  0
LINE
  5
303
330
70
100
AcDbEntity
  8
Bemaßung
 62
     7
370
     9
100
AcDbLine
 10
25.11082373631112
 20
159.0600100441085
 30
0.0
 11
22.76837929245249
 21
159.0600100441085
 31
0.0
  0
LINE
  5
304
330
70
100
AcDbEntity
  8
Bemaßung
 62
     7
370
     9
100
AcDbLine
 10
25.11082373631112
 20
159.0092100441212
 30
0.0
 11
22.3820876258823
 21
159.0092100441212
 31
0.0
  0
LINE
  5
305
330
70
100
AcDbEntity
  8
Bemaßung
 62
     7
370
     9
100
AcDbLine
 10
25.11082373631112
 20
158.9580572663564
 30
0.0
 11
21.99650151486765
 21
158.9580572663564
 31
0.0
  0
LINE
  5
306
330
70
100
AcDbEntity
  8
Bemaßung
 62
     7
370
     9
100
AcDbLine
 10
25.11082373631112
 20
158.907257266369
 30
0.0
 11
21.61091540385266
 21
158.907257266369
 31
0.0
  0
LINE
  5
307
330
70
100
AcDbEntity
  8
Bemaßung
 62
     7
370
     9
100
AcDbLine
 10
24.61058484754741
 20
207.1577322543064
 30
0.0
 11
7.491690407382741
 21
207.1577322543064
 31
0.0
  0
LINE
  5
308
330
70
100
AcDbEntity
  8
Bemaßung
 62
     7
370
     9
100
AcDbLine
 10
24.61058484754741
 20
180.6574183720427
 30
0.0
 11
7.491690407382741
 21
180.6574183720427
 31
0.0
  0
LINE
  5
309
330
70
100
AcDbEntity
  8
Bemaßung
 62
     7
370
     9
100
AcDbLine
 10
9.491234851327181
 20
207.1577322543064
 30
0.0
 11
9.491234851327181
 21
180.6574183720427
 31
0.0
  0
LWPOLYLINE
  5
30A
330
70
100
AcDbEntity
  8
Bemaßung
 62
     7
370
     9
100
AcDbPolyline
 90
        4
 70
     0
 43
0.0
 10
9.491234851327181
 20
207.1577322543064
 10
9.030859851442171
 20
203.6574711440702
 10
9.952315406767391
 20
203.6574711440702
 10
9.491234851327181
 20
207.1577322543064
  0
LINE
  5
30B
330
70
100
AcDbEntity
  8
Bemaßung
 62
     7
370
     9
100
AcDbLine
 10
9.034034851441383
 20
203.6574711440702
 30
0.0
 11
9.034034851441383
 21
203.6846350329524
 31
0.0
  0
LINE
  5
30C
330
70
100
AcDbEntity
  8
Bemaßung
 62
     7
370
     9
100
AcDbLine
 10
9.034034851441383
 20
203.6574711440702
 30
0.0
 11
9.034034851441383
 21
203.6846350329524
 31
0.0
  0
LINE
  5
30D
330
70
100
AcDbEntity
  8
Bemaßung
 62
     7
370
     9
100
AcDbLine
 10
9.085187629206526
 20
203.6574711440702
 30
0.0
 11
9.085187629206526
 21
204.0702211439671
 31
0.0
  0
LINE
  5
30E
330
70
100
AcDbEntity
  8
Bemaßung
 62
     7
370
     9
100
AcDbLine
 10
9.135987629193909
 20
203.6574711440702
 30
0.0
 11
9.135987629193909
 21
204.4565128105372
 31
0.0
  0
LINE
  5
30F
330
70
100
AcDbEntity
  8
Bemaßung
 62
     7
370
     9
100
AcDbLine
 10
9.186434851403529
 20
203.6574711440702
 30
0.0
 11
9.186434851403529
 21
204.8424516993296
 31
0.0
  0
LINE
  5
310
330
70
100
AcDbEntity
  8
Bemaßung
 62
     7
370
     9
100
AcDbLine
 10
9.23723485139059
 20
203.6574711440702
 30
0.0
 11
9.23723485139059
 21
205.2280378103443
 31
0.0
  0
LINE
  5
311
330
70
100
AcDbEntity
  8
Bemaßung
 62
     7
370
     9
100
AcDbLine
 10
9.288034851377974
 20
203.6574711440702
 30
0.0
 11
9.288034851377974
 21
205.6143294769145
 31
0.0
  0
LINE
  5
312
330
70
100
AcDbEntity
  8
Bemaßung
 62
     7
370
     9
100
AcDbLine
 10
9.339187629143117
 20
203.6574711440702
 30
0.0
 11
9.339187629143117
 21
205.9999155879292
 31
0.0
  0
LINE
  5
313
330
70
100
AcDbEntity
  8
Bemaßung
 62
     7
370
     9
100
AcDbLine
 10
9.389987629130178
 20
203.6574711440702
 30
0.0
 11
9.389987629130178
 21
206.3858544767216
 31
0.0
  0
LINE
  5
314
330
70
100
AcDbEntity
  8
Bemaßung
 62
     7
370
     9
100
AcDbLine
 10
9.44078762911756
 20
203.6574711440702
 30
0.0
 11
9.44078762911756
 21
206.7714405877362
 31
0.0
  0
LINE
  5
315
330
70
100
AcDbEntity
  8
Bemaßung
 62
     7
370
     9
100
AcDbLine
 10
9.491234851327181
 20
203.6574711440702
 30
0.0
 11
9.491234851327181
 21
207.1577322543064
 31
0.0
  0
LINE
  5
316
330
70
100
AcDbEntity
  8
Bemaßung
 62
     7
370
     9
100
AcDbLine
 10
9.94878762899042
 20
203.6574711440702
 30
0.0
 11
9.94878762899042
 21
203.6846350329524
 31
0.0
  0
LINE
  5
317
330
70
100
AcDbEntity
  8
Bemaßung
 62
     7
370
     9
100
AcDbLine
 10
9.94878762899042
 20
203.6574711440702
 30
0.0
 11
9.94878762899042
 21
203.6846350329524
 31
0.0
  0
LINE
  5
318
330
70
100
AcDbEntity
  8
Bemaßung
 62
     7
370
     9
100
AcDbLine
 10
9.897987629003358
 20
203.6574711440702
 30
0.0
 11
9.897987629003358
 21
204.0702211439671
 31
0.0
  0
LINE
  5
319
330
70
100
AcDbEntity
  8
Bemaßung
 62
     7
370
     9
100
AcDbLine
 10
9.847187629015975
 20
203.6574711440702
 30
0.0
 11
9.847187629015975
 21
204.4565128105372
 31
0.0
  0
LINE
  5
31A
330
70
100
AcDbEntity
  8
Bemaßung
 62
     7
370
     9
100
AcDbLine
 10
9.796034851250832
 20
203.6574711440702
 30
0.0
 11
9.796034851250832
 21
204.8424516993296
 31
0.0
  0
LINE
  5
31B
330
70
100
AcDbEntity
  8
Bemaßung
 62
     7
370
     9
100
AcDbLine
 10
9.74523485126377
 20
203.6574711440702
 30
0.0
 11
9.74523485126377
 21
205.2280378103443
 31
0.0
  0
LINE
  5
31C
330
70
100
AcDbEntity
  8
Bemaßung
 62
     7
370
     9
100
AcDbLine
 10
9.69478762905415
 20
203.6574711440702
 30
0.0
 11
9.69478762905415
 21
205.6143294769145
 31
0.0
  0
LINE
  5
31D
330
70
100
AcDbEntity
  8
Bemaßung
 62
     7
370
     9
100
AcDbLine
 10
9.643987629066767
 20
203.6574711440702
 30
0.0
 11
9.643987629066767
 21
205.9999155879292
 31
0.0
  0
LINE
  5
31E
330
70
100
AcDbEntity
  8
Bemaßung
 62
     7
370
     9
100
AcDbLine
 10
9.593187629079386
 20
203.6574711440702
 30
0.0
 11
9.593187629079386
 21
206.3858544767216
 31
0.0
  0
LINE
  5
31F
330
70
100
AcDbEntity
  8
Bemaßung
 62
     7
370
     9
100
AcDbLine
 10
9.542034851314562
 20
203.6574711440702
 30
0.0
 11
9.542034851314562
 21
206.7714405877362
 31
0.0
  0
LINE
  5
320
330
70
100
AcDbEntity
  8
Bemaßung
 62
     7
370
     9
100
AcDbLine
 10
9.491234851327181
 20
203.6574711440702
 30
0.0
 11
9.491234851327181
 21
207.1577322543064
 31
0.0
  0
LWPOLYLINE
  5
321
330
70
100
AcDbEntity
  8
Bemaßung
 62
     7
370
     9
100
AcDbPolyline
 90
        4
 70
     0
 43
0.0
 10
9.491234851327181
 20
180.6574183720427
 10
9.952315406767391
 20
184.1576794822786
 10
9.030859851442171
 20
184.1576794822786
 10
9.491234851327181
 20
180.6574183720427
  0
LINE
  5
322
330
70
100
AcDbEntity
  8
Bemaßung
 62
     7
370
     9
100
AcDbLine
 10
9.94878762899042
 20
184.1576794822786
 30
0.0
 11
9.94878762899042
 21
184.1305155933964
 31
0.0
  0
LINE
  5
323
330
70
100
AcDbEntity
  8
Bemaßung
 62
     7
370
     9
100
AcDbLine
 10
9.94878762899042
 20
184.1576794822786
 30
0.0
 11
9.94878762899042
 21
184.1305155933964
 31
0.0
  0
LINE
  5
324
330
70
100
AcDbEntity
  8
Bemaßung
 62
     7
370
     9
100
AcDbLine
 10
9.897987629003358
 20
184.1576794822786
 30
0.0
 11
9.897987629003358
 21
183.7442239268266
 31
0.0
  0
LINE
  5
325
330
70
100
AcDbEntity
  8
Bemaßung
 62
     7
370
     9
100
AcDbLine
 10
9.847187629015975
 20
184.1576794822786
 30
0.0
 11
9.847187629015975
 21
183.3586378158116
 31
0.0
  0
LINE
  5
326
330
70
100
AcDbEntity
  8
Bemaßung
 62
     7
370
     9
100
AcDbLine
 10
9.796034851250832
 20
184.1576794822786
 30
0.0
 11
9.796034851250832
 21
182.9723461492417
 31
0.0
  0
LINE
  5
327
330
70
100
AcDbEntity
  8
Bemaßung
 62
     7
370
     9
100
AcDbLine
 10
9.74523485126377
 20
184.1576794822786
 30
0.0
 11
9.74523485126377
 21
182.5871128160045
 31
0.0
  0
LINE
  5
328
330
70
100
AcDbEntity
  8
Bemaßung
 62
     7
370
     9
100
AcDbLine
 10
9.69478762905415
 20
184.1576794822786
 30
0.0
 11
9.69478762905415
 21
182.2008211494346
 31
0.0
  0
LINE
  5
329
330
70
100
AcDbEntity
  8
Bemaßung
 62
     7
370
     9
100
AcDbLine
 10
9.643987629066767
 20
184.1576794822786
 30
0.0
 11
9.643987629066767
 21
181.8152350384196
 31
0.0
  0
LINE
  5
32A
330
70
100
AcDbEntity
  8
Bemaßung
 62
     7
370
     9
100
AcDbLine
 10
9.593187629079386
 20
184.1576794822786
 30
0.0
 11
9.593187629079386
 21
181.4289433718498
 31
0.0
  0
LINE
  5
32B
330
70
100
AcDbEntity
  8
Bemaßung
 62
     7
370
     9
100
AcDbLine
 10
9.542034851314562
 20
184.1576794822786
 30
0.0
 11
9.542034851314562
 21
181.0437100386126
 31
0.0
  0
LINE
  5
32C
330
70
100
AcDbEntity
  8
Bemaßung
 62
     7
370
     9
100
AcDbLine
 10
9.491234851327181
 20
184.1576794822786
 30
0.0
 11
9.491234851327181
 21
180.6574183720427
 31
0.0
  0
LINE
  5
32D
330
70
100
AcDbEntity
  8
Bemaßung
 62
     7
370
     9
100
AcDbLine
 10
9.034034851441383
 20
184.1576794822786
 30
0.0
 11
9.034034851441383
 21
184.1305155933964
 31
0.0
  0
LINE
  5
32E
330
70
100
AcDbEntity
  8
Bemaßung
 62
     7
370
     9
100
AcDbLine
 10
9.034034851441383
 20
184.1576794822786
 30
0.0
 11
9.034034851441383
 21
184.1305155933964
 31
0.0
  0
LINE
  5
32F
330
70
100
AcDbEntity
  8
Bemaßung
 62
     7
370
     9
100
AcDbLine
 10
9.085187629206526
 20
184.1576794822786
 30
0.0
 11
9.085187629206526
 21
183.7442239268266
 31
0.0
  0
LINE
  5
330
330
70
100
AcDbEntity
  8
Bemaßung
 62
     7
370
     9
100
AcDbLine
 10
9.135987629193909
 20
184.1576794822786
 30
0.0
 11
9.135987629193909
 21
183.3586378158116
 31
0.0
  0
LINE
  5
331
330
70
100
AcDbEntity
  8
Bemaßung
 62
     7
370
     9
100
AcDbLine
 10
9.186434851403529
 20
184.1576794822786
 30
0.0
 11
9.186434851403529
 21
182.9723461492417
 31
0.0
  0
LINE
  5
332
330
70
100
AcDbEntity
  8
Bemaßung
 62
     7
370
     9
100
AcDbLine
 10
9.23723485139059
 20
184.1576794822786
 30
0.0
 11
9.23723485139059
 21
182.5871128160045
 31
0.0
  0
LINE
  5
333
330
70
100
AcDbEntity
  8
Bemaßung
 62
     7
370
     9
100
AcDbLine
 10
9.288034851377974
 20
184.1576794822786
 30
0.0
 11
9.288034851377974
 21
182.2008211494346
 31
0.0
  0
LINE
  5
334
330
70
100
AcDbEntity
  8
Bemaßung
 62
     7
370
     9
100
AcDbLine
 10
9.339187629143117
 20
184.1576794822786
 30
0.0
 11
9.339187629143117
 21
181.8152350384196
 31
0.0
  0
LINE
  5
335
330
70
100
AcDbEntity
  8
Bemaßung
 62
     7
370
     9
100
AcDbLine
 10
9.389987629130178
 20
184.1576794822786
 30
0.0
 11
9.389987629130178
 21
181.4289433718498
 31
0.0
  0
LINE
  5
336
330
70
100
AcDbEntity
  8
Bemaßung
 62
     7
370
     9
100
AcDbLine
 10
9.44078762911756
 20
184.1576794822786
 30
0.0
 11
9.44078762911756
 21
181.0437100386126
 31
0.0
  0
LINE
  5
337
330
70
100
AcDbEntity
  8
Bemaßung
 62
     7
370
     9
100
AcDbLine
 10
9.491234851327181
 20
184.1576794822786
 30
0.0
 11
9.491234851327181
 21
180.6574183720427
 31
0.0
  0
LINE
  5
338
330
70
100
AcDbEntity
  8
Bemaßung
 62
     7
370
     9
100
AcDbLine
 10
174.025677711736
 20
193.9073989242855
 30
0.0
 11
174.025677711736
 21
156.9077128224245
 31
0.0
  0
LINE
  5
339
330
70
100
AcDbEntity
  8
Bemaßung
 62
     7
370
     9
100
AcDbLine
 10
124.0250721686808
 20
193.9073989242855
 30
0.0
 11
124.0250721686808
 21
156.9077128224245
 31
0.0
  0
LINE
  5
33A
330
70
100
AcDbEntity
  8
Bemaßung
 62
     7
370
     9
100
AcDbLine
 10
174.025677711736
 20
158.907257266369
 30
0.0
 11
124.0250721686808
 21
158.907257266369
 31
0.0
  0
LWPOLYLINE
  5
33B
330
70
100
AcDbEntity
  8
Bemaßung
 62
     7
370
     9
100
AcDbPolyline
 90
        4
 70
     0
 43
0.0
 10
174.025677711736
 20
158.907257266369
 10
170.5250638237224
 20
159.3679850440314
 10
170.5250638237224
 20
158.446882266484
 10
174.025677711736
 20
158.907257266369
  0
LINE
  5
33C
330
70
100
AcDbEntity
  8
Bemaßung
 62
     7
370
     9
100
AcDbLine
 10
170.5250638237224
 20
159.3644572662548
 30
0.0
 11
170.5525804903823
 21
159.3644572662548
 31
0.0
  0
LINE
  5
33D
330
70
100
AcDbEntity
  8
Bemaßung
 62
     7
370
     9
100
AcDbLine
 10
170.5250638237224
 20
159.3644572662548
 30
0.0
 11
170.5525804903823
 21
159.3644572662548
 31
0.0
  0
LINE
  5
33E
330
70
100
AcDbEntity
  8
Bemaßung
 62
     7
370
     9
100
AcDbLine
 10
170.5250638237224
 20
159.3136572662674
 30
0.0
 11
170.9385193791747
 21
159.3136572662674
 31
0.0
  0
LINE
  5
33F
330
70
100
AcDbEntity
  8
Bemaßung
 62
     7
370
     9
100
AcDbLine
 10
170.5250638237224
 20
159.26285726628
 30
0.0
 11
171.3241054901894
 21
159.26285726628
 31
0.0
  0
LINE
  5
340
330
70
100
AcDbEntity
  8
Bemaßung
 62
     7
370
     9
100
AcDbLine
 10
170.5250638237224
 20
159.2124100440704
 30
0.0
 11
171.7103971567596
 21
159.2124100440704
 31
0.0
  0
LINE
  5
341
330
70
100
AcDbEntity
  8
Bemaßung
 62
     7
370
     9
100
AcDbLine
 10
170.5250638237224
 20
159.161610044083
 30
0.0
 11
172.0959832677742
 21
159.161610044083
 31
0.0
  0
LINE
  5
342
330
70
100
AcDbEntity
  8
Bemaßung
 62
     7
370
     9
100
AcDbLine
 10
170.5250638237224
 20
159.1108100440959
 30
0.0
 11
172.4822749343441
 21
159.1108100440959
 31
0.0
  0
LINE
  5
343
330
70
100
AcDbEntity
  8
Bemaßung
 62
     7
370
     9
100
AcDbLine
 10
170.5250638237224
 20
159.0600100441085
 30
0.0
 11
172.8675082675813
 21
159.0600100441085
 31
0.0
  0
LINE
  5
344
330
70
100
AcDbEntity
  8
Bemaßung
 62
     7
370
     9
100
AcDbLine
 10
170.5250638237224
 20
159.0092100441212
 30
0.0
 11
173.2537999341515
 21
159.0092100441212
 31
0.0
  0
LINE
  5
345
330
70
100
AcDbEntity
  8
Bemaßung
 62
     7
370
     9
100
AcDbLine
 10
170.5250638237224
 20
158.9580572663564
 30
0.0
 11
173.6393860451662
 21
158.9580572663564
 31
0.0
  0
LINE
  5
346
330
70
100
AcDbEntity
  8
Bemaßung
 62
     7
370
     9
100
AcDbLine
 10
170.5250638237224
 20
158.907257266369
 30
0.0
 11
174.025677711736
 21
158.907257266369
 31
0.0
  0
LINE
  5
347
330
70
100
AcDbEntity
  8
Bemaßung
 62
     7
370
     9
100
AcDbLine
 10
170.5250638237224
 20
158.4500572664832
 30
0.0
 11
170.5525804903823
 21
158.4500572664832
 31
0.0
  0
LINE
  5
348
330
70
100
AcDbEntity
  8
Bemaßung
 62
     7
370
     9
100
AcDbLine
 10
170.5250638237224
 20
158.4500572664832
 30
0.0
 11
170.5525804903823
 21
158.4500572664832
 31
0.0
  0
LINE
  5
349
330
70
100
AcDbEntity
  8
Bemaßung
 62
     7
370
     9
100
AcDbLine
 10
170.5250638237224
 20
158.5012100442483
 30
0.0
 11
170.9385193791747
 21
158.5012100442483
 31
0.0
  0
LINE
  5
34A
330
70
100
AcDbEntity
  8
Bemaßung
 62
     7
370
     9
100
AcDbLine
 10
170.5250638237224
 20
158.5520100442357
 30
0.0
 11
171.3241054901894
 21
158.5520100442357
 31
0.0
  0
LINE
  5
34B
330
70
100
AcDbEntity
  8
Bemaßung
 62
     7
370
     9
100
AcDbLine
 10
170.5250638237224
 20
158.6028100442228
 30
0.0
 11
171.7103971567596
 21
158.6028100442228
 31
0.0
  0
LINE
  5
34C
330
70
100
AcDbEntity
  8
Bemaßung
 62
     7
370
     9
100
AcDbLine
 10
170.5250638237224
 20
158.6536100442101
 30
0.0
 11
172.0959832677742
 21
158.6536100442101
 31
0.0
  0
LINE
  5
34D
330
70
100
AcDbEntity
  8
Bemaßung
 62
     7
370
     9
100
AcDbLine
 10
170.5250638237224
 20
158.7044100441975
 30
0.0
 11
172.4822749343441
 21
158.7044100441975
 31
0.0
  0
LINE
  5
34E
330
70
100
AcDbEntity
  8
Bemaßung
 62
     7
370
     9
100
AcDbLine
 10
170.5250638237224
 20
158.7548572664071
 30
0.0
 11
172.8675082675813
 21
158.7548572664071
 31
0.0
  0
LINE
  5
34F
330
70
100
AcDbEntity
  8
Bemaßung
 62
     7
370
     9
100
AcDbLine
 10
170.5250638237224
 20
158.8056572663942
 30
0.0
 11
173.2537999341515
 21
158.8056572663942
 31
0.0
  0
LINE
  5
350
330
70
100
AcDbEntity
  8
Bemaßung
 62
     7
370
     9
100
AcDbLine
 10
170.5250638237224
 20
158.8564572663816
 30
0.0
 11
173.6393860451662
 21
158.8564572663816
 31
0.0
  0
LINE
  5
351
330
70
100
AcDbEntity
  8
Bemaßung
 62
     7
370
     9
100
AcDbLine
 10
170.5250638237224
 20
158.907257266369
 30
0.0
 11
174.025677711736
 21
158.907257266369
 31
0.0
  0
LWPOLYLINE
  5
352
330
70
100
AcDbEntity
  8
Bemaßung
 62
     7
370
     9
100
AcDbPolyline
 90
        4
 70
     0
 43
0.0
 10
124.0250721686808
 20
158.907257266369
 10
127.5253332789167
 20
158.446882266484
 10
127.5253332789167
 20
159.3679850440314
 10
124.0250721686808
 20
158.907257266369
  0
LINE
  5
353
330
70
100
AcDbEntity
  8
Bemaßung
 62
     7
370
     9
100
AcDbLine
 10
127.5253332789167
 20
158.4500572664832
 30
0.0
 11
127.4981693900349
 21
158.4500572664832
 31
0.0
  0
LINE
  5
354
330
70
100
AcDbEntity
  8
Bemaßung
 62
     7
370
     9
100
AcDbLine
 10
127.5253332789167
 20
158.4500572664832
 30
0.0
 11
127.4981693900349
 21
158.4500572664832
 31
0.0
  0
LINE
  5
355
330
70
100
AcDbEntity
  8
Bemaßung
 62
     7
370
     9
100
AcDbLine
 10
127.5253332789167
 20
158.5012100442483
 30
0.0
 11
127.1125832790199
 21
158.5012100442483
 31
0.0
  0
LINE
  5
356
330
70
100
AcDbEntity
  8
Bemaßung
 62
     7
370
     9
100
AcDbLine
 10
127.5253332789167
 20
158.5520100442357
 30
0.0
 11
126.72629161245
 21
158.5520100442357
 31
0.0
  0
LINE
  5
357
330
70
100
AcDbEntity
  8
Bemaßung
 62
     7
370
     9
100
AcDbLine
 10
127.5253332789167
 20
158.6028100442228
 30
0.0
 11
126.3403527236576
 21
158.6028100442228
 31
0.0
  0
LINE
  5
358
330
70
100
AcDbEntity
  8
Bemaßung
 62
     7
370
     9
100
AcDbLine
 10
127.5253332789167
 20
158.6536100442101
 30
0.0
 11
125.9547666126429
 21
158.6536100442101
 31
0.0
  0
LINE
  5
359
330
70
100
AcDbEntity
  8
Bemaßung
 62
     7
370
     9
100
AcDbLine
 10
127.5253332789167
 20
158.7044100441975
 30
0.0
 11
125.5691805016279
 21
158.7044100441975
 31
0.0
  0
LINE
  5
35A
330
70
100
AcDbEntity
  8
Bemaßung
 62
     7
370
     9
100
AcDbLine
 10
127.5253332789167
 20
158.7548572664071
 30
0.0
 11
125.1828888350581
 21
158.7548572664071
 31
0.0
  0
LINE
  5
35B
330
70
100
AcDbEntity
  8
Bemaßung
 62
     7
370
     9
100
AcDbLine
 10
127.5253332789167
 20
158.8056572663942
 30
0.0
 11
124.7969499462656
 21
158.8056572663942
 31
0.0
  0
LINE
  5
35C
330
70
100
AcDbEntity
  8
Bemaßung
 62
     7
370
     9
100
AcDbLine
 10
127.5253332789167
 20
158.8564572663816
 30
0.0
 11
124.411363835251
 21
158.8564572663816
 31
0.0
  0
LINE
  5
35D
330
70
100
AcDbEntity
  8
Bemaßung
 62
     7
370
     9
100
AcDbLine
 10
127.5253332789167
 20
158.907257266369
 30
0.0
 11
124.0250721686808
 21
158.907257266369
 31
0.0
  0
LINE
  5
35E
330
70
100
AcDbEntity
  8
Bemaßung
 62
     7
370
     9
100
AcDbLine
 10
127.5253332789167
 20
159.3644572662548
 30
0.0
 11
127.4981693900349
 21
159.3644572662548
 31
0.0
  0
LINE
  5
35F
330
70
100
AcDbEntity
  8
Bemaßung
 62
     7
370
     9
100
AcDbLine
 10
127.5253332789167
 20
159.3644572662548
 30
0.0
 11
127.4981693900349
 21
159.3644572662548
 31
0.0
  0
LINE
  5
360
330
70
100
AcDbEntity
  8
Bemaßung
 62
     7
370
     9
100
AcDbLine
 10
127.5253332789167
 20
159.3136572662674
 30
0.0
 11
127.1125832790199
 21
159.3136572662674
 31
0.0
  0
LINE
  5
361
330
70
100
AcDbEntity
  8
Bemaßung
 62
     7
370
     9
100
AcDbLine
 10
127.5253332789167
 20
159.26285726628
 30
0.0
 11
126.72629161245
 21
159.26285726628
 31
0.0
  0
LINE
  5
362
330
70
100
AcDbEntity
  8
Bemaßung
 62
     7
370
     9
100
AcDbLine
 10
127.5253332789167
 20
159.2124100440704
 30
0.0
 11
126.3403527236576
 21
159.2124100440704
 31
0.0
  0
LINE
  5
363
330
70
100
AcDbEntity
  8
Bemaßung
 62
     7
370
     9
100
AcDbLine
 10
127.5253332789167
 20
159.161610044083
 30
0.0
 11
125.9547666126429
 21
159.161610044083
 31
0.0
  0
LINE
  5
364
330
70
100
AcDbEntity
  8
Bemaßung
 62
     7
370
     9
100
AcDbLine
 10
127.5253332789167
 20
159.1108100440959
 30
0.0
 11
125.5691805016279
 21
159.1108100440959
 31
0.0
  0
LINE
  5
365
330
70
100
AcDbEntity
  8
Bemaßung
 62
     7
370
     9
100
AcDbLine
 10
127.5253332789167
 20
159.0600100441085
 30
0.0
 11
125.1828888350581
 21
159.0600100441085
 31
0.0
  0
LINE
  5
366
330
70
100
AcDbEntity
  8
Bemaßung
 62
     7
370
     9
100
AcDbLine
 10
127.5253332789167
 20
159.0092100441212
 30
0.0
 11
124.7969499462656
 21
159.0092100441212
 31
0.0
  0
LINE
  5
367
330
70
100
AcDbEntity
  8
Bemaßung
 62
     7
370
     9
100
AcDbLine
 10
127.5253332789167
 20
158.9580572663564
 30
0.0
 11
124.411363835251
 21
158.9580572663564
 31
0.0
  0
LINE
  5
368
330
70
100
AcDbEntity
  8
Bemaßung
 62
     7
370
     9
100
AcDbLine
 10
127.5253332789167
 20
158.907257266369
 30
0.0
 11
124.0250721686808
 21
158.907257266369
 31
0.0
  0
MTEXT
  5
36A
330
70
100
AcDbEntity
  8
Text
100
AcDbMText
 10
90.97982565406711
 20
196.1345747351392
 30
0.0
 40
0.2
 41
0.0
 46
0.0
 71
     7
 72
     1
  1
\C7;\FINDEX Univers 45 Light|b0|i0|c1;\H3.447529;\W1.000000;ø32
 11
0.0000000000000001
 21
1.0
 31
0.0
 73
     1
 44
1.0
  0
MTEXT
  5
36B
330
70
100
AcDbEntity
  8
Text
100
AcDbMText
 10
37.17841541632389
 20
230.6633887456043
 30
0.0
 40
0.2
 41
0.0
 46
0.0
 71
     7
 72
     1
  1
\C7;\FINDEX Univers 45 Light|b0|i0|c1;\H3.447529;\W1.000000;37,5
 73
     1
 44
1.0
  0
MTEXT
  5
36C
330
70
100
AcDbEntity
  8
Text
100
AcDbMText
 10
28.20962608479872
 20
160.6633548546841
 30
0.0
 40
0.2
 41
0.0
 46
0.0
 71
     7
 72
     1
  1
\C7;\FINDEX Univers 45 Light|b0|i0|c1;\H3.447529;\W1.000000;16
 73
     1
 44
1.0
  0
MTEXT
  5
36D
330
70
100
AcDbEntity
  8
Text
100
AcDbMText
 10
7.735940380281727
 20
189.8519263534634
 30
0.0
 40
0.2
 41
0.0
 46
0.0
 71
     7
 72
     1
  1
\C7;\FINDEX Univers 45 Light|b0|i0|c1;\H3.447529;\W1.000000;ER20
 11
0.0000000000000001
 21
1.0
 31
0.0
 73
     1
 44
1.0
  0
MTEXT
  5
36E
330
70
100
AcDbEntity
  8
Text
100
AcDbMText
 10
146.0396108474148
 20
160.81387524823
 30
0.0
 40
0.2
 41
0.0
 46
0.0
 71
     7
 72
     1
  1
\C7;\FINDEX Univers 45 Light|b0|i0|c1;\H3.447529;\W1.000000;ø50
 73
     1
 44
1.0
  0
ENDSEC
  0
SECTION
  2
OBJECTS
  0
DICTIONARY
  5
C
330
0
100
AcDbDictionary
281
     1
  3
ACAD_COLOR
350
63
  3
ACAD_DETAILVIEWSTYLE
350
6A
  3
ACAD_GROUP
350
D
  3
ACAD_LAYOUT
350
62
  3
ACAD_MATERIAL
350
10
  3
ACAD_MLEADERSTYLE
350
66
  3
ACAD_MLINESTYLE
350
5F
  3
ACAD_PLOTSETTINGS
350
61
  3
ACAD_PLOTSTYLENAME
350
E
  3
ACAD_SCALELIST
350
42
  3
ACAD_SECTIONVIEWSTYLE
350
68
  3
ACAD_TABLESTYLE
350
64
  3
ACAD_VISUALSTYLE
350
29
  3
ACDB_RECOMPOSE_DATA
350
377
  3
AcDbVariableDictionary
350
36F
  0
DICTIONARY
  5
63
102
{ACAD_REACTORS
330
C
102
}
330
C
100
AcDbDictionary
281
     1
  0
DICTIONARY
  5
6A
102
{ACAD_REACTORS
330
C
102
}
330
C
100
AcDbDictionary
281
     1
  3
Imperial24
350
6B
  0
DICTIONARY
  5
D
102
{ACAD_REACTORS
330
C
102
}
330
C
100
AcDbDictionary
281
     1
  0
DICTIONARY
  5
62
102
{ACAD_REACTORS
330
C
102
}
330
C
100
AcDbDictionary
281
     1
  3
Layout1
350
6F
  3
Layout2
350
77
  3
Model
350
73
  0
DICTIONARY
  5
10
102
{ACAD_REACTORS
330
C
102
}
330
C
100
AcDbDictionary
281
     1
  3
ByBlock
350
19
  3
ByLayer
350
11
  3
Global
350
21
  0
DICTIONARY
  5
66
102
{ACAD_REACTORS
330
C
102
}
330
C
100
AcDbDictionary
281
     1
  3
Standard
350
67
  0
DICTIONARY
  5
5F
102
{ACAD_REACTORS
330
C
102
}
330
C
100
AcDbDictionary
281
     1
  3
Standard
350
60
  0
DICTIONARY
  5
61
102
{ACAD_REACTORS
330
C
102
}
330
C
100
AcDbDictionary
281
     1
  0
ACDBDICTIONARYWDFLT
  5
E
102
{ACAD_REACTORS
330
C
102
}
330
C
100
AcDbDictionary
281
     1
  3
Normal
350
F
100
AcDbDictionaryWithDefault
340
F
  0
DICTIONARY
  5
42
102
{ACAD_REACTORS
330
C
102
}
330
C
100
AcDbDictionary
281
     1
  3
A0
350
43
  3
A1
350
44
  3
A2
350
45
  3
A3
350
46
  3
A4
350
47
  3
A5
350
48
  3
A6
350
49
  3
A7
350
4A
  3
A8
350
4B
  3
A9
350
4C
  3
B0
350
4D
  3
B1
350
4E
  3
B2
350
4F
  3
B3
350
50
  3
B4
350
51
  3
B5
350
52
  3
B6
350
53
  0
DICTIONARY
  5
68
102
{ACAD_REACTORS
330
C
102
}
330
C
100
AcDbDictionary
281
     1
  3
Imperial24
350
69
  0
DICTIONARY
  5
64
102
{ACAD_REACTORS
330
C
102
}
330
C
100
AcDbDictionary
281
     1
  3
Standard
350
65
  0
DICTIONARY
  5
29
102
{ACAD_REACTORS
330
C
102
}
330
C
100
AcDbDictionary
281
     1
  3
2dWireframe
350
2F
  3
Basic
350
2E
  3
Brighten
350
35
  3
ColorChange
350
39
  3
Conceptual
350
32
  3
Dim
350
34
  3
EdgeColorOff
350
41
  3
Facepattern
350
38
  3
Flat
350
2A
  3
FlatWithEdges
350
2B
  3
Gouraud
350
2C
  3
GouraudWithEdges
350
2D
  3
Hidden
350
31
  3
JitterOff
350
3F
  3
Linepattern
350
37
  3
OverhangOff
350
40
  3
Realistic
350
33
  3
Shaded
350
3E
  3
Shaded with edges
350
3D
  3
Shades of Gray
350
3A
  3
Sketchy
350
3B
  3
Thicken
350
36
  3
Wireframe
350
30
  3
X-Ray
350
3C
  0
XRECORD
  5
377
102
{ACAD_REACTORS
330
C
102
}
330
C
100
AcDbXrecord
280
     1
 90
        1
330
65
  0
DICTIONARY
  5
36F
102
{ACAD_REACTORS
330
C
102
}
330
C
100
AcDbDictionary
281
     1
  3
CANNOSCALE
350
374
  3
CMLEADERSTYLE
350
371
  3
CTABLESTYLE
350
370
  3
CVIEWDETAILSTYLE
350
372
  3
CVIEWSECTIONSTYLE
350
373
  0
ACDBDETAILVIEWSTYLE
  5
6B
102
{ACAD_REACTORS
330
6A
102
}
330
6A
100
AcDbModelDocViewStyle
 70
     0
  3
Imperial24
290
     1
300
Imperial24
 90
        0
100
AcDbDetailViewStyle
 70
     0
 71
     0
 90
        3
 71
     1
340
55
 62
   256
 40
0.24
340
0
 62
   256
 40
0.24
300

 40
0.36
280
     3
 71
     2
340
5D
 90
       25
 62
   256
 71
     3
340
55
 62
   256
 40
0.24
 90
        1
 40
0.75
 90
        1
300
%<\AcVar ViewType \f "%tc1">% %<\AcVar ViewDetailId>%\PSCALE %<\AcVar ViewScale \f "%sn">%
 71
     4
340
5D
 90
       25
 62
   256
340
5D
 90
       25
 62
   256
280
     0
  0
LAYOUT
  5
6F
102
{ACAD_REACTORS
330
62
102
}
330
62
100
AcDbPlotSettings
  1

  2

  4

  6

 40
0.0
 41
0.0
 42
0.0
 43
0.0
 44
0.0
 45
0.0
 46
0.0
 47
0.0
 48
0.0
 49
0.0
140
0.0
141
0.0
142
1.0
143
1.0
 70
   688
 72
     0
 73
     0
 74
     5
  7

 75
    16
147
1.0
 76
     0
 77
     2
 78
   300
148
0.0
149
0.0
100
AcDbLayout
  1
Layout1
 70
     1
 71
     1
 10
0.0
 20
0.0
 11
12.0
 21
9.0
 12
0.0
 22
0.0
 32
0.0
 14
0.0
 24
0.0
 34
0.0
 15
0.0
 25
0.0
 35
0.0
146
0.0
 13
0.0
 23
0.0
 33
0.0
 16
1.0
 26
0.0
 36
0.0
 17
0.0
 27
1.0
 37
0.0
 76
     0
330
6C
  0
LAYOUT
  5
77
102
{ACAD_REACTORS
330
62
102
}
330
62
100
AcDbPlotSettings
  1

  2

  4

  6

 40
0.0
 41
0.0
 42
0.0
 43
0.0
 44
0.0
 45
0.0
 46
0.0
 47
0.0
 48
0.0
 49
0.0
140
0.0
141
0.0
142
1.0
143
1.0
 70
   688
 72
     0
 73
     0
 74
     5
  7

 75
    16
147
1.0
 76
     0
 77
     2
 78
   300
148
0.0
149
0.0
100
AcDbLayout
  1
Layout2
 70
     1
 71
     2
 10
0.0
 20
0.0
 11
12.0
 21
9.0
 12
0.0
 22
0.0
 32
0.0
 14
0.0
 24
0.0
 34
0.0
 15
0.0
 25
0.0
 35
0.0
146
0.0
 13
0.0
 23
0.0
 33
0.0
 16
1.0
 26
0.0
 36
0.0
 17
0.0
 27
1.0
 37
0.0
 76
     0
330
74
  0
LAYOUT
  5
73
102
{ACAD_REACTORS
330
62
102
}
330
62
100
AcDbPlotSettings
  1

  2

  4

  6

 40
0.0
 41
0.0
 42
0.0
 43
0.0
 44
0.0
 45
0.0
 46
0.0
 47
0.0
 48
0.0
 49
0.0
140
0.0
141
0.0
142
1.0
143
1.0
 70
  1712
 72
     0
 73
     0
 74
     0
  7

 75
     0
147
1.0
 76
     0
 77
     2
 78
   300
148
0.0
149
0.0
100
AcDbLayout
  1
Model
 70
     1
 71
     0
 10
0.0
 20
0.0
 11
12.0
 21
9.0
 12
0.0
 22
0.0
 32
0.0
 14
0.0
 24
0.0
 34
0.0
 15
0.0
 25
0.0
 35
0.0
146
0.0
 13
0.0
 23
0.0
 33
0.0
 16
1.0
 26
0.0
 36
0.0
 17
0.0
 27
1.0
 37
0.0
 76
     0
330
70
  0
MATERIAL
  5
19
102
{ACAD_XDICTIONARY
360
1A
102
}
102
{ACAD_REACTORS
330
10
102
}
330
10
100
AcDbMaterial
  1
ByBlock
 72
     0
 43
0.0208333333333333
 43
0.0
 43
0.0
 43
0.0
 43
0.0
 43
0.0208333333333333
 43
0.0
 43
0.0
 43
0.0
 43
0.0
 43
1.0
 43
0.0
 43
0.0
 43
0.0
 43
0.0
 43
1.0
 77
     0
 47
0.0208333333333333
 47
0.0
 47
0.0
 47
0.0
 47
0.0
 47
0.0208333333333333
 47
0.0
 47
0.0
 47
0.0
 47
0.0
 47
1.0
 47
0.0
 47
0.0
 47
0.0
 47
0.0
 47
1.0
171
     0
 49
0.0208333333333333
 49
0.0
 49
0.0
 49
0.0
 49
0.0
 49
0.0208333333333333
 49
0.0
 49
0.0
 49
0.0
 49
0.0
 49
1.0
 49
0.0
 49
0.0
 49
0.0
 49
0.0
 49
1.0
175
     0
142
0.0208333333333333
142
0.0
142
0.0
142
0.0
142
0.0
142
0.0208333333333333
142
0.0
142
0.0
142
0.0
142
0.0
142
1.0
142
0.0
142
0.0
142
0.0
142
0.0
142
1.0
179
     0
144
0.0208333333333333
144
0.0
144
0.0
144
0.0
144
0.0
144
0.0208333333333333
144
0.0
144
0.0
144
0.0
144
0.0
144
1.0
144
0.0
144
0.0
144
0.0
144
0.0
144
1.0
147
0.0208333333333333
147
0.0
147
0.0
147
0.0
147
0.0
147
0.0208333333333333
147
0.0
147
0.0
147
0.0
147
0.0
147
1.0
147
0.0
147
0.0
147
0.0
147
0.0
147
1.0
  0
MATERIAL
  5
11
102
{ACAD_XDICTIONARY
360
12
102
}
102
{ACAD_REACTORS
330
10
102
}
330
10
100
AcDbMaterial
  1
ByLayer
 72
     0
 43
0.0208333333333333
 43
0.0
 43
0.0
 43
0.0
 43
0.0
 43
0.0208333333333333
 43
0.0
 43
0.0
 43
0.0
 43
0.0
 43
1.0
 43
0.0
 43
0.0
 43
0.0
 43
0.0
 43
1.0
 77
     0
 47
0.0208333333333333
 47
0.0
 47
0.0
 47
0.0
 47
0.0
 47
0.0208333333333333
 47
0.0
 47
0.0
 47
0.0
 47
0.0
 47
1.0
 47
0.0
 47
0.0
 47
0.0
 47
0.0
 47
1.0
171
     0
 49
0.0208333333333333
 49
0.0
 49
0.0
 49
0.0
 49
0.0
 49
0.0208333333333333
 49
0.0
 49
0.0
 49
0.0
 49
0.0
 49
1.0
 49
0.0
 49
0.0
 49
0.0
 49
0.0
 49
1.0
175
     0
142
0.0208333333333333
142
0.0
142
0.0
142
0.0
142
0.0
142
0.0208333333333333
142
0.0
142
0.0
142
0.0
142
0.0
142
1.0
142
0.0
142
0.0
142
0.0
142
0.0
142
1.0
179
     0
144
0.0208333333333333
144
0.0
144
0.0
144
0.0
144
0.0
144
0.0208333333333333
144
0.0
144
0.0
144
0.0
144
0.0
144
1.0
144
0.0
144
0.0
144
0.0
144
0.0
144
1.0
147
0.0208333333333333
147
0.0
147
0.0
147
0.0
147
0.0
147
0.0208333333333333
147
0.0
147
0.0
147
0.0
147
0.0
147
1.0
147
0.0
147
0.0
147
0.0
147
0.0
147
1.0
  0
MATERIAL
  5
21
102
{ACAD_XDICTIONARY
360
22
102
}
102
{ACAD_REACTORS
330
10
102
}
330
10
100
AcDbMaterial
  1
Global
 72
     0
 43
0.0208333333333333
 43
0.0
 43
0.0
 43
0.0
 43
0.0
 43
0.0208333333333333
 43
0.0
 43
0.0
 43
0.0
 43
0.0
 43
1.0
 43
0.0
 43
0.0
 43
0.0
 43
0.0
 43
1.0
 77
     0
 47
0.0208333333333333
 47
0.0
 47
0.0
 47
0.0
 47
0.0
 47
0.0208333333333333
 47
0.0
 47
0.0
 47
0.0
 47
0.0
 47
1.0
 47
0.0
 47
0.0
 47
0.0
 47
0.0
 47
1.0
171
     0
 49
0.0208333333333333
 49
0.0
 49
0.0
 49
0.0
 49
0.0
 49
0.0208333333333333
 49
0.0
 49
0.0
 49
0.0
 49
0.0
 49
1.0
 49
0.0
 49
0.0
 49
0.0
 49
0.0
 49
1.0
175
     0
142
0.0208333333333333
142
0.0
142
0.0
142
0.0
142
0.0
142
0.0208333333333333
142
0.0
142
0.0
142
0.0
142
0.0
142
1.0
142
0.0
142
0.0
142
0.0
142
0.0
142
1.0
179
     0
144
0.0208333333333333
144
0.0
144
0.0
144
0.0
144
0.0
144
0.0208333333333333
144
0.0
144
0.0
144
0.0
144
0.0
144
1.0
144
0.0
144
0.0
144
0.0
144
0.0
144
1.0
147
0.0208333333333333
147
0.0
147
0.0
147
0.0
147
0.0
147
0.0208333333333333
147
0.0
147
0.0
147
0.0
147
0.0
147
1.0
147
0.0
147
0.0
147
0.0
147
0.0
147
1.0
  0
MLEADERSTYLE
  5
67
102
{ACAD_REACTORS
330
66
102
}
330
66
100
AcDbMLeaderStyle
179
     2
170
     2
171
     1
172
     0
 90
        2
 40
0.0
 41
0.0
173
     1
 91
-1056964608
340
5B
 92
       -2
290
     1
 42
0.09
291
     1
 43
0.36
  3
Standard
 44
0.18
300

342
55
174
     1
178
     6
175
     1
176
     0
 93
-1056964608
 45
0.18
292
     0
297
     0
 46
0.18
 94
-1056964608
 47
1.0
 49
1.0
140
1.0
293
     1
141
0.0
294
     1
177
     0
142
1.0
295
     1
296
     0
143
0.125
271
     0
272
     9
273
     9
298
     1
  0
MLINESTYLE
  5
60
102
{ACAD_REACTORS
330
5F
102
}
330
5F
100
AcDbMlineStyle
  2
STANDARD
 70
     0
  3

 62
   256
 51
90.0
 52
90.0
 71
     2
 49
0.5
 62
   256
  6
BYLAYER
 49
-0.5
 62
   256
  6
BYLAYER
  0
ACDBPLACEHOLDER
  5
F
102
{ACAD_REACTORS
330
E
102
}
330
E
  0
SCALE
  5
43
102
{ACAD_REACTORS
330
42
102
}
330
42
100
AcDbScale
 70
     0
300
1:1
140
1.0
141
1.0
290
     1
  0
SCALE
  5
44
102
{ACAD_REACTORS
330
42
102
}
330
42
100
AcDbScale
 70
     0
300
1/128" = 1'-0"
140
0.0078125
141
12.0
290
     0
  0
SCALE
  5
45
102
{ACAD_REACTORS
330
42
102
}
330
42
100
AcDbScale
 70
     0
300
1/64" = 1'-0"
140
0.015625
141
12.0
290
     0
  0
SCALE
  5
46
102
{ACAD_REACTORS
330
42
102
}
330
42
100
AcDbScale
 70
     0
300
1/32" = 1'-0"
140
0.03125
141
12.0
290
     0
  0
SCALE
  5
47
102
{ACAD_REACTORS
330
42
102
}
330
42
100
AcDbScale
 70
     0
300
1/16" = 1'-0"
140
0.0625
141
12.0
290
     0
  0
SCALE
  5
48
102
{ACAD_REACTORS
330
42
102
}
330
42
100
AcDbScale
 70
     0
300
3/32" = 1'-0"
140
0.09375
141
12.0
290
     0
  0
SCALE
  5
49
102
{ACAD_REACTORS
330
42
102
}
330
42
100
AcDbScale
 70
     0
300
1/8" = 1'-0"
140
0.125
141
12.0
290
     0
  0
SCALE
  5
4A
102
{ACAD_REACTORS
330
42
102
}
330
42
100
AcDbScale
 70
     0
300
3/16" = 1'-0"
140
0.1875
141
12.0
290
     0
  0
SCALE
  5
4B
102
{ACAD_REACTORS
330
42
102
}
330
42
100
AcDbScale
 70
     0
300
1/4" = 1'-0"
140
0.25
141
12.0
290
     0
  0
SCALE
  5
4C
102
{ACAD_REACTORS
330
42
102
}
330
42
100
AcDbScale
 70
     0
300
3/8" = 1'-0"
140
0.375
141
12.0
290
     0
  0
SCALE
  5
4D
102
{ACAD_REACTORS
330
42
102
}
330
42
100
AcDbScale
 70
     0
300
1/2" = 1'-0"
140
0.5
141
12.0
290
     0
  0
SCALE
  5
4E
102
{ACAD_REACTORS
330
42
102
}
330
42
100
AcDbScale
 70
     0
300
3/4" = 1'-0"
140
0.75
141
12.0
290
     0
  0
SCALE
  5
4F
102
{ACAD_REACTORS
330
42
102
}
330
42
100
AcDbScale
 70
     0
300
1" = 1'-0"
140
1.0
141
12.0
290
     0
  0
SCALE
  5
50
102
{ACAD_REACTORS
330
42
102
}
330
42
100
AcDbScale
 70
     0
300
1-1/2" = 1'-0"
140
1.5
141
12.0
290
     0
  0
SCALE
  5
51
102
{ACAD_REACTORS
330
42
102
}
330
42
100
AcDbScale
 70
     0
300
3" = 1'-0"
140
3.0
141
12.0
290
     0
  0
SCALE
  5
52
102
{ACAD_REACTORS
330
42
102
}
330
42
100
AcDbScale
 70
     0
300
6" = 1'-0"
140
6.0
141
12.0
290
     0
  0
SCALE
  5
53
102
{ACAD_REACTORS
330
42
102
}
330
42
100
AcDbScale
 70
     0
300
1'-0" = 1'-0"
140
12.0
141
12.0
290
     0
  0
ACDBSECTIONVIEWSTYLE
  5
69
102
{ACAD_REACTORS
330
68
102
}
330
68
100
AcDbModelDocViewStyle
 70
     0
  3
Imperial24
290
     1
300
Imperial24
 90
        0
100
AcDbSectionViewStyle
 70
     0
 71
     0
 90
       78
 71
     1
340
55
 62
   256
 40
0.24
340
0
340
0
 62
   256
 40
0.24
300
I, O, Q, S, X, Z
 40
0.48
 90
        3
 40
0.18
 90
        1
 71
     2
340
5D
 90
       25
 62
   256
340
5D
 90
       50
 62
   256
 40
0.24
 40
0.0
 40
0.24
 71
     3
340
55
 62
   256
 40
0.24
 90
        1
 40
0.75
 90
        1
300
%<\AcVar ViewType \f "%tc1">% %<\AcVar ViewSectionStartId>%-%<\AcVar ViewSectionEndId>%\PSCALE %<\AcVar ViewScale \f "%sn">%
 71
     4
 62
   256
 62
   257
300
ANSI31
 40
1.0
 90
        0
290
     0
290
     0
 90
        6
 40
0.0
 40
1.570796326794896
 40
0.2617993877991494
 40
1.308996938995747
 40
-0.2617993877991494
 40
1.832595714594046
  0
TABLESTYLE
  5
65
102
{ACAD_XDICTIONARY
360
375
102
}
102
{ACAD_REACTORS
330
64
102
}
330
64
100
AcDbTableStyle
280
     0
  3
Standard
 70
     0
 71
     0
 40
0.06
 41
0.06
280
     0
281
     0
  7
Standard
140
0.18
170
     2
 62
     0
 63
     7
283
     0
 90
      512
 91
        0
  1

274
    -2
284
     1
 64
     0
275
    -2
285
     1
 65
     0
276
    -2
286
     1
 66
     0
277
    -2
287
     1
 67
     0
278
    -2
288
     1
 68
     0
279
    -2
289
     1
 69
     0
  7
Standard
140
0.25
170
     5
 62
     0
 63
     7
283
     0
 90
      512
 91
        0
  1

274
    -2
284
     1
 64
     0
275
    -2
285
     1
 65
     0
276
    -2
286
     1
 66
     0
277
    -2
287
     1
 67
     0
278
    -2
288
     1
 68
     0
279
    -2
289
     1
 69
     0
  7
Standard
140
0.18
170
     5
 62
     0
 63
     7
283
     0
 90
      512
 91
        0
  1

274
    -2
284
     1
 64
     0
275
    -2
285
     1
 65
     0
276
    -2
286
     1
 66
     0
277
    -2
287
     1
 67
     0
278
    -2
288
     1
 68
     0
279
    -2
289
     1
 69
     0
  0
VISUALSTYLE
  5
2F
102
{ACAD_REACTORS
330
29
102
}
330
29
100
AcDbVisualStyle
  2
2dWireframe
 70
     4
177
     3
291
     0
 70
    58
 90
        0
176
     1
 90
        2
176
     1
 90
        0
176
     1
 90
        0
176
     1
 40
0.6
176
     1
 40
30.0
176
     1
 62
     7
420
 16777215
176
     1
 90
        1
176
     1
 90
        4
176
     1
 62
     7
176
     1
 62
   257
176
     1
 90
        1
176
     1
 90
        1
176
     1
 40
1.0
176
     1
 90
        0
176
     1
 62
   257
176
     1
 40
1.0
176
     1
 90
        1
176
     1
 90
        6
176
     1
 90
        2
176
     1
 62
     7
176
     1
 90
        5
176
     1
 90
        0
176
     1
 90
        0
176
     1
290
     0
176
     1
 90
        1
176
     1
 40
0.0
176
     1
 90
        0
176
     1
290
     1
176
     1
290
     1
176
     1
290
     0
176
     1
290
     0
176
     1
290
     0
176
     1
290
     0
176
     1
290
     0
176
     1
290
     0
176
     1
290
     0
176
     1
 90
       50
176
     1
 40
0.0
176
     1
 40
1.0
176
     1
 90
        0
176
     1
 62
    18
420
        0
176
     1
 90
       50
176
     1
 90
        3
176
     1
 62
     5
420
      255
176
     1
290
     0
176
     1
 90
       50
176
     1
 90
       50
176
     1
 90
       50
176
     1
290
     0
176
     1
 90
       50
176
     1
 62
   256
176
     0
 40
1.0
176
     0
 90
        2
176
     1
  1
strokes_ogs.tif
176
     1
290
     0
176
     1
 40
1.0
176
     1
 40
1.0
176
     1
  0
VISUALSTYLE
  5
2E
102
{ACAD_REACTORS
330
29
102
}
330
29
100
AcDbVisualStyle
  2
Basic
 70
     7
177
     3
291
     1
 70
    58
 90
        1
176
     1
 90
        0
176
     1
 90
        1
176
     1
 90
        0
176
     1
 40
0.6
176
     1
 40
30.0
176
     1
 62
     7
420
 16777215
176
     1
 90
        0
176
     1
 90
        4
176
     1
 62
     7
176
     1
 62
   257
176
     1
 90
        1
176
     1
 90
        1
176
     1
 40
1.0
176
     1
 90
        8
176
     1
 62
     7
176
     1
 40
1.0
176
     1
 90
        1
176
     1
 90
        6
176
     1
 90
        2
176
     1
 62
     7
176
     1
 90
        5
176
     1
 90
        0
176
     1
 90
        0
176
     1
290
     0
176
     1
 90
        1
176
     1
 40
0.0
176
     1
 90
        0
176
     1
290
     0
176
     1
290
     1
176
     1
290
     1
176
     1
290
     0
176
     1
290
     0
176
     1
290
     0
176
     1
290
     0
176
     1
290
     0
176
     1
290
     0
176
     1
 90
       50
176
     1
 40
0.0
176
     1
 40
1.0
176
     1
 90
        0
176
     1
 62
    18
420
        0
176
     1
 90
       50
176
     1
 90
        3
176
     1
 62
     5
420
      255
176
     1
290
     0
176
     1
 90
       50
176
     1
 90
       50
176
     1
 90
       50
176
     1
290
     0
176
     1
 90
       50
176
     1
 62
   256
176
     0
 40
1.0
176
     0
 90
        2
176
     1
  1
strokes_ogs.tif
176
     1
290
     0
176
     1
 40
1.0
176
     1
 40
1.0
176
     1
  0
VISUALSTYLE
  5
35
102
{ACAD_REACTORS
330
29
102
}
330
29
100
AcDbVisualStyle
  2
Brighten
 70
    12
177
     3
291
     1
 70
    58
 90
        2
176
     1
 90
        2
176
     1
 90
        0
176
     1
 90
        0
176
     1
 40
0.6
176
     1
 40
30.0
176
     1
 62
     7
420
 16777215
176
     1
 90
        1
176
     1
 90
        4
176
     1
 62
     7
176
     1
 62
   257
176
     1
 90
        1
176
     1
 90
        1
176
     1
 40
1.0
176
     1
 90
        8
176
     1
 62
     7
176
     1
 40
1.0
176
     1
 90
        1
176
     1
 90
        6
176
     1
 90
        2
176
     1
 62
     7
176
     1
 90
        5
176
     1
 90
        0
176
     1
 90
        0
176
     1
290
     0
176
     1
 90
        1
176
     1
 40
50.0
176
     1
 90
        0
176
     1
290
     0
176
     1
290
     1
176
     1
290
     1
176
     1
290
     0
176
     1
290
     0
176
     1
290
     0
176
     1
290
     0
176
     1
290
     0
176
     1
290
     0
176
     1
 90
       50
176
     1
 40
0.0
176
     1
 40
1.0
176
     1
 90
        0
176
     1
 62
    18
420
        0
176
     1
 90
       50
176
     1
 90
        3
176
     1
 62
     5
420
      255
176
     1
290
     0
176
     1
 90
       50
176
     1
 90
       50
176
     1
 90
       50
176
     1
290
     0
176
     1
 90
       50
176
     1
 62
   256
176
     0
 40
1.0
176
     0
 90
        2
176
     1
  1
strokes_ogs.tif
176
     1
290
     0
176
     1
 40
1.0
176
     1
 40
1.0
176
     1
  0
VISUALSTYLE
  5
39
102
{ACAD_REACTORS
330
29
102
}
330
29
100
AcDbVisualStyle
  2
ColorChange
 70
    16
177
     3
291
     1
 70
    58
 90
        2
176
     1
 90
        2
176
     1
 90
        3
176
     1
 90
        0
176
     1
 40
0.6
176
     1
 40
30.0
176
     1
 62
     8
420
  8421504
176
     1
 90
        1
176
     1
 90
        4
176
     1
 62
     7
176
     1
 62
   257
176
     1
 90
        1
176
     1
 90
        1
176
     1
 40
1.0
176
     1
 90
        8
176
     1
 62
     8
420
  8421504
176
     1
 40
1.0
176
     1
 90
        1
176
     1
 90
        6
176
     1
 90
        2
176
     1
 62
     7
176
     1
 90
        5
176
     1
 90
        0
176
     1
 90
        0
176
     1
290
     0
176
     1
 90
        1
176
     1
 40
0.0
176
     1
 90
        0
176
     1
290
     0
176
     1
290
     1
176
     1
290
     1
176
     1
290
     0
176
     1
290
     0
176
     1
290
     0
176
     1
290
     0
176
     1
290
     0
176
     1
290
     0
176
     1
 90
       50
176
     1
 40
0.0
176
     1
 40
1.0
176
     1
 90
        0
176
     1
 62
    18
420
        0
176
     1
 90
       50
176
     1
 90
        3
176
     1
 62
     5
420
      255
176
     1
290
     0
176
     1
 90
       50
176
     1
 90
       50
176
     1
 90
       50
176
     1
290
     0
176
     1
 90
       50
176
     1
 62
   256
176
     0
 40
1.0
176
     0
 90
        2
176
     1
  1
strokes_ogs.tif
176
     1
290
     0
176
     1
 40
1.0
176
     1
 40
1.0
176
     1
  0
VISUALSTYLE
  5
32
102
{ACAD_REACTORS
330
29
102
}
330
29
100
AcDbVisualStyle
  2
Conceptual
 70
     9
177
     3
291
     0
 70
    58
 90
        3
176
     1
 90
        2
176
     1
 90
        0
176
     1
 90
        0
176
     1
 40
0.6
176
     1
 40
30.0
176
     1
 62
     7
420
 16777215
176
     1
 90
        2
176
     1
 90
        2
176
     1
 62
     7
176
     1
 62
   257
176
     1
 90
        1
176
     1
 90
        1
176
     1
 40
179.0
176
     1
 90
        8
176
     1
 62
     7
176
     1
 40
1.0
176
     1
 90
        1
176
     1
 90
        6
176
     1
 90
        2
176
     1
 62
     7
176
     1
 90
        3
176
     1
 90
        0
176
     1
 90
        0
176
     1
290
     0
176
     1
 90
        1
176
     1
 40
0.0
176
     1
 90
        0
176
     1
290
     0
176
     1
290
     1
176
     1
290
     1
176
     1
290
     0
176
     1
290
     0
176
     1
290
     0
176
     1
290
     0
176
     1
290
     0
176
     1
290
     0
176
     1
 90
       50
176
     1
 40
0.0
176
     1
 40
1.0
176
     1
 90
        0
176
     1
 62
    18
420
        0
176
     1
 90
       50
176
     1
 90
        3
176
     1
 62
     5
420
      255
176
     1
290
     0
176
     1
 90
       50
176
     1
 90
       50
176
     1
 90
       50
176
     1
290
     0
176
     1
 90
       50
176
     1
 62
   256
176
     0
 40
1.0
176
     0
 90
        2
176
     1
  1
strokes_ogs.tif
176
     1
290
     0
176
     1
 40
1.0
176
     1
 40
1.0
176
     1
  0
VISUALSTYLE
  5
34
102
{ACAD_REACTORS
330
29
102
}
330
29
100
AcDbVisualStyle
  2
Dim
 70
    11
177
     3
291
     1
 70
    58
 90
        2
176
     1
 90
        2
176
     1
 90
        0
176
     1
 90
        0
176
     1
 40
0.6
176
     1
 40
30.0
176
     1
 62
     7
420
 16777215
176
     1
 90
        1
176
     1
 90
        4
176
     1
 62
     7
176
     1
 62
   257
176
     1
 90
        1
176
     1
 90
        1
176
     1
 40
1.0
176
     1
 90
        8
176
     1
 62
     7
176
     1
 40
1.0
176
     1
 90
        1
176
     1
 90
        6
176
     1
 90
        2
176
     1
 62
     7
176
     1
 90
        5
176
     1
 90
        0
176
     1
 90
        0
176
     1
290
     0
176
     1
 90
        1
176
     1
 40
-50.0
176
     1
 90
        0
176
     1
290
     0
176
     1
290
     1
176
     1
290
     1
176
     1
290
     0
176
     1
290
     0
176
     1
290
     0
176
     1
290
     0
176
     1
290
     0
176
     1
290
     0
176
     1
 90
       50
176
     1
 40
0.0
176
     1
 40
1.0
176
     1
 90
        0
176
     1
 62
    18
420
        0
176
     1
 90
       50
176
     1
 90
        3
176
     1
 62
     5
420
      255
176
     1
290
     0
176
     1
 90
       50
176
     1
 90
       50
176
     1
 90
       50
176
     1
290
     0
176
     1
 90
       50
176
     1
 62
   256
176
     0
 40
1.0
176
     0
 90
        2
176
     1
  1
strokes_ogs.tif
176
     1
290
     0
176
     1
 40
1.0
176
     1
 40
1.0
176
     1
  0
VISUALSTYLE
  5
41
102
{ACAD_REACTORS
330
29
102
}
330
29
100
AcDbVisualStyle
  2
EdgeColorOff
 70
    22
177
     3
291
     1
 70
    58
 90
        2
176
     0
 90
        2
176
     0
 90
        0
176
     0
 90
        0
176
     0
 40
0.6
176
     0
 40
30.0
176
     0
 62
     7
420
 16777215
176
     0
 90
        1
176
     0
 90
        4
176
     0
 62
     7
176
     0
 62
   257
176
     0
 90
        1
176
     0
 90
        1
176
     0
 40
1.0
176
     0
 90
        8
176
     2
 62
     7
176
     0
 40
1.0
176
     0
 90
        1
176
     0
 90
        6
176
     0
 90
        2
176
     0
 62
     7
176
     0
 90
        5
176
     0
 90
        0
176
     0
 90
        0
176
     0
290
     0
176
     0
 90
        1
176
     0
 40
0.0
176
     0
 90
        0
176
     0
290
     0
176
     0
290
     1
176
     0
290
     1
176
     0
290
     0
176
     0
290
     0
176
     0
290
     0
176
     0
290
     0
176
     0
290
     0
176
     0
290
     0
176
     0
 90
       50
176
     0
 40
0.0
176
     0
 40
1.0
176
     0
 90
        0
176
     0
 62
    18
420
        0
176
     0
 90
       50
176
     0
 90
        3
176
     0
 62
     5
420
      255
176
     0
290
     0
176
     0
 90
       50
176
     0
 90
       50
176
     0
 90
       50
176
     0
290
     0
176
     0
 90
       50
176
     0
 62
   256
176
     0
 40
1.0
176
     0
 90
        2
176
     0
  1
strokes_ogs.tif
176
     0
290
     0
176
     0
 40
1.0
176
     0
 40
1.0
176
     0
  0
VISUALSTYLE
  5
38
102
{ACAD_REACTORS
330
29
102
}
330
29
100
AcDbVisualStyle
  2
Facepattern
 70
    15
177
     3
291
     1
 70
    58
 90
        2
176
     1
 90
        2
176
     1
 90
        0
176
     1
 90
        0
176
     1
 40
0.6
176
     1
 40
30.0
176
     1
 62
     7
420
 16777215
176
     1
 90
        1
176
     1
 90
        4
176
     1
 62
     7
176
     1
 62
   257
176
     1
 90
        1
176
     1
 90
        1
176
     1
 40
1.0
176
     1
 90
        8
176
     1
 62
     7
176
     1
 40
1.0
176
     1
 90
        1
176
     1
 90
        6
176
     1
 90
        2
176
     1
 62
     7
176
     1
 90
        5
176
     1
 90
        0
176
     1
 90
        0
176
     1
290
     0
176
     1
 90
        1
176
     1
 40
0.0
176
     1
 90
        0
176
     1
290
     0
176
     1
290
     1
176
     1
290
     1
176
     1
290
     0
176
     1
290
     0
176
     1
290
     0
176
     1
290
     0
176
     1
290
     0
176
     1
290
     0
176
     1
 90
       50
176
     1
 40
0.0
176
     1
 40
1.0
176
     1
 90
        0
176
     1
 62
    18
420
        0
176
     1
 90
       50
176
     1
 90
        3
176
     1
 62
     5
420
      255
176
     1
290
     0
176
     1
 90
       50
176
     1
 90
       50
176
     1
 90
       50
176
     1
290
     0
176
     1
 90
       50
176
     1
 62
   256
176
     0
 40
1.0
176
     0
 90
        2
176
     1
  1
strokes_ogs.tif
176
     1
290
     0
176
     1
 40
1.0
176
     1
 40
1.0
176
     1
  0
VISUALSTYLE
  5
2A
102
{ACAD_REACTORS
330
29
102
}
330
29
100
AcDbVisualStyle
  2
Flat
 70
     0
177
     3
291
     1
 70
    58
 90
        2
176
     1
 90
        1
176
     1
 90
        1
176
     1
 90
        2
176
     1
 40
0.6
176
     1
 40
30.0
176
     1
 62
     7
420
 16777215
176
     1
 90
        0
176
     1
 90
        0
176
     1
 62
     7
176
     1
 62
   257
176
     1
 90
        1
176
     1
 90
        1
176
     1
 40
1.0
176
     1
 90
        8
176
     1
 62
     7
176
     1
 40
1.0
176
     1
 90
        1
176
     1
 90
        6
176
     1
 90
        2
176
     1
 62
     7
176
     1
 90
        5
176
     1
 90
        0
176
     1
 90
        0
176
     1
290
     0
176
     1
 90
       13
176
     1
 40
0.0
176
     1
 90
        0
176
     1
290
     0
176
     1
290
     1
176
     1
290
     1
176
     1
290
     0
176
     1
290
     0
176
     1
290
     0
176
     1
290
     0
176
     1
290
     0
176
     1
290
     0
176
     1
 90
       50
176
     1
 40
0.0
176
     1
 40
1.0
176
     1
 90
        0
176
     1
 62
    18
420
        0
176
     1
 90
       50
176
     1
 90
        3
176
     1
 62
     5
420
      255
176
     1
290
     0
176
     1
 90
       50
176
     1
 90
       50
176
     1
 90
       50
176
     1
290
     0
176
     1
 90
       50
176
     1
 62
   256
176
     0
 40
1.0
176
     0
 90
        2
176
     1
  1
strokes_ogs.tif
176
     1
290
     0
176
     1
 40
1.0
176
     1
 40
1.0
176
     1
  0
VISUALSTYLE
  5
2B
102
{ACAD_REACTORS
330
29
102
}
330
29
100
AcDbVisualStyle
  2
FlatWithEdges
 70
     1
177
     3
291
     1
 70
    58
 90
        2
176
     1
 90
        1
176
     1
 90
        1
176
     1
 90
        2
176
     1
 40
0.6
176
     1
 40
30.0
176
     1
 62
     7
420
 16777215
176
     1
 90
        1
176
     1
 90
        0
176
     1
 62
     7
176
     1
 62
   257
176
     1
 90
        1
176
     1
 90
        1
176
     1
 40
1.0
176
     1
 90
        0
176
     1
 62
   257
176
     1
 40
1.0
176
     1
 90
        1
176
     1
 90
        6
176
     1
 90
        2
176
     1
 62
     7
176
     1
 90
        5
176
     1
 90
        0
176
     1
 90
        0
176
     1
290
     0
176
     1
 90
       13
176
     1
 40
0.0
176
     1
 90
        0
176
     1
290
     0
176
     1
290
     1
176
     1
290
     1
176
     1
290
     0
176
     1
290
     0
176
     1
290
     0
176
     1
290
     0
176
     1
290
     0
176
     1
290
     0
176
     1
 90
       50
176
     1
 40
0.0
176
     1
 40
1.0
176
     1
 90
        0
176
     1
 62
    18
420
        0
176
     1
 90
       50
176
     1
 90
        3
176
     1
 62
     5
420
      255
176
     1
290
     0
176
     1
 90
       50
176
     1
 90
       50
176
     1
 90
       50
176
     1
290
     0
176
     1
 90
       50
176
     1
 62
   256
176
     0
 40
1.0
176
     0
 90
        2
176
     1
  1
strokes_ogs.tif
176
     1
290
     0
176
     1
 40
1.0
176
     1
 40
1.0
176
     1
  0
VISUALSTYLE
  5
2C
102
{ACAD_REACTORS
330
29
102
}
330
29
100
AcDbVisualStyle
  2
Gouraud
 70
     2
177
     3
291
     1
 70
    58
 90
        2
176
     1
 90
        2
176
     1
 90
        1
176
     1
 90
        2
176
     1
 40
0.6
176
     1
 40
30.0
176
     1
 62
     7
420
 16777215
176
     1
 90
        0
176
     1
 90
        0
176
     1
 62
     7
176
     1
 62
   257
176
     1
 90
        1
176
     1
 90
        1
176
     1
 40
1.0
176
     1
 90
        0
176
     1
 62
     7
176
     1
 40
1.0
176
     1
 90
        1
176
     1
 90
        6
176
     1
 90
        2
176
     1
 62
     7
176
     1
 90
        5
176
     1
 90
        0
176
     1
 90
        0
176
     1
290
     0
176
     1
 90
       13
176
     1
 40
0.0
176
     1
 90
        0
176
     1
290
     0
176
     1
290
     1
176
     1
290
     1
176
     1
290
     0
176
     1
290
     0
176
     1
290
     0
176
     1
290
     0
176
     1
290
     0
176
     1
290
     0
176
     1
 90
       50
176
     1
 40
0.0
176
     1
 40
1.0
176
     1
 90
        0
176
     1
 62
    18
420
        0
176
     1
 90
       50
176
     1
 90
        3
176
     1
 62
     5
420
      255
176
     1
290
     0
176
     1
 90
       50
176
     1
 90
       50
176
     1
 90
       50
176
     1
290
     0
176
     1
 90
       50
176
     1
 62
   256
176
     0
 40
1.0
176
     0
 90
        2
176
     1
  1
strokes_ogs.tif
176
     1
290
     0
176
     1
 40
1.0
176
     1
 40
1.0
176
     1
  0
VISUALSTYLE
  5
2D
102
{ACAD_REACTORS
330
29
102
}
330
29
100
AcDbVisualStyle
  2
GouraudWithEdges
 70
     3
177
     3
291
     1
 70
    58
 90
        2
176
     1
 90
        2
176
     1
 90
        1
176
     1
 90
        2
176
     1
 40
0.6
176
     1
 40
30.0
176
     1
 62
     7
420
 16777215
176
     1
 90
        1
176
     1
 90
        0
176
     1
 62
     7
176
     1
 62
   257
176
     1
 90
        1
176
     1
 90
        1
176
     1
 40
1.0
176
     1
 90
        0
176
     1
 62
   257
176
     1
 40
1.0
176
     1
 90
        1
176
     1
 90
        6
176
     1
 90
        2
176
     1
 62
     7
176
     1
 90
        5
176
     1
 90
        0
176
     1
 90
        0
176
     1
290
     0
176
     1
 90
       13
176
     1
 40
0.0
176
     1
 90
        0
176
     1
290
     0
176
     1
290
     1
176
     1
290
     1
176
     1
290
     0
176
     1
290
     0
176
     1
290
     0
176
     1
290
     0
176
     1
290
     0
176
     1
290
     0
176
     1
 90
       50
176
     1
 40
0.0
176
     1
 40
1.0
176
     1
 90
        0
176
     1
 62
    18
420
        0
176
     1
 90
       50
176
     1
 90
        3
176
     1
 62
     5
420
      255
176
     1
290
     0
176
     1
 90
       50
176
     1
 90
       50
176
     1
 90
       50
176
     1
290
     0
176
     1
 90
       50
176
     1
 62
   256
176
     0
 40
1.0
176
     0
 90
        2
176
     1
  1
strokes_ogs.tif
176
     1
290
     0
176
     1
 40
1.0
176
     1
 40
1.0
176
     1
  0
VISUALSTYLE
  5
31
102
{ACAD_REACTORS
330
29
102
}
330
29
100
AcDbVisualStyle
  2
Hidden
 70
     6
177
     3
291
     0
 70
    58
 90
        1
176
     1
 90
        2
176
     1
 90
        2
176
     1
 90
        0
176
     1
 40
0.6
176
     1
 40
30.0
176
     1
 62
     7
420
 16777215
176
     1
 90
        2
176
     1
 90
        2
176
     1
 62
     7
176
     1
 62
   257
176
     1
 90
        2
176
     1
 90
        1
176
     1
 40
40.0
176
     1
 90
        0
176
     1
 62
   257
176
     1
 40
1.0
176
     1
 90
        1
176
     1
 90
        6
176
     1
 90
        2
176
     1
 62
     7
176
     1
 90
        3
176
     1
 90
        0
176
     1
 90
        0
176
     1
290
     0
176
     1
 90
        1
176
     1
 40
0.0
176
     1
 90
        0
176
     1
290
     0
176
     1
290
     1
176
     1
290
     1
176
     1
290
     0
176
     1
290
     0
176
     1
290
     0
176
     1
290
     0
176
     1
290
     0
176
     1
290
     0
176
     1
 90
       50
176
     1
 40
0.0
176
     1
 40
1.0
176
     1
 90
        0
176
     1
 62
    18
420
        0
176
     1
 90
       50
176
     1
 90
        3
176
     1
 62
     5
420
      255
176
     1
290
     0
176
     1
 90
       50
176
     1
 90
       50
176
     1
 90
       50
176
     1
290
     0
176
     1
 90
       50
176
     1
 62
   256
176
     0
 40
1.0
176
     0
 90
        2
176
     1
  1
strokes_ogs.tif
176
     1
290
     0
176
     1
 40
1.0
176
     1
 40
1.0
176
     1
  0
VISUALSTYLE
  5
3F
102
{ACAD_REACTORS
330
29
102
}
330
29
100
AcDbVisualStyle
  2
JitterOff
 70
    20
177
     3
291
     1
 70
    58
 90
        2
176
     0
 90
        2
176
     0
 90
        0
176
     0
 90
        0
176
     0
 40
0.6
176
     0
 40
30.0
176
     0
 62
     7
420
 16777215
176
     0
 90
        1
176
     0
 90
        4
176
     0
 62
     7
176
     0
 62
   257
176
     0
 90
        1
176
     0
 90
        1
176
     0
 40
1.0
176
     0
 90
       10
176
     2
 62
     7
176
     0
 40
1.0
176
     0
 90
        1
176
     0
 90
        6
176
     0
 90
        2
176
     0
 62
     7
176
     0
 90
        5
176
     0
 90
        0
176
     0
 90
        0
176
     0
290
     0
176
     0
 90
        1
176
     0
 40
0.0
176
     0
 90
        0
176
     0
290
     0
176
     0
290
     1
176
     0
290
     1
176
     0
290
     0
176
     0
290
     0
176
     0
290
     0
176
     0
290
     0
176
     0
290
     0
176
     0
290
     0
176
     0
 90
       50
176
     0
 40
0.0
176
     0
 40
1.0
176
     0
 90
        0
176
     0
 62
    18
420
        0
176
     0
 90
       50
176
     0
 90
        3
176
     0
 62
     5
420
      255
176
     0
290
     0
176
     0
 90
       50
176
     0
 90
       50
176
     0
 90
       50
176
     0
290
     0
176
     0
 90
       50
176
     0
 62
   256
176
     0
 40
1.0
176
     0
 90
        2
176
     0
  1
strokes_ogs.tif
176
     0
290
     0
176
     0
 40
1.0
176
     0
 40
1.0
176
     0
  0
VISUALSTYLE
  5
37
102
{ACAD_REACTORS
330
29
102
}
330
29
100
AcDbVisualStyle
  2
Linepattern
 70
    14
177
     3
291
     1
 70
    58
 90
        2
176
     1
 90
        2
176
     1
 90
        0
176
     1
 90
        0
176
     1
 40
0.6
176
     1
 40
30.0
176
     1
 62
     7
420
 16777215
176
     1
 90
        1
176
     1
 90
        4
176
     1
 62
     7
176
     1
 62
   257
176
     1
 90
        7
176
     1
 90
        7
176
     1
 40
1.0
176
     1
 90
        8
176
     1
 62
     7
176
     1
 40
1.0
176
     1
 90
        1
176
     1
 90
        6
176
     1
 90
        2
176
     1
 62
     7
176
     1
 90
        5
176
     1
 90
        0
176
     1
 90
        0
176
     1
290
     0
176
     1
 90
        1
176
     1
 40
0.0
176
     1
 90
        0
176
     1
290
     0
176
     1
290
     1
176
     1
290
     1
176
     1
290
     0
176
     1
290
     0
176
     1
290
     0
176
     1
290
     0
176
     1
290
     0
176
     1
290
     0
176
     1
 90
       50
176
     1
 40
0.0
176
     1
 40
1.0
176
     1
 90
        0
176
     1
 62
    18
420
        0
176
     1
 90
       50
176
     1
 90
        3
176
     1
 62
     5
420
      255
176
     1
290
     0
176
     1
 90
       50
176
     1
 90
       50
176
     1
 90
       50
176
     1
290
     0
176
     1
 90
       50
176
     1
 62
   256
176
     0
 40
1.0
176
     0
 90
        2
176
     1
  1
strokes_ogs.tif
176
     1
290
     0
176
     1
 40
1.0
176
     1
 40
1.0
176
     1
  0
VISUALSTYLE
  5
40
102
{ACAD_REACTORS
330
29
102
}
330
29
100
AcDbVisualStyle
  2
OverhangOff
 70
    21
177
     3
291
     1
 70
    58
 90
        2
176
     0
 90
        2
176
     0
 90
        0
176
     0
 90
        0
176
     0
 40
0.6
176
     0
 40
30.0
176
     0
 62
     7
420
 16777215
176
     0
 90
        1
176
     0
 90
        4
176
     0
 62
     7
176
     0
 62
   257
176
     0
 90
        1
176
     0
 90
        1
176
     0
 40
1.0
176
     0
 90
        9
176
     2
 62
     7
176
     0
 40
1.0
176
     0
 90
        1
176
     0
 90
        6
176
     0
 90
        2
176
     0
 62
     7
176
     0
 90
        5
176
     0
 90
        0
176
     0
 90
        0
176
     0
290
     0
176
     0
 90
        1
176
     0
 40
0.0
176
     0
 90
        0
176
     0
290
     0
176
     0
290
     1
176
     0
290
     1
176
     0
290
     0
176
     0
290
     0
176
     0
290
     0
176
     0
290
     0
176
     0
290
     0
176
     0
290
     0
176
     0
 90
       50
176
     0
 40
0.0
176
     0
 40
1.0
176
     0
 90
        0
176
     0
 62
    18
420
        0
176
     0
 90
       50
176
     0
 90
        3
176
     0
 62
     5
420
      255
176
     0
290
     0
176
     0
 90
       50
176
     0
 90
       50
176
     0
 90
       50
176
     0
290
     0
176
     0
 90
       50
176
     0
 62
   256
176
     0
 40
1.0
176
     0
 90
        2
176
     0
  1
strokes_ogs.tif
176
     0
290
     0
176
     0
 40
1.0
176
     0
 40
1.0
176
     0
  0
VISUALSTYLE
  5
33
102
{ACAD_REACTORS
330
29
102
}
330
29
100
AcDbVisualStyle
  2
Realistic
 70
     8
177
     3
291
     0
 70
    58
 90
        2
176
     1
 90
        3
176
     1
 90
        0
176
     1
 90
        2
176
     1
 40
0.6
176
     1
 40
30.0
176
     1
 62
     7
420
 16777215
176
     1
 90
        0
176
     1
 90
        0
176
     1
 62
     7
176
     1
 62
   257
176
     1
 90
        1
176
     1
 90
        1
176
     1
 40
1.0
176
     1
 90
        8
176
     1
 62
   257
176
     1
 40
1.0
176
     1
 90
        1
176
     1
 90
        6
176
     1
 90
        2
176
     1
 62
     7
176
     1
 90
        3
176
     1
 90
        0
176
     1
 90
        0
176
     1
290
     0
176
     1
 90
       13
176
     1
 40
0.0
176
     1
 90
        0
176
     1
290
     0
176
     1
290
     1
176
     1
290
     1
176
     1
290
     0
176
     1
290
     0
176
     1
290
     0
176
     1
290
     0
176
     1
290
     0
176
     1
290
     0
176
     1
 90
       50
176
     1
 40
0.0
176
     1
 40
1.0
176
     1
 90
        0
176
     1
 62
    18
420
        0
176
     1
 90
       50
176
     1
 90
        3
176
     1
 62
     5
420
      255
176
     1
290
     0
176
     1
 90
       50
176
     1
 90
       50
176
     1
 90
       50
176
     1
290
     0
176
     1
 90
       50
176
     1
 62
   256
176
     0
 40
1.0
176
     0
 90
        2
176
     1
  1
strokes_ogs.tif
176
     1
290
     0
176
     1
 40
1.0
176
     1
 40
1.0
176
     1
  0
VISUALSTYLE
  5
3E
102
{ACAD_REACTORS
330
29
102
}
330
29
100
AcDbVisualStyle
  2
Shaded
 70
    27
177
     3
291
     0
 70
    58
 90
        2
176
     1
 90
        2
176
     1
 90
        1
176
     1
 90
        2
176
     1
 40
0.6
176
     1
 40
30.0
176
     1
 62
     7
420
 16777215
176
     1
 90
        0
176
     1
 90
        4
176
     1
 62
     7
176
     1
 62
   257
176
     1
 90
        1
176
     1
 90
        1
176
     1
 40
1.0
176
     1
 90
        8
176
     1
 62
   257
176
     1
 40
1.0
176
     1
 90
        1
176
     1
 90
        6
176
     1
 90
        2
176
     1
 62
     8
420
  7895160
176
     1
 90
        3
176
     1
 90
        0
176
     1
 90
        0
176
     1
290
     0
176
     1
 90
        5
176
     1
 40
0.0
176
     1
 90
        0
176
     1
290
     0
176
     1
290
     1
176
     1
290
     1
176
     1
290
     0
176
     1
290
     0
176
     1
290
     0
176
     1
290
     0
176
     1
290
     0
176
     1
290
     0
176
     1
 90
       50
176
     1
 40
0.0
176
     1
 40
1.0
176
     1
 90
        0
176
     1
 62
    18
420
        0
176
     1
 90
       50
176
     1
 90
        3
176
     1
 62
     5
420
      255
176
     1
290
     0
176
     1
 90
       50
176
     1
 90
       50
176
     1
 90
       50
176
     1
290
     0
176
     1
 90
       50
176
     1
 62
   256
176
     0
 40
1.0
176
     0
 90
        2
176
     1
  1
strokes_ogs.tif
176
     1
290
     0
176
     1
 40
1.0
176
     1
 40
1.0
176
     1
  0
VISUALSTYLE
  5
3D
102
{ACAD_REACTORS
330
29
102
}
330
29
100
AcDbVisualStyle
  2
Shaded with edges
 70
    26
177
     3
291
     0
 70
    58
 90
        2
176
     1
 90
        2
176
     1
 90
        1
176
     1
 90
        2
176
     1
 40
0.6
176
     1
 40
30.0
176
     1
 62
     7
420
 16777215
176
     1
 90
        1
176
     1
 90
        2
176
     1
 62
     7
176
     1
 62
   257
176
     1
 90
        2
176
     1
 90
        1
176
     1
 40
1.0
176
     1
 90
        8
176
     1
 62
   257
176
     1
 40
1.0
176
     1
 90
        1
176
     1
 90
        6
176
     1
 90
        2
176
     1
 62
     7
176
     1
 90
        3
176
     1
 90
        0
176
     1
 90
        0
176
     1
290
     0
176
     1
 90
        5
176
     1
 40
0.0
176
     1
 90
        0
176
     1
290
     0
176
     1
290
     1
176
     1
290
     1
176
     1
290
     0
176
     1
290
     0
176
     1
290
     0
176
     1
290
     0
176
     1
290
     0
176
     1
290
     0
176
     1
 90
       50
176
     1
 40
0.0
176
     1
 40
1.0
176
     1
 90
        0
176
     1
 62
    18
420
        0
176
     1
 90
       50
176
     1
 90
        3
176
     1
 62
     5
420
      255
176
     1
290
     0
176
     1
 90
       50
176
     1
 90
       50
176
     1
 90
       50
176
     1
290
     0
176
     1
 90
       50
176
     1
 62
   256
176
     0
 40
1.0
176
     0
 90
        2
176
     1
  1
strokes_ogs.tif
176
     1
290
     0
176
     1
 40
1.0
176
     1
 40
1.0
176
     1
  0
VISUALSTYLE
  5
3A
102
{ACAD_REACTORS
330
29
102
}
330
29
100
AcDbVisualStyle
  2
Shades of Gray
 70
    23
177
     3
291
     0
 70
    58
 90
        2
176
     1
 90
        2
176
     1
 90
        3
176
     1
 90
        0
176
     1
 40
0.6
176
     1
 40
30.0
176
     1
 62
     7
420
 16777215
176
     1
 90
        2
176
     1
 90
        2
176
     1
 62
     7
176
     1
 62
     7
176
     1
 90
        1
176
     1
 90
        1
176
     1
 40
40.0
176
     1
 90
        8
176
     1
 62
     7
176
     1
 40
1.0
176
     1
 90
        1
176
     1
 90
        6
176
     1
 90
        2
176
     1
 62
     7
176
     1
 90
        3
176
     1
 90
        0
176
     1
 90
        0
176
     1
290
     0
176
     1
 90
        1
176
     1
 40
0.0
176
     1
 90
        0
176
     1
290
     0
176
     1
290
     1
176
     1
290
     1
176
     1
290
     0
176
     1
290
     0
176
     1
290
     0
176
     1
290
     0
176
     1
290
     0
176
     1
290
     0
176
     1
 90
       50
176
     1
 40
0.0
176
     1
 40
1.0
176
     1
 90
        0
176
     1
 62
    18
420
        0
176
     1
 90
       50
176
     1
 90
        3
176
     1
 62
     5
420
      255
176
     1
290
     0
176
     1
 90
       50
176
     1
 90
       50
176
     1
 90
       50
176
     1
290
     0
176
     1
 90
       50
176
     1
 62
   256
176
     0
 40
1.0
176
     0
 90
        2
176
     1
  1
strokes_ogs.tif
176
     1
290
     0
176
     1
 40
1.0
176
     1
 40
1.0
176
     1
  0
VISUALSTYLE
  5
3B
102
{ACAD_REACTORS
330
29
102
}
330
29
100
AcDbVisualStyle
  2
Sketchy
 70
    24
177
     3
291
     0
 70
    58
 90
        1
176
     1
 90
        2
176
     1
 90
        2
176
     1
 90
        0
176
     1
 40
0.6
176
     1
 40
30.0
176
     1
 62
     7
420
 16777215
176
     1
 90
        2
176
     1
 90
        2
176
     1
 62
     7
176
     1
 62
     7
176
     1
 90
        1
176
     1
 90
        1
176
     1
 40
40.0
176
     1
 90
       11
176
     1
 62
     7
176
     1
 40
1.0
176
     1
 90
        1
176
     1
 90
        6
176
     1
 90
        2
176
     1
 62
     7
176
     1
 90
        6
176
     1
 90
        0
176
     1
 90
        0
176
     1
290
     0
176
     1
 90
        1
176
     1
 40
0.0
176
     1
 90
        0
176
     1
290
     0
176
     1
290
     1
176
     1
290
     1
176
     1
290
     0
176
     1
290
     0
176
     1
290
     0
176
     1
290
     0
176
     1
290
     0
176
     1
290
     0
176
     1
 90
       50
176
     1
 40
0.0
176
     1
 40
1.0
176
     1
 90
        0
176
     1
 62
    18
420
        0
176
     1
 90
       50
176
     1
 90
        3
176
     1
 62
     5
420
      255
176
     1
290
     0
176
     1
 90
       50
176
     1
 90
       50
176
     1
 90
       50
176
     1
290
     0
176
     1
 90
       50
176
     1
 62
   256
176
     0
 40
1.0
176
     0
 90
        2
176
     1
  1
strokes_ogs.tif
176
     1
290
     0
176
     1
 40
1.0
176
     1
 40
1.0
176
     1
  0
VISUALSTYLE
  5
36
102
{ACAD_REACTORS
330
29
102
}
330
29
100
AcDbVisualStyle
  2
Thicken
 70
    13
177
     3
291
     1
 70
    58
 90
        2
176
     1
 90
        2
176
     1
 90
        0
176
     1
 90
        0
176
     1
 40
0.6
176
     1
 40
30.0
176
     1
 62
     7
420
 16777215
176
     1
 90
        1
176
     1
 90
        4
176
     1
 62
     7
176
     1
 62
   257
176
     1
 90
        1
176
     1
 90
        1
176
     1
 40
1.0
176
     1
 90
       12
176
     1
 62
     7
176
     1
 40
1.0
176
     1
 90
        1
176
     1
 90
        6
176
     1
 90
        2
176
     1
 62
     7
176
     1
 90
        5
176
     1
 90
        0
176
     1
 90
        0
176
     1
290
     0
176
     1
 90
        1
176
     1
 40
0.0
176
     1
 90
        0
176
     1
290
     0
176
     1
290
     1
176
     1
290
     1
176
     1
290
     0
176
     1
290
     0
176
     1
290
     0
176
     1
290
     0
176
     1
290
     0
176
     1
290
     0
176
     1
 90
       50
176
     1
 40
0.0
176
     1
 40
1.0
176
     1
 90
        0
176
     1
 62
    18
420
        0
176
     1
 90
       50
176
     1
 90
        3
176
     1
 62
     5
420
      255
176
     1
290
     0
176
     1
 90
       50
176
     1
 90
       50
176
     1
 90
       50
176
     1
290
     0
176
     1
 90
       50
176
     1
 62
   256
176
     0
 40
1.0
176
     0
 90
        2
176
     1
  1
strokes_ogs.tif
176
     1
290
     0
176
     1
 40
1.0
176
     1
 40
1.0
176
     1
  0
VISUALSTYLE
  5
30
102
{ACAD_REACTORS
330
29
102
}
330
29
100
AcDbVisualStyle
  2
Wireframe
 70
     5
177
     3
291
     0
 70
    58
 90
        0
176
     1
 90
        2
176
     1
 90
        0
176
     1
 90
        0
176
     1
 40
0.6
176
     1
 40
30.0
176
     1
 62
     7
420
 16777215
176
     1
 90
        1
176
     1
 90
        4
176
     1
 62
     7
176
     1
 62
   257
176
     1
 90
        1
176
     1
 90
        1
176
     1
 40
1.0
176
     1
 90
        0
176
     1
 62
   257
176
     1
 40
1.0
176
     1
 90
        1
176
     1
 90
        6
176
     1
 90
        2
176
     1
 62
     7
176
     1
 90
        3
176
     1
 90
        0
176
     1
 90
        0
176
     1
290
     0
176
     1
 90
        1
176
     1
 40
0.0
176
     1
 90
        0
176
     1
290
     0
176
     1
290
     1
176
     1
290
     1
176
     1
290
     0
176
     1
290
     0
176
     1
290
     0
176
     1
290
     0
176
     1
290
     0
176
     1
290
     0
176
     1
 90
       50
176
     1
 40
0.0
176
     1
 40
1.0
176
     1
 90
        0
176
     1
 62
    18
420
        0
176
     1
 90
       50
176
     1
 90
        3
176
     1
 62
     5
420
      255
176
     1
290
     0
176
     1
 90
       50
176
     1
 90
       50
176
     1
 90
       50
176
     1
290
     0
176
     1
 90
       50
176
     1
 62
   256
176
     0
 40
1.0
176
     0
 90
        2
176
     1
  1
strokes_ogs.tif
176
     1
290
     0
176
     1
 40
1.0
176
     1
 40
1.0
176
     1
  0
VISUALSTYLE
  5
3C
102
{ACAD_REACTORS
330
29
102
}
330
29
100
AcDbVisualStyle
  2
X-Ray
 70
    25
177
     3
291
     0
 70
    58
 90
        2
176
     1
 90
        2
176
     1
 90
        1
176
     1
 90
        1
176
     1
 40
0.5
176
     1
 40
30.0
176
     1
 62
     7
420
 16777215
176
     1
 90
        1
176
     1
 90
        0
176
     1
 62
     7
176
     1
 62
   257
176
     1
 90
        1
176
     1
 90
        1
176
     1
 40
1.0
176
     1
 90
        8
176
     1
 62
     7
176
     1
 40
1.0
176
     1
 90
        1
176
     1
 90
        6
176
     1
 90
        2
176
     1
 62
     7
176
     1
 90
        3
176
     1
 90
        0
176
     1
 90
        0
176
     1
290
     0
176
     1
 90
       13
176
     1
 40
0.0
176
     1
 90
        0
176
     1
290
     0
176
     1
290
     1
176
     1
290
     1
176
     1
290
     0
176
     1
290
     0
176
     1
290
     0
176
     1
290
     0
176
     1
290
     0
176
     1
290
     0
176
     1
 90
       50
176
     1
 40
0.0
176
     1
 40
1.0
176
     1
 90
        0
176
     1
 62
    18
420
        0
176
     1
 90
       50
176
     1
 90
        3
176
     1
 62
     5
420
      255
176
     1
290
     0
176
     1
 90
       50
176
     1
 90
       50
176
     1
 90
       50
176
     1
290
     0
176
     1
 90
       50
176
     1
 62
   256
176
     0
 40
1.0
176
     0
 90
        2
176
     1
  1
strokes_ogs.tif
176
     1
290
     0
176
     1
 40
1.0
176
     1
 40
1.0
176
     1
  0
DICTIONARYVAR
  5
374
102
{ACAD_REACTORS
330
36F
102
}
330
36F
100
DictionaryVariables
280
     0
  1
1:1
  0
DICTIONARYVAR
  5
371
102
{ACAD_REACTORS
330
36F
102
}
330
36F
100
DictionaryVariables
280
     0
  1
STANDARD
  0
DICTIONARYVAR
  5
370
102
{ACAD_REACTORS
330
36F
102
}
330
36F
100
DictionaryVariables
280
     0
  1
STANDARD
  0
DICTIONARYVAR
  5
372
102
{ACAD_REACTORS
330
36F
102
}
330
36F
100
DictionaryVariables
280
     0
  1
Imperial24
  0
DICTIONARYVAR
  5
373
102
{ACAD_REACTORS
330
36F
102
}
330
36F
100
DictionaryVariables
280
     0
  1
Imperial24
  0
DICTIONARY
  5
1A
330
19
100
AcDbDictionary
280
     1
281
     1
  3
BUMPTILE
360
1C
  3
DIFFUSETILE
360
1B
  3
OPACITYTILE
360
1F
  3
REFLECTIONTILE
360
1E
  3
REFRACTIONTILE
360
20
  3
SPECULARTILE
360
1D
  0
DICTIONARY
  5
12
330
11
100
AcDbDictionary
280
     1
281
     1
  3
BUMPTILE
360
14
  3
DIFFUSETILE
360
13
  3
OPACITYTILE
360
17
  3
REFLECTIONTILE
360
16
  3
REFRACTIONTILE
360
18
  3
SPECULARTILE
360
15
  0
DICTIONARY
  5
22
330
21
100
AcDbDictionary
280
     1
281
     1
  3
BUMPTILE
360
24
  3
DIFFUSETILE
360
23
  3
OPACITYTILE
360
27
  3
REFLECTIONTILE
360
26
  3
REFRACTIONTILE
360
28
  3
SPECULARTILE
360
25
  0
DICTIONARY
  5
375
330
65
100
AcDbDictionary
280
     1
281
     1
  3
ACAD_ROUNDTRIP_2008_TABLESTYLE_CELLSTYLEMAP
360
376
  0
XRECORD
  5
1C
102
{ACAD_REACTORS
330
1A
102
}
330
1A
100
AcDbXrecord
280
     1
270
     1
271
     1
  0
XRECORD
  5
1B
102
{ACAD_REACTORS
330
1A
102
}
330
1A
100
AcDbXrecord
280
     1
270
     1
271
     1
  0
XRECORD
  5
1F
102
{ACAD_REACTORS
330
1A
102
}
330
1A
100
AcDbXrecord
280
     1
270
     1
271
     1
  0
XRECORD
  5
1E
102
{ACAD_REACTORS
330
1A
102
}
330
1A
100
AcDbXrecord
280
     1
270
     1
271
     1
  0
XRECORD
  5
20
102
{ACAD_REACTORS
330
1A
102
}
330
1A
100
AcDbXrecord
280
     1
270
     1
271
     1
  0
XRECORD
  5
1D
102
{ACAD_REACTORS
330
1A
102
}
330
1A
100
AcDbXrecord
280
     1
270
     1
271
     1
  0
XRECORD
  5
14
102
{ACAD_REACTORS
330
12
102
}
330
12
100
AcDbXrecord
280
     1
270
     1
271
     1
  0
XRECORD
  5
13
102
{ACAD_REACTORS
330
12
102
}
330
12
100
AcDbXrecord
280
     1
270
     1
271
     1
  0
XRECORD
  5
17
102
{ACAD_REACTORS
330
12
102
}
330
12
100
AcDbXrecord
280
     1
270
     1
271
     1
  0
XRECORD
  5
16
102
{ACAD_REACTORS
330
12
102
}
330
12
100
AcDbXrecord
280
     1
270
     1
271
     1
  0
XRECORD
  5
18
102
{ACAD_REACTORS
330
12
102
}
330
12
100
AcDbXrecord
280
     1
270
     1
271
     1
  0
XRECORD
  5
15
102
{ACAD_REACTORS
330
12
102
}
330
12
100
AcDbXrecord
280
     1
270
     1
271
     1
  0
XRECORD
  5
24
102
{ACAD_REACTORS
330
22
102
}
330
22
100
AcDbXrecord
280
     1
270
     1
271
     1
  0
XRECORD
  5
23
102
{ACAD_REACTORS
330
22
102
}
330
22
100
AcDbXrecord
280
     1
270
     1
271
     1
  0
XRECORD
  5
27
102
{ACAD_REACTORS
330
22
102
}
330
22
100
AcDbXrecord
280
     1
270
     1
271
     1
  0
XRECORD
  5
26
102
{ACAD_REACTORS
330
22
102
}
330
22
100
AcDbXrecord
280
     1
270
     1
271
     1
  0
XRECORD
  5
28
102
{ACAD_REACTORS
330
22
102
}
330
22
100
AcDbXrecord
280
     1
270
     1
271
     1
  0
XRECORD
  5
25
102
{ACAD_REACTORS
330
22
102
}
330
22
100
AcDbXrecord
280
     1
270
     1
271
     1
  0
CELLSTYLEMAP
  5
376
102
{ACAD_REACTORS
330
375
102
}
330
375
100
AcDbCellStyleMap
 90
        3
300
CELLSTYLE
  1
TABLEFORMAT_BEGIN
 90
        5
170
     1
 91
        0
 92
    32768
 62
   257
 93
        1
300
CONTENTFORMAT
  1
CONTENTFORMAT_BEGIN
 90
        0
 91
        0
 92
      512
 93
        0
300

 40
0.0
140
1.0
 94
        5
 62
     0
340
55
144
0.25
309
CONTENTFORMAT_END
171
     0
 94
        0
309
TABLEFORMAT_END
  1
CELLSTYLE_BEGIN
 90
        1
 91
        1
300
_TITLE
309
CELLSTYLE_END
300
CELLSTYLE
  1
TABLEFORMAT_BEGIN
 90
        5
170
     1
 91
        0
 92
        0
 62
   257
 93
        1
300
CONTENTFORMAT
  1
CONTENTFORMAT_BEGIN
 90
        0
 91
        0
 92
      512
 93
        0
300

 40
0.0
140
1.0
 94
        5
 62
     0
340
55
144
0.18
309
CONTENTFORMAT_END
171
     0
 94
        0
309
TABLEFORMAT_END
  1
CELLSTYLE_BEGIN
 90
        2
 91
        1
300
_HEADER
309
CELLSTYLE_END
300
CELLSTYLE
  1
TABLEFORMAT_BEGIN
 90
        5
170
     1
 91
        0
 92
        0
 62
   257
 93
        1
300
CONTENTFORMAT
  1
CONTENTFORMAT_BEGIN
 90
        0
 91
        0
 92
      512
 93
        0
300

 40
0.0
140
1.0
 94
        2
 62
     0
340
55
144
0.18
309
CONTENTFORMAT_END
171
     0
 94
        0
309
TABLEFORMAT_END
  1
CELLSTYLE_BEGIN
 90
        3
 91
        2
300
_DATA
309
CELLSTYLE_END
  0
ENDSEC
  0
EOF
