  0
SECTION
  2
HEADER
  9
$ACADVER
  1
AC1032
  9
$ACADMAINTVER
 90
      228
  9
$DWGCODEPAGE
  3
ANSI_1252
  9
$REQUIREDVERSIONS
160
                 0
  9
$INSBASE
 10
0.0
 20
0.0
 30
0.0
  9
$EXTMIN
 10
1.000000000000000E+20
 20
1.000000000000000E+20
 30
1.000000000000000E+20
  9
$EXTMAX
 10
-1.000000000000000E+20
 20
-1.000000000000000E+20
 30
-1.000000000000000E+20
  9
$LIMMIN
 10
0.0
 20
0.0
  9
$LIMMAX
 10
12.0
 20
9.0
  9
$ORTHOMODE
 70
     0
  9
$REGENMODE
 70
     1
  9
$FILLMODE
 70
     1
  9
$QTEXTMODE
 70
     0
  9
$MIRRTEXT
 70
     0
  9
$LTSCALE
 40
1.0
  9
$ATTMODE
 70
     1
  9
$TEXTSIZE
 40
0.2
  9
$TRACEWID
 40
0.05
  9
$TEXTSTYLE
  7
Standard
  9
$CLAYER
  8
0
  9
$CELTYPE
  6
ByLayer
  9
$CECOLOR
 62
   256
  9
$CELTSCALE
 40
1.0
  9
$DISPSILH
 70
     0
  9
$DIMSCALE
 40
1.0
  9
$DIMASZ
 40
0.18
  9
$DIMEXO
 40
0.0625
  9
$DIMDLI
 40
0.38
  9
$DIMRND
 40
0.0
  9
$DIMDLE
 40
0.0
  9
$DIMEXE
 40
0.18
  9
$DIMTP
 40
0.0
  9
$DIMTM
 40
0.0
  9
$DIMTXT
 40
0.18
  9
$DIMCEN
 40
0.09
  9
$DIMTSZ
 40
0.0
  9
$DIMTOL
 70
     0
  9
$DIMLIM
 70
     0
  9
$DIMTIH
 70
     1
  9
$DIMTOH
 70
     1
  9
$DIMSE1
 70
     0
  9
$DIMSE2
 70
     0
  9
$DIMTAD
 70
     0
  9
$DIMZIN
 70
     0
  9
$DIMBLK
  1

  9
$DIMASO
 70
     1
  9
$DIMSHO
 70
     1
  9
$DIMPOST
  1

  9
$DIMAPOST
  1

  9
$DIMALT
 70
     0
  9
$DIMALTD
 70
     2
  9
$DIMALTF
 40
25.4
  9
$DIMLFAC
 40
1.0
  9
$DIMTOFL
 70
     0
  9
$DIMTVP
 40
0.0
  9
$DIMTIX
 70
     0
  9
$DIMSOXD
 70
     0
  9
$DIMSAH
 70
     0
  9
$DIMBLK1
  1

  9
$DIMBLK2
  1

  9
$DIMSTYLE
  2
Standard
  9
$DIMCLRD
 70
     0
  9
$DIMCLRE
 70
     0
  9
$DIMCLRT
 70
     0
  9
$DIMTFAC
 40
1.0
  9
$DIMGAP
 40
0.09
  9
$DIMJUST
 70
     0
  9
$DIMSD1
 70
     0
  9
$DIMSD2
 70
     0
  9
$DIMTOLJ
 70
     1
  9
$DIMTZIN
 70
     0
  9
$DIMALTZ
 70
     0
  9
$DIMALTTZ
 70
     0
  9
$DIMUPT
 70
     0
  9
$DIMDEC
 70
     4
  9
$DIMTDEC
 70
     4
  9
$DIMALTU
 70
     2
  9
$DIMALTTD
 70
     2
  9
$DIMTXSTY
  7
Standard
  9
$DIMAUNIT
 70
     0
  9
$DIMADEC
 70
     0
  9
$DIMALTRND
 40
0.0
  9
$DIMAZIN
 70
     0
  9
$DIMDSEP
 70
    46
  9
$DIMATFIT
 70
     3
  9
$DIMFRAC
 70
     0
  9
$DIMLDRBLK
  1

  9
$DIMLUNIT
 70
     2
  9
$DIMLWD
 70
    -2
  9
$DIMLWE
 70
    -2
  9
$DIMTMOVE
 70
     0
  9
$DIMFXL
 40
1.0
  9
$DIMFXLON
 70
     0
  9
$DIMJOGANG
 40
0.7853981633974483
  9
$DIMTFILL
 70
     0
  9
$DIMTFILLCLR
 70
     0
  9
$DIMARCSYM
 70
     0
  9
$DIMLTYPE
  6

  9
$DIMLTEX1
  6

  9
$DIMLTEX2
  6

  9
$DIMTXTDIRECTION
 70
     0
  9
$LUNITS
 70
     2
  9
$LUPREC
 70
     4
  9
$SKETCHINC
 40
0.1
  9
$FILLETRAD
 40
0.0
  9
$AUNITS
 70
     0
  9
$AUPREC
 70
     0
  9
$MENU
  1
.
  9
$ELEVATION
 40
0.0
  9
$PELEVATION
 40
0.0
  9
$THICKNESS
 40
0.0
  9
$LIMCHECK
 70
     0
  9
$CHAMFERA
 40
0.0
  9
$CHAMFERB
 40
0.0
  9
$CHAMFERC
 40
0.0
  9
$CHAMFERD
 40
0.0
  9
$SKPOLY
 70
     0
  9
$TDCREATE
 40
2460087.582326389
  9
$TDUCREATE
 40
2460087.498993055
  9
$TDUPDATE
 40
2460087.582326389
  9
$TDUUPDATE
 40
2460087.498993055
  9
$TDINDWG
 40
0.0000000000
  9
$TDUSRTIMER
 40
0.0000000000
  9
$USRTIMER
 70
     1
  9
$ANGBASE
 50
0.0
  9
$ANGDIR
 70
     0
  9
$PDMODE
 70
     0
  9
$PDSIZE
 40
0.0
  9
$PLINEWID
 40
0.0
  9
$SPLFRAME
 70
     0
  9
$SPLINETYPE
 70
     6
  9
$SPLINESEGS
 70
     8
  9
$HANDSEED
  5
358
  9
$SURFTAB1
 70
     6
  9
$SURFTAB2
 70
     6
  9
$SURFTYPE
 70
     6
  9
$SURFU
 70
     6
  9
$SURFV
 70
     6
  9
$UCSBASE
  2

  9
$UCSNAME
  2

  9
$UCSORG
 10
0.0
 20
0.0
 30
0.0
  9
$UCSXDIR
 10
1.0
 20
0.0
 30
0.0
  9
$UCSYDIR
 10
0.0
 20
1.0
 30
0.0
  9
$UCSORTHOREF
  2

  9
$UCSORTHOVIEW
 70
     0
  9
$UCSORGTOP
 10
0.0
 20
0.0
 30
0.0
  9
$UCSORGBOTTOM
 10
0.0
 20
0.0
 30
0.0
  9
$UCSORGLEFT
 10
0.0
 20
0.0
 30
0.0
  9
$UCSORGRIGHT
 10
0.0
 20
0.0
 30
0.0
  9
$UCSORGFRONT
 10
0.0
 20
0.0
 30
0.0
  9
$UCSORGBACK
 10
0.0
 20
0.0
 30
0.0
  9
$PUCSBASE
  2

  9
$PUCSNAME
  2

  9
$PUCSORG
 10
0.0
 20
0.0
 30
0.0
  9
$PUCSXDIR
 10
1.0
 20
0.0
 30
0.0
  9
$PUCSYDIR
 10
0.0
 20
1.0
 30
0.0
  9
$PUCSORTHOREF
  2

  9
$PUCSORTHOVIEW
 70
     0
  9
$PUCSORGTOP
 10
0.0
 20
0.0
 30
0.0
  9
$PUCSORGBOTTOM
 10
0.0
 20
0.0
 30
0.0
  9
$PUCSORGLEFT
 10
0.0
 20
0.0
 30
0.0
  9
$PUCSORGRIGHT
 10
0.0
 20
0.0
 30
0.0
  9
$PUCSORGFRONT
 10
0.0
 20
0.0
 30
0.0
  9
$PUCSORGBACK
 10
0.0
 20
0.0
 30
0.0
  9
$USERI1
 70
     0
  9
$USERI2
 70
     0
  9
$USERI3
 70
     0
  9
$USERI4
 70
     0
  9
$USERI5
 70
     0
  9
$USERR1
 40
0.0
  9
$USERR2
 40
0.0
  9
$USERR3
 40
0.0
  9
$USERR4
 40
0.0
  9
$USERR5
 40
0.0
  9
$WORLDVIEW
 70
     1
  9
$SHADEDGE
 70
     3
  9
$SHADEDIF
 70
    70
  9
$TILEMODE
 70
     1
  9
$MAXACTVP
 70
    64
  9
$PINSBASE
 10
0.0
 20
0.0
 30
0.0
  9
$PLIMCHECK
 70
     0
  9
$PEXTMIN
 10
1.000000000000000E+20
 20
1.000000000000000E+20
 30
1.000000000000000E+20
  9
$PEXTMAX
 10
-1.000000000000000E+20
 20
-1.000000000000000E+20
 30
-1.000000000000000E+20
  9
$PLIMMIN
 10
0.0
 20
0.0
  9
$PLIMMAX
 10
12.0
 20
9.0
  9
$UNITMODE
 70
     0
  9
$VISRETAIN
 70
     1
  9
$PLINEGEN
 70
     0
  9
$PSLTSCALE
 70
     1
  9
$TREEDEPTH
 70
  3020
  9
$CMLSTYLE
  2
Standard
  9
$CMLJUST
 70
     0
  9
$CMLSCALE
 40
1.0
  9
$PROXYGRAPHICS
 70
     1
  9
$MEASUREMENT
 70
     0
  9
$CELWEIGHT
370
    -1
  9
$ENDCAPS
280
     0
  9
$JOINSTYLE
280
     0
  9
$LWDISPLAY
290
     1
  9
$INSUNITS
 70
     4
  9
$HYPERLINKBASE
  1

  9
$STYLESHEET
  1

  9
$XEDIT
290
     1
  9
$CEPSNTYPE
380
     0
  9
$PSTYLEMODE
290
     1
  9
$FINGERPRINTGUID
  2
{3CCF4712-8DD4-E940-B790-CA8C9FB13DAB}
  9
$VERSIONGUID
  2
{2C40616C-E25D-4441-ACD9-6581C8AD63F4}
  9
$EXTNAMES
290
     1
  9
$PSVPSCALE
 40
0.0
  9
$OLESTARTUP
290
     0
  9
$SORTENTS
280
   127
  9
$INDEXCTL
280
     0
  9
$HIDETEXT
280
     1
  9
$XCLIPFRAME
280
     2
  9
$HALOGAP
280
     0
  9
$OBSCOLOR
 70
   257
  9
$OBSLTYPE
280
     0
  9
$INTERSECTIONDISPLAY
280
     0
  9
$INTERSECTIONCOLOR
 70
   257
  9
$DIMASSOC
280
     2
  9
$PROJECTNAME
  1

  9
$CAMERADISPLAY
290
     0
  9
$LENSLENGTH
 40
50.0
  9
$CAMERAHEIGHT
 40
0.0
  9
$STEPSPERSEC
 40
2.0
  9
$STEPSIZE
 40
6.0
  9
$3DDWFPREC
 40
2.0
  9
$PSOLWIDTH
 40
0.25
  9
$PSOLHEIGHT
 40
4.0
  9
$LOFTANG1
 40
1.570796326794896
  9
$LOFTANG2
 40
1.570796326794896
  9
$LOFTMAG1
 40
0.0
  9
$LOFTMAG2
 40
0.0
  9
$LOFTPARAM
 70
     7
  9
$LOFTNORMALS
280
     1
  9
$LATITUDE
 40
37.795
  9
$LONGITUDE
 40
-122.394
  9
$NORTHDIRECTION
 40
0.0
  9
$TIMEZONE
 70
 -8000
  9
$LIGHTGLYPHDISPLAY
280
     1
  9
$TILEMODELIGHTSYNCH
280
     1
  9
$CMATERIAL
347
11
  9
$SOLIDHIST
280
     0
  9
$SHOWHIST
280
     1
  9
$DWFFRAME
280
     2
  9
$DGNFRAME
280
     0
  9
$REALWORLDSCALE
290
     1
  9
$INTERFERECOLOR
 62
     1
  9
$INTERFEREOBJVS
345
33
  9
$INTERFEREVPVS
346
30
  9
$CSHADOW
280
     0
  9
$SHADOWPLANELOCATION
 40
0.0
  0
ENDSEC
  0
SECTION
  2
CLASSES
  0
CLASS
  1
ACDBDICTIONARYWDFLT
  2
AcDbDictionaryWithDefault
  3
ObjectDBX Classes
 90
        0
 91
        1
280
     0
281
     0
  0
CLASS
  1
MATERIAL
  2
AcDbMaterial
  3
ObjectDBX Classes
 90
     1153
 91
        3
280
     0
281
     0
  0
CLASS
  1
VISUALSTYLE
  2
AcDbVisualStyle
  3
ObjectDBX Classes
 90
     4095
 91
       24
280
     0
281
     0
  0
CLASS
  1
SCALE
  2
AcDbScale
  3
ObjectDBX Classes
 90
     1153
 91
       17
280
     0
281
     0
  0
CLASS
  1
TABLESTYLE
  2
AcDbTableStyle
  3
ObjectDBX Classes
 90
     4095
 91
        1
280
     0
281
     0
  0
CLASS
  1
MLEADERSTYLE
  2
AcDbMLeaderStyle
  3
ACDB_MLEADERSTYLE_CLASS
 90
     4095
 91
        1
280
     0
281
     0
  0
CLASS
  1
ACDBSECTIONVIEWSTYLE
  2
AcDbSectionViewStyle
  3
ObjectDBX Classes
 90
     1025
 91
        1
280
     0
281
     0
  0
CLASS
  1
ACDBDETAILVIEWSTYLE
  2
AcDbDetailViewStyle
  3
ObjectDBX Classes
 90
     1025
 91
        1
280
     0
281
     0
  0
CLASS
  1
DICTIONARYVAR
  2
AcDbDictionaryVar
  3
ObjectDBX Classes
 90
        0
 91
        5
280
     0
281
     0
  0
CLASS
  1
CELLSTYLEMAP
  2
AcDbCellStyleMap
  3
ObjectDBX Classes
 90
     1152
 91
        1
280
     0
281
     0
  0
ENDSEC
  0
SECTION
  2
TABLES
  0
TABLE
  2
VPORT
  5
8
330
0
100
AcDbSymbolTable
 70
     1
  0
VPORT
  5
57
330
8
100
AcDbSymbolTableRecord
100
AcDbViewportTableRecord
  2
*Active
 70
     0
 10
0.0
 20
0.0
 11
1.0
 21
1.0
 12
0.0
 22
0.0
 13
0.0
 23
0.0
 14
1.0
 24
1.0
 15
0.0
 25
0.0
 16
0.0
 26
0.0
 36
1.0
 17
205.5888137640133
 27
127.294602052868
 37
0.0
 40
134.1165354767207
 41
1.440655725633718
 42
50.0
 43
0.0
 44
0.0
 50
0.0
 51
0.0
 71
     0
 72
   100
 73
     1
 74
     1
 75
     0
 76
     0
 77
     0
 78
     0
281
     0
 65
     1
110
0.0
120
0.0
130
0.0
111
1.0
121
0.0
131
0.0
112
0.0
122
1.0
132
0.0
 79
     0
146
0.0
 60
     3
 61
     5
292
     1
282
     1
141
0.0
142
0.0
 63
   250
421
  3355443
  0
ENDTAB
  0
TABLE
  2
LTYPE
  5
5
330
0
100
AcDbSymbolTable
 70
     5
  0
LTYPE
  5
5B
330
5
100
AcDbSymbolTableRecord
100
AcDbLinetypeTableRecord
  2
ByBlock
 70
     0
  3

 72
    65
 73
     0
 40
0.0
  0
LTYPE
  5
5C
330
5
100
AcDbSymbolTableRecord
100
AcDbLinetypeTableRecord
  2
ByLayer
 70
     0
  3

 72
    65
 73
     0
 40
0.0
  0
LTYPE
  5
5D
330
5
100
AcDbSymbolTableRecord
100
AcDbLinetypeTableRecord
  2
Continuous
 70
     0
  3
Solid line
 72
    65
 73
     0
 40
0.0
  0
LTYPE
  5
7A
330
5
100
AcDbSymbolTableRecord
100
AcDbLinetypeTableRecord
  2
AI-Linetype-0
 70
     0
  3
Adobe Illustrator Linetype No. 0
 72
    65
 73
     4
 40
8.819444442239584
 49
7.055555553791666
 74
     0
 49
-0.7055555553791667
 74
     0
 49
0.3527777776895833
 74
     0
 49
-0.7055555553791667
 74
     0
  0
LTYPE
  5
7C
330
5
100
AcDbSymbolTableRecord
100
AcDbLinetypeTableRecord
  2
AI-Linetype-1
 70
     0
  3
Adobe Illustrator Linetype No. 1
 72
    65
 73
     4
 40
8.819444442239584
 49
7.055555553791666
 74
     0
 49
-0.7055555553791667
 74
     0
 49
0.3527777776895833
 74
     0
 49
-0.7055555553791667
 74
     0
  0
LTYPE
  5
7E
330
5
100
AcDbSymbolTableRecord
100
AcDbLinetypeTableRecord
  2
AI-Linetype-2
 70
     0
  3
Adobe Illustrator Linetype No. 2
 72
    65
 73
     4
 40
8.819444442239584
 49
7.055555553791666
 74
     0
 49
-0.7055555553791667
 74
     0
 49
0.3527777776895833
 74
     0
 49
-0.7055555553791667
 74
     0
  0
LTYPE
  5
80
330
5
100
AcDbSymbolTableRecord
100
AcDbLinetypeTableRecord
  2
AI-Linetype-3
 70
     0
  3
Adobe Illustrator Linetype No. 3
 72
    65
 73
     4
 40
8.819444442239584
 49
7.055555553791666
 74
     0
 49
-0.7055555553791667
 74
     0
 49
0.3527777776895833
 74
     0
 49
-0.7055555553791667
 74
     0
  0
ENDTAB
  0
TABLE
  2
LAYER
  5
2
330
0
100
AcDbSymbolTable
 70
     5
  0
LAYER
  5
54
330
2
100
AcDbSymbolTableRecord
100
AcDbLayerTableRecord
  2
0
 70
     0
 62
     7
  6
Continuous
370
    -3
390
F
347
21
348
0
  0
LAYER
  5
78
330
2
100
AcDbSymbolTableRecord
100
AcDbLayerTableRecord
  2
grau 10%
 70
     0
 62
     7
  6
Continuous
370
     0
390
F
347
21
348
0
  0
LAYER
  5
113
330
2
100
AcDbSymbolTableRecord
100
AcDbLayerTableRecord
  2
Standardebene
 70
     0
 62
     7
  6
Continuous
370
     0
390
F
347
21
348
0
  0
LAYER
  5
1AC
330
2
100
AcDbSymbolTableRecord
100
AcDbLayerTableRecord
  2
Bemaßung
 70
     1
 62
     7
  6
Continuous
370
     0
390
F
347
21
348
0
  0
LAYER
  5
343
330
2
100
AcDbSymbolTableRecord
100
AcDbLayerTableRecord
  2
Text
 70
     1
 62
     7
  6
Continuous
370
     0
390
F
347
21
348
0
  0
ENDTAB
  0
TABLE
  2
STYLE
  5
3
330
0
100
AcDbSymbolTable
 70
     2
  0
STYLE
  5
55
330
3
100
AcDbSymbolTableRecord
100
AcDbTextStyleTableRecord
  2
Standard
 70
     0
 40
0.0
 41
1.0
 50
0.0
 71
     0
 42
0.2
  3
txt
  4

  0
STYLE
  5
5A
330
3
100
AcDbSymbolTableRecord
100
AcDbTextStyleTableRecord
  2
Annotative
 70
     0
 40
0.0
 41
1.0
 50
0.0
 71
     0
 42
0.2
  3
txt
  4

1001
AcadAnnotative
1000
AnnotativeData
1002
{
1070
     1
1070
     1
1002
}
  0
ENDTAB
  0
TABLE
  2
VIEW
  5
6
330
0
100
AcDbSymbolTable
 70
     0
  0
ENDTAB
  0
TABLE
  2
UCS
  5
7
330
0
100
AcDbSymbolTable
 70
     0
  0
ENDTAB
  0
TABLE
  2
APPID
  5
9
330
0
100
AcDbSymbolTable
 70
     2
  0
APPID
  5
56
330
9
100
AcDbSymbolTableRecord
100
AcDbRegAppTableRecord
  2
ACAD
 70
     0
  0
APPID
  5
5E
330
9
100
AcDbSymbolTableRecord
100
AcDbRegAppTableRecord
  2
AcadAnnotative
 70
     0
  0
ENDTAB
  0
TABLE
  2
DIMSTYLE
  5
A
330
0
100
AcDbSymbolTable
 70
     2
100
AcDbDimStyleTable
 71
     0
  0
DIMSTYLE
105
58
330
A
100
AcDbSymbolTableRecord
100
AcDbDimStyleTableRecord
  2
Standard
 70
     0
340
55
  0
DIMSTYLE
105
59
330
A
100
AcDbSymbolTableRecord
100
AcDbDimStyleTableRecord
  2
Annotative
 70
     0
340
55
1001
AcadAnnotative
1000
AnnotativeData
1002
{
1070
     1
1070
     1
1002
}
  0
ENDTAB
  0
TABLE
  2
BLOCK_RECORD
  5
1
330
0
100
AcDbSymbolTable
 70
     1
  0
BLOCK_RECORD
  5
70
330
1
100
AcDbSymbolTableRecord
100
AcDbBlockTableRecord
  2
*Model_Space
340
73
 70
     0
280
     1
281
     0
  0
BLOCK_RECORD
  5
6C
330
1
100
AcDbSymbolTableRecord
100
AcDbBlockTableRecord
  2
*Paper_Space
340
6F
 70
     0
280
     1
281
     0
  0
BLOCK_RECORD
  5
74
330
1
100
AcDbSymbolTableRecord
100
AcDbBlockTableRecord
  2
*Paper_Space0
340
77
 70
     0
280
     1
281
     0
  0
ENDTAB
  0
ENDSEC
  0
SECTION
  2
BLOCKS
  0
BLOCK
  5
71
330
70
100
AcDbEntity
  8
0
100
AcDbBlockBegin
  2
*Model_Space
 70
     0
 10
0.0
 20
0.0
 30
0.0
  3
*Model_Space
  1

  0
ENDBLK
  5
72
330
70
100
AcDbEntity
  8
0
100
AcDbBlockEnd
  0
BLOCK
  5
6D
330
6C
100
AcDbEntity
 67
     1
  8
0
100
AcDbBlockBegin
  2
*Paper_Space
 70
     0
 10
0.0
 20
0.0
 30
0.0
  3
*Paper_Space
  1

  0
ENDBLK
  5
6E
330
6C
100
AcDbEntity
 67
     1
  8
0
100
AcDbBlockEnd
  0
BLOCK
  5
75
330
74
100
AcDbEntity
 67
     1
  8
0
100
AcDbBlockBegin
  2
*Paper_Space0
 70
     0
 10
0.0
 20
0.0
 30
0.0
  3
*Paper_Space0
  1

  0
ENDBLK
  5
76
330
74
100
AcDbEntity
 67
     1
  8
0
100
AcDbBlockEnd
  0
ENDSEC
  0
SECTION
  2
ENTITIES
  0
LINE
  5
79
330
70
100
AcDbEntity
  8
grau 10%
  6
AI-Linetype-0
 62
     7
370
     9
100
AcDbLine
 10
281.7485334582016
 20
134.608292187447
 30
0.0
 11
281.7485334582016
 21
177.4899217248336
 31
0.0
  0
LINE
  5
7B
330
70
100
AcDbEntity
  8
grau 10%
  6
AI-Linetype-1
 62
     7
370
     9
100
AcDbLine
 10
300.2583218048881
 20
156.0893633968502
 30
0.0
 11
262.7218675466127
 21
156.0893633968502
 31
0.0
  0
LWPOLYLINE
  5
7D
330
70
100
AcDbEntity
  8
grau 10%
  6
AI-Linetype-2
 62
     7
370
     9
100
AcDbPolyline
 90
        7
 70
     0
 43
0.0
 10
222.0922834731225
 20
156.0893633968502
 10
211.5922056979694
 20
156.0893633968502
 10
201.0921279228169
 20
156.0893633968502
 10
193.2502307025554
 20
156.0893633968502
 10
185.4090390378494
 20
156.0893633968502
 10
182.5003862607984
 20
156.0893633968502
 10
142.9091946040293
 20
156.0893633968502
  0
LWPOLYLINE
  5
7F
330
70
100
AcDbEntity
  8
grau 10%
  6
AI-Linetype-3
 62
     7
370
     9
100
AcDbPolyline
 90
        7
 70
     0
 43
0.0
 10
225.0916001390395
 20
78.72795230508282
 10
213.0918640309279
 20
78.72795230508282
 10
201.0921279228169
 20
78.72795230508282
 10
193.2502307025554
 20
78.72795230508282
 10
185.4090390378494
 20
78.72795230508282
 10
183.0006251495622
 20
78.72795230508282
 10
140.9089446045294
 20
78.72795230508282
  0
LWPOLYLINE
  5
81
330
70
100
AcDbEntity
  8
grau 10%
 62
     7
370
    35
100
AcDbPolyline
 90
       13
 70
     0
 43
0.0
 10
266.7487751286188
 20
164.0896578392945
 10
266.7487751286188
 20
163.110699506206
 10
266.7487751286188
 20
161.1298522844791
 10
266.7487751286188
 20
160.1279633958407
 10
266.7487751286188
 20
159.1098467294284
 10
266.7487751286188
 20
158.0857328407961
 10
266.7487751286188
 20
157.0545633966089
 10
266.7487751286188
 20
156.0205717302008
 10
266.7487751286188
 20
155.0289133971152
 10
266.7487751286188
 20
153.0445383976113
 10
266.7487751286188
 20
151.0566356203307
 10
266.7487751286188
 20
149.0736717319375
 10
266.7487751286188
 20
148.0894217321836
  0
SPLINE
  5
82
330
70
100
AcDbEntity
  8
grau 10%
 62
     7
370
    35
100
AcDbSpline
210
0.0
220
0.0
230
1.0
 70
     9
 71
     3
 72
    17
 73
    13
 74
     0
 42
0.0000000001
 43
0.0000000001
 40
0.0
 40
0.0
 40
0.0
 40
0.0
 40
1.0
 40
1.0
 40
1.0
 40
2.0
 40
2.0
 40
2.0
 40
3.0
 40
3.0
 40
3.0
 40
4.0
 40
4.0
 40
4.0
 40
4.0
 10
289.4983556784866
 20
156.0893633968502
 30
0.0
 10
289.4983556784866
 20
160.3699689513356
 30
0.0
 10
286.0284334571321
 20
163.8398911726904
 30
0.0
 10
281.7485334582016
 20
163.8398911726904
 30
0.0
 10
277.468280681494
 20
163.8398911726904
 30
0.0
 10
273.9983584601394
 20
160.3699689513356
 30
0.0
 10
273.9983584601394
 20
156.0893633968502
 30
0.0
 10
273.9983584601394
 20
151.8098161756977
 30
0.0
 10
277.468280681494
 20
148.3398939543432
 30
0.0
 10
281.7485334582016
 20
148.3398939543432
 30
0.0
 10
286.0284334571321
 20
148.3398939543432
 30
0.0
 10
289.4983556784866
 20
151.8098161756977
 30
0.0
 10
289.4983556784866
 20
156.0893633968502
 30
0.0
  0
SPLINE
  5
83
330
70
100
AcDbEntity
  8
grau 10%
 62
     7
370
    35
100
AcDbSpline
210
0.0
220
0.0
230
1.0
 70
     8
 71
     3
 72
     8
 73
     4
 74
     0
 42
0.0000000001
 43
0.0000000001
 40
0.0
 40
0.0
 40
0.0
 40
0.0
 40
1.0
 40
1.0
 40
1.0
 40
1.0
 10
296.1767917879283
 20
147.0995272879865
 30
0.0
 10
296.3891640100971
 20
147.4406633990125
 30
0.0
 10
296.5881306767148
 20
147.7867383989259
 30
0.0
 10
296.7486445655635
 20
148.0894217321836
 30
0.0
  0
LWPOLYLINE
  5
84
330
70
100
AcDbEntity
  8
grau 10%
 62
     7
370
    35
100
AcDbPolyline
 90
       10
 70
     0
 43
0.0
 10
267.3206279062533
 20
147.0995272879865
 10
269.2390334613293
 20
145.9918050660414
 10
270.872041794254
 20
145.0488300662772
 10
272.3667612383251
 20
144.1859356220482
 10
273.7976279046343
 20
143.3600828444771
 10
275.2295529042767
 20
142.5328189557949
 10
276.7218029039028
 20
141.6709828448992
 10
278.2158167924184
 20
140.8091467340038
 10
279.6999529031586
 20
139.9522495119958
 10
281.1770334583449
 20
139.0995856233199
  0
SPLINE
  5
85
330
70
100
AcDbEntity
  8
grau 10%
 62
     7
370
    35
100
AcDbSpline
210
0.0
220
0.0
230
1.0
 70
     9
 71
     3
 72
    17
 73
    13
 74
     0
 42
0.0000000001
 43
0.0000000001
 40
0.0
 40
0.0
 40
0.0
 40
0.0
 40
1.0
 40
1.0
 40
1.0
 40
2.0
 40
2.0
 40
2.0
 40
3.0
 40
3.0
 40
3.0
 40
4.0
 40
4.0
 40
4.0
 40
4.0
 10
293.748622344091
 20
156.0893633968502
 30
0.0
 10
293.748622344091
 20
162.7173522840822
 30
0.0
 10
288.375464012101
 20
168.089805060517
 30
0.0
 10
281.7485334582016
 20
168.089805060517
 30
0.0
 10
275.120897348748
 20
168.089805060517
 30
0.0
 10
269.7487973500912
 20
162.7173522840822
 30
0.0
 10
269.7487973500912
 20
156.0893633968502
 30
0.0
 10
269.7487973500912
 20
149.4624328429514
 30
0.0
 10
275.120897348748
 20
144.0896272887389
 30
0.0
 10
281.7485334582016
 20
144.0896272887389
 30
0.0
 10
288.375464012101
 20
144.0896272887389
 30
0.0
 10
293.748622344091
 20
149.4624328429514
 30
0.0
 10
293.748622344091
 20
156.0893633968502
 30
0.0
  0
LWPOLYLINE
  5
86
330
70
100
AcDbEntity
  8
grau 10%
 62
     7
370
    35
100
AcDbPolyline
 90
       10
 70
     0
 43
0.0
 10
282.3203862358368
 20
139.0995856233199
 10
284.2387917909128
 20
140.2069550674875
 10
285.8721529016159
 20
141.1502828450295
 10
287.3665195679086
 20
142.0131772892582
 10
288.7977390119949
 20
142.8390300668296
 10
290.2293112338595
 20
143.6655883999563
 10
291.7219140112647
 20
144.5274245108517
 10
293.2155751220019
 20
145.3899661773029
 10
294.7000640105198
 20
146.2468633993109
 10
296.1767917879283
 20
147.0995272879865
  0
SPLINE
  5
87
330
70
100
AcDbEntity
  8
grau 10%
 62
     7
370
    35
100
AcDbSpline
210
0.0
220
0.0
230
1.0
 70
     8
 71
     3
 72
     8
 73
     4
 74
     0
 42
0.0000000001
 43
0.0000000001
 40
0.0
 40
0.0
 40
0.0
 40
0.0
 40
1.0
 40
1.0
 40
1.0
 40
1.0
 10
282.3203862358368
 20
139.0995856233199
 30
0.0
 10
288.1736751232625
 20
139.2964356232707
 30
0.0
 10
293.236389010886
 20
142.430513400265
 30
0.0
 10
296.1767917879283
 20
147.0995272879865
 30
0.0
  0
LWPOLYLINE
  5
88
330
70
100
AcDbEntity
  8
grau 10%
 62
     7
370
    35
100
AcDbPolyline
 90
       13
 70
     0
 43
0.0
 10
296.7486445655635
 20
148.0894217321836
 10
296.7486445655635
 20
149.0690856208276
 10
296.7486445655635
 20
151.0499328425545
 10
296.7486445655635
 20
152.0511161756375
 10
296.7486445655635
 20
153.069938397605
 10
296.7486445655635
 20
154.0933467306824
 10
296.7486445655635
 20
155.1245161748693
 10
296.7486445655635
 20
156.1588606190551
 10
296.7486445655635
 20
157.1508717299181
 10
296.7486445655635
 20
159.135246729422
 10
296.7486445655635
 20
161.1227967289251
 10
296.7486445655635
 20
163.1057606173183
 10
296.7486445655635
 20
164.0896578392945
  0
LWPOLYLINE
  5
89
330
70
100
AcDbEntity
  8
grau 10%
 62
     7
370
    35
100
AcDbPolyline
 90
       10
 70
     0
 43
0.0
 10
296.1767917879283
 20
165.0799050612691
 10
294.2583862328523
 20
166.1876272832145
 10
292.6250251221492
 20
167.1306022829787
 10
291.1299529003009
 20
167.9934967272074
 10
289.699791789548
 20
168.8197022825566
 10
288.26716123435
 20
169.646613393461
 10
286.7745584569456
 20
170.5084495043567
 10
285.2816029017632
 20
171.3702856152521
 10
283.7974667910231
 20
172.2271828372601
 10
282.3203862358368
 20
173.0801995037138
  0
SPLINE
  5
8A
330
70
100
AcDbEntity
  8
grau 10%
 62
     7
370
    35
100
AcDbSpline
210
0.0
220
0.0
230
1.0
 70
     8
 71
     3
 72
     8
 73
     4
 74
     0
 42
0.0000000001
 43
0.0000000001
 40
0.0
 40
0.0
 40
0.0
 40
0.0
 40
1.0
 40
1.0
 40
1.0
 40
1.0
 10
281.1770334583449
 20
139.0995856233199
 30
0.0
 10
281.578847347133
 20
139.0858272899901
 30
0.0
 10
281.9778390137003
 20
139.0861800677682
 30
0.0
 10
282.3203862358368
 20
139.0995856233199
 30
0.0
  0
LWPOLYLINE
  5
8B
330
70
100
AcDbEntity
  8
grau 10%
 62
     7
370
    35
100
AcDbPolyline
 90
       10
 70
     0
 43
0.0
 10
281.1770334583449
 20
173.0801995037138
 10
279.2586279032688
 20
171.9724772817683
 10
277.6245612370108
 20
171.0295022820042
 10
276.170411237374
 20
170.1898911711029
 10
274.7194362377369
 20
169.3520439490901
 10
273.2670501269895
 20
168.5138439492996
 10
271.774800127362
 20
167.6516550606265
 10
270.281491794402
 20
166.789466171953
 10
268.7973556836624
 20
165.9329217277227
 10
267.3206279062533
 20
165.0799050612691
  0
SPLINE
  5
8C
330
70
100
AcDbEntity
  8
grau 10%
 62
     7
370
    35
100
AcDbSpline
210
0.0
220
0.0
230
1.0
 70
     8
 71
     3
 72
    14
 73
    10
 74
     0
 42
0.0000000001
 43
0.0000000001
 40
0.0
 40
0.0
 40
0.0
 40
0.0
 40
1.0
 40
1.0
 40
1.0
 40
2.0
 40
2.0
 40
2.0
 40
3.0
 40
3.0
 40
3.0
 40
3.0
 10
298.7485417872857
 20
156.0893633968502
 30
0.0
 10
298.7485417872857
 20
165.4781911722809
 30
0.0
 10
291.1370084558549
 20
173.0897245037114
 30
0.0
 10
281.7485334582016
 20
173.0897245037114
 30
0.0
 10
272.3597056827718
 20
173.0897245037114
 30
0.0
 10
264.748172351341
 20
165.4781911722809
 30
0.0
 10
264.748172351341
 20
156.0893633968502
 30
0.0
 10
264.748172351341
 20
146.9019717324805
 30
0.0
 10
272.0372667939626
 20
139.416732845463
 30
0.0
 10
281.1770334583449
 20
139.0995856233199
 30
0.0
  0
SPLINE
  5
8D
330
70
100
AcDbEntity
  8
grau 10%
 62
     7
370
    35
100
AcDbSpline
210
0.0
220
0.0
230
1.0
 70
     8
 71
     3
 72
     8
 73
     4
 74
     0
 42
0.0000000001
 43
0.0000000001
 40
0.0
 40
0.0
 40
0.0
 40
0.0
 40
1.0
 40
1.0
 40
1.0
 40
1.0
 10
296.7486445655635
 20
148.0894217321836
 30
0.0
 10
298.1265945652187
 20
150.6735189537597
 30
0.0
 10
298.770061231724
 20
153.4534078419537
 30
0.0
 10
298.7485417872857
 20
156.0893633968502
 30
0.0
  0
SPLINE
  5
8E
330
70
100
AcDbEntity
  8
grau 10%
 62
     7
370
    35
100
AcDbSpline
210
0.0
220
0.0
230
1.0
 70
     8
 71
     3
 72
    11
 73
     7
 74
     0
 42
0.0000000001
 43
0.0000000001
 40
0.0
 40
0.0
 40
0.0
 40
0.0
 40
1.0
 40
1.0
 40
1.0
 40
2.0
 40
2.0
 40
2.0
 40
2.0
 10
298.7485417872857
 20
166.4345717275972
 30
0.0
 10
295.0239140104388
 20
172.5559717260674
 30
0.0
 10
288.5229251231751
 20
175.95286894744
 30
0.0
 10
281.7485334582016
 20
175.9899106140973
 30
0.0
 10
274.5829112377708
 20
175.9899106140973
 30
0.0
 10
268.3020556837854
 20
172.2021356150442
 30
0.0
 10
264.748172351341
 20
166.4345717275972
 30
0.0
  0
SPLINE
  5
8F
330
70
100
AcDbEntity
  8
grau 10%
 62
     7
370
    35
100
AcDbSpline
210
0.0
220
0.0
230
1.0
 70
     8
 71
     3
 72
    11
 73
     7
 74
     0
 42
0.0000000001
 43
0.0000000001
 40
0.0
 40
0.0
 40
0.0
 40
0.0
 40
1.0
 40
1.0
 40
1.0
 40
2.0
 40
2.0
 40
2.0
 40
2.0
 10
264.748172351341
 20
145.7448606216591
 30
0.0
 10
268.4735056837429
 20
139.6238134009666
 30
0.0
 10
274.9737890154516
 20
136.2265634018158
 30
0.0
 10
281.7485334582016
 20
136.1895217351586
 30
0.0
 10
288.9141556786324
 20
136.1895217351586
 30
0.0
 10
295.1953640103955
 20
139.9769439564339
 30
0.0
 10
298.7485417872857
 20
145.7448606216591
 30
0.0
  0
LWPOLYLINE
  5
90
330
70
100
AcDbEntity
  8
grau 10%
 62
     7
370
    35
100
AcDbPolyline
 90
       22
 70
     0
 43
0.0
 10
298.7485417872857
 20
166.4345717275972
 10
298.7485417872857
 20
165.8383772833019
 10
298.7485417872857
 20
164.6082411724983
 10
298.7485417872857
 20
163.972182839324
 10
298.7485417872857
 20
163.455010617231
 10
298.7485417872857
 20
162.3896217286086
 10
298.7485417872857
 20
161.277666173331
 10
298.7485417872857
 20
160.0965661736263
 10
298.7485417872857
 20
159.4710911737826
 10
298.7485417872857
 20
158.0264661741437
 10
298.7485417872857
 20
157.4369745076246
 10
298.7485417872857
 20
156.5165772856324
 10
298.7485417872857
 20
155.886163396901
 10
298.7485417872857
 20
155.1442717304198
 10
298.7485417872857
 20
153.8199439529731
 10
298.7485417872857
 20
152.9309439531955
 10
298.7485417872857
 20
152.3372189533439
 10
298.7485417872857
 20
151.0132439536747
 10
298.7485417872857
 20
149.7492411762131
 10
298.7485417872857
 20
148.1381050655047
 10
298.7485417872857
 20
146.5541328436786
 10
298.7485417872857
 20
145.7448606216591
  0
LWPOLYLINE
  5
91
330
70
100
AcDbEntity
  8
grau 10%
 62
     7
370
    35
100
AcDbPolyline
 90
       22
 70
     0
 43
0.0
 10
264.748172351341
 20
145.7448606216591
 10
264.748172351341
 20
146.477227288142
 10
264.748172351341
 20
147.9976995099842
 10
264.748172351341
 20
149.6102467318033
 10
264.748172351341
 20
150.9091745092563
 10
264.748172351341
 20
152.3372189533439
 10
264.748172351341
 20
153.7638522863206
 10
264.748172351341
 20
154.3484050639523
 10
264.748172351341
 20
155.2610411748351
 10
264.748172351341
 20
155.886163396901
 10
264.748172351341
 20
157.3770022854174
 10
264.748172351341
 20
157.9664939519364
 10
264.748172351341
 20
158.8671356183782
 10
264.748172351341
 20
159.4710911737826
 10
264.748172351341
 20
160.0630522847457
 10
264.748172351341
 20
161.2159300622353
 10
264.748172351341
 20
162.3218883952922
 10
264.748172351341
 20
163.4211439505729
 10
264.748172351341
 20
163.972182839324
 10
264.748172351341
 20
164.6064772836098
 10
264.748172351341
 20
165.8366133944134
 10
264.748172351341
 20
166.4345717275972
  0
SPLINE
  5
92
330
70
100
AcDbEntity
  8
grau 10%
 62
     7
370
    35
100
AcDbSpline
210
0.0
220
0.0
230
1.0
 70
     9
 71
     3
 72
    17
 73
    13
 74
     0
 42
0.0000000001
 43
0.0000000001
 40
0.0
 40
0.0
 40
0.0
 40
0.0
 40
1.0
 40
1.0
 40
1.0
 40
2.0
 40
2.0
 40
2.0
 40
3.0
 40
3.0
 40
3.0
 40
4.0
 40
4.0
 40
4.0
 40
4.0
 10
284.2486695686882
 20
156.0893633968502
 30
0.0
 10
284.2486695686882
 20
157.4701356187271
 30
0.0
 10
283.1293056800795
 20
158.5894995073364
 30
0.0
 10
281.7485334582016
 20
158.5894995073364
 30
0.0
 10
280.3681140141027
 20
158.5894995073364
 30
0.0
 10
279.2487501254941
 20
157.4701356187271
 30
0.0
 10
279.2487501254941
 20
156.0893633968502
 30
0.0
 10
279.2487501254941
 20
154.708943952751
 30
0.0
 10
280.3681140141027
 20
153.5895800641417
 30
0.0
 10
281.7485334582016
 20
153.5895800641417
 30
0.0
 10
283.1293056800795
 20
153.5895800641417
 30
0.0
 10
284.2486695686882
 20
154.708943952751
 30
0.0
 10
284.2486695686882
 20
156.0893633968502
 30
0.0
  0
SPLINE
  5
93
330
70
100
AcDbEntity
  8
grau 10%
 62
     7
370
    35
100
AcDbSpline
210
0.0
220
0.0
230
1.0
 70
     9
 71
     3
 72
    17
 73
    13
 74
     0
 42
0.0000000001
 43
0.0000000001
 40
0.0
 40
0.0
 40
0.0
 40
0.0
 40
1.0
 40
1.0
 40
1.0
 40
2.0
 40
2.0
 40
2.0
 40
3.0
 40
3.0
 40
3.0
 40
4.0
 40
4.0
 40
4.0
 40
4.0
 10
288.4985834565141
 20
156.0893633968502
 30
0.0
 10
288.4985834565141
 20
159.8175189514738
 30
0.0
 10
285.4766890128256
 20
162.8394133951627
 30
0.0
 10
281.7485334582016
 20
162.8394133951627
 30
0.0
 10
278.0207306813561
 20
162.8394133951627
 30
0.0
 10
274.9988362376669
 20
159.8175189514738
 30
0.0
 10
274.9988362376669
 20
156.0893633968502
 30
0.0
 10
274.9988362376669
 20
152.3615606200044
 30
0.0
 10
278.0207306813561
 20
149.3400189540932
 30
0.0
 10
281.7485334582016
 20
149.3400189540932
 30
0.0
 10
285.4766890128256
 20
149.3400189540932
 30
0.0
 10
288.4985834565141
 20
152.3615606200044
 30
0.0
 10
288.4985834565141
 20
156.0893633968502
 30
0.0
  0
LINE
  5
94
330
70
100
AcDbEntity
  8
grau 10%
 62
     7
370
    35
100
AcDbLine
 10
185.4090390378494
 20
136.1895217351586
 30
0.0
 11
201.0921279228169
 21
136.1895217351586
 31
0.0
  0
LWPOLYLINE
  5
95
330
70
100
AcDbEntity
  8
grau 10%
 62
     7
370
    35
100
AcDbPolyline
 90
        3
 70
     0
 43
0.0
 10
201.0921279228169
 20
175.9899106140973
 10
185.4090390378494
 20
175.9899106140973
 10
172.5919168188313
 20
168.5900439492807
  0
LINE
  5
96
330
70
100
AcDbEntity
  8
grau 10%
 62
     7
370
    35
100
AcDbLine
 10
172.5919168188313
 20
143.5893883999752
 30
0.0
 11
185.4090390378494
 21
136.1895217351586
 31
0.0
  0
LINE
  5
97
330
70
100
AcDbEntity
  8
grau 10%
 62
     7
370
    35
100
AcDbLine
 10
201.5920140338029
 20
175.490024503111
 30
0.0
 11
201.0921279228169
 21
175.9899106140973
 31
0.0
  0
LINE
  5
98
330
70
100
AcDbEntity
  8
grau 10%
 62
     7
370
    35
100
AcDbLine
 10
217.6917334742226
 20
144.0896272887389
 30
0.0
 11
218.0917834741226
 21
144.0896272887389
 31
0.0
  0
LINE
  5
99
330
70
100
AcDbEntity
  8
grau 10%
 62
     7
370
    35
100
AcDbLine
 10
218.0917834741226
 20
168.089805060517
 30
0.0
 11
217.6917334742226
 21
168.089805060517
 31
0.0
  0
LINE
  5
9A
330
70
100
AcDbEntity
  8
grau 10%
 62
     7
370
    35
100
AcDbLine
 10
215.6918362525004
 20
144.0896272887389
 30
0.0
 11
217.1922001410144
 21
144.4773300664198
 31
0.0
  0
LINE
  5
9B
330
70
100
AcDbEntity
  8
grau 10%
 62
     7
370
    35
100
AcDbLine
 10
217.1922001410144
 20
167.7021022828364
 30
0.0
 11
215.6918362525004
 21
168.089805060517
 31
0.0
  0
LINE
  5
9C
330
70
100
AcDbEntity
  8
grau 10%
 62
     7
370
    35
100
AcDbLine
 10
203.5922640333035
 20
144.0896272887389
 30
0.0
 11
207.5917056989701
 21
144.0896272887389
 31
0.0
  0
LWPOLYLINE
  5
9D
330
70
100
AcDbEntity
  8
grau 10%
 62
     7
370
    35
100
AcDbPolyline
 90
        3
 70
     0
 43
0.0
 10
207.5917056989701
 20
168.089805060517
 10
203.5922640333035
 20
168.089805060517
 10
202.5233473669038
 20
167.8033495050328
  0
LINE
  5
9E
330
70
100
AcDbEntity
  8
grau 10%
 62
     7
370
    35
100
AcDbLine
 10
202.5233473669038
 20
144.3760828442231
 30
0.0
 11
203.5922640333035
 21
144.0896272887389
 31
0.0
  0
LINE
  5
9F
330
70
100
AcDbEntity
  8
grau 10%
 62
     7
370
    35
100
AcDbLine
 10
209.7916279206426
 20
144.0896272887389
 30
0.0
 11
215.6918362525004
 21
144.0896272887389
 31
0.0
  0
LINE
  5
A0
330
70
100
AcDbEntity
  8
grau 10%
 62
     7
370
    35
100
AcDbLine
 10
215.6918362525004
 20
168.089805060517
 30
0.0
 11
209.7916279206426
 21
168.089805060517
 31
0.0
  0
LINE
  5
A1
330
70
100
AcDbEntity
  8
grau 10%
 62
     7
370
    35
100
AcDbLine
 10
218.0917834741226
 20
144.0896272887389
 30
0.0
 11
219.5921473626366
 21
144.9560495107446
 31
0.0
  0
LINE
  5
A2
330
70
100
AcDbEntity
  8
grau 10%
 62
     7
370
    35
100
AcDbLine
 10
219.5921473626366
 20
167.2237356162888
 30
0.0
 11
218.0917834741226
 21
168.089805060517
 31
0.0
  0
LINE
  5
A3
330
70
100
AcDbEntity
  8
grau 10%
 62
     7
370
    35
100
AcDbLine
 10
201.0921279228169
 20
136.1895217351586
 30
0.0
 11
201.5920140338029
 21
136.6897606239223
 31
0.0
  0
LINE
  5
A4
330
70
100
AcDbEntity
  8
grau 10%
 62
     7
370
    35
100
AcDbLine
 10
201.6604529226751
 20
144.3898411775529
 30
0.0
 11
202.4199834780402
 21
144.3898411775529
 31
0.0
  0
LINE
  5
A5
330
70
100
AcDbEntity
  8
grau 10%
 62
     7
370
    35
100
AcDbLine
 10
202.4199834780402
 20
167.7899439494807
 30
0.0
 11
201.6604529226751
 21
167.7899439494807
 31
0.0
  0
LINE
  5
A6
330
70
100
AcDbEntity
  8
grau 10%
 62
     7
370
    35
100
AcDbLine
 10
146.9788390474564
 20
139.0897078455445
 30
0.0
 11
162.4918890435782
 21
139.0897078455445
 31
0.0
  0
LWPOLYLINE
  5
A7
330
70
100
AcDbEntity
  8
grau 10%
 62
     7
370
    35
100
AcDbPolyline
 90
        3
 70
     0
 43
0.0
 10
162.4918890435782
 20
173.0900772814888
 10
146.9788390474564
 20
173.0900772814888
 10
144.0917057148451
 20
168.089805060517
  0
LINE
  5
A8
330
70
100
AcDbEntity
  8
grau 10%
 62
     7
370
    35
100
AcDbLine
 10
144.0917057148451
 20
144.0896272887389
 30
0.0
 11
146.9788390474564
 21
139.0897078455445
 31
0.0
  0
SPLINE
  5
A9
330
70
100
AcDbEntity
  8
grau 10%
 62
     7
370
    35
100
AcDbSpline
210
0.0
220
0.0
230
1.0
 70
     8
 71
     3
 72
     8
 73
     4
 74
     0
 42
0.0000000001
 43
0.0000000001
 40
0.0
 40
0.0
 40
0.0
 40
0.0
 40
1.0
 40
1.0
 40
1.0
 40
1.0
 10
201.5920140338029
 20
167.7952356161459
 30
0.0
 10
201.6160029226861
 20
167.7917078383692
 30
0.0
 10
201.6389334782355
 20
167.789591171703
 30
0.0
 10
201.6604529226751
 20
167.7899439494807
 30
0.0
  0
SPLINE
  5
AA
330
70
100
AcDbEntity
  8
grau 10%
 62
     7
370
    35
100
AcDbSpline
210
0.0
220
0.0
230
1.0
 70
     8
 71
     3
 72
     8
 73
     4
 74
     0
 42
0.0000000001
 43
0.0000000001
 40
0.0
 40
0.0
 40
0.0
 40
0.0
 40
1.0
 40
1.0
 40
1.0
 40
1.0
 10
201.6604529226751
 20
144.3898411775529
 30
0.0
 10
201.6361112560141
 20
144.3898411775529
 30
0.0
 10
201.6124751449092
 20
144.3877245108867
 30
0.0
 10
201.5920140338029
 20
144.38419673311
 30
0.0
  0
SPLINE
  5
AB
330
70
100
AcDbEntity
  8
grau 10%
 62
     7
370
    35
100
AcDbSpline
210
0.0
220
0.0
230
1.0
 70
     8
 71
     3
 72
    11
 73
     7
 74
     0
 42
0.0000000001
 43
0.0000000001
 40
0.0
 40
0.0
 40
0.0
 40
0.0
 40
1.0
 40
1.0
 40
1.0
 40
2.0
 40
2.0
 40
2.0
 40
2.0
 10
217.6917334742226
 20
144.0896272887389
 30
0.0
 10
217.6917334742226
 20
144.3104661775726
 30
0.0
 10
217.5128751409341
 20
144.4896772886389
 30
0.0
 10
217.2916834743226
 20
144.4896772886389
 30
0.0
 10
217.2560529187764
 20
144.4896772886389
 30
0.0
 10
217.2218334743406
 20
144.4847383997515
 30
0.0
 10
217.1922001410144
 20
144.4773300664198
 30
0.0
  0
SPLINE
  5
AC
330
70
100
AcDbEntity
  8
grau 10%
 62
     7
370
    35
100
AcDbSpline
210
0.0
220
0.0
230
1.0
 70
     8
 71
     3
 72
    11
 73
     7
 74
     0
 42
0.0000000001
 43
0.0000000001
 40
0.0
 40
0.0
 40
0.0
 40
0.0
 40
1.0
 40
1.0
 40
1.0
 40
2.0
 40
2.0
 40
2.0
 40
2.0
 10
217.1922001410144
 20
167.7021022828364
 30
0.0
 10
217.2264195854502
 20
167.6932828383937
 30
0.0
 10
217.260639029886
 20
167.6894022828392
 30
0.0
 10
217.2916834743226
 20
167.689755060617
 30
0.0
 10
217.5128751409341
 20
167.689755060617
 30
0.0
 10
217.6917334742226
 20
167.8686133939055
 30
0.0
 10
217.6917334742226
 20
168.089805060517
 30
0.0
  0
SPLINE
  5
AD
330
70
100
AcDbEntity
  8
grau 10%
 62
     7
370
    35
100
AcDbSpline
210
0.0
220
0.0
230
1.0
 70
     8
 71
     3
 72
     8
 73
     4
 74
     0
 42
0.0000000001
 43
0.0000000001
 40
0.0
 40
0.0
 40
0.0
 40
0.0
 40
1.0
 40
1.0
 40
1.0
 40
1.0
 10
202.4199834780402
 20
167.7899439494807
 30
0.0
 10
202.4563195891426
 20
167.7899439494807
 30
0.0
 10
202.4919501446894
 20
167.7948828383684
 30
0.0
 10
202.5233473669038
 20
167.8033495050328
 30
0.0
  0
SPLINE
  5
AE
330
70
100
AcDbEntity
  8
grau 10%
 62
     7
370
    35
100
AcDbSpline
210
0.0
220
0.0
230
1.0
 70
     8
 71
     3
 72
     8
 73
     4
 74
     0
 42
0.0000000001
 43
0.0000000001
 40
0.0
 40
0.0
 40
0.0
 40
0.0
 40
1.0
 40
1.0
 40
1.0
 40
1.0
 10
202.5233473669038
 20
144.3760828442231
 30
0.0
 10
202.487716811357
 20
144.385255066443
 30
0.0
 10
202.4520862558107
 20
144.3898411775529
 30
0.0
 10
202.4199834780402
 20
144.3898411775529
 30
0.0
  0
SPLINE
  5
AF
330
70
100
AcDbEntity
  8
grau 10%
 62
     7
370
    35
100
AcDbSpline
210
0.0
220
0.0
230
1.0
 70
     8
 71
     3
 72
     8
 73
     4
 74
     0
 42
0.0000000001
 43
0.0000000001
 40
0.0
 40
0.0
 40
0.0
 40
0.0
 40
1.0
 40
1.0
 40
1.0
 40
1.0
 10
163.0916112656501
 20
172.4896495038614
 30
0.0
 10
163.0916112656501
 20
172.8209078371117
 30
0.0
 10
162.8235001546066
 20
173.0900772814888
 30
0.0
 10
162.4918890435782
 20
173.0900772814888
 30
0.0
  0
SPLINE
  5
B0
330
70
100
AcDbEntity
  8
grau 10%
 62
     7
370
    35
100
AcDbSpline
210
0.0
220
0.0
230
1.0
 70
     8
 71
     3
 72
     8
 73
     4
 74
     0
 42
0.0000000001
 43
0.0000000001
 40
0.0
 40
0.0
 40
0.0
 40
0.0
 40
1.0
 40
1.0
 40
1.0
 40
1.0
 10
162.4918890435782
 20
139.0897078455445
 30
0.0
 10
162.8235001546066
 20
139.0897078455445
 30
0.0
 10
163.0916112656501
 20
139.3581717343664
 30
0.0
 10
163.0916112656501
 20
139.6897828453945
 30
0.0
  0
LWPOLYLINE
  5
B1
330
70
100
AcDbEntity
  8
grau 10%
 62
     7
370
    35
100
AcDbPolyline
 90
       13
 70
     0
 43
0.0
 10
144.0917057148451
 20
156.0893633968502
 10
144.0917057148451
 20
157.6560495075695
 10
144.0917057148451
 20
159.1955717294071
 10
144.0917057148451
 20
160.6818245068132
 10
144.0917057148451
 20
162.0897606175723
 10
144.0917057148451
 20
163.3950383950237
 10
144.0917057148451
 20
164.5747272836177
 10
144.0917057148451
 20
165.6101300611368
 10
144.0917057148451
 20
166.4821967275853
 10
144.0917057148451
 20
167.1761106163013
 10
144.0917057148451
 20
167.6809356161746
 10
144.0917057148451
 20
167.9867939494315
 10
144.0917057148451
 20
168.089805060517
  0
LWPOLYLINE
  5
B2
330
70
100
AcDbEntity
  8
grau 10%
 62
     7
370
    35
100
AcDbPolyline
 90
       13
 70
     0
 43
0.0
 10
144.0917057148451
 20
144.0896272887389
 10
144.0917057148451
 20
144.1926383998244
 10
144.0917057148451
 20
144.4984967330813
 10
144.0917057148451
 20
145.003321732955
 10
144.0917057148451
 20
145.6972356216706
 10
144.0917057148451
 20
146.5693022881191
 10
144.0917057148451
 20
147.6043522878604
 10
144.0917057148451
 20
148.7843939542325
 10
144.0917057148451
 20
150.090024509461
 10
144.0917057148451
 20
151.4976078424427
 10
144.0917057148451
 20
152.9838606198488
 10
144.0917057148451
 20
154.5237356194638
 10
144.0917057148451
 20
156.0893633968502
  0
LWPOLYLINE
  5
B3
330
70
100
AcDbEntity
  8
grau 10%
 62
     7
370
    35
100
AcDbPolyline
 90
        4
 70
     0
 43
0.0
 10
146.9788390474564
 20
148.0894217321836
 10
146.9788390474564
 20
147.5898883989751
 10
146.9788390474564
 20
147.0995272879865
 10
156.0917946007338
 20
147.0995272879865
  0
LWPOLYLINE
  5
B4
330
70
100
AcDbEntity
  8
grau 10%
 62
     7
370
    35
100
AcDbPolyline
 90
       29
 70
     0
 43
0.0
 10
163.0916112656501
 20
172.4896495038614
 10
163.0916112656501
 20
172.3862856149982
 10
163.0916112656501
 20
172.0783106150753
 10
163.0916112656501
 20
171.5692522818691
 10
163.0916112656501
 20
170.8654606153785
 10
163.0916112656501
 20
169.9761078378231
 10
163.0916112656501
 20
168.9114245047559
 10
163.0916112656501
 20
167.6865800606178
 10
163.0916112656501
 20
166.3146272831826
 10
163.0916112656501
 20
164.8153217280019
 10
163.0916112656501
 20
163.2055967284046
 10
163.0916112656501
 20
161.5062661732739
 10
163.0916112656501
 20
159.738849507049
 10
163.0916112656501
 20
157.9259245075022
 10
163.0916112656501
 20
156.0893633968502
 10
163.0916112656501
 20
154.2535078417537
 10
163.0916112656501
 20
152.4405828422069
 10
163.0916112656501
 20
150.673166175982
 10
163.0916112656501
 20
148.974188398629
 10
163.0916112656501
 20
147.3644633990314
 10
163.0916112656501
 20
145.8648050660729
 10
163.0916112656501
 20
144.4932050664158
 10
163.0916112656501
 20
143.2673022889447
 10
163.0916112656501
 20
142.2036772892105
 10
163.0916112656501
 20
141.3136189560997
 10
163.0916112656501
 20
140.609827289609
 10
163.0916112656501
 20
140.1007689564028
 10
163.0916112656501
 20
139.7931467342577
 10
163.0916112656501
 20
139.6897828453945
  0
LWPOLYLINE
  5
B5
330
70
100
AcDbEntity
  8
grau 10%
 62
     7
370
    35
100
AcDbPolyline
 90
        9
 70
     0
 43
0.0
 10
156.0917946007338
 20
147.0995272879865
 10
156.0917946007338
 20
145.4040772884105
 10
156.0917946007338
 20
143.8684356221277
 10
156.0917946007338
 20
142.5158856224659
 10
156.0917946007338
 20
141.3672411783085
 10
156.0917946007338
 20
140.4390828452071
 10
156.0917946007338
 20
139.7455217342696
 10
156.0917946007338
 20
139.2964356232707
 10
156.0917946007338
 20
139.0995856233199
  0
LWPOLYLINE
  5
B6
330
70
100
AcDbEntity
  8
grau 10%
 62
     7
370
    35
100
AcDbPolyline
 90
       10
 70
     0
 43
0.0
 10
146.9788390474564
 20
139.0995856233199
 10
146.4454390475902
 20
140.2069550674875
 10
146.1117112698958
 20
141.1502828450295
 10
145.914508492167
 20
142.0131772892582
 10
145.829136269966
 20
142.8390300668296
 10
145.8485390477391
 20
143.6655883999563
 10
145.9794196032623
 20
144.5274245108517
 10
146.2189557143135
 20
145.3899661773029
 10
146.555858492007
 20
146.2468633993109
 10
146.9788390474564
 20
147.0995272879865
  0
LINE
  5
B7
330
70
100
AcDbEntity
  8
grau 10%
 62
     7
370
    35
100
AcDbLine
 10
156.0917946007338
 20
139.0995856233199
 30
0.0
 11
146.9788390474564
 21
139.0995856233199
 31
0.0
  0
LWPOLYLINE
  5
B8
330
70
100
AcDbEntity
  8
grau 10%
 62
     7
370
    35
100
AcDbPolyline
 90
       13
 70
     0
 43
0.0
 10
146.9788390474564
 20
148.0894217321836
 10
146.725544603075
 20
149.0690856208276
 10
146.2997418254042
 20
151.0499328425545
 10
146.1325251587792
 20
152.0511161756375
 10
145.9977640477013
 20
153.069938397605
 10
145.9003973810591
 20
154.0933467306824
 10
145.8418362699629
 20
155.1245161748693
 10
145.8238446033009
 20
156.1588606190551
 10
145.8453640477399
 20
157.1508717299181
 10
146.0005862699228
 20
159.135246729422
 10
146.2986834920709
 20
161.1227967289251
 10
146.7244862697424
 20
163.1057606173183
 10
146.9788390474564
 20
164.0896578392945
  0
LWPOLYLINE
  5
B9
330
70
100
AcDbEntity
  8
grau 10%
 62
     7
370
    35
100
AcDbPolyline
 90
        3
 70
     0
 43
0.0
 10
146.9788390474564
 20
139.0995856233199
 10
146.9788390474564
 20
139.0918245122108
 10
146.9788390474564
 20
139.0897078455445
  0
LWPOLYLINE
  5
BA
330
70
100
AcDbEntity
  8
grau 10%
 62
     7
370
    35
100
AcDbPolyline
 90
       22
 70
     0
 43
0.0
 10
146.9788390474564
 20
165.0799050612691
 10
146.4454390475902
 20
166.1876272832145
 10
146.1117112698958
 20
167.1306022829787
 10
145.914508492167
 20
167.9934967272074
 10
145.829136269966
 20
168.8197022825566
 10
145.8485390477391
 20
169.646613393461
 10
145.9794196032623
 20
170.5084495043567
 10
146.2189557143135
 20
171.3702856152521
 10
146.555858492007
 20
172.2271828372601
 10
146.9788390474564
 20
173.0801995037138
 10
146.9788390474564
 20
173.0872550592674
 10
146.9788390474564
 20
173.0801995037138
 10
156.0917946007338
 20
173.0801995037138
 10
156.0917946007338
 20
172.8829967259852
 10
156.0917946007338
 20
172.4339106149863
 10
156.0917946007338
 20
171.7403495040488
 10
156.0917946007338
 20
170.8121911709474
 10
156.0917946007338
 20
169.66354672679
 10
156.0917946007338
 20
168.3109967271282
 10
156.0917946007338
 20
166.7757078386232
 10
156.0917946007338
 20
165.0799050612691
 10
146.9788390474564
 20
165.0799050612691
  0
LWPOLYLINE
  5
BB
330
70
100
AcDbEntity
  8
grau 10%
 62
     7
370
    35
100
AcDbPolyline
 90
       13
 70
     0
 43
0.0
 10
146.9788390474564
 20
165.0799050612691
 10
146.9788390474564
 20
164.5895439502808
 10
146.9788390474564
 20
164.0896578392945
 10
156.0917946007338
 20
164.0896578392945
 10
156.0917946007338
 20
162.19700506199
 10
156.0917946007338
 20
160.2126300624861
 10
156.0917946007338
 20
158.1668717296642
 10
156.0917946007338
 20
156.0893633968502
 10
156.0917946007338
 20
154.0129133973695
 10
156.0917946007338
 20
151.966449508992
 10
156.0917946007338
 20
149.9820745094881
 10
156.0917946007338
 20
148.0894217321836
 10
146.9788390474564
 20
148.0894217321836
  0
LWPOLYLINE
  5
BC
330
70
100
AcDbEntity
  8
grau 10%
 62
     7
370
    35
100
AcDbPolyline
 90
       11
 70
     0
 43
0.0
 10
201.0921279228169
 20
166.4345717275972
 10
201.0921279228169
 20
168.1180272827321
 10
201.0921279228169
 20
169.6758939490091
 10
201.0921279228169
 20
171.0908856153221
 10
201.0921279228169
 20
172.3492439483409
 10
201.0921279228169
 20
173.4368578369578
 10
201.0921279228169
 20
174.3431439478424
 10
201.0921279228169
 20
175.0575189476637
 10
201.0921279228169
 20
175.5736328364238
 10
201.0921279228169
 20
175.8851356141236
 10
201.0921279228169
 20
175.9899106140973
  0
LWPOLYLINE
  5
BD
330
70
100
AcDbEntity
  8
grau 10%
 62
     7
370
    35
100
AcDbPolyline
 90
        7
 70
     0
 43
0.0
 10
201.0921279228169
 20
136.1895217351586
 10
201.0921279228169
 20
136.3009995129085
 10
201.0921279228169
 20
136.6322578461591
 10
201.0921279228169
 20
137.1815328460217
 10
201.0921279228169
 20
137.9414161791649
 10
201.0921279228169
 20
138.903441178925
 10
201.0921279228169
 20
140.0580828453024
  0
LWPOLYLINE
  5
BE
330
70
100
AcDbEntity
  8
grau 10%
 62
     7
370
    35
100
AcDbPolyline
 90
        3
 70
     0
 43
0.0
 10
201.0921279228169
 20
144.3002356220198
 10
201.0921279228169
 20
145.0121411773974
 10
201.0921279228169
 20
145.7448606216591
  0
LINE
  5
BF
330
70
100
AcDbEntity
  8
grau 10%
 62
     7
370
    35
100
AcDbLine
 10
185.4090390378494
 20
166.4345717275972
 30
0.0
 11
201.0921279228169
 21
166.4345717275972
 31
0.0
  0
LINE
  5
C0
330
70
100
AcDbEntity
  8
grau 10%
 62
     7
370
    35
100
AcDbLine
 10
201.0921279228169
 20
145.7448606216591
 30
0.0
 11
185.4090390378494
 21
145.7448606216591
 31
0.0
  0
LWPOLYLINE
  5
C1
330
70
100
AcDbEntity
  8
grau 10%
 62
     7
370
    35
100
AcDbPolyline
 90
       11
 70
     0
 43
0.0
 10
185.4090390378494
 20
136.1895217351586
 10
185.4090390378494
 20
136.2942967351323
 10
185.4090390378494
 20
136.6054467350547
 10
185.4090390378494
 20
137.1219134015922
 10
185.4090390378494
 20
137.8362884014134
 10
185.4090390378494
 20
138.7422217345204
 10
185.4090390378494
 20
139.830188400915
 10
185.4090390378494
 20
141.0885467339338
 10
185.4090390378494
 20
142.5035384002468
 10
185.4090390378494
 20
144.0610522887463
 10
185.4090390378494
 20
145.7448606216591
  0
LWPOLYLINE
  5
C2
330
70
100
AcDbEntity
  8
grau 10%
 62
     7
370
    35
100
AcDbPolyline
 90
        3
 70
     0
 43
0.0
 10
201.5920140338029
 20
146.7432217325202
 10
201.3454223671983
 20
146.2419245104233
 10
201.0921279228169
 20
145.7448606216591
  0
LWPOLYLINE
  5
C3
330
70
100
AcDbEntity
  8
grau 10%
 62
     7
370
    35
100
AcDbPolyline
 90
        5
 70
     0
 43
0.0
 10
201.0921279228169
 20
166.4345717275972
 10
201.2194807005631
 20
166.1862161721038
 10
201.3454223671983
 20
165.9375078388327
 10
201.4699529227231
 20
165.687035616673
 10
201.5920140338029
 20
165.4362106167357
  0
LWPOLYLINE
  5
C4
330
70
100
AcDbEntity
  8
grau 10%
 62
     7
370
    35
100
AcDbPolyline
 90
       11
 70
     0
 43
0.0
 10
185.4090390378494
 20
166.4345717275972
 10
185.4090390378494
 20
168.1180272827321
 10
185.4090390378494
 20
169.6758939490091
 10
185.4090390378494
 20
171.0908856153221
 10
185.4090390378494
 20
172.3492439483409
 10
185.4090390378494
 20
173.4368578369578
 10
185.4090390378494
 20
174.3431439478424
 10
185.4090390378494
 20
175.0575189476637
 10
185.4090390378494
 20
175.5736328364238
 10
185.4090390378494
 20
175.8851356141236
 10
185.4090390378494
 20
175.9899106140973
  0
LWPOLYLINE
  5
C5
330
70
100
AcDbEntity
  8
grau 10%
 62
     7
370
    35
100
AcDbPolyline
 90
       13
 70
     0
 43
0.0
 10
207.5917056989701
 20
156.0893633968502
 10
207.5917056989701
 20
157.6560495075695
 10
207.5917056989701
 20
159.1955717294071
 10
207.5917056989701
 20
160.6818245068132
 10
207.5917056989701
 20
162.0897606175723
 10
207.5917056989701
 20
163.3950383950237
 10
207.5917056989701
 20
164.5747272836177
 10
207.5917056989701
 20
165.6101300611368
 10
207.5917056989701
 20
166.4821967275853
 10
207.5917056989701
 20
167.1761106163013
 10
207.5917056989701
 20
167.6809356161746
 10
207.5917056989701
 20
167.9867939494315
 10
207.5917056989701
 20
168.089805060517
  0
LWPOLYLINE
  5
C6
330
70
100
AcDbEntity
  8
grau 10%
 62
     7
370
    35
100
AcDbPolyline
 90
       13
 70
     0
 43
0.0
 10
207.5917056989701
 20
144.0896272887389
 10
207.5917056989701
 20
144.1926383998244
 10
207.5917056989701
 20
144.4984967330813
 10
207.5917056989701
 20
145.003321732955
 10
207.5917056989701
 20
145.6972356216706
 10
207.5917056989701
 20
146.5693022881191
 10
207.5917056989701
 20
147.6043522878604
 10
207.5917056989701
 20
148.7843939542325
 10
207.5917056989701
 20
150.090024509461
 10
207.5917056989701
 20
151.4976078424427
 10
207.5917056989701
 20
152.9838606198488
 10
207.5917056989701
 20
154.5237356194638
 10
207.5917056989701
 20
156.0893633968502
  0
LWPOLYLINE
  5
C7
330
70
100
AcDbEntity
  8
grau 10%
 62
     7
370
    35
100
AcDbPolyline
 90
       13
 70
     0
 43
0.0
 10
203.5922640333035
 20
156.0893633968502
 10
203.5922640333035
 20
157.6560495075695
 10
203.5922640333035
 20
159.1955717294071
 10
203.5922640333035
 20
160.6818245068132
 10
203.5922640333035
 20
162.0897606175723
 10
203.5922640333035
 20
163.3950383950237
 10
203.5922640333035
 20
164.5747272836177
 10
203.5922640333035
 20
165.6101300611368
 10
203.5922640333035
 20
166.4821967275853
 10
203.5922640333035
 20
167.1761106163013
 10
203.5922640333035
 20
167.6809356161746
 10
203.5922640333035
 20
167.9867939494315
 10
203.5922640333035
 20
168.089805060517
  0
LWPOLYLINE
  5
C8
330
70
100
AcDbEntity
  8
grau 10%
 62
     7
370
    35
100
AcDbPolyline
 90
       13
 70
     0
 43
0.0
 10
203.5922640333035
 20
144.0896272887389
 10
203.5922640333035
 20
144.1926383998244
 10
203.5922640333035
 20
144.4984967330813
 10
203.5922640333035
 20
145.003321732955
 10
203.5922640333035
 20
145.6972356216706
 10
203.5922640333035
 20
146.5693022881191
 10
203.5922640333035
 20
147.6043522878604
 10
203.5922640333035
 20
148.7843939542325
 10
203.5922640333035
 20
150.090024509461
 10
203.5922640333035
 20
151.4976078424427
 10
203.5922640333035
 20
152.9838606198488
 10
203.5922640333035
 20
154.5237356194638
 10
203.5922640333035
 20
156.0893633968502
  0
LWPOLYLINE
  5
C9
330
70
100
AcDbEntity
  8
grau 10%
 62
     7
370
    35
100
AcDbPolyline
 90
        7
 70
     0
 43
0.0
 10
201.5920140338029
 20
140.4157995118796
 10
201.5920140338029
 20
139.3034911788249
 10
201.5920140338029
 20
138.376743956834
 10
201.5920140338029
 20
137.6443772903504
 10
201.5920140338029
 20
137.1159161793712
 10
201.5920140338029
 20
136.7966522905622
 10
201.5920140338029
 20
136.6897606239223
  0
LWPOLYLINE
  5
CA
330
70
100
AcDbEntity
  8
grau 10%
 62
     7
370
    35
100
AcDbPolyline
 90
       33
 70
     0
 43
0.0
 10
194.5918445911088
 20
144.3002356220198
 10
194.3452529245036
 20
144.2924745109107
 10
194.0983084801206
 20
144.2674272886947
 10
193.8499529246279
 20
144.2247411775943
 10
193.6054779246886
 20
144.164768955387
 10
193.3758195914128
 20
144.0917439554051
 10
192.9362584804112
 20
143.8991272887868
 10
192.7302362582409
 20
143.7805939554831
 10
192.5422057027319
 20
143.6525356221816
 10
192.2045973694834
 20
143.3614939555878
 10
192.0574890361864
 20
143.1992161778506
 10
191.9333112584401
 20
143.0348217334471
 10
191.8264195918002
 20
142.864430066823
 10
191.7368140362674
 20
142.6852189557567
 10
191.6683751473951
 20
142.5017745113583
 10
191.6228668140729
 20
142.3243272891802
 10
191.5925279251918
 20
141.9659050670478
 10
191.610166814076
 20
141.7863411782038
 10
191.647208480734
 20
141.6184189560236
 10
191.7837334807
 20
141.2924522894385
 10
191.8828640362305
 20
141.1365245116997
 10
191.9978695917576
 20
140.99294395618
 10
192.2846779250193
 20
140.728007845135
 10
192.4561279249761
 20
140.6077106229427
 10
192.6374557027088
 20
140.5008189563028
 10
193.0477362581614
 20
140.3173745119044
 10
193.2745723692158
 20
140.2422328452566
 10
193.5024668136035
 20
140.1815550674939
 10
193.7398862579888
 20
140.1321661786172
 10
193.9885945912599
 20
140.0947717341822
 10
194.2436529245295
 20
140.0697245119663
 10
194.4172195911528
 20
140.0609050675241
 10
194.5918445911088
 20
140.0580828453024
  0
LWPOLYLINE
  5
CB
330
70
100
AcDbEntity
  8
grau 10%
 62
     7
370
    35
100
AcDbPolyline
 90
       11
 70
     0
 43
0.0
 10
201.5920140338029
 20
175.490024503111
 10
201.5920140338029
 20
175.3792522809167
 10
201.5920140338029
 20
175.049052280999
 10
201.5920140338029
 20
174.5018939478027
 10
201.5920140338029
 20
173.7455383924361
 10
201.5920140338029
 20
172.7884522815644
 10
201.5920140338029
 20
171.6401606151848
 10
201.5920140338029
 20
170.3154800599603
 10
201.5920140338029
 20
168.8281689492209
 10
201.5920140338029
 20
167.1951606162962
 10
201.5920140338029
 20
165.4362106167357
  0
LINE
  5
CC
330
70
100
AcDbEntity
  8
grau 10%
 62
     7
370
    35
100
AcDbLine
 10
194.5918445911088
 20
140.0580828453024
 30
0.0
 11
201.0921279228169
 21
140.0580828453024
 31
0.0
  0
LINE
  5
CD
330
70
100
AcDbEntity
  8
grau 10%
 62
     7
370
    35
100
AcDbLine
 10
201.5920140338029
 20
165.4362106167357
 30
0.0
 11
201.5920140338029
 21
146.7432217325202
 31
0.0
  0
LINE
  5
CE
330
70
100
AcDbEntity
  8
grau 10%
 62
     7
370
    35
100
AcDbLine
 10
201.0921279228169
 20
140.0580828453024
 30
0.0
 11
201.5920140338029
 21
140.4157995118796
 31
0.0
  0
LINE
  5
CF
330
70
100
AcDbEntity
  8
grau 10%
 62
     7
370
    35
100
AcDbLine
 10
201.5920140338029
 20
144.6579522885971
 30
0.0
 11
201.0921279228169
 21
144.3002356220198
 31
0.0
  0
LWPOLYLINE
  5
D0
330
70
100
AcDbEntity
  8
grau 10%
 62
     7
370
    35
100
AcDbPolyline
 90
        3
 70
     0
 43
0.0
 10
201.5920140338029
 20
146.7432217325202
 10
201.5920140338029
 20
145.6792439550083
 10
201.5920140338029
 20
144.6579522885971
  0
LINE
  5
D1
330
70
100
AcDbEntity
  8
grau 10%
 62
     7
370
    35
100
AcDbLine
 10
201.0921279228169
 20
144.3002356220198
 30
0.0
 11
194.5918445911088
 21
144.3002356220198
 31
0.0
  0
LINE
  5
D2
330
70
100
AcDbEntity
  8
grau 10%
 62
     7
370
    35
100
AcDbLine
 10
201.5920140338029
 20
144.6579522885971
 30
0.0
 11
201.5920140338029
 21
140.4157995118796
 31
0.0
  0
LWPOLYLINE
  5
D3
330
70
100
AcDbEntity
  8
grau 10%
 62
     7
370
    35
100
AcDbPolyline
 90
       13
 70
     0
 43
0.0
 10
172.5919168188313
 20
156.0893633968502
 10
172.5919168188313
 20
157.7209606186645
 10
172.5919168188313
 20
159.3250411738192
 10
172.5919168188313
 20
160.8733828400988
 10
172.5919168188313
 20
162.3395272841764
 10
172.5919168188313
 20
163.6991328393922
 10
172.5919168188313
 20
164.9285633946405
 10
172.5919168188313
 20
166.006299505482
 10
172.5919168188313
 20
166.9150550608104
 10
172.5919168188313
 20
167.6378967272964
 10
172.5919168188313
 20
168.1635356160537
 10
172.5919168188313
 20
168.4824467270853
 10
172.5919168188313
 20
168.5900439492807
  0
LWPOLYLINE
  5
D4
330
70
100
AcDbEntity
  8
grau 10%
 62
     7
370
    35
100
AcDbPolyline
 90
       13
 70
     0
 43
0.0
 10
172.5919168188313
 20
143.5893883999752
 10
172.5919168188313
 20
143.6966328443928
 10
172.5919168188313
 20
144.0155439554244
 10
172.5919168188313
 20
144.5411828441818
 10
172.5919168188313
 20
145.264730066223
 10
172.5919168188313
 20
146.1727800659961
 10
172.5919168188313
 20
147.2508689546153
 10
172.5919168188313
 20
148.4802995098637
 10
172.5919168188313
 20
149.839552287302
 10
172.5919168188313
 20
151.306049509157
 10
172.5919168188313
 20
152.8547439532145
 10
172.5919168188313
 20
154.4584717305914
 10
172.5919168188313
 20
156.0893633968502
  0
LWPOLYLINE
  5
D5
330
70
100
AcDbEntity
  8
grau 10%
 62
     7
370
    35
100
AcDbPolyline
 90
       13
 70
     0
 43
0.0
 10
209.7916279206426
 20
156.0893633968502
 10
209.7916279206426
 20
157.6560495075695
 10
209.7916279206426
 20
159.1955717294071
 10
209.7916279206426
 20
160.6818245068132
 10
209.7916279206426
 20
162.0897606175723
 10
209.7916279206426
 20
163.3950383950237
 10
209.7916279206426
 20
164.5747272836177
 10
209.7916279206426
 20
165.6101300611368
 10
209.7916279206426
 20
166.4821967275853
 10
209.7916279206426
 20
167.1761106163013
 10
209.7916279206426
 20
167.6809356161746
 10
209.7916279206426
 20
167.9867939494315
 10
209.7916279206426
 20
168.089805060517
  0
LWPOLYLINE
  5
D6
330
70
100
AcDbEntity
  8
grau 10%
 62
     7
370
    35
100
AcDbPolyline
 90
       13
 70
     0
 43
0.0
 10
209.7916279206426
 20
144.0896272887389
 10
209.7916279206426
 20
144.1926383998244
 10
209.7916279206426
 20
144.4984967330813
 10
209.7916279206426
 20
145.003321732955
 10
209.7916279206426
 20
145.6972356216706
 10
209.7916279206426
 20
146.5693022881191
 10
209.7916279206426
 20
147.6043522878604
 10
209.7916279206426
 20
148.7843939542325
 10
209.7916279206426
 20
150.090024509461
 10
209.7916279206426
 20
151.4976078424427
 10
209.7916279206426
 20
152.9838606198488
 10
209.7916279206426
 20
154.5237356194638
 10
209.7916279206426
 20
156.0893633968502
  0
LWPOLYLINE
  5
D7
330
70
100
AcDbEntity
  8
grau 10%
 62
     7
370
    35
100
AcDbPolyline
 90
       13
 70
     0
 43
0.0
 10
218.0917834741226
 20
156.0893633968502
 10
218.0917834741226
 20
157.6560495075695
 10
218.0917834741226
 20
159.1955717294071
 10
218.0917834741226
 20
160.6818245068132
 10
218.0917834741226
 20
162.0897606175723
 10
218.0917834741226
 20
163.3950383950237
 10
218.0917834741226
 20
164.5747272836177
 10
218.0917834741226
 20
165.6101300611368
 10
218.0917834741226
 20
166.4821967275853
 10
218.0917834741226
 20
167.1761106163013
 10
218.0917834741226
 20
167.6809356161746
 10
218.0917834741226
 20
167.9867939494315
 10
218.0917834741226
 20
168.089805060517
  0
LWPOLYLINE
  5
D8
330
70
100
AcDbEntity
  8
grau 10%
 62
     7
370
    35
100
AcDbPolyline
 90
       13
 70
     0
 43
0.0
 10
218.0917834741226
 20
144.0896272887389
 10
218.0917834741226
 20
144.1926383998244
 10
218.0917834741226
 20
144.4984967330813
 10
218.0917834741226
 20
145.003321732955
 10
218.0917834741226
 20
145.6972356216706
 10
218.0917834741226
 20
146.5693022881191
 10
218.0917834741226
 20
147.6043522878604
 10
218.0917834741226
 20
148.7843939542325
 10
218.0917834741226
 20
150.090024509461
 10
218.0917834741226
 20
151.4976078424427
 10
218.0917834741226
 20
152.9838606198488
 10
218.0917834741226
 20
154.5237356194638
 10
218.0917834741226
 20
156.0893633968502
  0
LWPOLYLINE
  5
D9
330
70
100
AcDbEntity
  8
grau 10%
 62
     7
370
    35
100
AcDbPolyline
 90
       24
 70
     0
 43
0.0
 10
219.5921473626366
 20
167.2237356162888
 10
219.5921473626366
 20
167.1200189496481
 10
219.5921473626366
 20
166.8109856163923
 10
219.5921473626366
 20
166.3015745054084
 10
219.5921473626366
 20
165.6027217278051
 10
219.5921473626366
 20
164.7267745058021
 10
219.5921473626366
 20
163.6889022838393
 10
219.5921473626366
 20
162.5102717285783
 10
219.5921473626366
 20
161.2124022844583
 10
219.5921473626366
 20
159.8185772848067
 10
219.5921473626366
 20
158.3549022851729
 10
219.5921473626366
 20
156.8492467299934
 10
219.5921473626366
 20
155.3298328414848
 10
219.5921473626366
 20
153.8245300640831
 10
219.5921473626366
 20
152.3612078422266
 10
219.5921473626366
 20
150.9670300647976
 10
219.5921473626366
 20
149.6691606206776
 10
219.5921473626366
 20
148.4905300654166
 10
219.5921473626366
 20
147.4526578434538
 10
219.5921473626366
 20
146.5763578436734
 10
219.5921473626366
 20
145.8771522882926
 10
219.5921473626366
 20
145.3684467328636
 10
219.5921473626366
 20
145.0597661773852
 10
219.5921473626366
 20
144.9560495107446
  0
LWPOLYLINE
  5
DA
330
70
100
AcDbEntity
  8
grau 10%
 62
     7
370
    35
100
AcDbPolyline
 90
       13
 70
     0
 43
0.0
 10
217.6917334742226
 20
156.0893633968502
 10
217.6917334742226
 20
157.6560495075695
 10
217.6917334742226
 20
159.1955717294071
 10
217.6917334742226
 20
160.6818245068132
 10
217.6917334742226
 20
162.0897606175723
 10
217.6917334742226
 20
163.3950383950237
 10
217.6917334742226
 20
164.5747272836177
 10
217.6917334742226
 20
165.6101300611368
 10
217.6917334742226
 20
166.4821967275853
 10
217.6917334742226
 20
167.1761106163013
 10
217.6917334742226
 20
167.6809356161746
 10
217.6917334742226
 20
167.9867939494315
 10
217.6917334742226
 20
168.089805060517
  0
LWPOLYLINE
  5
DB
330
70
100
AcDbEntity
  8
grau 10%
 62
     7
370
    35
100
AcDbPolyline
 90
       13
 70
     0
 43
0.0
 10
217.6917334742226
 20
144.0896272887389
 10
217.6917334742226
 20
144.1926383998244
 10
217.6917334742226
 20
144.4984967330813
 10
217.6917334742226
 20
145.003321732955
 10
217.6917334742226
 20
145.6972356216706
 10
217.6917334742226
 20
146.5693022881191
 10
217.6917334742226
 20
147.6043522878604
 10
217.6917334742226
 20
148.7843939542325
 10
217.6917334742226
 20
150.090024509461
 10
217.6917334742226
 20
151.4976078424427
 10
217.6917334742226
 20
152.9838606198488
 10
217.6917334742226
 20
154.5237356194638
 10
217.6917334742226
 20
156.0893633968502
  0
LWPOLYLINE
  5
DC
330
70
100
AcDbEntity
  8
grau 10%
 62
     7
370
    35
100
AcDbPolyline
 90
       13
 70
     0
 43
0.0
 10
215.6918362525004
 20
156.0893633968502
 10
215.6918362525004
 20
157.6560495075695
 10
215.6918362525004
 20
159.1955717294071
 10
215.6918362525004
 20
160.6818245068132
 10
215.6918362525004
 20
162.0897606175723
 10
215.6918362525004
 20
163.3950383950237
 10
215.6918362525004
 20
164.5747272836177
 10
215.6918362525004
 20
165.6101300611368
 10
215.6918362525004
 20
166.4821967275853
 10
215.6918362525004
 20
167.1761106163013
 10
215.6918362525004
 20
167.6809356161746
 10
215.6918362525004
 20
167.9867939494315
 10
215.6918362525004
 20
168.089805060517
  0
LWPOLYLINE
  5
DD
330
70
100
AcDbEntity
  8
grau 10%
 62
     7
370
    35
100
AcDbPolyline
 90
       13
 70
     0
 43
0.0
 10
215.6918362525004
 20
144.0896272887389
 10
215.6918362525004
 20
144.1926383998244
 10
215.6918362525004
 20
144.4984967330813
 10
215.6918362525004
 20
145.003321732955
 10
215.6918362525004
 20
145.6972356216706
 10
215.6918362525004
 20
146.5693022881191
 10
215.6918362525004
 20
147.6043522878604
 10
215.6918362525004
 20
148.7843939542325
 10
215.6918362525004
 20
150.090024509461
 10
215.6918362525004
 20
151.4976078424427
 10
215.6918362525004
 20
152.9838606198488
 10
215.6918362525004
 20
154.5237356194638
 10
215.6918362525004
 20
156.0893633968502
  0
LWPOLYLINE
  5
DE
330
70
100
AcDbEntity
  8
grau 10%
 62
     7
370
    35
100
AcDbPolyline
 90
       22
 70
     0
 43
0.0
 10
185.4090390378494
 20
166.4345717275972
 10
184.8841057046468
 20
165.8383772833019
 10
183.8765723715655
 20
164.6082411724983
 10
183.397500149463
 20
163.972182839324
 10
183.0309640384439
 20
163.455010617231
 10
182.3430473719483
 20
162.3896217286086
 10
181.7267445943255
 20
161.277666173331
 10
181.1926390389031
 20
160.0965661736263
 10
180.963333483405
 20
159.4710911737826
 10
180.5766890390573
 20
158.0264661741437
 10
180.4786168168589
 20
157.4369745076246
 10
180.3953612613245
 20
156.5165772856324
 10
180.3879529279935
 20
155.886163396901
 10
180.4316973724263
 20
155.1442717304198
 10
180.6472445945949
 20
153.8199439529731
 10
180.8899557056454
 20
152.9309439531955
 10
181.094919594483
 20
152.3372189533439
 10
181.6706529276723
 20
151.0132439536747
 10
182.3677418163871
 20
149.7492411762131
 10
183.4475945938948
 20
148.1381050655047
 10
184.7017195935814
 20
146.5541328436786
 10
185.4090390378494
 20
145.7448606216591
  0
LINE
  5
DF
330
70
100
AcDbEntity
  8
grau 10%
 62
     7
370
    35
100
AcDbLine
 10
180.3861890391047
 20
95.72760785638914
 30
0.0
 11
172.5919168188313
 21
91.22792730195815
 31
0.0
  0
LINE
  5
E0
330
70
100
AcDbEntity
  8
grau 10%
 62
     7
370
    35
100
AcDbLine
 10
172.5919168188313
 20
66.22727175265326
 30
0.0
 11
180.3861890391047
 21
61.72759119822226
 31
0.0
  0
LINE
  5
E1
330
70
100
AcDbEntity
  8
grau 10%
 62
     7
370
    35
100
AcDbLine
 10
163.0923168212063
 20
66.22727175265326
 30
0.0
 11
172.5919168188313
 21
66.22727175265326
 31
0.0
  0
LINE
  5
E2
330
70
100
AcDbEntity
  8
grau 10%
 62
     7
370
    35
100
AcDbLine
 10
172.5919168188313
 20
91.22792730195815
 30
0.0
 11
163.0923168212063
 21
91.22792730195815
 31
0.0
  0
LINE
  5
E3
330
70
100
AcDbEntity
  8
grau 10%
 62
     7
370
    35
100
AcDbLine
 10
209.7916279206426
 20
66.72751064141697
 30
0.0
 11
215.6918362525004
 21
66.72751064141697
 31
0.0
  0
LINE
  5
E4
330
70
100
AcDbEntity
  8
grau 10%
 62
     7
370
    35
100
AcDbLine
 10
215.6918362525004
 20
90.72768841319444
 30
0.0
 11
209.7916279206426
 21
90.72768841319444
 31
0.0
  0
LINE
  5
E5
330
70
100
AcDbEntity
  8
grau 10%
 62
     7
370
    35
100
AcDbLine
 10
215.6918362525004
 20
66.72751064141697
 30
0.0
 11
217.1922001410144
 21
67.11521341909788
 31
0.0
  0
LINE
  5
E6
330
70
100
AcDbEntity
  8
grau 10%
 62
     7
370
    35
100
AcDbLine
 10
217.1922001410144
 20
90.33998563551353
 30
0.0
 11
215.6918362525004
 21
90.72768841319444
 31
0.0
  0
LINE
  5
E7
330
70
100
AcDbEntity
  8
grau 10%
 62
     7
370
    35
100
AcDbLine
 10
203.5922640333035
 20
66.72751064141697
 30
0.0
 11
207.5917056989701
 21
66.72751064141697
 31
0.0
  0
LWPOLYLINE
  5
E8
330
70
100
AcDbEntity
  8
grau 10%
 62
     7
370
    35
100
AcDbPolyline
 90
        3
 70
     0
 43
0.0
 10
207.5917056989701
 20
90.72768841319444
 10
203.5922640333035
 20
90.72768841319444
 10
202.5233473669038
 20
90.44088007993277
  0
LINE
  5
E9
330
70
100
AcDbEntity
  8
grau 10%
 62
     7
370
    35
100
AcDbLine
 10
202.5233473669038
 20
67.01431897467863
 30
0.0
 11
203.5922640333035
 21
66.72751064141697
 31
0.0
  0
LINE
  5
EA
330
70
100
AcDbEntity
  8
grau 10%
 62
     7
370
    35
100
AcDbLine
 10
217.6917334742226
 20
66.72751064141697
 30
0.0
 11
218.0917834741226
 21
66.72751064141697
 31
0.0
  0
LINE
  5
EB
330
70
100
AcDbEntity
  8
grau 10%
 62
     7
370
    35
100
AcDbLine
 10
218.0917834741226
 20
90.72768841319444
 30
0.0
 11
217.6917334742226
 21
90.72768841319444
 31
0.0
  0
LINE
  5
EC
330
70
100
AcDbEntity
  8
grau 10%
 62
     7
370
    35
100
AcDbLine
 10
218.0917834741226
 20
66.72751064141697
 30
0.0
 11
219.5921473626366
 21
67.59358008564487
 31
0.0
  0
LINE
  5
ED
330
70
100
AcDbEntity
  8
grau 10%
 62
     7
370
    35
100
AcDbLine
 10
219.5921473626366
 20
89.86161896896653
 30
0.0
 11
218.0917834741226
 21
90.72768841319444
 31
0.0
  0
LINE
  5
EE
330
70
100
AcDbEntity
  8
grau 10%
 62
     7
370
    35
100
AcDbLine
 10
201.6604529226751
 20
67.02772453023036
 30
0.0
 11
202.4199834780402
 21
67.02772453023036
 31
0.0
  0
LINE
  5
EF
330
70
100
AcDbEntity
  8
grau 10%
 62
     7
370
    35
100
AcDbLine
 10
202.4199834780402
 20
90.42747452438041
 30
0.0
 11
201.6604529226751
 21
90.42747452438041
 31
0.0
  0
LINE
  5
F0
330
70
100
AcDbEntity
  8
grau 10%
 62
     7
370
    35
100
AcDbLine
 10
156.0917946007338
 20
61.72759119822226
 30
0.0
 11
162.4918890435782
 21
61.72759119822226
 31
0.0
  0
LINE
  5
F1
330
70
100
AcDbEntity
  8
grau 10%
 62
     7
370
    35
100
AcDbLine
 10
162.4918890435782
 20
95.72760785638914
 30
0.0
 11
156.0917946007338
 21
95.72760785638914
 31
0.0
  0
LINE
  5
F2
330
70
100
AcDbEntity
  8
grau 10%
 62
     7
370
    35
100
AcDbLine
 10
145.8238446033009
 20
93.72771063466695
 30
0.0
 11
144.0917057148451
 21
90.72768841319444
 31
0.0
  0
LINE
  5
F3
330
70
100
AcDbEntity
  8
grau 10%
 62
     7
370
    35
100
AcDbLine
 10
144.0917057148451
 20
66.72751064141697
 30
0.0
 11
145.8238446033009
 21
63.72748841994447
 31
0.0
  0
LINE
  5
F4
330
70
100
AcDbEntity
  8
grau 10%
 62
     7
370
    35
100
AcDbLine
 10
169.0920084863722
 20
91.22792730195815
 30
0.0
 11
169.0920084863722
 21
66.22727175265326
 31
0.0
  0
SPLINE
  5
F5
330
70
100
AcDbEntity
  8
grau 10%
 62
     7
370
    35
100
AcDbSpline
210
0.0
220
0.0
230
1.0
 70
     8
 71
     3
 72
     8
 73
     4
 74
     0
 42
0.0000000001
 43
0.0000000001
 40
0.0
 40
0.0
 40
0.0
 40
0.0
 40
1.0
 40
1.0
 40
1.0
 40
1.0
 10
201.5920140338029
 20
90.43311896882395
 30
0.0
 10
201.6160029226861
 20
90.42923841326857
 30
0.0
 10
201.6389334782355
 20
90.42747452438041
 30
0.0
 10
201.6604529226751
 20
90.42747452438041
 30
0.0
  0
SPLINE
  5
F6
330
70
100
AcDbEntity
  8
grau 10%
 62
     7
370
    35
100
AcDbSpline
210
0.0
220
0.0
230
1.0
 70
     8
 71
     3
 72
     8
 73
     4
 74
     0
 42
0.0000000001
 43
0.0000000001
 40
0.0
 40
0.0
 40
0.0
 40
0.0
 40
1.0
 40
1.0
 40
1.0
 40
1.0
 10
201.6604529226751
 20
67.02772453023036
 30
0.0
 10
201.6361112560141
 20
67.02772453023036
 30
0.0
 10
201.6124751449092
 20
67.02525508578668
 30
0.0
 10
201.5920140338029
 20
67.02208008578747
 30
0.0
  0
SPLINE
  5
F7
330
70
100
AcDbEntity
  8
grau 10%
 62
     7
370
    35
100
AcDbSpline
210
0.0
220
0.0
230
1.0
 70
     8
 71
     3
 72
    11
 73
     7
 74
     0
 42
0.0000000001
 43
0.0000000001
 40
0.0
 40
0.0
 40
0.0
 40
0.0
 40
1.0
 40
1.0
 40
1.0
 40
2.0
 40
2.0
 40
2.0
 40
2.0
 10
217.6917334742226
 20
66.72751064141697
 30
0.0
 10
217.6917334742226
 20
66.94834953025072
 30
0.0
 10
217.5128751409341
 20
67.12791341909472
 30
0.0
 10
217.2916834743226
 20
67.12791341909472
 30
0.0
 10
217.2560529187764
 20
67.12791341909472
 30
0.0
 10
217.2218334743406
 20
67.12297453020671
 30
0.0
 10
217.1922001410144
 20
67.11521341909788
 30
0.0
  0
SPLINE
  5
F8
330
70
100
AcDbEntity
  8
grau 10%
 62
     7
370
    35
100
AcDbSpline
210
0.0
220
0.0
230
1.0
 70
     8
 71
     3
 72
    11
 73
     7
 74
     0
 42
0.0000000001
 43
0.0000000001
 40
0.0
 40
0.0
 40
0.0
 40
0.0
 40
1.0
 40
1.0
 40
1.0
 40
2.0
 40
2.0
 40
2.0
 40
2.0
 10
217.1922001410144
 20
90.33998563551353
 30
0.0
 10
217.2264195854502
 20
90.33151896884854
 30
0.0
 10
217.260639029886
 20
90.32728563551669
 30
0.0
 10
217.2916834743226
 20
90.32728563551669
 30
0.0
 10
217.5128751409341
 20
90.32728563551669
 30
0.0
 10
217.6917334742226
 20
90.50684952436069
 30
0.0
 10
217.6917334742226
 20
90.72768841319444
 30
0.0
  0
SPLINE
  5
F9
330
70
100
AcDbEntity
  8
grau 10%
 62
     7
370
    35
100
AcDbSpline
210
0.0
220
0.0
230
1.0
 70
     8
 71
     3
 72
     8
 73
     4
 74
     0
 42
0.0000000001
 43
0.0000000001
 40
0.0
 40
0.0
 40
0.0
 40
0.0
 40
1.0
 40
1.0
 40
1.0
 40
1.0
 10
202.4199834780402
 20
90.42747452438041
 30
0.0
 10
202.4563195891426
 20
90.42747452438041
 30
0.0
 10
202.4919501446894
 20
90.43241341326778
 30
0.0
 10
202.5233473669038
 20
90.44088007993277
 30
0.0
  0
SPLINE
  5
FA
330
70
100
AcDbEntity
  8
grau 10%
 62
     7
370
    35
100
AcDbSpline
210
0.0
220
0.0
230
1.0
 70
     8
 71
     3
 72
     8
 73
     4
 74
     0
 42
0.0000000001
 43
0.0000000001
 40
0.0
 40
0.0
 40
0.0
 40
0.0
 40
1.0
 40
1.0
 40
1.0
 40
1.0
 10
202.5233473669038
 20
67.01431897467863
 30
0.0
 10
202.487716811357
 20
67.0234911968985
 30
0.0
 10
202.4520862558107
 20
67.02772453023036
 30
0.0
 10
202.4199834780402
 20
67.02772453023036
 30
0.0
  0
SPLINE
  5
FB
330
70
100
AcDbEntity
  8
grau 10%
 62
     7
370
    35
100
AcDbSpline
210
0.0
220
0.0
230
1.0
 70
     8
 71
     3
 72
     8
 73
     4
 74
     0
 42
0.0000000001
 43
0.0000000001
 40
0.0
 40
0.0
 40
0.0
 40
0.0
 40
1.0
 40
1.0
 40
1.0
 40
1.0
 10
163.0916112656501
 20
95.1278856343166
 30
0.0
 10
163.0916112656501
 20
95.45879118978946
 30
0.0
 10
162.8235001546066
 20
95.72760785638914
 30
0.0
 10
162.4918890435782
 20
95.72760785638914
 30
0.0
  0
SPLINE
  5
FC
330
70
100
AcDbEntity
  8
grau 10%
 62
     7
370
    35
100
AcDbSpline
210
0.0
220
0.0
230
1.0
 70
     8
 71
     3
 72
     8
 73
     4
 74
     0
 42
0.0000000001
 43
0.0000000001
 40
0.0
 40
0.0
 40
0.0
 40
0.0
 40
1.0
 40
1.0
 40
1.0
 40
1.0
 10
162.4918890435782
 20
61.72759119822226
 30
0.0
 10
162.8235001546066
 20
61.72759119822226
 30
0.0
 10
163.0916112656501
 20
61.99640786482195
 30
0.0
 10
163.0916112656501
 20
62.32731342029481
 30
0.0
  0
LWPOLYLINE
  5
FD
330
70
100
AcDbEntity
  8
grau 10%
 62
     7
370
    35
100
AcDbPolyline
 90
        7
 70
     0
 43
0.0
 10
146.9788390474564
 20
93.72771063466695
 10
146.725544603075
 20
93.72771063466695
 10
146.2997418254042
 20
93.72771063466695
 10
146.1325251587792
 20
93.72771063466695
 10
145.9977640477013
 20
93.72771063466695
 10
145.9003973810591
 20
93.72771063466695
 10
145.8256084921897
 20
93.72771063466695
  0
LWPOLYLINE
  5
FE
330
70
100
AcDbEntity
  8
grau 10%
 62
     7
370
    35
100
AcDbPolyline
 90
       25
 70
     0
 43
0.0
 10
144.0917057148451
 20
66.72751064141697
 10
144.0917057148451
 20
66.83016897472437
 10
144.0917057148451
 20
67.13638008575843
 10
144.0917057148451
 20
67.64085230785529
 10
144.0917057148451
 20
68.33547175212577
 10
144.0917057148451
 20
69.20718564079656
 10
144.0917057148451
 20
70.24258841831596
 10
144.0917057148451
 20
71.42227730690962
 10
144.0917057148451
 20
72.7275550843607
 10
144.0917057148451
 20
74.1351384173427
 10
144.0917057148451
 20
75.62174397252658
 10
144.0917057148451
 20
77.16161897214154
 10
144.0917057148451
 20
78.72795230508282
 10
144.0917057148451
 20
80.29358008246987
 10
144.0917057148451
 20
81.83345508208418
 10
144.0917057148451
 20
83.32006063726806
 10
144.0917057148451
 20
84.72764397025008
 10
144.0917057148451
 20
86.0329217477018
 10
144.0917057148451
 20
87.21261063629546
 10
144.0917057148451
 20
88.24801341381419
 10
144.0917057148451
 20
89.11972730248564
 10
144.0917057148451
 20
89.81434674675613
 10
144.0917057148451
 20
90.31881896885234
 10
144.0917057148451
 20
90.62503007988702
 10
144.0917057148451
 20
90.72768841319444
  0
LWPOLYLINE
  5
FF
330
70
100
AcDbEntity
  8
grau 10%
 62
     7
370
    35
100
AcDbPolyline
 90
       29
 70
     0
 43
0.0
 10
163.0916112656501
 20
95.1278856343166
 10
163.0916112656501
 20
95.02452174545366
 10
163.0916112656501
 20
94.7165467455308
 10
163.0916112656501
 20
94.20713563454658
 10
163.0916112656501
 20
93.50334396805557
 10
163.0916112656501
 20
92.61363841272279
 10
163.0916112656501
 20
91.54930785743337
 10
163.0916112656501
 20
90.32411063551746
 10
163.0916112656501
 20
88.95251063586071
 10
163.0916112656501
 20
87.45320508067999
 10
163.0916112656501
 20
85.84312730330399
 10
163.0916112656501
 20
84.1445023037291
 10
163.0916112656501
 20
82.37708563750421
 10
163.0916112656501
 20
80.56416063795706
 10
163.0916112656501
 20
78.72795230508282
 10
163.0916112656501
 20
76.89103841665368
 10
163.0916112656501
 20
75.07811341710719
 10
163.0916112656501
 20
73.3106967508823
 10
163.0916112656501
 20
71.61207175130678
 10
163.0916112656501
 20
70.00199397393142
 10
163.0916112656501
 20
68.50268841875069
 10
163.0916112656501
 20
67.13108841909394
 10
163.0916112656501
 20
65.90589119717802
 10
163.0916112656501
 20
64.84156064188798
 10
163.0916112656501
 20
63.95185508655519
 10
163.0916112656501
 20
63.24806342006419
 10
163.0916112656501
 20
62.73865230908061
 10
163.0916112656501
 20
62.4306773091571
 10
163.0916112656501
 20
62.32731342029481
  0
LWPOLYLINE
  5
100
330
70
100
AcDbEntity
  8
grau 10%
 62
     7
370
    35
100
AcDbPolyline
 90
        7
 70
     0
 43
0.0
 10
145.8256084921897
 20
63.72748841994447
 10
145.8238446033009
 20
63.72748841994447
 10
145.8453640477399
 20
63.72748841994447
 10
146.0005862699228
 20
63.72748841994447
 10
146.2986834920709
 20
63.72748841994447
 10
146.7244862697424
 20
63.72748841994447
 10
146.9788390474564
 20
63.72748841994447
  0
LWPOLYLINE
  5
101
330
70
100
AcDbEntity
  8
grau 10%
 62
     7
370
    35
100
AcDbPolyline
 90
       10
 70
     0
 43
0.0
 10
146.9788390474564
 20
64.2996939753574
 10
146.4454390475902
 20
66.21809953043274
 10
146.1117112698958
 20
67.85110786335811
 10
145.914508492167
 20
69.34618008520634
 10
145.829136269966
 20
70.77634119595995
 10
145.8485390477391
 20
72.20861897338012
 10
145.9794196032623
 20
73.70157452856243
 10
146.2189557143135
 20
75.19453008374473
 10
146.555858492007
 20
76.67901897226204
 10
146.9788390474564
 20
78.15574674967054
  0
LWPOLYLINE
  5
102
330
70
100
AcDbEntity
  8
grau 10%
 62
     7
370
    35
100
AcDbPolyline
 90
       10
 70
     0
 43
0.0
 10
146.9788390474564
 20
79.29945230494023
 10
146.4454390475902
 20
81.21785786001622
 10
146.1117112698958
 20
82.85121897071936
 10
145.918036269944
 20
84.30607452591047
 10
145.8298418255215
 20
85.75634396999262
 10
145.8485390477391
 20
87.20908285851846
 10
145.9794196032623
 20
88.70098008036814
 10
146.2189557143135
 20
90.1949939688831
 10
146.555858492007
 20
91.67913007962329
 10
146.9788390474564
 20
93.15550507925401
  0
LWPOLYLINE
  5
103
330
70
100
AcDbEntity
  8
grau 10%
 62
     7
370
    35
100
AcDbPolyline
 90
       37
 70
     0
 43
0.0
 10
156.0917946007338
 20
95.72760785638914
 10
156.0917946007338
 20
95.60025507864294
 10
156.0917946007338
 20
95.22031341207085
 10
156.0917946007338
 20
94.59272174556156
 10
156.0917946007338
 20
93.72771063466695
 10
146.9788390474564
 20
93.72771063466695
 10
146.9788390474564
 20
93.44972174584738
 10
146.9788390474564
 20
93.15550507925401
 10
156.0917946007338
 20
93.15550507925401
 10
156.0917946007338
 20
91.94935785733337
 10
156.0917946007338
 20
90.5442439687957
 10
156.0917946007338
 20
88.96274119141324
 10
156.0917946007338
 20
87.22778008073598
 10
156.0917946007338
 20
85.36476063675763
 10
156.0917946007338
 20
83.40331619280309
 10
156.0917946007338
 20
81.37131619331166
 10
156.0917946007338
 20
79.29945230494023
 10
146.9788390474564
 20
79.29945230494023
 10
146.9788390474564
 20
78.72795230508282
 10
146.9788390474564
 20
78.15574674967054
 10
156.0917946007338
 20
78.15574674967054
 10
156.0917946007338
 20
76.08388286129976
 10
156.0917946007338
 20
74.05188286180768
 10
156.0917946007338
 20
72.09043841785377
 10
156.0917946007338
 20
70.22741897387543
 10
156.0917946007338
 20
68.49245786319753
 10
156.0917946007338
 20
66.91095508581506
 10
156.0917946007338
 20
65.50584119727803
 10
156.0917946007338
 20
64.2996939753574
 10
146.9788390474564
 20
64.2996939753574
 10
146.9788390474564
 20
64.00547730876337
 10
146.9788390474564
 20
63.72748841994447
 10
156.0917946007338
 20
63.72748841994447
 10
156.0917946007338
 20
62.86247730904985
 10
156.0917946007338
 20
62.23488564253992
 10
156.0917946007338
 20
61.85494397596848
 10
156.0917946007338
 20
61.72759119822226
  0
LWPOLYLINE
  5
104
330
70
100
AcDbEntity
  8
grau 10%
 62
     7
370
    35
100
AcDbPolyline
 90
       22
 70
     0
 43
0.0
 10
201.0921279228169
 20
61.72759119822226
 10
201.0921279228169
 20
62.87411897571341
 10
201.0921279228169
 20
64.18680508649619
 10
201.0921279228169
 20
65.65224397501888
 10
201.0921279228169
 20
67.25420786350766
 10
201.0921279228169
 20
68.97682175196583
 10
201.0921279228169
 20
70.80138841817587
 10
201.0921279228169
 20
72.70885786214383
 10
201.0921279228169
 20
74.68018008387248
 10
201.0921279228169
 20
76.69277730559217
 10
201.0921279228169
 20
78.72795230508282
 10
201.0921279228169
 20
80.76242174901858
 10
201.0921279228169
 20
82.77501897073827
 10
201.0921279228169
 20
84.74634119246758
 10
201.0921279228169
 20
86.65381063643488
 10
201.0921279228169
 20
88.47837730264558
 10
201.0921279228169
 20
90.20099119110374
 10
201.0921279228169
 20
91.80295507959254
 10
201.0921279228169
 20
93.26839396811458
 10
201.0921279228169
 20
94.581080078898
 10
201.0921279228169
 20
95.72760785638914
 10
185.4090390378494
 20
95.72760785638914
  0
LWPOLYLINE
  5
105
330
70
100
AcDbEntity
  8
grau 10%
 62
     7
370
    35
100
AcDbPolyline
 90
        5
 70
     0
 43
0.0
 10
201.5920140338029
 20
95.72760785638914
 10
201.4699529227231
 20
95.72760785638914
 10
201.3454223671983
 20
95.72760785638914
 10
201.2194807005631
 20
95.72760785638914
 10
201.0921279228169
 20
95.72760785638914
  0
LWPOLYLINE
  5
106
330
70
100
AcDbEntity
  8
grau 10%
 62
     7
370
    35
100
AcDbPolyline
 90
        6
 70
     0
 43
0.0
 10
185.4090390378494
 20
61.72759119822226
 10
201.0921279228169
 20
61.72759119822226
 10
201.2194807005631
 20
61.72759119822226
 10
201.3454223671983
 20
61.72759119822226
 10
201.4699529227231
 20
61.72759119822226
 10
201.5920140338029
 20
61.72759119822226
  0
LWPOLYLINE
  5
107
330
70
100
AcDbEntity
  8
grau 10%
 62
     7
370
    35
100
AcDbPolyline
 90
       25
 70
     0
 43
0.0
 10
207.5917056989701
 20
66.72751064141697
 10
207.5917056989701
 20
66.83016897472437
 10
207.5917056989701
 20
67.13638008575843
 10
207.5917056989701
 20
67.64085230785529
 10
207.5917056989701
 20
68.33547175212577
 10
207.5917056989701
 20
69.20718564079656
 10
207.5917056989701
 20
70.24258841831596
 10
207.5917056989701
 20
71.42227730690962
 10
207.5917056989701
 20
72.7275550843607
 10
207.5917056989701
 20
74.1351384173427
 10
207.5917056989701
 20
75.62174397252658
 10
207.5917056989701
 20
77.16161897214154
 10
207.5917056989701
 20
78.72795230508282
 10
207.5917056989701
 20
80.29358008246987
 10
207.5917056989701
 20
81.83345508208418
 10
207.5917056989701
 20
83.32006063726806
 10
207.5917056989701
 20
84.72764397025008
 10
207.5917056989701
 20
86.0329217477018
 10
207.5917056989701
 20
87.21261063629546
 10
207.5917056989701
 20
88.24801341381419
 10
207.5917056989701
 20
89.11972730248564
 10
207.5917056989701
 20
89.81434674675613
 10
207.5917056989701
 20
90.31881896885234
 10
207.5917056989701
 20
90.62503007988702
 10
207.5917056989701
 20
90.72768841319444
  0
LWPOLYLINE
  5
108
330
70
100
AcDbEntity
  8
grau 10%
 62
     7
370
    35
100
AcDbPolyline
 90
       21
 70
     0
 43
0.0
 10
185.4090390378494
 20
61.72759119822226
 10
185.4090390378494
 20
62.87411897571341
 10
185.4090390378494
 20
64.18680508649619
 10
185.4090390378494
 20
65.65224397501888
 10
185.4090390378494
 20
67.25420786350766
 10
185.4090390378494
 20
68.97682175196583
 10
185.4090390378494
 20
70.80138841817587
 10
185.4090390378494
 20
72.70885786214383
 10
185.4090390378494
 20
74.68018008387248
 10
185.4090390378494
 20
76.69277730559217
 10
185.4090390378494
 20
78.72795230508282
 10
185.4090390378494
 20
80.76242174901858
 10
185.4090390378494
 20
82.77501897073827
 10
185.4090390378494
 20
84.74634119246758
 10
185.4090390378494
 20
86.65381063643488
 10
185.4090390378494
 20
88.47837730264558
 10
185.4090390378494
 20
90.20099119110374
 10
185.4090390378494
 20
91.80295507959254
 10
185.4090390378494
 20
93.26839396811458
 10
185.4090390378494
 20
94.581080078898
 10
185.4090390378494
 20
95.72760785638914
  0
LWPOLYLINE
  5
109
330
70
100
AcDbEntity
  8
grau 10%
 62
     7
370
    35
100
AcDbPolyline
 90
       25
 70
     0
 43
0.0
 10
203.5922640333035
 20
66.72751064141697
 10
203.5922640333035
 20
66.83016897472437
 10
203.5922640333035
 20
67.13638008575843
 10
203.5922640333035
 20
67.64085230785529
 10
203.5922640333035
 20
68.33547175212577
 10
203.5922640333035
 20
69.20718564079656
 10
203.5922640333035
 20
70.24258841831596
 10
203.5922640333035
 20
71.42227730690962
 10
203.5922640333035
 20
72.7275550843607
 10
203.5922640333035
 20
74.1351384173427
 10
203.5922640333035
 20
75.62174397252658
 10
203.5922640333035
 20
77.16161897214154
 10
203.5922640333035
 20
78.72795230508282
 10
203.5922640333035
 20
80.29358008246987
 10
203.5922640333035
 20
81.83345508208418
 10
203.5922640333035
 20
83.32006063726806
 10
203.5922640333035
 20
84.72764397025008
 10
203.5922640333035
 20
86.0329217477018
 10
203.5922640333035
 20
87.21261063629546
 10
203.5922640333035
 20
88.24801341381419
 10
203.5922640333035
 20
89.11972730248564
 10
203.5922640333035
 20
89.81434674675613
 10
203.5922640333035
 20
90.31881896885234
 10
203.5922640333035
 20
90.62503007988702
 10
203.5922640333035
 20
90.72768841319444
  0
LWPOLYLINE
  5
10A
330
70
100
AcDbEntity
  8
grau 10%
 62
     7
370
    35
100
AcDbPolyline
 90
       21
 70
     0
 43
0.0
 10
201.5920140338029
 20
95.72760785638914
 10
201.5920140338029
 20
94.63434952332843
 10
201.5920140338029
 20
93.35976341253681
 10
201.5920140338029
 20
91.91831341289677
 10
201.5920140338029
 20
90.32658007996117
 10
201.5920140338029
 20
88.60255508039195
 10
201.5920140338029
 20
86.76634674751833
 10
201.5920140338029
 20
84.83806341466694
 10
201.5920140338029
 20
82.84028285961067
 10
201.5920140338029
 20
80.79558286012176
 10
201.5920140338029
 20
78.72795230508282
 10
201.5920140338029
 20
76.65961619448902
 10
201.5920140338029
 20
74.61491619500073
 10
201.5920140338029
 20
72.61713563994383
 10
201.5920140338029
 20
70.68885230709307
 10
201.5920140338029
 20
68.85264397421882
 10
201.5920140338029
 20
67.12861897464961
 10
201.5920140338029
 20
65.53688564171463
 10
201.5920140338029
 20
64.09543564207457
 10
201.5920140338029
 20
62.82084953128234
 10
201.5920140338029
 20
61.72759119822226
  0
LWPOLYLINE
  5
10B
330
70
100
AcDbEntity
  8
grau 10%
 62
     7
370
    35
100
AcDbPolyline
 90
       25
 70
     0
 43
0.0
 10
172.5919168188313
 20
66.22727175265326
 10
172.5919168188313
 20
66.33486897484805
 10
172.5919168188313
 20
66.65378008587959
 10
172.5919168188313
 20
67.17941897463699
 10
172.5919168188313
 20
67.90226064112326
 10
172.5919168188313
 20
68.8110161964513
 10
172.5919168188313
 20
69.88910508507085
 10
172.5919168188313
 20
71.11783008476308
 10
172.5919168188313
 20
72.47743563997916
 10
172.5919168188313
 20
73.9442856396129
 10
172.5919168188313
 20
75.49262730589219
 10
172.5919168188313
 20
77.09635508326851
 10
172.5919168188313
 20
78.72795230508282
 10
172.5919168188313
 20
80.35884397134227
 10
172.5919168188313
 20
81.96257174871858
 10
172.5919168188313
 20
83.5109134149985
 10
172.5919168188313
 20
84.97776341463225
 10
172.5919168188313
 20
86.33736896984768
 10
172.5919168188313
 20
87.56609396953992
 10
172.5919168188313
 20
88.64418285816009
 10
172.5919168188313
 20
89.55293841348815
 10
172.5919168188313
 20
90.27578007997442
 10
172.5919168188313
 20
90.80141896873183
 10
172.5919168188313
 20
91.12033007976272
 10
172.5919168188313
 20
91.22792730195815
  0
LWPOLYLINE
  5
10C
330
70
100
AcDbEntity
  8
grau 10%
 62
     7
370
    35
100
AcDbPolyline
 90
       25
 70
     0
 43
0.0
 10
209.7916279206426
 20
66.72751064141697
 10
209.7916279206426
 20
66.83016897472437
 10
209.7916279206426
 20
67.13638008575843
 10
209.7916279206426
 20
67.64085230785529
 10
209.7916279206426
 20
68.33547175212577
 10
209.7916279206426
 20
69.20718564079656
 10
209.7916279206426
 20
70.24258841831596
 10
209.7916279206426
 20
71.42227730690962
 10
209.7916279206426
 20
72.7275550843607
 10
209.7916279206426
 20
74.1351384173427
 10
209.7916279206426
 20
75.62174397252658
 10
209.7916279206426
 20
77.16161897214154
 10
209.7916279206426
 20
78.72795230508282
 10
209.7916279206426
 20
80.29358008246987
 10
209.7916279206426
 20
81.83345508208418
 10
209.7916279206426
 20
83.32006063726806
 10
209.7916279206426
 20
84.72764397025008
 10
209.7916279206426
 20
86.0329217477018
 10
209.7916279206426
 20
87.21261063629546
 10
209.7916279206426
 20
88.24801341381419
 10
209.7916279206426
 20
89.11972730248564
 10
209.7916279206426
 20
89.81434674675613
 10
209.7916279206426
 20
90.31881896885234
 10
209.7916279206426
 20
90.62503007988702
 10
209.7916279206426
 20
90.72768841319444
  0
LWPOLYLINE
  5
10D
330
70
100
AcDbEntity
  8
grau 10%
 62
     7
370
    35
100
AcDbPolyline
 90
       25
 70
     0
 43
0.0
 10
218.0917834741226
 20
66.72751064141697
 10
218.0917834741226
 20
66.83016897472437
 10
218.0917834741226
 20
67.13638008575843
 10
218.0917834741226
 20
67.64085230785529
 10
218.0917834741226
 20
68.33547175212577
 10
218.0917834741226
 20
69.20718564079656
 10
218.0917834741226
 20
70.24258841831596
 10
218.0917834741226
 20
71.42227730690962
 10
218.0917834741226
 20
72.7275550843607
 10
218.0917834741226
 20
74.1351384173427
 10
218.0917834741226
 20
75.62174397252658
 10
218.0917834741226
 20
77.16161897214154
 10
218.0917834741226
 20
78.72795230508282
 10
218.0917834741226
 20
80.29358008246987
 10
218.0917834741226
 20
81.83345508208418
 10
218.0917834741226
 20
83.32006063726806
 10
218.0917834741226
 20
84.72764397025008
 10
218.0917834741226
 20
86.0329217477018
 10
218.0917834741226
 20
87.21261063629546
 10
218.0917834741226
 20
88.24801341381419
 10
218.0917834741226
 20
89.11972730248564
 10
218.0917834741226
 20
89.81434674675613
 10
218.0917834741226
 20
90.31881896885234
 10
218.0917834741226
 20
90.62503007988702
 10
218.0917834741226
 20
90.72768841319444
  0
LWPOLYLINE
  5
10E
330
70
100
AcDbEntity
  8
grau 10%
 62
     7
370
    35
100
AcDbPolyline
 90
       24
 70
     0
 43
0.0
 10
219.5921473626366
 20
89.86161896896653
 10
219.5921473626366
 20
89.75754952454808
 10
219.5921473626366
 20
89.4488689690697
 10
219.5921473626366
 20
88.93981063586387
 10
219.5921473626366
 20
88.2409578582609
 10
219.5921473626366
 20
87.36430508070206
 10
219.5921473626366
 20
86.32713841429453
 10
219.5921473626366
 20
85.1485078590335
 10
219.5921473626366
 20
83.84993285935861
 10
219.5921473626366
 20
82.45610785970674
 10
219.5921473626366
 20
80.99313841562837
 10
219.5921473626366
 20
79.48713008267147
 10
219.5921473626366
 20
77.96806897193994
 10
219.5921473626366
 20
76.46206063898303
 10
219.5921473626366
 20
74.99909119490467
 10
219.5921473626366
 20
73.6052661952528
 10
219.5921473626366
 20
72.30669119557727
 10
219.5921473626366
 20
71.12806064031689
 10
219.5921473626366
 20
70.09089397390869
 10
219.5921473626366
 20
69.21424119635052
 10
219.5921473626366
 20
68.51538841874753
 10
219.5921473626366
 20
68.00633008554171
 10
219.5921473626366
 20
67.69764953006333
 10
219.5921473626366
 20
67.59358008564487
  0
LWPOLYLINE
  5
10F
330
70
100
AcDbEntity
  8
grau 10%
 62
     7
370
    35
100
AcDbPolyline
 90
       25
 70
     0
 43
0.0
 10
217.6917334742226
 20
66.72751064141697
 10
217.6917334742226
 20
66.83016897472437
 10
217.6917334742226
 20
67.13638008575843
 10
217.6917334742226
 20
67.64085230785529
 10
217.6917334742226
 20
68.33547175212577
 10
217.6917334742226
 20
69.20718564079656
 10
217.6917334742226
 20
70.24258841831596
 10
217.6917334742226
 20
71.42227730690962
 10
217.6917334742226
 20
72.7275550843607
 10
217.6917334742226
 20
74.1351384173427
 10
217.6917334742226
 20
75.62174397252658
 10
217.6917334742226
 20
77.16161897214154
 10
217.6917334742226
 20
78.72795230508282
 10
217.6917334742226
 20
80.29358008246987
 10
217.6917334742226
 20
81.83345508208418
 10
217.6917334742226
 20
83.32006063726806
 10
217.6917334742226
 20
84.72764397025008
 10
217.6917334742226
 20
86.0329217477018
 10
217.6917334742226
 20
87.21261063629546
 10
217.6917334742226
 20
88.24801341381419
 10
217.6917334742226
 20
89.11972730248564
 10
217.6917334742226
 20
89.81434674675613
 10
217.6917334742226
 20
90.31881896885234
 10
217.6917334742226
 20
90.62503007988702
 10
217.6917334742226
 20
90.72768841319444
  0
LWPOLYLINE
  5
110
330
70
100
AcDbEntity
  8
grau 10%
 62
     7
370
    35
100
AcDbPolyline
 90
       25
 70
     0
 43
0.0
 10
215.6918362525004
 20
66.72751064141697
 10
215.6918362525004
 20
66.83016897472437
 10
215.6918362525004
 20
67.13638008575843
 10
215.6918362525004
 20
67.64085230785529
 10
215.6918362525004
 20
68.33547175212577
 10
215.6918362525004
 20
69.20718564079656
 10
215.6918362525004
 20
70.24258841831596
 10
215.6918362525004
 20
71.42227730690962
 10
215.6918362525004
 20
72.7275550843607
 10
215.6918362525004
 20
74.1351384173427
 10
215.6918362525004
 20
75.62174397252658
 10
215.6918362525004
 20
77.16161897214154
 10
215.6918362525004
 20
78.72795230508282
 10
215.6918362525004
 20
80.29358008246987
 10
215.6918362525004
 20
81.83345508208418
 10
215.6918362525004
 20
83.32006063726806
 10
215.6918362525004
 20
84.72764397025008
 10
215.6918362525004
 20
86.0329217477018
 10
215.6918362525004
 20
87.21261063629546
 10
215.6918362525004
 20
88.24801341381419
 10
215.6918362525004
 20
89.11972730248564
 10
215.6918362525004
 20
89.81434674675613
 10
215.6918362525004
 20
90.31881896885234
 10
215.6918362525004
 20
90.62503007988702
 10
215.6918362525004
 20
90.72768841319444
  0
LWPOLYLINE
  5
111
330
70
100
AcDbEntity
  8
grau 10%
 62
     7
370
    35
100
AcDbPolyline
 90
       12
 70
     0
 43
0.0
 10
185.4090390378494
 20
61.72759119822226
 10
184.8841057046468
 20
61.72759119822226
 10
183.8765723715655
 20
61.72759119822226
 10
183.397500149463
 20
61.72759119822226
 10
183.0309640384439
 20
61.72759119822226
 10
182.3430473719483
 20
61.72759119822226
 10
181.7267445943255
 20
61.72759119822226
 10
181.1926390389031
 20
61.72759119822226
 10
180.963333483405
 20
61.72759119822226
 10
180.5766890390573
 20
61.72759119822226
 10
180.4786168168589
 20
61.72759119822226
 10
180.3904223724365
 20
61.72759119822226
  0
LWPOLYLINE
  5
112
330
70
100
AcDbEntity
  8
grau 10%
 62
     7
370
    35
100
AcDbPolyline
 90
       13
 70
     0
 43
0.0
 10
180.3995945946564
 20
95.72760785638914
 10
180.4701501501952
 20
95.72760785638914
 10
180.5650473723931
 20
95.72760785638914
 10
180.7763612612293
 20
95.72760785638914
 10
180.963333483405
 20
95.72760785638914
 10
181.1799390389062
 20
95.72760785638914
 10
181.6953473721111
 20
95.72760785638914
 10
182.3024779275141
 20
95.72760785638914
 10
183.0073279273384
 20
95.72760785638914
 10
183.397500149463
 20
95.72760785638914
 10
183.8748084826773
 20
95.72760785638914
 10
184.882341815758
 20
95.72760785638914
 10
185.4090390378494
 20
95.72760785638914
  0
SPLINE
  5
114
330
70
100
AcDbEntity
  8
Standardebene
 62
     7
370
     9
100
AcDbSpline
210
0.0
220
0.0
230
1.0
 70
     8
 71
     3
 72
    17
 73
    13
 74
     0
 42
0.0000000001
 43
0.0000000001
 40
0.0
 40
0.0
 40
0.0
 40
0.0
 40
1.0
 40
1.0
 40
1.0
 40
2.0
 40
2.0
 40
2.0
 40
3.0
 40
3.0
 40
3.0
 40
4.0
 40
4.0
 40
4.0
 40
4.0
 10
282.524644569119
 20
158.9874328405702
 30
0.0
 10
282.2579445691858
 20
159.0586939516635
 30
0.0
 10
281.9901862359195
 20
159.0922078405438
 30
0.0
 10
281.7485334582016
 20
159.0893856183224
 30
0.0
 10
280.0918890141714
 20
159.0893856183224
 30
0.0
 10
278.7485112367298
 20
157.7463606186582
 30
0.0
 10
278.7485112367298
 20
156.0893633968502
 30
0.0
 10
278.7485112367298
 20
154.4330717305977
 30
0.0
 10
280.0918890141714
 20
153.0900467309335
 30
0.0
 10
281.7485334582016
 20
153.0900467309335
 30
0.0
 10
283.1293056800795
 20
153.0900467309335
 30
0.0
 10
284.2917084575661
 20
154.0227911751445
 30
0.0
 10
284.6462501241438
 20
155.3128995081554
 30
0.0
  0
LINE
  5
115
330
70
100
AcDbEntity
  8
Standardebene
 62
     7
370
    35
100
AcDbLine
 10
208.0750112544051
 20
144.0896272887389
 30
0.0
 11
209.3083223652076
 21
144.0896272887389
 31
0.0
  0
LINE
  5
116
330
70
100
AcDbEntity
  8
Standardebene
 62
     7
370
    35
100
AcDbLine
 10
209.3083223652076
 20
168.089805060517
 30
0.0
 11
208.0750112544051
 21
168.089805060517
 31
0.0
  0
LINE
  5
117
330
70
100
AcDbEntity
  8
Standardebene
 62
     7
370
     9
100
AcDbLine
 10
156.0917946007338
 20
143.5893883999752
 30
0.0
 11
156.5295918228466
 21
143.5893883999752
 31
0.0
  0
LINE
  5
118
330
70
100
AcDbEntity
  8
Standardebene
 62
     7
370
     9
100
AcDbLine
 10
157.4044807115166
 20
143.5893883999752
 30
0.0
 11
158.279722377965
 21
143.5893883999752
 31
0.0
  0
LINE
  5
119
330
70
100
AcDbEntity
  8
Standardebene
 62
     7
370
     9
100
AcDbLine
 10
159.1542584888566
 20
143.5893883999752
 30
0.0
 11
160.0291473775273
 21
143.5893883999752
 31
0.0
  0
LINE
  5
11A
330
70
100
AcDbEntity
  8
Standardebene
 62
     7
370
     9
100
AcDbLine
 10
160.9043890439751
 20
143.5893883999752
 30
0.0
 11
161.7796307104228
 21
143.5893883999752
 31
0.0
  0
LWPOLYLINE
  5
11B
330
70
100
AcDbEntity
  8
Standardebene
 62
     7
370
     9
100
AcDbPolyline
 90
        3
 70
     0
 43
0.0
 10
162.6548723768712
 20
143.5893883999752
 10
163.0923168212063
 20
143.5893883999752
 10
163.5671557099756
 20
143.5893883999752
  0
LINE
  5
11C
330
70
100
AcDbEntity
  8
Standardebene
 62
     7
370
     9
100
AcDbLine
 10
164.5168334875163
 20
143.5893883999752
 30
0.0
 11
165.4668640428341
 21
143.5893883999752
 31
0.0
  0
LINE
  5
11D
330
70
100
AcDbEntity
  8
Standardebene
 62
     7
370
     9
100
AcDbLine
 10
166.4172473759303
 20
143.5893883999752
 30
0.0
 11
167.3672779312481
 21
143.5893883999752
 31
0.0
  0
LINE
  5
11E
330
70
100
AcDbEntity
  8
Standardebene
 62
     7
370
     9
100
AcDbLine
 10
168.3169557087882
 20
143.5893883999752
 30
0.0
 11
169.2666334863288
 21
143.5893883999752
 31
0.0
  0
LINE
  5
11F
330
70
100
AcDbEntity
  8
Standardebene
 62
     7
370
     9
100
AcDbLine
 10
170.2166640416466
 20
143.5893883999752
 30
0.0
 11
171.1670473747429
 21
143.5893883999752
 31
0.0
  0
LINE
  5
120
330
70
100
AcDbEntity
  8
Standardebene
 62
     7
370
     9
100
AcDbLine
 10
172.1170779300607
 20
143.5893883999752
 30
0.0
 11
172.5919168188313
 21
143.5893883999752
 31
0.0
  0
LINE
  5
121
330
70
100
AcDbEntity
  8
Standardebene
 62
     7
370
     9
100
AcDbLine
 10
172.5919168188313
 20
168.5900439492807
 30
0.0
 11
172.1170779300607
 21
168.5900439492807
 31
0.0
  0
LINE
  5
122
330
70
100
AcDbEntity
  8
Standardebene
 62
     7
370
     9
100
AcDbLine
 10
171.1670473747429
 20
168.5900439492807
 30
0.0
 11
170.2166640416466
 21
168.5900439492807
 31
0.0
  0
LINE
  5
123
330
70
100
AcDbEntity
  8
Standardebene
 62
     7
370
     9
100
AcDbLine
 10
169.2666334863288
 20
168.5900439492807
 30
0.0
 11
168.3169557087882
 21
168.5900439492807
 31
0.0
  0
LINE
  5
124
330
70
100
AcDbEntity
  8
Standardebene
 62
     7
370
     9
100
AcDbLine
 10
167.3672779312481
 20
168.5900439492807
 30
0.0
 11
166.4172473759303
 21
168.5900439492807
 31
0.0
  0
LINE
  5
125
330
70
100
AcDbEntity
  8
Standardebene
 62
     7
370
     9
100
AcDbLine
 10
165.4668640428341
 20
168.5900439492807
 30
0.0
 11
164.5168334875163
 21
168.5900439492807
 31
0.0
  0
LWPOLYLINE
  5
126
330
70
100
AcDbEntity
  8
Standardebene
 62
     7
370
     9
100
AcDbPolyline
 90
        3
 70
     0
 43
0.0
 10
163.5671557099756
 20
168.5900439492807
 10
163.0923168212063
 20
168.5900439492807
 10
162.6548723768712
 20
168.5900439492807
  0
LINE
  5
127
330
70
100
AcDbEntity
  8
Standardebene
 62
     7
370
     9
100
AcDbLine
 10
161.7796307104228
 20
168.5900439492807
 30
0.0
 11
160.9043890439751
 21
168.5900439492807
 31
0.0
  0
LINE
  5
128
330
70
100
AcDbEntity
  8
Standardebene
 62
     7
370
     9
100
AcDbLine
 10
160.0291473775273
 20
168.5900439492807
 30
0.0
 11
159.1542584888566
 21
168.5900439492807
 31
0.0
  0
LINE
  5
129
330
70
100
AcDbEntity
  8
Standardebene
 62
     7
370
     9
100
AcDbLine
 10
158.279722377965
 20
168.5900439492807
 30
0.0
 11
157.4044807115166
 21
168.5900439492807
 31
0.0
  0
LWPOLYLINE
  5
12A
330
70
100
AcDbEntity
  8
Standardebene
 62
     7
370
     9
100
AcDbPolyline
 90
        3
 70
     0
 43
0.0
 10
156.5295918228466
 20
168.5900439492807
 10
156.0917946007338
 20
168.5900439492807
 10
155.9672640452097
 20
168.4648078382007
  0
LINE
  5
12B
330
70
100
AcDbEntity
  8
Standardebene
 62
     7
370
     9
100
AcDbLine
 10
155.7171446008275
 20
168.2146883938189
 30
0.0
 11
155.592261267525
 21
168.089805060517
 31
0.0
  0
LINE
  5
12C
330
70
100
AcDbEntity
  8
Standardebene
 62
     7
370
     9
100
AcDbLine
 10
155.592261267525
 20
144.0896272887389
 30
0.0
 11
155.7171446008275
 21
143.9643911776593
 31
0.0
  0
LINE
  5
12D
330
70
100
AcDbEntity
  8
Standardebene
 62
     7
370
     9
100
AcDbLine
 10
155.9672640452097
 20
143.7146245110552
 30
0.0
 11
156.0917946007338
 21
143.5893883999752
 31
0.0
  0
LINE
  5
12E
330
70
100
AcDbEntity
  8
Standardebene
 62
     7
370
     9
100
AcDbLine
 10
155.592261267525
 20
145.9148995105054
 30
0.0
 11
155.6917446008338
 21
145.9724022882683
 31
0.0
  0
LINE
  5
12F
330
70
100
AcDbEntity
  8
Standardebene
 62
     7
370
     9
100
AcDbLine
 10
155.8917696007841
 20
146.0881133993507
 30
0.0
 11
155.9919584896472
 21
146.1456161771139
 31
0.0
  0
LINE
  5
130
330
70
100
AcDbEntity
  8
Standardebene
 62
     7
370
     9
100
AcDbLine
 10
155.9919584896472
 20
166.0334633943642
 30
0.0
 11
155.8917696007841
 21
166.0909661721274
 31
0.0
  0
LINE
  5
131
330
70
100
AcDbEntity
  8
Standardebene
 62
     7
370
     9
100
AcDbLine
 10
155.6917446008338
 20
166.2070300609875
 30
0.0
 11
155.592261267525
 21
166.264180060973
 31
0.0
  0
LINE
  5
132
330
70
100
AcDbEntity
  8
Standardebene
 62
     7
370
     9
100
AcDbLine
 10
155.9919584896472
 20
146.1456161771139
 30
0.0
 11
156.5080723784076
 21
146.218288399318
 31
0.0
  0
LINE
  5
133
330
70
100
AcDbEntity
  8
Standardebene
 62
     7
370
     9
100
AcDbLine
 10
157.5413584892604
 20
146.3639856215037
 30
0.0
 11
158.5746446001126
 21
146.5086245103563
 31
0.0
  0
LINE
  5
134
330
70
100
AcDbEntity
  8
Standardebene
 62
     7
370
     9
100
AcDbLine
 10
159.6075779331883
 20
146.6539689547645
 30
0.0
 11
160.6405112662634
 21
146.7993133991727
 31
0.0
  0
LINE
  5
135
330
70
100
AcDbEntity
  8
Standardebene
 62
     7
370
     9
100
AcDbLine
 10
161.6734445993385
 20
146.9443050658032
 30
0.0
 11
162.7063779324135
 21
147.0896495102114
 31
0.0
  0
LINE
  5
136
330
70
100
AcDbEntity
  8
Standardebene
 62
     7
370
     9
100
AcDbLine
 10
163.7393112654886
 20
147.2346411768418
 30
0.0
 11
164.7722445985636
 21
147.3799856212497
 31
0.0
  0
LINE
  5
137
330
70
100
AcDbEntity
  8
Standardebene
 62
     7
370
     9
100
AcDbLine
 10
165.8051779316387
 20
147.5253300656579
 30
0.0
 11
166.8381112647137
 21
147.6699689545106
 31
0.0
  0
LINE
  5
138
330
70
100
AcDbEntity
  8
Standardebene
 62
     7
370
     9
100
AcDbLine
 10
167.8710445977894
 20
147.8156661766965
 30
0.0
 11
168.9036251530867
 21
147.9603050655492
 31
0.0
  0
LINE
  5
139
330
70
100
AcDbEntity
  8
Standardebene
 62
     7
370
     9
100
AcDbLine
 10
169.9365584861611
 20
148.1056495099571
 30
0.0
 11
170.9694918192362
 21
148.2509939543653
 31
0.0
  0
LINE
  5
13A
330
70
100
AcDbEntity
  8
Standardebene
 62
     7
370
     9
100
AcDbLine
 10
172.0024251523113
 20
148.3959856209958
 30
0.0
 11
173.0353584853863
 21
148.5413300654039
 31
0.0
  0
LINE
  5
13B
330
70
100
AcDbEntity
  8
Standardebene
 62
     7
370
     9
100
AcDbLine
 10
174.068291818462
 20
148.6863217320344
 30
0.0
 11
175.1012251515371
 21
148.8316661764429
 31
0.0
  0
LINE
  5
13C
330
70
100
AcDbEntity
  8
Standardebene
 62
     7
370
     9
100
AcDbLine
 10
176.1341584846122
 20
148.9770106208505
 30
0.0
 11
177.1677973732427
 21
149.1216495097032
 31
0.0
  0
LINE
  5
13D
330
70
100
AcDbEntity
  8
Standardebene
 62
     7
370
     9
100
AcDbLine
 10
178.2007307063178
 20
149.2673467318891
 30
0.0
 11
178.7171973728553
 21
149.3400189540932
 31
0.0
  0
LINE
  5
13E
330
70
100
AcDbEntity
  8
Standardebene
 62
     7
370
     9
100
AcDbLine
 10
178.7171973728553
 20
162.8394133951627
 30
0.0
 11
178.2007307063178
 21
162.9120856173668
 31
0.0
  0
LINE
  5
13F
330
70
100
AcDbEntity
  8
Standardebene
 62
     7
370
     9
100
AcDbLine
 10
177.1677973732427
 20
163.0577828395524
 30
0.0
 11
176.1341584846122
 21
163.2024217284054
 31
0.0
  0
LINE
  5
140
330
70
100
AcDbEntity
  8
Standardebene
 62
     7
370
     9
100
AcDbLine
 10
175.1012251515371
 20
163.348118950591
 30
0.0
 11
174.068291818462
 21
163.4927578394437
 31
0.0
  0
LINE
  5
141
330
70
100
AcDbEntity
  8
Standardebene
 62
     7
370
     9
100
AcDbLine
 10
173.0353584853863
 20
163.6381022838519
 30
0.0
 11
172.0024251523113
 21
163.7834467282601
 31
0.0
  0
LINE
  5
142
330
70
100
AcDbEntity
  8
Standardebene
 62
     7
370
     9
100
AcDbLine
 10
170.9694918192362
 20
163.9284383948906
 30
0.0
 11
169.9365584861611
 21
164.0737828392988
 31
0.0
  0
LINE
  5
143
330
70
100
AcDbEntity
  8
Standardebene
 62
     7
370
     9
100
AcDbLine
 10
168.9036251530867
 20
164.2187745059289
 30
0.0
 11
167.8710445977894
 21
164.3641189503371
 31
0.0
  0
LINE
  5
144
330
70
100
AcDbEntity
  8
Standardebene
 62
     7
370
     9
100
AcDbLine
 10
166.8381112647137
 20
164.5094633947453
 30
0.0
 11
165.8051779316387
 21
164.654102283598
 31
0.0
  0
LINE
  5
145
330
70
100
AcDbEntity
  8
Standardebene
 62
     7
370
     9
100
AcDbLine
 10
164.7722445985636
 20
164.7997995057836
 30
0.0
 11
163.7393112654886
 21
164.9444383946363
 31
0.0
  0
LINE
  5
146
330
70
100
AcDbEntity
  8
Standardebene
 62
     7
370
     9
100
AcDbLine
 10
162.7063779324135
 20
165.0901356168223
 30
0.0
 11
161.6734445993385
 21
165.2347745056749
 31
0.0
  0
LINE
  5
147
330
70
100
AcDbEntity
  8
Standardebene
 62
     7
370
     9
100
AcDbLine
 10
160.6405112662634
 20
165.3801189500831
 30
0.0
 11
159.6075779331883
 21
165.5254633944913
 31
0.0
  0
LINE
  5
148
330
70
100
AcDbEntity
  8
Standardebene
 62
     7
370
     9
100
AcDbLine
 10
158.5746446001126
 20
165.6704550611221
 30
0.0
 11
157.5413584892604
 21
165.8157995055296
 31
0.0
  0
LINE
  5
149
330
70
100
AcDbEntity
  8
Standardebene
 62
     7
370
     9
100
AcDbLine
 10
156.5080723784076
 20
165.9611439499379
 30
0.0
 11
155.9919584896472
 21
166.0334633943642
 31
0.0
  0
LINE
  5
14A
330
70
100
AcDbEntity
  8
Standardebene
 62
     7
370
     9
100
AcDbLine
 10
185.5921307044697
 20
162.8394133951627
 30
0.0
 11
185.0188668157241
 21
162.8394133951627
 31
0.0
  0
LINE
  5
14B
330
70
100
AcDbEntity
  8
Standardebene
 62
     7
370
     9
100
AcDbLine
 10
183.8730445937885
 20
162.8394133951627
 30
0.0
 11
182.72757514963
 21
162.8394133951627
 31
0.0
  0
LINE
  5
14C
330
70
100
AcDbEntity
  8
Standardebene
 62
     7
370
     9
100
AcDbLine
 10
181.581752927695
 20
162.8394133951627
 30
0.0
 11
180.4359307057588
 21
162.8394133951627
 31
0.0
  0
LINE
  5
14D
330
70
100
AcDbEntity
  8
Standardebene
 62
     7
370
     9
100
AcDbLine
 10
179.2897557060454
 20
162.8394133951627
 30
0.0
 11
178.7171973728553
 21
162.8394133951627
 31
0.0
  0
LINE
  5
14E
330
70
100
AcDbEntity
  8
Standardebene
 62
     7
370
     9
100
AcDbLine
 10
178.7171973728553
 20
149.3400189540932
 30
0.0
 11
179.2897557060454
 21
149.3400189540932
 31
0.0
  0
LINE
  5
14F
330
70
100
AcDbEntity
  8
Standardebene
 62
     7
370
     9
100
AcDbLine
 10
180.4359307057588
 20
149.3400189540932
 30
0.0
 11
181.581752927695
 21
149.3400189540932
 31
0.0
  0
LINE
  5
150
330
70
100
AcDbEntity
  8
Standardebene
 62
     7
370
     9
100
AcDbLine
 10
182.72757514963
 20
149.3400189540932
 30
0.0
 11
183.8730445937885
 21
149.3400189540932
 31
0.0
  0
LINE
  5
151
330
70
100
AcDbEntity
  8
Standardebene
 62
     7
370
     9
100
AcDbLine
 10
185.0188668157241
 20
149.3400189540932
 30
0.0
 11
185.5921307044697
 21
149.3400189540932
 31
0.0
  0
LINE
  5
152
330
70
100
AcDbEntity
  8
Standardebene
 62
     7
370
     9
100
AcDbLine
 10
202.4725473669164
 20
164.7930967280078
 30
0.0
 11
202.4725473669164
 21
147.3866883990259
 31
0.0
  0
LINE
  5
153
330
70
100
AcDbEntity
  8
Standardebene
 62
     7
370
    35
100
AcDbLine
 10
172.5919168188313
 20
143.5893883999752
 30
0.0
 11
163.0916112656501
 21
143.5893883999752
 31
0.0
  0
LINE
  5
154
330
70
100
AcDbEntity
  8
Standardebene
 62
     7
370
    35
100
AcDbLine
 10
172.5919168188313
 20
168.5900439492807
 30
0.0
 11
163.0916112656501
 21
168.5900439492807
 31
0.0
  0
SPLINE
  5
155
330
70
100
AcDbEntity
  8
Standardebene
 62
     7
370
    35
100
AcDbSpline
210
0.0
220
0.0
230
1.0
 70
     8
 71
     3
 72
     8
 73
     4
 74
     0
 42
0.0000000001
 43
0.0000000001
 40
0.0
 40
0.0
 40
0.0
 40
0.0
 40
1.0
 40
1.0
 40
1.0
 40
1.0
 10
209.7916279206426
 20
167.606499505082
 30
0.0
 10
209.7916279206426
 20
167.8731995050154
 30
0.0
 10
209.5757279206963
 20
168.089805060517
 30
0.0
 10
209.3083223652076
 20
168.089805060517
 30
0.0
  0
SPLINE
  5
156
330
70
100
AcDbEntity
  8
Standardebene
 62
     7
370
    35
100
AcDbSpline
210
0.0
220
0.0
230
1.0
 70
     8
 71
     3
 72
     8
 73
     4
 74
     0
 42
0.0000000001
 43
0.0000000001
 40
0.0
 40
0.0
 40
0.0
 40
0.0
 40
1.0
 40
1.0
 40
1.0
 40
1.0
 10
209.3083223652076
 20
144.0896272887389
 30
0.0
 10
209.5757279206963
 20
144.0896272887389
 30
0.0
 10
209.7916279206426
 20
144.3062328442405
 30
0.0
 10
209.7916279206426
 20
144.5729328441739
 30
0.0
  0
SPLINE
  5
157
330
70
100
AcDbEntity
  8
Standardebene
 62
     7
370
    35
100
AcDbSpline
210
0.0
220
0.0
230
1.0
 70
     8
 71
     3
 72
     8
 73
     4
 74
     0
 42
0.0000000001
 43
0.0000000001
 40
0.0
 40
0.0
 40
0.0
 40
0.0
 40
1.0
 40
1.0
 40
1.0
 40
1.0
 10
208.0750112544051
 20
168.089805060517
 30
0.0
 10
207.8083112544713
 20
168.089805060517
 30
0.0
 10
207.5917056989701
 20
167.8731995050154
 30
0.0
 10
207.5917056989701
 20
167.606499505082
 30
0.0
  0
SPLINE
  5
158
330
70
100
AcDbEntity
  8
Standardebene
 62
     7
370
    35
100
AcDbSpline
210
0.0
220
0.0
230
1.0
 70
     8
 71
     3
 72
     8
 73
     4
 74
     0
 42
0.0000000001
 43
0.0000000001
 40
0.0
 40
0.0
 40
0.0
 40
0.0
 40
1.0
 40
1.0
 40
1.0
 40
1.0
 10
207.5917056989701
 20
144.5729328441739
 30
0.0
 10
207.5917056989701
 20
144.3062328442405
 30
0.0
 10
207.8083112544713
 20
144.0896272887389
 30
0.0
 10
208.0750112544051
 20
144.0896272887389
 30
0.0
  0
LINE
  5
159
330
70
100
AcDbEntity
  8
Standardebene
 62
     7
370
     9
100
AcDbLine
 10
155.9919584896472
 20
156.0893633968502
 30
0.0
 11
155.9919584896472
 21
156.5864272856153
 31
0.0
  0
LINE
  5
15A
330
70
100
AcDbEntity
  8
Standardebene
 62
     7
370
     9
100
AcDbLine
 10
155.9919584896472
 20
157.5802022853662
 30
0.0
 11
155.9919584896472
 21
158.5739772851185
 31
0.0
  0
LWPOLYLINE
  5
15B
330
70
100
AcDbEntity
  8
Standardebene
 62
     7
370
     9
100
AcDbPolyline
 90
        3
 70
     0
 43
0.0
 10
155.9919584896472
 20
159.5677522848694
 10
155.9919584896472
 20
160.3103495069061
 10
155.9919584896472
 20
160.5615272846216
  0
LWPOLYLINE
  5
15C
330
70
100
AcDbEntity
  8
Standardebene
 62
     7
370
     9
100
AcDbPolyline
 90
        3
 70
     0
 43
0.0
 10
155.9919584896472
 20
161.5553022843725
 10
155.9919584896472
 20
161.5761161732562
 10
155.9919584896472
 20
162.5490772841244
  0
LWPOLYLINE
  5
15D
330
70
100
AcDbEntity
  8
Standardebene
 62
     7
370
     9
100
AcDbPolyline
 90
        3
 70
     0
 43
0.0
 10
155.9919584896472
 20
163.5428522838756
 10
155.9919584896472
 20
163.7329995060505
 10
155.9919584896472
 20
164.5359217280719
  0
LWPOLYLINE
  5
15E
330
70
100
AcDbEntity
  8
Standardebene
 62
     7
370
     9
100
AcDbPolyline
 90
        6
 70
     0
 43
0.0
 10
155.9919584896472
 20
165.5296967278235
 10
155.9919584896472
 20
165.7103189500005
 10
155.9919584896472
 20
165.9734911721569
 10
155.9919584896472
 20
166.026760616588
 10
155.9919584896472
 20
165.8683633944055
 10
155.9919584896472
 20
165.5296967278235
  0
LWPOLYLINE
  5
15F
330
70
100
AcDbEntity
  8
Standardebene
 62
     7
370
     9
100
AcDbPolyline
 90
        3
 70
     0
 43
0.0
 10
155.9919584896472
 20
164.5359217280719
 10
155.9919584896472
 20
164.1771467281617
 10
155.9919584896472
 20
163.5428522838756
  0
LWPOLYLINE
  5
160
330
70
100
AcDbEntity
  8
Standardebene
 62
     7
370
     9
100
AcDbPolyline
 90
        3
 70
     0
 43
0.0
 10
155.9919584896472
 20
162.5490772841244
 10
155.9919584896472
 20
162.1673717286641
 10
155.9919584896472
 20
161.5553022843725
  0
LWPOLYLINE
  5
161
330
70
100
AcDbEntity
  8
Standardebene
 62
     7
370
     9
100
AcDbPolyline
 90
        3
 70
     0
 43
0.0
 10
155.9919584896472
 20
160.5615272846216
 10
155.9919584896472
 20
159.6421883959619
 10
155.9919584896472
 20
159.5677522848694
  0
LWPOLYLINE
  5
162
330
70
100
AcDbEntity
  8
Standardebene
 62
     7
370
     9
100
AcDbPolyline
 90
        3
 70
     0
 43
0.0
 10
155.9919584896472
 20
158.5739772851185
 10
155.9919584896472
 20
158.2515383963096
 10
155.9919584896472
 20
157.5802022853662
  0
LINE
  5
163
330
70
100
AcDbEntity
  8
Standardebene
 62
     7
370
     9
100
AcDbLine
 10
155.9919584896472
 20
156.5864272856153
 30
0.0
 11
155.9919584896472
 21
155.5926522858631
 31
0.0
  0
LWPOLYLINE
  5
164
330
70
100
AcDbEntity
  8
Standardebene
 62
     7
370
     9
100
AcDbPolyline
 90
        3
 70
     0
 43
0.0
 10
155.9919584896472
 20
154.5988772861119
 10
155.9919584896472
 20
153.9278939529463
 10
155.9919584896472
 20
153.6054550641378
  0
LWPOLYLINE
  5
165
330
70
100
AcDbEntity
  8
Standardebene
 62
     7
370
     9
100
AcDbPolyline
 90
        3
 70
     0
 43
0.0
 10
155.9919584896472
 20
152.6120328421639
 10
155.9919584896472
 20
152.5375967310714
 10
155.9919584896472
 20
151.6182578424124
  0
LWPOLYLINE
  5
166
330
70
100
AcDbEntity
  8
Standardebene
 62
     7
370
     9
100
AcDbPolyline
 90
        3
 70
     0
 43
0.0
 10
155.9919584896472
 20
150.6244828426608
 10
155.9919584896472
 20
150.0120606205918
 10
155.9919584896472
 20
149.6303550651315
  0
LWPOLYLINE
  5
167
330
70
100
AcDbEntity
  8
Standardebene
 62
     7
370
     9
100
AcDbPolyline
 90
        3
 70
     0
 43
0.0
 10
155.9919584896472
 20
148.63658006538
 10
155.9919584896472
 20
148.0022856210942
 10
155.9919584896472
 20
147.6428050656284
  0
LWPOLYLINE
  5
168
330
70
100
AcDbEntity
  8
Standardebene
 62
     7
370
     9
100
AcDbPolyline
 90
        6
 70
     0
 43
0.0
 10
155.9919584896472
 20
146.6493828436546
 10
155.9919584896472
 20
146.3114217326281
 10
155.9919584896472
 20
146.1523189548901
 10
155.9919584896472
 20
146.2055883993212
 10
155.9919584896472
 20
146.4691133992554
 10
155.9919584896472
 20
146.6493828436546
  0
LWPOLYLINE
  5
169
330
70
100
AcDbEntity
  8
Standardebene
 62
     7
370
     9
100
AcDbPolyline
 90
        3
 70
     0
 43
0.0
 10
155.9919584896472
 20
147.6428050656284
 10
155.9919584896472
 20
148.4467856209831
 10
155.9919584896472
 20
148.63658006538
  0
LWPOLYLINE
  5
16A
330
70
100
AcDbEntity
  8
Standardebene
 62
     7
370
     9
100
AcDbPolyline
 90
        3
 70
     0
 43
0.0
 10
155.9919584896472
 20
149.6303550651315
 10
155.9919584896472
 20
150.6029633982219
 10
155.9919584896472
 20
150.6244828426608
  0
LWPOLYLINE
  5
16B
330
70
100
AcDbEntity
  8
Standardebene
 62
     7
370
     9
100
AcDbPolyline
 90
        3
 70
     0
 43
0.0
 10
155.9919584896472
 20
151.6182578424124
 10
155.9919584896472
 20
151.8690828423498
 10
155.9919584896472
 20
152.6120328421639
  0
LINE
  5
16C
330
70
100
AcDbEntity
  8
Standardebene
 62
     7
370
     9
100
AcDbLine
 10
155.9919584896472
 20
153.6054550641378
 30
0.0
 11
155.9919584896472
 21
154.5988772861119
 31
0.0
  0
LINE
  5
16D
330
70
100
AcDbEntity
  8
Standardebene
 62
     7
370
     9
100
AcDbLine
 10
155.9919584896472
 20
155.5926522858631
 30
0.0
 11
155.9919584896472
 21
156.0893633968502
 31
0.0
  0
LINE
  5
16E
330
70
100
AcDbEntity
  8
Standardebene
 62
     7
370
     9
100
AcDbLine
 10
155.592261267525
 20
156.0893633968502
 30
0.0
 11
155.592261267525
 21
156.5896022856145
 31
0.0
  0
LWPOLYLINE
  5
16F
330
70
100
AcDbEntity
  8
Standardebene
 62
     7
370
     9
100
AcDbPolyline
 90
        3
 70
     0
 43
0.0
 10
155.592261267525
 20
157.5897272853639
 10
155.592261267525
 20
157.6560495075695
 10
155.592261267525
 20
158.5894995073364
  0
LINE
  5
170
330
70
100
AcDbEntity
  8
Standardebene
 62
     7
370
     9
100
AcDbLine
 10
155.592261267525
 20
159.5896245070864
 30
0.0
 11
155.592261267525
 21
160.5897495068364
 31
0.0
  0
LWPOLYLINE
  5
171
330
70
100
AcDbEntity
  8
Standardebene
 62
     7
370
     9
100
AcDbPolyline
 90
        3
 70
     0
 43
0.0
 10
155.592261267525
 20
161.5895217288086
 10
155.592261267525
 20
162.0897606175723
 10
155.592261267525
 20
162.5899995063367
  0
LWPOLYLINE
  5
172
330
70
100
AcDbEntity
  8
Standardebene
 62
     7
370
     9
100
AcDbPolyline
 90
        3
 70
     0
 43
0.0
 10
155.592261267525
 20
163.5894189505308
 10
155.592261267525
 20
164.5747272836177
 10
155.592261267525
 20
164.5895439502808
  0
LWPOLYLINE
  5
173
330
70
100
AcDbEntity
  8
Standardebene
 62
     7
370
     9
100
AcDbPolyline
 90
        4
 70
     0
 43
0.0
 10
155.592261267525
 20
165.5900217278085
 10
155.592261267525
 20
165.6101300611368
 10
155.592261267525
 20
166.4821967275853
 10
155.592261267525
 20
166.589441172003
  0
LWPOLYLINE
  5
174
330
70
100
AcDbEntity
  8
Standardebene
 62
     7
370
     9
100
AcDbPolyline
 90
        7
 70
     0
 43
0.0
 10
155.592261267525
 20
167.5899189495307
 10
155.592261267525
 20
167.6809356161746
 10
155.592261267525
 20
167.9867939494315
 10
155.592261267525
 20
168.089805060517
 10
155.592261267525
 20
167.9867939494315
 10
155.592261267525
 20
167.6809356161746
 10
155.592261267525
 20
167.5899189495307
  0
LWPOLYLINE
  5
175
330
70
100
AcDbEntity
  8
Standardebene
 62
     7
370
     9
100
AcDbPolyline
 90
        4
 70
     0
 43
0.0
 10
155.592261267525
 20
166.589441172003
 10
155.592261267525
 20
166.4821967275853
 10
155.592261267525
 20
165.6101300611368
 10
155.592261267525
 20
165.5900217278085
  0
LWPOLYLINE
  5
176
330
70
100
AcDbEntity
  8
Standardebene
 62
     7
370
     9
100
AcDbPolyline
 90
        3
 70
     0
 43
0.0
 10
155.592261267525
 20
164.5895439502808
 10
155.592261267525
 20
164.5747272836177
 10
155.592261267525
 20
163.5894189505308
  0
LWPOLYLINE
  5
177
330
70
100
AcDbEntity
  8
Standardebene
 62
     7
370
     9
100
AcDbPolyline
 90
        3
 70
     0
 43
0.0
 10
155.592261267525
 20
162.5899995063367
 10
155.592261267525
 20
162.0897606175723
 10
155.592261267525
 20
161.5895217288086
  0
LINE
  5
178
330
70
100
AcDbEntity
  8
Standardebene
 62
     7
370
     9
100
AcDbLine
 10
155.592261267525
 20
160.5897495068364
 30
0.0
 11
155.592261267525
 21
159.5896245070864
 31
0.0
  0
LWPOLYLINE
  5
179
330
70
100
AcDbEntity
  8
Standardebene
 62
     7
370
     9
100
AcDbPolyline
 90
        3
 70
     0
 43
0.0
 10
155.592261267525
 20
158.5894995073364
 10
155.592261267525
 20
157.6560495075695
 10
155.592261267525
 20
157.5897272853639
  0
LWPOLYLINE
  5
17A
330
70
100
AcDbEntity
  8
Standardebene
 62
     7
370
     9
100
AcDbPolyline
 90
        3
 70
     0
 43
0.0
 10
155.592261267525
 20
156.5896022856145
 10
155.592261267525
 20
156.0893633968502
 10
155.592261267525
 20
155.5898300636417
  0
LWPOLYLINE
  5
17B
330
70
100
AcDbEntity
  8
Standardebene
 62
     7
370
     9
100
AcDbPolyline
 90
        3
 70
     0
 43
0.0
 10
155.592261267525
 20
154.5897050638917
 10
155.592261267525
 20
154.5237356194638
 10
155.592261267525
 20
153.5895800641417
  0
LINE
  5
17C
330
70
100
AcDbEntity
  8
Standardebene
 62
     7
370
     9
100
AcDbLine
 10
155.592261267525
 20
152.5898078421695
 30
0.0
 11
155.592261267525
 21
151.5896828424195
 31
0.0
  0
LWPOLYLINE
  5
17D
330
70
100
AcDbEntity
  8
Standardebene
 62
     7
370
     9
100
AcDbPolyline
 90
        3
 70
     0
 43
0.0
 10
155.592261267525
 20
150.5899106204473
 10
155.592261267525
 20
150.090024509461
 10
155.592261267525
 20
149.5897856206973
  0
LWPOLYLINE
  5
17E
330
70
100
AcDbEntity
  8
Standardebene
 62
     7
370
     9
100
AcDbPolyline
 90
        3
 70
     0
 43
0.0
 10
155.592261267525
 20
148.5896606209473
 10
155.592261267525
 20
147.6043522878604
 10
155.592261267525
 20
147.5898883989751
  0
LWPOLYLINE
  5
17F
330
70
100
AcDbEntity
  8
Standardebene
 62
     7
370
     9
100
AcDbPolyline
 90
        4
 70
     0
 43
0.0
 10
155.592261267525
 20
146.5894106214474
 10
155.592261267525
 20
146.5693022881191
 10
155.592261267525
 20
145.6972356216706
 10
155.592261267525
 20
145.5899911772529
  0
LWPOLYLINE
  5
180
330
70
100
AcDbEntity
  8
Standardebene
 62
     7
370
     9
100
AcDbPolyline
 90
        7
 70
     0
 43
0.0
 10
155.592261267525
 20
144.5898661775029
 10
155.592261267525
 20
144.4984967330813
 10
155.592261267525
 20
144.1926383998244
 10
155.592261267525
 20
144.0896272887389
 10
155.592261267525
 20
144.1926383998244
 10
155.592261267525
 20
144.4984967330813
 10
155.592261267525
 20
144.5898661775029
  0
LWPOLYLINE
  5
181
330
70
100
AcDbEntity
  8
Standardebene
 62
     7
370
     9
100
AcDbPolyline
 90
        4
 70
     0
 43
0.0
 10
155.592261267525
 20
145.5899911772529
 10
155.592261267525
 20
145.6972356216706
 10
155.592261267525
 20
146.5693022881191
 10
155.592261267525
 20
146.5894106214474
  0
LWPOLYLINE
  5
182
330
70
100
AcDbEntity
  8
Standardebene
 62
     7
370
     9
100
AcDbPolyline
 90
        3
 70
     0
 43
0.0
 10
155.592261267525
 20
147.5898883989751
 10
155.592261267525
 20
147.6043522878604
 10
155.592261267525
 20
148.5896606209473
  0
LWPOLYLINE
  5
183
330
70
100
AcDbEntity
  8
Standardebene
 62
     7
370
     9
100
AcDbPolyline
 90
        3
 70
     0
 43
0.0
 10
155.592261267525
 20
149.5897856206973
 10
155.592261267525
 20
150.090024509461
 10
155.592261267525
 20
150.5899106204473
  0
LINE
  5
184
330
70
100
AcDbEntity
  8
Standardebene
 62
     7
370
     9
100
AcDbLine
 10
155.592261267525
 20
151.5896828424195
 30
0.0
 11
155.592261267525
 21
152.5898078421695
 31
0.0
  0
LWPOLYLINE
  5
185
330
70
100
AcDbEntity
  8
Standardebene
 62
     7
370
     9
100
AcDbPolyline
 90
        3
 70
     0
 43
0.0
 10
155.592261267525
 20
153.5895800641417
 10
155.592261267525
 20
154.5237356194638
 10
155.592261267525
 20
154.5897050638917
  0
LINE
  5
186
330
70
100
AcDbEntity
  8
Standardebene
 62
     7
370
     9
100
AcDbLine
 10
155.592261267525
 20
155.5898300636417
 30
0.0
 11
155.592261267525
 21
156.0893633968502
 31
0.0
  0
LINE
  5
187
330
70
100
AcDbEntity
  8
Standardebene
 62
     7
370
     9
100
AcDbLine
 10
178.7171973728553
 20
156.0893633968502
 30
0.0
 11
178.7171973728553
 21
156.6086522856095
 31
0.0
  0
LWPOLYLINE
  5
188
330
70
100
AcDbEntity
  8
Standardebene
 62
     7
370
     9
100
AcDbPolyline
 90
        3
 70
     0
 43
0.0
 10
178.7171973728553
 20
157.6475828409052
 10
178.7171973728553
 20
158.3986467296063
 10
178.7171973728553
 20
158.6858078406454
  0
LWPOLYLINE
  5
189
330
70
100
AcDbEntity
  8
Standardebene
 62
     7
370
     9
100
AcDbPolyline
 90
        3
 70
     0
 43
0.0
 10
178.7171973728553
 20
159.7240328403859
 10
178.7171973728553
 20
160.4281772846544
 10
178.7171973728553
 20
160.762963395682
  0
LWPOLYLINE
  5
18A
330
70
100
AcDbEntity
  8
Standardebene
 62
     7
370
     9
100
AcDbPolyline
 90
        5
 70
     0
 43
0.0
 10
178.7171973728553
 20
161.8011883954221
 10
178.7171973728553
 20
161.9352439509442
 10
178.7171973728553
 20
162.4323078397091
 10
178.7171973728553
 20
162.7374606174105
 10
178.7171973728553
 20
162.8394133951627
  0
LWPOLYLINE
  5
18B
330
70
100
AcDbEntity
  8
Standardebene
 62
     7
370
     9
100
AcDbPolyline
 90
        3
 70
     0
 43
0.0
 10
178.7171973728553
 20
161.8011883954221
 10
178.7171973728553
 20
161.2603800622242
 10
178.7171973728553
 20
160.762963395682
  0
LWPOLYLINE
  5
18C
330
70
100
AcDbEntity
  8
Standardebene
 62
     7
370
     9
100
AcDbPolyline
 90
        3
 70
     0
 43
0.0
 10
178.7171973728553
 20
159.7240328403859
 10
178.7171973728553
 20
159.4643883960064
 10
178.7171973728553
 20
158.6858078406454
  0
LWPOLYLINE
  5
18D
330
70
100
AcDbEntity
  8
Standardebene
 62
     7
370
     9
100
AcDbPolyline
 90
        3
 70
     0
 43
0.0
 10
178.7171973728553
 20
157.6475828409052
 10
178.7171973728553
 20
157.2616439521128
 10
178.7171973728553
 20
156.6086522856095
  0
LWPOLYLINE
  5
18E
330
70
100
AcDbEntity
  8
Standardebene
 62
     7
370
     9
100
AcDbPolyline
 90
        3
 70
     0
 43
0.0
 10
178.7171973728553
 20
155.5704272858686
 10
178.7171973728553
 20
154.9174356193653
 10
178.7171973728553
 20
154.5322022861284
  0
LWPOLYLINE
  5
18F
330
70
100
AcDbEntity
  8
Standardebene
 62
     7
370
     9
100
AcDbPolyline
 90
        3
 70
     0
 43
0.0
 10
178.7171973728553
 20
153.4936245086102
 10
178.7171973728553
 20
152.7150439532495
 10
178.7171973728553
 20
152.4550467310922
  0
LWPOLYLINE
  5
190
330
70
100
AcDbEntity
  8
Standardebene
 62
     7
370
     9
100
AcDbPolyline
 90
        3
 70
     0
 43
0.0
 10
178.7171973728553
 20
151.4164689535739
 10
178.7171973728553
 20
150.9190522870317
 10
178.7171973728553
 20
150.3782439538337
  0
LWPOLYLINE
  5
191
330
70
100
AcDbEntity
  8
Standardebene
 62
     7
370
     9
100
AcDbPolyline
 90
        5
 70
     0
 43
0.0
 10
178.7171973728553
 20
149.3400189540932
 10
178.7171973728553
 20
149.4423245096232
 10
178.7171973728553
 20
149.7471245095468
 10
178.7171973728553
 20
150.2441883983117
 10
178.7171973728553
 20
150.3782439538337
  0
LWPOLYLINE
  5
192
330
70
100
AcDbEntity
  8
Standardebene
 62
     7
370
     9
100
AcDbPolyline
 90
        3
 70
     0
 43
0.0
 10
178.7171973728553
 20
151.4164689535739
 10
178.7171973728553
 20
151.750549509046
 10
178.7171973728553
 20
152.4550467310922
  0
LWPOLYLINE
  5
193
330
70
100
AcDbEntity
  8
Standardebene
 62
     7
370
     9
100
AcDbPolyline
 90
        3
 70
     0
 43
0.0
 10
178.7171973728553
 20
153.4936245086102
 10
178.7171973728553
 20
153.7807856196496
 10
178.7171973728553
 20
154.5322022861284
  0
LINE
  5
194
330
70
100
AcDbEntity
  8
Standardebene
 62
     7
370
     9
100
AcDbLine
 10
178.7171973728553
 20
155.5704272858686
 30
0.0
 11
178.7171973728553
 21
156.0893633968502
 31
0.0
  0
LINE
  5
195
330
70
100
AcDbEntity
  8
Standardebene
 62
     7
370
     9
100
AcDbLine
 10
185.5921307044697
 20
156.0893633968502
 30
0.0
 11
185.5921307044697
 21
156.6086522856095
 31
0.0
  0
LWPOLYLINE
  5
196
330
70
100
AcDbEntity
  8
Standardebene
 62
     7
370
     9
100
AcDbPolyline
 90
        3
 70
     0
 43
0.0
 10
185.5921307044697
 20
157.6475828409052
 10
185.5921307044697
 20
158.3986467296063
 10
185.5921307044697
 20
158.6858078406454
  0
LWPOLYLINE
  5
197
330
70
100
AcDbEntity
  8
Standardebene
 62
     7
370
     9
100
AcDbPolyline
 90
        3
 70
     0
 43
0.0
 10
185.5921307044697
 20
159.7240328403859
 10
185.5921307044697
 20
160.4281772846544
 10
185.5921307044697
 20
160.762963395682
  0
LWPOLYLINE
  5
198
330
70
100
AcDbEntity
  8
Standardebene
 62
     7
370
     9
100
AcDbPolyline
 90
        5
 70
     0
 43
0.0
 10
185.5921307044697
 20
161.8011883954221
 10
185.5921307044697
 20
161.9352439509442
 10
185.5921307044697
 20
162.4323078397091
 10
185.5921307044697
 20
162.7374606174105
 10
185.5921307044697
 20
162.8394133951627
  0
LWPOLYLINE
  5
199
330
70
100
AcDbEntity
  8
Standardebene
 62
     7
370
     9
100
AcDbPolyline
 90
        3
 70
     0
 43
0.0
 10
185.5921307044697
 20
161.8011883954221
 10
185.5921307044697
 20
161.2603800622242
 10
185.5921307044697
 20
160.762963395682
  0
LWPOLYLINE
  5
19A
330
70
100
AcDbEntity
  8
Standardebene
 62
     7
370
     9
100
AcDbPolyline
 90
        3
 70
     0
 43
0.0
 10
185.5921307044697
 20
159.7240328403859
 10
185.5921307044697
 20
159.4643883960064
 10
185.5921307044697
 20
158.6858078406454
  0
LWPOLYLINE
  5
19B
330
70
100
AcDbEntity
  8
Standardebene
 62
     7
370
     9
100
AcDbPolyline
 90
        3
 70
     0
 43
0.0
 10
185.5921307044697
 20
157.6475828409052
 10
185.5921307044697
 20
157.2616439521128
 10
185.5921307044697
 20
156.6086522856095
  0
LWPOLYLINE
  5
19C
330
70
100
AcDbEntity
  8
Standardebene
 62
     7
370
     9
100
AcDbPolyline
 90
        3
 70
     0
 43
0.0
 10
185.5921307044697
 20
155.5704272858686
 10
185.5921307044697
 20
154.9174356193653
 10
185.5921307044697
 20
154.5322022861284
  0
LWPOLYLINE
  5
19D
330
70
100
AcDbEntity
  8
Standardebene
 62
     7
370
     9
100
AcDbPolyline
 90
        3
 70
     0
 43
0.0
 10
185.5921307044697
 20
153.4936245086102
 10
185.5921307044697
 20
152.7150439532495
 10
185.5921307044697
 20
152.4550467310922
  0
LWPOLYLINE
  5
19E
330
70
100
AcDbEntity
  8
Standardebene
 62
     7
370
     9
100
AcDbPolyline
 90
        3
 70
     0
 43
0.0
 10
185.5921307044697
 20
151.4164689535739
 10
185.5921307044697
 20
150.9190522870317
 10
185.5921307044697
 20
150.3782439538337
  0
LWPOLYLINE
  5
19F
330
70
100
AcDbEntity
  8
Standardebene
 62
     7
370
     9
100
AcDbPolyline
 90
        5
 70
     0
 43
0.0
 10
185.5921307044697
 20
149.3400189540932
 10
185.5921307044697
 20
149.4423245096232
 10
185.5921307044697
 20
149.7471245095468
 10
185.5921307044697
 20
150.2441883983117
 10
185.5921307044697
 20
150.3782439538337
  0
LWPOLYLINE
  5
1A0
330
70
100
AcDbEntity
  8
Standardebene
 62
     7
370
     9
100
AcDbPolyline
 90
        3
 70
     0
 43
0.0
 10
185.5921307044697
 20
151.4164689535739
 10
185.5921307044697
 20
151.750549509046
 10
185.5921307044697
 20
152.4550467310922
  0
LWPOLYLINE
  5
1A1
330
70
100
AcDbEntity
  8
Standardebene
 62
     7
370
     9
100
AcDbPolyline
 90
        3
 70
     0
 43
0.0
 10
185.5921307044697
 20
153.4936245086102
 10
185.5921307044697
 20
153.7807856196496
 10
185.5921307044697
 20
154.5322022861284
  0
LINE
  5
1A2
330
70
100
AcDbEntity
  8
Standardebene
 62
     7
370
     9
100
AcDbLine
 10
185.5921307044697
 20
155.5704272858686
 30
0.0
 11
185.5921307044697
 21
156.0893633968502
 31
0.0
  0
LINE
  5
1A3
330
70
100
AcDbEntity
  8
Standardebene
 62
     7
370
    35
100
AcDbLine
 10
208.0750112544051
 20
66.72751064141697
 30
0.0
 11
209.3083223652076
 21
66.72751064141697
 31
0.0
  0
LINE
  5
1A4
330
70
100
AcDbEntity
  8
Standardebene
 62
     7
370
    35
100
AcDbLine
 10
209.3083223652076
 20
90.72768841319444
 30
0.0
 11
208.0750112544051
 21
90.72768841319444
 31
0.0
  0
LINE
  5
1A5
330
70
100
AcDbEntity
  8
Standardebene
 62
     7
370
     9
100
AcDbLine
 10
202.4725473669164
 20
87.43062730290711
 30
0.0
 11
202.4725473669164
 21
70.02457175170366
 31
0.0
  0
LWPOLYLINE
  5
1A6
330
70
100
AcDbEntity
  8
Standardebene
 62
     7
370
     9
100
AcDbPolyline
 90
        3
 70
     0
 43
0.0
 10
163.0923168212063
 20
90.30788285774365
 10
169.0920084863722
 20
90.30788285774365
 10
172.2790029300204
 20
91.22792730195815
  0
LWPOLYLINE
  5
1A7
330
70
100
AcDbEntity
  8
Standardebene
 62
     7
370
     9
100
AcDbPolyline
 90
        3
 70
     0
 43
0.0
 10
163.0923168212063
 20
67.14731619686711
 10
169.0920084863722
 20
67.14731619686711
 10
172.2790029300204
 20
66.22727175265326
  0
SPLINE
  5
1A8
330
70
100
AcDbEntity
  8
Standardebene
 62
     7
370
    35
100
AcDbSpline
210
0.0
220
0.0
230
1.0
 70
     8
 71
     3
 72
     8
 73
     4
 74
     0
 42
0.0000000001
 43
0.0000000001
 40
0.0
 40
0.0
 40
0.0
 40
0.0
 40
1.0
 40
1.0
 40
1.0
 40
1.0
 10
209.7916279206426
 20
90.2440300799823
 30
0.0
 10
209.7916279206426
 20
90.51143563547094
 30
0.0
 10
209.5757279206963
 20
90.72768841319444
 30
0.0
 10
209.3083223652076
 20
90.72768841319444
 30
0.0
  0
SPLINE
  5
1A9
330
70
100
AcDbEntity
  8
Standardebene
 62
     7
370
    35
100
AcDbSpline
210
0.0
220
0.0
230
1.0
 70
     8
 71
     3
 72
     8
 73
     4
 74
     0
 42
0.0000000001
 43
0.0000000001
 40
0.0
 40
0.0
 40
0.0
 40
0.0
 40
1.0
 40
1.0
 40
1.0
 40
1.0
 10
209.3083223652076
 20
66.72751064141697
 30
0.0
 10
209.5757279206963
 20
66.72751064141697
 30
0.0
 10
209.7916279206426
 20
66.94376341914047
 30
0.0
 10
209.7916279206426
 20
67.2111689746291
 30
0.0
  0
SPLINE
  5
1AA
330
70
100
AcDbEntity
  8
Standardebene
 62
     7
370
    35
100
AcDbSpline
210
0.0
220
0.0
230
1.0
 70
     8
 71
     3
 72
     8
 73
     4
 74
     0
 42
0.0000000001
 43
0.0000000001
 40
0.0
 40
0.0
 40
0.0
 40
0.0
 40
1.0
 40
1.0
 40
1.0
 40
1.0
 10
208.0750112544051
 20
90.72768841319444
 30
0.0
 10
207.8083112544713
 20
90.72768841319444
 30
0.0
 10
207.5917056989701
 20
90.51143563547094
 30
0.0
 10
207.5917056989701
 20
90.2440300799823
 30
0.0
  0
SPLINE
  5
1AB
330
70
100
AcDbEntity
  8
Standardebene
 62
     7
370
    35
100
AcDbSpline
210
0.0
220
0.0
230
1.0
 70
     8
 71
     3
 72
     8
 73
     4
 74
     0
 42
0.0000000001
 43
0.0000000001
 40
0.0
 40
0.0
 40
0.0
 40
0.0
 40
1.0
 40
1.0
 40
1.0
 40
1.0
 10
207.5917056989701
 20
67.2111689746291
 30
0.0
 10
207.5917056989701
 20
66.94376341914047
 30
0.0
 10
207.8083112544713
 20
66.72751064141697
 30
0.0
 10
208.0750112544051
 20
66.72751064141697
 30
0.0
  0
LINE
  5
1AD
330
70
100
AcDbEntity
  8
Bemaßung
 62
     7
370
     9
100
AcDbLine
 10
298.7485417872857
 20
145.7448606216591
 30
0.0
 11
298.7485417872857
 21
124.1281771164243
 31
0.0
  0
LINE
  5
1AE
330
70
100
AcDbEntity
  8
Bemaßung
 62
     7
370
     9
100
AcDbLine
 10
264.748172351341
 20
145.7448606216591
 30
0.0
 11
264.748172351341
 21
124.1281771164243
 31
0.0
  0
LINE
  5
1AF
330
70
100
AcDbEntity
  8
Bemaßung
 62
     7
370
     9
100
AcDbLine
 10
298.7485417872857
 20
126.1280743381465
 30
0.0
 11
264.748172351341
 21
126.1280743381465
 31
0.0
  0
LWPOLYLINE
  5
1B0
330
70
100
AcDbEntity
  8
Bemaßung
 62
     7
370
     9
100
AcDbPolyline
 90
        4
 70
     0
 43
0.0
 10
298.7485417872857
 20
126.1280743381465
 10
296.2484056767991
 20
126.4572160047306
 10
296.2484056767991
 20
125.7989326715618
 10
298.7485417872857
 20
126.1280743381465
  0
LINE
  5
1B1
330
70
100
AcDbEntity
  8
Bemaßung
 62
     7
370
     9
100
AcDbLine
 10
296.2484056767991
 20
126.4332271158479
 30
0.0
 11
296.4332612323083
 21
126.4332271158479
 31
0.0
  0
LINE
  5
1B2
330
70
100
AcDbEntity
  8
Bemaßung
 62
     7
370
     9
100
AcDbLine
 10
296.2484056767991
 20
126.4332271158479
 30
0.0
 11
296.4332612323083
 21
126.4332271158479
 31
0.0
  0
LINE
  5
1B3
330
70
100
AcDbEntity
  8
Bemaßung
 62
     7
370
     9
100
AcDbLine
 10
296.2484056767991
 20
126.3824271158612
 30
0.0
 11
296.8188473433233
 21
126.3824271158612
 31
0.0
  0
LINE
  5
1B4
330
70
100
AcDbEntity
  8
Bemaßung
 62
     7
370
     9
100
AcDbLine
 10
296.2484056767991
 20
126.3316271158732
 30
0.0
 11
297.2051390098938
 21
126.3316271158732
 31
0.0
  0
LINE
  5
1B5
330
70
100
AcDbEntity
  8
Bemaßung
 62
     7
370
     9
100
AcDbLine
 10
296.2484056767991
 20
126.2808271158858
 30
0.0
 11
297.5910778986858
 21
126.2808271158858
 31
0.0
  0
LINE
  5
1B6
330
70
100
AcDbEntity
  8
Bemaßung
 62
     7
370
     9
100
AcDbLine
 10
296.2484056767991
 20
126.2296743381213
 30
0.0
 11
297.9766640097002
 21
126.2296743381213
 31
0.0
  0
LINE
  5
1B7
330
70
100
AcDbEntity
  8
Bemaßung
 62
     7
370
     9
100
AcDbLine
 10
296.2484056767991
 20
126.1788743381339
 30
0.0
 11
298.3629556762707
 21
126.1788743381339
 31
0.0
  0
LINE
  5
1B8
330
70
100
AcDbEntity
  8
Bemaßung
 62
     7
370
     9
100
AcDbLine
 10
296.2484056767991
 20
126.1280743381465
 30
0.0
 11
298.7485417872857
 21
126.1280743381465
 31
0.0
  0
LINE
  5
1B9
330
70
100
AcDbEntity
  8
Bemaßung
 62
     7
370
     9
100
AcDbLine
 10
296.2484056767991
 20
125.8236271160006
 30
0.0
 11
296.4332612323083
 21
125.8236271160006
 31
0.0
  0
LINE
  5
1BA
330
70
100
AcDbEntity
  8
Bemaßung
 62
     7
370
     9
100
AcDbLine
 10
296.2484056767991
 20
125.8236271160006
 30
0.0
 11
296.4332612323083
 21
125.8236271160006
 31
0.0
  0
LINE
  5
1BB
330
70
100
AcDbEntity
  8
Bemaßung
 62
     7
370
     9
100
AcDbLine
 10
296.2484056767991
 20
125.8744271159873
 30
0.0
 11
296.8188473433233
 21
125.8744271159873
 31
0.0
  0
LINE
  5
1BC
330
70
100
AcDbEntity
  8
Bemaßung
 62
     7
370
     9
100
AcDbLine
 10
296.2484056767991
 20
125.9252271159747
 30
0.0
 11
297.2051390098938
 21
125.9252271159747
 31
0.0
  0
LINE
  5
1BD
330
70
100
AcDbEntity
  8
Bemaßung
 62
     7
370
     9
100
AcDbLine
 10
296.2484056767991
 20
125.9760271159628
 30
0.0
 11
297.5910778986858
 21
125.9760271159628
 31
0.0
  0
LINE
  5
1BE
330
70
100
AcDbEntity
  8
Bemaßung
 62
     7
370
     9
100
AcDbLine
 10
296.2484056767991
 20
126.0264743381724
 30
0.0
 11
297.9766640097002
 21
126.0264743381724
 31
0.0
  0
LINE
  5
1BF
330
70
100
AcDbEntity
  8
Bemaßung
 62
     7
370
     9
100
AcDbLine
 10
296.2484056767991
 20
126.0772743381591
 30
0.0
 11
298.3629556762707
 21
126.0772743381591
 31
0.0
  0
LINE
  5
1C0
330
70
100
AcDbEntity
  8
Bemaßung
 62
     7
370
     9
100
AcDbLine
 10
296.2484056767991
 20
126.1280743381465
 30
0.0
 11
298.7485417872857
 21
126.1280743381465
 31
0.0
  0
LWPOLYLINE
  5
1C1
330
70
100
AcDbEntity
  8
Bemaßung
 62
     7
370
     9
100
AcDbPolyline
 90
        4
 70
     0
 43
0.0
 10
264.748172351341
 20
126.1280743381465
 10
267.248308461827
 20
125.7989326715618
 10
267.248308461827
 20
126.4572160047306
 10
264.748172351341
 20
126.1280743381465
  0
LINE
  5
1C2
330
70
100
AcDbEntity
  8
Bemaßung
 62
     7
370
     9
100
AcDbLine
 10
267.248308461827
 20
125.8236271160006
 30
0.0
 11
267.0634529063178
 21
125.8236271160006
 31
0.0
  0
LINE
  5
1C3
330
70
100
AcDbEntity
  8
Bemaßung
 62
     7
370
     9
100
AcDbLine
 10
267.248308461827
 20
125.8236271160006
 30
0.0
 11
267.0634529063178
 21
125.8236271160006
 31
0.0
  0
LINE
  5
1C4
330
70
100
AcDbEntity
  8
Bemaßung
 62
     7
370
     9
100
AcDbLine
 10
267.248308461827
 20
125.8744271159873
 30
0.0
 11
266.6778667953035
 21
125.8744271159873
 31
0.0
  0
LINE
  5
1C5
330
70
100
AcDbEntity
  8
Bemaßung
 62
     7
370
     9
100
AcDbLine
 10
267.248308461827
 20
125.9252271159747
 30
0.0
 11
266.2922806842878
 21
125.9252271159747
 31
0.0
  0
LINE
  5
1C6
330
70
100
AcDbEntity
  8
Bemaßung
 62
     7
370
     9
100
AcDbLine
 10
267.248308461827
 20
125.9760271159628
 30
0.0
 11
265.9059890177186
 21
125.9760271159628
 31
0.0
  0
LINE
  5
1C7
330
70
100
AcDbEntity
  8
Bemaßung
 62
     7
370
     9
100
AcDbLine
 10
267.248308461827
 20
126.0264743381724
 30
0.0
 11
265.5200501289259
 21
126.0264743381724
 31
0.0
  0
LINE
  5
1C8
330
70
100
AcDbEntity
  8
Bemaßung
 62
     7
370
     9
100
AcDbLine
 10
267.248308461827
 20
126.0772743381591
 30
0.0
 11
265.1344640179116
 21
126.0772743381591
 31
0.0
  0
LINE
  5
1C9
330
70
100
AcDbEntity
  8
Bemaßung
 62
     7
370
     9
100
AcDbLine
 10
267.248308461827
 20
126.1280743381465
 30
0.0
 11
264.748172351341
 21
126.1280743381465
 31
0.0
  0
LINE
  5
1CA
330
70
100
AcDbEntity
  8
Bemaßung
 62
     7
370
     9
100
AcDbLine
 10
267.248308461827
 20
126.4332271158479
 30
0.0
 11
267.0634529063178
 21
126.4332271158479
 31
0.0
  0
LINE
  5
1CB
330
70
100
AcDbEntity
  8
Bemaßung
 62
     7
370
     9
100
AcDbLine
 10
267.248308461827
 20
126.4332271158479
 30
0.0
 11
267.0634529063178
 21
126.4332271158479
 31
0.0
  0
LINE
  5
1CC
330
70
100
AcDbEntity
  8
Bemaßung
 62
     7
370
     9
100
AcDbLine
 10
267.248308461827
 20
126.3824271158612
 30
0.0
 11
266.6778667953035
 21
126.3824271158612
 31
0.0
  0
LINE
  5
1CD
330
70
100
AcDbEntity
  8
Bemaßung
 62
     7
370
     9
100
AcDbLine
 10
267.248308461827
 20
126.3316271158732
 30
0.0
 11
266.2922806842878
 21
126.3316271158732
 31
0.0
  0
LINE
  5
1CE
330
70
100
AcDbEntity
  8
Bemaßung
 62
     7
370
     9
100
AcDbLine
 10
267.248308461827
 20
126.2808271158858
 30
0.0
 11
265.9059890177186
 21
126.2808271158858
 31
0.0
  0
LINE
  5
1CF
330
70
100
AcDbEntity
  8
Bemaßung
 62
     7
370
     9
100
AcDbLine
 10
267.248308461827
 20
126.2296743381213
 30
0.0
 11
265.5200501289259
 21
126.2296743381213
 31
0.0
  0
LINE
  5
1D0
330
70
100
AcDbEntity
  8
Bemaßung
 62
     7
370
     9
100
AcDbLine
 10
267.248308461827
 20
126.1788743381339
 30
0.0
 11
265.1344640179116
 21
126.1788743381339
 31
0.0
  0
LINE
  5
1D1
330
70
100
AcDbEntity
  8
Bemaßung
 62
     7
370
     9
100
AcDbLine
 10
267.248308461827
 20
126.1280743381465
 30
0.0
 11
264.748172351341
 21
126.1280743381465
 31
0.0
  0
LINE
  5
1D2
330
70
100
AcDbEntity
  8
Bemaßung
 62
     7
370
     9
100
AcDbLine
 10
144.0917057148451
 20
144.0896272887389
 30
0.0
 11
144.0917057148451
 21
103.9085745210076
 31
0.0
  0
LINE
  5
1D3
330
70
100
AcDbEntity
  8
Bemaßung
 62
     7
370
     9
100
AcDbLine
 10
201.5920140338029
 20
140.4157995118796
 30
0.0
 11
201.5920140338029
 21
103.9085745210076
 31
0.0
  0
LINE
  5
1D4
330
70
100
AcDbEntity
  8
Bemaßung
 62
     7
370
     9
100
AcDbLine
 10
144.0917057148451
 20
105.9084717427298
 30
0.0
 11
201.5920140338029
 21
105.9084717427298
 31
0.0
  0
LWPOLYLINE
  5
1D5
330
70
100
AcDbEntity
  8
Bemaßung
 62
     7
370
     9
100
AcDbPolyline
 90
        4
 70
     0
 43
0.0
 10
144.0917057148451
 20
105.9084717427298
 10
146.5921946031087
 20
105.5793300761457
 10
146.5921946031087
 20
106.2379661870923
 10
144.0917057148451
 20
105.9084717427298
  0
LINE
  5
1D6
330
70
100
AcDbEntity
  8
Bemaßung
 62
     7
370
     9
100
AcDbLine
 10
146.5921946031087
 20
105.6040245205833
 30
0.0
 11
146.407339047599
 21
105.6040245205833
 31
0.0
  0
LINE
  5
1D7
330
70
100
AcDbEntity
  8
Bemaßung
 62
     7
370
     9
100
AcDbLine
 10
146.5921946031087
 20
105.6040245205833
 30
0.0
 11
146.407339047599
 21
105.6040245205833
 31
0.0
  0
LINE
  5
1D8
330
70
100
AcDbEntity
  8
Bemaßung
 62
     7
370
     9
100
AcDbLine
 10
146.5921946031087
 20
105.6548245205707
 30
0.0
 11
146.0214001588069
 21
105.6548245205707
 31
0.0
  0
LINE
  5
1D9
330
70
100
AcDbEntity
  8
Bemaßung
 62
     7
370
     9
100
AcDbLine
 10
146.5921946031087
 20
105.7056245205587
 30
0.0
 11
145.635108492237
 21
105.7056245205587
 31
0.0
  0
LINE
  5
1DA
330
70
100
AcDbEntity
  8
Bemaßung
 62
     7
370
     9
100
AcDbLine
 10
146.5921946031087
 20
105.7564245205454
 30
0.0
 11
145.2491696034449
 21
105.7564245205454
 31
0.0
  0
LINE
  5
1DB
330
70
100
AcDbEntity
  8
Bemaßung
 62
     7
370
     9
100
AcDbLine
 10
146.5921946031087
 20
105.8072245205328
 30
0.0
 11
144.863936270207
 21
105.8072245205328
 31
0.0
  0
LINE
  5
1DC
330
70
100
AcDbEntity
  8
Bemaßung
 62
     7
370
     9
100
AcDbLine
 10
146.5921946031087
 20
105.8580245205202
 30
0.0
 11
144.4779973814149
 21
105.8580245205202
 31
0.0
  0
LINE
  5
1DD
330
70
100
AcDbEntity
  8
Bemaßung
 62
     7
370
     9
100
AcDbLine
 10
146.5921946031087
 20
105.9084717427298
 30
0.0
 11
144.0917057148451
 21
105.9084717427298
 31
0.0
  0
LINE
  5
1DE
330
70
100
AcDbEntity
  8
Bemaßung
 62
     7
370
     9
100
AcDbLine
 10
146.5921946031087
 20
106.2136245204312
 30
0.0
 11
146.407339047599
 21
106.2136245204312
 31
0.0
  0
LINE
  5
1DF
330
70
100
AcDbEntity
  8
Bemaßung
 62
     7
370
     9
100
AcDbLine
 10
146.5921946031087
 20
106.2136245204312
 30
0.0
 11
146.407339047599
 21
106.2136245204312
 31
0.0
  0
LINE
  5
1E0
330
70
100
AcDbEntity
  8
Bemaßung
 62
     7
370
     9
100
AcDbLine
 10
146.5921946031087
 20
106.1628245204438
 30
0.0
 11
146.0214001588069
 21
106.1628245204438
 31
0.0
  0
LINE
  5
1E1
330
70
100
AcDbEntity
  8
Bemaßung
 62
     7
370
     9
100
AcDbLine
 10
146.5921946031087
 20
106.1116717426793
 30
0.0
 11
145.635108492237
 21
106.1116717426793
 31
0.0
  0
LINE
  5
1E2
330
70
100
AcDbEntity
  8
Bemaßung
 62
     7
370
     9
100
AcDbLine
 10
146.5921946031087
 20
106.0608717426913
 30
0.0
 11
145.2491696034449
 21
106.0608717426913
 31
0.0
  0
LINE
  5
1E3
330
70
100
AcDbEntity
  8
Bemaßung
 62
     7
370
     9
100
AcDbLine
 10
146.5921946031087
 20
106.0100717427039
 30
0.0
 11
144.863936270207
 21
106.0100717427039
 31
0.0
  0
LINE
  5
1E4
330
70
100
AcDbEntity
  8
Bemaßung
 62
     7
370
     9
100
AcDbLine
 10
146.5921946031087
 20
105.9592717427172
 30
0.0
 11
144.4779973814149
 21
105.9592717427172
 31
0.0
  0
LINE
  5
1E5
330
70
100
AcDbEntity
  8
Bemaßung
 62
     7
370
     9
100
AcDbLine
 10
146.5921946031087
 20
105.9084717427298
 30
0.0
 11
144.0917057148451
 21
105.9084717427298
 31
0.0
  0
LWPOLYLINE
  5
1E6
330
70
100
AcDbEntity
  8
Bemaßung
 62
     7
370
     9
100
AcDbPolyline
 90
        4
 70
     0
 43
0.0
 10
201.5920140338029
 20
105.9084717427298
 10
199.0922307010947
 20
106.2379661870923
 10
199.0922307010947
 20
105.5793300761457
 10
201.5920140338029
 20
105.9084717427298
  0
LINE
  5
1E7
330
70
100
AcDbEntity
  8
Bemaßung
 62
     7
370
     9
100
AcDbLine
 10
199.0922307010947
 20
106.2136245204312
 30
0.0
 11
199.2770862566045
 21
106.2136245204312
 31
0.0
  0
LINE
  5
1E8
330
70
100
AcDbEntity
  8
Bemaßung
 62
     7
370
     9
100
AcDbLine
 10
199.0922307010947
 20
106.2136245204312
 30
0.0
 11
199.2770862566045
 21
106.2136245204312
 31
0.0
  0
LINE
  5
1E9
330
70
100
AcDbEntity
  8
Bemaßung
 62
     7
370
     9
100
AcDbLine
 10
199.0922307010947
 20
106.1628245204438
 30
0.0
 11
199.6623195898411
 21
106.1628245204438
 31
0.0
  0
LINE
  5
1EA
330
70
100
AcDbEntity
  8
Bemaßung
 62
     7
370
     9
100
AcDbLine
 10
199.0922307010947
 20
106.1116717426793
 30
0.0
 11
200.048611256411
 21
106.1116717426793
 31
0.0
  0
LINE
  5
1EB
330
70
100
AcDbEntity
  8
Bemaßung
 62
     7
370
     9
100
AcDbLine
 10
199.0922307010947
 20
106.0608717426913
 30
0.0
 11
200.4341973674259
 21
106.0608717426913
 31
0.0
  0
LINE
  5
1EC
330
70
100
AcDbEntity
  8
Bemaßung
 62
     7
370
     9
100
AcDbLine
 10
199.0922307010947
 20
106.0100717427039
 30
0.0
 11
200.8204890339964
 21
106.0100717427039
 31
0.0
  0
LINE
  5
1ED
330
70
100
AcDbEntity
  8
Bemaßung
 62
     7
370
     9
100
AcDbLine
 10
199.0922307010947
 20
105.9592717427172
 30
0.0
 11
201.205722367233
 21
105.9592717427172
 31
0.0
  0
LINE
  5
1EE
330
70
100
AcDbEntity
  8
Bemaßung
 62
     7
370
     9
100
AcDbLine
 10
199.0922307010947
 20
105.9084717427298
 30
0.0
 11
201.5920140338029
 21
105.9084717427298
 31
0.0
  0
LINE
  5
1EF
330
70
100
AcDbEntity
  8
Bemaßung
 62
     7
370
     9
100
AcDbLine
 10
199.0922307010947
 20
105.6040245205833
 30
0.0
 11
199.2770862566045
 21
105.6040245205833
 31
0.0
  0
LINE
  5
1F0
330
70
100
AcDbEntity
  8
Bemaßung
 62
     7
370
     9
100
AcDbLine
 10
199.0922307010947
 20
105.6040245205833
 30
0.0
 11
199.2770862566045
 21
105.6040245205833
 31
0.0
  0
LINE
  5
1F1
330
70
100
AcDbEntity
  8
Bemaßung
 62
     7
370
     9
100
AcDbLine
 10
199.0922307010947
 20
105.6548245205707
 30
0.0
 11
199.6623195898411
 21
105.6548245205707
 31
0.0
  0
LINE
  5
1F2
330
70
100
AcDbEntity
  8
Bemaßung
 62
     7
370
     9
100
AcDbLine
 10
199.0922307010947
 20
105.7056245205587
 30
0.0
 11
200.048611256411
 21
105.7056245205587
 31
0.0
  0
LINE
  5
1F3
330
70
100
AcDbEntity
  8
Bemaßung
 62
     7
370
     9
100
AcDbLine
 10
199.0922307010947
 20
105.7564245205454
 30
0.0
 11
200.4341973674259
 21
105.7564245205454
 31
0.0
  0
LINE
  5
1F4
330
70
100
AcDbEntity
  8
Bemaßung
 62
     7
370
     9
100
AcDbLine
 10
199.0922307010947
 20
105.8072245205328
 30
0.0
 11
200.8204890339964
 21
105.8072245205328
 31
0.0
  0
LINE
  5
1F5
330
70
100
AcDbEntity
  8
Bemaßung
 62
     7
370
     9
100
AcDbLine
 10
199.0922307010947
 20
105.8580245205202
 30
0.0
 11
201.205722367233
 21
105.8580245205202
 31
0.0
  0
LINE
  5
1F6
330
70
100
AcDbEntity
  8
Bemaßung
 62
     7
370
     9
100
AcDbLine
 10
199.0922307010947
 20
105.9084717427298
 30
0.0
 11
201.5920140338029
 21
105.9084717427298
 31
0.0
  0
LINE
  5
1F7
330
70
100
AcDbEntity
  8
Bemaßung
 62
     7
370
     9
100
AcDbLine
 10
219.5921473626366
 20
144.9560495107446
 30
0.0
 11
219.5921473626366
 21
103.9085745210076
 31
0.0
  0
LINE
  5
1F8
330
70
100
AcDbEntity
  8
Bemaßung
 62
     7
370
     9
100
AcDbLine
 10
219.5921473626366
 20
105.9084717427298
 30
0.0
 11
201.5920140338029
 21
105.9084717427298
 31
0.0
  0
LWPOLYLINE
  5
1F9
330
70
100
AcDbEntity
  8
Bemaßung
 62
     7
370
     9
100
AcDbPolyline
 90
        4
 70
     0
 43
0.0
 10
219.5921473626366
 20
105.9084717427298
 10
217.0916584743723
 20
106.2379661870923
 10
217.0916584743723
 20
105.5793300761457
 10
219.5921473626366
 20
105.9084717427298
  0
LINE
  5
1FA
330
70
100
AcDbEntity
  8
Bemaßung
 62
     7
370
     9
100
AcDbLine
 10
217.0916584743723
 20
106.2136245204312
 30
0.0
 11
217.2765140298821
 21
106.2136245204312
 31
0.0
  0
LINE
  5
1FB
330
70
100
AcDbEntity
  8
Bemaßung
 62
     7
370
     9
100
AcDbLine
 10
217.0916584743723
 20
106.2136245204312
 30
0.0
 11
217.2765140298821
 21
106.2136245204312
 31
0.0
  0
LINE
  5
1FC
330
70
100
AcDbEntity
  8
Bemaßung
 62
     7
370
     9
100
AcDbLine
 10
217.0916584743723
 20
106.1628245204438
 30
0.0
 11
217.6624529186748
 21
106.1628245204438
 31
0.0
  0
LINE
  5
1FD
330
70
100
AcDbEntity
  8
Bemaßung
 62
     7
370
     9
100
AcDbLine
 10
217.0916584743723
 20
106.1116717426793
 30
0.0
 11
218.0487445852447
 21
106.1116717426793
 31
0.0
  0
LINE
  5
1FE
330
70
100
AcDbEntity
  8
Bemaßung
 62
     7
370
     9
100
AcDbLine
 10
217.0916584743723
 20
106.0608717426913
 30
0.0
 11
218.4343306962596
 21
106.0608717426913
 31
0.0
  0
LINE
  5
1FF
330
70
100
AcDbEntity
  8
Bemaßung
 62
     7
370
     9
100
AcDbLine
 10
217.0916584743723
 20
106.0100717427039
 30
0.0
 11
218.819916807274
 21
106.0100717427039
 31
0.0
  0
LINE
  5
200
330
70
100
AcDbEntity
  8
Bemaßung
 62
     7
370
     9
100
AcDbLine
 10
217.0916584743723
 20
105.9592717427172
 30
0.0
 11
219.2058556960668
 21
105.9592717427172
 31
0.0
  0
LINE
  5
201
330
70
100
AcDbEntity
  8
Bemaßung
 62
     7
370
     9
100
AcDbLine
 10
217.0916584743723
 20
105.9084717427298
 30
0.0
 11
219.5921473626366
 21
105.9084717427298
 31
0.0
  0
LINE
  5
202
330
70
100
AcDbEntity
  8
Bemaßung
 62
     7
370
     9
100
AcDbLine
 10
217.0916584743723
 20
105.6040245205833
 30
0.0
 11
217.2765140298821
 21
105.6040245205833
 31
0.0
  0
LINE
  5
203
330
70
100
AcDbEntity
  8
Bemaßung
 62
     7
370
     9
100
AcDbLine
 10
217.0916584743723
 20
105.6040245205833
 30
0.0
 11
217.2765140298821
 21
105.6040245205833
 31
0.0
  0
LINE
  5
204
330
70
100
AcDbEntity
  8
Bemaßung
 62
     7
370
     9
100
AcDbLine
 10
217.0916584743723
 20
105.6548245205707
 30
0.0
 11
217.6624529186748
 21
105.6548245205707
 31
0.0
  0
LINE
  5
205
330
70
100
AcDbEntity
  8
Bemaßung
 62
     7
370
     9
100
AcDbLine
 10
217.0916584743723
 20
105.7056245205587
 30
0.0
 11
218.0487445852447
 21
105.7056245205587
 31
0.0
  0
LINE
  5
206
330
70
100
AcDbEntity
  8
Bemaßung
 62
     7
370
     9
100
AcDbLine
 10
217.0916584743723
 20
105.7564245205454
 30
0.0
 11
218.4343306962596
 21
105.7564245205454
 31
0.0
  0
LINE
  5
207
330
70
100
AcDbEntity
  8
Bemaßung
 62
     7
370
     9
100
AcDbLine
 10
217.0916584743723
 20
105.8072245205328
 30
0.0
 11
218.819916807274
 21
105.8072245205328
 31
0.0
  0
LINE
  5
208
330
70
100
AcDbEntity
  8
Bemaßung
 62
     7
370
     9
100
AcDbLine
 10
217.0916584743723
 20
105.8580245205202
 30
0.0
 11
219.2058556960668
 21
105.8580245205202
 31
0.0
  0
LINE
  5
209
330
70
100
AcDbEntity
  8
Bemaßung
 62
     7
370
     9
100
AcDbLine
 10
217.0916584743723
 20
105.9084717427298
 30
0.0
 11
219.5921473626366
 21
105.9084717427298
 31
0.0
  0
LWPOLYLINE
  5
20A
330
70
100
AcDbEntity
  8
Bemaßung
 62
     7
370
     9
100
AcDbPolyline
 90
        4
 70
     0
 43
0.0
 10
201.5920140338029
 20
105.9084717427298
 10
204.0921501442894
 20
105.5793300761457
 10
204.0921501442894
 20
106.2379661870923
 10
201.5920140338029
 20
105.9084717427298
  0
LINE
  5
20B
330
70
100
AcDbEntity
  8
Bemaßung
 62
     7
370
     9
100
AcDbLine
 10
204.0921501442894
 20
105.6040245205833
 30
0.0
 11
203.9072945887803
 21
105.6040245205833
 31
0.0
  0
LINE
  5
20C
330
70
100
AcDbEntity
  8
Bemaßung
 62
     7
370
     9
100
AcDbLine
 10
204.0921501442894
 20
105.6040245205833
 30
0.0
 11
203.9072945887803
 21
105.6040245205833
 31
0.0
  0
LINE
  5
20D
330
70
100
AcDbEntity
  8
Bemaßung
 62
     7
370
     9
100
AcDbLine
 10
204.0921501442894
 20
105.6548245205707
 30
0.0
 11
203.5210029222098
 21
105.6548245205707
 31
0.0
  0
LINE
  5
20E
330
70
100
AcDbEntity
  8
Bemaßung
 62
     7
370
     9
100
AcDbLine
 10
204.0921501442894
 20
105.7056245205587
 30
0.0
 11
203.1354168111948
 21
105.7056245205587
 31
0.0
  0
LINE
  5
20F
330
70
100
AcDbEntity
  8
Bemaßung
 62
     7
370
     9
100
AcDbLine
 10
204.0921501442894
 20
105.7564245205454
 30
0.0
 11
202.7494779224027
 21
105.7564245205454
 31
0.0
  0
LINE
  5
210
330
70
100
AcDbEntity
  8
Bemaßung
 62
     7
370
     9
100
AcDbLine
 10
204.0921501442894
 20
105.8072245205328
 30
0.0
 11
202.3638918113884
 21
105.8072245205328
 31
0.0
  0
LINE
  5
211
330
70
100
AcDbEntity
  8
Bemaßung
 62
     7
370
     9
100
AcDbLine
 10
204.0921501442894
 20
105.8580245205202
 30
0.0
 11
201.9776001448178
 21
105.8580245205202
 31
0.0
  0
LINE
  5
212
330
70
100
AcDbEntity
  8
Bemaßung
 62
     7
370
     9
100
AcDbLine
 10
204.0921501442894
 20
105.9084717427298
 30
0.0
 11
201.5920140338029
 21
105.9084717427298
 31
0.0
  0
LINE
  5
213
330
70
100
AcDbEntity
  8
Bemaßung
 62
     7
370
     9
100
AcDbLine
 10
204.0921501442894
 20
106.2136245204312
 30
0.0
 11
203.9072945887803
 21
106.2136245204312
 31
0.0
  0
LINE
  5
214
330
70
100
AcDbEntity
  8
Bemaßung
 62
     7
370
     9
100
AcDbLine
 10
204.0921501442894
 20
106.2136245204312
 30
0.0
 11
203.9072945887803
 21
106.2136245204312
 31
0.0
  0
LINE
  5
215
330
70
100
AcDbEntity
  8
Bemaßung
 62
     7
370
     9
100
AcDbLine
 10
204.0921501442894
 20
106.1628245204438
 30
0.0
 11
203.5210029222098
 21
106.1628245204438
 31
0.0
  0
LINE
  5
216
330
70
100
AcDbEntity
  8
Bemaßung
 62
     7
370
     9
100
AcDbLine
 10
204.0921501442894
 20
106.1116717426793
 30
0.0
 11
203.1354168111948
 21
106.1116717426793
 31
0.0
  0
LINE
  5
217
330
70
100
AcDbEntity
  8
Bemaßung
 62
     7
370
     9
100
AcDbLine
 10
204.0921501442894
 20
106.0608717426913
 30
0.0
 11
202.7494779224027
 21
106.0608717426913
 31
0.0
  0
LINE
  5
218
330
70
100
AcDbEntity
  8
Bemaßung
 62
     7
370
     9
100
AcDbLine
 10
204.0921501442894
 20
106.0100717427039
 30
0.0
 11
202.3638918113884
 21
106.0100717427039
 31
0.0
  0
LINE
  5
219
330
70
100
AcDbEntity
  8
Bemaßung
 62
     7
370
     9
100
AcDbLine
 10
204.0921501442894
 20
105.9592717427172
 30
0.0
 11
201.9776001448178
 21
105.9592717427172
 31
0.0
  0
LINE
  5
21A
330
70
100
AcDbEntity
  8
Bemaßung
 62
     7
370
     9
100
AcDbLine
 10
204.0921501442894
 20
105.9084717427298
 30
0.0
 11
201.5920140338029
 21
105.9084717427298
 31
0.0
  0
LINE
  5
21B
330
70
100
AcDbEntity
  8
Bemaßung
 62
     7
370
     9
100
AcDbLine
 10
215.6918362525004
 20
144.0896272887389
 30
0.0
 11
236.8916790367986
 21
144.0896272887389
 31
0.0
  0
LINE
  5
21C
330
70
100
AcDbEntity
  8
Bemaßung
 62
     7
370
     9
100
AcDbLine
 10
215.6918362525004
 20
168.089805060517
 30
0.0
 11
236.8916790367986
 21
168.089805060517
 31
0.0
  0
LINE
  5
21D
330
70
100
AcDbEntity
  8
Bemaßung
 62
     7
370
     9
100
AcDbLine
 10
234.8910762595209
 20
144.0896272887389
 30
0.0
 11
234.8910762595209
 21
168.089805060517
 31
0.0
  0
LWPOLYLINE
  5
21E
330
70
100
AcDbEntity
  8
Bemaßung
 62
     7
370
     9
100
AcDbPolyline
 90
        4
 70
     0
 43
0.0
 10
234.8910762595209
 20
144.0896272887389
 10
235.2209234816605
 20
146.5894106214474
 10
234.5619345929368
 20
146.5894106214474
 10
234.8910762595209
 20
144.0896272887389
  0
LINE
  5
21F
330
70
100
AcDbEntity
  8
Bemaßung
 62
     7
370
     9
100
AcDbLine
 10
235.1962290372223
 20
146.5894106214474
 30
0.0
 11
235.1962290372223
 21
146.4045550659382
 31
0.0
  0
LINE
  5
220
330
70
100
AcDbEntity
  8
Bemaßung
 62
     7
370
     9
100
AcDbLine
 10
235.1962290372223
 20
146.5894106214474
 30
0.0
 11
235.1962290372223
 21
146.4045550659382
 31
0.0
  0
LINE
  5
221
330
70
100
AcDbEntity
  8
Bemaßung
 62
     7
370
     9
100
AcDbLine
 10
235.1454290372349
 20
146.5894106214474
 30
0.0
 11
235.1454290372349
 21
146.019321732701
 31
0.0
  0
LINE
  5
222
330
70
100
AcDbEntity
  8
Bemaßung
 62
     7
370
     9
100
AcDbLine
 10
235.0946290372482
 20
146.5894106214474
 30
0.0
 11
235.0946290372482
 21
145.6330300661308
 31
0.0
  0
LINE
  5
223
330
70
100
AcDbEntity
  8
Bemaßung
 62
     7
370
     9
100
AcDbLine
 10
235.043476259483
 20
146.5894106214474
 30
0.0
 11
235.043476259483
 21
145.2474439551162
 31
0.0
  0
LINE
  5
224
330
70
100
AcDbEntity
  8
Bemaßung
 62
     7
370
     9
100
AcDbLine
 10
234.9933818150512
 20
146.5894106214474
 30
0.0
 11
234.9933818150512
 21
144.8611522885463
 31
0.0
  0
LINE
  5
225
330
70
100
AcDbEntity
  8
Bemaßung
 62
     7
370
     9
100
AcDbLine
 10
234.9425818150632
 20
146.5894106214474
 30
0.0
 11
234.9425818150632
 21
144.4755661775316
 31
0.0
  0
LINE
  5
226
330
70
100
AcDbEntity
  8
Bemaßung
 62
     7
370
     9
100
AcDbLine
 10
234.8910762595209
 20
146.5894106214474
 30
0.0
 11
234.8910762595209
 21
144.0896272887389
 31
0.0
  0
LINE
  5
227
330
70
100
AcDbEntity
  8
Bemaßung
 62
     7
370
     9
100
AcDbLine
 10
234.5869818151528
 20
146.5894106214474
 30
0.0
 11
234.5869818151528
 21
146.4045550659382
 31
0.0
  0
LINE
  5
228
330
70
100
AcDbEntity
  8
Bemaßung
 62
     7
370
     9
100
AcDbLine
 10
234.5869818151528
 20
146.5894106214474
 30
0.0
 11
234.5869818151528
 21
146.4045550659382
 31
0.0
  0
LINE
  5
229
330
70
100
AcDbEntity
  8
Bemaßung
 62
     7
370
     9
100
AcDbLine
 10
234.6377818151401
 20
146.5894106214474
 30
0.0
 11
234.6377818151401
 21
146.019321732701
 31
0.0
  0
LINE
  5
22A
330
70
100
AcDbEntity
  8
Bemaßung
 62
     7
370
     9
100
AcDbLine
 10
234.6885818151269
 20
146.5894106214474
 30
0.0
 11
234.6885818151269
 21
145.6330300661308
 31
0.0
  0
LINE
  5
22B
330
70
100
AcDbEntity
  8
Bemaßung
 62
     7
370
     9
100
AcDbLine
 10
234.7390290373365
 20
146.5894106214474
 30
0.0
 11
234.7390290373365
 21
145.2474439551162
 31
0.0
  0
LINE
  5
22C
330
70
100
AcDbEntity
  8
Bemaßung
 62
     7
370
     9
100
AcDbLine
 10
234.7901818151016
 20
146.5894106214474
 30
0.0
 11
234.7901818151016
 21
144.8611522885463
 31
0.0
  0
LINE
  5
22D
330
70
100
AcDbEntity
  8
Bemaßung
 62
     7
370
     9
100
AcDbLine
 10
234.840981815089
 20
146.5894106214474
 30
0.0
 11
234.840981815089
 21
144.4755661775316
 31
0.0
  0
LINE
  5
22E
330
70
100
AcDbEntity
  8
Bemaßung
 62
     7
370
     9
100
AcDbLine
 10
234.8910762595209
 20
146.5894106214474
 30
0.0
 11
234.8910762595209
 21
144.0896272887389
 31
0.0
  0
LWPOLYLINE
  5
22F
330
70
100
AcDbEntity
  8
Bemaßung
 62
     7
370
     9
100
AcDbPolyline
 90
        4
 70
     0
 43
0.0
 10
234.8910762595209
 20
168.089805060517
 10
234.5619345929368
 20
165.5900217278085
 10
235.2209234816605
 20
165.5900217278085
 10
234.8910762595209
 20
168.089805060517
  0
LINE
  5
230
330
70
100
AcDbEntity
  8
Bemaßung
 62
     7
370
     9
100
AcDbLine
 10
234.5869818151528
 20
165.5900217278085
 30
0.0
 11
234.5869818151528
 21
165.7745245055402
 31
0.0
  0
LINE
  5
231
330
70
100
AcDbEntity
  8
Bemaßung
 62
     7
370
     9
100
AcDbLine
 10
234.5869818151528
 20
165.5900217278085
 30
0.0
 11
234.5869818151528
 21
165.7745245055402
 31
0.0
  0
LINE
  5
232
330
70
100
AcDbEntity
  8
Bemaßung
 62
     7
370
     9
100
AcDbLine
 10
234.6377818151401
 20
165.5900217278085
 30
0.0
 11
234.6377818151401
 21
166.1601106165549
 31
0.0
  0
LINE
  5
233
330
70
100
AcDbEntity
  8
Bemaßung
 62
     7
370
     9
100
AcDbLine
 10
234.6885818151269
 20
165.5900217278085
 30
0.0
 11
234.6885818151269
 21
166.5464022831251
 31
0.0
  0
LINE
  5
234
330
70
100
AcDbEntity
  8
Bemaßung
 62
     7
370
     9
100
AcDbLine
 10
234.7390290373365
 20
165.5900217278085
 30
0.0
 11
234.7390290373365
 21
166.9319883941394
 31
0.0
  0
LINE
  5
235
330
70
100
AcDbEntity
  8
Bemaßung
 62
     7
370
     9
100
AcDbLine
 10
234.7901818151016
 20
165.5900217278085
 30
0.0
 11
234.7901818151016
 21
167.3182800607096
 31
0.0
  0
LINE
  5
236
330
70
100
AcDbEntity
  8
Bemaßung
 62
     7
370
     9
100
AcDbLine
 10
234.840981815089
 20
165.5900217278085
 30
0.0
 11
234.840981815089
 21
167.7035133939468
 31
0.0
  0
LINE
  5
237
330
70
100
AcDbEntity
  8
Bemaßung
 62
     7
370
     9
100
AcDbLine
 10
234.8910762595209
 20
165.5900217278085
 30
0.0
 11
234.8910762595209
 21
168.089805060517
 31
0.0
  0
LINE
  5
238
330
70
100
AcDbEntity
  8
Bemaßung
 62
     7
370
     9
100
AcDbLine
 10
235.1962290372223
 20
165.5900217278085
 30
0.0
 11
235.1962290372223
 21
165.7745245055402
 31
0.0
  0
LINE
  5
239
330
70
100
AcDbEntity
  8
Bemaßung
 62
     7
370
     9
100
AcDbLine
 10
235.1962290372223
 20
165.5900217278085
 30
0.0
 11
235.1962290372223
 21
165.7745245055402
 31
0.0
  0
LINE
  5
23A
330
70
100
AcDbEntity
  8
Bemaßung
 62
     7
370
     9
100
AcDbLine
 10
235.1454290372349
 20
165.5900217278085
 30
0.0
 11
235.1454290372349
 21
166.1601106165549
 31
0.0
  0
LINE
  5
23B
330
70
100
AcDbEntity
  8
Bemaßung
 62
     7
370
     9
100
AcDbLine
 10
235.0946290372482
 20
165.5900217278085
 30
0.0
 11
235.0946290372482
 21
166.5464022831251
 31
0.0
  0
LINE
  5
23C
330
70
100
AcDbEntity
  8
Bemaßung
 62
     7
370
     9
100
AcDbLine
 10
235.043476259483
 20
165.5900217278085
 30
0.0
 11
235.043476259483
 21
166.9319883941394
 31
0.0
  0
LINE
  5
23D
330
70
100
AcDbEntity
  8
Bemaßung
 62
     7
370
     9
100
AcDbLine
 10
234.9933818150512
 20
165.5900217278085
 30
0.0
 11
234.9933818150512
 21
167.3182800607096
 31
0.0
  0
LINE
  5
23E
330
70
100
AcDbEntity
  8
Bemaßung
 62
     7
370
     9
100
AcDbLine
 10
234.9425818150632
 20
165.5900217278085
 30
0.0
 11
234.9425818150632
 21
167.7035133939468
 31
0.0
  0
LINE
  5
23F
330
70
100
AcDbEntity
  8
Bemaßung
 62
     7
370
     9
100
AcDbLine
 10
234.8910762595209
 20
165.5900217278085
 30
0.0
 11
234.8910762595209
 21
168.089805060517
 31
0.0
  0
LINE
  5
240
330
70
100
AcDbEntity
  8
Bemaßung
 62
     7
370
     9
100
AcDbLine
 10
146.9788390474564
 20
173.0900772814888
 30
0.0
 11
122.0921307203447
 21
173.0900772814888
 31
0.0
  0
LINE
  5
241
330
70
100
AcDbEntity
  8
Bemaßung
 62
     7
370
     9
100
AcDbLine
 10
146.9788390474564
 20
139.0897078455445
 30
0.0
 11
122.0921307203447
 21
139.0897078455445
 31
0.0
  0
LINE
  5
242
330
70
100
AcDbEntity
  8
Bemaßung
 62
     7
370
     9
100
AcDbLine
 10
124.0916751642898
 20
173.0900772814888
 30
0.0
 11
124.0916751642898
 21
139.0897078455445
 31
0.0
  0
LWPOLYLINE
  5
243
330
70
100
AcDbEntity
  8
Bemaßung
 62
     7
370
     9
100
AcDbPolyline
 90
        4
 70
     0
 43
0.0
 10
124.0916751642898
 20
173.0900772814888
 10
123.7625334977051
 20
170.5899411710029
 10
124.4208168308738
 20
170.5899411710029
 10
124.0916751642898
 20
173.0900772814888
  0
LINE
  5
244
330
70
100
AcDbEntity
  8
Bemaßung
 62
     7
370
     9
100
AcDbLine
 10
123.7872279421432
 20
170.5899411710029
 30
0.0
 11
123.7872279421432
 21
170.774796726512
 31
0.0
  0
LINE
  5
245
330
70
100
AcDbEntity
  8
Bemaßung
 62
     7
370
     9
100
AcDbLine
 10
123.7872279421432
 20
170.5899411710029
 30
0.0
 11
123.7872279421432
 21
170.774796726512
 31
0.0
  0
LINE
  5
246
330
70
100
AcDbEntity
  8
Bemaßung
 62
     7
370
     9
100
AcDbLine
 10
123.8380279421306
 20
170.5899411710029
 30
0.0
 11
123.8380279421306
 21
171.160382837527
 31
0.0
  0
LINE
  5
247
330
70
100
AcDbEntity
  8
Bemaßung
 62
     7
370
     9
100
AcDbLine
 10
123.888827942118
 20
170.5899411710029
 30
0.0
 11
123.888827942118
 21
171.5463217263195
 31
0.0
  0
LINE
  5
248
330
70
100
AcDbEntity
  8
Bemaßung
 62
     7
370
     9
100
AcDbLine
 10
123.9392751643276
 20
170.5899411710029
 30
0.0
 11
123.9392751643276
 21
171.9319078373341
 31
0.0
  0
LINE
  5
249
330
70
100
AcDbEntity
  8
Bemaßung
 62
     7
370
     9
100
AcDbLine
 10
123.9900751643144
 20
170.5899411710029
 30
0.0
 11
123.9900751643144
 21
172.318199503904
 31
0.0
  0
LINE
  5
24A
330
70
100
AcDbEntity
  8
Bemaßung
 62
     7
370
     9
100
AcDbLine
 10
124.0408751643024
 20
170.5899411710029
 30
0.0
 11
124.0408751643024
 21
172.703785614919
 31
0.0
  0
LINE
  5
24B
330
70
100
AcDbEntity
  8
Bemaßung
 62
     7
370
     9
100
AcDbLine
 10
124.0916751642898
 20
170.5899411710029
 30
0.0
 11
124.0916751642898
 21
173.0900772814888
 31
0.0
  0
LINE
  5
24C
330
70
100
AcDbEntity
  8
Bemaßung
 62
     7
370
     9
100
AcDbLine
 10
124.3968279419912
 20
170.5899411710029
 30
0.0
 11
124.3968279419912
 21
170.774796726512
 31
0.0
  0
LINE
  5
24D
330
70
100
AcDbEntity
  8
Bemaßung
 62
     7
370
     9
100
AcDbLine
 10
124.3968279419912
 20
170.5899411710029
 30
0.0
 11
124.3968279419912
 21
170.774796726512
 31
0.0
  0
LINE
  5
24E
330
70
100
AcDbEntity
  8
Bemaßung
 62
     7
370
     9
100
AcDbLine
 10
124.3460279420032
 20
170.5899411710029
 30
0.0
 11
124.3460279420032
 21
171.160382837527
 31
0.0
  0
LINE
  5
24F
330
70
100
AcDbEntity
  8
Bemaßung
 62
     7
370
     9
100
AcDbLine
 10
124.2952279420164
 20
170.5899411710029
 30
0.0
 11
124.2952279420164
 21
171.5463217263195
 31
0.0
  0
LINE
  5
250
330
70
100
AcDbEntity
  8
Bemaßung
 62
     7
370
     9
100
AcDbLine
 10
124.244427942029
 20
170.5899411710029
 30
0.0
 11
124.244427942029
 21
171.9319078373341
 31
0.0
  0
LINE
  5
251
330
70
100
AcDbEntity
  8
Bemaßung
 62
     7
370
     9
100
AcDbLine
 10
124.1936279420417
 20
170.5899411710029
 30
0.0
 11
124.1936279420417
 21
172.318199503904
 31
0.0
  0
LINE
  5
252
330
70
100
AcDbEntity
  8
Bemaßung
 62
     7
370
     9
100
AcDbLine
 10
124.1424751642765
 20
170.5899411710029
 30
0.0
 11
124.1424751642765
 21
172.703785614919
 31
0.0
  0
LINE
  5
253
330
70
100
AcDbEntity
  8
Bemaßung
 62
     7
370
     9
100
AcDbLine
 10
124.0916751642898
 20
170.5899411710029
 30
0.0
 11
124.0916751642898
 21
173.0900772814888
 31
0.0
  0
LWPOLYLINE
  5
254
330
70
100
AcDbEntity
  8
Bemaßung
 62
     7
370
     9
100
AcDbPolyline
 90
        4
 70
     0
 43
0.0
 10
124.0916751642898
 20
139.0897078455445
 10
124.4208168308738
 20
141.589491178253
 10
123.7625334977051
 20
141.589491178253
 10
124.0916751642898
 20
139.0897078455445
  0
LINE
  5
255
330
70
100
AcDbEntity
  8
Bemaßung
 62
     7
370
     9
100
AcDbLine
 10
124.3968279419912
 20
141.589491178253
 30
0.0
 11
124.3968279419912
 21
141.4046356227435
 31
0.0
  0
LINE
  5
256
330
70
100
AcDbEntity
  8
Bemaßung
 62
     7
370
     9
100
AcDbLine
 10
124.3968279419912
 20
141.589491178253
 30
0.0
 11
124.3968279419912
 21
141.4046356227435
 31
0.0
  0
LINE
  5
257
330
70
100
AcDbEntity
  8
Bemaßung
 62
     7
370
     9
100
AcDbLine
 10
124.3460279420032
 20
141.589491178253
 30
0.0
 11
124.3460279420032
 21
141.0190495117289
 31
0.0
  0
LINE
  5
258
330
70
100
AcDbEntity
  8
Bemaßung
 62
     7
370
     9
100
AcDbLine
 10
124.2952279420164
 20
141.589491178253
 30
0.0
 11
124.2952279420164
 21
140.6331106229364
 31
0.0
  0
LINE
  5
259
330
70
100
AcDbEntity
  8
Bemaßung
 62
     7
370
     9
100
AcDbLine
 10
124.244427942029
 20
141.589491178253
 30
0.0
 11
124.244427942029
 21
140.2475245119218
 31
0.0
  0
LINE
  5
25A
330
70
100
AcDbEntity
  8
Bemaßung
 62
     7
370
     9
100
AcDbLine
 10
124.1936279420417
 20
141.589491178253
 30
0.0
 11
124.1936279420417
 21
139.8612328453516
 31
0.0
  0
LINE
  5
25B
330
70
100
AcDbEntity
  8
Bemaßung
 62
     7
370
     9
100
AcDbLine
 10
124.1424751642765
 20
141.589491178253
 30
0.0
 11
124.1424751642765
 21
139.4756467343369
 31
0.0
  0
LINE
  5
25C
330
70
100
AcDbEntity
  8
Bemaßung
 62
     7
370
     9
100
AcDbLine
 10
124.0916751642898
 20
141.589491178253
 30
0.0
 11
124.0916751642898
 21
139.0897078455445
 31
0.0
  0
LINE
  5
25D
330
70
100
AcDbEntity
  8
Bemaßung
 62
     7
370
     9
100
AcDbLine
 10
123.7872279421432
 20
141.589491178253
 30
0.0
 11
123.7872279421432
 21
141.4046356227435
 31
0.0
  0
LINE
  5
25E
330
70
100
AcDbEntity
  8
Bemaßung
 62
     7
370
     9
100
AcDbLine
 10
123.7872279421432
 20
141.589491178253
 30
0.0
 11
123.7872279421432
 21
141.4046356227435
 31
0.0
  0
LINE
  5
25F
330
70
100
AcDbEntity
  8
Bemaßung
 62
     7
370
     9
100
AcDbLine
 10
123.8380279421306
 20
141.589491178253
 30
0.0
 11
123.8380279421306
 21
141.0190495117289
 31
0.0
  0
LINE
  5
260
330
70
100
AcDbEntity
  8
Bemaßung
 62
     7
370
     9
100
AcDbLine
 10
123.888827942118
 20
141.589491178253
 30
0.0
 11
123.888827942118
 21
140.6331106229364
 31
0.0
  0
LINE
  5
261
330
70
100
AcDbEntity
  8
Bemaßung
 62
     7
370
     9
100
AcDbLine
 10
123.9392751643276
 20
141.589491178253
 30
0.0
 11
123.9392751643276
 21
140.2475245119218
 31
0.0
  0
LINE
  5
262
330
70
100
AcDbEntity
  8
Bemaßung
 62
     7
370
     9
100
AcDbLine
 10
123.9900751643144
 20
141.589491178253
 30
0.0
 11
123.9900751643144
 21
139.8612328453516
 31
0.0
  0
LINE
  5
263
330
70
100
AcDbEntity
  8
Bemaßung
 62
     7
370
     9
100
AcDbLine
 10
124.0408751643024
 20
141.589491178253
 30
0.0
 11
124.0408751643024
 21
139.4756467343369
 31
0.0
  0
LINE
  5
264
330
70
100
AcDbEntity
  8
Bemaßung
 62
     7
370
     9
100
AcDbLine
 10
124.0916751642898
 20
141.589491178253
 30
0.0
 11
124.0916751642898
 21
139.0897078455445
 31
0.0
  0
LINE
  5
265
330
70
100
AcDbEntity
  8
Bemaßung
 62
     7
370
     9
100
AcDbLine
 10
144.0917057148451
 20
144.0896272887389
 30
0.0
 11
144.0917057148451
 21
114.0579911851364
 31
0.0
  0
LINE
  5
266
330
70
100
AcDbEntity
  8
Bemaßung
 62
     7
370
     9
100
AcDbLine
 10
163.0916112656501
 20
139.6897828453945
 30
0.0
 11
163.0916112656501
 21
114.0579911851364
 31
0.0
  0
LINE
  5
267
330
70
100
AcDbEntity
  8
Bemaßung
 62
     7
370
     9
100
AcDbLine
 10
144.0917057148451
 20
116.0582411846364
 30
0.0
 11
163.0916112656501
 21
116.0582411846364
 31
0.0
  0
LWPOLYLINE
  5
268
330
70
100
AcDbEntity
  8
Bemaßung
 62
     7
370
     9
100
AcDbPolyline
 90
        4
 70
     0
 43
0.0
 10
144.0917057148451
 20
116.0582411846364
 10
146.5921946031087
 20
115.7290995180523
 10
146.5921946031087
 20
116.3873828512211
 10
144.0917057148451
 20
116.0582411846364
  0
LINE
  5
269
330
70
100
AcDbEntity
  8
Bemaßung
 62
     7
370
     9
100
AcDbLine
 10
146.5921946031087
 20
115.753088406935
 30
0.0
 11
146.407339047599
 21
115.753088406935
 31
0.0
  0
LINE
  5
26A
330
70
100
AcDbEntity
  8
Bemaßung
 62
     7
370
     9
100
AcDbLine
 10
146.5921946031087
 20
115.753088406935
 30
0.0
 11
146.407339047599
 21
115.753088406935
 31
0.0
  0
LINE
  5
26B
330
70
100
AcDbEntity
  8
Bemaßung
 62
     7
370
     9
100
AcDbLine
 10
146.5921946031087
 20
115.803888406923
 30
0.0
 11
146.0214001588069
 21
115.803888406923
 31
0.0
  0
LINE
  5
26C
330
70
100
AcDbEntity
  8
Bemaßung
 62
     7
370
     9
100
AcDbLine
 10
146.5921946031087
 20
115.8546884069098
 30
0.0
 11
145.635108492237
 21
115.8546884069098
 31
0.0
  0
LINE
  5
26D
330
70
100
AcDbEntity
  8
Bemaßung
 62
     7
370
     9
100
AcDbLine
 10
146.5921946031087
 20
115.9054884068971
 30
0.0
 11
145.2491696034449
 21
115.9054884068971
 31
0.0
  0
LINE
  5
26E
330
70
100
AcDbEntity
  8
Bemaßung
 62
     7
370
     9
100
AcDbLine
 10
146.5921946031087
 20
115.9566411846623
 30
0.0
 11
144.863936270207
 21
115.9566411846623
 31
0.0
  0
LINE
  5
26F
330
70
100
AcDbEntity
  8
Bemaßung
 62
     7
370
     9
100
AcDbLine
 10
146.5921946031087
 20
116.0074411846496
 30
0.0
 11
144.4779973814149
 21
116.0074411846496
 31
0.0
  0
LINE
  5
270
330
70
100
AcDbEntity
  8
Bemaßung
 62
     7
370
     9
100
AcDbLine
 10
146.5921946031087
 20
116.0582411846364
 30
0.0
 11
144.0917057148451
 21
116.0582411846364
 31
0.0
  0
LINE
  5
271
330
70
100
AcDbEntity
  8
Bemaßung
 62
     7
370
     9
100
AcDbLine
 10
146.5921946031087
 20
116.3626884067829
 30
0.0
 11
146.407339047599
 21
116.3626884067829
 31
0.0
  0
LINE
  5
272
330
70
100
AcDbEntity
  8
Bemaßung
 62
     7
370
     9
100
AcDbLine
 10
146.5921946031087
 20
116.3626884067829
 30
0.0
 11
146.407339047599
 21
116.3626884067829
 31
0.0
  0
LINE
  5
273
330
70
100
AcDbEntity
  8
Bemaßung
 62
     7
370
     9
100
AcDbLine
 10
146.5921946031087
 20
116.3118884067956
 30
0.0
 11
146.0214001588069
 21
116.3118884067956
 31
0.0
  0
LINE
  5
274
330
70
100
AcDbEntity
  8
Bemaßung
 62
     7
370
     9
100
AcDbLine
 10
146.5921946031087
 20
116.2610884068082
 30
0.0
 11
145.635108492237
 21
116.2610884068082
 31
0.0
  0
LINE
  5
275
330
70
100
AcDbEntity
  8
Bemaßung
 62
     7
370
     9
100
AcDbLine
 10
146.5921946031087
 20
116.2102884068208
 30
0.0
 11
145.2491696034449
 21
116.2102884068208
 31
0.0
  0
LINE
  5
276
330
70
100
AcDbEntity
  8
Bemaßung
 62
     7
370
     9
100
AcDbLine
 10
146.5921946031087
 20
116.1598411846118
 30
0.0
 11
144.863936270207
 21
116.1598411846118
 31
0.0
  0
LINE
  5
277
330
70
100
AcDbEntity
  8
Bemaßung
 62
     7
370
     9
100
AcDbLine
 10
146.5921946031087
 20
116.1090411846238
 30
0.0
 11
144.4779973814149
 21
116.1090411846238
 31
0.0
  0
LINE
  5
278
330
70
100
AcDbEntity
  8
Bemaßung
 62
     7
370
     9
100
AcDbLine
 10
146.5921946031087
 20
116.0582411846364
 30
0.0
 11
144.0917057148451
 21
116.0582411846364
 31
0.0
  0
LWPOLYLINE
  5
279
330
70
100
AcDbEntity
  8
Bemaßung
 62
     7
370
     9
100
AcDbPolyline
 90
        4
 70
     0
 43
0.0
 10
163.0916112656501
 20
116.0582411846364
 10
160.5921807107197
 20
116.3873828512211
 10
160.5921807107197
 20
115.7290995180523
 10
163.0916112656501
 20
116.0582411846364
  0
LINE
  5
27A
330
70
100
AcDbEntity
  8
Bemaßung
 62
     7
370
     9
100
AcDbLine
 10
160.5921807107197
 20
116.3626884067829
 30
0.0
 11
160.7770362662295
 21
116.3626884067829
 31
0.0
  0
LINE
  5
27B
330
70
100
AcDbEntity
  8
Bemaßung
 62
     7
370
     9
100
AcDbLine
 10
160.5921807107197
 20
116.3626884067829
 30
0.0
 11
160.7770362662295
 21
116.3626884067829
 31
0.0
  0
LINE
  5
27C
330
70
100
AcDbEntity
  8
Bemaßung
 62
     7
370
     9
100
AcDbLine
 10
160.5921807107197
 20
116.3118884067956
 30
0.0
 11
161.162269599466
 21
116.3118884067956
 31
0.0
  0
LINE
  5
27D
330
70
100
AcDbEntity
  8
Bemaßung
 62
     7
370
     9
100
AcDbLine
 10
160.5921807107197
 20
116.2610884068082
 30
0.0
 11
161.5482084882582
 21
116.2610884068082
 31
0.0
  0
LINE
  5
27E
330
70
100
AcDbEntity
  8
Bemaßung
 62
     7
370
     9
100
AcDbLine
 10
160.5921807107197
 20
116.2102884068208
 30
0.0
 11
161.9345001548286
 21
116.2102884068208
 31
0.0
  0
LINE
  5
27F
330
70
100
AcDbEntity
  8
Bemaßung
 62
     7
370
     9
100
AcDbLine
 10
160.5921807107197
 20
116.1598411846118
 30
0.0
 11
162.3204390436214
 21
116.1598411846118
 31
0.0
  0
LINE
  5
280
330
70
100
AcDbEntity
  8
Bemaßung
 62
     7
370
     9
100
AcDbLine
 10
160.5921807107197
 20
116.1090411846238
 30
0.0
 11
162.7063779324135
 21
116.1090411846238
 31
0.0
  0
LINE
  5
281
330
70
100
AcDbEntity
  8
Bemaßung
 62
     7
370
     9
100
AcDbLine
 10
160.5921807107197
 20
116.0582411846364
 30
0.0
 11
163.0916112656501
 21
116.0582411846364
 31
0.0
  0
LINE
  5
282
330
70
100
AcDbEntity
  8
Bemaßung
 62
     7
370
     9
100
AcDbLine
 10
160.5921807107197
 20
115.753088406935
 30
0.0
 11
160.7770362662295
 21
115.753088406935
 31
0.0
  0
LINE
  5
283
330
70
100
AcDbEntity
  8
Bemaßung
 62
     7
370
     9
100
AcDbLine
 10
160.5921807107197
 20
115.753088406935
 30
0.0
 11
160.7770362662295
 21
115.753088406935
 31
0.0
  0
LINE
  5
284
330
70
100
AcDbEntity
  8
Bemaßung
 62
     7
370
     9
100
AcDbLine
 10
160.5921807107197
 20
115.803888406923
 30
0.0
 11
161.162269599466
 21
115.803888406923
 31
0.0
  0
LINE
  5
285
330
70
100
AcDbEntity
  8
Bemaßung
 62
     7
370
     9
100
AcDbLine
 10
160.5921807107197
 20
115.8546884069098
 30
0.0
 11
161.5482084882582
 21
115.8546884069098
 31
0.0
  0
LINE
  5
286
330
70
100
AcDbEntity
  8
Bemaßung
 62
     7
370
     9
100
AcDbLine
 10
160.5921807107197
 20
115.9054884068971
 30
0.0
 11
161.9345001548286
 21
115.9054884068971
 31
0.0
  0
LINE
  5
287
330
70
100
AcDbEntity
  8
Bemaßung
 62
     7
370
     9
100
AcDbLine
 10
160.5921807107197
 20
115.9566411846623
 30
0.0
 11
162.3204390436214
 21
115.9566411846623
 31
0.0
  0
LINE
  5
288
330
70
100
AcDbEntity
  8
Bemaßung
 62
     7
370
     9
100
AcDbLine
 10
160.5921807107197
 20
116.0074411846496
 30
0.0
 11
162.7063779324135
 21
116.0074411846496
 31
0.0
  0
LINE
  5
289
330
70
100
AcDbEntity
  8
Bemaßung
 62
     7
370
     9
100
AcDbLine
 10
160.5921807107197
 20
116.0582411846364
 30
0.0
 11
163.0916112656501
 21
116.0582411846364
 31
0.0
  0
LINE
  5
28A
330
70
100
AcDbEntity
  8
Bemaßung
 62
     7
370
     9
100
AcDbLine
 10
155.592261267525
 20
166.089555061017
 30
0.0
 11
132.5398650924101
 21
166.089555061017
 31
0.0
  0
LINE
  5
28B
330
70
100
AcDbEntity
  8
Bemaßung
 62
     7
370
     9
100
AcDbLine
 10
155.592261267525
 20
146.0895245104614
 30
0.0
 11
132.5398650924101
 21
146.0895245104614
 31
0.0
  0
LINE
  5
28C
330
70
100
AcDbEntity
  8
Bemaßung
 62
     7
370
     9
100
AcDbLine
 10
134.5404678696878
 20
166.089555061017
 30
0.0
 11
134.5404678696878
 21
146.0895245104614
 31
0.0
  0
LWPOLYLINE
  5
28D
330
70
100
AcDbEntity
  8
Bemaßung
 62
     7
370
     9
100
AcDbPolyline
 90
        4
 70
     0
 43
0.0
 10
134.5404678696878
 20
166.089555061017
 10
134.2113262031031
 20
163.5894189505308
 10
134.8692567584941
 20
163.5894189505308
 10
134.5404678696878
 20
166.089555061017
  0
LINE
  5
28E
330
70
100
AcDbEntity
  8
Bemaßung
 62
     7
370
     9
100
AcDbLine
 10
134.2353150919858
 20
163.5894189505308
 30
0.0
 11
134.2353150919858
 21
163.7742745060406
 31
0.0
  0
LINE
  5
28F
330
70
100
AcDbEntity
  8
Bemaßung
 62
     7
370
     9
100
AcDbLine
 10
134.2353150919858
 20
163.5894189505308
 30
0.0
 11
134.2353150919858
 21
163.7742745060406
 31
0.0
  0
LINE
  5
290
330
70
100
AcDbEntity
  8
Bemaßung
 62
     7
370
     9
100
AcDbLine
 10
134.2861150919732
 20
163.5894189505308
 30
0.0
 11
134.2861150919732
 21
164.1605661726101
 31
0.0
  0
LINE
  5
291
330
70
100
AcDbEntity
  8
Bemaßung
 62
     7
370
     9
100
AcDbLine
 10
134.3369150919605
 20
163.5894189505308
 30
0.0
 11
134.3369150919605
 21
164.5461522836251
 31
0.0
  0
LINE
  5
292
330
70
100
AcDbEntity
  8
Bemaßung
 62
     7
370
     9
100
AcDbLine
 10
134.387715091948
 20
163.5894189505308
 30
0.0
 11
134.387715091948
 21
164.9320911724172
 31
0.0
  0
LINE
  5
293
330
70
100
AcDbEntity
  8
Bemaßung
 62
     7
370
     9
100
AcDbLine
 10
134.4385150919347
 20
163.5894189505308
 30
0.0
 11
134.4385150919347
 21
165.3176772834325
 31
0.0
  0
LINE
  5
294
330
70
100
AcDbEntity
  8
Bemaßung
 62
     7
370
     9
100
AcDbLine
 10
134.4896678697005
 20
163.5894189505308
 30
0.0
 11
134.4896678697005
 21
165.7039689500021
 31
0.0
  0
LINE
  5
295
330
70
100
AcDbEntity
  8
Bemaßung
 62
     7
370
     9
100
AcDbLine
 10
134.5404678696878
 20
163.5894189505308
 30
0.0
 11
134.5404678696878
 21
166.089555061017
 31
0.0
  0
LINE
  5
296
330
70
100
AcDbEntity
  8
Bemaßung
 62
     7
370
     9
100
AcDbLine
 10
134.8449150918331
 20
163.5894189505308
 30
0.0
 11
134.8449150918331
 21
163.7742745060406
 31
0.0
  0
LINE
  5
297
330
70
100
AcDbEntity
  8
Bemaßung
 62
     7
370
     9
100
AcDbLine
 10
134.8449150918331
 20
163.5894189505308
 30
0.0
 11
134.8449150918331
 21
163.7742745060406
 31
0.0
  0
LINE
  5
298
330
70
100
AcDbEntity
  8
Bemaßung
 62
     7
370
     9
100
AcDbLine
 10
134.7941150918464
 20
163.5894189505308
 30
0.0
 11
134.7941150918464
 21
164.1605661726101
 31
0.0
  0
LINE
  5
299
330
70
100
AcDbEntity
  8
Bemaßung
 62
     7
370
     9
100
AcDbLine
 10
134.743315091859
 20
163.5894189505308
 30
0.0
 11
134.743315091859
 21
164.5461522836251
 31
0.0
  0
LINE
  5
29A
330
70
100
AcDbEntity
  8
Bemaßung
 62
     7
370
     9
100
AcDbLine
 10
134.6928678696494
 20
163.5894189505308
 30
0.0
 11
134.6928678696494
 21
164.9320911724172
 31
0.0
  0
LINE
  5
29B
330
70
100
AcDbEntity
  8
Bemaßung
 62
     7
370
     9
100
AcDbLine
 10
134.642067869662
 20
163.5894189505308
 30
0.0
 11
134.642067869662
 21
165.3176772834325
 31
0.0
  0
LINE
  5
29C
330
70
100
AcDbEntity
  8
Bemaßung
 62
     7
370
     9
100
AcDbLine
 10
134.5912678696746
 20
163.5894189505308
 30
0.0
 11
134.5912678696746
 21
165.7039689500021
 31
0.0
  0
LINE
  5
29D
330
70
100
AcDbEntity
  8
Bemaßung
 62
     7
370
     9
100
AcDbLine
 10
134.5404678696878
 20
163.5894189505308
 30
0.0
 11
134.5404678696878
 21
166.089555061017
 31
0.0
  0
LWPOLYLINE
  5
29E
330
70
100
AcDbEntity
  8
Bemaßung
 62
     7
370
     9
100
AcDbPolyline
 90
        4
 70
     0
 43
0.0
 10
134.5404678696878
 20
146.0895245104614
 10
134.8692567584941
 20
148.5896606209473
 10
134.2113262031031
 20
148.5896606209473
 10
134.5404678696878
 20
146.0895245104614
  0
LINE
  5
29F
330
70
100
AcDbEntity
  8
Bemaßung
 62
     7
370
     9
100
AcDbLine
 10
134.8449150918331
 20
148.5896606209473
 30
0.0
 11
134.8449150918331
 21
148.4048050654379
 31
0.0
  0
LINE
  5
2A0
330
70
100
AcDbEntity
  8
Bemaßung
 62
     7
370
     9
100
AcDbLine
 10
134.8449150918331
 20
148.5896606209473
 30
0.0
 11
134.8449150918331
 21
148.4048050654379
 31
0.0
  0
LINE
  5
2A1
330
70
100
AcDbEntity
  8
Bemaßung
 62
     7
370
     9
100
AcDbLine
 10
134.7941150918464
 20
148.5896606209473
 30
0.0
 11
134.7941150918464
 21
148.0192189544232
 31
0.0
  0
LINE
  5
2A2
330
70
100
AcDbEntity
  8
Bemaßung
 62
     7
370
     9
100
AcDbLine
 10
134.743315091859
 20
148.5896606209473
 30
0.0
 11
134.743315091859
 21
147.6329272878533
 31
0.0
  0
LINE
  5
2A3
330
70
100
AcDbEntity
  8
Bemaßung
 62
     7
370
     9
100
AcDbLine
 10
134.6928678696494
 20
148.5896606209473
 30
0.0
 11
134.6928678696494
 21
147.2473411768387
 31
0.0
  0
LINE
  5
2A4
330
70
100
AcDbEntity
  8
Bemaßung
 62
     7
370
     9
100
AcDbLine
 10
134.642067869662
 20
148.5896606209473
 30
0.0
 11
134.642067869662
 21
146.8614022880459
 31
0.0
  0
LINE
  5
2A5
330
70
100
AcDbEntity
  8
Bemaßung
 62
     7
370
     9
100
AcDbLine
 10
134.5912678696746
 20
148.5896606209473
 30
0.0
 11
134.5912678696746
 21
146.4758161770313
 31
0.0
  0
LINE
  5
2A6
330
70
100
AcDbEntity
  8
Bemaßung
 62
     7
370
     9
100
AcDbLine
 10
134.5404678696878
 20
148.5896606209473
 30
0.0
 11
134.5404678696878
 21
146.0895245104614
 31
0.0
  0
LINE
  5
2A7
330
70
100
AcDbEntity
  8
Bemaßung
 62
     7
370
     9
100
AcDbLine
 10
134.2353150919858
 20
148.5896606209473
 30
0.0
 11
134.2353150919858
 21
148.4048050654379
 31
0.0
  0
LINE
  5
2A8
330
70
100
AcDbEntity
  8
Bemaßung
 62
     7
370
     9
100
AcDbLine
 10
134.2353150919858
 20
148.5896606209473
 30
0.0
 11
134.2353150919858
 21
148.4048050654379
 31
0.0
  0
LINE
  5
2A9
330
70
100
AcDbEntity
  8
Bemaßung
 62
     7
370
     9
100
AcDbLine
 10
134.2861150919732
 20
148.5896606209473
 30
0.0
 11
134.2861150919732
 21
148.0192189544232
 31
0.0
  0
LINE
  5
2AA
330
70
100
AcDbEntity
  8
Bemaßung
 62
     7
370
     9
100
AcDbLine
 10
134.3369150919605
 20
148.5896606209473
 30
0.0
 11
134.3369150919605
 21
147.6329272878533
 31
0.0
  0
LINE
  5
2AB
330
70
100
AcDbEntity
  8
Bemaßung
 62
     7
370
     9
100
AcDbLine
 10
134.387715091948
 20
148.5896606209473
 30
0.0
 11
134.387715091948
 21
147.2473411768387
 31
0.0
  0
LINE
  5
2AC
330
70
100
AcDbEntity
  8
Bemaßung
 62
     7
370
     9
100
AcDbLine
 10
134.4385150919347
 20
148.5896606209473
 30
0.0
 11
134.4385150919347
 21
146.8614022880459
 31
0.0
  0
LINE
  5
2AD
330
70
100
AcDbEntity
  8
Bemaßung
 62
     7
370
     9
100
AcDbLine
 10
134.4896678697005
 20
148.5896606209473
 30
0.0
 11
134.4896678697005
 21
146.4758161770313
 31
0.0
  0
LINE
  5
2AE
330
70
100
AcDbEntity
  8
Bemaßung
 62
     7
370
     9
100
AcDbLine
 10
134.5404678696878
 20
148.5896606209473
 30
0.0
 11
134.5404678696878
 21
146.0895245104614
 31
0.0
  0
LINE
  5
2AF
330
70
100
AcDbEntity
  8
Bemaßung
 62
     7
370
     9
100
AcDbLine
 10
155.592261267525
 20
168.089805060517
 30
0.0
 11
155.592261267525
 21
188.382152277667
 31
0.0
  0
LINE
  5
2B0
330
70
100
AcDbEntity
  8
Bemaßung
 62
     7
370
     9
100
AcDbLine
 10
185.5921307044697
 20
162.8394133951627
 30
0.0
 11
185.5921307044697
 21
188.382152277667
 31
0.0
  0
LINE
  5
2B1
330
70
100
AcDbEntity
  8
Bemaßung
 62
     7
370
     9
100
AcDbLine
 10
155.592261267525
 20
186.3822550559448
 30
0.0
 11
185.5921307044697
 21
186.3822550559448
 31
0.0
  0
LWPOLYLINE
  5
2B2
330
70
100
AcDbEntity
  8
Bemaßung
 62
     7
370
     9
100
AcDbPolyline
 90
        4
 70
     0
 43
0.0
 10
155.592261267525
 20
186.3822550559448
 10
158.091691822456
 20
186.0531133893607
 10
158.091691822456
 20
186.7110439447514
 10
155.592261267525
 20
186.3822550559448
  0
LINE
  5
2B3
330
70
100
AcDbEntity
  8
Bemaßung
 62
     7
370
     9
100
AcDbLine
 10
158.091691822456
 20
186.0771022782434
 30
0.0
 11
157.9068362669462
 21
186.0771022782434
 31
0.0
  0
LINE
  5
2B4
330
70
100
AcDbEntity
  8
Bemaßung
 62
     7
370
     9
100
AcDbLine
 10
158.091691822456
 20
186.0771022782434
 30
0.0
 11
157.9068362669462
 21
186.0771022782434
 31
0.0
  0
LINE
  5
2B5
330
70
100
AcDbEntity
  8
Bemaßung
 62
     7
370
     9
100
AcDbLine
 10
158.091691822456
 20
186.1279022782304
 30
0.0
 11
157.5216029337097
 21
186.1279022782304
 31
0.0
  0
LINE
  5
2B6
330
70
100
AcDbEntity
  8
Bemaßung
 62
     7
370
     9
100
AcDbLine
 10
158.091691822456
 20
186.1787022782178
 30
0.0
 11
157.1356640449169
 21
186.1787022782178
 31
0.0
  0
LINE
  5
2B7
330
70
100
AcDbEntity
  8
Bemaßung
 62
     7
370
     9
100
AcDbLine
 10
158.091691822456
 20
186.2295022782055
 30
0.0
 11
156.7497251561248
 21
186.2295022782055
 31
0.0
  0
LINE
  5
2B8
330
70
100
AcDbEntity
  8
Bemaßung
 62
     7
370
     9
100
AcDbLine
 10
158.091691822456
 20
186.2803022781923
 30
0.0
 11
156.3634334895543
 21
186.2803022781923
 31
0.0
  0
LINE
  5
2B9
330
70
100
AcDbEntity
  8
Bemaßung
 62
     7
370
     9
100
AcDbLine
 10
158.091691822456
 20
186.3314550559574
 30
0.0
 11
155.9774946007622
 21
186.3314550559574
 31
0.0
  0
LINE
  5
2BA
330
70
100
AcDbEntity
  8
Bemaßung
 62
     7
370
     9
100
AcDbLine
 10
158.091691822456
 20
186.3822550559448
 30
0.0
 11
155.592261267525
 21
186.3822550559448
 31
0.0
  0
LINE
  5
2BB
330
70
100
AcDbEntity
  8
Bemaßung
 62
     7
370
     9
100
AcDbLine
 10
158.091691822456
 20
186.6870550558684
 30
0.0
 11
157.9068362669462
 21
186.6870550558684
 31
0.0
  0
LINE
  5
2BC
330
70
100
AcDbEntity
  8
Bemaßung
 62
     7
370
     9
100
AcDbLine
 10
158.091691822456
 20
186.6870550558684
 30
0.0
 11
157.9068362669462
 21
186.6870550558684
 31
0.0
  0
LINE
  5
2BD
330
70
100
AcDbEntity
  8
Bemaßung
 62
     7
370
     9
100
AcDbLine
 10
158.091691822456
 20
186.6362550558811
 30
0.0
 11
157.5216029337097
 21
186.6362550558811
 31
0.0
  0
LINE
  5
2BE
330
70
100
AcDbEntity
  8
Bemaßung
 62
     7
370
     9
100
AcDbLine
 10
158.091691822456
 20
186.5854550558943
 30
0.0
 11
157.1356640449169
 21
186.5854550558943
 31
0.0
  0
LINE
  5
2BF
330
70
100
AcDbEntity
  8
Bemaßung
 62
     7
370
     9
100
AcDbLine
 10
158.091691822456
 20
186.5346550559066
 30
0.0
 11
156.7497251561248
 21
186.5346550559066
 31
0.0
  0
LINE
  5
2C0
330
70
100
AcDbEntity
  8
Bemaßung
 62
     7
370
     9
100
AcDbLine
 10
158.091691822456
 20
186.4838550559192
 30
0.0
 11
156.3634334895543
 21
186.4838550559192
 31
0.0
  0
LINE
  5
2C1
330
70
100
AcDbEntity
  8
Bemaßung
 62
     7
370
     9
100
AcDbLine
 10
158.091691822456
 20
186.4330550559322
 30
0.0
 11
155.9774946007622
 21
186.4330550559322
 31
0.0
  0
LINE
  5
2C2
330
70
100
AcDbEntity
  8
Bemaßung
 62
     7
370
     9
100
AcDbLine
 10
158.091691822456
 20
186.3822550559448
 30
0.0
 11
155.592261267525
 21
186.3822550559448
 31
0.0
  0
LWPOLYLINE
  5
2C3
330
70
100
AcDbEntity
  8
Bemaßung
 62
     7
370
     9
100
AcDbPolyline
 90
        4
 70
     0
 43
0.0
 10
185.5921307044697
 20
186.3822550559448
 10
183.0919945939838
 20
186.7110439447514
 10
183.0919945939838
 20
186.0531133893607
 10
185.5921307044697
 20
186.3822550559448
  0
LINE
  5
2C4
330
70
100
AcDbEntity
  8
Bemaßung
 62
     7
370
     9
100
AcDbLine
 10
183.0919945939838
 20
186.6870550558684
 30
0.0
 11
183.2768501494929
 21
186.6870550558684
 31
0.0
  0
LINE
  5
2C5
330
70
100
AcDbEntity
  8
Bemaßung
 62
     7
370
     9
100
AcDbLine
 10
183.0919945939838
 20
186.6870550558684
 30
0.0
 11
183.2768501494929
 21
186.6870550558684
 31
0.0
  0
LINE
  5
2C6
330
70
100
AcDbEntity
  8
Bemaßung
 62
     7
370
     9
100
AcDbLine
 10
183.0919945939838
 20
186.6362550558811
 30
0.0
 11
183.662789038285
 21
186.6362550558811
 31
0.0
  0
LINE
  5
2C7
330
70
100
AcDbEntity
  8
Bemaßung
 62
     7
370
     9
100
AcDbLine
 10
183.0919945939838
 20
186.5854550558943
 30
0.0
 11
184.0487279270778
 21
186.5854550558943
 31
0.0
  0
LINE
  5
2C8
330
70
100
AcDbEntity
  8
Bemaßung
 62
     7
370
     9
100
AcDbLine
 10
183.0919945939838
 20
186.5346550559066
 30
0.0
 11
184.4346668158699
 21
186.5346550559066
 31
0.0
  0
LINE
  5
2C9
330
70
100
AcDbEntity
  8
Bemaßung
 62
     7
370
     9
100
AcDbLine
 10
183.0919945939838
 20
186.4838550559192
 30
0.0
 11
184.8202529268849
 21
186.4838550559192
 31
0.0
  0
LINE
  5
2CA
330
70
100
AcDbEntity
  8
Bemaßung
 62
     7
370
     9
100
AcDbLine
 10
183.0919945939838
 20
186.4330550559322
 30
0.0
 11
185.206191815677
 21
186.4330550559322
 31
0.0
  0
LINE
  5
2CB
330
70
100
AcDbEntity
  8
Bemaßung
 62
     7
370
     9
100
AcDbLine
 10
183.0919945939838
 20
186.3822550559448
 30
0.0
 11
185.5921307044697
 21
186.3822550559448
 31
0.0
  0
LINE
  5
2CC
330
70
100
AcDbEntity
  8
Bemaßung
 62
     7
370
     9
100
AcDbLine
 10
183.0919945939838
 20
186.0771022782434
 30
0.0
 11
183.2768501494929
 21
186.0771022782434
 31
0.0
  0
LINE
  5
2CD
330
70
100
AcDbEntity
  8
Bemaßung
 62
     7
370
     9
100
AcDbLine
 10
183.0919945939838
 20
186.0771022782434
 30
0.0
 11
183.2768501494929
 21
186.0771022782434
 31
0.0
  0
LINE
  5
2CE
330
70
100
AcDbEntity
  8
Bemaßung
 62
     7
370
     9
100
AcDbLine
 10
183.0919945939838
 20
186.1279022782304
 30
0.0
 11
183.662789038285
 21
186.1279022782304
 31
0.0
  0
LINE
  5
2CF
330
70
100
AcDbEntity
  8
Bemaßung
 62
     7
370
     9
100
AcDbLine
 10
183.0919945939838
 20
186.1787022782178
 30
0.0
 11
184.0487279270778
 21
186.1787022782178
 31
0.0
  0
LINE
  5
2D0
330
70
100
AcDbEntity
  8
Bemaßung
 62
     7
370
     9
100
AcDbLine
 10
183.0919945939838
 20
186.2295022782055
 30
0.0
 11
184.4346668158699
 21
186.2295022782055
 31
0.0
  0
LINE
  5
2D1
330
70
100
AcDbEntity
  8
Bemaßung
 62
     7
370
     9
100
AcDbLine
 10
183.0919945939838
 20
186.2803022781923
 30
0.0
 11
184.8202529268849
 21
186.2803022781923
 31
0.0
  0
LINE
  5
2D2
330
70
100
AcDbEntity
  8
Bemaßung
 62
     7
370
     9
100
AcDbLine
 10
183.0919945939838
 20
186.3314550559574
 30
0.0
 11
185.206191815677
 21
186.3314550559574
 31
0.0
  0
LINE
  5
2D3
330
70
100
AcDbEntity
  8
Bemaßung
 62
     7
370
     9
100
AcDbLine
 10
183.0919945939838
 20
186.3822550559448
 30
0.0
 11
185.5921307044697
 21
186.3822550559448
 31
0.0
  0
LINE
  5
2D4
330
70
100
AcDbEntity
  8
Bemaßung
 62
     7
370
     9
100
AcDbLine
 10
144.0917057148451
 20
144.0896272887389
 30
0.0
 11
144.0917057148451
 21
124.5122078491895
 31
0.0
  0
LINE
  5
2D5
330
70
100
AcDbEntity
  8
Bemaßung
 62
     7
370
     9
100
AcDbLine
 10
155.592261267525
 20
144.0896272887389
 30
0.0
 11
155.592261267525
 21
124.5122078491895
 31
0.0
  0
LINE
  5
2D6
330
70
100
AcDbEntity
  8
Bemaßung
 62
     7
370
     9
100
AcDbLine
 10
155.592261267525
 20
126.5121050709118
 30
0.0
 11
110.9193057231384
 21
126.5121050709118
 31
0.0
  0
LWPOLYLINE
  5
2D7
330
70
100
AcDbEntity
  8
Bemaßung
 62
     7
370
     9
100
AcDbPolyline
 90
        4
 70
     0
 43
0.0
 10
144.0917057148451
 20
126.5121050709118
 10
146.5921946031087
 20
126.1829634043277
 10
146.5921946031087
 20
126.8415995152742
 10
144.0917057148451
 20
126.5121050709118
  0
LINE
  5
2D8
330
70
100
AcDbEntity
  8
Bemaßung
 62
     7
370
     9
100
AcDbLine
 10
146.5921946031087
 20
126.2073050709881
 30
0.0
 11
146.407339047599
 21
126.2073050709881
 31
0.0
  0
LINE
  5
2D9
330
70
100
AcDbEntity
  8
Bemaßung
 62
     7
370
     9
100
AcDbLine
 10
146.5921946031087
 20
126.2073050709881
 30
0.0
 11
146.407339047599
 21
126.2073050709881
 31
0.0
  0
LINE
  5
2DA
330
70
100
AcDbEntity
  8
Bemaßung
 62
     7
370
     9
100
AcDbLine
 10
146.5921946031087
 20
126.2584578487533
 30
0.0
 11
146.0214001588069
 21
126.2584578487533
 31
0.0
  0
LINE
  5
2DB
330
70
100
AcDbEntity
  8
Bemaßung
 62
     7
370
     9
100
AcDbLine
 10
146.5921946031087
 20
126.3092578487406
 30
0.0
 11
145.635108492237
 21
126.3092578487406
 31
0.0
  0
LINE
  5
2DC
330
70
100
AcDbEntity
  8
Bemaßung
 62
     7
370
     9
100
AcDbLine
 10
146.5921946031087
 20
126.360057848728
 30
0.0
 11
145.2491696034449
 21
126.360057848728
 31
0.0
  0
LINE
  5
2DD
330
70
100
AcDbEntity
  8
Bemaßung
 62
     7
370
     9
100
AcDbLine
 10
146.5921946031087
 20
126.4108578487154
 30
0.0
 11
144.863936270207
 21
126.4108578487154
 31
0.0
  0
LINE
  5
2DE
330
70
100
AcDbEntity
  8
Bemaßung
 62
     7
370
     9
100
AcDbLine
 10
146.5921946031087
 20
126.4616578487021
 30
0.0
 11
144.4779973814149
 21
126.4616578487021
 31
0.0
  0
LINE
  5
2DF
330
70
100
AcDbEntity
  8
Bemaßung
 62
     7
370
     9
100
AcDbLine
 10
146.5921946031087
 20
126.5121050709118
 30
0.0
 11
144.0917057148451
 21
126.5121050709118
 31
0.0
  0
LINE
  5
2E0
330
70
100
AcDbEntity
  8
Bemaßung
 62
     7
370
     9
100
AcDbLine
 10
146.5921946031087
 20
126.8172578486138
 30
0.0
 11
146.407339047599
 21
126.8172578486138
 31
0.0
  0
LINE
  5
2E1
330
70
100
AcDbEntity
  8
Bemaßung
 62
     7
370
     9
100
AcDbLine
 10
146.5921946031087
 20
126.8172578486138
 30
0.0
 11
146.407339047599
 21
126.8172578486138
 31
0.0
  0
LINE
  5
2E2
330
70
100
AcDbEntity
  8
Bemaßung
 62
     7
370
     9
100
AcDbLine
 10
146.5921946031087
 20
126.7661050708487
 30
0.0
 11
146.0214001588069
 21
126.7661050708487
 31
0.0
  0
LINE
  5
2E3
330
70
100
AcDbEntity
  8
Bemaßung
 62
     7
370
     9
100
AcDbLine
 10
146.5921946031087
 20
126.7153050708613
 30
0.0
 11
145.635108492237
 21
126.7153050708613
 31
0.0
  0
LINE
  5
2E4
330
70
100
AcDbEntity
  8
Bemaßung
 62
     7
370
     9
100
AcDbLine
 10
146.5921946031087
 20
126.6645050708739
 30
0.0
 11
145.2491696034449
 21
126.6645050708739
 31
0.0
  0
LINE
  5
2E5
330
70
100
AcDbEntity
  8
Bemaßung
 62
     7
370
     9
100
AcDbLine
 10
146.5921946031087
 20
126.6137050708872
 30
0.0
 11
144.863936270207
 21
126.6137050708872
 31
0.0
  0
LINE
  5
2E6
330
70
100
AcDbEntity
  8
Bemaßung
 62
     7
370
     9
100
AcDbLine
 10
146.5921946031087
 20
126.5629050708991
 30
0.0
 11
144.4779973814149
 21
126.5629050708991
 31
0.0
  0
LINE
  5
2E7
330
70
100
AcDbEntity
  8
Bemaßung
 62
     7
370
     9
100
AcDbLine
 10
146.5921946031087
 20
126.5121050709118
 30
0.0
 11
144.0917057148451
 21
126.5121050709118
 31
0.0
  0
LWPOLYLINE
  5
2E8
330
70
100
AcDbEntity
  8
Bemaßung
 62
     7
370
     9
100
AcDbPolyline
 90
        4
 70
     0
 43
0.0
 10
155.592261267525
 20
126.5121050709118
 10
153.091772379262
 20
126.8415995152742
 10
153.091772379262
 20
126.1829634043277
 10
155.592261267525
 20
126.5121050709118
  0
LINE
  5
2E9
330
70
100
AcDbEntity
  8
Bemaßung
 62
     7
370
     9
100
AcDbLine
 10
153.091772379262
 20
126.8172578486138
 30
0.0
 11
153.2766279347705
 21
126.8172578486138
 31
0.0
  0
LINE
  5
2EA
330
70
100
AcDbEntity
  8
Bemaßung
 62
     7
370
     9
100
AcDbLine
 10
153.091772379262
 20
126.8172578486138
 30
0.0
 11
153.2766279347705
 21
126.8172578486138
 31
0.0
  0
LINE
  5
2EB
330
70
100
AcDbEntity
  8
Bemaßung
 62
     7
370
     9
100
AcDbLine
 10
153.091772379262
 20
126.7661050708487
 30
0.0
 11
153.6629196013409
 21
126.7661050708487
 31
0.0
  0
LINE
  5
2EC
330
70
100
AcDbEntity
  8
Bemaßung
 62
     7
370
     9
100
AcDbLine
 10
153.091772379262
 20
126.7153050708613
 30
0.0
 11
154.0481529345782
 21
126.7153050708613
 31
0.0
  0
LINE
  5
2ED
330
70
100
AcDbEntity
  8
Bemaßung
 62
     7
370
     9
100
AcDbLine
 10
153.091772379262
 20
126.6645050708739
 30
0.0
 11
154.4340918233703
 21
126.6645050708739
 31
0.0
  0
LINE
  5
2EE
330
70
100
AcDbEntity
  8
Bemaßung
 62
     7
370
     9
100
AcDbLine
 10
153.091772379262
 20
126.6137050708872
 30
0.0
 11
154.8200307121624
 21
126.6137050708872
 31
0.0
  0
LINE
  5
2EF
330
70
100
AcDbEntity
  8
Bemaßung
 62
     7
370
     9
100
AcDbLine
 10
153.091772379262
 20
126.5629050708991
 30
0.0
 11
155.2063223787329
 21
126.5629050708991
 31
0.0
  0
LINE
  5
2F0
330
70
100
AcDbEntity
  8
Bemaßung
 62
     7
370
     9
100
AcDbLine
 10
153.091772379262
 20
126.5121050709118
 30
0.0
 11
155.592261267525
 21
126.5121050709118
 31
0.0
  0
LINE
  5
2F1
330
70
100
AcDbEntity
  8
Bemaßung
 62
     7
370
     9
100
AcDbLine
 10
153.091772379262
 20
126.2073050709881
 30
0.0
 11
153.2766279347705
 21
126.2073050709881
 31
0.0
  0
LINE
  5
2F2
330
70
100
AcDbEntity
  8
Bemaßung
 62
     7
370
     9
100
AcDbLine
 10
153.091772379262
 20
126.2073050709881
 30
0.0
 11
153.2766279347705
 21
126.2073050709881
 31
0.0
  0
LINE
  5
2F3
330
70
100
AcDbEntity
  8
Bemaßung
 62
     7
370
     9
100
AcDbLine
 10
153.091772379262
 20
126.2584578487533
 30
0.0
 11
153.6629196013409
 21
126.2584578487533
 31
0.0
  0
LINE
  5
2F4
330
70
100
AcDbEntity
  8
Bemaßung
 62
     7
370
     9
100
AcDbLine
 10
153.091772379262
 20
126.3092578487406
 30
0.0
 11
154.0481529345782
 21
126.3092578487406
 31
0.0
  0
LINE
  5
2F5
330
70
100
AcDbEntity
  8
Bemaßung
 62
     7
370
     9
100
AcDbLine
 10
153.091772379262
 20
126.360057848728
 30
0.0
 11
154.4340918233703
 21
126.360057848728
 31
0.0
  0
LINE
  5
2F6
330
70
100
AcDbEntity
  8
Bemaßung
 62
     7
370
     9
100
AcDbLine
 10
153.091772379262
 20
126.4108578487154
 30
0.0
 11
154.8200307121624
 21
126.4108578487154
 31
0.0
  0
LINE
  5
2F7
330
70
100
AcDbEntity
  8
Bemaßung
 62
     7
370
     9
100
AcDbLine
 10
153.091772379262
 20
126.4616578487021
 30
0.0
 11
155.2063223787329
 21
126.4616578487021
 31
0.0
  0
LINE
  5
2F8
330
70
100
AcDbEntity
  8
Bemaßung
 62
     7
370
     9
100
AcDbLine
 10
153.091772379262
 20
126.5121050709118
 30
0.0
 11
155.592261267525
 21
126.5121050709118
 31
0.0
  0
LINE
  5
2F9
330
70
100
AcDbEntity
  8
Bemaßung
 62
     7
370
     9
100
AcDbLine
 10
266.7487751286188
 20
164.0896578392945
 30
0.0
 11
266.7487751286188
 21
187.9899994999863
 31
0.0
  0
LINE
  5
2FA
330
70
100
AcDbEntity
  8
Bemaßung
 62
     7
370
     9
100
AcDbLine
 10
296.7486445655635
 20
164.0896578392945
 30
0.0
 11
296.7486445655635
 21
187.9899994999863
 31
0.0
  0
LINE
  5
2FB
330
70
100
AcDbEntity
  8
Bemaßung
 62
     7
370
     9
100
AcDbLine
 10
266.7487751286188
 20
185.9897495004864
 30
0.0
 11
296.7486445655635
 21
185.9897495004864
 31
0.0
  0
LWPOLYLINE
  5
2FC
330
70
100
AcDbEntity
  8
Bemaßung
 62
     7
370
     9
100
AcDbPolyline
 90
        4
 70
     0
 43
0.0
 10
266.7487751286188
 20
185.9897495004864
 10
269.2485584613269
 20
185.6602550561242
 10
269.2485584613269
 20
186.3188911670704
 10
266.7487751286188
 20
185.9897495004864
  0
LINE
  5
2FD
330
70
100
AcDbEntity
  8
Bemaßung
 62
     7
370
     9
100
AcDbLine
 10
269.2485584613269
 20
185.6849495005624
 30
0.0
 11
269.0637029058178
 21
185.6849495005624
 31
0.0
  0
LINE
  5
2FE
330
70
100
AcDbEntity
  8
Bemaßung
 62
     7
370
     9
100
AcDbLine
 10
269.2485584613269
 20
185.6849495005624
 30
0.0
 11
269.0637029058178
 21
185.6849495005624
 31
0.0
  0
LINE
  5
2FF
330
70
100
AcDbEntity
  8
Bemaßung
 62
     7
370
     9
100
AcDbLine
 10
269.2485584613269
 20
185.7357495005498
 30
0.0
 11
268.6777640170257
 21
185.7357495005498
 31
0.0
  0
LINE
  5
300
330
70
100
AcDbEntity
  8
Bemaßung
 62
     7
370
     9
100
AcDbLine
 10
269.2485584613269
 20
185.7865495005368
 30
0.0
 11
268.2921779060107
 21
185.7865495005368
 31
0.0
  0
LINE
  5
301
330
70
100
AcDbEntity
  8
Bemaßung
 62
     7
370
     9
100
AcDbLine
 10
269.2485584613269
 20
185.8373495005242
 30
0.0
 11
267.9058862394409
 21
185.8373495005242
 31
0.0
  0
LINE
  5
302
330
70
100
AcDbEntity
  8
Bemaßung
 62
     7
370
     9
100
AcDbLine
 10
269.2485584613269
 20
185.8881495005116
 30
0.0
 11
267.5203001284259
 21
185.8881495005116
 31
0.0
  0
LINE
  5
303
330
70
100
AcDbEntity
  8
Bemaßung
 62
     7
370
     9
100
AcDbLine
 10
269.2485584613269
 20
185.938949500499
 30
0.0
 11
267.134008461856
 21
185.938949500499
 31
0.0
  0
LINE
  5
304
330
70
100
AcDbEntity
  8
Bemaßung
 62
     7
370
     9
100
AcDbLine
 10
269.2485584613269
 20
185.9897495004864
 30
0.0
 11
266.7487751286188
 21
185.9897495004864
 31
0.0
  0
LINE
  5
305
330
70
100
AcDbEntity
  8
Bemaßung
 62
     7
370
     9
100
AcDbLine
 10
269.2485584613269
 20
186.2941967226323
 30
0.0
 11
269.0637029058178
 21
186.2941967226323
 31
0.0
  0
LINE
  5
306
330
70
100
AcDbEntity
  8
Bemaßung
 62
     7
370
     9
100
AcDbLine
 10
269.2485584613269
 20
186.2941967226323
 30
0.0
 11
269.0637029058178
 21
186.2941967226323
 31
0.0
  0
LINE
  5
307
330
70
100
AcDbEntity
  8
Bemaßung
 62
     7
370
     9
100
AcDbLine
 10
269.2485584613269
 20
186.2433967226449
 30
0.0
 11
268.6777640170257
 21
186.2433967226449
 31
0.0
  0
LINE
  5
308
330
70
100
AcDbEntity
  8
Bemaßung
 62
     7
370
     9
100
AcDbLine
 10
269.2485584613269
 20
186.1925967226578
 30
0.0
 11
268.2921779060107
 21
186.1925967226578
 31
0.0
  0
LINE
  5
309
330
70
100
AcDbEntity
  8
Bemaßung
 62
     7
370
     9
100
AcDbLine
 10
269.2485584613269
 20
186.1417967226705
 30
0.0
 11
267.9058862394409
 21
186.1417967226705
 31
0.0
  0
LINE
  5
30A
330
70
100
AcDbEntity
  8
Bemaßung
 62
     7
370
     9
100
AcDbLine
 10
269.2485584613269
 20
186.0909967226831
 30
0.0
 11
267.5203001284259
 21
186.0909967226831
 31
0.0
  0
LINE
  5
30B
330
70
100
AcDbEntity
  8
Bemaßung
 62
     7
370
     9
100
AcDbLine
 10
269.2485584613269
 20
186.040196722696
 30
0.0
 11
267.134008461856
 21
186.040196722696
 31
0.0
  0
LINE
  5
30C
330
70
100
AcDbEntity
  8
Bemaßung
 62
     7
370
     9
100
AcDbLine
 10
269.2485584613269
 20
185.9897495004864
 30
0.0
 11
266.7487751286188
 21
185.9897495004864
 31
0.0
  0
LWPOLYLINE
  5
30D
330
70
100
AcDbEntity
  8
Bemaßung
 62
     7
370
     9
100
AcDbPolyline
 90
        4
 70
     0
 43
0.0
 10
296.7486445655635
 20
185.9897495004864
 10
294.2485084550769
 20
186.3188911670704
 10
294.2485084550769
 20
185.6602550561242
 10
296.7486445655635
 20
185.9897495004864
  0
LINE
  5
30E
330
70
100
AcDbEntity
  8
Bemaßung
 62
     7
370
     9
100
AcDbLine
 10
294.2485084550769
 20
186.2941967226323
 30
0.0
 11
294.4333640105867
 21
186.2941967226323
 31
0.0
  0
LINE
  5
30F
330
70
100
AcDbEntity
  8
Bemaßung
 62
     7
370
     9
100
AcDbLine
 10
294.2485084550769
 20
186.2941967226323
 30
0.0
 11
294.4333640105867
 21
186.2941967226323
 31
0.0
  0
LINE
  5
310
330
70
100
AcDbEntity
  8
Bemaßung
 62
     7
370
     9
100
AcDbLine
 10
294.2485084550769
 20
186.2433967226449
 30
0.0
 11
294.8189501216011
 21
186.2433967226449
 31
0.0
  0
LINE
  5
311
330
70
100
AcDbEntity
  8
Bemaßung
 62
     7
370
     9
100
AcDbLine
 10
294.2485084550769
 20
186.1925967226578
 30
0.0
 11
295.2052417881716
 21
186.1925967226578
 31
0.0
  0
LINE
  5
312
330
70
100
AcDbEntity
  8
Bemaßung
 62
     7
370
     9
100
AcDbLine
 10
294.2485084550769
 20
186.1417967226705
 30
0.0
 11
295.5908278991859
 21
186.1417967226705
 31
0.0
  0
LINE
  5
313
330
70
100
AcDbEntity
  8
Bemaßung
 62
     7
370
     9
100
AcDbLine
 10
294.2485084550769
 20
186.0909967226831
 30
0.0
 11
295.9767667879786
 21
186.0909967226831
 31
0.0
  0
LINE
  5
314
330
70
100
AcDbEntity
  8
Bemaßung
 62
     7
370
     9
100
AcDbLine
 10
294.2485084550769
 20
186.040196722696
 30
0.0
 11
296.362352898993
 21
186.040196722696
 31
0.0
  0
LINE
  5
315
330
70
100
AcDbEntity
  8
Bemaßung
 62
     7
370
     9
100
AcDbLine
 10
294.2485084550769
 20
185.9897495004864
 30
0.0
 11
296.7486445655635
 21
185.9897495004864
 31
0.0
  0
LINE
  5
316
330
70
100
AcDbEntity
  8
Bemaßung
 62
     7
370
     9
100
AcDbLine
 10
294.2485084550769
 20
185.6849495005624
 30
0.0
 11
294.4333640105867
 21
185.6849495005624
 31
0.0
  0
LINE
  5
317
330
70
100
AcDbEntity
  8
Bemaßung
 62
     7
370
     9
100
AcDbLine
 10
294.2485084550769
 20
185.6849495005624
 30
0.0
 11
294.4333640105867
 21
185.6849495005624
 31
0.0
  0
LINE
  5
318
330
70
100
AcDbEntity
  8
Bemaßung
 62
     7
370
     9
100
AcDbLine
 10
294.2485084550769
 20
185.7357495005498
 30
0.0
 11
294.8189501216011
 21
185.7357495005498
 31
0.0
  0
LINE
  5
319
330
70
100
AcDbEntity
  8
Bemaßung
 62
     7
370
     9
100
AcDbLine
 10
294.2485084550769
 20
185.7865495005368
 30
0.0
 11
295.2052417881716
 21
185.7865495005368
 31
0.0
  0
LINE
  5
31A
330
70
100
AcDbEntity
  8
Bemaßung
 62
     7
370
     9
100
AcDbLine
 10
294.2485084550769
 20
185.8373495005242
 30
0.0
 11
295.5908278991859
 21
185.8373495005242
 31
0.0
  0
LINE
  5
31B
330
70
100
AcDbEntity
  8
Bemaßung
 62
     7
370
     9
100
AcDbLine
 10
294.2485084550769
 20
185.8881495005116
 30
0.0
 11
295.9767667879786
 21
185.8881495005116
 31
0.0
  0
LINE
  5
31C
330
70
100
AcDbEntity
  8
Bemaßung
 62
     7
370
     9
100
AcDbLine
 10
294.2485084550769
 20
185.938949500499
 30
0.0
 11
296.362352898993
 21
185.938949500499
 31
0.0
  0
LINE
  5
31D
330
70
100
AcDbEntity
  8
Bemaßung
 62
     7
370
     9
100
AcDbLine
 10
294.2485084550769
 20
185.9897495004864
 30
0.0
 11
296.7486445655635
 21
185.9897495004864
 31
0.0
  0
LINE
  5
31E
330
70
100
AcDbEntity
  8
Bemaßung
 62
     7
370
     9
100
AcDbLine
 10
201.0921279228169
 20
136.1895217351586
 30
0.0
 11
246.9101926276742
 21
136.1895217351586
 31
0.0
  0
LINE
  5
31F
330
70
100
AcDbEntity
  8
Bemaßung
 62
     7
370
     9
100
AcDbLine
 10
201.0921279228169
 20
175.9899106140973
 30
0.0
 11
246.9101926276742
 21
175.9899106140973
 31
0.0
  0
LINE
  5
320
330
70
100
AcDbEntity
  8
Bemaßung
 62
     7
370
     9
100
AcDbLine
 10
244.9106481837297
 20
136.1895217351586
 30
0.0
 11
244.9106481837297
 21
175.9899106140973
 31
0.0
  0
LWPOLYLINE
  5
321
330
70
100
AcDbEntity
  8
Bemaßung
 62
     7
370
     9
100
AcDbPolyline
 90
        4
 70
     0
 43
0.0
 10
244.9106481837297
 20
136.1895217351586
 10
245.2397898503144
 20
138.6896578456445
 10
244.5815065171457
 20
138.6896578456445
 10
244.9106481837297
 20
136.1895217351586
  0
LINE
  5
322
330
70
100
AcDbEntity
  8
Bemaßung
 62
     7
370
     9
100
AcDbLine
 10
245.2154481836533
 20
138.6896578456445
 30
0.0
 11
245.2154481836533
 21
138.5048022901354
 31
0.0
  0
LINE
  5
323
330
70
100
AcDbEntity
  8
Bemaßung
 62
     7
370
     9
100
AcDbLine
 10
245.2154481836533
 20
138.6896578456445
 30
0.0
 11
245.2154481836533
 21
138.5048022901354
 31
0.0
  0
LINE
  5
324
330
70
100
AcDbEntity
  8
Bemaßung
 62
     7
370
     9
100
AcDbLine
 10
245.164648183666
 20
138.6896578456445
 30
0.0
 11
245.164648183666
 21
138.1192161791207
 31
0.0
  0
LINE
  5
325
330
70
100
AcDbEntity
  8
Bemaßung
 62
     7
370
     9
100
AcDbLine
 10
245.1138481836792
 20
138.6896578456445
 30
0.0
 11
245.1138481836792
 21
137.7329245125505
 31
0.0
  0
LINE
  5
326
330
70
100
AcDbEntity
  8
Bemaßung
 62
     7
370
     9
100
AcDbLine
 10
245.0630481836919
 20
138.6896578456445
 30
0.0
 11
245.0630481836919
 21
137.3473384015359
 31
0.0
  0
LINE
  5
327
330
70
100
AcDbEntity
  8
Bemaßung
 62
     7
370
     9
100
AcDbLine
 10
245.0122481837045
 20
138.6896578456445
 30
0.0
 11
245.0122481837045
 21
136.9613995127434
 31
0.0
  0
LINE
  5
328
330
70
100
AcDbEntity
  8
Bemaßung
 62
     7
370
     9
100
AcDbLine
 10
244.9614481837171
 20
138.6896578456445
 30
0.0
 11
244.9614481837171
 21
136.5758134017288
 31
0.0
  0
LINE
  5
329
330
70
100
AcDbEntity
  8
Bemaßung
 62
     7
370
     9
100
AcDbLine
 10
244.9106481837297
 20
138.6896578456445
 30
0.0
 11
244.9106481837297
 21
136.1895217351586
 31
0.0
  0
LINE
  5
32A
330
70
100
AcDbEntity
  8
Bemaßung
 62
     7
370
     9
100
AcDbLine
 10
244.6054954060283
 20
138.6896578456445
 30
0.0
 11
244.6054954060283
 21
138.5048022901354
 31
0.0
  0
LINE
  5
32B
330
70
100
AcDbEntity
  8
Bemaßung
 62
     7
370
     9
100
AcDbLine
 10
244.6054954060283
 20
138.6896578456445
 30
0.0
 11
244.6054954060283
 21
138.5048022901354
 31
0.0
  0
LINE
  5
32C
330
70
100
AcDbEntity
  8
Bemaßung
 62
     7
370
     9
100
AcDbLine
 10
244.6562954060157
 20
138.6896578456445
 30
0.0
 11
244.6562954060157
 21
138.1192161791207
 31
0.0
  0
LINE
  5
32D
330
70
100
AcDbEntity
  8
Bemaßung
 62
     7
370
     9
100
AcDbLine
 10
244.7070954060031
 20
138.6896578456445
 30
0.0
 11
244.7070954060031
 21
137.7329245125505
 31
0.0
  0
LINE
  5
32E
330
70
100
AcDbEntity
  8
Bemaßung
 62
     7
370
     9
100
AcDbLine
 10
244.7582481837682
 20
138.6896578456445
 30
0.0
 11
244.7582481837682
 21
137.3473384015359
 31
0.0
  0
LINE
  5
32F
330
70
100
AcDbEntity
  8
Bemaßung
 62
     7
370
     9
100
AcDbLine
 10
244.8090481837549
 20
138.6896578456445
 30
0.0
 11
244.8090481837549
 21
136.9613995127434
 31
0.0
  0
LINE
  5
330
330
70
100
AcDbEntity
  8
Bemaßung
 62
     7
370
     9
100
AcDbLine
 10
244.859848183743
 20
138.6896578456445
 30
0.0
 11
244.859848183743
 21
136.5758134017288
 31
0.0
  0
LINE
  5
331
330
70
100
AcDbEntity
  8
Bemaßung
 62
     7
370
     9
100
AcDbLine
 10
244.9106481837297
 20
138.6896578456445
 30
0.0
 11
244.9106481837297
 21
136.1895217351586
 31
0.0
  0
LWPOLYLINE
  5
332
330
70
100
AcDbEntity
  8
Bemaßung
 62
     7
370
     9
100
AcDbPolyline
 90
        4
 70
     0
 43
0.0
 10
244.9106481837297
 20
175.9899106140973
 10
244.5815065171457
 20
173.4894217258336
 10
245.2397898503144
 20
173.4894217258336
 10
244.9106481837297
 20
175.9899106140973
  0
LINE
  5
333
330
70
100
AcDbEntity
  8
Bemaßung
 62
     7
370
     9
100
AcDbLine
 10
244.6054954060283
 20
173.4894217258336
 30
0.0
 11
244.6054954060283
 21
173.6742772813431
 31
0.0
  0
LINE
  5
334
330
70
100
AcDbEntity
  8
Bemaßung
 62
     7
370
     9
100
AcDbLine
 10
244.6054954060283
 20
173.4894217258336
 30
0.0
 11
244.6054954060283
 21
173.6742772813431
 31
0.0
  0
LINE
  5
335
330
70
100
AcDbEntity
  8
Bemaßung
 62
     7
370
     9
100
AcDbLine
 10
244.6562954060157
 20
173.4894217258336
 30
0.0
 11
244.6562954060157
 21
174.0602161701352
 31
0.0
  0
LINE
  5
336
330
70
100
AcDbEntity
  8
Bemaßung
 62
     7
370
     9
100
AcDbLine
 10
244.7070954060031
 20
173.4894217258336
 30
0.0
 11
244.7070954060031
 21
174.4465078367054
 31
0.0
  0
LINE
  5
337
330
70
100
AcDbEntity
  8
Bemaßung
 62
     7
370
     9
100
AcDbLine
 10
244.7582481837682
 20
173.4894217258336
 30
0.0
 11
244.7582481837682
 21
174.83209394772
 31
0.0
  0
LINE
  5
338
330
70
100
AcDbEntity
  8
Bemaßung
 62
     7
370
     9
100
AcDbLine
 10
244.8090481837549
 20
173.4894217258336
 30
0.0
 11
244.8090481837549
 21
175.217680058735
 31
0.0
  0
LINE
  5
339
330
70
100
AcDbEntity
  8
Bemaßung
 62
     7
370
     9
100
AcDbLine
 10
244.859848183743
 20
173.4894217258336
 30
0.0
 11
244.859848183743
 21
175.6036189475271
 31
0.0
  0
LINE
  5
33A
330
70
100
AcDbEntity
  8
Bemaßung
 62
     7
370
     9
100
AcDbLine
 10
244.9106481837297
 20
173.4894217258336
 30
0.0
 11
244.9106481837297
 21
175.9899106140973
 31
0.0
  0
LINE
  5
33B
330
70
100
AcDbEntity
  8
Bemaßung
 62
     7
370
     9
100
AcDbLine
 10
245.2154481836533
 20
173.4894217258336
 30
0.0
 11
245.2154481836533
 21
173.6742772813431
 31
0.0
  0
LINE
  5
33C
330
70
100
AcDbEntity
  8
Bemaßung
 62
     7
370
     9
100
AcDbLine
 10
245.2154481836533
 20
173.4894217258336
 30
0.0
 11
245.2154481836533
 21
173.6742772813431
 31
0.0
  0
LINE
  5
33D
330
70
100
AcDbEntity
  8
Bemaßung
 62
     7
370
     9
100
AcDbLine
 10
245.164648183666
 20
173.4894217258336
 30
0.0
 11
245.164648183666
 21
174.0602161701352
 31
0.0
  0
LINE
  5
33E
330
70
100
AcDbEntity
  8
Bemaßung
 62
     7
370
     9
100
AcDbLine
 10
245.1138481836792
 20
173.4894217258336
 30
0.0
 11
245.1138481836792
 21
174.4465078367054
 31
0.0
  0
LINE
  5
33F
330
70
100
AcDbEntity
  8
Bemaßung
 62
     7
370
     9
100
AcDbLine
 10
245.0630481836919
 20
173.4894217258336
 30
0.0
 11
245.0630481836919
 21
174.83209394772
 31
0.0
  0
LINE
  5
340
330
70
100
AcDbEntity
  8
Bemaßung
 62
     7
370
     9
100
AcDbLine
 10
245.0122481837045
 20
173.4894217258336
 30
0.0
 11
245.0122481837045
 21
175.217680058735
 31
0.0
  0
LINE
  5
341
330
70
100
AcDbEntity
  8
Bemaßung
 62
     7
370
     9
100
AcDbLine
 10
244.9614481837171
 20
173.4894217258336
 30
0.0
 11
244.9614481837171
 21
175.6036189475271
 31
0.0
  0
LINE
  5
342
330
70
100
AcDbEntity
  8
Bemaßung
 62
     7
370
     9
100
AcDbLine
 10
244.9106481837297
 20
173.4894217258336
 30
0.0
 11
244.9106481837297
 21
175.9899106140973
 31
0.0
  0
MTEXT
  5
344
330
70
100
AcDbEntity
  8
Text
100
AcDbMText
 10
283.0530930553218
 20
128.5837103628193
 30
0.0
 40
0.2
 41
0.0
 46
0.0
 71
     7
 72
     1
  1
\C7;\FINDEX Univers 45 Light|b0|i0|c1;\H3.447529;\W1.000000;SW34
 73
     1
 44
1.0
  0
MTEXT
  5
345
330
70
100
AcDbEntity
  8
Text
100
AcDbMText
 10
156.0536959787817
 20
108.3642727051138
 30
0.0
 40
0.2
 41
0.0
 46
0.0
 71
     7
 72
     1
  1
\C7;\FINDEX Univers 45 Light|b0|i0|c1;\H3.447529;\W1.000000;min. 54, max.57,5
 73
     1
 44
1.0
  0
MTEXT
  5
346
330
70
100
AcDbEntity
  8
Text
100
AcDbMText
 10
209.2278835197416
 20
108.3642727051138
 30
0.0
 40
0.2
 41
0.0
 46
0.0
 71
     7
 72
     1
  1
\C7;\FINDEX Univers 45 Light|b0|i0|c1;\H3.447529;\W1.000000;18
 73
     1
 44
1.0
  0
MTEXT
  5
347
330
70
100
AcDbEntity
  8
Text
100
AcDbMText
 10
231.5613178945837
 20
155.7305460222653
 30
0.0
 40
0.2
 41
0.0
 46
0.0
 71
     7
 72
     1
  1
\C7;\FINDEX Univers 45 Light|b0|i0|c1;\H3.447529;\W1.000000;ø24
 11
0.0000000000000001
 21
1.0
 31
0.0
 73
     1
 44
1.0
  0
MTEXT
  5
348
330
70
100
AcDbEntity
  8
Text
100
AcDbMText
 10
120.7614488087853
 20
158.1040445568282
 30
0.0
 40
0.2
 41
0.0
 46
0.0
 71
     7
 72
     1
  1
\C7;\FINDEX Univers 45 Light|b0|i0|c1;\H3.447529;\W1.000000;ø34
 11
0.0000000000000001
 21
1.0
 31
0.0
 73
     1
 44
1.0
  0
MTEXT
  5
349
330
70
100
AcDbEntity
  8
Text
100
AcDbMText
 10
152.228089697186
 20
118.5140407689826
 30
0.0
 40
0.2
 41
0.0
 46
0.0
 71
     7
 72
     1
  1
\C7;\FINDEX Univers 45 Light|b0|i0|c1;\H3.447529;\W1.000000;19
 73
     1
 44
1.0
  0
MTEXT
  5
34A
330
70
100
AcDbEntity
  8
Text
100
AcDbMText
 10
133.1215040086033
 20
148.4949842293693
 30
0.0
 40
0.2
 41
0.0
 46
0.0
 71
     7
 72
     1
  1
\C7;\FINDEX Univers 45 Light|b0|i0|c1;\H3.447529;\W1.000000;ER20
 11
0.0000000000000001
 21
1.0
 31
0.0
 73
     1
 44
1.0
  0
MTEXT
  5
34B
330
70
100
AcDbEntity
  8
Text
100
AcDbMText
 10
168.9180270302531
 20
188.8379997629033
 30
0.0
 40
0.2
 41
0.0
 46
0.0
 71
     7
 72
     1
  1
\C7;\FINDEX Univers 45 Light|b0|i0|c1;\H3.447529;\W1.000000;30
 73
     1
 44
1.0
  0
MTEXT
  5
34C
330
70
100
AcDbEntity
  8
Text
100
AcDbMText
 10
110.9193277717493
 20
128.9678385094247
 30
0.0
 40
0.2
 41
0.0
 46
0.0
 71
     7
 72
     1
  1
\C7;\FINDEX Univers 45 Light|b0|i0|c1;\H3.447529;\W1.000000;min.8, max.11,5
 73
     1
 44
1.0
  0
MTEXT
  5
34D
330
70
100
AcDbEntity
  8
Text
100
AcDbMText
 10
286.6947312380052
 20
188.4450004954235
 30
0.0
 40
0.2
 41
0.0
 46
0.0
 71
     7
 72
     1
  1
\C7;\FINDEX Univers 45 Light|b0|i0|c1;\H3.447529;\W1.000000;SW30
 73
     1
 44
1.0
  0
MTEXT
  5
34E
330
70
100
AcDbEntity
  8
Text
100
AcDbMText
 10
241.5798278204644
 20
152.2980251355366
 30
0.0
 40
0.2
 41
0.0
 46
0.0
 71
     7
 72
     1
  1
\C7;\FINDEX Univers 45 Light|b0|i0|c1;\H3.447529;\W1.000000;ø39,8
 11
0.0000000000000001
 21
1.0
 31
0.0
 73
     1
 44
1.0
  0
ENDSEC
  0
SECTION
  2
OBJECTS
  0
DICTIONARY
  5
C
330
0
100
AcDbDictionary
281
     1
  3
ACAD_COLOR
350
63
  3
ACAD_DETAILVIEWSTYLE
350
6A
  3
ACAD_GROUP
350
D
  3
ACAD_LAYOUT
350
62
  3
ACAD_MATERIAL
350
10
  3
ACAD_MLEADERSTYLE
350
66
  3
ACAD_MLINESTYLE
350
5F
  3
ACAD_PLOTSETTINGS
350
61
  3
ACAD_PLOTSTYLENAME
350
E
  3
ACAD_SCALELIST
350
42
  3
ACAD_SECTIONVIEWSTYLE
350
68
  3
ACAD_TABLESTYLE
350
64
  3
ACAD_VISUALSTYLE
350
29
  3
ACDB_RECOMPOSE_DATA
350
357
  3
AcDbVariableDictionary
350
34F
  0
DICTIONARY
  5
63
102
{ACAD_REACTORS
330
C
102
}
330
C
100
AcDbDictionary
281
     1
  0
DICTIONARY
  5
6A
102
{ACAD_REACTORS
330
C
102
}
330
C
100
AcDbDictionary
281
     1
  3
Imperial24
350
6B
  0
DICTIONARY
  5
D
102
{ACAD_REACTORS
330
C
102
}
330
C
100
AcDbDictionary
281
     1
  0
DICTIONARY
  5
62
102
{ACAD_REACTORS
330
C
102
}
330
C
100
AcDbDictionary
281
     1
  3
Layout1
350
6F
  3
Layout2
350
77
  3
Model
350
73
  0
DICTIONARY
  5
10
102
{ACAD_REACTORS
330
C
102
}
330
C
100
AcDbDictionary
281
     1
  3
ByBlock
350
19
  3
ByLayer
350
11
  3
Global
350
21
  0
DICTIONARY
  5
66
102
{ACAD_REACTORS
330
C
102
}
330
C
100
AcDbDictionary
281
     1
  3
Standard
350
67
  0
DICTIONARY
  5
5F
102
{ACAD_REACTORS
330
C
102
}
330
C
100
AcDbDictionary
281
     1
  3
Standard
350
60
  0
DICTIONARY
  5
61
102
{ACAD_REACTORS
330
C
102
}
330
C
100
AcDbDictionary
281
     1
  0
ACDBDICTIONARYWDFLT
  5
E
102
{ACAD_REACTORS
330
C
102
}
330
C
100
AcDbDictionary
281
     1
  3
Normal
350
F
100
AcDbDictionaryWithDefault
340
F
  0
DICTIONARY
  5
42
102
{ACAD_REACTORS
330
C
102
}
330
C
100
AcDbDictionary
281
     1
  3
A0
350
43
  3
A1
350
44
  3
A2
350
45
  3
A3
350
46
  3
A4
350
47
  3
A5
350
48
  3
A6
350
49
  3
A7
350
4A
  3
A8
350
4B
  3
A9
350
4C
  3
B0
350
4D
  3
B1
350
4E
  3
B2
350
4F
  3
B3
350
50
  3
B4
350
51
  3
B5
350
52
  3
B6
350
53
  0
DICTIONARY
  5
68
102
{ACAD_REACTORS
330
C
102
}
330
C
100
AcDbDictionary
281
     1
  3
Imperial24
350
69
  0
DICTIONARY
  5
64
102
{ACAD_REACTORS
330
C
102
}
330
C
100
AcDbDictionary
281
     1
  3
Standard
350
65
  0
DICTIONARY
  5
29
102
{ACAD_REACTORS
330
C
102
}
330
C
100
AcDbDictionary
281
     1
  3
2dWireframe
350
2F
  3
Basic
350
2E
  3
Brighten
350
35
  3
ColorChange
350
39
  3
Conceptual
350
32
  3
Dim
350
34
  3
EdgeColorOff
350
41
  3
Facepattern
350
38
  3
Flat
350
2A
  3
FlatWithEdges
350
2B
  3
Gouraud
350
2C
  3
GouraudWithEdges
350
2D
  3
Hidden
350
31
  3
JitterOff
350
3F
  3
Linepattern
350
37
  3
OverhangOff
350
40
  3
Realistic
350
33
  3
Shaded
350
3E
  3
Shaded with edges
350
3D
  3
Shades of Gray
350
3A
  3
Sketchy
350
3B
  3
Thicken
350
36
  3
Wireframe
350
30
  3
X-Ray
350
3C
  0
XRECORD
  5
357
102
{ACAD_REACTORS
330
C
102
}
330
C
100
AcDbXrecord
280
     1
 90
        1
330
65
  0
DICTIONARY
  5
34F
102
{ACAD_REACTORS
330
C
102
}
330
C
100
AcDbDictionary
281
     1
  3
CANNOSCALE
350
354
  3
CMLEADERSTYLE
350
351
  3
CTABLESTYLE
350
350
  3
CVIEWDETAILSTYLE
350
352
  3
CVIEWSECTIONSTYLE
350
353
  0
ACDBDETAILVIEWSTYLE
  5
6B
102
{ACAD_REACTORS
330
6A
102
}
330
6A
100
AcDbModelDocViewStyle
 70
     0
  3
Imperial24
290
     1
300
Imperial24
 90
        0
100
AcDbDetailViewStyle
 70
     0
 71
     0
 90
        3
 71
     1
340
55
 62
   256
 40
0.24
340
0
 62
   256
 40
0.24
300

 40
0.36
280
     3
 71
     2
340
5D
 90
       25
 62
   256
 71
     3
340
55
 62
   256
 40
0.24
 90
        1
 40
0.75
 90
        1
300
%<\AcVar ViewType \f "%tc1">% %<\AcVar ViewDetailId>%\PSCALE %<\AcVar ViewScale \f "%sn">%
 71
     4
340
5D
 90
       25
 62
   256
340
5D
 90
       25
 62
   256
280
     0
  0
LAYOUT
  5
6F
102
{ACAD_REACTORS
330
62
102
}
330
62
100
AcDbPlotSettings
  1

  2

  4

  6

 40
0.0
 41
0.0
 42
0.0
 43
0.0
 44
0.0
 45
0.0
 46
0.0
 47
0.0
 48
0.0
 49
0.0
140
0.0
141
0.0
142
1.0
143
1.0
 70
   688
 72
     0
 73
     0
 74
     5
  7

 75
    16
147
1.0
 76
     0
 77
     2
 78
   300
148
0.0
149
0.0
100
AcDbLayout
  1
Layout1
 70
     1
 71
     1
 10
0.0
 20
0.0
 11
12.0
 21
9.0
 12
0.0
 22
0.0
 32
0.0
 14
0.0
 24
0.0
 34
0.0
 15
0.0
 25
0.0
 35
0.0
146
0.0
 13
0.0
 23
0.0
 33
0.0
 16
1.0
 26
0.0
 36
0.0
 17
0.0
 27
1.0
 37
0.0
 76
     0
330
6C
  0
LAYOUT
  5
77
102
{ACAD_REACTORS
330
62
102
}
330
62
100
AcDbPlotSettings
  1

  2

  4

  6

 40
0.0
 41
0.0
 42
0.0
 43
0.0
 44
0.0
 45
0.0
 46
0.0
 47
0.0
 48
0.0
 49
0.0
140
0.0
141
0.0
142
1.0
143
1.0
 70
   688
 72
     0
 73
     0
 74
     5
  7

 75
    16
147
1.0
 76
     0
 77
     2
 78
   300
148
0.0
149
0.0
100
AcDbLayout
  1
Layout2
 70
     1
 71
     2
 10
0.0
 20
0.0
 11
12.0
 21
9.0
 12
0.0
 22
0.0
 32
0.0
 14
0.0
 24
0.0
 34
0.0
 15
0.0
 25
0.0
 35
0.0
146
0.0
 13
0.0
 23
0.0
 33
0.0
 16
1.0
 26
0.0
 36
0.0
 17
0.0
 27
1.0
 37
0.0
 76
     0
330
74
  0
LAYOUT
  5
73
102
{ACAD_REACTORS
330
62
102
}
330
62
100
AcDbPlotSettings
  1

  2

  4

  6

 40
0.0
 41
0.0
 42
0.0
 43
0.0
 44
0.0
 45
0.0
 46
0.0
 47
0.0
 48
0.0
 49
0.0
140
0.0
141
0.0
142
1.0
143
1.0
 70
  1712
 72
     0
 73
     0
 74
     0
  7

 75
     0
147
1.0
 76
     0
 77
     2
 78
   300
148
0.0
149
0.0
100
AcDbLayout
  1
Model
 70
     1
 71
     0
 10
0.0
 20
0.0
 11
12.0
 21
9.0
 12
0.0
 22
0.0
 32
0.0
 14
0.0
 24
0.0
 34
0.0
 15
0.0
 25
0.0
 35
0.0
146
0.0
 13
0.0
 23
0.0
 33
0.0
 16
1.0
 26
0.0
 36
0.0
 17
0.0
 27
1.0
 37
0.0
 76
     0
330
70
  0
MATERIAL
  5
19
102
{ACAD_XDICTIONARY
360
1A
102
}
102
{ACAD_REACTORS
330
10
102
}
330
10
100
AcDbMaterial
  1
ByBlock
 72
     0
 43
0.0208333333333333
 43
0.0
 43
0.0
 43
0.0
 43
0.0
 43
0.0208333333333333
 43
0.0
 43
0.0
 43
0.0
 43
0.0
 43
1.0
 43
0.0
 43
0.0
 43
0.0
 43
0.0
 43
1.0
 77
     0
 47
0.0208333333333333
 47
0.0
 47
0.0
 47
0.0
 47
0.0
 47
0.0208333333333333
 47
0.0
 47
0.0
 47
0.0
 47
0.0
 47
1.0
 47
0.0
 47
0.0
 47
0.0
 47
0.0
 47
1.0
171
     0
 49
0.0208333333333333
 49
0.0
 49
0.0
 49
0.0
 49
0.0
 49
0.0208333333333333
 49
0.0
 49
0.0
 49
0.0
 49
0.0
 49
1.0
 49
0.0
 49
0.0
 49
0.0
 49
0.0
 49
1.0
175
     0
142
0.0208333333333333
142
0.0
142
0.0
142
0.0
142
0.0
142
0.0208333333333333
142
0.0
142
0.0
142
0.0
142
0.0
142
1.0
142
0.0
142
0.0
142
0.0
142
0.0
142
1.0
179
     0
144
0.0208333333333333
144
0.0
144
0.0
144
0.0
144
0.0
144
0.0208333333333333
144
0.0
144
0.0
144
0.0
144
0.0
144
1.0
144
0.0
144
0.0
144
0.0
144
0.0
144
1.0
147
0.0208333333333333
147
0.0
147
0.0
147
0.0
147
0.0
147
0.0208333333333333
147
0.0
147
0.0
147
0.0
147
0.0
147
1.0
147
0.0
147
0.0
147
0.0
147
0.0
147
1.0
  0
MATERIAL
  5
11
102
{ACAD_XDICTIONARY
360
12
102
}
102
{ACAD_REACTORS
330
10
102
}
330
10
100
AcDbMaterial
  1
ByLayer
 72
     0
 43
0.0208333333333333
 43
0.0
 43
0.0
 43
0.0
 43
0.0
 43
0.0208333333333333
 43
0.0
 43
0.0
 43
0.0
 43
0.0
 43
1.0
 43
0.0
 43
0.0
 43
0.0
 43
0.0
 43
1.0
 77
     0
 47
0.0208333333333333
 47
0.0
 47
0.0
 47
0.0
 47
0.0
 47
0.0208333333333333
 47
0.0
 47
0.0
 47
0.0
 47
0.0
 47
1.0
 47
0.0
 47
0.0
 47
0.0
 47
0.0
 47
1.0
171
     0
 49
0.0208333333333333
 49
0.0
 49
0.0
 49
0.0
 49
0.0
 49
0.0208333333333333
 49
0.0
 49
0.0
 49
0.0
 49
0.0
 49
1.0
 49
0.0
 49
0.0
 49
0.0
 49
0.0
 49
1.0
175
     0
142
0.0208333333333333
142
0.0
142
0.0
142
0.0
142
0.0
142
0.0208333333333333
142
0.0
142
0.0
142
0.0
142
0.0
142
1.0
142
0.0
142
0.0
142
0.0
142
0.0
142
1.0
179
     0
144
0.0208333333333333
144
0.0
144
0.0
144
0.0
144
0.0
144
0.0208333333333333
144
0.0
144
0.0
144
0.0
144
0.0
144
1.0
144
0.0
144
0.0
144
0.0
144
0.0
144
1.0
147
0.0208333333333333
147
0.0
147
0.0
147
0.0
147
0.0
147
0.0208333333333333
147
0.0
147
0.0
147
0.0
147
0.0
147
1.0
147
0.0
147
0.0
147
0.0
147
0.0
147
1.0
  0
MATERIAL
  5
21
102
{ACAD_XDICTIONARY
360
22
102
}
102
{ACAD_REACTORS
330
10
102
}
330
10
100
AcDbMaterial
  1
Global
 72
     0
 43
0.0208333333333333
 43
0.0
 43
0.0
 43
0.0
 43
0.0
 43
0.0208333333333333
 43
0.0
 43
0.0
 43
0.0
 43
0.0
 43
1.0
 43
0.0
 43
0.0
 43
0.0
 43
0.0
 43
1.0
 77
     0
 47
0.0208333333333333
 47
0.0
 47
0.0
 47
0.0
 47
0.0
 47
0.0208333333333333
 47
0.0
 47
0.0
 47
0.0
 47
0.0
 47
1.0
 47
0.0
 47
0.0
 47
0.0
 47
0.0
 47
1.0
171
     0
 49
0.0208333333333333
 49
0.0
 49
0.0
 49
0.0
 49
0.0
 49
0.0208333333333333
 49
0.0
 49
0.0
 49
0.0
 49
0.0
 49
1.0
 49
0.0
 49
0.0
 49
0.0
 49
0.0
 49
1.0
175
     0
142
0.0208333333333333
142
0.0
142
0.0
142
0.0
142
0.0
142
0.0208333333333333
142
0.0
142
0.0
142
0.0
142
0.0
142
1.0
142
0.0
142
0.0
142
0.0
142
0.0
142
1.0
179
     0
144
0.0208333333333333
144
0.0
144
0.0
144
0.0
144
0.0
144
0.0208333333333333
144
0.0
144
0.0
144
0.0
144
0.0
144
1.0
144
0.0
144
0.0
144
0.0
144
0.0
144
1.0
147
0.0208333333333333
147
0.0
147
0.0
147
0.0
147
0.0
147
0.0208333333333333
147
0.0
147
0.0
147
0.0
147
0.0
147
1.0
147
0.0
147
0.0
147
0.0
147
0.0
147
1.0
  0
MLEADERSTYLE
  5
67
102
{ACAD_REACTORS
330
66
102
}
330
66
100
AcDbMLeaderStyle
179
     2
170
     2
171
     1
172
     0
 90
        2
 40
0.0
 41
0.0
173
     1
 91
-1056964608
340
5B
 92
       -2
290
     1
 42
0.09
291
     1
 43
0.36
  3
Standard
 44
0.18
300

342
55
174
     1
178
     6
175
     1
176
     0
 93
-1056964608
 45
0.18
292
     0
297
     0
 46
0.18
 94
-1056964608
 47
1.0
 49
1.0
140
1.0
293
     1
141
0.0
294
     1
177
     0
142
1.0
295
     1
296
     0
143
0.125
271
     0
272
     9
273
     9
298
     1
  0
MLINESTYLE
  5
60
102
{ACAD_REACTORS
330
5F
102
}
330
5F
100
AcDbMlineStyle
  2
STANDARD
 70
     0
  3

 62
   256
 51
90.0
 52
90.0
 71
     2
 49
0.5
 62
   256
  6
BYLAYER
 49
-0.5
 62
   256
  6
BYLAYER
  0
ACDBPLACEHOLDER
  5
F
102
{ACAD_REACTORS
330
E
102
}
330
E
  0
SCALE
  5
43
102
{ACAD_REACTORS
330
42
102
}
330
42
100
AcDbScale
 70
     0
300
1:1
140
1.0
141
1.0
290
     1
  0
SCALE
  5
44
102
{ACAD_REACTORS
330
42
102
}
330
42
100
AcDbScale
 70
     0
300
1/128" = 1'-0"
140
0.0078125
141
12.0
290
     0
  0
SCALE
  5
45
102
{ACAD_REACTORS
330
42
102
}
330
42
100
AcDbScale
 70
     0
300
1/64" = 1'-0"
140
0.015625
141
12.0
290
     0
  0
SCALE
  5
46
102
{ACAD_REACTORS
330
42
102
}
330
42
100
AcDbScale
 70
     0
300
1/32" = 1'-0"
140
0.03125
141
12.0
290
     0
  0
SCALE
  5
47
102
{ACAD_REACTORS
330
42
102
}
330
42
100
AcDbScale
 70
     0
300
1/16" = 1'-0"
140
0.0625
141
12.0
290
     0
  0
SCALE
  5
48
102
{ACAD_REACTORS
330
42
102
}
330
42
100
AcDbScale
 70
     0
300
3/32" = 1'-0"
140
0.09375
141
12.0
290
     0
  0
SCALE
  5
49
102
{ACAD_REACTORS
330
42
102
}
330
42
100
AcDbScale
 70
     0
300
1/8" = 1'-0"
140
0.125
141
12.0
290
     0
  0
SCALE
  5
4A
102
{ACAD_REACTORS
330
42
102
}
330
42
100
AcDbScale
 70
     0
300
3/16" = 1'-0"
140
0.1875
141
12.0
290
     0
  0
SCALE
  5
4B
102
{ACAD_REACTORS
330
42
102
}
330
42
100
AcDbScale
 70
     0
300
1/4" = 1'-0"
140
0.25
141
12.0
290
     0
  0
SCALE
  5
4C
102
{ACAD_REACTORS
330
42
102
}
330
42
100
AcDbScale
 70
     0
300
3/8" = 1'-0"
140
0.375
141
12.0
290
     0
  0
SCALE
  5
4D
102
{ACAD_REACTORS
330
42
102
}
330
42
100
AcDbScale
 70
     0
300
1/2" = 1'-0"
140
0.5
141
12.0
290
     0
  0
SCALE
  5
4E
102
{ACAD_REACTORS
330
42
102
}
330
42
100
AcDbScale
 70
     0
300
3/4" = 1'-0"
140
0.75
141
12.0
290
     0
  0
SCALE
  5
4F
102
{ACAD_REACTORS
330
42
102
}
330
42
100
AcDbScale
 70
     0
300
1" = 1'-0"
140
1.0
141
12.0
290
     0
  0
SCALE
  5
50
102
{ACAD_REACTORS
330
42
102
}
330
42
100
AcDbScale
 70
     0
300
1-1/2" = 1'-0"
140
1.5
141
12.0
290
     0
  0
SCALE
  5
51
102
{ACAD_REACTORS
330
42
102
}
330
42
100
AcDbScale
 70
     0
300
3" = 1'-0"
140
3.0
141
12.0
290
     0
  0
SCALE
  5
52
102
{ACAD_REACTORS
330
42
102
}
330
42
100
AcDbScale
 70
     0
300
6" = 1'-0"
140
6.0
141
12.0
290
     0
  0
SCALE
  5
53
102
{ACAD_REACTORS
330
42
102
}
330
42
100
AcDbScale
 70
     0
300
1'-0" = 1'-0"
140
12.0
141
12.0
290
     0
  0
ACDBSECTIONVIEWSTYLE
  5
69
102
{ACAD_REACTORS
330
68
102
}
330
68
100
AcDbModelDocViewStyle
 70
     0
  3
Imperial24
290
     1
300
Imperial24
 90
        0
100
AcDbSectionViewStyle
 70
     0
 71
     0
 90
       78
 71
     1
340
55
 62
   256
 40
0.24
340
0
340
0
 62
   256
 40
0.24
300
I, O, Q, S, X, Z
 40
0.48
 90
        3
 40
0.18
 90
        1
 71
     2
340
5D
 90
       25
 62
   256
340
5D
 90
       50
 62
   256
 40
0.24
 40
0.0
 40
0.24
 71
     3
340
55
 62
   256
 40
0.24
 90
        1
 40
0.75
 90
        1
300
%<\AcVar ViewType \f "%tc1">% %<\AcVar ViewSectionStartId>%-%<\AcVar ViewSectionEndId>%\PSCALE %<\AcVar ViewScale \f "%sn">%
 71
     4
 62
   256
 62
   257
300
ANSI31
 40
1.0
 90
        0
290
     0
290
     0
 90
        6
 40
0.0
 40
1.570796326794896
 40
0.2617993877991494
 40
1.308996938995747
 40
-0.2617993877991494
 40
1.832595714594046
  0
TABLESTYLE
  5
65
102
{ACAD_XDICTIONARY
360
355
102
}
102
{ACAD_REACTORS
330
64
102
}
330
64
100
AcDbTableStyle
280
     0
  3
Standard
 70
     0
 71
     0
 40
0.06
 41
0.06
280
     0
281
     0
  7
Standard
140
0.18
170
     2
 62
     0
 63
     7
283
     0
 90
      512
 91
        0
  1

274
    -2
284
     1
 64
     0
275
    -2
285
     1
 65
     0
276
    -2
286
     1
 66
     0
277
    -2
287
     1
 67
     0
278
    -2
288
     1
 68
     0
279
    -2
289
     1
 69
     0
  7
Standard
140
0.25
170
     5
 62
     0
 63
     7
283
     0
 90
      512
 91
        0
  1

274
    -2
284
     1
 64
     0
275
    -2
285
     1
 65
     0
276
    -2
286
     1
 66
     0
277
    -2
287
     1
 67
     0
278
    -2
288
     1
 68
     0
279
    -2
289
     1
 69
     0
  7
Standard
140
0.18
170
     5
 62
     0
 63
     7
283
     0
 90
      512
 91
        0
  1

274
    -2
284
     1
 64
     0
275
    -2
285
     1
 65
     0
276
    -2
286
     1
 66
     0
277
    -2
287
     1
 67
     0
278
    -2
288
     1
 68
     0
279
    -2
289
     1
 69
     0
  0
VISUALSTYLE
  5
2F
102
{ACAD_REACTORS
330
29
102
}
330
29
100
AcDbVisualStyle
  2
2dWireframe
 70
     4
177
     3
291
     0
 70
    58
 90
        0
176
     1
 90
        2
176
     1
 90
        0
176
     1
 90
        0
176
     1
 40
0.6
176
     1
 40
30.0
176
     1
 62
     7
420
 16777215
176
     1
 90
        1
176
     1
 90
        4
176
     1
 62
     7
176
     1
 62
   257
176
     1
 90
        1
176
     1
 90
        1
176
     1
 40
1.0
176
     1
 90
        0
176
     1
 62
   257
176
     1
 40
1.0
176
     1
 90
        1
176
     1
 90
        6
176
     1
 90
        2
176
     1
 62
     7
176
     1
 90
        5
176
     1
 90
        0
176
     1
 90
        0
176
     1
290
     0
176
     1
 90
        1
176
     1
 40
0.0
176
     1
 90
        0
176
     1
290
     1
176
     1
290
     1
176
     1
290
     0
176
     1
290
     0
176
     1
290
     0
176
     1
290
     0
176
     1
290
     0
176
     1
290
     0
176
     1
290
     0
176
     1
 90
       50
176
     1
 40
0.0
176
     1
 40
1.0
176
     1
 90
        0
176
     1
 62
    18
420
        0
176
     1
 90
       50
176
     1
 90
        3
176
     1
 62
     5
420
      255
176
     1
290
     0
176
     1
 90
       50
176
     1
 90
       50
176
     1
 90
       50
176
     1
290
     0
176
     1
 90
       50
176
     1
 62
   256
176
     0
 40
1.0
176
     0
 90
        2
176
     1
  1
strokes_ogs.tif
176
     1
290
     0
176
     1
 40
1.0
176
     1
 40
1.0
176
     1
  0
VISUALSTYLE
  5
2E
102
{ACAD_REACTORS
330
29
102
}
330
29
100
AcDbVisualStyle
  2
Basic
 70
     7
177
     3
291
     1
 70
    58
 90
        1
176
     1
 90
        0
176
     1
 90
        1
176
     1
 90
        0
176
     1
 40
0.6
176
     1
 40
30.0
176
     1
 62
     7
420
 16777215
176
     1
 90
        0
176
     1
 90
        4
176
     1
 62
     7
176
     1
 62
   257
176
     1
 90
        1
176
     1
 90
        1
176
     1
 40
1.0
176
     1
 90
        8
176
     1
 62
     7
176
     1
 40
1.0
176
     1
 90
        1
176
     1
 90
        6
176
     1
 90
        2
176
     1
 62
     7
176
     1
 90
        5
176
     1
 90
        0
176
     1
 90
        0
176
     1
290
     0
176
     1
 90
        1
176
     1
 40
0.0
176
     1
 90
        0
176
     1
290
     0
176
     1
290
     1
176
     1
290
     1
176
     1
290
     0
176
     1
290
     0
176
     1
290
     0
176
     1
290
     0
176
     1
290
     0
176
     1
290
     0
176
     1
 90
       50
176
     1
 40
0.0
176
     1
 40
1.0
176
     1
 90
        0
176
     1
 62
    18
420
        0
176
     1
 90
       50
176
     1
 90
        3
176
     1
 62
     5
420
      255
176
     1
290
     0
176
     1
 90
       50
176
     1
 90
       50
176
     1
 90
       50
176
     1
290
     0
176
     1
 90
       50
176
     1
 62
   256
176
     0
 40
1.0
176
     0
 90
        2
176
     1
  1
strokes_ogs.tif
176
     1
290
     0
176
     1
 40
1.0
176
     1
 40
1.0
176
     1
  0
VISUALSTYLE
  5
35
102
{ACAD_REACTORS
330
29
102
}
330
29
100
AcDbVisualStyle
  2
Brighten
 70
    12
177
     3
291
     1
 70
    58
 90
        2
176
     1
 90
        2
176
     1
 90
        0
176
     1
 90
        0
176
     1
 40
0.6
176
     1
 40
30.0
176
     1
 62
     7
420
 16777215
176
     1
 90
        1
176
     1
 90
        4
176
     1
 62
     7
176
     1
 62
   257
176
     1
 90
        1
176
     1
 90
        1
176
     1
 40
1.0
176
     1
 90
        8
176
     1
 62
     7
176
     1
 40
1.0
176
     1
 90
        1
176
     1
 90
        6
176
     1
 90
        2
176
     1
 62
     7
176
     1
 90
        5
176
     1
 90
        0
176
     1
 90
        0
176
     1
290
     0
176
     1
 90
        1
176
     1
 40
50.0
176
     1
 90
        0
176
     1
290
     0
176
     1
290
     1
176
     1
290
     1
176
     1
290
     0
176
     1
290
     0
176
     1
290
     0
176
     1
290
     0
176
     1
290
     0
176
     1
290
     0
176
     1
 90
       50
176
     1
 40
0.0
176
     1
 40
1.0
176
     1
 90
        0
176
     1
 62
    18
420
        0
176
     1
 90
       50
176
     1
 90
        3
176
     1
 62
     5
420
      255
176
     1
290
     0
176
     1
 90
       50
176
     1
 90
       50
176
     1
 90
       50
176
     1
290
     0
176
     1
 90
       50
176
     1
 62
   256
176
     0
 40
1.0
176
     0
 90
        2
176
     1
  1
strokes_ogs.tif
176
     1
290
     0
176
     1
 40
1.0
176
     1
 40
1.0
176
     1
  0
VISUALSTYLE
  5
39
102
{ACAD_REACTORS
330
29
102
}
330
29
100
AcDbVisualStyle
  2
ColorChange
 70
    16
177
     3
291
     1
 70
    58
 90
        2
176
     1
 90
        2
176
     1
 90
        3
176
     1
 90
        0
176
     1
 40
0.6
176
     1
 40
30.0
176
     1
 62
     8
420
  8421504
176
     1
 90
        1
176
     1
 90
        4
176
     1
 62
     7
176
     1
 62
   257
176
     1
 90
        1
176
     1
 90
        1
176
     1
 40
1.0
176
     1
 90
        8
176
     1
 62
     8
420
  8421504
176
     1
 40
1.0
176
     1
 90
        1
176
     1
 90
        6
176
     1
 90
        2
176
     1
 62
     7
176
     1
 90
        5
176
     1
 90
        0
176
     1
 90
        0
176
     1
290
     0
176
     1
 90
        1
176
     1
 40
0.0
176
     1
 90
        0
176
     1
290
     0
176
     1
290
     1
176
     1
290
     1
176
     1
290
     0
176
     1
290
     0
176
     1
290
     0
176
     1
290
     0
176
     1
290
     0
176
     1
290
     0
176
     1
 90
       50
176
     1
 40
0.0
176
     1
 40
1.0
176
     1
 90
        0
176
     1
 62
    18
420
        0
176
     1
 90
       50
176
     1
 90
        3
176
     1
 62
     5
420
      255
176
     1
290
     0
176
     1
 90
       50
176
     1
 90
       50
176
     1
 90
       50
176
     1
290
     0
176
     1
 90
       50
176
     1
 62
   256
176
     0
 40
1.0
176
     0
 90
        2
176
     1
  1
strokes_ogs.tif
176
     1
290
     0
176
     1
 40
1.0
176
     1
 40
1.0
176
     1
  0
VISUALSTYLE
  5
32
102
{ACAD_REACTORS
330
29
102
}
330
29
100
AcDbVisualStyle
  2
Conceptual
 70
     9
177
     3
291
     0
 70
    58
 90
        3
176
     1
 90
        2
176
     1
 90
        0
176
     1
 90
        0
176
     1
 40
0.6
176
     1
 40
30.0
176
     1
 62
     7
420
 16777215
176
     1
 90
        2
176
     1
 90
        2
176
     1
 62
     7
176
     1
 62
   257
176
     1
 90
        1
176
     1
 90
        1
176
     1
 40
179.0
176
     1
 90
        8
176
     1
 62
     7
176
     1
 40
1.0
176
     1
 90
        1
176
     1
 90
        6
176
     1
 90
        2
176
     1
 62
     7
176
     1
 90
        3
176
     1
 90
        0
176
     1
 90
        0
176
     1
290
     0
176
     1
 90
        1
176
     1
 40
0.0
176
     1
 90
        0
176
     1
290
     0
176
     1
290
     1
176
     1
290
     1
176
     1
290
     0
176
     1
290
     0
176
     1
290
     0
176
     1
290
     0
176
     1
290
     0
176
     1
290
     0
176
     1
 90
       50
176
     1
 40
0.0
176
     1
 40
1.0
176
     1
 90
        0
176
     1
 62
    18
420
        0
176
     1
 90
       50
176
     1
 90
        3
176
     1
 62
     5
420
      255
176
     1
290
     0
176
     1
 90
       50
176
     1
 90
       50
176
     1
 90
       50
176
     1
290
     0
176
     1
 90
       50
176
     1
 62
   256
176
     0
 40
1.0
176
     0
 90
        2
176
     1
  1
strokes_ogs.tif
176
     1
290
     0
176
     1
 40
1.0
176
     1
 40
1.0
176
     1
  0
VISUALSTYLE
  5
34
102
{ACAD_REACTORS
330
29
102
}
330
29
100
AcDbVisualStyle
  2
Dim
 70
    11
177
     3
291
     1
 70
    58
 90
        2
176
     1
 90
        2
176
     1
 90
        0
176
     1
 90
        0
176
     1
 40
0.6
176
     1
 40
30.0
176
     1
 62
     7
420
 16777215
176
     1
 90
        1
176
     1
 90
        4
176
     1
 62
     7
176
     1
 62
   257
176
     1
 90
        1
176
     1
 90
        1
176
     1
 40
1.0
176
     1
 90
        8
176
     1
 62
     7
176
     1
 40
1.0
176
     1
 90
        1
176
     1
 90
        6
176
     1
 90
        2
176
     1
 62
     7
176
     1
 90
        5
176
     1
 90
        0
176
     1
 90
        0
176
     1
290
     0
176
     1
 90
        1
176
     1
 40
-50.0
176
     1
 90
        0
176
     1
290
     0
176
     1
290
     1
176
     1
290
     1
176
     1
290
     0
176
     1
290
     0
176
     1
290
     0
176
     1
290
     0
176
     1
290
     0
176
     1
290
     0
176
     1
 90
       50
176
     1
 40
0.0
176
     1
 40
1.0
176
     1
 90
        0
176
     1
 62
    18
420
        0
176
     1
 90
       50
176
     1
 90
        3
176
     1
 62
     5
420
      255
176
     1
290
     0
176
     1
 90
       50
176
     1
 90
       50
176
     1
 90
       50
176
     1
290
     0
176
     1
 90
       50
176
     1
 62
   256
176
     0
 40
1.0
176
     0
 90
        2
176
     1
  1
strokes_ogs.tif
176
     1
290
     0
176
     1
 40
1.0
176
     1
 40
1.0
176
     1
  0
VISUALSTYLE
  5
41
102
{ACAD_REACTORS
330
29
102
}
330
29
100
AcDbVisualStyle
  2
EdgeColorOff
 70
    22
177
     3
291
     1
 70
    58
 90
        2
176
     0
 90
        2
176
     0
 90
        0
176
     0
 90
        0
176
     0
 40
0.6
176
     0
 40
30.0
176
     0
 62
     7
420
 16777215
176
     0
 90
        1
176
     0
 90
        4
176
     0
 62
     7
176
     0
 62
   257
176
     0
 90
        1
176
     0
 90
        1
176
     0
 40
1.0
176
     0
 90
        8
176
     2
 62
     7
176
     0
 40
1.0
176
     0
 90
        1
176
     0
 90
        6
176
     0
 90
        2
176
     0
 62
     7
176
     0
 90
        5
176
     0
 90
        0
176
     0
 90
        0
176
     0
290
     0
176
     0
 90
        1
176
     0
 40
0.0
176
     0
 90
        0
176
     0
290
     0
176
     0
290
     1
176
     0
290
     1
176
     0
290
     0
176
     0
290
     0
176
     0
290
     0
176
     0
290
     0
176
     0
290
     0
176
     0
290
     0
176
     0
 90
       50
176
     0
 40
0.0
176
     0
 40
1.0
176
     0
 90
        0
176
     0
 62
    18
420
        0
176
     0
 90
       50
176
     0
 90
        3
176
     0
 62
     5
420
      255
176
     0
290
     0
176
     0
 90
       50
176
     0
 90
       50
176
     0
 90
       50
176
     0
290
     0
176
     0
 90
       50
176
     0
 62
   256
176
     0
 40
1.0
176
     0
 90
        2
176
     0
  1
strokes_ogs.tif
176
     0
290
     0
176
     0
 40
1.0
176
     0
 40
1.0
176
     0
  0
VISUALSTYLE
  5
38
102
{ACAD_REACTORS
330
29
102
}
330
29
100
AcDbVisualStyle
  2
Facepattern
 70
    15
177
     3
291
     1
 70
    58
 90
        2
176
     1
 90
        2
176
     1
 90
        0
176
     1
 90
        0
176
     1
 40
0.6
176
     1
 40
30.0
176
     1
 62
     7
420
 16777215
176
     1
 90
        1
176
     1
 90
        4
176
     1
 62
     7
176
     1
 62
   257
176
     1
 90
        1
176
     1
 90
        1
176
     1
 40
1.0
176
     1
 90
        8
176
     1
 62
     7
176
     1
 40
1.0
176
     1
 90
        1
176
     1
 90
        6
176
     1
 90
        2
176
     1
 62
     7
176
     1
 90
        5
176
     1
 90
        0
176
     1
 90
        0
176
     1
290
     0
176
     1
 90
        1
176
     1
 40
0.0
176
     1
 90
        0
176
     1
290
     0
176
     1
290
     1
176
     1
290
     1
176
     1
290
     0
176
     1
290
     0
176
     1
290
     0
176
     1
290
     0
176
     1
290
     0
176
     1
290
     0
176
     1
 90
       50
176
     1
 40
0.0
176
     1
 40
1.0
176
     1
 90
        0
176
     1
 62
    18
420
        0
176
     1
 90
       50
176
     1
 90
        3
176
     1
 62
     5
420
      255
176
     1
290
     0
176
     1
 90
       50
176
     1
 90
       50
176
     1
 90
       50
176
     1
290
     0
176
     1
 90
       50
176
     1
 62
   256
176
     0
 40
1.0
176
     0
 90
        2
176
     1
  1
strokes_ogs.tif
176
     1
290
     0
176
     1
 40
1.0
176
     1
 40
1.0
176
     1
  0
VISUALSTYLE
  5
2A
102
{ACAD_REACTORS
330
29
102
}
330
29
100
AcDbVisualStyle
  2
Flat
 70
     0
177
     3
291
     1
 70
    58
 90
        2
176
     1
 90
        1
176
     1
 90
        1
176
     1
 90
        2
176
     1
 40
0.6
176
     1
 40
30.0
176
     1
 62
     7
420
 16777215
176
     1
 90
        0
176
     1
 90
        0
176
     1
 62
     7
176
     1
 62
   257
176
     1
 90
        1
176
     1
 90
        1
176
     1
 40
1.0
176
     1
 90
        8
176
     1
 62
     7
176
     1
 40
1.0
176
     1
 90
        1
176
     1
 90
        6
176
     1
 90
        2
176
     1
 62
     7
176
     1
 90
        5
176
     1
 90
        0
176
     1
 90
        0
176
     1
290
     0
176
     1
 90
       13
176
     1
 40
0.0
176
     1
 90
        0
176
     1
290
     0
176
     1
290
     1
176
     1
290
     1
176
     1
290
     0
176
     1
290
     0
176
     1
290
     0
176
     1
290
     0
176
     1
290
     0
176
     1
290
     0
176
     1
 90
       50
176
     1
 40
0.0
176
     1
 40
1.0
176
     1
 90
        0
176
     1
 62
    18
420
        0
176
     1
 90
       50
176
     1
 90
        3
176
     1
 62
     5
420
      255
176
     1
290
     0
176
     1
 90
       50
176
     1
 90
       50
176
     1
 90
       50
176
     1
290
     0
176
     1
 90
       50
176
     1
 62
   256
176
     0
 40
1.0
176
     0
 90
        2
176
     1
  1
strokes_ogs.tif
176
     1
290
     0
176
     1
 40
1.0
176
     1
 40
1.0
176
     1
  0
VISUALSTYLE
  5
2B
102
{ACAD_REACTORS
330
29
102
}
330
29
100
AcDbVisualStyle
  2
FlatWithEdges
 70
     1
177
     3
291
     1
 70
    58
 90
        2
176
     1
 90
        1
176
     1
 90
        1
176
     1
 90
        2
176
     1
 40
0.6
176
     1
 40
30.0
176
     1
 62
     7
420
 16777215
176
     1
 90
        1
176
     1
 90
        0
176
     1
 62
     7
176
     1
 62
   257
176
     1
 90
        1
176
     1
 90
        1
176
     1
 40
1.0
176
     1
 90
        0
176
     1
 62
   257
176
     1
 40
1.0
176
     1
 90
        1
176
     1
 90
        6
176
     1
 90
        2
176
     1
 62
     7
176
     1
 90
        5
176
     1
 90
        0
176
     1
 90
        0
176
     1
290
     0
176
     1
 90
       13
176
     1
 40
0.0
176
     1
 90
        0
176
     1
290
     0
176
     1
290
     1
176
     1
290
     1
176
     1
290
     0
176
     1
290
     0
176
     1
290
     0
176
     1
290
     0
176
     1
290
     0
176
     1
290
     0
176
     1
 90
       50
176
     1
 40
0.0
176
     1
 40
1.0
176
     1
 90
        0
176
     1
 62
    18
420
        0
176
     1
 90
       50
176
     1
 90
        3
176
     1
 62
     5
420
      255
176
     1
290
     0
176
     1
 90
       50
176
     1
 90
       50
176
     1
 90
       50
176
     1
290
     0
176
     1
 90
       50
176
     1
 62
   256
176
     0
 40
1.0
176
     0
 90
        2
176
     1
  1
strokes_ogs.tif
176
     1
290
     0
176
     1
 40
1.0
176
     1
 40
1.0
176
     1
  0
VISUALSTYLE
  5
2C
102
{ACAD_REACTORS
330
29
102
}
330
29
100
AcDbVisualStyle
  2
Gouraud
 70
     2
177
     3
291
     1
 70
    58
 90
        2
176
     1
 90
        2
176
     1
 90
        1
176
     1
 90
        2
176
     1
 40
0.6
176
     1
 40
30.0
176
     1
 62
     7
420
 16777215
176
     1
 90
        0
176
     1
 90
        0
176
     1
 62
     7
176
     1
 62
   257
176
     1
 90
        1
176
     1
 90
        1
176
     1
 40
1.0
176
     1
 90
        0
176
     1
 62
     7
176
     1
 40
1.0
176
     1
 90
        1
176
     1
 90
        6
176
     1
 90
        2
176
     1
 62
     7
176
     1
 90
        5
176
     1
 90
        0
176
     1
 90
        0
176
     1
290
     0
176
     1
 90
       13
176
     1
 40
0.0
176
     1
 90
        0
176
     1
290
     0
176
     1
290
     1
176
     1
290
     1
176
     1
290
     0
176
     1
290
     0
176
     1
290
     0
176
     1
290
     0
176
     1
290
     0
176
     1
290
     0
176
     1
 90
       50
176
     1
 40
0.0
176
     1
 40
1.0
176
     1
 90
        0
176
     1
 62
    18
420
        0
176
     1
 90
       50
176
     1
 90
        3
176
     1
 62
     5
420
      255
176
     1
290
     0
176
     1
 90
       50
176
     1
 90
       50
176
     1
 90
       50
176
     1
290
     0
176
     1
 90
       50
176
     1
 62
   256
176
     0
 40
1.0
176
     0
 90
        2
176
     1
  1
strokes_ogs.tif
176
     1
290
     0
176
     1
 40
1.0
176
     1
 40
1.0
176
     1
  0
VISUALSTYLE
  5
2D
102
{ACAD_REACTORS
330
29
102
}
330
29
100
AcDbVisualStyle
  2
GouraudWithEdges
 70
     3
177
     3
291
     1
 70
    58
 90
        2
176
     1
 90
        2
176
     1
 90
        1
176
     1
 90
        2
176
     1
 40
0.6
176
     1
 40
30.0
176
     1
 62
     7
420
 16777215
176
     1
 90
        1
176
     1
 90
        0
176
     1
 62
     7
176
     1
 62
   257
176
     1
 90
        1
176
     1
 90
        1
176
     1
 40
1.0
176
     1
 90
        0
176
     1
 62
   257
176
     1
 40
1.0
176
     1
 90
        1
176
     1
 90
        6
176
     1
 90
        2
176
     1
 62
     7
176
     1
 90
        5
176
     1
 90
        0
176
     1
 90
        0
176
     1
290
     0
176
     1
 90
       13
176
     1
 40
0.0
176
     1
 90
        0
176
     1
290
     0
176
     1
290
     1
176
     1
290
     1
176
     1
290
     0
176
     1
290
     0
176
     1
290
     0
176
     1
290
     0
176
     1
290
     0
176
     1
290
     0
176
     1
 90
       50
176
     1
 40
0.0
176
     1
 40
1.0
176
     1
 90
        0
176
     1
 62
    18
420
        0
176
     1
 90
       50
176
     1
 90
        3
176
     1
 62
     5
420
      255
176
     1
290
     0
176
     1
 90
       50
176
     1
 90
       50
176
     1
 90
       50
176
     1
290
     0
176
     1
 90
       50
176
     1
 62
   256
176
     0
 40
1.0
176
     0
 90
        2
176
     1
  1
strokes_ogs.tif
176
     1
290
     0
176
     1
 40
1.0
176
     1
 40
1.0
176
     1
  0
VISUALSTYLE
  5
31
102
{ACAD_REACTORS
330
29
102
}
330
29
100
AcDbVisualStyle
  2
Hidden
 70
     6
177
     3
291
     0
 70
    58
 90
        1
176
     1
 90
        2
176
     1
 90
        2
176
     1
 90
        0
176
     1
 40
0.6
176
     1
 40
30.0
176
     1
 62
     7
420
 16777215
176
     1
 90
        2
176
     1
 90
        2
176
     1
 62
     7
176
     1
 62
   257
176
     1
 90
        2
176
     1
 90
        1
176
     1
 40
40.0
176
     1
 90
        0
176
     1
 62
   257
176
     1
 40
1.0
176
     1
 90
        1
176
     1
 90
        6
176
     1
 90
        2
176
     1
 62
     7
176
     1
 90
        3
176
     1
 90
        0
176
     1
 90
        0
176
     1
290
     0
176
     1
 90
        1
176
     1
 40
0.0
176
     1
 90
        0
176
     1
290
     0
176
     1
290
     1
176
     1
290
     1
176
     1
290
     0
176
     1
290
     0
176
     1
290
     0
176
     1
290
     0
176
     1
290
     0
176
     1
290
     0
176
     1
 90
       50
176
     1
 40
0.0
176
     1
 40
1.0
176
     1
 90
        0
176
     1
 62
    18
420
        0
176
     1
 90
       50
176
     1
 90
        3
176
     1
 62
     5
420
      255
176
     1
290
     0
176
     1
 90
       50
176
     1
 90
       50
176
     1
 90
       50
176
     1
290
     0
176
     1
 90
       50
176
     1
 62
   256
176
     0
 40
1.0
176
     0
 90
        2
176
     1
  1
strokes_ogs.tif
176
     1
290
     0
176
     1
 40
1.0
176
     1
 40
1.0
176
     1
  0
VISUALSTYLE
  5
3F
102
{ACAD_REACTORS
330
29
102
}
330
29
100
AcDbVisualStyle
  2
JitterOff
 70
    20
177
     3
291
     1
 70
    58
 90
        2
176
     0
 90
        2
176
     0
 90
        0
176
     0
 90
        0
176
     0
 40
0.6
176
     0
 40
30.0
176
     0
 62
     7
420
 16777215
176
     0
 90
        1
176
     0
 90
        4
176
     0
 62
     7
176
     0
 62
   257
176
     0
 90
        1
176
     0
 90
        1
176
     0
 40
1.0
176
     0
 90
       10
176
     2
 62
     7
176
     0
 40
1.0
176
     0
 90
        1
176
     0
 90
        6
176
     0
 90
        2
176
     0
 62
     7
176
     0
 90
        5
176
     0
 90
        0
176
     0
 90
        0
176
     0
290
     0
176
     0
 90
        1
176
     0
 40
0.0
176
     0
 90
        0
176
     0
290
     0
176
     0
290
     1
176
     0
290
     1
176
     0
290
     0
176
     0
290
     0
176
     0
290
     0
176
     0
290
     0
176
     0
290
     0
176
     0
290
     0
176
     0
 90
       50
176
     0
 40
0.0
176
     0
 40
1.0
176
     0
 90
        0
176
     0
 62
    18
420
        0
176
     0
 90
       50
176
     0
 90
        3
176
     0
 62
     5
420
      255
176
     0
290
     0
176
     0
 90
       50
176
     0
 90
       50
176
     0
 90
       50
176
     0
290
     0
176
     0
 90
       50
176
     0
 62
   256
176
     0
 40
1.0
176
     0
 90
        2
176
     0
  1
strokes_ogs.tif
176
     0
290
     0
176
     0
 40
1.0
176
     0
 40
1.0
176
     0
  0
VISUALSTYLE
  5
37
102
{ACAD_REACTORS
330
29
102
}
330
29
100
AcDbVisualStyle
  2
Linepattern
 70
    14
177
     3
291
     1
 70
    58
 90
        2
176
     1
 90
        2
176
     1
 90
        0
176
     1
 90
        0
176
     1
 40
0.6
176
     1
 40
30.0
176
     1
 62
     7
420
 16777215
176
     1
 90
        1
176
     1
 90
        4
176
     1
 62
     7
176
     1
 62
   257
176
     1
 90
        7
176
     1
 90
        7
176
     1
 40
1.0
176
     1
 90
        8
176
     1
 62
     7
176
     1
 40
1.0
176
     1
 90
        1
176
     1
 90
        6
176
     1
 90
        2
176
     1
 62
     7
176
     1
 90
        5
176
     1
 90
        0
176
     1
 90
        0
176
     1
290
     0
176
     1
 90
        1
176
     1
 40
0.0
176
     1
 90
        0
176
     1
290
     0
176
     1
290
     1
176
     1
290
     1
176
     1
290
     0
176
     1
290
     0
176
     1
290
     0
176
     1
290
     0
176
     1
290
     0
176
     1
290
     0
176
     1
 90
       50
176
     1
 40
0.0
176
     1
 40
1.0
176
     1
 90
        0
176
     1
 62
    18
420
        0
176
     1
 90
       50
176
     1
 90
        3
176
     1
 62
     5
420
      255
176
     1
290
     0
176
     1
 90
       50
176
     1
 90
       50
176
     1
 90
       50
176
     1
290
     0
176
     1
 90
       50
176
     1
 62
   256
176
     0
 40
1.0
176
     0
 90
        2
176
     1
  1
strokes_ogs.tif
176
     1
290
     0
176
     1
 40
1.0
176
     1
 40
1.0
176
     1
  0
VISUALSTYLE
  5
40
102
{ACAD_REACTORS
330
29
102
}
330
29
100
AcDbVisualStyle
  2
OverhangOff
 70
    21
177
     3
291
     1
 70
    58
 90
        2
176
     0
 90
        2
176
     0
 90
        0
176
     0
 90
        0
176
     0
 40
0.6
176
     0
 40
30.0
176
     0
 62
     7
420
 16777215
176
     0
 90
        1
176
     0
 90
        4
176
     0
 62
     7
176
     0
 62
   257
176
     0
 90
        1
176
     0
 90
        1
176
     0
 40
1.0
176
     0
 90
        9
176
     2
 62
     7
176
     0
 40
1.0
176
     0
 90
        1
176
     0
 90
        6
176
     0
 90
        2
176
     0
 62
     7
176
     0
 90
        5
176
     0
 90
        0
176
     0
 90
        0
176
     0
290
     0
176
     0
 90
        1
176
     0
 40
0.0
176
     0
 90
        0
176
     0
290
     0
176
     0
290
     1
176
     0
290
     1
176
     0
290
     0
176
     0
290
     0
176
     0
290
     0
176
     0
290
     0
176
     0
290
     0
176
     0
290
     0
176
     0
 90
       50
176
     0
 40
0.0
176
     0
 40
1.0
176
     0
 90
        0
176
     0
 62
    18
420
        0
176
     0
 90
       50
176
     0
 90
        3
176
     0
 62
     5
420
      255
176
     0
290
     0
176
     0
 90
       50
176
     0
 90
       50
176
     0
 90
       50
176
     0
290
     0
176
     0
 90
       50
176
     0
 62
   256
176
     0
 40
1.0
176
     0
 90
        2
176
     0
  1
strokes_ogs.tif
176
     0
290
     0
176
     0
 40
1.0
176
     0
 40
1.0
176
     0
  0
VISUALSTYLE
  5
33
102
{ACAD_REACTORS
330
29
102
}
330
29
100
AcDbVisualStyle
  2
Realistic
 70
     8
177
     3
291
     0
 70
    58
 90
        2
176
     1
 90
        3
176
     1
 90
        0
176
     1
 90
        2
176
     1
 40
0.6
176
     1
 40
30.0
176
     1
 62
     7
420
 16777215
176
     1
 90
        0
176
     1
 90
        0
176
     1
 62
     7
176
     1
 62
   257
176
     1
 90
        1
176
     1
 90
        1
176
     1
 40
1.0
176
     1
 90
        8
176
     1
 62
   257
176
     1
 40
1.0
176
     1
 90
        1
176
     1
 90
        6
176
     1
 90
        2
176
     1
 62
     7
176
     1
 90
        3
176
     1
 90
        0
176
     1
 90
        0
176
     1
290
     0
176
     1
 90
       13
176
     1
 40
0.0
176
     1
 90
        0
176
     1
290
     0
176
     1
290
     1
176
     1
290
     1
176
     1
290
     0
176
     1
290
     0
176
     1
290
     0
176
     1
290
     0
176
     1
290
     0
176
     1
290
     0
176
     1
 90
       50
176
     1
 40
0.0
176
     1
 40
1.0
176
     1
 90
        0
176
     1
 62
    18
420
        0
176
     1
 90
       50
176
     1
 90
        3
176
     1
 62
     5
420
      255
176
     1
290
     0
176
     1
 90
       50
176
     1
 90
       50
176
     1
 90
       50
176
     1
290
     0
176
     1
 90
       50
176
     1
 62
   256
176
     0
 40
1.0
176
     0
 90
        2
176
     1
  1
strokes_ogs.tif
176
     1
290
     0
176
     1
 40
1.0
176
     1
 40
1.0
176
     1
  0
VISUALSTYLE
  5
3E
102
{ACAD_REACTORS
330
29
102
}
330
29
100
AcDbVisualStyle
  2
Shaded
 70
    27
177
     3
291
     0
 70
    58
 90
        2
176
     1
 90
        2
176
     1
 90
        1
176
     1
 90
        2
176
     1
 40
0.6
176
     1
 40
30.0
176
     1
 62
     7
420
 16777215
176
     1
 90
        0
176
     1
 90
        4
176
     1
 62
     7
176
     1
 62
   257
176
     1
 90
        1
176
     1
 90
        1
176
     1
 40
1.0
176
     1
 90
        8
176
     1
 62
   257
176
     1
 40
1.0
176
     1
 90
        1
176
     1
 90
        6
176
     1
 90
        2
176
     1
 62
     8
420
  7895160
176
     1
 90
        3
176
     1
 90
        0
176
     1
 90
        0
176
     1
290
     0
176
     1
 90
        5
176
     1
 40
0.0
176
     1
 90
        0
176
     1
290
     0
176
     1
290
     1
176
     1
290
     1
176
     1
290
     0
176
     1
290
     0
176
     1
290
     0
176
     1
290
     0
176
     1
290
     0
176
     1
290
     0
176
     1
 90
       50
176
     1
 40
0.0
176
     1
 40
1.0
176
     1
 90
        0
176
     1
 62
    18
420
        0
176
     1
 90
       50
176
     1
 90
        3
176
     1
 62
     5
420
      255
176
     1
290
     0
176
     1
 90
       50
176
     1
 90
       50
176
     1
 90
       50
176
     1
290
     0
176
     1
 90
       50
176
     1
 62
   256
176
     0
 40
1.0
176
     0
 90
        2
176
     1
  1
strokes_ogs.tif
176
     1
290
     0
176
     1
 40
1.0
176
     1
 40
1.0
176
     1
  0
VISUALSTYLE
  5
3D
102
{ACAD_REACTORS
330
29
102
}
330
29
100
AcDbVisualStyle
  2
Shaded with edges
 70
    26
177
     3
291
     0
 70
    58
 90
        2
176
     1
 90
        2
176
     1
 90
        1
176
     1
 90
        2
176
     1
 40
0.6
176
     1
 40
30.0
176
     1
 62
     7
420
 16777215
176
     1
 90
        1
176
     1
 90
        2
176
     1
 62
     7
176
     1
 62
   257
176
     1
 90
        2
176
     1
 90
        1
176
     1
 40
1.0
176
     1
 90
        8
176
     1
 62
   257
176
     1
 40
1.0
176
     1
 90
        1
176
     1
 90
        6
176
     1
 90
        2
176
     1
 62
     7
176
     1
 90
        3
176
     1
 90
        0
176
     1
 90
        0
176
     1
290
     0
176
     1
 90
        5
176
     1
 40
0.0
176
     1
 90
        0
176
     1
290
     0
176
     1
290
     1
176
     1
290
     1
176
     1
290
     0
176
     1
290
     0
176
     1
290
     0
176
     1
290
     0
176
     1
290
     0
176
     1
290
     0
176
     1
 90
       50
176
     1
 40
0.0
176
     1
 40
1.0
176
     1
 90
        0
176
     1
 62
    18
420
        0
176
     1
 90
       50
176
     1
 90
        3
176
     1
 62
     5
420
      255
176
     1
290
     0
176
     1
 90
       50
176
     1
 90
       50
176
     1
 90
       50
176
     1
290
     0
176
     1
 90
       50
176
     1
 62
   256
176
     0
 40
1.0
176
     0
 90
        2
176
     1
  1
strokes_ogs.tif
176
     1
290
     0
176
     1
 40
1.0
176
     1
 40
1.0
176
     1
  0
VISUALSTYLE
  5
3A
102
{ACAD_REACTORS
330
29
102
}
330
29
100
AcDbVisualStyle
  2
Shades of Gray
 70
    23
177
     3
291
     0
 70
    58
 90
        2
176
     1
 90
        2
176
     1
 90
        3
176
     1
 90
        0
176
     1
 40
0.6
176
     1
 40
30.0
176
     1
 62
     7
420
 16777215
176
     1
 90
        2
176
     1
 90
        2
176
     1
 62
     7
176
     1
 62
     7
176
     1
 90
        1
176
     1
 90
        1
176
     1
 40
40.0
176
     1
 90
        8
176
     1
 62
     7
176
     1
 40
1.0
176
     1
 90
        1
176
     1
 90
        6
176
     1
 90
        2
176
     1
 62
     7
176
     1
 90
        3
176
     1
 90
        0
176
     1
 90
        0
176
     1
290
     0
176
     1
 90
        1
176
     1
 40
0.0
176
     1
 90
        0
176
     1
290
     0
176
     1
290
     1
176
     1
290
     1
176
     1
290
     0
176
     1
290
     0
176
     1
290
     0
176
     1
290
     0
176
     1
290
     0
176
     1
290
     0
176
     1
 90
       50
176
     1
 40
0.0
176
     1
 40
1.0
176
     1
 90
        0
176
     1
 62
    18
420
        0
176
     1
 90
       50
176
     1
 90
        3
176
     1
 62
     5
420
      255
176
     1
290
     0
176
     1
 90
       50
176
     1
 90
       50
176
     1
 90
       50
176
     1
290
     0
176
     1
 90
       50
176
     1
 62
   256
176
     0
 40
1.0
176
     0
 90
        2
176
     1
  1
strokes_ogs.tif
176
     1
290
     0
176
     1
 40
1.0
176
     1
 40
1.0
176
     1
  0
VISUALSTYLE
  5
3B
102
{ACAD_REACTORS
330
29
102
}
330
29
100
AcDbVisualStyle
  2
Sketchy
 70
    24
177
     3
291
     0
 70
    58
 90
        1
176
     1
 90
        2
176
     1
 90
        2
176
     1
 90
        0
176
     1
 40
0.6
176
     1
 40
30.0
176
     1
 62
     7
420
 16777215
176
     1
 90
        2
176
     1
 90
        2
176
     1
 62
     7
176
     1
 62
     7
176
     1
 90
        1
176
     1
 90
        1
176
     1
 40
40.0
176
     1
 90
       11
176
     1
 62
     7
176
     1
 40
1.0
176
     1
 90
        1
176
     1
 90
        6
176
     1
 90
        2
176
     1
 62
     7
176
     1
 90
        6
176
     1
 90
        0
176
     1
 90
        0
176
     1
290
     0
176
     1
 90
        1
176
     1
 40
0.0
176
     1
 90
        0
176
     1
290
     0
176
     1
290
     1
176
     1
290
     1
176
     1
290
     0
176
     1
290
     0
176
     1
290
     0
176
     1
290
     0
176
     1
290
     0
176
     1
290
     0
176
     1
 90
       50
176
     1
 40
0.0
176
     1
 40
1.0
176
     1
 90
        0
176
     1
 62
    18
420
        0
176
     1
 90
       50
176
     1
 90
        3
176
     1
 62
     5
420
      255
176
     1
290
     0
176
     1
 90
       50
176
     1
 90
       50
176
     1
 90
       50
176
     1
290
     0
176
     1
 90
       50
176
     1
 62
   256
176
     0
 40
1.0
176
     0
 90
        2
176
     1
  1
strokes_ogs.tif
176
     1
290
     0
176
     1
 40
1.0
176
     1
 40
1.0
176
     1
  0
VISUALSTYLE
  5
36
102
{ACAD_REACTORS
330
29
102
}
330
29
100
AcDbVisualStyle
  2
Thicken
 70
    13
177
     3
291
     1
 70
    58
 90
        2
176
     1
 90
        2
176
     1
 90
        0
176
     1
 90
        0
176
     1
 40
0.6
176
     1
 40
30.0
176
     1
 62
     7
420
 16777215
176
     1
 90
        1
176
     1
 90
        4
176
     1
 62
     7
176
     1
 62
   257
176
     1
 90
        1
176
     1
 90
        1
176
     1
 40
1.0
176
     1
 90
       12
176
     1
 62
     7
176
     1
 40
1.0
176
     1
 90
        1
176
     1
 90
        6
176
     1
 90
        2
176
     1
 62
     7
176
     1
 90
        5
176
     1
 90
        0
176
     1
 90
        0
176
     1
290
     0
176
     1
 90
        1
176
     1
 40
0.0
176
     1
 90
        0
176
     1
290
     0
176
     1
290
     1
176
     1
290
     1
176
     1
290
     0
176
     1
290
     0
176
     1
290
     0
176
     1
290
     0
176
     1
290
     0
176
     1
290
     0
176
     1
 90
       50
176
     1
 40
0.0
176
     1
 40
1.0
176
     1
 90
        0
176
     1
 62
    18
420
        0
176
     1
 90
       50
176
     1
 90
        3
176
     1
 62
     5
420
      255
176
     1
290
     0
176
     1
 90
       50
176
     1
 90
       50
176
     1
 90
       50
176
     1
290
     0
176
     1
 90
       50
176
     1
 62
   256
176
     0
 40
1.0
176
     0
 90
        2
176
     1
  1
strokes_ogs.tif
176
     1
290
     0
176
     1
 40
1.0
176
     1
 40
1.0
176
     1
  0
VISUALSTYLE
  5
30
102
{ACAD_REACTORS
330
29
102
}
330
29
100
AcDbVisualStyle
  2
Wireframe
 70
     5
177
     3
291
     0
 70
    58
 90
        0
176
     1
 90
        2
176
     1
 90
        0
176
     1
 90
        0
176
     1
 40
0.6
176
     1
 40
30.0
176
     1
 62
     7
420
 16777215
176
     1
 90
        1
176
     1
 90
        4
176
     1
 62
     7
176
     1
 62
   257
176
     1
 90
        1
176
     1
 90
        1
176
     1
 40
1.0
176
     1
 90
        0
176
     1
 62
   257
176
     1
 40
1.0
176
     1
 90
        1
176
     1
 90
        6
176
     1
 90
        2
176
     1
 62
     7
176
     1
 90
        3
176
     1
 90
        0
176
     1
 90
        0
176
     1
290
     0
176
     1
 90
        1
176
     1
 40
0.0
176
     1
 90
        0
176
     1
290
     0
176
     1
290
     1
176
     1
290
     1
176
     1
290
     0
176
     1
290
     0
176
     1
290
     0
176
     1
290
     0
176
     1
290
     0
176
     1
290
     0
176
     1
 90
       50
176
     1
 40
0.0
176
     1
 40
1.0
176
     1
 90
        0
176
     1
 62
    18
420
        0
176
     1
 90
       50
176
     1
 90
        3
176
     1
 62
     5
420
      255
176
     1
290
     0
176
     1
 90
       50
176
     1
 90
       50
176
     1
 90
       50
176
     1
290
     0
176
     1
 90
       50
176
     1
 62
   256
176
     0
 40
1.0
176
     0
 90
        2
176
     1
  1
strokes_ogs.tif
176
     1
290
     0
176
     1
 40
1.0
176
     1
 40
1.0
176
     1
  0
VISUALSTYLE
  5
3C
102
{ACAD_REACTORS
330
29
102
}
330
29
100
AcDbVisualStyle
  2
X-Ray
 70
    25
177
     3
291
     0
 70
    58
 90
        2
176
     1
 90
        2
176
     1
 90
        1
176
     1
 90
        1
176
     1
 40
0.5
176
     1
 40
30.0
176
     1
 62
     7
420
 16777215
176
     1
 90
        1
176
     1
 90
        0
176
     1
 62
     7
176
     1
 62
   257
176
     1
 90
        1
176
     1
 90
        1
176
     1
 40
1.0
176
     1
 90
        8
176
     1
 62
     7
176
     1
 40
1.0
176
     1
 90
        1
176
     1
 90
        6
176
     1
 90
        2
176
     1
 62
     7
176
     1
 90
        3
176
     1
 90
        0
176
     1
 90
        0
176
     1
290
     0
176
     1
 90
       13
176
     1
 40
0.0
176
     1
 90
        0
176
     1
290
     0
176
     1
290
     1
176
     1
290
     1
176
     1
290
     0
176
     1
290
     0
176
     1
290
     0
176
     1
290
     0
176
     1
290
     0
176
     1
290
     0
176
     1
 90
       50
176
     1
 40
0.0
176
     1
 40
1.0
176
     1
 90
        0
176
     1
 62
    18
420
        0
176
     1
 90
       50
176
     1
 90
        3
176
     1
 62
     5
420
      255
176
     1
290
     0
176
     1
 90
       50
176
     1
 90
       50
176
     1
 90
       50
176
     1
290
     0
176
     1
 90
       50
176
     1
 62
   256
176
     0
 40
1.0
176
     0
 90
        2
176
     1
  1
strokes_ogs.tif
176
     1
290
     0
176
     1
 40
1.0
176
     1
 40
1.0
176
     1
  0
DICTIONARYVAR
  5
354
102
{ACAD_REACTORS
330
34F
102
}
330
34F
100
DictionaryVariables
280
     0
  1
1:1
  0
DICTIONARYVAR
  5
351
102
{ACAD_REACTORS
330
34F
102
}
330
34F
100
DictionaryVariables
280
     0
  1
STANDARD
  0
DICTIONARYVAR
  5
350
102
{ACAD_REACTORS
330
34F
102
}
330
34F
100
DictionaryVariables
280
     0
  1
STANDARD
  0
DICTIONARYVAR
  5
352
102
{ACAD_REACTORS
330
34F
102
}
330
34F
100
DictionaryVariables
280
     0
  1
Imperial24
  0
DICTIONARYVAR
  5
353
102
{ACAD_REACTORS
330
34F
102
}
330
34F
100
DictionaryVariables
280
     0
  1
Imperial24
  0
DICTIONARY
  5
1A
330
19
100
AcDbDictionary
280
     1
281
     1
  3
BUMPTILE
360
1C
  3
DIFFUSETILE
360
1B
  3
OPACITYTILE
360
1F
  3
REFLECTIONTILE
360
1E
  3
REFRACTIONTILE
360
20
  3
SPECULARTILE
360
1D
  0
DICTIONARY
  5
12
330
11
100
AcDbDictionary
280
     1
281
     1
  3
BUMPTILE
360
14
  3
DIFFUSETILE
360
13
  3
OPACITYTILE
360
17
  3
REFLECTIONTILE
360
16
  3
REFRACTIONTILE
360
18
  3
SPECULARTILE
360
15
  0
DICTIONARY
  5
22
330
21
100
AcDbDictionary
280
     1
281
     1
  3
BUMPTILE
360
24
  3
DIFFUSETILE
360
23
  3
OPACITYTILE
360
27
  3
REFLECTIONTILE
360
26
  3
REFRACTIONTILE
360
28
  3
SPECULARTILE
360
25
  0
DICTIONARY
  5
355
330
65
100
AcDbDictionary
280
     1
281
     1
  3
ACAD_ROUNDTRIP_2008_TABLESTYLE_CELLSTYLEMAP
360
356
  0
XRECORD
  5
1C
102
{ACAD_REACTORS
330
1A
102
}
330
1A
100
AcDbXrecord
280
     1
270
     1
271
     1
  0
XRECORD
  5
1B
102
{ACAD_REACTORS
330
1A
102
}
330
1A
100
AcDbXrecord
280
     1
270
     1
271
     1
  0
XRECORD
  5
1F
102
{ACAD_REACTORS
330
1A
102
}
330
1A
100
AcDbXrecord
280
     1
270
     1
271
     1
  0
XRECORD
  5
1E
102
{ACAD_REACTORS
330
1A
102
}
330
1A
100
AcDbXrecord
280
     1
270
     1
271
     1
  0
XRECORD
  5
20
102
{ACAD_REACTORS
330
1A
102
}
330
1A
100
AcDbXrecord
280
     1
270
     1
271
     1
  0
XRECORD
  5
1D
102
{ACAD_REACTORS
330
1A
102
}
330
1A
100
AcDbXrecord
280
     1
270
     1
271
     1
  0
XRECORD
  5
14
102
{ACAD_REACTORS
330
12
102
}
330
12
100
AcDbXrecord
280
     1
270
     1
271
     1
  0
XRECORD
  5
13
102
{ACAD_REACTORS
330
12
102
}
330
12
100
AcDbXrecord
280
     1
270
     1
271
     1
  0
XRECORD
  5
17
102
{ACAD_REACTORS
330
12
102
}
330
12
100
AcDbXrecord
280
     1
270
     1
271
     1
  0
XRECORD
  5
16
102
{ACAD_REACTORS
330
12
102
}
330
12
100
AcDbXrecord
280
     1
270
     1
271
     1
  0
XRECORD
  5
18
102
{ACAD_REACTORS
330
12
102
}
330
12
100
AcDbXrecord
280
     1
270
     1
271
     1
  0
XRECORD
  5
15
102
{ACAD_REACTORS
330
12
102
}
330
12
100
AcDbXrecord
280
     1
270
     1
271
     1
  0
XRECORD
  5
24
102
{ACAD_REACTORS
330
22
102
}
330
22
100
AcDbXrecord
280
     1
270
     1
271
     1
  0
XRECORD
  5
23
102
{ACAD_REACTORS
330
22
102
}
330
22
100
AcDbXrecord
280
     1
270
     1
271
     1
  0
XRECORD
  5
27
102
{ACAD_REACTORS
330
22
102
}
330
22
100
AcDbXrecord
280
     1
270
     1
271
     1
  0
XRECORD
  5
26
102
{ACAD_REACTORS
330
22
102
}
330
22
100
AcDbXrecord
280
     1
270
     1
271
     1
  0
XRECORD
  5
28
102
{ACAD_REACTORS
330
22
102
}
330
22
100
AcDbXrecord
280
     1
270
     1
271
     1
  0
XRECORD
  5
25
102
{ACAD_REACTORS
330
22
102
}
330
22
100
AcDbXrecord
280
     1
270
     1
271
     1
  0
CELLSTYLEMAP
  5
356
102
{ACAD_REACTORS
330
355
102
}
330
355
100
AcDbCellStyleMap
 90
        3
300
CELLSTYLE
  1
TABLEFORMAT_BEGIN
 90
        5
170
     1
 91
        0
 92
    32768
 62
   257
 93
        1
300
CONTENTFORMAT
  1
CONTENTFORMAT_BEGIN
 90
        0
 91
        0
 92
      512
 93
        0
300

 40
0.0
140
1.0
 94
        5
 62
     0
340
55
144
0.25
309
CONTENTFORMAT_END
171
     0
 94
        0
309
TABLEFORMAT_END
  1
CELLSTYLE_BEGIN
 90
        1
 91
        1
300
_TITLE
309
CELLSTYLE_END
300
CELLSTYLE
  1
TABLEFORMAT_BEGIN
 90
        5
170
     1
 91
        0
 92
        0
 62
   257
 93
        1
300
CONTENTFORMAT
  1
CONTENTFORMAT_BEGIN
 90
        0
 91
        0
 92
      512
 93
        0
300

 40
0.0
140
1.0
 94
        5
 62
     0
340
55
144
0.18
309
CONTENTFORMAT_END
171
     0
 94
        0
309
TABLEFORMAT_END
  1
CELLSTYLE_BEGIN
 90
        2
 91
        1
300
_HEADER
309
CELLSTYLE_END
300
CELLSTYLE
  1
TABLEFORMAT_BEGIN
 90
        5
170
     1
 91
        0
 92
        0
 62
   257
 93
        1
300
CONTENTFORMAT
  1
CONTENTFORMAT_BEGIN
 90
        0
 91
        0
 92
      512
 93
        0
300

 40
0.0
140
1.0
 94
        2
 62
     0
340
55
144
0.18
309
CONTENTFORMAT_END
171
     0
 94
        0
309
TABLEFORMAT_END
  1
CELLSTYLE_BEGIN
 90
        3
 91
        2
300
_DATA
309
CELLSTYLE_END
  0
ENDSEC
  0
EOF
