ISO-10303-21;
HEADER;
/* Generated by software containing ST-Developer
 * from STEP Tools, Inc. (www.steptools.com) 
 */
/* OPTION: using custom schema-name function */

FILE_DESCRIPTION(
/* description */ (''),
/* implementation_level */ '2;1');

FILE_NAME(
/* name */ 'W9990788_stp.stp',
/* time_stamp */ '2017-05-29T14:07:19+02:00',
/* author */ (''),
/* organization */ (''),
/* preprocessor_version */ 'ST-DEVELOPER v15',
/* originating_system */ 'SIEMENS PLM Software NX 9.0',
/* authorisation */ '');

FILE_SCHEMA (('AUTOMOTIVE_DESIGN { 1 0 10303 214 3 1 1 1 }'));
ENDSEC;

DATA;
#10=PROPERTY_DEFINITION_REPRESENTATION(#14,#12);
#11=PROPERTY_DEFINITION_REPRESENTATION(#15,#13);
#12=REPRESENTATION('',(#16),#394);
#13=REPRESENTATION('',(#17),#394);
#14=PROPERTY_DEFINITION('pmi validation property','',#21);
#15=PROPERTY_DEFINITION('pmi validation property','',#21);
#16=VALUE_REPRESENTATION_ITEM('number of annotations',COUNT_MEASURE(0.));
#17=VALUE_REPRESENTATION_ITEM('number of views',COUNT_MEASURE(0.));
#18=SHAPE_REPRESENTATION_RELATIONSHIP('None',
'relationship between reic1C24C78Ap7mj-None and reic1C24C78Ap7mj-None',
#30,#19);
#19=ADVANCED_BREP_SHAPE_REPRESENTATION('reic1C24C78Ap7mj-None',(#40),#394);
#20=SHAPE_DEFINITION_REPRESENTATION(#21,#30);
#21=PRODUCT_DEFINITION_SHAPE('','',#22);
#22=PRODUCT_DEFINITION(' ','',#24,#23);
#23=PRODUCT_DEFINITION_CONTEXT('part definition',#29,'design');
#24=PRODUCT_DEFINITION_FORMATION_WITH_SPECIFIED_SOURCE(' ',' ',#26,
 .NOT_KNOWN.);
#25=PRODUCT_RELATED_PRODUCT_CATEGORY('part','',(#26));
#26=PRODUCT('reic1C24C78Ap7mj','reic1C24C78Ap7mj',' ',(#27));
#27=PRODUCT_CONTEXT(' ',#29,'mechanical');
#28=APPLICATION_PROTOCOL_DEFINITION('international standard',
'automotive_design',2010,#29);
#29=APPLICATION_CONTEXT(
'core data for automotive mechanical design processes');
#30=SHAPE_REPRESENTATION('reic1C24C78Ap7mj-None',(#235),#394);
#31=PRESENTATION_LAYER_ASSIGNMENT('210','Layer 210',(#40));
#32=STYLED_ITEM('',(#33),#40);
#33=PRESENTATION_STYLE_ASSIGNMENT((#34));
#34=SURFACE_STYLE_USAGE(.BOTH.,#35);
#35=SURFACE_SIDE_STYLE('',(#36));
#36=SURFACE_STYLE_FILL_AREA(#37);
#37=FILL_AREA_STYLE('',(#38));
#38=FILL_AREA_STYLE_COLOUR('',#39);
#39=COLOUR_RGB('RAL 7035',0.8,0.8,0.8);
#40=MANIFOLD_SOLID_BREP('',#41);
#41=CLOSED_SHELL('',(#70,#71,#72,#73,#74,#75,#76,#77,#78,#79,#80,#81,#82,
#83));
#42=CYLINDRICAL_SURFACE('',#250,20.);
#43=CYLINDRICAL_SURFACE('',#251,25.);
#44=CYLINDRICAL_SURFACE('',#255,16.);
#45=CYLINDRICAL_SURFACE('',#261,8.);
#46=CYLINDRICAL_SURFACE('',#264,8.);
#47=CONICAL_SURFACE('',#246,20.,44.9999999999999);
#48=CONICAL_SURFACE('',#259,10.0723145172501,8.00000000000004);
#49=FACE_OUTER_BOUND('',#111,.T.);
#50=FACE_OUTER_BOUND('',#114,.T.);
#51=FACE_OUTER_BOUND('',#115,.T.);
#52=FACE_OUTER_BOUND('',#126,.T.);
#53=FACE_OUTER_BOUND('',#129,.T.);
#54=LINE('',#351,#61);
#55=LINE('',#354,#62);
#56=LINE('',#363,#63);
#57=LINE('',#365,#64);
#58=LINE('',#366,#65);
#59=LINE('',#369,#66);
#60=LINE('',#371,#67);
#61=VECTOR('',#284,1.);
#62=VECTOR('',#287,1.);
#63=VECTOR('',#298,1.);
#64=VECTOR('',#299,1.);
#65=VECTOR('',#300,1.);
#66=VECTOR('',#303,1.);
#67=VECTOR('',#304,1.);
#68=TOROIDAL_SURFACE('',#242,24.5,0.5);
#69=TOROIDAL_SURFACE('',#249,18.,2.);
#70=ADVANCED_FACE('',(#89,#90),#84,.F.);
#71=ADVANCED_FACE('',(#91,#92),#68,.T.);
#72=ADVANCED_FACE('',(#49),#47,.T.);
#73=ADVANCED_FACE('',(#93,#94),#69,.T.);
#74=ADVANCED_FACE('',(#50),#42,.T.);
#75=ADVANCED_FACE('',(#51),#43,.T.);
#76=ADVANCED_FACE('',(#95,#96),#85,.F.);
#77=ADVANCED_FACE('',(#97,#98),#44,.T.);
#78=ADVANCED_FACE('',(#99,#100),#86,.F.);
#79=ADVANCED_FACE('',(#101,#102),#48,.T.);
#80=ADVANCED_FACE('',(#103,#104),#45,.T.);
#81=ADVANCED_FACE('',(#52),#87,.F.);
#82=ADVANCED_FACE('',(#105,#106),#46,.F.);
#83=ADVANCED_FACE('',(#53),#88,.T.);
#84=PLANE('',#238);
#85=PLANE('',#253);
#86=PLANE('',#257);
#87=PLANE('',#262);
#88=PLANE('',#265);
#89=FACE_BOUND('',#107,.T.);
#90=FACE_BOUND('',#108,.T.);
#91=FACE_BOUND('',#109,.T.);
#92=FACE_BOUND('',#110,.T.);
#93=FACE_BOUND('',#112,.T.);
#94=FACE_BOUND('',#113,.T.);
#95=FACE_BOUND('',#116,.T.);
#96=FACE_BOUND('',#117,.T.);
#97=FACE_BOUND('',#118,.T.);
#98=FACE_BOUND('',#119,.T.);
#99=FACE_BOUND('',#120,.T.);
#100=FACE_BOUND('',#121,.T.);
#101=FACE_BOUND('',#122,.T.);
#102=FACE_BOUND('',#123,.T.);
#103=FACE_BOUND('',#124,.T.);
#104=FACE_BOUND('',#125,.T.);
#105=FACE_BOUND('',#127,.T.);
#106=FACE_BOUND('',#128,.T.);
#107=EDGE_LOOP('',(#130));
#108=EDGE_LOOP('',(#131));
#109=EDGE_LOOP('',(#132,#133));
#110=EDGE_LOOP('',(#134));
#111=EDGE_LOOP('',(#135,#136,#137,#138,#139,#140,#141));
#112=EDGE_LOOP('',(#142,#143));
#113=EDGE_LOOP('',(#144));
#114=EDGE_LOOP('',(#145,#146,#147,#148,#149,#150,#151,#152,#153,#154));
#115=EDGE_LOOP('',(#155,#156,#157,#158,#159,#160,#161));
#116=EDGE_LOOP('',(#162));
#117=EDGE_LOOP('',(#163));
#118=EDGE_LOOP('',(#164));
#119=EDGE_LOOP('',(#165));
#120=EDGE_LOOP('',(#166));
#121=EDGE_LOOP('',(#167));
#122=EDGE_LOOP('',(#168));
#123=EDGE_LOOP('',(#169));
#124=EDGE_LOOP('',(#170));
#125=EDGE_LOOP('',(#171));
#126=EDGE_LOOP('',(#172));
#127=EDGE_LOOP('',(#173));
#128=EDGE_LOOP('',(#174));
#129=EDGE_LOOP('',(#175));
#130=ORIENTED_EDGE('',*,*,#196,.F.);
#131=ORIENTED_EDGE('',*,*,#197,.T.);
#132=ORIENTED_EDGE('',*,*,#198,.F.);
#133=ORIENTED_EDGE('',*,*,#199,.F.);
#134=ORIENTED_EDGE('',*,*,#200,.F.);
#135=ORIENTED_EDGE('',*,*,#201,.T.);
#136=ORIENTED_EDGE('',*,*,#202,.F.);
#137=ORIENTED_EDGE('',*,*,#202,.T.);
#138=ORIENTED_EDGE('',*,*,#203,.T.);
#139=ORIENTED_EDGE('',*,*,#204,.F.);
#140=ORIENTED_EDGE('',*,*,#205,.F.);
#141=ORIENTED_EDGE('',*,*,#204,.T.);
#142=ORIENTED_EDGE('',*,*,#206,.F.);
#143=ORIENTED_EDGE('',*,*,#207,.F.);
#144=ORIENTED_EDGE('',*,*,#196,.T.);
#145=ORIENTED_EDGE('',*,*,#208,.T.);
#146=ORIENTED_EDGE('',*,*,#206,.T.);
#147=ORIENTED_EDGE('',*,*,#209,.F.);
#148=ORIENTED_EDGE('',*,*,#203,.F.);
#149=ORIENTED_EDGE('',*,*,#210,.F.);
#150=ORIENTED_EDGE('',*,*,#210,.T.);
#151=ORIENTED_EDGE('',*,*,#201,.F.);
#152=ORIENTED_EDGE('',*,*,#209,.T.);
#153=ORIENTED_EDGE('',*,*,#207,.T.);
#154=ORIENTED_EDGE('',*,*,#208,.F.);
#155=ORIENTED_EDGE('',*,*,#211,.F.);
#156=ORIENTED_EDGE('',*,*,#211,.T.);
#157=ORIENTED_EDGE('',*,*,#199,.T.);
#158=ORIENTED_EDGE('',*,*,#212,.F.);
#159=ORIENTED_EDGE('',*,*,#205,.T.);
#160=ORIENTED_EDGE('',*,*,#212,.T.);
#161=ORIENTED_EDGE('',*,*,#198,.T.);
#162=ORIENTED_EDGE('',*,*,#213,.T.);
#163=ORIENTED_EDGE('',*,*,#200,.T.);
#164=ORIENTED_EDGE('',*,*,#214,.T.);
#165=ORIENTED_EDGE('',*,*,#213,.F.);
#166=ORIENTED_EDGE('',*,*,#214,.F.);
#167=ORIENTED_EDGE('',*,*,#215,.T.);
#168=ORIENTED_EDGE('',*,*,#216,.F.);
#169=ORIENTED_EDGE('',*,*,#215,.F.);
#170=ORIENTED_EDGE('',*,*,#216,.T.);
#171=ORIENTED_EDGE('',*,*,#217,.T.);
#172=ORIENTED_EDGE('',*,*,#217,.F.);
#173=ORIENTED_EDGE('',*,*,#197,.F.);
#174=ORIENTED_EDGE('',*,*,#218,.F.);
#175=ORIENTED_EDGE('',*,*,#218,.T.);
#176=VERTEX_POINT('',#337);
#177=VERTEX_POINT('',#339);
#178=VERTEX_POINT('',#342);
#179=VERTEX_POINT('',#343);
#180=VERTEX_POINT('',#346);
#181=VERTEX_POINT('',#349);
#182=VERTEX_POINT('',#350);
#183=VERTEX_POINT('',#352);
#184=VERTEX_POINT('',#355);
#185=VERTEX_POINT('',#359);
#186=VERTEX_POINT('',#360);
#187=VERTEX_POINT('',#364);
#188=VERTEX_POINT('',#367);
#189=VERTEX_POINT('',#370);
#190=VERTEX_POINT('',#374);
#191=VERTEX_POINT('',#377);
#192=VERTEX_POINT('',#380);
#193=VERTEX_POINT('',#383);
#194=VERTEX_POINT('',#386);
#195=VERTEX_POINT('',#390);
#196=EDGE_CURVE('',#176,#176,#219,.T.);
#197=EDGE_CURVE('',#177,#177,#220,.T.);
#198=EDGE_CURVE('',#178,#179,#221,.T.);
#199=EDGE_CURVE('',#179,#178,#222,.T.);
#200=EDGE_CURVE('',#180,#180,#223,.T.);
#201=EDGE_CURVE('',#181,#182,#224,.T.);
#202=EDGE_CURVE('',#183,#182,#54,.T.);
#203=EDGE_CURVE('',#182,#181,#225,.T.);
#204=EDGE_CURVE('',#184,#181,#55,.T.);
#205=EDGE_CURVE('',#184,#184,#226,.T.);
#206=EDGE_CURVE('',#185,#186,#227,.T.);
#207=EDGE_CURVE('',#186,#185,#228,.T.);
#208=EDGE_CURVE('',#187,#185,#56,.T.);
#209=EDGE_CURVE('',#181,#186,#57,.T.);
#210=EDGE_CURVE('',#188,#182,#58,.T.);
#211=EDGE_CURVE('',#189,#179,#59,.T.);
#212=EDGE_CURVE('',#184,#178,#60,.T.);
#213=EDGE_CURVE('',#190,#190,#229,.T.);
#214=EDGE_CURVE('',#191,#191,#230,.T.);
#215=EDGE_CURVE('',#192,#192,#231,.T.);
#216=EDGE_CURVE('',#193,#193,#232,.T.);
#217=EDGE_CURVE('',#194,#194,#233,.T.);
#218=EDGE_CURVE('',#195,#195,#234,.T.);
#219=CIRCLE('',#236,18.);
#220=CIRCLE('',#237,8.);
#221=CIRCLE('',#239,25.);
#222=CIRCLE('',#240,25.);
#223=CIRCLE('',#241,24.5);
#224=CIRCLE('',#243,20.);
#225=CIRCLE('',#244,20.);
#226=CIRCLE('',#245,25.);
#227=CIRCLE('',#247,20.);
#228=CIRCLE('',#248,20.);
#229=CIRCLE('',#252,16.);
#230=CIRCLE('',#254,16.);
#231=CIRCLE('',#256,10.0723145172501);
#232=CIRCLE('',#258,8.);
#233=CIRCLE('',#260,8.);
#234=CIRCLE('',#263,8.);
#235=AXIS2_PLACEMENT_3D('',#335,#266,#267);
#236=AXIS2_PLACEMENT_3D('',#336,#268,#269);
#237=AXIS2_PLACEMENT_3D('',#338,#270,#271);
#238=AXIS2_PLACEMENT_3D('',#340,#272,#273);
#239=AXIS2_PLACEMENT_3D('',#341,#274,#275);
#240=AXIS2_PLACEMENT_3D('',#344,#276,#277);
#241=AXIS2_PLACEMENT_3D('',#345,#278,#279);
#242=AXIS2_PLACEMENT_3D('',#347,#280,#281);
#243=AXIS2_PLACEMENT_3D('',#348,#282,#283);
#244=AXIS2_PLACEMENT_3D('',#353,#285,#286);
#245=AXIS2_PLACEMENT_3D('',#356,#288,#289);
#246=AXIS2_PLACEMENT_3D('',#357,#290,#291);
#247=AXIS2_PLACEMENT_3D('',#358,#292,#293);
#248=AXIS2_PLACEMENT_3D('',#361,#294,#295);
#249=AXIS2_PLACEMENT_3D('',#362,#296,#297);
#250=AXIS2_PLACEMENT_3D('',#368,#301,#302);
#251=AXIS2_PLACEMENT_3D('',#372,#305,#306);
#252=AXIS2_PLACEMENT_3D('',#373,#307,#308);
#253=AXIS2_PLACEMENT_3D('',#375,#309,#310);
#254=AXIS2_PLACEMENT_3D('',#376,#311,#312);
#255=AXIS2_PLACEMENT_3D('',#378,#313,#314);
#256=AXIS2_PLACEMENT_3D('',#379,#315,#316);
#257=AXIS2_PLACEMENT_3D('',#381,#317,#318);
#258=AXIS2_PLACEMENT_3D('',#382,#319,#320);
#259=AXIS2_PLACEMENT_3D('',#384,#321,#322);
#260=AXIS2_PLACEMENT_3D('',#385,#323,#324);
#261=AXIS2_PLACEMENT_3D('',#387,#325,#326);
#262=AXIS2_PLACEMENT_3D('',#388,#327,#328);
#263=AXIS2_PLACEMENT_3D('',#389,#329,#330);
#264=AXIS2_PLACEMENT_3D('',#391,#331,#332);
#265=AXIS2_PLACEMENT_3D('',#392,#333,#334);
#266=DIRECTION('',(0.,0.,1.));
#267=DIRECTION('',(1.,0.,0.));
#268=DIRECTION('',(0.,0.,-1.));
#269=DIRECTION('',(-1.,0.,0.));
#270=DIRECTION('',(0.,0.,-1.));
#271=DIRECTION('',(-1.,0.,0.));
#272=DIRECTION('',(0.,0.,-1.));
#273=DIRECTION('',(1.,0.,0.));
#274=DIRECTION('',(0.,0.,1.));
#275=DIRECTION('',(1.,0.,0.));
#276=DIRECTION('',(0.,0.,1.));
#277=DIRECTION('',(1.,0.,0.));
#278=DIRECTION('',(0.,0.,-1.));
#279=DIRECTION('',(1.,0.,0.));
#280=DIRECTION('',(0.,0.,1.));
#281=DIRECTION('',(-1.,0.,0.));
#282=DIRECTION('',(0.,0.,-1.));
#283=DIRECTION('',(-1.,0.,0.));
#284=DIRECTION('',(-0.707106781186546,-8.65927457071933E-017,0.707106781186549));
#285=DIRECTION('',(0.,0.,-1.));
#286=DIRECTION('',(-1.,0.,0.));
#287=DIRECTION('',(0.707106781186546,0.,0.707106781186549));
#288=DIRECTION('',(0.,0.,-1.));
#289=DIRECTION('',(-1.,0.,0.));
#290=DIRECTION('',(0.,0.,-1.));
#291=DIRECTION('',(1.,0.,1.36056743213868E-017));
#292=DIRECTION('',(0.,0.,-1.));
#293=DIRECTION('',(-1.,0.,0.));
#294=DIRECTION('',(0.,0.,-1.));
#295=DIRECTION('',(-1.,0.,0.));
#296=DIRECTION('',(0.,0.,-1.));
#297=DIRECTION('',(1.,0.,0.));
#298=DIRECTION('',(0.,0.,1.));
#299=DIRECTION('',(0.,0.,1.));
#300=DIRECTION('',(0.,0.,-1.));
#301=DIRECTION('',(0.,0.,-1.));
#302=DIRECTION('',(1.,0.,0.));
#303=DIRECTION('',(0.,0.,-1.));
#304=DIRECTION('',(0.,0.,-1.));
#305=DIRECTION('',(0.,0.,-1.));
#306=DIRECTION('',(1.,0.,0.));
#307=DIRECTION('',(0.,0.,1.));
#308=DIRECTION('',(1.,0.,0.));
#309=DIRECTION('',(0.,0.,1.));
#310=DIRECTION('',(-1.,0.,0.));
#311=DIRECTION('',(0.,0.,1.));
#312=DIRECTION('',(1.,0.,0.));
#313=DIRECTION('',(0.,0.,-1.));
#314=DIRECTION('',(1.,0.,0.));
#315=DIRECTION('',(0.,0.,1.));
#316=DIRECTION('',(1.,0.,0.));
#317=DIRECTION('',(0.,0.,1.));
#318=DIRECTION('',(-1.,0.,0.));
#319=DIRECTION('',(0.,0.,-1.));
#320=DIRECTION('',(1.,0.,0.));
#321=DIRECTION('',(0.,0.,1.));
#322=DIRECTION('',(-1.,0.,2.53390335898458E-016));
#323=DIRECTION('',(0.,0.,1.));
#324=DIRECTION('',(1.,0.,0.));
#325=DIRECTION('',(0.,0.,-1.));
#326=DIRECTION('',(1.,0.,0.));
#327=DIRECTION('',(0.,0.,1.));
#328=DIRECTION('',(-1.,0.,0.));
#329=DIRECTION('',(0.,0.,1.));
#330=DIRECTION('',(-1.,1.22464679914735E-016,0.));
#331=DIRECTION('',(0.,0.,-1.));
#332=DIRECTION('',(1.,0.,0.));
#333=DIRECTION('',(0.,0.,1.));
#334=DIRECTION('',(1.,0.,0.));
#335=CARTESIAN_POINT('',(0.,0.,0.));
#336=CARTESIAN_POINT('',(0.,0.,25.));
#337=CARTESIAN_POINT('',(-18.,0.,25.));
#338=CARTESIAN_POINT('',(0.,0.,25.));
#339=CARTESIAN_POINT('',(-8.,0.,25.));
#340=CARTESIAN_POINT('',(0.,0.,25.));
#341=CARTESIAN_POINT('',(0.,0.,0.5));
#342=CARTESIAN_POINT('',(-25.,0.,0.5));
#343=CARTESIAN_POINT('',(25.,3.06151588455594E-015,0.5));
#344=CARTESIAN_POINT('',(0.,0.,0.5));
#345=CARTESIAN_POINT('',(0.,0.,0.));
#346=CARTESIAN_POINT('',(24.5,0.,0.));
#347=CARTESIAN_POINT('',(0.,0.,0.5));
#348=CARTESIAN_POINT('',(0.,0.,11.));
#349=CARTESIAN_POINT('',(-20.,0.,11.));
#350=CARTESIAN_POINT('',(20.,2.44921270764475E-015,11.));
#351=CARTESIAN_POINT('',(20.,2.44921270764475E-015,11.));
#352=CARTESIAN_POINT('',(22.5,-6.35973200775051E-015,8.49999999999998));
#353=CARTESIAN_POINT('',(0.,0.,11.));
#354=CARTESIAN_POINT('',(-20.,0.,11.));
#355=CARTESIAN_POINT('',(-25.,0.,5.99999999999996));
#356=CARTESIAN_POINT('',(0.,0.,5.99999999999996));
#357=CARTESIAN_POINT('',(0.,0.,11.));
#358=CARTESIAN_POINT('',(0.,0.,23.));
#359=CARTESIAN_POINT('',(20.,2.44921270764475E-015,23.));
#360=CARTESIAN_POINT('',(-20.,0.,23.));
#361=CARTESIAN_POINT('',(0.,0.,23.));
#362=CARTESIAN_POINT('',(0.,0.,23.));
#363=CARTESIAN_POINT('',(20.,2.44921270764475E-015,-41.));
#364=CARTESIAN_POINT('',(20.,1.22460635382238E-015,20.5));
#365=CARTESIAN_POINT('',(-20.,0.,-41.));
#366=CARTESIAN_POINT('',(20.,2.44921270764475E-015,-41.));
#367=CARTESIAN_POINT('',(20.,1.9440624842624E-015,13.5));
#368=CARTESIAN_POINT('',(0.,0.,-41.));
#369=CARTESIAN_POINT('',(25.,3.06151588455594E-015,-41.));
#370=CARTESIAN_POINT('',(25.,2.40330668628815E-015,1.5));
#371=CARTESIAN_POINT('',(-25.,0.,-41.));
#372=CARTESIAN_POINT('',(0.,0.,-41.));
#373=CARTESIAN_POINT('',(0.,0.,0.));
#374=CARTESIAN_POINT('',(16.,0.,0.));
#375=CARTESIAN_POINT('',(0.,25.,0.));
#376=CARTESIAN_POINT('',(0.,0.,-18.5));
#377=CARTESIAN_POINT('',(16.,0.,-18.5));
#378=CARTESIAN_POINT('',(0.,0.,-41.));
#379=CARTESIAN_POINT('',(0.,0.,-18.5));
#380=CARTESIAN_POINT('',(10.0723145172501,0.,-18.5));
#381=CARTESIAN_POINT('',(0.,16.,-18.5));
#382=CARTESIAN_POINT('',(0.,0.,-33.2452839712988));
#383=CARTESIAN_POINT('',(8.,0.,-33.2452839712988));
#384=CARTESIAN_POINT('',(0.,0.,-18.5));
#385=CARTESIAN_POINT('',(0.,0.,-41.));
#386=CARTESIAN_POINT('',(8.,0.,-41.));
#387=CARTESIAN_POINT('',(0.,0.,-41.));
#388=CARTESIAN_POINT('',(0.,0.,-41.));
#389=CARTESIAN_POINT('',(0.,0.,-16.));
#390=CARTESIAN_POINT('',(-8.,9.79717439317882E-016,-16.));
#391=CARTESIAN_POINT('',(0.,0.,-42.4884705629218));
#392=CARTESIAN_POINT('',(0.,0.,-16.));
#393=MECHANICAL_DESIGN_GEOMETRIC_PRESENTATION_REPRESENTATION('',(#32),#394);
#394=(
GEOMETRIC_REPRESENTATION_CONTEXT(3)
GLOBAL_UNCERTAINTY_ASSIGNED_CONTEXT((#395))
GLOBAL_UNIT_ASSIGNED_CONTEXT((#401,#397,#396))
REPRESENTATION_CONTEXT('W9990788_stp','TOP_LEVEL_ASSEMBLY_PART')
);
#395=UNCERTAINTY_MEASURE_WITH_UNIT(LENGTH_MEASURE(2.E-005),#401,
'DISTANCE_ACCURACY_VALUE','Maximum Tolerance applied to model');
#396=(
NAMED_UNIT(*)
SI_UNIT($,.STERADIAN.)
SOLID_ANGLE_UNIT()
);
#397=(
CONVERSION_BASED_UNIT('DEGREE',#399)
NAMED_UNIT(#398)
PLANE_ANGLE_UNIT()
);
#398=DIMENSIONAL_EXPONENTS(0.,0.,0.,0.,0.,0.,0.);
#399=PLANE_ANGLE_MEASURE_WITH_UNIT(PLANE_ANGLE_MEASURE(0.0174532925),#400);
#400=(
NAMED_UNIT(*)
PLANE_ANGLE_UNIT()
SI_UNIT($,.RADIAN.)
);
#401=(
LENGTH_UNIT()
NAMED_UNIT(*)
SI_UNIT(.MILLI.,.METRE.)
);
ENDSEC;
END-ISO-10303-21;
