  0
SECTION
  2
HEADER
  9
$ACADVER
  1
AC1014
  9
$ACADMAINTVER
 70
     9
  9
$DWGCODEPAGE
  3
ANSI_1252
  9
$INSBASE
 10
0.0
 20
0.0
 30
0.0
  9
$EXTMIN
 10
1.000000000000000E+20
 20
1.000000000000000E+20
 30
1.000000000000000E+20
  9
$EXTMAX
 10
-1.000000000000000E+20
 20
-1.000000000000000E+20
 30
-1.000000000000000E+20
  9
$LIMMIN
 10
0.0
 20
0.0
  9
$LIMMAX
 10
12.0
 20
9.0
  9
$ORTHOMODE
 70
     0
  9
$REGENMODE
 70
     1
  9
$FILLMODE
 70
     1
  9
$QTEXTMODE
 70
     0
  9
$MIRRTEXT
 70
     1
  9
$DRAGMODE
 70
     2
  9
$LTSCALE
 40
1.0
  9
$OSMODE
 70
    37
  9
$ATTMODE
 70
     1
  9
$TEXTSIZE
 40
0.2
  9
$TRACEWID
 40
0.05
  9
$TEXTSTYLE
  7
STANDARD
  9
$CLAYER
  8
0
  9
$CELTYPE
  6
BYLAYER
  9
$CECOLOR
 62
   256
  9
$CELTSCALE
 40
1.0
  9
$DELOBJ
 70
     1
  9
$DISPSILH
 70
     0
  9
$DIMSCALE
 40
1.0
  9
$DIMASZ
 40
0.18
  9
$DIMEXO
 40
0.0625
  9
$DIMDLI
 40
0.38
  9
$DIMRND
 40
0.0
  9
$DIMDLE
 40
0.0
  9
$DIMEXE
 40
0.18
  9
$DIMTP
 40
0.0
  9
$DIMTM
 40
0.0
  9
$DIMTXT
 40
0.18
  9
$DIMCEN
 40
0.09
  9
$DIMTSZ
 40
0.0
  9
$DIMTOL
 70
     0
  9
$DIMLIM
 70
     0
  9
$DIMTIH
 70
     1
  9
$DIMTOH
 70
     1
  9
$DIMSE1
 70
     0
  9
$DIMSE2
 70
     0
  9
$DIMTAD
 70
     0
  9
$DIMZIN
 70
     0
  9
$DIMBLK
  1

  9
$DIMASO
 70
     1
  9
$DIMSHO
 70
     1
  9
$DIMPOST
  1

  9
$DIMAPOST
  1

  9
$DIMALT
 70
     0
  9
$DIMALTD
 70
     2
  9
$DIMALTF
 40
25.4
  9
$DIMLFAC
 40
1.0
  9
$DIMTOFL
 70
     0
  9
$DIMTVP
 40
0.0
  9
$DIMTIX
 70
     0
  9
$DIMSOXD
 70
     0
  9
$DIMSAH
 70
     0
  9
$DIMBLK1
  1

  9
$DIMBLK2
  1

  9
$DIMSTYLE
  2
STANDARD
  9
$DIMCLRD
 70
     0
  9
$DIMCLRE
 70
     0
  9
$DIMCLRT
 70
     0
  9
$DIMTFAC
 40
1.0
  9
$DIMGAP
 40
0.09
  9
$DIMJUST
 70
     0
  9
$DIMSD1
 70
     0
  9
$DIMSD2
 70
     0
  9
$DIMTOLJ
 70
     1
  9
$DIMTZIN
 70
     0
  9
$DIMALTZ
 70
     0
  9
$DIMALTTZ
 70
     0
  9
$DIMFIT
 70
     3
  9
$DIMUPT
 70
     0
  9
$DIMUNIT
 70
     2
  9
$DIMDEC
 70
     4
  9
$DIMTDEC
 70
     4
  9
$DIMALTU
 70
     2
  9
$DIMALTTD
 70
     2
  9
$DIMTXSTY
  7
STANDARD
  9
$DIMAUNIT
 70
     0
  9
$LUNITS
 70
     2
  9
$LUPREC
 70
     4
  9
$SKETCHINC
 40
0.1
  9
$FILLETRAD
 40
0.5
  9
$AUNITS
 70
     0
  9
$AUPREC
 70
     0
  9
$MENU
  1
.
  9
$ELEVATION
 40
0.0
  9
$PELEVATION
 40
0.0
  9
$THICKNESS
 40
0.0
  9
$LIMCHECK
 70
     0
  9
$CHAMFERA
 40
0.5
  9
$CHAMFERB
 40
0.5
  9
$CHAMFERC
 40
1.0
  9
$CHAMFERD
 40
0.0
  9
$SKPOLY
 70
     0
  9
$TDCREATE
 40
2458340.398932778
  9
$TDUPDATE
 40
2458340.398932789
  9
$TDINDWG
 40
0.0000000116
  9
$TDUSRTIMER
 40
0.0000000116
  9
$USRTIMER
 70
     1
  9
$ANGBASE
 50
0.0
  9
$ANGDIR
 70
     0
  9
$PDMODE
 70
     0
  9
$PDSIZE
 40
0.0
  9
$PLINEWID
 40
0.0
  9
$COORDS
 70
     1
  9
$SPLFRAME
 70
     0
  9
$SPLINETYPE
 70
     6
  9
$SPLINESEGS
 70
     8
  9
$ATTDIA
 70
     0
  9
$ATTREQ
 70
     1
  9
$HANDLING
 70
     1
  9
$HANDSEED
  5
446
  9
$SURFTAB1
 70
     6
  9
$SURFTAB2
 70
     6
  9
$SURFTYPE
 70
     6
  9
$SURFU
 70
     6
  9
$SURFV
 70
     6
  9
$UCSNAME
  2

  9
$UCSORG
 10
0.0
 20
0.0
 30
0.0
  9
$UCSXDIR
 10
1.0
 20
0.0
 30
0.0
  9
$UCSYDIR
 10
0.0
 20
1.0
 30
0.0
  9
$PUCSNAME
  2

  9
$PUCSORG
 10
0.0
 20
0.0
 30
0.0
  9
$PUCSXDIR
 10
1.0
 20
0.0
 30
0.0
  9
$PUCSYDIR
 10
0.0
 20
1.0
 30
0.0
  9
$USERI1
 70
     0
  9
$USERI2
 70
     0
  9
$USERI3
 70
     0
  9
$USERI4
 70
     0
  9
$USERI5
 70
     0
  9
$USERR1
 40
0.0
  9
$USERR2
 40
0.0
  9
$USERR3
 40
0.0
  9
$USERR4
 40
0.0
  9
$USERR5
 40
0.0
  9
$WORLDVIEW
 70
     1
  9
$SHADEDGE
 70
     3
  9
$SHADEDIF
 70
    70
  9
$TILEMODE
 70
     1
  9
$MAXACTVP
 70
    64
  9
$PINSBASE
 10
0.0
 20
0.0
 30
0.0
  9
$PLIMCHECK
 70
     0
  9
$PEXTMIN
 10
1.000000000000000E+20
 20
1.000000000000000E+20
 30
1.000000000000000E+20
  9
$PEXTMAX
 10
-1.000000000000000E+20
 20
-1.000000000000000E+20
 30
-1.000000000000000E+20
  9
$PLIMMIN
 10
0.0
 20
0.0
  9
$PLIMMAX
 10
12.0
 20
9.0
  9
$UNITMODE
 70
     0
  9
$VISRETAIN
 70
     1
  9
$PLINEGEN
 70
     0
  9
$PSLTSCALE
 70
     1
  9
$TREEDEPTH
 70
  3020
  9
$PICKSTYLE
 70
     1
  9
$CMLSTYLE
  2
STANDARD
  9
$CMLJUST
 70
     0
  9
$CMLSCALE
 40
1.0
  9
$PROXYGRAPHICS
 70
     1
  9
$MEASUREMENT
 70
     0
  0
ENDSEC
  0
SECTION
  2
CLASSES
  0
CLASS
  1
ACDBDICTIONARYWDFLT
  2
AcDbDictionaryWithDefault
  3
ObjectDBX Classes
 90
        0
280
     0
281
     0
  0
CLASS
  1
VISUALSTYLE
  2
AcDbVisualStyle
  3
ObjectDBX Classes
 90
     4095
280
     0
281
     0
  0
CLASS
  1
XRECORD
  2
AcDbXrecord
  3
AutoCAD 2000
 90
        0
280
     0
281
     0
  0
CLASS
  1
LWPOLYLINE
  2
AcDbPolyline
  3
AutoCAD 2000
 90
        0
280
     0
281
     1
  0
CLASS
  1
HATCH
  2
AcDbHatch
  3
AutoCAD 2000
 90
        0
280
     0
281
     1
  0
CLASS
  1
ACDBPLACEHOLDER
  2
AcDbPlaceHolder
  3
ObjectDBX Classes
 90
        0
280
     0
281
     0
  0
CLASS
  1
LAYOUT
  2
AcDbLayout
  3
ObjectDBX Classes
 90
        0
280
     0
281
     0
  0
ENDSEC
  0
SECTION
  2
TABLES
  0
TABLE
  2
VPORT
  5
8
330
0
100
AcDbSymbolTable
 70
     1
  0
VPORT
  5
29
330
8
100
AcDbSymbolTableRecord
100
AcDbViewportTableRecord
  2
*ACTIVE
 70
     0
 10
0.0
 20
0.0
 11
1.0
 21
1.0
 12
0.0
 22
0.0
 13
0.0
 23
0.0
 14
0.5
 24
0.5
 15
0.5
 25
0.5
 16
0.0
 26
0.0
 36
1.0
 17
8.98549804462862
 27
-78.70854625853468
 37
0.0
 40
296.9999592356459
 41
0.7070705664688927
 42
50.0
 43
0.0
 44
0.0
 50
0.0
 51
0.0
 71
     0
 72
   100
 73
     1
 74
     3
 75
     0
 76
     0
 77
     0
 78
     0
  0
ENDTAB
  0
TABLE
  2
LTYPE
  5
5
330
0
100
AcDbSymbolTable
 70
    16
  0
LTYPE
  5
14
330
5
100
AcDbSymbolTableRecord
100
AcDbLinetypeTableRecord
  2
BYBLOCK
 70
     0
  3

 72
    65
 73
     0
 40
0.0
  0
LTYPE
  5
15
330
5
100
AcDbSymbolTableRecord
100
AcDbLinetypeTableRecord
  2
BYLAYER
 70
     0
  3

 72
    65
 73
     0
 40
0.0
  0
LTYPE
  5
16
330
5
100
AcDbSymbolTableRecord
100
AcDbLinetypeTableRecord
  2
CONTINUOUS
 70
     0
  3
Solid line
 72
    65
 73
     0
 40
0.0
  0
LTYPE
  5
43
330
5
100
AcDbSymbolTableRecord
100
AcDbLinetypeTableRecord
  2
AI-LINETYPE-1
 70
     0
  3
Adobe Illustrator Linetype No. 1
 72
    65
 73
     4
 40
4.938888887654167
 49
1.763888888447917
 74
     0
 49
-0.7055555553791667
 74
     0
 49
1.763888888447917
 74
     0
 49
-0.7055555553791667
 74
     0
  0
LTYPE
  5
4C
330
5
100
AcDbSymbolTableRecord
100
AcDbLinetypeTableRecord
  2
AI-LINETYPE-2
 70
     0
  3
Adobe Illustrator Linetype No. 2
 72
    65
 73
     4
 40
4.938888887654167
 49
1.763888888447917
 74
     0
 49
-0.7055555553791667
 74
     0
 49
1.763888888447917
 74
     0
 49
-0.7055555553791667
 74
     0
  0
LTYPE
  5
59
330
5
100
AcDbSymbolTableRecord
100
AcDbLinetypeTableRecord
  2
AI-LINETYPE-3
 70
     0
  3
Adobe Illustrator Linetype No. 3
 72
    65
 73
     4
 40
4.938888887654167
 49
1.763888888447917
 74
     0
 49
-0.7055555553791667
 74
     0
 49
1.763888888447917
 74
     0
 49
-0.7055555553791667
 74
     0
  0
LTYPE
  5
5E
330
5
100
AcDbSymbolTableRecord
100
AcDbLinetypeTableRecord
  2
AI-LINETYPE-4
 70
     0
  3
Adobe Illustrator Linetype No. 4
 72
    65
 73
     4
 40
4.938888887654167
 49
1.763888888447917
 74
     0
 49
-0.7055555553791667
 74
     0
 49
1.763888888447917
 74
     0
 49
-0.7055555553791667
 74
     0
  0
LTYPE
  5
67
330
5
100
AcDbSymbolTableRecord
100
AcDbLinetypeTableRecord
  2
AI-LINETYPE-5
 70
     0
  3
Adobe Illustrator Linetype No. 5
 72
    65
 73
     4
 40
4.938888887654167
 49
1.763888888447917
 74
     0
 49
-0.7055555553791667
 74
     0
 49
1.763888888447917
 74
     0
 49
-0.7055555553791667
 74
     0
  0
LTYPE
  5
71
330
5
100
AcDbSymbolTableRecord
100
AcDbLinetypeTableRecord
  2
AI-LINETYPE-6
 70
     0
  3
Adobe Illustrator Linetype No. 6
 72
    65
 73
     4
 40
4.938888887654167
 49
1.763888888447917
 74
     0
 49
-0.7055555553791667
 74
     0
 49
1.763888888447917
 74
     0
 49
-0.7055555553791667
 74
     0
  0
LTYPE
  5
7B
330
5
100
AcDbSymbolTableRecord
100
AcDbLinetypeTableRecord
  2
AI-LINETYPE-7
 70
     0
  3
Adobe Illustrator Linetype No. 7
 72
    65
 73
     4
 40
4.938888887654167
 49
1.763888888447917
 74
     0
 49
-0.7055555553791667
 74
     0
 49
1.763888888447917
 74
     0
 49
-0.7055555553791667
 74
     0
  0
LTYPE
  5
80
330
5
100
AcDbSymbolTableRecord
100
AcDbLinetypeTableRecord
  2
AI-LINETYPE-8
 70
     0
  3
Adobe Illustrator Linetype No. 8
 72
    65
 73
     4
 40
4.938888887654167
 49
1.763888888447917
 74
     0
 49
-0.7055555553791667
 74
     0
 49
1.763888888447917
 74
     0
 49
-0.7055555553791667
 74
     0
  0
LTYPE
  5
85
330
5
100
AcDbSymbolTableRecord
100
AcDbLinetypeTableRecord
  2
AI-LINETYPE-9
 70
     0
  3
Adobe Illustrator Linetype No. 9
 72
    65
 73
     4
 40
4.938888887654167
 49
1.763888888447917
 74
     0
 49
-0.7055555553791667
 74
     0
 49
1.763888888447917
 74
     0
 49
-0.7055555553791667
 74
     0
  0
LTYPE
  5
D8
330
5
100
AcDbSymbolTableRecord
100
AcDbLinetypeTableRecord
  2
AI-LINETYPE-10
 70
     0
  3
Adobe Illustrator Linetype No. 10
 72
    65
 73
     4
 40
4.938888887654167
 49
1.763888888447917
 74
     0
 49
-0.7055555553791667
 74
     0
 49
1.763888888447917
 74
     0
 49
-0.7055555553791667
 74
     0
  0
LTYPE
  5
E4
330
5
100
AcDbSymbolTableRecord
100
AcDbLinetypeTableRecord
  2
AI-LINETYPE-11
 70
     0
  3
Adobe Illustrator Linetype No. 11
 72
    65
 73
     4
 40
4.938888887654167
 49
1.763888888447917
 74
     0
 49
-0.7055555553791667
 74
     0
 49
1.763888888447917
 74
     0
 49
-0.7055555553791667
 74
     0
  0
LTYPE
  5
F9
330
5
100
AcDbSymbolTableRecord
100
AcDbLinetypeTableRecord
  2
AI-LINETYPE-12
 70
     0
  3
Adobe Illustrator Linetype No. 12
 72
    65
 73
     4
 40
4.938888887654167
 49
1.763888888447917
 74
     0
 49
-0.7055555553791667
 74
     0
 49
1.763888888447917
 74
     0
 49
-0.7055555553791667
 74
     0
  0
LTYPE
  5
113
330
5
100
AcDbSymbolTableRecord
100
AcDbLinetypeTableRecord
  2
AI-LINETYPE-13
 70
     0
  3
Adobe Illustrator Linetype No. 13
 72
    65
 73
     4
 40
4.938888887654167
 49
1.763888888447917
 74
     0
 49
-0.7055555553791667
 74
     0
 49
1.763888888447917
 74
     0
 49
-0.7055555553791667
 74
     0
  0
LTYPE
  5
120
330
5
100
AcDbSymbolTableRecord
100
AcDbLinetypeTableRecord
  2
AI-LINETYPE-14
 70
     0
  3
Adobe Illustrator Linetype No. 14
 72
    65
 73
     4
 40
8.819444442239584
 49
7.055555553791667
 74
     0
 49
-0.7055555553791667
 74
     0
 49
0.3527777776895833
 74
     0
 49
-0.7055555553791667
 74
     0
  0
LTYPE
  5
125
330
5
100
AcDbSymbolTableRecord
100
AcDbLinetypeTableRecord
  2
AI-LINETYPE-15
 70
     0
  3
Adobe Illustrator Linetype No. 15
 72
    65
 73
     4
 40
8.819444442239584
 49
7.055555553791667
 74
     0
 49
-0.7055555553791667
 74
     0
 49
0.3527777776895833
 74
     0
 49
-0.7055555553791667
 74
     0
  0
ENDTAB
  0
TABLE
  2
LAYER
  5
2
330
0
100
AcDbSymbolTable
 70
     5
  0
LAYER
  5
10
330
2
100
AcDbSymbolTableRecord
100
AcDbLayerTableRecord
  2
0
 70
     0
 62
     7
  6
CONTINUOUS
  0
LAYER
  5
3B
330
2
100
AcDbSymbolTableRecord
100
AcDbLayerTableRecord
  2
GRAU_10_
 70
     1
 62
     7
  6
CONTINUOUS
  0
LAYER
  5
3E
330
2
100
AcDbSymbolTableRecord
100
AcDbLayerTableRecord
  2
STANDARDEBENE
 70
     0
 62
     7
  6
CONTINUOUS
  0
LAYER
  5
126
330
2
100
AcDbSymbolTableRecord
100
AcDbLayerTableRecord
  2
BEMAßUNG
 70
     1
 62
     7
  6
CONTINUOUS
  0
LAYER
  5
41F
330
2
100
AcDbSymbolTableRecord
100
AcDbLayerTableRecord
  2
TEXT
 70
     1
 62
     7
  6
CONTINUOUS
  0
ENDTAB
  0
TABLE
  2
STYLE
  5
3
330
0
100
AcDbSymbolTable
 70
     1
  0
STYLE
  5
11
330
3
100
AcDbSymbolTableRecord
100
AcDbTextStyleTableRecord
  2
STANDARD
 70
     0
 40
0.0
 41
1.0
 50
0.0
 71
     0
 42
0.2
  3
txt
  4

  0
ENDTAB
  0
TABLE
  2
VIEW
  5
6
330
0
100
AcDbSymbolTable
 70
     0
  0
ENDTAB
  0
TABLE
  2
UCS
  5
7
330
0
100
AcDbSymbolTable
 70
     0
  0
ENDTAB
  0
TABLE
  2
APPID
  5
9
330
0
100
AcDbSymbolTable
 70
     1
  0
APPID
  5
12
330
9
100
AcDbSymbolTableRecord
100
AcDbRegAppTableRecord
  2
ACAD
 70
     0
  0
ENDTAB
  0
TABLE
  2
DIMSTYLE
  5
A
330
0
100
AcDbSymbolTable
 70
     1
  0
DIMSTYLE
105
27
330
A
100
AcDbSymbolTableRecord
100
AcDbDimStyleTableRecord
  2
STANDARD
 70
     0
  3

  4

  5

  6

  7

 40
1.0
 41
0.18
 42
0.0625
 43
0.38
 44
0.18
 45
0.0
 46
0.0
 47
0.0
 48
0.0
140
0.18
141
0.09
142
0.0
143
25.4
144
1.0
145
0.0
146
1.0
147
0.09
 71
     0
 72
     0
 73
     1
 74
     1
 75
     0
 76
     0
 77
     0
 78
     0
170
     0
171
     2
172
     0
173
     0
174
     0
175
     0
176
     0
177
     0
178
     0
270
     2
271
     4
272
     4
273
     2
274
     2
340
11
275
     0
280
     0
281
     0
282
     0
283
     1
284
     0
285
     0
286
     0
287
     3
288
     0
  0
ENDTAB
  0
TABLE
  2
BLOCK_RECORD
  5
1
330
0
100
AcDbSymbolTable
 70
     1
  0
BLOCK_RECORD
  5
1F
330
1
100
AcDbSymbolTableRecord
100
AcDbBlockTableRecord
  2
*MODEL_SPACE
  0
BLOCK_RECORD
  5
1B
330
1
100
AcDbSymbolTableRecord
100
AcDbBlockTableRecord
  2
*PAPER_SPACE
  0
ENDTAB
  0
ENDSEC
  0
SECTION
  2
BLOCKS
  0
BLOCK
  5
20
330
1F
100
AcDbEntity
  8
0
100
AcDbBlockBegin
  2
*MODEL_SPACE
 70
     0
 71
     0
 10
0.0
 20
0.0
 30
0.0
  3
*MODEL_SPACE
  1

  0
ENDBLK
  5
21
330
1F
100
AcDbEntity
  8
0
100
AcDbBlockEnd
  0
BLOCK
  5
1C
330
1B
100
AcDbEntity
 67
     1
  8
0
100
AcDbBlockBegin
  2
*PAPER_SPACE
 70
     0
 71
     0
 10
0.0
 20
0.0
 30
0.0
  3
*PAPER_SPACE
  1

  0
ENDBLK
  5
1D
330
1B
100
AcDbEntity
 67
     1
  8
0
100
AcDbBlockEnd
  0
ENDSEC
  0
SECTION
  2
ENTITIES
  0
SPLINE
  5
3C
330
1F
100
AcDbEntity
  8
GRAU_10_
100
AcDbSpline
210
0.0
220
0.0
230
1.0
 70
    11
 71
     3
 72
    38
 73
    34
 74
     0
 42
0.0000000001
 43
0.0000000001
 40
0.0
 40
0.0
 40
0.0
 40
0.0
 40
1.0
 40
1.0
 40
1.0
 40
2.0
 40
2.0
 40
2.0
 40
3.0
 40
3.0
 40
3.0
 40
4.0
 40
4.0
 40
4.0
 40
5.0
 40
5.0
 40
5.0
 40
6.0
 40
6.0
 40
6.0
 40
7.0
 40
7.0
 40
7.0
 40
8.0
 40
8.0
 40
8.0
 40
9.0
 40
9.0
 40
9.0
 40
10.0
 40
10.0
 40
10.0
 40
11.0
 40
11.0
 40
11.0
 40
11.0
 10
-29.08831922015848
 20
19.81205511657476
 30
0.0
 10
-29.08831922015848
 20
19.81205511657476
 30
0.0
 10
-28.5936035084766
 20
20.17206759478337
 30
0.0
 10
-28.5936035084766
 20
20.17206759478337
 30
0.0
 10
-28.5936035084766
 20
20.17206759478337
 30
0.0
 10
-26.83936088738738
 20
20.21719834564015
 30
0.0
 10
-26.83936088738738
 20
20.21719834564015
 30
0.0
 10
-26.83936088738738
 20
20.21719834564015
 30
0.0
 10
-24.365782328978
 20
18.64278970888097
 30
0.0
 10
-22.16195474706368
 20
19.00245767754105
 30
0.0
 10
-22.16195474706368
 20
19.00245767754105
 30
0.0
 10
-20.1379611494794
 20
18.91254068537603
 30
0.0
 10
-17.39428710502643
 20
20.12728135347513
 30
0.0
 10
-17.39428710502643
 20
20.12728135347513
 30
0.0
 10
-0.6628363713620687
 20
20.21719834564015
 30
0.0
 10
-0.6628363713620687
 20
20.21719834564015
 30
0.0
 10
-0.6628363713620687
 20
20.21719834564015
 30
0.0
 10
-0.21290690098844
 20
19.6773518831015
 30
0.0
 10
-0.21290690098844
 20
19.6773518831015
 30
0.0
 10
-0.21290690098844
 20
19.6773518831015
 30
0.0
 10
-0.0330729166583984
 20
0.9666937931611044
 30
0.0
 10
-0.0330729166583984
 20
0.9666937931611044
 30
0.0
 10
-0.0330729166583984
 20
0.9666937931611044
 30
0.0
 10
-0.7530978730756145
 20
0.1570963541273926
 30
0.0
 10
-0.7530978730756145
 20
0.1570963541273926
 30
0.0
 10
-0.7530978730756145
 20
0.1570963541273926
 30
0.0
 10
-28.45855576545481
 20
0.1123101128191447
 30
0.0
 10
-28.45855576545481
 20
0.1123101128191447
 30
0.0
 10
-28.45855576545481
 20
0.1123101128191447
 30
0.0
 10
-28.99840222799346
 20
0.6969428166660421
 30
0.0
 10
-28.99840222799346
 20
0.6969428166660421
 30
0.0
 10
-28.99840222799346
 20
0.6969428166660421
 30
0.0
 10
-29.08831922015848
 20
19.81205511657476
 30
0.0
 10
-29.08831922015848
 20
19.81205511657476
 30
0.0
  0
HATCH
  5
3D
330
1F
100
AcDbEntity
  8
GRAU_10_
 62
   255
100
AcDbHatch
 10
0.0
 20
0.0
 30
0.0
210
0.0
220
0.0
230
1.0
  2
SOLID
 70
     1
 71
     0
 91
        1
 92
        1
 93
        1
 72
     4
 94
        3
 73
     0
 74
     1
 95
       38
 96
       34
 40
0.0
 40
0.0
 40
0.0
 40
0.0
 40
1.0
 40
1.0
 40
1.0
 40
2.0
 40
2.0
 40
2.0
 40
3.0
 40
3.0
 40
3.0
 40
4.0
 40
4.0
 40
4.0
 40
5.0
 40
5.0
 40
5.0
 40
6.0
 40
6.0
 40
6.0
 40
7.0
 40
7.0
 40
7.0
 40
8.0
 40
8.0
 40
8.0
 40
9.0
 40
9.0
 40
9.0
 40
10.0
 40
10.0
 40
10.0
 40
11.0
 40
11.0
 40
11.0
 40
11.0
 10
-29.08831922015848
 20
19.81205511657476
 10
-29.08831922015848
 20
19.81205511657476
 10
-28.5936035084766
 20
20.17206759478337
 10
-28.5936035084766
 20
20.17206759478337
 10
-28.5936035084766
 20
20.17206759478337
 10
-26.83936088738738
 20
20.21719834564015
 10
-26.83936088738738
 20
20.21719834564015
 10
-26.83936088738738
 20
20.21719834564015
 10
-24.365782328978
 20
18.64278970888097
 10
-22.16195474706368
 20
19.00245767754105
 10
-22.16195474706368
 20
19.00245767754105
 10
-20.1379611494794
 20
18.91254068537603
 10
-17.39428710502643
 20
20.12728135347513
 10
-17.39428710502643
 20
20.12728135347513
 10
-0.6628363713620687
 20
20.21719834564015
 10
-0.6628363713620687
 20
20.21719834564015
 10
-0.6628363713620687
 20
20.21719834564015
 10
-0.21290690098844
 20
19.6773518831015
 10
-0.21290690098844
 20
19.6773518831015
 10
-0.21290690098844
 20
19.6773518831015
 10
-0.0330729166583984
 20
0.9666937931611044
 10
-0.0330729166583984
 20
0.9666937931611044
 10
-0.0330729166583984
 20
0.9666937931611044
 10
-0.7530978730756145
 20
0.1570963541273926
 10
-0.7530978730756145
 20
0.1570963541273926
 10
-0.7530978730756145
 20
0.1570963541273926
 10
-28.45855576545481
 20
0.1123101128191447
 10
-28.45855576545481
 20
0.1123101128191447
 10
-28.45855576545481
 20
0.1123101128191447
 10
-28.99840222799346
 20
0.6969428166660421
 10
-28.99840222799346
 20
0.6969428166660421
 10
-28.99840222799346
 20
0.6969428166660421
 10
-29.08831922015848
 20
19.81205511657476
 10
-29.08831922015848
 20
19.81205511657476
 97
        0
 75
     0
 76
     1
 98
        0
  0
POLYLINE
  5
3F
330
1F
100
AcDbEntity
  8
STANDARDEBENE
  6
AI-LINETYPE-1
 62
     7
100
AcDb2dPolyline
 66
     1
 10
0.0
 20
0.0
 30
0.0
  0
VERTEX
  5
40
330
3F
100
AcDbEntity
  8
STANDARDEBENE
  6
AI-LINETYPE-1
 62
     7
100
AcDbVertex
100
AcDb2dVertex
 10
-26.87208929449726
 20
16.20607367216376
 30
0.0
  0
VERTEX
  5
41
330
3F
100
AcDbEntity
  8
STANDARDEBENE
  6
AI-LINETYPE-1
 62
     7
100
AcDbVertex
100
AcDb2dVertex
 10
-28.62185329145565
 20
16.20607367216376
 30
0.0
  0
SEQEND
  5
42
330
3F
100
AcDbEntity
  8
STANDARDEBENE
  6
AI-LINETYPE-1
  0
POLYLINE
  5
44
330
1F
100
AcDbEntity
  8
STANDARDEBENE
 62
     7
100
AcDb2dPolyline
 66
     1
 10
0.0
 20
0.0
 30
0.0
  0
VERTEX
  5
45
330
44
100
AcDbEntity
  8
STANDARDEBENE
 62
     7
100
AcDbVertex
100
AcDb2dVertex
 10
-28.62185329145565
 20
0.2060167100179403
 30
0.0
  0
VERTEX
  5
46
330
44
100
AcDbEntity
  8
STANDARDEBENE
 62
     7
100
AcDbVertex
100
AcDb2dVertex
 10
-0.6221842446361207
 20
0.2060167100179403
 30
0.0
  0
SEQEND
  5
47
330
44
100
AcDbEntity
  8
STANDARDEBENE
  0
POLYLINE
  5
48
330
1F
100
AcDbEntity
  8
STANDARDEBENE
  6
AI-LINETYPE-2
 62
     7
100
AcDb2dPolyline
 66
     1
 10
0.0
 20
0.0
 30
0.0
  0
VERTEX
  5
49
330
48
100
AcDbEntity
  8
STANDARDEBENE
  6
AI-LINETYPE-2
 62
     7
100
AcDbVertex
100
AcDb2dVertex
 10
-28.62185329145565
 20
4.206461587490051
 30
0.0
  0
VERTEX
  5
4A
330
48
100
AcDbEntity
  8
STANDARDEBENE
  6
AI-LINETYPE-2
 62
     7
100
AcDbVertex
100
AcDb2dVertex
 10
-0.6221842446361207
 20
4.206461587490051
 30
0.0
  0
SEQEND
  5
4B
330
48
100
AcDbEntity
  8
STANDARDEBENE
  6
AI-LINETYPE-2
  0
POLYLINE
  5
4D
330
1F
100
AcDbEntity
  8
STANDARDEBENE
 62
     7
100
AcDb2dPolyline
 66
     1
 10
0.0
 20
0.0
 30
0.0
  0
VERTEX
  5
4E
330
4D
100
AcDbEntity
  8
STANDARDEBENE
 62
     7
100
AcDbVertex
100
AcDb2dVertex
 10
-0.6221842446361207
 20
20.20582953053882
 30
0.0
  0
VERTEX
  5
4F
330
4D
100
AcDbEntity
  8
STANDARDEBENE
 62
     7
100
AcDbVertex
100
AcDb2dVertex
 10
-17.37223849392083
 20
20.20582953053882
 30
0.0
  0
SEQEND
  5
50
330
4D
100
AcDbEntity
  8
STANDARDEBENE
  0
POLYLINE
  5
51
330
1F
100
AcDbEntity
  8
STANDARDEBENE
 62
     7
100
AcDb2dPolyline
 66
     1
 10
0.0
 20
0.0
 30
0.0
  0
VERTEX
  5
52
330
51
100
AcDbEntity
  8
STANDARDEBENE
 62
     7
100
AcDbVertex
100
AcDb2dVertex
 10
-0.1223008897263692
 20
19.7062906851776
 30
0.0
  0
VERTEX
  5
53
330
51
100
AcDbEntity
  8
STANDARDEBENE
 62
     7
100
AcDbVertex
100
AcDb2dVertex
 10
-0.6221842446361207
 20
20.20582953053882
 30
0.0
  0
SEQEND
  5
54
330
51
100
AcDbEntity
  8
STANDARDEBENE
  0
POLYLINE
  5
55
330
1F
100
AcDbEntity
  8
STANDARDEBENE
  6
AI-LINETYPE-3
 62
     7
100
AcDb2dPolyline
 66
     1
 10
0.0
 20
0.0
 30
0.0
  0
VERTEX
  5
56
330
55
100
AcDbEntity
  8
STANDARDEBENE
  6
AI-LINETYPE-3
 62
     7
100
AcDbVertex
100
AcDb2dVertex
 10
-17.37223849392083
 20
16.20607367216376
 30
0.0
  0
VERTEX
  5
57
330
55
100
AcDbEntity
  8
STANDARDEBENE
  6
AI-LINETYPE-3
 62
     7
100
AcDbVertex
100
AcDb2dVertex
 10
-17.37223849392083
 20
20.20582953053882
 30
0.0
  0
SEQEND
  5
58
330
55
100
AcDbEntity
  8
STANDARDEBENE
  6
AI-LINETYPE-3
  0
POLYLINE
  5
5A
330
1F
100
AcDbEntity
  8
STANDARDEBENE
  6
AI-LINETYPE-4
 62
     7
100
AcDb2dPolyline
 66
     1
 10
0.0
 20
0.0
 30
0.0
  0
VERTEX
  5
5B
330
5A
100
AcDbEntity
  8
STANDARDEBENE
  6
AI-LINETYPE-4
 62
     7
100
AcDbVertex
100
AcDb2dVertex
 10
-0.6221842446361207
 20
16.20607367216376
 30
0.0
  0
VERTEX
  5
5C
330
5A
100
AcDbEntity
  8
STANDARDEBENE
  6
AI-LINETYPE-4
 62
     7
100
AcDbVertex
100
AcDb2dVertex
 10
-17.37223849392083
 20
16.20607367216376
 30
0.0
  0
SEQEND
  5
5D
330
5A
100
AcDbEntity
  8
STANDARDEBENE
  6
AI-LINETYPE-4
  0
POLYLINE
  5
5F
330
1F
100
AcDbEntity
  8
STANDARDEBENE
 62
     7
100
AcDb2dPolyline
 66
     1
 10
0.0
 20
0.0
 30
0.0
  0
VERTEX
  5
60
330
5F
100
AcDbEntity
  8
STANDARDEBENE
 62
     7
100
AcDbVertex
100
AcDb2dVertex
 10
-0.1223008897263692
 20
16.70630153662204
 30
0.0
  0
VERTEX
  5
61
330
5F
100
AcDbEntity
  8
STANDARDEBENE
 62
     7
100
AcDbVertex
100
AcDb2dVertex
 10
-0.1223008897263692
 20
19.7062906851776
 30
0.0
  0
SEQEND
  5
62
330
5F
100
AcDbEntity
  8
STANDARDEBENE
  0
POLYLINE
  5
63
330
1F
100
AcDbEntity
  8
STANDARDEBENE
  6
AI-LINETYPE-5
 62
     7
100
AcDb2dPolyline
 66
     1
 10
0.0
 20
0.0
 30
0.0
  0
VERTEX
  5
64
330
63
100
AcDbEntity
  8
STANDARDEBENE
  6
AI-LINETYPE-5
 62
     7
100
AcDbVertex
100
AcDb2dVertex
 10
-0.6221842446361207
 20
16.20607367216376
 30
0.0
  0
VERTEX
  5
65
330
63
100
AcDbEntity
  8
STANDARDEBENE
  6
AI-LINETYPE-5
 62
     7
100
AcDbVertex
100
AcDb2dVertex
 10
-0.1223008897263692
 20
16.70630153662204
 30
0.0
  0
SEQEND
  5
66
330
63
100
AcDbEntity
  8
STANDARDEBENE
  6
AI-LINETYPE-5
  0
POLYLINE
  5
68
330
1F
100
AcDbEntity
  8
STANDARDEBENE
 62
     7
100
AcDb2dPolyline
 66
     1
 10
0.0
 20
0.0
 30
0.0
  0
VERTEX
  5
69
330
68
100
AcDbEntity
  8
STANDARDEBENE
 62
     7
100
AcDbVertex
100
AcDb2dVertex
 10
-29.1217366463654
 20
3.7065782325803
 30
0.0
  0
VERTEX
  5
6A
330
68
100
AcDbEntity
  8
STANDARDEBENE
 62
     7
100
AcDbVertex
100
AcDb2dVertex
 10
-29.1217366463654
 20
0.7059000649276916
 30
0.0
  0
VERTEX
  5
6B
330
68
100
AcDbEntity
  8
STANDARDEBENE
 62
     7
100
AcDbVertex
100
AcDb2dVertex
 10
-28.62185329145565
 20
0.2060167100179403
 30
0.0
  0
SEQEND
  5
6C
330
68
100
AcDbEntity
  8
STANDARDEBENE
  0
POLYLINE
  5
6D
330
1F
100
AcDbEntity
  8
STANDARDEBENE
  6
AI-LINETYPE-6
 62
     7
100
AcDb2dPolyline
 66
     1
 10
0.0
 20
0.0
 30
0.0
  0
VERTEX
  5
6E
330
6D
100
AcDbEntity
  8
STANDARDEBENE
  6
AI-LINETYPE-6
 62
     7
100
AcDbVertex
100
AcDb2dVertex
 10
-0.1223008897263692
 20
3.7065782325803
 30
0.0
  0
VERTEX
  5
6F
330
6D
100
AcDbEntity
  8
STANDARDEBENE
  6
AI-LINETYPE-6
 62
     7
100
AcDbVertex
100
AcDb2dVertex
 10
-0.6221842446361207
 20
4.206461587490051
 30
0.0
  0
SEQEND
  5
70
330
6D
100
AcDbEntity
  8
STANDARDEBENE
  6
AI-LINETYPE-6
  0
POLYLINE
  5
72
330
1F
100
AcDbEntity
  8
STANDARDEBENE
 62
     7
100
AcDb2dPolyline
 66
     1
 10
0.0
 20
0.0
 30
0.0
  0
VERTEX
  5
73
330
72
100
AcDbEntity
  8
STANDARDEBENE
 62
     7
100
AcDbVertex
100
AcDb2dVertex
 10
-0.6221842446361207
 20
0.2060167100179403
 30
0.0
  0
VERTEX
  5
74
330
72
100
AcDbEntity
  8
STANDARDEBENE
 62
     7
100
AcDbVertex
100
AcDb2dVertex
 10
-0.1223008897263692
 20
0.7059000649276916
 30
0.0
  0
VERTEX
  5
75
330
72
100
AcDbEntity
  8
STANDARDEBENE
 62
     7
100
AcDbVertex
100
AcDb2dVertex
 10
-0.1223008897263692
 20
3.7065782325803
 30
0.0
  0
SEQEND
  5
76
330
72
100
AcDbEntity
  8
STANDARDEBENE
  0
POLYLINE
  5
77
330
1F
100
AcDbEntity
  8
STANDARDEBENE
  6
AI-LINETYPE-7
 62
     7
100
AcDb2dPolyline
 66
     1
 10
0.0
 20
0.0
 30
0.0
  0
VERTEX
  5
78
330
77
100
AcDbEntity
  8
STANDARDEBENE
  6
AI-LINETYPE-7
 62
     7
100
AcDbVertex
100
AcDb2dVertex
 10
-28.62185329145565
 20
4.206461587490051
 30
0.0
  0
VERTEX
  5
79
330
77
100
AcDbEntity
  8
STANDARDEBENE
  6
AI-LINETYPE-7
 62
     7
100
AcDbVertex
100
AcDb2dVertex
 10
-29.1217366463654
 20
3.7065782325803
 30
0.0
  0
SEQEND
  5
7A
330
77
100
AcDbEntity
  8
STANDARDEBENE
  6
AI-LINETYPE-7
  0
POLYLINE
  5
7C
330
1F
100
AcDbEntity
  8
STANDARDEBENE
  6
AI-LINETYPE-8
 62
     7
100
AcDb2dPolyline
 66
     1
 10
0.0
 20
0.0
 30
0.0
  0
VERTEX
  5
7D
330
7C
100
AcDbEntity
  8
STANDARDEBENE
  6
AI-LINETYPE-8
 62
     7
100
AcDbVertex
100
AcDb2dVertex
 10
-26.87208929449726
 20
20.20582953053882
 30
0.0
  0
VERTEX
  5
7E
330
7C
100
AcDbEntity
  8
STANDARDEBENE
  6
AI-LINETYPE-8
 62
     7
100
AcDbVertex
100
AcDb2dVertex
 10
-26.87208929449726
 20
16.20607367216376
 30
0.0
  0
SEQEND
  5
7F
330
7C
100
AcDbEntity
  8
STANDARDEBENE
  6
AI-LINETYPE-8
  0
POLYLINE
  5
81
330
1F
100
AcDbEntity
  8
STANDARDEBENE
  6
AI-LINETYPE-9
 62
     7
100
AcDb2dPolyline
 66
     1
 10
0.0
 20
0.0
 30
0.0
  0
VERTEX
  5
82
330
81
100
AcDbEntity
  8
STANDARDEBENE
  6
AI-LINETYPE-9
 62
     7
100
AcDbVertex
100
AcDb2dVertex
 10
-29.1217366463654
 20
16.70630153662204
 30
0.0
  0
VERTEX
  5
83
330
81
100
AcDbEntity
  8
STANDARDEBENE
  6
AI-LINETYPE-9
 62
     7
100
AcDbVertex
100
AcDb2dVertex
 10
-28.62185329145565
 20
16.20607367216376
 30
0.0
  0
SEQEND
  5
84
330
81
100
AcDbEntity
  8
STANDARDEBENE
  6
AI-LINETYPE-9
  0
POLYLINE
  5
86
330
1F
100
AcDbEntity
  8
STANDARDEBENE
 62
     7
100
AcDb2dPolyline
 66
     1
 10
0.0
 20
0.0
 30
0.0
  0
VERTEX
  5
87
330
86
100
AcDbEntity
  8
STANDARDEBENE
 62
     7
100
AcDbVertex
100
AcDb2dVertex
 10
-26.87208929449726
 20
20.20582953053882
 30
0.0
  0
VERTEX
  5
88
330
86
100
AcDbEntity
  8
STANDARDEBENE
 62
     7
100
AcDbVertex
100
AcDb2dVertex
 10
-28.62185329145565
 20
20.20582953053882
 30
0.0
  0
VERTEX
  5
89
330
86
100
AcDbEntity
  8
STANDARDEBENE
 62
     7
100
AcDbVertex
100
AcDb2dVertex
 10
-29.1217366463654
 20
19.7062906851776
 30
0.0
  0
VERTEX
  5
8A
330
86
100
AcDbEntity
  8
STANDARDEBENE
 62
     7
100
AcDbVertex
100
AcDb2dVertex
 10
-29.1217366463654
 20
16.70630153662204
 30
0.0
  0
SEQEND
  5
8B
330
86
100
AcDbEntity
  8
STANDARDEBENE
  0
POLYLINE
  5
8C
330
1F
100
AcDbEntity
  8
STANDARDEBENE
 62
     7
100
AcDb2dPolyline
 66
     1
 10
0.0
 20
0.0
 30
0.0
  0
VERTEX
  5
8D
330
8C
100
AcDbEntity
  8
STANDARDEBENE
 62
     7
100
AcDbVertex
100
AcDb2dVertex
 10
-29.1217366463654
 20
3.7065782325803
 30
0.0
  0
VERTEX
  5
8E
330
8C
100
AcDbEntity
  8
STANDARDEBENE
 62
     7
100
AcDbVertex
100
AcDb2dVertex
 10
-29.1217366463654
 20
3.816821288108295
 30
0.0
  0
VERTEX
  5
8F
330
8C
100
AcDbEntity
  8
STANDARDEBENE
 62
     7
100
AcDbVertex
100
AcDb2dVertex
 10
-29.1217366463654
 20
4.145483397401129
 30
0.0
  0
VERTEX
  5
90
330
8C
100
AcDbEntity
  8
STANDARDEBENE
 62
     7
100
AcDbVertex
100
AcDb2dVertex
 10
-29.1217366463654
 20
4.679817707163379
 30
0.0
  0
VERTEX
  5
91
330
8C
100
AcDbEntity
  8
STANDARDEBENE
 62
     7
100
AcDbVertex
100
AcDb2dVertex
 10
-29.1217366463654
 20
5.402598739968795
 30
0.0
  0
VERTEX
  5
92
330
8C
100
AcDbEntity
  8
STANDARDEBENE
 62
     7
100
AcDbVertex
100
AcDb2dVertex
 10
-29.1217366463654
 20
6.289366317872103
 30
0.0
  0
VERTEX
  5
93
330
8C
100
AcDbEntity
  8
STANDARDEBENE
 62
     7
100
AcDbVertex
100
AcDb2dVertex
 10
-29.1217366463654
 20
7.30877007195753
 30
0.0
  0
VERTEX
  5
94
330
8C
100
AcDbEntity
  8
STANDARDEBENE
 62
     7
100
AcDbVertex
100
AcDb2dVertex
 10
-29.1217366463654
 20
8.427737085566678
 30
0.0
  0
VERTEX
  5
95
330
8C
100
AcDbEntity
  8
STANDARDEBENE
 62
     7
100
AcDbVertex
100
AcDb2dVertex
 10
-29.1217366463654
 20
9.606648760619171
 30
0.0
  0
VERTEX
  5
96
330
8C
100
AcDbEntity
  8
STANDARDEBENE
 62
     7
100
AcDbVertex
100
AcDb2dVertex
 10
-29.1217366463654
 20
10.80588649903464
 30
0.0
  0
VERTEX
  5
97
330
8C
100
AcDbEntity
  8
STANDARDEBENE
 62
     7
100
AcDbVertex
100
AcDb2dVertex
 10
-29.1217366463654
 20
11.98445366453861
 30
0.0
  0
VERTEX
  5
98
330
8C
100
AcDbEntity
  8
STANDARDEBENE
 62
     7
100
AcDbVertex
100
AcDb2dVertex
 10
-29.1217366463654
 20
13.10342067814776
 30
0.0
  0
VERTEX
  5
99
330
8C
100
AcDbEntity
  8
STANDARDEBENE
 62
     7
100
AcDbVertex
100
AcDb2dVertex
 10
-29.1217366463654
 20
14.12316894178171
 30
0.0
  0
VERTEX
  5
9A
330
8C
100
AcDbEntity
  8
STANDARDEBENE
 62
     7
100
AcDbVertex
100
AcDb2dVertex
 10
-29.1217366463654
 20
15.00959201013649
 30
0.0
  0
VERTEX
  5
9B
330
8C
100
AcDbEntity
  8
STANDARDEBENE
 62
     7
100
AcDbVertex
100
AcDb2dVertex
 10
-29.1217366463654
 20
15.73271755249043
 30
0.0
  0
VERTEX
  5
9C
330
8C
100
AcDbEntity
  8
STANDARDEBENE
 62
     7
100
AcDbVertex
100
AcDb2dVertex
 10
-29.1217366463654
 20
16.26705186225268
 30
0.0
  0
VERTEX
  5
9D
330
8C
100
AcDbEntity
  8
STANDARDEBENE
 62
     7
100
AcDbVertex
100
AcDb2dVertex
 10
-29.1217366463654
 20
16.59502495244847
 30
0.0
  0
VERTEX
  5
9E
330
8C
100
AcDbEntity
  8
STANDARDEBENE
 62
     7
100
AcDbVertex
100
AcDb2dVertex
 10
-29.1217366463654
 20
16.70630153662204
 30
0.0
  0
SEQEND
  5
9F
330
8C
100
AcDbEntity
  8
STANDARDEBENE
  0
POLYLINE
  5
A0
330
1F
100
AcDbEntity
  8
STANDARDEBENE
 62
     7
100
AcDb2dPolyline
 66
     1
 10
0.0
 20
0.0
 30
0.0
  0
VERTEX
  5
A1
330
A0
100
AcDbEntity
  8
STANDARDEBENE
 62
     7
100
AcDbVertex
100
AcDb2dVertex
 10
-0.1223008897263692
 20
10.20643988460117
 30
0.0
  0
VERTEX
  5
A2
330
A0
100
AcDbEntity
  8
STANDARDEBENE
 62
     7
100
AcDbVertex
100
AcDb2dVertex
 10
-0.1223008897263692
 20
8.938300236480703
 30
0.0
  0
VERTEX
  5
A3
330
A0
100
AcDbEntity
  8
STANDARDEBENE
 62
     7
100
AcDbVertex
100
AcDb2dVertex
 10
-0.1223008897263692
 20
7.719080944250786
 30
0.0
  0
VERTEX
  5
A4
330
A0
100
AcDbEntity
  8
STANDARDEBENE
 62
     7
100
AcDbVertex
100
AcDb2dVertex
 10
-0.1223008897263692
 20
6.595290796962288
 30
0.0
  0
VERTEX
  5
A5
330
A0
100
AcDbEntity
  8
STANDARDEBENE
 62
     7
100
AcDbVertex
100
AcDb2dVertex
 10
-0.1223008897263692
 20
5.609993488180836
 30
0.0
  0
VERTEX
  5
A6
330
A0
100
AcDbEntity
  8
STANDARDEBENE
 62
     7
100
AcDbVertex
100
AcDb2dVertex
 10
-0.1223008897263692
 20
4.801774087341223
 30
0.0
  0
VERTEX
  5
A7
330
A0
100
AcDbEntity
  8
STANDARDEBENE
 62
     7
100
AcDbVertex
100
AcDb2dVertex
 10
-0.1223008897263692
 20
4.201293944262177
 30
0.0
  0
VERTEX
  5
A8
330
A0
100
AcDbEntity
  8
STANDARDEBENE
 62
     7
100
AcDbVertex
100
AcDb2dVertex
 10
-0.1223008897263692
 20
3.831290689146344
 30
0.0
  0
VERTEX
  5
A9
330
A0
100
AcDbEntity
  8
STANDARDEBENE
 62
     7
100
AcDbVertex
100
AcDb2dVertex
 10
-0.1223008897263692
 20
3.7065782325803
 30
0.0
  0
SEQEND
  5
AA
330
A0
100
AcDbEntity
  8
STANDARDEBENE
  0
POLYLINE
  5
AB
330
1F
100
AcDbEntity
  8
STANDARDEBENE
 62
     7
100
AcDb2dPolyline
 66
     1
 10
0.0
 20
0.0
 30
0.0
  0
VERTEX
  5
AC
330
AB
100
AcDbEntity
  8
STANDARDEBENE
 62
     7
100
AcDbVertex
100
AcDb2dVertex
 10
-0.1223008897263692
 20
16.70630153662204
 30
0.0
  0
VERTEX
  5
AD
330
AB
100
AcDbEntity
  8
STANDARDEBENE
 62
     7
100
AcDbVertex
100
AcDb2dVertex
 10
-0.1223008897263692
 20
16.58090006095894
 30
0.0
  0
VERTEX
  5
AE
330
AB
100
AcDbEntity
  8
STANDARDEBENE
 62
     7
100
AcDbVertex
100
AcDb2dVertex
 10
-0.1223008897263692
 20
16.21124131539164
 30
0.0
  0
VERTEX
  5
AF
330
AB
100
AcDbEntity
  8
STANDARDEBENE
 62
     7
100
AcDbVertex
100
AcDb2dVertex
 10
-0.1223008897263692
 20
15.61076117231259
 30
0.0
  0
VERTEX
  5
B0
330
AB
100
AcDbEntity
  8
STANDARDEBENE
 62
     7
100
AcDbVertex
100
AcDb2dVertex
 10
-0.1223008897263692
 20
14.80219726192445
 30
0.0
  0
VERTEX
  5
B1
330
AB
100
AcDbEntity
  8
STANDARDEBENE
 62
     7
100
AcDbVertex
100
AcDb2dVertex
 10
-0.1223008897263692
 20
13.81758897224005
 30
0.0
  0
VERTEX
  5
B2
330
AB
100
AcDbEntity
  8
STANDARDEBENE
 62
     7
100
AcDbVertex
100
AcDb2dVertex
 10
-0.1223008897263692
 20
12.69379882495155
 30
0.0
  0
VERTEX
  5
B3
330
AB
100
AcDbEntity
  8
STANDARDEBENE
 62
     7
100
AcDbVertex
100
AcDb2dVertex
 10
-0.1223008897263692
 20
11.47423502317311
 30
0.0
  0
VERTEX
  5
B4
330
AB
100
AcDbEntity
  8
STANDARDEBENE
 62
     7
100
AcDbVertex
100
AcDb2dVertex
 10
-0.1223008897263692
 20
10.20643988460117
 30
0.0
  0
SEQEND
  5
B5
330
AB
100
AcDbEntity
  8
STANDARDEBENE
  0
POLYLINE
  5
B6
330
1F
100
AcDbEntity
  8
STANDARDEBENE
 62
     7
100
AcDb2dPolyline
 66
     1
 10
0.0
 20
0.0
 30
0.0
  0
VERTEX
  5
B7
330
B6
100
AcDbEntity
  8
STANDARDEBENE
 62
     7
100
AcDbVertex
100
AcDb2dVertex
 10
-17.38670789495888
 20
20.19928384911685
 30
0.0
  0
VERTEX
  5
B8
330
B6
100
AcDbEntity
  8
STANDARDEBENE
 62
     7
100
AcDbVertex
100
AcDb2dVertex
 10
-17.40255533419103
 20
20.1917046390493
 30
0.0
  0
VERTEX
  5
B9
330
B6
100
AcDbEntity
  8
STANDARDEBENE
 62
     7
100
AcDbVertex
100
AcDb2dVertex
 10
-17.5358805294702
 20
20.12934841076628
 30
0.0
  0
VERTEX
  5
BA
330
B6
100
AcDbEntity
  8
STANDARDEBENE
 62
     7
100
AcDbVertex
100
AcDb2dVertex
 10
-17.77875976118031
 20
20.0194498647868
 30
0.0
  0
VERTEX
  5
BB
330
B6
100
AcDbEntity
  8
STANDARDEBENE
 62
     7
100
AcDbVertex
100
AcDb2dVertex
 10
-18.12258029060824
 20
19.87268879711516
 30
0.0
  0
VERTEX
  5
BC
330
B6
100
AcDbEntity
  8
STANDARDEBENE
 62
     7
100
AcDbVertex
100
AcDb2dVertex
 10
-18.567342117754
 20
19.69698892736742
 30
0.0
  0
VERTEX
  5
BD
330
B6
100
AcDbEntity
  8
STANDARDEBENE
 62
     7
100
AcDbVertex
100
AcDb2dVertex
 10
-19.13233777733497
 20
19.49992946561113
 30
0.0
  0
VERTEX
  5
BE
330
B6
100
AcDbEntity
  8
STANDARDEBENE
 62
     7
100
AcDbVertex
100
AcDb2dVertex
 10
-19.79930826327934
 20
19.30769313753419
 30
0.0
  0
VERTEX
  5
BF
330
B6
100
AcDbEntity
  8
STANDARDEBENE
 62
     7
100
AcDbVertex
100
AcDb2dVertex
 10
-20.54310437854478
 20
19.1464626688245
 30
0.0
  0
VERTEX
  5
C0
330
B6
100
AcDbEntity
  8
STANDARDEBENE
 62
     7
100
AcDbVertex
100
AcDb2dVertex
 10
-21.37061631410179
 20
19.03828667058765
 30
0.0
  0
VERTEX
  5
C1
330
B6
100
AcDbEntity
  8
STANDARDEBENE
 62
     7
100
AcDbVertex
100
AcDb2dVertex
 10
-22.12268065853183
 20
19.0059027730263
 30
0.0
  0
VERTEX
  5
C2
330
B6
100
AcDbEntity
  8
STANDARDEBENE
 62
     7
100
AcDbVertex
100
AcDb2dVertex
 10
-22.9012722381983
 20
19.04000921833028
 30
0.0
  0
VERTEX
  5
C3
330
B6
100
AcDbEntity
  8
STANDARDEBENE
 62
     7
100
AcDbVertex
100
AcDb2dVertex
 10
-23.57547742466169
 20
19.12510307681595
 30
0.0
  0
VERTEX
  5
C4
330
B6
100
AcDbEntity
  8
STANDARDEBENE
 62
     7
100
AcDbVertex
100
AcDb2dVertex
 10
-24.22866752866506
 20
19.25429415751282
 30
0.0
  0
VERTEX
  5
C5
330
B6
100
AcDbEntity
  8
STANDARDEBENE
 62
     7
100
AcDbVertex
100
AcDb2dVertex
 10
-24.85464137833495
 20
19.42069226945038
 30
0.0
  0
VERTEX
  5
C6
330
B6
100
AcDbEntity
  8
STANDARDEBENE
 62
     7
100
AcDbVertex
100
AcDb2dVertex
 10
-25.42687173843495
 20
19.60603840655682
 30
0.0
  0
VERTEX
  5
C7
330
B6
100
AcDbEntity
  8
STANDARDEBENE
 62
     7
100
AcDbVertex
100
AcDb2dVertex
 10
-25.95259330948408
 20
19.80344237786164
 30
0.0
  0
VERTEX
  5
C8
330
B6
100
AcDbEntity
  8
STANDARDEBENE
 62
     7
100
AcDbVertex
100
AcDb2dVertex
 10
-26.38219671649473
 20
19.98327636219168
 30
0.0
  0
VERTEX
  5
C9
330
B6
100
AcDbEntity
  8
STANDARDEBENE
 62
     7
100
AcDbVertex
100
AcDb2dVertex
 10
-26.67709689003211
 20
20.11418999063117
 30
0.0
  0
VERTEX
  5
CA
330
B6
100
AcDbEntity
  8
STANDARDEBENE
 62
     7
100
AcDbVertex
100
AcDb2dVertex
 10
-26.84315049242116
 20
20.19239365814635
 30
0.0
  0
VERTEX
  5
CB
330
B6
100
AcDbEntity
  8
STANDARDEBENE
 62
     7
100
AcDbVertex
100
AcDb2dVertex
 10
-26.87208929449726
 20
20.20582953053882
 30
0.0
  0
SEQEND
  5
CC
330
B6
100
AcDbEntity
  8
STANDARDEBENE
  0
POLYLINE
  5
CD
330
1F
100
AcDbEntity
  8
STANDARDEBENE
  6
AI-LINETYPE-10
 62
     7
100
AcDb2dPolyline
 66
     1
 10
0.0
 20
0.0
 30
0.0
  0
VERTEX
  5
CE
330
CD
100
AcDbEntity
  8
STANDARDEBENE
  6
AI-LINETYPE-10
 62
     7
100
AcDbVertex
100
AcDb2dVertex
 10
-28.62185329145565
 20
10.20643988460117
 30
0.0
  0
VERTEX
  5
CF
330
CD
100
AcDbEntity
  8
STANDARDEBENE
  6
AI-LINETYPE-10
 62
     7
100
AcDbVertex
100
AcDb2dVertex
 10
-28.62185329145565
 20
9.035451929164749
 30
0.0
  0
VERTEX
  5
D0
330
CD
100
AcDbEntity
  8
STANDARDEBENE
  6
AI-LINETYPE-10
 62
     7
100
AcDbVertex
100
AcDb2dVertex
 10
-28.62185329145565
 20
7.910283743682152
 30
0.0
  0
VERTEX
  5
D1
330
CD
100
AcDbEntity
  8
STANDARDEBENE
  6
AI-LINETYPE-10
 62
     7
100
AcDbVertex
100
AcDb2dVertex
 10
-28.62185329145565
 20
6.872965493073425
 30
0.0
  0
VERTEX
  5
D2
330
CD
100
AcDbEntity
  8
STANDARDEBENE
  6
AI-LINETYPE-10
 62
     7
100
AcDbVertex
100
AcDb2dVertex
 10
-28.62185329145565
 20
5.963804794515993
 30
0.0
  0
VERTEX
  5
D3
330
CD
100
AcDbEntity
  8
STANDARDEBENE
  6
AI-LINETYPE-10
 62
     7
100
AcDbVertex
100
AcDb2dVertex
 10
-28.62185329145565
 20
5.217597112410878
 30
0.0
  0
VERTEX
  5
D4
330
CD
100
AcDbEntity
  8
STANDARDEBENE
  6
AI-LINETYPE-10
 62
     7
100
AcDbVertex
100
AcDb2dVertex
 10
-28.62185329145565
 20
4.662936739285655
 30
0.0
  0
VERTEX
  5
D5
330
CD
100
AcDbEntity
  8
STANDARDEBENE
  6
AI-LINETYPE-10
 62
     7
100
AcDbVertex
100
AcDb2dVertex
 10
-28.62185329145565
 20
4.321872286245921
 30
0.0
  0
VERTEX
  5
D6
330
CD
100
AcDbEntity
  8
STANDARDEBENE
  6
AI-LINETYPE-10
 62
     7
100
AcDbVertex
100
AcDb2dVertex
 10
-28.62185329145565
 20
4.206461587490051
 30
0.0
  0
SEQEND
  5
D7
330
CD
100
AcDbEntity
  8
STANDARDEBENE
  6
AI-LINETYPE-10
  0
POLYLINE
  5
D9
330
1F
100
AcDbEntity
  8
STANDARDEBENE
  6
AI-LINETYPE-11
 62
     7
100
AcDb2dPolyline
 66
     1
 10
0.0
 20
0.0
 30
0.0
  0
VERTEX
  5
DA
330
D9
100
AcDbEntity
  8
STANDARDEBENE
  6
AI-LINETYPE-11
 62
     7
100
AcDbVertex
100
AcDb2dVertex
 10
-28.62185329145565
 20
16.20607367216376
 30
0.0
  0
VERTEX
  5
DB
330
D9
100
AcDbEntity
  8
STANDARDEBENE
  6
AI-LINETYPE-11
 62
     7
100
AcDbVertex
100
AcDb2dVertex
 10
-28.62185329145565
 20
16.09066297340789
 30
0.0
  0
VERTEX
  5
DC
330
D9
100
AcDbEntity
  8
STANDARDEBENE
  6
AI-LINETYPE-11
 62
     7
100
AcDbVertex
100
AcDb2dVertex
 10
-28.62185329145565
 20
15.74925401081963
 30
0.0
  0
VERTEX
  5
DD
330
D9
100
AcDbEntity
  8
STANDARDEBENE
  6
AI-LINETYPE-11
 62
     7
100
AcDbVertex
100
AcDb2dVertex
 10
-28.62185329145565
 20
15.19528265679146
 30
0.0
  0
VERTEX
  5
DE
330
D9
100
AcDbEntity
  8
STANDARDEBENE
  6
AI-LINETYPE-11
 62
     7
100
AcDbVertex
100
AcDb2dVertex
 10
-28.62185329145565
 20
14.44873046513782
 30
0.0
  0
VERTEX
  5
DF
330
D9
100
AcDbEntity
  8
STANDARDEBENE
  6
AI-LINETYPE-11
 62
     7
100
AcDbVertex
100
AcDb2dVertex
 10
-28.62185329145565
 20
13.53991427612891
 30
0.0
  0
VERTEX
  5
E0
330
D9
100
AcDbEntity
  8
STANDARDEBENE
  6
AI-LINETYPE-11
 62
     7
100
AcDbVertex
100
AcDb2dVertex
 10
-28.62185329145565
 20
12.50225151597166
 30
0.0
  0
VERTEX
  5
E1
330
D9
100
AcDbEntity
  8
STANDARDEBENE
  6
AI-LINETYPE-11
 62
     7
100
AcDbVertex
100
AcDb2dVertex
 10
-28.62185329145565
 20
11.37708333048906
 30
0.0
  0
VERTEX
  5
E2
330
D9
100
AcDbEntity
  8
STANDARDEBENE
  6
AI-LINETYPE-11
 62
     7
100
AcDbVertex
100
AcDb2dVertex
 10
-28.62185329145565
 20
10.20643988460117
 30
0.0
  0
SEQEND
  5
E3
330
D9
100
AcDbEntity
  8
STANDARDEBENE
  6
AI-LINETYPE-11
  0
POLYLINE
  5
E5
330
1F
100
AcDbEntity
  8
STANDARDEBENE
  6
AI-LINETYPE-12
 62
     7
100
AcDb2dPolyline
 66
     1
 10
0.0
 20
0.0
 30
0.0
  0
VERTEX
  5
E6
330
E5
100
AcDbEntity
  8
STANDARDEBENE
  6
AI-LINETYPE-12
 62
     7
100
AcDbVertex
100
AcDb2dVertex
 10
-0.6221842446361207
 20
4.206461587490051
 30
0.0
  0
VERTEX
  5
E7
330
E5
100
AcDbEntity
  8
STANDARDEBENE
  6
AI-LINETYPE-12
 62
     7
100
AcDbVertex
100
AcDb2dVertex
 10
-0.6221842446361207
 20
4.308436413853447
 30
0.0
  0
VERTEX
  5
E8
330
E5
100
AcDbEntity
  8
STANDARDEBENE
  6
AI-LINETYPE-12
 62
     7
100
AcDbVertex
100
AcDb2dVertex
 10
-0.6221842446361207
 20
4.611604816555432
 30
0.0
  0
VERTEX
  5
E9
330
E5
100
AcDbEntity
  8
STANDARDEBENE
  6
AI-LINETYPE-12
 62
     7
100
AcDbVertex
100
AcDb2dVertex
 10
-0.6221842446361207
 20
5.104942490043209
 30
0.0
  0
VERTEX
  5
EA
330
E5
100
AcDbEntity
  8
STANDARDEBENE
  6
AI-LINETYPE-12
 62
     7
100
AcDbVertex
100
AcDb2dVertex
 10
-0.6221842446361207
 20
5.772257485536103
 30
0.0
  0
VERTEX
  5
EB
330
E5
100
AcDbEntity
  8
STANDARDEBENE
  6
AI-LINETYPE-12
 62
     7
100
AcDbVertex
100
AcDb2dVertex
 10
-0.6221842446361207
 20
6.590123153734414
 30
0.0
  0
VERTEX
  5
EC
330
E5
100
AcDbEntity
  8
STANDARDEBENE
  6
AI-LINETYPE-12
 62
     7
100
AcDbVertex
100
AcDb2dVertex
 10
-0.6221842446361207
 20
7.53201225940172
 30
0.0
  0
VERTEX
  5
ED
330
E5
100
AcDbEntity
  8
STANDARDEBENE
  6
AI-LINETYPE-12
 62
     7
100
AcDbVertex
100
AcDb2dVertex
 10
-0.6221842446361207
 20
8.56416286678257
 30
0.0
  0
VERTEX
  5
EE
330
E5
100
AcDbEntity
  8
STANDARDEBENE
  6
AI-LINETYPE-12
 62
     7
100
AcDbVertex
100
AcDb2dVertex
 10
-0.6221842446361207
 20
9.652468530572994
 30
0.0
  0
VERTEX
  5
EF
330
E5
100
AcDbEntity
  8
STANDARDEBENE
  6
AI-LINETYPE-12
 62
     7
100
AcDbVertex
100
AcDb2dVertex
 10
-0.6221842446361207
 20
10.76006672908082
 30
0.0
  0
VERTEX
  5
F0
330
E5
100
AcDbEntity
  8
STANDARDEBENE
  6
AI-LINETYPE-12
 62
     7
100
AcDbVertex
100
AcDb2dVertex
 10
-0.6221842446361207
 20
11.84768337377419
 30
0.0
  0
VERTEX
  5
F1
330
E5
100
AcDbEntity
  8
STANDARDEBENE
  6
AI-LINETYPE-12
 62
     7
100
AcDbVertex
100
AcDb2dVertex
 10
-0.6221842446361207
 20
12.88017849070357
 30
0.0
  0
VERTEX
  5
F2
330
E5
100
AcDbEntity
  8
STANDARDEBENE
  6
AI-LINETYPE-12
 62
     7
100
AcDbVertex
100
AcDb2dVertex
 10
-0.6221842446361207
 20
13.82206759637087
 30
0.0
  0
VERTEX
  5
F3
330
E5
100
AcDbEntity
  8
STANDARDEBENE
  6
AI-LINETYPE-12
 62
     7
100
AcDbVertex
100
AcDb2dVertex
 10
-0.6221842446361207
 20
14.64027777411771
 30
0.0
  0
VERTEX
  5
F4
330
E5
100
AcDbEntity
  8
STANDARDEBENE
  6
AI-LINETYPE-12
 62
     7
100
AcDbVertex
100
AcDb2dVertex
 10
-0.6221842446361207
 20
15.30724826006208
 30
0.0
  0
VERTEX
  5
F5
330
E5
100
AcDbEntity
  8
STANDARDEBENE
  6
AI-LINETYPE-12
 62
     7
100
AcDbVertex
100
AcDb2dVertex
 10
-0.6221842446361207
 20
15.80093044309838
 30
0.0
  0
VERTEX
  5
F6
330
E5
100
AcDbEntity
  8
STANDARDEBENE
  6
AI-LINETYPE-12
 62
     7
100
AcDbVertex
100
AcDb2dVertex
 10
-0.6221842446361207
 20
16.10409884580037
 30
0.0
  0
VERTEX
  5
F7
330
E5
100
AcDbEntity
  8
STANDARDEBENE
  6
AI-LINETYPE-12
 62
     7
100
AcDbVertex
100
AcDb2dVertex
 10
-0.6221842446361207
 20
16.20607367216376
 30
0.0
  0
SEQEND
  5
F8
330
E5
100
AcDbEntity
  8
STANDARDEBENE
  6
AI-LINETYPE-12
  0
POLYLINE
  5
FA
330
1F
100
AcDbEntity
  8
STANDARDEBENE
  6
AI-LINETYPE-13
 62
     7
100
AcDb2dPolyline
 66
     1
 10
0.0
 20
0.0
 30
0.0
  0
VERTEX
  5
FB
330
FA
100
AcDbEntity
  8
STANDARDEBENE
  6
AI-LINETYPE-13
 62
     7
100
AcDbVertex
100
AcDb2dVertex
 10
-17.38119574218248
 20
16.19883897164474
 30
0.0
  0
VERTEX
  5
FC
330
FA
100
AcDbEntity
  8
STANDARDEBENE
  6
AI-LINETYPE-13
 62
     7
100
AcDbVertex
100
AcDb2dVertex
 10
-17.37568358940608
 20
16.20331759577556
 30
0.0
  0
VERTEX
  5
FD
330
FA
100
AcDbEntity
  8
STANDARDEBENE
  6
AI-LINETYPE-13
 62
     7
100
AcDbVertex
100
AcDb2dVertex
 10
-17.44975314233895
 20
16.14509548207484
 30
0.0
  0
VERTEX
  5
FE
330
FA
100
AcDbEntity
  8
STANDARDEBENE
  6
AI-LINETYPE-13
 62
     7
100
AcDbVertex
100
AcDb2dVertex
 10
-17.5992702863988
 20
16.02796223557634
 30
0.0
  0
VERTEX
  5
FF
330
FA
100
AcDbEntity
  8
STANDARDEBENE
  6
AI-LINETYPE-13
 62
     7
100
AcDbVertex
100
AcDb2dVertex
 10
-17.82457953113413
 20
15.8550184422168
 30
0.0
  0
VERTEX
  5
100
330
FA
100
AcDbEntity
  8
STANDARDEBENE
  6
AI-LINETYPE-13
 62
     7
100
AcDbVertex
100
AcDb2dVertex
 10
-18.13877223938892
 20
15.61902940147719
 30
0.0
  0
VERTEX
  5
101
330
FA
100
AcDbEntity
  8
STANDARDEBENE
  6
AI-LINETYPE-13
 62
     7
100
AcDbVertex
100
AcDb2dVertex
 10
-18.52496744328543
 20
15.34169921491458
 30
0.0
  0
VERTEX
  5
102
330
FA
100
AcDbEntity
  8
STANDARDEBENE
  6
AI-LINETYPE-13
 62
     7
100
AcDbVertex
100
AcDb2dVertex
 10
-19.05654567665947
 20
14.98513183219122
 30
0.0
  0
VERTEX
  5
103
330
FA
100
AcDbEntity
  8
STANDARDEBENE
  6
AI-LINETYPE-13
 62
     7
100
AcDbVertex
100
AcDb2dVertex
 10
-19.6745958067133
 20
14.61375053888129
 30
0.0
  0
VERTEX
  5
104
330
FA
100
AcDbEntity
  8
STANDARDEBENE
  6
AI-LINETYPE-13
 62
     7
100
AcDbVertex
100
AcDb2dVertex
 10
-20.26784124927332
 20
14.31437174121307
 30
0.0
  0
VERTEX
  5
105
330
FA
100
AcDbEntity
  8
STANDARDEBENE
  6
AI-LINETYPE-13
 62
     7
100
AcDbVertex
100
AcDb2dVertex
 10
-20.93171114928096
 20
14.06046820395016
 30
0.0
  0
VERTEX
  5
106
330
FA
100
AcDbEntity
  8
STANDARDEBENE
  6
AI-LINETYPE-13
 62
     7
100
AcDbVertex
100
AcDb2dVertex
 10
-21.42883842780251
 20
13.93713378557822
 30
0.0
  0
VERTEX
  5
107
330
FA
100
AcDbEntity
  8
STANDARDEBENE
  6
AI-LINETYPE-13
 62
     7
100
AcDbVertex
100
AcDb2dVertex
 10
-21.95800509433689
 20
13.87546657639225
 30
0.0
  0
VERTEX
  5
108
330
FA
100
AcDbEntity
  8
STANDARDEBENE
  6
AI-LINETYPE-13
 62
     7
100
AcDbVertex
100
AcDb2dVertex
 10
-22.47924804125519
 20
13.88924695833324
 30
0.0
  0
VERTEX
  5
109
330
FA
100
AcDbEntity
  8
STANDARDEBENE
  6
AI-LINETYPE-13
 62
     7
100
AcDbVertex
100
AcDb2dVertex
 10
-23.00634765049842
 20
13.97744140275564
 30
0.0
  0
VERTEX
  5
10A
330
FA
100
AcDbEntity
  8
STANDARDEBENE
  6
AI-LINETYPE-13
 62
     7
100
AcDbVertex
100
AcDb2dVertex
 10
-23.62749836648896
 20
14.16898871173553
 30
0.0
  0
VERTEX
  5
10B
330
FA
100
AcDbEntity
  8
STANDARDEBENE
  6
AI-LINETYPE-13
 62
     7
100
AcDbVertex
100
AcDb2dVertex
 10
-24.21660969446668
 20
14.42840440177484
 30
0.0
  0
VERTEX
  5
10C
330
FA
100
AcDbEntity
  8
STANDARDEBENE
  6
AI-LINETYPE-13
 62
     7
100
AcDbVertex
100
AcDb2dVertex
 10
-24.95282659966457
 20
14.837337235874
 30
0.0
  0
VERTEX
  5
10D
330
FA
100
AcDbEntity
  8
STANDARDEBENE
  6
AI-LINETYPE-13
 62
     7
100
AcDbVertex
100
AcDb2dVertex
 10
-25.60946179915319
 20
15.26590711423908
 30
0.0
  0
VERTEX
  5
10E
330
FA
100
AcDbEntity
  8
STANDARDEBENE
  6
AI-LINETYPE-13
 62
     7
100
AcDbVertex
100
AcDb2dVertex
 10
-26.14345159936692
 20
15.64796820355329
 30
0.0
  0
VERTEX
  5
10F
330
FA
100
AcDbEntity
  8
STANDARDEBENE
  6
AI-LINETYPE-13
 62
     7
100
AcDbVertex
100
AcDb2dVertex
 10
-26.56340873901887
 20
15.96560600729332
 30
0.0
  0
VERTEX
  5
110
330
FA
100
AcDbEntity
  8
STANDARDEBENE
  6
AI-LINETYPE-13
 62
     7
100
AcDbVertex
100
AcDb2dVertex
 10
-26.74841036657679
 20
16.10926648902824
 30
0.0
  0
VERTEX
  5
111
330
FA
100
AcDbEntity
  8
STANDARDEBENE
  6
AI-LINETYPE-13
 62
     7
100
AcDbVertex
100
AcDb2dVertex
 10
-26.86175400804151
 20
16.19780544299916
 30
0.0
  0
SEQEND
  5
112
330
FA
100
AcDbEntity
  8
STANDARDEBENE
  6
AI-LINETYPE-13
  0
POLYLINE
  5
114
330
1F
100
AcDbEntity
  8
STANDARDEBENE
 62
     7
100
AcDb2dPolyline
 66
     1
 10
0.0
 20
0.0
 30
0.0
  0
VERTEX
  5
115
330
114
100
AcDbEntity
  8
STANDARDEBENE
 62
     7
100
AcDbVertex
100
AcDb2dVertex
 10
-28.62185329145565
 20
20.10936685695183
 30
0.0
  0
VERTEX
  5
116
330
114
100
AcDbEntity
  8
STANDARDEBENE
 62
     7
100
AcDbVertex
100
AcDb2dVertex
 10
-28.62185329145565
 20
0.2587266709422628
 30
0.0
  0
SEQEND
  5
117
330
114
100
AcDbEntity
  8
STANDARDEBENE
  0
POLYLINE
  5
118
330
1F
100
AcDbEntity
  8
STANDARDEBENE
 62
     7
100
AcDb2dPolyline
 66
     1
 10
0.0
 20
0.0
 30
0.0
  0
VERTEX
  5
119
330
118
100
AcDbEntity
  8
STANDARDEBENE
 62
     7
100
AcDbVertex
100
AcDb2dVertex
 10
-0.6635253904591187
 20
20.20582953053882
 30
0.0
  0
VERTEX
  5
11A
330
118
100
AcDbEntity
  8
STANDARDEBENE
 62
     7
100
AcDbVertex
100
AcDb2dVertex
 10
-0.6635253904591187
 20
0.2649278428157125
 30
0.0
  0
SEQEND
  5
11B
330
118
100
AcDbEntity
  8
STANDARDEBENE
  0
POLYLINE
  5
11C
330
1F
100
AcDbEntity
  8
STANDARDEBENE
  6
AI-LINETYPE-14
 62
     7
100
AcDb2dPolyline
 66
     1
 10
0.0
 20
0.0
 30
0.0
  0
VERTEX
  5
11D
330
11C
100
AcDbEntity
  8
STANDARDEBENE
  6
AI-LINETYPE-14
 62
     7
100
AcDbVertex
100
AcDb2dVertex
 10
-22.12268065853183
 20
11.70643445887895
 30
0.0
  0
VERTEX
  5
11E
330
11C
100
AcDbEntity
  8
STANDARDEBENE
  6
AI-LINETYPE-14
 62
     7
100
AcDbVertex
100
AcDb2dVertex
 10
-22.12268065853183
 20
19.87303330666369
 30
0.0
  0
SEQEND
  5
11F
330
11C
100
AcDbEntity
  8
STANDARDEBENE
  6
AI-LINETYPE-14
  0
POLYLINE
  5
121
330
1F
100
AcDbEntity
  8
STANDARDEBENE
  6
AI-LINETYPE-15
 62
     7
100
AcDb2dPolyline
 66
     1
 10
0.0
 20
0.0
 30
0.0
  0
VERTEX
  5
122
330
121
100
AcDbEntity
  8
STANDARDEBENE
  6
AI-LINETYPE-15
 62
     7
100
AcDbVertex
100
AcDb2dVertex
 10
-30.23691405494077
 20
10.20643988460117
 30
0.0
  0
VERTEX
  5
123
330
121
100
AcDbEntity
  8
STANDARDEBENE
  6
AI-LINETYPE-15
 62
     7
100
AcDbVertex
100
AcDb2dVertex
 10
1.336697048276937
 20
10.20643988460117
 30
0.0
  0
SEQEND
  5
124
330
121
100
AcDbEntity
  8
STANDARDEBENE
  6
AI-LINETYPE-15
  0
POLYLINE
  5
127
330
1F
100
AcDbEntity
  8
BEMAßUNG
 62
     7
100
AcDb2dPolyline
 66
     1
 10
0.0
 20
0.0
 30
0.0
  0
VERTEX
  5
128
330
127
100
AcDbEntity
  8
BEMAßUNG
 62
     7
100
AcDbVertex
100
AcDb2dVertex
 10
-28.62185329145565
 20
16.20607367216376
 30
0.0
  0
VERTEX
  5
129
330
127
100
AcDbEntity
  8
BEMAßUNG
 62
     7
100
AcDbVertex
100
AcDb2dVertex
 10
-41.35113659990527
 20
16.20607367216376
 30
0.0
  0
SEQEND
  5
12A
330
127
100
AcDbEntity
  8
BEMAßUNG
  0
POLYLINE
  5
12B
330
1F
100
AcDbEntity
  8
BEMAßUNG
 62
     7
100
AcDb2dPolyline
 66
     1
 10
0.0
 20
0.0
 30
0.0
  0
VERTEX
  5
12C
330
12B
100
AcDbEntity
  8
BEMAßUNG
 62
     7
100
AcDbVertex
100
AcDb2dVertex
 10
-28.62185329145565
 20
4.206461587490051
 30
0.0
  0
VERTEX
  5
12D
330
12B
100
AcDbEntity
  8
BEMAßUNG
 62
     7
100
AcDbVertex
100
AcDb2dVertex
 10
-41.35113659990527
 20
4.206461587490051
 30
0.0
  0
SEQEND
  5
12E
330
12B
100
AcDbEntity
  8
BEMAßUNG
  0
POLYLINE
  5
12F
330
1F
100
AcDbEntity
  8
BEMAßUNG
 62
     7
100
AcDb2dPolyline
 66
     1
 10
0.0
 20
0.0
 30
0.0
  0
VERTEX
  5
130
330
12F
100
AcDbEntity
  8
BEMAßUNG
 62
     7
100
AcDbVertex
100
AcDb2dVertex
 10
-39.35125867071774
 20
4.206461587490051
 30
0.0
  0
VERTEX
  5
131
330
12F
100
AcDbEntity
  8
BEMAßUNG
 62
     7
100
AcDbVertex
100
AcDb2dVertex
 10
-39.35125867071774
 20
14.09250759196298
 30
0.0
  0
SEQEND
  5
132
330
12F
100
AcDbEntity
  8
BEMAßUNG
  0
POLYLINE
  5
133
330
1F
100
AcDbEntity
  8
BEMAßUNG
 62
     7
100
AcDb2dPolyline
 66
     1
 10
0.0
 20
0.0
 30
0.0
  0
VERTEX
  5
134
330
133
100
AcDbEntity
  8
BEMAßUNG
 62
     7
100
AcDbVertex
100
AcDb2dVertex
 10
-39.35125867071774
 20
16.20607367216376
 30
0.0
  0
VERTEX
  5
135
330
133
100
AcDbEntity
  8
BEMAßUNG
 62
     7
100
AcDbVertex
100
AcDb2dVertex
 10
-39.68095430865615
 20
13.70631238806648
 30
0.0
  0
VERTEX
  5
136
330
133
100
AcDbEntity
  8
BEMAßUNG
 62
     7
100
AcDbVertex
100
AcDb2dVertex
 10
-39.02225205187639
 20
13.70631238806648
 30
0.0
  0
VERTEX
  5
137
330
133
100
AcDbEntity
  8
BEMAßUNG
 62
     7
100
AcDbVertex
100
AcDb2dVertex
 10
-39.35125867071774
 20
16.20607367216376
 30
0.0
  0
SEQEND
  5
138
330
133
100
AcDbEntity
  8
BEMAßUNG
  0
POLYLINE
  5
139
330
1F
100
AcDbEntity
  8
BEMAßUNG
 62
     7
100
AcDb2dPolyline
 66
     1
 10
0.0
 20
0.0
 30
0.0
  0
VERTEX
  5
13A
330
139
100
AcDbEntity
  8
BEMAßUNG
 62
     7
100
AcDbVertex
100
AcDb2dVertex
 10
-39.65614962116236
 20
13.70631238806648
 30
0.0
  0
VERTEX
  5
13B
330
139
100
AcDbEntity
  8
BEMAßUNG
 62
     7
100
AcDbVertex
100
AcDb2dVertex
 10
-39.65614962116236
 20
13.89131401562439
 30
0.0
  0
SEQEND
  5
13C
330
139
100
AcDbEntity
  8
BEMAßUNG
  0
POLYLINE
  5
13D
330
1F
100
AcDbEntity
  8
BEMAßUNG
 62
     7
100
AcDb2dPolyline
 66
     1
 10
0.0
 20
0.0
 30
0.0
  0
VERTEX
  5
13E
330
13D
100
AcDbEntity
  8
BEMAßUNG
 62
     7
100
AcDbVertex
100
AcDb2dVertex
 10
-39.65614962116236
 20
13.70631238806648
 30
0.0
  0
VERTEX
  5
13F
330
13D
100
AcDbEntity
  8
BEMAßUNG
 62
     7
100
AcDbVertex
100
AcDb2dVertex
 10
-39.65614962116236
 20
13.89131401562439
 30
0.0
  0
SEQEND
  5
140
330
13D
100
AcDbEntity
  8
BEMAßUNG
  0
POLYLINE
  5
141
330
1F
100
AcDbEntity
  8
BEMAßUNG
 62
     7
100
AcDb2dPolyline
 66
     1
 10
0.0
 20
0.0
 30
0.0
  0
VERTEX
  5
142
330
141
100
AcDbEntity
  8
BEMAßUNG
 62
     7
100
AcDbVertex
100
AcDb2dVertex
 10
-39.60585122707771
 20
13.70631238806648
 30
0.0
  0
VERTEX
  5
143
330
141
100
AcDbEntity
  8
BEMAßUNG
 62
     7
100
AcDbVertex
100
AcDb2dVertex
 10
-39.60585122707771
 20
14.27682020042385
 30
0.0
  0
SEQEND
  5
144
330
141
100
AcDbEntity
  8
BEMAßUNG
  0
POLYLINE
  5
145
330
1F
100
AcDbEntity
  8
BEMAßUNG
 62
     7
100
AcDb2dPolyline
 66
     1
 10
0.0
 20
0.0
 30
0.0
  0
VERTEX
  5
146
330
145
100
AcDbEntity
  8
BEMAßUNG
 62
     7
100
AcDbVertex
100
AcDb2dVertex
 10
-39.55486381389601
 20
13.70631238806648
 30
0.0
  0
VERTEX
  5
147
330
145
100
AcDbEntity
  8
BEMAßUNG
 62
     7
100
AcDbVertex
100
AcDb2dVertex
 10
-39.55486381389601
 20
14.66267089477183
 30
0.0
  0
SEQEND
  5
148
330
145
100
AcDbEntity
  8
BEMAßUNG
  0
POLYLINE
  5
149
330
1F
100
AcDbEntity
  8
BEMAßUNG
 62
     7
100
AcDb2dPolyline
 66
     1
 10
0.0
 20
0.0
 30
0.0
  0
VERTEX
  5
14A
330
149
100
AcDbEntity
  8
BEMAßUNG
 62
     7
100
AcDbVertex
100
AcDb2dVertex
 10
-39.50422091026284
 20
13.70631238806648
 30
0.0
  0
VERTEX
  5
14B
330
149
100
AcDbEntity
  8
BEMAßUNG
 62
     7
100
AcDbVertex
100
AcDb2dVertex
 10
-39.50422091026284
 20
15.04921060821686
 30
0.0
  0
SEQEND
  5
14C
330
149
100
AcDbEntity
  8
BEMAßUNG
  0
POLYLINE
  5
14D
330
1F
100
AcDbEntity
  8
BEMAßUNG
 62
     7
100
AcDb2dPolyline
 66
     1
 10
0.0
 20
0.0
 30
0.0
  0
VERTEX
  5
14E
330
14D
100
AcDbEntity
  8
BEMAßUNG
 62
     7
100
AcDbVertex
100
AcDb2dVertex
 10
-39.45288898753261
 20
13.70631238806648
 30
0.0
  0
VERTEX
  5
14F
330
14D
100
AcDbEntity
  8
BEMAßUNG
 62
     7
100
AcDbVertex
100
AcDb2dVertex
 10
-39.45288898753261
 20
15.4343722834678
 30
0.0
  0
SEQEND
  5
150
330
14D
100
AcDbEntity
  8
BEMAßUNG
  0
POLYLINE
  5
151
330
1F
100
AcDbEntity
  8
BEMAßUNG
 62
     7
100
AcDb2dPolyline
 66
     1
 10
0.0
 20
0.0
 30
0.0
  0
VERTEX
  5
152
330
151
100
AcDbEntity
  8
BEMAßUNG
 62
     7
100
AcDbVertex
100
AcDb2dVertex
 10
-39.40224608389944
 20
13.70631238806648
 30
0.0
  0
VERTEX
  5
153
330
151
100
AcDbEntity
  8
BEMAßUNG
 62
     7
100
AcDbVertex
100
AcDb2dVertex
 10
-39.40224608389944
 20
15.81987846826725
 30
0.0
  0
SEQEND
  5
154
330
151
100
AcDbEntity
  8
BEMAßUNG
  0
POLYLINE
  5
155
330
1F
100
AcDbEntity
  8
BEMAßUNG
 62
     7
100
AcDb2dPolyline
 66
     1
 10
0.0
 20
0.0
 30
0.0
  0
VERTEX
  5
156
330
155
100
AcDbEntity
  8
BEMAßUNG
 62
     7
100
AcDbVertex
100
AcDb2dVertex
 10
-39.35125867071774
 20
13.70631238806648
 30
0.0
  0
VERTEX
  5
157
330
155
100
AcDbEntity
  8
BEMAßUNG
 62
     7
100
AcDbVertex
100
AcDb2dVertex
 10
-39.35125867071774
 20
16.20607367216376
 30
0.0
  0
SEQEND
  5
158
330
155
100
AcDbEntity
  8
BEMAßUNG
  0
POLYLINE
  5
159
330
1F
100
AcDbEntity
  8
BEMAßUNG
 62
     7
100
AcDb2dPolyline
 66
     1
 10
0.0
 20
0.0
 30
0.0
  0
VERTEX
  5
15A
330
159
100
AcDbEntity
  8
BEMAßUNG
 62
     7
100
AcDbVertex
100
AcDb2dVertex
 10
-39.04705673937018
 20
13.70631238806648
 30
0.0
  0
VERTEX
  5
15B
330
159
100
AcDbEntity
  8
BEMAßUNG
 62
     7
100
AcDbVertex
100
AcDb2dVertex
 10
-39.04705673937018
 20
13.89131401562439
 30
0.0
  0
SEQEND
  5
15C
330
159
100
AcDbEntity
  8
BEMAßUNG
  0
POLYLINE
  5
15D
330
1F
100
AcDbEntity
  8
BEMAßUNG
 62
     7
100
AcDb2dPolyline
 66
     1
 10
0.0
 20
0.0
 30
0.0
  0
VERTEX
  5
15E
330
15D
100
AcDbEntity
  8
BEMAßUNG
 62
     7
100
AcDbVertex
100
AcDb2dVertex
 10
-39.04705673937018
 20
13.70631238806648
 30
0.0
  0
VERTEX
  5
15F
330
15D
100
AcDbEntity
  8
BEMAßUNG
 62
     7
100
AcDbVertex
100
AcDb2dVertex
 10
-39.04705673937018
 20
13.89131401562439
 30
0.0
  0
SEQEND
  5
160
330
15D
100
AcDbEntity
  8
BEMAßUNG
  0
POLYLINE
  5
161
330
1F
100
AcDbEntity
  8
BEMAßUNG
 62
     7
100
AcDb2dPolyline
 66
     1
 10
0.0
 20
0.0
 30
0.0
  0
VERTEX
  5
162
330
161
100
AcDbEntity
  8
BEMAßUNG
 62
     7
100
AcDbVertex
100
AcDb2dVertex
 10
-39.09735513345483
 20
13.70631238806648
 30
0.0
  0
VERTEX
  5
163
330
161
100
AcDbEntity
  8
BEMAßUNG
 62
     7
100
AcDbVertex
100
AcDb2dVertex
 10
-39.09735513345483
 20
14.27682020042385
 30
0.0
  0
SEQEND
  5
164
330
161
100
AcDbEntity
  8
BEMAßUNG
  0
POLYLINE
  5
165
330
1F
100
AcDbEntity
  8
BEMAßUNG
 62
     7
100
AcDb2dPolyline
 66
     1
 10
0.0
 20
0.0
 30
0.0
  0
VERTEX
  5
166
330
165
100
AcDbEntity
  8
BEMAßUNG
 62
     7
100
AcDbVertex
100
AcDb2dVertex
 10
-39.147998037088
 20
13.70631238806648
 30
0.0
  0
VERTEX
  5
167
330
165
100
AcDbEntity
  8
BEMAßUNG
 62
     7
100
AcDbVertex
100
AcDb2dVertex
 10
-39.147998037088
 20
14.66267089477183
 30
0.0
  0
SEQEND
  5
168
330
165
100
AcDbEntity
  8
BEMAßUNG
  0
POLYLINE
  5
169
330
1F
100
AcDbEntity
  8
BEMAßUNG
 62
     7
100
AcDb2dPolyline
 66
     1
 10
0.0
 20
0.0
 30
0.0
  0
VERTEX
  5
16A
330
169
100
AcDbEntity
  8
BEMAßUNG
 62
     7
100
AcDbVertex
100
AcDb2dVertex
 10
-39.1989854502697
 20
13.70631238806648
 30
0.0
  0
VERTEX
  5
16B
330
169
100
AcDbEntity
  8
BEMAßUNG
 62
     7
100
AcDbVertex
100
AcDb2dVertex
 10
-39.1989854502697
 20
15.04921060821686
 30
0.0
  0
SEQEND
  5
16C
330
169
100
AcDbEntity
  8
BEMAßUNG
  0
POLYLINE
  5
16D
330
1F
100
AcDbEntity
  8
BEMAßUNG
 62
     7
100
AcDb2dPolyline
 66
     1
 10
0.0
 20
0.0
 30
0.0
  0
VERTEX
  5
16E
330
16D
100
AcDbEntity
  8
BEMAßUNG
 62
     7
100
AcDbVertex
100
AcDb2dVertex
 10
-39.2499728634514
 20
13.70631238806648
 30
0.0
  0
VERTEX
  5
16F
330
16D
100
AcDbEntity
  8
BEMAßUNG
 62
     7
100
AcDbVertex
100
AcDb2dVertex
 10
-39.2499728634514
 20
15.4343722834678
 30
0.0
  0
SEQEND
  5
170
330
16D
100
AcDbEntity
  8
BEMAßUNG
  0
POLYLINE
  5
171
330
1F
100
AcDbEntity
  8
BEMAßUNG
 62
     7
100
AcDb2dPolyline
 66
     1
 10
0.0
 20
0.0
 30
0.0
  0
VERTEX
  5
172
330
171
100
AcDbEntity
  8
BEMAßUNG
 62
     7
100
AcDbVertex
100
AcDb2dVertex
 10
-39.3009602766331
 20
13.70631238806648
 30
0.0
  0
VERTEX
  5
173
330
171
100
AcDbEntity
  8
BEMAßUNG
 62
     7
100
AcDbVertex
100
AcDb2dVertex
 10
-39.3009602766331
 20
15.81987846826725
 30
0.0
  0
SEQEND
  5
174
330
171
100
AcDbEntity
  8
BEMAßUNG
  0
POLYLINE
  5
175
330
1F
100
AcDbEntity
  8
BEMAßUNG
 62
     7
100
AcDb2dPolyline
 66
     1
 10
0.0
 20
0.0
 30
0.0
  0
VERTEX
  5
176
330
175
100
AcDbEntity
  8
BEMAßUNG
 62
     7
100
AcDbVertex
100
AcDb2dVertex
 10
-39.35125867071774
 20
13.70631238806648
 30
0.0
  0
VERTEX
  5
177
330
175
100
AcDbEntity
  8
BEMAßUNG
 62
     7
100
AcDbVertex
100
AcDb2dVertex
 10
-39.35125867071774
 20
16.20607367216376
 30
0.0
  0
SEQEND
  5
178
330
175
100
AcDbEntity
  8
BEMAßUNG
  0
POLYLINE
  5
179
330
1F
100
AcDbEntity
  8
BEMAßUNG
 62
     7
100
AcDb2dPolyline
 66
     1
 10
0.0
 20
0.0
 30
0.0
  0
VERTEX
  5
17A
330
179
100
AcDbEntity
  8
BEMAßUNG
 62
     7
100
AcDbVertex
100
AcDb2dVertex
 10
-39.35125867071774
 20
4.206461587490051
 30
0.0
  0
VERTEX
  5
17B
330
179
100
AcDbEntity
  8
BEMAßUNG
 62
     7
100
AcDbVertex
100
AcDb2dVertex
 10
-39.02225205187639
 20
6.706222871587333
 30
0.0
  0
VERTEX
  5
17C
330
179
100
AcDbEntity
  8
BEMAßUNG
 62
     7
100
AcDbVertex
100
AcDb2dVertex
 10
-39.68095430865615
 20
6.706222871587333
 30
0.0
  0
VERTEX
  5
17D
330
179
100
AcDbEntity
  8
BEMAßUNG
 62
     7
100
AcDbVertex
100
AcDb2dVertex
 10
-39.35125867071774
 20
4.206461587490051
 30
0.0
  0
SEQEND
  5
17E
330
179
100
AcDbEntity
  8
BEMAßUNG
  0
POLYLINE
  5
17F
330
1F
100
AcDbEntity
  8
BEMAßUNG
 62
     7
100
AcDb2dPolyline
 66
     1
 10
0.0
 20
0.0
 30
0.0
  0
VERTEX
  5
180
330
17F
100
AcDbEntity
  8
BEMAßUNG
 62
     7
100
AcDbVertex
100
AcDb2dVertex
 10
-39.04705673937018
 20
6.706222871587333
 30
0.0
  0
VERTEX
  5
181
330
17F
100
AcDbEntity
  8
BEMAßUNG
 62
     7
100
AcDbVertex
100
AcDb2dVertex
 10
-39.04705673937018
 20
6.521565753577942
 30
0.0
  0
SEQEND
  5
182
330
17F
100
AcDbEntity
  8
BEMAßUNG
  0
POLYLINE
  5
183
330
1F
100
AcDbEntity
  8
BEMAßUNG
 62
     7
100
AcDb2dPolyline
 66
     1
 10
0.0
 20
0.0
 30
0.0
  0
VERTEX
  5
184
330
183
100
AcDbEntity
  8
BEMAßUNG
 62
     7
100
AcDbVertex
100
AcDb2dVertex
 10
-39.04705673937018
 20
6.706222871587333
 30
0.0
  0
VERTEX
  5
185
330
183
100
AcDbEntity
  8
BEMAßUNG
 62
     7
100
AcDbVertex
100
AcDb2dVertex
 10
-39.04705673937018
 20
6.521565753577942
 30
0.0
  0
SEQEND
  5
186
330
183
100
AcDbEntity
  8
BEMAßUNG
  0
POLYLINE
  5
187
330
1F
100
AcDbEntity
  8
BEMAßUNG
 62
     7
100
AcDb2dPolyline
 66
     1
 10
0.0
 20
0.0
 30
0.0
  0
VERTEX
  5
188
330
187
100
AcDbEntity
  8
BEMAßUNG
 62
     7
100
AcDbVertex
100
AcDb2dVertex
 10
-39.09735513345483
 20
6.706222871587333
 30
0.0
  0
VERTEX
  5
189
330
187
100
AcDbEntity
  8
BEMAßUNG
 62
     7
100
AcDbVertex
100
AcDb2dVertex
 10
-39.09735513345483
 20
6.135370549681435
 30
0.0
  0
SEQEND
  5
18A
330
187
100
AcDbEntity
  8
BEMAßUNG
  0
POLYLINE
  5
18B
330
1F
100
AcDbEntity
  8
BEMAßUNG
 62
     7
100
AcDb2dPolyline
 66
     1
 10
0.0
 20
0.0
 30
0.0
  0
VERTEX
  5
18C
330
18B
100
AcDbEntity
  8
BEMAßUNG
 62
     7
100
AcDbVertex
100
AcDb2dVertex
 10
-39.147998037088
 20
6.706222871587333
 30
0.0
  0
VERTEX
  5
18D
330
18B
100
AcDbEntity
  8
BEMAßUNG
 62
     7
100
AcDbVertex
100
AcDb2dVertex
 10
-39.147998037088
 20
5.749519855333453
 30
0.0
  0
SEQEND
  5
18E
330
18B
100
AcDbEntity
  8
BEMAßUNG
  0
POLYLINE
  5
18F
330
1F
100
AcDbEntity
  8
BEMAßUNG
 62
     7
100
AcDb2dPolyline
 66
     1
 10
0.0
 20
0.0
 30
0.0
  0
VERTEX
  5
190
330
18F
100
AcDbEntity
  8
BEMAßUNG
 62
     7
100
AcDbVertex
100
AcDb2dVertex
 10
-39.1989854502697
 20
6.706222871587333
 30
0.0
  0
VERTEX
  5
191
330
18F
100
AcDbEntity
  8
BEMAßUNG
 62
     7
100
AcDbVertex
100
AcDb2dVertex
 10
-39.1989854502697
 20
5.363324651436947
 30
0.0
  0
SEQEND
  5
192
330
18F
100
AcDbEntity
  8
BEMAßUNG
  0
POLYLINE
  5
193
330
1F
100
AcDbEntity
  8
BEMAßUNG
 62
     7
100
AcDb2dPolyline
 66
     1
 10
0.0
 20
0.0
 30
0.0
  0
VERTEX
  5
194
330
193
100
AcDbEntity
  8
BEMAßUNG
 62
     7
100
AcDbVertex
100
AcDb2dVertex
 10
-39.2499728634514
 20
6.706222871587333
 30
0.0
  0
VERTEX
  5
195
330
193
100
AcDbEntity
  8
BEMAßUNG
 62
     7
100
AcDbVertex
100
AcDb2dVertex
 10
-39.2499728634514
 20
4.978162976186015
 30
0.0
  0
SEQEND
  5
196
330
193
100
AcDbEntity
  8
BEMAßUNG
  0
POLYLINE
  5
197
330
1F
100
AcDbEntity
  8
BEMAßUNG
 62
     7
100
AcDb2dPolyline
 66
     1
 10
0.0
 20
0.0
 30
0.0
  0
VERTEX
  5
198
330
197
100
AcDbEntity
  8
BEMAßUNG
 62
     7
100
AcDbVertex
100
AcDb2dVertex
 10
-39.3009602766331
 20
6.706222871587333
 30
0.0
  0
VERTEX
  5
199
330
197
100
AcDbEntity
  8
BEMAßUNG
 62
     7
100
AcDbVertex
100
AcDb2dVertex
 10
-39.3009602766331
 20
4.591967772289508
 30
0.0
  0
SEQEND
  5
19A
330
197
100
AcDbEntity
  8
BEMAßUNG
  0
POLYLINE
  5
19B
330
1F
100
AcDbEntity
  8
BEMAßUNG
 62
     7
100
AcDb2dPolyline
 66
     1
 10
0.0
 20
0.0
 30
0.0
  0
VERTEX
  5
19C
330
19B
100
AcDbEntity
  8
BEMAßUNG
 62
     7
100
AcDbVertex
100
AcDb2dVertex
 10
-39.35125867071774
 20
6.706222871587333
 30
0.0
  0
VERTEX
  5
19D
330
19B
100
AcDbEntity
  8
BEMAßUNG
 62
     7
100
AcDbVertex
100
AcDb2dVertex
 10
-39.35125867071774
 20
4.206461587490051
 30
0.0
  0
SEQEND
  5
19E
330
19B
100
AcDbEntity
  8
BEMAßUNG
  0
POLYLINE
  5
19F
330
1F
100
AcDbEntity
  8
BEMAßUNG
 62
     7
100
AcDb2dPolyline
 66
     1
 10
0.0
 20
0.0
 30
0.0
  0
VERTEX
  5
1A0
330
19F
100
AcDbEntity
  8
BEMAßUNG
 62
     7
100
AcDbVertex
100
AcDb2dVertex
 10
-39.65614962116236
 20
6.706222871587333
 30
0.0
  0
VERTEX
  5
1A1
330
19F
100
AcDbEntity
  8
BEMAßUNG
 62
     7
100
AcDbVertex
100
AcDb2dVertex
 10
-39.65614962116236
 20
6.521565753577942
 30
0.0
  0
SEQEND
  5
1A2
330
19F
100
AcDbEntity
  8
BEMAßUNG
  0
POLYLINE
  5
1A3
330
1F
100
AcDbEntity
  8
BEMAßUNG
 62
     7
100
AcDb2dPolyline
 66
     1
 10
0.0
 20
0.0
 30
0.0
  0
VERTEX
  5
1A4
330
1A3
100
AcDbEntity
  8
BEMAßUNG
 62
     7
100
AcDbVertex
100
AcDb2dVertex
 10
-39.65614962116236
 20
6.706222871587333
 30
0.0
  0
VERTEX
  5
1A5
330
1A3
100
AcDbEntity
  8
BEMAßUNG
 62
     7
100
AcDbVertex
100
AcDb2dVertex
 10
-39.65614962116236
 20
6.521565753577942
 30
0.0
  0
SEQEND
  5
1A6
330
1A3
100
AcDbEntity
  8
BEMAßUNG
  0
POLYLINE
  5
1A7
330
1F
100
AcDbEntity
  8
BEMAßUNG
 62
     7
100
AcDb2dPolyline
 66
     1
 10
0.0
 20
0.0
 30
0.0
  0
VERTEX
  5
1A8
330
1A7
100
AcDbEntity
  8
BEMAßUNG
 62
     7
100
AcDbVertex
100
AcDb2dVertex
 10
-39.60585122707771
 20
6.706222871587333
 30
0.0
  0
VERTEX
  5
1A9
330
1A7
100
AcDbEntity
  8
BEMAßUNG
 62
     7
100
AcDbVertex
100
AcDb2dVertex
 10
-39.60585122707771
 20
6.135370549681435
 30
0.0
  0
SEQEND
  5
1AA
330
1A7
100
AcDbEntity
  8
BEMAßUNG
  0
POLYLINE
  5
1AB
330
1F
100
AcDbEntity
  8
BEMAßUNG
 62
     7
100
AcDb2dPolyline
 66
     1
 10
0.0
 20
0.0
 30
0.0
  0
VERTEX
  5
1AC
330
1AB
100
AcDbEntity
  8
BEMAßUNG
 62
     7
100
AcDbVertex
100
AcDb2dVertex
 10
-39.55486381389601
 20
6.706222871587333
 30
0.0
  0
VERTEX
  5
1AD
330
1AB
100
AcDbEntity
  8
BEMAßUNG
 62
     7
100
AcDbVertex
100
AcDb2dVertex
 10
-39.55486381389601
 20
5.749519855333453
 30
0.0
  0
SEQEND
  5
1AE
330
1AB
100
AcDbEntity
  8
BEMAßUNG
  0
POLYLINE
  5
1AF
330
1F
100
AcDbEntity
  8
BEMAßUNG
 62
     7
100
AcDb2dPolyline
 66
     1
 10
0.0
 20
0.0
 30
0.0
  0
VERTEX
  5
1B0
330
1AF
100
AcDbEntity
  8
BEMAßUNG
 62
     7
100
AcDbVertex
100
AcDb2dVertex
 10
-39.50422091026284
 20
6.706222871587333
 30
0.0
  0
VERTEX
  5
1B1
330
1AF
100
AcDbEntity
  8
BEMAßUNG
 62
     7
100
AcDbVertex
100
AcDb2dVertex
 10
-39.50422091026284
 20
5.363324651436947
 30
0.0
  0
SEQEND
  5
1B2
330
1AF
100
AcDbEntity
  8
BEMAßUNG
  0
POLYLINE
  5
1B3
330
1F
100
AcDbEntity
  8
BEMAßUNG
 62
     7
100
AcDb2dPolyline
 66
     1
 10
0.0
 20
0.0
 30
0.0
  0
VERTEX
  5
1B4
330
1B3
100
AcDbEntity
  8
BEMAßUNG
 62
     7
100
AcDbVertex
100
AcDb2dVertex
 10
-39.45288898753261
 20
6.706222871587333
 30
0.0
  0
VERTEX
  5
1B5
330
1B3
100
AcDbEntity
  8
BEMAßUNG
 62
     7
100
AcDbVertex
100
AcDb2dVertex
 10
-39.45288898753261
 20
4.978162976186015
 30
0.0
  0
SEQEND
  5
1B6
330
1B3
100
AcDbEntity
  8
BEMAßUNG
  0
POLYLINE
  5
1B7
330
1F
100
AcDbEntity
  8
BEMAßUNG
 62
     7
100
AcDb2dPolyline
 66
     1
 10
0.0
 20
0.0
 30
0.0
  0
VERTEX
  5
1B8
330
1B7
100
AcDbEntity
  8
BEMAßUNG
 62
     7
100
AcDbVertex
100
AcDb2dVertex
 10
-39.40224608389944
 20
6.706222871587333
 30
0.0
  0
VERTEX
  5
1B9
330
1B7
100
AcDbEntity
  8
BEMAßUNG
 62
     7
100
AcDbVertex
100
AcDb2dVertex
 10
-39.40224608389944
 20
4.591967772289508
 30
0.0
  0
SEQEND
  5
1BA
330
1B7
100
AcDbEntity
  8
BEMAßUNG
  0
POLYLINE
  5
1BB
330
1F
100
AcDbEntity
  8
BEMAßUNG
 62
     7
100
AcDb2dPolyline
 66
     1
 10
0.0
 20
0.0
 30
0.0
  0
VERTEX
  5
1BC
330
1BB
100
AcDbEntity
  8
BEMAßUNG
 62
     7
100
AcDbVertex
100
AcDb2dVertex
 10
-39.35125867071774
 20
6.706222871587333
 30
0.0
  0
VERTEX
  5
1BD
330
1BB
100
AcDbEntity
  8
BEMAßUNG
 62
     7
100
AcDbVertex
100
AcDb2dVertex
 10
-39.35125867071774
 20
4.206461587490051
 30
0.0
  0
SEQEND
  5
1BE
330
1BB
100
AcDbEntity
  8
BEMAßUNG
  0
POLYLINE
  5
1BF
330
1F
100
AcDbEntity
  8
BEMAßUNG
 62
     7
100
AcDb2dPolyline
 66
     1
 10
0.0
 20
0.0
 30
0.0
  0
VERTEX
  5
1C0
330
1BF
100
AcDbEntity
  8
BEMAßUNG
 62
     7
100
AcDbVertex
100
AcDb2dVertex
 10
-0.6221842446361207
 20
20.20582953053882
 30
0.0
  0
VERTEX
  5
1C1
330
1BF
100
AcDbEntity
  8
BEMAßUNG
 62
     7
100
AcDbVertex
100
AcDb2dVertex
 10
16.9512478256233
 20
20.20582953053882
 30
0.0
  0
SEQEND
  5
1C2
330
1BF
100
AcDbEntity
  8
BEMAßUNG
  0
POLYLINE
  5
1C3
330
1F
100
AcDbEntity
  8
BEMAßUNG
 62
     7
100
AcDb2dPolyline
 66
     1
 10
0.0
 20
0.0
 30
0.0
  0
VERTEX
  5
1C4
330
1C3
100
AcDbEntity
  8
BEMAßUNG
 62
     7
100
AcDbVertex
100
AcDb2dVertex
 10
-0.6221842446361207
 20
0.2060167100179403
 30
0.0
  0
VERTEX
  5
1C5
330
1C3
100
AcDbEntity
  8
BEMAßUNG
 62
     7
100
AcDbVertex
100
AcDb2dVertex
 10
16.9512478256233
 20
0.2060167100179403
 30
0.0
  0
SEQEND
  5
1C6
330
1C3
100
AcDbEntity
  8
BEMAßUNG
  0
POLYLINE
  5
1C7
330
1F
100
AcDbEntity
  8
BEMAßUNG
 62
     7
100
AcDb2dPolyline
 66
     1
 10
0.0
 20
0.0
 30
0.0
  0
VERTEX
  5
1C8
330
1C7
100
AcDbEntity
  8
BEMAßUNG
 62
     7
100
AcDbVertex
100
AcDb2dVertex
 10
14.95033636779019
 20
20.20582953053882
 30
0.0
  0
VERTEX
  5
1C9
330
1C7
100
AcDbEntity
  8
BEMAßUNG
 62
     7
100
AcDbVertex
100
AcDb2dVertex
 10
14.95033636779019
 20
0.2060167100179403
 30
0.0
  0
SEQEND
  5
1CA
330
1C7
100
AcDbEntity
  8
BEMAßUNG
  0
POLYLINE
  5
1CB
330
1F
100
AcDbEntity
  8
BEMAßUNG
 62
     7
100
AcDb2dPolyline
 66
     1
 10
0.0
 20
0.0
 30
0.0
  0
VERTEX
  5
1CC
330
1CB
100
AcDbEntity
  8
BEMAßUNG
 62
     7
100
AcDbVertex
100
AcDb2dVertex
 10
14.95033636779019
 20
20.20582953053882
 30
0.0
  0
VERTEX
  5
1CD
330
1CB
100
AcDbEntity
  8
BEMAßUNG
 62
     7
100
AcDbVertex
100
AcDb2dVertex
 10
14.62167425849736
 20
17.70606824644154
 30
0.0
  0
VERTEX
  5
1CE
330
1CB
100
AcDbEntity
  8
BEMAßUNG
 62
     7
100
AcDbVertex
100
AcDb2dVertex
 10
15.27934298663155
 20
17.70606824644154
 30
0.0
  0
VERTEX
  5
1CF
330
1CB
100
AcDbEntity
  8
BEMAßUNG
 62
     7
100
AcDbVertex
100
AcDb2dVertex
 10
14.95033636779019
 20
20.20582953053882
 30
0.0
  0
SEQEND
  5
1D0
330
1CB
100
AcDbEntity
  8
BEMAßUNG
  0
POLYLINE
  5
1D1
330
1F
100
AcDbEntity
  8
BEMAßUNG
 62
     7
100
AcDb2dPolyline
 66
     1
 10
0.0
 20
0.0
 30
0.0
  0
VERTEX
  5
1D2
330
1D1
100
AcDbEntity
  8
BEMAßUNG
 62
     7
100
AcDbVertex
100
AcDb2dVertex
 10
14.64544541734558
 20
17.70606824644154
 30
0.0
  0
VERTEX
  5
1D3
330
1D1
100
AcDbEntity
  8
BEMAßUNG
 62
     7
100
AcDbVertex
100
AcDb2dVertex
 10
14.64544541734558
 20
17.89106987399946
 30
0.0
  0
SEQEND
  5
1D4
330
1D1
100
AcDbEntity
  8
BEMAßUNG
  0
POLYLINE
  5
1D5
330
1F
100
AcDbEntity
  8
BEMAßUNG
 62
     7
100
AcDb2dPolyline
 66
     1
 10
0.0
 20
0.0
 30
0.0
  0
VERTEX
  5
1D6
330
1D5
100
AcDbEntity
  8
BEMAßUNG
 62
     7
100
AcDbVertex
100
AcDb2dVertex
 10
14.64544541734558
 20
17.70606824644154
 30
0.0
  0
VERTEX
  5
1D7
330
1D5
100
AcDbEntity
  8
BEMAßUNG
 62
     7
100
AcDbVertex
100
AcDb2dVertex
 10
14.64544541734558
 20
17.89106987399946
 30
0.0
  0
SEQEND
  5
1D8
330
1D5
100
AcDbEntity
  8
BEMAßUNG
  0
POLYLINE
  5
1D9
330
1F
100
AcDbEntity
  8
BEMAßUNG
 62
     7
100
AcDb2dPolyline
 66
     1
 10
0.0
 20
0.0
 30
0.0
  0
VERTEX
  5
1DA
330
1D9
100
AcDbEntity
  8
BEMAßUNG
 62
     7
100
AcDbVertex
100
AcDb2dVertex
 10
14.69608832097876
 20
17.70606824644154
 30
0.0
  0
VERTEX
  5
1DB
330
1D9
100
AcDbEntity
  8
BEMAßUNG
 62
     7
100
AcDbVertex
100
AcDb2dVertex
 10
14.69608832097876
 20
18.27692056834744
 30
0.0
  0
SEQEND
  5
1DC
330
1D9
100
AcDbEntity
  8
BEMAßUNG
  0
POLYLINE
  5
1DD
330
1F
100
AcDbEntity
  8
BEMAßUNG
 62
     7
100
AcDb2dPolyline
 66
     1
 10
0.0
 20
0.0
 30
0.0
  0
VERTEX
  5
1DE
330
1DD
100
AcDbEntity
  8
BEMAßUNG
 62
     7
100
AcDbVertex
100
AcDb2dVertex
 10
14.74742024370898
 20
17.70606824644154
 30
0.0
  0
VERTEX
  5
1DF
330
1DD
100
AcDbEntity
  8
BEMAßUNG
 62
     7
100
AcDbVertex
100
AcDb2dVertex
 10
14.74742024370898
 20
18.6624267531469
 30
0.0
  0
SEQEND
  5
1E0
330
1DD
100
AcDbEntity
  8
BEMAßUNG
  0
POLYLINE
  5
1E1
330
1F
100
AcDbEntity
  8
BEMAßUNG
 62
     7
100
AcDb2dPolyline
 66
     1
 10
0.0
 20
0.0
 30
0.0
  0
VERTEX
  5
1E2
330
1E1
100
AcDbEntity
  8
BEMAßUNG
 62
     7
100
AcDbVertex
100
AcDb2dVertex
 10
14.79806314734215
 20
17.70606824644154
 30
0.0
  0
VERTEX
  5
1E3
330
1E1
100
AcDbEntity
  8
BEMAßUNG
 62
     7
100
AcDbVertex
100
AcDb2dVertex
 10
14.79806314734215
 20
19.0486219570434
 30
0.0
  0
SEQEND
  5
1E4
330
1E1
100
AcDbEntity
  8
BEMAßUNG
  0
POLYLINE
  5
1E5
330
1F
100
AcDbEntity
  8
BEMAßUNG
 62
     7
100
AcDb2dPolyline
 66
     1
 10
0.0
 20
0.0
 30
0.0
  0
VERTEX
  5
1E6
330
1E5
100
AcDbEntity
  8
BEMAßUNG
 62
     7
100
AcDbVertex
100
AcDb2dVertex
 10
14.84905056052385
 20
17.70606824644154
 30
0.0
  0
VERTEX
  5
1E7
330
1E5
100
AcDbEntity
  8
BEMAßUNG
 62
     7
100
AcDbVertex
100
AcDb2dVertex
 10
14.84905056052385
 20
19.43447265139138
 30
0.0
  0
SEQEND
  5
1E8
330
1E5
100
AcDbEntity
  8
BEMAßUNG
  0
POLYLINE
  5
1E9
330
1F
100
AcDbEntity
  8
BEMAßUNG
 62
     7
100
AcDb2dPolyline
 66
     1
 10
0.0
 20
0.0
 30
0.0
  0
VERTEX
  5
1EA
330
1E9
100
AcDbEntity
  8
BEMAßUNG
 62
     7
100
AcDbVertex
100
AcDb2dVertex
 10
14.89969346415702
 20
17.70606824644154
 30
0.0
  0
VERTEX
  5
1EB
330
1E9
100
AcDbEntity
  8
BEMAßUNG
 62
     7
100
AcDbVertex
100
AcDb2dVertex
 10
14.89969346415702
 20
19.82032334573936
 30
0.0
  0
SEQEND
  5
1EC
330
1E9
100
AcDbEntity
  8
BEMAßUNG
  0
POLYLINE
  5
1ED
330
1F
100
AcDbEntity
  8
BEMAßUNG
 62
     7
100
AcDb2dPolyline
 66
     1
 10
0.0
 20
0.0
 30
0.0
  0
VERTEX
  5
1EE
330
1ED
100
AcDbEntity
  8
BEMAßUNG
 62
     7
100
AcDbVertex
100
AcDb2dVertex
 10
14.95033636779019
 20
17.70606824644154
 30
0.0
  0
VERTEX
  5
1EF
330
1ED
100
AcDbEntity
  8
BEMAßUNG
 62
     7
100
AcDbVertex
100
AcDb2dVertex
 10
14.95033636779019
 20
20.20582953053882
 30
0.0
  0
SEQEND
  5
1F0
330
1ED
100
AcDbEntity
  8
BEMAßUNG
  0
POLYLINE
  5
1F1
330
1F
100
AcDbEntity
  8
BEMAßUNG
 62
     7
100
AcDb2dPolyline
 66
     1
 10
0.0
 20
0.0
 30
0.0
  0
VERTEX
  5
1F2
330
1F1
100
AcDbEntity
  8
BEMAßUNG
 62
     7
100
AcDbVertex
100
AcDb2dVertex
 10
15.25488280868628
 20
17.70606824644154
 30
0.0
  0
VERTEX
  5
1F3
330
1F1
100
AcDbEntity
  8
BEMAßUNG
 62
     7
100
AcDbVertex
100
AcDb2dVertex
 10
15.25488280868628
 20
17.89106987399946
 30
0.0
  0
SEQEND
  5
1F4
330
1F1
100
AcDbEntity
  8
BEMAßUNG
  0
POLYLINE
  5
1F5
330
1F
100
AcDbEntity
  8
BEMAßUNG
 62
     7
100
AcDb2dPolyline
 66
     1
 10
0.0
 20
0.0
 30
0.0
  0
VERTEX
  5
1F6
330
1F5
100
AcDbEntity
  8
BEMAßUNG
 62
     7
100
AcDbVertex
100
AcDb2dVertex
 10
15.25488280868628
 20
17.70606824644154
 30
0.0
  0
VERTEX
  5
1F7
330
1F5
100
AcDbEntity
  8
BEMAßUNG
 62
     7
100
AcDbVertex
100
AcDb2dVertex
 10
15.25488280868628
 20
17.89106987399946
 30
0.0
  0
SEQEND
  5
1F8
330
1F5
100
AcDbEntity
  8
BEMAßUNG
  0
POLYLINE
  5
1F9
330
1F
100
AcDbEntity
  8
BEMAßUNG
 62
     7
100
AcDb2dPolyline
 66
     1
 10
0.0
 20
0.0
 30
0.0
  0
VERTEX
  5
1FA
330
1F9
100
AcDbEntity
  8
BEMAßUNG
 62
     7
100
AcDbVertex
100
AcDb2dVertex
 10
15.20423990505311
 20
17.70606824644154
 30
0.0
  0
VERTEX
  5
1FB
330
1F9
100
AcDbEntity
  8
BEMAßUNG
 62
     7
100
AcDbVertex
100
AcDb2dVertex
 10
15.20423990505311
 20
18.27692056834744
 30
0.0
  0
SEQEND
  5
1FC
330
1F9
100
AcDbEntity
  8
BEMAßUNG
  0
POLYLINE
  5
1FD
330
1F
100
AcDbEntity
  8
BEMAßUNG
 62
     7
100
AcDb2dPolyline
 66
     1
 10
0.0
 20
0.0
 30
0.0
  0
VERTEX
  5
1FE
330
1FD
100
AcDbEntity
  8
BEMAßUNG
 62
     7
100
AcDbVertex
100
AcDb2dVertex
 10
15.15325249187141
 20
17.70606824644154
 30
0.0
  0
VERTEX
  5
1FF
330
1FD
100
AcDbEntity
  8
BEMAßUNG
 62
     7
100
AcDbVertex
100
AcDb2dVertex
 10
15.15325249187141
 20
18.6624267531469
 30
0.0
  0
SEQEND
  5
200
330
1FD
100
AcDbEntity
  8
BEMAßUNG
  0
POLYLINE
  5
201
330
1F
100
AcDbEntity
  8
BEMAßUNG
 62
     7
100
AcDb2dPolyline
 66
     1
 10
0.0
 20
0.0
 30
0.0
  0
VERTEX
  5
202
330
201
100
AcDbEntity
  8
BEMAßUNG
 62
     7
100
AcDbVertex
100
AcDb2dVertex
 10
15.10260958823824
 20
17.70606824644154
 30
0.0
  0
VERTEX
  5
203
330
201
100
AcDbEntity
  8
BEMAßUNG
 62
     7
100
AcDbVertex
100
AcDb2dVertex
 10
15.10260958823824
 20
19.0486219570434
 30
0.0
  0
SEQEND
  5
204
330
201
100
AcDbEntity
  8
BEMAßUNG
  0
POLYLINE
  5
205
330
1F
100
AcDbEntity
  8
BEMAßUNG
 62
     7
100
AcDb2dPolyline
 66
     1
 10
0.0
 20
0.0
 30
0.0
  0
VERTEX
  5
206
330
205
100
AcDbEntity
  8
BEMAßUNG
 62
     7
100
AcDbVertex
100
AcDb2dVertex
 10
15.05196668460506
 20
17.70606824644154
 30
0.0
  0
VERTEX
  5
207
330
205
100
AcDbEntity
  8
BEMAßUNG
 62
     7
100
AcDbVertex
100
AcDb2dVertex
 10
15.05196668460506
 20
19.43447265139138
 30
0.0
  0
SEQEND
  5
208
330
205
100
AcDbEntity
  8
BEMAßUNG
  0
POLYLINE
  5
209
330
1F
100
AcDbEntity
  8
BEMAßUNG
 62
     7
100
AcDb2dPolyline
 66
     1
 10
0.0
 20
0.0
 30
0.0
  0
VERTEX
  5
20A
330
209
100
AcDbEntity
  8
BEMAßUNG
 62
     7
100
AcDbVertex
100
AcDb2dVertex
 10
15.00132378097189
 20
17.70606824644154
 30
0.0
  0
VERTEX
  5
20B
330
209
100
AcDbEntity
  8
BEMAßUNG
 62
     7
100
AcDbVertex
100
AcDb2dVertex
 10
15.00132378097189
 20
19.82032334573936
 30
0.0
  0
SEQEND
  5
20C
330
209
100
AcDbEntity
  8
BEMAßUNG
  0
POLYLINE
  5
20D
330
1F
100
AcDbEntity
  8
BEMAßUNG
 62
     7
100
AcDb2dPolyline
 66
     1
 10
0.0
 20
0.0
 30
0.0
  0
VERTEX
  5
20E
330
20D
100
AcDbEntity
  8
BEMAßUNG
 62
     7
100
AcDbVertex
100
AcDb2dVertex
 10
14.95033636779019
 20
17.70606824644154
 30
0.0
  0
VERTEX
  5
20F
330
20D
100
AcDbEntity
  8
BEMAßUNG
 62
     7
100
AcDbVertex
100
AcDb2dVertex
 10
14.95033636779019
 20
20.20582953053882
 30
0.0
  0
SEQEND
  5
210
330
20D
100
AcDbEntity
  8
BEMAßUNG
  0
POLYLINE
  5
211
330
1F
100
AcDbEntity
  8
BEMAßUNG
 62
     7
100
AcDb2dPolyline
 66
     1
 10
0.0
 20
0.0
 30
0.0
  0
VERTEX
  5
212
330
211
100
AcDbEntity
  8
BEMAßUNG
 62
     7
100
AcDbVertex
100
AcDb2dVertex
 10
14.95033636779019
 20
0.2060167100179403
 30
0.0
  0
VERTEX
  5
213
330
211
100
AcDbEntity
  8
BEMAßUNG
 62
     7
100
AcDbVertex
100
AcDb2dVertex
 10
15.27934298663155
 20
2.706122503663747
 30
0.0
  0
VERTEX
  5
214
330
211
100
AcDbEntity
  8
BEMAßUNG
 62
     7
100
AcDbVertex
100
AcDb2dVertex
 10
14.62167425849736
 20
2.706122503663747
 30
0.0
  0
VERTEX
  5
215
330
211
100
AcDbEntity
  8
BEMAßUNG
 62
     7
100
AcDbVertex
100
AcDb2dVertex
 10
14.95033636779019
 20
0.2060167100179403
 30
0.0
  0
SEQEND
  5
216
330
211
100
AcDbEntity
  8
BEMAßUNG
  0
POLYLINE
  5
217
330
1F
100
AcDbEntity
  8
BEMAßUNG
 62
     7
100
AcDb2dPolyline
 66
     1
 10
0.0
 20
0.0
 30
0.0
  0
VERTEX
  5
218
330
217
100
AcDbEntity
  8
BEMAßUNG
 62
     7
100
AcDbVertex
100
AcDb2dVertex
 10
15.25488280868628
 20
2.706122503663747
 30
0.0
  0
VERTEX
  5
219
330
217
100
AcDbEntity
  8
BEMAßUNG
 62
     7
100
AcDbVertex
100
AcDb2dVertex
 10
15.25488280868628
 20
2.520776366557306
 30
0.0
  0
SEQEND
  5
21A
330
217
100
AcDbEntity
  8
BEMAßUNG
  0
POLYLINE
  5
21B
330
1F
100
AcDbEntity
  8
BEMAßUNG
 62
     7
100
AcDb2dPolyline
 66
     1
 10
0.0
 20
0.0
 30
0.0
  0
VERTEX
  5
21C
330
21B
100
AcDbEntity
  8
BEMAßUNG
 62
     7
100
AcDbVertex
100
AcDb2dVertex
 10
15.25488280868628
 20
2.706122503663747
 30
0.0
  0
VERTEX
  5
21D
330
21B
100
AcDbEntity
  8
BEMAßUNG
 62
     7
100
AcDbVertex
100
AcDb2dVertex
 10
15.25488280868628
 20
2.520776366557306
 30
0.0
  0
SEQEND
  5
21E
330
21B
100
AcDbEntity
  8
BEMAßUNG
  0
POLYLINE
  5
21F
330
1F
100
AcDbEntity
  8
BEMAßUNG
 62
     7
100
AcDb2dPolyline
 66
     1
 10
0.0
 20
0.0
 30
0.0
  0
VERTEX
  5
220
330
21F
100
AcDbEntity
  8
BEMAßUNG
 62
     7
100
AcDbVertex
100
AcDb2dVertex
 10
15.20423990505311
 20
2.706122503663747
 30
0.0
  0
VERTEX
  5
221
330
21F
100
AcDbEntity
  8
BEMAßUNG
 62
     7
100
AcDbVertex
100
AcDb2dVertex
 10
15.20423990505311
 20
2.135614691306374
 30
0.0
  0
SEQEND
  5
222
330
21F
100
AcDbEntity
  8
BEMAßUNG
  0
POLYLINE
  5
223
330
1F
100
AcDbEntity
  8
BEMAßUNG
 62
     7
100
AcDb2dPolyline
 66
     1
 10
0.0
 20
0.0
 30
0.0
  0
VERTEX
  5
224
330
223
100
AcDbEntity
  8
BEMAßUNG
 62
     7
100
AcDbVertex
100
AcDb2dVertex
 10
15.15325249187141
 20
2.706122503663747
 30
0.0
  0
VERTEX
  5
225
330
223
100
AcDbEntity
  8
BEMAßUNG
 62
     7
100
AcDbVertex
100
AcDb2dVertex
 10
15.15325249187141
 20
1.749419487409867
 30
0.0
  0
SEQEND
  5
226
330
223
100
AcDbEntity
  8
BEMAßUNG
  0
POLYLINE
  5
227
330
1F
100
AcDbEntity
  8
BEMAßUNG
 62
     7
100
AcDb2dPolyline
 66
     1
 10
0.0
 20
0.0
 30
0.0
  0
VERTEX
  5
228
330
227
100
AcDbEntity
  8
BEMAßUNG
 62
     7
100
AcDbVertex
100
AcDb2dVertex
 10
15.10260958823824
 20
2.706122503663747
 30
0.0
  0
VERTEX
  5
229
330
227
100
AcDbEntity
  8
BEMAßUNG
 62
     7
100
AcDbVertex
100
AcDb2dVertex
 10
15.10260958823824
 20
1.363913302610411
 30
0.0
  0
SEQEND
  5
22A
330
227
100
AcDbEntity
  8
BEMAßUNG
  0
POLYLINE
  5
22B
330
1F
100
AcDbEntity
  8
BEMAßUNG
 62
     7
100
AcDb2dPolyline
 66
     1
 10
0.0
 20
0.0
 30
0.0
  0
VERTEX
  5
22C
330
22B
100
AcDbEntity
  8
BEMAßUNG
 62
     7
100
AcDbVertex
100
AcDb2dVertex
 10
15.05196668460506
 20
2.706122503663747
 30
0.0
  0
VERTEX
  5
22D
330
22B
100
AcDbEntity
  8
BEMAßUNG
 62
     7
100
AcDbVertex
100
AcDb2dVertex
 10
15.05196668460506
 20
0.9777180987139038
 30
0.0
  0
SEQEND
  5
22E
330
22B
100
AcDbEntity
  8
BEMAßUNG
  0
POLYLINE
  5
22F
330
1F
100
AcDbEntity
  8
BEMAßUNG
 62
     7
100
AcDb2dPolyline
 66
     1
 10
0.0
 20
0.0
 30
0.0
  0
VERTEX
  5
230
330
22F
100
AcDbEntity
  8
BEMAßUNG
 62
     7
100
AcDbVertex
100
AcDb2dVertex
 10
15.00132378097189
 20
2.706122503663747
 30
0.0
  0
VERTEX
  5
231
330
22F
100
AcDbEntity
  8
BEMAßUNG
 62
     7
100
AcDbVertex
100
AcDb2dVertex
 10
15.00132378097189
 20
0.5918674043659221
 30
0.0
  0
SEQEND
  5
232
330
22F
100
AcDbEntity
  8
BEMAßUNG
  0
POLYLINE
  5
233
330
1F
100
AcDbEntity
  8
BEMAßUNG
 62
     7
100
AcDb2dPolyline
 66
     1
 10
0.0
 20
0.0
 30
0.0
  0
VERTEX
  5
234
330
233
100
AcDbEntity
  8
BEMAßUNG
 62
     7
100
AcDbVertex
100
AcDb2dVertex
 10
14.95033636779019
 20
2.706122503663747
 30
0.0
  0
VERTEX
  5
235
330
233
100
AcDbEntity
  8
BEMAßUNG
 62
     7
100
AcDbVertex
100
AcDb2dVertex
 10
14.95033636779019
 20
0.2060167100179403
 30
0.0
  0
SEQEND
  5
236
330
233
100
AcDbEntity
  8
BEMAßUNG
  0
POLYLINE
  5
237
330
1F
100
AcDbEntity
  8
BEMAßUNG
 62
     7
100
AcDb2dPolyline
 66
     1
 10
0.0
 20
0.0
 30
0.0
  0
VERTEX
  5
238
330
237
100
AcDbEntity
  8
BEMAßUNG
 62
     7
100
AcDbVertex
100
AcDb2dVertex
 10
14.64544541734558
 20
2.706122503663747
 30
0.0
  0
VERTEX
  5
239
330
237
100
AcDbEntity
  8
BEMAßUNG
 62
     7
100
AcDbVertex
100
AcDb2dVertex
 10
14.64544541734558
 20
2.520776366557306
 30
0.0
  0
SEQEND
  5
23A
330
237
100
AcDbEntity
  8
BEMAßUNG
  0
POLYLINE
  5
23B
330
1F
100
AcDbEntity
  8
BEMAßUNG
 62
     7
100
AcDb2dPolyline
 66
     1
 10
0.0
 20
0.0
 30
0.0
  0
VERTEX
  5
23C
330
23B
100
AcDbEntity
  8
BEMAßUNG
 62
     7
100
AcDbVertex
100
AcDb2dVertex
 10
14.64544541734558
 20
2.706122503663747
 30
0.0
  0
VERTEX
  5
23D
330
23B
100
AcDbEntity
  8
BEMAßUNG
 62
     7
100
AcDbVertex
100
AcDb2dVertex
 10
14.64544541734558
 20
2.520776366557306
 30
0.0
  0
SEQEND
  5
23E
330
23B
100
AcDbEntity
  8
BEMAßUNG
  0
POLYLINE
  5
23F
330
1F
100
AcDbEntity
  8
BEMAßUNG
 62
     7
100
AcDb2dPolyline
 66
     1
 10
0.0
 20
0.0
 30
0.0
  0
VERTEX
  5
240
330
23F
100
AcDbEntity
  8
BEMAßUNG
 62
     7
100
AcDbVertex
100
AcDb2dVertex
 10
14.69608832097876
 20
2.706122503663747
 30
0.0
  0
VERTEX
  5
241
330
23F
100
AcDbEntity
  8
BEMAßUNG
 62
     7
100
AcDbVertex
100
AcDb2dVertex
 10
14.69608832097876
 20
2.135614691306374
 30
0.0
  0
SEQEND
  5
242
330
23F
100
AcDbEntity
  8
BEMAßUNG
  0
POLYLINE
  5
243
330
1F
100
AcDbEntity
  8
BEMAßUNG
 62
     7
100
AcDb2dPolyline
 66
     1
 10
0.0
 20
0.0
 30
0.0
  0
VERTEX
  5
244
330
243
100
AcDbEntity
  8
BEMAßUNG
 62
     7
100
AcDbVertex
100
AcDb2dVertex
 10
14.74742024370898
 20
2.706122503663747
 30
0.0
  0
VERTEX
  5
245
330
243
100
AcDbEntity
  8
BEMAßUNG
 62
     7
100
AcDbVertex
100
AcDb2dVertex
 10
14.74742024370898
 20
1.749419487409867
 30
0.0
  0
SEQEND
  5
246
330
243
100
AcDbEntity
  8
BEMAßUNG
  0
POLYLINE
  5
247
330
1F
100
AcDbEntity
  8
BEMAßUNG
 62
     7
100
AcDb2dPolyline
 66
     1
 10
0.0
 20
0.0
 30
0.0
  0
VERTEX
  5
248
330
247
100
AcDbEntity
  8
BEMAßUNG
 62
     7
100
AcDbVertex
100
AcDb2dVertex
 10
14.79806314734215
 20
2.706122503663747
 30
0.0
  0
VERTEX
  5
249
330
247
100
AcDbEntity
  8
BEMAßUNG
 62
     7
100
AcDbVertex
100
AcDb2dVertex
 10
14.79806314734215
 20
1.363913302610411
 30
0.0
  0
SEQEND
  5
24A
330
247
100
AcDbEntity
  8
BEMAßUNG
  0
POLYLINE
  5
24B
330
1F
100
AcDbEntity
  8
BEMAßUNG
 62
     7
100
AcDb2dPolyline
 66
     1
 10
0.0
 20
0.0
 30
0.0
  0
VERTEX
  5
24C
330
24B
100
AcDbEntity
  8
BEMAßUNG
 62
     7
100
AcDbVertex
100
AcDb2dVertex
 10
14.84905056052385
 20
2.706122503663747
 30
0.0
  0
VERTEX
  5
24D
330
24B
100
AcDbEntity
  8
BEMAßUNG
 62
     7
100
AcDbVertex
100
AcDb2dVertex
 10
14.84905056052385
 20
0.9777180987139038
 30
0.0
  0
SEQEND
  5
24E
330
24B
100
AcDbEntity
  8
BEMAßUNG
  0
POLYLINE
  5
24F
330
1F
100
AcDbEntity
  8
BEMAßUNG
 62
     7
100
AcDb2dPolyline
 66
     1
 10
0.0
 20
0.0
 30
0.0
  0
VERTEX
  5
250
330
24F
100
AcDbEntity
  8
BEMAßUNG
 62
     7
100
AcDbVertex
100
AcDb2dVertex
 10
14.89969346415702
 20
2.706122503663747
 30
0.0
  0
VERTEX
  5
251
330
24F
100
AcDbEntity
  8
BEMAßUNG
 62
     7
100
AcDbVertex
100
AcDb2dVertex
 10
14.89969346415702
 20
0.5918674043659221
 30
0.0
  0
SEQEND
  5
252
330
24F
100
AcDbEntity
  8
BEMAßUNG
  0
POLYLINE
  5
253
330
1F
100
AcDbEntity
  8
BEMAßUNG
 62
     7
100
AcDb2dPolyline
 66
     1
 10
0.0
 20
0.0
 30
0.0
  0
VERTEX
  5
254
330
253
100
AcDbEntity
  8
BEMAßUNG
 62
     7
100
AcDbVertex
100
AcDb2dVertex
 10
14.95033636779019
 20
2.706122503663747
 30
0.0
  0
VERTEX
  5
255
330
253
100
AcDbEntity
  8
BEMAßUNG
 62
     7
100
AcDbVertex
100
AcDb2dVertex
 10
14.95033636779019
 20
0.2060167100179403
 30
0.0
  0
SEQEND
  5
256
330
253
100
AcDbEntity
  8
BEMAßUNG
  0
POLYLINE
  5
257
330
1F
100
AcDbEntity
  8
BEMAßUNG
 62
     7
100
AcDb2dPolyline
 66
     1
 10
0.0
 20
0.0
 30
0.0
  0
VERTEX
  5
258
330
257
100
AcDbEntity
  8
BEMAßUNG
 62
     7
100
AcDbVertex
100
AcDb2dVertex
 10
-29.1217366463654
 20
0.7059000649276916
 30
0.0
  0
VERTEX
  5
259
330
257
100
AcDbEntity
  8
BEMAßUNG
 62
     7
100
AcDbVertex
100
AcDb2dVertex
 10
-29.1217366463654
 20
-12.25902777471302
 30
0.0
  0
SEQEND
  5
25A
330
257
100
AcDbEntity
  8
BEMAßUNG
  0
POLYLINE
  5
25B
330
1F
100
AcDbEntity
  8
BEMAßUNG
 62
     7
100
AcDb2dPolyline
 66
     1
 10
0.0
 20
0.0
 30
0.0
  0
VERTEX
  5
25C
330
25B
100
AcDbEntity
  8
BEMAßUNG
 62
     7
100
AcDbVertex
100
AcDb2dVertex
 10
-0.1223008897263692
 20
0.7059000649276916
 30
0.0
  0
VERTEX
  5
25D
330
25B
100
AcDbEntity
  8
BEMAßUNG
 62
     7
100
AcDbVertex
100
AcDb2dVertex
 10
-0.1223008897263692
 20
-12.25902777471302
 30
0.0
  0
SEQEND
  5
25E
330
25B
100
AcDbEntity
  8
BEMAßUNG
  0
POLYLINE
  5
25F
330
1F
100
AcDbEntity
  8
BEMAßUNG
 62
     7
100
AcDb2dPolyline
 66
     1
 10
0.0
 20
0.0
 30
0.0
  0
VERTEX
  5
260
330
25F
100
AcDbEntity
  8
BEMAßUNG
 62
     7
100
AcDbVertex
100
AcDb2dVertex
 10
-29.1217366463654
 20
-10.25949435507402
 30
0.0
  0
VERTEX
  5
261
330
25F
100
AcDbEntity
  8
BEMAßUNG
 62
     7
100
AcDbVertex
100
AcDb2dVertex
 10
-0.1223008897263692
 20
-10.25949435507402
 30
0.0
  0
SEQEND
  5
262
330
25F
100
AcDbEntity
  8
BEMAßUNG
  0
POLYLINE
  5
263
330
1F
100
AcDbEntity
  8
BEMAßUNG
 62
     7
100
AcDb2dPolyline
 66
     1
 10
0.0
 20
0.0
 30
0.0
  0
VERTEX
  5
264
330
263
100
AcDbEntity
  8
BEMAßUNG
 62
     7
100
AcDbVertex
100
AcDb2dVertex
 10
-29.1217366463654
 20
-10.25949435507402
 30
0.0
  0
VERTEX
  5
265
330
263
100
AcDbEntity
  8
BEMAßUNG
 62
     7
100
AcDbVertex
100
AcDb2dVertex
 10
-26.62197536226812
 20
-10.58815646436685
 30
0.0
  0
VERTEX
  5
266
330
263
100
AcDbEntity
  8
BEMAßUNG
 62
     7
100
AcDbVertex
100
AcDb2dVertex
 10
-26.62197536226812
 20
-9.930143226684132
 30
0.0
  0
VERTEX
  5
267
330
263
100
AcDbEntity
  8
BEMAßUNG
 62
     7
100
AcDbVertex
100
AcDb2dVertex
 10
-29.1217366463654
 20
-10.25949435507402
 30
0.0
  0
SEQEND
  5
268
330
263
100
AcDbEntity
  8
BEMAßUNG
  0
POLYLINE
  5
269
330
1F
100
AcDbEntity
  8
BEMAßUNG
 62
     7
100
AcDb2dPolyline
 66
     1
 10
0.0
 20
0.0
 30
0.0
  0
VERTEX
  5
26A
330
269
100
AcDbEntity
  8
BEMAßUNG
 62
     7
100
AcDbVertex
100
AcDb2dVertex
 10
-26.62197536226812
 20
-10.5640407959701
 30
0.0
  0
VERTEX
  5
26B
330
269
100
AcDbEntity
  8
BEMAßUNG
 62
     7
100
AcDbVertex
100
AcDb2dVertex
 10
-26.80697698982603
 20
-10.5640407959701
 30
0.0
  0
SEQEND
  5
26C
330
269
100
AcDbEntity
  8
BEMAßUNG
  0
POLYLINE
  5
26D
330
1F
100
AcDbEntity
  8
BEMAßUNG
 62
     7
100
AcDb2dPolyline
 66
     1
 10
0.0
 20
0.0
 30
0.0
  0
VERTEX
  5
26E
330
26D
100
AcDbEntity
  8
BEMAßUNG
 62
     7
100
AcDbVertex
100
AcDb2dVertex
 10
-26.62197536226812
 20
-10.5640407959701
 30
0.0
  0
VERTEX
  5
26F
330
26D
100
AcDbEntity
  8
BEMAßUNG
 62
     7
100
AcDbVertex
100
AcDb2dVertex
 10
-26.80697698982603
 20
-10.5640407959701
 30
0.0
  0
SEQEND
  5
270
330
26D
100
AcDbEntity
  8
BEMAßUNG
  0
POLYLINE
  5
271
330
1F
100
AcDbEntity
  8
BEMAßUNG
 62
     7
100
AcDb2dPolyline
 66
     1
 10
0.0
 20
0.0
 30
0.0
  0
VERTEX
  5
272
330
271
100
AcDbEntity
  8
BEMAßUNG
 62
     7
100
AcDbVertex
100
AcDb2dVertex
 10
-26.62197536226812
 20
-10.51339789233693
 30
0.0
  0
VERTEX
  5
273
330
271
100
AcDbEntity
  8
BEMAßUNG
 62
     7
100
AcDbVertex
100
AcDb2dVertex
 10
-27.19282768417402
 20
-10.51339789233693
 30
0.0
  0
SEQEND
  5
274
330
271
100
AcDbEntity
  8
BEMAßUNG
  0
POLYLINE
  5
275
330
1F
100
AcDbEntity
  8
BEMAßUNG
 62
     7
100
AcDb2dPolyline
 66
     1
 10
0.0
 20
0.0
 30
0.0
  0
VERTEX
  5
276
330
275
100
AcDbEntity
  8
BEMAßUNG
 62
     7
100
AcDbVertex
100
AcDb2dVertex
 10
-26.62197536226812
 20
-10.46309949825228
 30
0.0
  0
VERTEX
  5
277
330
275
100
AcDbEntity
  8
BEMAßUNG
 62
     7
100
AcDbVertex
100
AcDb2dVertex
 10
-27.57833386897347
 20
-10.46309949825228
 30
0.0
  0
SEQEND
  5
278
330
275
100
AcDbEntity
  8
BEMAßUNG
  0
POLYLINE
  5
279
330
1F
100
AcDbEntity
  8
BEMAßUNG
 62
     7
100
AcDb2dPolyline
 66
     1
 10
0.0
 20
0.0
 30
0.0
  0
VERTEX
  5
27A
330
279
100
AcDbEntity
  8
BEMAßUNG
 62
     7
100
AcDbVertex
100
AcDb2dVertex
 10
-26.62197536226812
 20
-10.41245659461911
 30
0.0
  0
VERTEX
  5
27B
330
279
100
AcDbEntity
  8
BEMAßUNG
 62
     7
100
AcDbVertex
100
AcDb2dVertex
 10
-27.96452907286998
 20
-10.41245659461911
 30
0.0
  0
SEQEND
  5
27C
330
279
100
AcDbEntity
  8
BEMAßUNG
  0
POLYLINE
  5
27D
330
1F
100
AcDbEntity
  8
BEMAßUNG
 62
     7
100
AcDb2dPolyline
 66
     1
 10
0.0
 20
0.0
 30
0.0
  0
VERTEX
  5
27E
330
27D
100
AcDbEntity
  8
BEMAßUNG
 62
     7
100
AcDbVertex
100
AcDb2dVertex
 10
-26.62197536226812
 20
-10.36112467188889
 30
0.0
  0
VERTEX
  5
27F
330
27D
100
AcDbEntity
  8
BEMAßUNG
 62
     7
100
AcDbVertex
100
AcDb2dVertex
 10
-28.35037976721796
 20
-10.36112467188889
 30
0.0
  0
SEQEND
  5
280
330
27D
100
AcDbEntity
  8
BEMAßUNG
  0
POLYLINE
  5
281
330
1F
100
AcDbEntity
  8
BEMAßUNG
 62
     7
100
AcDb2dPolyline
 66
     1
 10
0.0
 20
0.0
 30
0.0
  0
VERTEX
  5
282
330
281
100
AcDbEntity
  8
BEMAßUNG
 62
     7
100
AcDbVertex
100
AcDb2dVertex
 10
-26.62197536226812
 20
-10.31013725870719
 30
0.0
  0
VERTEX
  5
283
330
281
100
AcDbEntity
  8
BEMAßUNG
 62
     7
100
AcDbVertex
100
AcDb2dVertex
 10
-28.73623046156595
 20
-10.31013725870719
 30
0.0
  0
SEQEND
  5
284
330
281
100
AcDbEntity
  8
BEMAßUNG
  0
POLYLINE
  5
285
330
1F
100
AcDbEntity
  8
BEMAßUNG
 62
     7
100
AcDb2dPolyline
 66
     1
 10
0.0
 20
0.0
 30
0.0
  0
VERTEX
  5
286
330
285
100
AcDbEntity
  8
BEMAßUNG
 62
     7
100
AcDbVertex
100
AcDb2dVertex
 10
-26.62197536226812
 20
-10.25949435507402
 30
0.0
  0
VERTEX
  5
287
330
285
100
AcDbEntity
  8
BEMAßUNG
 62
     7
100
AcDbVertex
100
AcDb2dVertex
 10
-29.1217366463654
 20
-10.25949435507402
 30
0.0
  0
SEQEND
  5
288
330
285
100
AcDbEntity
  8
BEMAßUNG
  0
POLYLINE
  5
289
330
1F
100
AcDbEntity
  8
BEMAßUNG
 62
     7
100
AcDb2dPolyline
 66
     1
 10
0.0
 20
0.0
 30
0.0
  0
VERTEX
  5
28A
330
289
100
AcDbEntity
  8
BEMAßUNG
 62
     7
100
AcDbVertex
100
AcDb2dVertex
 10
-26.62197536226812
 20
-9.95425889508088
 30
0.0
  0
VERTEX
  5
28B
330
289
100
AcDbEntity
  8
BEMAßUNG
 62
     7
100
AcDbVertex
100
AcDb2dVertex
 10
-26.80697698982603
 20
-9.95425889508088
 30
0.0
  0
SEQEND
  5
28C
330
289
100
AcDbEntity
  8
BEMAßUNG
  0
POLYLINE
  5
28D
330
1F
100
AcDbEntity
  8
BEMAßUNG
 62
     7
100
AcDb2dPolyline
 66
     1
 10
0.0
 20
0.0
 30
0.0
  0
VERTEX
  5
28E
330
28D
100
AcDbEntity
  8
BEMAßUNG
 62
     7
100
AcDbVertex
100
AcDb2dVertex
 10
-26.62197536226812
 20
-9.95425889508088
 30
0.0
  0
VERTEX
  5
28F
330
28D
100
AcDbEntity
  8
BEMAßUNG
 62
     7
100
AcDbVertex
100
AcDb2dVertex
 10
-26.80697698982603
 20
-9.95425889508088
 30
0.0
  0
SEQEND
  5
290
330
28D
100
AcDbEntity
  8
BEMAßUNG
  0
POLYLINE
  5
291
330
1F
100
AcDbEntity
  8
BEMAßUNG
 62
     7
100
AcDb2dPolyline
 66
     1
 10
0.0
 20
0.0
 30
0.0
  0
VERTEX
  5
292
330
291
100
AcDbEntity
  8
BEMAßUNG
 62
     7
100
AcDbVertex
100
AcDb2dVertex
 10
-26.62197536226812
 20
-10.00524630826258
 30
0.0
  0
VERTEX
  5
293
330
291
100
AcDbEntity
  8
BEMAßUNG
 62
     7
100
AcDbVertex
100
AcDb2dVertex
 10
-27.19282768417402
 20
-10.00524630826258
 30
0.0
  0
SEQEND
  5
294
330
291
100
AcDbEntity
  8
BEMAßUNG
  0
POLYLINE
  5
295
330
1F
100
AcDbEntity
  8
BEMAßUNG
 62
     7
100
AcDb2dPolyline
 66
     1
 10
0.0
 20
0.0
 30
0.0
  0
VERTEX
  5
296
330
295
100
AcDbEntity
  8
BEMAßUNG
 62
     7
100
AcDbVertex
100
AcDb2dVertex
 10
-26.62197536226812
 20
-10.05588921189575
 30
0.0
  0
VERTEX
  5
297
330
295
100
AcDbEntity
  8
BEMAßUNG
 62
     7
100
AcDbVertex
100
AcDb2dVertex
 10
-27.57833386897347
 20
-10.05588921189575
 30
0.0
  0
SEQEND
  5
298
330
295
100
AcDbEntity
  8
BEMAßUNG
  0
POLYLINE
  5
299
330
1F
100
AcDbEntity
  8
BEMAßUNG
 62
     7
100
AcDb2dPolyline
 66
     1
 10
0.0
 20
0.0
 30
0.0
  0
VERTEX
  5
29A
330
299
100
AcDbEntity
  8
BEMAßUNG
 62
     7
100
AcDbVertex
100
AcDb2dVertex
 10
-26.62197536226812
 20
-10.10687662507745
 30
0.0
  0
VERTEX
  5
29B
330
299
100
AcDbEntity
  8
BEMAßUNG
 62
     7
100
AcDbVertex
100
AcDb2dVertex
 10
-27.96452907286998
 20
-10.10687662507745
 30
0.0
  0
SEQEND
  5
29C
330
299
100
AcDbEntity
  8
BEMAßUNG
  0
POLYLINE
  5
29D
330
1F
100
AcDbEntity
  8
BEMAßUNG
 62
     7
100
AcDb2dPolyline
 66
     1
 10
0.0
 20
0.0
 30
0.0
  0
VERTEX
  5
29E
330
29D
100
AcDbEntity
  8
BEMAßUNG
 62
     7
100
AcDbVertex
100
AcDb2dVertex
 10
-26.62197536226812
 20
-10.15751952871062
 30
0.0
  0
VERTEX
  5
29F
330
29D
100
AcDbEntity
  8
BEMAßUNG
 62
     7
100
AcDbVertex
100
AcDb2dVertex
 10
-28.35037976721796
 20
-10.15751952871062
 30
0.0
  0
SEQEND
  5
2A0
330
29D
100
AcDbEntity
  8
BEMAßUNG
  0
POLYLINE
  5
2A1
330
1F
100
AcDbEntity
  8
BEMAßUNG
 62
     7
100
AcDb2dPolyline
 66
     1
 10
0.0
 20
0.0
 30
0.0
  0
VERTEX
  5
2A2
330
2A1
100
AcDbEntity
  8
BEMAßUNG
 62
     7
100
AcDbVertex
100
AcDb2dVertex
 10
-26.62197536226812
 20
-10.20885145144084
 30
0.0
  0
VERTEX
  5
2A3
330
2A1
100
AcDbEntity
  8
BEMAßUNG
 62
     7
100
AcDbVertex
100
AcDb2dVertex
 10
-28.73623046156595
 20
-10.20885145144084
 30
0.0
  0
SEQEND
  5
2A4
330
2A1
100
AcDbEntity
  8
BEMAßUNG
  0
POLYLINE
  5
2A5
330
1F
100
AcDbEntity
  8
BEMAßUNG
 62
     7
100
AcDb2dPolyline
 66
     1
 10
0.0
 20
0.0
 30
0.0
  0
VERTEX
  5
2A6
330
2A5
100
AcDbEntity
  8
BEMAßUNG
 62
     7
100
AcDbVertex
100
AcDb2dVertex
 10
-26.62197536226812
 20
-10.25949435507402
 30
0.0
  0
VERTEX
  5
2A7
330
2A5
100
AcDbEntity
  8
BEMAßUNG
 62
     7
100
AcDbVertex
100
AcDb2dVertex
 10
-29.1217366463654
 20
-10.25949435507402
 30
0.0
  0
SEQEND
  5
2A8
330
2A5
100
AcDbEntity
  8
BEMAßUNG
  0
POLYLINE
  5
2A9
330
1F
100
AcDbEntity
  8
BEMAßUNG
 62
     7
100
AcDb2dPolyline
 66
     1
 10
0.0
 20
0.0
 30
0.0
  0
VERTEX
  5
2AA
330
2A9
100
AcDbEntity
  8
BEMAßUNG
 62
     7
100
AcDbVertex
100
AcDb2dVertex
 10
-0.1223008897263692
 20
-10.25949435507402
 30
0.0
  0
VERTEX
  5
2AB
330
2A9
100
AcDbEntity
  8
BEMAßUNG
 62
     7
100
AcDbVertex
100
AcDb2dVertex
 10
-2.622406683372176
 20
-9.930143226684132
 30
0.0
  0
VERTEX
  5
2AC
330
2A9
100
AcDbEntity
  8
BEMAßUNG
 62
     7
100
AcDbVertex
100
AcDb2dVertex
 10
-2.622406683372176
 20
-10.58815646436685
 30
0.0
  0
VERTEX
  5
2AD
330
2A9
100
AcDbEntity
  8
BEMAßUNG
 62
     7
100
AcDbVertex
100
AcDb2dVertex
 10
-0.1223008897263692
 20
-10.25949435507402
 30
0.0
  0
SEQEND
  5
2AE
330
2A9
100
AcDbEntity
  8
BEMAßUNG
  0
POLYLINE
  5
2AF
330
1F
100
AcDbEntity
  8
BEMAßUNG
 62
     7
100
AcDb2dPolyline
 66
     1
 10
0.0
 20
0.0
 30
0.0
  0
VERTEX
  5
2B0
330
2AF
100
AcDbEntity
  8
BEMAßUNG
 62
     7
100
AcDbVertex
100
AcDb2dVertex
 10
-2.622406683372176
 20
-9.95425889508088
 30
0.0
  0
VERTEX
  5
2B1
330
2AF
100
AcDbEntity
  8
BEMAßUNG
 62
     7
100
AcDbVertex
100
AcDb2dVertex
 10
-2.43740505581426
 20
-9.95425889508088
 30
0.0
  0
SEQEND
  5
2B2
330
2AF
100
AcDbEntity
  8
BEMAßUNG
  0
POLYLINE
  5
2B3
330
1F
100
AcDbEntity
  8
BEMAßUNG
 62
     7
100
AcDb2dPolyline
 66
     1
 10
0.0
 20
0.0
 30
0.0
  0
VERTEX
  5
2B4
330
2B3
100
AcDbEntity
  8
BEMAßUNG
 62
     7
100
AcDbVertex
100
AcDb2dVertex
 10
-2.622406683372176
 20
-9.95425889508088
 30
0.0
  0
VERTEX
  5
2B5
330
2B3
100
AcDbEntity
  8
BEMAßUNG
 62
     7
100
AcDbVertex
100
AcDb2dVertex
 10
-2.43740505581426
 20
-9.95425889508088
 30
0.0
  0
SEQEND
  5
2B6
330
2B3
100
AcDbEntity
  8
BEMAßUNG
  0
POLYLINE
  5
2B7
330
1F
100
AcDbEntity
  8
BEMAßUNG
 62
     7
100
AcDb2dPolyline
 66
     1
 10
0.0
 20
0.0
 30
0.0
  0
VERTEX
  5
2B8
330
2B7
100
AcDbEntity
  8
BEMAßUNG
 62
     7
100
AcDbVertex
100
AcDb2dVertex
 10
-2.622406683372176
 20
-10.00524630826258
 30
0.0
  0
VERTEX
  5
2B9
330
2B7
100
AcDbEntity
  8
BEMAßUNG
 62
     7
100
AcDbVertex
100
AcDb2dVertex
 10
-2.051554361466278
 20
-10.00524630826258
 30
0.0
  0
SEQEND
  5
2BA
330
2B7
100
AcDbEntity
  8
BEMAßUNG
  0
POLYLINE
  5
2BB
330
1F
100
AcDbEntity
  8
BEMAßUNG
 62
     7
100
AcDb2dPolyline
 66
     1
 10
0.0
 20
0.0
 30
0.0
  0
VERTEX
  5
2BC
330
2BB
100
AcDbEntity
  8
BEMAßUNG
 62
     7
100
AcDbVertex
100
AcDb2dVertex
 10
-2.622406683372176
 20
-10.05588921189575
 30
0.0
  0
VERTEX
  5
2BD
330
2BB
100
AcDbEntity
  8
BEMAßUNG
 62
     7
100
AcDbVertex
100
AcDb2dVertex
 10
-1.665703667118296
 20
-10.05588921189575
 30
0.0
  0
SEQEND
  5
2BE
330
2BB
100
AcDbEntity
  8
BEMAßUNG
  0
POLYLINE
  5
2BF
330
1F
100
AcDbEntity
  8
BEMAßUNG
 62
     7
100
AcDb2dPolyline
 66
     1
 10
0.0
 20
0.0
 30
0.0
  0
VERTEX
  5
2C0
330
2BF
100
AcDbEntity
  8
BEMAßUNG
 62
     7
100
AcDbVertex
100
AcDb2dVertex
 10
-2.622406683372176
 20
-10.10687662507745
 30
0.0
  0
VERTEX
  5
2C1
330
2BF
100
AcDbEntity
  8
BEMAßUNG
 62
     7
100
AcDbVertex
100
AcDb2dVertex
 10
-1.279852972770315
 20
-10.10687662507745
 30
0.0
  0
SEQEND
  5
2C2
330
2BF
100
AcDbEntity
  8
BEMAßUNG
  0
POLYLINE
  5
2C3
330
1F
100
AcDbEntity
  8
BEMAßUNG
 62
     7
100
AcDb2dPolyline
 66
     1
 10
0.0
 20
0.0
 30
0.0
  0
VERTEX
  5
2C4
330
2C3
100
AcDbEntity
  8
BEMAßUNG
 62
     7
100
AcDbVertex
100
AcDb2dVertex
 10
-2.622406683372176
 20
-10.15751952871062
 30
0.0
  0
VERTEX
  5
2C5
330
2C3
100
AcDbEntity
  8
BEMAßUNG
 62
     7
100
AcDbVertex
100
AcDb2dVertex
 10
-0.8940022784223328
 20
-10.15751952871062
 30
0.0
  0
SEQEND
  5
2C6
330
2C3
100
AcDbEntity
  8
BEMAßUNG
  0
POLYLINE
  5
2C7
330
1F
100
AcDbEntity
  8
BEMAßUNG
 62
     7
100
AcDb2dPolyline
 66
     1
 10
0.0
 20
0.0
 30
0.0
  0
VERTEX
  5
2C8
330
2C7
100
AcDbEntity
  8
BEMAßUNG
 62
     7
100
AcDbVertex
100
AcDb2dVertex
 10
-2.622406683372176
 20
-10.20885145144084
 30
0.0
  0
VERTEX
  5
2C9
330
2C7
100
AcDbEntity
  8
BEMAßUNG
 62
     7
100
AcDbVertex
100
AcDb2dVertex
 10
-0.508151584074351
 20
-10.20885145144084
 30
0.0
  0
SEQEND
  5
2CA
330
2C7
100
AcDbEntity
  8
BEMAßUNG
  0
POLYLINE
  5
2CB
330
1F
100
AcDbEntity
  8
BEMAßUNG
 62
     7
100
AcDb2dPolyline
 66
     1
 10
0.0
 20
0.0
 30
0.0
  0
VERTEX
  5
2CC
330
2CB
100
AcDbEntity
  8
BEMAßUNG
 62
     7
100
AcDbVertex
100
AcDb2dVertex
 10
-2.622406683372176
 20
-10.25949435507402
 30
0.0
  0
VERTEX
  5
2CD
330
2CB
100
AcDbEntity
  8
BEMAßUNG
 62
     7
100
AcDbVertex
100
AcDb2dVertex
 10
-0.1223008897263692
 20
-10.25949435507402
 30
0.0
  0
SEQEND
  5
2CE
330
2CB
100
AcDbEntity
  8
BEMAßUNG
  0
POLYLINE
  5
2CF
330
1F
100
AcDbEntity
  8
BEMAßUNG
 62
     7
100
AcDb2dPolyline
 66
     1
 10
0.0
 20
0.0
 30
0.0
  0
VERTEX
  5
2D0
330
2CF
100
AcDbEntity
  8
BEMAßUNG
 62
     7
100
AcDbVertex
100
AcDb2dVertex
 10
-2.622406683372176
 20
-10.5640407959701
 30
0.0
  0
VERTEX
  5
2D1
330
2CF
100
AcDbEntity
  8
BEMAßUNG
 62
     7
100
AcDbVertex
100
AcDb2dVertex
 10
-2.43740505581426
 20
-10.5640407959701
 30
0.0
  0
SEQEND
  5
2D2
330
2CF
100
AcDbEntity
  8
BEMAßUNG
  0
POLYLINE
  5
2D3
330
1F
100
AcDbEntity
  8
BEMAßUNG
 62
     7
100
AcDb2dPolyline
 66
     1
 10
0.0
 20
0.0
 30
0.0
  0
VERTEX
  5
2D4
330
2D3
100
AcDbEntity
  8
BEMAßUNG
 62
     7
100
AcDbVertex
100
AcDb2dVertex
 10
-2.622406683372176
 20
-10.5640407959701
 30
0.0
  0
VERTEX
  5
2D5
330
2D3
100
AcDbEntity
  8
BEMAßUNG
 62
     7
100
AcDbVertex
100
AcDb2dVertex
 10
-2.43740505581426
 20
-10.5640407959701
 30
0.0
  0
SEQEND
  5
2D6
330
2D3
100
AcDbEntity
  8
BEMAßUNG
  0
POLYLINE
  5
2D7
330
1F
100
AcDbEntity
  8
BEMAßUNG
 62
     7
100
AcDb2dPolyline
 66
     1
 10
0.0
 20
0.0
 30
0.0
  0
VERTEX
  5
2D8
330
2D7
100
AcDbEntity
  8
BEMAßUNG
 62
     7
100
AcDbVertex
100
AcDb2dVertex
 10
-2.622406683372176
 20
-10.51339789233693
 30
0.0
  0
VERTEX
  5
2D9
330
2D7
100
AcDbEntity
  8
BEMAßUNG
 62
     7
100
AcDbVertex
100
AcDb2dVertex
 10
-2.051554361466278
 20
-10.51339789233693
 30
0.0
  0
SEQEND
  5
2DA
330
2D7
100
AcDbEntity
  8
BEMAßUNG
  0
POLYLINE
  5
2DB
330
1F
100
AcDbEntity
  8
BEMAßUNG
 62
     7
100
AcDb2dPolyline
 66
     1
 10
0.0
 20
0.0
 30
0.0
  0
VERTEX
  5
2DC
330
2DB
100
AcDbEntity
  8
BEMAßUNG
 62
     7
100
AcDbVertex
100
AcDb2dVertex
 10
-2.622406683372176
 20
-10.46309949825228
 30
0.0
  0
VERTEX
  5
2DD
330
2DB
100
AcDbEntity
  8
BEMAßUNG
 62
     7
100
AcDbVertex
100
AcDb2dVertex
 10
-1.665703667118296
 20
-10.46309949825228
 30
0.0
  0
SEQEND
  5
2DE
330
2DB
100
AcDbEntity
  8
BEMAßUNG
  0
POLYLINE
  5
2DF
330
1F
100
AcDbEntity
  8
BEMAßUNG
 62
     7
100
AcDb2dPolyline
 66
     1
 10
0.0
 20
0.0
 30
0.0
  0
VERTEX
  5
2E0
330
2DF
100
AcDbEntity
  8
BEMAßUNG
 62
     7
100
AcDbVertex
100
AcDb2dVertex
 10
-2.622406683372176
 20
-10.41245659461911
 30
0.0
  0
VERTEX
  5
2E1
330
2DF
100
AcDbEntity
  8
BEMAßUNG
 62
     7
100
AcDbVertex
100
AcDb2dVertex
 10
-1.279852972770315
 20
-10.41245659461911
 30
0.0
  0
SEQEND
  5
2E2
330
2DF
100
AcDbEntity
  8
BEMAßUNG
  0
POLYLINE
  5
2E3
330
1F
100
AcDbEntity
  8
BEMAßUNG
 62
     7
100
AcDb2dPolyline
 66
     1
 10
0.0
 20
0.0
 30
0.0
  0
VERTEX
  5
2E4
330
2E3
100
AcDbEntity
  8
BEMAßUNG
 62
     7
100
AcDbVertex
100
AcDb2dVertex
 10
-2.622406683372176
 20
-10.36112467188889
 30
0.0
  0
VERTEX
  5
2E5
330
2E3
100
AcDbEntity
  8
BEMAßUNG
 62
     7
100
AcDbVertex
100
AcDb2dVertex
 10
-0.8940022784223328
 20
-10.36112467188889
 30
0.0
  0
SEQEND
  5
2E6
330
2E3
100
AcDbEntity
  8
BEMAßUNG
  0
POLYLINE
  5
2E7
330
1F
100
AcDbEntity
  8
BEMAßUNG
 62
     7
100
AcDb2dPolyline
 66
     1
 10
0.0
 20
0.0
 30
0.0
  0
VERTEX
  5
2E8
330
2E7
100
AcDbEntity
  8
BEMAßUNG
 62
     7
100
AcDbVertex
100
AcDb2dVertex
 10
-2.622406683372176
 20
-10.31013725870719
 30
0.0
  0
VERTEX
  5
2E9
330
2E7
100
AcDbEntity
  8
BEMAßUNG
 62
     7
100
AcDbVertex
100
AcDb2dVertex
 10
-0.508151584074351
 20
-10.31013725870719
 30
0.0
  0
SEQEND
  5
2EA
330
2E7
100
AcDbEntity
  8
BEMAßUNG
  0
POLYLINE
  5
2EB
330
1F
100
AcDbEntity
  8
BEMAßUNG
 62
     7
100
AcDb2dPolyline
 66
     1
 10
0.0
 20
0.0
 30
0.0
  0
VERTEX
  5
2EC
330
2EB
100
AcDbEntity
  8
BEMAßUNG
 62
     7
100
AcDbVertex
100
AcDb2dVertex
 10
-2.622406683372176
 20
-10.25949435507402
 30
0.0
  0
VERTEX
  5
2ED
330
2EB
100
AcDbEntity
  8
BEMAßUNG
 62
     7
100
AcDbVertex
100
AcDb2dVertex
 10
-0.1223008897263692
 20
-10.25949435507402
 30
0.0
  0
SEQEND
  5
2EE
330
2EB
100
AcDbEntity
  8
BEMAßUNG
  0
POLYLINE
  5
2EF
330
1F
100
AcDbEntity
  8
BEMAßUNG
 62
     7
100
AcDb2dPolyline
 66
     1
 10
0.0
 20
0.0
 30
0.0
  0
VERTEX
  5
2F0
330
2EF
100
AcDbEntity
  8
BEMAßUNG
 62
     7
100
AcDbVertex
100
AcDb2dVertex
 10
-29.1217366463654
 20
19.7062906851776
 30
0.0
  0
VERTEX
  5
2F1
330
2EF
100
AcDbEntity
  8
BEMAßUNG
 62
     7
100
AcDbVertex
100
AcDb2dVertex
 10
-29.1217366463654
 20
42.15349933841996
 30
0.0
  0
SEQEND
  5
2F2
330
2EF
100
AcDbEntity
  8
BEMAßUNG
  0
POLYLINE
  5
2F3
330
1F
100
AcDbEntity
  8
BEMAßUNG
 62
     7
100
AcDb2dPolyline
 66
     1
 10
0.0
 20
0.0
 30
0.0
  0
VERTEX
  5
2F4
330
2F3
100
AcDbEntity
  8
BEMAßUNG
 62
     7
100
AcDbVertex
100
AcDb2dVertex
 10
-22.12268065853183
 20
19.16747775128452
 30
0.0
  0
VERTEX
  5
2F5
330
2F3
100
AcDbEntity
  8
BEMAßUNG
 62
     7
100
AcDbVertex
100
AcDb2dVertex
 10
-22.12268065853183
 20
42.15349933841996
 30
0.0
  0
SEQEND
  5
2F6
330
2F3
100
AcDbEntity
  8
BEMAßUNG
  0
POLYLINE
  5
2F7
330
1F
100
AcDbEntity
  8
BEMAßUNG
 62
     7
100
AcDb2dPolyline
 66
     1
 10
0.0
 20
0.0
 30
0.0
  0
VERTEX
  5
2F8
330
2F7
100
AcDbEntity
  8
BEMAßUNG
 62
     7
100
AcDbVertex
100
AcDb2dVertex
 10
-29.1217366463654
 20
40.15362140923243
 30
0.0
  0
VERTEX
  5
2F9
330
2F7
100
AcDbEntity
  8
BEMAßUNG
 62
     7
100
AcDbVertex
100
AcDb2dVertex
 10
-22.12268065853183
 20
40.15362140923243
 30
0.0
  0
SEQEND
  5
2FA
330
2F7
100
AcDbEntity
  8
BEMAßUNG
  0
POLYLINE
  5
2FB
330
1F
100
AcDbEntity
  8
BEMAßUNG
 62
     7
100
AcDb2dPolyline
 66
     1
 10
0.0
 20
0.0
 30
0.0
  0
VERTEX
  5
2FC
330
2FB
100
AcDbEntity
  8
BEMAßUNG
 62
     7
100
AcDbVertex
100
AcDb2dVertex
 10
-29.1217366463654
 20
40.15362140923243
 30
0.0
  0
VERTEX
  5
2FD
330
2FB
100
AcDbEntity
  8
BEMAßUNG
 62
     7
100
AcDbVertex
100
AcDb2dVertex
 10
-26.62197536226812
 20
39.82427028084255
 30
0.0
  0
VERTEX
  5
2FE
330
2FB
100
AcDbEntity
  8
BEMAßUNG
 62
     7
100
AcDbVertex
100
AcDb2dVertex
 10
-26.62197536226812
 20
40.48228351852526
 30
0.0
  0
VERTEX
  5
2FF
330
2FB
100
AcDbEntity
  8
BEMAßUNG
 62
     7
100
AcDbVertex
100
AcDb2dVertex
 10
-29.1217366463654
 20
40.15362140923243
 30
0.0
  0
SEQEND
  5
300
330
2FB
100
AcDbEntity
  8
BEMAßUNG
  0
POLYLINE
  5
301
330
1F
100
AcDbEntity
  8
BEMAßUNG
 62
     7
100
AcDb2dPolyline
 66
     1
 10
0.0
 20
0.0
 30
0.0
  0
VERTEX
  5
302
330
301
100
AcDbEntity
  8
BEMAßUNG
 62
     7
100
AcDbVertex
100
AcDb2dVertex
 10
-26.62197536226812
 20
39.84907496833635
 30
0.0
  0
VERTEX
  5
303
330
301
100
AcDbEntity
  8
BEMAßUNG
 62
     7
100
AcDbVertex
100
AcDb2dVertex
 10
-26.80697698982603
 20
39.84907496833635
 30
0.0
  0
SEQEND
  5
304
330
301
100
AcDbEntity
  8
BEMAßUNG
  0
POLYLINE
  5
305
330
1F
100
AcDbEntity
  8
BEMAßUNG
 62
     7
100
AcDb2dPolyline
 66
     1
 10
0.0
 20
0.0
 30
0.0
  0
VERTEX
  5
306
330
305
100
AcDbEntity
  8
BEMAßUNG
 62
     7
100
AcDbVertex
100
AcDb2dVertex
 10
-26.62197536226812
 20
39.84907496833635
 30
0.0
  0
VERTEX
  5
307
330
305
100
AcDbEntity
  8
BEMAßUNG
 62
     7
100
AcDbVertex
100
AcDb2dVertex
 10
-26.80697698982603
 20
39.84907496833635
 30
0.0
  0
SEQEND
  5
308
330
305
100
AcDbEntity
  8
BEMAßUNG
  0
POLYLINE
  5
309
330
1F
100
AcDbEntity
  8
BEMAßUNG
 62
     7
100
AcDb2dPolyline
 66
     1
 10
0.0
 20
0.0
 30
0.0
  0
VERTEX
  5
30A
330
309
100
AcDbEntity
  8
BEMAßUNG
 62
     7
100
AcDbVertex
100
AcDb2dVertex
 10
-26.62197536226812
 20
39.899373362421
 30
0.0
  0
VERTEX
  5
30B
330
309
100
AcDbEntity
  8
BEMAßUNG
 62
     7
100
AcDbVertex
100
AcDb2dVertex
 10
-27.19282768417402
 20
39.899373362421
 30
0.0
  0
SEQEND
  5
30C
330
309
100
AcDbEntity
  8
BEMAßUNG
  0
POLYLINE
  5
30D
330
1F
100
AcDbEntity
  8
BEMAßUNG
 62
     7
100
AcDb2dPolyline
 66
     1
 10
0.0
 20
0.0
 30
0.0
  0
VERTEX
  5
30E
330
30D
100
AcDbEntity
  8
BEMAßUNG
 62
     7
100
AcDbVertex
100
AcDb2dVertex
 10
-26.62197536226812
 20
39.95036077560269
 30
0.0
  0
VERTEX
  5
30F
330
30D
100
AcDbEntity
  8
BEMAßUNG
 62
     7
100
AcDbVertex
100
AcDb2dVertex
 10
-27.57833386897347
 20
39.95036077560269
 30
0.0
  0
SEQEND
  5
310
330
30D
100
AcDbEntity
  8
BEMAßUNG
  0
POLYLINE
  5
311
330
1F
100
AcDbEntity
  8
BEMAßUNG
 62
     7
100
AcDb2dPolyline
 66
     1
 10
0.0
 20
0.0
 30
0.0
  0
VERTEX
  5
312
330
311
100
AcDbEntity
  8
BEMAßUNG
 62
     7
100
AcDbVertex
100
AcDb2dVertex
 10
-26.62197536226812
 20
40.00100367923586
 30
0.0
  0
VERTEX
  5
313
330
311
100
AcDbEntity
  8
BEMAßUNG
 62
     7
100
AcDbVertex
100
AcDb2dVertex
 10
-27.96452907286998
 20
40.00100367923586
 30
0.0
  0
SEQEND
  5
314
330
311
100
AcDbEntity
  8
BEMAßUNG
  0
POLYLINE
  5
315
330
1F
100
AcDbEntity
  8
BEMAßUNG
 62
     7
100
AcDb2dPolyline
 66
     1
 10
0.0
 20
0.0
 30
0.0
  0
VERTEX
  5
316
330
315
100
AcDbEntity
  8
BEMAßUNG
 62
     7
100
AcDbVertex
100
AcDb2dVertex
 10
-26.62197536226812
 20
40.05164658286903
 30
0.0
  0
VERTEX
  5
317
330
315
100
AcDbEntity
  8
BEMAßUNG
 62
     7
100
AcDbVertex
100
AcDb2dVertex
 10
-28.35037976721796
 20
40.05164658286903
 30
0.0
  0
SEQEND
  5
318
330
315
100
AcDbEntity
  8
BEMAßUNG
  0
POLYLINE
  5
319
330
1F
100
AcDbEntity
  8
BEMAßUNG
 62
     7
100
AcDb2dPolyline
 66
     1
 10
0.0
 20
0.0
 30
0.0
  0
VERTEX
  5
31A
330
319
100
AcDbEntity
  8
BEMAßUNG
 62
     7
100
AcDbVertex
100
AcDb2dVertex
 10
-26.62197536226812
 20
40.10263399605073
 30
0.0
  0
VERTEX
  5
31B
330
319
100
AcDbEntity
  8
BEMAßUNG
 62
     7
100
AcDbVertex
100
AcDb2dVertex
 10
-28.73623046156595
 20
40.10263399605073
 30
0.0
  0
SEQEND
  5
31C
330
319
100
AcDbEntity
  8
BEMAßUNG
  0
POLYLINE
  5
31D
330
1F
100
AcDbEntity
  8
BEMAßUNG
 62
     7
100
AcDb2dPolyline
 66
     1
 10
0.0
 20
0.0
 30
0.0
  0
VERTEX
  5
31E
330
31D
100
AcDbEntity
  8
BEMAßUNG
 62
     7
100
AcDbVertex
100
AcDb2dVertex
 10
-26.62197536226812
 20
40.15362140923243
 30
0.0
  0
VERTEX
  5
31F
330
31D
100
AcDbEntity
  8
BEMAßUNG
 62
     7
100
AcDbVertex
100
AcDb2dVertex
 10
-29.1217366463654
 20
40.15362140923243
 30
0.0
  0
SEQEND
  5
320
330
31D
100
AcDbEntity
  8
BEMAßUNG
  0
POLYLINE
  5
321
330
1F
100
AcDbEntity
  8
BEMAßUNG
 62
     7
100
AcDb2dPolyline
 66
     1
 10
0.0
 20
0.0
 30
0.0
  0
VERTEX
  5
322
330
321
100
AcDbEntity
  8
BEMAßUNG
 62
     7
100
AcDbVertex
100
AcDb2dVertex
 10
-26.62197536226812
 20
40.45851235967704
 30
0.0
  0
VERTEX
  5
323
330
321
100
AcDbEntity
  8
BEMAßUNG
 62
     7
100
AcDbVertex
100
AcDb2dVertex
 10
-26.80697698982603
 20
40.45851235967704
 30
0.0
  0
SEQEND
  5
324
330
321
100
AcDbEntity
  8
BEMAßUNG
  0
POLYLINE
  5
325
330
1F
100
AcDbEntity
  8
BEMAßUNG
 62
     7
100
AcDb2dPolyline
 66
     1
 10
0.0
 20
0.0
 30
0.0
  0
VERTEX
  5
326
330
325
100
AcDbEntity
  8
BEMAßUNG
 62
     7
100
AcDbVertex
100
AcDb2dVertex
 10
-26.62197536226812
 20
40.45851235967704
 30
0.0
  0
VERTEX
  5
327
330
325
100
AcDbEntity
  8
BEMAßUNG
 62
     7
100
AcDbVertex
100
AcDb2dVertex
 10
-26.80697698982603
 20
40.45851235967704
 30
0.0
  0
SEQEND
  5
328
330
325
100
AcDbEntity
  8
BEMAßUNG
  0
POLYLINE
  5
329
330
1F
100
AcDbEntity
  8
BEMAßUNG
 62
     7
100
AcDb2dPolyline
 66
     1
 10
0.0
 20
0.0
 30
0.0
  0
VERTEX
  5
32A
330
329
100
AcDbEntity
  8
BEMAßUNG
 62
     7
100
AcDbVertex
100
AcDb2dVertex
 10
-26.62197536226812
 20
40.40786945604387
 30
0.0
  0
VERTEX
  5
32B
330
329
100
AcDbEntity
  8
BEMAßUNG
 62
     7
100
AcDbVertex
100
AcDb2dVertex
 10
-27.19282768417402
 20
40.40786945604387
 30
0.0
  0
SEQEND
  5
32C
330
329
100
AcDbEntity
  8
BEMAßUNG
  0
POLYLINE
  5
32D
330
1F
100
AcDbEntity
  8
BEMAßUNG
 62
     7
100
AcDb2dPolyline
 66
     1
 10
0.0
 20
0.0
 30
0.0
  0
VERTEX
  5
32E
330
32D
100
AcDbEntity
  8
BEMAßUNG
 62
     7
100
AcDbVertex
100
AcDb2dVertex
 10
-26.62197536226812
 20
40.35653753331365
 30
0.0
  0
VERTEX
  5
32F
330
32D
100
AcDbEntity
  8
BEMAßUNG
 62
     7
100
AcDbVertex
100
AcDb2dVertex
 10
-27.57833386897347
 20
40.35653753331365
 30
0.0
  0
SEQEND
  5
330
330
32D
100
AcDbEntity
  8
BEMAßUNG
  0
POLYLINE
  5
331
330
1F
100
AcDbEntity
  8
BEMAßUNG
 62
     7
100
AcDb2dPolyline
 66
     1
 10
0.0
 20
0.0
 30
0.0
  0
VERTEX
  5
332
330
331
100
AcDbEntity
  8
BEMAßUNG
 62
     7
100
AcDbVertex
100
AcDb2dVertex
 10
-26.62197536226812
 20
40.30589462968047
 30
0.0
  0
VERTEX
  5
333
330
331
100
AcDbEntity
  8
BEMAßUNG
 62
     7
100
AcDbVertex
100
AcDb2dVertex
 10
-27.96452907286998
 20
40.30589462968047
 30
0.0
  0
SEQEND
  5
334
330
331
100
AcDbEntity
  8
BEMAßUNG
  0
POLYLINE
  5
335
330
1F
100
AcDbEntity
  8
BEMAßUNG
 62
     7
100
AcDb2dPolyline
 66
     1
 10
0.0
 20
0.0
 30
0.0
  0
VERTEX
  5
336
330
335
100
AcDbEntity
  8
BEMAßUNG
 62
     7
100
AcDbVertex
100
AcDb2dVertex
 10
-26.62197536226812
 20
40.25490721649877
 30
0.0
  0
VERTEX
  5
337
330
335
100
AcDbEntity
  8
BEMAßUNG
 62
     7
100
AcDbVertex
100
AcDb2dVertex
 10
-28.35037976721796
 20
40.25490721649877
 30
0.0
  0
SEQEND
  5
338
330
335
100
AcDbEntity
  8
BEMAßUNG
  0
POLYLINE
  5
339
330
1F
100
AcDbEntity
  8
BEMAßUNG
 62
     7
100
AcDb2dPolyline
 66
     1
 10
0.0
 20
0.0
 30
0.0
  0
VERTEX
  5
33A
330
339
100
AcDbEntity
  8
BEMAßUNG
 62
     7
100
AcDbVertex
100
AcDb2dVertex
 10
-26.62197536226812
 20
40.2042643128656
 30
0.0
  0
VERTEX
  5
33B
330
339
100
AcDbEntity
  8
BEMAßUNG
 62
     7
100
AcDbVertex
100
AcDb2dVertex
 10
-28.73623046156595
 20
40.2042643128656
 30
0.0
  0
SEQEND
  5
33C
330
339
100
AcDbEntity
  8
BEMAßUNG
  0
POLYLINE
  5
33D
330
1F
100
AcDbEntity
  8
BEMAßUNG
 62
     7
100
AcDb2dPolyline
 66
     1
 10
0.0
 20
0.0
 30
0.0
  0
VERTEX
  5
33E
330
33D
100
AcDbEntity
  8
BEMAßUNG
 62
     7
100
AcDbVertex
100
AcDb2dVertex
 10
-26.62197536226812
 20
40.15362140923243
 30
0.0
  0
VERTEX
  5
33F
330
33D
100
AcDbEntity
  8
BEMAßUNG
 62
     7
100
AcDbVertex
100
AcDb2dVertex
 10
-29.1217366463654
 20
40.15362140923243
 30
0.0
  0
SEQEND
  5
340
330
33D
100
AcDbEntity
  8
BEMAßUNG
  0
POLYLINE
  5
341
330
1F
100
AcDbEntity
  8
BEMAßUNG
 62
     7
100
AcDb2dPolyline
 66
     1
 10
0.0
 20
0.0
 30
0.0
  0
VERTEX
  5
342
330
341
100
AcDbEntity
  8
BEMAßUNG
 62
     7
100
AcDbVertex
100
AcDb2dVertex
 10
-22.12268065853183
 20
40.15362140923243
 30
0.0
  0
VERTEX
  5
343
330
341
100
AcDbEntity
  8
BEMAßUNG
 62
     7
100
AcDbVertex
100
AcDb2dVertex
 10
-24.62175292353206
 20
40.48228351852526
 30
0.0
  0
VERTEX
  5
344
330
341
100
AcDbEntity
  8
BEMAßUNG
 62
     7
100
AcDbVertex
100
AcDb2dVertex
 10
-24.62175292353206
 20
39.82427028084255
 30
0.0
  0
VERTEX
  5
345
330
341
100
AcDbEntity
  8
BEMAßUNG
 62
     7
100
AcDbVertex
100
AcDb2dVertex
 10
-22.12268065853183
 20
40.15362140923243
 30
0.0
  0
SEQEND
  5
346
330
341
100
AcDbEntity
  8
BEMAßUNG
  0
POLYLINE
  5
347
330
1F
100
AcDbEntity
  8
BEMAßUNG
 62
     7
100
AcDb2dPolyline
 66
     1
 10
0.0
 20
0.0
 30
0.0
  0
VERTEX
  5
348
330
347
100
AcDbEntity
  8
BEMAßUNG
 62
     7
100
AcDbVertex
100
AcDb2dVertex
 10
-24.62175292353206
 20
40.45851235967704
 30
0.0
  0
VERTEX
  5
349
330
347
100
AcDbEntity
  8
BEMAßUNG
 62
     7
100
AcDbVertex
100
AcDb2dVertex
 10
-24.43709580552267
 20
40.45851235967704
 30
0.0
  0
SEQEND
  5
34A
330
347
100
AcDbEntity
  8
BEMAßUNG
  0
POLYLINE
  5
34B
330
1F
100
AcDbEntity
  8
BEMAßUNG
 62
     7
100
AcDb2dPolyline
 66
     1
 10
0.0
 20
0.0
 30
0.0
  0
VERTEX
  5
34C
330
34B
100
AcDbEntity
  8
BEMAßUNG
 62
     7
100
AcDbVertex
100
AcDb2dVertex
 10
-24.62175292353206
 20
40.45851235967704
 30
0.0
  0
VERTEX
  5
34D
330
34B
100
AcDbEntity
  8
BEMAßUNG
 62
     7
100
AcDbVertex
100
AcDb2dVertex
 10
-24.43709580552267
 20
40.45851235967704
 30
0.0
  0
SEQEND
  5
34E
330
34B
100
AcDbEntity
  8
BEMAßUNG
  0
POLYLINE
  5
34F
330
1F
100
AcDbEntity
  8
BEMAßUNG
 62
     7
100
AcDb2dPolyline
 66
     1
 10
0.0
 20
0.0
 30
0.0
  0
VERTEX
  5
350
330
34F
100
AcDbEntity
  8
BEMAßUNG
 62
     7
100
AcDbVertex
100
AcDb2dVertex
 10
-24.62175292353206
 20
40.40786945604387
 30
0.0
  0
VERTEX
  5
351
330
34F
100
AcDbEntity
  8
BEMAßUNG
 62
     7
100
AcDbVertex
100
AcDb2dVertex
 10
-24.05193413027174
 20
40.40786945604387
 30
0.0
  0
SEQEND
  5
352
330
34F
100
AcDbEntity
  8
BEMAßUNG
  0
POLYLINE
  5
353
330
1F
100
AcDbEntity
  8
BEMAßUNG
 62
     7
100
AcDb2dPolyline
 66
     1
 10
0.0
 20
0.0
 30
0.0
  0
VERTEX
  5
354
330
353
100
AcDbEntity
  8
BEMAßUNG
 62
     7
100
AcDbVertex
100
AcDb2dVertex
 10
-24.62175292353206
 20
40.35653753331365
 30
0.0
  0
VERTEX
  5
355
330
353
100
AcDbEntity
  8
BEMAßUNG
 62
     7
100
AcDbVertex
100
AcDb2dVertex
 10
-23.66608343592376
 20
40.35653753331365
 30
0.0
  0
SEQEND
  5
356
330
353
100
AcDbEntity
  8
BEMAßUNG
  0
POLYLINE
  5
357
330
1F
100
AcDbEntity
  8
BEMAßUNG
 62
     7
100
AcDb2dPolyline
 66
     1
 10
0.0
 20
0.0
 30
0.0
  0
VERTEX
  5
358
330
357
100
AcDbEntity
  8
BEMAßUNG
 62
     7
100
AcDbVertex
100
AcDb2dVertex
 10
-24.62175292353206
 20
40.30589462968047
 30
0.0
  0
VERTEX
  5
359
330
357
100
AcDbEntity
  8
BEMAßUNG
 62
     7
100
AcDbVertex
100
AcDb2dVertex
 10
-23.27954372247873
 20
40.30589462968047
 30
0.0
  0
SEQEND
  5
35A
330
357
100
AcDbEntity
  8
BEMAßUNG
  0
POLYLINE
  5
35B
330
1F
100
AcDbEntity
  8
BEMAßUNG
 62
     7
100
AcDb2dPolyline
 66
     1
 10
0.0
 20
0.0
 30
0.0
  0
VERTEX
  5
35C
330
35B
100
AcDbEntity
  8
BEMAßUNG
 62
     7
100
AcDbVertex
100
AcDb2dVertex
 10
-24.62175292353206
 20
40.25490721649877
 30
0.0
  0
VERTEX
  5
35D
330
35B
100
AcDbEntity
  8
BEMAßUNG
 62
     7
100
AcDbVertex
100
AcDb2dVertex
 10
-22.89369302813074
 20
40.25490721649877
 30
0.0
  0
SEQEND
  5
35E
330
35B
100
AcDbEntity
  8
BEMAßUNG
  0
POLYLINE
  5
35F
330
1F
100
AcDbEntity
  8
BEMAßUNG
 62
     7
100
AcDb2dPolyline
 66
     1
 10
0.0
 20
0.0
 30
0.0
  0
VERTEX
  5
360
330
35F
100
AcDbEntity
  8
BEMAßUNG
 62
     7
100
AcDbVertex
100
AcDb2dVertex
 10
-24.62175292353206
 20
40.2042643128656
 30
0.0
  0
VERTEX
  5
361
330
35F
100
AcDbEntity
  8
BEMAßUNG
 62
     7
100
AcDbVertex
100
AcDb2dVertex
 10
-22.50818684333129
 20
40.2042643128656
 30
0.0
  0
SEQEND
  5
362
330
35F
100
AcDbEntity
  8
BEMAßUNG
  0
POLYLINE
  5
363
330
1F
100
AcDbEntity
  8
BEMAßUNG
 62
     7
100
AcDb2dPolyline
 66
     1
 10
0.0
 20
0.0
 30
0.0
  0
VERTEX
  5
364
330
363
100
AcDbEntity
  8
BEMAßUNG
 62
     7
100
AcDbVertex
100
AcDb2dVertex
 10
-24.62175292353206
 20
40.15362140923243
 30
0.0
  0
VERTEX
  5
365
330
363
100
AcDbEntity
  8
BEMAßUNG
 62
     7
100
AcDbVertex
100
AcDb2dVertex
 10
-22.12268065853183
 20
40.15362140923243
 30
0.0
  0
SEQEND
  5
366
330
363
100
AcDbEntity
  8
BEMAßUNG
  0
POLYLINE
  5
367
330
1F
100
AcDbEntity
  8
BEMAßUNG
 62
     7
100
AcDb2dPolyline
 66
     1
 10
0.0
 20
0.0
 30
0.0
  0
VERTEX
  5
368
330
367
100
AcDbEntity
  8
BEMAßUNG
 62
     7
100
AcDbVertex
100
AcDb2dVertex
 10
-24.62175292353206
 20
39.84907496833635
 30
0.0
  0
VERTEX
  5
369
330
367
100
AcDbEntity
  8
BEMAßUNG
 62
     7
100
AcDbVertex
100
AcDb2dVertex
 10
-24.43709580552267
 20
39.84907496833635
 30
0.0
  0
SEQEND
  5
36A
330
367
100
AcDbEntity
  8
BEMAßUNG
  0
POLYLINE
  5
36B
330
1F
100
AcDbEntity
  8
BEMAßUNG
 62
     7
100
AcDb2dPolyline
 66
     1
 10
0.0
 20
0.0
 30
0.0
  0
VERTEX
  5
36C
330
36B
100
AcDbEntity
  8
BEMAßUNG
 62
     7
100
AcDbVertex
100
AcDb2dVertex
 10
-24.62175292353206
 20
39.84907496833635
 30
0.0
  0
VERTEX
  5
36D
330
36B
100
AcDbEntity
  8
BEMAßUNG
 62
     7
100
AcDbVertex
100
AcDb2dVertex
 10
-24.43709580552267
 20
39.84907496833635
 30
0.0
  0
SEQEND
  5
36E
330
36B
100
AcDbEntity
  8
BEMAßUNG
  0
POLYLINE
  5
36F
330
1F
100
AcDbEntity
  8
BEMAßUNG
 62
     7
100
AcDb2dPolyline
 66
     1
 10
0.0
 20
0.0
 30
0.0
  0
VERTEX
  5
370
330
36F
100
AcDbEntity
  8
BEMAßUNG
 62
     7
100
AcDbVertex
100
AcDb2dVertex
 10
-24.62175292353206
 20
39.899373362421
 30
0.0
  0
VERTEX
  5
371
330
36F
100
AcDbEntity
  8
BEMAßUNG
 62
     7
100
AcDbVertex
100
AcDb2dVertex
 10
-24.05193413027174
 20
39.899373362421
 30
0.0
  0
SEQEND
  5
372
330
36F
100
AcDbEntity
  8
BEMAßUNG
  0
POLYLINE
  5
373
330
1F
100
AcDbEntity
  8
BEMAßUNG
 62
     7
100
AcDb2dPolyline
 66
     1
 10
0.0
 20
0.0
 30
0.0
  0
VERTEX
  5
374
330
373
100
AcDbEntity
  8
BEMAßUNG
 62
     7
100
AcDbVertex
100
AcDb2dVertex
 10
-24.62175292353206
 20
39.95036077560269
 30
0.0
  0
VERTEX
  5
375
330
373
100
AcDbEntity
  8
BEMAßUNG
 62
     7
100
AcDbVertex
100
AcDb2dVertex
 10
-23.66608343592376
 20
39.95036077560269
 30
0.0
  0
SEQEND
  5
376
330
373
100
AcDbEntity
  8
BEMAßUNG
  0
POLYLINE
  5
377
330
1F
100
AcDbEntity
  8
BEMAßUNG
 62
     7
100
AcDb2dPolyline
 66
     1
 10
0.0
 20
0.0
 30
0.0
  0
VERTEX
  5
378
330
377
100
AcDbEntity
  8
BEMAßUNG
 62
     7
100
AcDbVertex
100
AcDb2dVertex
 10
-24.62175292353206
 20
40.00100367923586
 30
0.0
  0
VERTEX
  5
379
330
377
100
AcDbEntity
  8
BEMAßUNG
 62
     7
100
AcDbVertex
100
AcDb2dVertex
 10
-23.27954372247873
 20
40.00100367923586
 30
0.0
  0
SEQEND
  5
37A
330
377
100
AcDbEntity
  8
BEMAßUNG
  0
POLYLINE
  5
37B
330
1F
100
AcDbEntity
  8
BEMAßUNG
 62
     7
100
AcDb2dPolyline
 66
     1
 10
0.0
 20
0.0
 30
0.0
  0
VERTEX
  5
37C
330
37B
100
AcDbEntity
  8
BEMAßUNG
 62
     7
100
AcDbVertex
100
AcDb2dVertex
 10
-24.62175292353206
 20
40.05164658286903
 30
0.0
  0
VERTEX
  5
37D
330
37B
100
AcDbEntity
  8
BEMAßUNG
 62
     7
100
AcDbVertex
100
AcDb2dVertex
 10
-22.89369302813074
 20
40.05164658286903
 30
0.0
  0
SEQEND
  5
37E
330
37B
100
AcDbEntity
  8
BEMAßUNG
  0
POLYLINE
  5
37F
330
1F
100
AcDbEntity
  8
BEMAßUNG
 62
     7
100
AcDb2dPolyline
 66
     1
 10
0.0
 20
0.0
 30
0.0
  0
VERTEX
  5
380
330
37F
100
AcDbEntity
  8
BEMAßUNG
 62
     7
100
AcDbVertex
100
AcDb2dVertex
 10
-24.62175292353206
 20
40.10263399605073
 30
0.0
  0
VERTEX
  5
381
330
37F
100
AcDbEntity
  8
BEMAßUNG
 62
     7
100
AcDbVertex
100
AcDb2dVertex
 10
-22.50818684333129
 20
40.10263399605073
 30
0.0
  0
SEQEND
  5
382
330
37F
100
AcDbEntity
  8
BEMAßUNG
  0
POLYLINE
  5
383
330
1F
100
AcDbEntity
  8
BEMAßUNG
 62
     7
100
AcDb2dPolyline
 66
     1
 10
0.0
 20
0.0
 30
0.0
  0
VERTEX
  5
384
330
383
100
AcDbEntity
  8
BEMAßUNG
 62
     7
100
AcDbVertex
100
AcDb2dVertex
 10
-24.62175292353206
 20
40.15362140923243
 30
0.0
  0
VERTEX
  5
385
330
383
100
AcDbEntity
  8
BEMAßUNG
 62
     7
100
AcDbVertex
100
AcDb2dVertex
 10
-22.12268065853183
 20
40.15362140923243
 30
0.0
  0
SEQEND
  5
386
330
383
100
AcDbEntity
  8
BEMAßUNG
  0
POLYLINE
  5
387
330
1F
100
AcDbEntity
  8
BEMAßUNG
 62
     7
100
AcDb2dPolyline
 66
     1
 10
0.0
 20
0.0
 30
0.0
  0
VERTEX
  5
388
330
387
100
AcDbEntity
  8
BEMAßUNG
 62
     7
100
AcDbVertex
100
AcDb2dVertex
 10
-26.87208929449726
 20
20.20582953053882
 30
0.0
  0
VERTEX
  5
389
330
387
100
AcDbEntity
  8
BEMAßUNG
 62
     7
100
AcDbVertex
100
AcDb2dVertex
 10
-26.87208929449726
 20
32.30121526970247
 30
0.0
  0
SEQEND
  5
38A
330
387
100
AcDbEntity
  8
BEMAßUNG
  0
POLYLINE
  5
38B
330
1F
100
AcDbEntity
  8
BEMAßUNG
 62
     7
100
AcDb2dPolyline
 66
     1
 10
0.0
 20
0.0
 30
0.0
  0
VERTEX
  5
38C
330
38B
100
AcDbEntity
  8
BEMAßUNG
 62
     7
100
AcDbVertex
100
AcDb2dVertex
 10
-17.37223849392083
 20
20.20582953053882
 30
0.0
  0
VERTEX
  5
38D
330
38B
100
AcDbEntity
  8
BEMAßUNG
 62
     7
100
AcDbVertex
100
AcDb2dVertex
 10
-17.37223849392083
 20
32.30121526970247
 30
0.0
  0
SEQEND
  5
38E
330
38B
100
AcDbEntity
  8
BEMAßUNG
  0
POLYLINE
  5
38F
330
1F
100
AcDbEntity
  8
BEMAßUNG
 62
     7
100
AcDb2dPolyline
 66
     1
 10
0.0
 20
0.0
 30
0.0
  0
VERTEX
  5
390
330
38F
100
AcDbEntity
  8
BEMAßUNG
 62
     7
100
AcDbVertex
100
AcDb2dVertex
 10
-26.87208929449726
 20
30.30133734051494
 30
0.0
  0
VERTEX
  5
391
330
38F
100
AcDbEntity
  8
BEMAßUNG
 62
     7
100
AcDbVertex
100
AcDb2dVertex
 10
-3.906049261176266
 20
30.30133734051494
 30
0.0
  0
SEQEND
  5
392
330
38F
100
AcDbEntity
  8
BEMAßUNG
  0
POLYLINE
  5
393
330
1F
100
AcDbEntity
  8
BEMAßUNG
 62
     7
100
AcDb2dPolyline
 66
     1
 10
0.0
 20
0.0
 30
0.0
  0
VERTEX
  5
394
330
393
100
AcDbEntity
  8
BEMAßUNG
 62
     7
100
AcDbVertex
100
AcDb2dVertex
 10
-26.87208929449726
 20
30.30133734051494
 30
0.0
  0
VERTEX
  5
395
330
393
100
AcDbEntity
  8
BEMAßUNG
 62
     7
100
AcDbVertex
100
AcDb2dVertex
 10
-24.37232801039998
 20
29.97233072167359
 30
0.0
  0
VERTEX
  5
396
330
393
100
AcDbEntity
  8
BEMAßUNG
 62
     7
100
AcDbVertex
100
AcDb2dVertex
 10
-24.37232801039998
 20
30.63068846890483
 30
0.0
  0
VERTEX
  5
397
330
393
100
AcDbEntity
  8
BEMAßUNG
 62
     7
100
AcDbVertex
100
AcDb2dVertex
 10
-26.87208929449726
 20
30.30133734051494
 30
0.0
  0
SEQEND
  5
398
330
393
100
AcDbEntity
  8
BEMAßUNG
  0
POLYLINE
  5
399
330
1F
100
AcDbEntity
  8
BEMAßUNG
 62
     7
100
AcDb2dPolyline
 66
     1
 10
0.0
 20
0.0
 30
0.0
  0
VERTEX
  5
39A
330
399
100
AcDbEntity
  8
BEMAßUNG
 62
     7
100
AcDbVertex
100
AcDb2dVertex
 10
-24.37232801039998
 20
29.99679089961886
 30
0.0
  0
VERTEX
  5
39B
330
399
100
AcDbEntity
  8
BEMAßUNG
 62
     7
100
AcDbVertex
100
AcDb2dVertex
 10
-24.55664061886084
 20
29.99679089961886
 30
0.0
  0
SEQEND
  5
39C
330
399
100
AcDbEntity
  8
BEMAßUNG
  0
POLYLINE
  5
39D
330
1F
100
AcDbEntity
  8
BEMAßUNG
 62
     7
100
AcDb2dPolyline
 66
     1
 10
0.0
 20
0.0
 30
0.0
  0
VERTEX
  5
39E
330
39D
100
AcDbEntity
  8
BEMAßUNG
 62
     7
100
AcDbVertex
100
AcDb2dVertex
 10
-24.37232801039998
 20
29.99679089961886
 30
0.0
  0
VERTEX
  5
39F
330
39D
100
AcDbEntity
  8
BEMAßUNG
 62
     7
100
AcDbVertex
100
AcDb2dVertex
 10
-24.55664061886084
 20
29.99679089961886
 30
0.0
  0
SEQEND
  5
3A0
330
39D
100
AcDbEntity
  8
BEMAßUNG
  0
POLYLINE
  5
3A1
330
1F
100
AcDbEntity
  8
BEMAßUNG
 62
     7
100
AcDb2dPolyline
 66
     1
 10
0.0
 20
0.0
 30
0.0
  0
VERTEX
  5
3A2
330
3A1
100
AcDbEntity
  8
BEMAßUNG
 62
     7
100
AcDbVertex
100
AcDb2dVertex
 10
-24.37232801039998
 20
30.04743380325203
 30
0.0
  0
VERTEX
  5
3A3
330
3A1
100
AcDbEntity
  8
BEMAßUNG
 62
     7
100
AcDbVertex
100
AcDb2dVertex
 10
-24.94249131320882
 20
30.04743380325203
 30
0.0
  0
SEQEND
  5
3A4
330
3A1
100
AcDbEntity
  8
BEMAßUNG
  0
POLYLINE
  5
3A5
330
1F
100
AcDbEntity
  8
BEMAßUNG
 62
     7
100
AcDb2dPolyline
 66
     1
 10
0.0
 20
0.0
 30
0.0
  0
VERTEX
  5
3A6
330
3A5
100
AcDbEntity
  8
BEMAßUNG
 62
     7
100
AcDbVertex
100
AcDb2dVertex
 10
-24.37232801039998
 20
30.09842121643373
 30
0.0
  0
VERTEX
  5
3A7
330
3A5
100
AcDbEntity
  8
BEMAßUNG
 62
     7
100
AcDbVertex
100
AcDb2dVertex
 10
-25.32868651710533
 20
30.09842121643373
 30
0.0
  0
SEQEND
  5
3A8
330
3A5
100
AcDbEntity
  8
BEMAßUNG
  0
POLYLINE
  5
3A9
330
1F
100
AcDbEntity
  8
BEMAßUNG
 62
     7
100
AcDb2dPolyline
 66
     1
 10
0.0
 20
0.0
 30
0.0
  0
VERTEX
  5
3AA
330
3A9
100
AcDbEntity
  8
BEMAßUNG
 62
     7
100
AcDbVertex
100
AcDb2dVertex
 10
-24.37232801039998
 20
30.14940862961543
 30
0.0
  0
VERTEX
  5
3AB
330
3A9
100
AcDbEntity
  8
BEMAßUNG
 62
     7
100
AcDbVertex
100
AcDb2dVertex
 10
-25.71488172100184
 20
30.14940862961543
 30
0.0
  0
SEQEND
  5
3AC
330
3A9
100
AcDbEntity
  8
BEMAßUNG
  0
POLYLINE
  5
3AD
330
1F
100
AcDbEntity
  8
BEMAßUNG
 62
     7
100
AcDb2dPolyline
 66
     1
 10
0.0
 20
0.0
 30
0.0
  0
VERTEX
  5
3AE
330
3AD
100
AcDbEntity
  8
BEMAßUNG
 62
     7
100
AcDbVertex
100
AcDb2dVertex
 10
-24.37232801039998
 20
30.2000515332486
 30
0.0
  0
VERTEX
  5
3AF
330
3AD
100
AcDbEntity
  8
BEMAßUNG
 62
     7
100
AcDbVertex
100
AcDb2dVertex
 10
-26.10073241534982
 20
30.2000515332486
 30
0.0
  0
SEQEND
  5
3B0
330
3AD
100
AcDbEntity
  8
BEMAßUNG
  0
POLYLINE
  5
3B1
330
1F
100
AcDbEntity
  8
BEMAßUNG
 62
     7
100
AcDb2dPolyline
 66
     1
 10
0.0
 20
0.0
 30
0.0
  0
VERTEX
  5
3B2
330
3B1
100
AcDbEntity
  8
BEMAßUNG
 62
     7
100
AcDbVertex
100
AcDb2dVertex
 10
-24.37232801039998
 20
30.25069443688177
 30
0.0
  0
VERTEX
  5
3B3
330
3B1
100
AcDbEntity
  8
BEMAßUNG
 62
     7
100
AcDbVertex
100
AcDb2dVertex
 10
-26.48589409060075
 20
30.25069443688177
 30
0.0
  0
SEQEND
  5
3B4
330
3B1
100
AcDbEntity
  8
BEMAßUNG
  0
POLYLINE
  5
3B5
330
1F
100
AcDbEntity
  8
BEMAßUNG
 62
     7
100
AcDb2dPolyline
 66
     1
 10
0.0
 20
0.0
 30
0.0
  0
VERTEX
  5
3B6
330
3B5
100
AcDbEntity
  8
BEMAßUNG
 62
     7
100
AcDbVertex
100
AcDb2dVertex
 10
-24.37232801039998
 20
30.30133734051494
 30
0.0
  0
VERTEX
  5
3B7
330
3B5
100
AcDbEntity
  8
BEMAßUNG
 62
     7
100
AcDbVertex
100
AcDb2dVertex
 10
-26.87208929449726
 20
30.30133734051494
 30
0.0
  0
SEQEND
  5
3B8
330
3B5
100
AcDbEntity
  8
BEMAßUNG
  0
POLYLINE
  5
3B9
330
1F
100
AcDbEntity
  8
BEMAßUNG
 62
     7
100
AcDb2dPolyline
 66
     1
 10
0.0
 20
0.0
 30
0.0
  0
VERTEX
  5
3BA
330
3B9
100
AcDbEntity
  8
BEMAßUNG
 62
     7
100
AcDbVertex
100
AcDb2dVertex
 10
-24.37232801039998
 20
30.60657280050808
 30
0.0
  0
VERTEX
  5
3BB
330
3B9
100
AcDbEntity
  8
BEMAßUNG
 62
     7
100
AcDbVertex
100
AcDb2dVertex
 10
-24.55664061886084
 20
30.60657280050808
 30
0.0
  0
SEQEND
  5
3BC
330
3B9
100
AcDbEntity
  8
BEMAßUNG
  0
POLYLINE
  5
3BD
330
1F
100
AcDbEntity
  8
BEMAßUNG
 62
     7
100
AcDb2dPolyline
 66
     1
 10
0.0
 20
0.0
 30
0.0
  0
VERTEX
  5
3BE
330
3BD
100
AcDbEntity
  8
BEMAßUNG
 62
     7
100
AcDbVertex
100
AcDb2dVertex
 10
-24.37232801039998
 20
30.60657280050808
 30
0.0
  0
VERTEX
  5
3BF
330
3BD
100
AcDbEntity
  8
BEMAßUNG
 62
     7
100
AcDbVertex
100
AcDb2dVertex
 10
-24.55664061886084
 20
30.60657280050808
 30
0.0
  0
SEQEND
  5
3C0
330
3BD
100
AcDbEntity
  8
BEMAßUNG
  0
POLYLINE
  5
3C1
330
1F
100
AcDbEntity
  8
BEMAßUNG
 62
     7
100
AcDb2dPolyline
 66
     1
 10
0.0
 20
0.0
 30
0.0
  0
VERTEX
  5
3C2
330
3C1
100
AcDbEntity
  8
BEMAßUNG
 62
     7
100
AcDbVertex
100
AcDb2dVertex
 10
-24.37232801039998
 20
30.55592989687491
 30
0.0
  0
VERTEX
  5
3C3
330
3C1
100
AcDbEntity
  8
BEMAßUNG
 62
     7
100
AcDbVertex
100
AcDb2dVertex
 10
-24.94249131320882
 20
30.55592989687491
 30
0.0
  0
SEQEND
  5
3C4
330
3C1
100
AcDbEntity
  8
BEMAßUNG
  0
POLYLINE
  5
3C5
330
1F
100
AcDbEntity
  8
BEMAßUNG
 62
     7
100
AcDb2dPolyline
 66
     1
 10
0.0
 20
0.0
 30
0.0
  0
VERTEX
  5
3C6
330
3C5
100
AcDbEntity
  8
BEMAßUNG
 62
     7
100
AcDbVertex
100
AcDb2dVertex
 10
-24.37232801039998
 20
30.50494248369321
 30
0.0
  0
VERTEX
  5
3C7
330
3C5
100
AcDbEntity
  8
BEMAßUNG
 62
     7
100
AcDbVertex
100
AcDb2dVertex
 10
-25.32868651710533
 20
30.50494248369321
 30
0.0
  0
SEQEND
  5
3C8
330
3C5
100
AcDbEntity
  8
BEMAßUNG
  0
POLYLINE
  5
3C9
330
1F
100
AcDbEntity
  8
BEMAßUNG
 62
     7
100
AcDb2dPolyline
 66
     1
 10
0.0
 20
0.0
 30
0.0
  0
VERTEX
  5
3CA
330
3C9
100
AcDbEntity
  8
BEMAßUNG
 62
     7
100
AcDbVertex
100
AcDb2dVertex
 10
-24.37232801039998
 20
30.45395507051151
 30
0.0
  0
VERTEX
  5
3CB
330
3C9
100
AcDbEntity
  8
BEMAßUNG
 62
     7
100
AcDbVertex
100
AcDb2dVertex
 10
-25.71488172100184
 20
30.45395507051151
 30
0.0
  0
SEQEND
  5
3CC
330
3C9
100
AcDbEntity
  8
BEMAßUNG
  0
POLYLINE
  5
3CD
330
1F
100
AcDbEntity
  8
BEMAßUNG
 62
     7
100
AcDb2dPolyline
 66
     1
 10
0.0
 20
0.0
 30
0.0
  0
VERTEX
  5
3CE
330
3CD
100
AcDbEntity
  8
BEMAßUNG
 62
     7
100
AcDbVertex
100
AcDb2dVertex
 10
-24.37232801039998
 20
30.40331216687834
 30
0.0
  0
VERTEX
  5
3CF
330
3CD
100
AcDbEntity
  8
BEMAßUNG
 62
     7
100
AcDbVertex
100
AcDb2dVertex
 10
-26.10073241534982
 20
30.40331216687834
 30
0.0
  0
SEQEND
  5
3D0
330
3CD
100
AcDbEntity
  8
BEMAßUNG
  0
POLYLINE
  5
3D1
330
1F
100
AcDbEntity
  8
BEMAßUNG
 62
     7
100
AcDb2dPolyline
 66
     1
 10
0.0
 20
0.0
 30
0.0
  0
VERTEX
  5
3D2
330
3D1
100
AcDbEntity
  8
BEMAßUNG
 62
     7
100
AcDbVertex
100
AcDb2dVertex
 10
-24.37232801039998
 20
30.35266926324517
 30
0.0
  0
VERTEX
  5
3D3
330
3D1
100
AcDbEntity
  8
BEMAßUNG
 62
     7
100
AcDbVertex
100
AcDb2dVertex
 10
-26.48589409060075
 20
30.35266926324517
 30
0.0
  0
SEQEND
  5
3D4
330
3D1
100
AcDbEntity
  8
BEMAßUNG
  0
POLYLINE
  5
3D5
330
1F
100
AcDbEntity
  8
BEMAßUNG
 62
     7
100
AcDb2dPolyline
 66
     1
 10
0.0
 20
0.0
 30
0.0
  0
VERTEX
  5
3D6
330
3D5
100
AcDbEntity
  8
BEMAßUNG
 62
     7
100
AcDbVertex
100
AcDb2dVertex
 10
-24.37232801039998
 20
30.30133734051494
 30
0.0
  0
VERTEX
  5
3D7
330
3D5
100
AcDbEntity
  8
BEMAßUNG
 62
     7
100
AcDbVertex
100
AcDb2dVertex
 10
-26.87208929449726
 20
30.30133734051494
 30
0.0
  0
SEQEND
  5
3D8
330
3D5
100
AcDbEntity
  8
BEMAßUNG
  0
POLYLINE
  5
3D9
330
1F
100
AcDbEntity
  8
BEMAßUNG
 62
     7
100
AcDb2dPolyline
 66
     1
 10
0.0
 20
0.0
 30
0.0
  0
VERTEX
  5
3DA
330
3D9
100
AcDbEntity
  8
BEMAßUNG
 62
     7
100
AcDbVertex
100
AcDb2dVertex
 10
-17.37223849392083
 20
30.30133734051494
 30
0.0
  0
VERTEX
  5
3DB
330
3D9
100
AcDbEntity
  8
BEMAßUNG
 62
     7
100
AcDbVertex
100
AcDb2dVertex
 10
-19.87199977801811
 20
30.63068846890483
 30
0.0
  0
VERTEX
  5
3DC
330
3D9
100
AcDbEntity
  8
BEMAßUNG
 62
     7
100
AcDbVertex
100
AcDb2dVertex
 10
-19.87199977801811
 20
29.97233072167359
 30
0.0
  0
VERTEX
  5
3DD
330
3D9
100
AcDbEntity
  8
BEMAßUNG
 62
     7
100
AcDbVertex
100
AcDb2dVertex
 10
-17.37223849392083
 20
30.30133734051494
 30
0.0
  0
SEQEND
  5
3DE
330
3D9
100
AcDbEntity
  8
BEMAßUNG
  0
POLYLINE
  5
3DF
330
1F
100
AcDbEntity
  8
BEMAßUNG
 62
     7
100
AcDb2dPolyline
 66
     1
 10
0.0
 20
0.0
 30
0.0
  0
VERTEX
  5
3E0
330
3DF
100
AcDbEntity
  8
BEMAßUNG
 62
     7
100
AcDbVertex
100
AcDb2dVertex
 10
-19.87199977801811
 20
30.60657280050808
 30
0.0
  0
VERTEX
  5
3E1
330
3DF
100
AcDbEntity
  8
BEMAßUNG
 62
     7
100
AcDbVertex
100
AcDb2dVertex
 10
-19.68699815046019
 20
30.60657280050808
 30
0.0
  0
SEQEND
  5
3E2
330
3DF
100
AcDbEntity
  8
BEMAßUNG
  0
POLYLINE
  5
3E3
330
1F
100
AcDbEntity
  8
BEMAßUNG
 62
     7
100
AcDb2dPolyline
 66
     1
 10
0.0
 20
0.0
 30
0.0
  0
VERTEX
  5
3E4
330
3E3
100
AcDbEntity
  8
BEMAßUNG
 62
     7
100
AcDbVertex
100
AcDb2dVertex
 10
-19.87199977801811
 20
30.60657280050808
 30
0.0
  0
VERTEX
  5
3E5
330
3E3
100
AcDbEntity
  8
BEMAßUNG
 62
     7
100
AcDbVertex
100
AcDb2dVertex
 10
-19.68699815046019
 20
30.60657280050808
 30
0.0
  0
SEQEND
  5
3E6
330
3E3
100
AcDbEntity
  8
BEMAßUNG
  0
POLYLINE
  5
3E7
330
1F
100
AcDbEntity
  8
BEMAßUNG
 62
     7
100
AcDb2dPolyline
 66
     1
 10
0.0
 20
0.0
 30
0.0
  0
VERTEX
  5
3E8
330
3E7
100
AcDbEntity
  8
BEMAßUNG
 62
     7
100
AcDbVertex
100
AcDb2dVertex
 10
-19.87199977801811
 20
30.55592989687491
 30
0.0
  0
VERTEX
  5
3E9
330
3E7
100
AcDbEntity
  8
BEMAßUNG
 62
     7
100
AcDbVertex
100
AcDb2dVertex
 10
-19.30149196566074
 20
30.55592989687491
 30
0.0
  0
SEQEND
  5
3EA
330
3E7
100
AcDbEntity
  8
BEMAßUNG
  0
POLYLINE
  5
3EB
330
1F
100
AcDbEntity
  8
BEMAßUNG
 62
     7
100
AcDb2dPolyline
 66
     1
 10
0.0
 20
0.0
 30
0.0
  0
VERTEX
  5
3EC
330
3EB
100
AcDbEntity
  8
BEMAßUNG
 62
     7
100
AcDbVertex
100
AcDb2dVertex
 10
-19.87199977801811
 20
30.50494248369321
 30
0.0
  0
VERTEX
  5
3ED
330
3EB
100
AcDbEntity
  8
BEMAßUNG
 62
     7
100
AcDbVertex
100
AcDb2dVertex
 10
-18.91564127131276
 20
30.50494248369321
 30
0.0
  0
SEQEND
  5
3EE
330
3EB
100
AcDbEntity
  8
BEMAßUNG
  0
POLYLINE
  5
3EF
330
1F
100
AcDbEntity
  8
BEMAßUNG
 62
     7
100
AcDb2dPolyline
 66
     1
 10
0.0
 20
0.0
 30
0.0
  0
VERTEX
  5
3F0
330
3EF
100
AcDbEntity
  8
BEMAßUNG
 62
     7
100
AcDbVertex
100
AcDb2dVertex
 10
-19.87199977801811
 20
30.45395507051151
 30
0.0
  0
VERTEX
  5
3F1
330
3EF
100
AcDbEntity
  8
BEMAßUNG
 62
     7
100
AcDbVertex
100
AcDb2dVertex
 10
-18.52944606741625
 20
30.45395507051151
 30
0.0
  0
SEQEND
  5
3F2
330
3EF
100
AcDbEntity
  8
BEMAßUNG
  0
POLYLINE
  5
3F3
330
1F
100
AcDbEntity
  8
BEMAßUNG
 62
     7
100
AcDb2dPolyline
 66
     1
 10
0.0
 20
0.0
 30
0.0
  0
VERTEX
  5
3F4
330
3F3
100
AcDbEntity
  8
BEMAßUNG
 62
     7
100
AcDbVertex
100
AcDb2dVertex
 10
-19.87199977801811
 20
30.40331216687834
 30
0.0
  0
VERTEX
  5
3F5
330
3F3
100
AcDbEntity
  8
BEMAßUNG
 62
     7
100
AcDbVertex
100
AcDb2dVertex
 10
-18.14359537306827
 20
30.40331216687834
 30
0.0
  0
SEQEND
  5
3F6
330
3F3
100
AcDbEntity
  8
BEMAßUNG
  0
POLYLINE
  5
3F7
330
1F
100
AcDbEntity
  8
BEMAßUNG
 62
     7
100
AcDb2dPolyline
 66
     1
 10
0.0
 20
0.0
 30
0.0
  0
VERTEX
  5
3F8
330
3F7
100
AcDbEntity
  8
BEMAßUNG
 62
     7
100
AcDbVertex
100
AcDb2dVertex
 10
-19.87199977801811
 20
30.35266926324517
 30
0.0
  0
VERTEX
  5
3F9
330
3F7
100
AcDbEntity
  8
BEMAßUNG
 62
     7
100
AcDbVertex
100
AcDb2dVertex
 10
-17.75808918826881
 20
30.35266926324517
 30
0.0
  0
SEQEND
  5
3FA
330
3F7
100
AcDbEntity
  8
BEMAßUNG
  0
POLYLINE
  5
3FB
330
1F
100
AcDbEntity
  8
BEMAßUNG
 62
     7
100
AcDb2dPolyline
 66
     1
 10
0.0
 20
0.0
 30
0.0
  0
VERTEX
  5
3FC
330
3FB
100
AcDbEntity
  8
BEMAßUNG
 62
     7
100
AcDbVertex
100
AcDb2dVertex
 10
-19.87199977801811
 20
30.30133734051494
 30
0.0
  0
VERTEX
  5
3FD
330
3FB
100
AcDbEntity
  8
BEMAßUNG
 62
     7
100
AcDbVertex
100
AcDb2dVertex
 10
-17.37223849392083
 20
30.30133734051494
 30
0.0
  0
SEQEND
  5
3FE
330
3FB
100
AcDbEntity
  8
BEMAßUNG
  0
POLYLINE
  5
3FF
330
1F
100
AcDbEntity
  8
BEMAßUNG
 62
     7
100
AcDb2dPolyline
 66
     1
 10
0.0
 20
0.0
 30
0.0
  0
VERTEX
  5
400
330
3FF
100
AcDbEntity
  8
BEMAßUNG
 62
     7
100
AcDbVertex
100
AcDb2dVertex
 10
-19.87199977801811
 20
29.99679089961886
 30
0.0
  0
VERTEX
  5
401
330
3FF
100
AcDbEntity
  8
BEMAßUNG
 62
     7
100
AcDbVertex
100
AcDb2dVertex
 10
-19.68699815046019
 20
29.99679089961886
 30
0.0
  0
SEQEND
  5
402
330
3FF
100
AcDbEntity
  8
BEMAßUNG
  0
POLYLINE
  5
403
330
1F
100
AcDbEntity
  8
BEMAßUNG
 62
     7
100
AcDb2dPolyline
 66
     1
 10
0.0
 20
0.0
 30
0.0
  0
VERTEX
  5
404
330
403
100
AcDbEntity
  8
BEMAßUNG
 62
     7
100
AcDbVertex
100
AcDb2dVertex
 10
-19.87199977801811
 20
29.99679089961886
 30
0.0
  0
VERTEX
  5
405
330
403
100
AcDbEntity
  8
BEMAßUNG
 62
     7
100
AcDbVertex
100
AcDb2dVertex
 10
-19.68699815046019
 20
29.99679089961886
 30
0.0
  0
SEQEND
  5
406
330
403
100
AcDbEntity
  8
BEMAßUNG
  0
POLYLINE
  5
407
330
1F
100
AcDbEntity
  8
BEMAßUNG
 62
     7
100
AcDb2dPolyline
 66
     1
 10
0.0
 20
0.0
 30
0.0
  0
VERTEX
  5
408
330
407
100
AcDbEntity
  8
BEMAßUNG
 62
     7
100
AcDbVertex
100
AcDb2dVertex
 10
-19.87199977801811
 20
30.04743380325203
 30
0.0
  0
VERTEX
  5
409
330
407
100
AcDbEntity
  8
BEMAßUNG
 62
     7
100
AcDbVertex
100
AcDb2dVertex
 10
-19.30149196566074
 20
30.04743380325203
 30
0.0
  0
SEQEND
  5
40A
330
407
100
AcDbEntity
  8
BEMAßUNG
  0
POLYLINE
  5
40B
330
1F
100
AcDbEntity
  8
BEMAßUNG
 62
     7
100
AcDb2dPolyline
 66
     1
 10
0.0
 20
0.0
 30
0.0
  0
VERTEX
  5
40C
330
40B
100
AcDbEntity
  8
BEMAßUNG
 62
     7
100
AcDbVertex
100
AcDb2dVertex
 10
-19.87199977801811
 20
30.09842121643373
 30
0.0
  0
VERTEX
  5
40D
330
40B
100
AcDbEntity
  8
BEMAßUNG
 62
     7
100
AcDbVertex
100
AcDb2dVertex
 10
-18.91564127131276
 20
30.09842121643373
 30
0.0
  0
SEQEND
  5
40E
330
40B
100
AcDbEntity
  8
BEMAßUNG
  0
POLYLINE
  5
40F
330
1F
100
AcDbEntity
  8
BEMAßUNG
 62
     7
100
AcDb2dPolyline
 66
     1
 10
0.0
 20
0.0
 30
0.0
  0
VERTEX
  5
410
330
40F
100
AcDbEntity
  8
BEMAßUNG
 62
     7
100
AcDbVertex
100
AcDb2dVertex
 10
-19.87199977801811
 20
30.14940862961543
 30
0.0
  0
VERTEX
  5
411
330
40F
100
AcDbEntity
  8
BEMAßUNG
 62
     7
100
AcDbVertex
100
AcDb2dVertex
 10
-18.52944606741625
 20
30.14940862961543
 30
0.0
  0
SEQEND
  5
412
330
40F
100
AcDbEntity
  8
BEMAßUNG
  0
POLYLINE
  5
413
330
1F
100
AcDbEntity
  8
BEMAßUNG
 62
     7
100
AcDb2dPolyline
 66
     1
 10
0.0
 20
0.0
 30
0.0
  0
VERTEX
  5
414
330
413
100
AcDbEntity
  8
BEMAßUNG
 62
     7
100
AcDbVertex
100
AcDb2dVertex
 10
-19.87199977801811
 20
30.2000515332486
 30
0.0
  0
VERTEX
  5
415
330
413
100
AcDbEntity
  8
BEMAßUNG
 62
     7
100
AcDbVertex
100
AcDb2dVertex
 10
-18.14359537306827
 20
30.2000515332486
 30
0.0
  0
SEQEND
  5
416
330
413
100
AcDbEntity
  8
BEMAßUNG
  0
POLYLINE
  5
417
330
1F
100
AcDbEntity
  8
BEMAßUNG
 62
     7
100
AcDb2dPolyline
 66
     1
 10
0.0
 20
0.0
 30
0.0
  0
VERTEX
  5
418
330
417
100
AcDbEntity
  8
BEMAßUNG
 62
     7
100
AcDbVertex
100
AcDb2dVertex
 10
-19.87199977801811
 20
30.25069443688177
 30
0.0
  0
VERTEX
  5
419
330
417
100
AcDbEntity
  8
BEMAßUNG
 62
     7
100
AcDbVertex
100
AcDb2dVertex
 10
-17.75808918826881
 20
30.25069443688177
 30
0.0
  0
SEQEND
  5
41A
330
417
100
AcDbEntity
  8
BEMAßUNG
  0
POLYLINE
  5
41B
330
1F
100
AcDbEntity
  8
BEMAßUNG
 62
     7
100
AcDb2dPolyline
 66
     1
 10
0.0
 20
0.0
 30
0.0
  0
VERTEX
  5
41C
330
41B
100
AcDbEntity
  8
BEMAßUNG
 62
     7
100
AcDbVertex
100
AcDb2dVertex
 10
-19.87199977801811
 20
30.30133734051494
 30
0.0
  0
VERTEX
  5
41D
330
41B
100
AcDbEntity
  8
BEMAßUNG
 62
     7
100
AcDbVertex
100
AcDb2dVertex
 10
-17.37223849392083
 20
30.30133734051494
 30
0.0
  0
SEQEND
  5
41E
330
41B
100
AcDbEntity
  8
BEMAßUNG
  0
MTEXT
  5
420
330
1F
100
AcDbEntity
  8
TEXT
 62
     7
100
AcDbMText
 10
-40.71792804971636
 20
8.15970865681424
 30
0.0
 40
4.361611543412703
 41
0.0
 71
     7
 72
     1
  1
\fINDEX Univers 45 Light|b0|i0|c0|p34;\W1;D
 11
-4.371139000186241E-8
 21
0.999999999999999
 31
0.0
  0
MTEXT
  5
421
330
1F
100
AcDbEntity
  8
TEXT
 62
     7
100
AcDbMText
 10
13.67461750960218
 20
1.096573892955023
 30
0.0
 40
4.361611543412703
 41
0.0
 71
     7
 72
     1
  1
\fINDEX Univers 45 Light|b0|i0|c0|p34;\W1;ø20h6
 11
-4.371139000186241E-8
 21
0.999999999999999
 31
0.0
  0
MTEXT
  5
422
330
1F
100
AcDbEntity
  8
TEXT
 62
     7
100
AcDbMText
 10
-18.18631455708537
 20
-8.936405433963817
 30
0.0
 40
4.361611543412703
 41
0.0
 71
     7
 72
     1
  1
\fINDEX Univers 45 Light|b0|i0|c0|p34;\W1;29
  0
MTEXT
  5
423
330
1F
100
AcDbEntity
  8
TEXT
 62
     7
100
AcDbMText
 10
-27.41141899271312
 20
41.47688258511689
 30
0.0
 40
4.361611543412703
 41
0.0
 71
     7
 72
     1
  1
\fINDEX Univers 45 Light|b0|i0|c0|p34;\W1;7
  0
MTEXT
  5
424
330
1F
100
AcDbEntity
  8
TEXT
 62
     7
100
AcDbMText
 10
-16.12270236142071
 20
31.58601344696461
 30
0.0
 40
4.361611543412703
 41
0.0
 71
     7
 72
     1
  1
\fINDEX Univers 45 Light|b0|i0|c0|p34;\W1;ø9,5
  0
ENDSEC
  0
SECTION
  2
OBJECTS
  0
DICTIONARY
  5
C
330
0
100
AcDbDictionary
  3
ACAD_GROUP
350
D
  3
ACAD_LAYOUT
350
1A
  3
ACAD_MLINESTYLE
350
17
  3
ACAD_PLOTSETTINGS
350
19
  3
ACAD_TABLESTYLE
350
445
  3
ACAD_VISUALSTYLE
350
2A
  3
ACDBHEADERROUNDTRIPXREC
350
425
  0
DICTIONARY
  5
D
102
{ACAD_REACTORS
330
C
102
}
330
C
100
AcDbDictionary
  0
DICTIONARY
  5
1A
102
{ACAD_REACTORS
330
C
102
}
330
C
100
AcDbDictionary
  0
DICTIONARY
  5
17
102
{ACAD_REACTORS
330
C
102
}
330
C
100
AcDbDictionary
  3
STANDARD
350
18
  0
DICTIONARY
  5
19
102
{ACAD_REACTORS
330
C
102
}
330
C
100
AcDbDictionary
  0
DICTIONARY
  5
445
102
{ACAD_REACTORS
330
C
102
}
330
C
100
AcDbDictionary
  0
DICTIONARY
  5
2A
102
{ACAD_REACTORS
330
C
102
}
330
C
100
AcDbDictionary
  3
2DWIREFRAME
350
2F
  3
3D_HIDDEN
350
31
  3
3DWIREFRAME
350
30
  3
BASIC
350
32
  3
BRIGHTEN
350
36
  3
COLORCHANGE
350
3A
  3
CONCEPTUAL
350
34
  3
DIM
350
35
  3
FACEPATTERN
350
39
  3
FLAT
350
2B
  3
FLATWITHEDGES
350
2C
  3
GOURAUD
350
2D
  3
GOURAUDWITHEDGES
350
2E
  3
LINEPATTERN
350
38
  3
REALISTIC
350
33
  3
THICKEN
350
37
  0
DICTIONARY
  5
425
102
{ACAD_REACTORS
330
C
102
}
330
C
100
AcDbDictionary
  3
CEPSNTYPE
350
42E
  3
DIMSTYLEDATA
350
444
  3
FINGERPRINTGUID
350
42F
  3
HYPERLINKBASE
350
428
  3
INSUNITS
350
42D
  3
LAYOUTDICT
350
42A
  3
LWETCUNION
350
42C
  3
PLOTSETDICT
350
42B
  3
PSVPSCALE
350
431
  3
PUCSBASE
350
434
  3
PUCSORGBACK
350
43A
  3
PUCSORGBOTTOM
350
436
  3
PUCSORGFRONT
350
439
  3
PUCSORGLEFT
350
437
  3
PUCSORGRIGHT
350
438
  3
PUCSORGTOP
350
435
  3
PUCSORTHOREF
350
432
  3
PUCSORTHOVIEW
350
433
  3
STYLESHEET
350
429
  3
TSTACKALIGN
350
426
  3
TSTACKSIZE
350
427
  3
UCSBASE
350
43D
  3
UCSORGBACK
350
443
  3
UCSORGBOTTOM
350
43F
  3
UCSORGFRONT
350
442
  3
UCSORGLEFT
350
440
  3
UCSORGRIGHT
350
441
  3
UCSORGTOP
350
43E
  3
UCSORTHOREF
350
43B
  3
UCSORTHOVIEW
350
43C
  3
VERSIONGUID
350
430
  0
MLINESTYLE
  5
18
102
{ACAD_REACTORS
330
17
102
}
330
17
100
AcDbMlineStyle
  2
Standard
 70
     0
  3

 62
   256
 51
90.0
 52
90.0
 71
     2
 49
0.5
 62
   256
  6
BYLAYER
 49
-0.5
 62
   256
  6
BYLAYER
  0
VISUALSTYLE
  5
2F
102
{ACAD_REACTORS
330
2A
102
}
330
2A
100
AcDbVisualStyle
  2
2dWireframe
 70
     4
 71
     0
 72
     2
 73
     0
 90
        0
 40
-0.6
 41
-30.0
 62
     5
 63
     7
 74
     1
 91
        4
 64
     7
 65
   257
 75
     1
175
     1
 42
1.0
 92
        0
 66
   257
 43
1.0
 76
     1
 77
     6
 78
     2
 67
     7
 79
     5
170
     0
171
     0
290
     0
174
     0
 93
        1
 44
0.0
173
     0
291
     0
 45
0.0
1001
ACAD
1000
AcDbSavedByObjectVersion
1070
     0
  0
VISUALSTYLE
  5
31
102
{ACAD_REACTORS
330
2A
102
}
330
2A
100
AcDbVisualStyle
  2
3D Hidden
 70
     6
 71
     1
 72
     2
 73
     2
 90
        0
 40
-0.6
 41
-30.0
 62
     5
 63
     7
 74
     2
 91
        2
 64
     7
 65
   257
 75
     2
175
     1
 42
40.0
 92
        0
 66
   257
 43
1.0
 76
     1
 77
     6
 78
     2
 67
     7
 79
     3
170
     0
171
     0
290
     0
174
     0
 93
        1
 44
0.0
173
     0
291
     0
 45
0.0
1001
ACAD
1000
AcDbSavedByObjectVersion
1070
     0
  0
VISUALSTYLE
  5
30
102
{ACAD_REACTORS
330
2A
102
}
330
2A
100
AcDbVisualStyle
  2
3dWireframe
 70
     5
 71
     0
 72
     2
 73
     0
 90
        0
 40
-0.6
 41
-30.0
 62
     5
 63
     7
 74
     1
 91
        4
 64
     7
 65
   257
 75
     1
175
     1
 42
1.0
 92
        0
 66
   257
 43
1.0
 76
     1
 77
     6
 78
     2
 67
     7
 79
     5
170
     0
171
     0
290
     0
174
     0
 93
        1
 44
0.0
173
     0
291
     0
 45
0.0
1001
ACAD
1000
AcDbSavedByObjectVersion
1070
     0
  0
VISUALSTYLE
  5
32
102
{ACAD_REACTORS
330
2A
102
}
330
2A
100
AcDbVisualStyle
  2
Basic
 70
     7
 71
     1
 72
     0
 73
     1
 90
        0
 40
-0.6
 41
-30.0
 62
     5
 63
     7
 74
     0
 91
        4
 64
     7
 65
   257
 75
     1
175
     1
 42
1.0
 92
        8
 66
     7
 43
1.0
 76
     1
 77
     6
 78
     2
 67
     7
 79
     5
170
     0
171
     0
290
     0
174
     0
 93
        1
 44
0.0
173
     0
291
     1
 45
0.0
1001
ACAD
1000
AcDbSavedByObjectVersion
1070
     0
  0
VISUALSTYLE
  5
36
102
{ACAD_REACTORS
330
2A
102
}
330
2A
100
AcDbVisualStyle
  2
Brighten
 70
    12
 71
     2
 72
     2
 73
     0
 90
        0
 40
-0.6
 41
-30.0
 62
     5
 63
     7
 74
     1
 91
        4
 64
     7
 65
   257
 75
     1
175
     1
 42
1.0
 92
        8
 66
     7
 43
1.0
 76
     1
 77
     6
 78
     2
 67
     7
 79
     5
170
     0
171
     0
290
     0
174
     0
 93
        1
 44
50.0
173
     0
291
     1
 45
0.0
1001
ACAD
1000
AcDbSavedByObjectVersion
1070
     0
  0
VISUALSTYLE
  5
3A
102
{ACAD_REACTORS
330
2A
102
}
330
2A
100
AcDbVisualStyle
  2
ColorChange
 70
    16
 71
     2
 72
     2
 73
     3
 90
        0
 40
-0.6
 41
-30.0
 62
     5
 63
     8
 74
     1
 91
        4
 64
     7
 65
   257
 75
     1
175
     1
 42
1.0
 92
        8
 66
     8
 43
1.0
 76
     1
 77
     6
 78
     2
 67
     7
 79
     5
170
     0
171
     0
290
     0
174
     0
 93
        1
 44
0.0
173
     0
291
     1
 45
0.0
1001
ACAD
1000
AcDbSavedByObjectVersion
1070
     0
  0
VISUALSTYLE
  5
34
102
{ACAD_REACTORS
330
2A
102
}
330
2A
100
AcDbVisualStyle
  2
Conceptual
 70
     9
 71
     3
 72
     2
 73
     0
 90
        0
 40
-0.6
 41
-30.0
 62
     5
 63
     7
 74
     2
 91
        2
 64
     7
 65
   257
 75
     1
175
     1
 42
40.0
 92
        8
 66
     7
 43
1.0
 76
     1
 77
     6
 78
     2
 67
     7
 79
     3
170
     0
171
     0
290
     0
174
     0
 93
        1
 44
0.0
173
     0
291
     0
 45
0.0
1001
ACAD
1000
AcDbSavedByObjectVersion
1070
     0
  0
VISUALSTYLE
  5
35
102
{ACAD_REACTORS
330
2A
102
}
330
2A
100
AcDbVisualStyle
  2
Dim
 70
    11
 71
     2
 72
     2
 73
     0
 90
        0
 40
-0.6
 41
-30.0
 62
     5
 63
     7
 74
     1
 91
        4
 64
     7
 65
   257
 75
     1
175
     1
 42
1.0
 92
        8
 66
     7
 43
1.0
 76
     1
 77
     6
 78
     2
 67
     7
 79
     5
170
     0
171
     0
290
     0
174
     0
 93
        1
 44
-50.0
173
     0
291
     1
 45
0.0
1001
ACAD
1000
AcDbSavedByObjectVersion
1070
     0
  0
VISUALSTYLE
  5
39
102
{ACAD_REACTORS
330
2A
102
}
330
2A
100
AcDbVisualStyle
  2
Facepattern
 70
    15
 71
     2
 72
     2
 73
     0
 90
        0
 40
-0.6
 41
-30.0
 62
     5
 63
     7
 74
     1
 91
        4
 64
     7
 65
   257
 75
     1
175
     1
 42
1.0
 92
        8
 66
     7
 43
1.0
 76
     1
 77
     6
 78
     2
 67
     7
 79
     5
170
     0
171
     0
290
     0
174
     0
 93
        1
 44
0.0
173
     0
291
     1
 45
0.0
1001
ACAD
1000
AcDbSavedByObjectVersion
1070
     0
  0
VISUALSTYLE
  5
2B
102
{ACAD_REACTORS
330
2A
102
}
330
2A
100
AcDbVisualStyle
  2
Flat
 70
     0
 71
     2
 72
     1
 73
     1
 90
        2
 40
-0.6
 41
30.0
 62
     5
 63
     7
 74
     0
 91
        4
 64
     7
 65
   257
 75
     1
175
     1
 42
1.0
 92
        8
 66
     7
 43
1.0
 76
     1
 77
     6
 78
     2
 67
     7
 79
     5
170
     0
171
     0
290
     0
174
     0
 93
       13
 44
0.0
173
     0
291
     1
 45
0.0
1001
ACAD
1000
AcDbSavedByObjectVersion
1070
     0
  0
VISUALSTYLE
  5
2C
102
{ACAD_REACTORS
330
2A
102
}
330
2A
100
AcDbVisualStyle
  2
FlatWithEdges
 70
     1
 71
     2
 72
     1
 73
     1
 90
        2
 40
-0.6
 41
30.0
 62
     5
 63
     7
 74
     1
 91
        4
 64
     7
 65
   257
 75
     1
175
     1
 42
1.0
 92
        0
 66
   257
 43
1.0
 76
     1
 77
     6
 78
     2
 67
     7
 79
     5
170
     0
171
     0
290
     0
174
     0
 93
       13
 44
0.0
173
     0
291
     1
 45
0.0
1001
ACAD
1000
AcDbSavedByObjectVersion
1070
     0
  0
VISUALSTYLE
  5
2D
102
{ACAD_REACTORS
330
2A
102
}
330
2A
100
AcDbVisualStyle
  2
Gouraud
 70
     2
 71
     2
 72
     2
 73
     1
 90
        2
 40
-0.6
 41
30.0
 62
     5
 63
     7
 74
     0
 91
        4
 64
     7
 65
   257
 75
     1
175
     1
 42
1.0
 92
        0
 66
     7
 43
1.0
 76
     1
 77
     6
 78
     2
 67
     7
 79
     5
170
     0
171
     0
290
     0
174
     0
 93
       13
 44
0.0
173
     0
291
     1
 45
0.0
1001
ACAD
1000
AcDbSavedByObjectVersion
1070
     0
  0
VISUALSTYLE
  5
2E
102
{ACAD_REACTORS
330
2A
102
}
330
2A
100
AcDbVisualStyle
  2
GouraudWithEdges
 70
     3
 71
     2
 72
     2
 73
     1
 90
        2
 40
-0.6
 41
30.0
 62
     5
 63
     7
 74
     1
 91
        4
 64
     7
 65
   257
 75
     1
175
     1
 42
1.0
 92
        0
 66
   257
 43
1.0
 76
     1
 77
     6
 78
     2
 67
     7
 79
     5
170
     0
171
     0
290
     0
174
     0
 93
       13
 44
0.0
173
     0
291
     1
 45
0.0
1001
ACAD
1000
AcDbSavedByObjectVersion
1070
     0
  0
VISUALSTYLE
  5
38
102
{ACAD_REACTORS
330
2A
102
}
330
2A
100
AcDbVisualStyle
  2
Linepattern
 70
    14
 71
     2
 72
     2
 73
     0
 90
        0
 40
-0.6
 41
-30.0
 62
     5
 63
     7
 74
     1
 91
        4
 64
     7
 65
   257
 75
     7
175
     7
 42
1.0
 92
        8
 66
     7
 43
1.0
 76
     1
 77
     6
 78
     2
 67
     7
 79
     5
170
     0
171
     0
290
     0
174
     0
 93
        1
 44
0.0
173
     0
291
     1
 45
0.0
1001
ACAD
1000
AcDbSavedByObjectVersion
1070
     0
  0
VISUALSTYLE
  5
33
102
{ACAD_REACTORS
330
2A
102
}
330
2A
100
AcDbVisualStyle
  2
Realistic
 70
     8
 71
     2
 72
     2
 73
     0
 90
        0
 40
-0.6
 41
-30.0
 62
     5
 63
     7
 74
     1
 91
        0
 64
     7
 65
   257
 75
     1
175
     1
 42
1.0
 92
        8
 66
     8
 43
1.0
 76
     1
 77
     6
 78
     2
 67
     7
 79
     5
170
     0
171
     0
290
     0
174
     0
 93
       13
 44
0.0
173
     0
291
     0
 45
0.0
1001
ACAD
1000
AcDbSavedByObjectVersion
1070
     0
  0
VISUALSTYLE
  5
37
102
{ACAD_REACTORS
330
2A
102
}
330
2A
100
AcDbVisualStyle
  2
Thicken
 70
    13
 71
     2
 72
     2
 73
     0
 90
        0
 40
-0.6
 41
-30.0
 62
     5
 63
     7
 74
     1
 91
        4
 64
     7
 65
   257
 75
     1
175
     1
 42
1.0
 92
       12
 66
     7
 43
1.0
 76
     1
 77
     6
 78
     2
 67
     7
 79
     5
170
     0
171
     0
290
     0
174
     0
 93
        1
 44
0.0
173
     0
291
     1
 45
0.0
1001
ACAD
1000
AcDbSavedByObjectVersion
1070
     0
  0
XRECORD
  5
42E
102
{ACAD_REACTORS
330
425
102
}
330
425
100
AcDbXrecord
 90
        0
  0
XRECORD
  5
444
102
{ACAD_REACTORS
330
425
102
}
330
425
100
AcDbXrecord
1000
DSTYLE
1002
{
1070
   340
340
11
1002
}
  0
XRECORD
  5
42F
102
{ACAD_REACTORS
330
425
102
}
330
425
100
AcDbXrecord
  1
{AF8CA649-B0B8-4BA8-B771-94DB2E8059A2}
  0
XRECORD
  5
428
102
{ACAD_REACTORS
330
425
102
}
330
425
100
AcDbXrecord
  1

  0
XRECORD
  5
42D
102
{ACAD_REACTORS
330
425
102
}
330
425
100
AcDbXrecord
 90
        1
  0
XRECORD
  5
42A
102
{ACAD_REACTORS
330
425
102
}
330
425
100
AcDbXrecord
340
1A
  0
XRECORD
  5
42C
102
{ACAD_REACTORS
330
425
102
}
330
425
100
AcDbXrecord
 90
    10269
  0
XRECORD
  5
42B
102
{ACAD_REACTORS
330
425
102
}
330
425
100
AcDbXrecord
340
19
  0
XRECORD
  5
431
102
{ACAD_REACTORS
330
425
102
}
330
425
100
AcDbXrecord
 40
0.0
  0
XRECORD
  5
434
102
{ACAD_REACTORS
330
425
102
}
330
425
100
AcDbXrecord
340
0
  0
XRECORD
  5
43A
102
{ACAD_REACTORS
330
425
102
}
330
425
100
AcDbXrecord
 10
0.0
 20
0.0
 30
0.0
  0
XRECORD
  5
436
102
{ACAD_REACTORS
330
425
102
}
330
425
100
AcDbXrecord
 10
0.0
 20
0.0
 30
0.0
  0
XRECORD
  5
439
102
{ACAD_REACTORS
330
425
102
}
330
425
100
AcDbXrecord
 10
0.0
 20
0.0
 30
0.0
  0
XRECORD
  5
437
102
{ACAD_REACTORS
330
425
102
}
330
425
100
AcDbXrecord
 10
0.0
 20
0.0
 30
0.0
  0
XRECORD
  5
438
102
{ACAD_REACTORS
330
425
102
}
330
425
100
AcDbXrecord
 10
0.0
 20
0.0
 30
0.0
  0
XRECORD
  5
435
102
{ACAD_REACTORS
330
425
102
}
330
425
100
AcDbXrecord
 10
0.0
 20
0.0
 30
0.0
  0
XRECORD
  5
432
102
{ACAD_REACTORS
330
425
102
}
330
425
100
AcDbXrecord
340
0
  0
XRECORD
  5
433
102
{ACAD_REACTORS
330
425
102
}
330
425
100
AcDbXrecord
 70
     0
  0
XRECORD
  5
429
102
{ACAD_REACTORS
330
425
102
}
330
425
100
AcDbXrecord
  1

  0
XRECORD
  5
426
102
{ACAD_REACTORS
330
425
102
}
330
425
100
AcDbXrecord
 90
        1
  0
XRECORD
  5
427
102
{ACAD_REACTORS
330
425
102
}
330
425
100
AcDbXrecord
 90
       70
  0
XRECORD
  5
43D
102
{ACAD_REACTORS
330
425
102
}
330
425
100
AcDbXrecord
340
0
  0
XRECORD
  5
443
102
{ACAD_REACTORS
330
425
102
}
330
425
100
AcDbXrecord
 10
0.0
 20
0.0
 30
0.0
  0
XRECORD
  5
43F
102
{ACAD_REACTORS
330
425
102
}
330
425
100
AcDbXrecord
 10
0.0
 20
0.0
 30
0.0
  0
XRECORD
  5
442
102
{ACAD_REACTORS
330
425
102
}
330
425
100
AcDbXrecord
 10
0.0
 20
0.0
 30
0.0
  0
XRECORD
  5
440
102
{ACAD_REACTORS
330
425
102
}
330
425
100
AcDbXrecord
 10
0.0
 20
0.0
 30
0.0
  0
XRECORD
  5
441
102
{ACAD_REACTORS
330
425
102
}
330
425
100
AcDbXrecord
 10
0.0
 20
0.0
 30
0.0
  0
XRECORD
  5
43E
102
{ACAD_REACTORS
330
425
102
}
330
425
100
AcDbXrecord
 10
0.0
 20
0.0
 30
0.0
  0
XRECORD
  5
43B
102
{ACAD_REACTORS
330
425
102
}
330
425
100
AcDbXrecord
340
0
  0
XRECORD
  5
43C
102
{ACAD_REACTORS
330
425
102
}
330
425
100
AcDbXrecord
 70
     0
  0
XRECORD
  5
430
102
{ACAD_REACTORS
330
425
102
}
330
425
100
AcDbXrecord
  1
{FAEB1C32-E019-11D5-929B-00C0DF256EC4}
  0
ENDSEC
  0
EOF
