ISO-10303-21;
HEADER;
/* Generated by software containing ST-Developer
 * from STEP Tools, Inc. (www.steptools.com) 
 */
/* OPTION: using custom schema-name function */

FILE_DESCRIPTION(
/* description */ (''),
/* implementation_level */ '2;1');

FILE_NAME(
/* name */ 'W5190027_B__specification_W5190027_.stp',
/* time_stamp */ '2011-03-22T11:41:41+01:00',
/* author */ (''),
/* organization */ (''),
/* preprocessor_version */ 'ST-DEVELOPER v11',
/* originating_system */ 'UGS - NX 5.0',
/* authorisation */ '');

FILE_SCHEMA (('AUTOMOTIVE_DESIGN { 1 0 10303 214 0 1 1 1 }'));
ENDSEC;

DATA;
#10=SHAPE_REPRESENTATION_RELATIONSHIP('None',
'relationship between hees1B91g5wq-None and hees1B91g5wq-None',#22,#11);
#11=ADVANCED_BREP_SHAPE_REPRESENTATION('hees1B91g5wq-None',(#32),#605);
#12=SHAPE_DEFINITION_REPRESENTATION(#13,#22);
#13=PRODUCT_DEFINITION_SHAPE('','',#14);
#14=PRODUCT_DEFINITION(' ','',#16,#15);
#15=PRODUCT_DEFINITION_CONTEXT('part definition',#21,'design');
#16=PRODUCT_DEFINITION_FORMATION_WITH_SPECIFIED_SOURCE(' ',' ',#18,.NOT_KNOWN.);
#17=PRODUCT_RELATED_PRODUCT_CATEGORY('part','',(#18));
#18=PRODUCT('hees1B91g5wq','hees1B91g5wq',' ',(#19));
#19=PRODUCT_CONTEXT(' ',#21,'mechanical');
#20=APPLICATION_PROTOCOL_DEFINITION('draft international standard',
'automotive_design',1998,#21);
#21=APPLICATION_CONTEXT(
'core data for automotive mechanical design processes');
#22=SHAPE_REPRESENTATION('hees1B91g5wq-None',(#345),#605);
#23=PRESENTATION_LAYER_ASSIGNMENT('210','Layer 210',(#32));
#24=STYLED_ITEM('',(#25),#32);
#25=PRESENTATION_STYLE_ASSIGNMENT((#26));
#26=SURFACE_STYLE_USAGE(.BOTH.,#27);
#27=SURFACE_SIDE_STYLE('',(#28));
#28=SURFACE_STYLE_FILL_AREA(#29);
#29=FILL_AREA_STYLE('',(#30));
#30=FILL_AREA_STYLE_COLOUR('',#31);
#31=COLOUR_RGB('Orange',1.,0.499992370489052,0.);
#32=MANIFOLD_SOLID_BREP('',#33);
#33=CLOSED_SHELL('',(#80,#81,#82,#83,#84,#85,#86,#87,#88,#89,#90,#91,#92,
#93,#94,#95,#96,#97,#98,#99,#100,#101,#102,#103));
#34=TOROIDAL_SURFACE('',#380,13.0500054020544,1.2);
#35=PLANE('',#358);
#36=PLANE('',#364);
#37=PLANE('',#370);
#38=PLANE('',#371);
#39=PLANE('',#373);
#40=PLANE('',#381);
#41=PLANE('',#382);
#42=PLANE('',#384);
#43=PLANE('',#386);
#44=PLANE('',#387);
#45=PLANE('',#388);
#46=FACE_BOUND('',#128,.T.);
#47=FACE_BOUND('',#129,.T.);
#48=FACE_BOUND('',#131,.T.);
#49=FACE_BOUND('',#132,.T.);
#50=FACE_BOUND('',#133,.T.);
#51=FACE_BOUND('',#134,.T.);
#52=FACE_BOUND('',#135,.T.);
#53=FACE_BOUND('',#136,.T.);
#54=FACE_BOUND('',#137,.T.);
#55=FACE_BOUND('',#138,.T.);
#56=FACE_BOUND('',#140,.T.);
#57=FACE_BOUND('',#141,.T.);
#58=FACE_BOUND('',#142,.T.);
#59=FACE_BOUND('',#143,.T.);
#60=FACE_BOUND('',#144,.T.);
#61=FACE_BOUND('',#145,.T.);
#62=FACE_BOUND('',#146,.T.);
#63=FACE_BOUND('',#147,.T.);
#64=FACE_BOUND('',#148,.T.);
#65=FACE_BOUND('',#149,.T.);
#66=CONICAL_SURFACE('',#353,8.5,44.9999999999999);
#67=CONICAL_SURFACE('',#355,8.5,44.9999999999999);
#68=CONICAL_SURFACE('',#376,14.25,12.67);
#69=CONICAL_SURFACE('',#378,13.8790641483363,17.5400000000002);
#70=CONICAL_SURFACE('',#383,22.,45.);
#71=CONICAL_SURFACE('',#385,21.,45.);
#72=B_SPLINE_CURVE_WITH_KNOTS('',3,(#508,#509,#510,#511),.UNSPECIFIED.,.F.,
 .F.,(4,4),(0.,1.),.UNSPECIFIED.);
#73=B_SPLINE_CURVE_WITH_KNOTS('',3,(#515,#516,#517,#518),.UNSPECIFIED.,.F.,
 .F.,(4,4),(0.,1.),.UNSPECIFIED.);
#74=B_SPLINE_CURVE_WITH_KNOTS('',3,(#521,#522,#523,#524),.UNSPECIFIED.,.F.,
 .F.,(4,4),(0.,1.),.UNSPECIFIED.);
#75=B_SPLINE_CURVE_WITH_KNOTS('',3,(#525,#526,#527,#528),.UNSPECIFIED.,.F.,
 .F.,(4,4),(0.,1.),.UNSPECIFIED.);
#76=B_SPLINE_CURVE_WITH_KNOTS('',3,(#582,#583,#584,#585),.UNSPECIFIED.,.F.,
 .F.,(4,4),(0.,1.),.UNSPECIFIED.);
#77=B_SPLINE_CURVE_WITH_KNOTS('',3,(#586,#587,#588,#589),.UNSPECIFIED.,.F.,
 .F.,(4,4),(0.,1.),.UNSPECIFIED.);
#78=B_SPLINE_CURVE_WITH_KNOTS('',3,(#592,#593,#594,#595),.UNSPECIFIED.,.F.,
 .F.,(4,4),(0.,1.),.UNSPECIFIED.);
#79=B_SPLINE_CURVE_WITH_KNOTS('',3,(#596,#597,#598,#599),.UNSPECIFIED.,.F.,
 .F.,(4,4),(0.,1.),.UNSPECIFIED.);
#80=ADVANCED_FACE('',(#110),#104,.T.);
#81=ADVANCED_FACE('',(#111),#105,.T.);
#82=ADVANCED_FACE('',(#112),#66,.T.);
#83=ADVANCED_FACE('',(#113),#67,.T.);
#84=ADVANCED_FACE('',(#46,#47),#35,.F.);
#85=ADVANCED_FACE('',(#114),#106,.T.);
#86=ADVANCED_FACE('',(#48,#49),#36,.F.);
#87=ADVANCED_FACE('',(#50,#51),#107,.T.);
#88=ADVANCED_FACE('',(#52,#53),#108,.T.);
#89=ADVANCED_FACE('',(#54,#55),#37,.F.);
#90=ADVANCED_FACE('',(#115),#38,.F.);
#91=ADVANCED_FACE('',(#56,#57),#39,.T.);
#92=ADVANCED_FACE('',(#58,#59),#109,.T.);
#93=ADVANCED_FACE('',(#60,#61),#68,.T.);
#94=ADVANCED_FACE('',(#62,#63),#69,.T.);
#95=ADVANCED_FACE('',(#64,#65),#34,.T.);
#96=ADVANCED_FACE('',(#116),#40,.F.);
#97=ADVANCED_FACE('',(#117),#41,.T.);
#98=ADVANCED_FACE('',(#118),#70,.T.);
#99=ADVANCED_FACE('',(#119),#42,.T.);
#100=ADVANCED_FACE('',(#120),#71,.T.);
#101=ADVANCED_FACE('',(#121),#43,.T.);
#102=ADVANCED_FACE('',(#122),#44,.T.);
#103=ADVANCED_FACE('',(#123),#45,.T.);
#104=CYLINDRICAL_SURFACE('',#348,8.5);
#105=CYLINDRICAL_SURFACE('',#351,8.5);
#106=CYLINDRICAL_SURFACE('',#361,22.);
#107=CYLINDRICAL_SURFACE('',#367,14.25);
#108=CYLINDRICAL_SURFACE('',#369,13.);
#109=CYLINDRICAL_SURFACE('',#374,14.05);
#110=FACE_OUTER_BOUND('',#124,.T.);
#111=FACE_OUTER_BOUND('',#125,.T.);
#112=FACE_OUTER_BOUND('',#126,.T.);
#113=FACE_OUTER_BOUND('',#127,.T.);
#114=FACE_OUTER_BOUND('',#130,.T.);
#115=FACE_OUTER_BOUND('',#139,.T.);
#116=FACE_OUTER_BOUND('',#150,.T.);
#117=FACE_OUTER_BOUND('',#151,.T.);
#118=FACE_OUTER_BOUND('',#152,.T.);
#119=FACE_OUTER_BOUND('',#153,.T.);
#120=FACE_OUTER_BOUND('',#154,.T.);
#121=FACE_OUTER_BOUND('',#155,.T.);
#122=FACE_OUTER_BOUND('',#156,.T.);
#123=FACE_OUTER_BOUND('',#157,.T.);
#124=EDGE_LOOP('',(#177,#178,#179,#180));
#125=EDGE_LOOP('',(#181,#182,#183,#184));
#126=EDGE_LOOP('',(#185,#186,#187,#188));
#127=EDGE_LOOP('',(#189,#190,#191,#192));
#128=EDGE_LOOP('',(#193,#194));
#129=EDGE_LOOP('',(#195));
#130=EDGE_LOOP('',(#196,#197,#198,#199));
#131=EDGE_LOOP('',(#200,#201));
#132=EDGE_LOOP('',(#202));
#133=EDGE_LOOP('',(#203));
#134=EDGE_LOOP('',(#204));
#135=EDGE_LOOP('',(#205));
#136=EDGE_LOOP('',(#206));
#137=EDGE_LOOP('',(#207,#208,#209,#210));
#138=EDGE_LOOP('',(#211));
#139=EDGE_LOOP('',(#212,#213));
#140=EDGE_LOOP('',(#214));
#141=EDGE_LOOP('',(#215));
#142=EDGE_LOOP('',(#216));
#143=EDGE_LOOP('',(#217));
#144=EDGE_LOOP('',(#218));
#145=EDGE_LOOP('',(#219));
#146=EDGE_LOOP('',(#220));
#147=EDGE_LOOP('',(#221));
#148=EDGE_LOOP('',(#222));
#149=EDGE_LOOP('',(#223));
#150=EDGE_LOOP('',(#224));
#151=EDGE_LOOP('',(#225,#226,#227,#228));
#152=EDGE_LOOP('',(#229,#230,#231,#232));
#153=EDGE_LOOP('',(#233,#234,#235,#236));
#154=EDGE_LOOP('',(#237,#238,#239,#240));
#155=EDGE_LOOP('',(#241,#242,#243,#244));
#156=EDGE_LOOP('',(#245,#246,#247,#248,#249));
#157=EDGE_LOOP('',(#250,#251,#252,#253,#254));
#158=CIRCLE('',#346,8.5);
#159=CIRCLE('',#347,8.5);
#160=CIRCLE('',#349,8.5);
#161=CIRCLE('',#350,8.5);
#162=CIRCLE('',#352,8.);
#163=CIRCLE('',#354,8.);
#164=CIRCLE('',#356,21.);
#165=CIRCLE('',#357,14.05);
#166=CIRCLE('',#359,22.);
#167=CIRCLE('',#360,22.);
#168=CIRCLE('',#362,21.5);
#169=CIRCLE('',#363,13.);
#170=CIRCLE('',#365,14.25);
#171=CIRCLE('',#366,14.25);
#172=CIRCLE('',#368,13.);
#173=CIRCLE('',#372,14.05);
#174=CIRCLE('',#375,13.8790641483363);
#175=CIRCLE('',#377,14.25);
#176=CIRCLE('',#379,13.0500054020544);
#177=ORIENTED_EDGE('',*,*,#282,.F.);
#178=ORIENTED_EDGE('',*,*,#283,.T.);
#179=ORIENTED_EDGE('',*,*,#284,.F.);
#180=ORIENTED_EDGE('',*,*,#285,.F.);
#181=ORIENTED_EDGE('',*,*,#286,.F.);
#182=ORIENTED_EDGE('',*,*,#287,.F.);
#183=ORIENTED_EDGE('',*,*,#288,.F.);
#184=ORIENTED_EDGE('',*,*,#289,.T.);
#185=ORIENTED_EDGE('',*,*,#283,.F.);
#186=ORIENTED_EDGE('',*,*,#290,.T.);
#187=ORIENTED_EDGE('',*,*,#291,.F.);
#188=ORIENTED_EDGE('',*,*,#292,.T.);
#189=ORIENTED_EDGE('',*,*,#293,.F.);
#190=ORIENTED_EDGE('',*,*,#294,.T.);
#191=ORIENTED_EDGE('',*,*,#289,.F.);
#192=ORIENTED_EDGE('',*,*,#295,.T.);
#193=ORIENTED_EDGE('',*,*,#296,.T.);
#194=ORIENTED_EDGE('',*,*,#297,.T.);
#195=ORIENTED_EDGE('',*,*,#298,.F.);
#196=ORIENTED_EDGE('',*,*,#299,.F.);
#197=ORIENTED_EDGE('',*,*,#300,.T.);
#198=ORIENTED_EDGE('',*,*,#301,.F.);
#199=ORIENTED_EDGE('',*,*,#302,.T.);
#200=ORIENTED_EDGE('',*,*,#303,.T.);
#201=ORIENTED_EDGE('',*,*,#304,.T.);
#202=ORIENTED_EDGE('',*,*,#305,.T.);
#203=ORIENTED_EDGE('',*,*,#306,.T.);
#204=ORIENTED_EDGE('',*,*,#307,.T.);
#205=ORIENTED_EDGE('',*,*,#305,.F.);
#206=ORIENTED_EDGE('',*,*,#308,.T.);
#207=ORIENTED_EDGE('',*,*,#287,.T.);
#208=ORIENTED_EDGE('',*,*,#309,.T.);
#209=ORIENTED_EDGE('',*,*,#285,.T.);
#210=ORIENTED_EDGE('',*,*,#310,.F.);
#211=ORIENTED_EDGE('',*,*,#308,.F.);
#212=ORIENTED_EDGE('',*,*,#291,.T.);
#213=ORIENTED_EDGE('',*,*,#293,.T.);
#214=ORIENTED_EDGE('',*,*,#311,.T.);
#215=ORIENTED_EDGE('',*,*,#306,.F.);
#216=ORIENTED_EDGE('',*,*,#298,.T.);
#217=ORIENTED_EDGE('',*,*,#311,.F.);
#218=ORIENTED_EDGE('',*,*,#312,.T.);
#219=ORIENTED_EDGE('',*,*,#307,.F.);
#220=ORIENTED_EDGE('',*,*,#313,.T.);
#221=ORIENTED_EDGE('',*,*,#312,.F.);
#222=ORIENTED_EDGE('',*,*,#314,.T.);
#223=ORIENTED_EDGE('',*,*,#313,.F.);
#224=ORIENTED_EDGE('',*,*,#314,.F.);
#225=ORIENTED_EDGE('',*,*,#301,.T.);
#226=ORIENTED_EDGE('',*,*,#315,.T.);
#227=ORIENTED_EDGE('',*,*,#299,.T.);
#228=ORIENTED_EDGE('',*,*,#316,.T.);
#229=ORIENTED_EDGE('',*,*,#317,.F.);
#230=ORIENTED_EDGE('',*,*,#303,.F.);
#231=ORIENTED_EDGE('',*,*,#318,.F.);
#232=ORIENTED_EDGE('',*,*,#302,.F.);
#233=ORIENTED_EDGE('',*,*,#318,.T.);
#234=ORIENTED_EDGE('',*,*,#304,.F.);
#235=ORIENTED_EDGE('',*,*,#317,.T.);
#236=ORIENTED_EDGE('',*,*,#316,.F.);
#237=ORIENTED_EDGE('',*,*,#319,.F.);
#238=ORIENTED_EDGE('',*,*,#296,.F.);
#239=ORIENTED_EDGE('',*,*,#320,.F.);
#240=ORIENTED_EDGE('',*,*,#300,.F.);
#241=ORIENTED_EDGE('',*,*,#320,.T.);
#242=ORIENTED_EDGE('',*,*,#297,.F.);
#243=ORIENTED_EDGE('',*,*,#319,.T.);
#244=ORIENTED_EDGE('',*,*,#315,.F.);
#245=ORIENTED_EDGE('',*,*,#288,.T.);
#246=ORIENTED_EDGE('',*,*,#310,.T.);
#247=ORIENTED_EDGE('',*,*,#284,.T.);
#248=ORIENTED_EDGE('',*,*,#292,.F.);
#249=ORIENTED_EDGE('',*,*,#295,.F.);
#250=ORIENTED_EDGE('',*,*,#282,.T.);
#251=ORIENTED_EDGE('',*,*,#309,.F.);
#252=ORIENTED_EDGE('',*,*,#286,.T.);
#253=ORIENTED_EDGE('',*,*,#294,.F.);
#254=ORIENTED_EDGE('',*,*,#290,.F.);
#255=VERTEX_POINT('',#491);
#256=VERTEX_POINT('',#492);
#257=VERTEX_POINT('',#494);
#258=VERTEX_POINT('',#496);
#259=VERTEX_POINT('',#500);
#260=VERTEX_POINT('',#501);
#261=VERTEX_POINT('',#503);
#262=VERTEX_POINT('',#505);
#263=VERTEX_POINT('',#512);
#264=VERTEX_POINT('',#514);
#265=VERTEX_POINT('',#531);
#266=VERTEX_POINT('',#532);
#267=VERTEX_POINT('',#535);
#268=VERTEX_POINT('',#538);
#269=VERTEX_POINT('',#539);
#270=VERTEX_POINT('',#541);
#271=VERTEX_POINT('',#543);
#272=VERTEX_POINT('',#547);
#273=VERTEX_POINT('',#548);
#274=VERTEX_POINT('',#551);
#275=VERTEX_POINT('',#554);
#276=VERTEX_POINT('',#556);
#277=VERTEX_POINT('',#559);
#278=VERTEX_POINT('',#566);
#279=VERTEX_POINT('',#570);
#280=VERTEX_POINT('',#573);
#281=VERTEX_POINT('',#576);
#282=EDGE_CURVE('',#255,#256,#321,.T.);
#283=EDGE_CURVE('',#255,#257,#158,.T.);
#284=EDGE_CURVE('',#258,#257,#322,.T.);
#285=EDGE_CURVE('',#256,#258,#159,.T.);
#286=EDGE_CURVE('',#259,#260,#323,.T.);
#287=EDGE_CURVE('',#261,#259,#160,.T.);
#288=EDGE_CURVE('',#262,#261,#324,.T.);
#289=EDGE_CURVE('',#262,#260,#161,.T.);
#290=EDGE_CURVE('',#255,#263,#72,.T.);
#291=EDGE_CURVE('',#264,#263,#162,.T.);
#292=EDGE_CURVE('',#264,#257,#73,.T.);
#293=EDGE_CURVE('',#263,#264,#163,.T.);
#294=EDGE_CURVE('',#263,#260,#74,.T.);
#295=EDGE_CURVE('',#262,#264,#75,.T.);
#296=EDGE_CURVE('',#265,#266,#164,.T.);
#297=EDGE_CURVE('',#266,#265,#325,.T.);
#298=EDGE_CURVE('',#267,#267,#165,.T.);
#299=EDGE_CURVE('',#268,#269,#326,.T.);
#300=EDGE_CURVE('',#268,#270,#166,.T.);
#301=EDGE_CURVE('',#271,#270,#327,.T.);
#302=EDGE_CURVE('',#271,#269,#167,.T.);
#303=EDGE_CURVE('',#272,#273,#168,.T.);
#304=EDGE_CURVE('',#273,#272,#328,.T.);
#305=EDGE_CURVE('',#274,#274,#169,.T.);
#306=EDGE_CURVE('',#275,#275,#170,.T.);
#307=EDGE_CURVE('',#276,#276,#171,.T.);
#308=EDGE_CURVE('',#277,#277,#172,.T.);
#309=EDGE_CURVE('',#259,#256,#329,.T.);
#310=EDGE_CURVE('',#261,#258,#330,.T.);
#311=EDGE_CURVE('',#278,#278,#173,.T.);
#312=EDGE_CURVE('',#279,#279,#174,.T.);
#313=EDGE_CURVE('',#280,#280,#175,.T.);
#314=EDGE_CURVE('',#281,#281,#176,.T.);
#315=EDGE_CURVE('',#270,#268,#331,.T.);
#316=EDGE_CURVE('',#269,#271,#332,.T.);
#317=EDGE_CURVE('',#273,#271,#76,.T.);
#318=EDGE_CURVE('',#269,#272,#77,.T.);
#319=EDGE_CURVE('',#266,#268,#78,.T.);
#320=EDGE_CURVE('',#270,#265,#79,.T.);
#321=LINE('',#490,#333);
#322=LINE('',#495,#334);
#323=LINE('',#499,#335);
#324=LINE('',#504,#336);
#325=LINE('',#533,#337);
#326=LINE('',#537,#338);
#327=LINE('',#542,#339);
#328=LINE('',#549,#340);
#329=LINE('',#561,#341);
#330=LINE('',#562,#342);
#331=LINE('',#579,#343);
#332=LINE('',#580,#344);
#333=VECTOR('',#391,1.);
#334=VECTOR('',#394,1.);
#335=VECTOR('',#399,1.);
#336=VECTOR('',#402,1.);
#337=VECTOR('',#417,1.);
#338=VECTOR('',#422,1.);
#339=VECTOR('',#425,1.);
#340=VECTOR('',#432,1.);
#341=VECTOR('',#447,1.);
#342=VECTOR('',#448,1.);
#343=VECTOR('',#473,1.);
#344=VECTOR('',#474,1.);
#345=AXIS2_PLACEMENT_3D('',#489,#389,#390);
#346=AXIS2_PLACEMENT_3D('',#493,#392,#393);
#347=AXIS2_PLACEMENT_3D('',#497,#395,#396);
#348=AXIS2_PLACEMENT_3D('',#498,#397,#398);
#349=AXIS2_PLACEMENT_3D('',#502,#400,#401);
#350=AXIS2_PLACEMENT_3D('',#506,#403,#404);
#351=AXIS2_PLACEMENT_3D('',#507,#405,#406);
#352=AXIS2_PLACEMENT_3D('',#513,#407,#408);
#353=AXIS2_PLACEMENT_3D('',#519,#409,#410);
#354=AXIS2_PLACEMENT_3D('',#520,#411,#412);
#355=AXIS2_PLACEMENT_3D('',#529,#413,#414);
#356=AXIS2_PLACEMENT_3D('',#530,#415,#416);
#357=AXIS2_PLACEMENT_3D('',#534,#418,#419);
#358=AXIS2_PLACEMENT_3D('',#536,#420,#421);
#359=AXIS2_PLACEMENT_3D('',#540,#423,#424);
#360=AXIS2_PLACEMENT_3D('',#544,#426,#427);
#361=AXIS2_PLACEMENT_3D('',#545,#428,#429);
#362=AXIS2_PLACEMENT_3D('',#546,#430,#431);
#363=AXIS2_PLACEMENT_3D('',#550,#433,#434);
#364=AXIS2_PLACEMENT_3D('',#552,#435,#436);
#365=AXIS2_PLACEMENT_3D('',#553,#437,#438);
#366=AXIS2_PLACEMENT_3D('',#555,#439,#440);
#367=AXIS2_PLACEMENT_3D('',#557,#441,#442);
#368=AXIS2_PLACEMENT_3D('',#558,#443,#444);
#369=AXIS2_PLACEMENT_3D('',#560,#445,#446);
#370=AXIS2_PLACEMENT_3D('',#563,#449,#450);
#371=AXIS2_PLACEMENT_3D('',#564,#451,#452);
#372=AXIS2_PLACEMENT_3D('',#565,#453,#454);
#373=AXIS2_PLACEMENT_3D('',#567,#455,#456);
#374=AXIS2_PLACEMENT_3D('',#568,#457,#458);
#375=AXIS2_PLACEMENT_3D('',#569,#459,#460);
#376=AXIS2_PLACEMENT_3D('',#571,#461,#462);
#377=AXIS2_PLACEMENT_3D('',#572,#463,#464);
#378=AXIS2_PLACEMENT_3D('',#574,#465,#466);
#379=AXIS2_PLACEMENT_3D('',#575,#467,#468);
#380=AXIS2_PLACEMENT_3D('',#577,#469,#470);
#381=AXIS2_PLACEMENT_3D('',#578,#471,#472);
#382=AXIS2_PLACEMENT_3D('',#581,#475,#476);
#383=AXIS2_PLACEMENT_3D('',#590,#477,#478);
#384=AXIS2_PLACEMENT_3D('',#591,#479,#480);
#385=AXIS2_PLACEMENT_3D('',#600,#481,#482);
#386=AXIS2_PLACEMENT_3D('',#601,#483,#484);
#387=AXIS2_PLACEMENT_3D('',#602,#485,#486);
#388=AXIS2_PLACEMENT_3D('',#603,#487,#488);
#389=DIRECTION('',(0.,0.,1.));
#390=DIRECTION('',(1.,0.,0.));
#391=DIRECTION('',(0.,0.,-1.));
#392=DIRECTION('',(0.,0.,-1.));
#393=DIRECTION('',(0.,1.,0.));
#394=DIRECTION('',(0.,0.,1.));
#395=DIRECTION('',(0.,0.,-1.));
#396=DIRECTION('',(0.,1.,0.));
#397=DIRECTION('',(0.,0.,-1.));
#398=DIRECTION('',(0.,1.,0.));
#399=DIRECTION('',(0.,0.,1.));
#400=DIRECTION('',(0.,0.,-1.));
#401=DIRECTION('',(0.,1.,0.));
#402=DIRECTION('',(0.,0.,-1.));
#403=DIRECTION('',(0.,0.,-1.));
#404=DIRECTION('',(0.,1.,0.));
#405=DIRECTION('',(0.,0.,-1.));
#406=DIRECTION('',(0.,1.,0.));
#407=DIRECTION('',(0.,0.,1.));
#408=DIRECTION('',(0.,1.,0.));
#409=DIRECTION('',(0.,0.,-1.));
#410=DIRECTION('',(0.,1.,-1.37608208307531E-017));
#411=DIRECTION('',(0.,0.,1.));
#412=DIRECTION('',(0.,1.,0.));
#413=DIRECTION('',(0.,0.,-1.));
#414=DIRECTION('',(0.,1.,-1.37608208307531E-017));
#415=DIRECTION('',(0.,0.,-1.));
#416=DIRECTION('',(0.,-1.,0.));
#417=DIRECTION('',(0.,-1.,0.));
#418=DIRECTION('',(0.,0.,-1.));
#419=DIRECTION('',(0.,1.,0.));
#420=DIRECTION('',(0.,0.,1.));
#421=DIRECTION('',(0.,-1.,0.));
#422=DIRECTION('',(0.,0.,1.));
#423=DIRECTION('',(0.,0.,1.));
#424=DIRECTION('',(0.,-1.,0.));
#425=DIRECTION('',(0.,0.,-1.));
#426=DIRECTION('',(0.,0.,-1.));
#427=DIRECTION('',(0.,1.,0.));
#428=DIRECTION('',(0.,0.,-1.));
#429=DIRECTION('',(0.,1.,0.));
#430=DIRECTION('',(0.,0.,1.));
#431=DIRECTION('',(0.,1.,0.));
#432=DIRECTION('',(0.,1.,0.));
#433=DIRECTION('',(0.,0.,-1.));
#434=DIRECTION('',(0.,1.,0.));
#435=DIRECTION('',(0.,0.,-1.));
#436=DIRECTION('',(0.,1.,0.));
#437=DIRECTION('',(0.,0.,-1.));
#438=DIRECTION('',(0.,1.,0.));
#439=DIRECTION('',(0.,0.,1.));
#440=DIRECTION('',(0.,-1.,0.));
#441=DIRECTION('',(0.,0.,-1.));
#442=DIRECTION('',(0.,1.,0.));
#443=DIRECTION('',(0.,0.,-1.));
#444=DIRECTION('',(0.,1.,0.));
#445=DIRECTION('',(0.,0.,-1.));
#446=DIRECTION('',(0.,1.,0.));
#447=DIRECTION('',(1.,0.,0.));
#448=DIRECTION('',(1.,0.,0.));
#449=DIRECTION('',(0.,0.,-1.));
#450=DIRECTION('',(0.,1.,0.));
#451=DIRECTION('',(0.,0.,-1.));
#452=DIRECTION('',(0.,1.,0.));
#453=DIRECTION('',(0.,0.,-1.));
#454=DIRECTION('',(0.,1.,0.));
#455=DIRECTION('',(0.,0.,1.));
#456=DIRECTION('',(0.,-1.,0.));
#457=DIRECTION('',(0.,0.,-1.));
#458=DIRECTION('',(0.,1.,0.));
#459=DIRECTION('',(0.,0.,1.));
#460=DIRECTION('',(0.,-1.,0.));
#461=DIRECTION('',(0.,0.,1.));
#462=DIRECTION('',(0.,-1.,-1.74154738786305E-016));
#463=DIRECTION('',(0.,0.,1.));
#464=DIRECTION('',(0.,-1.,0.));
#465=DIRECTION('',(0.,0.,-1.));
#466=DIRECTION('',(0.,1.,-2.52365049235143E-016));
#467=DIRECTION('',(0.,0.,1.));
#468=DIRECTION('',(0.,-1.,0.));
#469=DIRECTION('',(0.,0.,1.));
#470=DIRECTION('',(0.,-1.,0.));
#471=DIRECTION('',(0.,0.,1.));
#472=DIRECTION('',(0.,-1.,0.));
#473=DIRECTION('',(0.,1.,0.));
#474=DIRECTION('',(0.,-1.,0.));
#475=DIRECTION('',(1.,0.,0.));
#476=DIRECTION('',(0.,-1.,0.));
#477=DIRECTION('',(0.,0.,-1.));
#478=DIRECTION('',(0.,1.,-1.35790487356306E-017));
#479=DIRECTION('',(0.707106781186547,0.,0.707106781186547));
#480=DIRECTION('',(-0.707106781186548,0.,0.707106781186548));
#481=DIRECTION('',(0.,0.,1.));
#482=DIRECTION('',(0.,-1.,0.));
#483=DIRECTION('',(0.707106781186549,0.,-0.707106781186546));
#484=DIRECTION('',(0.707106781186546,0.,0.707106781186549));
#485=DIRECTION('',(0.,-1.,0.));
#486=DIRECTION('',(0.,0.,-1.));
#487=DIRECTION('',(0.,1.,0.));
#488=DIRECTION('',(0.,0.,-1.));
#489=CARTESIAN_POINT('',(0.,0.,0.));
#490=CARTESIAN_POINT('',(2.87228132326902,8.,-15.26));
#491=CARTESIAN_POINT('',(2.87228132326902,8.,47.5));
#492=CARTESIAN_POINT('',(2.87228132326902,8.,45.1));
#493=CARTESIAN_POINT('',(0.,0.,47.5));
#494=CARTESIAN_POINT('',(2.87228132326902,-8.,47.5));
#495=CARTESIAN_POINT('',(2.87228132326902,-8.,-15.26));
#496=CARTESIAN_POINT('',(2.87228132326902,-8.,45.1));
#497=CARTESIAN_POINT('',(0.,0.,45.1));
#498=CARTESIAN_POINT('',(0.,0.,-15.26));
#499=CARTESIAN_POINT('',(-2.87228132326902,8.,-15.26));
#500=CARTESIAN_POINT('',(-2.87228132326902,8.,45.1));
#501=CARTESIAN_POINT('',(-2.87228132326902,8.,47.5));
#502=CARTESIAN_POINT('',(0.,0.,45.1));
#503=CARTESIAN_POINT('',(-2.87228132326902,-8.,45.1));
#504=CARTESIAN_POINT('',(-2.87228132326902,-8.,-15.26));
#505=CARTESIAN_POINT('',(-2.87228132326902,-8.,47.5));
#506=CARTESIAN_POINT('',(0.,0.,47.5));
#507=CARTESIAN_POINT('',(0.,0.,-15.26));
#508=CARTESIAN_POINT('',(2.87228132326902,8.,47.5));
#509=CARTESIAN_POINT('',(1.94444485541341,8.,47.8135302773729));
#510=CARTESIAN_POINT('',(0.98015246464844,8.,48.));
#511=CARTESIAN_POINT('',(-7.60240349397926E-016,8.,48.));
#512=CARTESIAN_POINT('',(0.,8.,48.));
#513=CARTESIAN_POINT('',(0.,0.,48.));
#514=CARTESIAN_POINT('',(8.62127959457627E-017,-8.,48.));
#515=CARTESIAN_POINT('',(-7.60240349397926E-016,-8.,48.));
#516=CARTESIAN_POINT('',(0.98015246464844,-8.,48.));
#517=CARTESIAN_POINT('',(1.94444485541341,-8.,47.8135302773729));
#518=CARTESIAN_POINT('',(2.87228132326902,-8.,47.5));
#519=CARTESIAN_POINT('',(0.,0.,47.5));
#520=CARTESIAN_POINT('',(0.,0.,48.));
#521=CARTESIAN_POINT('',(-7.60240349397926E-016,8.,48.));
#522=CARTESIAN_POINT('',(-0.978976323127707,8.,48.));
#523=CARTESIAN_POINT('',(-1.9501704467292,8.,47.8115955116082));
#524=CARTESIAN_POINT('',(-2.87228132326905,8.,47.5000000000001));
#525=CARTESIAN_POINT('',(-2.87228132326905,-8.,47.5000000000001));
#526=CARTESIAN_POINT('',(-1.9501704467292,-8.,47.8115955116082));
#527=CARTESIAN_POINT('',(-0.978976323127707,-8.,48.));
#528=CARTESIAN_POINT('',(-7.60240349397926E-016,-8.,48.));
#529=CARTESIAN_POINT('',(0.,0.,47.5));
#530=CARTESIAN_POINT('',(0.,0.,0.));
#531=CARTESIAN_POINT('',(18.7,-9.55562661472287,0.));
#532=CARTESIAN_POINT('',(18.7,9.55562661472287,0.));
#533=CARTESIAN_POINT('',(18.7,-9.79336510092421,0.));
#534=CARTESIAN_POINT('',(0.,0.,0.));
#535=CARTESIAN_POINT('',(0.,14.05,0.));
#536=CARTESIAN_POINT('',(22.,0.,0.));
#537=CARTESIAN_POINT('',(19.7,9.79336510092421,-15.26));
#538=CARTESIAN_POINT('',(19.7,9.79336510092421,1.));
#539=CARTESIAN_POINT('',(19.7,9.79336510092421,41.5));
#540=CARTESIAN_POINT('',(0.,0.,1.));
#541=CARTESIAN_POINT('',(19.7,-9.79336510092421,0.999999999999987));
#542=CARTESIAN_POINT('',(19.7,-9.79336510092421,-15.26));
#543=CARTESIAN_POINT('',(19.7,-9.79336510092421,41.5));
#544=CARTESIAN_POINT('',(0.,0.,41.5));
#545=CARTESIAN_POINT('',(0.,0.,-15.26));
#546=CARTESIAN_POINT('',(0.,0.,42.));
#547=CARTESIAN_POINT('',(19.2,9.6752260955494,42.));
#548=CARTESIAN_POINT('',(19.2,-9.6752260955494,42.));
#549=CARTESIAN_POINT('',(19.2,9.79336510092419,42.));
#550=CARTESIAN_POINT('',(0.,0.,42.));
#551=CARTESIAN_POINT('',(0.,13.,42.));
#552=CARTESIAN_POINT('',(13.,0.,42.));
#553=CARTESIAN_POINT('',(0.,0.,-2.));
#554=CARTESIAN_POINT('',(0.,14.25,-2.));
#555=CARTESIAN_POINT('',(0.,0.,-75.98));
#556=CARTESIAN_POINT('',(0.,-14.25,-75.98));
#557=CARTESIAN_POINT('',(0.,0.,-15.26));
#558=CARTESIAN_POINT('',(0.,0.,45.1));
#559=CARTESIAN_POINT('',(0.,13.,45.1));
#560=CARTESIAN_POINT('',(0.,0.,-15.26));
#561=CARTESIAN_POINT('',(-10.7615832605149,8.,45.1));
#562=CARTESIAN_POINT('',(-10.7615832605149,-8.,45.1));
#563=CARTESIAN_POINT('',(8.5,0.,45.1));
#564=CARTESIAN_POINT('',(0.,0.,48.));
#565=CARTESIAN_POINT('',(0.,0.,-2.));
#566=CARTESIAN_POINT('',(0.,14.05,-2.));
#567=CARTESIAN_POINT('',(0.,0.,-2.));
#568=CARTESIAN_POINT('',(0.,0.,0.));
#569=CARTESIAN_POINT('',(0.,0.,-77.63));
#570=CARTESIAN_POINT('',(0.,-13.8790641483363,-77.63));
#571=CARTESIAN_POINT('',(0.,0.,-75.98));
#572=CARTESIAN_POINT('',(0.,0.,-78.8036006806891));
#573=CARTESIAN_POINT('',(0.,-14.25,-78.8036006806891));
#574=CARTESIAN_POINT('',(0.,0.,-77.63));
#575=CARTESIAN_POINT('',(0.,0.,-80.));
#576=CARTESIAN_POINT('',(0.,-13.0500054020544,-80.));
#577=CARTESIAN_POINT('',(0.,0.,-78.8));
#578=CARTESIAN_POINT('',(14.25,0.,-80.));
#579=CARTESIAN_POINT('',(19.7,9.79336510092421,1.));
#580=CARTESIAN_POINT('',(19.7,-9.79336510092419,41.5));
#581=CARTESIAN_POINT('',(19.7,-49.,76.));
#582=CARTESIAN_POINT('',(19.2,-9.6752260955494,42.));
#583=CARTESIAN_POINT('',(19.3666389573176,-9.71483959894927,41.8333610426823));
#584=CARTESIAN_POINT('',(19.533306110409,-9.75421656085568,41.666693889591));
#585=CARTESIAN_POINT('',(19.7,-9.79336510092421,41.5));
#586=CARTESIAN_POINT('',(19.7,9.79336510092421,41.5));
#587=CARTESIAN_POINT('',(19.533306110409,9.75421656085568,41.666693889591));
#588=CARTESIAN_POINT('',(19.3666389573176,9.71483959894927,41.8333610426823));
#589=CARTESIAN_POINT('',(19.2,9.6752260955494,42.));
#590=CARTESIAN_POINT('',(0.,0.,41.5));
#591=CARTESIAN_POINT('',(19.7,-49.,41.5));
#592=CARTESIAN_POINT('',(18.7,9.55562661472287,0.));
#593=CARTESIAN_POINT('',(19.0332187229252,9.63583098996993,0.333218722925213));
#594=CARTESIAN_POINT('',(19.3665560922176,9.71505483882369,0.666556092217644));
#595=CARTESIAN_POINT('',(19.7,9.79336510092421,1.));
#596=CARTESIAN_POINT('',(19.7,-9.79336510092421,0.999999999999987));
#597=CARTESIAN_POINT('',(19.3665560922176,-9.71505483882369,0.666556092217632));
#598=CARTESIAN_POINT('',(19.0332187229252,-9.63583098996993,0.33321872292521));
#599=CARTESIAN_POINT('',(18.7,-9.55562661472287,0.));
#600=CARTESIAN_POINT('',(0.,0.,0.));
#601=CARTESIAN_POINT('',(19.7,-49.,1.));
#602=CARTESIAN_POINT('',(11.,-8.,45.1));
#603=CARTESIAN_POINT('',(11.,8.,45.1));
#604=MECHANICAL_DESIGN_GEOMETRIC_PRESENTATION_REPRESENTATION('',(#24),#605);
#605=(
GEOMETRIC_REPRESENTATION_CONTEXT(3)
GLOBAL_UNCERTAINTY_ASSIGNED_CONTEXT((#606))
GLOBAL_UNIT_ASSIGNED_CONTEXT((#612,#608,#607))
REPRESENTATION_CONTEXT('W5190027_B__specification_W5190027_',
'TOP_LEVEL_ASSEMBLY_PART')
);
#606=UNCERTAINTY_MEASURE_WITH_UNIT(LENGTH_MEASURE(0.02),#612,
'DISTANCE_ACCURACY_VALUE','Maximum Tolerance applied to model');
#607=(
NAMED_UNIT(*)
SI_UNIT($,.STERADIAN.)
SOLID_ANGLE_UNIT()
);
#608=(
CONVERSION_BASED_UNIT('DEGREE',#610)
NAMED_UNIT(#609)
PLANE_ANGLE_UNIT()
);
#609=DIMENSIONAL_EXPONENTS(0.,0.,0.,0.,0.,0.,0.);
#610=PLANE_ANGLE_MEASURE_WITH_UNIT(PLANE_ANGLE_MEASURE(0.0174532925),#611);
#611=(
NAMED_UNIT(*)
PLANE_ANGLE_UNIT()
SI_UNIT($,.RADIAN.)
);
#612=(
LENGTH_UNIT()
NAMED_UNIT(*)
SI_UNIT(.MILLI.,.METRE.)
);
ENDSEC;
END-ISO-10303-21;
