  0
SECTION
  2
HEADER
  9
$ACADVER
  1
AC1032
  9
$ACADMAINTVER
 90
      228
  9
$DWGCODEPAGE
  3
ANSI_1252
  9
$REQUIREDVERSIONS
160
                 0
  9
$INSBASE
 10
0.0
 20
0.0
 30
0.0
  9
$EXTMIN
 10
1.000000000000000E+20
 20
1.000000000000000E+20
 30
1.000000000000000E+20
  9
$EXTMAX
 10
-1.000000000000000E+20
 20
-1.000000000000000E+20
 30
-1.000000000000000E+20
  9
$LIMMIN
 10
0.0
 20
0.0
  9
$LIMMAX
 10
12.0
 20
9.0
  9
$ORTHOMODE
 70
     0
  9
$REGENMODE
 70
     1
  9
$FILLMODE
 70
     1
  9
$QTEXTMODE
 70
     0
  9
$MIRRTEXT
 70
     0
  9
$LTSCALE
 40
1.0
  9
$ATTMODE
 70
     1
  9
$TEXTSIZE
 40
0.2
  9
$TRACEWID
 40
0.05
  9
$TEXTSTYLE
  7
Standard
  9
$CLAYER
  8
0
  9
$CELTYPE
  6
ByLayer
  9
$CECOLOR
 62
   256
  9
$CELTSCALE
 40
1.0
  9
$DISPSILH
 70
     0
  9
$DIMSCALE
 40
1.0
  9
$DIMASZ
 40
0.18
  9
$DIMEXO
 40
0.0625
  9
$DIMDLI
 40
0.38
  9
$DIMRND
 40
0.0
  9
$DIMDLE
 40
0.0
  9
$DIMEXE
 40
0.18
  9
$DIMTP
 40
0.0
  9
$DIMTM
 40
0.0
  9
$DIMTXT
 40
0.18
  9
$DIMCEN
 40
0.09
  9
$DIMTSZ
 40
0.0
  9
$DIMTOL
 70
     0
  9
$DIMLIM
 70
     0
  9
$DIMTIH
 70
     1
  9
$DIMTOH
 70
     1
  9
$DIMSE1
 70
     0
  9
$DIMSE2
 70
     0
  9
$DIMTAD
 70
     0
  9
$DIMZIN
 70
     0
  9
$DIMBLK
  1

  9
$DIMASO
 70
     1
  9
$DIMSHO
 70
     1
  9
$DIMPOST
  1

  9
$DIMAPOST
  1

  9
$DIMALT
 70
     0
  9
$DIMALTD
 70
     2
  9
$DIMALTF
 40
25.4
  9
$DIMLFAC
 40
1.0
  9
$DIMTOFL
 70
     0
  9
$DIMTVP
 40
0.0
  9
$DIMTIX
 70
     0
  9
$DIMSOXD
 70
     0
  9
$DIMSAH
 70
     0
  9
$DIMBLK1
  1

  9
$DIMBLK2
  1

  9
$DIMSTYLE
  2
Standard
  9
$DIMCLRD
 70
     0
  9
$DIMCLRE
 70
     0
  9
$DIMCLRT
 70
     0
  9
$DIMTFAC
 40
1.0
  9
$DIMGAP
 40
0.09
  9
$DIMJUST
 70
     0
  9
$DIMSD1
 70
     0
  9
$DIMSD2
 70
     0
  9
$DIMTOLJ
 70
     1
  9
$DIMTZIN
 70
     0
  9
$DIMALTZ
 70
     0
  9
$DIMALTTZ
 70
     0
  9
$DIMUPT
 70
     0
  9
$DIMDEC
 70
     4
  9
$DIMTDEC
 70
     4
  9
$DIMALTU
 70
     2
  9
$DIMALTTD
 70
     2
  9
$DIMTXSTY
  7
Standard
  9
$DIMAUNIT
 70
     0
  9
$DIMADEC
 70
     0
  9
$DIMALTRND
 40
0.0
  9
$DIMAZIN
 70
     0
  9
$DIMDSEP
 70
    46
  9
$DIMATFIT
 70
     3
  9
$DIMFRAC
 70
     0
  9
$DIMLDRBLK
  1

  9
$DIMLUNIT
 70
     2
  9
$DIMLWD
 70
    -2
  9
$DIMLWE
 70
    -2
  9
$DIMTMOVE
 70
     0
  9
$DIMFXL
 40
1.0
  9
$DIMFXLON
 70
     0
  9
$DIMJOGANG
 40
0.7853981633974483
  9
$DIMTFILL
 70
     0
  9
$DIMTFILLCLR
 70
     0
  9
$DIMARCSYM
 70
     0
  9
$DIMLTYPE
  6

  9
$DIMLTEX1
  6

  9
$DIMLTEX2
  6

  9
$DIMTXTDIRECTION
 70
     0
  9
$LUNITS
 70
     2
  9
$LUPREC
 70
     4
  9
$SKETCHINC
 40
0.1
  9
$FILLETRAD
 40
0.0
  9
$AUNITS
 70
     0
  9
$AUPREC
 70
     0
  9
$MENU
  1
.
  9
$ELEVATION
 40
0.0
  9
$PELEVATION
 40
0.0
  9
$THICKNESS
 40
0.0
  9
$LIMCHECK
 70
     0
  9
$CHAMFERA
 40
0.0
  9
$CHAMFERB
 40
0.0
  9
$CHAMFERC
 40
0.0
  9
$CHAMFERD
 40
0.0
  9
$SKPOLY
 70
     0
  9
$TDCREATE
 40
2460101.373344908
  9
$TDUCREATE
 40
2460101.290011574
  9
$TDUPDATE
 40
2460101.373344908
  9
$TDUUPDATE
 40
2460101.290011574
  9
$TDINDWG
 40
0.0000000000
  9
$TDUSRTIMER
 40
0.0000000000
  9
$USRTIMER
 70
     1
  9
$ANGBASE
 50
0.0
  9
$ANGDIR
 70
     0
  9
$PDMODE
 70
     0
  9
$PDSIZE
 40
0.0
  9
$PLINEWID
 40
0.0
  9
$SPLFRAME
 70
     0
  9
$SPLINETYPE
 70
     6
  9
$SPLINESEGS
 70
     8
  9
$HANDSEED
  5
2DA
  9
$SURFTAB1
 70
     6
  9
$SURFTAB2
 70
     6
  9
$SURFTYPE
 70
     6
  9
$SURFU
 70
     6
  9
$SURFV
 70
     6
  9
$UCSBASE
  2

  9
$UCSNAME
  2

  9
$UCSORG
 10
0.0
 20
0.0
 30
0.0
  9
$UCSXDIR
 10
1.0
 20
0.0
 30
0.0
  9
$UCSYDIR
 10
0.0
 20
1.0
 30
0.0
  9
$UCSORTHOREF
  2

  9
$UCSORTHOVIEW
 70
     0
  9
$UCSORGTOP
 10
0.0
 20
0.0
 30
0.0
  9
$UCSORGBOTTOM
 10
0.0
 20
0.0
 30
0.0
  9
$UCSORGLEFT
 10
0.0
 20
0.0
 30
0.0
  9
$UCSORGRIGHT
 10
0.0
 20
0.0
 30
0.0
  9
$UCSORGFRONT
 10
0.0
 20
0.0
 30
0.0
  9
$UCSORGBACK
 10
0.0
 20
0.0
 30
0.0
  9
$PUCSBASE
  2

  9
$PUCSNAME
  2

  9
$PUCSORG
 10
0.0
 20
0.0
 30
0.0
  9
$PUCSXDIR
 10
1.0
 20
0.0
 30
0.0
  9
$PUCSYDIR
 10
0.0
 20
1.0
 30
0.0
  9
$PUCSORTHOREF
  2

  9
$PUCSORTHOVIEW
 70
     0
  9
$PUCSORGTOP
 10
0.0
 20
0.0
 30
0.0
  9
$PUCSORGBOTTOM
 10
0.0
 20
0.0
 30
0.0
  9
$PUCSORGLEFT
 10
0.0
 20
0.0
 30
0.0
  9
$PUCSORGRIGHT
 10
0.0
 20
0.0
 30
0.0
  9
$PUCSORGFRONT
 10
0.0
 20
0.0
 30
0.0
  9
$PUCSORGBACK
 10
0.0
 20
0.0
 30
0.0
  9
$USERI1
 70
     0
  9
$USERI2
 70
     0
  9
$USERI3
 70
     0
  9
$USERI4
 70
     0
  9
$USERI5
 70
     0
  9
$USERR1
 40
0.0
  9
$USERR2
 40
0.0
  9
$USERR3
 40
0.0
  9
$USERR4
 40
0.0
  9
$USERR5
 40
0.0
  9
$WORLDVIEW
 70
     1
  9
$SHADEDGE
 70
     3
  9
$SHADEDIF
 70
    70
  9
$TILEMODE
 70
     1
  9
$MAXACTVP
 70
    64
  9
$PINSBASE
 10
0.0
 20
0.0
 30
0.0
  9
$PLIMCHECK
 70
     0
  9
$PEXTMIN
 10
1.000000000000000E+20
 20
1.000000000000000E+20
 30
1.000000000000000E+20
  9
$PEXTMAX
 10
-1.000000000000000E+20
 20
-1.000000000000000E+20
 30
-1.000000000000000E+20
  9
$PLIMMIN
 10
0.0
 20
0.0
  9
$PLIMMAX
 10
12.0
 20
9.0
  9
$UNITMODE
 70
     0
  9
$VISRETAIN
 70
     1
  9
$PLINEGEN
 70
     0
  9
$PSLTSCALE
 70
     1
  9
$TREEDEPTH
 70
  3020
  9
$CMLSTYLE
  2
Standard
  9
$CMLJUST
 70
     0
  9
$CMLSCALE
 40
1.0
  9
$PROXYGRAPHICS
 70
     1
  9
$MEASUREMENT
 70
     0
  9
$CELWEIGHT
370
    -1
  9
$ENDCAPS
280
     0
  9
$JOINSTYLE
280
     0
  9
$LWDISPLAY
290
     1
  9
$INSUNITS
 70
     4
  9
$HYPERLINKBASE
  1

  9
$STYLESHEET
  1

  9
$XEDIT
290
     1
  9
$CEPSNTYPE
380
     0
  9
$PSTYLEMODE
290
     1
  9
$FINGERPRINTGUID
  2
{67AB7DE2-457A-7240-A48E-E343671D9410}
  9
$VERSIONGUID
  2
{1232BAF4-2A5A-484B-B178-25FD46B5E424}
  9
$EXTNAMES
290
     1
  9
$PSVPSCALE
 40
0.0
  9
$OLESTARTUP
290
     0
  9
$SORTENTS
280
   127
  9
$INDEXCTL
280
     0
  9
$HIDETEXT
280
     1
  9
$XCLIPFRAME
280
     2
  9
$HALOGAP
280
     0
  9
$OBSCOLOR
 70
   257
  9
$OBSLTYPE
280
     0
  9
$INTERSECTIONDISPLAY
280
     0
  9
$INTERSECTIONCOLOR
 70
   257
  9
$DIMASSOC
280
     2
  9
$PROJECTNAME
  1

  9
$CAMERADISPLAY
290
     0
  9
$LENSLENGTH
 40
50.0
  9
$CAMERAHEIGHT
 40
0.0
  9
$STEPSPERSEC
 40
2.0
  9
$STEPSIZE
 40
6.0
  9
$3DDWFPREC
 40
2.0
  9
$PSOLWIDTH
 40
0.25
  9
$PSOLHEIGHT
 40
4.0
  9
$LOFTANG1
 40
1.570796326794896
  9
$LOFTANG2
 40
1.570796326794896
  9
$LOFTMAG1
 40
0.0
  9
$LOFTMAG2
 40
0.0
  9
$LOFTPARAM
 70
     7
  9
$LOFTNORMALS
280
     1
  9
$LATITUDE
 40
37.795
  9
$LONGITUDE
 40
-122.394
  9
$NORTHDIRECTION
 40
0.0
  9
$TIMEZONE
 70
 -8000
  9
$LIGHTGLYPHDISPLAY
280
     1
  9
$TILEMODELIGHTSYNCH
280
     1
  9
$CMATERIAL
347
11
  9
$SOLIDHIST
280
     0
  9
$SHOWHIST
280
     1
  9
$DWFFRAME
280
     2
  9
$DGNFRAME
280
     0
  9
$REALWORLDSCALE
290
     1
  9
$INTERFERECOLOR
 62
     1
  9
$INTERFEREOBJVS
345
33
  9
$INTERFEREVPVS
346
30
  9
$CSHADOW
280
     0
  9
$SHADOWPLANELOCATION
 40
0.0
  0
ENDSEC
  0
SECTION
  2
CLASSES
  0
CLASS
  1
ACDBDICTIONARYWDFLT
  2
AcDbDictionaryWithDefault
  3
ObjectDBX Classes
 90
        0
 91
        1
280
     0
281
     0
  0
CLASS
  1
MATERIAL
  2
AcDbMaterial
  3
ObjectDBX Classes
 90
     1153
 91
        3
280
     0
281
     0
  0
CLASS
  1
VISUALSTYLE
  2
AcDbVisualStyle
  3
ObjectDBX Classes
 90
     4095
 91
       24
280
     0
281
     0
  0
CLASS
  1
SCALE
  2
AcDbScale
  3
ObjectDBX Classes
 90
     1153
 91
       17
280
     0
281
     0
  0
CLASS
  1
TABLESTYLE
  2
AcDbTableStyle
  3
ObjectDBX Classes
 90
     4095
 91
        1
280
     0
281
     0
  0
CLASS
  1
MLEADERSTYLE
  2
AcDbMLeaderStyle
  3
ACDB_MLEADERSTYLE_CLASS
 90
     4095
 91
        1
280
     0
281
     0
  0
CLASS
  1
ACDBSECTIONVIEWSTYLE
  2
AcDbSectionViewStyle
  3
ObjectDBX Classes
 90
     1025
 91
        1
280
     0
281
     0
  0
CLASS
  1
ACDBDETAILVIEWSTYLE
  2
AcDbDetailViewStyle
  3
ObjectDBX Classes
 90
     1025
 91
        1
280
     0
281
     0
  0
CLASS
  1
DICTIONARYVAR
  2
AcDbDictionaryVar
  3
ObjectDBX Classes
 90
        0
 91
        5
280
     0
281
     0
  0
CLASS
  1
CELLSTYLEMAP
  2
AcDbCellStyleMap
  3
ObjectDBX Classes
 90
     1152
 91
        1
280
     0
281
     0
  0
ENDSEC
  0
SECTION
  2
TABLES
  0
TABLE
  2
VPORT
  5
8
330
0
100
AcDbSymbolTable
 70
     1
  0
VPORT
  5
57
330
8
100
AcDbSymbolTableRecord
100
AcDbViewportTableRecord
  2
*Active
 70
     0
 10
0.0
 20
0.0
 11
1.0
 21
1.0
 12
0.0
 22
0.0
 13
0.0
 23
0.0
 14
1.0
 24
1.0
 15
0.0
 25
0.0
 16
0.0
 26
0.0
 36
1.0
 17
90.92037365432123
 27
143.9116338285083
 37
0.0
 40
183.9318910131124
 41
0.8727901835557132
 42
50.0
 43
0.0
 44
0.0
 50
0.0
 51
0.0
 71
     0
 72
   100
 73
     1
 74
     1
 75
     0
 76
     0
 77
     0
 78
     0
281
     0
 65
     1
110
0.0
120
0.0
130
0.0
111
1.0
121
0.0
131
0.0
112
0.0
122
1.0
132
0.0
 79
     0
146
0.0
 60
     3
 61
     5
292
     1
282
     1
141
0.0
142
0.0
 63
   250
421
  3355443
  0
ENDTAB
  0
TABLE
  2
LTYPE
  5
5
330
0
100
AcDbSymbolTable
 70
     7
  0
LTYPE
  5
5B
330
5
100
AcDbSymbolTableRecord
100
AcDbLinetypeTableRecord
  2
ByBlock
 70
     0
  3

 72
    65
 73
     0
 40
0.0
  0
LTYPE
  5
5C
330
5
100
AcDbSymbolTableRecord
100
AcDbLinetypeTableRecord
  2
ByLayer
 70
     0
  3

 72
    65
 73
     0
 40
0.0
  0
LTYPE
  5
5D
330
5
100
AcDbSymbolTableRecord
100
AcDbLinetypeTableRecord
  2
Continuous
 70
     0
  3
Solid line
 72
    65
 73
     0
 40
0.0
  0
LTYPE
  5
15B
330
5
100
AcDbSymbolTableRecord
100
AcDbLinetypeTableRecord
  2
AI-Linetype-0
 70
     0
  3
Adobe Illustrator Linetype No. 0
 72
    65
 73
     4
 40
8.819444442239584
 49
7.055555553791666
 74
     0
 49
-0.7055555553791667
 74
     0
 49
0.3527777776895833
 74
     0
 49
-0.7055555553791667
 74
     0
  0
LTYPE
  5
15D
330
5
100
AcDbSymbolTableRecord
100
AcDbLinetypeTableRecord
  2
AI-Linetype-1
 70
     0
  3
Adobe Illustrator Linetype No. 1
 72
    65
 73
     4
 40
8.819444442239584
 49
7.055555553791666
 74
     0
 49
-0.7055555553791667
 74
     0
 49
0.3527777776895833
 74
     0
 49
-0.7055555553791667
 74
     0
  0
LTYPE
  5
15F
330
5
100
AcDbSymbolTableRecord
100
AcDbLinetypeTableRecord
  2
AI-Linetype-2
 70
     0
  3
Adobe Illustrator Linetype No. 2
 72
    65
 73
     4
 40
8.819444442239584
 49
7.055555553791666
 74
     0
 49
-0.7055555553791667
 74
     0
 49
0.3527777776895833
 74
     0
 49
-0.7055555553791667
 74
     0
  0
LTYPE
  5
161
330
5
100
AcDbSymbolTableRecord
100
AcDbLinetypeTableRecord
  2
AI-Linetype-3
 70
     0
  3
Adobe Illustrator Linetype No. 3
 72
    65
 73
     4
 40
8.819444442239584
 49
7.055555553791666
 74
     0
 49
-0.7055555553791667
 74
     0
 49
0.3527777776895833
 74
     0
 49
-0.7055555553791667
 74
     0
  0
LTYPE
  5
163
330
5
100
AcDbSymbolTableRecord
100
AcDbLinetypeTableRecord
  2
AI-Linetype-4
 70
     0
  3
Adobe Illustrator Linetype No. 4
 72
    65
 73
     4
 40
8.819444442239584
 49
7.055555553791666
 74
     0
 49
-0.7055555553791667
 74
     0
 49
0.3527777776895833
 74
     0
 49
-0.7055555553791667
 74
     0
  0
LTYPE
  5
165
330
5
100
AcDbSymbolTableRecord
100
AcDbLinetypeTableRecord
  2
AI-Linetype-5
 70
     0
  3
Adobe Illustrator Linetype No. 5
 72
    65
 73
     4
 40
8.819444442239584
 49
7.055555553791666
 74
     0
 49
-0.7055555553791667
 74
     0
 49
0.3527777776895833
 74
     0
 49
-0.7055555553791667
 74
     0
  0
ENDTAB
  0
TABLE
  2
LAYER
  5
2
330
0
100
AcDbSymbolTable
 70
     5
  0
LAYER
  5
54
330
2
100
AcDbSymbolTableRecord
100
AcDbLayerTableRecord
  2
0
 70
     0
 62
     7
  6
Continuous
370
    -3
390
F
347
21
348
0
  0
LAYER
  5
78
330
2
100
AcDbSymbolTableRecord
100
AcDbLayerTableRecord
  2
grau 10%
 70
     5
 62
     7
  6
Continuous
370
     0
390
F
347
21
348
0
  0
LAYER
  5
7D
330
2
100
AcDbSymbolTableRecord
100
AcDbLayerTableRecord
  2
Standardebene
 70
     0
 62
     7
  6
Continuous
370
     0
390
F
347
21
348
0
  0
LAYER
  5
166
330
2
100
AcDbSymbolTableRecord
100
AcDbLayerTableRecord
  2
Text
 70
     5
 62
     7
  6
Continuous
370
     0
390
F
347
21
348
0
  0
LAYER
  5
16E
330
2
100
AcDbSymbolTableRecord
100
AcDbLayerTableRecord
  2
Bemaßung
 70
     5
 62
     7
  6
Continuous
370
     0
390
F
347
21
348
0
  0
ENDTAB
  0
TABLE
  2
STYLE
  5
3
330
0
100
AcDbSymbolTable
 70
     2
  0
STYLE
  5
55
330
3
100
AcDbSymbolTableRecord
100
AcDbTextStyleTableRecord
  2
Standard
 70
     0
 40
0.0
 41
1.0
 50
0.0
 71
     0
 42
0.2
  3
txt
  4

  0
STYLE
  5
5A
330
3
100
AcDbSymbolTableRecord
100
AcDbTextStyleTableRecord
  2
Annotative
 70
     0
 40
0.0
 41
1.0
 50
0.0
 71
     0
 42
0.2
  3
txt
  4

1001
AcadAnnotative
1000
AnnotativeData
1002
{
1070
     1
1070
     1
1002
}
  0
ENDTAB
  0
TABLE
  2
VIEW
  5
6
330
0
100
AcDbSymbolTable
 70
     0
  0
ENDTAB
  0
TABLE
  2
UCS
  5
7
330
0
100
AcDbSymbolTable
 70
     0
  0
ENDTAB
  0
TABLE
  2
APPID
  5
9
330
0
100
AcDbSymbolTable
 70
     2
  0
APPID
  5
56
330
9
100
AcDbSymbolTableRecord
100
AcDbRegAppTableRecord
  2
ACAD
 70
     0
  0
APPID
  5
5E
330
9
100
AcDbSymbolTableRecord
100
AcDbRegAppTableRecord
  2
AcadAnnotative
 70
     0
  0
ENDTAB
  0
TABLE
  2
DIMSTYLE
  5
A
330
0
100
AcDbSymbolTable
 70
     2
100
AcDbDimStyleTable
 71
     0
  0
DIMSTYLE
105
58
330
A
100
AcDbSymbolTableRecord
100
AcDbDimStyleTableRecord
  2
Standard
 70
     0
340
55
  0
DIMSTYLE
105
59
330
A
100
AcDbSymbolTableRecord
100
AcDbDimStyleTableRecord
  2
Annotative
 70
     0
340
55
1001
AcadAnnotative
1000
AnnotativeData
1002
{
1070
     1
1070
     1
1002
}
  0
ENDTAB
  0
TABLE
  2
BLOCK_RECORD
  5
1
330
0
100
AcDbSymbolTable
 70
     1
  0
BLOCK_RECORD
  5
70
330
1
100
AcDbSymbolTableRecord
100
AcDbBlockTableRecord
  2
*Model_Space
340
73
 70
     0
280
     1
281
     0
  0
BLOCK_RECORD
  5
6C
330
1
100
AcDbSymbolTableRecord
100
AcDbBlockTableRecord
  2
*Paper_Space
340
6F
 70
     0
280
     1
281
     0
  0
BLOCK_RECORD
  5
74
330
1
100
AcDbSymbolTableRecord
100
AcDbBlockTableRecord
  2
*Paper_Space0
340
77
 70
     0
280
     1
281
     0
  0
ENDTAB
  0
ENDSEC
  0
SECTION
  2
BLOCKS
  0
BLOCK
  5
71
330
70
100
AcDbEntity
  8
0
100
AcDbBlockBegin
  2
*Model_Space
 70
     0
 10
0.0
 20
0.0
 30
0.0
  3
*Model_Space
  1

  0
ENDBLK
  5
72
330
70
100
AcDbEntity
  8
0
100
AcDbBlockEnd
  0
BLOCK
  5
6D
330
6C
100
AcDbEntity
 67
     1
  8
0
100
AcDbBlockBegin
  2
*Paper_Space
 70
     0
 10
0.0
 20
0.0
 30
0.0
  3
*Paper_Space
  1

  0
ENDBLK
  5
6E
330
6C
100
AcDbEntity
 67
     1
  8
0
100
AcDbBlockEnd
  0
BLOCK
  5
75
330
74
100
AcDbEntity
 67
     1
  8
0
100
AcDbBlockBegin
  2
*Paper_Space0
 70
     0
 10
0.0
 20
0.0
 30
0.0
  3
*Paper_Space0
  1

  0
ENDBLK
  5
76
330
74
100
AcDbEntity
 67
     1
  8
0
100
AcDbBlockEnd
  0
ENDSEC
  0
SECTION
  2
ENTITIES
  0
SPLINE
  5
79
330
70
100
AcDbEntity
  8
grau 10%
100
AcDbSpline
210
0.0
220
0.0
230
1.0
 70
    11
 71
     3
 72
   182
 73
   178
 74
     0
 42
0.0000000001
 43
0.0000000001
 40
0.0
 40
0.0
 40
0.0
 40
0.0
 40
1.0
 40
1.0
 40
1.0
 40
2.0
 40
2.0
 40
2.0
 40
3.0
 40
3.0
 40
3.0
 40
4.0
 40
4.0
 40
4.0
 40
5.0
 40
5.0
 40
5.0
 40
6.0
 40
6.0
 40
6.0
 40
7.0
 40
7.0
 40
7.0
 40
8.0
 40
8.0
 40
8.0
 40
9.0
 40
9.0
 40
9.0
 40
10.0
 40
10.0
 40
10.0
 40
11.0
 40
11.0
 40
11.0
 40
12.0
 40
12.0
 40
12.0
 40
13.0
 40
13.0
 40
13.0
 40
14.0
 40
14.0
 40
14.0
 40
15.0
 40
15.0
 40
15.0
 40
16.0
 40
16.0
 40
16.0
 40
17.0
 40
17.0
 40
17.0
 40
18.0
 40
18.0
 40
18.0
 40
19.0
 40
19.0
 40
19.0
 40
20.0
 40
20.0
 40
20.0
 40
21.0
 40
21.0
 40
21.0
 40
22.0
 40
22.0
 40
22.0
 40
23.0
 40
23.0
 40
23.0
 40
24.0
 40
24.0
 40
24.0
 40
25.0
 40
25.0
 40
25.0
 40
26.0
 40
26.0
 40
26.0
 40
27.0
 40
27.0
 40
27.0
 40
28.0
 40
28.0
 40
28.0
 40
29.0
 40
29.0
 40
29.0
 40
30.0
 40
30.0
 40
30.0
 40
31.0
 40
31.0
 40
31.0
 40
32.0
 40
32.0
 40
32.0
 40
33.0
 40
33.0
 40
33.0
 40
34.0
 40
34.0
 40
34.0
 40
35.0
 40
35.0
 40
35.0
 40
36.0
 40
36.0
 40
36.0
 40
37.0
 40
37.0
 40
37.0
 40
38.0
 40
38.0
 40
38.0
 40
39.0
 40
39.0
 40
39.0
 40
40.0
 40
40.0
 40
40.0
 40
41.0
 40
41.0
 40
41.0
 40
42.0
 40
42.0
 40
42.0
 40
43.0
 40
43.0
 40
43.0
 40
44.0
 40
44.0
 40
44.0
 40
45.0
 40
45.0
 40
45.0
 40
46.0
 40
46.0
 40
46.0
 40
47.0
 40
47.0
 40
47.0
 40
48.0
 40
48.0
 40
48.0
 40
49.0
 40
49.0
 40
49.0
 40
50.0
 40
50.0
 40
50.0
 40
51.0
 40
51.0
 40
51.0
 40
52.0
 40
52.0
 40
52.0
 40
53.0
 40
53.0
 40
53.0
 40
54.0
 40
54.0
 40
54.0
 40
55.0
 40
55.0
 40
55.0
 40
56.0
 40
56.0
 40
56.0
 40
57.0
 40
57.0
 40
57.0
 40
58.0
 40
58.0
 40
58.0
 40
59.0
 40
59.0
 40
59.0
 40
59.0
 10
84.08204118822174
 20
99.08197552776378
 30
0.0
 10
84.08204118822174
 20
99.08197552776378
 30
0.0
 10
84.06584868863486
 20
138.7341614605967
 30
0.0
 10
84.06584868863486
 20
138.7341614605967
 30
0.0
 10
84.06584868863486
 20
138.7341614605967
 30
0.0
 10
89.90287437305326
 20
138.7823861815886
 30
0.0
 10
89.90287437305326
 20
138.7823861815886
 30
0.0
 10
89.90287437305326
 20
138.7823861815886
 30
0.0
 10
89.95145187181394
 20
145.3633849025822
 30
0.0
 10
89.95145187181394
 20
145.3633849025822
 30
0.0
 10
89.95145187181394
 20
145.3633849025822
 30
0.0
 10
84.03346368946108
 20
145.3471924029953
 30
0.0
 10
84.03346368946108
 20
145.3471924029953
 30
0.0
 10
84.03346368946108
 20
145.3471924029953
 30
0.0
 10
84.049658312321
 20
177.8589138444243
 30
0.0
 10
84.049658312321
 20
177.8589138444243
 30
0.0
 10
84.049658312321
 20
177.8589138444243
 30
0.0
 10
83.4353995380523
 20
178.4407810031519
 30
0.0
 10
83.4353995380523
 20
178.4407810031519
 30
0.0
 10
83.4353995380523
 20
178.4407810031519
 30
0.0
 10
83.03111621503308
 20
178.3760110048044
 30
0.0
 10
83.03111621503308
 20
178.3760110048044
 30
0.0
 10
83.03111621503308
 20
178.3760110048044
 30
0.0
 10
83.06332482532248
 20
191.6024305076549
 30
0.0
 10
83.06332482532248
 20
191.6024305076549
 30
0.0
 10
83.06332482532248
 20
191.6024305076549
 30
0.0
 10
81.9801912418444
 20
191.6186181669573
 30
0.0
 10
81.9801912418444
 20
191.6186181669573
 30
0.0
 10
81.9801912418444
 20
191.6186181669573
 30
0.0
 10
81.93161374308372
 20
191.8773453825789
 30
0.0
 10
81.93161374308372
 20
191.8773453825789
 30
0.0
 10
81.93161374308372
 20
191.8773453825789
 30
0.0
 10
81.68907902704907
 20
192.0874999519781
 30
0.0
 10
81.68907902704907
 20
192.0874999519781
 30
0.0
 10
81.68907902704907
 20
192.0874999519781
 30
0.0
 10
70.69405430755553
 20
192.0874999519781
 30
0.0
 10
70.69405430755553
 20
192.0874999519781
 30
0.0
 10
70.69405430755553
 20
192.0874999519781
 30
0.0
 10
70.45151959152088
 20
191.8287678838182
 30
0.0
 10
70.45151959152088
 20
191.8287678838182
 30
0.0
 10
70.45151959152088
 20
191.8287678838182
 30
0.0
 10
70.43550348081838
 20
191.5862331677835
 30
0.0
 10
70.43550348081838
 20
191.5862331677835
 30
0.0
 10
70.43550348081838
 20
191.5862331677835
 30
0.0
 10
64.6468805393939
 20
191.6186181669573
 30
0.0
 10
64.6468805393939
 20
191.6186181669573
 30
0.0
 10
64.6468805393939
 20
191.6186181669573
 30
0.0
 10
64.61467029598686
 20
189.694532938267
 30
0.0
 10
64.61467029598686
 20
189.694532938267
 30
0.0
 10
64.61467029598686
 20
189.694532938267
 30
0.0
 10
64.22657947255456
 20
190.3735595876103
 30
0.0
 10
64.22657947255456
 20
190.3735595876103
 30
0.0
 10
64.22657947255456
 20
190.3735595876103
 30
0.0
 10
61.62329120563664
 20
190.3897520871972
 30
0.0
 10
61.62329120563664
 20
190.3897520871972
 30
0.0
 10
61.62329120563664
 20
190.3897520871972
 30
0.0
 10
61.23520038220434
 20
189.694532938267
 30
0.0
 10
61.23520038220434
 20
189.694532938267
 30
0.0
 10
61.23520038220434
 20
189.694532938267
 30
0.0
 10
61.20299177191493
 20
188.6110465770202
 30
0.0
 10
61.20299177191493
 20
188.6110465770202
 30
0.0
 10
61.20299177191493
 20
188.6110465770202
 30
0.0
 10
61.08964427480667
 20
188.3847043605724
 30
0.0
 10
61.08964427480667
 20
188.3847043605724
 30
0.0
 10
61.08964427480667
 20
188.3847043605724
 30
0.0
 10
60.86330205835891
 20
188.2879021408198
 30
0.0
 10
60.86330205835891
 20
188.2879021408198
 30
0.0
 10
60.86330205835891
 20
188.2879021408198
 30
0.0
 10
54.55739944145811
 20
188.2875493630511
 30
0.0
 10
54.55739944145811
 20
188.2875493630511
 30
0.0
 10
54.55739944145811
 20
188.2875493630511
 30
0.0
 10
53.87837279211486
 20
187.738062710403
 30
0.0
 10
53.87837279211486
 20
187.738062710403
 30
0.0
 10
53.87837279211486
 20
187.738062710403
 30
0.0
 10
52.29380088809621
 20
187.738062710403
 30
0.0
 10
52.29380088809621
 20
187.738062710403
 30
0.0
 10
52.29380088809621
 20
187.738062710403
 30
0.0
 10
51.71175284738994
 20
188.2393246420592
 30
0.0
 10
51.71175284738994
 20
188.2393246420592
 30
0.0
 10
51.71175284738994
 20
188.2393246420592
 30
0.0
 10
49.02767847142193
 20
188.2875493630511
 30
0.0
 10
49.02767847142193
 20
188.2875493630511
 30
0.0
 10
49.02767847142193
 20
188.2875493630511
 30
0.0
 10
48.65578014757652
 20
188.1583621441247
 30
0.0
 10
48.65578014757652
 20
188.1583621441247
 30
0.0
 10
48.65578014757652
 20
188.1583621441247
 30
0.0
 10
48.44563043071566
 20
187.8348649301556
 30
0.0
 10
48.44563043071566
 20
187.8348649301556
 30
0.0
 10
48.44563043071566
 20
187.8348649301556
 30
0.0
 10
48.44563043071566
 20
182.369913958467
 30
0.0
 10
48.44563043071566
 20
182.369913958467
 30
0.0
 10
48.44563043071566
 20
182.369913958467
 30
0.0
 10
48.54260903935265
 20
181.9816467461503
 30
0.0
 10
48.54260903935265
 20
181.9816467461503
 30
0.0
 10
48.54260903935265
 20
181.9816467461503
 30
0.0
 10
48.78514375538729
 20
181.7391166212319
 30
0.0
 10
48.78514375538729
 20
181.7391166212319
 30
0.0
 10
48.78514375538729
 20
181.7391166212319
 30
0.0
 10
51.72794534697684
 20
181.6585023099499
 30
0.0
 10
51.72794534697684
 20
181.6585023099499
 30
0.0
 10
51.72794534697684
 20
181.6585023099499
 30
0.0
 10
52.29380088809621
 20
182.2889514605325
 30
0.0
 10
52.29380088809621
 20
182.2889514605325
 30
0.0
 10
52.29380088809621
 20
182.2889514605325
 30
0.0
 10
53.89456665319301
 20
182.2889514605325
 30
0.0
 10
53.89456665319301
 20
182.2889514605325
 30
0.0
 10
53.89456665319301
 20
182.2889514605325
 30
0.0
 10
54.46042220860719
 20
181.7232723082975
 30
0.0
 10
54.46042220860719
 20
181.7232723082975
 30
0.0
 10
54.46042220860719
 20
181.7232723082975
 30
0.0
 10
60.63713623079555
 20
181.7232723082975
 30
0.0
 10
60.63713623079555
 20
181.7232723082975
 30
0.0
 10
60.63713623079555
 20
181.7232723082975
 30
0.0
 10
60.96045705588029
 20
181.6746948095368
 30
0.0
 10
60.96045705588029
 20
181.6746948095368
 30
0.0
 10
60.96045705588029
 20
181.6746948095368
 30
0.0
 10
61.25139442913167
 20
181.4321600935022
 30
0.0
 10
61.25139442913167
 20
181.4321600935022
 30
0.0
 10
61.25139442913167
 20
181.4321600935022
 30
0.0
 10
61.25139442913167
 20
180.4620212293636
 30
0.0
 10
61.25139442913167
 20
180.4620212293636
 30
0.0
 10
61.25139442913167
 20
180.4620212293636
 30
0.0
 10
61.63948370522354
 20
179.6210695841514
 30
0.0
 10
61.63948370522354
 20
179.6210695841514
 30
0.0
 10
61.63948370522354
 20
179.6210695841514
 30
0.0
 10
64.22657947255456
 20
179.5566523635726
 30
0.0
 10
64.22657947255456
 20
179.5566523635726
 30
0.0
 10
64.22657947255456
 20
179.5566523635726
 30
0.0
 10
64.61467029598686
 20
180.3486737322553
 30
0.0
 10
64.61467029598686
 20
180.3486737322553
 30
0.0
 10
64.61467029598686
 20
180.3486737322553
 30
0.0
 10
64.67926390545006
 20
178.4407810031519
 30
0.0
 10
64.67926390545006
 20
178.4407810031519
 30
0.0
 10
64.67926390545006
 20
178.4407810031519
 30
0.0
 10
68.86694768750223
 20
178.3922035043913
 30
0.0
 10
68.86694768750223
 20
178.3922035043913
 30
0.0
 10
68.86694768750223
 20
178.3922035043913
 30
0.0
 10
68.38187825543293
 20
177.8265243521563
 30
0.0
 10
68.38187825543293
 20
177.8265243521563
 30
0.0
 10
68.38187825543293
 20
177.8265243521563
 30
0.0
 10
68.36568575584604
 20
145.4198999011404
 30
0.0
 10
68.36568575584604
 20
145.4198999011404
 30
0.0
 10
68.36568575584604
 20
145.4198999011404
 30
0.0
 10
67.15301387210049
 20
145.3385846254371
 30
0.0
 10
67.15301387210049
 20
145.3385846254371
 30
0.0
 10
67.15301387210049
 20
145.3385846254371
 30
0.0
 10
67.16920467525972
 20
138.8309636803493
 30
0.0
 10
67.16920467525972
 20
138.8309636803493
 30
0.0
 10
67.16920467525972
 20
138.8309636803493
 30
0.0
 10
68.36568575584604
 20
138.790323681386
 30
0.0
 10
68.36568575584604
 20
138.790323681386
 30
0.0
 10
68.36568575584604
 20
138.790323681386
 30
0.0
 10
68.3889338108085
 20
107.6509475313733
 30
0.0
 10
68.3889338108085
 20
107.6509475313733
 30
0.0
 10
68.3889338108085
 20
107.6509475313733
 30
0.0
 10
68.97271046258179
 20
105.6972642478826
 30
0.0
 10
68.48453658614724
 20
103.6897823546532
 30
0.0
 10
68.48453658614724
 20
103.6897823546532
 30
0.0
 10
68.48453658614724
 20
100.895817703711
 30
0.0
 10
68.48453658614724
 20
100.895817703711
 30
0.0
 10
68.48453658614724
 20
100.895817703711
 30
0.0
 10
68.70156546949927
 20
98.9968855299346
 30
0.0
 10
68.70156546949927
 20
98.9968855299346
 30
0.0
 10
68.70156546949927
 20
98.9968855299346
 30
0.0
 10
68.70156546949927
 20
97.20682057560296
 30
0.0
 10
68.70156546949927
 20
97.20682057560296
 30
0.0
 10
68.70156546949927
 20
97.20682057560296
 30
0.0
 10
67.9965390985971
 20
96.52811386475672
 30
0.0
 10
68.7830571340869
 20
95.87734227618744
 30
0.0
 10
68.7830571340869
 20
95.87734227618744
 30
0.0
 10
83.59386942354593
 20
95.87734227618744
 30
0.0
 10
83.59386942354593
 20
95.87734227618744
 30
0.0
 10
83.59386942354593
 20
95.87734227618744
 30
0.0
 10
84.57039145354068
 20
96.06717199356671
 30
0.0
 10
83.86515553458929
 20
97.09830613392695
 30
0.0
 10
83.86515553458929
 20
97.09830613392695
 30
0.0
 10
84.08204118822174
 20
99.08197552776378
 30
0.0
 10
84.08204118822174
 20
99.08197552776378
 30
0.0
  0
HATCH
  5
7A
330
70
100
AcDbEntity
  8
grau 10%
 62
   255
440
 33554687
100
AcDbHatch
 10
0.0
 20
0.0
 30
0.0
210
0.0
220
0.0
230
1.0
  2
SOLID
 70
     1
 71
     1
 91
        1
 92
        1
 93
        1
 72
     4
 94
        3
 73
     0
 74
     0
 95
      182
 96
      178
 40
0.0
 40
0.0
 40
0.0
 40
0.0
 40
1.0
 40
1.0
 40
1.0
 40
2.0
 40
2.0
 40
2.0
 40
3.0
 40
3.0
 40
3.0
 40
4.0
 40
4.0
 40
4.0
 40
5.0
 40
5.0
 40
5.0
 40
6.0
 40
6.0
 40
6.0
 40
7.0
 40
7.0
 40
7.0
 40
8.0
 40
8.0
 40
8.0
 40
9.0
 40
9.0
 40
9.0
 40
10.0
 40
10.0
 40
10.0
 40
11.0
 40
11.0
 40
11.0
 40
12.0
 40
12.0
 40
12.0
 40
13.0
 40
13.0
 40
13.0
 40
14.0
 40
14.0
 40
14.0
 40
15.0
 40
15.0
 40
15.0
 40
16.0
 40
16.0
 40
16.0
 40
17.0
 40
17.0
 40
17.0
 40
18.0
 40
18.0
 40
18.0
 40
19.0
 40
19.0
 40
19.0
 40
20.0
 40
20.0
 40
20.0
 40
21.0
 40
21.0
 40
21.0
 40
22.0
 40
22.0
 40
22.0
 40
23.0
 40
23.0
 40
23.0
 40
24.0
 40
24.0
 40
24.0
 40
25.0
 40
25.0
 40
25.0
 40
26.0
 40
26.0
 40
26.0
 40
27.0
 40
27.0
 40
27.0
 40
28.0
 40
28.0
 40
28.0
 40
29.0
 40
29.0
 40
29.0
 40
30.0
 40
30.0
 40
30.0
 40
31.0
 40
31.0
 40
31.0
 40
32.0
 40
32.0
 40
32.0
 40
33.0
 40
33.0
 40
33.0
 40
34.0
 40
34.0
 40
34.0
 40
35.0
 40
35.0
 40
35.0
 40
36.0
 40
36.0
 40
36.0
 40
37.0
 40
37.0
 40
37.0
 40
38.0
 40
38.0
 40
38.0
 40
39.0
 40
39.0
 40
39.0
 40
40.0
 40
40.0
 40
40.0
 40
41.0
 40
41.0
 40
41.0
 40
42.0
 40
42.0
 40
42.0
 40
43.0
 40
43.0
 40
43.0
 40
44.0
 40
44.0
 40
44.0
 40
45.0
 40
45.0
 40
45.0
 40
46.0
 40
46.0
 40
46.0
 40
47.0
 40
47.0
 40
47.0
 40
48.0
 40
48.0
 40
48.0
 40
49.0
 40
49.0
 40
49.0
 40
50.0
 40
50.0
 40
50.0
 40
51.0
 40
51.0
 40
51.0
 40
52.0
 40
52.0
 40
52.0
 40
53.0
 40
53.0
 40
53.0
 40
54.0
 40
54.0
 40
54.0
 40
55.0
 40
55.0
 40
55.0
 40
56.0
 40
56.0
 40
56.0
 40
57.0
 40
57.0
 40
57.0
 40
58.0
 40
58.0
 40
58.0
 40
59.0
 40
59.0
 40
59.0
 40
59.0
 10
84.08204118822174
 20
99.08197552776378
 10
84.08204118822174
 20
99.08197552776378
 10
84.06584868863486
 20
138.7341614605967
 10
84.06584868863486
 20
138.7341614605967
 10
84.06584868863486
 20
138.7341614605967
 10
89.90287437305326
 20
138.7823861815886
 10
89.90287437305326
 20
138.7823861815886
 10
89.90287437305326
 20
138.7823861815886
 10
89.95145187181394
 20
145.3633849025822
 10
89.95145187181394
 20
145.3633849025822
 10
89.95145187181394
 20
145.3633849025822
 10
84.03346368946108
 20
145.3471924029953
 10
84.03346368946108
 20
145.3471924029953
 10
84.03346368946108
 20
145.3471924029953
 10
84.049658312321
 20
177.8589138444243
 10
84.049658312321
 20
177.8589138444243
 10
84.049658312321
 20
177.8589138444243
 10
83.4353995380523
 20
178.4407810031519
 10
83.4353995380523
 20
178.4407810031519
 10
83.4353995380523
 20
178.4407810031519
 10
83.03111621503308
 20
178.3760110048044
 10
83.03111621503308
 20
178.3760110048044
 10
83.03111621503308
 20
178.3760110048044
 10
83.06332482532248
 20
191.6024305076549
 10
83.06332482532248
 20
191.6024305076549
 10
83.06332482532248
 20
191.6024305076549
 10
81.9801912418444
 20
191.6186181669573
 10
81.9801912418444
 20
191.6186181669573
 10
81.9801912418444
 20
191.6186181669573
 10
81.93161374308372
 20
191.8773453825789
 10
81.93161374308372
 20
191.8773453825789
 10
81.93161374308372
 20
191.8773453825789
 10
81.68907902704907
 20
192.0874999519781
 10
81.68907902704907
 20
192.0874999519781
 10
81.68907902704907
 20
192.0874999519781
 10
70.69405430755553
 20
192.0874999519781
 10
70.69405430755553
 20
192.0874999519781
 10
70.69405430755553
 20
192.0874999519781
 10
70.45151959152088
 20
191.8287678838182
 10
70.45151959152088
 20
191.8287678838182
 10
70.45151959152088
 20
191.8287678838182
 10
70.43550348081838
 20
191.5862331677835
 10
70.43550348081838
 20
191.5862331677835
 10
70.43550348081838
 20
191.5862331677835
 10
64.6468805393939
 20
191.6186181669573
 10
64.6468805393939
 20
191.6186181669573
 10
64.6468805393939
 20
191.6186181669573
 10
64.61467029598686
 20
189.694532938267
 10
64.61467029598686
 20
189.694532938267
 10
64.61467029598686
 20
189.694532938267
 10
64.22657947255456
 20
190.3735595876103
 10
64.22657947255456
 20
190.3735595876103
 10
64.22657947255456
 20
190.3735595876103
 10
61.62329120563664
 20
190.3897520871972
 10
61.62329120563664
 20
190.3897520871972
 10
61.62329120563664
 20
190.3897520871972
 10
61.23520038220434
 20
189.694532938267
 10
61.23520038220434
 20
189.694532938267
 10
61.23520038220434
 20
189.694532938267
 10
61.20299177191493
 20
188.6110465770202
 10
61.20299177191493
 20
188.6110465770202
 10
61.20299177191493
 20
188.6110465770202
 10
61.08964427480667
 20
188.3847043605724
 10
61.08964427480667
 20
188.3847043605724
 10
61.08964427480667
 20
188.3847043605724
 10
60.86330205835891
 20
188.2879021408198
 10
60.86330205835891
 20
188.2879021408198
 10
60.86330205835891
 20
188.2879021408198
 10
54.55739944145811
 20
188.2875493630511
 10
54.55739944145811
 20
188.2875493630511
 10
54.55739944145811
 20
188.2875493630511
 10
53.87837279211486
 20
187.738062710403
 10
53.87837279211486
 20
187.738062710403
 10
53.87837279211486
 20
187.738062710403
 10
52.29380088809621
 20
187.738062710403
 10
52.29380088809621
 20
187.738062710403
 10
52.29380088809621
 20
187.738062710403
 10
51.71175284738994
 20
188.2393246420592
 10
51.71175284738994
 20
188.2393246420592
 10
51.71175284738994
 20
188.2393246420592
 10
49.02767847142193
 20
188.2875493630511
 10
49.02767847142193
 20
188.2875493630511
 10
49.02767847142193
 20
188.2875493630511
 10
48.65578014757652
 20
188.1583621441247
 10
48.65578014757652
 20
188.1583621441247
 10
48.65578014757652
 20
188.1583621441247
 10
48.44563043071566
 20
187.8348649301556
 10
48.44563043071566
 20
187.8348649301556
 10
48.44563043071566
 20
187.8348649301556
 10
48.44563043071566
 20
182.369913958467
 10
48.44563043071566
 20
182.369913958467
 10
48.44563043071566
 20
182.369913958467
 10
48.54260903935265
 20
181.9816467461503
 10
48.54260903935265
 20
181.9816467461503
 10
48.54260903935265
 20
181.9816467461503
 10
48.78514375538729
 20
181.7391166212319
 10
48.78514375538729
 20
181.7391166212319
 10
48.78514375538729
 20
181.7391166212319
 10
51.72794534697684
 20
181.6585023099499
 10
51.72794534697684
 20
181.6585023099499
 10
51.72794534697684
 20
181.6585023099499
 10
52.29380088809621
 20
182.2889514605325
 10
52.29380088809621
 20
182.2889514605325
 10
52.29380088809621
 20
182.2889514605325
 10
53.89456665319301
 20
182.2889514605325
 10
53.89456665319301
 20
182.2889514605325
 10
53.89456665319301
 20
182.2889514605325
 10
54.46042220860719
 20
181.7232723082975
 10
54.46042220860719
 20
181.7232723082975
 10
54.46042220860719
 20
181.7232723082975
 10
60.63713623079555
 20
181.7232723082975
 10
60.63713623079555
 20
181.7232723082975
 10
60.63713623079555
 20
181.7232723082975
 10
60.96045705588029
 20
181.6746948095368
 10
60.96045705588029
 20
181.6746948095368
 10
60.96045705588029
 20
181.6746948095368
 10
61.25139442913167
 20
181.4321600935022
 10
61.25139442913167
 20
181.4321600935022
 10
61.25139442913167
 20
181.4321600935022
 10
61.25139442913167
 20
180.4620212293636
 10
61.25139442913167
 20
180.4620212293636
 10
61.25139442913167
 20
180.4620212293636
 10
61.63948370522354
 20
179.6210695841514
 10
61.63948370522354
 20
179.6210695841514
 10
61.63948370522354
 20
179.6210695841514
 10
64.22657947255456
 20
179.5566523635726
 10
64.22657947255456
 20
179.5566523635726
 10
64.22657947255456
 20
179.5566523635726
 10
64.61467029598686
 20
180.3486737322553
 10
64.61467029598686
 20
180.3486737322553
 10
64.61467029598686
 20
180.3486737322553
 10
64.67926390545006
 20
178.4407810031519
 10
64.67926390545006
 20
178.4407810031519
 10
64.67926390545006
 20
178.4407810031519
 10
68.86694768750223
 20
178.3922035043913
 10
68.86694768750223
 20
178.3922035043913
 10
68.86694768750223
 20
178.3922035043913
 10
68.38187825543293
 20
177.8265243521563
 10
68.38187825543293
 20
177.8265243521563
 10
68.38187825543293
 20
177.8265243521563
 10
68.36568575584604
 20
145.4198999011404
 10
68.36568575584604
 20
145.4198999011404
 10
68.36568575584604
 20
145.4198999011404
 10
67.15301387210049
 20
145.3385846254371
 10
67.15301387210049
 20
145.3385846254371
 10
67.15301387210049
 20
145.3385846254371
 10
67.16920467525972
 20
138.8309636803493
 10
67.16920467525972
 20
138.8309636803493
 10
67.16920467525972
 20
138.8309636803493
 10
68.36568575584604
 20
138.790323681386
 10
68.36568575584604
 20
138.790323681386
 10
68.36568575584604
 20
138.790323681386
 10
68.3889338108085
 20
107.6509475313733
 10
68.3889338108085
 20
107.6509475313733
 10
68.3889338108085
 20
107.6509475313733
 10
68.97271046258179
 20
105.6972642478826
 10
68.48453658614724
 20
103.6897823546532
 10
68.48453658614724
 20
103.6897823546532
 10
68.48453658614724
 20
100.895817703711
 10
68.48453658614724
 20
100.895817703711
 10
68.48453658614724
 20
100.895817703711
 10
68.70156546949927
 20
98.9968855299346
 10
68.70156546949927
 20
98.9968855299346
 10
68.70156546949927
 20
98.9968855299346
 10
68.70156546949927
 20
97.20682057560296
 10
68.70156546949927
 20
97.20682057560296
 10
68.70156546949927
 20
97.20682057560296
 10
67.9965390985971
 20
96.52811386475672
 10
68.7830571340869
 20
95.87734227618744
 10
68.7830571340869
 20
95.87734227618744
 10
83.59386942354593
 20
95.87734227618744
 10
83.59386942354593
 20
95.87734227618744
 10
83.59386942354593
 20
95.87734227618744
 10
84.57039145354068
 20
96.06717199356671
 10
83.86515553458929
 20
97.09830613392695
 10
83.86515553458929
 20
97.09830613392695
 10
84.08204118822174
 20
99.08197552776378
 10
84.08204118822174
 20
99.08197552776378
 97
        0
 97
        1
330
79
 75
     0
 76
     1
 98
        1
 10
0.0
 20
0.0
450
        0
451
        0
460
0.0
461
0.0
452
        0
462
0.0
453
        0
470

  0
SPLINE
  5
7B
330
70
100
AcDbEntity
  8
grau 10%
100
AcDbSpline
210
0.0
220
0.0
230
1.0
 70
    11
 71
     3
 72
    95
 73
    91
 74
     0
 42
0.0000000001
 43
0.0000000001
 40
0.0
 40
0.0
 40
0.0
 40
0.0
 40
1.0
 40
1.0
 40
1.0
 40
2.0
 40
2.0
 40
2.0
 40
3.0
 40
3.0
 40
3.0
 40
4.0
 40
4.0
 40
4.0
 40
5.0
 40
5.0
 40
5.0
 40
6.0
 40
6.0
 40
6.0
 40
7.0
 40
7.0
 40
7.0
 40
8.0
 40
8.0
 40
8.0
 40
9.0
 40
9.0
 40
9.0
 40
10.0
 40
10.0
 40
10.0
 40
11.0
 40
11.0
 40
11.0
 40
12.0
 40
12.0
 40
12.0
 40
13.0
 40
13.0
 40
13.0
 40
14.0
 40
14.0
 40
14.0
 40
15.0
 40
15.0
 40
15.0
 40
16.0
 40
16.0
 40
16.0
 40
17.0
 40
17.0
 40
17.0
 40
18.0
 40
18.0
 40
18.0
 40
19.0
 40
19.0
 40
19.0
 40
20.0
 40
20.0
 40
20.0
 40
21.0
 40
21.0
 40
21.0
 40
22.0
 40
22.0
 40
22.0
 40
23.0
 40
23.0
 40
23.0
 40
24.0
 40
24.0
 40
24.0
 40
25.0
 40
25.0
 40
25.0
 40
26.0
 40
26.0
 40
26.0
 40
27.0
 40
27.0
 40
27.0
 40
28.0
 40
28.0
 40
28.0
 40
29.0
 40
29.0
 40
29.0
 40
30.0
 40
30.0
 40
30.0
 40
30.0
 10
128.1572136748815
 20
99.07611941680206
 30
0.0
 10
128.1572136748815
 20
99.07611941680206
 30
0.0
 10
128.1410211752946
 20
138.8051403476747
 30
0.0
 10
128.1410211752946
 20
138.8051403476747
 30
0.0
 10
128.1410211752946
 20
138.8051403476747
 30
0.0
 10
134.1192990783316
 20
138.8533650686666
 30
0.0
 10
134.1192990783316
 20
138.8533650686666
 30
0.0
 10
134.1192990783316
 20
138.8533650686666
 30
0.0
 10
134.1675237993235
 20
145.4340110118915
 30
0.0
 10
134.1675237993235
 20
145.4340110118915
 30
0.0
 10
134.1675237993235
 20
145.4340110118915
 30
0.0
 10
128.1086361761208
 20
145.4178221858676
 30
0.0
 10
128.1086361761208
 20
145.4178221858676
 30
0.0
 10
128.1086361761208
 20
145.4178221858676
 30
0.0
 10
128.1248286757077
 20
177.8589138444243
 30
0.0
 10
128.1248286757077
 20
177.8589138444243
 30
0.0
 10
128.1248286757077
 20
177.8589138444243
 30
0.0
 10
127.510572024712
 20
178.4407810031519
 30
0.0
 10
127.510572024712
 20
178.4407810031519
 30
0.0
 10
127.510572024712
 20
178.4407810031519
 30
0.0
 10
130.2742330653163
 20
178.3935793376895
 30
0.0
 10
130.2742330653163
 20
178.3935793376895
 30
0.0
 10
130.2742330653163
 20
178.3935793376895
 30
0.0
 10
130.2462930660291
 20
191.592442056514
 30
0.0
 10
130.2462930660291
 20
191.592442056514
 30
0.0
 10
130.2462930660291
 20
191.592442056514
 30
0.0
 10
126.1528362260174
 20
191.592442056514
 30
0.0
 10
126.1528362260174
 20
191.592442056514
 30
0.0
 10
126.1528362260174
 20
191.592442056514
 30
0.0
 10
126.1528362260174
 20
191.7874223293174
 30
0.0
 10
126.1528362260174
 20
191.7874223293174
 30
0.0
 10
126.1528362260174
 20
191.7874223293174
 30
0.0
 10
125.8465898449415
 20
192.1216087096805
 30
0.0
 10
125.8465898449415
 20
192.1216087096805
 30
0.0
 10
125.8465898449415
 20
192.1216087096805
 30
0.0
 10
114.8477551255452
 20
192.0937039881702
 30
0.0
 10
114.8477551255452
 20
192.0937039881702
 30
0.0
 10
114.8477551255452
 20
192.0937039881702
 30
0.0
 10
114.5690606882108
 20
191.8432317723381
 30
0.0
 10
114.5690606882108
 20
191.8432317723381
 30
0.0
 10
114.5690606882108
 20
191.8432317723381
 30
0.0
 10
114.513604022959
 20
191.6203467780243
 30
0.0
 10
114.513604022959
 20
191.6203467780243
 30
0.0
 10
114.513604022959
 20
191.6203467780243
 30
0.0
 10
110.4480519044577
 20
191.5645373350037
 30
0.0
 10
110.4480519044577
 20
191.5645373350037
 30
0.0
 10
110.4480519044577
 20
191.5645373350037
 30
0.0
 10
110.4480519044577
 20
178.4407810031519
 30
0.0
 10
110.4480519044577
 20
178.4407810031519
 30
0.0
 10
110.4480519044577
 20
178.4407810031519
 30
0.0
 10
112.9419437852776
 20
178.3922035043913
 30
0.0
 10
112.9419437852776
 20
178.3922035043913
 30
0.0
 10
112.9419437852776
 20
178.3922035043913
 30
0.0
 10
112.4568743532083
 20
177.8265243521563
 30
0.0
 10
112.4568743532083
 20
177.8265243521563
 30
0.0
 10
112.4568743532083
 20
177.8265243521563
 30
0.0
 10
112.4406818536214
 20
145.4908471858495
 30
0.0
 10
112.4406818536214
 20
145.4908471858495
 30
0.0
 10
112.4406818536214
 20
145.4908471858495
 30
0.0
 10
106.6773867228775
 20
145.4095635125152
 30
0.0
 10
106.6773867228775
 20
145.4095635125152
 30
0.0
 10
106.6773867228775
 20
145.4095635125152
 30
0.0
 10
106.6935792224644
 20
138.9019425674273
 30
0.0
 10
106.6935792224644
 20
138.9019425674273
 30
0.0
 10
106.6935792224644
 20
138.9019425674273
 30
0.0
 10
112.4406818536214
 20
138.8613025684641
 30
0.0
 10
112.4406818536214
 20
138.8613025684641
 30
0.0
 10
112.4406818536214
 20
138.8613025684641
 30
0.0
 10
112.4641062974683
 20
106.1330506256536
 30
0.0
 10
112.4641062974683
 20
106.1330506256536
 30
0.0
 10
112.4641062927999
 20
106.1330506368493
 30
0.0
 10
112.590326479696
 20
104.1630618986065
 30
0.0
 10
112.6232796267407
 20
102.2445576693018
 30
0.0
 10
112.6232796267407
 20
102.2445576693018
 30
0.0
 10
112.6232796267407
 20
98.95278830883739
 30
0.0
 10
112.6232796267407
 20
98.95278830883739
 30
0.0
 10
112.6232796267407
 20
98.95278830883739
 30
0.0
 10
112.8995751752474
 20
97.09382585626347
 30
0.0
 10
112.8995751752474
 20
97.09382585626347
 30
0.0
 10
112.8995751752474
 20
97.09382585626347
 30
0.0
 10
111.9697235323032
 20
96.49092864942243
 30
0.0
 10
113.0501083050709
 20
95.86252560989878
 30
0.0
 10
113.0501083050709
 20
95.86252560989878
 30
0.0
 10
127.7231206304006
 20
95.86252560989878
 30
0.0
 10
127.7231206304006
 20
95.86252560989878
 30
0.0
 10
127.7231206304006
 20
95.86252560989878
 30
0.0
 10
128.6780900504817
 20
96.34001031993935
 30
0.0
 10
128.1000283985626
 20
97.06867280134963
 30
0.0
 10
128.1000283985626
 20
97.06867280134963
 30
0.0
 10
128.1572136748815
 20
99.07611941680206
 30
0.0
 10
128.1572136748815
 20
99.07611941680206
 30
0.0
  0
HATCH
  5
7C
330
70
100
AcDbEntity
  8
grau 10%
 62
   255
440
 33554687
100
AcDbHatch
 10
0.0
 20
0.0
 30
0.0
210
0.0
220
0.0
230
1.0
  2
SOLID
 70
     1
 71
     1
 91
        1
 92
        1
 93
        1
 72
     4
 94
        3
 73
     0
 74
     0
 95
       95
 96
       91
 40
0.0
 40
0.0
 40
0.0
 40
0.0
 40
1.0
 40
1.0
 40
1.0
 40
2.0
 40
2.0
 40
2.0
 40
3.0
 40
3.0
 40
3.0
 40
4.0
 40
4.0
 40
4.0
 40
5.0
 40
5.0
 40
5.0
 40
6.0
 40
6.0
 40
6.0
 40
7.0
 40
7.0
 40
7.0
 40
8.0
 40
8.0
 40
8.0
 40
9.0
 40
9.0
 40
9.0
 40
10.0
 40
10.0
 40
10.0
 40
11.0
 40
11.0
 40
11.0
 40
12.0
 40
12.0
 40
12.0
 40
13.0
 40
13.0
 40
13.0
 40
14.0
 40
14.0
 40
14.0
 40
15.0
 40
15.0
 40
15.0
 40
16.0
 40
16.0
 40
16.0
 40
17.0
 40
17.0
 40
17.0
 40
18.0
 40
18.0
 40
18.0
 40
19.0
 40
19.0
 40
19.0
 40
20.0
 40
20.0
 40
20.0
 40
21.0
 40
21.0
 40
21.0
 40
22.0
 40
22.0
 40
22.0
 40
23.0
 40
23.0
 40
23.0
 40
24.0
 40
24.0
 40
24.0
 40
25.0
 40
25.0
 40
25.0
 40
26.0
 40
26.0
 40
26.0
 40
27.0
 40
27.0
 40
27.0
 40
28.0
 40
28.0
 40
28.0
 40
29.0
 40
29.0
 40
29.0
 40
30.0
 40
30.0
 40
30.0
 40
30.0
 10
128.1572136748815
 20
99.07611941680206
 10
128.1572136748815
 20
99.07611941680206
 10
128.1410211752946
 20
138.8051403476747
 10
128.1410211752946
 20
138.8051403476747
 10
128.1410211752946
 20
138.8051403476747
 10
134.1192990783316
 20
138.8533650686666
 10
134.1192990783316
 20
138.8533650686666
 10
134.1192990783316
 20
138.8533650686666
 10
134.1675237993235
 20
145.4340110118915
 10
134.1675237993235
 20
145.4340110118915
 10
134.1675237993235
 20
145.4340110118915
 10
128.1086361761208
 20
145.4178221858676
 10
128.1086361761208
 20
145.4178221858676
 10
128.1086361761208
 20
145.4178221858676
 10
128.1248286757077
 20
177.8589138444243
 10
128.1248286757077
 20
177.8589138444243
 10
128.1248286757077
 20
177.8589138444243
 10
127.510572024712
 20
178.4407810031519
 10
127.510572024712
 20
178.4407810031519
 10
127.510572024712
 20
178.4407810031519
 10
130.2742330653163
 20
178.3935793376895
 10
130.2742330653163
 20
178.3935793376895
 10
130.2742330653163
 20
178.3935793376895
 10
130.2462930660291
 20
191.592442056514
 10
130.2462930660291
 20
191.592442056514
 10
130.2462930660291
 20
191.592442056514
 10
126.1528362260174
 20
191.592442056514
 10
126.1528362260174
 20
191.592442056514
 10
126.1528362260174
 20
191.592442056514
 10
126.1528362260174
 20
191.7874223293174
 10
126.1528362260174
 20
191.7874223293174
 10
126.1528362260174
 20
191.7874223293174
 10
125.8465898449415
 20
192.1216087096805
 10
125.8465898449415
 20
192.1216087096805
 10
125.8465898449415
 20
192.1216087096805
 10
114.8477551255452
 20
192.0937039881702
 10
114.8477551255452
 20
192.0937039881702
 10
114.8477551255452
 20
192.0937039881702
 10
114.5690606882108
 20
191.8432317723381
 10
114.5690606882108
 20
191.8432317723381
 10
114.5690606882108
 20
191.8432317723381
 10
114.513604022959
 20
191.6203467780243
 10
114.513604022959
 20
191.6203467780243
 10
114.513604022959
 20
191.6203467780243
 10
110.4480519044577
 20
191.5645373350037
 10
110.4480519044577
 20
191.5645373350037
 10
110.4480519044577
 20
191.5645373350037
 10
110.4480519044577
 20
178.4407810031519
 10
110.4480519044577
 20
178.4407810031519
 10
110.4480519044577
 20
178.4407810031519
 10
112.9419437852776
 20
178.3922035043913
 10
112.9419437852776
 20
178.3922035043913
 10
112.9419437852776
 20
178.3922035043913
 10
112.4568743532083
 20
177.8265243521563
 10
112.4568743532083
 20
177.8265243521563
 10
112.4568743532083
 20
177.8265243521563
 10
112.4406818536214
 20
145.4908471858495
 10
112.4406818536214
 20
145.4908471858495
 10
112.4406818536214
 20
145.4908471858495
 10
106.6773867228775
 20
145.4095635125152
 10
106.6773867228775
 20
145.4095635125152
 10
106.6773867228775
 20
145.4095635125152
 10
106.6935792224644
 20
138.9019425674273
 10
106.6935792224644
 20
138.9019425674273
 10
106.6935792224644
 20
138.9019425674273
 10
112.4406818536214
 20
138.8613025684641
 10
112.4406818536214
 20
138.8613025684641
 10
112.4406818536214
 20
138.8613025684641
 10
112.4641062974683
 20
106.1330506256536
 10
112.4641062974683
 20
106.1330506256536
 10
112.4641062927999
 20
106.1330506368493
 10
112.590326479696
 20
104.1630618986065
 10
112.6232796267407
 20
102.2445576693018
 10
112.6232796267407
 20
102.2445576693018
 10
112.6232796267407
 20
98.95278830883739
 10
112.6232796267407
 20
98.95278830883739
 10
112.6232796267407
 20
98.95278830883739
 10
112.8995751752474
 20
97.09382585626347
 10
112.8995751752474
 20
97.09382585626347
 10
112.8995751752474
 20
97.09382585626347
 10
111.9697235323032
 20
96.49092864942243
 10
113.0501083050709
 20
95.86252560989878
 10
113.0501083050709
 20
95.86252560989878
 10
127.7231206304006
 20
95.86252560989878
 10
127.7231206304006
 20
95.86252560989878
 10
127.7231206304006
 20
95.86252560989878
 10
128.6780900504817
 20
96.34001031993935
 10
128.1000283985626
 20
97.06867280134963
 10
128.1000283985626
 20
97.06867280134963
 10
128.1572136748815
 20
99.07611941680206
 10
128.1572136748815
 20
99.07611941680206
 97
        0
 97
        1
330
7B
 75
     0
 76
     1
 98
        1
 10
0.0
 20
0.0
450
        0
451
        0
460
0.0
461
0.0
452
        0
462
0.0
453
        0
470

  0
SPLINE
  5
7E
330
70
100
AcDbEntity
  8
Standardebene
 62
     7
370
     9
100
AcDbSpline
210
0.0
220
0.0
230
1.0
 70
     8
 71
     3
 72
    17
 73
    13
 74
     0
 42
0.0000000001
 43
0.0000000001
 40
0.0
 40
0.0
 40
0.0
 40
0.0
 40
1.0
 40
1.0
 40
1.0
 40
2.0
 40
2.0
 40
2.0
 40
3.0
 40
3.0
 40
3.0
 40
4.0
 40
4.0
 40
4.0
 40
4.0
 10
142.1319325582765
 20
74.73916638194478
 30
0.0
 10
142.0742694860975
 20
74.52743579099685
 30
0.0
 10
142.0486129467519
 20
74.3138451009459
 30
0.0
 10
142.0504730458543
 20
74.12154933855184
 30
0.0
 10
142.0504730458543
 20
72.80363705372413
 30
0.0
 10
143.1184906374573
 20
71.73504218998671
 30
0.0
 10
144.4369801944194
 20
71.73504218998671
 30
0.0
 10
145.7548924792471
 20
71.73504218998671
 30
0.0
 10
146.8234873429846
 20
72.80363705372413
 30
0.0
 10
146.8234873429846
 20
74.12154933855184
 30
0.0
 10
146.8234873429846
 20
75.2196492225369
 30
0.0
 10
146.0818850732046
 20
76.14475988998512
 30
0.0
 10
145.054602780063
 20
76.42666111604313
 30
0.0
  0
SPLINE
  5
7F
330
70
100
AcDbEntity
  8
Standardebene
 62
     7
370
     9
100
AcDbSpline
210
0.0
220
0.0
230
1.0
 70
     8
 71
     3
 72
    17
 73
    13
 74
     0
 42
0.0000000001
 43
0.0000000001
 40
0.0
 40
0.0
 40
0.0
 40
0.0
 40
1.0
 40
1.0
 40
1.0
 40
2.0
 40
2.0
 40
2.0
 40
3.0
 40
3.0
 40
3.0
 40
4.0
 40
4.0
 40
4.0
 40
4.0
 10
142.1319325582765
 20
62.73960293007938
 30
0.0
 10
142.0742694860975
 20
62.52729506699578
 30
0.0
 10
142.0486129467519
 20
62.31370437694484
 30
0.0
 10
142.0504730458543
 20
62.12140861455078
 30
0.0
 10
142.0504730458543
 20
60.80407360185873
 30
0.0
 10
143.1184906374573
 20
59.73483732463731
 30
0.0
 10
144.4369801944194
 20
59.73483732463731
 30
0.0
 10
145.7548924792471
 20
59.73483732463731
 30
0.0
 10
146.8234873429846
 20
60.80407360185873
 30
0.0
 10
146.8234873429846
 20
62.12140861455078
 30
0.0
 10
146.8234873429846
 20
63.22002162932316
 30
0.0
 10
146.0818850732046
 20
64.14519643811971
 30
0.0
 10
145.054602780063
 20
64.42709766417772
 30
0.0
  0
SPLINE
  5
80
330
70
100
AcDbEntity
  8
Standardebene
 62
     7
370
     9
100
AcDbSpline
210
0.0
220
0.0
230
1.0
 70
     9
 71
     3
 72
    17
 73
    13
 74
     0
 42
0.0000000001
 43
0.0000000001
 40
0.0
 40
0.0
 40
0.0
 40
0.0
 40
1.0
 40
1.0
 40
1.0
 40
2.0
 40
2.0
 40
2.0
 40
3.0
 40
3.0
 40
3.0
 40
4.0
 40
4.0
 40
4.0
 40
4.0
 10
144.4369801944194
 20
76.50805648711699
 30
0.0
 10
143.1184906374573
 20
76.50805648711699
 30
0.0
 10
142.0504730458543
 20
75.43946162337892
 30
0.0
 10
142.0504730458543
 20
74.12154933855184
 30
0.0
 10
142.0504730458543
 20
72.80363705372413
 30
0.0
 10
143.1184906374573
 20
71.73504218998671
 30
0.0
 10
144.4369801944194
 20
71.73504218998671
 30
0.0
 10
145.7548924792471
 20
71.73504218998671
 30
0.0
 10
146.8234873429846
 20
72.80363705372413
 30
0.0
 10
146.8234873429846
 20
74.12154933855184
 30
0.0
 10
146.8234873429846
 20
75.43946162337892
 30
0.0
 10
145.7548924792471
 20
76.50805648711699
 30
0.0
 10
144.4369801944194
 20
76.50805648711699
 30
0.0
  0
SPLINE
  5
81
330
70
100
AcDbEntity
  8
Standardebene
 62
     7
370
     9
100
AcDbSpline
210
0.0
220
0.0
230
1.0
 70
     8
 71
     3
 72
     8
 73
     4
 74
     0
 42
0.0000000001
 43
0.0000000001
 40
0.0
 40
0.0
 40
0.0
 40
0.0
 40
1.0
 40
1.0
 40
1.0
 40
1.0
 10
143.5393861654192
 20
72.91954047021768
 30
0.0
 10
143.6390031859173
 20
72.84564963690289
 30
0.0
 10
143.7441949998904
 20
72.78490778000257
 30
0.0
 10
143.8457252452038
 20
72.74289519682382
 30
0.0
  0
LWPOLYLINE
  5
82
330
70
100
AcDbEntity
  8
Standardebene
 62
     7
370
     9
100
AcDbPolyline
 90
        3
 70
     0
 43
0.0
 10
143.5393861654192
 20
72.91954047021768
 10
142.9474898027195
 20
73.26154696493896
 10
142.9474898027195
 20
73.94490406515799
  0
SPLINE
  5
83
330
70
100
AcDbEntity
  8
Standardebene
 62
     7
370
     9
100
AcDbSpline
210
0.0
220
0.0
230
1.0
 70
     8
 71
     3
 72
     8
 73
     4
 74
     0
 42
0.0000000001
 43
0.0000000001
 40
0.0
 40
0.0
 40
0.0
 40
0.0
 40
1.0
 40
1.0
 40
1.0
 40
1.0
 10
142.9474898027195
 20
74.29819461194508
 30
0.0
 10
142.9330579993377
 20
74.17478665769374
 30
0.0
 10
142.9336994128217
 20
74.05202011692577
 30
0.0
 10
142.9474898027195
 20
73.94490406515799
 30
0.0
  0
LWPOLYLINE
  5
84
330
70
100
AcDbEntity
  8
Standardebene
 62
     7
370
     9
100
AcDbPolyline
 90
        3
 70
     0
 43
0.0
 10
142.9474898027195
 20
74.29819461194508
 10
142.9474898027195
 20
74.9934868282065
 10
144.4470503861125
 20
75.85977987920573
  0
LINE
  5
85
330
70
100
AcDbEntity
  8
Standardebene
 62
     7
370
     9
100
AcDbLine
 10
145.9471882416412
 20
74.9934868282065
 30
0.0
 11
144.4470503861125
 21
75.85977987920573
 31
0.0
  0
LINE
  5
86
330
70
100
AcDbEntity
  8
Standardebene
 62
     7
370
     9
100
AcDbLine
 10
145.9471882416412
 20
73.26154696493896
 30
0.0
 11
145.9471882416412
 21
74.9934868282065
 31
0.0
  0
LINE
  5
87
330
70
100
AcDbEntity
  8
Standardebene
 62
     7
370
     9
100
AcDbLine
 10
144.4470503861125
 20
72.39524908869341
 30
0.0
 11
145.9471882416412
 21
73.26154696493896
 31
0.0
  0
LINE
  5
88
330
70
100
AcDbEntity
  8
Standardebene
 62
     7
370
     9
100
AcDbLine
 10
144.4470503861125
 20
72.39524908869341
 30
0.0
 11
143.8457252452038
 21
72.74289519682382
 31
0.0
  0
SPLINE
  5
89
330
70
100
AcDbEntity
  8
Standardebene
 62
     7
370
     9
100
AcDbSpline
210
0.0
220
0.0
230
1.0
 70
     8
 71
     3
 72
     8
 73
     4
 74
     0
 42
0.0000000001
 43
0.0000000001
 40
0.0
 40
0.0
 40
0.0
 40
0.0
 40
1.0
 40
1.0
 40
1.0
 40
1.0
 10
144.4369801944194
 20
75.6217513354282
 30
0.0
 10
143.6702986574296
 20
75.6217513354282
 30
0.0
 10
143.0388912241375
 20
75.04736556083239
 30
0.0
 10
142.9474898027195
 20
74.29819461194508
 30
0.0
  0
SPLINE
  5
8A
330
70
100
AcDbEntity
  8
Standardebene
 62
     7
370
     9
100
AcDbSpline
210
0.0
220
0.0
230
1.0
 70
     8
 71
     3
 72
     8
 73
     4
 74
     0
 42
0.0000000001
 43
0.0000000001
 40
0.0
 40
0.0
 40
0.0
 40
0.0
 40
1.0
 40
1.0
 40
1.0
 40
1.0
 10
142.9474898027195
 20
73.94490406515799
 30
0.0
 10
142.9975896860782
 20
73.52022419764309
 30
0.0
 10
143.2211809361874
 20
73.15821042747856
 30
0.0
 10
143.5393861654192
 20
72.91954047021768
 30
0.0
  0
SPLINE
  5
8B
330
70
100
AcDbEntity
  8
Standardebene
 62
     7
370
     9
100
AcDbSpline
210
0.0
220
0.0
230
1.0
 70
     8
 71
     3
 72
    14
 73
    10
 74
     0
 42
0.0000000001
 43
0.0000000001
 40
0.0
 40
0.0
 40
0.0
 40
0.0
 40
1.0
 40
1.0
 40
1.0
 40
2.0
 40
2.0
 40
2.0
 40
3.0
 40
3.0
 40
3.0
 40
3.0
 10
143.8457252452038
 20
72.74289519682382
 30
0.0
 10
144.0410997923192
 20
72.65899831316424
 30
0.0
 10
144.2459672589927
 20
72.61949205160049
 30
0.0
 10
144.4369801944194
 20
72.62198875515884
 30
0.0
 10
145.2650450017936
 20
72.62198875515884
 30
0.0
 10
145.9365463423423
 20
73.29284311769368
 30
0.0
 10
145.9365463423423
 20
74.12154933855184
 30
0.0
 10
145.9365463423423
 20
74.94967828727435
 30
0.0
 10
145.2650450017936
 20
75.6217513354282
 30
0.0
 10
144.4369801944194
 20
75.6217513354282
 30
0.0
  0
SPLINE
  5
8C
330
70
100
AcDbEntity
  8
Standardebene
 62
     7
370
     9
100
AcDbSpline
210
0.0
220
0.0
230
1.0
 70
     9
 71
     3
 72
    17
 73
    13
 74
     0
 42
0.0000000001
 43
0.0000000001
 40
0.0
 40
0.0
 40
0.0
 40
0.0
 40
1.0
 40
1.0
 40
1.0
 40
2.0
 40
2.0
 40
2.0
 40
3.0
 40
3.0
 40
3.0
 40
4.0
 40
4.0
 40
4.0
 40
4.0
 10
144.4369801944194
 20
77.12195333230519
 30
0.0
 10
142.7802091661871
 20
77.12195333230519
 30
0.0
 10
141.4372817554984
 20
75.77832036678419
 30
0.0
 10
141.4372817554984
 20
74.12154933855184
 30
0.0
 10
141.4372817554984
 20
72.4647783103195
 30
0.0
 10
142.7802091661871
 20
71.12185089963017
 30
0.0
 10
144.4369801944194
 20
71.12185089963017
 30
0.0
 10
146.0931739505168
 20
71.12185089963017
 30
0.0
 10
147.4367427746894
 20
72.4647783103195
 30
0.0
 10
147.4367427746894
 20
74.12154933855184
 30
0.0
 10
147.4367427746894
 20
75.77832036678419
 30
0.0
 10
146.0931739505168
 20
77.12195333230519
 30
0.0
 10
144.4369801944194
 20
77.12195333230519
 30
0.0
  0
SPLINE
  5
8D
330
70
100
AcDbEntity
  8
Standardebene
 62
     7
370
     9
100
AcDbSpline
210
0.0
220
0.0
230
1.0
 70
     9
 71
     3
 72
    17
 73
    13
 74
     0
 42
0.0000000001
 43
0.0000000001
 40
0.0
 40
0.0
 40
0.0
 40
0.0
 40
1.0
 40
1.0
 40
1.0
 40
2.0
 40
2.0
 40
2.0
 40
3.0
 40
3.0
 40
3.0
 40
4.0
 40
4.0
 40
4.0
 40
4.0
 10
144.4369801944194
 20
64.50849303525093
 30
0.0
 10
143.1184906374573
 20
64.50849303525093
 30
0.0
 10
142.0504730458543
 20
63.43989817151351
 30
0.0
 10
142.0504730458543
 20
62.12140861455078
 30
0.0
 10
142.0504730458543
 20
60.80407360185873
 30
0.0
 10
143.1184906374573
 20
59.73483732463731
 30
0.0
 10
144.4369801944194
 20
59.73483732463731
 30
0.0
 10
145.7548924792471
 20
59.73483732463731
 30
0.0
 10
146.8234873429846
 20
60.80407360185873
 30
0.0
 10
146.8234873429846
 20
62.12140861455078
 30
0.0
 10
146.8234873429846
 20
63.43989817151351
 30
0.0
 10
145.7548924792471
 20
64.50849303525093
 30
0.0
 10
144.4369801944194
 20
64.50849303525093
 30
0.0
  0
SPLINE
  5
8E
330
70
100
AcDbEntity
  8
Standardebene
 62
     7
370
     9
100
AcDbSpline
210
0.0
220
0.0
230
1.0
 70
     8
 71
     3
 72
     8
 73
     4
 74
     0
 42
0.0000000001
 43
0.0000000001
 40
0.0
 40
0.0
 40
0.0
 40
0.0
 40
1.0
 40
1.0
 40
1.0
 40
1.0
 10
143.5393861654192
 20
60.91997701835164
 30
0.0
 10
143.6390031859173
 20
60.8454447715535
 30
0.0
 10
143.7441949998904
 20
60.78528018678819
 30
0.0
 10
143.8457252452038
 20
60.7439731584424
 30
0.0
  0
LWPOLYLINE
  5
8F
330
70
100
AcDbEntity
  8
Standardebene
 62
     7
370
     9
100
AcDbPolyline
 90
        3
 70
     0
 43
0.0
 10
143.5393861654192
 20
60.91997701835164
 10
142.9474898027195
 20
61.26134179643939
 10
142.9474898027195
 20
61.94476334115756
  0
SPLINE
  5
90
330
70
100
AcDbEntity
  8
Standardebene
 62
     7
370
     9
100
AcDbSpline
210
0.0
220
0.0
230
1.0
 70
     8
 71
     3
 72
     8
 73
     4
 74
     0
 42
0.0000000001
 43
0.0000000001
 40
0.0
 40
0.0
 40
0.0
 40
0.0
 40
1.0
 40
1.0
 40
1.0
 40
1.0
 10
142.9474898027195
 20
62.29863116007966
 30
0.0
 10
142.9330579993377
 20
62.17464593369268
 30
0.0
 10
142.9336994128217
 20
62.05245666505972
 30
0.0
 10
142.9474898027195
 20
61.94476334115756
 30
0.0
  0
LWPOLYLINE
  5
91
330
70
100
AcDbEntity
  8
Standardebene
 62
     7
370
     9
100
AcDbPolyline
 90
        3
 70
     0
 43
0.0
 10
142.9474898027195
 20
62.29863116007966
 10
142.9474898027195
 20
62.9939233763411
 10
144.4470503861125
 20
63.85957501385633
  0
LINE
  5
92
330
70
100
AcDbEntity
  8
Standardebene
 62
     7
370
     9
100
AcDbLine
 10
145.9471882416412
 20
62.9939233763411
 30
0.0
 11
144.4470503861125
 21
63.85957501385633
 31
0.0
  0
LINE
  5
93
330
70
100
AcDbEntity
  8
Standardebene
 62
     7
370
     9
100
AcDbLine
 10
145.9471882416412
 20
61.26134179643939
 30
0.0
 11
145.9471882416412
 21
62.9939233763411
 31
0.0
  0
LINE
  5
94
330
70
100
AcDbEntity
  8
Standardebene
 62
     7
370
     9
100
AcDbLine
 10
144.4470503861125
 20
60.39568563682737
 30
0.0
 11
145.9471882416412
 21
61.26134179643939
 31
0.0
  0
LINE
  5
95
330
70
100
AcDbEntity
  8
Standardebene
 62
     7
370
     9
100
AcDbLine
 10
144.4470503861125
 20
60.39568563682737
 30
0.0
 11
143.8457252452038
 21
60.7439731584424
 31
0.0
  0
SPLINE
  5
96
330
70
100
AcDbEntity
  8
Standardebene
 62
     7
370
     9
100
AcDbSpline
210
0.0
220
0.0
230
1.0
 70
     8
 71
     3
 72
     8
 73
     4
 74
     0
 42
0.0000000001
 43
0.0000000001
 40
0.0
 40
0.0
 40
0.0
 40
0.0
 40
1.0
 40
1.0
 40
1.0
 40
1.0
 10
144.4369801944194
 20
63.6215464700788
 30
0.0
 10
143.6702986574296
 20
63.6215464700788
 30
0.0
 10
143.0388912241375
 20
63.04716069548299
 30
0.0
 10
142.9474898027195
 20
62.29863116007966
 30
0.0
  0
SPLINE
  5
97
330
70
100
AcDbEntity
  8
Standardebene
 62
     7
370
     9
100
AcDbSpline
210
0.0
220
0.0
230
1.0
 70
     8
 71
     3
 72
     8
 73
     4
 74
     0
 42
0.0000000001
 43
0.0000000001
 40
0.0
 40
0.0
 40
0.0
 40
0.0
 40
1.0
 40
1.0
 40
1.0
 40
1.0
 10
142.9474898027195
 20
61.94476334115756
 30
0.0
 10
142.9975896860782
 20
61.52008347364202
 30
0.0
 10
143.2211809361874
 20
61.15736414864581
 30
0.0
 10
143.5393861654192
 20
60.91997701835164
 30
0.0
  0
SPLINE
  5
98
330
70
100
AcDbEntity
  8
Standardebene
 62
     7
370
     9
100
AcDbSpline
210
0.0
220
0.0
230
1.0
 70
     8
 71
     3
 72
    14
 73
    10
 74
     0
 42
0.0000000001
 43
0.0000000001
 40
0.0
 40
0.0
 40
0.0
 40
0.0
 40
1.0
 40
1.0
 40
1.0
 40
2.0
 40
2.0
 40
2.0
 40
3.0
 40
3.0
 40
3.0
 40
3.0
 10
143.8457252452038
 20
60.7439731584424
 30
0.0
 10
144.0410997923192
 20
60.65879344781549
 30
0.0
 10
144.2459672589927
 20
60.61934651857143
 30
0.0
 10
144.4369801944194
 20
60.62185253709849
 30
0.0
 10
145.2650450017936
 20
60.62185253709849
 30
0.0
 10
145.9365463423423
 20
61.29270239369262
 30
0.0
 10
145.9365463423423
 20
62.12140861455078
 30
0.0
 10
145.9365463423423
 20
62.95005069406061
 30
0.0
 10
145.2650450017936
 20
63.6215464700788
 30
0.0
 10
144.4369801944194
 20
63.6215464700788
 30
0.0
  0
SPLINE
  5
99
330
70
100
AcDbEntity
  8
Standardebene
 62
     7
370
     9
100
AcDbSpline
210
0.0
220
0.0
230
1.0
 70
     9
 71
     3
 72
    17
 73
    13
 74
     0
 42
0.0000000001
 43
0.0000000001
 40
0.0
 40
0.0
 40
0.0
 40
0.0
 40
1.0
 40
1.0
 40
1.0
 40
2.0
 40
2.0
 40
2.0
 40
3.0
 40
3.0
 40
3.0
 40
4.0
 40
4.0
 40
4.0
 40
4.0
 10
144.4369801944194
 20
65.1211070534718
 30
0.0
 10
142.7802091661871
 20
65.1211070534718
 30
0.0
 10
141.4372817554984
 20
63.77817964278313
 30
0.0
 10
141.4372817554984
 20
62.12140861455078
 30
0.0
 10
141.4372817554984
 20
60.4645734449701
 30
0.0
 10
142.7802091661871
 20
59.12164603428142
 30
0.0
 10
144.4369801944194
 20
59.12164603428142
 30
0.0
 10
146.0931739505168
 20
59.12164603428142
 30
0.0
 10
147.4367427746894
 20
60.4645734449701
 30
0.0
 10
147.4367427746894
 20
62.12140861455078
 30
0.0
 10
147.4367427746894
 20
63.77817964278313
 30
0.0
 10
146.0931739505168
 20
65.1211070534718
 30
0.0
 10
144.4369801944194
 20
65.1211070534718
 30
0.0
  0
LINE
  5
9A
330
70
100
AcDbEntity
  8
Standardebene
 62
     7
370
     9
100
AcDbLine
 10
68.20838715572292
 20
56.62173698180909
 30
0.0
 11
68.20838715572292
 21
57.12101765497477
 31
0.0
  0
LINE
  5
9B
330
70
100
AcDbEntity
  8
Standardebene
 62
     7
370
     9
100
AcDbLine
 10
68.20838715572292
 20
58.12065615171874
 30
0.0
 11
68.20838715572292
 21
59.12036320731408
 31
0.0
  0
LINE
  5
9C
330
70
100
AcDbEntity
  8
Standardebene
 62
     7
370
     9
100
AcDbLine
 10
68.20838715572292
 20
60.11949299077375
 30
0.0
 11
68.20838715572292
 21
61.11920004636909
 31
0.0
  0
LINE
  5
9D
330
70
100
AcDbEntity
  8
Standardebene
 62
     7
370
     9
100
AcDbLine
 10
68.20838715572292
 20
62.11884296061609
 30
0.0
 11
68.20838715572292
 21
63.11797274407641
 31
0.0
  0
LINE
  5
9E
330
70
100
AcDbEntity
  8
Standardebene
 62
     7
370
     9
100
AcDbLine
 10
68.20838715572292
 20
64.11703838618776
 30
0.0
 11
68.20838715572292
 21
65.11738685526708
 31
0.0
  0
LINE
  5
9F
330
70
100
AcDbEntity
  8
Standardebene
 62
     7
370
     9
100
AcDbLine
 10
68.20838715572292
 20
66.11581108389508
 30
0.0
 11
68.20838715572292
 21
67.11552280947635
 31
0.0
  0
LINE
  5
A0
330
70
100
AcDbEntity
  8
Standardebene
 62
     7
370
     9
100
AcDbLine
 10
68.20838715572292
 20
68.11522519508575
 30
0.0
 11
68.20838715572292
 21
69.1149322506811
 31
0.0
  0
LINE
  5
A1
330
70
100
AcDbEntity
  8
Standardebene
 62
     7
370
     9
100
AcDbLine
 10
68.20838715572292
 20
70.11399789279308
 30
0.0
 11
68.20838715572292
 21
71.11306353490441
 31
0.0
  0
LINE
  5
A2
330
70
100
AcDbEntity
  8
Standardebene
 62
     7
370
     9
100
AcDbLine
 10
68.20838715572292
 20
72.1127753867265
 30
0.0
 11
68.20838715572292
 21
73.11247764609508
 31
0.0
  0
LINE
  5
A3
330
70
100
AcDbEntity
  8
Standardebene
 62
     7
370
     9
100
AcDbLine
 10
68.20838715572292
 20
74.11154328820707
 30
0.0
 11
68.20838715572292
 21
75.11060893031842
 31
0.0
  0
LINE
  5
A4
330
70
100
AcDbEntity
  8
Standardebene
 62
     7
370
     9
100
AcDbLine
 10
68.20838715572292
 20
76.11095739939774
 30
0.0
 11
68.20838715572292
 21
77.11002796397664
 31
0.0
  0
LINE
  5
A5
330
70
100
AcDbEntity
  8
Standardebene
 62
     7
370
     9
100
AcDbLine
 10
68.20838715572292
 20
78.10908868362108
 30
0.0
 11
68.20838715572292
 21
79.10879573921642
 31
0.0
  0
LINE
  5
A6
330
70
100
AcDbEntity
  8
Standardebene
 62
     7
370
     9
100
AcDbLine
 10
68.20838715572292
 20
80.10850279481175
 30
0.0
 11
68.20838715572292
 21
81.10756843692374
 31
0.0
  0
LINE
  5
A7
330
70
100
AcDbEntity
  8
Standardebene
 62
     7
370
     9
100
AcDbLine
 10
68.20838715572292
 20
82.1066982203834
 30
0.0
 11
68.20838715572292
 21
83.10634113463041
 31
0.0
  0
LINE
  5
A8
330
70
100
AcDbEntity
  8
Standardebene
 62
     7
370
     9
100
AcDbLine
 10
68.20838715572292
 20
84.10604819022575
 30
0.0
 11
68.20838715572292
 21
85.10517797368606
 31
0.0
  0
LINE
  5
A9
330
70
100
AcDbEntity
  8
Standardebene
 62
     7
370
     9
100
AcDbLine
 10
68.20838715572292
 20
86.1048850292814
 30
0.0
 11
68.20838715572292
 21
87.10453311847823
 31
0.0
  0
LINE
  5
AA
330
70
100
AcDbEntity
  8
Standardebene
 62
     7
370
     9
100
AcDbLine
 10
68.20838715572292
 20
88.10423499912374
 30
0.0
 11
68.20838715572292
 21
89.10336478258406
 31
0.0
  0
LINE
  5
AB
330
70
100
AcDbEntity
  8
Standardebene
 62
     7
370
     9
100
AcDbLine
 10
68.20838715572292
 20
90.10307183817941
 30
0.0
 11
68.20838715572292
 21
91.10271475242576
 31
0.0
  0
LWPOLYLINE
  5
AC
330
70
100
AcDbEntity
  8
Standardebene
 62
     7
370
     9
100
AcDbPolyline
 90
        3
 70
     0
 43
0.0
 10
68.20838715572292
 20
92.10184453588608
 10
68.20838715572292
 20
92.60169806368375
 10
67.70885433466692
 20
92.60169806368375
  0
LINE
  5
AD
330
70
100
AcDbEntity
  8
Standardebene
 62
     7
370
     9
100
AcDbLine
 10
66.70882657232991
 20
92.60169806368375
 30
0.0
 11
65.7087988099929
 21
92.60169806368375
 31
0.0
  0
LINE
  5
AE
330
70
100
AcDbEntity
  8
Standardebene
 62
     7
370
     9
100
AcDbLine
 10
64.70909175439756
 20
92.60169806368375
 30
0.0
 11
63.70880742666656
 21
92.60169806368375
 31
0.0
  0
LINE
  5
AF
330
70
100
AcDbEntity
  8
Standardebene
 62
     7
370
     9
100
AcDbLine
 10
62.70910037107123
 20
92.60169806368375
 30
0.0
 11
61.70907260873422
 21
92.60169806368375
 31
0.0
  0
LWPOLYLINE
  5
B0
330
70
100
AcDbEntity
  8
Standardebene
 62
     7
370
     9
100
AcDbPolyline
 90
        3
 70
     0
 43
0.0
 10
60.7090448463972
 20
92.60169806368375
 10
60.20887061185786
 20
92.60169806368375
 10
60.20887061185786
 20
92.10184453588608
  0
LINE
  5
B1
330
70
100
AcDbEntity
  8
Standardebene
 62
     7
370
     9
100
AcDbLine
 10
60.20887061185786
 20
91.10271475242576
 30
0.0
 11
60.20887061185786
 21
90.10307183817941
 31
0.0
  0
LINE
  5
B2
330
70
100
AcDbEntity
  8
Standardebene
 62
     7
370
     9
100
AcDbLine
 10
60.20887061185786
 20
89.10336478258406
 30
0.0
 11
60.20887061185786
 21
88.10423499912374
 31
0.0
  0
LINE
  5
B3
330
70
100
AcDbEntity
  8
Standardebene
 62
     7
370
     9
100
AcDbLine
 10
60.20887061185786
 20
87.10453311847823
 30
0.0
 11
60.20887061185786
 21
86.1048850292814
 31
0.0
  0
LINE
  5
B4
330
70
100
AcDbEntity
  8
Standardebene
 62
     7
370
     9
100
AcDbLine
 10
60.20887061185786
 20
85.10517797368606
 30
0.0
 11
60.20887061185786
 21
84.10604819022575
 31
0.0
  0
LINE
  5
B5
330
70
100
AcDbEntity
  8
Standardebene
 62
     7
370
     9
100
AcDbLine
 10
60.20887061185786
 20
83.10634113463041
 30
0.0
 11
60.20887061185786
 21
82.1066982203834
 31
0.0
  0
LINE
  5
B6
330
70
100
AcDbEntity
  8
Standardebene
 62
     7
370
     9
100
AcDbLine
 10
60.20887061185786
 20
81.10756843692374
 30
0.0
 11
60.20887061185786
 21
80.10850279481175
 31
0.0
  0
LINE
  5
B7
330
70
100
AcDbEntity
  8
Standardebene
 62
     7
370
     9
100
AcDbLine
 10
60.20887061185786
 20
79.10879573921642
 30
0.0
 11
60.20887061185786
 21
78.10908868362108
 31
0.0
  0
LINE
  5
B8
330
70
100
AcDbEntity
  8
Standardebene
 62
     7
370
     9
100
AcDbLine
 10
60.20887061185786
 20
77.11002796397664
 30
0.0
 11
60.20887061185786
 21
76.11095739939774
 31
0.0
  0
LINE
  5
B9
330
70
100
AcDbEntity
  8
Standardebene
 62
     7
370
     9
100
AcDbLine
 10
60.20887061185786
 20
75.11060893031842
 30
0.0
 11
60.20887061185786
 21
74.11154328820707
 31
0.0
  0
LINE
  5
BA
330
70
100
AcDbEntity
  8
Standardebene
 62
     7
370
     9
100
AcDbLine
 10
60.20887061185786
 20
73.11247764609508
 30
0.0
 11
60.20887061185786
 21
72.1127753867265
 31
0.0
  0
LINE
  5
BB
330
70
100
AcDbEntity
  8
Standardebene
 62
     7
370
     9
100
AcDbLine
 10
60.20887061185786
 20
71.11306353490441
 30
0.0
 11
60.20887061185786
 21
70.11399789279308
 31
0.0
  0
LINE
  5
BC
330
70
100
AcDbEntity
  8
Standardebene
 62
     7
370
     9
100
AcDbLine
 10
60.20887061185786
 20
69.1149322506811
 30
0.0
 11
60.20887061185786
 21
68.11522519508575
 31
0.0
  0
LINE
  5
BD
330
70
100
AcDbEntity
  8
Standardebene
 62
     7
370
     9
100
AcDbLine
 10
60.20887061185786
 20
67.11552280947635
 30
0.0
 11
60.20887061185786
 21
66.11581108389508
 31
0.0
  0
LINE
  5
BE
330
70
100
AcDbEntity
  8
Standardebene
 62
     7
370
     9
100
AcDbLine
 10
60.20887061185786
 20
65.11738685526708
 30
0.0
 11
60.20887061185786
 21
64.11703838618776
 31
0.0
  0
LINE
  5
BF
330
70
100
AcDbEntity
  8
Standardebene
 62
     7
370
     9
100
AcDbLine
 10
60.20887061185786
 20
63.11797274407641
 30
0.0
 11
60.20887061185786
 21
62.11884296061609
 31
0.0
  0
LINE
  5
C0
330
70
100
AcDbEntity
  8
Standardebene
 62
     7
370
     9
100
AcDbLine
 10
60.20887061185786
 20
61.11920004636909
 30
0.0
 11
60.20887061185786
 21
60.11949299077375
 31
0.0
  0
LINE
  5
C1
330
70
100
AcDbEntity
  8
Standardebene
 62
     7
370
     9
100
AcDbLine
 10
60.20887061185786
 20
59.12036320731408
 30
0.0
 11
60.20887061185786
 21
58.12065615171874
 31
0.0
  0
LINE
  5
C2
330
70
100
AcDbEntity
  8
Standardebene
 62
     7
370
     9
100
AcDbLine
 10
60.20887061185786
 20
57.12101765497477
 30
0.0
 11
60.20887061185786
 21
56.62173698180909
 31
0.0
  0
LINE
  5
C3
330
70
100
AcDbEntity
  8
Standardebene
 62
     7
370
     9
100
AcDbLine
 10
50.17081373429974
 20
64.62003484005578
 30
0.0
 11
50.0590153641022
 21
64.50849303525093
 31
0.0
  0
LINE
  5
C4
330
70
100
AcDbEntity
  8
Standardebene
 62
     7
370
     9
100
AcDbLine
 10
50.0590153641022
 20
59.73483732463731
 30
0.0
 11
50.46207959721918
 21
59.33209379826202
 31
0.0
  0
LINE
  5
C5
330
70
100
AcDbEntity
  8
Standardebene
 62
     7
370
     9
100
AcDbLine
 10
50.17081373429974
 20
76.62017556405619
 30
0.0
 11
50.0590153641022
 21
76.50805648711699
 31
0.0
  0
LINE
  5
C6
330
70
100
AcDbEntity
  8
Standardebene
 62
     7
370
     9
100
AcDbLine
 10
50.0590153641022
 20
71.73504218998671
 30
0.0
 11
50.17081373429974
 21
71.62356452653085
 31
0.0
  0
SPLINE
  5
C7
330
70
100
AcDbEntity
  8
Standardebene
 62
     7
370
     9
100
AcDbSpline
210
0.0
220
0.0
230
1.0
 70
     8
 71
     3
 72
    17
 73
    13
 74
     0
 42
0.0000000001
 43
0.0000000001
 40
0.0
 40
0.0
 40
0.0
 40
0.0
 40
1.0
 40
1.0
 40
1.0
 40
2.0
 40
2.0
 40
2.0
 40
3.0
 40
3.0
 40
3.0
 40
4.0
 40
4.0
 40
4.0
 40
4.0
 10
62.27685182444894
 20
141.1392523281877
 30
0.0
 10
62.2299003574471
 20
140.9613883691755
 30
0.0
 10
62.20764330956455
 20
140.7828188553309
 30
0.0
 10
62.20924684327356
 20
140.6218882122869
 30
0.0
 10
62.20924684327356
 20
139.5166044972851
 30
0.0
 10
63.10466006642978
 20
138.6211912741289
 30
0.0
 10
64.20866095446424
 20
138.6211912741289
 30
0.0
 10
65.31323911463434
 20
138.6211912741289
 30
0.0
 10
66.20865233779056
 20
139.5166044972851
 30
0.0
 10
66.20865233779056
 20
140.6218882122869
 30
0.0
 10
66.20865233779056
 20
141.541995854563
 30
0.0
 10
65.58667721742978
 20
142.317144049537
 30
0.0
 10
64.72634577710741
 20
142.5536332009538
 30
0.0
  0
SPLINE
  5
C8
330
70
100
AcDbEntity
  8
Standardebene
 62
     7
370
     9
100
AcDbSpline
210
0.0
220
0.0
230
1.0
 70
     9
 71
     3
 72
    17
 73
    13
 74
     0
 42
0.0000000001
 43
0.0000000001
 40
0.0
 40
0.0
 40
0.0
 40
0.0
 40
1.0
 40
1.0
 40
1.0
 40
2.0
 40
2.0
 40
2.0
 40
3.0
 40
3.0
 40
3.0
 40
4.0
 40
4.0
 40
4.0
 40
4.0
 10
83.20893187347733
 20
142.6306669603383
 30
0.0
 10
82.09928654678682
 20
142.6306669603383
 30
0.0
 10
81.20015312542525
 20
141.7315335389774
 30
0.0
 10
81.20015312542525
 20
140.6218882122869
 30
0.0
 10
81.20015312542525
 20
139.5116014721124
 30
0.0
 10
82.09928654678682
 20
138.6121473440097
 30
0.0
 10
83.20893187347733
 20
138.6121473440097
 30
0.0
 10
84.31889790690952
 20
138.6121473440097
 30
0.0
 10
85.21803132827109
 20
139.5116014721124
 30
0.0
 10
85.21803132827109
 20
140.6218882122869
 30
0.0
 10
85.21803132827109
 20
141.7315335389774
 30
0.0
 10
84.31889790690952
 20
142.6306669603383
 30
0.0
 10
83.20893187347733
 20
142.6306669603383
 30
0.0
  0
LWPOLYLINE
  5
C9
330
70
100
AcDbEntity
  8
Standardebene
 62
     7
370
     9
100
AcDbPolyline
 90
       11
 70
     0
 43
0.0
 10
50.0590153641022
 20
71.73504218998671
 10
50.0590153641022
 20
71.85222843344696
 10
50.0590153641022
 20
72.19108717685159
 10
50.0590153641022
 20
72.71845734309787
 10
50.0590153641022
 20
73.38366726697664
 10
50.0590153641022
 20
74.12154933855184
 10
50.0590153641022
 20
74.85885413799138
 10
50.0590153641022
 20
75.52464133400583
 10
50.0590153641022
 20
76.05271705508378
 10
50.0590153641022
 20
76.39093438500506
 10
50.0590153641022
 20
76.50805648711699
  0
LWPOLYLINE
  5
CA
330
70
100
AcDbEntity
  8
Standardebene
 62
     7
370
     9
100
AcDbPolyline
 90
       11
 70
     0
 43
0.0
 10
50.0590153641022
 20
59.73483732463731
 10
50.0590153641022
 20
59.85202356809756
 10
50.0590153641022
 20
60.19024089801884
 10
50.0590153641022
 20
60.71889389123182
 10
50.0590153641022
 20
61.38410381511124
 10
50.0590153641022
 20
62.12140861455078
 10
50.0590153641022
 20
62.85864927264199
 10
50.0590153641022
 20
63.52450061000476
 10
50.0590153641022
 20
64.05251218973439
 10
50.0590153641022
 20
64.392012346623
 10
50.0590153641022
 20
64.50849303525093
  0
LINE
  5
CB
330
70
100
AcDbEntity
  8
Standardebene
 62
     7
370
    35
100
AcDbLine
 10
130.1868251111713
 20
68.12651407239787
 30
0.0
 11
130.1868251111713
 21
62.12140861455078
 31
0.0
  0
LINE
  5
CC
330
70
100
AcDbEntity
  8
Standardebene
 62
     7
370
    35
100
AcDbLine
 10
130.1868251111713
 20
205.6213836756616
 30
0.0
 11
130.1868251111713
 21
146.6203871112522
 31
0.0
  0
LINE
  5
CD
330
70
100
AcDbEntity
  8
Standardebene
 62
     7
370
    35
100
AcDbLine
 10
130.1868251111713
 20
134.6230108405994
 30
0.0
 11
130.1868251111713
 21
68.33906036368716
 31
0.0
  0
LINE
  5
CE
330
70
100
AcDbEntity
  8
Standardebene
 62
     7
370
    35
100
AcDbLine
 10
158.6864938641842
 20
62.12140861455078
 30
0.0
 11
158.6864938641842
 21
134.6208236593868
 31
0.0
  0
LWPOLYLINE
  5
CF
330
70
100
AcDbEntity
  8
Standardebene
 62
     7
370
    35
100
AcDbPolyline
 90
        3
 70
     0
 43
0.0
 10
158.6864938641842
 20
146.6207078179939
 10
158.6864938641842
 20
205.6213836756616
 10
157.6868509499372
 20
206.6216761975993
  0
LINE
  5
D0
330
70
100
AcDbEntity
  8
Standardebene
 62
     7
370
    35
100
AcDbLine
 10
131.1865321667667
 20
206.6216761975993
 30
0.0
 11
130.1868251111713
 21
205.6213836756616
 31
0.0
  0
LINE
  5
D1
330
70
100
AcDbEntity
  8
Standardebene
 62
     7
370
    35
100
AcDbLine
 10
158.5555813721738
 20
58.36625337460303
 30
0.0
 11
158.2900361899489
 21
58.88862051567596
 31
0.0
  0
LINE
  5
D2
330
70
100
AcDbEntity
  8
Standardebene
 62
     7
370
    35
100
AcDbLine
 10
130.5839883402389
 20
58.88862051567596
 30
0.0
 11
130.3177376031817
 21
58.36625337460303
 31
0.0
  0
LINE
  5
D3
330
70
100
AcDbEntity
  8
Standardebene
 62
     7
370
    35
100
AcDbLine
 10
130.1868251111713
 20
62.12140861455078
 30
0.0
 11
130.5839883402389
 21
58.88862051567596
 31
0.0
  0
LINE
  5
D4
330
70
100
AcDbEntity
  8
Standardebene
 62
     7
370
    35
100
AcDbLine
 10
158.2900361899489
 20
58.88862051567596
 30
0.0
 11
158.6864938641842
 21
62.12140861455078
 31
0.0
  0
LINE
  5
D5
330
70
100
AcDbEntity
  8
Standardebene
 62
     7
370
    35
100
AcDbLine
 10
133.9376240008427
 20
231.0214217690023
 30
0.0
 11
133.9376240008427
 21
230.6214451210991
 31
0.0
  0
LWPOLYLINE
  5
D6
330
70
100
AcDbEntity
  8
Standardebene
 62
     7
370
    35
100
AcDbPolyline
 90
        3
 70
     0
 43
0.0
 10
154.9369830628925
 20
230.6214451210991
 10
154.9369830628925
 20
231.0214217690023
 10
154.4371295350948
 20
231.5212752968
  0
LINE
  5
D7
330
70
100
AcDbEntity
  8
Standardebene
 62
     7
370
    35
100
AcDbLine
 10
134.4368308537447
 20
231.5212752968
 30
0.0
 11
133.9376240008427
 21
231.0214217690023
 31
0.0
  0
LINE
  5
D8
330
70
100
AcDbEntity
  8
Standardebene
 62
     7
370
    35
100
AcDbLine
 10
126.4366728963957
 20
230.6214451210991
 30
0.0
 11
126.4366728963957
 21
206.6216761975993
 31
0.0
  0
LINE
  5
D9
330
70
100
AcDbEntity
  8
Standardebene
 62
     7
370
    35
100
AcDbLine
 10
162.4366460789599
 20
206.6216761975993
 30
0.0
 11
162.4366460789599
 21
230.6214451210991
 31
0.0
  0
LINE
  5
DA
330
70
100
AcDbEntity
  8
Standardebene
 62
     7
370
    35
100
AcDbLine
 10
169.4370969807136
 20
142.821744037114
 30
0.0
 11
169.4370969807136
 21
146.4218696380671
 31
0.0
  0
LINE
  5
DB
330
70
100
AcDbEntity
  8
Standardebene
 62
     7
370
    35
100
AcDbLine
 10
169.4370969807136
 20
134.8215860797649
 30
0.0
 11
169.4370969807136
 21
138.4285748049925
 31
0.0
  0
SPLINE
  5
DC
330
70
100
AcDbEntity
  8
Standardebene
 62
     7
370
    35
100
AcDbSpline
210
0.0
220
0.0
230
1.0
 70
     8
 71
     3
 72
    11
 73
     7
 74
     0
 42
0.0000000001
 43
0.0000000001
 40
0.0
 40
0.0
 40
0.0
 40
0.0
 40
1.0
 40
1.0
 40
1.0
 40
2.0
 40
2.0
 40
2.0
 40
2.0
 10
130.3177376031817
 20
58.36625337460303
 30
0.0
 10
130.2269134538988
 20
58.18897113220716
 30
0.0
 10
130.1856064255523
 20
58.00039556325448
 30
0.0
 10
130.1868251111713
 20
57.82130847890524
 30
0.0
 10
130.1868251111713
 20
57.15853592626448
 30
0.0
 10
130.7236240556267
 20
56.62173698180909
 30
0.0
 10
131.3863324669192
 20
56.62173698180909
 30
0.0
  0
SPLINE
  5
DD
330
70
100
AcDbEntity
  8
Standardebene
 62
     7
370
    35
100
AcDbSpline
210
0.0
220
0.0
230
1.0
 70
     8
 71
     3
 72
    11
 73
     7
 74
     0
 42
0.0000000001
 43
0.0000000001
 40
0.0
 40
0.0
 40
0.0
 40
0.0
 40
1.0
 40
1.0
 40
1.0
 40
2.0
 40
2.0
 40
2.0
 40
2.0
 10
157.4864092363007
 20
56.62173698180909
 30
0.0
 10
158.1491176475938
 20
56.62173698180909
 30
0.0
 10
158.6864938641842
 20
57.15853592626448
 30
0.0
 10
158.6864938641842
 20
57.82130847890524
 30
0.0
 10
158.6864938641842
 20
58.02046736557436
 30
0.0
 10
158.6383237115633
 20
58.20776010279635
 30
0.0
 10
158.5555813721738
 20
58.36625337460303
 30
0.0
  0
LWPOLYLINE
  5
DE
330
70
100
AcDbEntity
  8
Standardebene
 62
     7
370
    35
100
AcDbPolyline
 90
       17
 70
     0
 43
0.0
 10
147.9372377159704
 20
62.12140861455078
 10
147.9184443008999
 20
62.47777794605925
 10
147.6196153659225
 20
63.57773792914667
 10
146.9788432795815
 20
64.52728645032147
 10
146.5378659187218
 20
64.92002392635199
 10
146.0373709774402
 20
65.23386754389566
 10
145.4874230565703
 20
65.45939315288986
 10
144.9067514298345
 20
65.58965960326846
 10
144.3261439444476
 20
65.61974652784996
 10
143.7486152437814
 20
65.5532914587464
 10
142.6831633061131
 20
65.14990651888712
 10
141.7930738148712
 20
64.41517197515046
 10
141.4435034662895
 20
63.93539467727089
 10
141.1798238275322
 20
63.4029527548558
 10
141.0106776475315
 20
62.83607151801841
 10
140.9392937650921
 20
62.24725394004013
 10
140.9367868142167
 20
62.12140861455078
  0
LWPOLYLINE
  5
DF
330
70
100
AcDbEntity
  8
Standardebene
 62
     7
370
    35
100
AcDbPolyline
 90
       12
 70
     0
 43
0.0
 10
147.9372377159704
 20
62.12140861455078
 10
149.5682880635089
 20
62.12140861455078
 10
151.1255117190808
 20
62.12140861455078
 10
152.5874854723328
 20
62.12140861455078
 10
153.9297714695381
 20
62.12140861455078
 10
155.1368475043933
 20
62.12140861455078
 10
156.1885090521632
 20
62.12140861455078
 10
157.0704525921626
 20
62.12140861455078
 10
157.7701064201134
 20
62.12140861455078
 10
158.2768872135345
 20
62.12140861455078
 10
158.5844449789374
 20
62.12140861455078
 10
158.6864938641842
 20
62.12140861455078
  0
LWPOLYLINE
  5
E0
330
70
100
AcDbEntity
  8
Standardebene
 62
     7
370
    35
100
AcDbPolyline
 90
       12
 70
     0
 43
0.0
 10
130.1868251111713
 20
62.12140861455078
 10
130.2895795512498
 20
62.12140861455078
 10
130.5965010801778
 20
62.12140861455078
 10
131.1038591585505
 20
62.12140861455078
 10
131.8035077966763
 20
62.12140861455078
 10
132.6854513366763
 20
62.12140861455078
 10
133.7371770257945
 20
62.12140861455078
 10
134.9435475058174
 20
62.12140861455078
 10
136.2865390578544
 20
62.12140861455078
 10
137.747229984139
 20
62.12140861455078
 10
139.3050309118466
 20
62.12140861455078
 10
140.9367868142167
 20
62.12140861455078
  0
LWPOLYLINE
  5
E1
330
70
100
AcDbEntity
  8
Standardebene
 62
     7
370
    35
100
AcDbPolyline
 90
       29
 70
     0
 43
0.0
 10
144.4369801944194
 20
70.62135595834916
 10
145.0151503085689
 20
70.67023642558701
 10
145.5763871067509
 20
70.8124330351242
 10
146.5867416261744
 20
71.35923802992437
 10
147.3747180908218
 20
72.22053285469908
 10
147.6541178042934
 20
72.74481943727515
 10
147.8413464001671
 20
73.31163653276421
 10
147.9284503512447
 20
73.89108947388106
 10
147.9184443008999
 20
74.47798281140865
 10
147.6196153659225
 20
75.57787865314772
 10
146.9788432795815
 20
76.52749131567087
 10
146.5378659187218
 20
76.91958737821804
 10
146.0373709774402
 20
77.23407240924442
 10
145.4874230565703
 20
77.45952924874249
 10
144.9067514298345
 20
77.59044667535753
 10
144.3261439444476
 20
77.6193102828495
 10
143.7486152437814
 20
77.55285491061181
 10
142.6831633061131
 20
77.15011138423651
 10
141.7930738148712
 20
76.41473573015128
 10
141.4435034662895
 20
75.93559984577047
 10
141.1798238275322
 20
75.40379903368854
 10
141.0106776475315
 20
74.83627638336781
 10
140.9392937650921
 20
74.24681739190553
 10
141.087134134781
 20
73.10811603440638
 10
141.589489175165
 20
72.08647743323338
 10
142.4150524699535
 20
71.2646295410877
 10
142.9280549741656
 20
70.96400380851403
 10
143.4855074327939
 20
70.75355127732625
 10
144.4369801944194
 20
70.62135595834916
  0
LWPOLYLINE
  5
E2
330
70
100
AcDbEntity
  8
Standardebene
 62
     7
370
    35
100
AcDbPolyline
 90
       27
 70
     0
 43
0.0
 10
158.6864938641842
 20
205.6213836756616
 10
158.5831621519707
 20
205.6213836756616
 10
158.2724614604968
 20
205.6213836756616
 10
157.7601003697686
 20
205.6213836756616
 10
157.0541665350632
 20
205.6213836756616
 10
156.1647126119199
 20
205.6213836756616
 10
155.1029866685515
 20
205.6213836756616
 10
153.8859629286059
 20
205.6213836756616
 10
152.5316824992568
 20
205.6213836756616
 10
151.0590612821761
 20
205.6213836756616
 10
149.4900356185054
 20
205.6213836756616
 10
147.8469908388231
 20
205.6213836756616
 10
146.1545572209004
 20
205.6213836756616
 10
144.4369801944194
 20
205.6213836756616
 10
142.7194673092868
 20
205.6213836756616
 10
141.0263281365324
 20
205.6213836756616
 10
139.3839889116819
 20
205.6213836756616
 10
137.8142576931794
 20
205.6213836756616
 10
136.3416417982415
 20
205.6213836756616
 10
134.9874201880979
 20
205.6213836756616
 10
133.7703381028986
 20
205.6213836756616
 10
132.7092477769189
 20
205.6213836756616
 10
131.8192224270254
 20
205.6213836756616
 10
131.1132827469352
 20
205.6213836756616
 10
130.6008575148587
 20
205.6213836756616
 10
130.2907982368688
 20
205.6213836756616
 10
130.1868251111713
 20
205.6213836756616
  0
LWPOLYLINE
  5
E3
330
70
100
AcDbEntity
  8
Standardebene
 62
     7
370
    35
100
AcDbPolyline
 90
        5
 70
     0
 43
0.0
 10
140.9367868142167
 20
62.12140861455078
 10
141.1227967244714
 20
60.99387236700675
 10
141.6658815210662
 20
59.98351333224297
 10
142.5095968174412
 20
59.20053989276828
 10
143.0959128828331
 20
58.88862051567596
  0
LWPOLYLINE
  5
E4
330
70
100
AcDbEntity
  8
Standardebene
 62
     7
370
    35
100
AcDbPolyline
 90
        8
 70
     0
 43
0.0
 10
145.7780475060064
 20
58.88862051567596
 10
146.301761615395
 20
59.15987427790584
 10
146.7708914373267
 20
59.51374209682795
 10
147.1755592041527
 20
59.94342498951555
 10
147.5024876567618
 20
60.4345597951459
 10
147.7417990275067
 20
60.96821582701238
 10
147.8870847953551
 20
61.53380972219152
 10
147.9372377159704
 20
62.12140861455078
  0
LWPOLYLINE
  5
E5
330
70
100
AcDbEntity
  8
Standardebene
 62
     7
370
    35
100
AcDbPolyline
 90
       13
 70
     0
 43
0.0
 10
145.7780475060064
 20
58.88862051567596
 10
147.4573962888623
 20
58.88862051567596
 10
149.0910179345546
 20
58.88862051567596
 10
150.6544576566984
 20
58.88862051567596
 10
152.1239359477088
 20
58.88862051567596
 10
153.4781522357102
 20
58.88862051567596
 10
154.6958757343936
 20
58.88862051567596
 10
155.7594675729589
 20
58.88862051567596
 10
156.6514171633031
 20
58.88862051567596
 10
157.360499769463
 20
58.88862051567596
 10
157.8740795458108
 20
58.88862051567596
 10
158.1860630642515
 20
58.88862051567596
 10
158.2900361899489
 20
58.88862051567596
  0
LWPOLYLINE
  5
E6
330
70
100
AcDbEntity
  8
Standardebene
 62
     7
370
    35
100
AcDbPolyline
 90
       13
 70
     0
 43
0.0
 10
130.5839883402389
 20
58.88862051567596
 10
130.6886028794197
 20
58.88862051567596
 10
130.9992394295447
 20
58.88862051567596
 10
131.5135247607242
 20
58.88862051567596
 10
132.2226073668841
 20
58.88862051567596
 10
133.1145569572289
 20
58.88862051567596
 10
134.1781540632829
 20
58.88862051567596
 10
135.3958081531293
 20
58.88862051567596
 10
136.749447168995
 20
58.88862051567596
 10
138.2195668734888
 20
58.88862051567596
 10
139.7830122398524
 20
58.88862051567596
 10
141.4165640999765
 20
58.88862051567596
 10
143.0959128828331
 20
58.88862051567596
  0
LWPOLYLINE
  5
E7
330
70
100
AcDbEntity
  8
Standardebene
 62
     7
370
    35
100
AcDbPolyline
 90
        4
 70
     0
 43
0.0
 10
145.7780475060064
 20
58.88862051567596
 10
144.8554383511439
 20
58.64687177369369
 10
143.8826706618615
 20
58.66566518876423
 10
143.0959128828331
 20
58.88862051567596
  0
LWPOLYLINE
  5
E8
330
70
100
AcDbEntity
  8
Standardebene
 62
     7
370
    35
100
AcDbPolyline
 90
       13
 70
     0
 43
0.0
 10
144.4369801944194
 20
56.62173698180909
 10
146.1401254175186
 20
56.62173698180909
 10
147.8144711752025
 20
56.62173698180909
 10
149.4311538607074
 20
56.62173698180909
 10
150.9620211135862
 20
56.62173698180909
 10
152.3807579065569
 20
56.62173698180909
 10
153.6648035594482
 20
56.62173698180909
 10
154.7898428097462
 20
56.62173698180909
 10
155.7387499174377
 20
56.62173698180909
 10
156.4935711362036
 20
56.62173698180909
 10
157.0422945402313
 20
56.62173698180909
 10
157.3748732849827
 20
56.62173698180909
 10
157.4864092363007
 20
56.62173698180909
  0
LWPOLYLINE
  5
E9
330
70
100
AcDbEntity
  8
Standardebene
 62
     7
370
    35
100
AcDbPolyline
 90
       13
 70
     0
 43
0.0
 10
131.3863324669192
 20
56.62173698180909
 10
131.4985156852073
 20
56.62173698180909
 10
131.8317299899566
 20
56.62173698180909
 10
132.3804592252068
 20
56.62173698180909
 10
133.1345742990435
 20
56.62173698180909
 10
134.0841817204416
 20
56.62173698180909
 10
135.2091568293913
 20
56.62173698180909
 10
136.4919837966636
 20
56.62173698180909
 10
137.9113676946018
 20
56.62173698180909
 10
139.4422346564656
 20
56.62173698180909
 10
141.0589119415014
 20
56.62173698180909
 10
142.7338991126686
 20
56.62173698180909
 10
144.4369801944194
 20
56.62173698180909
  0
LINE
  5
EA
330
70
100
AcDbEntity
  8
Standardebene
 62
     7
370
    35
100
AcDbLine
 10
153.5877698000637
 20
230.6214451210991
 30
0.0
 11
153.5877698000637
 21
206.6216761975993
 31
0.0
  0
LINE
  5
EB
330
70
100
AcDbEntity
  8
Standardebene
 62
     7
370
    35
100
AcDbLine
 10
135.2855491752918
 20
230.6214451210991
 30
0.0
 11
153.5877698000637
 21
230.6214451210991
 31
0.0
  0
LINE
  5
EC
330
70
100
AcDbEntity
  8
Standardebene
 62
     7
370
    35
100
AcDbLine
 10
135.2855491752918
 20
206.6216761975993
 30
0.0
 11
135.2855491752918
 21
230.6214451210991
 31
0.0
  0
LINE
  5
ED
330
70
100
AcDbEntity
  8
Standardebene
 62
     7
370
    35
100
AcDbLine
 10
153.5877698000637
 20
206.6216761975993
 30
0.0
 11
135.2855491752918
 21
206.6216761975993
 31
0.0
  0
LWPOLYLINE
  5
EE
330
70
100
AcDbEntity
  8
Standardebene
 62
     7
370
    35
100
AcDbPolyline
 90
       10
 70
     0
 43
0.0
 10
135.2855491752918
 20
230.6214451210991
 10
133.5630385169362
 20
230.6214451210991
 10
131.985161307331
 20
230.6214451210991
 10
130.5726994629268
 20
230.6214451210991
 10
129.3443926417637
 20
230.6214451210991
 10
128.316463392888
 20
230.6214451210991
 10
127.5028303888957
 20
230.6214451210991
 10
126.9127299839507
 20
230.6214451210991
 10
126.5563606524423
 20
230.6214451210991
 10
126.4366728963957
 20
230.6214451210991
  0
LWPOLYLINE
  5
EF
330
70
100
AcDbEntity
  8
Standardebene
 62
     7
370
    35
100
AcDbPolyline
 90
       10
 70
     0
 43
0.0
 10
162.4366460789599
 20
230.6214451210991
 10
162.3176638777456
 20
230.6214451210991
 10
161.9612304048888
 20
230.6214451210991
 10
161.3718355547755
 20
230.6214451210991
 10
160.5574969959508
 20
230.6214451210991
 10
159.5289904749402
 20
230.6214451210991
 10
158.3013250672604
 20
230.6214451210991
 10
156.8881628801133
 20
230.6214451210991
 10
155.3109912652002
 20
230.6214451210991
 10
153.5877698000637
 20
230.6214451210991
  0
LWPOLYLINE
  5
F0
330
70
100
AcDbEntity
  8
Standardebene
 62
     7
370
    35
100
AcDbPolyline
 90
       10
 70
     0
 43
0.0
 10
153.5877698000637
 20
206.6216761975993
 10
155.3109912652002
 20
206.6216761975993
 10
156.8881628801133
 20
206.6216761975993
 10
158.3013250672604
 20
206.6216761975993
 10
159.5289904749402
 20
206.6216761975993
 10
160.5574969959508
 20
206.6216761975993
 10
161.3718355547755
 20
206.6216761975993
 10
161.9612304048888
 20
206.6216761975993
 10
162.3176638777456
 20
206.6216761975993
 10
162.4366460789599
 20
206.6216761975993
  0
LWPOLYLINE
  5
F1
330
70
100
AcDbEntity
  8
Standardebene
 62
     7
370
    35
100
AcDbPolyline
 90
       10
 70
     0
 43
0.0
 10
126.4366728963957
 20
206.6216761975993
 10
126.5563606524423
 20
206.6216761975993
 10
126.9127299839507
 20
206.6216761975993
 10
127.5028303888957
 20
206.6216761975993
 10
128.316463392888
 20
206.6216761975993
 10
129.3443926417637
 20
206.6216761975993
 10
130.5726994629268
 20
206.6216761975993
 10
131.985161307331
 20
206.6216761975993
 10
133.5630385169362
 20
206.6216761975993
 10
135.2855491752918
 20
206.6216761975993
  0
LWPOLYLINE
  5
F2
330
70
100
AcDbEntity
  8
Standardebene
 62
     7
370
    35
100
AcDbPolyline
 90
       20
 70
     0
 43
0.0
 10
144.4369801944194
 20
220.0212446659906
 10
143.7874207595415
 20
219.9131664939978
 10
143.2123935714617
 20
219.6027865092661
 10
142.7607743376332
 20
219.1126824664199
 10
142.492086229338
 20
218.4884673581326
 10
142.4463534479545
 20
217.8226075267825
 10
142.614211356622
 20
217.1971652388888
 10
142.9762892681349
 20
216.6553632692614
 10
143.5118053856229
 20
216.2485146965907
 10
144.1576446222961
 20
216.0412098586798
 10
144.8184929344862
 20
216.0583997400407
 10
145.4260397861866
 20
216.2832877456839
 10
145.9359049288435
 20
216.6973117110912
 10
146.2911141515669
 20
217.2729887759363
 10
146.4345342065078
 20
217.933828624845
 10
146.3562176201559
 20
218.5830673529812
 10
146.0774593201676
 20
219.1659197855618
 10
145.6126911099246
 20
219.6397319259239
 10
145.0026482865756
 20
219.9394644468267
 10
144.4369801944194
 20
220.0212446659906
  0
LWPOLYLINE
  5
F3
330
70
100
AcDbEntity
  8
Standardebene
 62
     7
370
    35
100
AcDbPolyline
 90
       12
 70
     0
 43
0.0
 10
144.4369801944194
 20
231.5212752968
 10
145.8607898453953
 20
231.5212752968
 10
147.2544530626402
 20
231.5212752968
 10
148.5911587625378
 20
231.5212752968
 10
149.8432620239441
 20
231.5212752968
 10
150.9851704488613
 20
231.5212752968
 10
151.9943062826664
 20
231.5212752968
 10
152.8493104563529
 20
231.5212752968
 10
153.5333137953028
 20
231.5212752968
 10
154.0318844961332
 20
231.5212752968
 10
154.3350806498481
 20
231.5212752968
 10
154.4371295350948
 20
231.5212752968
  0
LWPOLYLINE
  5
F4
330
70
100
AcDbEntity
  8
Standardebene
 62
     7
370
    35
100
AcDbPolyline
 90
       12
 70
     0
 43
0.0
 10
134.4368308537447
 20
231.5212752968
 10
134.5389438803398
 20
231.5212752968
 10
134.8420758927057
 20
231.5212752968
 10
135.3413521483683
 20
231.5212752968
 10
136.024072660351
 20
231.5212752968
 10
136.8797182475214
 20
231.5212752968
 10
137.8882126678425
 20
231.5212752968
 10
139.0306983648954
 20
231.5212752968
 10
140.2828657676501
 20
231.5212752968
 10
141.6195073261993
 20
231.5212752968
 10
143.0138760982759
 20
231.5212752968
 10
144.4369801944194
 20
231.5212752968
  0
LWPOLYLINE
  5
F5
330
70
100
AcDbEntity
  8
Standardebene
 62
     7
370
    35
100
AcDbPolyline
 90
       23
 70
     0
 43
0.0
 10
154.9369830628925
 20
231.0214217690023
 10
154.829931152473
 20
231.0214217690023
 10
154.5117259232413
 20
231.0214217690023
 10
153.988075955201
 20
231.0214217690023
 10
153.2695645708314
 20
231.0214217690023
 10
152.3719705418311
 20
231.0214217690023
 10
151.3128044563028
 20
231.0214217690023
 10
150.113232959206
 20
231.0214217690023
 10
148.7991050139326
 20
231.0214217690023
 10
147.3953716049947
 20
231.0214217690023
 10
145.9308963391564
 20
231.0214217690023
 10
144.4369801944194
 20
231.0214217690023
 10
142.9424281250912
 20
231.0214217690023
 10
141.4785887838442
 20
231.0214217690023
 10
140.0748553749069
 20
231.0214217690023
 10
138.7600860161495
 20
231.0214217690023
 10
137.560578660401
 20
231.0214217690023
 10
136.5014125748728
 20
231.0214217690023
 10
135.6037544045242
 20
231.0214217690023
 10
134.8853071615028
 20
231.0214217690023
 10
134.3616571934626
 20
231.0214217690023
 10
134.0440986418159
 20
231.0214217690023
 10
133.9376240008427
 20
231.0214217690023
  0
LWPOLYLINE
  5
F6
330
70
100
AcDbEntity
  8
Standardebene
 62
     7
370
    35
100
AcDbPolyline
 90
       10
 70
     0
 43
0.0
 10
144.4369801944194
 20
208.8065147527022
 10
143.4047534752041
 20
209.4025161616966
 10
142.3548933592384
 20
210.0085236210364
 10
141.2775056567244
 20
210.630510571597
 10
140.1869744518461
 20
211.2597372149399
 10
139.8850611250985
 20
211.4347706432496
 10
138.8954242611963
 20
212.0057569263824
 10
137.9075833550481
 20
212.5760376546835
 10
136.9179464911459
 20
213.1479219166936
 10
135.9370328506211
 20
213.7141617400477
  0
LWPOLYLINE
  5
F7
330
70
100
AcDbEntity
  8
Standardebene
 62
     7
370
    35
100
AcDbPolyline
 90
       10
 70
     0
 43
0.0
 10
152.9369916795662
 20
213.7141617400477
 10
151.9040594055184
 20
213.1179121239753
 10
150.8549050591137
 20
212.5115114582295
 10
149.7781585553551
 20
211.8898535098895
 10
148.6863445235094
 20
211.2597372149399
 10
148.3844311967619
 20
211.0862265562419
 10
147.3953716049947
 20
210.5149837077152
 10
146.4075948401948
 20
209.9439974245824
 10
145.4172524214609
 20
209.3727545760563
 10
144.4369801944194
 20
208.8065147527022
  0
LWPOLYLINE
  5
F8
330
70
100
AcDbEntity
  8
Standardebene
 62
     7
370
    35
100
AcDbPolyline
 90
        7
 70
     0
 43
0.0
 10
152.9369916795662
 20
223.5289425839517
 10
152.9369916795662
 20
221.7572302594515
 10
152.9369916795662
 20
219.9357442486214
 10
152.9369916795662
 20
218.6215521619997
 10
152.9369916795662
 20
216.7746661772173
 10
152.9369916795662
 20
214.9281008991772
 10
152.9369916795662
 20
213.7141617400477
  0
LWPOLYLINE
  5
F9
330
70
100
AcDbEntity
  8
Standardebene
 62
     7
370
    35
100
AcDbPolyline
 90
       10
 70
     0
 43
0.0
 10
144.4369801944194
 20
228.4366537126454
 10
145.4699124684671
 20
227.8403315969087
 10
146.5190725036507
 20
227.2343241375696
 10
147.5952416529282
 20
226.6122813411389
 10
148.6863445235094
 20
225.9827981482982
 10
148.9888992637403
 20
225.8080129740074
 10
149.9779588555075
 20
225.2374202034449
 10
150.9663770337908
 20
224.6670666693159
 10
151.9560780390413
 20
224.0951824073058
 10
152.9369916795662
 20
223.5289425839517
  0
LWPOLYLINE
  5
FA
330
70
100
AcDbEntity
  8
Standardebene
 62
     7
370
    35
100
AcDbPolyline
 90
       10
 70
     0
 43
0.0
 10
135.9370328506211
 20
223.5289425839517
 10
136.969259569837
 20
224.1249439929461
 10
138.0191251598529
 20
224.7312721590275
 10
139.095871366553
 20
225.3529942487159
 10
140.1869744518461
 20
225.9827981482982
 10
140.488951919942
 20
226.1569419091058
 10
141.4785887838442
 20
226.7281847576319
 10
142.4657882765091
 20
227.299106899417
 10
143.4560665538946
 20
227.8700931825497
 10
144.4369801944194
 20
228.4366537126454
  0
LWPOLYLINE
  5
FB
330
70
100
AcDbEntity
  8
Standardebene
 62
     7
370
    35
100
AcDbPolyline
 90
        8
 70
     0
 43
0.0
 10
135.9370328506211
 20
213.7141617400477
 10
135.9370328506211
 20
214.9281008991772
 10
135.9370328506211
 20
216.7508781870666
 10
135.9370328506211
 20
217.682651104653
 10
135.9370328506211
 20
218.6215521619997
 10
135.9370328506211
 20
219.9357442486214
 10
135.9370328506211
 20
221.740296943484
 10
135.9370328506211
 20
223.5289425839517
  0
SPLINE
  5
FC
330
70
100
AcDbEntity
  8
Standardebene
 62
     7
370
    35
100
AcDbSpline
210
0.0
220
0.0
230
1.0
 70
     9
 71
     3
 72
    17
 73
    13
 74
     0
 42
0.0000000001
 43
0.0000000001
 40
0.0
 40
0.0
 40
0.0
 40
0.0
 40
1.0
 40
1.0
 40
1.0
 40
2.0
 40
2.0
 40
2.0
 40
3.0
 40
3.0
 40
3.0
 40
4.0
 40
4.0
 40
4.0
 40
4.0
 10
144.4369801944194
 20
227.1212516524747
 30
0.0
 10
139.742923897125
 20
227.1212516524747
 30
0.0
 10
135.9370328506211
 20
223.3156726006424
 30
0.0
 10
135.9370328506211
 20
218.6215521619997
 30
0.0
 10
135.9370328506211
 20
213.9271751579629
 30
0.0
 10
139.742923897125
 20
210.1216048182013
 30
0.0
 10
144.4369801944194
 20
210.1216048182013
 30
0.0
 10
149.1317420465462
 20
210.1216048182013
 30
0.0
 10
152.9369916795662
 20
213.9271751579629
 30
0.0
 10
152.9369916795662
 20
218.6215521619997
 30
0.0
 10
152.9369916795662
 20
223.3156726006424
 30
0.0
 10
149.1317420465462
 20
227.1212516524747
 30
0.0
 10
144.4369801944194
 20
227.1212516524747
 30
0.0
  0
SPLINE
  5
FD
330
70
100
AcDbEntity
  8
Standardebene
 62
     7
370
    35
100
AcDbSpline
210
0.0
220
0.0
230
1.0
 70
     9
 71
     3
 72
    17
 73
    13
 74
     0
 42
0.0000000001
 43
0.0000000001
 40
0.0
 40
0.0
 40
0.0
 40
0.0
 40
1.0
 40
1.0
 40
1.0
 40
2.0
 40
2.0
 40
2.0
 40
3.0
 40
3.0
 40
3.0
 40
4.0
 40
4.0
 40
4.0
 40
4.0
 10
144.4369801944194
 20
222.1211682700667
 30
0.0
 10
142.5040165201335
 20
222.1211682700667
 30
0.0
 10
140.9367868142167
 20
220.5542592708923
 30
0.0
 10
140.9367868142167
 20
218.6215521619997
 30
0.0
 10
140.9367868142167
 20
216.6888450531071
 30
0.0
 10
142.5040165201335
 20
215.1216878974739
 30
0.0
 10
144.4369801944194
 20
215.1216878974739
 30
0.0
 10
146.3700080100537
 20
215.1216878974739
 30
0.0
 10
147.9372377159704
 20
216.6888450531071
 30
0.0
 10
147.9372377159704
 20
218.6215521619997
 30
0.0
 10
147.9372377159704
 20
220.5542592708923
 30
0.0
 10
146.3700080100537
 20
222.1211682700667
 30
0.0
 10
144.4369801944194
 20
222.1211682700667
 30
0.0
  0
SPLINE
  5
FE
330
70
100
AcDbEntity
  8
Standardebene
 62
     7
370
    35
100
AcDbSpline
210
0.0
220
0.0
230
1.0
 70
     9
 71
     3
 72
    17
 73
    13
 74
     0
 42
0.0000000001
 43
0.0000000001
 40
0.0
 40
0.0
 40
0.0
 40
0.0
 40
1.0
 40
1.0
 40
1.0
 40
2.0
 40
2.0
 40
2.0
 40
3.0
 40
3.0
 40
3.0
 40
4.0
 40
4.0
 40
4.0
 40
4.0
 10
144.4369801944194
 20
224.6213338879324
 30
0.0
 10
141.1227967244714
 20
224.6213338879324
 30
0.0
 10
138.4368777617451
 20
221.9350942184637
 30
0.0
 10
138.4368777617451
 20
218.6215521619997
 30
0.0
 10
138.4368777617451
 20
215.308010105535
 30
0.0
 10
141.1227967244714
 20
212.6214580750994
 30
0.0
 10
144.4369801944194
 20
212.6214580750994
 30
0.0
 10
147.7505222508841
 20
212.6214580750994
 30
0.0
 10
150.4364412136105
 20
215.308010105535
 30
0.0
 10
150.4364412136105
 20
218.6215521619997
 30
0.0
 10
150.4364412136105
 20
221.9350942184637
 30
0.0
 10
147.7505222508841
 20
224.6213338879324
 30
0.0
 10
144.4369801944194
 20
224.6213338879324
 30
0.0
  0
SPLINE
  5
FF
330
70
100
AcDbEntity
  8
Standardebene
 62
     7
370
    35
100
AcDbSpline
210
0.0
220
0.0
230
1.0
 70
     9
 71
     3
 72
    17
 73
    13
 74
     0
 42
0.0000000001
 43
0.0000000001
 40
0.0
 40
0.0
 40
0.0
 40
0.0
 40
1.0
 40
1.0
 40
1.0
 40
2.0
 40
2.0
 40
2.0
 40
3.0
 40
3.0
 40
3.0
 40
4.0
 40
4.0
 40
4.0
 40
4.0
 10
144.4369801944194
 20
221.6216354490107
 30
0.0
 10
142.7802091661871
 20
221.6216354490107
 30
0.0
 10
141.4372817554984
 20
220.278323190232
 30
0.0
 10
141.4372817554984
 20
218.6215521619997
 30
0.0
 10
141.4372817554984
 20
216.9644688825136
 30
0.0
 10
142.7802091661871
 20
215.6212123095947
 30
0.0
 10
144.4369801944194
 20
215.6212123095947
 30
0.0
 10
146.0931739505168
 20
215.6212123095947
 30
0.0
 10
147.4367427746894
 20
216.9644688825136
 30
0.0
 10
147.4367427746894
 20
218.6215521619997
 30
0.0
 10
147.4367427746894
 20
220.278323190232
 30
0.0
 10
146.0931739505168
 20
221.6216354490107
 30
0.0
 10
144.4369801944194
 20
221.6216354490107
 30
0.0
  0
LWPOLYLINE
  5
100
330
70
100
AcDbEntity
  8
Standardebene
 62
     7
370
    35
100
AcDbPolyline
 90
        3
 70
     0
 43
0.0
 10
169.4352368816112
 20
146.4218696380671
 10
169.4364555672296
 20
146.4218696380671
 10
169.4370969807136
 20
146.4218696380671
  0
LINE
  5
101
330
70
100
AcDbEntity
  8
Standardebene
 62
     7
370
    35
100
AcDbLine
 10
169.4352368816112
 20
146.6210285247356
 30
0.0
 11
169.4352368816112
 21
146.4218696380671
 31
0.0
  0
LWPOLYLINE
  5
102
330
70
100
AcDbEntity
  8
Standardebene
 62
     7
370
    35
100
AcDbPolyline
 90
       16
 70
     0
 43
0.0
 10
169.4352368816112
 20
146.6210285247356
 10
169.2811052214932
 20
146.6210285247356
 10
168.8714985708429
 20
146.6210285247356
 10
168.2093674316855
 20
146.6210285247356
 10
167.3024087658238
 20
146.6210285247356
 10
166.1598589274226
 20
146.6210285247356
 10
164.7937123486263
 20
146.6210285247356
 10
163.2190422462995
 20
146.6210285247356
 10
163.2190422462995
 20
134.6214650728702
 10
164.7937123486263
 20
134.6214650728702
 10
166.1598589274226
 20
134.6214650728702
 10
167.3024087658238
 20
134.6214650728702
 10
168.2093674316855
 20
134.6214650728702
 10
168.8714985708429
 20
134.6214650728702
 10
169.2811052214932
 20
134.6214650728702
 10
169.4352368816112
 20
134.6214650728702
  0
LINE
  5
103
330
70
100
AcDbEntity
  8
Standardebene
 62
     7
370
    35
100
AcDbLine
 10
169.4352368816112
 20
134.8215860797649
 30
0.0
 11
169.4352368816112
 21
134.6214650728702
 31
0.0
  0
LWPOLYLINE
  5
104
330
70
100
AcDbEntity
  8
Standardebene
 62
     7
370
    35
100
AcDbPolyline
 90
        3
 70
     0
 43
0.0
 10
169.4370969807136
 20
134.8215860797649
 10
169.4364555672296
 20
134.8215860797649
 10
169.4352368816112
 20
134.8215860797649
  0
LWPOLYLINE
  5
105
330
70
100
AcDbEntity
  8
Standardebene
 62
     7
370
    35
100
AcDbPolyline
 90
       12
 70
     0
 43
0.0
 10
169.4370969807136
 20
142.821744037114
 10
169.4258081034014
 20
142.6980153761204
 10
169.4258081034014
 20
142.6980153761204
 10
169.3995101505725
 20
142.3419026100052
 10
169.3675677590875
 20
141.7916339823937
 10
169.3419112197419
 20
140.6187452862172
 10
169.3412698062585
 20
140.3710313988365
 10
169.3412698062585
 20
140.3710313988365
 10
169.3581389808777
 20
139.6641295985213
 10
169.3888626867437
 20
139.0640872845793
 10
169.418303565643
 20
138.6374831766131
 10
169.4345954681272
 20
138.4489717537727
  0
LWPOLYLINE
  5
106
330
70
100
AcDbEntity
  8
Standardebene
 62
     7
370
    35
100
AcDbPolyline
 90
       16
 70
     0
 43
0.0
 10
119.5183229205475
 20
134.6214650728702
 10
119.8058685852616
 20
134.6214650728702
 10
120.2987948474358
 20
134.6214650728702
 10
120.9947284771812
 20
134.6214650728702
 10
121.8866780675254
 20
134.6214650728702
 10
122.9665618085756
 20
134.6214650728702
 10
124.2262337490887
 20
134.6214650728702
 10
125.6556236973717
 20
134.6214650728702
 10
125.6556236973717
 20
146.6210285247356
 10
124.2262337490887
 20
146.6210285247356
 10
122.9665618085756
 20
146.6210285247356
 10
121.8866780675254
 20
146.6210285247356
 10
120.9947284771812
 20
146.6210285247356
 10
120.2987948474358
 20
146.6210285247356
 10
119.8058685852616
 20
146.6210285247356
 10
119.5183229205475
 20
146.6210285247356
  0
LINE
  5
107
330
70
100
AcDbEntity
  8
Standardebene
 62
     7
370
    35
100
AcDbLine
 10
119.5183229205475
 20
134.6214650728702
 30
0.0
 11
119.5183229205475
 21
146.6210285247356
 31
0.0
  0
LINE
  5
108
330
70
100
AcDbEntity
  8
Standardebene
 62
     7
370
    35
100
AcDbLine
 10
125.6556236973717
 20
146.6210285247356
 30
0.0
 11
163.2190422462995
 21
146.6210285247356
 31
0.0
  0
LINE
  5
109
330
70
100
AcDbEntity
  8
Standardebene
 62
     7
370
    35
100
AcDbLine
 10
163.2190422462995
 20
134.6214650728702
 30
0.0
 11
125.6556236973717
 21
134.6214650728702
 31
0.0
  0
LINE
  5
10A
330
70
100
AcDbEntity
  8
Standardebene
 62
     7
370
    35
100
AcDbLine
 10
49.95882657795782
 20
70.62135595834916
 30
0.0
 11
49.95882657795782
 21
65.61910511434992
 31
0.0
  0
LINE
  5
10B
330
70
100
AcDbEntity
  8
Standardebene
 62
     7
370
    35
100
AcDbLine
 10
49.95882657795782
 20
205.6213836756616
 30
0.0
 11
49.95882657795782
 21
146.6207078179939
 31
0.0
  0
LINE
  5
10C
330
70
100
AcDbEntity
  8
Standardebene
 62
     7
370
    35
100
AcDbLine
 10
49.95882657795782
 20
134.6214650728702
 30
0.0
 11
49.95882657795782
 21
77.6111593962741
 31
0.0
  0
LINE
  5
10D
330
70
100
AcDbEntity
  8
Standardebene
 62
     7
370
    35
100
AcDbLine
 10
78.45881603771296
 20
62.12140861455078
 30
0.0
 11
78.45881603771296
 21
134.6208236593868
 31
0.0
  0
LINE
  5
10E
330
70
100
AcDbEntity
  8
Standardebene
 62
     7
370
    35
100
AcDbLine
 10
78.45881603771296
 20
146.6207078179939
 30
0.0
 11
78.45881603771296
 21
205.6213836756616
 31
0.0
  0
LINE
  5
10F
330
70
100
AcDbEntity
  8
Standardebene
 62
     7
370
    35
100
AcDbLine
 10
78.06197351538706
 20
58.88862051567596
 30
0.0
 11
78.45881603771296
 21
62.12140861455078
 31
0.0
  0
LINE
  5
110
330
70
100
AcDbEntity
  8
Standardebene
 62
     7
370
    35
100
AcDbLine
 10
78.45881603771296
 20
205.6213836756616
 30
0.0
 11
77.45878827537531
 21
206.6216761975993
 31
0.0
  0
LINE
  5
111
330
70
100
AcDbEntity
  8
Standardebene
 62
     7
370
    35
100
AcDbLine
 10
50.95911090568882
 20
206.6216761975993
 30
0.0
 11
49.95882657795782
 21
205.6213836756616
 31
0.0
  0
LINE
  5
112
330
70
100
AcDbEntity
  8
Standardebene
 62
     7
370
    35
100
AcDbLine
 10
78.32816011109592
 20
58.36625337460303
 30
0.0
 11
78.06197351538706
 21
58.88862051567596
 31
0.0
  0
LINE
  5
113
330
70
100
AcDbEntity
  8
Standardebene
 62
     7
370
    35
100
AcDbLine
 10
50.2206515619786
 20
58.62307533345045
 30
0.0
 11
50.08973906996821
 21
58.36625337460303
 31
0.0
  0
LINE
  5
114
330
70
100
AcDbEntity
  8
Standardebene
 62
     7
370
    35
100
AcDbLine
 10
74.70930523642064
 20
231.0214217690023
 30
0.0
 11
74.20881029513961
 21
231.5212752968
 31
0.0
  0
LWPOLYLINE
  5
115
330
70
100
AcDbEntity
  8
Standardebene
 62
     7
370
    35
100
AcDbPolyline
 90
        3
 70
     0
 43
0.0
 10
54.20908888592516
 20
231.5212752968
 10
53.7085939446435
 20
231.0214217690023
 10
53.7085939446435
 20
230.6214451210991
  0
LINE
  5
116
330
70
100
AcDbEntity
  8
Standardebene
 62
     7
370
    35
100
AcDbLine
 10
74.70930523642064
 20
230.6214451210991
 30
0.0
 11
74.70930523642064
 21
231.0214217690023
 31
0.0
  0
LINE
  5
117
330
70
100
AcDbEntity
  8
Standardebene
 62
     7
370
    35
100
AcDbLine
 10
76.70865520626297
 20
206.6216761975993
 30
0.0
 11
76.70865520626297
 21
230.6214451210991
 31
0.0
  0
LINE
  5
118
330
70
100
AcDbEntity
  8
Standardebene
 62
     7
370
    35
100
AcDbLine
 10
19.70899699349563
 20
212.6214580750994
 30
0.0
 11
20.70902475583265
 21
213.621798198404
 31
0.0
  0
LINE
  5
119
330
70
100
AcDbEntity
  8
Standardebene
 62
     7
370
    35
100
AcDbLine
 10
20.70902475583265
 20
223.6213061255954
 30
0.0
 11
19.70899699349563
 21
224.6213338879324
 31
0.0
  0
LINE
  5
11A
330
70
100
AcDbEntity
  8
Standardebene
 62
     7
370
    35
100
AcDbLine
 10
14.90872262331074
 20
212.6214580750994
 30
0.0
 11
19.70899699349563
 21
212.6214580750994
 31
0.0
  0
LINE
  5
11B
330
70
100
AcDbEntity
  8
Standardebene
 62
     7
370
    35
100
AcDbLine
 10
19.70899699349563
 20
224.6213338879324
 30
0.0
 11
14.90872262331074
 21
224.6213338879324
 31
0.0
  0
LINE
  5
11C
330
70
100
AcDbEntity
  8
Standardebene
 62
     7
370
    35
100
AcDbLine
 10
24.70849439169799
 20
224.6213338879324
 30
0.0
 11
23.70878981289923
 21
223.6213061255954
 31
0.0
  0
LWPOLYLINE
  5
11D
330
70
100
AcDbEntity
  8
Standardebene
 62
     7
370
    35
100
AcDbPolyline
 90
        3
 70
     0
 43
0.0
 10
23.70878981289923
 20
213.621798198404
 10
24.70849439169799
 20
212.6214580750994
 10
36.20878158790074
 20
212.6214580750994
  0
LINE
  5
11E
330
70
100
AcDbEntity
  8
Standardebene
 62
     7
370
    35
100
AcDbLine
 10
36.20878158790074
 20
224.6213338879324
 30
0.0
 11
24.70849439169799
 21
224.6213338879324
 31
0.0
  0
LINE
  5
11F
330
70
100
AcDbEntity
  8
Standardebene
 62
     7
370
    35
100
AcDbLine
 10
20.70902475583265
 20
213.621798198404
 30
0.0
 11
23.70878981289923
 21
213.621798198404
 31
0.0
  0
LINE
  5
120
330
70
100
AcDbEntity
  8
Standardebene
 62
     7
370
    35
100
AcDbLine
 10
23.70878981289923
 20
223.6213061255954
 30
0.0
 11
20.70902475583265
 21
223.6213061255954
 31
0.0
  0
LINE
  5
121
330
70
100
AcDbEntity
  8
Standardebene
 62
     7
370
    35
100
AcDbLine
 10
43.20859107617109
 20
227.1212516524747
 30
0.0
 11
42.450055490423
 21
228.4366537126454
 31
0.0
  0
LINE
  5
122
330
70
100
AcDbEntity
  8
Standardebene
 62
     7
370
    35
100
AcDbLine
 10
37.76818604931737
 20
228.4366537126454
 30
0.0
 11
37.00868834334361
 21
227.1212516524747
 31
0.0
  0
LINE
  5
123
330
70
100
AcDbEntity
  8
Standardebene
 62
     7
370
    35
100
AcDbLine
 10
37.00868834334361
 20
210.1216048182013
 30
0.0
 11
37.76818604931737
 21
208.8065147527022
 31
0.0
  0
LINE
  5
124
330
70
100
AcDbEntity
  8
Standardebene
 62
     7
370
    35
100
AcDbLine
 10
42.450055490423
 20
208.8065147527022
 30
0.0
 11
43.20859107617109
 21
210.1216048182013
 31
0.0
  0
SPLINE
  5
125
330
70
100
AcDbEntity
  8
Standardebene
 62
     7
370
    35
100
AcDbSpline
210
0.0
220
0.0
230
1.0
 70
     8
 71
     3
 72
    11
 73
     7
 74
     0
 42
0.0000000001
 43
0.0000000001
 40
0.0
 40
0.0
 40
0.0
 40
0.0
 40
1.0
 40
1.0
 40
1.0
 40
2.0
 40
2.0
 40
2.0
 40
2.0
 10
50.08973906996821
 20
58.36625337460303
 30
0.0
 10
49.99917148607859
 20
58.18897113220716
 30
0.0
 10
49.9572230442488
 20
58.00039556325448
 30
0.0
 10
49.95882657795782
 20
57.82130847890524
 30
0.0
 10
49.95882657795782
 20
57.15853592626448
 30
0.0
 10
50.49620279454822
 20
56.62173698180909
 30
0.0
 10
51.15923191258296
 20
56.62173698180909
 30
0.0
  0
SPLINE
  5
126
330
70
100
AcDbEntity
  8
Standardebene
 62
     7
370
    35
100
AcDbSpline
210
0.0
220
0.0
230
1.0
 70
     8
 71
     3
 72
    11
 73
     7
 74
     0
 42
0.0000000001
 43
0.0000000001
 40
0.0
 40
0.0
 40
0.0
 40
0.0
 40
1.0
 40
1.0
 40
1.0
 40
2.0
 40
2.0
 40
2.0
 40
2.0
 10
77.25898797522283
 20
56.62173698180909
 30
0.0
 10
77.92170023284647
 20
56.62173698180909
 30
0.0
 10
78.45881603771296
 20
57.15853592626448
 30
0.0
 10
78.45881603771296
 20
57.82130847890524
 30
0.0
 10
78.45881603771296
 20
58.02046736557436
 30
0.0
 10
78.41026103700146
 20
58.20776010279635
 30
0.0
 10
78.32816011109592
 20
58.36625337460303
 30
0.0
  0
SPLINE
  5
127
330
70
100
AcDbEntity
  8
Standardebene
 62
     7
370
    35
100
AcDbSpline
210
0.0
220
0.0
230
1.0
 70
     8
 71
     3
 72
     8
 73
     4
 74
     0
 42
0.0000000001
 43
0.0000000001
 40
0.0
 40
0.0
 40
0.0
 40
0.0
 40
1.0
 40
1.0
 40
1.0
 40
1.0
 10
37.00868834334361
 20
211.8216154407996
 30
0.0
 10
37.00868834334361
 20
212.2631561573655
 30
0.0
 10
36.65103618486844
 20
212.6214580750994
 30
0.0
 10
36.20878158790074
 20
212.6214580750994
 30
0.0
  0
SPLINE
  5
128
330
70
100
AcDbEntity
  8
Standardebene
 62
     7
370
    35
100
AcDbSpline
210
0.0
220
0.0
230
1.0
 70
     8
 71
     3
 72
     8
 73
     4
 74
     0
 42
0.0000000001
 43
0.0000000001
 40
0.0
 40
0.0
 40
0.0
 40
0.0
 40
1.0
 40
1.0
 40
1.0
 40
1.0
 10
36.20878158790074
 20
224.6213338879324
 30
0.0
 10
36.65103618486844
 20
224.6213338879324
 30
0.0
 10
37.00868834334361
 20
224.9796274598915
 30
0.0
 10
37.00868834334361
 20
225.4215613501169
 30
0.0
  0
SPLINE
  5
129
330
70
100
AcDbEntity
  8
Standardebene
 62
     7
370
    35
100
AcDbSpline
210
0.0
220
0.0
230
1.0
 70
     8
 71
     3
 72
     8
 73
     4
 74
     0
 42
0.0000000001
 43
0.0000000001
 40
0.0
 40
0.0
 40
0.0
 40
0.0
 40
1.0
 40
1.0
 40
1.0
 40
1.0
 10
13.70921526756293
 20
213.8215984985564
 30
0.0
 10
13.70921526756293
 20
213.1585693805217
 30
0.0
 10
14.24633491875935
 20
212.6214580750994
 30
0.0
 10
14.90872262331074
 20
212.6214580750994
 30
0.0
  0
SPLINE
  5
12A
330
70
100
AcDbEntity
  8
Standardebene
 62
     7
370
    35
100
AcDbSpline
210
0.0
220
0.0
230
1.0
 70
     8
 71
     3
 72
     8
 73
     4
 74
     0
 42
0.0000000001
 43
0.0000000001
 40
0.0
 40
0.0
 40
0.0
 40
0.0
 40
1.0
 40
1.0
 40
1.0
 40
1.0
 10
14.90872262331074
 20
224.6213338879324
 30
0.0
 10
14.24633491875935
 20
224.6213338879324
 30
0.0
 10
13.70921526756293
 20
224.084534943477
 30
0.0
 10
13.70921526756293
 20
223.4215058254422
 30
0.0
  0
LWPOLYLINE
  5
12B
330
70
100
AcDbEntity
  8
Standardebene
 62
     7
370
    35
100
AcDbPolyline
 90
        6
 70
     0
 43
0.0
 10
74.95323855558854
 20
206.6216761975993
 10
75.83678185795665
 20
206.6216761975993
 10
76.5376543715258
 20
206.6216761975993
 10
77.04661597079091
 20
206.6216761975993
 10
77.35539242181353
 20
206.6216761975993
 10
77.45878827537531
 20
206.6216761975993
  0
LWPOLYLINE
  5
12C
330
70
100
AcDbEntity
  8
Standardebene
 62
     7
370
    35
100
AcDbPolyline
 90
        9
 70
     0
 43
0.0
 10
50.39505188817881
 20
62.12140861455078
 10
50.39101098323241
 20
62.47777794605925
 10
50.39101098323241
 20
62.47777794605925
 10
50.31898024901998
 20
63.57773792914667
 10
50.18774705026792
 20
64.52728645032147
 10
50.11475419582982
 20
64.92002392635199
 10
50.04900931375743
 20
65.23386754389566
 10
49.99795280046022
 20
65.45939315288986
 10
49.9610073838025
 20
65.61409745699505
  0
LWPOLYLINE
  5
12D
330
70
100
AcDbEntity
  8
Standardebene
 62
     7
370
    35
100
AcDbPolyline
 90
       25
 70
     0
 43
0.0
 10
50.39505188817881
 20
62.12140861455078
 10
50.91684175711736
 20
62.12140861455078
 10
51.63092738844932
 20
62.12140861455078
 10
52.52755929722455
 20
62.12140861455078
 10
53.59365264837625
 20
62.12140861455078
 10
54.81451907312929
 20
62.12140861455078
 10
56.17155758045811
 20
62.12140861455078
 10
57.6450767764155
 20
62.12140861455078
 10
59.21384587469291
 20
62.12140861455078
 10
60.8547098485311
 20
62.12140861455078
 10
62.54528336735081
 20
62.12140861455078
 10
64.25939676102043
 20
62.12140861455078
 10
65.97254803446372
 20
62.12140861455078
 10
67.66029933395606
 20
62.12140861455078
 10
69.29827694711787
 20
62.12140861455078
 10
70.86204302022257
 20
62.12140861455078
 10
72.32934050538888
 20
62.12140861455078
 10
73.67855376821761
 20
62.12140861455078
 10
74.89063282824488
 20
62.12140861455078
 10
75.94697669444517
 20
62.12140861455078
 10
76.83398740096563
 20
62.12140861455078
 10
77.53678415498548
 20
62.12140861455078
 10
78.04696443987023
 20
62.12140861455078
 10
78.35542018415054
 20
62.12140861455078
 10
78.45881603771296
 20
62.12140861455078
  0
LWPOLYLINE
  5
12E
330
70
100
AcDbEntity
  8
Standardebene
 62
     7
370
    35
100
AcDbPolyline
 90
       17
 70
     0
 43
0.0
 10
49.95882657795782
 20
70.62135595834916
 10
49.95882657795782
 20
70.62199737183251
 10
49.9706927274056
 20
70.67023642558701
 10
49.9706927274056
 20
70.67023642558701
 10
50.00449521799296
 20
70.8124330351242
 10
50.12168146145322
 20
71.35923802992437
 10
50.26542222313641
 20
72.22053285469908
 10
50.3264847867784
 20
72.74481943727515
 10
50.37125544793621
 20
73.31163653276421
 10
50.3928742332285
 20
73.89108947388106
 10
50.39101098323241
 20
74.47798281140865
 10
50.31898024901998
 20
75.57787865314772
 10
50.18774705026792
 20
76.52749131567087
 10
50.11475419582982
 20
76.91958737821804
 10
50.04900931375743
 20
77.23407240924442
 10
49.99795280046022
 20
77.45952924874249
 10
49.9610073838025
 20
77.61423818099547
  0
LWPOLYLINE
  5
12F
330
70
100
AcDbEntity
  8
Standardebene
 62
     7
370
    35
100
AcDbPolyline
 90
       27
 70
     0
 43
0.0
 10
78.45881603771296
 20
205.6213836756616
 10
78.35509947740887
 20
205.6213836756616
 10
78.04504019941891
 20
205.6213836756616
 10
77.53300365194371
 20
205.6213836756616
 10
76.82706013534223
 20
205.6213836756616
 10
75.93664993735872
 20
205.6213836756616
 10
74.8752389046374
 20
205.6213836756616
 10
73.6588661129123
 20
205.6213836756616
 10
72.30400467278496
 20
205.6213836756616
 10
70.83138345570489
 20
205.6213836756616
 10
69.26197657151181
 20
205.6213836756616
 10
67.61924887100296
 20
205.6213836756616
 10
65.92681525308089
 20
205.6213836756616
 10
64.20866095446424
 20
205.6213836756616
 10
62.49108392798388
 20
205.6213836756616
 10
60.79865031006116
 20
205.6213836756616
 10
59.15592623712063
 20
205.6213836756616
 10
57.58651572535923
 20
205.6213836756616
 10
56.11389450827918
 20
205.6213836756616
 10
54.75967822027837
 20
205.6213836756616
 10
53.54266027642673
 20
205.6213836756616
 10
52.48124924370605
 20
205.6213836756616
 10
51.59148045920589
 20
205.6213836756616
 10
50.88457865889003
 20
205.6213836756616
 10
50.37285898164522
 20
205.6213836756616
 10
50.06279970365526
 20
205.6213836756616
 10
49.95882657795782
 20
205.6213836756616
  0
LWPOLYLINE
  5
130
330
70
100
AcDbEntity
  8
Standardebene
 62
     7
370
    35
100
AcDbPolyline
 90
        8
 70
     0
 43
0.0
 10
50.42109642722172
 20
58.88862051567596
 10
50.44860991406238
 20
59.15987427790584
 10
50.475869987117
 20
59.51374209682795
 10
50.49748562151556
 20
59.94342498951555
 10
50.50466945253231
 20
60.4345597951459
 10
50.49280330308518
 20
60.96821582701238
 10
50.45707657204647
 20
61.53380972219152
 10
50.39505188817881
 20
62.12140861455078
  0
LWPOLYLINE
  5
131
330
70
100
AcDbEntity
  8
Standardebene
 62
     7
370
    35
100
AcDbPolyline
 90
       26
 70
     0
 43
0.0
 10
50.42109642722172
 20
58.88862051567596
 10
50.6860002026555
 20
58.88862051567596
 10
51.1510859613412
 20
58.88862051567596
 10
51.81039806787431
 20
58.88862051567596
 10
52.65257399316353
 20
58.88862051567596
 10
53.66632479607204
 20
58.88862051567596
 10
54.83613470752786
 20
58.88862051567596
 10
56.14461821414517
 20
58.88862051567596
 10
57.57278947680974
 20
58.88862051567596
 10
59.09922528516735
 20
58.88862051567596
 10
60.70154030863879
 20
58.88862051567596
 10
62.35516841080078
 20
58.88862051567596
 10
64.0370222018171
 20
58.88862051567596
 10
65.72104980753003
 20
58.88862051567596
 10
67.38250315419278
 20
58.88862051567596
 10
68.99700503385367
 20
58.88862051567596
 10
70.5410155716628
 20
58.88862051567596
 10
71.99080246872529
 20
58.88862051567596
 10
73.32558392817221
 20
58.88862051567596
 10
74.52541575119581
 20
58.88862051567596
 10
75.57213465460849
 20
58.88862051567596
 10
76.45061456179653
 20
58.88862051567596
 10
77.148087583902
 20
58.88862051567596
 10
77.65294797641312
 20
58.88862051567596
 10
77.95896250991529
 20
58.88862051567596
 10
78.06197351538706
 20
58.88862051567596
  0
LWPOLYLINE
  5
132
330
70
100
AcDbEntity
  8
Standardebene
 62
     7
370
    35
100
AcDbPolyline
 90
        3
 70
     0
 43
0.0
 10
50.42109642722172
 20
58.88862051567596
 10
50.23880356356514
 20
58.64687177369369
 10
50.24502527435686
 20
58.65501772493611
  0
LWPOLYLINE
  5
133
330
70
100
AcDbEntity
  8
Standardebene
 62
     7
370
    35
100
AcDbPolyline
 90
       26
 70
     0
 43
0.0
 10
51.15923191258296
 20
56.62173698180909
 10
51.26166564591972
 20
56.62173698180909
 10
51.56858517843475
 20
56.62173698180909
 10
52.07536279126106
 20
56.62173698180909
 10
52.77283581336652
 20
56.62173698180909
 10
53.65131572055457
 20
56.62173698180909
 10
54.69579343730771
 20
56.62173698180909
 10
55.89029776788345
 20
56.62173698180909
 10
57.21603529721126
 20
56.62173698180909
 10
58.65260907651094
 20
56.62173698180909
 10
60.17628680688886
 20
56.62173698180909
 10
61.76327204810178
 20
56.62173698180909
 10
63.38964007720981
 20
56.62173698180909
 10
65.02825910385496
 20
56.62173698180909
 10
66.65430642622067
 20
56.62173698180909
 10
68.2418689395686
 20
56.62173698180909
 10
69.76496939781151
 20
56.62173698180909
 10
71.20154317711119
 20
56.62173698180909
 10
72.52695999969732
 20
56.62173698180909
 10
73.72210574375642
 20
56.62173698180909
 10
74.76690416725124
 20
56.62173698180909
 10
75.64474266095594
 20
56.62173698180909
 10
76.34227982441038
 20
56.62173698180909
 10
76.84931718322478
 20
56.62173698180909
 10
77.15623353514441
 20
56.62173698180909
 10
77.25898797522283
 20
56.62173698180909
  0
LINE
  5
134
330
70
100
AcDbEntity
  8
Standardebene
 62
     7
370
    35
100
AcDbLine
 10
43.20859107617109
 20
230.6214451210991
 30
0.0
 11
43.20859107617109
 21
206.6216761975993
 31
0.0
  0
LWPOLYLINE
  5
135
330
70
100
AcDbEntity
  8
Standardebene
 62
     7
370
    35
100
AcDbPolyline
 90
       25
 70
     0
 43
0.0
 10
76.70865520626297
 20
230.6214451210991
 10
76.60282198146316
 20
230.6214451210991
 10
76.2849374589731
 20
230.6214451210991
 10
75.76064607744884
 20
230.6214451210991
 10
75.03469807006865
 20
230.6214451210991
 10
74.11638261214763
 20
230.6214451210991
 10
73.01616978607317
 20
230.6214451210991
 10
71.74681246988997
 20
230.6214451210991
 10
70.32338397666483
 20
230.6214451210991
 10
68.76397951524883
 20
230.6214451210991
 10
67.08527214587625
 20
230.6214451210991
 10
65.30759467597829
 20
230.6214451210991
 10
63.45230617456081
 20
230.6214451210991
 10
61.54121470006676
 20
230.6214451210991
 10
59.59625659363699
 20
230.6214451210991
 10
57.64103587146848
 20
230.6214451210991
 10
55.69832271223107
 20
230.6214451210991
 10
53.79159284942637
 20
230.6214451210991
 10
51.94188783534116
 20
230.6214451210991
 10
50.17267383340211
 20
230.6214451210991
 10
48.50493463459996
 20
230.6214451210991
 10
46.95656248510211
 20
230.6214451210991
 10
45.54718463750872
 20
230.6214451210991
 10
44.29290057025768
 20
230.6214451210991
 10
43.20859107617109
 20
230.6214451210991
  0
LWPOLYLINE
  5
136
330
70
100
AcDbEntity
  8
Standardebene
 62
     7
370
    35
100
AcDbPolyline
 90
       21
 70
     0
 43
0.0
 10
43.20859107617109
 20
206.6216761975993
 10
44.28725912825528
 20
206.6216761975993
 10
45.53371495435192
 20
206.6216761975993
 10
46.93494685070354
 20
206.6216761975993
 10
48.47299224311495
 20
206.6216761975993
 10
50.13168751179799
 20
206.6216761975993
 10
51.88960944639975
 20
206.6216761975993
 10
53.72738735971403
 20
206.6216761975993
 10
55.62346975869125
 20
206.6216761975993
 10
57.55553878593798
 20
206.6216761975993
 10
59.50107083266531
 20
206.6216761975993
 10
61.43749813976265
 20
206.6216761975993
 10
63.34237138149112
 20
206.6216761975993
 10
65.19265337971105
 20
206.6216761975993
 10
66.96693135814533
 20
206.6216761975993
 10
68.64531802077623
 20
206.6216761975993
 10
70.20748056017191
 20
206.6216761975993
 10
71.63468970261082
 20
206.6216761975993
 10
72.91155152448543
 20
206.6216761975993
 10
74.02247967814329
 20
206.6216761975993
 10
74.95355549098924
 20
206.6216761975993
  0
LWPOLYLINE
  5
137
330
70
100
AcDbEntity
  8
Standardebene
 62
     7
370
    35
100
AcDbPolyline
 90
       23
 70
     0
 43
0.0
 10
54.20908888592516
 20
231.5212752968
 10
54.31088120577792
 20
231.5212752968
 10
54.6143980662345
 20
231.5212752968
 10
55.11264806032315
 20
231.5212752968
 10
55.79633069253079
 20
231.5212752968
 10
56.6513348662179
 20
231.5212752968
 10
57.660470700023
 20
231.5212752968
 10
58.80231498359187
 20
231.5212752968
 10
60.05480309308823
 20
231.5212752968
 10
61.39183292847884
 20
231.5212752968
 10
62.78613413045636
 20
231.5212752968
 10
64.20866095446424
 20
231.5212752968
 10
65.63208575735008
 20
231.5212752968
 10
67.02606968133662
 20
231.5212752968
 10
68.36277538123423
 20
231.5212752968
 10
69.61552005612394
 20
231.5212752968
 10
70.75742848104177
 20
231.5212752968
 10
71.76624360810454
 20
231.5212752968
 10
72.62124778179167
 20
231.5212752968
 10
73.30525112074098
 20
231.5212752968
 10
73.80350111482963
 20
231.5212752968
 10
74.10701797528621
 20
231.5212752968
 10
74.20881029513961
 20
231.5212752968
  0
LWPOLYLINE
  5
138
330
70
100
AcDbEntity
  8
Standardebene
 62
     7
370
    35
100
AcDbPolyline
 90
       23
 70
     0
 43
0.0
 10
74.70930523642064
 20
231.0214217690023
 10
74.60218918465348
 20
231.0214217690023
 10
74.28334254193775
 20
231.0214217690023
 10
73.76001328063916
 20
231.0214217690023
 10
73.0421433097535
 20
231.0214217690023
 10
72.14454928075325
 20
231.0214217690023
 10
71.08474178174095
 20
231.0214217690023
 10
69.88581169812815
 20
231.0214217690023
 10
68.57072163262912
 20
231.0214217690023
 10
67.16673165829779
 20
231.0214217690023
 10
65.70315437133683
 20
231.0214217690023
 10
64.20866095446424
 20
231.0214217690023
 10
62.71474480972729
 20
231.0214217690023
 10
61.25084681602466
 20
231.0214217690023
 10
59.84717754843502
 20
231.0214217690023
 10
58.53234404832932
 20
231.0214217690023
 10
57.33315739932319
 20
231.0214217690023
 10
56.27335319975857
 20
231.0214217690023
 10
55.37607657805231
 20
231.0214217690023
 10
54.65788590042496
 20
231.0214217690023
 10
54.13455663912637
 20
231.0214217690023
 10
53.81570999641065
 20
231.0214217690023
 10
53.7085939446435
 20
231.0214217690023
  0
LWPOLYLINE
  5
139
330
70
100
AcDbEntity
  8
Standardebene
 62
     7
370
    35
100
AcDbPolyline
 90
        9
 70
     0
 43
0.0
 10
24.70849439169799
 20
218.6215521619997
 10
24.70849439169799
 20
217.4508442716665
 10
24.70849439169799
 20
216.3252277492335
 10
24.70849439169799
 20
215.2883187115871
 10
24.70849439169799
 20
214.3791150985331
 10
24.70849439169799
 20
213.6327663689738
 10
24.70849439169799
 20
213.0780719883252
 10
24.70849439169799
 20
212.7370324390759
 10
24.70849439169799
 20
212.6214580750994
  0
LWPOLYLINE
  5
13A
330
70
100
AcDbEntity
  8
Standardebene
 62
     7
370
    35
100
AcDbPolyline
 90
        9
 70
     0
 43
0.0
 10
24.70849439169799
 20
224.6213338879324
 10
24.70849439169799
 20
224.5060718849228
 10
24.70849439169799
 20
224.1647116289318
 10
24.70849439169799
 20
223.6100813896316
 10
24.70849439169799
 20
222.8637326600723
 10
24.70849439169799
 20
221.9545290470183
 10
24.70849439169799
 20
220.9175558680235
 10
24.70849439169799
 20
219.7922600523322
 10
24.70849439169799
 20
218.6215521619997
  0
LINE
  5
13B
330
70
100
AcDbEntity
  8
Standardebene
 62
     7
370
    35
100
AcDbLine
 10
42.450055490423
 20
208.8065147527022
 30
0.0
 11
37.76818604931737
 21
208.8065147527022
 31
0.0
  0
LWPOLYLINE
  5
13C
330
70
100
AcDbEntity
  8
Standardebene
 62
     7
370
    35
100
AcDbPolyline
 90
       11
 70
     0
 43
0.0
 10
42.450055490423
 20
213.7141617400477
 10
37.76818604931737
 20
213.7141617400477
 10
37.45716465110238
 20
213.1179121239753
 10
37.21727600822184
 20
212.5115114582295
 10
37.06224636922718
 20
211.8898535098895
 10
37.00868834334361
 20
211.2597372149399
 10
37.01279338963898
 20
211.0862265562419
 10
37.08418552505577
 20
210.5149837077152
 10
37.23857093587873
 20
209.9439974245824
 10
37.47095786545906
 20
209.3727545760563
 10
37.76818604931737
 20
208.8065147527022
  0
LWPOLYLINE
  5
13D
330
70
100
AcDbEntity
  8
Standardebene
 62
     7
370
    35
100
AcDbPolyline
 90
        6
 70
     0
 43
0.0
 10
43.20859107617109
 20
211.2597372149399
 10
43.20519455402597
 20
211.0862265562419
 10
43.13405882937231
 20
210.5149837077152
 10
42.97934989711932
 20
209.9439974245824
 10
42.74696579199785
 20
209.3727545760563
 10
42.450055490423
 20
208.8065147527022
  0
LWPOLYLINE
  5
13E
330
70
100
AcDbEntity
  8
Standardebene
 62
     7
370
    35
100
AcDbPolyline
 90
        5
 70
     0
 43
0.0
 10
42.450055490423
 20
213.7141617400477
 10
42.76075618189632
 20
213.1179121239753
 10
43.00096553151789
 20
212.5115114582295
 10
43.1553537570292
 20
211.8898535098895
 10
43.20859107617109
 20
211.2597372149399
  0
LWPOLYLINE
  5
13F
330
70
100
AcDbEntity
  8
Standardebene
 62
     7
370
    35
100
AcDbPolyline
 90
        8
 70
     0
 43
0.0
 10
42.450055490423
 20
223.5289425839517
 10
37.76818604931737
 20
223.5289425839517
 10
37.33189659774805
 20
221.7572302594515
 10
37.06692868765756
 20
219.9357442486214
 10
37.00868834334361
 20
218.6215521619997
 10
37.12331174854638
 20
216.7746661772173
 10
37.45216162592967
 20
214.9281008991772
 10
37.76818604931737
 20
213.7141617400477
  0
LWPOLYLINE
  5
140
330
70
100
AcDbEntity
  8
Standardebene
 62
     7
370
    35
100
AcDbPolyline
 90
        4
 70
     0
 43
0.0
 10
43.20859107617109
 20
218.6215521619997
 10
43.09461190012888
 20
216.7746661772173
 10
42.76575920706839
 20
214.9281008991772
 10
42.450055490423
 20
213.7141617400477
  0
LWPOLYLINE
  5
141
330
70
100
AcDbEntity
  8
Standardebene
 62
     7
370
    35
100
AcDbPolyline
 90
        4
 70
     0
 43
0.0
 10
42.450055490423
 20
223.5289425839517
 10
42.88602423525
 20
221.7572302594515
 10
43.15099214534049
 20
219.9357442486214
 10
43.20859107617109
 20
218.6215521619997
  0
LWPOLYLINE
  5
142
330
70
100
AcDbEntity
  8
Standardebene
 62
     7
370
    35
100
AcDbPolyline
 90
       11
 70
     0
 43
0.0
 10
42.450055490423
 20
228.4366537126454
 10
37.76818604931737
 20
228.4366537126454
 10
37.45716465110238
 20
227.8403315969087
 10
37.21727600822184
 20
227.2343241375696
 10
37.06224636922718
 20
226.6122813411389
 10
37.00868834334361
 20
225.9827981482982
 10
37.01279338963898
 20
225.8080129740074
 10
37.08418552505577
 20
225.2374202034449
 10
37.23857093587873
 20
224.6670666693159
 10
37.47095786545906
 20
224.0951824073058
 10
37.76818604931737
 20
223.5289425839517
  0
LWPOLYLINE
  5
143
330
70
100
AcDbEntity
  8
Standardebene
 62
     7
370
    35
100
AcDbPolyline
 90
        6
 70
     0
 43
0.0
 10
43.20859107617109
 20
225.9827981482982
 10
43.20519455402597
 20
225.8080129740074
 10
43.13405882937231
 20
225.2374202034449
 10
42.97934989711932
 20
224.6670666693159
 10
42.74696579199785
 20
224.0951824073058
 10
42.450055490423
 20
223.5289425839517
  0
LWPOLYLINE
  5
144
330
70
100
AcDbEntity
  8
Standardebene
 62
     7
370
    35
100
AcDbPolyline
 90
        5
 70
     0
 43
0.0
 10
42.450055490423
 20
228.4366537126454
 10
42.76075618189632
 20
227.8403315969087
 10
43.00096553151789
 20
227.2343241375696
 10
43.1553537570292
 20
226.6122813411389
 10
43.20859107617109
 20
225.9827981482982
  0
LWPOLYLINE
  5
145
330
70
100
AcDbEntity
  8
Standardebene
 62
     7
370
    35
100
AcDbPolyline
 90
        4
 70
     0
 43
0.0
 10
37.00868834334361
 20
225.9827981482982
 10
37.00868834334361
 20
226.6085611429343
 10
37.00868834334361
 20
226.9921905474967
 10
37.00868834334361
 20
227.1212516524747
  0
LWPOLYLINE
  5
146
330
70
100
AcDbEntity
  8
Standardebene
 62
     7
370
    35
100
AcDbPolyline
 90
        7
 70
     0
 43
0.0
 10
37.00868834334361
 20
218.6215521619997
 10
37.00868834334361
 20
220.0976370118918
 10
37.00868834334361
 20
221.528887059277
 10
37.00868834334361
 20
222.8712458025368
 10
37.00868834334361
 20
224.085176356961
 10
37.00868834334361
 20
225.1324762930422
 10
37.00868834334361
 20
225.9827981482982
  0
LWPOLYLINE
  5
147
330
70
100
AcDbEntity
  8
Standardebene
 62
     7
370
    35
100
AcDbPolyline
 90
        7
 70
     0
 43
0.0
 10
37.00868834334361
 20
211.2597372149399
 10
37.00868834334361
 20
212.1103714655638
 10
37.00868834334361
 20
213.1579921083867
 10
37.00868834334361
 20
214.3718755161615
 10
37.00868834334361
 20
215.71389655798
 10
37.00868834334361
 20
217.1452107467143
 10
37.00868834334361
 20
218.6215521619997
  0
LWPOLYLINE
  5
148
330
70
100
AcDbEntity
  8
Standardebene
 62
     7
370
    35
100
AcDbPolyline
 90
        4
 70
     0
 43
0.0
 10
37.00868834334361
 20
210.1216048182013
 10
37.00868834334361
 20
210.250913776502
 10
37.00868834334361
 20
210.6342866156718
 10
37.00868834334361
 20
211.2597372149399
  0
LWPOLYLINE
  5
149
330
70
100
AcDbEntity
  8
Standardebene
 62
     7
370
    35
100
AcDbPolyline
 90
       16
 70
     0
 43
0.0
 10
20.70902475583265
 20
213.621798198404
 10
20.70902475583265
 20
213.7307743492735
 10
20.70902475583265
 20
214.0539826036779
 10
20.70902475583265
 20
214.5764138860998
 10
20.70902475583265
 20
215.2757470073083
 10
20.70902475583265
 20
216.121386544134
 10
20.70902475583265
 20
217.0765795039649
 10
20.70902475583265
 20
218.0988643141844
 10
20.70902475583265
 20
219.1446333684686
 10
20.70902475583265
 20
220.1665248200338
 10
20.70902475583265
 20
221.1217819212131
 10
20.70902475583265
 20
221.9673573166911
 10
20.70902475583265
 20
222.6664338725062
 10
20.70902475583265
 20
223.1891217203214
 10
20.70902475583265
 20
223.5117527025902
 10
20.70902475583265
 20
223.6213061255954
  0
LWPOLYLINE
  5
14A
330
70
100
AcDbEntity
  8
Standardebene
 62
     7
370
    35
100
AcDbPolyline
 90
       16
 70
     0
 43
0.0
 10
23.70878981289923
 20
213.621798198404
 10
23.70878981289923
 20
213.7307743492735
 10
23.70878981289923
 20
214.0539826036779
 10
23.70878981289923
 20
214.5764138860998
 10
23.70878981289923
 20
215.2757470073083
 10
23.70878981289923
 20
216.121386544134
 10
23.70878981289923
 20
217.0765795039649
 10
23.70878981289923
 20
218.0988643141844
 10
23.70878981289923
 20
219.1446333684686
 10
23.70878981289923
 20
220.1665248200338
 10
23.70878981289923
 20
221.1217819212131
 10
23.70878981289923
 20
221.9673573166911
 10
23.70878981289923
 20
222.6664338725062
 10
23.70878981289923
 20
223.1891217203214
 10
23.70878981289923
 20
223.5117527025902
 10
23.70878981289923
 20
223.6213061255954
  0
LWPOLYLINE
  5
14B
330
70
100
AcDbEntity
  8
Standardebene
 62
     7
370
    35
100
AcDbPolyline
 90
       16
 70
     0
 43
0.0
 10
13.70921526756293
 20
213.8215984985564
 10
13.70921526756293
 20
213.9262130377379
 10
13.70921526756293
 20
214.2365930224689
 10
13.70921526756293
 20
214.7383066493696
 10
13.70921526756293
 20
215.4101231321301
 10
13.70921526756293
 20
216.2215753302778
 10
13.70921526756293
 20
217.1379627743492
 10
13.70921526756293
 20
218.1201592418413
 10
13.70921526756293
 20
219.1230092235064
 10
13.70921526756293
 20
220.1051415496502
 10
13.70921526756293
 20
221.0212082869793
 10
13.70921526756293
 20
221.8330453332176
 10
13.70921526756293
 20
222.5044769678881
 10
13.70921526756293
 20
223.0065840510032
 10
13.70921526756293
 20
223.3168912862615
 10
13.70921526756293
 20
223.4215058254422
  0
LWPOLYLINE
  5
14C
330
70
100
AcDbEntity
  8
Standardebene
 62
     7
370
    35
100
AcDbPolyline
 90
       18
 70
     0
 43
0.0
 10
19.70899699349563
 20
212.6214580750994
 10
19.70899699349563
 20
212.7238834626614
 10
19.70899699349563
 20
213.0267589096346
 10
19.70899699349563
 20
213.5206472920346
 10
19.70899699349563
 20
214.187396608274
 10
19.70899699349563
 20
215.0057760720458
 10
19.70899699349563
 20
215.9469220765848
 10
19.70899699349563
 20
216.9795336438908
 10
19.70899699349563
 20
218.0678199015761
 10
19.70899699349563
 20
219.1752844224226
 10
19.70899699349563
 20
220.2633141147146
 10
19.70899699349563
 20
221.2961822474139
 10
19.70899699349563
 20
222.2376489586953
 10
19.70899699349563
 20
223.0557077157247
 10
19.70899699349563
 20
223.7225211733131
 10
19.70899699349563
 20
224.216409555713
 10
19.70899699349563
 20
224.518964295944
 10
19.70899699349563
 20
224.6213338879324
  0
LINE
  5
14D
330
70
100
AcDbEntity
  8
Standardebene
 62
     7
370
    35
100
AcDbLine
 10
64.4585556476889
 20
146.4218696380671
 30
0.0
 11
64.4585556476889
 21
146.6210285247356
 31
0.0
  0
LWPOLYLINE
  5
14E
330
70
100
AcDbEntity
  8
Standardebene
 62
     7
370
    35
100
AcDbPolyline
 90
        3
 70
     0
 43
0.0
 10
63.95902282663355
 20
146.4218696380671
 10
64.20866095446424
 20
146.4218696380671
 10
64.4585556476889
 20
146.4218696380671
  0
LINE
  5
14F
330
70
100
AcDbEntity
  8
Standardebene
 62
     7
370
    35
100
AcDbLine
 10
63.95902282663355
 20
146.6210285247356
 30
0.0
 11
63.95902282663355
 21
146.4218696380671
 31
0.0
  0
LWPOLYLINE
  5
150
330
70
100
AcDbEntity
  8
Standardebene
 62
     7
370
    35
100
AcDbPolyline
 90
       16
 70
     0
 43
0.0
 10
63.95902282663355
 20
146.6210285247356
 10
61.42563199031553
 20
146.6210285247356
 10
58.92200273963847
 20
146.6210285247356
 10
56.4721913847086
 20
146.6210285247356
 10
54.10197283415737
 20
146.6210285247356
 10
51.83605460786739
 20
146.6210285247356
 10
49.69758199940248
 20
146.6210285247356
 10
47.70849151196911
 20
146.6210285247356
 10
47.70849151196911
 20
134.6214650728702
 10
49.69758199940248
 20
134.6214650728702
 10
51.83605460786739
 20
134.6214650728702
 10
54.10197283415737
 20
134.6214650728702
 10
56.4721913847086
 20
134.6214650728702
 10
58.92200273963847
 20
134.6214650728702
 10
61.42563199031553
 20
134.6214650728702
 10
63.95902282663355
 20
134.6214650728702
  0
LINE
  5
151
330
70
100
AcDbEntity
  8
Standardebene
 62
     7
370
    35
100
AcDbLine
 10
63.95902282663355
 20
134.8215860797649
 30
0.0
 11
63.95902282663355
 21
134.6214650728702
 31
0.0
  0
LWPOLYLINE
  5
152
330
70
100
AcDbEntity
  8
Standardebene
 62
     7
370
    35
100
AcDbPolyline
 90
        3
 70
     0
 43
0.0
 10
64.4585556476889
 20
134.8215860797649
 10
64.20866095446424
 20
134.8215860797649
 10
63.95902282663355
 20
134.8215860797649
  0
LINE
  5
153
330
70
100
AcDbEntity
  8
Standardebene
 62
     7
370
    35
100
AcDbLine
 10
64.4585556476889
 20
134.6214650728702
 30
0.0
 11
64.4585556476889
 21
134.8215860797649
 31
0.0
  0
LWPOLYLINE
  5
154
330
70
100
AcDbEntity
  8
Standardebene
 62
     7
370
    35
100
AcDbPolyline
 90
       17
 70
     0
 43
0.0
 10
64.4585556476889
 20
134.6214650728702
 10
66.83063099287221
 20
134.6214650728702
 10
69.17833262567793
 20
134.6214650728702
 10
71.48087874923452
 20
134.6214650728702
 10
73.71832140420273
 20
134.6214650728702
 10
75.86962222831835
 20
134.6214650728702
 10
77.91605194785986
 20
134.6214650728702
 10
79.83804745157538
 20
134.6214650728702
 10
81.61918855428472
 20
134.6214650728702
 10
83.24369648429037
 20
134.6214650728702
 10
84.69566820465319
 20
134.6214650728702
 10
85.96284066546905
 20
134.6214650728702
 10
87.0342618250682
 20
134.6214650728702
 10
87.89926797256704
 20
134.6214650728702
 10
88.55011023441234
 20
134.6214650728702
 10
88.98133251946125
 20
134.6214650728702
 10
89.18870149872049
 20
134.6214650728702
  0
LINE
  5
155
330
70
100
AcDbEntity
  8
Standardebene
 62
     7
370
    35
100
AcDbLine
 10
89.18870149872049
 20
146.6210285247356
 30
0.0
 11
89.18870149872049
 21
134.6214650728702
 31
0.0
  0
LWPOLYLINE
  5
156
330
70
100
AcDbEntity
  8
Standardebene
 62
     7
370
    35
100
AcDbPolyline
 90
       17
 70
     0
 43
0.0
 10
89.18870149872049
 20
146.6210285247356
 10
88.98133251946125
 20
146.6210285247356
 10
88.55011023441234
 20
146.6210285247356
 10
87.89926797256704
 20
146.6210285247356
 10
87.0342618250682
 20
146.6210285247356
 10
85.96284066546905
 20
146.6210285247356
 10
84.69566820465319
 20
146.6210285247356
 10
83.24369648429037
 20
146.6210285247356
 10
81.61918855428472
 20
146.6210285247356
 10
79.83804745157538
 20
146.6210285247356
 10
77.91605194785986
 20
146.6210285247356
 10
75.86962222831835
 20
146.6210285247356
 10
73.71832140420273
 20
146.6210285247356
 10
71.48087874923452
 20
146.6210285247356
 10
69.17833262567793
 20
146.6210285247356
 10
66.83063099287221
 20
146.6210285247356
 10
64.4585556476889
 20
146.6210285247356
  0
LWPOLYLINE
  5
157
330
70
100
AcDbEntity
  8
Standardebene
 62
     7
370
    35
100
AcDbPolyline
 90
       26
 70
     0
 43
0.0
 10
85.30917618429574
 20
140.6218882122869
 10
85.27069137527734
 20
141.0202701269728
 10
85.13631927904278
 20
141.4559181650588
 10
84.81561252912324
 20
141.9742509622609
 10
84.48207750920621
 20
142.2921289236754
 10
84.11217034113365
 20
142.5175857631734
 10
83.2415156784457
 20
142.721811816363
 10
82.78771563877318
 20
142.6792219610498
 10
82.33231206539164
 20
142.5301574674529
 10
81.73412985055259
 20
142.1161250637655
 10
81.35954437610925
 20
141.6162715359678
 10
81.16352841550984
 20
141.096662472874
 10
81.11183048872863
 20
140.5131686268101
 10
81.20297534475326
 20
139.9998454158563
 10
81.40842401797454
 20
139.5413695573695
 10
81.83091914523329
 20
139.0374686250086
 10
82.16727637605222
 20
138.7984779610061
 10
82.51992550935531
 20
138.6378038833547
 10
83.01759823130829
 20
138.5303671248459
 10
83.50334066246647
 20
138.542618122383
 10
83.97753765091854
 20
138.6669240555117
 10
84.4172265939509
 20
138.9037339136702
 10
84.90046751252272
 20
139.3772253472906
 10
85.16293391002619
 20
139.8523844559683
 10
85.27787520629408
 20
140.2623183311886
 10
85.30917618429574
 20
140.6218882122869
  0
LWPOLYLINE
  5
158
330
70
100
AcDbEntity
  8
Standardebene
 62
     7
370
    35
100
AcDbPolyline
 90
       20
 70
     0
 43
0.0
 10
64.20866095446424
 20
142.821744037114
 10
63.48232432559512
 20
142.6980153761204
 10
62.83783205723758
 20
142.3419026100052
 10
62.34612448068169
 20
141.7916339823937
 10
62.06358184114032
 20
141.1076306434444
 10
62.02317279167122
 20
140.3710313988365
 10
62.2280402583441
 20
139.6641295985213
 10
62.65522163844598
 20
139.0640872845793
 10
63.25872758519942
 20
138.6374831766131
 10
63.96967378433455
 20
138.4342192436485
 10
64.70537506865061
 20
138.4784126326714
 10
65.38437186996944
 20
138.76185325109
 10
65.93245969173695
 20
139.2547795132643
 10
66.28818760976142
 20
139.9027995557822
 10
66.40877334468472
 20
140.6318942626317
 10
66.2819694512558
 20
141.356948064534
 10
65.92367232701119
 20
141.9995802337886
 10
65.37122289355497
 20
142.4894277112415
 10
64.68689884786399
 20
142.7690839901071
 10
64.20866095446424
 20
142.821744037114
  0
SPLINE
  5
159
330
70
100
AcDbEntity
  8
Standardebene
 62
     7
370
    35
100
AcDbSpline
210
0.0
220
0.0
230
1.0
 70
     9
 71
     3
 72
    17
 73
    13
 74
     0
 42
0.0000000001
 43
0.0000000001
 40
0.0
 40
0.0
 40
0.0
 40
0.0
 40
1.0
 40
1.0
 40
1.0
 40
2.0
 40
2.0
 40
2.0
 40
3.0
 40
3.0
 40
3.0
 40
4.0
 40
4.0
 40
4.0
 40
4.0
 10
64.20866095446424
 20
142.2717319748958
 30
0.0
 10
63.29785380770117
 20
142.2717319748958
 30
0.0
 10
62.55875305050696
 20
141.5326312177016
 30
0.0
 10
62.55875305050696
 20
140.6218882122869
 30
0.0
 10
62.55875305050696
 20
139.7098623799042
 30
0.0
 10
63.29785380770117
 20
138.9716596015873
 30
0.0
 10
64.20866095446424
 20
138.9716596015873
 30
0.0
 10
65.12004537336295
 20
138.9716596015873
 30
0.0
 10
65.85914613055718
 20
139.7098623799042
 30
0.0
 10
65.85914613055718
 20
140.6218882122869
 30
0.0
 10
65.85914613055718
 20
141.5326312177016
 30
0.0
 10
65.12004537336295
 20
142.2717319748958
 30
0.0
 10
64.20866095446424
 20
142.2717319748958
 30
0.0
  0
LINE
  5
15A
330
70
100
AcDbEntity
  8
Standardebene
  6
AI-Linetype-0
 62
     7
370
     9
100
AcDbLine
 10
12.27135866129527
 20
218.6215521619997
 30
0.0
 11
79.18380569826704
 21
218.6215521619997
 31
0.0
  0
LINE
  5
15C
330
70
100
AcDbEntity
  8
Standardebene
  6
AI-Linetype-1
 62
     7
370
     9
100
AcDbLine
 10
64.20866095446424
 20
174.4182286111501
 30
0.0
 11
64.20866095446424
 21
233.1945947929105
 31
0.0
  0
LINE
  5
15E
330
70
100
AcDbEntity
  8
Standardebene
  6
AI-Linetype-2
 62
     7
370
     9
100
AcDbLine
 10
64.20866095446424
 20
54.7019222839376
 30
0.0
 11
64.20866095446424
 21
163.5141991138761
 31
0.0
  0
LINE
  5
160
330
70
100
AcDbEntity
  8
Standardebene
  6
AI-Linetype-3
 62
     7
370
     9
100
AcDbLine
 10
144.4369801944194
 20
177.4320307660314
 30
0.0
 11
144.4369801944194
 21
234.0302282793914
 31
0.0
  0
LINE
  5
162
330
70
100
AcDbEntity
  8
Standardebene
  6
AI-Linetype-4
 62
     7
370
     9
100
AcDbLine
 10
144.4369801944194
 20
53.79303937762523
 30
0.0
 11
144.4369801944194
 21
165.8865880605802
 31
0.0
  0
LINE
  5
164
330
70
100
AcDbEntity
  8
Standardebene
  6
AI-Linetype-5
 62
     7
370
     9
100
AcDbLine
 10
124.9158815266941
 20
218.6215521619997
 30
0.0
 11
164.8125057636969
 21
218.6215521619997
 31
0.0
  0
MTEXT
  5
167
330
70
100
AcDbEntity
  8
Text
100
AcDbMText
 10
79.86592608680435
 20
89.98124319582066
 30
0.0
 40
0.2
 41
0.0
 46
0.0
 71
     7
 72
     1
  1
\C7;\FINDEX Univers 45 Light|b0|i0|c1;\H2.497667;\W1.000000;ø8H5
 73
     1
 44
1.0
  0
MTEXT
  5
168
330
70
100
AcDbEntity
  8
Text
100
AcDbMText
 10
60.8590759125196
 20
103.9486938216691
 30
0.0
 40
0.2
 41
0.0
 46
0.0
 71
     7
 72
     1
  1
\C7;\FINDEX Univers 45 Light|b0|i0|c1;\H2.497667;\W1.000000;36
 11
0.0000000000000001
 21
1.0
 31
0.0
 73
     1
 44
1.0
  0
MTEXT
  5
169
330
70
100
AcDbEntity
  8
Text
100
AcDbMText
 10
141.5129814641877
 20
183.3810546416547
 30
0.0
 40
0.2
 41
0.0
 46
0.0
 71
     7
 72
     1
  1
\C7;\FINDEX Univers 45 Light|b0|i0|c1;\H2.497667;\W1.000000;25
 11
0.0000000000000001
 21
1.0
 31
0.0
 73
     1
 44
1.0
  0
MTEXT
  5
16A
330
70
100
AcDbEntity
  8
Text
100
AcDbMText
 10
141.5129814641877
 20
136.0699028522672
 30
0.0
 40
0.2
 41
0.0
 46
0.0
 71
     7
 72
     1
  1
\C7;\FINDEX Univers 45 Light|b0|i0|c1;\H2.497667;\W1.000000;150
 11
0.0000000000000001
 21
1.0
 31
0.0
 73
     1
 44
1.0
  0
MTEXT
  5
16B
330
70
100
AcDbEntity
  8
Text
100
AcDbMText
 10
71.5951131005908
 20
156.1952894032255
 30
0.0
 40
0.2
 41
0.0
 46
0.0
 71
     7
 72
     1
  1
\C7;\FINDEX Univers 45 Light|b0|i0|c1;\H2.497667;\W1.000000;ø28,5
 73
     1
 44
1.0
  0
MTEXT
  5
16C
330
70
100
AcDbEntity
  8
Text
100
AcDbMText
 10
117.4949815244457
 20
157.7802055812147
 30
0.0
 40
0.2
 41
0.0
 46
0.0
 71
     7
 72
     1
  1
\C7;\FINDEX Univers 45 Light|b0|i0|c1;\H2.497667;\W1.000000;ø50
 73
     1
 44
1.0
  0
MTEXT
  5
16D
330
70
100
AcDbEntity
  8
Text
100
AcDbMText
 10
135.2951870050217
 20
100.0064710578977
 30
0.0
 40
0.2
 41
0.0
 46
0.0
 71
     7
 72
     1
  1
\C7;\FINDEX Univers 45 Light|b0|i0|c1;\H2.497667;\W1.000000;22
 11
0.0000000000000001
 21
1.0
 31
0.0
 73
     1
 44
1.0
  0
LINE
  5
16F
330
70
100
AcDbEntity
  8
Bemaßung
 62
     7
370
     9
100
AcDbLine
 10
78.3990029998748
 20
95.90214255333251
 30
0.0
 11
78.3990029998748
 21
87.94534581188285
 31
0.0
  0
LINE
  5
170
330
70
100
AcDbEntity
  8
Bemaßung
 62
     7
370
     9
100
AcDbLine
 10
73.99926450101038
 20
95.90214255333251
 30
0.0
 11
73.99926450101038
 21
87.94534581188285
 31
0.0
  0
LINE
  5
171
330
70
100
AcDbEntity
  8
Bemaßung
 62
     7
370
     9
100
AcDbLine
 10
70.03464210215631
 20
89.04537745048539
 30
0.0
 11
88.56563496272462
 21
89.04537745048539
 31
0.0
  0
LWPOLYLINE
  5
172
330
70
100
AcDbEntity
  8
Bemaßung
 62
     7
370
     9
100
AcDbPolyline
 90
        4
 70
     0
 43
0.0
 10
78.3990029998748
 20
89.04537745048539
 10
79.77409546479328
 20
88.86450828843306
 10
79.77409546479328
 20
89.22659939030648
 10
78.3990029998748
 20
89.04537745048539
  0
LINE
  5
173
330
70
100
AcDbEntity
  8
Bemaßung
 62
     7
370
     9
100
AcDbLine
 10
79.77409546479328
 20
88.87759634365473
 30
0.0
 11
79.6724954673853
 21
88.87759634365473
 31
0.0
  0
LINE
  5
174
330
70
100
AcDbEntity
  8
Bemaßung
 62
     7
370
     9
100
AcDbLine
 10
79.77409546479328
 20
88.87759634365473
 30
0.0
 11
79.6724954673853
 21
88.87759634365473
 31
0.0
  0
LINE
  5
175
330
70
100
AcDbEntity
  8
Bemaßung
 62
     7
370
     9
100
AcDbLine
 10
79.77409546479328
 20
88.90550106516505
 30
0.0
 11
79.46044075057304
 21
88.90550106516505
 31
0.0
  0
LINE
  5
176
330
70
100
AcDbEntity
  8
Bemaßung
 62
     7
370
     9
100
AcDbLine
 10
79.77409546479328
 20
88.93340578667535
 30
0.0
 11
79.2483860337608
 21
88.93340578667535
 31
0.0
  0
LINE
  5
177
330
70
100
AcDbEntity
  8
Bemaßung
 62
     7
370
     9
100
AcDbLine
 10
79.77409546479328
 20
88.96166328595445
 30
0.0
 11
79.03601381695664
 21
88.96166328595445
 31
0.0
  0
LINE
  5
178
330
70
100
AcDbEntity
  8
Bemaßung
 62
     7
370
     9
100
AcDbLine
 10
79.77409546479328
 20
88.98956800746475
 30
0.0
 11
78.8236083136274
 21
88.98956800746475
 31
0.0
  0
LINE
  5
179
330
70
100
AcDbEntity
  8
Bemaßung
 62
     7
370
     9
100
AcDbLine
 10
79.77409546479328
 20
89.01747497774582
 30
0.0
 11
78.61155160556335
 21
89.01747497774582
 31
0.0
  0
LINE
  5
17A
330
70
100
AcDbEntity
  8
Bemaßung
 62
     7
370
     9
100
AcDbLine
 10
79.77409546479328
 20
89.04537745048539
 30
0.0
 11
78.3990029998748
 21
89.04537745048539
 31
0.0
  0
LINE
  5
17B
330
70
100
AcDbEntity
  8
Bemaßung
 62
     7
370
     9
100
AcDbLine
 10
79.77409546479328
 20
89.21315855731604
 30
0.0
 11
79.6724954673853
 21
89.21315855731604
 31
0.0
  0
LINE
  5
17C
330
70
100
AcDbEntity
  8
Bemaßung
 62
     7
370
     9
100
AcDbLine
 10
79.77409546479328
 20
89.21315855731604
 30
0.0
 11
79.6724954673853
 21
89.21315855731604
 31
0.0
  0
LINE
  5
17D
330
70
100
AcDbEntity
  8
Bemaßung
 62
     7
370
     9
100
AcDbLine
 10
79.77409546479328
 20
89.18525383580572
 30
0.0
 11
79.46044075057304
 21
89.18525383580572
 31
0.0
  0
LINE
  5
17E
330
70
100
AcDbEntity
  8
Bemaßung
 62
     7
370
     9
100
AcDbLine
 10
79.77409546479328
 20
89.15734911429542
 30
0.0
 11
79.2483860337608
 21
89.15734911429542
 31
0.0
  0
LINE
  5
17F
330
70
100
AcDbEntity
  8
Bemaßung
 62
     7
370
     9
100
AcDbLine
 10
79.77409546479328
 20
89.12909161501632
 30
0.0
 11
79.03601381695664
 21
89.12909161501632
 31
0.0
  0
LINE
  5
180
330
70
100
AcDbEntity
  8
Bemaßung
 62
     7
370
     9
100
AcDbLine
 10
79.77409546479328
 20
89.10118689350602
 30
0.0
 11
78.8236083136274
 21
89.10118689350602
 31
0.0
  0
LINE
  5
181
330
70
100
AcDbEntity
  8
Bemaßung
 62
     7
370
     9
100
AcDbLine
 10
79.77409546479328
 20
89.07363494976447
 30
0.0
 11
78.61155160556335
 21
89.07363494976447
 31
0.0
  0
LINE
  5
182
330
70
100
AcDbEntity
  8
Bemaßung
 62
     7
370
     9
100
AcDbLine
 10
79.77409546479328
 20
89.04537745048539
 30
0.0
 11
78.3990029998748
 21
89.04537745048539
 31
0.0
  0
LWPOLYLINE
  5
183
330
70
100
AcDbEntity
  8
Bemaßung
 62
     7
370
     9
100
AcDbPolyline
 90
        4
 70
     0
 43
0.0
 10
73.99926450101038
 20
89.04537745048539
 10
72.6244895360838
 20
89.22659939030648
 10
72.6244895360838
 20
88.86450828843306
 10
73.99926450101038
 20
89.04537745048539
  0
LINE
  5
184
330
70
100
AcDbEntity
  8
Bemaßung
 62
     7
370
     9
100
AcDbLine
 10
72.6244895360838
 20
89.21315855731604
 30
0.0
 11
72.72612481126865
 21
89.21315855731604
 31
0.0
  0
LINE
  5
185
330
70
100
AcDbEntity
  8
Bemaßung
 62
     7
370
     9
100
AcDbLine
 10
72.6244895360838
 20
89.21315855731604
 30
0.0
 11
72.72612481126865
 21
89.21315855731604
 31
0.0
  0
LINE
  5
186
330
70
100
AcDbEntity
  8
Bemaßung
 62
     7
370
     9
100
AcDbLine
 10
72.6244895360838
 20
89.18525383580572
 30
0.0
 11
72.9381795280809
 21
89.18525383580572
 31
0.0
  0
LINE
  5
187
330
70
100
AcDbEntity
  8
Bemaßung
 62
     7
370
     9
100
AcDbLine
 10
72.6244895360838
 20
89.15734911429542
 30
0.0
 11
73.15041063377755
 21
89.15734911429542
 31
0.0
  0
LINE
  5
188
330
70
100
AcDbEntity
  8
Bemaßung
 62
     7
370
     9
100
AcDbLine
 10
72.6244895360838
 20
89.12909161501632
 30
0.0
 11
73.36243007281293
 21
89.12909161501632
 31
0.0
  0
LINE
  5
189
330
70
100
AcDbEntity
  8
Bemaßung
 62
     7
370
     9
100
AcDbLine
 10
72.6244895360838
 20
89.10118689350602
 30
0.0
 11
73.57501395627835
 21
89.10118689350602
 31
0.0
  0
LINE
  5
18A
330
70
100
AcDbEntity
  8
Bemaßung
 62
     7
370
     9
100
AcDbLine
 10
72.6244895360838
 20
89.07363494976447
 30
0.0
 11
73.7870686730906
 21
89.07363494976447
 31
0.0
  0
LINE
  5
18B
330
70
100
AcDbEntity
  8
Bemaßung
 62
     7
370
     9
100
AcDbLine
 10
72.6244895360838
 20
89.04537745048539
 30
0.0
 11
73.99926450101038
 21
89.04537745048539
 31
0.0
  0
LINE
  5
18C
330
70
100
AcDbEntity
  8
Bemaßung
 62
     7
370
     9
100
AcDbLine
 10
72.6244895360838
 20
88.87759634365473
 30
0.0
 11
72.72612481126865
 21
88.87759634365473
 31
0.0
  0
LINE
  5
18D
330
70
100
AcDbEntity
  8
Bemaßung
 62
     7
370
     9
100
AcDbLine
 10
72.6244895360838
 20
88.87759634365473
 30
0.0
 11
72.72612481126865
 21
88.87759634365473
 31
0.0
  0
LINE
  5
18E
330
70
100
AcDbEntity
  8
Bemaßung
 62
     7
370
     9
100
AcDbLine
 10
72.6244895360838
 20
88.90550106516505
 30
0.0
 11
72.9381795280809
 21
88.90550106516505
 31
0.0
  0
LINE
  5
18F
330
70
100
AcDbEntity
  8
Bemaßung
 62
     7
370
     9
100
AcDbLine
 10
72.6244895360838
 20
88.93340578667535
 30
0.0
 11
73.15041063377755
 21
88.93340578667535
 31
0.0
  0
LINE
  5
190
330
70
100
AcDbEntity
  8
Bemaßung
 62
     7
370
     9
100
AcDbLine
 10
72.6244895360838
 20
88.96166328595445
 30
0.0
 11
73.36243007281293
 21
88.96166328595445
 31
0.0
  0
LINE
  5
191
330
70
100
AcDbEntity
  8
Bemaßung
 62
     7
370
     9
100
AcDbLine
 10
72.6244895360838
 20
88.98956800746475
 30
0.0
 11
73.57501395627835
 21
88.98956800746475
 31
0.0
  0
LINE
  5
192
330
70
100
AcDbEntity
  8
Bemaßung
 62
     7
370
     9
100
AcDbLine
 10
72.6244895360838
 20
89.01747497774582
 30
0.0
 11
73.7870686730906
 21
89.01747497774582
 31
0.0
  0
LINE
  5
193
330
70
100
AcDbEntity
  8
Bemaßung
 62
     7
370
     9
100
AcDbLine
 10
72.6244895360838
 20
89.04537745048539
 30
0.0
 11
73.99926450101038
 21
89.04537745048539
 31
0.0
  0
LINE
  5
194
330
70
100
AcDbEntity
  8
Bemaßung
 62
     7
370
     9
100
AcDbLine
 10
69.02195823910314
 20
95.90214255333251
 30
0.0
 11
60.51327595617771
 21
95.90214255333251
 31
0.0
  0
LINE
  5
195
330
70
100
AcDbEntity
  8
Bemaßung
 62
     7
370
     9
100
AcDbLine
 10
73.99926450101038
 20
115.691140937362
 30
0.0
 11
60.51327595617771
 21
115.691140937362
 31
0.0
  0
LINE
  5
196
330
70
100
AcDbEntity
  8
Bemaßung
 62
     7
370
     9
100
AcDbLine
 10
61.61362509477213
 20
95.90214255333251
 30
0.0
 11
61.61362509477213
 21
115.691140937362
 31
0.0
  0
LWPOLYLINE
  5
197
330
70
100
AcDbEntity
  8
Bemaßung
 62
     7
370
     9
100
AcDbPolyline
 90
        4
 70
     0
 43
0.0
 10
61.61362509477213
 20
95.90214255333251
 10
61.79449425682444
 20
97.27709390714347
 10
61.43257954383543
 20
97.27709390714347
 10
61.61362509477213
 20
95.90214255333251
  0
LINE
  5
198
330
70
100
AcDbEntity
  8
Bemaßung
 62
     7
370
     9
100
AcDbLine
 10
61.78105342383402
 20
97.27709390714347
 30
0.0
 11
61.78105342383402
 21
97.17581386459521
 31
0.0
  0
LINE
  5
199
330
70
100
AcDbEntity
  8
Bemaßung
 62
     7
370
     9
100
AcDbLine
 10
61.78105342383402
 20
97.27709390714347
 30
0.0
 11
61.78105342383402
 21
97.17581386459521
 31
0.0
  0
LINE
  5
19A
330
70
100
AcDbEntity
  8
Bemaßung
 62
     7
370
     9
100
AcDbLine
 10
61.75314870232369
 20
97.27709390714347
 30
0.0
 11
61.75314870232369
 21
96.96322752626198
 31
0.0
  0
LINE
  5
19B
330
70
100
AcDbEntity
  8
Bemaßung
 62
     7
370
     9
100
AcDbLine
 10
61.72524398081339
 20
97.27709390714347
 30
0.0
 11
61.72524398081339
 21
96.75138447611098
 31
0.0
  0
LINE
  5
19C
330
70
100
AcDbEntity
  8
Bemaßung
 62
     7
370
     9
100
AcDbLine
 10
61.69733925930308
 20
97.27709390714347
 30
0.0
 11
61.69733925930308
 21
96.53844781487679
 31
0.0
  0
LINE
  5
19D
330
70
100
AcDbEntity
  8
Bemaßung
 62
     7
370
     9
100
AcDbLine
 10
61.66943609569365
 20
97.27709390714347
 30
0.0
 11
61.66943609569365
 21
96.3266047647258
 31
0.0
  0
LINE
  5
19E
330
70
100
AcDbEntity
  8
Bemaßung
 62
     7
370
     9
100
AcDbLine
 10
61.64152981628244
 20
97.27709390714347
 30
0.0
 11
61.64152981628244
 21
96.11402088126038
 31
0.0
  0
LINE
  5
19F
330
70
100
AcDbEntity
  8
Bemaßung
 62
     7
370
     9
100
AcDbLine
 10
61.61362509477213
 20
97.27709390714347
 30
0.0
 11
61.61362509477213
 21
95.90214255333251
 31
0.0
  0
LINE
  5
1A0
330
70
100
AcDbEntity
  8
Bemaßung
 62
     7
370
     9
100
AcDbLine
 10
61.44584398794147
 20
97.27709390714347
 30
0.0
 11
61.44584398794147
 21
97.17581386459521
 31
0.0
  0
LINE
  5
1A1
330
70
100
AcDbEntity
  8
Bemaßung
 62
     7
370
     9
100
AcDbLine
 10
61.44584398794147
 20
97.27709390714347
 30
0.0
 11
61.44584398794147
 21
97.17581386459521
 31
0.0
  0
LINE
  5
1A2
330
70
100
AcDbEntity
  8
Bemaßung
 62
     7
370
     9
100
AcDbLine
 10
61.47392509833618
 20
97.27709390714347
 30
0.0
 11
61.47392509833618
 21
96.96322752626198
 31
0.0
  0
LINE
  5
1A3
330
70
100
AcDbEntity
  8
Bemaßung
 62
     7
370
     9
100
AcDbLine
 10
61.50182981984649
 20
97.27709390714347
 30
0.0
 11
61.50182981984649
 21
96.75138447611098
 31
0.0
  0
LINE
  5
1A4
330
70
100
AcDbEntity
  8
Bemaßung
 62
     7
370
     9
100
AcDbLine
 10
61.5299109302412
 20
97.27709390714347
 30
0.0
 11
61.5299109302412
 21
96.53844781487679
 31
0.0
  0
LINE
  5
1A5
330
70
100
AcDbEntity
  8
Bemaßung
 62
     7
370
     9
100
AcDbLine
 10
61.55781565175151
 20
97.27709390714347
 30
0.0
 11
61.55781565175151
 21
96.3266047647258
 31
0.0
  0
LINE
  5
1A6
330
70
100
AcDbEntity
  8
Bemaßung
 62
     7
370
     9
100
AcDbLine
 10
61.58572037326182
 20
97.27709390714347
 30
0.0
 11
61.58572037326182
 21
96.11402088126038
 31
0.0
  0
LINE
  5
1A7
330
70
100
AcDbEntity
  8
Bemaßung
 62
     7
370
     9
100
AcDbLine
 10
61.61362509477213
 20
97.27709390714347
 30
0.0
 11
61.61362509477213
 21
95.90214255333251
 31
0.0
  0
LWPOLYLINE
  5
1A8
330
70
100
AcDbEntity
  8
Bemaßung
 62
     7
370
     9
100
AcDbPolyline
 90
        4
 70
     0
 43
0.0
 10
61.61362509477213
 20
115.691140937362
 10
61.43257954383543
 20
114.316189583551
 10
61.79449425682444
 20
114.316189583551
 10
61.61362509477213
 20
115.691140937362
  0
LINE
  5
1A9
330
70
100
AcDbEntity
  8
Bemaßung
 62
     7
370
     9
100
AcDbLine
 10
61.44584398794147
 20
114.316189583551
 30
0.0
 11
61.44584398794147
 21
114.4178277491736
 31
0.0
  0
LINE
  5
1AA
330
70
100
AcDbEntity
  8
Bemaßung
 62
     7
370
     9
100
AcDbLine
 10
61.44584398794147
 20
114.316189583551
 30
0.0
 11
61.44584398794147
 21
114.4178277491736
 31
0.0
  0
LINE
  5
1AB
330
70
100
AcDbEntity
  8
Bemaßung
 62
     7
370
     9
100
AcDbLine
 10
61.47392509833618
 20
114.316189583551
 30
0.0
 11
61.47392509833618
 21
114.6297031866637
 31
0.0
  0
LINE
  5
1AC
330
70
100
AcDbEntity
  8
Bemaßung
 62
     7
370
     9
100
AcDbLine
 10
61.50182981984649
 20
114.316189583551
 30
0.0
 11
61.50182981984649
 21
114.8418990145835
 31
0.0
  0
LINE
  5
1AD
330
70
100
AcDbEntity
  8
Bemaßung
 62
     7
370
     9
100
AcDbLine
 10
61.5299109302412
 20
114.316189583551
 30
0.0
 11
61.5299109302412
 21
115.0544828980489
 31
0.0
  0
LINE
  5
1AE
330
70
100
AcDbEntity
  8
Bemaßung
 62
     7
370
     9
100
AcDbLine
 10
61.55781565175151
 20
114.316189583551
 30
0.0
 11
61.55781565175151
 21
115.2666787259687
 31
0.0
  0
LINE
  5
1AF
330
70
100
AcDbEntity
  8
Bemaßung
 62
     7
370
     9
100
AcDbLine
 10
61.58572037326182
 20
114.316189583551
 30
0.0
 11
61.58572037326182
 21
115.4785570538965
 31
0.0
  0
LINE
  5
1B0
330
70
100
AcDbEntity
  8
Bemaßung
 62
     7
370
     9
100
AcDbLine
 10
61.61362509477213
 20
114.316189583551
 30
0.0
 11
61.61362509477213
 21
115.691140937362
 31
0.0
  0
LINE
  5
1B1
330
70
100
AcDbEntity
  8
Bemaßung
 62
     7
370
     9
100
AcDbLine
 10
61.78105342383402
 20
114.316189583551
 30
0.0
 11
61.78105342383402
 21
114.4178277491736
 31
0.0
  0
LINE
  5
1B2
330
70
100
AcDbEntity
  8
Bemaßung
 62
     7
370
     9
100
AcDbLine
 10
61.78105342383402
 20
114.316189583551
 30
0.0
 11
61.78105342383402
 21
114.4178277491736
 31
0.0
  0
LINE
  5
1B3
330
70
100
AcDbEntity
  8
Bemaßung
 62
     7
370
     9
100
AcDbLine
 10
61.75314870232369
 20
114.316189583551
 30
0.0
 11
61.75314870232369
 21
114.6297031866637
 31
0.0
  0
LINE
  5
1B4
330
70
100
AcDbEntity
  8
Bemaßung
 62
     7
370
     9
100
AcDbLine
 10
61.72524398081339
 20
114.316189583551
 30
0.0
 11
61.72524398081339
 21
114.8418990145835
 31
0.0
  0
LINE
  5
1B5
330
70
100
AcDbEntity
  8
Bemaßung
 62
     7
370
     9
100
AcDbLine
 10
61.69733925930308
 20
114.316189583551
 30
0.0
 11
61.69733925930308
 21
115.0544828980489
 31
0.0
  0
LINE
  5
1B6
330
70
100
AcDbEntity
  8
Bemaßung
 62
     7
370
     9
100
AcDbLine
 10
61.66943609569365
 20
114.316189583551
 30
0.0
 11
61.66943609569365
 21
115.2666787259687
 31
0.0
  0
LINE
  5
1B7
330
70
100
AcDbEntity
  8
Bemaßung
 62
     7
370
     9
100
AcDbLine
 10
61.64152981628244
 20
114.316189583551
 30
0.0
 11
61.64152981628244
 21
115.4785570538965
 31
0.0
  0
LINE
  5
1B8
330
70
100
AcDbEntity
  8
Bemaßung
 62
     7
370
     9
100
AcDbLine
 10
61.61362509477213
 20
114.316189583551
 30
0.0
 11
61.61362509477213
 21
115.691140937362
 31
0.0
  0
LINE
  5
1B9
330
70
100
AcDbEntity
  8
Bemaßung
 62
     7
370
     9
100
AcDbLine
 10
125.8248587343848
 20
192.0969848214198
 30
0.0
 11
143.4851255060561
 21
192.0969848214198
 31
0.0
  0
LINE
  5
1BA
330
70
100
AcDbEntity
  8
Bemaßung
 62
     7
370
     9
100
AcDbLine
 10
130.2245972332493
 20
178.4021916220662
 30
0.0
 11
143.4851255060561
 21
178.4021916220662
 31
0.0
  0
LINE
  5
1BB
330
70
100
AcDbEntity
  8
Bemaßung
 62
     7
370
     9
100
AcDbLine
 10
142.3850938674536
 20
192.0969848214198
 30
0.0
 11
142.3850938674536
 21
178.4021916220662
 31
0.0
  0
LWPOLYLINE
  5
1BC
330
70
100
AcDbEntity
  8
Bemaßung
 62
     7
370
     9
100
AcDbPolyline
 90
        4
 70
     0
 43
0.0
 10
142.3850938674536
 20
192.0969848214198
 10
142.2042247054013
 20
190.7220334676089
 10
142.5659666310251
 20
190.7220334676089
 10
142.3850938674536
 20
192.0969848214198
  0
LINE
  5
1BD
330
70
100
AcDbEntity
  8
Bemaßung
 62
     7
370
     9
100
AcDbLine
 10
142.2176655383917
 20
190.7220334676089
 30
0.0
 11
142.2176655383917
 21
190.8238499522939
 31
0.0
  0
LINE
  5
1BE
330
70
100
AcDbEntity
  8
Bemaßung
 62
     7
370
     9
100
AcDbLine
 10
142.2176655383917
 20
190.7220334676089
 30
0.0
 11
142.2176655383917
 21
190.8238499522939
 31
0.0
  0
LINE
  5
1BF
330
70
100
AcDbEntity
  8
Bemaßung
 62
     7
370
     9
100
AcDbLine
 10
142.245570259902
 20
190.7220334676089
 30
0.0
 11
142.245570259902
 21
191.0360409595979
 31
0.0
  0
LINE
  5
1C0
330
70
100
AcDbEntity
  8
Bemaßung
 62
     7
370
     9
100
AcDbLine
 10
142.2731222036436
 20
190.7220334676089
 30
0.0
 11
142.2731222036436
 21
191.2480956764101
 31
0.0
  0
LINE
  5
1C1
330
70
100
AcDbEntity
  8
Bemaßung
 62
     7
370
     9
100
AcDbLine
 10
142.3010305199801
 20
190.7220334676089
 30
0.0
 11
142.3010305199801
 21
191.4601503932224
 31
0.0
  0
LINE
  5
1C2
330
70
100
AcDbEntity
  8
Bemaßung
 62
     7
370
     9
100
AcDbLine
 10
142.329284424433
 20
190.7220334676089
 30
0.0
 11
142.329284424433
 21
191.6726989989109
 31
0.0
  0
LINE
  5
1C3
330
70
100
AcDbEntity
  8
Bemaßung
 62
     7
370
     9
100
AcDbLine
 10
142.3571891459433
 20
190.7220334676089
 30
0.0
 11
142.3571891459433
 21
191.8849301046076
 31
0.0
  0
LINE
  5
1C4
330
70
100
AcDbEntity
  8
Bemaßung
 62
     7
370
     9
100
AcDbLine
 10
142.3850938674536
 20
190.7220334676089
 30
0.0
 11
142.3850938674536
 21
192.0969848214198
 31
0.0
  0
LINE
  5
1C5
330
70
100
AcDbEntity
  8
Bemaßung
 62
     7
370
     9
100
AcDbLine
 10
142.5525221965155
 20
190.7220334676089
 30
0.0
 11
142.5525221965155
 21
190.8238499522939
 31
0.0
  0
LINE
  5
1C6
330
70
100
AcDbEntity
  8
Bemaßung
 62
     7
370
     9
100
AcDbLine
 10
142.5525221965155
 20
190.7220334676089
 30
0.0
 11
142.5525221965155
 21
190.8238499522939
 31
0.0
  0
LINE
  5
1C7
330
70
100
AcDbEntity
  8
Bemaßung
 62
     7
370
     9
100
AcDbLine
 10
142.5249702527739
 20
190.7220334676089
 30
0.0
 11
142.5249702527739
 21
191.0360409595979
 31
0.0
  0
LINE
  5
1C8
330
70
100
AcDbEntity
  8
Bemaßung
 62
     7
370
     9
100
AcDbLine
 10
142.4970655312636
 20
190.7220334676089
 30
0.0
 11
142.4970655312636
 21
191.2480956764101
 31
0.0
  0
LINE
  5
1C9
330
70
100
AcDbEntity
  8
Bemaßung
 62
     7
370
     9
100
AcDbLine
 10
142.4691608097533
 20
190.7220334676089
 30
0.0
 11
142.4691608097533
 21
191.4601503932224
 31
0.0
  0
LINE
  5
1CA
330
70
100
AcDbEntity
  8
Bemaßung
 62
     7
370
     9
100
AcDbLine
 10
142.441256088243
 20
190.7220334676089
 30
0.0
 11
142.441256088243
 21
191.6726989989109
 31
0.0
  0
LINE
  5
1CB
330
70
100
AcDbEntity
  8
Bemaßung
 62
     7
370
     9
100
AcDbLine
 10
142.4133513667327
 20
190.7220334676089
 30
0.0
 11
142.4133513667327
 21
191.8849301046076
 31
0.0
  0
LINE
  5
1CC
330
70
100
AcDbEntity
  8
Bemaßung
 62
     7
370
     9
100
AcDbLine
 10
142.3850938674536
 20
190.7220334676089
 30
0.0
 11
142.3850938674536
 21
192.0969848214198
 31
0.0
  0
LWPOLYLINE
  5
1CD
330
70
100
AcDbEntity
  8
Bemaßung
 62
     7
370
     9
100
AcDbPolyline
 90
        4
 70
     0
 43
0.0
 10
142.3850938674536
 20
178.4021916220662
 10
142.5659666310251
 20
179.7771384690586
 10
142.2042247054013
 20
179.7771384690586
 10
142.3850938674536
 20
178.4021916220662
  0
LINE
  5
1CE
330
70
100
AcDbEntity
  8
Bemaßung
 62
     7
370
     9
100
AcDbLine
 10
142.5525221965155
 20
179.7771384690586
 30
0.0
 11
142.5525221965155
 21
179.6753268049894
 31
0.0
  0
LINE
  5
1CF
330
70
100
AcDbEntity
  8
Bemaßung
 62
     7
370
     9
100
AcDbLine
 10
142.5525221965155
 20
179.7771384690586
 30
0.0
 11
142.5525221965155
 21
179.6753268049894
 31
0.0
  0
LINE
  5
1D0
330
70
100
AcDbEntity
  8
Bemaßung
 62
     7
370
     9
100
AcDbLine
 10
142.5249702527739
 20
179.7771384690586
 30
0.0
 11
142.5249702527739
 21
179.4632720881771
 31
0.0
  0
LINE
  5
1D1
330
70
100
AcDbEntity
  8
Bemaßung
 62
     7
370
     9
100
AcDbLine
 10
142.4970655312636
 20
179.7771384690586
 30
0.0
 11
142.4970655312636
 21
179.2510762602574
 31
0.0
  0
LINE
  5
1D2
330
70
100
AcDbEntity
  8
Bemaßung
 62
     7
370
     9
100
AcDbLine
 10
142.4691608097533
 20
179.7771384690586
 30
0.0
 11
142.4691608097533
 21
179.0388451545607
 31
0.0
  0
LINE
  5
1D3
330
70
100
AcDbEntity
  8
Bemaßung
 62
     7
370
     9
100
AcDbLine
 10
142.441256088243
 20
179.7771384690586
 30
0.0
 11
142.441256088243
 21
178.8264729377566
 31
0.0
  0
LINE
  5
1D4
330
70
100
AcDbEntity
  8
Bemaßung
 62
     7
370
     9
100
AcDbLine
 10
142.4133513667327
 20
179.7771384690586
 30
0.0
 11
142.4133513667327
 21
178.6144182209443
 31
0.0
  0
LINE
  5
1D5
330
70
100
AcDbEntity
  8
Bemaßung
 62
     7
370
     9
100
AcDbLine
 10
142.3850938674536
 20
179.7771384690586
 30
0.0
 11
142.3850938674536
 21
178.4021916220662
 31
0.0
  0
LINE
  5
1D6
330
70
100
AcDbEntity
  8
Bemaßung
 62
     7
370
     9
100
AcDbLine
 10
142.2176655383917
 20
179.7771384690586
 30
0.0
 11
142.2176655383917
 21
179.6753268049894
 31
0.0
  0
LINE
  5
1D7
330
70
100
AcDbEntity
  8
Bemaßung
 62
     7
370
     9
100
AcDbLine
 10
142.2176655383917
 20
179.7771384690586
 30
0.0
 11
142.2176655383917
 21
179.6753268049894
 31
0.0
  0
LINE
  5
1D8
330
70
100
AcDbEntity
  8
Bemaßung
 62
     7
370
     9
100
AcDbLine
 10
142.245570259902
 20
179.7771384690586
 30
0.0
 11
142.245570259902
 21
179.4632720881771
 31
0.0
  0
LINE
  5
1D9
330
70
100
AcDbEntity
  8
Bemaßung
 62
     7
370
     9
100
AcDbLine
 10
142.2731222036436
 20
179.7771384690586
 30
0.0
 11
142.2731222036436
 21
179.2510762602574
 31
0.0
  0
LINE
  5
1DA
330
70
100
AcDbEntity
  8
Bemaßung
 62
     7
370
     9
100
AcDbLine
 10
142.3010305199801
 20
179.7771384690586
 30
0.0
 11
142.3010305199801
 21
179.0388451545607
 31
0.0
  0
LINE
  5
1DB
330
70
100
AcDbEntity
  8
Bemaßung
 62
     7
370
     9
100
AcDbLine
 10
142.329284424433
 20
179.7771384690586
 30
0.0
 11
142.329284424433
 21
178.8264729377566
 31
0.0
  0
LINE
  5
1DC
330
70
100
AcDbEntity
  8
Bemaßung
 62
     7
370
     9
100
AcDbLine
 10
142.3571891459433
 20
179.7771384690586
 30
0.0
 11
142.3571891459433
 21
178.6144182209443
 31
0.0
  0
LINE
  5
1DD
330
70
100
AcDbEntity
  8
Bemaßung
 62
     7
370
     9
100
AcDbLine
 10
142.3850938674536
 20
179.7771384690586
 30
0.0
 11
142.3850938674536
 21
178.4021916220662
 31
0.0
  0
LINE
  5
1DE
330
70
100
AcDbEntity
  8
Bemaßung
 62
     7
370
     9
100
AcDbLine
 10
127.5019642471539
 20
95.90214255333251
 30
0.0
 11
143.4851255060561
 21
95.90214255333251
 31
0.0
  0
LINE
  5
1DF
330
70
100
AcDbEntity
  8
Bemaßung
 62
     7
370
     9
100
AcDbLine
 10
142.3850938674536
 20
178.4021916220662
 30
0.0
 11
142.3850938674536
 21
95.90214255333251
 31
0.0
  0
LWPOLYLINE
  5
1E0
330
70
100
AcDbEntity
  8
Bemaßung
 62
     7
370
     9
100
AcDbPolyline
 90
        4
 70
     0
 43
0.0
 10
142.3850938674536
 20
178.4021916220662
 10
142.2042247054013
 20
177.0272710392136
 10
142.5659666310251
 20
177.0272710392136
 10
142.3850938674536
 20
178.4021916220662
  0
LINE
  5
1E1
330
70
100
AcDbEntity
  8
Bemaßung
 62
     7
370
     9
100
AcDbLine
 10
142.2176655383917
 20
177.0272710392136
 30
0.0
 11
142.2176655383917
 21
177.1285535366297
 31
0.0
  0
LINE
  5
1E2
330
70
100
AcDbEntity
  8
Bemaßung
 62
     7
370
     9
100
AcDbLine
 10
142.2176655383917
 20
177.0272710392136
 30
0.0
 11
142.2176655383917
 21
177.1285535366297
 31
0.0
  0
LINE
  5
1E3
330
70
100
AcDbEntity
  8
Bemaßung
 62
     7
370
     9
100
AcDbLine
 10
142.245570259902
 20
177.0272710392136
 30
0.0
 11
142.245570259902
 21
177.3409257534338
 31
0.0
  0
LINE
  5
1E4
330
70
100
AcDbEntity
  8
Bemaßung
 62
     7
370
     9
100
AcDbLine
 10
142.2731222036436
 20
177.0272710392136
 30
0.0
 11
142.2731222036436
 21
177.5533332480148
 31
0.0
  0
LINE
  5
1E5
330
70
100
AcDbEntity
  8
Bemaßung
 62
     7
370
     9
100
AcDbLine
 10
142.3010305199801
 20
177.0272710392136
 30
0.0
 11
142.3010305199801
 21
177.7655290759346
 31
0.0
  0
LINE
  5
1E6
330
70
100
AcDbEntity
  8
Bemaßung
 62
     7
370
     9
100
AcDbLine
 10
142.329284424433
 20
177.0272710392136
 30
0.0
 11
142.329284424433
 21
177.9775837927469
 31
0.0
  0
LINE
  5
1E7
330
70
100
AcDbEntity
  8
Bemaßung
 62
     7
370
     9
100
AcDbLine
 10
142.3571891459433
 20
177.0272710392136
 30
0.0
 11
142.3571891459433
 21
178.1898193998968
 31
0.0
  0
LINE
  5
1E8
330
70
100
AcDbEntity
  8
Bemaßung
 62
     7
370
     9
100
AcDbLine
 10
142.3850938674536
 20
177.0272710392136
 30
0.0
 11
142.3850938674536
 21
178.4021916220662
 31
0.0
  0
LINE
  5
1E9
330
70
100
AcDbEntity
  8
Bemaßung
 62
     7
370
     9
100
AcDbLine
 10
142.5525221965155
 20
177.0272710392136
 30
0.0
 11
142.5525221965155
 21
177.1285535366297
 31
0.0
  0
LINE
  5
1EA
330
70
100
AcDbEntity
  8
Bemaßung
 62
     7
370
     9
100
AcDbLine
 10
142.5525221965155
 20
177.0272710392136
 30
0.0
 11
142.5525221965155
 21
177.1285535366297
 31
0.0
  0
LINE
  5
1EB
330
70
100
AcDbEntity
  8
Bemaßung
 62
     7
370
     9
100
AcDbLine
 10
142.5249702527739
 20
177.0272710392136
 30
0.0
 11
142.5249702527739
 21
177.3409257534338
 31
0.0
  0
LINE
  5
1EC
330
70
100
AcDbEntity
  8
Bemaßung
 62
     7
370
     9
100
AcDbLine
 10
142.4970655312636
 20
177.0272710392136
 30
0.0
 11
142.4970655312636
 21
177.5533332480148
 31
0.0
  0
LINE
  5
1ED
330
70
100
AcDbEntity
  8
Bemaßung
 62
     7
370
     9
100
AcDbLine
 10
142.4691608097533
 20
177.0272710392136
 30
0.0
 11
142.4691608097533
 21
177.7655290759346
 31
0.0
  0
LINE
  5
1EE
330
70
100
AcDbEntity
  8
Bemaßung
 62
     7
370
     9
100
AcDbLine
 10
142.441256088243
 20
177.0272710392136
 30
0.0
 11
142.441256088243
 21
177.9775837927469
 31
0.0
  0
LINE
  5
1EF
330
70
100
AcDbEntity
  8
Bemaßung
 62
     7
370
     9
100
AcDbLine
 10
142.4133513667327
 20
177.0272710392136
 30
0.0
 11
142.4133513667327
 21
178.1898193998968
 31
0.0
  0
LINE
  5
1F0
330
70
100
AcDbEntity
  8
Bemaßung
 62
     7
370
     9
100
AcDbLine
 10
142.3850938674536
 20
177.0272710392136
 30
0.0
 11
142.3850938674536
 21
178.4021916220662
 31
0.0
  0
LWPOLYLINE
  5
1F1
330
70
100
AcDbEntity
  8
Bemaßung
 62
     7
370
     9
100
AcDbPolyline
 90
        4
 70
     0
 43
0.0
 10
142.3850938674536
 20
95.90214255333251
 10
142.5659666310251
 20
97.27709390714347
 10
142.2042247054013
 20
97.27709390714347
 10
142.3850938674536
 20
95.90214255333251
  0
LINE
  5
1F2
330
70
100
AcDbEntity
  8
Bemaßung
 62
     7
370
     9
100
AcDbLine
 10
142.5525221965155
 20
97.27709390714347
 30
0.0
 11
142.5525221965155
 21
97.17581386459521
 31
0.0
  0
LINE
  5
1F3
330
70
100
AcDbEntity
  8
Bemaßung
 62
     7
370
     9
100
AcDbLine
 10
142.5525221965155
 20
97.27709390714347
 30
0.0
 11
142.5525221965155
 21
97.17581386459521
 31
0.0
  0
LINE
  5
1F4
330
70
100
AcDbEntity
  8
Bemaßung
 62
     7
370
     9
100
AcDbLine
 10
142.5249702527739
 20
97.27709390714347
 30
0.0
 11
142.5249702527739
 21
96.96322752626198
 31
0.0
  0
LINE
  5
1F5
330
70
100
AcDbEntity
  8
Bemaßung
 62
     7
370
     9
100
AcDbLine
 10
142.4970655312636
 20
97.27709390714347
 30
0.0
 11
142.4970655312636
 21
96.75138447611098
 31
0.0
  0
LINE
  5
1F6
330
70
100
AcDbEntity
  8
Bemaßung
 62
     7
370
     9
100
AcDbLine
 10
142.4691608097533
 20
97.27709390714347
 30
0.0
 11
142.4691608097533
 21
96.53844781487679
 31
0.0
  0
LINE
  5
1F7
330
70
100
AcDbEntity
  8
Bemaßung
 62
     7
370
     9
100
AcDbLine
 10
142.441256088243
 20
97.27709390714347
 30
0.0
 11
142.441256088243
 21
96.3266047647258
 31
0.0
  0
LINE
  5
1F8
330
70
100
AcDbEntity
  8
Bemaßung
 62
     7
370
     9
100
AcDbLine
 10
142.4133513667327
 20
97.27709390714347
 30
0.0
 11
142.4133513667327
 21
96.11402088126038
 31
0.0
  0
LINE
  5
1F9
330
70
100
AcDbEntity
  8
Bemaßung
 62
     7
370
     9
100
AcDbLine
 10
142.3850938674536
 20
97.27709390714347
 30
0.0
 11
142.3850938674536
 21
95.90214255333251
 31
0.0
  0
LINE
  5
1FA
330
70
100
AcDbEntity
  8
Bemaßung
 62
     7
370
     9
100
AcDbLine
 10
142.2176655383917
 20
97.27709390714347
 30
0.0
 11
142.2176655383917
 21
97.17581386459521
 31
0.0
  0
LINE
  5
1FB
330
70
100
AcDbEntity
  8
Bemaßung
 62
     7
370
     9
100
AcDbLine
 10
142.2176655383917
 20
97.27709390714347
 30
0.0
 11
142.2176655383917
 21
97.17581386459521
 31
0.0
  0
LINE
  5
1FC
330
70
100
AcDbEntity
  8
Bemaßung
 62
     7
370
     9
100
AcDbLine
 10
142.245570259902
 20
97.27709390714347
 30
0.0
 11
142.245570259902
 21
96.96322752626198
 31
0.0
  0
LINE
  5
1FD
330
70
100
AcDbEntity
  8
Bemaßung
 62
     7
370
     9
100
AcDbLine
 10
142.2731222036436
 20
97.27709390714347
 30
0.0
 11
142.2731222036436
 21
96.75138447611098
 31
0.0
  0
LINE
  5
1FE
330
70
100
AcDbEntity
  8
Bemaßung
 62
     7
370
     9
100
AcDbLine
 10
142.3010305199801
 20
97.27709390714347
 30
0.0
 11
142.3010305199801
 21
96.53844781487679
 31
0.0
  0
LINE
  5
1FF
330
70
100
AcDbEntity
  8
Bemaßung
 62
     7
370
     9
100
AcDbLine
 10
142.329284424433
 20
97.27709390714347
 30
0.0
 11
142.329284424433
 21
96.3266047647258
 31
0.0
  0
LINE
  5
200
330
70
100
AcDbEntity
  8
Bemaßung
 62
     7
370
     9
100
AcDbLine
 10
142.3571891459433
 20
97.27709390714347
 30
0.0
 11
142.3571891459433
 21
96.11402088126038
 31
0.0
  0
LINE
  5
201
330
70
100
AcDbEntity
  8
Bemaßung
 62
     7
370
     9
100
AcDbLine
 10
142.3850938674536
 20
97.27709390714347
 30
0.0
 11
142.3850938674536
 21
95.90214255333251
 31
0.0
  0
LINE
  5
202
330
70
100
AcDbEntity
  8
Bemaßung
 62
     7
370
     9
100
AcDbLine
 10
84.0367445227107
 20
155.4316977012737
 30
0.0
 11
68.36173464483573
 21
155.4316977012737
 31
0.0
  0
LWPOLYLINE
  5
203
330
70
100
AcDbEntity
  8
Bemaßung
 62
     7
370
     9
100
AcDbPolyline
 90
        4
 70
     0
 43
0.0
 10
84.0367445227107
 20
155.4316977012737
 10
82.66196955778413
 20
155.6125315855491
 10
82.66196955778413
 20
155.250652150337
 10
84.0367445227107
 20
155.4316977012737
  0
LINE
  5
204
330
70
100
AcDbEntity
  8
Bemaßung
 62
     7
370
     9
100
AcDbLine
 10
82.66196955778413
 20
155.5994435303275
 30
0.0
 11
82.76360483296897
 21
155.5994435303275
 31
0.0
  0
LINE
  5
205
330
70
100
AcDbEntity
  8
Bemaßung
 62
     7
370
     9
100
AcDbLine
 10
82.66196955778413
 20
155.5994435303275
 30
0.0
 11
82.76360483296897
 21
155.5994435303275
 31
0.0
  0
LINE
  5
206
330
70
100
AcDbEntity
  8
Bemaßung
 62
     7
370
     9
100
AcDbLine
 10
82.66196955778413
 20
155.5715388088172
 30
0.0
 11
82.97562427200436
 21
155.5715388088172
 31
0.0
  0
LINE
  5
207
330
70
100
AcDbEntity
  8
Bemaßung
 62
     7
370
     9
100
AcDbLine
 10
82.66196955778413
 20
155.5434576984224
 30
0.0
 11
83.187855377701
 21
155.5434576984224
 31
0.0
  0
LINE
  5
208
330
70
100
AcDbEntity
  8
Bemaßung
 62
     7
370
     9
100
AcDbLine
 10
82.66196955778413
 20
155.5154118658046
 30
0.0
 11
83.39991009451326
 21
155.5154118658046
 31
0.0
  0
LINE
  5
209
330
70
100
AcDbEntity
  8
Bemaßung
 62
     7
370
     9
100
AcDbLine
 10
82.66196955778413
 20
155.4875110722394
 30
0.0
 11
83.6124587002018
 21
155.4875110722394
 31
0.0
  0
LINE
  5
20A
330
70
100
AcDbEntity
  8
Bemaßung
 62
     7
370
     9
100
AcDbLine
 10
82.66196955778413
 20
155.4594260338996
 30
0.0
 11
83.82451341701406
 21
155.4594260338996
 31
0.0
  0
LINE
  5
20B
330
70
100
AcDbEntity
  8
Bemaßung
 62
     7
370
     9
100
AcDbLine
 10
82.66196955778413
 20
155.4316977012737
 30
0.0
 11
84.0367445227107
 21
155.4316977012737
 31
0.0
  0
LINE
  5
20C
330
70
100
AcDbEntity
  8
Bemaßung
 62
     7
370
     9
100
AcDbLine
 10
82.66196955778413
 20
155.263916594443
 30
0.0
 11
82.76360483296897
 21
155.263916594443
 31
0.0
  0
LINE
  5
20D
330
70
100
AcDbEntity
  8
Bemaßung
 62
     7
370
     9
100
AcDbLine
 10
82.66196955778413
 20
155.263916594443
 30
0.0
 11
82.76360483296897
 21
155.263916594443
 31
0.0
  0
LINE
  5
20E
330
70
100
AcDbEntity
  8
Bemaßung
 62
     7
370
     9
100
AcDbLine
 10
82.66196955778413
 20
155.2918213159533
 30
0.0
 11
82.97562427200436
 21
155.2918213159533
 31
0.0
  0
LINE
  5
20F
330
70
100
AcDbEntity
  8
Bemaßung
 62
     7
370
     9
100
AcDbLine
 10
82.66196955778413
 20
155.319902426348
 30
0.0
 11
83.187855377701
 21
155.319902426348
 31
0.0
  0
LINE
  5
210
330
70
100
AcDbEntity
  8
Bemaßung
 62
     7
370
     9
100
AcDbLine
 10
82.66196955778413
 20
155.3478110722741
 30
0.0
 11
83.39991009451326
 21
155.3478110722741
 31
0.0
  0
LINE
  5
211
330
70
100
AcDbEntity
  8
Bemaßung
 62
     7
370
     9
100
AcDbLine
 10
82.66196955778413
 20
155.3757118693686
 30
0.0
 11
83.6124587002018
 21
155.3757118693686
 31
0.0
  0
LINE
  5
212
330
70
100
AcDbEntity
  8
Bemaßung
 62
     7
370
     9
100
AcDbLine
 10
82.66196955778413
 20
155.4036165908789
 30
0.0
 11
83.82451341701406
 21
155.4036165908789
 31
0.0
  0
LINE
  5
213
330
70
100
AcDbEntity
  8
Bemaßung
 62
     7
370
     9
100
AcDbLine
 10
82.66196955778413
 20
155.4316977012737
 30
0.0
 11
84.0367445227107
 21
155.4316977012737
 31
0.0
  0
LWPOLYLINE
  5
214
330
70
100
AcDbEntity
  8
Bemaßung
 62
     7
370
     9
100
AcDbPolyline
 90
        4
 70
     0
 43
0.0
 10
68.36173464483573
 20
155.4316977012737
 10
69.73665072086982
 20
155.250652150337
 10
69.73665072086982
 20
155.6125315855491
 10
68.36173464483573
 20
155.4316977012737
  0
LINE
  5
215
330
70
100
AcDbEntity
  8
Bemaßung
 62
     7
370
     9
100
AcDbLine
 10
69.73665072086982
 20
155.263916594443
 30
0.0
 11
69.63501544568497
 21
155.263916594443
 31
0.0
  0
LINE
  5
216
330
70
100
AcDbEntity
  8
Bemaßung
 62
     7
370
     9
100
AcDbLine
 10
69.73665072086982
 20
155.263916594443
 30
0.0
 11
69.63501544568497
 21
155.263916594443
 31
0.0
  0
LINE
  5
217
330
70
100
AcDbEntity
  8
Bemaßung
 62
     7
370
     9
100
AcDbLine
 10
69.73665072086982
 20
155.2918213159533
 30
0.0
 11
69.42299600664959
 21
155.2918213159533
 31
0.0
  0
LINE
  5
218
330
70
100
AcDbEntity
  8
Bemaßung
 62
     7
370
     9
100
AcDbLine
 10
69.73665072086982
 20
155.319902426348
 30
0.0
 11
69.21058851206857
 21
155.319902426348
 31
0.0
  0
LINE
  5
219
330
70
100
AcDbEntity
  8
Bemaßung
 62
     7
370
     9
100
AcDbLine
 10
69.73665072086982
 20
155.3478110722741
 30
0.0
 11
68.99835740637192
 21
155.3478110722741
 31
0.0
  0
LINE
  5
21A
330
70
100
AcDbEntity
  8
Bemaßung
 62
     7
370
     9
100
AcDbLine
 10
69.73665072086982
 20
155.3757118693686
 30
0.0
 11
68.78616157845215
 21
155.3757118693686
 31
0.0
  0
LINE
  5
21B
330
70
100
AcDbEntity
  8
Bemaßung
 62
     7
370
     9
100
AcDbLine
 10
69.73665072086982
 20
155.4036165908789
 30
0.0
 11
68.57410686163989
 21
155.4036165908789
 31
0.0
  0
LINE
  5
21C
330
70
100
AcDbEntity
  8
Bemaßung
 62
     7
370
     9
100
AcDbLine
 10
69.73665072086982
 20
155.4316977012737
 30
0.0
 11
68.36173464483573
 21
155.4316977012737
 31
0.0
  0
LINE
  5
21D
330
70
100
AcDbEntity
  8
Bemaßung
 62
     7
370
     9
100
AcDbLine
 10
69.73665072086982
 20
155.5994435303275
 30
0.0
 11
69.63501544568497
 21
155.5994435303275
 31
0.0
  0
LINE
  5
21E
330
70
100
AcDbEntity
  8
Bemaßung
 62
     7
370
     9
100
AcDbLine
 10
69.73665072086982
 20
155.5994435303275
 30
0.0
 11
69.63501544568497
 21
155.5994435303275
 31
0.0
  0
LINE
  5
21F
330
70
100
AcDbEntity
  8
Bemaßung
 62
     7
370
     9
100
AcDbLine
 10
69.73665072086982
 20
155.5715388088172
 30
0.0
 11
69.42299600664959
 21
155.5715388088172
 31
0.0
  0
LINE
  5
220
330
70
100
AcDbEntity
  8
Bemaßung
 62
     7
370
     9
100
AcDbLine
 10
69.73665072086982
 20
155.5434576984224
 30
0.0
 11
69.21058851206857
 21
155.5434576984224
 31
0.0
  0
LINE
  5
221
330
70
100
AcDbEntity
  8
Bemaßung
 62
     7
370
     9
100
AcDbLine
 10
69.73665072086982
 20
155.5154118658046
 30
0.0
 11
68.99835740637192
 21
155.5154118658046
 31
0.0
  0
LINE
  5
222
330
70
100
AcDbEntity
  8
Bemaßung
 62
     7
370
     9
100
AcDbLine
 10
69.73665072086982
 20
155.4875110722394
 30
0.0
 11
68.78616157845215
 21
155.4875110722394
 31
0.0
  0
LINE
  5
223
330
70
100
AcDbEntity
  8
Bemaßung
 62
     7
370
     9
100
AcDbLine
 10
69.73665072086982
 20
155.4594260338996
 30
0.0
 11
68.57410686163989
 21
155.4594260338996
 31
0.0
  0
LINE
  5
224
330
70
100
AcDbEntity
  8
Bemaßung
 62
     7
370
     9
100
AcDbLine
 10
69.73665072086982
 20
155.4316977012737
 30
0.0
 11
68.36173464483573
 21
155.4316977012737
 31
0.0
  0
LINE
  5
225
330
70
100
AcDbEntity
  8
Bemaßung
 62
     7
370
     9
100
AcDbLine
 10
134.0738260239361
 20
145.401802401602
 30
0.0
 11
134.0738260239361
 21
158.1164423550024
 31
0.0
  0
LINE
  5
226
330
70
100
AcDbEntity
  8
Bemaßung
 62
     7
370
     9
100
AcDbLine
 10
106.6194958910211
 20
145.401802401602
 30
0.0
 11
106.6194958910211
 21
158.1164423550024
 31
0.0
  0
LINE
  5
227
330
70
100
AcDbEntity
  8
Bemaßung
 62
     7
370
     9
100
AcDbLine
 10
134.0738260239361
 20
157.0164107163998
 30
0.0
 11
106.6194958910211
 21
157.0164107163998
 31
0.0
  0
LWPOLYLINE
  5
228
330
70
100
AcDbEntity
  8
Bemaßung
 62
     7
370
     9
100
AcDbPolyline
 90
        4
 70
     0
 43
0.0
 10
134.0738260239361
 20
157.0164107163998
 10
132.6988746701252
 20
157.1974562673365
 10
132.6988746701252
 20
156.83540044324
 10
134.0738260239361
 20
157.0164107163998
  0
LINE
  5
229
330
70
100
AcDbEntity
  8
Bemaßung
 62
     7
370
     9
100
AcDbLine
 10
132.6988746701252
 20
157.1841918232305
 30
0.0
 11
132.8008627230788
 21
157.1841918232305
 31
0.0
  0
LINE
  5
22A
330
70
100
AcDbEntity
  8
Bemaßung
 62
     7
370
     9
100
AcDbLine
 10
132.6988746701252
 20
157.1841918232305
 30
0.0
 11
132.8008627230788
 21
157.1841918232305
 31
0.0
  0
LINE
  5
22B
330
70
100
AcDbEntity
  8
Bemaßung
 62
     7
370
     9
100
AcDbLine
 10
132.6988746701252
 20
157.1562871017202
 30
0.0
 11
133.0127057732298
 21
157.1562871017202
 31
0.0
  0
LINE
  5
22C
330
70
100
AcDbEntity
  8
Bemaßung
 62
     7
370
     9
100
AcDbLine
 10
132.6988746701252
 20
157.1283823802099
 30
0.0
 11
133.2252896566952
 21
157.1283823802099
 31
0.0
  0
LINE
  5
22D
330
70
100
AcDbEntity
  8
Bemaßung
 62
     7
370
     9
100
AcDbLine
 10
132.6988746701252
 20
157.1003012698152
 30
0.0
 11
133.4374888555293
 21
157.1003012698152
 31
0.0
  0
LINE
  5
22E
330
70
100
AcDbEntity
  8
Bemaßung
 62
     7
370
     9
100
AcDbLine
 10
132.6988746701252
 20
157.0722201594205
 30
0.0
 11
133.6493638125429
 21
157.0722201594205
 31
0.0
  0
LINE
  5
22F
330
70
100
AcDbEntity
  8
Bemaßung
 62
     7
370
     9
100
AcDbLine
 10
132.6988746701252
 20
157.0443194051833
 30
0.0
 11
133.8615949182395
 21
157.0443194051833
 31
0.0
  0
LINE
  5
230
330
70
100
AcDbEntity
  8
Bemaßung
 62
     7
370
     9
100
AcDbLine
 10
132.6988746701252
 20
157.0164107163998
 30
0.0
 11
134.0738260239361
 21
157.0164107163998
 31
0.0
  0
LINE
  5
231
330
70
100
AcDbEntity
  8
Bemaßung
 62
     7
370
     9
100
AcDbLine
 10
132.6988746701252
 20
156.8488059984536
 30
0.0
 11
132.8008627230788
 21
156.8488059984536
 31
0.0
  0
LINE
  5
232
330
70
100
AcDbEntity
  8
Bemaßung
 62
     7
370
     9
100
AcDbLine
 10
132.6988746701252
 20
156.8488059984536
 30
0.0
 11
132.8008627230788
 21
156.8488059984536
 31
0.0
  0
LINE
  5
233
330
70
100
AcDbEntity
  8
Bemaßung
 62
     7
370
     9
100
AcDbLine
 10
132.6988746701252
 20
156.8767107199639
 30
0.0
 11
133.0127057732298
 21
156.8767107199639
 31
0.0
  0
LINE
  5
234
330
70
100
AcDbEntity
  8
Bemaßung
 62
     7
370
     9
100
AcDbLine
 10
132.6988746701252
 20
156.9046194052184
 30
0.0
 11
133.2252896566952
 21
156.9046194052184
 31
0.0
  0
LINE
  5
235
330
70
100
AcDbEntity
  8
Bemaßung
 62
     7
370
     9
100
AcDbLine
 10
132.6988746701252
 20
156.9325201629845
 30
0.0
 11
133.4374888555293
 21
156.9325201629845
 31
0.0
  0
LINE
  5
236
330
70
100
AcDbEntity
  8
Bemaßung
 62
     7
370
     9
100
AcDbLine
 10
132.6988746701252
 20
156.9606012733792
 30
0.0
 11
133.6493638125429
 21
156.9606012733792
 31
0.0
  0
LINE
  5
237
330
70
100
AcDbEntity
  8
Bemaßung
 62
     7
370
     9
100
AcDbLine
 10
132.6988746701252
 20
156.9885059948895
 30
0.0
 11
133.8615949182395
 21
156.9885059948895
 31
0.0
  0
LINE
  5
238
330
70
100
AcDbEntity
  8
Bemaßung
 62
     7
370
     9
100
AcDbLine
 10
132.6988746701252
 20
157.0164107163998
 30
0.0
 11
134.0738260239361
 21
157.0164107163998
 31
0.0
  0
LWPOLYLINE
  5
239
330
70
100
AcDbEntity
  8
Bemaßung
 62
     7
370
     9
100
AcDbPolyline
 90
        4
 70
     0
 43
0.0
 10
106.6194958910211
 20
157.0164107163998
 10
107.9940971952237
 20
156.83540044324
 10
107.9940971952237
 20
157.1974562673365
 10
106.6194958910211
 20
157.0164107163998
  0
LINE
  5
23A
330
70
100
AcDbEntity
  8
Bemaßung
 62
     7
370
     9
100
AcDbLine
 10
107.9940971952237
 20
156.8488059984536
 30
0.0
 11
107.8928119696472
 21
156.8488059984536
 31
0.0
  0
LINE
  5
23B
330
70
100
AcDbEntity
  8
Bemaßung
 62
     7
370
     9
100
AcDbLine
 10
107.9940971952237
 20
156.8488059984536
 30
0.0
 11
107.8928119696472
 21
156.8488059984536
 31
0.0
  0
LINE
  5
23C
330
70
100
AcDbEntity
  8
Bemaßung
 62
     7
370
     9
100
AcDbLine
 10
107.9940971952237
 20
156.8767107199639
 30
0.0
 11
107.6802633639587
 21
156.8767107199639
 31
0.0
  0
LINE
  5
23D
330
70
100
AcDbEntity
  8
Bemaßung
 62
     7
370
     9
100
AcDbLine
 10
107.9940971952237
 20
156.9046194052184
 30
0.0
 11
107.4683850360308
 21
156.9046194052184
 31
0.0
  0
LINE
  5
23E
330
70
100
AcDbEntity
  8
Bemaßung
 62
     7
370
     9
100
AcDbLine
 10
107.9940971952237
 20
156.9325201629845
 30
0.0
 11
107.2558011525654
 21
156.9325201629845
 31
0.0
  0
LINE
  5
23F
330
70
100
AcDbEntity
  8
Bemaßung
 62
     7
370
     9
100
AcDbLine
 10
107.9940971952237
 20
156.9606012733792
 30
0.0
 11
107.0436053246456
 21
156.9606012733792
 31
0.0
  0
LINE
  5
240
330
70
100
AcDbEntity
  8
Bemaßung
 62
     7
370
     9
100
AcDbLine
 10
107.9940971952237
 20
156.9885059948895
 30
0.0
 11
106.8317269967178
 21
156.9885059948895
 31
0.0
  0
LINE
  5
241
330
70
100
AcDbEntity
  8
Bemaßung
 62
     7
370
     9
100
AcDbLine
 10
107.9940971952237
 20
157.0164107163998
 30
0.0
 11
106.6194958910211
 21
157.0164107163998
 31
0.0
  0
LINE
  5
242
330
70
100
AcDbEntity
  8
Bemaßung
 62
     7
370
     9
100
AcDbLine
 10
107.9940971952237
 20
157.1841918232305
 30
0.0
 11
107.8928119696472
 21
157.1841918232305
 31
0.0
  0
LINE
  5
243
330
70
100
AcDbEntity
  8
Bemaßung
 62
     7
370
     9
100
AcDbLine
 10
107.9940971952237
 20
157.1841918232305
 30
0.0
 11
107.8928119696472
 21
157.1841918232305
 31
0.0
  0
LINE
  5
244
330
70
100
AcDbEntity
  8
Bemaßung
 62
     7
370
     9
100
AcDbLine
 10
107.9940971952237
 20
157.1562871017202
 30
0.0
 11
107.6802633639587
 21
157.1562871017202
 31
0.0
  0
LINE
  5
245
330
70
100
AcDbEntity
  8
Bemaßung
 62
     7
370
     9
100
AcDbLine
 10
107.9940971952237
 20
157.1283823802099
 30
0.0
 11
107.4683850360308
 21
157.1283823802099
 31
0.0
  0
LINE
  5
246
330
70
100
AcDbEntity
  8
Bemaßung
 62
     7
370
     9
100
AcDbLine
 10
107.9940971952237
 20
157.1003012698152
 30
0.0
 11
107.2558011525654
 21
157.1003012698152
 31
0.0
  0
LINE
  5
247
330
70
100
AcDbEntity
  8
Bemaßung
 62
     7
370
     9
100
AcDbLine
 10
107.9940971952237
 20
157.0722201594205
 30
0.0
 11
107.0436053246456
 21
157.0722201594205
 31
0.0
  0
LINE
  5
248
330
70
100
AcDbEntity
  8
Bemaßung
 62
     7
370
     9
100
AcDbLine
 10
107.9940971952237
 20
157.0443194051833
 30
0.0
 11
106.8317269967178
 21
157.0443194051833
 31
0.0
  0
LINE
  5
249
330
70
100
AcDbEntity
  8
Bemaßung
 62
     7
370
     9
100
AcDbLine
 10
107.9940971952237
 20
157.0164107163998
 30
0.0
 11
106.6194958910211
 21
157.0164107163998
 31
0.0
  0
LINE
  5
24A
330
70
100
AcDbEntity
  8
Bemaßung
 62
     7
370
     9
100
AcDbLine
 10
136.7454860769247
 20
107.4714894803961
 30
0.0
 11
120.3530285962051
 21
107.4714894803961
 31
0.0
  0
LINE
  5
24B
330
70
100
AcDbEntity
  8
Bemaßung
 62
     7
370
     9
100
AcDbLine
 10
136.0495579179755
 20
95.92867144154459
 30
0.0
 11
136.0495579179755
 21
107.4714894803961
 31
0.0
  0
LWPOLYLINE
  5
24C
330
70
100
AcDbEntity
  8
Bemaßung
 62
     7
370
     9
100
AcDbPolyline
 90
        4
 70
     0
 43
0.0
 10
136.0495579179755
 20
95.92867144154459
 10
136.2307832992754
 20
97.30362279535555
 10
135.8686887559232
 20
97.30362279535555
 10
136.0495579179755
 20
95.92867144154459
  0
LINE
  5
24D
330
70
100
AcDbEntity
  8
Bemaßung
 62
     7
370
     9
100
AcDbLine
 10
136.2170249659458
 20
97.30362279535555
 30
0.0
 11
136.2170249659458
 21
97.2023402979395
 31
0.0
  0
LINE
  5
24E
330
70
100
AcDbEntity
  8
Bemaßung
 62
     7
370
     9
100
AcDbLine
 10
136.2170249659458
 20
97.30362279535555
 30
0.0
 11
136.2170249659458
 21
97.2023402979395
 31
0.0
  0
LINE
  5
24F
330
70
100
AcDbEntity
  8
Bemaßung
 62
     7
370
     9
100
AcDbLine
 10
136.1894343032958
 20
97.30362279535555
 30
0.0
 11
136.1894343032958
 21
96.98975641447406
 31
0.0
  0
LINE
  5
250
330
70
100
AcDbEntity
  8
Bemaßung
 62
     7
370
     9
100
AcDbLine
 10
136.1612120817936
 20
97.30362279535555
 30
0.0
 11
136.1612120817936
 21
96.77791336432306
 31
0.0
  0
LINE
  5
251
330
70
100
AcDbEntity
  8
Bemaßung
 62
     7
370
     9
100
AcDbLine
 10
136.1336248602752
 20
97.30362279535555
 30
0.0
 11
136.1336248602752
 21
96.56497670308887
 31
0.0
  0
LINE
  5
252
330
70
100
AcDbEntity
  8
Bemaßung
 62
     7
370
     9
100
AcDbLine
 10
136.1053673609961
 20
97.30362279535555
 30
0.0
 11
136.1053673609961
 21
96.35313608702297
 31
0.0
  0
LINE
  5
253
330
70
100
AcDbEntity
  8
Bemaßung
 62
     7
370
     9
100
AcDbLine
 10
136.0778154172546
 20
97.30362279535555
 30
0.0
 11
136.0778154172546
 21
96.14054976947246
 31
0.0
  0
LINE
  5
254
330
70
100
AcDbEntity
  8
Bemaßung
 62
     7
370
     9
100
AcDbLine
 10
136.0495579179755
 20
97.30362279535555
 30
0.0
 11
136.0495579179755
 21
95.92867144154459
 31
0.0
  0
LINE
  5
255
330
70
100
AcDbEntity
  8
Bemaßung
 62
     7
370
     9
100
AcDbLine
 10
135.8821295889136
 20
97.30362279535555
 30
0.0
 11
135.8821295889136
 21
97.2023402979395
 31
0.0
  0
LINE
  5
256
330
70
100
AcDbEntity
  8
Bemaßung
 62
     7
370
     9
100
AcDbLine
 10
135.8821295889136
 20
97.30362279535555
 30
0.0
 11
135.8821295889136
 21
97.2023402979395
 31
0.0
  0
LINE
  5
257
330
70
100
AcDbEntity
  8
Bemaßung
 62
     7
370
     9
100
AcDbLine
 10
135.9100343104239
 20
97.30362279535555
 30
0.0
 11
135.9100343104239
 21
96.98975641447406
 31
0.0
  0
LINE
  5
258
330
70
100
AcDbEntity
  8
Bemaßung
 62
     7
370
     9
100
AcDbLine
 10
135.9379390319342
 20
97.30362279535555
 30
0.0
 11
135.9379390319342
 21
96.77791336432306
 31
0.0
  0
LINE
  5
259
330
70
100
AcDbEntity
  8
Bemaßung
 62
     7
370
     9
100
AcDbLine
 10
135.9661999660082
 20
97.30362279535555
 30
0.0
 11
135.9661999660082
 21
96.56497670308887
 31
0.0
  0
LINE
  5
25A
330
70
100
AcDbEntity
  8
Bemaßung
 62
     7
370
     9
100
AcDbLine
 10
135.9937484749549
 20
97.30362279535555
 30
0.0
 11
135.9937484749549
 21
96.35313608702297
 31
0.0
  0
LINE
  5
25B
330
70
100
AcDbEntity
  8
Bemaßung
 62
     7
370
     9
100
AcDbLine
 10
136.0220059742339
 20
97.30362279535555
 30
0.0
 11
136.0220059742339
 21
96.14054976947246
 31
0.0
  0
LINE
  5
25C
330
70
100
AcDbEntity
  8
Bemaßung
 62
     7
370
     9
100
AcDbLine
 10
136.0495579179755
 20
97.30362279535555
 30
0.0
 11
136.0495579179755
 21
95.92867144154459
 31
0.0
  0
LWPOLYLINE
  5
25D
330
70
100
AcDbEntity
  8
Bemaßung
 62
     7
370
     9
100
AcDbPolyline
 90
        4
 70
     0
 43
0.0
 10
136.0495579179755
 20
107.4714894803961
 10
135.8686887559232
 20
106.0965381265851
 10
136.2307832992754
 20
106.0965381265851
 10
136.0495579179755
 20
107.4714894803961
  0
LINE
  5
25E
330
70
100
AcDbEntity
  8
Bemaßung
 62
     7
370
     9
100
AcDbLine
 10
135.8821295889136
 20
106.0965381265851
 30
0.0
 11
135.8821295889136
 21
106.19817340177
 31
0.0
  0
LINE
  5
25F
330
70
100
AcDbEntity
  8
Bemaßung
 62
     7
370
     9
100
AcDbLine
 10
135.8821295889136
 20
106.0965381265851
 30
0.0
 11
135.8821295889136
 21
106.19817340177
 31
0.0
  0
LINE
  5
260
330
70
100
AcDbEntity
  8
Bemaßung
 62
     7
370
     9
100
AcDbLine
 10
135.9100343104239
 20
106.0965381265851
 30
0.0
 11
135.9100343104239
 21
106.4100517296978
 31
0.0
  0
LINE
  5
261
330
70
100
AcDbEntity
  8
Bemaßung
 62
     7
370
     9
100
AcDbLine
 10
135.9379390319342
 20
106.0965381265851
 30
0.0
 11
135.9379390319342
 21
106.6222475576176
 31
0.0
  0
LINE
  5
262
330
70
100
AcDbEntity
  8
Bemaßung
 62
     7
370
     9
100
AcDbLine
 10
135.9661999660082
 20
106.0965381265851
 30
0.0
 11
135.9661999660082
 21
106.834831441083
 31
0.0
  0
LINE
  5
263
330
70
100
AcDbEntity
  8
Bemaßung
 62
     7
370
     9
100
AcDbLine
 10
135.9937484749549
 20
106.0965381265851
 30
0.0
 11
135.9937484749549
 21
107.0470272690028
 31
0.0
  0
LINE
  5
264
330
70
100
AcDbEntity
  8
Bemaßung
 62
     7
370
     9
100
AcDbLine
 10
136.0220059742339
 20
106.0965381265851
 30
0.0
 11
136.0220059742339
 21
107.2589083065183
 31
0.0
  0
LINE
  5
265
330
70
100
AcDbEntity
  8
Bemaßung
 62
     7
370
     9
100
AcDbLine
 10
136.0495579179755
 20
106.0965381265851
 30
0.0
 11
136.0495579179755
 21
107.4714894803961
 31
0.0
  0
LINE
  5
266
330
70
100
AcDbEntity
  8
Bemaßung
 62
     7
370
     9
100
AcDbLine
 10
136.2170249659458
 20
106.0965381265851
 30
0.0
 11
136.2170249659458
 21
106.19817340177
 31
0.0
  0
LINE
  5
267
330
70
100
AcDbEntity
  8
Bemaßung
 62
     7
370
     9
100
AcDbLine
 10
136.2170249659458
 20
106.0965381265851
 30
0.0
 11
136.2170249659458
 21
106.19817340177
 31
0.0
  0
LINE
  5
268
330
70
100
AcDbEntity
  8
Bemaßung
 62
     7
370
     9
100
AcDbLine
 10
136.1894343032958
 20
106.0965381265851
 30
0.0
 11
136.1894343032958
 21
106.4100517296978
 31
0.0
  0
LINE
  5
269
330
70
100
AcDbEntity
  8
Bemaßung
 62
     7
370
     9
100
AcDbLine
 10
136.1612120817936
 20
106.0965381265851
 30
0.0
 11
136.1612120817936
 21
106.6222475576176
 31
0.0
  0
LINE
  5
26A
330
70
100
AcDbEntity
  8
Bemaßung
 62
     7
370
     9
100
AcDbLine
 10
136.1336248602752
 20
106.0965381265851
 30
0.0
 11
136.1336248602752
 21
106.834831441083
 31
0.0
  0
LINE
  5
26B
330
70
100
AcDbEntity
  8
Bemaßung
 62
     7
370
     9
100
AcDbLine
 10
136.1053673609961
 20
106.0965381265851
 30
0.0
 11
136.1053673609961
 21
107.0470272690028
 31
0.0
  0
LINE
  5
26C
330
70
100
AcDbEntity
  8
Bemaßung
 62
     7
370
     9
100
AcDbLine
 10
136.0778154172546
 20
106.0965381265851
 30
0.0
 11
136.0778154172546
 21
107.2589083065183
 31
0.0
  0
LINE
  5
26D
330
70
100
AcDbEntity
  8
Bemaßung
 62
     7
370
     9
100
AcDbLine
 10
136.0495579179755
 20
106.0965381265851
 30
0.0
 11
136.0495579179755
 21
107.4714894803961
 31
0.0
  0
LINE
  5
26E
330
70
100
AcDbEntity
  8
Bemaßung
 62
     7
370
     9
100
AcDbLine
 10
99.65730029478933
 20
95.93422604437895
 30
0.0
 11
118.4754340391738
 21
95.93422604437895
 31
0.0
  0
LINE
  5
26F
330
70
100
AcDbEntity
  8
Bemaßung
 62
     7
370
     9
100
AcDbLine
 10
99.71425569119098
 20
105.5591679864168
 30
0.0
 11
121.467186516583
 21
105.5591679864168
 31
0.0
  0
LINE
  5
270
330
70
100
AcDbEntity
  8
Bemaßung
 62
     7
370
     9
100
AcDbLine
 10
100.9629785125473
 20
95.93422604437895
 30
0.0
 11
100.9629785125473
 21
105.5591679864168
 31
0.0
  0
MTEXT
  5
271
330
70
100
AcDbEntity
  8
Bemaßung
100
AcDbMText
 10
99.68005902659367
 20
97.8126342528906
 30
0.0
 40
0.2
 41
0.0
 46
0.0
 71
     7
 72
     1
  1
\C7;\FINDEX Univers 45 Light|b0|i0|c1;\H2.497667;\W1.000000;17,5
 11
0.0000000000000001
 21
1.0
 31
0.0
 73
     1
 44
1.0
  0
LWPOLYLINE
  5
272
330
70
100
AcDbEntity
  8
Bemaßung
 62
     7
370
     9
100
AcDbPolyline
 90
        4
 70
     0
 43
0.0
 10
100.9629785125473
 20
95.93422604437895
 10
101.2163787902619
 20
97.85917562723067
 10
100.7097722626107
 20
97.85917562723067
 10
100.9629785125473
 20
95.93422604437895
  0
LINE
  5
273
330
70
100
AcDbEntity
  8
Bemaßung
 62
     7
370
     9
100
AcDbLine
 10
101.2144385124849
 20
97.85917562723067
 30
0.0
 11
101.2144385124849
 21
97.84423548834562
 31
0.0
  0
LINE
  5
274
330
70
100
AcDbEntity
  8
Bemaßung
 62
     7
370
     9
100
AcDbLine
 10
101.2144385124849
 20
97.85917562723067
 30
0.0
 11
101.2144385124849
 21
97.84423548834562
 31
0.0
  0
LINE
  5
275
330
70
100
AcDbEntity
  8
Bemaßung
 62
     7
370
     9
100
AcDbLine
 10
101.1864985124918
 20
97.85917562723067
 30
0.0
 11
101.1864985124918
 21
97.63196909951005
 31
0.0
  0
LINE
  5
276
330
70
100
AcDbEntity
  8
Bemaßung
 62
     7
370
     9
100
AcDbLine
 10
101.1585585124987
 20
97.85917562723067
 30
0.0
 11
101.1585585124987
 21
97.41989673845182
 31
0.0
  0
LINE
  5
277
330
70
100
AcDbEntity
  8
Bemaßung
 62
     7
370
     9
100
AcDbLine
 10
101.1306185125057
 20
97.85917562723067
 30
0.0
 11
101.1306185125057
 21
97.20763034961562
 31
0.0
  0
LINE
  5
278
330
70
100
AcDbEntity
  8
Bemaßung
 62
     7
370
     9
100
AcDbLine
 10
101.1026785125126
 20
97.85917562723067
 30
0.0
 11
101.1026785125126
 21
96.99536396078006
 31
0.0
  0
LINE
  5
279
330
70
100
AcDbEntity
  8
Bemaßung
 62
     7
370
     9
100
AcDbLine
 10
101.0747385125196
 20
97.85917562723067
 30
0.0
 11
101.0747385125196
 21
96.78309757194449
 31
0.0
  0
LINE
  5
27A
330
70
100
AcDbEntity
  8
Bemaßung
 62
     7
370
     9
100
AcDbLine
 10
101.0467985125265
 20
97.85917562723067
 30
0.0
 11
101.0467985125265
 21
96.57083118310829
 31
0.0
  0
LINE
  5
27B
330
70
100
AcDbEntity
  8
Bemaßung
 62
     7
370
     9
100
AcDbLine
 10
101.0188585125334
 20
97.85917562723067
 30
0.0
 11
101.0188585125334
 21
96.35875882205006
 31
0.0
  0
LINE
  5
27C
330
70
100
AcDbEntity
  8
Bemaßung
 62
     7
370
     9
100
AcDbLine
 10
100.9909185125404
 20
97.85917562723067
 30
0.0
 11
100.9909185125404
 21
96.14649243321451
 31
0.0
  0
LINE
  5
27D
330
70
100
AcDbEntity
  8
Bemaßung
 62
     7
370
     9
100
AcDbLine
 10
100.9629785125473
 20
97.85917562723067
 30
0.0
 11
100.9629785125473
 21
95.93422604437895
 31
0.0
  0
LINE
  5
27E
330
70
100
AcDbEntity
  8
Bemaßung
 62
     7
370
     9
100
AcDbLine
 10
100.7117125403884
 20
97.85917562723067
 30
0.0
 11
100.7117125403884
 21
97.84423548834562
 31
0.0
  0
LINE
  5
27F
330
70
100
AcDbEntity
  8
Bemaßung
 62
     7
370
     9
100
AcDbLine
 10
100.7117125403884
 20
97.85917562723067
 30
0.0
 11
100.7117125403884
 21
97.84423548834562
 31
0.0
  0
LINE
  5
280
330
70
100
AcDbEntity
  8
Bemaßung
 62
     7
370
     9
100
AcDbLine
 10
100.7396525403808
 20
97.85917562723067
 30
0.0
 11
100.7396525403808
 21
97.63196909951005
 31
0.0
  0
LINE
  5
281
330
70
100
AcDbEntity
  8
Bemaßung
 62
     7
370
     9
100
AcDbLine
 10
100.7675925403739
 20
97.85917562723067
 30
0.0
 11
100.7675925403739
 21
97.41989673845182
 31
0.0
  0
LINE
  5
282
330
70
100
AcDbEntity
  8
Bemaßung
 62
     7
370
     9
100
AcDbLine
 10
100.7955325403669
 20
97.85917562723067
 30
0.0
 11
100.7955325403669
 21
97.20763034961562
 31
0.0
  0
LINE
  5
283
330
70
100
AcDbEntity
  8
Bemaßung
 62
     7
370
     9
100
AcDbLine
 10
100.82347254036
 20
97.85917562723067
 30
0.0
 11
100.82347254036
 21
96.99536396078006
 31
0.0
  0
LINE
  5
284
330
70
100
AcDbEntity
  8
Bemaßung
 62
     7
370
     9
100
AcDbLine
 10
100.851412540353
 20
97.85917562723067
 30
0.0
 11
100.851412540353
 21
96.78309757194449
 31
0.0
  0
LINE
  5
285
330
70
100
AcDbEntity
  8
Bemaßung
 62
     7
370
     9
100
AcDbLine
 10
100.8793525403461
 20
97.85917562723067
 30
0.0
 11
100.8793525403461
 21
96.57083118310829
 31
0.0
  0
LINE
  5
286
330
70
100
AcDbEntity
  8
Bemaßung
 62
     7
370
     9
100
AcDbLine
 10
100.9072925403392
 20
97.85917562723067
 30
0.0
 11
100.9072925403392
 21
96.35875882205006
 31
0.0
  0
LINE
  5
287
330
70
100
AcDbEntity
  8
Bemaßung
 62
     7
370
     9
100
AcDbLine
 10
100.9352325403322
 20
97.85917562723067
 30
0.0
 11
100.9352325403322
 21
96.14649243321451
 31
0.0
  0
LINE
  5
288
330
70
100
AcDbEntity
  8
Bemaßung
 62
     7
370
     9
100
AcDbLine
 10
100.9629785125473
 20
97.85917562723067
 30
0.0
 11
100.9629785125473
 21
95.93422604437895
 31
0.0
  0
LWPOLYLINE
  5
289
330
70
100
AcDbEntity
  8
Bemaßung
 62
     7
370
     9
100
AcDbPolyline
 90
        4
 70
     0
 43
0.0
 10
100.9629785125473
 20
105.5591679864168
 10
100.7097722626107
 20
103.6342184035651
 10
101.2163787902619
 20
103.6342184035651
 10
100.9629785125473
 20
105.5591679864168
  0
LINE
  5
28A
330
70
100
AcDbEntity
  8
Bemaßung
 62
     7
370
     9
100
AcDbLine
 10
100.7117125403884
 20
103.6342184035651
 30
0.0
 11
100.7117125403884
 21
103.6491585424501
 31
0.0
  0
LINE
  5
28B
330
70
100
AcDbEntity
  8
Bemaßung
 62
     7
370
     9
100
AcDbLine
 10
100.7117125403884
 20
103.6342184035651
 30
0.0
 11
100.7117125403884
 21
103.6491585424501
 31
0.0
  0
LINE
  5
28C
330
70
100
AcDbEntity
  8
Bemaßung
 62
     7
370
     9
100
AcDbLine
 10
100.7396525403808
 20
103.6342184035651
 30
0.0
 11
100.7396525403808
 21
103.8614249312857
 31
0.0
  0
LINE
  5
28D
330
70
100
AcDbEntity
  8
Bemaßung
 62
     7
370
     9
100
AcDbLine
 10
100.7675925403739
 20
103.6342184035651
 30
0.0
 11
100.7675925403739
 21
104.0736913201212
 31
0.0
  0
LINE
  5
28E
330
70
100
AcDbEntity
  8
Bemaßung
 62
     7
370
     9
100
AcDbLine
 10
100.7955325403669
 20
103.6342184035651
 30
0.0
 11
100.7955325403669
 21
104.2859577089574
 31
0.0
  0
LINE
  5
28F
330
70
100
AcDbEntity
  8
Bemaßung
 62
     7
370
     9
100
AcDbLine
 10
100.82347254036
 20
103.6342184035651
 30
0.0
 11
100.82347254036
 21
104.4980300700157
 31
0.0
  0
LINE
  5
290
330
70
100
AcDbEntity
  8
Bemaßung
 62
     7
370
     9
100
AcDbLine
 10
100.851412540353
 20
103.6342184035651
 30
0.0
 11
100.851412540353
 21
104.7102964588513
 31
0.0
  0
LINE
  5
291
330
70
100
AcDbEntity
  8
Bemaßung
 62
     7
370
     9
100
AcDbLine
 10
100.8793525403461
 20
103.6342184035651
 30
0.0
 11
100.8793525403461
 21
104.9225628476868
 31
0.0
  0
LINE
  5
292
330
70
100
AcDbEntity
  8
Bemaßung
 62
     7
370
     9
100
AcDbLine
 10
100.9072925403392
 20
103.6342184035651
 30
0.0
 11
100.9072925403392
 21
105.134829236523
 31
0.0
  0
LINE
  5
293
330
70
100
AcDbEntity
  8
Bemaßung
 62
     7
370
     9
100
AcDbLine
 10
100.9352325403322
 20
103.6342184035651
 30
0.0
 11
100.9352325403322
 21
105.3472896531365
 31
0.0
  0
LINE
  5
294
330
70
100
AcDbEntity
  8
Bemaßung
 62
     7
370
     9
100
AcDbLine
 10
100.9629785125473
 20
103.6342184035651
 30
0.0
 11
100.9629785125473
 21
105.5591679864168
 31
0.0
  0
LINE
  5
295
330
70
100
AcDbEntity
  8
Bemaßung
 62
     7
370
     9
100
AcDbLine
 10
101.2144385124849
 20
103.6342184035651
 30
0.0
 11
101.2144385124849
 21
103.6491585424501
 31
0.0
  0
LINE
  5
296
330
70
100
AcDbEntity
  8
Bemaßung
 62
     7
370
     9
100
AcDbLine
 10
101.2144385124849
 20
103.6342184035651
 30
0.0
 11
101.2144385124849
 21
103.6491585424501
 31
0.0
  0
LINE
  5
297
330
70
100
AcDbEntity
  8
Bemaßung
 62
     7
370
     9
100
AcDbLine
 10
101.1864985124918
 20
103.6342184035651
 30
0.0
 11
101.1864985124918
 21
103.8614249312857
 31
0.0
  0
LINE
  5
298
330
70
100
AcDbEntity
  8
Bemaßung
 62
     7
370
     9
100
AcDbLine
 10
101.1585585124987
 20
103.6342184035651
 30
0.0
 11
101.1585585124987
 21
104.0736913201212
 31
0.0
  0
LINE
  5
299
330
70
100
AcDbEntity
  8
Bemaßung
 62
     7
370
     9
100
AcDbLine
 10
101.1306185125057
 20
103.6342184035651
 30
0.0
 11
101.1306185125057
 21
104.2859577089574
 31
0.0
  0
LINE
  5
29A
330
70
100
AcDbEntity
  8
Bemaßung
 62
     7
370
     9
100
AcDbLine
 10
101.1026785125126
 20
103.6342184035651
 30
0.0
 11
101.1026785125126
 21
104.4980300700157
 31
0.0
  0
LINE
  5
29B
330
70
100
AcDbEntity
  8
Bemaßung
 62
     7
370
     9
100
AcDbLine
 10
101.0747385125196
 20
103.6342184035651
 30
0.0
 11
101.0747385125196
 21
104.7102964588513
 31
0.0
  0
LINE
  5
29C
330
70
100
AcDbEntity
  8
Bemaßung
 62
     7
370
     9
100
AcDbLine
 10
101.0467985125265
 20
103.6342184035651
 30
0.0
 11
101.0467985125265
 21
104.9225628476868
 31
0.0
  0
LINE
  5
29D
330
70
100
AcDbEntity
  8
Bemaßung
 62
     7
370
     9
100
AcDbLine
 10
101.0188585125334
 20
103.6342184035651
 30
0.0
 11
101.0188585125334
 21
105.134829236523
 31
0.0
  0
LINE
  5
29E
330
70
100
AcDbEntity
  8
Bemaßung
 62
     7
370
     9
100
AcDbLine
 10
100.9909185125404
 20
103.6342184035651
 30
0.0
 11
100.9909185125404
 21
105.3472896531365
 31
0.0
  0
LINE
  5
29F
330
70
100
AcDbEntity
  8
Bemaßung
 62
     7
370
     9
100
AcDbLine
 10
100.9629785125473
 20
103.6342184035651
 30
0.0
 11
100.9629785125473
 21
105.5591679864168
 31
0.0
  0
LINE
  5
2A0
330
70
100
AcDbEntity
  8
Bemaßung
 62
     7
370
     9
100
AcDbLine
 10
105.8664773015354
 20
98.95950715473377
 30
0.0
 11
121.47659758914
 21
98.95950715473377
 31
0.0
  0
LINE
  5
2A1
330
70
100
AcDbEntity
  8
Bemaßung
 62
     7
370
     9
100
AcDbLine
 10
106.8423977250263
 20
105.5591679864168
 30
0.0
 11
106.8423977250263
 21
98.95950715473377
 31
0.0
  0
MTEXT
  5
2A2
330
70
100
AcDbEntity
  8
Bemaßung
100
AcDbMText
 10
105.5596635342654
 20
100.1377184299623
 30
0.0
 40
0.2
 41
0.0
 46
0.0
 71
     7
 72
     1
  1
\C7;\FINDEX Univers 45 Light|b0|i0|c1;\H2.497667;\W1.000000;12
 11
0.0000000000000001
 21
1.0
 31
0.0
 73
     1
 44
1.0
  0
LWPOLYLINE
  5
2A3
330
70
100
AcDbEntity
  8
Bemaßung
 62
     7
370
     9
100
AcDbPolyline
 90
        4
 70
     0
 43
0.0
 10
106.8423977250263
 20
105.5591679864168
 10
106.589191475089
 20
103.6342184035651
 10
107.0957980027402
 20
103.6342184035651
 10
106.8423977250263
 20
105.5591679864168
  0
LINE
  5
2A4
330
70
100
AcDbEntity
  8
Bemaßung
 62
     7
370
     9
100
AcDbLine
 10
106.5911317528661
 20
103.6342184035651
 30
0.0
 11
106.5911317528661
 21
103.6491585424501
 31
0.0
  0
LINE
  5
2A5
330
70
100
AcDbEntity
  8
Bemaßung
 62
     7
370
     9
100
AcDbLine
 10
106.5911317528661
 20
103.6342184035651
 30
0.0
 11
106.5911317528661
 21
103.6491585424501
 31
0.0
  0
LINE
  5
2A6
330
70
100
AcDbEntity
  8
Bemaßung
 62
     7
370
     9
100
AcDbLine
 10
106.6190717528591
 20
103.6342184035651
 30
0.0
 11
106.6190717528591
 21
103.8614249312857
 31
0.0
  0
LINE
  5
2A7
330
70
100
AcDbEntity
  8
Bemaßung
 62
     7
370
     9
100
AcDbLine
 10
106.6470117528522
 20
103.6342184035651
 30
0.0
 11
106.6470117528522
 21
104.0736913201212
 31
0.0
  0
LINE
  5
2A8
330
70
100
AcDbEntity
  8
Bemaßung
 62
     7
370
     9
100
AcDbLine
 10
106.6749517528452
 20
103.6342184035651
 30
0.0
 11
106.6749517528452
 21
104.2859577089574
 31
0.0
  0
LINE
  5
2A9
330
70
100
AcDbEntity
  8
Bemaßung
 62
     7
370
     9
100
AcDbLine
 10
106.7028917528383
 20
103.6342184035651
 30
0.0
 11
106.7028917528383
 21
104.4980300700157
 31
0.0
  0
LINE
  5
2AA
330
70
100
AcDbEntity
  8
Bemaßung
 62
     7
370
     9
100
AcDbLine
 10
106.7308317528314
 20
103.6342184035651
 30
0.0
 11
106.7308317528314
 21
104.7102964588513
 31
0.0
  0
LINE
  5
2AB
330
70
100
AcDbEntity
  8
Bemaßung
 62
     7
370
     9
100
AcDbLine
 10
106.7587717528244
 20
103.6342184035651
 30
0.0
 11
106.7587717528244
 21
104.9225628476868
 31
0.0
  0
LINE
  5
2AC
330
70
100
AcDbEntity
  8
Bemaßung
 62
     7
370
     9
100
AcDbLine
 10
106.7865177250395
 20
103.6342184035651
 30
0.0
 11
106.7865177250395
 21
105.134829236523
 31
0.0
  0
LINE
  5
2AD
330
70
100
AcDbEntity
  8
Bemaßung
 62
     7
370
     9
100
AcDbLine
 10
106.8144577250332
 20
103.6342184035651
 30
0.0
 11
106.8144577250332
 21
105.3472896531365
 31
0.0
  0
LINE
  5
2AE
330
70
100
AcDbEntity
  8
Bemaßung
 62
     7
370
     9
100
AcDbLine
 10
106.8423977250263
 20
103.6342184035651
 30
0.0
 11
106.8423977250263
 21
105.5591679864168
 31
0.0
  0
LINE
  5
2AF
330
70
100
AcDbEntity
  8
Bemaßung
 62
     7
370
     9
100
AcDbLine
 10
107.0940517527405
 20
103.6342184035651
 30
0.0
 11
107.0940517527405
 21
103.6491585424501
 31
0.0
  0
LINE
  5
2B0
330
70
100
AcDbEntity
  8
Bemaßung
 62
     7
370
     9
100
AcDbLine
 10
107.0940517527405
 20
103.6342184035651
 30
0.0
 11
107.0940517527405
 21
103.6491585424501
 31
0.0
  0
LINE
  5
2B1
330
70
100
AcDbEntity
  8
Bemaßung
 62
     7
370
     9
100
AcDbLine
 10
107.0659177249695
 20
103.6342184035651
 30
0.0
 11
107.0659177249695
 21
103.8614249312857
 31
0.0
  0
LINE
  5
2B2
330
70
100
AcDbEntity
  8
Bemaßung
 62
     7
370
     9
100
AcDbLine
 10
107.0379777249764
 20
103.6342184035651
 30
0.0
 11
107.0379777249764
 21
104.0736913201212
 31
0.0
  0
LINE
  5
2B3
330
70
100
AcDbEntity
  8
Bemaßung
 62
     7
370
     9
100
AcDbLine
 10
107.010037724984
 20
103.6342184035651
 30
0.0
 11
107.010037724984
 21
104.2859577089574
 31
0.0
  0
LINE
  5
2B4
330
70
100
AcDbEntity
  8
Bemaßung
 62
     7
370
     9
100
AcDbLine
 10
106.982097724991
 20
103.6342184035651
 30
0.0
 11
106.982097724991
 21
104.4980300700157
 31
0.0
  0
LINE
  5
2B5
330
70
100
AcDbEntity
  8
Bemaßung
 62
     7
370
     9
100
AcDbLine
 10
106.9541577249979
 20
103.6342184035651
 30
0.0
 11
106.9541577249979
 21
104.7102964588513
 31
0.0
  0
LINE
  5
2B6
330
70
100
AcDbEntity
  8
Bemaßung
 62
     7
370
     9
100
AcDbLine
 10
106.9262177250048
 20
103.6342184035651
 30
0.0
 11
106.9262177250048
 21
104.9225628476868
 31
0.0
  0
LINE
  5
2B7
330
70
100
AcDbEntity
  8
Bemaßung
 62
     7
370
     9
100
AcDbLine
 10
106.8982777250118
 20
103.6342184035651
 30
0.0
 11
106.8982777250118
 21
105.134829236523
 31
0.0
  0
LINE
  5
2B8
330
70
100
AcDbEntity
  8
Bemaßung
 62
     7
370
     9
100
AcDbLine
 10
106.8703377250194
 20
103.6342184035651
 30
0.0
 11
106.8703377250194
 21
105.3472896531365
 31
0.0
  0
LINE
  5
2B9
330
70
100
AcDbEntity
  8
Bemaßung
 62
     7
370
     9
100
AcDbLine
 10
106.8423977250263
 20
103.6342184035651
 30
0.0
 11
106.8423977250263
 21
105.5591679864168
 31
0.0
  0
LWPOLYLINE
  5
2BA
330
70
100
AcDbEntity
  8
Bemaßung
 62
     7
370
     9
100
AcDbPolyline
 90
        4
 70
     0
 43
0.0
 10
106.8423977250263
 20
98.95950715473377
 10
107.0957980027402
 20
100.8842627098075
 10
106.589191475089
 20
100.8842627098075
 10
106.8423977250263
 20
98.95950715473377
  0
LINE
  5
2BB
330
70
100
AcDbEntity
  8
Bemaßung
 62
     7
370
     9
100
AcDbLine
 10
107.0940517527405
 20
100.8842627098075
 30
0.0
 11
107.0940517527405
 21
100.8693225709225
 31
0.0
  0
LINE
  5
2BC
330
70
100
AcDbEntity
  8
Bemaßung
 62
     7
370
     9
100
AcDbLine
 10
107.0940517527405
 20
100.8842627098075
 30
0.0
 11
107.0940517527405
 21
100.8693225709225
 31
0.0
  0
LINE
  5
2BD
330
70
100
AcDbEntity
  8
Bemaßung
 62
     7
370
     9
100
AcDbLine
 10
107.0659177249695
 20
100.8842627098075
 30
0.0
 11
107.0659177249695
 21
100.6572502098649
 31
0.0
  0
LINE
  5
2BE
330
70
100
AcDbEntity
  8
Bemaßung
 62
     7
370
     9
100
AcDbLine
 10
107.0379777249764
 20
100.8842627098075
 30
0.0
 11
107.0379777249764
 21
100.4449838210287
 31
0.0
  0
LINE
  5
2BF
330
70
100
AcDbEntity
  8
Bemaßung
 62
     7
370
     9
100
AcDbLine
 10
107.010037724984
 20
100.8842627098075
 30
0.0
 11
107.010037724984
 21
100.2327174321925
 31
0.0
  0
LINE
  5
2C0
330
70
100
AcDbEntity
  8
Bemaßung
 62
     7
370
     9
100
AcDbLine
 10
106.982097724991
 20
100.8842627098075
 30
0.0
 11
106.982097724991
 21
100.0204510433569
 31
0.0
  0
LINE
  5
2C1
330
70
100
AcDbEntity
  8
Bemaßung
 62
     7
370
     9
100
AcDbLine
 10
106.9541577249979
 20
100.8842627098075
 30
0.0
 11
106.9541577249979
 21
99.80837868229933
 31
0.0
  0
LINE
  5
2C2
330
70
100
AcDbEntity
  8
Bemaßung
 62
     7
370
     9
100
AcDbLine
 10
106.9262177250048
 20
100.8842627098075
 30
0.0
 11
106.9262177250048
 21
99.59611229346315
 31
0.0
  0
LINE
  5
2C3
330
70
100
AcDbEntity
  8
Bemaßung
 62
     7
370
     9
100
AcDbLine
 10
106.8982777250118
 20
100.8842627098075
 30
0.0
 11
106.8982777250118
 21
99.38384590462694
 31
0.0
  0
LINE
  5
2C4
330
70
100
AcDbEntity
  8
Bemaßung
 62
     7
370
     9
100
AcDbLine
 10
106.8703377250194
 20
100.8842627098075
 30
0.0
 11
106.8703377250194
 21
99.17157951579138
 31
0.0
  0
LINE
  5
2C5
330
70
100
AcDbEntity
  8
Bemaßung
 62
     7
370
     9
100
AcDbLine
 10
106.8423977250263
 20
100.8842627098075
 30
0.0
 11
106.8423977250263
 21
98.95950715473377
 31
0.0
  0
LINE
  5
2C6
330
70
100
AcDbEntity
  8
Bemaßung
 62
     7
370
     9
100
AcDbLine
 10
106.5911317528661
 20
100.8842627098075
 30
0.0
 11
106.5911317528661
 21
100.8693225709225
 31
0.0
  0
LINE
  5
2C7
330
70
100
AcDbEntity
  8
Bemaßung
 62
     7
370
     9
100
AcDbLine
 10
106.5911317528661
 20
100.8842627098075
 30
0.0
 11
106.5911317528661
 21
100.8693225709225
 31
0.0
  0
LINE
  5
2C8
330
70
100
AcDbEntity
  8
Bemaßung
 62
     7
370
     9
100
AcDbLine
 10
106.6190717528591
 20
100.8842627098075
 30
0.0
 11
106.6190717528591
 21
100.6572502098649
 31
0.0
  0
LINE
  5
2C9
330
70
100
AcDbEntity
  8
Bemaßung
 62
     7
370
     9
100
AcDbLine
 10
106.6470117528522
 20
100.8842627098075
 30
0.0
 11
106.6470117528522
 21
100.4449838210287
 31
0.0
  0
LINE
  5
2CA
330
70
100
AcDbEntity
  8
Bemaßung
 62
     7
370
     9
100
AcDbLine
 10
106.6749517528452
 20
100.8842627098075
 30
0.0
 11
106.6749517528452
 21
100.2327174321925
 31
0.0
  0
LINE
  5
2CB
330
70
100
AcDbEntity
  8
Bemaßung
 62
     7
370
     9
100
AcDbLine
 10
106.7028917528383
 20
100.8842627098075
 30
0.0
 11
106.7028917528383
 21
100.0204510433569
 31
0.0
  0
LINE
  5
2CC
330
70
100
AcDbEntity
  8
Bemaßung
 62
     7
370
     9
100
AcDbLine
 10
106.7308317528314
 20
100.8842627098075
 30
0.0
 11
106.7308317528314
 21
99.80837868229933
 31
0.0
  0
LINE
  5
2CD
330
70
100
AcDbEntity
  8
Bemaßung
 62
     7
370
     9
100
AcDbLine
 10
106.7587717528244
 20
100.8842627098075
 30
0.0
 11
106.7587717528244
 21
99.59611229346315
 31
0.0
  0
LINE
  5
2CE
330
70
100
AcDbEntity
  8
Bemaßung
 62
     7
370
     9
100
AcDbLine
 10
106.7865177250395
 20
100.8842627098075
 30
0.0
 11
106.7865177250395
 21
99.38384590462694
 31
0.0
  0
LINE
  5
2CF
330
70
100
AcDbEntity
  8
Bemaßung
 62
     7
370
     9
100
AcDbLine
 10
106.8144577250332
 20
100.8842627098075
 30
0.0
 11
106.8144577250332
 21
99.17157951579138
 31
0.0
  0
LINE
  5
2D0
330
70
100
AcDbEntity
  8
Bemaßung
 62
     7
370
     9
100
AcDbLine
 10
106.8423977250263
 20
100.8842627098075
 30
0.0
 11
106.8423977250263
 21
98.95950715473377
 31
0.0
  0
ENDSEC
  0
SECTION
  2
OBJECTS
  0
DICTIONARY
  5
C
330
0
100
AcDbDictionary
281
     1
  3
ACAD_COLOR
350
63
  3
ACAD_DETAILVIEWSTYLE
350
6A
  3
ACAD_GROUP
350
D
  3
ACAD_LAYOUT
350
62
  3
ACAD_MATERIAL
350
10
  3
ACAD_MLEADERSTYLE
350
66
  3
ACAD_MLINESTYLE
350
5F
  3
ACAD_PLOTSETTINGS
350
61
  3
ACAD_PLOTSTYLENAME
350
E
  3
ACAD_SCALELIST
350
42
  3
ACAD_SECTIONVIEWSTYLE
350
68
  3
ACAD_TABLESTYLE
350
64
  3
ACAD_VISUALSTYLE
350
29
  3
ACDB_RECOMPOSE_DATA
350
2D9
  3
AcDbVariableDictionary
350
2D1
  0
DICTIONARY
  5
63
102
{ACAD_REACTORS
330
C
102
}
330
C
100
AcDbDictionary
281
     1
  0
DICTIONARY
  5
6A
102
{ACAD_REACTORS
330
C
102
}
330
C
100
AcDbDictionary
281
     1
  3
Imperial24
350
6B
  0
DICTIONARY
  5
D
102
{ACAD_REACTORS
330
C
102
}
330
C
100
AcDbDictionary
281
     1
  0
DICTIONARY
  5
62
102
{ACAD_REACTORS
330
C
102
}
330
C
100
AcDbDictionary
281
     1
  3
Layout1
350
6F
  3
Layout2
350
77
  3
Model
350
73
  0
DICTIONARY
  5
10
102
{ACAD_REACTORS
330
C
102
}
330
C
100
AcDbDictionary
281
     1
  3
ByBlock
350
19
  3
ByLayer
350
11
  3
Global
350
21
  0
DICTIONARY
  5
66
102
{ACAD_REACTORS
330
C
102
}
330
C
100
AcDbDictionary
281
     1
  3
Standard
350
67
  0
DICTIONARY
  5
5F
102
{ACAD_REACTORS
330
C
102
}
330
C
100
AcDbDictionary
281
     1
  3
Standard
350
60
  0
DICTIONARY
  5
61
102
{ACAD_REACTORS
330
C
102
}
330
C
100
AcDbDictionary
281
     1
  0
ACDBDICTIONARYWDFLT
  5
E
102
{ACAD_REACTORS
330
C
102
}
330
C
100
AcDbDictionary
281
     1
  3
Normal
350
F
100
AcDbDictionaryWithDefault
340
F
  0
DICTIONARY
  5
42
102
{ACAD_REACTORS
330
C
102
}
330
C
100
AcDbDictionary
281
     1
  3
A0
350
43
  3
A1
350
44
  3
A2
350
45
  3
A3
350
46
  3
A4
350
47
  3
A5
350
48
  3
A6
350
49
  3
A7
350
4A
  3
A8
350
4B
  3
A9
350
4C
  3
B0
350
4D
  3
B1
350
4E
  3
B2
350
4F
  3
B3
350
50
  3
B4
350
51
  3
B5
350
52
  3
B6
350
53
  0
DICTIONARY
  5
68
102
{ACAD_REACTORS
330
C
102
}
330
C
100
AcDbDictionary
281
     1
  3
Imperial24
350
69
  0
DICTIONARY
  5
64
102
{ACAD_REACTORS
330
C
102
}
330
C
100
AcDbDictionary
281
     1
  3
Standard
350
65
  0
DICTIONARY
  5
29
102
{ACAD_REACTORS
330
C
102
}
330
C
100
AcDbDictionary
281
     1
  3
2dWireframe
350
2F
  3
Basic
350
2E
  3
Brighten
350
35
  3
ColorChange
350
39
  3
Conceptual
350
32
  3
Dim
350
34
  3
EdgeColorOff
350
41
  3
Facepattern
350
38
  3
Flat
350
2A
  3
FlatWithEdges
350
2B
  3
Gouraud
350
2C
  3
GouraudWithEdges
350
2D
  3
Hidden
350
31
  3
JitterOff
350
3F
  3
Linepattern
350
37
  3
OverhangOff
350
40
  3
Realistic
350
33
  3
Shaded
350
3E
  3
Shaded with edges
350
3D
  3
Shades of Gray
350
3A
  3
Sketchy
350
3B
  3
Thicken
350
36
  3
Wireframe
350
30
  3
X-Ray
350
3C
  0
XRECORD
  5
2D9
102
{ACAD_REACTORS
330
C
102
}
330
C
100
AcDbXrecord
280
     1
 90
        1
330
65
  0
DICTIONARY
  5
2D1
102
{ACAD_REACTORS
330
C
102
}
330
C
100
AcDbDictionary
281
     1
  3
CANNOSCALE
350
2D6
  3
CMLEADERSTYLE
350
2D3
  3
CTABLESTYLE
350
2D2
  3
CVIEWDETAILSTYLE
350
2D4
  3
CVIEWSECTIONSTYLE
350
2D5
  0
ACDBDETAILVIEWSTYLE
  5
6B
102
{ACAD_REACTORS
330
6A
102
}
330
6A
100
AcDbModelDocViewStyle
 70
     0
  3
Imperial24
290
     1
300
Imperial24
 90
        0
100
AcDbDetailViewStyle
 70
     0
 71
     0
 90
        3
 71
     1
340
55
 62
   256
 40
0.24
340
0
 62
   256
 40
0.24
300

 40
0.36
280
     3
 71
     2
340
5D
 90
       25
 62
   256
 71
     3
340
55
 62
   256
 40
0.24
 90
        1
 40
0.75
 90
        1
300
%<\AcVar ViewType \f "%tc1">% %<\AcVar ViewDetailId>%\PSCALE %<\AcVar ViewScale \f "%sn">%
 71
     4
340
5D
 90
       25
 62
   256
340
5D
 90
       25
 62
   256
280
     0
  0
LAYOUT
  5
6F
102
{ACAD_REACTORS
330
62
102
}
330
62
100
AcDbPlotSettings
  1

  2

  4

  6

 40
0.0
 41
0.0
 42
0.0
 43
0.0
 44
0.0
 45
0.0
 46
0.0
 47
0.0
 48
0.0
 49
0.0
140
0.0
141
0.0
142
1.0
143
1.0
 70
   688
 72
     0
 73
     0
 74
     5
  7

 75
    16
147
1.0
 76
     0
 77
     2
 78
   300
148
0.0
149
0.0
100
AcDbLayout
  1
Layout1
 70
     1
 71
     1
 10
0.0
 20
0.0
 11
12.0
 21
9.0
 12
0.0
 22
0.0
 32
0.0
 14
0.0
 24
0.0
 34
0.0
 15
0.0
 25
0.0
 35
0.0
146
0.0
 13
0.0
 23
0.0
 33
0.0
 16
1.0
 26
0.0
 36
0.0
 17
0.0
 27
1.0
 37
0.0
 76
     0
330
6C
  0
LAYOUT
  5
77
102
{ACAD_REACTORS
330
62
102
}
330
62
100
AcDbPlotSettings
  1

  2

  4

  6

 40
0.0
 41
0.0
 42
0.0
 43
0.0
 44
0.0
 45
0.0
 46
0.0
 47
0.0
 48
0.0
 49
0.0
140
0.0
141
0.0
142
1.0
143
1.0
 70
   688
 72
     0
 73
     0
 74
     5
  7

 75
    16
147
1.0
 76
     0
 77
     2
 78
   300
148
0.0
149
0.0
100
AcDbLayout
  1
Layout2
 70
     1
 71
     2
 10
0.0
 20
0.0
 11
12.0
 21
9.0
 12
0.0
 22
0.0
 32
0.0
 14
0.0
 24
0.0
 34
0.0
 15
0.0
 25
0.0
 35
0.0
146
0.0
 13
0.0
 23
0.0
 33
0.0
 16
1.0
 26
0.0
 36
0.0
 17
0.0
 27
1.0
 37
0.0
 76
     0
330
74
  0
LAYOUT
  5
73
102
{ACAD_REACTORS
330
62
102
}
330
62
100
AcDbPlotSettings
  1

  2

  4

  6

 40
0.0
 41
0.0
 42
0.0
 43
0.0
 44
0.0
 45
0.0
 46
0.0
 47
0.0
 48
0.0
 49
0.0
140
0.0
141
0.0
142
1.0
143
1.0
 70
  1712
 72
     0
 73
     0
 74
     0
  7

 75
     0
147
1.0
 76
     0
 77
     2
 78
   300
148
0.0
149
0.0
100
AcDbLayout
  1
Model
 70
     1
 71
     0
 10
0.0
 20
0.0
 11
12.0
 21
9.0
 12
0.0
 22
0.0
 32
0.0
 14
0.0
 24
0.0
 34
0.0
 15
0.0
 25
0.0
 35
0.0
146
0.0
 13
0.0
 23
0.0
 33
0.0
 16
1.0
 26
0.0
 36
0.0
 17
0.0
 27
1.0
 37
0.0
 76
     0
330
70
  0
MATERIAL
  5
19
102
{ACAD_XDICTIONARY
360
1A
102
}
102
{ACAD_REACTORS
330
10
102
}
330
10
100
AcDbMaterial
  1
ByBlock
 72
     0
 43
0.0208333333333333
 43
0.0
 43
0.0
 43
0.0
 43
0.0
 43
0.0208333333333333
 43
0.0
 43
0.0
 43
0.0
 43
0.0
 43
1.0
 43
0.0
 43
0.0
 43
0.0
 43
0.0
 43
1.0
 77
     0
 47
0.0208333333333333
 47
0.0
 47
0.0
 47
0.0
 47
0.0
 47
0.0208333333333333
 47
0.0
 47
0.0
 47
0.0
 47
0.0
 47
1.0
 47
0.0
 47
0.0
 47
0.0
 47
0.0
 47
1.0
171
     0
 49
0.0208333333333333
 49
0.0
 49
0.0
 49
0.0
 49
0.0
 49
0.0208333333333333
 49
0.0
 49
0.0
 49
0.0
 49
0.0
 49
1.0
 49
0.0
 49
0.0
 49
0.0
 49
0.0
 49
1.0
175
     0
142
0.0208333333333333
142
0.0
142
0.0
142
0.0
142
0.0
142
0.0208333333333333
142
0.0
142
0.0
142
0.0
142
0.0
142
1.0
142
0.0
142
0.0
142
0.0
142
0.0
142
1.0
179
     0
144
0.0208333333333333
144
0.0
144
0.0
144
0.0
144
0.0
144
0.0208333333333333
144
0.0
144
0.0
144
0.0
144
0.0
144
1.0
144
0.0
144
0.0
144
0.0
144
0.0
144
1.0
147
0.0208333333333333
147
0.0
147
0.0
147
0.0
147
0.0
147
0.0208333333333333
147
0.0
147
0.0
147
0.0
147
0.0
147
1.0
147
0.0
147
0.0
147
0.0
147
0.0
147
1.0
  0
MATERIAL
  5
11
102
{ACAD_XDICTIONARY
360
12
102
}
102
{ACAD_REACTORS
330
10
102
}
330
10
100
AcDbMaterial
  1
ByLayer
 72
     0
 43
0.0208333333333333
 43
0.0
 43
0.0
 43
0.0
 43
0.0
 43
0.0208333333333333
 43
0.0
 43
0.0
 43
0.0
 43
0.0
 43
1.0
 43
0.0
 43
0.0
 43
0.0
 43
0.0
 43
1.0
 77
     0
 47
0.0208333333333333
 47
0.0
 47
0.0
 47
0.0
 47
0.0
 47
0.0208333333333333
 47
0.0
 47
0.0
 47
0.0
 47
0.0
 47
1.0
 47
0.0
 47
0.0
 47
0.0
 47
0.0
 47
1.0
171
     0
 49
0.0208333333333333
 49
0.0
 49
0.0
 49
0.0
 49
0.0
 49
0.0208333333333333
 49
0.0
 49
0.0
 49
0.0
 49
0.0
 49
1.0
 49
0.0
 49
0.0
 49
0.0
 49
0.0
 49
1.0
175
     0
142
0.0208333333333333
142
0.0
142
0.0
142
0.0
142
0.0
142
0.0208333333333333
142
0.0
142
0.0
142
0.0
142
0.0
142
1.0
142
0.0
142
0.0
142
0.0
142
0.0
142
1.0
179
     0
144
0.0208333333333333
144
0.0
144
0.0
144
0.0
144
0.0
144
0.0208333333333333
144
0.0
144
0.0
144
0.0
144
0.0
144
1.0
144
0.0
144
0.0
144
0.0
144
0.0
144
1.0
147
0.0208333333333333
147
0.0
147
0.0
147
0.0
147
0.0
147
0.0208333333333333
147
0.0
147
0.0
147
0.0
147
0.0
147
1.0
147
0.0
147
0.0
147
0.0
147
0.0
147
1.0
  0
MATERIAL
  5
21
102
{ACAD_XDICTIONARY
360
22
102
}
102
{ACAD_REACTORS
330
10
102
}
330
10
100
AcDbMaterial
  1
Global
 72
     0
 43
0.0208333333333333
 43
0.0
 43
0.0
 43
0.0
 43
0.0
 43
0.0208333333333333
 43
0.0
 43
0.0
 43
0.0
 43
0.0
 43
1.0
 43
0.0
 43
0.0
 43
0.0
 43
0.0
 43
1.0
 77
     0
 47
0.0208333333333333
 47
0.0
 47
0.0
 47
0.0
 47
0.0
 47
0.0208333333333333
 47
0.0
 47
0.0
 47
0.0
 47
0.0
 47
1.0
 47
0.0
 47
0.0
 47
0.0
 47
0.0
 47
1.0
171
     0
 49
0.0208333333333333
 49
0.0
 49
0.0
 49
0.0
 49
0.0
 49
0.0208333333333333
 49
0.0
 49
0.0
 49
0.0
 49
0.0
 49
1.0
 49
0.0
 49
0.0
 49
0.0
 49
0.0
 49
1.0
175
     0
142
0.0208333333333333
142
0.0
142
0.0
142
0.0
142
0.0
142
0.0208333333333333
142
0.0
142
0.0
142
0.0
142
0.0
142
1.0
142
0.0
142
0.0
142
0.0
142
0.0
142
1.0
179
     0
144
0.0208333333333333
144
0.0
144
0.0
144
0.0
144
0.0
144
0.0208333333333333
144
0.0
144
0.0
144
0.0
144
0.0
144
1.0
144
0.0
144
0.0
144
0.0
144
0.0
144
1.0
147
0.0208333333333333
147
0.0
147
0.0
147
0.0
147
0.0
147
0.0208333333333333
147
0.0
147
0.0
147
0.0
147
0.0
147
1.0
147
0.0
147
0.0
147
0.0
147
0.0
147
1.0
  0
MLEADERSTYLE
  5
67
102
{ACAD_REACTORS
330
66
102
}
330
66
100
AcDbMLeaderStyle
179
     2
170
     2
171
     1
172
     0
 90
        2
 40
0.0
 41
0.0
173
     1
 91
-1056964608
340
5B
 92
       -2
290
     1
 42
0.09
291
     1
 43
0.36
  3
Standard
 44
0.18
300

342
55
174
     1
178
     6
175
     1
176
     0
 93
-1056964608
 45
0.18
292
     0
297
     0
 46
0.18
 94
-1056964608
 47
1.0
 49
1.0
140
1.0
293
     1
141
0.0
294
     1
177
     0
142
1.0
295
     1
296
     0
143
0.125
271
     0
272
     9
273
     9
298
     1
  0
MLINESTYLE
  5
60
102
{ACAD_REACTORS
330
5F
102
}
330
5F
100
AcDbMlineStyle
  2
STANDARD
 70
     0
  3

 62
   256
 51
90.0
 52
90.0
 71
     2
 49
0.5
 62
   256
  6
BYLAYER
 49
-0.5
 62
   256
  6
BYLAYER
  0
ACDBPLACEHOLDER
  5
F
102
{ACAD_REACTORS
330
E
102
}
330
E
  0
SCALE
  5
43
102
{ACAD_REACTORS
330
42
102
}
330
42
100
AcDbScale
 70
     0
300
1:1
140
1.0
141
1.0
290
     1
  0
SCALE
  5
44
102
{ACAD_REACTORS
330
42
102
}
330
42
100
AcDbScale
 70
     0
300
1/128" = 1'-0"
140
0.0078125
141
12.0
290
     0
  0
SCALE
  5
45
102
{ACAD_REACTORS
330
42
102
}
330
42
100
AcDbScale
 70
     0
300
1/64" = 1'-0"
140
0.015625
141
12.0
290
     0
  0
SCALE
  5
46
102
{ACAD_REACTORS
330
42
102
}
330
42
100
AcDbScale
 70
     0
300
1/32" = 1'-0"
140
0.03125
141
12.0
290
     0
  0
SCALE
  5
47
102
{ACAD_REACTORS
330
42
102
}
330
42
100
AcDbScale
 70
     0
300
1/16" = 1'-0"
140
0.0625
141
12.0
290
     0
  0
SCALE
  5
48
102
{ACAD_REACTORS
330
42
102
}
330
42
100
AcDbScale
 70
     0
300
3/32" = 1'-0"
140
0.09375
141
12.0
290
     0
  0
SCALE
  5
49
102
{ACAD_REACTORS
330
42
102
}
330
42
100
AcDbScale
 70
     0
300
1/8" = 1'-0"
140
0.125
141
12.0
290
     0
  0
SCALE
  5
4A
102
{ACAD_REACTORS
330
42
102
}
330
42
100
AcDbScale
 70
     0
300
3/16" = 1'-0"
140
0.1875
141
12.0
290
     0
  0
SCALE
  5
4B
102
{ACAD_REACTORS
330
42
102
}
330
42
100
AcDbScale
 70
     0
300
1/4" = 1'-0"
140
0.25
141
12.0
290
     0
  0
SCALE
  5
4C
102
{ACAD_REACTORS
330
42
102
}
330
42
100
AcDbScale
 70
     0
300
3/8" = 1'-0"
140
0.375
141
12.0
290
     0
  0
SCALE
  5
4D
102
{ACAD_REACTORS
330
42
102
}
330
42
100
AcDbScale
 70
     0
300
1/2" = 1'-0"
140
0.5
141
12.0
290
     0
  0
SCALE
  5
4E
102
{ACAD_REACTORS
330
42
102
}
330
42
100
AcDbScale
 70
     0
300
3/4" = 1'-0"
140
0.75
141
12.0
290
     0
  0
SCALE
  5
4F
102
{ACAD_REACTORS
330
42
102
}
330
42
100
AcDbScale
 70
     0
300
1" = 1'-0"
140
1.0
141
12.0
290
     0
  0
SCALE
  5
50
102
{ACAD_REACTORS
330
42
102
}
330
42
100
AcDbScale
 70
     0
300
1-1/2" = 1'-0"
140
1.5
141
12.0
290
     0
  0
SCALE
  5
51
102
{ACAD_REACTORS
330
42
102
}
330
42
100
AcDbScale
 70
     0
300
3" = 1'-0"
140
3.0
141
12.0
290
     0
  0
SCALE
  5
52
102
{ACAD_REACTORS
330
42
102
}
330
42
100
AcDbScale
 70
     0
300
6" = 1'-0"
140
6.0
141
12.0
290
     0
  0
SCALE
  5
53
102
{ACAD_REACTORS
330
42
102
}
330
42
100
AcDbScale
 70
     0
300
1'-0" = 1'-0"
140
12.0
141
12.0
290
     0
  0
ACDBSECTIONVIEWSTYLE
  5
69
102
{ACAD_REACTORS
330
68
102
}
330
68
100
AcDbModelDocViewStyle
 70
     0
  3
Imperial24
290
     1
300
Imperial24
 90
        0
100
AcDbSectionViewStyle
 70
     0
 71
     0
 90
       78
 71
     1
340
55
 62
   256
 40
0.24
340
0
340
0
 62
   256
 40
0.24
300
I, O, Q, S, X, Z
 40
0.48
 90
        3
 40
0.18
 90
        1
 71
     2
340
5D
 90
       25
 62
   256
340
5D
 90
       50
 62
   256
 40
0.24
 40
0.0
 40
0.24
 71
     3
340
55
 62
   256
 40
0.24
 90
        1
 40
0.75
 90
        1
300
%<\AcVar ViewType \f "%tc1">% %<\AcVar ViewSectionStartId>%-%<\AcVar ViewSectionEndId>%\PSCALE %<\AcVar ViewScale \f "%sn">%
 71
     4
 62
   256
 62
   257
300
ANSI31
 40
1.0
 90
        0
290
     0
290
     0
 90
        6
 40
0.0
 40
1.570796326794896
 40
0.2617993877991494
 40
1.308996938995747
 40
-0.2617993877991494
 40
1.832595714594046
  0
TABLESTYLE
  5
65
102
{ACAD_XDICTIONARY
360
2D7
102
}
102
{ACAD_REACTORS
330
64
102
}
330
64
100
AcDbTableStyle
280
     0
  3
Standard
 70
     0
 71
     0
 40
0.06
 41
0.06
280
     0
281
     0
  7
Standard
140
0.18
170
     2
 62
     0
 63
     7
283
     0
 90
      512
 91
        0
  1

274
    -2
284
     1
 64
     0
275
    -2
285
     1
 65
     0
276
    -2
286
     1
 66
     0
277
    -2
287
     1
 67
     0
278
    -2
288
     1
 68
     0
279
    -2
289
     1
 69
     0
  7
Standard
140
0.25
170
     5
 62
     0
 63
     7
283
     0
 90
      512
 91
        0
  1

274
    -2
284
     1
 64
     0
275
    -2
285
     1
 65
     0
276
    -2
286
     1
 66
     0
277
    -2
287
     1
 67
     0
278
    -2
288
     1
 68
     0
279
    -2
289
     1
 69
     0
  7
Standard
140
0.18
170
     5
 62
     0
 63
     7
283
     0
 90
      512
 91
        0
  1

274
    -2
284
     1
 64
     0
275
    -2
285
     1
 65
     0
276
    -2
286
     1
 66
     0
277
    -2
287
     1
 67
     0
278
    -2
288
     1
 68
     0
279
    -2
289
     1
 69
     0
  0
VISUALSTYLE
  5
2F
102
{ACAD_REACTORS
330
29
102
}
330
29
100
AcDbVisualStyle
  2
2dWireframe
 70
     4
177
     3
291
     0
 70
    58
 90
        0
176
     1
 90
        2
176
     1
 90
        0
176
     1
 90
        0
176
     1
 40
0.6
176
     1
 40
30.0
176
     1
 62
     7
420
 16777215
176
     1
 90
        1
176
     1
 90
        4
176
     1
 62
     7
176
     1
 62
   257
176
     1
 90
        1
176
     1
 90
        1
176
     1
 40
1.0
176
     1
 90
        0
176
     1
 62
   257
176
     1
 40
1.0
176
     1
 90
        1
176
     1
 90
        6
176
     1
 90
        2
176
     1
 62
     7
176
     1
 90
        5
176
     1
 90
        0
176
     1
 90
        0
176
     1
290
     0
176
     1
 90
        1
176
     1
 40
0.0
176
     1
 90
        0
176
     1
290
     1
176
     1
290
     1
176
     1
290
     0
176
     1
290
     0
176
     1
290
     0
176
     1
290
     0
176
     1
290
     0
176
     1
290
     0
176
     1
290
     0
176
     1
 90
       50
176
     1
 40
0.0
176
     1
 40
1.0
176
     1
 90
        0
176
     1
 62
    18
420
        0
176
     1
 90
       50
176
     1
 90
        3
176
     1
 62
     5
420
      255
176
     1
290
     0
176
     1
 90
       50
176
     1
 90
       50
176
     1
 90
       50
176
     1
290
     0
176
     1
 90
       50
176
     1
 62
   256
176
     0
 40
1.0
176
     0
 90
        2
176
     1
  1
strokes_ogs.tif
176
     1
290
     0
176
     1
 40
1.0
176
     1
 40
1.0
176
     1
  0
VISUALSTYLE
  5
2E
102
{ACAD_REACTORS
330
29
102
}
330
29
100
AcDbVisualStyle
  2
Basic
 70
     7
177
     3
291
     1
 70
    58
 90
        1
176
     1
 90
        0
176
     1
 90
        1
176
     1
 90
        0
176
     1
 40
0.6
176
     1
 40
30.0
176
     1
 62
     7
420
 16777215
176
     1
 90
        0
176
     1
 90
        4
176
     1
 62
     7
176
     1
 62
   257
176
     1
 90
        1
176
     1
 90
        1
176
     1
 40
1.0
176
     1
 90
        8
176
     1
 62
     7
176
     1
 40
1.0
176
     1
 90
        1
176
     1
 90
        6
176
     1
 90
        2
176
     1
 62
     7
176
     1
 90
        5
176
     1
 90
        0
176
     1
 90
        0
176
     1
290
     0
176
     1
 90
        1
176
     1
 40
0.0
176
     1
 90
        0
176
     1
290
     0
176
     1
290
     1
176
     1
290
     1
176
     1
290
     0
176
     1
290
     0
176
     1
290
     0
176
     1
290
     0
176
     1
290
     0
176
     1
290
     0
176
     1
 90
       50
176
     1
 40
0.0
176
     1
 40
1.0
176
     1
 90
        0
176
     1
 62
    18
420
        0
176
     1
 90
       50
176
     1
 90
        3
176
     1
 62
     5
420
      255
176
     1
290
     0
176
     1
 90
       50
176
     1
 90
       50
176
     1
 90
       50
176
     1
290
     0
176
     1
 90
       50
176
     1
 62
   256
176
     0
 40
1.0
176
     0
 90
        2
176
     1
  1
strokes_ogs.tif
176
     1
290
     0
176
     1
 40
1.0
176
     1
 40
1.0
176
     1
  0
VISUALSTYLE
  5
35
102
{ACAD_REACTORS
330
29
102
}
330
29
100
AcDbVisualStyle
  2
Brighten
 70
    12
177
     3
291
     1
 70
    58
 90
        2
176
     1
 90
        2
176
     1
 90
        0
176
     1
 90
        0
176
     1
 40
0.6
176
     1
 40
30.0
176
     1
 62
     7
420
 16777215
176
     1
 90
        1
176
     1
 90
        4
176
     1
 62
     7
176
     1
 62
   257
176
     1
 90
        1
176
     1
 90
        1
176
     1
 40
1.0
176
     1
 90
        8
176
     1
 62
     7
176
     1
 40
1.0
176
     1
 90
        1
176
     1
 90
        6
176
     1
 90
        2
176
     1
 62
     7
176
     1
 90
        5
176
     1
 90
        0
176
     1
 90
        0
176
     1
290
     0
176
     1
 90
        1
176
     1
 40
50.0
176
     1
 90
        0
176
     1
290
     0
176
     1
290
     1
176
     1
290
     1
176
     1
290
     0
176
     1
290
     0
176
     1
290
     0
176
     1
290
     0
176
     1
290
     0
176
     1
290
     0
176
     1
 90
       50
176
     1
 40
0.0
176
     1
 40
1.0
176
     1
 90
        0
176
     1
 62
    18
420
        0
176
     1
 90
       50
176
     1
 90
        3
176
     1
 62
     5
420
      255
176
     1
290
     0
176
     1
 90
       50
176
     1
 90
       50
176
     1
 90
       50
176
     1
290
     0
176
     1
 90
       50
176
     1
 62
   256
176
     0
 40
1.0
176
     0
 90
        2
176
     1
  1
strokes_ogs.tif
176
     1
290
     0
176
     1
 40
1.0
176
     1
 40
1.0
176
     1
  0
VISUALSTYLE
  5
39
102
{ACAD_REACTORS
330
29
102
}
330
29
100
AcDbVisualStyle
  2
ColorChange
 70
    16
177
     3
291
     1
 70
    58
 90
        2
176
     1
 90
        2
176
     1
 90
        3
176
     1
 90
        0
176
     1
 40
0.6
176
     1
 40
30.0
176
     1
 62
     8
420
  8421504
176
     1
 90
        1
176
     1
 90
        4
176
     1
 62
     7
176
     1
 62
   257
176
     1
 90
        1
176
     1
 90
        1
176
     1
 40
1.0
176
     1
 90
        8
176
     1
 62
     8
420
  8421504
176
     1
 40
1.0
176
     1
 90
        1
176
     1
 90
        6
176
     1
 90
        2
176
     1
 62
     7
176
     1
 90
        5
176
     1
 90
        0
176
     1
 90
        0
176
     1
290
     0
176
     1
 90
        1
176
     1
 40
0.0
176
     1
 90
        0
176
     1
290
     0
176
     1
290
     1
176
     1
290
     1
176
     1
290
     0
176
     1
290
     0
176
     1
290
     0
176
     1
290
     0
176
     1
290
     0
176
     1
290
     0
176
     1
 90
       50
176
     1
 40
0.0
176
     1
 40
1.0
176
     1
 90
        0
176
     1
 62
    18
420
        0
176
     1
 90
       50
176
     1
 90
        3
176
     1
 62
     5
420
      255
176
     1
290
     0
176
     1
 90
       50
176
     1
 90
       50
176
     1
 90
       50
176
     1
290
     0
176
     1
 90
       50
176
     1
 62
   256
176
     0
 40
1.0
176
     0
 90
        2
176
     1
  1
strokes_ogs.tif
176
     1
290
     0
176
     1
 40
1.0
176
     1
 40
1.0
176
     1
  0
VISUALSTYLE
  5
32
102
{ACAD_REACTORS
330
29
102
}
330
29
100
AcDbVisualStyle
  2
Conceptual
 70
     9
177
     3
291
     0
 70
    58
 90
        3
176
     1
 90
        2
176
     1
 90
        0
176
     1
 90
        0
176
     1
 40
0.6
176
     1
 40
30.0
176
     1
 62
     7
420
 16777215
176
     1
 90
        2
176
     1
 90
        2
176
     1
 62
     7
176
     1
 62
   257
176
     1
 90
        1
176
     1
 90
        1
176
     1
 40
179.0
176
     1
 90
        8
176
     1
 62
     7
176
     1
 40
1.0
176
     1
 90
        1
176
     1
 90
        6
176
     1
 90
        2
176
     1
 62
     7
176
     1
 90
        3
176
     1
 90
        0
176
     1
 90
        0
176
     1
290
     0
176
     1
 90
        1
176
     1
 40
0.0
176
     1
 90
        0
176
     1
290
     0
176
     1
290
     1
176
     1
290
     1
176
     1
290
     0
176
     1
290
     0
176
     1
290
     0
176
     1
290
     0
176
     1
290
     0
176
     1
290
     0
176
     1
 90
       50
176
     1
 40
0.0
176
     1
 40
1.0
176
     1
 90
        0
176
     1
 62
    18
420
        0
176
     1
 90
       50
176
     1
 90
        3
176
     1
 62
     5
420
      255
176
     1
290
     0
176
     1
 90
       50
176
     1
 90
       50
176
     1
 90
       50
176
     1
290
     0
176
     1
 90
       50
176
     1
 62
   256
176
     0
 40
1.0
176
     0
 90
        2
176
     1
  1
strokes_ogs.tif
176
     1
290
     0
176
     1
 40
1.0
176
     1
 40
1.0
176
     1
  0
VISUALSTYLE
  5
34
102
{ACAD_REACTORS
330
29
102
}
330
29
100
AcDbVisualStyle
  2
Dim
 70
    11
177
     3
291
     1
 70
    58
 90
        2
176
     1
 90
        2
176
     1
 90
        0
176
     1
 90
        0
176
     1
 40
0.6
176
     1
 40
30.0
176
     1
 62
     7
420
 16777215
176
     1
 90
        1
176
     1
 90
        4
176
     1
 62
     7
176
     1
 62
   257
176
     1
 90
        1
176
     1
 90
        1
176
     1
 40
1.0
176
     1
 90
        8
176
     1
 62
     7
176
     1
 40
1.0
176
     1
 90
        1
176
     1
 90
        6
176
     1
 90
        2
176
     1
 62
     7
176
     1
 90
        5
176
     1
 90
        0
176
     1
 90
        0
176
     1
290
     0
176
     1
 90
        1
176
     1
 40
-50.0
176
     1
 90
        0
176
     1
290
     0
176
     1
290
     1
176
     1
290
     1
176
     1
290
     0
176
     1
290
     0
176
     1
290
     0
176
     1
290
     0
176
     1
290
     0
176
     1
290
     0
176
     1
 90
       50
176
     1
 40
0.0
176
     1
 40
1.0
176
     1
 90
        0
176
     1
 62
    18
420
        0
176
     1
 90
       50
176
     1
 90
        3
176
     1
 62
     5
420
      255
176
     1
290
     0
176
     1
 90
       50
176
     1
 90
       50
176
     1
 90
       50
176
     1
290
     0
176
     1
 90
       50
176
     1
 62
   256
176
     0
 40
1.0
176
     0
 90
        2
176
     1
  1
strokes_ogs.tif
176
     1
290
     0
176
     1
 40
1.0
176
     1
 40
1.0
176
     1
  0
VISUALSTYLE
  5
41
102
{ACAD_REACTORS
330
29
102
}
330
29
100
AcDbVisualStyle
  2
EdgeColorOff
 70
    22
177
     3
291
     1
 70
    58
 90
        2
176
     0
 90
        2
176
     0
 90
        0
176
     0
 90
        0
176
     0
 40
0.6
176
     0
 40
30.0
176
     0
 62
     7
420
 16777215
176
     0
 90
        1
176
     0
 90
        4
176
     0
 62
     7
176
     0
 62
   257
176
     0
 90
        1
176
     0
 90
        1
176
     0
 40
1.0
176
     0
 90
        8
176
     2
 62
     7
176
     0
 40
1.0
176
     0
 90
        1
176
     0
 90
        6
176
     0
 90
        2
176
     0
 62
     7
176
     0
 90
        5
176
     0
 90
        0
176
     0
 90
        0
176
     0
290
     0
176
     0
 90
        1
176
     0
 40
0.0
176
     0
 90
        0
176
     0
290
     0
176
     0
290
     1
176
     0
290
     1
176
     0
290
     0
176
     0
290
     0
176
     0
290
     0
176
     0
290
     0
176
     0
290
     0
176
     0
290
     0
176
     0
 90
       50
176
     0
 40
0.0
176
     0
 40
1.0
176
     0
 90
        0
176
     0
 62
    18
420
        0
176
     0
 90
       50
176
     0
 90
        3
176
     0
 62
     5
420
      255
176
     0
290
     0
176
     0
 90
       50
176
     0
 90
       50
176
     0
 90
       50
176
     0
290
     0
176
     0
 90
       50
176
     0
 62
   256
176
     0
 40
1.0
176
     0
 90
        2
176
     0
  1
strokes_ogs.tif
176
     0
290
     0
176
     0
 40
1.0
176
     0
 40
1.0
176
     0
  0
VISUALSTYLE
  5
38
102
{ACAD_REACTORS
330
29
102
}
330
29
100
AcDbVisualStyle
  2
Facepattern
 70
    15
177
     3
291
     1
 70
    58
 90
        2
176
     1
 90
        2
176
     1
 90
        0
176
     1
 90
        0
176
     1
 40
0.6
176
     1
 40
30.0
176
     1
 62
     7
420
 16777215
176
     1
 90
        1
176
     1
 90
        4
176
     1
 62
     7
176
     1
 62
   257
176
     1
 90
        1
176
     1
 90
        1
176
     1
 40
1.0
176
     1
 90
        8
176
     1
 62
     7
176
     1
 40
1.0
176
     1
 90
        1
176
     1
 90
        6
176
     1
 90
        2
176
     1
 62
     7
176
     1
 90
        5
176
     1
 90
        0
176
     1
 90
        0
176
     1
290
     0
176
     1
 90
        1
176
     1
 40
0.0
176
     1
 90
        0
176
     1
290
     0
176
     1
290
     1
176
     1
290
     1
176
     1
290
     0
176
     1
290
     0
176
     1
290
     0
176
     1
290
     0
176
     1
290
     0
176
     1
290
     0
176
     1
 90
       50
176
     1
 40
0.0
176
     1
 40
1.0
176
     1
 90
        0
176
     1
 62
    18
420
        0
176
     1
 90
       50
176
     1
 90
        3
176
     1
 62
     5
420
      255
176
     1
290
     0
176
     1
 90
       50
176
     1
 90
       50
176
     1
 90
       50
176
     1
290
     0
176
     1
 90
       50
176
     1
 62
   256
176
     0
 40
1.0
176
     0
 90
        2
176
     1
  1
strokes_ogs.tif
176
     1
290
     0
176
     1
 40
1.0
176
     1
 40
1.0
176
     1
  0
VISUALSTYLE
  5
2A
102
{ACAD_REACTORS
330
29
102
}
330
29
100
AcDbVisualStyle
  2
Flat
 70
     0
177
     3
291
     1
 70
    58
 90
        2
176
     1
 90
        1
176
     1
 90
        1
176
     1
 90
        2
176
     1
 40
0.6
176
     1
 40
30.0
176
     1
 62
     7
420
 16777215
176
     1
 90
        0
176
     1
 90
        0
176
     1
 62
     7
176
     1
 62
   257
176
     1
 90
        1
176
     1
 90
        1
176
     1
 40
1.0
176
     1
 90
        8
176
     1
 62
     7
176
     1
 40
1.0
176
     1
 90
        1
176
     1
 90
        6
176
     1
 90
        2
176
     1
 62
     7
176
     1
 90
        5
176
     1
 90
        0
176
     1
 90
        0
176
     1
290
     0
176
     1
 90
       13
176
     1
 40
0.0
176
     1
 90
        0
176
     1
290
     0
176
     1
290
     1
176
     1
290
     1
176
     1
290
     0
176
     1
290
     0
176
     1
290
     0
176
     1
290
     0
176
     1
290
     0
176
     1
290
     0
176
     1
 90
       50
176
     1
 40
0.0
176
     1
 40
1.0
176
     1
 90
        0
176
     1
 62
    18
420
        0
176
     1
 90
       50
176
     1
 90
        3
176
     1
 62
     5
420
      255
176
     1
290
     0
176
     1
 90
       50
176
     1
 90
       50
176
     1
 90
       50
176
     1
290
     0
176
     1
 90
       50
176
     1
 62
   256
176
     0
 40
1.0
176
     0
 90
        2
176
     1
  1
strokes_ogs.tif
176
     1
290
     0
176
     1
 40
1.0
176
     1
 40
1.0
176
     1
  0
VISUALSTYLE
  5
2B
102
{ACAD_REACTORS
330
29
102
}
330
29
100
AcDbVisualStyle
  2
FlatWithEdges
 70
     1
177
     3
291
     1
 70
    58
 90
        2
176
     1
 90
        1
176
     1
 90
        1
176
     1
 90
        2
176
     1
 40
0.6
176
     1
 40
30.0
176
     1
 62
     7
420
 16777215
176
     1
 90
        1
176
     1
 90
        0
176
     1
 62
     7
176
     1
 62
   257
176
     1
 90
        1
176
     1
 90
        1
176
     1
 40
1.0
176
     1
 90
        0
176
     1
 62
   257
176
     1
 40
1.0
176
     1
 90
        1
176
     1
 90
        6
176
     1
 90
        2
176
     1
 62
     7
176
     1
 90
        5
176
     1
 90
        0
176
     1
 90
        0
176
     1
290
     0
176
     1
 90
       13
176
     1
 40
0.0
176
     1
 90
        0
176
     1
290
     0
176
     1
290
     1
176
     1
290
     1
176
     1
290
     0
176
     1
290
     0
176
     1
290
     0
176
     1
290
     0
176
     1
290
     0
176
     1
290
     0
176
     1
 90
       50
176
     1
 40
0.0
176
     1
 40
1.0
176
     1
 90
        0
176
     1
 62
    18
420
        0
176
     1
 90
       50
176
     1
 90
        3
176
     1
 62
     5
420
      255
176
     1
290
     0
176
     1
 90
       50
176
     1
 90
       50
176
     1
 90
       50
176
     1
290
     0
176
     1
 90
       50
176
     1
 62
   256
176
     0
 40
1.0
176
     0
 90
        2
176
     1
  1
strokes_ogs.tif
176
     1
290
     0
176
     1
 40
1.0
176
     1
 40
1.0
176
     1
  0
VISUALSTYLE
  5
2C
102
{ACAD_REACTORS
330
29
102
}
330
29
100
AcDbVisualStyle
  2
Gouraud
 70
     2
177
     3
291
     1
 70
    58
 90
        2
176
     1
 90
        2
176
     1
 90
        1
176
     1
 90
        2
176
     1
 40
0.6
176
     1
 40
30.0
176
     1
 62
     7
420
 16777215
176
     1
 90
        0
176
     1
 90
        0
176
     1
 62
     7
176
     1
 62
   257
176
     1
 90
        1
176
     1
 90
        1
176
     1
 40
1.0
176
     1
 90
        0
176
     1
 62
     7
176
     1
 40
1.0
176
     1
 90
        1
176
     1
 90
        6
176
     1
 90
        2
176
     1
 62
     7
176
     1
 90
        5
176
     1
 90
        0
176
     1
 90
        0
176
     1
290
     0
176
     1
 90
       13
176
     1
 40
0.0
176
     1
 90
        0
176
     1
290
     0
176
     1
290
     1
176
     1
290
     1
176
     1
290
     0
176
     1
290
     0
176
     1
290
     0
176
     1
290
     0
176
     1
290
     0
176
     1
290
     0
176
     1
 90
       50
176
     1
 40
0.0
176
     1
 40
1.0
176
     1
 90
        0
176
     1
 62
    18
420
        0
176
     1
 90
       50
176
     1
 90
        3
176
     1
 62
     5
420
      255
176
     1
290
     0
176
     1
 90
       50
176
     1
 90
       50
176
     1
 90
       50
176
     1
290
     0
176
     1
 90
       50
176
     1
 62
   256
176
     0
 40
1.0
176
     0
 90
        2
176
     1
  1
strokes_ogs.tif
176
     1
290
     0
176
     1
 40
1.0
176
     1
 40
1.0
176
     1
  0
VISUALSTYLE
  5
2D
102
{ACAD_REACTORS
330
29
102
}
330
29
100
AcDbVisualStyle
  2
GouraudWithEdges
 70
     3
177
     3
291
     1
 70
    58
 90
        2
176
     1
 90
        2
176
     1
 90
        1
176
     1
 90
        2
176
     1
 40
0.6
176
     1
 40
30.0
176
     1
 62
     7
420
 16777215
176
     1
 90
        1
176
     1
 90
        0
176
     1
 62
     7
176
     1
 62
   257
176
     1
 90
        1
176
     1
 90
        1
176
     1
 40
1.0
176
     1
 90
        0
176
     1
 62
   257
176
     1
 40
1.0
176
     1
 90
        1
176
     1
 90
        6
176
     1
 90
        2
176
     1
 62
     7
176
     1
 90
        5
176
     1
 90
        0
176
     1
 90
        0
176
     1
290
     0
176
     1
 90
       13
176
     1
 40
0.0
176
     1
 90
        0
176
     1
290
     0
176
     1
290
     1
176
     1
290
     1
176
     1
290
     0
176
     1
290
     0
176
     1
290
     0
176
     1
290
     0
176
     1
290
     0
176
     1
290
     0
176
     1
 90
       50
176
     1
 40
0.0
176
     1
 40
1.0
176
     1
 90
        0
176
     1
 62
    18
420
        0
176
     1
 90
       50
176
     1
 90
        3
176
     1
 62
     5
420
      255
176
     1
290
     0
176
     1
 90
       50
176
     1
 90
       50
176
     1
 90
       50
176
     1
290
     0
176
     1
 90
       50
176
     1
 62
   256
176
     0
 40
1.0
176
     0
 90
        2
176
     1
  1
strokes_ogs.tif
176
     1
290
     0
176
     1
 40
1.0
176
     1
 40
1.0
176
     1
  0
VISUALSTYLE
  5
31
102
{ACAD_REACTORS
330
29
102
}
330
29
100
AcDbVisualStyle
  2
Hidden
 70
     6
177
     3
291
     0
 70
    58
 90
        1
176
     1
 90
        2
176
     1
 90
        2
176
     1
 90
        0
176
     1
 40
0.6
176
     1
 40
30.0
176
     1
 62
     7
420
 16777215
176
     1
 90
        2
176
     1
 90
        2
176
     1
 62
     7
176
     1
 62
   257
176
     1
 90
        2
176
     1
 90
        1
176
     1
 40
40.0
176
     1
 90
        0
176
     1
 62
   257
176
     1
 40
1.0
176
     1
 90
        1
176
     1
 90
        6
176
     1
 90
        2
176
     1
 62
     7
176
     1
 90
        3
176
     1
 90
        0
176
     1
 90
        0
176
     1
290
     0
176
     1
 90
        1
176
     1
 40
0.0
176
     1
 90
        0
176
     1
290
     0
176
     1
290
     1
176
     1
290
     1
176
     1
290
     0
176
     1
290
     0
176
     1
290
     0
176
     1
290
     0
176
     1
290
     0
176
     1
290
     0
176
     1
 90
       50
176
     1
 40
0.0
176
     1
 40
1.0
176
     1
 90
        0
176
     1
 62
    18
420
        0
176
     1
 90
       50
176
     1
 90
        3
176
     1
 62
     5
420
      255
176
     1
290
     0
176
     1
 90
       50
176
     1
 90
       50
176
     1
 90
       50
176
     1
290
     0
176
     1
 90
       50
176
     1
 62
   256
176
     0
 40
1.0
176
     0
 90
        2
176
     1
  1
strokes_ogs.tif
176
     1
290
     0
176
     1
 40
1.0
176
     1
 40
1.0
176
     1
  0
VISUALSTYLE
  5
3F
102
{ACAD_REACTORS
330
29
102
}
330
29
100
AcDbVisualStyle
  2
JitterOff
 70
    20
177
     3
291
     1
 70
    58
 90
        2
176
     0
 90
        2
176
     0
 90
        0
176
     0
 90
        0
176
     0
 40
0.6
176
     0
 40
30.0
176
     0
 62
     7
420
 16777215
176
     0
 90
        1
176
     0
 90
        4
176
     0
 62
     7
176
     0
 62
   257
176
     0
 90
        1
176
     0
 90
        1
176
     0
 40
1.0
176
     0
 90
       10
176
     2
 62
     7
176
     0
 40
1.0
176
     0
 90
        1
176
     0
 90
        6
176
     0
 90
        2
176
     0
 62
     7
176
     0
 90
        5
176
     0
 90
        0
176
     0
 90
        0
176
     0
290
     0
176
     0
 90
        1
176
     0
 40
0.0
176
     0
 90
        0
176
     0
290
     0
176
     0
290
     1
176
     0
290
     1
176
     0
290
     0
176
     0
290
     0
176
     0
290
     0
176
     0
290
     0
176
     0
290
     0
176
     0
290
     0
176
     0
 90
       50
176
     0
 40
0.0
176
     0
 40
1.0
176
     0
 90
        0
176
     0
 62
    18
420
        0
176
     0
 90
       50
176
     0
 90
        3
176
     0
 62
     5
420
      255
176
     0
290
     0
176
     0
 90
       50
176
     0
 90
       50
176
     0
 90
       50
176
     0
290
     0
176
     0
 90
       50
176
     0
 62
   256
176
     0
 40
1.0
176
     0
 90
        2
176
     0
  1
strokes_ogs.tif
176
     0
290
     0
176
     0
 40
1.0
176
     0
 40
1.0
176
     0
  0
VISUALSTYLE
  5
37
102
{ACAD_REACTORS
330
29
102
}
330
29
100
AcDbVisualStyle
  2
Linepattern
 70
    14
177
     3
291
     1
 70
    58
 90
        2
176
     1
 90
        2
176
     1
 90
        0
176
     1
 90
        0
176
     1
 40
0.6
176
     1
 40
30.0
176
     1
 62
     7
420
 16777215
176
     1
 90
        1
176
     1
 90
        4
176
     1
 62
     7
176
     1
 62
   257
176
     1
 90
        7
176
     1
 90
        7
176
     1
 40
1.0
176
     1
 90
        8
176
     1
 62
     7
176
     1
 40
1.0
176
     1
 90
        1
176
     1
 90
        6
176
     1
 90
        2
176
     1
 62
     7
176
     1
 90
        5
176
     1
 90
        0
176
     1
 90
        0
176
     1
290
     0
176
     1
 90
        1
176
     1
 40
0.0
176
     1
 90
        0
176
     1
290
     0
176
     1
290
     1
176
     1
290
     1
176
     1
290
     0
176
     1
290
     0
176
     1
290
     0
176
     1
290
     0
176
     1
290
     0
176
     1
290
     0
176
     1
 90
       50
176
     1
 40
0.0
176
     1
 40
1.0
176
     1
 90
        0
176
     1
 62
    18
420
        0
176
     1
 90
       50
176
     1
 90
        3
176
     1
 62
     5
420
      255
176
     1
290
     0
176
     1
 90
       50
176
     1
 90
       50
176
     1
 90
       50
176
     1
290
     0
176
     1
 90
       50
176
     1
 62
   256
176
     0
 40
1.0
176
     0
 90
        2
176
     1
  1
strokes_ogs.tif
176
     1
290
     0
176
     1
 40
1.0
176
     1
 40
1.0
176
     1
  0
VISUALSTYLE
  5
40
102
{ACAD_REACTORS
330
29
102
}
330
29
100
AcDbVisualStyle
  2
OverhangOff
 70
    21
177
     3
291
     1
 70
    58
 90
        2
176
     0
 90
        2
176
     0
 90
        0
176
     0
 90
        0
176
     0
 40
0.6
176
     0
 40
30.0
176
     0
 62
     7
420
 16777215
176
     0
 90
        1
176
     0
 90
        4
176
     0
 62
     7
176
     0
 62
   257
176
     0
 90
        1
176
     0
 90
        1
176
     0
 40
1.0
176
     0
 90
        9
176
     2
 62
     7
176
     0
 40
1.0
176
     0
 90
        1
176
     0
 90
        6
176
     0
 90
        2
176
     0
 62
     7
176
     0
 90
        5
176
     0
 90
        0
176
     0
 90
        0
176
     0
290
     0
176
     0
 90
        1
176
     0
 40
0.0
176
     0
 90
        0
176
     0
290
     0
176
     0
290
     1
176
     0
290
     1
176
     0
290
     0
176
     0
290
     0
176
     0
290
     0
176
     0
290
     0
176
     0
290
     0
176
     0
290
     0
176
     0
 90
       50
176
     0
 40
0.0
176
     0
 40
1.0
176
     0
 90
        0
176
     0
 62
    18
420
        0
176
     0
 90
       50
176
     0
 90
        3
176
     0
 62
     5
420
      255
176
     0
290
     0
176
     0
 90
       50
176
     0
 90
       50
176
     0
 90
       50
176
     0
290
     0
176
     0
 90
       50
176
     0
 62
   256
176
     0
 40
1.0
176
     0
 90
        2
176
     0
  1
strokes_ogs.tif
176
     0
290
     0
176
     0
 40
1.0
176
     0
 40
1.0
176
     0
  0
VISUALSTYLE
  5
33
102
{ACAD_REACTORS
330
29
102
}
330
29
100
AcDbVisualStyle
  2
Realistic
 70
     8
177
     3
291
     0
 70
    58
 90
        2
176
     1
 90
        3
176
     1
 90
        0
176
     1
 90
        2
176
     1
 40
0.6
176
     1
 40
30.0
176
     1
 62
     7
420
 16777215
176
     1
 90
        0
176
     1
 90
        0
176
     1
 62
     7
176
     1
 62
   257
176
     1
 90
        1
176
     1
 90
        1
176
     1
 40
1.0
176
     1
 90
        8
176
     1
 62
   257
176
     1
 40
1.0
176
     1
 90
        1
176
     1
 90
        6
176
     1
 90
        2
176
     1
 62
     7
176
     1
 90
        3
176
     1
 90
        0
176
     1
 90
        0
176
     1
290
     0
176
     1
 90
       13
176
     1
 40
0.0
176
     1
 90
        0
176
     1
290
     0
176
     1
290
     1
176
     1
290
     1
176
     1
290
     0
176
     1
290
     0
176
     1
290
     0
176
     1
290
     0
176
     1
290
     0
176
     1
290
     0
176
     1
 90
       50
176
     1
 40
0.0
176
     1
 40
1.0
176
     1
 90
        0
176
     1
 62
    18
420
        0
176
     1
 90
       50
176
     1
 90
        3
176
     1
 62
     5
420
      255
176
     1
290
     0
176
     1
 90
       50
176
     1
 90
       50
176
     1
 90
       50
176
     1
290
     0
176
     1
 90
       50
176
     1
 62
   256
176
     0
 40
1.0
176
     0
 90
        2
176
     1
  1
strokes_ogs.tif
176
     1
290
     0
176
     1
 40
1.0
176
     1
 40
1.0
176
     1
  0
VISUALSTYLE
  5
3E
102
{ACAD_REACTORS
330
29
102
}
330
29
100
AcDbVisualStyle
  2
Shaded
 70
    27
177
     3
291
     0
 70
    58
 90
        2
176
     1
 90
        2
176
     1
 90
        1
176
     1
 90
        2
176
     1
 40
0.6
176
     1
 40
30.0
176
     1
 62
     7
420
 16777215
176
     1
 90
        0
176
     1
 90
        4
176
     1
 62
     7
176
     1
 62
   257
176
     1
 90
        1
176
     1
 90
        1
176
     1
 40
1.0
176
     1
 90
        8
176
     1
 62
   257
176
     1
 40
1.0
176
     1
 90
        1
176
     1
 90
        6
176
     1
 90
        2
176
     1
 62
     8
420
  7895160
176
     1
 90
        3
176
     1
 90
        0
176
     1
 90
        0
176
     1
290
     0
176
     1
 90
        5
176
     1
 40
0.0
176
     1
 90
        0
176
     1
290
     0
176
     1
290
     1
176
     1
290
     1
176
     1
290
     0
176
     1
290
     0
176
     1
290
     0
176
     1
290
     0
176
     1
290
     0
176
     1
290
     0
176
     1
 90
       50
176
     1
 40
0.0
176
     1
 40
1.0
176
     1
 90
        0
176
     1
 62
    18
420
        0
176
     1
 90
       50
176
     1
 90
        3
176
     1
 62
     5
420
      255
176
     1
290
     0
176
     1
 90
       50
176
     1
 90
       50
176
     1
 90
       50
176
     1
290
     0
176
     1
 90
       50
176
     1
 62
   256
176
     0
 40
1.0
176
     0
 90
        2
176
     1
  1
strokes_ogs.tif
176
     1
290
     0
176
     1
 40
1.0
176
     1
 40
1.0
176
     1
  0
VISUALSTYLE
  5
3D
102
{ACAD_REACTORS
330
29
102
}
330
29
100
AcDbVisualStyle
  2
Shaded with edges
 70
    26
177
     3
291
     0
 70
    58
 90
        2
176
     1
 90
        2
176
     1
 90
        1
176
     1
 90
        2
176
     1
 40
0.6
176
     1
 40
30.0
176
     1
 62
     7
420
 16777215
176
     1
 90
        1
176
     1
 90
        2
176
     1
 62
     7
176
     1
 62
   257
176
     1
 90
        2
176
     1
 90
        1
176
     1
 40
1.0
176
     1
 90
        8
176
     1
 62
   257
176
     1
 40
1.0
176
     1
 90
        1
176
     1
 90
        6
176
     1
 90
        2
176
     1
 62
     7
176
     1
 90
        3
176
     1
 90
        0
176
     1
 90
        0
176
     1
290
     0
176
     1
 90
        5
176
     1
 40
0.0
176
     1
 90
        0
176
     1
290
     0
176
     1
290
     1
176
     1
290
     1
176
     1
290
     0
176
     1
290
     0
176
     1
290
     0
176
     1
290
     0
176
     1
290
     0
176
     1
290
     0
176
     1
 90
       50
176
     1
 40
0.0
176
     1
 40
1.0
176
     1
 90
        0
176
     1
 62
    18
420
        0
176
     1
 90
       50
176
     1
 90
        3
176
     1
 62
     5
420
      255
176
     1
290
     0
176
     1
 90
       50
176
     1
 90
       50
176
     1
 90
       50
176
     1
290
     0
176
     1
 90
       50
176
     1
 62
   256
176
     0
 40
1.0
176
     0
 90
        2
176
     1
  1
strokes_ogs.tif
176
     1
290
     0
176
     1
 40
1.0
176
     1
 40
1.0
176
     1
  0
VISUALSTYLE
  5
3A
102
{ACAD_REACTORS
330
29
102
}
330
29
100
AcDbVisualStyle
  2
Shades of Gray
 70
    23
177
     3
291
     0
 70
    58
 90
        2
176
     1
 90
        2
176
     1
 90
        3
176
     1
 90
        0
176
     1
 40
0.6
176
     1
 40
30.0
176
     1
 62
     7
420
 16777215
176
     1
 90
        2
176
     1
 90
        2
176
     1
 62
     7
176
     1
 62
     7
176
     1
 90
        1
176
     1
 90
        1
176
     1
 40
40.0
176
     1
 90
        8
176
     1
 62
     7
176
     1
 40
1.0
176
     1
 90
        1
176
     1
 90
        6
176
     1
 90
        2
176
     1
 62
     7
176
     1
 90
        3
176
     1
 90
        0
176
     1
 90
        0
176
     1
290
     0
176
     1
 90
        1
176
     1
 40
0.0
176
     1
 90
        0
176
     1
290
     0
176
     1
290
     1
176
     1
290
     1
176
     1
290
     0
176
     1
290
     0
176
     1
290
     0
176
     1
290
     0
176
     1
290
     0
176
     1
290
     0
176
     1
 90
       50
176
     1
 40
0.0
176
     1
 40
1.0
176
     1
 90
        0
176
     1
 62
    18
420
        0
176
     1
 90
       50
176
     1
 90
        3
176
     1
 62
     5
420
      255
176
     1
290
     0
176
     1
 90
       50
176
     1
 90
       50
176
     1
 90
       50
176
     1
290
     0
176
     1
 90
       50
176
     1
 62
   256
176
     0
 40
1.0
176
     0
 90
        2
176
     1
  1
strokes_ogs.tif
176
     1
290
     0
176
     1
 40
1.0
176
     1
 40
1.0
176
     1
  0
VISUALSTYLE
  5
3B
102
{ACAD_REACTORS
330
29
102
}
330
29
100
AcDbVisualStyle
  2
Sketchy
 70
    24
177
     3
291
     0
 70
    58
 90
        1
176
     1
 90
        2
176
     1
 90
        2
176
     1
 90
        0
176
     1
 40
0.6
176
     1
 40
30.0
176
     1
 62
     7
420
 16777215
176
     1
 90
        2
176
     1
 90
        2
176
     1
 62
     7
176
     1
 62
     7
176
     1
 90
        1
176
     1
 90
        1
176
     1
 40
40.0
176
     1
 90
       11
176
     1
 62
     7
176
     1
 40
1.0
176
     1
 90
        1
176
     1
 90
        6
176
     1
 90
        2
176
     1
 62
     7
176
     1
 90
        6
176
     1
 90
        0
176
     1
 90
        0
176
     1
290
     0
176
     1
 90
        1
176
     1
 40
0.0
176
     1
 90
        0
176
     1
290
     0
176
     1
290
     1
176
     1
290
     1
176
     1
290
     0
176
     1
290
     0
176
     1
290
     0
176
     1
290
     0
176
     1
290
     0
176
     1
290
     0
176
     1
 90
       50
176
     1
 40
0.0
176
     1
 40
1.0
176
     1
 90
        0
176
     1
 62
    18
420
        0
176
     1
 90
       50
176
     1
 90
        3
176
     1
 62
     5
420
      255
176
     1
290
     0
176
     1
 90
       50
176
     1
 90
       50
176
     1
 90
       50
176
     1
290
     0
176
     1
 90
       50
176
     1
 62
   256
176
     0
 40
1.0
176
     0
 90
        2
176
     1
  1
strokes_ogs.tif
176
     1
290
     0
176
     1
 40
1.0
176
     1
 40
1.0
176
     1
  0
VISUALSTYLE
  5
36
102
{ACAD_REACTORS
330
29
102
}
330
29
100
AcDbVisualStyle
  2
Thicken
 70
    13
177
     3
291
     1
 70
    58
 90
        2
176
     1
 90
        2
176
     1
 90
        0
176
     1
 90
        0
176
     1
 40
0.6
176
     1
 40
30.0
176
     1
 62
     7
420
 16777215
176
     1
 90
        1
176
     1
 90
        4
176
     1
 62
     7
176
     1
 62
   257
176
     1
 90
        1
176
     1
 90
        1
176
     1
 40
1.0
176
     1
 90
       12
176
     1
 62
     7
176
     1
 40
1.0
176
     1
 90
        1
176
     1
 90
        6
176
     1
 90
        2
176
     1
 62
     7
176
     1
 90
        5
176
     1
 90
        0
176
     1
 90
        0
176
     1
290
     0
176
     1
 90
        1
176
     1
 40
0.0
176
     1
 90
        0
176
     1
290
     0
176
     1
290
     1
176
     1
290
     1
176
     1
290
     0
176
     1
290
     0
176
     1
290
     0
176
     1
290
     0
176
     1
290
     0
176
     1
290
     0
176
     1
 90
       50
176
     1
 40
0.0
176
     1
 40
1.0
176
     1
 90
        0
176
     1
 62
    18
420
        0
176
     1
 90
       50
176
     1
 90
        3
176
     1
 62
     5
420
      255
176
     1
290
     0
176
     1
 90
       50
176
     1
 90
       50
176
     1
 90
       50
176
     1
290
     0
176
     1
 90
       50
176
     1
 62
   256
176
     0
 40
1.0
176
     0
 90
        2
176
     1
  1
strokes_ogs.tif
176
     1
290
     0
176
     1
 40
1.0
176
     1
 40
1.0
176
     1
  0
VISUALSTYLE
  5
30
102
{ACAD_REACTORS
330
29
102
}
330
29
100
AcDbVisualStyle
  2
Wireframe
 70
     5
177
     3
291
     0
 70
    58
 90
        0
176
     1
 90
        2
176
     1
 90
        0
176
     1
 90
        0
176
     1
 40
0.6
176
     1
 40
30.0
176
     1
 62
     7
420
 16777215
176
     1
 90
        1
176
     1
 90
        4
176
     1
 62
     7
176
     1
 62
   257
176
     1
 90
        1
176
     1
 90
        1
176
     1
 40
1.0
176
     1
 90
        0
176
     1
 62
   257
176
     1
 40
1.0
176
     1
 90
        1
176
     1
 90
        6
176
     1
 90
        2
176
     1
 62
     7
176
     1
 90
        3
176
     1
 90
        0
176
     1
 90
        0
176
     1
290
     0
176
     1
 90
        1
176
     1
 40
0.0
176
     1
 90
        0
176
     1
290
     0
176
     1
290
     1
176
     1
290
     1
176
     1
290
     0
176
     1
290
     0
176
     1
290
     0
176
     1
290
     0
176
     1
290
     0
176
     1
290
     0
176
     1
 90
       50
176
     1
 40
0.0
176
     1
 40
1.0
176
     1
 90
        0
176
     1
 62
    18
420
        0
176
     1
 90
       50
176
     1
 90
        3
176
     1
 62
     5
420
      255
176
     1
290
     0
176
     1
 90
       50
176
     1
 90
       50
176
     1
 90
       50
176
     1
290
     0
176
     1
 90
       50
176
     1
 62
   256
176
     0
 40
1.0
176
     0
 90
        2
176
     1
  1
strokes_ogs.tif
176
     1
290
     0
176
     1
 40
1.0
176
     1
 40
1.0
176
     1
  0
VISUALSTYLE
  5
3C
102
{ACAD_REACTORS
330
29
102
}
330
29
100
AcDbVisualStyle
  2
X-Ray
 70
    25
177
     3
291
     0
 70
    58
 90
        2
176
     1
 90
        2
176
     1
 90
        1
176
     1
 90
        1
176
     1
 40
0.5
176
     1
 40
30.0
176
     1
 62
     7
420
 16777215
176
     1
 90
        1
176
     1
 90
        0
176
     1
 62
     7
176
     1
 62
   257
176
     1
 90
        1
176
     1
 90
        1
176
     1
 40
1.0
176
     1
 90
        8
176
     1
 62
     7
176
     1
 40
1.0
176
     1
 90
        1
176
     1
 90
        6
176
     1
 90
        2
176
     1
 62
     7
176
     1
 90
        3
176
     1
 90
        0
176
     1
 90
        0
176
     1
290
     0
176
     1
 90
       13
176
     1
 40
0.0
176
     1
 90
        0
176
     1
290
     0
176
     1
290
     1
176
     1
290
     1
176
     1
290
     0
176
     1
290
     0
176
     1
290
     0
176
     1
290
     0
176
     1
290
     0
176
     1
290
     0
176
     1
 90
       50
176
     1
 40
0.0
176
     1
 40
1.0
176
     1
 90
        0
176
     1
 62
    18
420
        0
176
     1
 90
       50
176
     1
 90
        3
176
     1
 62
     5
420
      255
176
     1
290
     0
176
     1
 90
       50
176
     1
 90
       50
176
     1
 90
       50
176
     1
290
     0
176
     1
 90
       50
176
     1
 62
   256
176
     0
 40
1.0
176
     0
 90
        2
176
     1
  1
strokes_ogs.tif
176
     1
290
     0
176
     1
 40
1.0
176
     1
 40
1.0
176
     1
  0
DICTIONARYVAR
  5
2D6
102
{ACAD_REACTORS
330
2D1
102
}
330
2D1
100
DictionaryVariables
280
     0
  1
1:1
  0
DICTIONARYVAR
  5
2D3
102
{ACAD_REACTORS
330
2D1
102
}
330
2D1
100
DictionaryVariables
280
     0
  1
STANDARD
  0
DICTIONARYVAR
  5
2D2
102
{ACAD_REACTORS
330
2D1
102
}
330
2D1
100
DictionaryVariables
280
     0
  1
STANDARD
  0
DICTIONARYVAR
  5
2D4
102
{ACAD_REACTORS
330
2D1
102
}
330
2D1
100
DictionaryVariables
280
     0
  1
Imperial24
  0
DICTIONARYVAR
  5
2D5
102
{ACAD_REACTORS
330
2D1
102
}
330
2D1
100
DictionaryVariables
280
     0
  1
Imperial24
  0
DICTIONARY
  5
1A
330
19
100
AcDbDictionary
280
     1
281
     1
  3
BUMPTILE
360
1C
  3
DIFFUSETILE
360
1B
  3
OPACITYTILE
360
1F
  3
REFLECTIONTILE
360
1E
  3
REFRACTIONTILE
360
20
  3
SPECULARTILE
360
1D
  0
DICTIONARY
  5
12
330
11
100
AcDbDictionary
280
     1
281
     1
  3
BUMPTILE
360
14
  3
DIFFUSETILE
360
13
  3
OPACITYTILE
360
17
  3
REFLECTIONTILE
360
16
  3
REFRACTIONTILE
360
18
  3
SPECULARTILE
360
15
  0
DICTIONARY
  5
22
330
21
100
AcDbDictionary
280
     1
281
     1
  3
BUMPTILE
360
24
  3
DIFFUSETILE
360
23
  3
OPACITYTILE
360
27
  3
REFLECTIONTILE
360
26
  3
REFRACTIONTILE
360
28
  3
SPECULARTILE
360
25
  0
DICTIONARY
  5
2D7
330
65
100
AcDbDictionary
280
     1
281
     1
  3
ACAD_ROUNDTRIP_2008_TABLESTYLE_CELLSTYLEMAP
360
2D8
  0
XRECORD
  5
1C
102
{ACAD_REACTORS
330
1A
102
}
330
1A
100
AcDbXrecord
280
     1
270
     1
271
     1
  0
XRECORD
  5
1B
102
{ACAD_REACTORS
330
1A
102
}
330
1A
100
AcDbXrecord
280
     1
270
     1
271
     1
  0
XRECORD
  5
1F
102
{ACAD_REACTORS
330
1A
102
}
330
1A
100
AcDbXrecord
280
     1
270
     1
271
     1
  0
XRECORD
  5
1E
102
{ACAD_REACTORS
330
1A
102
}
330
1A
100
AcDbXrecord
280
     1
270
     1
271
     1
  0
XRECORD
  5
20
102
{ACAD_REACTORS
330
1A
102
}
330
1A
100
AcDbXrecord
280
     1
270
     1
271
     1
  0
XRECORD
  5
1D
102
{ACAD_REACTORS
330
1A
102
}
330
1A
100
AcDbXrecord
280
     1
270
     1
271
     1
  0
XRECORD
  5
14
102
{ACAD_REACTORS
330
12
102
}
330
12
100
AcDbXrecord
280
     1
270
     1
271
     1
  0
XRECORD
  5
13
102
{ACAD_REACTORS
330
12
102
}
330
12
100
AcDbXrecord
280
     1
270
     1
271
     1
  0
XRECORD
  5
17
102
{ACAD_REACTORS
330
12
102
}
330
12
100
AcDbXrecord
280
     1
270
     1
271
     1
  0
XRECORD
  5
16
102
{ACAD_REACTORS
330
12
102
}
330
12
100
AcDbXrecord
280
     1
270
     1
271
     1
  0
XRECORD
  5
18
102
{ACAD_REACTORS
330
12
102
}
330
12
100
AcDbXrecord
280
     1
270
     1
271
     1
  0
XRECORD
  5
15
102
{ACAD_REACTORS
330
12
102
}
330
12
100
AcDbXrecord
280
     1
270
     1
271
     1
  0
XRECORD
  5
24
102
{ACAD_REACTORS
330
22
102
}
330
22
100
AcDbXrecord
280
     1
270
     1
271
     1
  0
XRECORD
  5
23
102
{ACAD_REACTORS
330
22
102
}
330
22
100
AcDbXrecord
280
     1
270
     1
271
     1
  0
XRECORD
  5
27
102
{ACAD_REACTORS
330
22
102
}
330
22
100
AcDbXrecord
280
     1
270
     1
271
     1
  0
XRECORD
  5
26
102
{ACAD_REACTORS
330
22
102
}
330
22
100
AcDbXrecord
280
     1
270
     1
271
     1
  0
XRECORD
  5
28
102
{ACAD_REACTORS
330
22
102
}
330
22
100
AcDbXrecord
280
     1
270
     1
271
     1
  0
XRECORD
  5
25
102
{ACAD_REACTORS
330
22
102
}
330
22
100
AcDbXrecord
280
     1
270
     1
271
     1
  0
CELLSTYLEMAP
  5
2D8
102
{ACAD_REACTORS
330
2D7
102
}
330
2D7
100
AcDbCellStyleMap
 90
        3
300
CELLSTYLE
  1
TABLEFORMAT_BEGIN
 90
        5
170
     1
 91
        0
 92
    32768
 62
   257
 93
        1
300
CONTENTFORMAT
  1
CONTENTFORMAT_BEGIN
 90
        0
 91
        0
 92
      512
 93
        0
300

 40
0.0
140
1.0
 94
        5
 62
     0
340
55
144
0.25
309
CONTENTFORMAT_END
171
     0
 94
        0
309
TABLEFORMAT_END
  1
CELLSTYLE_BEGIN
 90
        1
 91
        1
300
_TITLE
309
CELLSTYLE_END
300
CELLSTYLE
  1
TABLEFORMAT_BEGIN
 90
        5
170
     1
 91
        0
 92
        0
 62
   257
 93
        1
300
CONTENTFORMAT
  1
CONTENTFORMAT_BEGIN
 90
        0
 91
        0
 92
      512
 93
        0
300

 40
0.0
140
1.0
 94
        5
 62
     0
340
55
144
0.18
309
CONTENTFORMAT_END
171
     0
 94
        0
309
TABLEFORMAT_END
  1
CELLSTYLE_BEGIN
 90
        2
 91
        1
300
_HEADER
309
CELLSTYLE_END
300
CELLSTYLE
  1
TABLEFORMAT_BEGIN
 90
        5
170
     1
 91
        0
 92
        0
 62
   257
 93
        1
300
CONTENTFORMAT
  1
CONTENTFORMAT_BEGIN
 90
        0
 91
        0
 92
      512
 93
        0
300

 40
0.0
140
1.0
 94
        2
 62
     0
340
55
144
0.18
309
CONTENTFORMAT_END
171
     0
 94
        0
309
TABLEFORMAT_END
  1
CELLSTYLE_BEGIN
 90
        3
 91
        2
300
_DATA
309
CELLSTYLE_END
  0
ENDSEC
  0
EOF
