ISO-10303-21;
HEADER;
/* Generated by software containing ST-Developer
 * from STEP Tools, Inc. (www.steptools.com) 
 */
/* OPTION: using custom schema-name function */

FILE_DESCRIPTION(
/* description */ (''),
/* implementation_level */ '2;1');

FILE_NAME(
/* name */ '10001097913nxv000_00_214.stp',
/* time_stamp */ '2022-09-15T11:58:24+02:00',
/* author */ (''),
/* organization */ (''),
/* preprocessor_version */ 'ST-DEVELOPER v16.7',
/* originating_system */ 'SIEMENS PLM Software NX 12.0',
/* authorisation */ '');

FILE_SCHEMA (('AUTOMOTIVE_DESIGN { 1 0 10303 214 3 1 1 1 }'));
ENDSEC;

DATA;
#10=SHAPE_REPRESENTATION_RELATIONSHIP('None',
'relationship between 10001097913nxv000_00-None and 10001097913nxv000_
00-None',#22,#11);
#11=ADVANCED_BREP_SHAPE_REPRESENTATION('10001097913nxv000_00-None',(#40),
#357);
#12=SHAPE_DEFINITION_REPRESENTATION(#13,#22);
#13=PRODUCT_DEFINITION_SHAPE('','',#14);
#14=PRODUCT_DEFINITION(' ','',#16,#15);
#15=PRODUCT_DEFINITION_CONTEXT('part definition',#21,'design');
#16=PRODUCT_DEFINITION_FORMATION_WITH_SPECIFIED_SOURCE(' ',' ',#18,
 .NOT_KNOWN.);
#17=PRODUCT_RELATED_PRODUCT_CATEGORY('part','',(#18));
#18=PRODUCT('10001097913nxv000_00','10001097913nxv000_00',' ',(#19));
#19=PRODUCT_CONTEXT(' ',#21,'mechanical');
#20=APPLICATION_PROTOCOL_DEFINITION('international standard',
'automotive_design',2010,#21);
#21=APPLICATION_CONTEXT(
'core data for automotive mechanical design processes');
#22=SHAPE_REPRESENTATION('10001097913nxv000_00-None',(#212),#357);
#23=OVER_RIDING_STYLED_ITEM('',(#27),#69,#25);
#24=PRESENTATION_LAYER_ASSIGNMENT('10','Layer 10',(#40));
#25=STYLED_ITEM('',(#26),#40);
#26=PRESENTATION_STYLE_ASSIGNMENT((#28));
#27=PRESENTATION_STYLE_ASSIGNMENT((#29));
#28=SURFACE_STYLE_USAGE(.BOTH.,#30);
#29=SURFACE_STYLE_USAGE(.BOTH.,#31);
#30=SURFACE_SIDE_STYLE('',(#32));
#31=SURFACE_SIDE_STYLE('',(#33));
#32=SURFACE_STYLE_FILL_AREA(#34);
#33=SURFACE_STYLE_FILL_AREA(#35);
#34=FILL_AREA_STYLE('',(#36));
#35=FILL_AREA_STYLE('',(#37));
#36=FILL_AREA_STYLE_COLOUR('',#38);
#37=FILL_AREA_STYLE_COLOUR('',#39);
#38=COLOUR_RGB('Dark Hard Teal',0.,0.8,0.4);
#39=COLOUR_RGB('Dark Pink Magenta',0.6,0.,0.4);
#40=MANIFOLD_SOLID_BREP('VERRUNDUNG2',#41);
#41=CLOSED_SHELL('',(#58,#59,#60,#61,#62,#63,#64,#65,#66,#67,#68,#69,#70,
#71,#72,#73));
#42=FACE_OUTER_BOUND('',#133,.T.);
#43=PLANE('',#241);
#44=PLANE('',#242);
#45=PLANE('',#243);
#46=VERTEX_LOOP('',#171);
#47=CYLINDRICAL_SURFACE('',#220,0.999999999999997);
#48=CYLINDRICAL_SURFACE('',#226,5.85);
#49=CYLINDRICAL_SURFACE('',#234,5.5);
#50=CYLINDRICAL_SURFACE('',#238,7.);
#51=CONICAL_SURFACE('',#218,2.,30.);
#52=CONICAL_SURFACE('',#221,0.999999999999994,58.9999999999998);
#53=CONICAL_SURFACE('',#224,5.85,29.9999999999997);
#54=CONICAL_SURFACE('',#231,3.99996136237712,3.81416666666667);
#55=CONICAL_SURFACE('',#233,5.6,25.);
#56=CONICAL_SURFACE('',#236,6.08,45.0744961393223);
#57=CONICAL_SURFACE('',#240,7.,45.0000000000001);
#58=ADVANCED_FACE('',(#76,#77),#74,.F.);
#59=ADVANCED_FACE('',(#78,#79),#51,.F.);
#60=ADVANCED_FACE('',(#80,#81),#47,.F.);
#61=ADVANCED_FACE('',(#82,#83),#52,.F.);
#62=ADVANCED_FACE('',(#84,#85),#53,.T.);
#63=ADVANCED_FACE('',(#86,#87),#48,.T.);
#64=ADVANCED_FACE('',(#88,#89),#75,.T.);
#65=ADVANCED_FACE('',(#90,#91),#54,.T.);
#66=ADVANCED_FACE('',(#92,#93),#55,.T.);
#67=ADVANCED_FACE('',(#94,#95),#49,.T.);
#68=ADVANCED_FACE('',(#96,#97),#56,.T.);
#69=ADVANCED_FACE('',(#98,#99),#50,.T.);
#70=ADVANCED_FACE('',(#100,#101),#57,.T.);
#71=ADVANCED_FACE('',(#102,#103),#43,.F.);
#72=ADVANCED_FACE('',(#42),#44,.F.);
#73=ADVANCED_FACE('',(#104,#105),#45,.F.);
#74=TOROIDAL_SURFACE('',#215,6.3,0.8);
#75=TOROIDAL_SURFACE('',#229,3.53218556783668,0.5);
#76=FACE_BOUND('',#106,.T.);
#77=FACE_BOUND('',#107,.T.);
#78=FACE_BOUND('',#108,.T.);
#79=FACE_BOUND('',#109,.T.);
#80=FACE_BOUND('',#110,.T.);
#81=FACE_BOUND('',#111,.T.);
#82=FACE_BOUND('',#112,.T.);
#83=FACE_BOUND('',#46,.T.);
#84=FACE_BOUND('',#113,.T.);
#85=FACE_BOUND('',#114,.T.);
#86=FACE_BOUND('',#115,.T.);
#87=FACE_BOUND('',#116,.T.);
#88=FACE_BOUND('',#117,.T.);
#89=FACE_BOUND('',#118,.T.);
#90=FACE_BOUND('',#119,.T.);
#91=FACE_BOUND('',#120,.T.);
#92=FACE_BOUND('',#121,.T.);
#93=FACE_BOUND('',#122,.T.);
#94=FACE_BOUND('',#123,.T.);
#95=FACE_BOUND('',#124,.T.);
#96=FACE_BOUND('',#125,.T.);
#97=FACE_BOUND('',#126,.T.);
#98=FACE_BOUND('',#127,.T.);
#99=FACE_BOUND('',#128,.T.);
#100=FACE_BOUND('',#129,.T.);
#101=FACE_BOUND('',#130,.T.);
#102=FACE_BOUND('',#131,.T.);
#103=FACE_BOUND('',#132,.T.);
#104=FACE_BOUND('',#134,.T.);
#105=FACE_BOUND('',#135,.T.);
#106=EDGE_LOOP('',(#136));
#107=EDGE_LOOP('',(#137));
#108=EDGE_LOOP('',(#138));
#109=EDGE_LOOP('',(#139));
#110=EDGE_LOOP('',(#140));
#111=EDGE_LOOP('',(#141));
#112=EDGE_LOOP('',(#142));
#113=EDGE_LOOP('',(#143));
#114=EDGE_LOOP('',(#144));
#115=EDGE_LOOP('',(#145));
#116=EDGE_LOOP('',(#146));
#117=EDGE_LOOP('',(#147));
#118=EDGE_LOOP('',(#148));
#119=EDGE_LOOP('',(#149));
#120=EDGE_LOOP('',(#150));
#121=EDGE_LOOP('',(#151));
#122=EDGE_LOOP('',(#152));
#123=EDGE_LOOP('',(#153));
#124=EDGE_LOOP('',(#154));
#125=EDGE_LOOP('',(#155));
#126=EDGE_LOOP('',(#156));
#127=EDGE_LOOP('',(#157));
#128=EDGE_LOOP('',(#158));
#129=EDGE_LOOP('',(#159));
#130=EDGE_LOOP('',(#160));
#131=EDGE_LOOP('',(#161));
#132=EDGE_LOOP('',(#162));
#133=EDGE_LOOP('',(#163));
#134=EDGE_LOOP('',(#164));
#135=EDGE_LOOP('',(#165));
#136=ORIENTED_EDGE('',*,*,#182,.F.);
#137=ORIENTED_EDGE('',*,*,#183,.F.);
#138=ORIENTED_EDGE('',*,*,#184,.T.);
#139=ORIENTED_EDGE('',*,*,#185,.F.);
#140=ORIENTED_EDGE('',*,*,#185,.T.);
#141=ORIENTED_EDGE('',*,*,#186,.F.);
#142=ORIENTED_EDGE('',*,*,#186,.T.);
#143=ORIENTED_EDGE('',*,*,#187,.T.);
#144=ORIENTED_EDGE('',*,*,#188,.F.);
#145=ORIENTED_EDGE('',*,*,#187,.F.);
#146=ORIENTED_EDGE('',*,*,#189,.T.);
#147=ORIENTED_EDGE('',*,*,#190,.F.);
#148=ORIENTED_EDGE('',*,*,#191,.F.);
#149=ORIENTED_EDGE('',*,*,#192,.F.);
#150=ORIENTED_EDGE('',*,*,#190,.T.);
#151=ORIENTED_EDGE('',*,*,#192,.T.);
#152=ORIENTED_EDGE('',*,*,#193,.F.);
#153=ORIENTED_EDGE('',*,*,#182,.T.);
#154=ORIENTED_EDGE('',*,*,#193,.T.);
#155=ORIENTED_EDGE('',*,*,#194,.F.);
#156=ORIENTED_EDGE('',*,*,#183,.T.);
#157=ORIENTED_EDGE('',*,*,#195,.F.);
#158=ORIENTED_EDGE('',*,*,#194,.T.);
#159=ORIENTED_EDGE('',*,*,#195,.T.);
#160=ORIENTED_EDGE('',*,*,#196,.F.);
#161=ORIENTED_EDGE('',*,*,#196,.T.);
#162=ORIENTED_EDGE('',*,*,#189,.F.);
#163=ORIENTED_EDGE('',*,*,#191,.T.);
#164=ORIENTED_EDGE('',*,*,#184,.F.);
#165=ORIENTED_EDGE('',*,*,#188,.T.);
#166=VERTEX_POINT('',#310);
#167=VERTEX_POINT('',#312);
#168=VERTEX_POINT('',#315);
#169=VERTEX_POINT('',#317);
#170=VERTEX_POINT('',#320);
#171=VERTEX_POINT('',#322);
#172=VERTEX_POINT('',#325);
#173=VERTEX_POINT('',#327);
#174=VERTEX_POINT('',#330);
#175=VERTEX_POINT('',#333);
#176=VERTEX_POINT('',#335);
#177=VERTEX_POINT('',#338);
#178=VERTEX_POINT('',#341);
#179=VERTEX_POINT('',#345);
#180=VERTEX_POINT('',#348);
#181=VERTEX_POINT('',#351);
#182=EDGE_CURVE('',#166,#166,#197,.T.);
#183=EDGE_CURVE('',#167,#167,#198,.T.);
#184=EDGE_CURVE('',#168,#168,#199,.T.);
#185=EDGE_CURVE('',#169,#169,#200,.T.);
#186=EDGE_CURVE('',#170,#170,#201,.T.);
#187=EDGE_CURVE('',#172,#172,#202,.T.);
#188=EDGE_CURVE('',#173,#173,#203,.T.);
#189=EDGE_CURVE('',#174,#174,#204,.T.);
#190=EDGE_CURVE('',#175,#175,#205,.T.);
#191=EDGE_CURVE('',#176,#176,#206,.T.);
#192=EDGE_CURVE('',#177,#177,#207,.T.);
#193=EDGE_CURVE('',#178,#178,#208,.T.);
#194=EDGE_CURVE('',#179,#179,#209,.T.);
#195=EDGE_CURVE('',#180,#180,#210,.T.);
#196=EDGE_CURVE('',#181,#181,#211,.T.);
#197=CIRCLE('',#213,5.5);
#198=CIRCLE('',#214,6.08);
#199=CIRCLE('',#216,2.);
#200=CIRCLE('',#217,0.999999999999999);
#201=CIRCLE('',#219,0.999999999999994);
#202=CIRCLE('',#222,5.85);
#203=CIRCLE('',#223,3.);
#204=CIRCLE('',#225,5.85);
#205=CIRCLE('',#227,4.03107809345676);
#206=CIRCLE('',#228,3.53218556783668);
#207=CIRCLE('',#230,5.6);
#208=CIRCLE('',#232,5.5);
#209=CIRCLE('',#235,7.);
#210=CIRCLE('',#237,7.);
#211=CIRCLE('',#239,6.08);
#212=AXIS2_PLACEMENT_3D('',#308,#244,#245);
#213=AXIS2_PLACEMENT_3D('',#309,#246,#247);
#214=AXIS2_PLACEMENT_3D('',#311,#248,#249);
#215=AXIS2_PLACEMENT_3D('',#313,#250,#251);
#216=AXIS2_PLACEMENT_3D('',#314,#252,#253);
#217=AXIS2_PLACEMENT_3D('',#316,#254,#255);
#218=AXIS2_PLACEMENT_3D('',#318,#256,#257);
#219=AXIS2_PLACEMENT_3D('',#319,#258,#259);
#220=AXIS2_PLACEMENT_3D('',#321,#260,#261);
#221=AXIS2_PLACEMENT_3D('',#323,#262,#263);
#222=AXIS2_PLACEMENT_3D('',#324,#264,#265);
#223=AXIS2_PLACEMENT_3D('',#326,#266,#267);
#224=AXIS2_PLACEMENT_3D('',#328,#268,#269);
#225=AXIS2_PLACEMENT_3D('',#329,#270,#271);
#226=AXIS2_PLACEMENT_3D('',#331,#272,#273);
#227=AXIS2_PLACEMENT_3D('',#332,#274,#275);
#228=AXIS2_PLACEMENT_3D('',#334,#276,#277);
#229=AXIS2_PLACEMENT_3D('',#336,#278,#279);
#230=AXIS2_PLACEMENT_3D('',#337,#280,#281);
#231=AXIS2_PLACEMENT_3D('',#339,#282,#283);
#232=AXIS2_PLACEMENT_3D('',#340,#284,#285);
#233=AXIS2_PLACEMENT_3D('',#342,#286,#287);
#234=AXIS2_PLACEMENT_3D('',#343,#288,#289);
#235=AXIS2_PLACEMENT_3D('',#344,#290,#291);
#236=AXIS2_PLACEMENT_3D('',#346,#292,#293);
#237=AXIS2_PLACEMENT_3D('',#347,#294,#295);
#238=AXIS2_PLACEMENT_3D('',#349,#296,#297);
#239=AXIS2_PLACEMENT_3D('',#350,#298,#299);
#240=AXIS2_PLACEMENT_3D('',#352,#300,#301);
#241=AXIS2_PLACEMENT_3D('',#353,#302,#303);
#242=AXIS2_PLACEMENT_3D('',#354,#304,#305);
#243=AXIS2_PLACEMENT_3D('',#355,#306,#307);
#244=DIRECTION('',(0.,0.,1.));
#245=DIRECTION('',(1.,0.,0.));
#246=DIRECTION('',(1.,0.,0.));
#247=DIRECTION('',(0.,0.,1.));
#248=DIRECTION('',(-1.,0.,0.));
#249=DIRECTION('',(0.,0.,1.));
#250=DIRECTION('',(-1.,0.,0.));
#251=DIRECTION('',(0.,0.,-1.));
#252=DIRECTION('',(-1.,0.,0.));
#253=DIRECTION('',(0.,0.,1.));
#254=DIRECTION('',(-1.,0.,0.));
#255=DIRECTION('',(0.,0.,1.));
#256=DIRECTION('',(-1.,0.,0.));
#257=DIRECTION('',(8.38391900555973E-17,0.,-1.));
#258=DIRECTION('',(-1.,0.,0.));
#259=DIRECTION('',(0.,0.,1.));
#260=DIRECTION('',(-1.,0.,0.));
#261=DIRECTION('',(0.,0.,-1.));
#262=DIRECTION('',(-1.,0.,0.));
#263=DIRECTION('',(2.91676309245052E-17,0.,-1.));
#264=DIRECTION('',(-1.,0.,0.));
#265=DIRECTION('',(0.,0.,1.));
#266=DIRECTION('',(-1.,0.,0.));
#267=DIRECTION('',(0.,0.,1.));
#268=DIRECTION('',(1.,0.,0.));
#269=DIRECTION('',(4.75918429430708E-17,0.,1.));
#270=DIRECTION('',(-1.,0.,0.));
#271=DIRECTION('',(0.,0.,-1.));
#272=DIRECTION('',(-1.,0.,0.));
#273=DIRECTION('',(0.,0.,-1.));
#274=DIRECTION('',(-1.,0.,0.));
#275=DIRECTION('',(0.,0.,-1.));
#276=DIRECTION('',(1.,0.,0.));
#277=DIRECTION('',(0.,0.,1.));
#278=DIRECTION('',(-1.,0.,0.));
#279=DIRECTION('',(0.,0.,-1.));
#280=DIRECTION('',(-1.,0.,0.));
#281=DIRECTION('',(0.,0.,1.));
#282=DIRECTION('',(-1.,0.,0.));
#283=DIRECTION('',(-3.92758846529088E-16,0.,-1.));
#284=DIRECTION('',(-1.,0.,0.));
#285=DIRECTION('',(0.,0.,1.));
#286=DIRECTION('',(1.,0.,0.));
#287=DIRECTION('',(-8.82235384486361E-17,0.,1.));
#288=DIRECTION('',(-1.,0.,0.));
#289=DIRECTION('',(0.,0.,-1.));
#290=DIRECTION('',(-1.,0.,0.));
#291=DIRECTION('',(0.,0.,1.));
#292=DIRECTION('',(-1.,0.,0.));
#293=DIRECTION('',(-4.81540971278974E-17,0.,-1.));
#294=DIRECTION('',(-1.,0.,0.));
#295=DIRECTION('',(0.,0.,1.));
#296=DIRECTION('',(-1.,0.,0.));
#297=DIRECTION('',(0.,0.,-1.));
#298=DIRECTION('',(-1.,0.,0.));
#299=DIRECTION('',(0.,0.,1.));
#300=DIRECTION('',(1.,0.,0.));
#301=DIRECTION('',(-1.378131857777E-17,0.,1.));
#302=DIRECTION('',(1.,0.,0.));
#303=DIRECTION('',(0.,0.,1.));
#304=DIRECTION('',(-1.,0.,0.));
#305=DIRECTION('',(0.,0.,-1.));
#306=DIRECTION('',(1.,0.,0.));
#307=DIRECTION('',(0.,0.,1.));
#308=CARTESIAN_POINT('',(0.,0.,0.));
#309=CARTESIAN_POINT('',(-1.51088891592169,0.,0.));
#310=CARTESIAN_POINT('',(-1.51088891592169,0.,5.5));
#311=CARTESIAN_POINT('',(-2.28004429684287,0.,0.));
#312=CARTESIAN_POINT('',(-2.28004429684287,0.,6.08));
#313=CARTESIAN_POINT('',(-1.5108889159217,0.,0.));
#314=CARTESIAN_POINT('',(-21.2800442968429,0.,0.));
#315=CARTESIAN_POINT('',(-21.2800442968429,0.,2.));
#316=CARTESIAN_POINT('',(-19.547993489274,0.,0.));
#317=CARTESIAN_POINT('',(-19.547993489274,0.,0.999999999999999));
#318=CARTESIAN_POINT('',(-21.2800442968429,0.,0.));
#319=CARTESIAN_POINT('',(-17.2800442968429,0.,0.));
#320=CARTESIAN_POINT('',(-17.2800442968429,0.,0.999999999999994));
#321=CARTESIAN_POINT('',(-21.2800442968429,0.,0.));
#322=CARTESIAN_POINT('',(-16.6791836778153,-1.12688584608304E-15,0.));
#323=CARTESIAN_POINT('',(-17.2800442968429,0.,0.));
#324=CARTESIAN_POINT('',(-16.3436994952715,0.,0.));
#325=CARTESIAN_POINT('',(-16.3436994952715,0.,5.85));
#326=CARTESIAN_POINT('',(-21.2800442968429,0.,0.));
#327=CARTESIAN_POINT('',(-21.2800442968429,0.,3.));
#328=CARTESIAN_POINT('',(-16.3436994952715,0.,0.));
#329=CARTESIAN_POINT('',(-8.28004429684288,0.,0.));
#330=CARTESIAN_POINT('',(-8.28004429684288,0.,-5.85));
#331=CARTESIAN_POINT('',(-27.9610140499921,0.,0.));
#332=CARTESIAN_POINT('',(23.2532160080327,0.,0.));
#333=CARTESIAN_POINT('',(23.2532160080327,0.,-4.03107809345676));
#334=CARTESIAN_POINT('',(23.7199557031571,0.,0.));
#335=CARTESIAN_POINT('',(23.7199557031571,0.,3.53218556783668));
#336=CARTESIAN_POINT('',(23.2199557031571,0.,0.));
#337=CARTESIAN_POINT('',(-0.280044296842877,0.,0.));
#338=CARTESIAN_POINT('',(-0.280044296842877,0.,5.6));
#339=CARTESIAN_POINT('',(23.7199557031571,0.,0.));
#340=CARTESIAN_POINT('',(-0.494494988893826,0.,0.));
#341=CARTESIAN_POINT('',(-0.494494988893826,0.,5.5));
#342=CARTESIAN_POINT('',(-0.280044296842877,0.,0.));
#343=CARTESIAN_POINT('',(-42.990785186374,0.,0.));
#344=CARTESIAN_POINT('',(-3.19765502867332,0.,0.));
#345=CARTESIAN_POINT('',(-3.19765502867332,0.,7.));
#346=CARTESIAN_POINT('',(-2.28004429684287,0.,0.));
#347=CARTESIAN_POINT('',(-7.36004429684288,0.,0.));
#348=CARTESIAN_POINT('',(-7.36004429684288,0.,7.));
#349=CARTESIAN_POINT('',(-42.990785186374,0.,0.));
#350=CARTESIAN_POINT('',(-8.28004429684288,0.,0.));
#351=CARTESIAN_POINT('',(-8.28004429684288,0.,6.08));
#352=CARTESIAN_POINT('',(-7.36004429684288,0.,0.));
#353=CARTESIAN_POINT('',(-8.28004429684288,6.08,0.));
#354=CARTESIAN_POINT('',(23.7199557031571,3.99996136237712,0.));
#355=CARTESIAN_POINT('',(-21.2800442968429,3.,0.));
#356=MECHANICAL_DESIGN_GEOMETRIC_PRESENTATION_REPRESENTATION('',(#25,#23),
#357);
#357=(
GEOMETRIC_REPRESENTATION_CONTEXT(3)
GLOBAL_UNCERTAINTY_ASSIGNED_CONTEXT((#358))
GLOBAL_UNIT_ASSIGNED_CONTEXT((#364,#360,#359))
REPRESENTATION_CONTEXT('10001097913nxv000_00_214',
'TOP_LEVEL_ASSEMBLY_PART')
);
#358=UNCERTAINTY_MEASURE_WITH_UNIT(LENGTH_MEASURE(2.E-5),#364,
'DISTANCE_ACCURACY_VALUE','Maximum Tolerance applied to model');
#359=(
NAMED_UNIT(*)
SI_UNIT($,.STERADIAN.)
SOLID_ANGLE_UNIT()
);
#360=(
CONVERSION_BASED_UNIT('DEGREE',#362)
NAMED_UNIT(#361)
PLANE_ANGLE_UNIT()
);
#361=DIMENSIONAL_EXPONENTS(0.,0.,0.,0.,0.,0.,0.);
#362=PLANE_ANGLE_MEASURE_WITH_UNIT(PLANE_ANGLE_MEASURE(0.0174532925),#363);
#363=(
NAMED_UNIT(*)
PLANE_ANGLE_UNIT()
SI_UNIT($,.RADIAN.)
);
#364=(
LENGTH_UNIT()
NAMED_UNIT(*)
SI_UNIT(.MILLI.,.METRE.)
);
ENDSEC;
END-ISO-10303-21;
