  0
SECTION
  2
HEADER
  9
$ACADVER
  1
AC1014
  9
$ACADMAINTVER
 70
     9
  9
$DWGCODEPAGE
  3
ANSI_1252
  9
$INSBASE
 10
0.0
 20
0.0
 30
0.0
  9
$EXTMIN
 10
1.000000000000000E+20
 20
1.000000000000000E+20
 30
1.000000000000000E+20
  9
$EXTMAX
 10
-1.000000000000000E+20
 20
-1.000000000000000E+20
 30
-1.000000000000000E+20
  9
$LIMMIN
 10
0.0
 20
0.0
  9
$LIMMAX
 10
12.0
 20
9.0
  9
$ORTHOMODE
 70
     0
  9
$REGENMODE
 70
     1
  9
$FILLMODE
 70
     1
  9
$QTEXTMODE
 70
     0
  9
$MIRRTEXT
 70
     1
  9
$DRAGMODE
 70
     2
  9
$LTSCALE
 40
1.0
  9
$OSMODE
 70
    37
  9
$ATTMODE
 70
     1
  9
$TEXTSIZE
 40
0.2
  9
$TRACEWID
 40
0.05
  9
$TEXTSTYLE
  7
STANDARD
  9
$CLAYER
  8
0
  9
$CELTYPE
  6
BYLAYER
  9
$CECOLOR
 62
   256
  9
$CELTSCALE
 40
1.0
  9
$DELOBJ
 70
     1
  9
$DISPSILH
 70
     0
  9
$DIMSCALE
 40
1.0
  9
$DIMASZ
 40
0.18
  9
$DIMEXO
 40
0.0625
  9
$DIMDLI
 40
0.38
  9
$DIMRND
 40
0.0
  9
$DIMDLE
 40
0.0
  9
$DIMEXE
 40
0.18
  9
$DIMTP
 40
0.0
  9
$DIMTM
 40
0.0
  9
$DIMTXT
 40
0.18
  9
$DIMCEN
 40
0.09
  9
$DIMTSZ
 40
0.0
  9
$DIMTOL
 70
     0
  9
$DIMLIM
 70
     0
  9
$DIMTIH
 70
     1
  9
$DIMTOH
 70
     1
  9
$DIMSE1
 70
     0
  9
$DIMSE2
 70
     0
  9
$DIMTAD
 70
     0
  9
$DIMZIN
 70
     0
  9
$DIMBLK
  1

  9
$DIMASO
 70
     1
  9
$DIMSHO
 70
     1
  9
$DIMPOST
  1

  9
$DIMAPOST
  1

  9
$DIMALT
 70
     0
  9
$DIMALTD
 70
     2
  9
$DIMALTF
 40
25.4
  9
$DIMLFAC
 40
1.0
  9
$DIMTOFL
 70
     0
  9
$DIMTVP
 40
0.0
  9
$DIMTIX
 70
     0
  9
$DIMSOXD
 70
     0
  9
$DIMSAH
 70
     0
  9
$DIMBLK1
  1

  9
$DIMBLK2
  1

  9
$DIMSTYLE
  2
STANDARD
  9
$DIMCLRD
 70
     0
  9
$DIMCLRE
 70
     0
  9
$DIMCLRT
 70
     0
  9
$DIMTFAC
 40
1.0
  9
$DIMGAP
 40
0.09
  9
$DIMJUST
 70
     0
  9
$DIMSD1
 70
     0
  9
$DIMSD2
 70
     0
  9
$DIMTOLJ
 70
     1
  9
$DIMTZIN
 70
     0
  9
$DIMALTZ
 70
     0
  9
$DIMALTTZ
 70
     0
  9
$DIMFIT
 70
     3
  9
$DIMUPT
 70
     0
  9
$DIMUNIT
 70
     2
  9
$DIMDEC
 70
     4
  9
$DIMTDEC
 70
     4
  9
$DIMALTU
 70
     2
  9
$DIMALTTD
 70
     2
  9
$DIMTXSTY
  7
STANDARD
  9
$DIMAUNIT
 70
     0
  9
$LUNITS
 70
     2
  9
$LUPREC
 70
     4
  9
$SKETCHINC
 40
0.1
  9
$FILLETRAD
 40
0.5
  9
$AUNITS
 70
     0
  9
$AUPREC
 70
     0
  9
$MENU
  1
.
  9
$ELEVATION
 40
0.0
  9
$PELEVATION
 40
0.0
  9
$THICKNESS
 40
0.0
  9
$LIMCHECK
 70
     0
  9
$CHAMFERA
 40
0.5
  9
$CHAMFERB
 40
0.5
  9
$CHAMFERC
 40
1.0
  9
$CHAMFERD
 40
0.0
  9
$SKPOLY
 70
     0
  9
$TDCREATE
 40
2458390.327473611
  9
$TDUPDATE
 40
2458390.327473623
  9
$TDINDWG
 40
0.0000000116
  9
$TDUSRTIMER
 40
0.0000000116
  9
$USRTIMER
 70
     1
  9
$ANGBASE
 50
0.0
  9
$ANGDIR
 70
     0
  9
$PDMODE
 70
     0
  9
$PDSIZE
 40
0.0
  9
$PLINEWID
 40
0.0
  9
$COORDS
 70
     1
  9
$SPLFRAME
 70
     0
  9
$SPLINETYPE
 70
     6
  9
$SPLINESEGS
 70
     8
  9
$ATTDIA
 70
     0
  9
$ATTREQ
 70
     1
  9
$HANDLING
 70
     1
  9
$HANDSEED
  5
870
  9
$SURFTAB1
 70
     6
  9
$SURFTAB2
 70
     6
  9
$SURFTYPE
 70
     6
  9
$SURFU
 70
     6
  9
$SURFV
 70
     6
  9
$UCSNAME
  2

  9
$UCSORG
 10
0.0
 20
0.0
 30
0.0
  9
$UCSXDIR
 10
1.0
 20
0.0
 30
0.0
  9
$UCSYDIR
 10
0.0
 20
1.0
 30
0.0
  9
$PUCSNAME
  2

  9
$PUCSORG
 10
0.0
 20
0.0
 30
0.0
  9
$PUCSXDIR
 10
1.0
 20
0.0
 30
0.0
  9
$PUCSYDIR
 10
0.0
 20
1.0
 30
0.0
  9
$USERI1
 70
     0
  9
$USERI2
 70
     0
  9
$USERI3
 70
     0
  9
$USERI4
 70
     0
  9
$USERI5
 70
     0
  9
$USERR1
 40
0.0
  9
$USERR2
 40
0.0
  9
$USERR3
 40
0.0
  9
$USERR4
 40
0.0
  9
$USERR5
 40
0.0
  9
$WORLDVIEW
 70
     1
  9
$SHADEDGE
 70
     3
  9
$SHADEDIF
 70
    70
  9
$TILEMODE
 70
     1
  9
$MAXACTVP
 70
    64
  9
$PINSBASE
 10
0.0
 20
0.0
 30
0.0
  9
$PLIMCHECK
 70
     0
  9
$PEXTMIN
 10
1.000000000000000E+20
 20
1.000000000000000E+20
 30
1.000000000000000E+20
  9
$PEXTMAX
 10
-1.000000000000000E+20
 20
-1.000000000000000E+20
 30
-1.000000000000000E+20
  9
$PLIMMIN
 10
0.0
 20
0.0
  9
$PLIMMAX
 10
12.0
 20
9.0
  9
$UNITMODE
 70
     0
  9
$VISRETAIN
 70
     1
  9
$PLINEGEN
 70
     0
  9
$PSLTSCALE
 70
     1
  9
$TREEDEPTH
 70
  3020
  9
$PICKSTYLE
 70
     1
  9
$CMLSTYLE
  2
STANDARD
  9
$CMLJUST
 70
     0
  9
$CMLSCALE
 40
1.0
  9
$PROXYGRAPHICS
 70
     1
  9
$MEASUREMENT
 70
     0
  0
ENDSEC
  0
SECTION
  2
CLASSES
  0
CLASS
  1
ACDBDICTIONARYWDFLT
  2
AcDbDictionaryWithDefault
  3
ObjectDBX Classes
 90
        0
280
     0
281
     0
  0
CLASS
  1
VISUALSTYLE
  2
AcDbVisualStyle
  3
ObjectDBX Classes
 90
     4095
280
     0
281
     0
  0
CLASS
  1
XRECORD
  2
AcDbXrecord
  3
AutoCAD 2000
 90
        0
280
     0
281
     0
  0
CLASS
  1
LWPOLYLINE
  2
AcDbPolyline
  3
AutoCAD 2000
 90
        0
280
     0
281
     1
  0
CLASS
  1
HATCH
  2
AcDbHatch
  3
AutoCAD 2000
 90
        0
280
     0
281
     1
  0
CLASS
  1
ACDBPLACEHOLDER
  2
AcDbPlaceHolder
  3
ObjectDBX Classes
 90
        0
280
     0
281
     0
  0
CLASS
  1
LAYOUT
  2
AcDbLayout
  3
ObjectDBX Classes
 90
        0
280
     0
281
     0
  0
ENDSEC
  0
SECTION
  2
TABLES
  0
TABLE
  2
VPORT
  5
8
330
0
100
AcDbSymbolTable
 70
     1
  0
VPORT
  5
29
330
8
100
AcDbSymbolTableRecord
100
AcDbViewportTableRecord
  2
*ACTIVE
 70
     0
 10
0.0
 20
0.0
 11
1.0
 21
1.0
 12
0.0
 22
0.0
 13
0.0
 23
0.0
 14
0.5
 24
0.5
 15
0.5
 25
0.5
 16
0.0
 26
0.0
 36
1.0
 17
100.0619370952102
 27
127.0193786303545
 37
0.0
 40
297.0001314904201
 41
0.7070759562020681
 42
50.0
 43
0.0
 44
0.0
 50
0.0
 51
0.0
 71
     0
 72
   100
 73
     1
 74
     3
 75
     0
 76
     0
 77
     0
 78
     0
  0
ENDTAB
  0
TABLE
  2
LTYPE
  5
5
330
0
100
AcDbSymbolTable
 70
     9
  0
LTYPE
  5
14
330
5
100
AcDbSymbolTableRecord
100
AcDbLinetypeTableRecord
  2
BYBLOCK
 70
     0
  3

 72
    65
 73
     0
 40
0.0
  0
LTYPE
  5
15
330
5
100
AcDbSymbolTableRecord
100
AcDbLinetypeTableRecord
  2
BYLAYER
 70
     0
  3

 72
    65
 73
     0
 40
0.0
  0
LTYPE
  5
16
330
5
100
AcDbSymbolTableRecord
100
AcDbLinetypeTableRecord
  2
CONTINUOUS
 70
     0
  3
Solid line
 72
    65
 73
     0
 40
0.0
  0
LTYPE
  5
41
330
5
100
AcDbSymbolTableRecord
100
AcDbLinetypeTableRecord
  2
AI-LINETYPE-1
 70
     0
  3
Adobe Illustrator Linetype No. 1
 72
    65
 73
     4
 40
8.819444442239584
 49
7.055555553791667
 74
     0
 49
-0.7055555553791667
 74
     0
 49
0.3527777776895833
 74
     0
 49
-0.7055555553791667
 74
     0
  0
LTYPE
  5
43A
330
5
100
AcDbSymbolTableRecord
100
AcDbLinetypeTableRecord
  2
AI-LINETYPE-2
 70
     0
  3
Adobe Illustrator Linetype No. 2
 72
    65
 73
     4
 40
4.938888887654167
 49
1.763888888447917
 74
     0
 49
-0.7055555553791667
 74
     0
 49
1.763888888447917
 74
     0
 49
-0.7055555553791667
 74
     0
  0
LTYPE
  5
43F
330
5
100
AcDbSymbolTableRecord
100
AcDbLinetypeTableRecord
  2
AI-LINETYPE-3
 70
     0
  3
Adobe Illustrator Linetype No. 3
 72
    65
 73
     4
 40
4.938888887654167
 49
1.763888888447917
 74
     0
 49
-0.7055555553791667
 74
     0
 49
1.763888888447917
 74
     0
 49
-0.7055555553791667
 74
     0
  0
LTYPE
  5
444
330
5
100
AcDbSymbolTableRecord
100
AcDbLinetypeTableRecord
  2
AI-LINETYPE-4
 70
     0
  3
Adobe Illustrator Linetype No. 4
 72
    65
 73
     4
 40
4.938888887654167
 49
1.763888888447917
 74
     0
 49
-0.7055555553791667
 74
     0
 49
1.763888888447917
 74
     0
 49
-0.7055555553791667
 74
     0
  0
LTYPE
  5
449
330
5
100
AcDbSymbolTableRecord
100
AcDbLinetypeTableRecord
  2
AI-LINETYPE-5
 70
     0
  3
Adobe Illustrator Linetype No. 5
 72
    65
 73
     4
 40
4.938888887654167
 49
1.763888888447917
 74
     0
 49
-0.7055555553791667
 74
     0
 49
1.763888888447917
 74
     0
 49
-0.7055555553791667
 74
     0
  0
LTYPE
  5
44E
330
5
100
AcDbSymbolTableRecord
100
AcDbLinetypeTableRecord
  2
AI-LINETYPE-6
 70
     0
  3
Adobe Illustrator Linetype No. 6
 72
    65
 73
     4
 40
4.938888887654167
 49
1.763888888447917
 74
     0
 49
-0.7055555553791667
 74
     0
 49
1.763888888447917
 74
     0
 49
-0.7055555553791667
 74
     0
  0
LTYPE
  5
454
330
5
100
AcDbSymbolTableRecord
100
AcDbLinetypeTableRecord
  2
AI-LINETYPE-7
 70
     0
  3
Adobe Illustrator Linetype No. 7
 72
    65
 73
     4
 40
4.938888887654167
 49
1.763888888447917
 74
     0
 49
-0.7055555553791667
 74
     0
 49
1.763888888447917
 74
     0
 49
-0.7055555553791667
 74
     0
  0
LTYPE
  5
459
330
5
100
AcDbSymbolTableRecord
100
AcDbLinetypeTableRecord
  2
AI-LINETYPE-8
 70
     0
  3
Adobe Illustrator Linetype No. 8
 72
    65
 73
     4
 40
4.938888887654167
 49
1.763888888447917
 74
     0
 49
-0.7055555553791667
 74
     0
 49
1.763888888447917
 74
     0
 49
-0.7055555553791667
 74
     0
  0
ENDTAB
  0
TABLE
  2
LAYER
  5
2
330
0
100
AcDbSymbolTable
 70
     5
  0
LAYER
  5
10
330
2
100
AcDbSymbolTableRecord
100
AcDbLayerTableRecord
  2
0
 70
     0
 62
     7
  6
CONTINUOUS
  0
LAYER
  5
3B
330
2
100
AcDbSymbolTableRecord
100
AcDbLayerTableRecord
  2
GRAU_10_
 70
     0
 62
     7
  6
CONTINUOUS
  0
LAYER
  5
431
330
2
100
AcDbSymbolTableRecord
100
AcDbLayerTableRecord
  2
STANDARDEBENE
 70
     0
 62
     7
  6
CONTINUOUS
  0
LAYER
  5
466
330
2
100
AcDbSymbolTableRecord
100
AcDbLayerTableRecord
  2
BEMAßUNG
 70
     1
 62
     7
  6
CONTINUOUS
  0
LAYER
  5
848
330
2
100
AcDbSymbolTableRecord
100
AcDbLayerTableRecord
  2
TEXT
 70
     1
 62
     7
  6
CONTINUOUS
  0
ENDTAB
  0
TABLE
  2
STYLE
  5
3
330
0
100
AcDbSymbolTable
 70
     1
  0
STYLE
  5
11
330
3
100
AcDbSymbolTableRecord
100
AcDbTextStyleTableRecord
  2
STANDARD
 70
     0
 40
0.0
 41
1.0
 50
0.0
 71
     0
 42
0.2
  3
txt
  4

  0
ENDTAB
  0
TABLE
  2
VIEW
  5
6
330
0
100
AcDbSymbolTable
 70
     0
  0
ENDTAB
  0
TABLE
  2
UCS
  5
7
330
0
100
AcDbSymbolTable
 70
     0
  0
ENDTAB
  0
TABLE
  2
APPID
  5
9
330
0
100
AcDbSymbolTable
 70
     1
  0
APPID
  5
12
330
9
100
AcDbSymbolTableRecord
100
AcDbRegAppTableRecord
  2
ACAD
 70
     0
  0
ENDTAB
  0
TABLE
  2
DIMSTYLE
  5
A
330
0
100
AcDbSymbolTable
 70
     1
  0
DIMSTYLE
105
27
330
A
100
AcDbSymbolTableRecord
100
AcDbDimStyleTableRecord
  2
STANDARD
 70
     0
  3

  4

  5

  6

  7

 40
1.0
 41
0.18
 42
0.0625
 43
0.38
 44
0.18
 45
0.0
 46
0.0
 47
0.0
 48
0.0
140
0.18
141
0.09
142
0.0
143
25.4
144
1.0
145
0.0
146
1.0
147
0.09
 71
     0
 72
     0
 73
     1
 74
     1
 75
     0
 76
     0
 77
     0
 78
     0
170
     0
171
     2
172
     0
173
     0
174
     0
175
     0
176
     0
177
     0
178
     0
270
     2
271
     4
272
     4
273
     2
274
     2
340
11
275
     0
280
     0
281
     0
282
     0
283
     1
284
     0
285
     0
286
     0
287
     3
288
     0
  0
ENDTAB
  0
TABLE
  2
BLOCK_RECORD
  5
1
330
0
100
AcDbSymbolTable
 70
     1
  0
BLOCK_RECORD
  5
1F
330
1
100
AcDbSymbolTableRecord
100
AcDbBlockTableRecord
  2
*MODEL_SPACE
  0
BLOCK_RECORD
  5
1B
330
1
100
AcDbSymbolTableRecord
100
AcDbBlockTableRecord
  2
*PAPER_SPACE
  0
ENDTAB
  0
ENDSEC
  0
SECTION
  2
BLOCKS
  0
BLOCK
  5
20
330
1F
100
AcDbEntity
  8
0
100
AcDbBlockBegin
  2
*MODEL_SPACE
 70
     0
 71
     0
 10
0.0
 20
0.0
 30
0.0
  3
*MODEL_SPACE
  1

  0
ENDBLK
  5
21
330
1F
100
AcDbEntity
  8
0
100
AcDbBlockEnd
  0
BLOCK
  5
1C
330
1B
100
AcDbEntity
 67
     1
  8
0
100
AcDbBlockBegin
  2
*PAPER_SPACE
 70
     0
 71
     0
 10
0.0
 20
0.0
 30
0.0
  3
*PAPER_SPACE
  1

  0
ENDBLK
  5
1D
330
1B
100
AcDbEntity
 67
     1
  8
0
100
AcDbBlockEnd
  0
ENDSEC
  0
SECTION
  2
ENTITIES
  0
POLYLINE
  5
3C
330
1F
100
AcDbEntity
  8
GRAU_10_
  6
AI-LINETYPE-1
 62
   250
100
AcDb2dPolyline
 66
     1
 10
0.0
 20
0.0
 30
0.0
  0
VERTEX
  5
3D
330
3C
100
AcDbEntity
  8
GRAU_10_
  6
AI-LINETYPE-1
 62
   250
100
AcDbVertex
100
AcDb2dVertex
 10
190.5277329710313
 20
258.4998975319462
 30
0.0
  0
VERTEX
  5
3E
330
3C
100
AcDbEntity
  8
GRAU_10_
  6
AI-LINETYPE-1
 62
   250
100
AcDbVertex
100
AcDb2dVertex
 10
190.5277329710313
 20
245.6614046966142
 30
0.0
  0
VERTEX
  5
3F
330
3C
100
AcDbEntity
  8
GRAU_10_
  6
AI-LINETYPE-1
 62
   250
100
AcDbVertex
100
AcDb2dVertex
 10
190.5277329710313
 20
233.3909219794127
 30
0.0
  0
SEQEND
  5
40
330
3C
100
AcDbEntity
  8
GRAU_10_
  6
AI-LINETYPE-1
  0
POLYLINE
  5
42
330
1F
100
AcDbEntity
  8
GRAU_10_
 62
     7
100
AcDb2dPolyline
 66
     1
 10
0.0
 20
0.0
 30
0.0
  0
VERTEX
  5
43
330
42
100
AcDbEntity
  8
GRAU_10_
 62
     7
100
AcDbVertex
100
AcDb2dVertex
 10
165.5277085632188
 20
242.6613294206715
 30
0.0
  0
VERTEX
  5
44
330
42
100
AcDbEntity
  8
GRAU_10_
 62
     7
100
AcDbVertex
100
AcDb2dVertex
 10
165.5277085632188
 20
235.3973455900222
 30
0.0
  0
SEQEND
  5
45
330
42
100
AcDbEntity
  8
GRAU_10_
  0
POLYLINE
  5
46
330
1F
100
AcDbEntity
  8
GRAU_10_
 62
     7
100
AcDb2dPolyline
 66
     1
 10
0.0
 20
0.0
 30
0.0
  0
VERTEX
  5
47
330
46
100
AcDbEntity
  8
GRAU_10_
 62
     7
100
AcDbVertex
100
AcDb2dVertex
 10
178.5279486315833
 20
255.6608804699389
 30
0.0
  0
VERTEX
  5
48
330
46
100
AcDbEntity
  8
GRAU_10_
 62
     7
100
AcDbVertex
100
AcDb2dVertex
 10
165.5277085632188
 20
242.6613294206715
 30
0.0
  0
SEQEND
  5
49
330
46
100
AcDbEntity
  8
GRAU_10_
  0
POLYLINE
  5
4A
330
1F
100
AcDbEntity
  8
GRAU_10_
 62
     7
100
AcDb2dPolyline
 66
     1
 10
0.0
 20
0.0
 30
0.0
  0
VERTEX
  5
4B
330
4A
100
AcDbEntity
  8
GRAU_10_
 62
     7
100
AcDbVertex
100
AcDb2dVertex
 10
209.6235527362226
 20
255.6608804699389
 30
0.0
  0
VERTEX
  5
4C
330
4A
100
AcDbEntity
  8
GRAU_10_
 62
     7
100
AcDbVertex
100
AcDb2dVertex
 10
178.5279486315833
 20
255.6608804699389
 30
0.0
  0
SEQEND
  5
4D
330
4A
100
AcDbEntity
  8
GRAU_10_
  0
POLYLINE
  5
4E
330
1F
100
AcDbEntity
  8
GRAU_10_
 62
     7
100
AcDb2dPolyline
 66
     1
 10
0.0
 20
0.0
 30
0.0
  0
VERTEX
  5
4F
330
4E
100
AcDbEntity
  8
GRAU_10_
 62
     7
100
AcDbVertex
100
AcDb2dVertex
 10
228.0219129204251
 20
246.6051024774112
 30
0.0
  0
VERTEX
  5
50
330
4E
100
AcDbEntity
  8
GRAU_10_
 62
     7
100
AcDbVertex
100
AcDb2dVertex
 10
230.9898626809678
 20
255.9956576237181
 30
0.0
  0
SEQEND
  5
51
330
4E
100
AcDbEntity
  8
GRAU_10_
  0
POLYLINE
  5
52
330
1F
100
AcDbEntity
  8
GRAU_10_
 62
     7
100
AcDb2dPolyline
 66
     1
 10
0.0
 20
0.0
 30
0.0
  0
VERTEX
  5
53
330
52
100
AcDbEntity
  8
GRAU_10_
 62
     7
100
AcDbVertex
100
AcDb2dVertex
 10
216.8141560330361
 20
235.3973455900222
 30
0.0
  0
VERTEX
  5
54
330
52
100
AcDbEntity
  8
GRAU_10_
 62
     7
100
AcDbVertex
100
AcDb2dVertex
 10
228.0219129204251
 20
246.6051024774112
 30
0.0
  0
SEQEND
  5
55
330
52
100
AcDbEntity
  8
GRAU_10_
  0
POLYLINE
  5
56
330
1F
100
AcDbEntity
  8
GRAU_10_
 62
     7
100
AcDb2dPolyline
 66
     1
 10
0.0
 20
0.0
 30
0.0
  0
VERTEX
  5
57
330
56
100
AcDbEntity
  8
GRAU_10_
 62
     7
100
AcDbVertex
100
AcDb2dVertex
 10
165.5277085632188
 20
235.3973455900222
 30
0.0
  0
VERTEX
  5
58
330
56
100
AcDbEntity
  8
GRAU_10_
 62
     7
100
AcDbVertex
100
AcDb2dVertex
 10
216.8141560330361
 20
235.3973455900222
 30
0.0
  0
SEQEND
  5
59
330
56
100
AcDbEntity
  8
GRAU_10_
  0
POLYLINE
  5
5A
330
1F
100
AcDbEntity
  8
GRAU_10_
 62
     7
100
AcDb2dPolyline
 66
     1
 10
0.0
 20
0.0
 30
0.0
  0
VERTEX
  5
5B
330
5A
100
AcDbEntity
  8
GRAU_10_
 62
     7
100
AcDbVertex
100
AcDb2dVertex
 10
222.970197155629
 20
261.5850666663746
 30
0.0
  0
VERTEX
  5
5C
330
5A
100
AcDbEntity
  8
GRAU_10_
 62
     7
100
AcDbVertex
100
AcDb2dVertex
 10
217.7765434568406
 20
257.5880668843877
 30
0.0
  0
SEQEND
  5
5D
330
5A
100
AcDbEntity
  8
GRAU_10_
  0
POLYLINE
  5
5E
330
1F
100
AcDbEntity
  8
GRAU_10_
 62
     7
100
AcDb2dPolyline
 66
     1
 10
0.0
 20
0.0
 30
0.0
  0
VERTEX
  5
5F
330
5E
100
AcDbEntity
  8
GRAU_10_
 62
     7
100
AcDbVertex
100
AcDb2dVertex
 10
166.3281764992166
 20
234.1114637001527
 30
0.0
  0
VERTEX
  5
60
330
5E
100
AcDbEntity
  8
GRAU_10_
 62
     7
100
AcDbVertex
100
AcDb2dVertex
 10
165.5277085632188
 20
234.9108981075049
 30
0.0
  0
VERTEX
  5
61
330
5E
100
AcDbEntity
  8
GRAU_10_
 62
     7
100
AcDbVertex
100
AcDb2dVertex
 10
165.5277085632188
 20
235.3973455900222
 30
0.0
  0
SEQEND
  5
62
330
5E
100
AcDbEntity
  8
GRAU_10_
  0
POLYLINE
  5
63
330
1F
100
AcDbEntity
  8
GRAU_10_
 62
     7
100
AcDb2dPolyline
 66
     1
 10
0.0
 20
0.0
 30
0.0
  0
VERTEX
  5
64
330
63
100
AcDbEntity
  8
GRAU_10_
 62
     7
100
AcDbVertex
100
AcDb2dVertex
 10
166.3281764992166
 20
234.1114637001527
 30
0.0
  0
VERTEX
  5
65
330
63
100
AcDbEntity
  8
GRAU_10_
 62
     7
100
AcDbVertex
100
AcDb2dVertex
 10
215.5275851240695
 20
234.1114637001527
 30
0.0
  0
VERTEX
  5
66
330
63
100
AcDbEntity
  8
GRAU_10_
 62
     7
100
AcDbVertex
100
AcDb2dVertex
 10
216.8141560330361
 20
235.3973455900222
 30
0.0
  0
SEQEND
  5
67
330
63
100
AcDbEntity
  8
GRAU_10_
  0
POLYLINE
  5
68
330
1F
100
AcDbEntity
  8
GRAU_10_
 62
     7
100
AcDb2dPolyline
 66
     1
 10
0.0
 20
0.0
 30
0.0
  0
VERTEX
  5
69
330
68
100
AcDbEntity
  8
GRAU_10_
 62
     7
100
AcDbVertex
100
AcDb2dVertex
 10
209.6235527362226
 20
255.6608804699389
 30
0.0
  0
VERTEX
  5
6A
330
68
100
AcDbEntity
  8
GRAU_10_
 62
     7
100
AcDbVertex
100
AcDb2dVertex
 10
211.0508557957616
 20
255.486989275321
 30
0.0
  0
VERTEX
  5
6B
330
68
100
AcDbEntity
  8
GRAU_10_
 62
     7
100
AcDbVertex
100
AcDb2dVertex
 10
212.4878051226593
 20
255.5154974404614
 30
0.0
  0
VERTEX
  5
6C
330
68
100
AcDbEntity
  8
GRAU_10_
 62
     7
100
AcDbVertex
100
AcDb2dVertex
 10
213.9063231887109
 20
255.7466633475217
 30
0.0
  0
VERTEX
  5
6D
330
68
100
AcDbEntity
  8
GRAU_10_
 62
     7
100
AcDbVertex
100
AcDb2dVertex
 10
215.2786769752602
 20
256.1752332258868
 30
0.0
  0
VERTEX
  5
6E
330
68
100
AcDbEntity
  8
GRAU_10_
 62
     7
100
AcDbVertex
100
AcDb2dVertex
 10
216.5774779731994
 20
256.7932833559406
 30
0.0
  0
VERTEX
  5
6F
330
68
100
AcDbEntity
  8
GRAU_10_
 62
     7
100
AcDbVertex
100
AcDb2dVertex
 10
217.7765434568406
 20
257.5880668843877
 30
0.0
  0
SEQEND
  5
70
330
68
100
AcDbEntity
  8
GRAU_10_
  0
POLYLINE
  5
71
330
1F
100
AcDbEntity
  8
GRAU_10_
 62
     7
100
AcDb2dPolyline
 66
     1
 10
0.0
 20
0.0
 30
0.0
  0
VERTEX
  5
72
330
71
100
AcDbEntity
  8
GRAU_10_
 62
     7
100
AcDbVertex
100
AcDb2dVertex
 10
113.7977050496756
 20
246.0046223343322
 30
0.0
  0
VERTEX
  5
73
330
71
100
AcDbEntity
  8
GRAU_10_
 62
     7
100
AcDbVertex
100
AcDb2dVertex
 10
113.7977050496756
 20
269.5656303579559
 30
0.0
  0
SEQEND
  5
74
330
71
100
AcDbEntity
  8
GRAU_10_
  0
POLYLINE
  5
75
330
1F
100
AcDbEntity
  8
GRAU_10_
 62
     7
100
AcDb2dPolyline
 66
     1
 10
0.0
 20
0.0
 30
0.0
  0
VERTEX
  5
76
330
75
100
AcDbEntity
  8
GRAU_10_
 62
     7
100
AcDbVertex
100
AcDb2dVertex
 10
113.7977050496756
 20
246.0046223343322
 30
0.0
  0
VERTEX
  5
77
330
75
100
AcDbEntity
  8
GRAU_10_
 62
     7
100
AcDbVertex
100
AcDb2dVertex
 10
107.925367540293
 20
246.6051024774112
 30
0.0
  0
SEQEND
  5
78
330
75
100
AcDbEntity
  8
GRAU_10_
  0
POLYLINE
  5
79
330
1F
100
AcDbEntity
  8
GRAU_10_
 62
     7
100
AcDb2dPolyline
 66
     1
 10
0.0
 20
0.0
 30
0.0
  0
VERTEX
  5
7A
330
79
100
AcDbEntity
  8
GRAU_10_
 62
     7
100
AcDbVertex
100
AcDb2dVertex
 10
113.6917683635042
 20
269.9039387346074
 30
0.0
  0
VERTEX
  5
7B
330
79
100
AcDbEntity
  8
GRAU_10_
 62
     7
100
AcDbVertex
100
AcDb2dVertex
 10
112.4849514150211
 20
269.9039387346074
 30
0.0
  0
SEQEND
  5
7C
330
79
100
AcDbEntity
  8
GRAU_10_
  0
POLYLINE
  5
7D
330
1F
100
AcDbEntity
  8
GRAU_10_
 62
     7
100
AcDb2dPolyline
 66
     1
 10
0.0
 20
0.0
 30
0.0
  0
VERTEX
  5
7E
330
7D
100
AcDbEntity
  8
GRAU_10_
 62
     7
100
AcDbVertex
100
AcDb2dVertex
 10
118.9103990045606
 20
244.2657965155395
 30
0.0
  0
VERTEX
  5
7F
330
7D
100
AcDbEntity
  8
GRAU_10_
 62
     7
100
AcDbVertex
100
AcDb2dVertex
 10
118.9103990045606
 20
234.1114637001527
 30
0.0
  0
VERTEX
  5
80
330
7D
100
AcDbEntity
  8
GRAU_10_
 62
     7
100
AcDbVertex
100
AcDb2dVertex
 10
118.6673475180762
 20
234.1114637001527
 30
0.0
  0
VERTEX
  5
81
330
7D
100
AcDbEntity
  8
GRAU_10_
 62
     7
100
AcDbVertex
100
AcDb2dVertex
 10
117.898746715317
 20
235.4435098695245
 30
0.0
  0
SEQEND
  5
82
330
7D
100
AcDbEntity
  8
GRAU_10_
  0
POLYLINE
  5
83
330
1F
100
AcDbEntity
  8
GRAU_10_
 62
     7
100
AcDb2dPolyline
 66
     1
 10
0.0
 20
0.0
 30
0.0
  0
VERTEX
  5
84
330
83
100
AcDbEntity
  8
GRAU_10_
 62
     7
100
AcDbVertex
100
AcDb2dVertex
 10
116.7828802876446
 20
234.1114637001527
 30
0.0
  0
VERTEX
  5
85
330
83
100
AcDbEntity
  8
GRAU_10_
 62
     7
100
AcDbVertex
100
AcDb2dVertex
 10
117.5518255999523
 20
235.4435098695245
 30
0.0
  0
SEQEND
  5
86
330
83
100
AcDbEntity
  8
GRAU_10_
  0
POLYLINE
  5
87
330
1F
100
AcDbEntity
  8
GRAU_10_
 62
     7
100
AcDb2dPolyline
 66
     1
 10
0.0
 20
0.0
 30
0.0
  0
VERTEX
  5
88
330
87
100
AcDbEntity
  8
GRAU_10_
 62
     7
100
AcDbVertex
100
AcDb2dVertex
 10
116.7828802876446
 20
234.1114637001527
 30
0.0
  0
VERTEX
  5
89
330
87
100
AcDbEntity
  8
GRAU_10_
 62
     7
100
AcDbVertex
100
AcDb2dVertex
 10
116.1679307435275
 20
234.1114637001527
 30
0.0
  0
VERTEX
  5
8A
330
87
100
AcDbEntity
  8
GRAU_10_
 62
     7
100
AcDbVertex
100
AcDb2dVertex
 10
115.3981241573484
 20
235.4435098695245
 30
0.0
  0
SEQEND
  5
8B
330
87
100
AcDbEntity
  8
GRAU_10_
  0
POLYLINE
  5
8C
330
1F
100
AcDbEntity
  8
GRAU_10_
 62
     7
100
AcDb2dPolyline
 66
     1
 10
0.0
 20
0.0
 30
0.0
  0
VERTEX
  5
8D
330
8C
100
AcDbEntity
  8
GRAU_10_
 62
     7
100
AcDbVertex
100
AcDb2dVertex
 10
114.2827744939988
 20
234.1114637001527
 30
0.0
  0
VERTEX
  5
8E
330
8C
100
AcDbEntity
  8
GRAU_10_
 62
     7
100
AcDbVertex
100
AcDb2dVertex
 10
115.052064315855
 20
235.4435098695245
 30
0.0
  0
SEQEND
  5
8F
330
8C
100
AcDbEntity
  8
GRAU_10_
  0
POLYLINE
  5
90
330
1F
100
AcDbEntity
  8
GRAU_10_
 62
     7
100
AcDb2dPolyline
 66
     1
 10
0.0
 20
0.0
 30
0.0
  0
VERTEX
  5
91
330
90
100
AcDbEntity
  8
GRAU_10_
 62
     7
100
AcDbVertex
100
AcDb2dVertex
 10
114.2827744939988
 20
234.1114637001527
 30
0.0
  0
VERTEX
  5
92
330
90
100
AcDbEntity
  8
GRAU_10_
 62
     7
100
AcDbVertex
100
AcDb2dVertex
 10
113.6678249498817
 20
234.1114637001527
 30
0.0
  0
VERTEX
  5
93
330
90
100
AcDbEntity
  8
GRAU_10_
 62
     7
100
AcDbVertex
100
AcDb2dVertex
 10
112.8980183637026
 20
235.4435098695245
 30
0.0
  0
SEQEND
  5
94
330
90
100
AcDbEntity
  8
GRAU_10_
  0
POLYLINE
  5
95
330
1F
100
AcDbEntity
  8
GRAU_10_
 62
     7
100
AcDb2dPolyline
 66
     1
 10
0.0
 20
0.0
 30
0.0
  0
VERTEX
  5
96
330
95
100
AcDbEntity
  8
GRAU_10_
 62
     7
100
AcDbVertex
100
AcDb2dVertex
 10
111.7830132099015
 20
234.1114637001527
 30
0.0
  0
VERTEX
  5
97
330
95
100
AcDbEntity
  8
GRAU_10_
 62
     7
100
AcDbVertex
100
AcDb2dVertex
 10
112.5519585222092
 20
235.4435098695245
 30
0.0
  0
SEQEND
  5
98
330
95
100
AcDbEntity
  8
GRAU_10_
  0
POLYLINE
  5
99
330
1F
100
AcDbEntity
  8
GRAU_10_
 62
     7
100
AcDb2dPolyline
 66
     1
 10
0.0
 20
0.0
 30
0.0
  0
VERTEX
  5
9A
330
99
100
AcDbEntity
  8
GRAU_10_
 62
     7
100
AcDbVertex
100
AcDb2dVertex
 10
111.7830132099015
 20
234.1114637001527
 30
0.0
  0
VERTEX
  5
9B
330
99
100
AcDbEntity
  8
GRAU_10_
 62
     7
100
AcDbVertex
100
AcDb2dVertex
 10
111.1680636657844
 20
234.1114637001527
 30
0.0
  0
VERTEX
  5
9C
330
99
100
AcDbEntity
  8
GRAU_10_
 62
     7
100
AcDbVertex
100
AcDb2dVertex
 10
110.3982570796053
 20
235.4435098695245
 30
0.0
  0
SEQEND
  5
9D
330
99
100
AcDbEntity
  8
GRAU_10_
  0
POLYLINE
  5
9E
330
1F
100
AcDbEntity
  8
GRAU_10_
 62
     7
100
AcDb2dPolyline
 66
     1
 10
0.0
 20
0.0
 30
0.0
  0
VERTEX
  5
9F
330
9E
100
AcDbEntity
  8
GRAU_10_
 62
     7
100
AcDbVertex
100
AcDb2dVertex
 10
109.2827351614814
 20
234.1114637001527
 30
0.0
  0
VERTEX
  5
A0
330
9E
100
AcDbEntity
  8
GRAU_10_
 62
     7
100
AcDbVertex
100
AcDb2dVertex
 10
110.052197238112
 20
235.4435098695245
 30
0.0
  0
SEQEND
  5
A1
330
9E
100
AcDbEntity
  8
GRAU_10_
  0
POLYLINE
  5
A2
330
1F
100
AcDbEntity
  8
GRAU_10_
 62
     7
100
AcDb2dPolyline
 66
     1
 10
0.0
 20
0.0
 30
0.0
  0
VERTEX
  5
A3
330
A2
100
AcDbEntity
  8
GRAU_10_
 62
     7
100
AcDbVertex
100
AcDb2dVertex
 10
109.2827351614814
 20
234.1114637001527
 30
0.0
  0
VERTEX
  5
A4
330
A2
100
AcDbEntity
  8
GRAU_10_
 62
     7
100
AcDbVertex
100
AcDb2dVertex
 10
108.6679578721386
 20
234.1114637001527
 30
0.0
  0
VERTEX
  5
A5
330
A2
100
AcDbEntity
  8
GRAU_10_
 62
     7
100
AcDbVertex
100
AcDb2dVertex
 10
107.925367540293
 20
235.3973455900222
 30
0.0
  0
VERTEX
  5
A6
330
A2
100
AcDbEntity
  8
GRAU_10_
 62
     7
100
AcDbVertex
100
AcDb2dVertex
 10
107.925367540293
 20
246.6051024774112
 30
0.0
  0
SEQEND
  5
A7
330
A2
100
AcDbEntity
  8
GRAU_10_
  0
POLYLINE
  5
A8
330
1F
100
AcDbEntity
  8
GRAU_10_
 62
     7
100
AcDb2dPolyline
 66
     1
 10
0.0
 20
0.0
 30
0.0
  0
VERTEX
  5
A9
330
A8
100
AcDbEntity
  8
GRAU_10_
 62
     7
100
AcDbVertex
100
AcDb2dVertex
 10
134.7254543391485
 20
236.5170016227284
 30
0.0
  0
VERTEX
  5
AA
330
A8
100
AcDbEntity
  8
GRAU_10_
 62
     7
100
AcDbVertex
100
AcDb2dVertex
 10
134.7254543391485
 20
234.8773084265237
 30
0.0
  0
SEQEND
  5
AB
330
A8
100
AcDbEntity
  8
GRAU_10_
  0
POLYLINE
  5
AC
330
1F
100
AcDbEntity
  8
GRAU_10_
 62
     7
100
AcDb2dPolyline
 66
     1
 10
0.0
 20
0.0
 30
0.0
  0
VERTEX
  5
AD
330
AC
100
AcDbEntity
  8
GRAU_10_
 62
     7
100
AcDbVertex
100
AcDb2dVertex
 10
132.715757887828
 20
251.3471041580834
 30
0.0
  0
VERTEX
  5
AE
330
AC
100
AcDbEntity
  8
GRAU_10_
 62
     7
100
AcDbVertex
100
AcDb2dVertex
 10
132.6017252272662
 20
251.5453694032595
 30
0.0
  0
SEQEND
  5
AF
330
AC
100
AcDbEntity
  8
GRAU_10_
  0
POLYLINE
  5
B0
330
1F
100
AcDbEntity
  8
GRAU_10_
 62
     7
100
AcDb2dPolyline
 66
     1
 10
0.0
 20
0.0
 30
0.0
  0
VERTEX
  5
B1
330
B0
100
AcDbEntity
  8
GRAU_10_
 62
     7
100
AcDbVertex
100
AcDb2dVertex
 10
132.715757887828
 20
251.3471041580834
 30
0.0
  0
VERTEX
  5
B2
330
B0
100
AcDbEntity
  8
GRAU_10_
 62
     7
100
AcDbVertex
100
AcDb2dVertex
 10
131.3306572479833
 20
250.7573038110086
 30
0.0
  0
SEQEND
  5
B3
330
B0
100
AcDbEntity
  8
GRAU_10_
  0
POLYLINE
  5
B4
330
1F
100
AcDbEntity
  8
GRAU_10_
 62
     7
100
AcDb2dPolyline
 66
     1
 10
0.0
 20
0.0
 30
0.0
  0
VERTEX
  5
B5
330
B4
100
AcDbEntity
  8
GRAU_10_
 62
     7
100
AcDbVertex
100
AcDb2dVertex
 10
134.7254543391485
 20
247.8669548262711
 30
0.0
  0
VERTEX
  5
B6
330
B4
100
AcDbEntity
  8
GRAU_10_
 62
     7
100
AcDbVertex
100
AcDb2dVertex
 10
132.715757887828
 20
251.3471041580834
 30
0.0
  0
SEQEND
  5
B7
330
B4
100
AcDbEntity
  8
GRAU_10_
  0
POLYLINE
  5
B8
330
1F
100
AcDbEntity
  8
GRAU_10_
 62
     7
100
AcDb2dPolyline
 66
     1
 10
0.0
 20
0.0
 30
0.0
  0
VERTEX
  5
B9
330
B8
100
AcDbEntity
  8
GRAU_10_
 62
     7
100
AcDbVertex
100
AcDb2dVertex
 10
134.7254543391485
 20
236.5170016227284
 30
0.0
  0
VERTEX
  5
BA
330
B8
100
AcDbEntity
  8
GRAU_10_
 62
     7
100
AcDbVertex
100
AcDb2dVertex
 10
134.7254543391485
 20
247.8669548262711
 30
0.0
  0
SEQEND
  5
BB
330
B8
100
AcDbEntity
  8
GRAU_10_
  0
POLYLINE
  5
BC
330
1F
100
AcDbEntity
  8
GRAU_10_
 62
     7
100
AcDb2dPolyline
 66
     1
 10
0.0
 20
0.0
 30
0.0
  0
VERTEX
  5
BD
330
BC
100
AcDbEntity
  8
GRAU_10_
 62
     7
100
AcDbVertex
100
AcDb2dVertex
 10
131.5247883785771
 20
253.4098550798767
 30
0.0
  0
VERTEX
  5
BE
330
BC
100
AcDbEntity
  8
GRAU_10_
 62
     7
100
AcDbVertex
100
AcDb2dVertex
 10
130.6971041882459
 20
253.3149426992581
 30
0.0
  0
SEQEND
  5
BF
330
BC
100
AcDbEntity
  8
GRAU_10_
  0
POLYLINE
  5
C0
330
1F
100
AcDbEntity
  8
GRAU_10_
 62
     7
100
AcDb2dPolyline
 66
     1
 10
0.0
 20
0.0
 30
0.0
  0
VERTEX
  5
C1
330
C0
100
AcDbEntity
  8
GRAU_10_
 62
     7
100
AcDbVertex
100
AcDb2dVertex
 10
131.5247883785771
 20
253.4098550798767
 30
0.0
  0
VERTEX
  5
C2
330
C0
100
AcDbEntity
  8
GRAU_10_
 62
     7
100
AcDbVertex
100
AcDb2dVertex
 10
132.556938985958
 20
251.6226256695162
 30
0.0
  0
SEQEND
  5
C3
330
C0
100
AcDbEntity
  8
GRAU_10_
  0
POLYLINE
  5
C4
330
1F
100
AcDbEntity
  8
GRAU_10_
 62
     7
100
AcDb2dPolyline
 66
     1
 10
0.0
 20
0.0
 30
0.0
  0
VERTEX
  5
C5
330
C4
100
AcDbEntity
  8
GRAU_10_
 62
     7
100
AcDbVertex
100
AcDb2dVertex
 10
129.4422281577436
 20
255.6608804699389
 30
0.0
  0
VERTEX
  5
C6
330
C4
100
AcDbEntity
  8
GRAU_10_
 62
     7
100
AcDbVertex
100
AcDb2dVertex
 10
130.2251261067667
 20
255.6608804699389
 30
0.0
  0
VERTEX
  5
C7
330
C4
100
AcDbEntity
  8
GRAU_10_
 62
     7
100
AcDbVertex
100
AcDb2dVertex
 10
131.5247883785771
 20
253.4098550798767
 30
0.0
  0
SEQEND
  5
C8
330
C4
100
AcDbEntity
  8
GRAU_10_
  0
POLYLINE
  5
C9
330
1F
100
AcDbEntity
  8
GRAU_10_
 62
     7
100
AcDb2dPolyline
 66
     1
 10
0.0
 20
0.0
 30
0.0
  0
VERTEX
  5
CA
330
C9
100
AcDbEntity
  8
GRAU_10_
 62
     7
100
AcDbVertex
100
AcDb2dVertex
 10
112.4849514150211
 20
269.3508286544505
 30
0.0
  0
VERTEX
  5
CB
330
C9
100
AcDbEntity
  8
GRAU_10_
 62
     7
100
AcDbVertex
100
AcDb2dVertex
 10
112.7774400217188
 20
269.4234340418021
 30
0.0
  0
VERTEX
  5
CC
330
C9
100
AcDbEntity
  8
GRAU_10_
 62
     7
100
AcDbVertex
100
AcDb2dVertex
 10
113.2177232247338
 20
269.4950920278953
 30
0.0
  0
VERTEX
  5
CD
330
C9
100
AcDbEntity
  8
GRAU_10_
 62
     7
100
AcDbVertex
100
AcDb2dVertex
 10
113.7977050496756
 20
269.5656303579559
 30
0.0
  0
SEQEND
  5
CE
330
C9
100
AcDbEntity
  8
GRAU_10_
  0
POLYLINE
  5
CF
330
1F
100
AcDbEntity
  8
GRAU_10_
 62
     7
100
AcDb2dPolyline
 66
     1
 10
0.0
 20
0.0
 30
0.0
  0
VERTEX
  5
D0
330
CF
100
AcDbEntity
  8
GRAU_10_
 62
     7
100
AcDbVertex
100
AcDb2dVertex
 10
113.7977050496756
 20
246.0046223343322
 30
0.0
  0
VERTEX
  5
D1
330
CF
100
AcDbEntity
  8
GRAU_10_
 62
     7
100
AcDbVertex
100
AcDb2dVertex
 10
115.5161186777182
 20
245.5262708262053
 30
0.0
  0
VERTEX
  5
D2
330
CF
100
AcDbEntity
  8
GRAU_10_
 62
     7
100
AcDbVertex
100
AcDb2dVertex
 10
117.2214409429169
 20
244.9462890012634
 30
0.0
  0
VERTEX
  5
D3
330
CF
100
AcDbEntity
  8
GRAU_10_
 62
     7
100
AcDbVertex
100
AcDb2dVertex
 10
118.9103990045606
 20
244.2657965155395
 30
0.0
  0
SEQEND
  5
D4
330
CF
100
AcDbEntity
  8
GRAU_10_
  0
POLYLINE
  5
D5
330
1F
100
AcDbEntity
  8
GRAU_10_
 62
     7
100
AcDb2dPolyline
 66
     1
 10
0.0
 20
0.0
 30
0.0
  0
VERTEX
  5
D6
330
D5
100
AcDbEntity
  8
GRAU_10_
 62
     7
100
AcDbVertex
100
AcDb2dVertex
 10
117.5518255999523
 20
235.4435098695245
 30
0.0
  0
VERTEX
  5
D7
330
D5
100
AcDbEntity
  8
GRAU_10_
 62
     7
100
AcDbVertex
100
AcDb2dVertex
 10
117.7251139028604
 20
235.5434176385968
 30
0.0
  0
VERTEX
  5
D8
330
D5
100
AcDbEntity
  8
GRAU_10_
 62
     7
100
AcDbVertex
100
AcDb2dVertex
 10
117.898746715317
 20
235.4435098695245
 30
0.0
  0
SEQEND
  5
D9
330
D5
100
AcDbEntity
  8
GRAU_10_
  0
POLYLINE
  5
DA
330
1F
100
AcDbEntity
  8
GRAU_10_
 62
     7
100
AcDb2dPolyline
 66
     1
 10
0.0
 20
0.0
 30
0.0
  0
VERTEX
  5
DB
330
DA
100
AcDbEntity
  8
GRAU_10_
 62
     7
100
AcDbVertex
100
AcDb2dVertex
 10
115.052064315855
 20
235.4435098695245
 30
0.0
  0
VERTEX
  5
DC
330
DA
100
AcDbEntity
  8
GRAU_10_
 62
     7
100
AcDbVertex
100
AcDb2dVertex
 10
115.2250081092146
 20
235.5434176385968
 30
0.0
  0
VERTEX
  5
DD
330
DA
100
AcDbEntity
  8
GRAU_10_
 62
     7
100
AcDbVertex
100
AcDb2dVertex
 10
115.3981241573484
 20
235.4435098695245
 30
0.0
  0
SEQEND
  5
DE
330
DA
100
AcDbEntity
  8
GRAU_10_
  0
POLYLINE
  5
DF
330
1F
100
AcDbEntity
  8
GRAU_10_
 62
     7
100
AcDb2dPolyline
 66
     1
 10
0.0
 20
0.0
 30
0.0
  0
VERTEX
  5
E0
330
DF
100
AcDbEntity
  8
GRAU_10_
 62
     7
100
AcDbVertex
100
AcDb2dVertex
 10
112.5519585222092
 20
235.4435098695245
 30
0.0
  0
VERTEX
  5
E1
330
DF
100
AcDbEntity
  8
GRAU_10_
 62
     7
100
AcDbVertex
100
AcDb2dVertex
 10
112.7252468251173
 20
235.5434176385968
 30
0.0
  0
VERTEX
  5
E2
330
DF
100
AcDbEntity
  8
GRAU_10_
 62
     7
100
AcDbVertex
100
AcDb2dVertex
 10
112.8980183637026
 20
235.4435098695245
 30
0.0
  0
SEQEND
  5
E3
330
DF
100
AcDbEntity
  8
GRAU_10_
  0
POLYLINE
  5
E4
330
1F
100
AcDbEntity
  8
GRAU_10_
 62
     7
100
AcDb2dPolyline
 66
     1
 10
0.0
 20
0.0
 30
0.0
  0
VERTEX
  5
E5
330
E4
100
AcDbEntity
  8
GRAU_10_
 62
     7
100
AcDbVertex
100
AcDb2dVertex
 10
110.052197238112
 20
235.4435098695245
 30
0.0
  0
VERTEX
  5
E6
330
E4
100
AcDbEntity
  8
GRAU_10_
 62
     7
100
AcDbVertex
100
AcDb2dVertex
 10
110.2251410314715
 20
235.5434176385968
 30
0.0
  0
VERTEX
  5
E7
330
E4
100
AcDbEntity
  8
GRAU_10_
 62
     7
100
AcDbVertex
100
AcDb2dVertex
 10
110.3982570796053
 20
235.4435098695245
 30
0.0
  0
SEQEND
  5
E8
330
E4
100
AcDbEntity
  8
GRAU_10_
  0
POLYLINE
  5
E9
330
1F
100
AcDbEntity
  8
GRAU_10_
 62
     7
100
AcDb2dPolyline
 66
     1
 10
0.0
 20
0.0
 30
0.0
  0
VERTEX
  5
EA
330
E9
100
AcDbEntity
  8
GRAU_10_
 62
     7
100
AcDbVertex
100
AcDb2dVertex
 10
131.3342745982428
 20
250.7029574297288
 30
0.0
  0
VERTEX
  5
EB
330
E9
100
AcDbEntity
  8
GRAU_10_
 62
     7
100
AcDbVertex
100
AcDb2dVertex
 10
132.0520602425946
 20
247.5865240537718
 30
0.0
  0
VERTEX
  5
EC
330
E9
100
AcDbEntity
  8
GRAU_10_
 62
     7
100
AcDbVertex
100
AcDb2dVertex
 10
132.7502088426805
 20
244.6072916055149
 30
0.0
  0
VERTEX
  5
ED
330
E9
100
AcDbEntity
  8
GRAU_10_
 62
     7
100
AcDbVertex
100
AcDb2dVertex
 10
133.4294094175975
 20
241.7678439065719
 30
0.0
  0
VERTEX
  5
EE
330
E9
100
AcDbEntity
  8
GRAU_10_
 62
     7
100
AcDbVertex
100
AcDb2dVertex
 10
134.0875949100545
 20
239.0697312499114
 30
0.0
  0
VERTEX
  5
EF
330
E9
100
AcDbEntity
  8
GRAU_10_
 62
     7
100
AcDbVertex
100
AcDb2dVertex
 10
134.7254543391485
 20
236.5170016227284
 30
0.0
  0
SEQEND
  5
F0
330
E9
100
AcDbEntity
  8
GRAU_10_
  0
POLYLINE
  5
F1
330
1F
100
AcDbEntity
  8
GRAU_10_
 62
     7
100
AcDb2dPolyline
 66
     1
 10
0.0
 20
0.0
 30
0.0
  0
VERTEX
  5
F2
330
F1
100
AcDbEntity
  8
GRAU_10_
 62
     7
100
AcDbVertex
100
AcDb2dVertex
 10
132.6017252272662
 20
251.5453694032595
 30
0.0
  0
VERTEX
  5
F3
330
F1
100
AcDbEntity
  8
GRAU_10_
 62
     7
100
AcDbVertex
100
AcDb2dVertex
 10
132.405354784607
 20
251.3898233421005
 30
0.0
  0
VERTEX
  5
F4
330
F1
100
AcDbEntity
  8
GRAU_10_
 62
     7
100
AcDbVertex
100
AcDb2dVertex
 10
132.1523125212154
 20
251.422293367049
 30
0.0
  0
VERTEX
  5
F5
330
F1
100
AcDbEntity
  8
GRAU_10_
 62
     7
100
AcDbVertex
100
AcDb2dVertex
 10
131.8463880421252
 20
251.6423488411693
 30
0.0
  0
VERTEX
  5
F6
330
F1
100
AcDbEntity
  8
GRAU_10_
 62
     7
100
AcDbVertex
100
AcDb2dVertex
 10
131.4925767357901
 20
252.0462862868148
 30
0.0
  0
VERTEX
  5
F7
330
F1
100
AcDbEntity
  8
GRAU_10_
 62
     7
100
AcDbVertex
100
AcDb2dVertex
 10
131.0957017358893
 20
252.629110315532
 30
0.0
  0
VERTEX
  5
F8
330
F1
100
AcDbEntity
  8
GRAU_10_
 62
     7
100
AcDbVertex
100
AcDb2dVertex
 10
130.6614474499735
 20
253.3809162778006
 30
0.0
  0
SEQEND
  5
F9
330
F1
100
AcDbEntity
  8
GRAU_10_
  0
POLYLINE
  5
FA
330
1F
100
AcDbEntity
  8
GRAU_10_
 62
     7
100
AcDb2dPolyline
 66
     1
 10
0.0
 20
0.0
 30
0.0
  0
VERTEX
  5
FB
330
FA
100
AcDbEntity
  8
GRAU_10_
 62
     7
100
AcDbVertex
100
AcDb2dVertex
 10
114.3861273585563
 20
269.8849045820514
 30
0.0
  0
VERTEX
  5
FC
330
FA
100
AcDbEntity
  8
GRAU_10_
 62
     7
100
AcDbVertex
100
AcDb2dVertex
 10
114.3091294744609
 20
269.8884358049237
 30
0.0
  0
VERTEX
  5
FD
330
FA
100
AcDbEntity
  8
GRAU_10_
 62
     7
100
AcDbVertex
100
AcDb2dVertex
 10
114.2347154119795
 20
269.8919670277961
 30
0.0
  0
VERTEX
  5
FE
330
FA
100
AcDbEntity
  8
GRAU_10_
 62
     7
100
AcDbVertex
100
AcDb2dVertex
 10
114.1642632093062
 20
269.8948092315715
 30
0.0
  0
VERTEX
  5
FF
330
FA
100
AcDbEntity
  8
GRAU_10_
 62
     7
100
AcDbVertex
100
AcDb2dVertex
 10
114.0963948282467
 20
269.8968762888626
 30
0.0
  0
VERTEX
  5
100
330
FA
100
AcDbEntity
  8
GRAU_10_
 62
     7
100
AcDbVertex
100
AcDb2dVertex
 10
114.0319715426726
 20
269.8985988366052
 30
0.0
  0
VERTEX
  5
101
330
FA
100
AcDbEntity
  8
GRAU_10_
 62
     7
100
AcDbVertex
100
AcDb2dVertex
 10
113.9690985500668
 20
269.900407511735
 30
0.0
  0
VERTEX
  5
102
330
FA
100
AcDbEntity
  8
GRAU_10_
 62
     7
100
AcDbVertex
100
AcDb2dVertex
 10
113.9088093790749
 20
269.9018716773162
 30
0.0
  0
VERTEX
  5
103
330
FA
100
AcDbEntity
  8
GRAU_10_
 62
     7
100
AcDbVertex
100
AcDb2dVertex
 10
113.8505872653742
 20
269.9025606964133
 30
0.0
  0
VERTEX
  5
104
330
FA
100
AcDbEntity
  8
GRAU_10_
 62
     7
100
AcDbVertex
100
AcDb2dVertex
 10
113.7951212280616
 20
269.9035942250588
 30
0.0
  0
VERTEX
  5
105
330
FA
100
AcDbEntity
  8
GRAU_10_
 62
     7
100
AcDbVertex
100
AcDb2dVertex
 10
113.740860974169
 20
269.9039387346074
 30
0.0
  0
VERTEX
  5
106
330
FA
100
AcDbEntity
  8
GRAU_10_
 62
     7
100
AcDbVertex
100
AcDb2dVertex
 10
113.6917683635042
 20
269.9039387346074
 30
0.0
  0
SEQEND
  5
107
330
FA
100
AcDbEntity
  8
GRAU_10_
  0
POLYLINE
  5
108
330
1F
100
AcDbEntity
  8
GRAU_10_
 62
     7
100
AcDb2dPolyline
 66
     1
 10
0.0
 20
0.0
 30
0.0
  0
VERTEX
  5
109
330
108
100
AcDbEntity
  8
GRAU_10_
 62
     7
100
AcDbVertex
100
AcDb2dVertex
 10
114.3906059826871
 20
269.6918931074902
 30
0.0
  0
VERTEX
  5
10A
330
108
100
AcDbEntity
  8
GRAU_10_
 62
     7
100
AcDbVertex
100
AcDb2dVertex
 10
114.3666625690646
 20
269.7254827884714
 30
0.0
  0
VERTEX
  5
10B
330
108
100
AcDbEntity
  8
GRAU_10_
 62
     7
100
AcDbVertex
100
AcDb2dVertex
 10
114.3490925820898
 20
269.7561441382902
 30
0.0
  0
VERTEX
  5
10C
330
108
100
AcDbEntity
  8
GRAU_10_
 62
     7
100
AcDbVertex
100
AcDb2dVertex
 10
114.338068276537
 20
269.7850829403662
 30
0.0
  0
VERTEX
  5
10D
330
108
100
AcDbEntity
  8
GRAU_10_
 62
     7
100
AcDbVertex
100
AcDb2dVertex
 10
114.3339341619547
 20
269.8115240482155
 30
0.0
  0
VERTEX
  5
10E
330
108
100
AcDbEntity
  8
GRAU_10_
 62
     7
100
AcDbVertex
100
AcDb2dVertex
 10
114.3370347478914
 20
269.8340894236439
 30
0.0
  0
VERTEX
  5
10F
330
108
100
AcDbEntity
  8
GRAU_10_
 62
     7
100
AcDbVertex
100
AcDb2dVertex
 10
114.3465087604759
 20
269.8545016143941
 30
0.0
  0
VERTEX
  5
110
330
108
100
AcDbEntity
  8
GRAU_10_
 62
     7
100
AcDbVertex
100
AcDb2dVertex
 10
114.362356199708
 20
269.8714687096589
 30
0.0
  0
VERTEX
  5
111
330
108
100
AcDbEntity
  8
GRAU_10_
 62
     7
100
AcDbVertex
100
AcDb2dVertex
 10
114.3861273585563
 20
269.8849045820514
 30
0.0
  0
SEQEND
  5
112
330
108
100
AcDbEntity
  8
GRAU_10_
  0
POLYLINE
  5
113
330
1F
100
AcDbEntity
  8
GRAU_10_
 62
     7
100
AcDb2dPolyline
 66
     1
 10
0.0
 20
0.0
 30
0.0
  0
VERTEX
  5
114
330
113
100
AcDbEntity
  8
GRAU_10_
 62
     7
100
AcDbVertex
100
AcDb2dVertex
 10
113.7977050496756
 20
269.5656303579559
 30
0.0
  0
VERTEX
  5
115
330
113
100
AcDbEntity
  8
GRAU_10_
 62
     7
100
AcDbVertex
100
AcDb2dVertex
 10
113.8459363864691
 20
269.5779465743156
 30
0.0
  0
VERTEX
  5
116
330
113
100
AcDbEntity
  8
GRAU_10_
 62
     7
100
AcDbVertex
100
AcDb2dVertex
 10
113.8967515448765
 20
269.5899182811268
 30
0.0
  0
VERTEX
  5
117
330
113
100
AcDbEntity
  8
GRAU_10_
 62
     7
100
AcDbVertex
100
AcDb2dVertex
 10
113.9496337605751
 20
269.6023206248738
 30
0.0
  0
VERTEX
  5
118
330
113
100
AcDbEntity
  8
GRAU_10_
 62
     7
100
AcDbVertex
100
AcDb2dVertex
 10
114.0047552883391
 20
269.6154119877177
 30
0.0
  0
VERTEX
  5
119
330
113
100
AcDbEntity
  8
GRAU_10_
 62
     7
100
AcDbVertex
100
AcDb2dVertex
 10
114.0626328924913
 20
269.6277282040775
 30
0.0
  0
VERTEX
  5
11A
330
113
100
AcDbEntity
  8
GRAU_10_
 62
     7
100
AcDbVertex
100
AcDb2dVertex
 10
114.1232665730317
 20
269.6407334395343
 30
0.0
  0
VERTEX
  5
11B
330
113
100
AcDbEntity
  8
GRAU_10_
 62
     7
100
AcDbVertex
100
AcDb2dVertex
 10
114.1859673108632
 20
269.6531357832812
 30
0.0
  0
VERTEX
  5
11C
330
113
100
AcDbEntity
  8
GRAU_10_
 62
     7
100
AcDbVertex
100
AcDb2dVertex
 10
114.2512518703087
 20
269.666141018738
 30
0.0
  0
VERTEX
  5
11D
330
113
100
AcDbEntity
  8
GRAU_10_
 62
     7
100
AcDbVertex
100
AcDb2dVertex
 10
114.3194647609167
 20
269.6795768911305
 30
0.0
  0
VERTEX
  5
11E
330
113
100
AcDbEntity
  8
GRAU_10_
 62
     7
100
AcDbVertex
100
AcDb2dVertex
 10
114.3906059826871
 20
269.6918931074902
 30
0.0
  0
SEQEND
  5
11F
330
113
100
AcDbEntity
  8
GRAU_10_
  0
POLYLINE
  5
120
330
1F
100
AcDbEntity
  8
GRAU_10_
 62
     7
100
AcDb2dPolyline
 66
     1
 10
0.0
 20
0.0
 30
0.0
  0
VERTEX
  5
121
330
120
100
AcDbEntity
  8
GRAU_10_
 62
     7
100
AcDbVertex
100
AcDb2dVertex
 10
130.6614474499735
 20
252.441438738973
 30
0.0
  0
VERTEX
  5
122
330
120
100
AcDbEntity
  8
GRAU_10_
 62
     7
100
AcDbVertex
100
AcDb2dVertex
 10
129.7848429037517
 20
254.4463120566141
 30
0.0
  0
VERTEX
  5
123
330
120
100
AcDbEntity
  8
GRAU_10_
 62
     7
100
AcDbVertex
100
AcDb2dVertex
 10
128.7833536461896
 20
256.3593735795733
 30
0.0
  0
VERTEX
  5
124
330
120
100
AcDbEntity
  8
GRAU_10_
 62
     7
100
AcDbVertex
100
AcDb2dVertex
 10
127.6587022250298
 20
258.1875134988212
 30
0.0
  0
VERTEX
  5
125
330
120
100
AcDbEntity
  8
GRAU_10_
 62
     7
100
AcDbVertex
100
AcDb2dVertex
 10
126.4119221689179
 20
259.9393445530707
 30
0.0
  0
VERTEX
  5
126
330
120
100
AcDbEntity
  8
GRAU_10_
 62
     7
100
AcDbVertex
100
AcDb2dVertex
 10
125.7423678613596
 20
260.7877854437006
 30
0.0
  0
VERTEX
  5
127
330
120
100
AcDbEntity
  8
GRAU_10_
 62
     7
100
AcDbVertex
100
AcDb2dVertex
 10
125.041807694434
 20
261.6200343855498
 30
0.0
  0
VERTEX
  5
128
330
120
100
AcDbEntity
  8
GRAU_10_
 62
     7
100
AcDbVertex
100
AcDb2dVertex
 10
124.3100694133669
 20
262.4360052512313
 30
0.0
  0
VERTEX
  5
129
330
120
100
AcDbEntity
  8
GRAU_10_
 62
     7
100
AcDbVertex
100
AcDb2dVertex
 10
123.5473252729326
 20
263.2361286776805
 30
0.0
  0
VERTEX
  5
12A
330
120
100
AcDbEntity
  8
GRAU_10_
 62
     7
100
AcDbVertex
100
AcDb2dVertex
 10
121.939843719515
 20
264.7795314550725
 30
0.0
  0
VERTEX
  5
12B
330
120
100
AcDbEntity
  8
GRAU_10_
 62
     7
100
AcDbVertex
100
AcDb2dVertex
 10
120.2248751869577
 20
266.2502427177257
 30
0.0
  0
SEQEND
  5
12C
330
120
100
AcDbEntity
  8
GRAU_10_
  0
POLYLINE
  5
12D
330
1F
100
AcDbEntity
  8
GRAU_10_
 62
     7
100
AcDb2dPolyline
 66
     1
 10
0.0
 20
0.0
 30
0.0
  0
VERTEX
  5
12E
330
12D
100
AcDbEntity
  8
GRAU_10_
 62
     7
100
AcDbVertex
100
AcDb2dVertex
 10
130.6614474499735
 20
252.441438738973
 30
0.0
  0
VERTEX
  5
12F
330
12D
100
AcDbEntity
  8
GRAU_10_
 62
     7
100
AcDbVertex
100
AcDb2dVertex
 10
130.9959662215913
 20
251.5982516189581
 30
0.0
  0
VERTEX
  5
130
330
12D
100
AcDbEntity
  8
GRAU_10_
 62
     7
100
AcDbVertex
100
AcDb2dVertex
 10
131.3306572479833
 20
250.7573038110086
 30
0.0
  0
VERTEX
  5
131
330
12D
100
AcDbEntity
  8
GRAU_10_
 62
     7
100
AcDbVertex
100
AcDb2dVertex
 10
131.3325520505002
 20
250.7300875566751
 30
0.0
  0
VERTEX
  5
132
330
12D
100
AcDbEntity
  8
GRAU_10_
 62
     7
100
AcDbVertex
100
AcDb2dVertex
 10
131.3342745982428
 20
250.7029574297288
 30
0.0
  0
SEQEND
  5
133
330
12D
100
AcDbEntity
  8
GRAU_10_
  0
POLYLINE
  5
134
330
1F
100
AcDbEntity
  8
GRAU_10_
 62
     7
100
AcDb2dPolyline
 66
     1
 10
0.0
 20
0.0
 30
0.0
  0
VERTEX
  5
135
330
134
100
AcDbEntity
  8
GRAU_10_
 62
     7
100
AcDbVertex
100
AcDb2dVertex
 10
118.9103990045606
 20
244.2657965155395
 30
0.0
  0
VERTEX
  5
136
330
134
100
AcDbEntity
  8
GRAU_10_
 62
     7
100
AcDbVertex
100
AcDb2dVertex
 10
122.3108805032765
 20
245.3466952240366
 30
0.0
  0
VERTEX
  5
137
330
134
100
AcDbEntity
  8
GRAU_10_
 62
     7
100
AcDbVertex
100
AcDb2dVertex
 10
125.5236042980462
 20
246.7680554938636
 30
0.0
  0
VERTEX
  5
138
330
134
100
AcDbEntity
  8
GRAU_10_
 62
     7
100
AcDbVertex
100
AcDb2dVertex
 10
127.0609781583389
 20
247.6126206520726
 30
0.0
  0
VERTEX
  5
139
330
134
100
AcDbEntity
  8
GRAU_10_
 62
     7
100
AcDbVertex
100
AcDb2dVertex
 10
128.5490871531926
 20
248.5509785348675
 30
0.0
  0
VERTEX
  5
13A
330
134
100
AcDbEntity
  8
GRAU_10_
 62
     7
100
AcDbVertex
100
AcDb2dVertex
 10
129.9763902127316
 20
249.5818372314414
 30
0.0
  0
VERTEX
  5
13B
330
134
100
AcDbEntity
  8
GRAU_10_
 62
     7
100
AcDbVertex
100
AcDb2dVertex
 10
131.3342745982428
 20
250.7029574297288
 30
0.0
  0
SEQEND
  5
13C
330
134
100
AcDbEntity
  8
GRAU_10_
  0
POLYLINE
  5
13D
330
1F
100
AcDbEntity
  8
GRAU_10_
 62
     7
100
AcDb2dPolyline
 66
     1
 10
0.0
 20
0.0
 30
0.0
  0
VERTEX
  5
13E
330
13D
100
AcDbEntity
  8
GRAU_10_
 62
     7
100
AcDbVertex
100
AcDb2dVertex
 10
120.2248751869577
 20
266.2502427177257
 30
0.0
  0
VERTEX
  5
13F
330
13D
100
AcDbEntity
  8
GRAU_10_
 62
     7
100
AcDbVertex
100
AcDb2dVertex
 10
118.8892116673263
 20
267.2510429561907
 30
0.0
  0
VERTEX
  5
140
330
13D
100
AcDbEntity
  8
GRAU_10_
 62
     7
100
AcDbVertex
100
AcDb2dVertex
 10
117.471554875146
 20
268.154863756746
 30
0.0
  0
VERTEX
  5
141
330
13D
100
AcDbEntity
  8
GRAU_10_
 62
     7
100
AcDbVertex
100
AcDb2dVertex
 10
115.9722493199653
 20
268.9673033995551
 30
0.0
  0
VERTEX
  5
142
330
13D
100
AcDbEntity
  8
GRAU_10_
 62
     7
100
AcDbVertex
100
AcDb2dVertex
 10
114.3906059826871
 20
269.6918931074902
 30
0.0
  0
SEQEND
  5
143
330
13D
100
AcDbEntity
  8
GRAU_10_
  0
POLYLINE
  5
144
330
1F
100
AcDbEntity
  8
GRAU_10_
 62
     7
100
AcDb2dPolyline
 66
     1
 10
0.0
 20
0.0
 30
0.0
  0
VERTEX
  5
145
330
144
100
AcDbEntity
  8
GRAU_10_
 62
     7
100
AcDbVertex
100
AcDb2dVertex
 10
114.3861273585563
 20
269.8849045820514
 30
0.0
  0
VERTEX
  5
146
330
144
100
AcDbEntity
  8
GRAU_10_
 62
     7
100
AcDbVertex
100
AcDb2dVertex
 10
115.1876288231996
 20
269.5272175432953
 30
0.0
  0
VERTEX
  5
147
330
144
100
AcDbEntity
  8
GRAU_10_
 62
     7
100
AcDbVertex
100
AcDb2dVertex
 10
115.9686319697058
 20
269.1458454730781
 30
0.0
  0
VERTEX
  5
148
330
144
100
AcDbEntity
  8
GRAU_10_
 62
     7
100
AcDbVertex
100
AcDb2dVertex
 10
116.7293090528489
 20
268.7429415560782
 30
0.0
  0
VERTEX
  5
149
330
144
100
AcDbEntity
  8
GRAU_10_
 62
     7
100
AcDbVertex
100
AcDb2dVertex
 10
117.4689710535321
 20
268.3178167731983
 30
0.0
  0
VERTEX
  5
14A
330
144
100
AcDbEntity
  8
GRAU_10_
 62
     7
100
AcDbVertex
100
AcDb2dVertex
 10
118.1889960099493
 20
267.8715907804714
 30
0.0
  0
VERTEX
  5
14B
330
144
100
AcDbEntity
  8
GRAU_10_
 62
     7
100
AcDbVertex
100
AcDb2dVertex
 10
118.8885226482293
 20
267.4041774505101
 30
0.0
  0
VERTEX
  5
14C
330
144
100
AcDbEntity
  8
GRAU_10_
 62
     7
100
AcDbVertex
100
AcDb2dVertex
 10
119.5670342040492
 20
266.9169548215086
 30
0.0
  0
VERTEX
  5
14D
330
144
100
AcDbEntity
  8
GRAU_10_
 62
     7
100
AcDbVertex
100
AcDb2dVertex
 10
120.2248751869577
 20
266.40863098266
 30
0.0
  0
SEQEND
  5
14E
330
144
100
AcDbEntity
  8
GRAU_10_
  0
POLYLINE
  5
14F
330
1F
100
AcDbEntity
  8
GRAU_10_
 62
     7
100
AcDb2dPolyline
 66
     1
 10
0.0
 20
0.0
 30
0.0
  0
VERTEX
  5
150
330
14F
100
AcDbEntity
  8
GRAU_10_
 62
     7
100
AcDbVertex
100
AcDb2dVertex
 10
128.9826524200113
 20
256.5032924434697
 30
0.0
  0
VERTEX
  5
151
330
14F
100
AcDbEntity
  8
GRAU_10_
 62
     7
100
AcDbVertex
100
AcDb2dVertex
 10
129.13010250678
 20
256.2387091102025
 30
0.0
  0
VERTEX
  5
152
330
14F
100
AcDbEntity
  8
GRAU_10_
 62
     7
100
AcDbVertex
100
AcDb2dVertex
 10
129.274452007612
 20
255.9741257769353
 30
0.0
  0
VERTEX
  5
153
330
14F
100
AcDbEntity
  8
GRAU_10_
 62
     7
100
AcDbVertex
100
AcDb2dVertex
 10
129.4677218643345
 20
255.6157497190822
 30
0.0
  0
VERTEX
  5
154
330
14F
100
AcDbEntity
  8
GRAU_10_
 62
     7
100
AcDbVertex
100
AcDb2dVertex
 10
129.6549628039578
 20
255.2653835082323
 30
0.0
  0
VERTEX
  5
155
330
14F
100
AcDbEntity
  8
GRAU_10_
 62
     7
100
AcDbVertex
100
AcDb2dVertex
 10
129.8366915908047
 20
254.9253525838381
 30
0.0
  0
VERTEX
  5
156
330
14F
100
AcDbEntity
  8
GRAU_10_
 62
     7
100
AcDbVertex
100
AcDb2dVertex
 10
130.012735970101
 20
254.5947956720284
 30
0.0
  0
VERTEX
  5
157
330
14F
100
AcDbEntity
  8
GRAU_10_
 62
     7
100
AcDbVertex
100
AcDb2dVertex
 10
130.1834404513951
 20
254.2741434097388
 30
0.0
  0
VERTEX
  5
158
330
14F
100
AcDbEntity
  8
GRAU_10_
 62
     7
100
AcDbVertex
100
AcDb2dVertex
 10
130.3479437608158
 20
253.9643431982277
 30
0.0
  0
VERTEX
  5
159
330
14F
100
AcDbEntity
  8
GRAU_10_
 62
     7
100
AcDbVertex
100
AcDb2dVertex
 10
130.5072794270086
 20
253.6662563113664
 30
0.0
  0
VERTEX
  5
15A
330
14F
100
AcDbEntity
  8
GRAU_10_
 62
     7
100
AcDbVertex
100
AcDb2dVertex
 10
130.6614474499735
 20
253.3809162778006
 30
0.0
  0
SEQEND
  5
15B
330
14F
100
AcDbEntity
  8
GRAU_10_
  0
POLYLINE
  5
15C
330
1F
100
AcDbEntity
  8
GRAU_10_
 62
     7
100
AcDb2dPolyline
 66
     1
 10
0.0
 20
0.0
 30
0.0
  0
VERTEX
  5
15D
330
15C
100
AcDbEntity
  8
GRAU_10_
 62
     7
100
AcDbVertex
100
AcDb2dVertex
 10
120.2248751869577
 20
266.40863098266
 30
0.0
  0
VERTEX
  5
15E
330
15C
100
AcDbEntity
  8
GRAU_10_
 62
     7
100
AcDbVertex
100
AcDb2dVertex
 10
121.9930704447622
 20
264.9075167523495
 30
0.0
  0
VERTEX
  5
15F
330
15C
100
AcDbEntity
  8
GRAU_10_
 62
     7
100
AcDbVertex
100
AcDb2dVertex
 10
123.6365532460006
 20
263.3366393384627
 30
0.0
  0
VERTEX
  5
160
330
15C
100
AcDbEntity
  8
GRAU_10_
 62
     7
100
AcDbVertex
100
AcDb2dVertex
 10
125.1577351575127
 20
261.7046114797128
 30
0.0
  0
VERTEX
  5
161
330
15C
100
AcDbEntity
  8
GRAU_10_
 62
     7
100
AcDbVertex
100
AcDb2dVertex
 10
126.5562716697498
 20
260.0173759658117
 30
0.0
  0
VERTEX
  5
162
330
15C
100
AcDbEntity
  8
GRAU_10_
 62
     7
100
AcDbVertex
100
AcDb2dVertex
 10
127.8318182731636
 20
258.2819952425041
 30
0.0
  0
VERTEX
  5
163
330
15C
100
AcDbEntity
  8
GRAU_10_
 62
     7
100
AcDbVertex
100
AcDb2dVertex
 10
128.9826524200113
 20
256.5032924434697
 30
0.0
  0
SEQEND
  5
164
330
15C
100
AcDbEntity
  8
GRAU_10_
  0
POLYLINE
  5
165
330
1F
100
AcDbEntity
  8
GRAU_10_
 62
     7
100
AcDb2dPolyline
 66
     1
 10
0.0
 20
0.0
 30
0.0
  0
VERTEX
  5
166
330
165
100
AcDbEntity
  8
GRAU_10_
 62
     7
100
AcDbVertex
100
AcDb2dVertex
 10
134.7254543391485
 20
234.8773084265237
 30
0.0
  0
VERTEX
  5
167
330
165
100
AcDbEntity
  8
GRAU_10_
 62
     7
100
AcDbVertex
100
AcDb2dVertex
 10
134.5039346994469
 20
234.494213808564
 30
0.0
  0
VERTEX
  5
168
330
165
100
AcDbEntity
  8
GRAU_10_
 62
     7
100
AcDbVertex
100
AcDb2dVertex
 10
134.2827595692939
 20
234.1114637001527
 30
0.0
  0
SEQEND
  5
169
330
165
100
AcDbEntity
  8
GRAU_10_
  0
POLYLINE
  5
16A
330
1F
100
AcDbEntity
  8
GRAU_10_
 62
     7
100
AcDb2dPolyline
 66
     1
 10
0.0
 20
0.0
 30
0.0
  0
VERTEX
  5
16B
330
16A
100
AcDbEntity
  8
GRAU_10_
 62
     7
100
AcDbVertex
100
AcDb2dVertex
 10
133.6678100251768
 20
234.1114637001527
 30
0.0
  0
VERTEX
  5
16C
330
16A
100
AcDbEntity
  8
GRAU_10_
 62
     7
100
AcDbVertex
100
AcDb2dVertex
 10
133.9783853831721
 20
234.1114637001527
 30
0.0
  0
VERTEX
  5
16D
330
16A
100
AcDbEntity
  8
GRAU_10_
 62
     7
100
AcDbVertex
100
AcDb2dVertex
 10
134.2827595692939
 20
234.1114637001527
 30
0.0
  0
SEQEND
  5
16E
330
16A
100
AcDbEntity
  8
GRAU_10_
  0
POLYLINE
  5
16F
330
1F
100
AcDbEntity
  8
GRAU_10_
 62
     7
100
AcDb2dPolyline
 66
     1
 10
0.0
 20
0.0
 30
0.0
  0
VERTEX
  5
170
330
16F
100
AcDbEntity
  8
GRAU_10_
 62
     7
100
AcDbVertex
100
AcDb2dVertex
 10
132.8985202033205
 20
235.4435098695245
 30
0.0
  0
VERTEX
  5
171
330
16F
100
AcDbEntity
  8
GRAU_10_
 62
     7
100
AcDbVertex
100
AcDb2dVertex
 10
133.2854044263141
 20
234.7736110524177
 30
0.0
  0
VERTEX
  5
172
330
16F
100
AcDbEntity
  8
GRAU_10_
 62
     7
100
AcDbVertex
100
AcDb2dVertex
 10
133.6678100251768
 20
234.1114637001527
 30
0.0
  0
SEQEND
  5
173
330
16F
100
AcDbEntity
  8
GRAU_10_
  0
POLYLINE
  5
174
330
1F
100
AcDbEntity
  8
GRAU_10_
 62
     7
100
AcDb2dPolyline
 66
     1
 10
0.0
 20
0.0
 30
0.0
  0
VERTEX
  5
175
330
174
100
AcDbEntity
  8
GRAU_10_
 62
     7
100
AcDbVertex
100
AcDb2dVertex
 10
132.8985202033205
 20
235.4435098695245
 30
0.0
  0
VERTEX
  5
176
330
174
100
AcDbEntity
  8
GRAU_10_
 62
     7
100
AcDbVertex
100
AcDb2dVertex
 10
132.8861178595736
 20
235.4619411303706
 30
0.0
  0
VERTEX
  5
177
330
174
100
AcDbEntity
  8
GRAU_10_
 62
     7
100
AcDbVertex
100
AcDb2dVertex
 10
132.8723374776326
 20
235.4788220982484
 30
0.0
  0
VERTEX
  5
178
330
174
100
AcDbEntity
  8
GRAU_10_
 62
     7
100
AcDbVertex
100
AcDb2dVertex
 10
132.8578680765946
 20
235.4936360088349
 30
0.0
  0
VERTEX
  5
179
330
174
100
AcDbEntity
  8
GRAU_10_
 62
     7
100
AcDbVertex
100
AcDb2dVertex
 10
132.8416761278139
 20
235.5063828621304
 30
0.0
  0
VERTEX
  5
17A
330
174
100
AcDbEntity
  8
GRAU_10_
 62
     7
100
AcDbVertex
100
AcDb2dVertex
 10
132.8239338860649
 20
235.5175794224574
 30
0.0
  0
VERTEX
  5
17B
330
174
100
AcDbEntity
  8
GRAU_10_
 62
     7
100
AcDbVertex
100
AcDb2dVertex
 10
132.8053303704445
 20
235.5267089254933
 30
0.0
  0
VERTEX
  5
17C
330
174
100
AcDbEntity
  8
GRAU_10_
 62
     7
100
AcDbVertex
100
AcDb2dVertex
 10
132.7949950839888
 20
235.5310152948499
 30
0.0
  0
VERTEX
  5
17D
330
174
100
AcDbEntity
  8
GRAU_10_
 62
     7
100
AcDbVertex
100
AcDb2dVertex
 10
132.7851765618558
 20
235.5346326451094
 30
0.0
  0
VERTEX
  5
17E
330
174
100
AcDbEntity
  8
GRAU_10_
 62
     7
100
AcDbVertex
100
AcDb2dVertex
 10
132.7746690206258
 20
235.5377332310461
 30
0.0
  0
VERTEX
  5
17F
330
174
100
AcDbEntity
  8
GRAU_10_
 62
     7
100
AcDbVertex
100
AcDb2dVertex
 10
132.763644715073
 20
235.5401447978858
 30
0.0
  0
VERTEX
  5
180
330
174
100
AcDbEntity
  8
GRAU_10_
 62
     7
100
AcDbVertex
100
AcDb2dVertex
 10
132.7410793396446
 20
235.5434176385968
 30
0.0
  0
VERTEX
  5
181
330
174
100
AcDbEntity
  8
GRAU_10_
 62
     7
100
AcDbVertex
100
AcDb2dVertex
 10
132.7171359260221
 20
235.5434176385968
 30
0.0
  0
VERTEX
  5
182
330
174
100
AcDbEntity
  8
GRAU_10_
 62
     7
100
AcDbVertex
100
AcDb2dVertex
 10
132.7043890727267
 20
235.5423841099512
 30
0.0
  0
VERTEX
  5
183
330
174
100
AcDbEntity
  8
GRAU_10_
 62
     7
100
AcDbVertex
100
AcDb2dVertex
 10
132.6916422194313
 20
235.5404893074343
 30
0.0
  0
VERTEX
  5
184
330
174
100
AcDbEntity
  8
GRAU_10_
 62
     7
100
AcDbVertex
100
AcDb2dVertex
 10
132.6783786018131
 20
235.5384222501432
 30
0.0
  0
VERTEX
  5
185
330
174
100
AcDbEntity
  8
GRAU_10_
 62
     7
100
AcDbVertex
100
AcDb2dVertex
 10
132.6645982198721
 20
235.5346326451094
 30
0.0
  0
VERTEX
  5
186
330
174
100
AcDbEntity
  8
GRAU_10_
 62
     7
100
AcDbVertex
100
AcDb2dVertex
 10
132.6504733283825
 20
235.5296372566558
 30
0.0
  0
VERTEX
  5
187
330
174
100
AcDbEntity
  8
GRAU_10_
 62
     7
100
AcDbVertex
100
AcDb2dVertex
 10
132.6360039273445
 20
235.5229193204596
 30
0.0
  0
VERTEX
  5
188
330
174
100
AcDbEntity
  8
GRAU_10_
 62
     7
100
AcDbVertex
100
AcDb2dVertex
 10
132.6289414815997
 20
235.5191297154258
 30
0.0
  0
VERTEX
  5
189
330
174
100
AcDbEntity
  8
GRAU_10_
 62
     7
100
AcDbVertex
100
AcDb2dVertex
 10
132.6215345263064
 20
235.5144788365207
 30
0.0
  0
VERTEX
  5
18A
330
174
100
AcDbEntity
  8
GRAU_10_
 62
     7
100
AcDbVertex
100
AcDb2dVertex
 10
132.6137830614646
 20
235.5098279576156
 30
0.0
  0
VERTEX
  5
18B
330
174
100
AcDbEntity
  8
GRAU_10_
 62
     7
100
AcDbVertex
100
AcDb2dVertex
 10
132.6063761061713
 20
235.5046603143877
 30
0.0
  0
VERTEX
  5
18C
330
174
100
AcDbEntity
  8
GRAU_10_
 62
     7
100
AcDbVertex
100
AcDb2dVertex
 10
132.5993136604266
 20
235.4989759068371
 30
0.0
  0
VERTEX
  5
18D
330
174
100
AcDbEntity
  8
GRAU_10_
 62
     7
100
AcDbVertex
100
AcDb2dVertex
 10
132.5915621955847
 20
235.4926024801894
 30
0.0
  0
VERTEX
  5
18E
330
174
100
AcDbEntity
  8
GRAU_10_
 62
     7
100
AcDbVertex
100
AcDb2dVertex
 10
132.5841552402915
 20
235.4858845439931
 30
0.0
  0
VERTEX
  5
18F
330
174
100
AcDbEntity
  8
GRAU_10_
 62
     7
100
AcDbVertex
100
AcDb2dVertex
 10
132.5770927945467
 20
235.4777885696028
 30
0.0
  0
VERTEX
  5
190
330
174
100
AcDbEntity
  8
GRAU_10_
 62
     7
100
AcDbVertex
100
AcDb2dVertex
 10
132.5703748583505
 20
235.4703816143095
 30
0.0
  0
VERTEX
  5
191
330
174
100
AcDbEntity
  8
GRAU_10_
 62
     7
100
AcDbVertex
100
AcDb2dVertex
 10
132.5636569221542
 20
235.4619411303706
 30
0.0
  0
VERTEX
  5
192
330
174
100
AcDbEntity
  8
GRAU_10_
 62
     7
100
AcDbVertex
100
AcDb2dVertex
 10
132.5576280050551
 20
235.452983882109
 30
0.0
  0
VERTEX
  5
193
330
174
100
AcDbEntity
  8
GRAU_10_
 62
     7
100
AcDbVertex
100
AcDb2dVertex
 10
132.5515990879559
 20
235.4435098695245
 30
0.0
  0
VERTEX
  5
194
330
174
100
AcDbEntity
  8
GRAU_10_
 62
     7
100
AcDbVertex
100
AcDb2dVertex
 10
132.1667819222534
 20
234.7763671288059
 30
0.0
  0
VERTEX
  5
195
330
174
100
AcDbEntity
  8
GRAU_10_
 62
     7
100
AcDbVertex
100
AcDb2dVertex
 10
131.7826537756481
 20
234.1114637001527
 30
0.0
  0
SEQEND
  5
196
330
174
100
AcDbEntity
  8
GRAU_10_
  0
POLYLINE
  5
197
330
1F
100
AcDbEntity
  8
GRAU_10_
 62
     7
100
AcDb2dPolyline
 66
     1
 10
0.0
 20
0.0
 30
0.0
  0
VERTEX
  5
198
330
197
100
AcDbEntity
  8
GRAU_10_
 62
     7
100
AcDbVertex
100
AcDb2dVertex
 10
131.167704231531
 20
234.1114637001527
 30
0.0
  0
VERTEX
  5
199
330
197
100
AcDbEntity
  8
GRAU_10_
 62
     7
100
AcDbVertex
100
AcDb2dVertex
 10
131.4774183156549
 20
234.1114637001527
 30
0.0
  0
VERTEX
  5
19A
330
197
100
AcDbEntity
  8
GRAU_10_
 62
     7
100
AcDbVertex
100
AcDb2dVertex
 10
131.7826537756481
 20
234.1114637001527
 30
0.0
  0
SEQEND
  5
19B
330
197
100
AcDbEntity
  8
GRAU_10_
  0
POLYLINE
  5
19C
330
1F
100
AcDbEntity
  8
GRAU_10_
 62
     7
100
AcDb2dPolyline
 66
     1
 10
0.0
 20
0.0
 30
0.0
  0
VERTEX
  5
19D
330
19C
100
AcDbEntity
  8
GRAU_10_
 62
     7
100
AcDbVertex
100
AcDb2dVertex
 10
130.398586664449
 20
235.4435098695245
 30
0.0
  0
VERTEX
  5
19E
330
19C
100
AcDbEntity
  8
GRAU_10_
 62
     7
100
AcDbVertex
100
AcDb2dVertex
 10
130.7846096135712
 20
234.7746445810633
 30
0.0
  0
VERTEX
  5
19F
330
19C
100
AcDbEntity
  8
GRAU_10_
 62
     7
100
AcDbVertex
100
AcDb2dVertex
 10
131.167704231531
 20
234.1114637001527
 30
0.0
  0
SEQEND
  5
1A0
330
19C
100
AcDbEntity
  8
GRAU_10_
  0
POLYLINE
  5
1A1
330
1F
100
AcDbEntity
  8
GRAU_10_
 62
     7
100
AcDb2dPolyline
 66
     1
 10
0.0
 20
0.0
 30
0.0
  0
VERTEX
  5
1A2
330
1A1
100
AcDbEntity
  8
GRAU_10_
 62
     7
100
AcDbVertex
100
AcDb2dVertex
 10
130.398586664449
 20
235.4435098695245
 30
0.0
  0
VERTEX
  5
1A3
330
1A1
100
AcDbEntity
  8
GRAU_10_
 62
     7
100
AcDbVertex
100
AcDb2dVertex
 10
130.3867010850249
 20
235.4619411303706
 30
0.0
  0
VERTEX
  5
1A4
330
1A1
100
AcDbEntity
  8
GRAU_10_
 62
     7
100
AcDbVertex
100
AcDb2dVertex
 10
130.3732652126324
 20
235.4777885696028
 30
0.0
  0
VERTEX
  5
1A5
330
1A1
100
AcDbEntity
  8
GRAU_10_
 62
     7
100
AcDbVertex
100
AcDb2dVertex
 10
130.3587958115943
 20
235.4926024801894
 30
0.0
  0
VERTEX
  5
1A6
330
1A1
100
AcDbEntity
  8
GRAU_10_
 62
     7
100
AcDbVertex
100
AcDb2dVertex
 10
130.3426038628137
 20
235.5060383525818
 30
0.0
  0
VERTEX
  5
1A7
330
1A1
100
AcDbEntity
  8
GRAU_10_
 62
     7
100
AcDbVertex
100
AcDb2dVertex
 10
130.3341633788748
 20
235.5112059958097
 30
0.0
  0
VERTEX
  5
1A8
330
1A1
100
AcDbEntity
  8
GRAU_10_
 62
     7
100
AcDbVertex
100
AcDb2dVertex
 10
130.3248616210646
 20
235.5168904033604
 30
0.0
  0
VERTEX
  5
1A9
330
1A1
100
AcDbEntity
  8
GRAU_10_
 62
     7
100
AcDbVertex
100
AcDb2dVertex
 10
130.3157321180287
 20
235.521885791814
 30
0.0
  0
VERTEX
  5
1AA
330
1A1
100
AcDbEntity
  8
GRAU_10_
 62
     7
100
AcDbVertex
100
AcDb2dVertex
 10
130.3055690863472
 20
235.5263644159448
 30
0.0
  0
VERTEX
  5
1AB
330
1A1
100
AcDbEntity
  8
GRAU_10_
 62
     7
100
AcDbVertex
100
AcDb2dVertex
 10
130.28507076821
 20
235.5346326451094
 30
0.0
  0
VERTEX
  5
1AC
330
1A1
100
AcDbEntity
  8
GRAU_10_
 62
     7
100
AcDbVertex
100
AcDb2dVertex
 10
130.2638834309757
 20
235.5401447978858
 30
0.0
  0
VERTEX
  5
1AD
330
1A1
100
AcDbEntity
  8
GRAU_10_
 62
     7
100
AcDbVertex
100
AcDb2dVertex
 10
130.2526868706486
 20
235.5415228360799
 30
0.0
  0
VERTEX
  5
1AE
330
1A1
100
AcDbEntity
  8
GRAU_10_
 62
     7
100
AcDbVertex
100
AcDb2dVertex
 10
130.2402845269017
 20
235.5434176385968
 30
0.0
  0
VERTEX
  5
1AF
330
1A1
100
AcDbEntity
  8
GRAU_10_
 62
     7
100
AcDbVertex
100
AcDb2dVertex
 10
130.2282266927034
 20
235.5434176385968
 30
0.0
  0
VERTEX
  5
1B0
330
1A1
100
AcDbEntity
  8
GRAU_10_
 62
     7
100
AcDbVertex
100
AcDb2dVertex
 10
130.2156520941822
 20
235.5434176385968
 30
0.0
  0
VERTEX
  5
1B1
330
1A1
100
AcDbEntity
  8
GRAU_10_
 62
     7
100
AcDbVertex
100
AcDb2dVertex
 10
130.2029052408868
 20
235.5423841099512
 30
0.0
  0
VERTEX
  5
1B2
330
1A1
100
AcDbEntity
  8
GRAU_10_
 62
     7
100
AcDbVertex
100
AcDb2dVertex
 10
130.1891248589458
 20
235.5401447978858
 30
0.0
  0
VERTEX
  5
1B3
330
1A1
100
AcDbEntity
  8
GRAU_10_
 62
     7
100
AcDbVertex
100
AcDb2dVertex
 10
130.1756889865533
 20
235.5377332310461
 30
0.0
  0
VERTEX
  5
1B4
330
1A1
100
AcDbEntity
  8
GRAU_10_
 62
     7
100
AcDbVertex
100
AcDb2dVertex
 10
130.1612195855153
 20
235.533082352141
 30
0.0
  0
VERTEX
  5
1B5
330
1A1
100
AcDbEntity
  8
GRAU_10_
 62
     7
100
AcDbVertex
100
AcDb2dVertex
 10
130.1467501844772
 20
235.5279147089132
 30
0.0
  0
VERTEX
  5
1B6
330
1A1
100
AcDbEntity
  8
GRAU_10_
 62
     7
100
AcDbVertex
100
AcDb2dVertex
 10
130.1315917643421
 20
235.5208522631684
 30
0.0
  0
VERTEX
  5
1B7
330
1A1
100
AcDbEntity
  8
GRAU_10_
 62
     7
100
AcDbVertex
100
AcDb2dVertex
 10
130.1245293185974
 20
235.5162013842633
 30
0.0
  0
VERTEX
  5
1B8
330
1A1
100
AcDbEntity
  8
GRAU_10_
 62
     7
100
AcDbVertex
100
AcDb2dVertex
 10
130.117122363304
 20
235.5115505053582
 30
0.0
  0
VERTEX
  5
1B9
330
1A1
100
AcDbEntity
  8
GRAU_10_
 62
     7
100
AcDbVertex
100
AcDb2dVertex
 10
130.1093708984623
 20
235.5067273716789
 30
0.0
  0
VERTEX
  5
1BA
330
1A1
100
AcDbEntity
  8
GRAU_10_
 62
     7
100
AcDbVertex
100
AcDb2dVertex
 10
130.101963943169
 20
235.5010429641282
 30
0.0
  0
VERTEX
  5
1BB
330
1A1
100
AcDbEntity
  8
GRAU_10_
 62
     7
100
AcDbVertex
100
AcDb2dVertex
 10
130.0949014974242
 20
235.4953585565776
 30
0.0
  0
VERTEX
  5
1BC
330
1A1
100
AcDbEntity
  8
GRAU_10_
 62
     7
100
AcDbVertex
100
AcDb2dVertex
 10
130.0874945421309
 20
235.4889851299299
 30
0.0
  0
VERTEX
  5
1BD
330
1A1
100
AcDbEntity
  8
GRAU_10_
 62
     7
100
AcDbVertex
100
AcDb2dVertex
 10
130.0807766059347
 20
235.4822671937336
 30
0.0
  0
VERTEX
  5
1BE
330
1A1
100
AcDbEntity
  8
GRAU_10_
 62
     7
100
AcDbVertex
100
AcDb2dVertex
 10
130.0740586697384
 20
235.4753770027631
 30
0.0
  0
VERTEX
  5
1BF
330
1A1
100
AcDbEntity
  8
GRAU_10_
 62
     7
100
AcDbVertex
100
AcDb2dVertex
 10
130.0682020074135
 20
235.467453283147
 30
0.0
  0
VERTEX
  5
1C0
330
1A1
100
AcDbEntity
  8
GRAU_10_
 62
     7
100
AcDbVertex
100
AcDb2dVertex
 10
130.0621730903143
 20
235.460218582628
 30
0.0
  0
VERTEX
  5
1C1
330
1A1
100
AcDbEntity
  8
GRAU_10_
 62
     7
100
AcDbVertex
100
AcDb2dVertex
 10
130.0568331923122
 20
235.4519503534634
 30
0.0
  0
VERTEX
  5
1C2
330
1A1
100
AcDbEntity
  8
GRAU_10_
 62
     7
100
AcDbVertex
100
AcDb2dVertex
 10
130.0518378038586
 20
235.4435098695245
 30
0.0
  0
VERTEX
  5
1C3
330
1A1
100
AcDbEntity
  8
GRAU_10_
 62
     7
100
AcDbVertex
100
AcDb2dVertex
 10
129.6666761286076
 20
234.7756781097089
 30
0.0
  0
VERTEX
  5
1C4
330
1A1
100
AcDbEntity
  8
GRAU_10_
 62
     7
100
AcDbVertex
100
AcDb2dVertex
 10
129.2828924915508
 20
234.1114637001527
 30
0.0
  0
SEQEND
  5
1C5
330
1A1
100
AcDbEntity
  8
GRAU_10_
  0
POLYLINE
  5
1C6
330
1F
100
AcDbEntity
  8
GRAU_10_
 62
     7
100
AcDb2dPolyline
 66
     1
 10
0.0
 20
0.0
 30
0.0
  0
VERTEX
  5
1C7
330
1C6
100
AcDbEntity
  8
GRAU_10_
 62
     7
100
AcDbVertex
100
AcDb2dVertex
 10
128.6679429474337
 20
234.1114637001527
 30
0.0
  0
VERTEX
  5
1C8
330
1C6
100
AcDbEntity
  8
GRAU_10_
 62
     7
100
AcDbVertex
100
AcDb2dVertex
 10
128.9773125220092
 20
234.1114637001527
 30
0.0
  0
VERTEX
  5
1C9
330
1C6
100
AcDbEntity
  8
GRAU_10_
 62
     7
100
AcDbVertex
100
AcDb2dVertex
 10
129.2828924915508
 20
234.1114637001527
 30
0.0
  0
SEQEND
  5
1CA
330
1C6
100
AcDbEntity
  8
GRAU_10_
  0
POLYLINE
  5
1CB
330
1F
100
AcDbEntity
  8
GRAU_10_
 62
     7
100
AcDb2dPolyline
 66
     1
 10
0.0
 20
0.0
 30
0.0
  0
VERTEX
  5
1CC
330
1CB
100
AcDbEntity
  8
GRAU_10_
 62
     7
100
AcDbVertex
100
AcDb2dVertex
 10
127.8984808708032
 20
235.4435098695245
 30
0.0
  0
VERTEX
  5
1CD
330
1CB
100
AcDbEntity
  8
GRAU_10_
 62
     7
100
AcDbVertex
100
AcDb2dVertex
 10
128.2845038199254
 20
234.7749890906118
 30
0.0
  0
VERTEX
  5
1CE
330
1CB
100
AcDbEntity
  8
GRAU_10_
 62
     7
100
AcDbVertex
100
AcDb2dVertex
 10
128.6679429474337
 20
234.1114637001527
 30
0.0
  0
SEQEND
  5
1CF
330
1CB
100
AcDbEntity
  8
GRAU_10_
  0
POLYLINE
  5
1D0
330
1F
100
AcDbEntity
  8
GRAU_10_
 62
     7
100
AcDb2dPolyline
 66
     1
 10
0.0
 20
0.0
 30
0.0
  0
VERTEX
  5
1D1
330
1D0
100
AcDbEntity
  8
GRAU_10_
 62
     7
100
AcDbVertex
100
AcDb2dVertex
 10
127.8984808708032
 20
235.4435098695245
 30
0.0
  0
VERTEX
  5
1D2
330
1D0
100
AcDbEntity
  8
GRAU_10_
 62
     7
100
AcDbVertex
100
AcDb2dVertex
 10
127.8869398009276
 20
235.4615966208221
 30
0.0
  0
VERTEX
  5
1D3
330
1D0
100
AcDbEntity
  8
GRAU_10_
 62
     7
100
AcDbVertex
100
AcDb2dVertex
 10
127.8735039285351
 20
235.4774440600543
 30
0.0
  0
VERTEX
  5
1D4
330
1D0
100
AcDbEntity
  8
GRAU_10_
 62
     7
100
AcDbVertex
100
AcDb2dVertex
 10
127.8590345274971
 20
235.4922579706408
 30
0.0
  0
VERTEX
  5
1D5
330
1D0
100
AcDbEntity
  8
GRAU_10_
 62
     7
100
AcDbVertex
100
AcDb2dVertex
 10
127.8428425787164
 20
235.5056938430333
 30
0.0
  0
VERTEX
  5
1D6
330
1D0
100
AcDbEntity
  8
GRAU_10_
 62
     7
100
AcDbVertex
100
AcDb2dVertex
 10
127.8344020947775
 20
235.5112059958097
 30
0.0
  0
VERTEX
  5
1D7
330
1D0
100
AcDbEntity
  8
GRAU_10_
 62
     7
100
AcDbVertex
100
AcDb2dVertex
 10
127.8251003369673
 20
235.5165458938118
 30
0.0
  0
VERTEX
  5
1D8
330
1D0
100
AcDbEntity
  8
GRAU_10_
 62
     7
100
AcDbVertex
100
AcDb2dVertex
 10
127.8156263243829
 20
235.521885791814
 30
0.0
  0
VERTEX
  5
1D9
330
1D0
100
AcDbEntity
  8
GRAU_10_
 62
     7
100
AcDbVertex
100
AcDb2dVertex
 10
127.8061523117985
 20
235.5263644159448
 30
0.0
  0
VERTEX
  5
1DA
330
1D0
100
AcDbEntity
  8
GRAU_10_
 62
     7
100
AcDbVertex
100
AcDb2dVertex
 10
127.7849649745642
 20
235.5346326451094
 30
0.0
  0
VERTEX
  5
1DB
330
1D0
100
AcDbEntity
  8
GRAU_10_
 62
     7
100
AcDbVertex
100
AcDb2dVertex
 10
127.7630886182328
 20
235.5401447978858
 30
0.0
  0
VERTEX
  5
1DC
330
1D0
100
AcDbEntity
  8
GRAU_10_
 62
     7
100
AcDbVertex
100
AcDb2dVertex
 10
127.738283930739
 20
235.5434176385968
 30
0.0
  0
VERTEX
  5
1DD
330
1D0
100
AcDbEntity
  8
GRAU_10_
 62
     7
100
AcDbVertex
100
AcDb2dVertex
 10
127.7129624789225
 20
235.5434176385968
 30
0.0
  0
VERTEX
  5
1DE
330
1D0
100
AcDbEntity
  8
GRAU_10_
 62
     7
100
AcDbVertex
100
AcDb2dVertex
 10
127.69952660653
 20
235.5420396004027
 30
0.0
  0
VERTEX
  5
1DF
330
1D0
100
AcDbEntity
  8
GRAU_10_
 62
     7
100
AcDbVertex
100
AcDb2dVertex
 10
127.685746224589
 20
235.5398002883373
 30
0.0
  0
VERTEX
  5
1E0
330
1D0
100
AcDbEntity
  8
GRAU_10_
 62
     7
100
AcDbVertex
100
AcDb2dVertex
 10
127.6712768235509
 20
235.536355192852
 30
0.0
  0
VERTEX
  5
1E1
330
1D0
100
AcDbEntity
  8
GRAU_10_
 62
     7
100
AcDbVertex
100
AcDb2dVertex
 10
127.6568074225129
 20
235.5317043139469
 30
0.0
  0
VERTEX
  5
1E2
330
1D0
100
AcDbEntity
  8
GRAU_10_
 62
     7
100
AcDbVertex
100
AcDb2dVertex
 10
127.6494004672196
 20
235.5286037280102
 30
0.0
  0
VERTEX
  5
1E3
330
1D0
100
AcDbEntity
  8
GRAU_10_
 62
     7
100
AcDbVertex
100
AcDb2dVertex
 10
127.6416490023778
 20
235.5253308872992
 30
0.0
  0
VERTEX
  5
1E4
330
1D0
100
AcDbEntity
  8
GRAU_10_
 62
     7
100
AcDbVertex
100
AcDb2dVertex
 10
127.6342420470845
 20
235.5215412822654
 30
0.0
  0
VERTEX
  5
1E5
330
1D0
100
AcDbEntity
  8
GRAU_10_
 62
     7
100
AcDbVertex
100
AcDb2dVertex
 10
127.6264905822427
 20
235.5179239320059
 30
0.0
  0
VERTEX
  5
1E6
330
1D0
100
AcDbEntity
  8
GRAU_10_
 62
     7
100
AcDbVertex
100
AcDb2dVertex
 10
127.6190836269494
 20
235.5134453078751
 30
0.0
  0
VERTEX
  5
1E7
330
1D0
100
AcDbEntity
  8
GRAU_10_
 62
     7
100
AcDbVertex
100
AcDb2dVertex
 10
127.6120211812046
 20
235.5084499194215
 30
0.0
  0
VERTEX
  5
1E8
330
1D0
100
AcDbEntity
  8
GRAU_10_
 62
     7
100
AcDbVertex
100
AcDb2dVertex
 10
127.6046142259113
 20
235.5031100214194
 30
0.0
  0
VERTEX
  5
1E9
330
1D0
100
AcDbEntity
  8
GRAU_10_
 62
     7
100
AcDbVertex
100
AcDb2dVertex
 10
127.5975517801666
 20
235.4979423781915
 30
0.0
  0
VERTEX
  5
1EA
330
1D0
100
AcDbEntity
  8
GRAU_10_
 62
     7
100
AcDbVertex
100
AcDb2dVertex
 10
127.5842881625484
 20
235.4858845439931
 30
0.0
  0
VERTEX
  5
1EB
330
1D0
100
AcDbEntity
  8
GRAU_10_
 62
     7
100
AcDbVertex
100
AcDb2dVertex
 10
127.57223032835
 20
235.4724486716007
 30
0.0
  0
VERTEX
  5
1EC
330
1D0
100
AcDbEntity
  8
GRAU_10_
 62
     7
100
AcDbVertex
100
AcDb2dVertex
 10
127.5662014112508
 20
235.4653862258559
 30
0.0
  0
VERTEX
  5
1ED
330
1D0
100
AcDbEntity
  8
GRAU_10_
 62
     7
100
AcDbVertex
100
AcDb2dVertex
 10
127.5612060227972
 20
235.4583237801111
 30
0.0
  0
VERTEX
  5
1EE
330
1D0
100
AcDbEntity
  8
GRAU_10_
 62
     7
100
AcDbVertex
100
AcDb2dVertex
 10
127.5563828891179
 20
235.4512613343664
 30
0.0
  0
VERTEX
  5
1EF
330
1D0
100
AcDbEntity
  8
GRAU_10_
 62
     7
100
AcDbVertex
100
AcDb2dVertex
 10
127.5517320102128
 20
235.4435098695245
 30
0.0
  0
SEQEND
  5
1F0
330
1D0
100
AcDbEntity
  8
GRAU_10_
  0
POLYLINE
  5
1F1
330
1F
100
AcDbEntity
  8
GRAU_10_
 62
     7
100
AcDb2dPolyline
 66
     1
 10
0.0
 20
0.0
 30
0.0
  0
VERTEX
  5
1F2
330
1F1
100
AcDbEntity
  8
GRAU_10_
 62
     7
100
AcDbVertex
100
AcDb2dVertex
 10
126.7826144431307
 20
234.1114637001527
 30
0.0
  0
VERTEX
  5
1F3
330
1F1
100
AcDbEntity
  8
GRAU_10_
 62
     7
100
AcDbVertex
100
AcDb2dVertex
 10
127.1662258254133
 20
234.7756781097089
 30
0.0
  0
VERTEX
  5
1F4
330
1F1
100
AcDbEntity
  8
GRAU_10_
 62
     7
100
AcDbVertex
100
AcDb2dVertex
 10
127.5517320102128
 20
235.4435098695245
 30
0.0
  0
SEQEND
  5
1F5
330
1F1
100
AcDbEntity
  8
GRAU_10_
  0
POLYLINE
  5
1F6
330
1F
100
AcDbEntity
  8
GRAU_10_
 62
     7
100
AcDb2dPolyline
 66
     1
 10
0.0
 20
0.0
 30
0.0
  0
VERTEX
  5
1F7
330
1F6
100
AcDbEntity
  8
GRAU_10_
 62
     7
100
AcDbVertex
100
AcDb2dVertex
 10
126.1678371537879
 20
234.1114637001527
 30
0.0
  0
VERTEX
  5
1F8
330
1F6
100
AcDbEntity
  8
GRAU_10_
 62
     7
100
AcDbVertex
100
AcDb2dVertex
 10
126.4765177092663
 20
234.1114637001527
 30
0.0
  0
VERTEX
  5
1F9
330
1F6
100
AcDbEntity
  8
GRAU_10_
 62
     7
100
AcDbVertex
100
AcDb2dVertex
 10
126.7826144431307
 20
234.1114637001527
 30
0.0
  0
SEQEND
  5
1FA
330
1F6
100
AcDbEntity
  8
GRAU_10_
  0
POLYLINE
  5
1FB
330
1F
100
AcDbEntity
  8
GRAU_10_
 62
     7
100
AcDb2dPolyline
 66
     1
 10
0.0
 20
0.0
 30
0.0
  0
VERTEX
  5
1FC
330
1FB
100
AcDbEntity
  8
GRAU_10_
 62
     7
100
AcDbVertex
100
AcDb2dVertex
 10
125.3980305676088
 20
235.4435098695245
 30
0.0
  0
VERTEX
  5
1FD
330
1FB
100
AcDbEntity
  8
GRAU_10_
 62
     7
100
AcDbVertex
100
AcDb2dVertex
 10
125.7840535167311
 20
234.7753336001603
 30
0.0
  0
VERTEX
  5
1FE
330
1FB
100
AcDbEntity
  8
GRAU_10_
 62
     7
100
AcDbVertex
100
AcDb2dVertex
 10
126.1678371537879
 20
234.1114637001527
 30
0.0
  0
SEQEND
  5
1FF
330
1FB
100
AcDbEntity
  8
GRAU_10_
  0
POLYLINE
  5
200
330
1F
100
AcDbEntity
  8
GRAU_10_
 62
     7
100
AcDb2dPolyline
 66
     1
 10
0.0
 20
0.0
 30
0.0
  0
VERTEX
  5
201
330
200
100
AcDbEntity
  8
GRAU_10_
 62
     7
100
AcDbVertex
100
AcDb2dVertex
 10
125.3980305676088
 20
235.4435098695245
 30
0.0
  0
VERTEX
  5
202
330
200
100
AcDbEntity
  8
GRAU_10_
 62
     7
100
AcDbVertex
100
AcDb2dVertex
 10
125.3866617525075
 20
235.4615966208221
 30
0.0
  0
VERTEX
  5
203
330
200
100
AcDbEntity
  8
GRAU_10_
 62
     7
100
AcDbVertex
100
AcDb2dVertex
 10
125.3740871539864
 20
235.4774440600543
 30
0.0
  0
VERTEX
  5
204
330
200
100
AcDbEntity
  8
GRAU_10_
 62
     7
100
AcDbVertex
100
AcDb2dVertex
 10
125.3596177529483
 20
235.4922579706408
 30
0.0
  0
VERTEX
  5
205
330
200
100
AcDbEntity
  8
GRAU_10_
 62
     7
100
AcDbVertex
100
AcDb2dVertex
 10
125.3425645302963
 20
235.5056938430333
 30
0.0
  0
VERTEX
  5
206
330
200
100
AcDbEntity
  8
GRAU_10_
 62
     7
100
AcDbVertex
100
AcDb2dVertex
 10
125.3341240463574
 20
235.5112059958097
 30
0.0
  0
VERTEX
  5
207
330
200
100
AcDbEntity
  8
GRAU_10_
 62
     7
100
AcDbVertex
100
AcDb2dVertex
 10
125.3249945433215
 20
235.5168904033604
 30
0.0
  0
VERTEX
  5
208
330
200
100
AcDbEntity
  8
GRAU_10_
 62
     7
100
AcDbVertex
100
AcDb2dVertex
 10
125.3155205307371
 20
235.521885791814
 30
0.0
  0
VERTEX
  5
209
330
200
100
AcDbEntity
  8
GRAU_10_
 62
     7
100
AcDbVertex
100
AcDb2dVertex
 10
125.3051852442813
 20
235.5267089254933
 30
0.0
  0
VERTEX
  5
20A
330
200
100
AcDbEntity
  8
GRAU_10_
 62
     7
100
AcDbVertex
100
AcDb2dVertex
 10
125.2841701618213
 20
235.5349771546579
 30
0.0
  0
VERTEX
  5
20B
330
200
100
AcDbEntity
  8
GRAU_10_
 62
     7
100
AcDbVertex
100
AcDb2dVertex
 10
125.2603990029731
 20
235.5401447978858
 30
0.0
  0
VERTEX
  5
20C
330
200
100
AcDbEntity
  8
GRAU_10_
 62
     7
100
AcDbVertex
100
AcDb2dVertex
 10
125.2488579330975
 20
235.5420396004027
 30
0.0
  0
VERTEX
  5
20D
330
200
100
AcDbEntity
  8
GRAU_10_
 62
     7
100
AcDbVertex
100
AcDb2dVertex
 10
125.2357665702536
 20
235.5434176385968
 30
0.0
  0
VERTEX
  5
20E
330
200
100
AcDbEntity
  8
GRAU_10_
 62
     7
100
AcDbVertex
100
AcDb2dVertex
 10
125.2223306978611
 20
235.5434176385968
 30
0.0
  0
VERTEX
  5
20F
330
200
100
AcDbEntity
  8
GRAU_10_
 62
     7
100
AcDbVertex
100
AcDb2dVertex
 10
125.2088948254686
 20
235.5434176385968
 30
0.0
  0
VERTEX
  5
210
330
200
100
AcDbEntity
  8
GRAU_10_
 62
     7
100
AcDbVertex
100
AcDb2dVertex
 10
125.2018323797239
 20
235.5423841099512
 30
0.0
  0
VERTEX
  5
211
330
200
100
AcDbEntity
  8
GRAU_10_
 62
     7
100
AcDbVertex
100
AcDb2dVertex
 10
125.1951144435276
 20
235.5415228360799
 30
0.0
  0
VERTEX
  5
212
330
200
100
AcDbEntity
  8
GRAU_10_
 62
     7
100
AcDbVertex
100
AcDb2dVertex
 10
125.1877074882343
 20
235.5401447978858
 30
0.0
  0
VERTEX
  5
213
330
200
100
AcDbEntity
  8
GRAU_10_
 62
     7
100
AcDbVertex
100
AcDb2dVertex
 10
125.1806450424896
 20
235.5384222501432
 30
0.0
  0
VERTEX
  5
214
330
200
100
AcDbEntity
  8
GRAU_10_
 62
     7
100
AcDbVertex
100
AcDb2dVertex
 10
125.1661756414515
 20
235.5349771546579
 30
0.0
  0
VERTEX
  5
215
330
200
100
AcDbEntity
  8
GRAU_10_
 62
     7
100
AcDbVertex
100
AcDb2dVertex
 10
125.1510172213164
 20
235.5296372566558
 30
0.0
  0
VERTEX
  5
216
330
200
100
AcDbEntity
  8
GRAU_10_
 62
     7
100
AcDbVertex
100
AcDb2dVertex
 10
125.1432657564746
 20
235.5263644159448
 30
0.0
  0
VERTEX
  5
217
330
200
100
AcDbEntity
  8
GRAU_10_
 62
     7
100
AcDbVertex
100
AcDb2dVertex
 10
125.1358588011813
 20
235.5229193204596
 30
0.0
  0
VERTEX
  5
218
330
200
100
AcDbEntity
  8
GRAU_10_
 62
     7
100
AcDbVertex
100
AcDb2dVertex
 10
125.1287963554366
 20
235.5191297154258
 30
0.0
  0
VERTEX
  5
219
330
200
100
AcDbEntity
  8
GRAU_10_
 62
     7
100
AcDbVertex
100
AcDb2dVertex
 10
125.1213894001433
 20
235.5144788365207
 30
0.0
  0
VERTEX
  5
21A
330
200
100
AcDbEntity
  8
GRAU_10_
 62
     7
100
AcDbVertex
100
AcDb2dVertex
 10
125.1069199991052
 20
235.5050048239362
 30
0.0
  0
VERTEX
  5
21B
330
200
100
AcDbEntity
  8
GRAU_10_
 62
     7
100
AcDbVertex
100
AcDb2dVertex
 10
125.093656381487
 20
235.494325027932
 30
0.0
  0
VERTEX
  5
21C
330
200
100
AcDbEntity
  8
GRAU_10_
 62
     7
100
AcDbVertex
100
AcDb2dVertex
 10
125.0876274643878
 20
235.4889851299299
 30
0.0
  0
VERTEX
  5
21D
330
200
100
AcDbEntity
  8
GRAU_10_
 62
     7
100
AcDbVertex
100
AcDb2dVertex
 10
125.0815985472886
 20
235.4826117032821
 30
0.0
  0
VERTEX
  5
21E
330
200
100
AcDbEntity
  8
GRAU_10_
 62
     7
100
AcDbVertex
100
AcDb2dVertex
 10
125.0755696301894
 20
235.4767550409572
 30
0.0
  0
VERTEX
  5
21F
330
200
100
AcDbEntity
  8
GRAU_10_
 62
     7
100
AcDbVertex
100
AcDb2dVertex
 10
125.0698852226388
 20
235.4703816143095
 30
0.0
  0
VERTEX
  5
220
330
200
100
AcDbEntity
  8
GRAU_10_
 62
     7
100
AcDbVertex
100
AcDb2dVertex
 10
125.0604112100543
 20
235.456945741917
 30
0.0
  0
VERTEX
  5
221
330
200
100
AcDbEntity
  8
GRAU_10_
 62
     7
100
AcDbVertex
100
AcDb2dVertex
 10
125.0519707261155
 20
235.4435098695245
 30
0.0
  0
SEQEND
  5
222
330
200
100
AcDbEntity
  8
GRAU_10_
  0
POLYLINE
  5
223
330
1F
100
AcDbEntity
  8
GRAU_10_
 62
     7
100
AcDb2dPolyline
 66
     1
 10
0.0
 20
0.0
 30
0.0
  0
VERTEX
  5
224
330
223
100
AcDbEntity
  8
GRAU_10_
 62
     7
100
AcDbVertex
100
AcDb2dVertex
 10
124.2828531590335
 20
234.1114637001527
 30
0.0
  0
VERTEX
  5
225
330
223
100
AcDbEntity
  8
GRAU_10_
 62
     7
100
AcDbVertex
100
AcDb2dVertex
 10
124.6668090508646
 20
234.7756781097089
 30
0.0
  0
VERTEX
  5
226
330
223
100
AcDbEntity
  8
GRAU_10_
 62
     7
100
AcDbVertex
100
AcDb2dVertex
 10
125.0519707261155
 20
235.4435098695245
 30
0.0
  0
SEQEND
  5
227
330
223
100
AcDbEntity
  8
GRAU_10_
  0
POLYLINE
  5
228
330
1F
100
AcDbEntity
  8
GRAU_10_
 62
     7
100
AcDb2dPolyline
 66
     1
 10
0.0
 20
0.0
 30
0.0
  0
VERTEX
  5
229
330
228
100
AcDbEntity
  8
GRAU_10_
 62
     7
100
AcDbVertex
100
AcDb2dVertex
 10
123.6680758696906
 20
234.1114637001527
 30
0.0
  0
VERTEX
  5
22A
330
228
100
AcDbEntity
  8
GRAU_10_
 62
     7
100
AcDbVertex
100
AcDb2dVertex
 10
123.976756425169
 20
234.1114637001527
 30
0.0
  0
VERTEX
  5
22B
330
228
100
AcDbEntity
  8
GRAU_10_
 62
     7
100
AcDbVertex
100
AcDb2dVertex
 10
124.2828531590335
 20
234.1114637001527
 30
0.0
  0
SEQEND
  5
22C
330
228
100
AcDbEntity
  8
GRAU_10_
  0
POLYLINE
  5
22D
330
1F
100
AcDbEntity
  8
GRAU_10_
 62
     7
100
AcDb2dPolyline
 66
     1
 10
0.0
 20
0.0
 30
0.0
  0
VERTEX
  5
22E
330
22D
100
AcDbEntity
  8
GRAU_10_
 62
     7
100
AcDbVertex
100
AcDb2dVertex
 10
122.8986137930601
 20
235.4435098695245
 30
0.0
  0
VERTEX
  5
22F
330
22D
100
AcDbEntity
  8
GRAU_10_
 62
     7
100
AcDbVertex
100
AcDb2dVertex
 10
123.283775468311
 20
234.7753336001603
 30
0.0
  0
VERTEX
  5
230
330
22D
100
AcDbEntity
  8
GRAU_10_
 62
     7
100
AcDbVertex
100
AcDb2dVertex
 10
123.6680758696906
 20
234.1114637001527
 30
0.0
  0
SEQEND
  5
231
330
22D
100
AcDbEntity
  8
GRAU_10_
  0
POLYLINE
  5
232
330
1F
100
AcDbEntity
  8
GRAU_10_
 62
     7
100
AcDb2dPolyline
 66
     1
 10
0.0
 20
0.0
 30
0.0
  0
VERTEX
  5
233
330
232
100
AcDbEntity
  8
GRAU_10_
 62
     7
100
AcDbVertex
100
AcDb2dVertex
 10
122.8986137930601
 20
235.4435098695245
 30
0.0
  0
VERTEX
  5
234
330
232
100
AcDbEntity
  8
GRAU_10_
 62
     7
100
AcDbVertex
100
AcDb2dVertex
 10
122.8869004684102
 20
235.4609076017251
 30
0.0
  0
VERTEX
  5
235
330
232
100
AcDbEntity
  8
GRAU_10_
 62
     7
100
AcDbVertex
100
AcDb2dVertex
 10
122.8743258698891
 20
235.4774440600543
 30
0.0
  0
VERTEX
  5
236
330
232
100
AcDbEntity
  8
GRAU_10_
 62
     7
100
AcDbVertex
100
AcDb2dVertex
 10
122.859167449754
 20
235.4922579706408
 30
0.0
  0
VERTEX
  5
237
330
232
100
AcDbEntity
  8
GRAU_10_
 62
     7
100
AcDbVertex
100
AcDb2dVertex
 10
122.842803246199
 20
235.5056938430333
 30
0.0
  0
VERTEX
  5
238
330
232
100
AcDbEntity
  8
GRAU_10_
 62
     7
100
AcDbVertex
100
AcDb2dVertex
 10
122.8241997305787
 20
235.5175794224574
 30
0.0
  0
VERTEX
  5
239
330
232
100
AcDbEntity
  8
GRAU_10_
 62
     7
100
AcDbVertex
100
AcDb2dVertex
 10
122.8037014124414
 20
235.5279147089132
 30
0.0
  0
VERTEX
  5
23A
330
232
100
AcDbEntity
  8
GRAU_10_
 62
     7
100
AcDbVertex
100
AcDb2dVertex
 10
122.7818250561101
 20
235.5353216642065
 30
0.0
  0
VERTEX
  5
23B
330
232
100
AcDbEntity
  8
GRAU_10_
 62
     7
100
AcDbVertex
100
AcDb2dVertex
 10
122.7578816424876
 20
235.5411783265314
 30
0.0
  0
VERTEX
  5
23C
330
232
100
AcDbEntity
  8
GRAU_10_
 62
     7
100
AcDbVertex
100
AcDb2dVertex
 10
122.7316989167997
 20
235.5434176385968
 30
0.0
  0
VERTEX
  5
23D
330
232
100
AcDbEntity
  8
GRAU_10_
 62
     7
100
AcDbVertex
100
AcDb2dVertex
 10
122.7039658981435
 20
235.5423841099512
 30
0.0
  0
VERTEX
  5
23E
330
232
100
AcDbEntity
  8
GRAU_10_
 62
     7
100
AcDbVertex
100
AcDb2dVertex
 10
122.6894964971054
 20
235.5401447978858
 30
0.0
  0
VERTEX
  5
23F
330
232
100
AcDbEntity
  8
GRAU_10_
 62
     7
100
AcDbVertex
100
AcDb2dVertex
 10
122.6750270960674
 20
235.5370442119491
 30
0.0
  0
VERTEX
  5
240
330
232
100
AcDbEntity
  8
GRAU_10_
 62
     7
100
AcDbVertex
100
AcDb2dVertex
 10
122.6679646503226
 20
235.5349771546579
 30
0.0
  0
VERTEX
  5
241
330
232
100
AcDbEntity
  8
GRAU_10_
 62
     7
100
AcDbVertex
100
AcDb2dVertex
 10
122.6605576950293
 20
235.533082352141
 30
0.0
  0
VERTEX
  5
242
330
232
100
AcDbEntity
  8
GRAU_10_
 62
     7
100
AcDbVertex
100
AcDb2dVertex
 10
122.6526339754132
 20
235.5299817662043
 30
0.0
  0
VERTEX
  5
243
330
232
100
AcDbEntity
  8
GRAU_10_
 62
     7
100
AcDbVertex
100
AcDb2dVertex
 10
122.6453992748942
 20
235.5267089254933
 30
0.0
  0
VERTEX
  5
244
330
232
100
AcDbEntity
  8
GRAU_10_
 62
     7
100
AcDbVertex
100
AcDb2dVertex
 10
122.6309298738562
 20
235.5198187345228
 30
0.0
  0
VERTEX
  5
245
330
232
100
AcDbEntity
  8
GRAU_10_
 62
     7
100
AcDbVertex
100
AcDb2dVertex
 10
122.6164604728181
 20
235.5115505053582
 30
0.0
  0
VERTEX
  5
246
330
232
100
AcDbEntity
  8
GRAU_10_
 62
     7
100
AcDbVertex
100
AcDb2dVertex
 10
122.6097425366219
 20
235.5067273716789
 30
0.0
  0
VERTEX
  5
247
330
232
100
AcDbEntity
  8
GRAU_10_
 62
     7
100
AcDbVertex
100
AcDb2dVertex
 10
122.6030246004256
 20
235.5024210023223
 30
0.0
  0
VERTEX
  5
248
330
232
100
AcDbEntity
  8
GRAU_10_
 62
     7
100
AcDbVertex
100
AcDb2dVertex
 10
122.5969956833265
 20
235.4970811043202
 30
0.0
  0
VERTEX
  5
249
330
232
100
AcDbEntity
  8
GRAU_10_
 62
     7
100
AcDbVertex
100
AcDb2dVertex
 10
122.5902777471302
 20
235.4915689515438
 30
0.0
  0
VERTEX
  5
24A
330
232
100
AcDbEntity
  8
GRAU_10_
 62
     7
100
AcDbVertex
100
AcDb2dVertex
 10
122.5849378491281
 20
235.4858845439931
 30
0.0
  0
VERTEX
  5
24B
330
232
100
AcDbEntity
  8
GRAU_10_
 62
     7
100
AcDbVertex
100
AcDb2dVertex
 10
122.5789089320289
 20
235.480544645991
 30
0.0
  0
VERTEX
  5
24C
330
232
100
AcDbEntity
  8
GRAU_10_
 62
     7
100
AcDbVertex
100
AcDb2dVertex
 10
122.5740857983495
 20
235.4741712193433
 30
0.0
  0
VERTEX
  5
24D
330
232
100
AcDbEntity
  8
GRAU_10_
 62
     7
100
AcDbVertex
100
AcDb2dVertex
 10
122.5687459003474
 20
235.4684868117926
 30
0.0
  0
VERTEX
  5
24E
330
232
100
AcDbEntity
  8
GRAU_10_
 62
     7
100
AcDbVertex
100
AcDb2dVertex
 10
122.5596163973115
 20
235.4559122132715
 30
0.0
  0
VERTEX
  5
24F
330
232
100
AcDbEntity
  8
GRAU_10_
 62
     7
100
AcDbVertex
100
AcDb2dVertex
 10
122.5518649324697
 20
235.4435098695245
 30
0.0
  0
SEQEND
  5
250
330
232
100
AcDbEntity
  8
GRAU_10_
  0
POLYLINE
  5
251
330
1F
100
AcDbEntity
  8
GRAU_10_
 62
     7
100
AcDb2dPolyline
 66
     1
 10
0.0
 20
0.0
 30
0.0
  0
VERTEX
  5
252
330
251
100
AcDbEntity
  8
GRAU_10_
 62
     7
100
AcDbVertex
100
AcDb2dVertex
 10
121.7827473653876
 20
234.1114637001527
 30
0.0
  0
VERTEX
  5
253
330
251
100
AcDbEntity
  8
GRAU_10_
 62
     7
100
AcDbVertex
100
AcDb2dVertex
 10
122.166186492896
 20
234.7756781097089
 30
0.0
  0
VERTEX
  5
254
330
251
100
AcDbEntity
  8
GRAU_10_
 62
     7
100
AcDbVertex
100
AcDb2dVertex
 10
122.5518649324697
 20
235.4435098695245
 30
0.0
  0
SEQEND
  5
255
330
251
100
AcDbEntity
  8
GRAU_10_
  0
POLYLINE
  5
256
330
1F
100
AcDbEntity
  8
GRAU_10_
 62
     7
100
AcDb2dPolyline
 66
     1
 10
0.0
 20
0.0
 30
0.0
  0
VERTEX
  5
257
330
256
100
AcDbEntity
  8
GRAU_10_
 62
     7
100
AcDbVertex
100
AcDb2dVertex
 10
121.1677978212706
 20
234.1114637001527
 30
0.0
  0
VERTEX
  5
258
330
256
100
AcDbEntity
  8
GRAU_10_
 62
     7
100
AcDbVertex
100
AcDb2dVertex
 10
121.4764783767489
 20
234.1114637001527
 30
0.0
  0
VERTEX
  5
259
330
256
100
AcDbEntity
  8
GRAU_10_
 62
     7
100
AcDbVertex
100
AcDb2dVertex
 10
121.7827473653876
 20
234.1114637001527
 30
0.0
  0
SEQEND
  5
25A
330
256
100
AcDbEntity
  8
GRAU_10_
  0
POLYLINE
  5
25B
330
1F
100
AcDbEntity
  8
GRAU_10_
 62
     7
100
AcDb2dPolyline
 66
     1
 10
0.0
 20
0.0
 30
0.0
  0
VERTEX
  5
25C
330
25B
100
AcDbEntity
  8
GRAU_10_
 62
     7
100
AcDbVertex
100
AcDb2dVertex
 10
120.3981634898657
 20
235.4435098695245
 30
0.0
  0
VERTEX
  5
25D
330
25B
100
AcDbEntity
  8
GRAU_10_
 62
     7
100
AcDbVertex
100
AcDb2dVertex
 10
120.7836696746652
 20
234.7756781097089
 30
0.0
  0
VERTEX
  5
25E
330
25B
100
AcDbEntity
  8
GRAU_10_
 62
     7
100
AcDbVertex
100
AcDb2dVertex
 10
121.1677978212706
 20
234.1114637001527
 30
0.0
  0
SEQEND
  5
25F
330
25B
100
AcDbEntity
  8
GRAU_10_
  0
POLYLINE
  5
260
330
1F
100
AcDbEntity
  8
GRAU_10_
 62
     7
100
AcDb2dPolyline
 66
     1
 10
0.0
 20
0.0
 30
0.0
  0
VERTEX
  5
261
330
260
100
AcDbEntity
  8
GRAU_10_
 62
     7
100
AcDbVertex
100
AcDb2dVertex
 10
120.3981634898657
 20
235.4435098695245
 30
0.0
  0
VERTEX
  5
262
330
260
100
AcDbEntity
  8
GRAU_10_
 62
     7
100
AcDbVertex
100
AcDb2dVertex
 10
120.3867946747644
 20
235.4615966208221
 30
0.0
  0
VERTEX
  5
263
330
260
100
AcDbEntity
  8
GRAU_10_
 62
     7
100
AcDbVertex
100
AcDb2dVertex
 10
120.374047821469
 20
235.4774440600543
 30
0.0
  0
VERTEX
  5
264
330
260
100
AcDbEntity
  8
GRAU_10_
 62
     7
100
AcDbVertex
100
AcDb2dVertex
 10
120.3588894013339
 20
235.4926024801894
 30
0.0
  0
VERTEX
  5
265
330
260
100
AcDbEntity
  8
GRAU_10_
 62
     7
100
AcDbVertex
100
AcDb2dVertex
 10
120.3420084334562
 20
235.5060383525818
 30
0.0
  0
VERTEX
  5
266
330
260
100
AcDbEntity
  8
GRAU_10_
 62
     7
100
AcDbVertex
100
AcDb2dVertex
 10
120.3325344208717
 20
235.5124117792296
 30
0.0
  0
VERTEX
  5
267
330
260
100
AcDbEntity
  8
GRAU_10_
 62
     7
100
AcDbVertex
100
AcDb2dVertex
 10
120.3227158987388
 20
235.5179239320059
 30
0.0
  0
VERTEX
  5
268
330
260
100
AcDbEntity
  8
GRAU_10_
 62
     7
100
AcDbVertex
100
AcDb2dVertex
 10
120.312380612283
 20
235.5232638300081
 30
0.0
  0
VERTEX
  5
269
330
260
100
AcDbEntity
  8
GRAU_10_
 62
     7
100
AcDbVertex
100
AcDb2dVertex
 10
120.3022175806015
 20
235.5282592184617
 30
0.0
  0
VERTEX
  5
26A
330
260
100
AcDbEntity
  8
GRAU_10_
 62
     7
100
AcDbVertex
100
AcDb2dVertex
 10
120.2908487655002
 20
235.5327378425925
 30
0.0
  0
VERTEX
  5
26B
330
260
100
AcDbEntity
  8
GRAU_10_
 62
     7
100
AcDbVertex
100
AcDb2dVertex
 10
120.2793076956246
 20
235.536355192852
 30
0.0
  0
VERTEX
  5
26C
330
260
100
AcDbEntity
  8
GRAU_10_
 62
     7
100
AcDbVertex
100
AcDb2dVertex
 10
120.2665608423292
 20
235.5394557787887
 30
0.0
  0
VERTEX
  5
26D
330
260
100
AcDbEntity
  8
GRAU_10_
 62
     7
100
AcDbVertex
100
AcDb2dVertex
 10
120.2538139890338
 20
235.5415228360799
 30
0.0
  0
VERTEX
  5
26E
330
260
100
AcDbEntity
  8
GRAU_10_
 62
     7
100
AcDbVertex
100
AcDb2dVertex
 10
120.2410671357383
 20
235.5434176385968
 30
0.0
  0
VERTEX
  5
26F
330
260
100
AcDbEntity
  8
GRAU_10_
 62
     7
100
AcDbVertex
100
AcDb2dVertex
 10
120.2272867537973
 20
235.5434176385968
 30
0.0
  0
VERTEX
  5
270
330
260
100
AcDbEntity
  8
GRAU_10_
 62
     7
100
AcDbVertex
100
AcDb2dVertex
 10
120.2133341170821
 20
235.5434176385968
 30
0.0
  0
VERTEX
  5
271
330
260
100
AcDbEntity
  8
GRAU_10_
 62
     7
100
AcDbVertex
100
AcDb2dVertex
 10
120.1985202064955
 20
235.5415228360799
 30
0.0
  0
VERTEX
  5
272
330
260
100
AcDbEntity
  8
GRAU_10_
 62
     7
100
AcDbVertex
100
AcDb2dVertex
 10
120.1837062959089
 20
235.5394557787887
 30
0.0
  0
VERTEX
  5
273
330
260
100
AcDbEntity
  8
GRAU_10_
 62
     7
100
AcDbVertex
100
AcDb2dVertex
 10
120.1692368948709
 20
235.5353216642065
 30
0.0
  0
VERTEX
  5
274
330
260
100
AcDbEntity
  8
GRAU_10_
 62
     7
100
AcDbVertex
100
AcDb2dVertex
 10
120.1614854300291
 20
235.533082352141
 30
0.0
  0
VERTEX
  5
275
330
260
100
AcDbEntity
  8
GRAU_10_
 62
     7
100
AcDbVertex
100
AcDb2dVertex
 10
120.153561710413
 20
235.5303262757529
 30
0.0
  0
VERTEX
  5
276
330
260
100
AcDbEntity
  8
GRAU_10_
 62
     7
100
AcDbVertex
100
AcDb2dVertex
 10
120.147016028991
 20
235.5279147089132
 30
0.0
  0
VERTEX
  5
277
330
260
100
AcDbEntity
  8
GRAU_10_
 62
     7
100
AcDbVertex
100
AcDb2dVertex
 10
120.139092309375
 20
235.5246418682022
 30
0.0
  0
VERTEX
  5
278
330
260
100
AcDbEntity
  8
GRAU_10_
 62
     7
100
AcDbVertex
100
AcDb2dVertex
 10
120.132546627953
 20
235.5211967727169
 30
0.0
  0
VERTEX
  5
279
330
260
100
AcDbEntity
  8
GRAU_10_
 62
     7
100
AcDbVertex
100
AcDb2dVertex
 10
120.1251396726597
 20
235.5168904033604
 30
0.0
  0
VERTEX
  5
27A
330
260
100
AcDbEntity
  8
GRAU_10_
 62
     7
100
AcDbVertex
100
AcDb2dVertex
 10
120.118766246012
 20
235.5131007983266
 30
0.0
  0
VERTEX
  5
27B
330
260
100
AcDbEntity
  8
GRAU_10_
 62
     7
100
AcDbVertex
100
AcDb2dVertex
 10
120.1120483098157
 20
235.5084499194215
 30
0.0
  0
VERTEX
  5
27C
330
260
100
AcDbEntity
  8
GRAU_10_
 62
     7
100
AcDbVertex
100
AcDb2dVertex
 10
120.0993014565203
 20
235.4993204163856
 30
0.0
  0
VERTEX
  5
27D
330
260
100
AcDbEntity
  8
GRAU_10_
 62
     7
100
AcDbVertex
100
AcDb2dVertex
 10
120.0877603866447
 20
235.4889851299299
 30
0.0
  0
VERTEX
  5
27E
330
260
100
AcDbEntity
  8
GRAU_10_
 62
     7
100
AcDbVertex
100
AcDb2dVertex
 10
120.0824204886426
 20
235.483817486702
 30
0.0
  0
VERTEX
  5
27F
330
260
100
AcDbEntity
  8
GRAU_10_
 62
     7
100
AcDbVertex
100
AcDb2dVertex
 10
120.077425100189
 20
235.4784775886998
 30
0.0
  0
VERTEX
  5
280
330
260
100
AcDbEntity
  8
GRAU_10_
 62
     7
100
AcDbVertex
100
AcDb2dVertex
 10
120.0720852021868
 20
235.4724486716007
 30
0.0
  0
VERTEX
  5
281
330
260
100
AcDbEntity
  8
GRAU_10_
 62
     7
100
AcDbVertex
100
AcDb2dVertex
 10
120.0679510876045
 20
235.4671087735985
 30
0.0
  0
VERTEX
  5
282
330
260
100
AcDbEntity
  8
GRAU_10_
 62
     7
100
AcDbVertex
100
AcDb2dVertex
 10
120.0595106036657
 20
235.4552231941744
 30
0.0
  0
VERTEX
  5
283
330
260
100
AcDbEntity
  8
GRAU_10_
 62
     7
100
AcDbVertex
100
AcDb2dVertex
 10
120.0521036483724
 20
235.4435098695245
 30
0.0
  0
SEQEND
  5
284
330
260
100
AcDbEntity
  8
GRAU_10_
  0
POLYLINE
  5
285
330
1F
100
AcDbEntity
  8
GRAU_10_
 62
     7
100
AcDb2dPolyline
 66
     1
 10
0.0
 20
0.0
 30
0.0
  0
VERTEX
  5
286
330
285
100
AcDbEntity
  8
GRAU_10_
 62
     7
100
AcDbVertex
100
AcDb2dVertex
 10
119.2826415717418
 20
234.1114637001527
 30
0.0
  0
VERTEX
  5
287
330
285
100
AcDbEntity
  8
GRAU_10_
 62
     7
100
AcDbVertex
100
AcDb2dVertex
 10
119.6667697183472
 20
234.7756781097089
 30
0.0
  0
VERTEX
  5
288
330
285
100
AcDbEntity
  8
GRAU_10_
 62
     7
100
AcDbVertex
100
AcDb2dVertex
 10
120.0521036483724
 20
235.4435098695245
 30
0.0
  0
SEQEND
  5
289
330
285
100
AcDbEntity
  8
GRAU_10_
  0
POLYLINE
  5
28A
330
1F
100
AcDbEntity
  8
GRAU_10_
 62
     7
100
AcDb2dPolyline
 66
     1
 10
0.0
 20
0.0
 30
0.0
  0
VERTEX
  5
28B
330
28A
100
AcDbEntity
  8
GRAU_10_
 62
     7
100
AcDbVertex
100
AcDb2dVertex
 10
118.9103990045606
 20
234.1114637001527
 30
0.0
  0
VERTEX
  5
28C
330
28A
100
AcDbEntity
  8
GRAU_10_
 62
     7
100
AcDbVertex
100
AcDb2dVertex
 10
119.0971231798611
 20
234.1114637001527
 30
0.0
  0
VERTEX
  5
28D
330
28A
100
AcDbEntity
  8
GRAU_10_
 62
     7
100
AcDbVertex
100
AcDb2dVertex
 10
119.2826415717418
 20
234.1114637001527
 30
0.0
  0
SEQEND
  5
28E
330
28A
100
AcDbEntity
  8
GRAU_10_
  0
POLYLINE
  5
28F
330
1F
100
AcDbEntity
  8
GRAU_10_
 62
     7
100
AcDb2dPolyline
 66
     1
 10
0.0
 20
0.0
 30
0.0
  0
VERTEX
  5
290
330
28F
100
AcDbEntity
  8
GRAU_10_
 62
     7
100
AcDbVertex
100
AcDb2dVertex
 10
132.556938985958
 20
251.6226256695162
 30
0.0
  0
VERTEX
  5
291
330
28F
100
AcDbEntity
  8
GRAU_10_
 62
     7
100
AcDbVertex
100
AcDb2dVertex
 10
132.5791598518379
 20
251.583093198823
 30
0.0
  0
VERTEX
  5
292
330
28F
100
AcDbEntity
  8
GRAU_10_
 62
     7
100
AcDbVertex
100
AcDb2dVertex
 10
132.6017252272662
 20
251.5453694032595
 30
0.0
  0
SEQEND
  5
293
330
28F
100
AcDbEntity
  8
GRAU_10_
  0
POLYLINE
  5
294
330
1F
100
AcDbEntity
  8
GRAU_10_
 62
     7
100
AcDb2dPolyline
 66
     1
 10
0.0
 20
0.0
 30
0.0
  0
VERTEX
  5
295
330
294
100
AcDbEntity
  8
GRAU_10_
 62
     7
100
AcDbVertex
100
AcDb2dVertex
 10
113.4611192207667
 20
146.6215413044904
 30
0.0
  0
VERTEX
  5
296
330
294
100
AcDbEntity
  8
GRAU_10_
 62
     7
100
AcDbVertex
100
AcDb2dVertex
 10
113.4611192207667
 20
135.9672390068068
 30
0.0
  0
SEQEND
  5
297
330
294
100
AcDbEntity
  8
GRAU_10_
  0
POLYLINE
  5
298
330
1F
100
AcDbEntity
  8
GRAU_10_
 62
     7
100
AcDb2dPolyline
 66
     1
 10
0.0
 20
0.0
 30
0.0
  0
VERTEX
  5
299
330
298
100
AcDbEntity
  8
GRAU_10_
 62
     7
100
AcDbVertex
100
AcDb2dVertex
 10
112.4849514150211
 20
135.4127508884558
 30
0.0
  0
VERTEX
  5
29A
330
298
100
AcDbEntity
  8
GRAU_10_
 62
     7
100
AcDbVertex
100
AcDb2dVertex
 10
112.6852837174884
 20
135.4127508884558
 30
0.0
  0
SEQEND
  5
29B
330
298
100
AcDbEntity
  8
GRAU_10_
  0
POLYLINE
  5
29C
330
1F
100
AcDbEntity
  8
GRAU_10_
 62
     7
100
AcDb2dPolyline
 66
     1
 10
0.0
 20
0.0
 30
0.0
  0
VERTEX
  5
29D
330
29C
100
AcDbEntity
  8
GRAU_10_
 62
     7
100
AcDbVertex
100
AcDb2dVertex
 10
113.4611192207667
 20
146.6215413044904
 30
0.0
  0
VERTEX
  5
29E
330
29C
100
AcDbEntity
  8
GRAU_10_
 62
     7
100
AcDbVertex
100
AcDb2dVertex
 10
111.7921427129374
 20
149.3975992465048
 30
0.0
  0
SEQEND
  5
29F
330
29C
100
AcDbEntity
  8
GRAU_10_
  0
POLYLINE
  5
2A0
330
1F
100
AcDbEntity
  8
GRAU_10_
 62
     7
100
AcDb2dPolyline
 66
     1
 10
0.0
 20
0.0
 30
0.0
  0
VERTEX
  5
2A1
330
2A0
100
AcDbEntity
  8
GRAU_10_
 62
     7
100
AcDbVertex
100
AcDb2dVertex
 10
124.2783745349026
 20
164.0154838999684
 30
0.0
  0
VERTEX
  5
2A2
330
2A0
100
AcDbEntity
  8
GRAU_10_
 62
     7
100
AcDbVertex
100
AcDb2dVertex
 10
130.2251261067667
 20
171.6027899419083
 30
0.0
  0
VERTEX
  5
2A3
330
2A0
100
AcDbEntity
  8
GRAU_10_
 62
     7
100
AcDbVertex
100
AcDb2dVertex
 10
131.5247883785771
 20
160.8201578373991
 30
0.0
  0
VERTEX
  5
2A4
330
2A0
100
AcDbEntity
  8
GRAU_10_
 62
     7
100
AcDbVertex
100
AcDb2dVertex
 10
129.9026651693472
 20
157.7247395439022
 30
0.0
  0
SEQEND
  5
2A5
330
2A0
100
AcDbEntity
  8
GRAU_10_
  0
POLYLINE
  5
2A6
330
1F
100
AcDbEntity
  8
GRAU_10_
 62
     7
100
AcDb2dPolyline
 66
     1
 10
0.0
 20
0.0
 30
0.0
  0
VERTEX
  5
2A7
330
2A6
100
AcDbEntity
  8
GRAU_10_
 62
     7
100
AcDbVertex
100
AcDb2dVertex
 10
130.2251261067667
 20
191.7798529251453
 30
0.0
  0
VERTEX
  5
2A8
330
2A6
100
AcDbEntity
  8
GRAU_10_
 62
     7
100
AcDbVertex
100
AcDb2dVertex
 10
131.8725707678131
 20
194.6327364964807
 30
0.0
  0
SEQEND
  5
2A9
330
2A6
100
AcDbEntity
  8
GRAU_10_
  0
POLYLINE
  5
2AA
330
1F
100
AcDbEntity
  8
GRAU_10_
 62
     7
100
AcDb2dPolyline
 66
     1
 10
0.0
 20
0.0
 30
0.0
  0
VERTEX
  5
2AB
330
2AA
100
AcDbEntity
  8
GRAU_10_
 62
     7
100
AcDbVertex
100
AcDb2dVertex
 10
130.2251261067667
 20
191.7798529251453
 30
0.0
  0
VERTEX
  5
2AC
330
2AA
100
AcDbEntity
  8
GRAU_10_
 62
     7
100
AcDbVertex
100
AcDb2dVertex
 10
107.925367540293
 20
191.7798529251453
 30
0.0
  0
SEQEND
  5
2AD
330
2AA
100
AcDbEntity
  8
GRAU_10_
  0
POLYLINE
  5
2AE
330
1F
100
AcDbEntity
  8
GRAU_10_
 62
     7
100
AcDb2dPolyline
 66
     1
 10
0.0
 20
0.0
 30
0.0
  0
VERTEX
  5
2AF
330
2AE
100
AcDbEntity
  8
GRAU_10_
 62
     7
100
AcDbVertex
100
AcDb2dVertex
 10
121.725214270784
 20
204.7800929935098
 30
0.0
  0
VERTEX
  5
2B0
330
2AE
100
AcDbEntity
  8
GRAU_10_
 62
     7
100
AcDbVertex
100
AcDb2dVertex
 10
107.925367540293
 20
204.7800929935098
 30
0.0
  0
SEQEND
  5
2B1
330
2AE
100
AcDbEntity
  8
GRAU_10_
  0
POLYLINE
  5
2B2
330
1F
100
AcDbEntity
  8
GRAU_10_
 62
     7
100
AcDb2dPolyline
 66
     1
 10
0.0
 20
0.0
 30
0.0
  0
VERTEX
  5
2B3
330
2B2
100
AcDbEntity
  8
GRAU_10_
 62
     7
100
AcDbVertex
100
AcDb2dVertex
 10
131.8725707678131
 20
194.6327364964807
 30
0.0
  0
VERTEX
  5
2B4
330
2B2
100
AcDbEntity
  8
GRAU_10_
 62
     7
100
AcDbVertex
100
AcDb2dVertex
 10
121.725214270784
 20
204.7800929935098
 30
0.0
  0
SEQEND
  5
2B5
330
2B2
100
AcDbEntity
  8
GRAU_10_
  0
POLYLINE
  5
2B6
330
1F
100
AcDbEntity
  8
GRAU_10_
 62
     7
100
AcDb2dPolyline
 66
     1
 10
0.0
 20
0.0
 30
0.0
  0
VERTEX
  5
2B7
330
2B6
100
AcDbEntity
  8
GRAU_10_
 62
     7
100
AcDbVertex
100
AcDb2dVertex
 10
107.925367540293
 20
191.7798529251453
 30
0.0
  0
VERTEX
  5
2B8
330
2B6
100
AcDbEntity
  8
GRAU_10_
 62
     7
100
AcDbVertex
100
AcDb2dVertex
 10
107.925367540293
 20
204.7800929935098
 30
0.0
  0
SEQEND
  5
2B9
330
2B6
100
AcDbEntity
  8
GRAU_10_
  0
POLYLINE
  5
2BA
330
1F
100
AcDbEntity
  8
GRAU_10_
 62
     7
100
AcDb2dPolyline
 66
     1
 10
0.0
 20
0.0
 30
0.0
  0
VERTEX
  5
2BB
330
2BA
100
AcDbEntity
  8
GRAU_10_
 62
     7
100
AcDbVertex
100
AcDb2dVertex
 10
132.715757887828
 20
156.3849419096885
 30
0.0
  0
VERTEX
  5
2BC
330
2BA
100
AcDbEntity
  8
GRAU_10_
 62
     7
100
AcDbVertex
100
AcDb2dVertex
 10
132.6017252272662
 20
156.0883191884085
 30
0.0
  0
SEQEND
  5
2BD
330
2BA
100
AcDbEntity
  8
GRAU_10_
  0
POLYLINE
  5
2BE
330
1F
100
AcDbEntity
  8
GRAU_10_
 62
     7
100
AcDb2dPolyline
 66
     1
 10
0.0
 20
0.0
 30
0.0
  0
VERTEX
  5
2BF
330
2BE
100
AcDbEntity
  8
GRAU_10_
 62
     7
100
AcDbVertex
100
AcDb2dVertex
 10
131.5247883785771
 20
160.8201578373991
 30
0.0
  0
VERTEX
  5
2C0
330
2BE
100
AcDbEntity
  8
GRAU_10_
 62
     7
100
AcDbVertex
100
AcDb2dVertex
 10
132.556938985958
 20
156.2936468793294
 30
0.0
  0
SEQEND
  5
2C1
330
2BE
100
AcDbEntity
  8
GRAU_10_
  0
POLYLINE
  5
2C2
330
1F
100
AcDbEntity
  8
GRAU_10_
 62
     7
100
AcDb2dPolyline
 66
     1
 10
0.0
 20
0.0
 30
0.0
  0
VERTEX
  5
2C3
330
2C2
100
AcDbEntity
  8
GRAU_10_
 62
     7
100
AcDbVertex
100
AcDb2dVertex
 10
130.2251261067667
 20
171.6027899419083
 30
0.0
  0
VERTEX
  5
2C4
330
2C2
100
AcDbEntity
  8
GRAU_10_
 62
     7
100
AcDbVertex
100
AcDb2dVertex
 10
130.2251261067667
 20
191.7798529251453
 30
0.0
  0
SEQEND
  5
2C5
330
2C2
100
AcDbEntity
  8
GRAU_10_
  0
POLYLINE
  5
2C6
330
1F
100
AcDbEntity
  8
GRAU_10_
 62
     7
100
AcDb2dPolyline
 66
     1
 10
0.0
 20
0.0
 30
0.0
  0
VERTEX
  5
2C7
330
2C6
100
AcDbEntity
  8
GRAU_10_
 62
     7
100
AcDbVertex
100
AcDb2dVertex
 10
131.8725707678131
 20
194.6327364964807
 30
0.0
  0
VERTEX
  5
2C8
330
2C6
100
AcDbEntity
  8
GRAU_10_
 62
     7
100
AcDbVertex
100
AcDb2dVertex
 10
134.7254543391485
 20
191.7798529251453
 30
0.0
  0
VERTEX
  5
2C9
330
2C6
100
AcDbEntity
  8
GRAU_10_
 62
     7
100
AcDbVertex
100
AcDb2dVertex
 10
134.7254543391485
 20
167.7801119914751
 30
0.0
  0
VERTEX
  5
2CA
330
2C6
100
AcDbEntity
  8
GRAU_10_
 62
     7
100
AcDbVertex
100
AcDb2dVertex
 10
132.715757887828
 20
156.3849419096885
 30
0.0
  0
SEQEND
  5
2CB
330
2C6
100
AcDbEntity
  8
GRAU_10_
  0
POLYLINE
  5
2CC
330
1F
100
AcDbEntity
  8
GRAU_10_
 62
     7
100
AcDb2dPolyline
 66
     1
 10
0.0
 20
0.0
 30
0.0
  0
VERTEX
  5
2CD
330
2CC
100
AcDbEntity
  8
GRAU_10_
 62
     7
100
AcDbVertex
100
AcDb2dVertex
 10
107.925367540293
 20
160.683559801409
 30
0.0
  0
VERTEX
  5
2CE
330
2CC
100
AcDbEntity
  8
GRAU_10_
 62
     7
100
AcDbVertex
100
AcDb2dVertex
 10
107.925367540293
 20
191.7798529251453
 30
0.0
  0
SEQEND
  5
2CF
330
2CC
100
AcDbEntity
  8
GRAU_10_
  0
POLYLINE
  5
2D0
330
1F
100
AcDbEntity
  8
GRAU_10_
 62
     7
100
AcDb2dPolyline
 66
     1
 10
0.0
 20
0.0
 30
0.0
  0
VERTEX
  5
2D1
330
2D0
100
AcDbEntity
  8
GRAU_10_
 62
     7
100
AcDbVertex
100
AcDb2dVertex
 10
132.715757887828
 20
156.3849419096885
 30
0.0
  0
VERTEX
  5
2D2
330
2D0
100
AcDbEntity
  8
GRAU_10_
 62
     7
100
AcDbVertex
100
AcDb2dVertex
 10
131.3306572479833
 20
148.5296074389961
 30
0.0
  0
SEQEND
  5
2D3
330
2D0
100
AcDbEntity
  8
GRAU_10_
  0
SPLINE
  5
2D4
330
1F
100
AcDbEntity
  8
GRAU_10_
 62
     7
100
AcDbSpline
210
0.0
220
0.0
230
1.0
 70
    11
 71
     3
 72
    17
 73
    13
 74
     0
 42
0.0000000001
 43
0.0000000001
 40
0.0
 40
0.0
 40
0.0
 40
0.0
 40
1.0
 40
1.0
 40
1.0
 40
2.0
 40
2.0
 40
2.0
 40
3.0
 40
3.0
 40
3.0
 40
4.0
 40
4.0
 40
4.0
 40
4.0
 10
129.7252427518569
 20
179.7793795666003
 30
0.0
 10
129.7252427518569
 20
184.7504800970416
 30
0.0
 10
125.6953423079859
 20
188.7795192670413
 30
0.0
 10
120.725103051416
 20
188.7795192670413
 30
0.0
 10
115.754863794846
 20
188.7795192670413
 30
0.0
 10
111.7251356057493
 20
184.7504800970416
 30
0.0
 10
111.7251356057493
 20
179.7793795666003
 30
0.0
 10
111.7251356057493
 20
174.8091403100304
 30
0.0
 10
115.754863794846
 20
170.7801011400307
 30
0.0
 10
120.725103051416
 20
170.7801011400307
 30
0.0
 10
125.6953423079859
 20
170.7801011400307
 30
0.0
 10
129.7252427518569
 20
174.8091403100304
 30
0.0
 10
129.7252427518569
 20
179.7793795666003
 30
0.0
  0
SPLINE
  5
2D5
330
1F
100
AcDbEntity
  8
GRAU_10_
 62
     7
100
AcDbSpline
210
0.0
220
0.0
230
1.0
 70
     8
 71
     3
 72
    11
 73
     7
 74
     0
 42
0.0000000001
 43
0.0000000001
 40
0.0
 40
0.0
 40
0.0
 40
0.0
 40
1.0
 40
1.0
 40
1.0
 40
2.0
 40
2.0
 40
2.0
 40
2.0
 10
126.2250257388431
 20
179.7793795666003
 30
0.0
 10
126.2250257388431
 20
182.8172647654936
 30
0.0
 10
123.7629882503093
 20
185.2799912731245
 30
0.0
 10
120.725103051416
 20
185.2799912731245
 30
0.0
 10
117.6877346168454
 20
185.2799912731245
 30
0.0
 10
115.2250081092146
 20
182.8172647654936
 30
0.0
 10
115.2250081092146
 20
179.7793795666003
 30
0.0
  0
SPLINE
  5
2D6
330
1F
100
AcDbEntity
  8
GRAU_10_
 62
     7
100
AcDbSpline
210
0.0
220
0.0
230
1.0
 70
     8
 71
     3
 72
    11
 73
     7
 74
     0
 42
0.0000000001
 43
0.0000000001
 40
0.0
 40
0.0
 40
0.0
 40
0.0
 40
1.0
 40
1.0
 40
1.0
 40
2.0
 40
2.0
 40
2.0
 40
2.0
 10
125.6252346148611
 20
179.7793795666003
 30
0.0
 10
125.6252346148611
 20
182.4856743250383
 30
0.0
 10
123.4312255550797
 20
184.6795111300454
 30
0.0
 10
120.725103051416
 20
184.6795111300454
 30
0.0
 10
118.0193250573007
 20
184.6795111300454
 30
0.0
 10
115.8254882522936
 20
182.4856743250383
 30
0.0
 10
115.8254882522936
 20
179.7793795666003
 30
0.0
  0
SPLINE
  5
2D7
330
1F
100
AcDbEntity
  8
GRAU_10_
 62
     7
100
AcDbSpline
210
0.0
220
0.0
230
1.0
 70
     8
 71
     3
 72
    11
 73
     7
 74
     0
 42
0.0000000001
 43
0.0000000001
 40
0.0
 40
0.0
 40
0.0
 40
0.0
 40
1.0
 40
1.0
 40
1.0
 40
2.0
 40
2.0
 40
2.0
 40
2.0
 10
115.2250081092146
 20
179.7793795666003
 30
0.0
 10
115.2250081092146
 20
176.7420111320298
 30
0.0
 10
117.6877346168454
 20
174.279973643496
 30
0.0
 10
120.725103051416
 20
174.279973643496
 30
0.0
 10
123.7629882503093
 20
174.279973643496
 30
0.0
 10
126.2250257388431
 20
176.7420111320298
 30
0.0
 10
126.2250257388431
 20
179.7793795666003
 30
0.0
  0
SPLINE
  5
2D8
330
1F
100
AcDbEntity
  8
GRAU_10_
 62
     7
100
AcDbSpline
210
0.0
220
0.0
230
1.0
 70
     8
 71
     3
 72
    11
 73
     7
 74
     0
 42
0.0000000001
 43
0.0000000001
 40
0.0
 40
0.0
 40
0.0
 40
0.0
 40
1.0
 40
1.0
 40
1.0
 40
2.0
 40
2.0
 40
2.0
 40
2.0
 10
115.8254882522936
 20
179.7793795666003
 30
0.0
 10
115.8254882522936
 20
177.0736015724851
 30
0.0
 10
118.0193250573007
 20
174.879764767478
 30
0.0
 10
120.725103051416
 20
174.879764767478
 30
0.0
 10
123.4312255550797
 20
174.879764767478
 30
0.0
 10
125.6252346148611
 20
177.0736015724851
 30
0.0
 10
125.6252346148611
 20
179.7793795666003
 30
0.0
  0
POLYLINE
  5
2D9
330
1F
100
AcDbEntity
  8
GRAU_10_
 62
     7
100
AcDb2dPolyline
 66
     1
 10
0.0
 20
0.0
 30
0.0
  0
VERTEX
  5
2DA
330
2D9
100
AcDbEntity
  8
GRAU_10_
 62
     7
100
AcDbVertex
100
AcDb2dVertex
 10
118.7188516955807
 20
146.5915689737688
 30
0.0
  0
VERTEX
  5
2DB
330
2D9
100
AcDbEntity
  8
GRAU_10_
 62
     7
100
AcDbVertex
100
AcDb2dVertex
 10
117.9735052873469
 20
146.1499077325597
 30
0.0
  0
VERTEX
  5
2DC
330
2D9
100
AcDbEntity
  8
GRAU_10_
 62
     7
100
AcDbVertex
100
AcDb2dVertex
 10
117.2262640765962
 20
145.8563855972165
 30
0.0
  0
VERTEX
  5
2DD
330
2D9
100
AcDbEntity
  8
GRAU_10_
 62
     7
100
AcDbVertex
100
AcDb2dVertex
 10
116.4766112990059
 20
145.7120360963845
 30
0.0
  0
VERTEX
  5
2DE
330
2D9
100
AcDbEntity
  8
GRAU_10_
 62
     7
100
AcDbVertex
100
AcDb2dVertex
 10
115.7255804832214
 20
145.7163424657411
 30
0.0
  0
VERTEX
  5
2DF
330
2D9
100
AcDbEntity
  8
GRAU_10_
 62
     7
100
AcDbVertex
100
AcDb2dVertex
 10
114.9724826101458
 20
145.8689601957376
 30
0.0
  0
VERTEX
  5
2E0
330
2D9
100
AcDbEntity
  8
GRAU_10_
 62
     7
100
AcDbVertex
100
AcDb2dVertex
 10
114.2174899345533
 20
146.1709228150198
 30
0.0
  0
VERTEX
  5
2E1
330
2D9
100
AcDbEntity
  8
GRAU_10_
 62
     7
100
AcDbVertex
100
AcDb2dVertex
 10
113.4611192207667
 20
146.6215413044904
 30
0.0
  0
SEQEND
  5
2E2
330
2D9
100
AcDbEntity
  8
GRAU_10_
  0
POLYLINE
  5
2E3
330
1F
100
AcDbEntity
  8
GRAU_10_
 62
     7
100
AcDb2dPolyline
 66
     1
 10
0.0
 20
0.0
 30
0.0
  0
VERTEX
  5
2E4
330
2E3
100
AcDbEntity
  8
GRAU_10_
 62
     7
100
AcDbVertex
100
AcDb2dVertex
 10
128.9826524200113
 20
146.0761826891754
 30
0.0
  0
VERTEX
  5
2E5
330
2E3
100
AcDbEntity
  8
GRAU_10_
 62
     7
100
AcDbVertex
100
AcDb2dVertex
 10
127.7768690001738
 20
145.6672498550762
 30
0.0
  0
VERTEX
  5
2E6
330
2E3
100
AcDbEntity
  8
GRAU_10_
 62
     7
100
AcDbVertex
100
AcDb2dVertex
 10
126.5586832365895
 20
145.388197120771
 30
0.0
  0
VERTEX
  5
2E7
330
2E3
100
AcDbEntity
  8
GRAU_10_
 62
     7
100
AcDbVertex
100
AcDb2dVertex
 10
125.328611893581
 20
145.2386799767112
 30
0.0
  0
VERTEX
  5
2E8
330
2E3
100
AcDbEntity
  8
GRAU_10_
 62
     7
100
AcDbVertex
100
AcDb2dVertex
 10
124.0875162450198
 20
145.219559696768
 30
0.0
  0
VERTEX
  5
2E9
330
2E3
100
AcDbEntity
  8
GRAU_10_
 62
     7
100
AcDbVertex
100
AcDb2dVertex
 10
122.8362575647771
 20
145.3303195166188
 30
0.0
  0
VERTEX
  5
2EA
330
2E3
100
AcDbEntity
  8
GRAU_10_
 62
     7
100
AcDbVertex
100
AcDb2dVertex
 10
121.5750081076271
 20
145.570614926715
 30
0.0
  0
VERTEX
  5
2EB
330
2E3
100
AcDbEntity
  8
GRAU_10_
 62
     7
100
AcDbVertex
100
AcDb2dVertex
 10
120.3056626760868
 20
145.9413072009279
 30
0.0
  0
VERTEX
  5
2EC
330
2E3
100
AcDbEntity
  8
GRAU_10_
 62
     7
100
AcDbVertex
100
AcDb2dVertex
 10
119.0275322510591
 20
146.4415350653861
 30
0.0
  0
SEQEND
  5
2ED
330
2E3
100
AcDbEntity
  8
GRAU_10_
  0
POLYLINE
  5
2EE
330
1F
100
AcDbEntity
  8
GRAU_10_
 62
     7
100
AcDb2dPolyline
 66
     1
 10
0.0
 20
0.0
 30
0.0
  0
VERTEX
  5
2EF
330
2EE
100
AcDbEntity
  8
GRAU_10_
 62
     7
100
AcDbVertex
100
AcDb2dVertex
 10
112.6852837174884
 20
135.4127508884558
 30
0.0
  0
VERTEX
  5
2F0
330
2EE
100
AcDbEntity
  8
GRAU_10_
 62
     7
100
AcDbVertex
100
AcDb2dVertex
 10
113.1514051366427
 20
135.4194688246521
 30
0.0
  0
VERTEX
  5
2F1
330
2EE
100
AcDbEntity
  8
GRAU_10_
 62
     7
100
AcDbVertex
100
AcDb2dVertex
 10
113.7977050496756
 20
135.4394503784665
 30
0.0
  0
SEQEND
  5
2F2
330
2EE
100
AcDbEntity
  8
GRAU_10_
  0
POLYLINE
  5
2F3
330
1F
100
AcDbEntity
  8
GRAU_10_
 62
     7
100
AcDb2dPolyline
 66
     1
 10
0.0
 20
0.0
 30
0.0
  0
VERTEX
  5
2F4
330
2F3
100
AcDbEntity
  8
GRAU_10_
 62
     7
100
AcDbVertex
100
AcDb2dVertex
 10
113.4611192207667
 20
135.9672390068068
 30
0.0
  0
VERTEX
  5
2F5
330
2F3
100
AcDbEntity
  8
GRAU_10_
 62
     7
100
AcDbVertex
100
AcDb2dVertex
 10
112.873385930983
 20
136.0476819863874
 30
0.0
  0
VERTEX
  5
2F6
330
2F3
100
AcDbEntity
  8
GRAU_10_
 62
     7
100
AcDbVertex
100
AcDb2dVertex
 10
112.4849514150211
 20
136.1250243800312
 30
0.0
  0
SEQEND
  5
2F7
330
2F3
100
AcDbEntity
  8
GRAU_10_
  0
POLYLINE
  5
2F8
330
1F
100
AcDbEntity
  8
GRAU_10_
 62
     7
100
AcDb2dPolyline
 66
     1
 10
0.0
 20
0.0
 30
0.0
  0
VERTEX
  5
2F9
330
2F8
100
AcDbEntity
  8
GRAU_10_
 62
     7
100
AcDbVertex
100
AcDb2dVertex
 10
115.5364447410812
 20
152.5309135903395
 30
0.0
  0
VERTEX
  5
2FA
330
2F8
100
AcDbEntity
  8
GRAU_10_
 62
     7
100
AcDbVertex
100
AcDb2dVertex
 10
114.3458197413788
 20
152.0472221842104
 30
0.0
  0
VERTEX
  5
2FB
330
2F8
100
AcDbEntity
  8
GRAU_10_
 62
     7
100
AcDbVertex
100
AcDb2dVertex
 10
113.3712022286016
 20
151.5735215549886
 30
0.0
  0
VERTEX
  5
2FC
330
2F8
100
AcDbEntity
  8
GRAU_10_
 62
     7
100
AcDbVertex
100
AcDb2dVertex
 10
112.6129367122982
 20
151.1106729765453
 30
0.0
  0
VERTEX
  5
2FD
330
2F8
100
AcDbEntity
  8
GRAU_10_
 62
     7
100
AcDbVertex
100
AcDb2dVertex
 10
112.0753295618249
 20
150.6607435061716
 30
0.0
  0
VERTEX
  5
2FE
330
2F8
100
AcDbEntity
  8
GRAU_10_
 62
     7
100
AcDbVertex
100
AcDb2dVertex
 10
111.7592420510532
 20
150.2240776534162
 30
0.0
  0
VERTEX
  5
2FF
330
2F8
100
AcDbEntity
  8
GRAU_10_
 62
     7
100
AcDbVertex
100
AcDb2dVertex
 10
111.6643296704346
 20
149.8029147303444
 30
0.0
  0
VERTEX
  5
300
330
2F8
100
AcDbEntity
  8
GRAU_10_
 62
     7
100
AcDbVertex
100
AcDb2dVertex
 10
111.7921427129374
 20
149.3975992465048
 30
0.0
  0
SEQEND
  5
301
330
2F8
100
AcDbEntity
  8
GRAU_10_
  0
POLYLINE
  5
302
330
1F
100
AcDbEntity
  8
GRAU_10_
 62
     7
100
AcDb2dPolyline
 66
     1
 10
0.0
 20
0.0
 30
0.0
  0
VERTEX
  5
303
330
302
100
AcDbEntity
  8
GRAU_10_
 62
     7
100
AcDbVertex
100
AcDb2dVertex
 10
120.2386555688987
 20
149.3975992465048
 30
0.0
  0
VERTEX
  5
304
330
302
100
AcDbEntity
  8
GRAU_10_
 62
     7
100
AcDbVertex
100
AcDb2dVertex
 10
119.4752224093673
 20
148.8877251146878
 30
0.0
  0
VERTEX
  5
305
330
302
100
AcDbEntity
  8
GRAU_10_
 62
     7
100
AcDbVertex
100
AcDb2dVertex
 10
118.9140163548201
 20
148.3931816577802
 30
0.0
  0
VERTEX
  5
306
330
302
100
AcDbEntity
  8
GRAU_10_
 62
     7
100
AcDbVertex
100
AcDb2dVertex
 10
118.556932207774
 20
147.9148301496533
 30
0.0
  0
VERTEX
  5
307
330
302
100
AcDbEntity
  8
GRAU_10_
 62
     7
100
AcDbVertex
100
AcDb2dVertex
 10
118.405348006423
 20
147.4537041189525
 30
0.0
  0
VERTEX
  5
308
330
302
100
AcDbEntity
  8
GRAU_10_
 62
     7
100
AcDbVertex
100
AcDb2dVertex
 10
118.4592637507671
 20
147.0123873872921
 30
0.0
  0
VERTEX
  5
309
330
302
100
AcDbEntity
  8
GRAU_10_
 62
     7
100
AcDbVertex
100
AcDb2dVertex
 10
118.7188516955807
 20
146.5915689737688
 30
0.0
  0
SEQEND
  5
30A
330
302
100
AcDbEntity
  8
GRAU_10_
  0
POLYLINE
  5
30B
330
1F
100
AcDbEntity
  8
GRAU_10_
 62
     7
100
AcDb2dPolyline
 66
     1
 10
0.0
 20
0.0
 30
0.0
  0
VERTEX
  5
30C
330
30B
100
AcDbEntity
  8
GRAU_10_
 62
     7
100
AcDbVertex
100
AcDb2dVertex
 10
132.6017252272662
 20
156.0883191884085
 30
0.0
  0
VERTEX
  5
30D
330
30B
100
AcDbEntity
  8
GRAU_10_
 62
     7
100
AcDbVertex
100
AcDb2dVertex
 10
132.405354784607
 20
154.8728895012123
 30
0.0
  0
VERTEX
  5
30E
330
30B
100
AcDbEntity
  8
GRAU_10_
 62
     7
100
AcDbVertex
100
AcDb2dVertex
 10
132.1523125212154
 20
153.6393730627186
 30
0.0
  0
VERTEX
  5
30F
330
30B
100
AcDbEntity
  8
GRAU_10_
 62
     7
100
AcDbVertex
100
AcDb2dVertex
 10
131.8463880421252
 20
152.4060288789992
 30
0.0
  0
VERTEX
  5
310
330
30B
100
AcDbEntity
  8
GRAU_10_
 62
     7
100
AcDbVertex
100
AcDb2dVertex
 10
131.4925767357901
 20
151.1911159561258
 30
0.0
  0
VERTEX
  5
311
330
30B
100
AcDbEntity
  8
GRAU_10_
 62
     7
100
AcDbVertex
100
AcDb2dVertex
 10
131.0957017358893
 20
150.0120320262991
 30
0.0
  0
VERTEX
  5
312
330
30B
100
AcDbEntity
  8
GRAU_10_
 62
     7
100
AcDbVertex
100
AcDb2dVertex
 10
130.6614474499735
 20
148.8866915860422
 30
0.0
  0
SEQEND
  5
313
330
30B
100
AcDbEntity
  8
GRAU_10_
  0
POLYLINE
  5
314
330
1F
100
AcDbEntity
  8
GRAU_10_
 62
     7
100
AcDb2dPolyline
 66
     1
 10
0.0
 20
0.0
 30
0.0
  0
VERTEX
  5
315
330
314
100
AcDbEntity
  8
GRAU_10_
 62
     7
100
AcDbVertex
100
AcDb2dVertex
 10
129.9026651693472
 20
157.7247395439022
 30
0.0
  0
VERTEX
  5
316
330
314
100
AcDbEntity
  8
GRAU_10_
 62
     7
100
AcDbVertex
100
AcDb2dVertex
 10
129.4055378908257
 20
157.011949288004
 30
0.0
  0
VERTEX
  5
317
330
314
100
AcDbEntity
  8
GRAU_10_
 62
     7
100
AcDbVertex
100
AcDb2dVertex
 10
128.6595024634948
 20
156.2936468793294
 30
0.0
  0
SEQEND
  5
318
330
314
100
AcDbEntity
  8
GRAU_10_
  0
POLYLINE
  5
319
330
1F
100
AcDbEntity
  8
GRAU_10_
 62
     7
100
AcDb2dPolyline
 66
     1
 10
0.0
 20
0.0
 30
0.0
  0
VERTEX
  5
31A
330
319
100
AcDbEntity
  8
GRAU_10_
 62
     7
100
AcDbVertex
100
AcDb2dVertex
 10
124.2783745349026
 20
164.0154838999684
 30
0.0
  0
VERTEX
  5
31B
330
319
100
AcDbEntity
  8
GRAU_10_
 62
     7
100
AcDbVertex
100
AcDb2dVertex
 10
121.7355495572397
 20
163.6697685680235
 30
0.0
  0
VERTEX
  5
31C
330
319
100
AcDbEntity
  8
GRAU_10_
 62
     7
100
AcDbVertex
100
AcDb2dVertex
 10
119.3668741563562
 20
163.316990790334
 30
0.0
  0
VERTEX
  5
31D
330
319
100
AcDbEntity
  8
GRAU_10_
 62
     7
100
AcDbVertex
100
AcDb2dVertex
 10
117.1761379372858
 20
162.9580118407709
 30
0.0
  0
VERTEX
  5
31E
330
319
100
AcDbEntity
  8
GRAU_10_
 62
     7
100
AcDbVertex
100
AcDb2dVertex
 10
115.1657524668683
 20
162.5917981906889
 30
0.0
  0
VERTEX
  5
31F
330
319
100
AcDbEntity
  8
GRAU_10_
 62
     7
100
AcDbVertex
100
AcDb2dVertex
 10
113.3396796049116
 20
162.2195556235076
 30
0.0
  0
VERTEX
  5
320
330
319
100
AcDbEntity
  8
GRAU_10_
 62
     7
100
AcDbVertex
100
AcDb2dVertex
 10
111.6999864087069
 20
161.8421454130985
 30
0.0
  0
VERTEX
  5
321
330
319
100
AcDbEntity
  8
GRAU_10_
 62
     7
100
AcDbVertex
100
AcDb2dVertex
 10
110.249773464191
 20
161.4597398142358
 30
0.0
  0
VERTEX
  5
322
330
319
100
AcDbEntity
  8
GRAU_10_
 62
     7
100
AcDbVertex
100
AcDb2dVertex
 10
108.991107828655
 20
161.0737168651135
 30
0.0
  0
VERTEX
  5
323
330
319
100
AcDbEntity
  8
GRAU_10_
 62
     7
100
AcDbVertex
100
AcDb2dVertex
 10
107.925367540293
 20
160.683559801409
 30
0.0
  0
SEQEND
  5
324
330
319
100
AcDbEntity
  8
GRAU_10_
  0
POLYLINE
  5
325
330
1F
100
AcDbEntity
  8
GRAU_10_
 62
     7
100
AcDb2dPolyline
 66
     1
 10
0.0
 20
0.0
 30
0.0
  0
VERTEX
  5
326
330
325
100
AcDbEntity
  8
GRAU_10_
 62
     7
100
AcDbVertex
100
AcDb2dVertex
 10
124.2783745349026
 20
164.0154838999684
 30
0.0
  0
VERTEX
  5
327
330
325
100
AcDbEntity
  8
GRAU_10_
 62
     7
100
AcDbVertex
100
AcDb2dVertex
 10
125.4929429482275
 20
163.5400607230039
 30
0.0
  0
VERTEX
  5
328
330
325
100
AcDbEntity
  8
GRAU_10_
 62
     7
100
AcDbVertex
100
AcDb2dVertex
 10
126.5216484601231
 20
163.0506849093241
 30
0.0
  0
VERTEX
  5
329
330
325
100
AcDbEntity
  8
GRAU_10_
 62
     7
100
AcDbVertex
100
AcDb2dVertex
 10
127.3601847012329
 20
162.5494235162203
 30
0.0
  0
VERTEX
  5
32A
330
325
100
AcDbEntity
  8
GRAU_10_
 62
     7
100
AcDbVertex
100
AcDb2dVertex
 10
128.0064846142658
 20
162.0371378175636
 30
0.0
  0
VERTEX
  5
32B
330
325
100
AcDbEntity
  8
GRAU_10_
 62
     7
100
AcDbVertex
100
AcDb2dVertex
 10
128.4583088871562
 20
161.5153781063225
 30
0.0
  0
VERTEX
  5
32C
330
325
100
AcDbEntity
  8
GRAU_10_
 62
     7
100
AcDbVertex
100
AcDb2dVertex
 10
128.7151407555816
 20
160.9855224206911
 30
0.0
  0
VERTEX
  5
32D
330
325
100
AcDbEntity
  8
GRAU_10_
 62
     7
100
AcDbVertex
100
AcDb2dVertex
 10
128.7766357099933
 20
160.4489487988635
 30
0.0
  0
VERTEX
  5
32E
330
325
100
AcDbEntity
  8
GRAU_10_
 62
     7
100
AcDbVertex
100
AcDb2dVertex
 10
128.6407266931002
 20
159.907896552905
 30
0.0
  0
VERTEX
  5
32F
330
325
100
AcDbEntity
  8
GRAU_10_
 62
     7
100
AcDbVertex
100
AcDb2dVertex
 10
128.309825271742
 20
159.3635714662355
 30
0.0
  0
VERTEX
  5
330
330
325
100
AcDbEntity
  8
GRAU_10_
 62
     7
100
AcDbVertex
100
AcDb2dVertex
 10
127.7835869363701
 20
158.8170070675006
 30
0.0
  0
VERTEX
  5
331
330
325
100
AcDbEntity
  8
GRAU_10_
 62
     7
100
AcDbVertex
100
AcDb2dVertex
 10
127.0642509990499
 20
158.2702704139915
 30
0.0
  0
VERTEX
  5
332
330
325
100
AcDbEntity
  8
GRAU_10_
 62
     7
100
AcDbVertex
100
AcDb2dVertex
 10
126.1533677527499
 20
157.7247395439022
 30
0.0
  0
SEQEND
  5
333
330
325
100
AcDbEntity
  8
GRAU_10_
  0
POLYLINE
  5
334
330
1F
100
AcDbEntity
  8
GRAU_10_
 62
     7
100
AcDb2dPolyline
 66
     1
 10
0.0
 20
0.0
 30
0.0
  0
VERTEX
  5
335
330
334
100
AcDbEntity
  8
GRAU_10_
 62
     7
100
AcDbVertex
100
AcDb2dVertex
 10
107.925367540293
 20
160.683559801409
 30
0.0
  0
VERTEX
  5
336
330
334
100
AcDbEntity
  8
GRAU_10_
 62
     7
100
AcDbVertex
100
AcDb2dVertex
 10
107.925367540293
 20
159.2572902705155
 30
0.0
  0
VERTEX
  5
337
330
334
100
AcDbEntity
  8
GRAU_10_
 62
     7
100
AcDbVertex
100
AcDb2dVertex
 10
107.925367540293
 20
157.8201686888436
 30
0.0
  0
VERTEX
  5
338
330
334
100
AcDbEntity
  8
GRAU_10_
 62
     7
100
AcDbVertex
100
AcDb2dVertex
 10
107.925367540293
 20
156.4011338584692
 30
0.0
  0
VERTEX
  5
339
330
334
100
AcDbEntity
  8
GRAU_10_
 62
     7
100
AcDbVertex
100
AcDb2dVertex
 10
107.925367540293
 20
155.0289523266942
 30
0.0
  0
VERTEX
  5
33A
330
334
100
AcDbEntity
  8
GRAU_10_
 62
     7
100
AcDbVertex
100
AcDb2dVertex
 10
107.925367540293
 20
153.7299790739807
 30
0.0
  0
VERTEX
  5
33B
330
334
100
AcDbEntity
  8
GRAU_10_
 62
     7
100
AcDbVertex
100
AcDb2dVertex
 10
107.925367540293
 20
152.5309135903395
 30
0.0
  0
SEQEND
  5
33C
330
334
100
AcDbEntity
  8
GRAU_10_
  0
POLYLINE
  5
33D
330
1F
100
AcDbEntity
  8
GRAU_10_
 62
     7
100
AcDb2dPolyline
 66
     1
 10
0.0
 20
0.0
 30
0.0
  0
VERTEX
  5
33E
330
33D
100
AcDbEntity
  8
GRAU_10_
 62
     7
100
AcDbVertex
100
AcDb2dVertex
 10
120.2248751869577
 20
138.3178276563928
 30
0.0
  0
VERTEX
  5
33F
330
33D
100
AcDbEntity
  8
GRAU_10_
 62
     7
100
AcDbVertex
100
AcDb2dVertex
 10
121.9930704447622
 20
139.4536756378797
 30
0.0
  0
VERTEX
  5
340
330
33D
100
AcDbEntity
  8
GRAU_10_
 62
     7
100
AcDbVertex
100
AcDb2dVertex
 10
123.6365532460006
 20
140.6415445611938
 30
0.0
  0
VERTEX
  5
341
330
33D
100
AcDbEntity
  8
GRAU_10_
 62
     7
100
AcDbVertex
100
AcDb2dVertex
 10
125.1577351575127
 20
141.8893581459513
 30
0.0
  0
VERTEX
  5
342
330
33D
100
AcDbEntity
  8
GRAU_10_
 62
     7
100
AcDbVertex
100
AcDb2dVertex
 10
126.5562716697498
 20
143.2052123665424
 30
0.0
  0
VERTEX
  5
343
330
33D
100
AcDbEntity
  8
GRAU_10_
 62
     7
100
AcDbVertex
100
AcDb2dVertex
 10
127.8318182731636
 20
144.5975477069062
 30
0.0
  0
VERTEX
  5
344
330
33D
100
AcDbEntity
  8
GRAU_10_
 62
     7
100
AcDbVertex
100
AcDb2dVertex
 10
128.9826524200113
 20
146.0761826891754
 30
0.0
  0
SEQEND
  5
345
330
33D
100
AcDbEntity
  8
GRAU_10_
  0
POLYLINE
  5
346
330
1F
100
AcDbEntity
  8
GRAU_10_
 62
     7
100
AcDb2dPolyline
 66
     1
 10
0.0
 20
0.0
 30
0.0
  0
VERTEX
  5
347
330
346
100
AcDbEntity
  8
GRAU_10_
 62
     7
100
AcDbVertex
100
AcDb2dVertex
 10
114.3861273585563
 20
135.7743136596328
 30
0.0
  0
VERTEX
  5
348
330
346
100
AcDbEntity
  8
GRAU_10_
 62
     7
100
AcDbVertex
100
AcDb2dVertex
 10
115.9686319697058
 20
136.3058918930069
 30
0.0
  0
VERTEX
  5
349
330
346
100
AcDbEntity
  8
GRAU_10_
 62
     7
100
AcDbVertex
100
AcDb2dVertex
 10
117.4689710535321
 20
136.9039604692462
 30
0.0
  0
VERTEX
  5
34A
330
346
100
AcDbEntity
  8
GRAU_10_
 62
     7
100
AcDbVertex
100
AcDb2dVertex
 10
118.8885226482293
 20
137.5719644838362
 30
0.0
  0
VERTEX
  5
34B
330
346
100
AcDbEntity
  8
GRAU_10_
 62
     7
100
AcDbVertex
100
AcDb2dVertex
 10
120.2248751869577
 20
138.3178276563928
 30
0.0
  0
SEQEND
  5
34C
330
346
100
AcDbEntity
  8
GRAU_10_
  0
POLYLINE
  5
34D
330
1F
100
AcDbEntity
  8
GRAU_10_
 62
     7
100
AcDb2dPolyline
 66
     1
 10
0.0
 20
0.0
 30
0.0
  0
VERTEX
  5
34E
330
34D
100
AcDbEntity
  8
GRAU_10_
 62
     7
100
AcDbVertex
100
AcDb2dVertex
 10
114.3861273585563
 20
135.7743136596328
 30
0.0
  0
VERTEX
  5
34F
330
34D
100
AcDbEntity
  8
GRAU_10_
 62
     7
100
AcDbVertex
100
AcDb2dVertex
 10
114.3091294744609
 20
135.7887830606709
 30
0.0
  0
VERTEX
  5
350
330
34D
100
AcDbEntity
  8
GRAU_10_
 62
     7
100
AcDbVertex
100
AcDb2dVertex
 10
114.2347154119795
 20
135.8018744235148
 30
0.0
  0
VERTEX
  5
351
330
34D
100
AcDbEntity
  8
GRAU_10_
 62
     7
100
AcDbVertex
100
AcDb2dVertex
 10
114.1642632093062
 20
135.8154825506816
 30
0.0
  0
VERTEX
  5
352
330
34D
100
AcDbEntity
  8
GRAU_10_
 62
     7
100
AcDbVertex
100
AcDb2dVertex
 10
114.0963948282467
 20
135.8285739135255
 30
0.0
  0
VERTEX
  5
353
330
34D
100
AcDbEntity
  8
GRAU_10_
 62
     7
100
AcDbVertex
100
AcDb2dVertex
 10
114.0319715426726
 20
135.8413207668209
 30
0.0
  0
VERTEX
  5
354
330
34D
100
AcDbEntity
  8
GRAU_10_
 62
     7
100
AcDbVertex
100
AcDb2dVertex
 10
113.9690985500668
 20
135.8537231105678
 30
0.0
  0
VERTEX
  5
355
330
34D
100
AcDbEntity
  8
GRAU_10_
 62
     7
100
AcDbVertex
100
AcDb2dVertex
 10
113.9088093790749
 20
135.8659531995405
 30
0.0
  0
VERTEX
  5
356
330
34D
100
AcDbEntity
  8
GRAU_10_
 62
     7
100
AcDbVertex
100
AcDb2dVertex
 10
113.8505872653742
 20
135.8783555432874
 30
0.0
  0
VERTEX
  5
357
330
34D
100
AcDbEntity
  8
GRAU_10_
 62
     7
100
AcDbVertex
100
AcDb2dVertex
 10
113.7951212280616
 20
135.8897243583887
 30
0.0
  0
VERTEX
  5
358
330
34D
100
AcDbEntity
  8
GRAU_10_
 62
     7
100
AcDbVertex
100
AcDb2dVertex
 10
113.740860974169
 20
135.9019544473613
 30
0.0
  0
VERTEX
  5
359
330
34D
100
AcDbEntity
  8
GRAU_10_
 62
     7
100
AcDbVertex
100
AcDb2dVertex
 10
113.6893567966645
 20
135.9129787529141
 30
0.0
  0
VERTEX
  5
35A
330
34D
100
AcDbEntity
  8
GRAU_10_
 62
     7
100
AcDbVertex
100
AcDb2dVertex
 10
113.6392306573541
 20
135.9245198227897
 30
0.0
  0
VERTEX
  5
35B
330
34D
100
AcDbEntity
  8
GRAU_10_
 62
     7
100
AcDbVertex
100
AcDb2dVertex
 10
113.5916883396576
 20
135.935888637891
 30
0.0
  0
VERTEX
  5
35C
330
34D
100
AcDbEntity
  8
GRAU_10_
 62
     7
100
AcDbVertex
100
AcDb2dVertex
 10
113.5460408244781
 20
135.9463961791211
 30
0.0
  0
VERTEX
  5
35D
330
34D
100
AcDbEntity
  8
GRAU_10_
 62
     7
100
AcDbVertex
100
AcDb2dVertex
 10
113.5028048761382
 20
135.9570759751253
 30
0.0
  0
VERTEX
  5
35E
330
34D
100
AcDbEntity
  8
GRAU_10_
 62
     7
100
AcDbVertex
100
AcDb2dVertex
 10
113.4611192207667
 20
135.9672390068068
 30
0.0
  0
SEQEND
  5
35F
330
34D
100
AcDbEntity
  8
GRAU_10_
  0
POLYLINE
  5
360
330
1F
100
AcDbEntity
  8
GRAU_10_
 62
     7
100
AcDb2dPolyline
 66
     1
 10
0.0
 20
0.0
 30
0.0
  0
VERTEX
  5
361
330
360
100
AcDbEntity
  8
GRAU_10_
 62
     7
100
AcDbVertex
100
AcDb2dVertex
 10
119.0275322510591
 20
146.4415350653861
 30
0.0
  0
VERTEX
  5
362
330
360
100
AcDbEntity
  8
GRAU_10_
 62
     7
100
AcDbVertex
100
AcDb2dVertex
 10
118.9470892714785
 20
146.477536313207
 30
0.0
  0
VERTEX
  5
363
330
360
100
AcDbEntity
  8
GRAU_10_
 62
     7
100
AcDbVertex
100
AcDb2dVertex
 10
118.8688856039633
 20
146.514915599222
 30
0.0
  0
VERTEX
  5
364
330
360
100
AcDbEntity
  8
GRAU_10_
 62
     7
100
AcDbVertex
100
AcDb2dVertex
 10
118.7925767389651
 20
146.5526393947854
 30
0.0
  0
VERTEX
  5
365
330
360
100
AcDbEntity
  8
GRAU_10_
 62
     7
100
AcDbVertex
100
AcDb2dVertex
 10
118.7188516955807
 20
146.5915689737688
 30
0.0
  0
SEQEND
  5
366
330
360
100
AcDbEntity
  8
GRAU_10_
  0
POLYLINE
  5
367
330
1F
100
AcDbEntity
  8
GRAU_10_
 62
     7
100
AcDb2dPolyline
 66
     1
 10
0.0
 20
0.0
 30
0.0
  0
VERTEX
  5
368
330
367
100
AcDbEntity
  8
GRAU_10_
 62
     7
100
AcDbVertex
100
AcDb2dVertex
 10
114.3906059826871
 20
135.5037014092665
 30
0.0
  0
VERTEX
  5
369
330
367
100
AcDbEntity
  8
GRAU_10_
 62
     7
100
AcDbVertex
100
AcDb2dVertex
 10
114.3666625690646
 20
135.5298841349543
 30
0.0
  0
VERTEX
  5
36A
330
367
100
AcDbEntity
  8
GRAU_10_
 62
     7
100
AcDbVertex
100
AcDb2dVertex
 10
114.3490925820898
 20
135.5579616631591
 30
0.0
  0
VERTEX
  5
36B
330
367
100
AcDbEntity
  8
GRAU_10_
 62
     7
100
AcDbVertex
100
AcDb2dVertex
 10
114.338068276537
 20
135.5891397773006
 30
0.0
  0
VERTEX
  5
36C
330
367
100
AcDbEntity
  8
GRAU_10_
 62
     7
100
AcDbVertex
100
AcDb2dVertex
 10
114.3339341619547
 20
135.6225572035076
 30
0.0
  0
VERTEX
  5
36D
330
367
100
AcDbEntity
  8
GRAU_10_
 62
     7
100
AcDbVertex
100
AcDb2dVertex
 10
114.3370347478914
 20
135.6578694322314
 30
0.0
  0
VERTEX
  5
36E
330
367
100
AcDbEntity
  8
GRAU_10_
 62
     7
100
AcDbVertex
100
AcDb2dVertex
 10
114.3465087604759
 20
135.6952487182463
 30
0.0
  0
VERTEX
  5
36F
330
367
100
AcDbEntity
  8
GRAU_10_
 62
     7
100
AcDbVertex
100
AcDb2dVertex
 10
114.362356199708
 20
135.7343505520039
 30
0.0
  0
VERTEX
  5
370
330
367
100
AcDbEntity
  8
GRAU_10_
 62
     7
100
AcDbVertex
100
AcDb2dVertex
 10
114.3861273585563
 20
135.7743136596328
 30
0.0
  0
SEQEND
  5
371
330
367
100
AcDbEntity
  8
GRAU_10_
  0
POLYLINE
  5
372
330
1F
100
AcDbEntity
  8
GRAU_10_
 62
     7
100
AcDb2dPolyline
 66
     1
 10
0.0
 20
0.0
 30
0.0
  0
VERTEX
  5
373
330
372
100
AcDbEntity
  8
GRAU_10_
 62
     7
100
AcDbVertex
100
AcDb2dVertex
 10
113.7977050496756
 20
135.4394503784665
 30
0.0
  0
VERTEX
  5
374
330
372
100
AcDbEntity
  8
GRAU_10_
 62
     7
100
AcDbVertex
100
AcDb2dVertex
 10
113.8459363864691
 20
135.4437567478231
 30
0.0
  0
VERTEX
  5
375
330
372
100
AcDbEntity
  8
GRAU_10_
 62
     7
100
AcDbVertex
100
AcDb2dVertex
 10
113.8967515448765
 20
135.4487521362767
 30
0.0
  0
VERTEX
  5
376
330
372
100
AcDbEntity
  8
GRAU_10_
 62
     7
100
AcDbVertex
100
AcDb2dVertex
 10
113.9496337605751
 20
135.453575269956
 30
0.0
  0
VERTEX
  5
377
330
372
100
AcDbEntity
  8
GRAU_10_
 62
     7
100
AcDbVertex
100
AcDb2dVertex
 10
114.0047552883391
 20
135.4592596775067
 30
0.0
  0
VERTEX
  5
378
330
372
100
AcDbEntity
  8
GRAU_10_
 62
     7
100
AcDbVertex
100
AcDb2dVertex
 10
114.0626328924913
 20
135.4656331041544
 30
0.0
  0
VERTEX
  5
379
330
372
100
AcDbEntity
  8
GRAU_10_
 62
     7
100
AcDbVertex
100
AcDb2dVertex
 10
114.1232665730317
 20
135.4720065308021
 30
0.0
  0
VERTEX
  5
37A
330
372
100
AcDbEntity
  8
GRAU_10_
 62
     7
100
AcDbVertex
100
AcDb2dVertex
 10
114.1859673108632
 20
135.4790689765469
 30
0.0
  0
VERTEX
  5
37B
330
372
100
AcDbEntity
  8
GRAU_10_
 62
     7
100
AcDbVertex
100
AcDb2dVertex
 10
114.2512518703087
 20
135.4868204413887
 30
0.0
  0
VERTEX
  5
37C
330
372
100
AcDbEntity
  8
GRAU_10_
 62
     7
100
AcDbVertex
100
AcDb2dVertex
 10
114.3194647609167
 20
135.494916415779
 30
0.0
  0
VERTEX
  5
37D
330
372
100
AcDbEntity
  8
GRAU_10_
 62
     7
100
AcDbVertex
100
AcDb2dVertex
 10
114.3906059826871
 20
135.5037014092665
 30
0.0
  0
SEQEND
  5
37E
330
372
100
AcDbEntity
  8
GRAU_10_
  0
POLYLINE
  5
37F
330
1F
100
AcDbEntity
  8
GRAU_10_
 62
     7
100
AcDb2dPolyline
 66
     1
 10
0.0
 20
0.0
 30
0.0
  0
VERTEX
  5
380
330
37F
100
AcDbEntity
  8
GRAU_10_
 62
     7
100
AcDbVertex
100
AcDb2dVertex
 10
120.2248751869577
 20
138.0906236091406
 30
0.0
  0
VERTEX
  5
381
330
37F
100
AcDbEntity
  8
GRAU_10_
 62
     7
100
AcDbVertex
100
AcDb2dVertex
 10
119.5677232231463
 20
137.7159694751196
 30
0.0
  0
VERTEX
  5
382
330
37F
100
AcDbEntity
  8
GRAU_10_
 62
     7
100
AcDbVertex
100
AcDb2dVertex
 10
118.8892116673263
 20
137.3540621943941
 30
0.0
  0
VERTEX
  5
383
330
37F
100
AcDbEntity
  8
GRAU_10_
 62
     7
100
AcDbVertex
100
AcDb2dVertex
 10
118.1903740481434
 20
137.0066243147067
 30
0.0
  0
VERTEX
  5
384
330
37F
100
AcDbEntity
  8
GRAU_10_
 62
     7
100
AcDbVertex
100
AcDb2dVertex
 10
117.471554875146
 20
136.6731390717345
 30
0.0
  0
VERTEX
  5
385
330
37F
100
AcDbEntity
  8
GRAU_10_
 62
     7
100
AcDbVertex
100
AcDb2dVertex
 10
116.7320651292371
 20
136.3560180323173
 30
0.0
  0
VERTEX
  5
386
330
37F
100
AcDbEntity
  8
GRAU_10_
 62
     7
100
AcDbVertex
100
AcDb2dVertex
 10
115.9722493199653
 20
136.0540554130351
 30
0.0
  0
VERTEX
  5
387
330
37F
100
AcDbEntity
  8
GRAU_10_
 62
     7
100
AcDbVertex
100
AcDb2dVertex
 10
115.1917629377819
 20
135.7700072902763
 30
0.0
  0
VERTEX
  5
388
330
37F
100
AcDbEntity
  8
GRAU_10_
 62
     7
100
AcDbVertex
100
AcDb2dVertex
 10
114.3906059826871
 20
135.5037014092665
 30
0.0
  0
SEQEND
  5
389
330
37F
100
AcDbEntity
  8
GRAU_10_
  0
POLYLINE
  5
38A
330
1F
100
AcDbEntity
  8
GRAU_10_
 62
     7
100
AcDb2dPolyline
 66
     1
 10
0.0
 20
0.0
 30
0.0
  0
VERTEX
  5
38B
330
38A
100
AcDbEntity
  8
GRAU_10_
 62
     7
100
AcDbVertex
100
AcDb2dVertex
 10
128.9826524200113
 20
146.0761826891754
 30
0.0
  0
VERTEX
  5
38C
330
38A
100
AcDbEntity
  8
GRAU_10_
 62
     7
100
AcDbVertex
100
AcDb2dVertex
 10
129.13010250678
 20
146.2580837307966
 30
0.0
  0
VERTEX
  5
38D
330
38A
100
AcDbEntity
  8
GRAU_10_
 62
     7
100
AcDbVertex
100
AcDb2dVertex
 10
129.274452007612
 20
146.4415350653861
 30
0.0
  0
VERTEX
  5
38E
330
38A
100
AcDbEntity
  8
GRAU_10_
 62
     7
100
AcDbVertex
100
AcDb2dVertex
 10
129.6549628039578
 20
146.9693236937264
 30
0.0
  0
VERTEX
  5
38F
330
38A
100
AcDbEntity
  8
GRAU_10_
 62
     7
100
AcDbVertex
100
AcDb2dVertex
 10
130.012735970101
 20
147.5503390473138
 30
0.0
  0
VERTEX
  5
390
330
38A
100
AcDbEntity
  8
GRAU_10_
 62
     7
100
AcDbVertex
100
AcDb2dVertex
 10
130.3479437608158
 20
148.1871649477623
 30
0.0
  0
VERTEX
  5
391
330
38A
100
AcDbEntity
  8
GRAU_10_
 62
     7
100
AcDbVertex
100
AcDb2dVertex
 10
130.6614474499735
 20
148.8866915860422
 30
0.0
  0
SEQEND
  5
392
330
38A
100
AcDbEntity
  8
GRAU_10_
  0
POLYLINE
  5
393
330
1F
100
AcDbEntity
  8
GRAU_10_
 62
     7
100
AcDb2dPolyline
 66
     1
 10
0.0
 20
0.0
 30
0.0
  0
VERTEX
  5
394
330
393
100
AcDbEntity
  8
GRAU_10_
 62
     7
100
AcDbVertex
100
AcDb2dVertex
 10
130.6614474499735
 20
147.5443101302146
 30
0.0
  0
VERTEX
  5
395
330
393
100
AcDbEntity
  8
GRAU_10_
 62
     7
100
AcDbVertex
100
AcDb2dVertex
 10
129.7848429037517
 20
146.3445556274764
 30
0.0
  0
VERTEX
  5
396
330
393
100
AcDbEntity
  8
GRAU_10_
 62
     7
100
AcDbVertex
100
AcDb2dVertex
 10
128.7833536461896
 20
145.1279201568604
 30
0.0
  0
VERTEX
  5
397
330
393
100
AcDbEntity
  8
GRAU_10_
 62
     7
100
AcDbVertex
100
AcDb2dVertex
 10
127.6587022250298
 20
143.9047390048224
 30
0.0
  0
VERTEX
  5
398
330
393
100
AcDbEntity
  8
GRAU_10_
 62
     7
100
AcDbVertex
100
AcDb2dVertex
 10
126.4119221689179
 20
142.6855197125925
 30
0.0
  0
VERTEX
  5
399
330
393
100
AcDbEntity
  8
GRAU_10_
 62
     7
100
AcDbVertex
100
AcDb2dVertex
 10
125.7423678613596
 20
142.0805609453826
 30
0.0
  0
VERTEX
  5
39A
330
393
100
AcDbEntity
  8
GRAU_10_
 62
     7
100
AcDbVertex
100
AcDb2dVertex
 10
125.041807694434
 20
141.4811143309492
 30
0.0
  0
VERTEX
  5
39B
330
393
100
AcDbEntity
  8
GRAU_10_
 62
     7
100
AcDbVertex
100
AcDb2dVertex
 10
124.3100694133669
 20
140.8871798692921
 30
0.0
  0
VERTEX
  5
39C
330
393
100
AcDbEntity
  8
GRAU_10_
 62
     7
100
AcDbVertex
100
AcDb2dVertex
 10
123.5473252729326
 20
140.3011691272511
 30
0.0
  0
VERTEX
  5
39D
330
393
100
AcDbEntity
  8
GRAU_10_
 62
     7
100
AcDbVertex
100
AcDb2dVertex
 10
121.939843719515
 20
139.165837910087
 30
0.0
  0
VERTEX
  5
39E
330
393
100
AcDbEntity
  8
GRAU_10_
 62
     7
100
AcDbVertex
100
AcDb2dVertex
 10
120.2248751869577
 20
138.0906236091406
 30
0.0
  0
SEQEND
  5
39F
330
393
100
AcDbEntity
  8
GRAU_10_
  0
POLYLINE
  5
3A0
330
1F
100
AcDbEntity
  8
GRAU_10_
 62
     7
100
AcDb2dPolyline
 66
     1
 10
0.0
 20
0.0
 30
0.0
  0
VERTEX
  5
3A1
330
3A0
100
AcDbEntity
  8
GRAU_10_
 62
     7
100
AcDbVertex
100
AcDb2dVertex
 10
120.2386555688987
 20
149.3975992465048
 30
0.0
  0
VERTEX
  5
3A2
330
3A0
100
AcDbEntity
  8
GRAU_10_
 62
     7
100
AcDbVertex
100
AcDb2dVertex
 10
121.3000894879041
 20
150.0776610952931
 30
0.0
  0
VERTEX
  5
3A3
330
3A0
100
AcDbEntity
  8
GRAU_10_
 62
     7
100
AcDbVertex
100
AcDb2dVertex
 10
122.3367187194158
 20
150.8280028919805
 30
0.0
  0
VERTEX
  5
3A4
330
3A0
100
AcDbEntity
  8
GRAU_10_
 62
     7
100
AcDbVertex
100
AcDb2dVertex
 10
123.3593953142122
 20
151.6436292481134
 30
0.0
  0
VERTEX
  5
3A5
330
3A0
100
AcDbEntity
  8
GRAU_10_
 62
     7
100
AcDbVertex
100
AcDb2dVertex
 10
124.379660342169
 20
152.5157551702044
 30
0.0
  0
VERTEX
  5
3A6
330
3A0
100
AcDbEntity
  8
GRAU_10_
 62
     7
100
AcDbVertex
100
AcDb2dVertex
 10
124.8924628051484
 20
152.9701632647088
 30
0.0
  0
VERTEX
  5
3A7
330
3A0
100
AcDbEntity
  8
GRAU_10_
 62
     7
100
AcDbVertex
100
AcDb2dVertex
 10
125.4107774209043
 20
153.4347343908948
 30
0.0
  0
VERTEX
  5
3A8
330
3A0
100
AcDbEntity
  8
GRAU_10_
 62
     7
100
AcDbVertex
100
AcDb2dVertex
 10
125.9346041894365
 20
153.9070569819226
 30
0.0
  0
VERTEX
  5
3A9
330
3A0
100
AcDbEntity
  8
GRAU_10_
 62
     7
100
AcDbVertex
100
AcDb2dVertex
 10
126.4654934037135
 20
154.3854084900495
 30
0.0
  0
VERTEX
  5
3AA
330
3A0
100
AcDbEntity
  8
GRAU_10_
 62
     7
100
AcDbVertex
100
AcDb2dVertex
 10
127.5450140740165
 20
155.3446953279173
 30
0.0
  0
VERTEX
  5
3AB
330
3A0
100
AcDbEntity
  8
GRAU_10_
 62
     7
100
AcDbVertex
100
AcDb2dVertex
 10
128.6595024634948
 20
156.2936468793294
 30
0.0
  0
SEQEND
  5
3AC
330
3A0
100
AcDbEntity
  8
GRAU_10_
  0
POLYLINE
  5
3AD
330
1F
100
AcDbEntity
  8
GRAU_10_
 62
     7
100
AcDb2dPolyline
 66
     1
 10
0.0
 20
0.0
 30
0.0
  0
VERTEX
  5
3AE
330
3AD
100
AcDbEntity
  8
GRAU_10_
 62
     7
100
AcDbVertex
100
AcDb2dVertex
 10
132.556938985958
 20
156.2936468793294
 30
0.0
  0
VERTEX
  5
3AF
330
3AD
100
AcDbEntity
  8
GRAU_10_
 62
     7
100
AcDbVertex
100
AcDb2dVertex
 10
132.5791598518379
 20
156.191672052966
 30
0.0
  0
VERTEX
  5
3B0
330
3AD
100
AcDbEntity
  8
GRAU_10_
 62
     7
100
AcDbVertex
100
AcDb2dVertex
 10
132.6017252272662
 20
156.0883191884085
 30
0.0
  0
SEQEND
  5
3B1
330
3AD
100
AcDbEntity
  8
GRAU_10_
  0
POLYLINE
  5
3B2
330
1F
100
AcDbEntity
  8
GRAU_10_
 62
     7
100
AcDb2dPolyline
 66
     1
 10
0.0
 20
0.0
 30
0.0
  0
VERTEX
  5
3B3
330
3B2
100
AcDbEntity
  8
GRAU_10_
 62
     7
100
AcDbVertex
100
AcDb2dVertex
 10
115.5364447410812
 20
152.5309135903395
 30
0.0
  0
VERTEX
  5
3B4
330
3B2
100
AcDbEntity
  8
GRAU_10_
 62
     7
100
AcDbVertex
100
AcDb2dVertex
 10
116.8862331522021
 20
153.0631808428106
 30
0.0
  0
VERTEX
  5
3B5
330
3B2
100
AcDbEntity
  8
GRAU_10_
 62
     7
100
AcDbVertex
100
AcDb2dVertex
 10
118.2218966718334
 20
153.6381672792988
 30
0.0
  0
VERTEX
  5
3B6
330
3B2
100
AcDbEntity
  8
GRAU_10_
 62
     7
100
AcDbVertex
100
AcDb2dVertex
 10
119.547224905009
 20
154.2520832947703
 30
0.0
  0
VERTEX
  5
3B7
330
3B2
100
AcDbEntity
  8
GRAU_10_
 62
     7
100
AcDbVertex
100
AcDb2dVertex
 10
120.8651461828914
 20
154.9011392841914
 30
0.0
  0
VERTEX
  5
3B8
330
3B2
100
AcDbEntity
  8
GRAU_10_
 62
     7
100
AcDbVertex
100
AcDb2dVertex
 10
122.1803113843855
 20
155.5803398591084
 30
0.0
  0
VERTEX
  5
3B9
330
3B2
100
AcDbEntity
  8
GRAU_10_
 62
     7
100
AcDbVertex
100
AcDb2dVertex
 10
123.4971991336222
 20
156.2826225737766
 30
0.0
  0
VERTEX
  5
3BA
330
3B2
100
AcDbEntity
  8
GRAU_10_
 62
     7
100
AcDbVertex
100
AcDb2dVertex
 10
124.8201157999582
 20
157.0005804729026
 30
0.0
  0
VERTEX
  5
3BB
330
3B2
100
AcDbEntity
  8
GRAU_10_
 62
     7
100
AcDbVertex
100
AcDb2dVertex
 10
126.1533677527499
 20
157.7247395439022
 30
0.0
  0
SEQEND
  5
3BC
330
3B2
100
AcDbEntity
  8
GRAU_10_
  0
POLYLINE
  5
3BD
330
1F
100
AcDbEntity
  8
GRAU_10_
 62
     7
100
AcDb2dPolyline
 66
     1
 10
0.0
 20
0.0
 30
0.0
  0
VERTEX
  5
3BE
330
3BD
100
AcDbEntity
  8
GRAU_10_
 62
     7
100
AcDbVertex
100
AcDb2dVertex
 10
130.6614474499735
 20
147.5443101302146
 30
0.0
  0
VERTEX
  5
3BF
330
3BD
100
AcDbEntity
  8
GRAU_10_
 62
     7
100
AcDbVertex
100
AcDb2dVertex
 10
130.9959662215913
 20
148.035408491637
 30
0.0
  0
VERTEX
  5
3C0
330
3BD
100
AcDbEntity
  8
GRAU_10_
 62
     7
100
AcDbVertex
100
AcDb2dVertex
 10
131.3306572479833
 20
148.5296074389961
 30
0.0
  0
SEQEND
  5
3C1
330
3BD
100
AcDbEntity
  8
GRAU_10_
  0
POLYLINE
  5
3C2
330
1F
100
AcDbEntity
  8
GRAU_10_
 62
     7
100
AcDb2dPolyline
 66
     1
 10
0.0
 20
0.0
 30
0.0
  0
VERTEX
  5
3C3
330
3C2
100
AcDbEntity
  8
GRAU_10_
 62
     7
100
AcDbVertex
100
AcDb2dVertex
 10
234.2411715451724
 20
270.4955477568119
 30
0.0
  0
VERTEX
  5
3C4
330
3C2
100
AcDbEntity
  8
GRAU_10_
 62
     7
100
AcDbVertex
100
AcDb2dVertex
 10
223.0792344277371
 20
261.9307819983194
 30
0.0
  0
SEQEND
  5
3C5
330
3C2
100
AcDbEntity
  8
GRAU_10_
  0
POLYLINE
  5
3C6
330
1F
100
AcDbEntity
  8
GRAU_10_
 62
     7
100
AcDb2dPolyline
 66
     1
 10
0.0
 20
0.0
 30
0.0
  0
VERTEX
  5
3C7
330
3C6
100
AcDbEntity
  8
GRAU_10_
 62
     7
100
AcDbVertex
100
AcDb2dVertex
 10
231.3362670320097
 20
256.4433477820263
 30
0.0
  0
VERTEX
  5
3C8
330
3C6
100
AcDbEntity
  8
GRAU_10_
 62
     7
100
AcDbVertex
100
AcDb2dVertex
 10
235.491052187221
 20
269.6203212487842
 30
0.0
  0
SEQEND
  5
3C9
330
3C6
100
AcDbEntity
  8
GRAU_10_
  0
POLYLINE
  5
3CA
330
1F
100
AcDbEntity
  8
GRAU_10_
 62
     7
100
AcDb2dPolyline
 66
     1
 10
0.0
 20
0.0
 30
0.0
  0
VERTEX
  5
3CB
330
3CA
100
AcDbEntity
  8
GRAU_10_
 62
     7
100
AcDbVertex
100
AcDb2dVertex
 10
223.0792344277371
 20
261.9307819983194
 30
0.0
  0
VERTEX
  5
3CC
330
3CA
100
AcDbEntity
  8
GRAU_10_
 62
     7
100
AcDbVertex
100
AcDb2dVertex
 10
218.8483126623018
 20
248.513254739304
 30
0.0
  0
SEQEND
  5
3CD
330
3CA
100
AcDbEntity
  8
GRAU_10_
  0
POLYLINE
  5
3CE
330
1F
100
AcDbEntity
  8
GRAU_10_
 62
     7
100
AcDb2dPolyline
 66
     1
 10
0.0
 20
0.0
 30
0.0
  0
VERTEX
  5
3CF
330
3CE
100
AcDbEntity
  8
GRAU_10_
 62
     7
100
AcDbVertex
100
AcDb2dVertex
 10
220.0981933043505
 20
247.6380282312763
 30
0.0
  0
VERTEX
  5
3D0
330
3CE
100
AcDbEntity
  8
GRAU_10_
 62
     7
100
AcDbVertex
100
AcDb2dVertex
 10
231.0601426288669
 20
256.0489704763523
 30
0.0
  0
SEQEND
  5
3D1
330
3CE
100
AcDbEntity
  8
GRAU_10_
  0
SPLINE
  5
3D2
330
1F
100
AcDbEntity
  8
GRAU_10_
 62
     7
100
AcDbSpline
210
0.0
220
0.0
230
1.0
 70
     8
 71
     3
 72
    14
 73
    10
 74
     0
 42
0.0000000001
 43
0.0000000001
 40
0.0
 40
0.0
 40
0.0
 40
0.0
 40
1.0
 40
1.0
 40
1.0
 40
2.0
 40
2.0
 40
2.0
 40
3.0
 40
3.0
 40
3.0
 40
3.0
 10
228.0865084607735
 20
261.9759127491762
 30
0.0
 10
227.7743828098099
 20
262.0744424800543
 30
0.0
 10
227.4579507894897
 20
262.1199177404596
 30
0.0
 10
227.1701130616971
 20
262.1170755366843
 30
0.0
 10
225.4851168598614
 20
262.1170755366843
 30
0.0
 10
224.1194810095083
 20
260.7514396863313
 30
0.0
 10
224.1194810095083
 20
259.0669602488184
 30
0.0
 10
224.1194810095083
 20
257.7101955193398
 30
0.0
 10
225.0060763326374
 20
256.5597920094278
 30
0.0
 10
226.2528563887493
 20
256.158352258009
 30
0.0
  0
SPLINE
  5
3D3
330
1F
100
AcDbEntity
  8
GRAU_10_
 62
     7
100
AcDbSpline
210
0.0
220
0.0
230
1.0
 70
     8
 71
     3
 72
    14
 73
    10
 74
     0
 42
0.0000000001
 43
0.0000000001
 40
0.0
 40
0.0
 40
0.0
 40
0.0
 40
1.0
 40
1.0
 40
1.0
 40
2.0
 40
2.0
 40
2.0
 40
3.0
 40
3.0
 40
3.0
 40
3.0
 10
228.0565361300519
 20
261.8807419863962
 30
0.0
 10
227.7545735107697
 20
261.9759127491762
 30
0.0
 10
227.4486490316795
 20
262.0200099713874
 30
0.0
 10
227.1701130616971
 20
262.0169093854507
 30
0.0
 10
225.5405828971739
 20
262.0169093854507
 30
0.0
 10
224.2197332881291
 20
260.6960597764058
 30
0.0
 10
224.2197332881291
 20
259.0669602488184
 30
0.0
 10
224.2197332881291
 20
257.7546372510996
 30
0.0
 10
225.076700790085
 20
256.6423020462995
 30
0.0
 10
226.2824842099224
 20
256.2535230207891
 30
0.0
  0
SPLINE
  5
3D4
330
1F
100
AcDbEntity
  8
GRAU_10_
 62
     7
100
AcDbSpline
210
0.0
220
0.0
230
1.0
 70
     8
 71
     3
 72
     8
 73
     4
 74
     0
 42
0.0000000001
 43
0.0000000001
 40
0.0
 40
0.0
 40
0.0
 40
0.0
 40
1.0
 40
1.0
 40
1.0
 40
1.0
 10
230.2197115852402
 20
259.0669602488184
 30
0.0
 10
230.2197115852402
 20
260.4240694878454
 30
0.0
 10
229.3332885168854
 20
261.5737839786604
 30
0.0
 10
228.0865084607735
 20
261.9759127491762
 30
0.0
  0
SPLINE
  5
3D5
330
1F
100
AcDbEntity
  8
GRAU_10_
 62
     7
100
AcDbSpline
210
0.0
220
0.0
230
1.0
 70
     8
 71
     3
 72
    11
 73
     7
 74
     0
 42
0.0000000001
 43
0.0000000001
 40
0.0
 40
0.0
 40
0.0
 40
0.0
 40
1.0
 40
1.0
 40
1.0
 40
2.0
 40
2.0
 40
2.0
 40
2.0
 10
226.2528563887493
 20
256.158352258009
 30
0.0
 10
226.5649820397129
 20
256.059908654518
 30
0.0
 10
226.8810695504846
 20
256.0136582476285
 30
0.0
 10
227.1701130616971
 20
256.0168449609524
 30
0.0
 10
228.8539034801129
 20
256.0168449609524
 30
0.0
 10
230.2197115852402
 20
257.382825320854
 30
0.0
 10
230.2197115852402
 20
259.0669602488184
 30
0.0
  0
SPLINE
  5
3D6
330
1F
100
AcDbEntity
  8
GRAU_10_
 62
     7
100
AcDbSpline
210
0.0
220
0.0
230
1.0
 70
     8
 71
     3
 72
    11
 73
     7
 74
     0
 42
0.0000000001
 43
0.0000000001
 40
0.0
 40
0.0
 40
0.0
 40
0.0
 40
1.0
 40
1.0
 40
1.0
 40
2.0
 40
2.0
 40
2.0
 40
2.0
 10
235.5277424541389
 20
269.8612195505902
 30
0.0
 10
235.5277424541389
 20
270.303311428735
 30
0.0
 10
235.1696247784472
 20
270.6613429770395
 30
0.0
 10
234.7279635372382
 20
270.6613429770395
 30
0.0
 10
234.5438231835516
 20
270.6613429770395
 30
0.0
 10
234.374152230903
 20
270.5989006213694
 30
0.0
 10
234.2411715451724
 20
270.4955477568119
 30
0.0
  0
SPLINE
  5
3D7
330
1F
100
AcDbEntity
  8
GRAU_10_
 62
     7
100
AcDbSpline
210
0.0
220
0.0
230
1.0
 70
     8
 71
     3
 72
     8
 73
     4
 74
     0
 42
0.0000000001
 43
0.0000000001
 40
0.0
 40
0.0
 40
0.0
 40
0.0
 40
1.0
 40
1.0
 40
1.0
 40
1.0
 10
235.491052187221
 20
269.6203212487842
 30
0.0
 10
235.5167181485861
 20
269.7024867761074
 30
0.0
 10
235.5287759827845
 20
269.7854274499148
 30
0.0
 10
235.5277424541389
 20
269.8612195505902
 30
0.0
  0
SPLINE
  5
3D8
330
1F
100
AcDbEntity
  8
GRAU_10_
 62
     7
100
AcDbSpline
210
0.0
220
0.0
230
1.0
 70
     8
 71
     3
 72
    14
 73
    10
 74
     0
 42
0.0000000001
 43
0.0000000001
 40
0.0
 40
0.0
 40
0.0
 40
0.0
 40
1.0
 40
1.0
 40
1.0
 40
2.0
 40
2.0
 40
2.0
 40
3.0
 40
3.0
 40
3.0
 40
3.0
 10
218.8483126623018
 20
248.513254739304
 30
0.0
 10
218.8226467009367
 20
248.4314337215293
 30
0.0
 10
218.8109333762869
 20
248.3484930477219
 30
0.0
 10
218.8112778858354
 20
248.2727009470464
 30
0.0
 10
218.8112778858354
 20
247.8309535784502
 30
0.0
 10
219.1693955615271
 20
247.4729220301457
 30
0.0
 10
219.6114013122847
 20
247.4729220301457
 30
0.0
 10
219.7951971564227
 20
247.4729220301457
 30
0.0
 10
219.9652126186198
 20
247.5346753667188
 30
0.0
 10
220.0981933043505
 20
247.6380282312763
 30
0.0
  0
SPLINE
  5
3D9
330
1F
100
AcDbEntity
  8
GRAU_10_
 62
     7
100
AcDbSpline
210
0.0
220
0.0
230
1.0
 70
     8
 71
     3
 72
     8
 73
     4
 74
     0
 42
0.0000000001
 43
0.0000000001
 40
0.0
 40
0.0
 40
0.0
 40
0.0
 40
1.0
 40
1.0
 40
1.0
 40
1.0
 10
231.0601426288669
 20
256.0489704763523
 30
0.0
 10
231.1965684100828
 20
256.1537013791039
 30
0.0
 10
231.2897582429588
 20
256.2934000010308
 30
0.0
 10
231.3362670320097
 20
256.4433477820263
 30
0.0
  0
SPLINE
  5
3DA
330
1F
100
AcDbEntity
  8
GRAU_10_
 62
     7
100
AcDbSpline
210
0.0
220
0.0
230
1.0
 70
     8
 71
     3
 72
     8
 73
     4
 74
     0
 42
0.0000000001
 43
0.0000000001
 40
0.0
 40
0.0
 40
0.0
 40
0.0
 40
1.0
 40
1.0
 40
1.0
 40
1.0
 10
230.1199760709422
 20
259.0669602488184
 30
0.0
 10
230.1199760709422
 20
260.3792832465371
 30
0.0
 10
229.2623195498893
 20
261.4912739417887
 30
0.0
 10
228.0565361300519
 20
261.8807419863962
 30
0.0
  0
SPLINE
  5
3DB
330
1F
100
AcDbEntity
  8
GRAU_10_
 62
     7
100
AcDbSpline
210
0.0
220
0.0
230
1.0
 70
     8
 71
     3
 72
    11
 73
     7
 74
     0
 42
0.0000000001
 43
0.0000000001
 40
0.0
 40
0.0
 40
0.0
 40
0.0
 40
1.0
 40
1.0
 40
1.0
 40
2.0
 40
2.0
 40
2.0
 40
2.0
 10
226.2824842099224
 20
256.2535230207891
 30
0.0
 10
226.5844468292046
 20
256.158352258009
 30
0.0
 10
226.8910603273918
 20
256.1142550357978
 30
0.0
 10
227.1701130616971
 20
256.1166666026375
 30
0.0
 10
228.7987819523489
 20
256.1166666026375
 30
0.0
 10
230.1199760709422
 20
257.4378607212308
 30
0.0
 10
230.1199760709422
 20
259.0669602488184
 30
0.0
  0
POLYLINE
  5
3DC
330
1F
100
AcDbEntity
  8
GRAU_10_
 62
     7
100
AcDb2dPolyline
 66
     1
 10
0.0
 20
0.0
 30
0.0
  0
VERTEX
  5
3DD
330
3DC
100
AcDbEntity
  8
GRAU_10_
 62
     7
100
AcDbVertex
100
AcDb2dVertex
 10
112.4849514150211
 20
270.2447448054857
 30
0.0
  0
VERTEX
  5
3DE
330
3DC
100
AcDbEntity
  8
GRAU_10_
 62
     7
100
AcDbVertex
100
AcDb2dVertex
 10
107.7248629830514
 20
270.6613429770395
 30
0.0
  0
SEQEND
  5
3DF
330
3DC
100
AcDbEntity
  8
GRAU_10_
  0
POLYLINE
  5
3E0
330
1F
100
AcDbEntity
  8
GRAU_10_
 62
     7
100
AcDb2dPolyline
 66
     1
 10
0.0
 20
0.0
 30
0.0
  0
VERTEX
  5
3E1
330
3E0
100
AcDbEntity
  8
GRAU_10_
 62
     7
100
AcDbVertex
100
AcDb2dVertex
 10
112.4849514150211
 20
256.5682324933666
 30
0.0
  0
VERTEX
  5
3E2
330
3E0
100
AcDbEntity
  8
GRAU_10_
 62
     7
100
AcDbVertex
100
AcDb2dVertex
 10
112.4849514150211
 20
269.7458949792215
 30
0.0
  0
SEQEND
  5
3E3
330
3E0
100
AcDbEntity
  8
GRAU_10_
  0
POLYLINE
  5
3E4
330
1F
100
AcDbEntity
  8
GRAU_10_
 62
     7
100
AcDb2dPolyline
 66
     1
 10
0.0
 20
0.0
 30
0.0
  0
VERTEX
  5
3E5
330
3E4
100
AcDbEntity
  8
GRAU_10_
 62
     7
100
AcDbVertex
100
AcDb2dVertex
 10
107.7248629830514
 20
256.4433477820263
 30
0.0
  0
VERTEX
  5
3E6
330
3E4
100
AcDbEntity
  8
GRAU_10_
 62
     7
100
AcDbVertex
100
AcDb2dVertex
 10
107.7248629830514
 20
269.6203212487842
 30
0.0
  0
SEQEND
  5
3E7
330
3E4
100
AcDbEntity
  8
GRAU_10_
  0
POLYLINE
  5
3E8
330
1F
100
AcDbEntity
  8
GRAU_10_
 62
     7
100
AcDb2dPolyline
 66
     1
 10
0.0
 20
0.0
 30
0.0
  0
VERTEX
  5
3E9
330
3E8
100
AcDbEntity
  8
GRAU_10_
 62
     7
100
AcDbVertex
100
AcDb2dVertex
 10
107.7248629830514
 20
247.6380282312763
 30
0.0
  0
VERTEX
  5
3EA
330
3E8
100
AcDbEntity
  8
GRAU_10_
 62
     7
100
AcDbVertex
100
AcDb2dVertex
 10
107.7248629830514
 20
256.0489704763523
 30
0.0
  0
SEQEND
  5
3EB
330
3E8
100
AcDbEntity
  8
GRAU_10_
  0
POLYLINE
  5
3EC
330
1F
100
AcDbEntity
  8
GRAU_10_
 62
     7
100
AcDb2dPolyline
 66
     1
 10
0.0
 20
0.0
 30
0.0
  0
VERTEX
  5
3ED
330
3EC
100
AcDbEntity
  8
GRAU_10_
 62
     7
100
AcDbVertex
100
AcDb2dVertex
 10
107.7248629830514
 20
247.4729220301457
 30
0.0
  0
VERTEX
  5
3EE
330
3EC
100
AcDbEntity
  8
GRAU_10_
 62
     7
100
AcDbVertex
100
AcDb2dVertex
 10
107.925367540293
 20
247.4902336349591
 30
0.0
  0
SEQEND
  5
3EF
330
3EC
100
AcDbEntity
  8
GRAU_10_
  0
POLYLINE
  5
3F0
330
1F
100
AcDbEntity
  8
GRAU_10_
 62
     7
100
AcDb2dPolyline
 66
     1
 10
0.0
 20
0.0
 30
0.0
  0
VERTEX
  5
3F1
330
3F0
100
AcDbEntity
  8
GRAU_10_
 62
     7
100
AcDbVertex
100
AcDb2dVertex
 10
112.4849514150211
 20
269.7458949792215
 30
0.0
  0
VERTEX
  5
3F2
330
3F0
100
AcDbEntity
  8
GRAU_10_
 62
     7
100
AcDbVertex
100
AcDb2dVertex
 10
112.4849514150211
 20
270.088079088294
 30
0.0
  0
VERTEX
  5
3F3
330
3F0
100
AcDbEntity
  8
GRAU_10_
 62
     7
100
AcDbVertex
100
AcDb2dVertex
 10
112.4849514150211
 20
270.2447448054857
 30
0.0
  0
SEQEND
  5
3F4
330
3F0
100
AcDbEntity
  8
GRAU_10_
  0
POLYLINE
  5
3F5
330
1F
100
AcDbEntity
  8
GRAU_10_
 62
     7
100
AcDb2dPolyline
 66
     1
 10
0.0
 20
0.0
 30
0.0
  0
VERTEX
  5
3F6
330
3F5
100
AcDbEntity
  8
GRAU_10_
 62
     7
100
AcDbVertex
100
AcDb2dVertex
 10
107.7248629830514
 20
269.6203212487842
 30
0.0
  0
VERTEX
  5
3F7
330
3F5
100
AcDbEntity
  8
GRAU_10_
 62
     7
100
AcDbVertex
100
AcDb2dVertex
 10
107.7248629830514
 20
270.1124531388521
 30
0.0
  0
VERTEX
  5
3F8
330
3F5
100
AcDbEntity
  8
GRAU_10_
 62
     7
100
AcDbVertex
100
AcDb2dVertex
 10
107.7248629830514
 20
270.5096726483014
 30
0.0
  0
VERTEX
  5
3F9
330
3F5
100
AcDbEntity
  8
GRAU_10_
 62
     7
100
AcDbVertex
100
AcDb2dVertex
 10
107.7248629830514
 20
270.6613429770395
 30
0.0
  0
SEQEND
  5
3FA
330
3F5
100
AcDbEntity
  8
GRAU_10_
  0
POLYLINE
  5
3FB
330
1F
100
AcDbEntity
  8
GRAU_10_
 62
     7
100
AcDb2dPolyline
 66
     1
 10
0.0
 20
0.0
 30
0.0
  0
VERTEX
  5
3FC
330
3FB
100
AcDbEntity
  8
GRAU_10_
 62
     7
100
AcDbVertex
100
AcDb2dVertex
 10
112.4849514150211
 20
256.379527388162
 30
0.0
  0
VERTEX
  5
3FD
330
3FB
100
AcDbEntity
  8
GRAU_10_
 62
     7
100
AcDbVertex
100
AcDb2dVertex
 10
112.4849514150211
 20
256.4637599727764
 30
0.0
  0
VERTEX
  5
3FE
330
3FB
100
AcDbEntity
  8
GRAU_10_
 62
     7
100
AcDbVertex
100
AcDb2dVertex
 10
112.4849514150211
 20
256.5682324933666
 30
0.0
  0
SEQEND
  5
3FF
330
3FB
100
AcDbEntity
  8
GRAU_10_
  0
POLYLINE
  5
400
330
1F
100
AcDbEntity
  8
GRAU_10_
 62
     7
100
AcDb2dPolyline
 66
     1
 10
0.0
 20
0.0
 30
0.0
  0
VERTEX
  5
401
330
400
100
AcDbEntity
  8
GRAU_10_
 62
     7
100
AcDbVertex
100
AcDb2dVertex
 10
107.7248629830514
 20
256.0489704763523
 30
0.0
  0
VERTEX
  5
402
330
400
100
AcDbEntity
  8
GRAU_10_
 62
     7
100
AcDbVertex
100
AcDb2dVertex
 10
107.7248629830514
 20
256.2250148556486
 30
0.0
  0
VERTEX
  5
403
330
400
100
AcDbEntity
  8
GRAU_10_
 62
     7
100
AcDbVertex
100
AcDb2dVertex
 10
107.7248629830514
 20
256.4433477820263
 30
0.0
  0
SEQEND
  5
404
330
400
100
AcDbEntity
  8
GRAU_10_
  0
POLYLINE
  5
405
330
1F
100
AcDbEntity
  8
GRAU_10_
 62
     7
100
AcDb2dPolyline
 66
     1
 10
0.0
 20
0.0
 30
0.0
  0
VERTEX
  5
406
330
405
100
AcDbEntity
  8
GRAU_10_
 62
     7
100
AcDbVertex
100
AcDb2dVertex
 10
107.7248629830514
 20
247.4729220301457
 30
0.0
  0
VERTEX
  5
407
330
405
100
AcDbEntity
  8
GRAU_10_
 62
     7
100
AcDbVertex
100
AcDb2dVertex
 10
107.7248629830514
 20
247.5152967046142
 30
0.0
  0
VERTEX
  5
408
330
405
100
AcDbEntity
  8
GRAU_10_
 62
     7
100
AcDbVertex
100
AcDb2dVertex
 10
107.7248629830514
 20
247.6380282312763
 30
0.0
  0
SEQEND
  5
409
330
405
100
AcDbEntity
  8
GRAU_10_
  0
POLYLINE
  5
40A
330
1F
100
AcDbEntity
  8
GRAU_10_
 62
     7
100
AcDb2dPolyline
 66
     1
 10
0.0
 20
0.0
 30
0.0
  0
VERTEX
  5
40B
330
40A
100
AcDbEntity
  8
GRAU_10_
 62
     7
100
AcDbVertex
100
AcDb2dVertex
 10
107.7248629830514
 20
134.7793700834927
 30
0.0
  0
VERTEX
  5
40C
330
40A
100
AcDbEntity
  8
GRAU_10_
 62
     7
100
AcDbVertex
100
AcDb2dVertex
 10
112.4849514150211
 20
135.1963988919822
 30
0.0
  0
SEQEND
  5
40D
330
40A
100
AcDbEntity
  8
GRAU_10_
  0
POLYLINE
  5
40E
330
1F
100
AcDbEntity
  8
GRAU_10_
 62
     7
100
AcDb2dPolyline
 66
     1
 10
0.0
 20
0.0
 30
0.0
  0
VERTEX
  5
40F
330
40E
100
AcDbEntity
  8
GRAU_10_
 62
     7
100
AcDbVertex
100
AcDb2dVertex
 10
107.7248629830514
 20
147.2285671289915
 30
0.0
  0
VERTEX
  5
410
330
40E
100
AcDbEntity
  8
GRAU_10_
 62
     7
100
AcDbVertex
100
AcDb2dVertex
 10
112.4849514150211
 20
146.870621708074
 30
0.0
  0
SEQEND
  5
411
330
40E
100
AcDbEntity
  8
GRAU_10_
  0
POLYLINE
  5
412
330
1F
100
AcDbEntity
  8
GRAU_10_
 62
     7
100
AcDb2dPolyline
 66
     1
 10
0.0
 20
0.0
 30
0.0
  0
VERTEX
  5
413
330
412
100
AcDbEntity
  8
GRAU_10_
 62
     7
100
AcDbVertex
100
AcDb2dVertex
 10
112.4849514150211
 20
135.8134154933904
 30
0.0
  0
VERTEX
  5
414
330
412
100
AcDbEntity
  8
GRAU_10_
 62
     7
100
AcDbVertex
100
AcDb2dVertex
 10
112.4849514150211
 20
146.870621708074
 30
0.0
  0
SEQEND
  5
415
330
412
100
AcDbEntity
  8
GRAU_10_
  0
POLYLINE
  5
416
330
1F
100
AcDbEntity
  8
GRAU_10_
 62
     7
100
AcDb2dPolyline
 66
     1
 10
0.0
 20
0.0
 30
0.0
  0
VERTEX
  5
417
330
416
100
AcDbEntity
  8
GRAU_10_
 62
     7
100
AcDbVertex
100
AcDb2dVertex
 10
107.7248629830514
 20
136.0668022663305
 30
0.0
  0
VERTEX
  5
418
330
416
100
AcDbEntity
  8
GRAU_10_
 62
     7
100
AcDbVertex
100
AcDb2dVertex
 10
107.7248629830514
 20
147.2285671289915
 30
0.0
  0
VERTEX
  5
419
330
416
100
AcDbEntity
  8
GRAU_10_
 62
     7
100
AcDbVertex
100
AcDb2dVertex
 10
107.7248629830514
 20
151.4587998753298
 30
0.0
  0
SEQEND
  5
41A
330
416
100
AcDbEntity
  8
GRAU_10_
  0
POLYLINE
  5
41B
330
1F
100
AcDbEntity
  8
GRAU_10_
 62
     7
100
AcDb2dPolyline
 66
     1
 10
0.0
 20
0.0
 30
0.0
  0
VERTEX
  5
41C
330
41B
100
AcDbEntity
  8
GRAU_10_
 62
     7
100
AcDbVertex
100
AcDb2dVertex
 10
107.925367540293
 20
151.47860917437
 30
0.0
  0
VERTEX
  5
41D
330
41B
100
AcDbEntity
  8
GRAU_10_
 62
     7
100
AcDbVertex
100
AcDb2dVertex
 10
107.7248629830514
 20
151.4961791613447
 30
0.0
  0
SEQEND
  5
41E
330
41B
100
AcDbEntity
  8
GRAU_10_
  0
POLYLINE
  5
41F
330
1F
100
AcDbEntity
  8
GRAU_10_
 62
     7
100
AcDb2dPolyline
 66
     1
 10
0.0
 20
0.0
 30
0.0
  0
VERTEX
  5
420
330
41F
100
AcDbEntity
  8
GRAU_10_
 62
     7
100
AcDbVertex
100
AcDb2dVertex
 10
112.4849514150211
 20
135.1963988919822
 30
0.0
  0
VERTEX
  5
421
330
41F
100
AcDbEntity
  8
GRAU_10_
 62
     7
100
AcDbVertex
100
AcDb2dVertex
 10
112.4849514150211
 20
135.2969956801514
 30
0.0
  0
VERTEX
  5
422
330
41F
100
AcDbEntity
  8
GRAU_10_
 62
     7
100
AcDbVertex
100
AcDb2dVertex
 10
112.4849514150211
 20
135.546076083735
 30
0.0
  0
VERTEX
  5
423
330
41F
100
AcDbEntity
  8
GRAU_10_
 62
     7
100
AcDbVertex
100
AcDb2dVertex
 10
112.4849514150211
 20
135.8134154933904
 30
0.0
  0
SEQEND
  5
424
330
41F
100
AcDbEntity
  8
GRAU_10_
  0
POLYLINE
  5
425
330
1F
100
AcDbEntity
  8
GRAU_10_
 62
     7
100
AcDb2dPolyline
 66
     1
 10
0.0
 20
0.0
 30
0.0
  0
VERTEX
  5
426
330
425
100
AcDbEntity
  8
GRAU_10_
 62
     7
100
AcDbVertex
100
AcDb2dVertex
 10
107.7248629830514
 20
134.7793700834927
 30
0.0
  0
VERTEX
  5
427
330
425
100
AcDbEntity
  8
GRAU_10_
 62
     7
100
AcDbVertex
100
AcDb2dVertex
 10
107.7248629830514
 20
134.9004651897992
 30
0.0
  0
VERTEX
  5
428
330
425
100
AcDbEntity
  8
GRAU_10_
 62
     7
100
AcDbVertex
100
AcDb2dVertex
 10
107.7248629830514
 20
135.2260267131553
 30
0.0
  0
VERTEX
  5
429
330
425
100
AcDbEntity
  8
GRAU_10_
 62
     7
100
AcDbVertex
100
AcDb2dVertex
 10
107.7248629830514
 20
135.6582139417799
 30
0.0
  0
VERTEX
  5
42A
330
425
100
AcDbEntity
  8
GRAU_10_
 62
     7
100
AcDbVertex
100
AcDb2dVertex
 10
107.7248629830514
 20
136.0668022663305
 30
0.0
  0
SEQEND
  5
42B
330
425
100
AcDbEntity
  8
GRAU_10_
  0
POLYLINE
  5
42C
330
1F
100
AcDbEntity
  8
GRAU_10_
 62
     7
100
AcDb2dPolyline
 66
     1
 10
0.0
 20
0.0
 30
0.0
  0
VERTEX
  5
42D
330
42C
100
AcDbEntity
  8
GRAU_10_
 62
     7
100
AcDbVertex
100
AcDb2dVertex
 10
107.7248629830514
 20
151.4587998753298
 30
0.0
  0
VERTEX
  5
42E
330
42C
100
AcDbEntity
  8
GRAU_10_
 62
     7
100
AcDbVertex
100
AcDb2dVertex
 10
107.7248629830514
 20
151.4870496583088
 30
0.0
  0
VERTEX
  5
42F
330
42C
100
AcDbEntity
  8
GRAU_10_
 62
     7
100
AcDbVertex
100
AcDb2dVertex
 10
107.7248629830514
 20
151.4961791613447
 30
0.0
  0
SEQEND
  5
430
330
42C
100
AcDbEntity
  8
GRAU_10_
  0
POLYLINE
  5
432
330
1F
100
AcDbEntity
  8
STANDARDEBENE
 62
     7
100
AcDb2dPolyline
 66
     1
 10
0.0
 20
0.0
 30
0.0
  0
VERTEX
  5
433
330
432
100
AcDbEntity
  8
STANDARDEBENE
 62
     7
100
AcDbVertex
100
AcDb2dVertex
 10
166.3281764992166
 20
234.6614731943728
 30
0.0
  0
VERTEX
  5
434
330
432
100
AcDbEntity
  8
STANDARDEBENE
 62
     7
100
AcDbVertex
100
AcDb2dVertex
 10
215.5275851240695
 20
234.6614731943728
 30
0.0
  0
SEQEND
  5
435
330
432
100
AcDbEntity
  8
STANDARDEBENE
  0
POLYLINE
  5
436
330
1F
100
AcDbEntity
  8
STANDARDEBENE
  6
AI-LINETYPE-2
 62
     7
100
AcDb2dPolyline
 66
     1
 10
0.0
 20
0.0
 30
0.0
  0
VERTEX
  5
437
330
436
100
AcDbEntity
  8
STANDARDEBENE
  6
AI-LINETYPE-2
 62
     7
100
AcDbVertex
100
AcDb2dVertex
 10
181.5279377801389
 20
255.6608804699389
 30
0.0
  0
VERTEX
  5
438
330
436
100
AcDbEntity
  8
STANDARDEBENE
  6
AI-LINETYPE-2
 62
     7
100
AcDbVertex
100
AcDb2dVertex
 10
181.5279377801389
 20
245.6614046966142
 30
0.0
  0
SEQEND
  5
439
330
436
100
AcDbEntity
  8
STANDARDEBENE
  6
AI-LINETYPE-2
  0
POLYLINE
  5
43B
330
1F
100
AcDbEntity
  8
STANDARDEBENE
  6
AI-LINETYPE-3
 62
     7
100
AcDb2dPolyline
 66
     1
 10
0.0
 20
0.0
 30
0.0
  0
VERTEX
  5
43C
330
43B
100
AcDbEntity
  8
STANDARDEBENE
  6
AI-LINETYPE-3
 62
     7
100
AcDbVertex
100
AcDb2dVertex
 10
199.5280449262465
 20
245.6614046966142
 30
0.0
  0
VERTEX
  5
43D
330
43B
100
AcDbEntity
  8
STANDARDEBENE
  6
AI-LINETYPE-3
 62
     7
100
AcDbVertex
100
AcDb2dVertex
 10
181.5279377801389
 20
245.6614046966142
 30
0.0
  0
SEQEND
  5
43E
330
43B
100
AcDbEntity
  8
STANDARDEBENE
  6
AI-LINETYPE-3
  0
POLYLINE
  5
440
330
1F
100
AcDbEntity
  8
STANDARDEBENE
  6
AI-LINETYPE-4
 62
     7
100
AcDb2dPolyline
 66
     1
 10
0.0
 20
0.0
 30
0.0
  0
VERTEX
  5
441
330
440
100
AcDbEntity
  8
STANDARDEBENE
  6
AI-LINETYPE-4
 62
     7
100
AcDbVertex
100
AcDb2dVertex
 10
199.5280449262465
 20
245.6614046966142
 30
0.0
  0
VERTEX
  5
442
330
440
100
AcDbEntity
  8
STANDARDEBENE
  6
AI-LINETYPE-4
 62
     7
100
AcDbVertex
100
AcDb2dVertex
 10
199.5280449262465
 20
255.6608804699389
 30
0.0
  0
SEQEND
  5
443
330
440
100
AcDbEntity
  8
STANDARDEBENE
  6
AI-LINETYPE-4
  0
POLYLINE
  5
445
330
1F
100
AcDbEntity
  8
STANDARDEBENE
  6
AI-LINETYPE-5
 62
     7
100
AcDb2dPolyline
 66
     1
 10
0.0
 20
0.0
 30
0.0
  0
VERTEX
  5
446
330
445
100
AcDbEntity
  8
STANDARDEBENE
  6
AI-LINETYPE-5
 62
     7
100
AcDbVertex
100
AcDb2dVertex
 10
185.6276014075862
 20
245.0613551904708
 30
0.0
  0
VERTEX
  5
447
330
445
100
AcDbEntity
  8
STANDARDEBENE
  6
AI-LINETYPE-5
 62
     7
100
AcDbVertex
100
AcDb2dVertex
 10
185.6276014075862
 20
235.7113660435027
 30
0.0
  0
SEQEND
  5
448
330
445
100
AcDbEntity
  8
STANDARDEBENE
  6
AI-LINETYPE-5
  0
POLYLINE
  5
44A
330
1F
100
AcDbEntity
  8
STANDARDEBENE
  6
AI-LINETYPE-6
 62
     7
100
AcDb2dPolyline
 66
     1
 10
0.0
 20
0.0
 30
0.0
  0
VERTEX
  5
44B
330
44A
100
AcDbEntity
  8
STANDARDEBENE
  6
AI-LINETYPE-6
 62
     7
100
AcDbVertex
100
AcDb2dVertex
 10
195.4276922797021
 20
245.0613551904708
 30
0.0
  0
VERTEX
  5
44C
330
44A
100
AcDbEntity
  8
STANDARDEBENE
  6
AI-LINETYPE-6
 62
     7
100
AcDbVertex
100
AcDb2dVertex
 10
195.4276922797021
 20
235.7113660435027
 30
0.0
  0
SEQEND
  5
44D
330
44A
100
AcDbEntity
  8
STANDARDEBENE
  6
AI-LINETYPE-6
  0
POLYLINE
  5
44F
330
1F
100
AcDbEntity
  8
STANDARDEBENE
  6
AI-LINETYPE-7
 62
     7
100
AcDb2dPolyline
 66
     1
 10
0.0
 20
0.0
 30
0.0
  0
VERTEX
  5
450
330
44F
100
AcDbEntity
  8
STANDARDEBENE
  6
AI-LINETYPE-7
 62
     7
100
AcDbVertex
100
AcDb2dVertex
 10
195.4276922797021
 20
245.0613551904708
 30
0.0
  0
VERTEX
  5
451
330
44F
100
AcDbEntity
  8
STANDARDEBENE
  6
AI-LINETYPE-7
 62
     7
100
AcDbVertex
100
AcDb2dVertex
 10
185.6276014075862
 20
245.0613551904708
 30
0.0
  0
VERTEX
  5
452
330
44F
100
AcDbEntity
  8
STANDARDEBENE
  6
AI-LINETYPE-7
 62
     7
100
AcDbVertex
100
AcDb2dVertex
 10
185.0276380288299
 20
245.6614046966142
 30
0.0
  0
SEQEND
  5
453
330
44F
100
AcDbEntity
  8
STANDARDEBENE
  6
AI-LINETYPE-7
  0
POLYLINE
  5
455
330
1F
100
AcDbEntity
  8
STANDARDEBENE
  6
AI-LINETYPE-8
 62
     7
100
AcDb2dPolyline
 66
     1
 10
0.0
 20
0.0
 30
0.0
  0
VERTEX
  5
456
330
455
100
AcDbEntity
  8
STANDARDEBENE
  6
AI-LINETYPE-8
 62
     7
100
AcDbVertex
100
AcDb2dVertex
 10
195.4276922797021
 20
245.0613551904708
 30
0.0
  0
VERTEX
  5
457
330
455
100
AcDbEntity
  8
STANDARDEBENE
  6
AI-LINETYPE-8
 62
     7
100
AcDbVertex
100
AcDb2dVertex
 10
196.0278279132326
 20
245.6614046966142
 30
0.0
  0
SEQEND
  5
458
330
455
100
AcDbEntity
  8
STANDARDEBENE
  6
AI-LINETYPE-8
  0
POLYLINE
  5
45A
330
1F
100
AcDbEntity
  8
STANDARDEBENE
 62
     7
100
AcDb2dPolyline
 66
     1
 10
0.0
 20
0.0
 30
0.0
  0
VERTEX
  5
45B
330
45A
100
AcDbEntity
  8
STANDARDEBENE
 62
     7
100
AcDbVertex
100
AcDb2dVertex
 10
112.4849514150211
 20
256.4529079219979
 30
0.0
  0
VERTEX
  5
45C
330
45A
100
AcDbEntity
  8
STANDARDEBENE
 62
     7
100
AcDbVertex
100
AcDb2dVertex
 10
107.7248629830514
 20
256.2027939897687
 30
0.0
  0
SEQEND
  5
45D
330
45A
100
AcDbEntity
  8
STANDARDEBENE
  0
POLYLINE
  5
45E
330
1F
100
AcDbEntity
  8
STANDARDEBENE
 62
     7
100
AcDb2dPolyline
 66
     1
 10
0.0
 20
0.0
 30
0.0
  0
VERTEX
  5
45F
330
45E
100
AcDbEntity
  8
STANDARDEBENE
 62
     7
100
AcDbVertex
100
AcDb2dVertex
 10
131.3029242293271
 20
150.6057942331819
 30
0.0
  0
VERTEX
  5
460
330
45E
100
AcDbEntity
  8
STANDARDEBENE
 62
     7
100
AcDbVertex
100
AcDb2dVertex
 10
122.0406127624586
 20
150.6057942331819
 30
0.0
  0
SEQEND
  5
461
330
45E
100
AcDbEntity
  8
STANDARDEBENE
  0
POLYLINE
  5
462
330
1F
100
AcDbEntity
  8
STANDARDEBENE
 62
     7
100
AcDb2dPolyline
 66
     1
 10
0.0
 20
0.0
 30
0.0
  0
VERTEX
  5
463
330
462
100
AcDbEntity
  8
STANDARDEBENE
 62
     7
100
AcDbVertex
100
AcDb2dVertex
 10
124.972216765632
 20
153.0406154673822
 30
0.0
  0
VERTEX
  5
464
330
462
100
AcDbEntity
  8
STANDARDEBENE
 62
     7
100
AcDbVertex
100
AcDb2dVertex
 10
116.8311116244381
 20
153.0406154673822
 30
0.0
  0
SEQEND
  5
465
330
462
100
AcDbEntity
  8
STANDARDEBENE
  0
POLYLINE
  5
467
330
1F
100
AcDbEntity
  8
BEMAßUNG
 62
     7
100
AcDb2dPolyline
 66
     1
 10
0.0
 20
0.0
 30
0.0
  0
VERTEX
  5
468
330
467
100
AcDbEntity
  8
BEMAßUNG
 62
     7
100
AcDbVertex
100
AcDb2dVertex
 10
234.7279635372382
 20
270.6613429770395
 30
0.0
  0
VERTEX
  5
469
330
467
100
AcDbEntity
  8
BEMAßUNG
 62
     7
100
AcDbVertex
100
AcDb2dVertex
 10
256.1118434689582
 20
270.6613429770395
 30
0.0
  0
SEQEND
  5
46A
330
467
100
AcDbEntity
  8
BEMAßUNG
  0
POLYLINE
  5
46B
330
1F
100
AcDbEntity
  8
BEMAßUNG
 62
     7
100
AcDb2dPolyline
 66
     1
 10
0.0
 20
0.0
 30
0.0
  0
VERTEX
  5
46C
330
46B
100
AcDbEntity
  8
BEMAßUNG
 62
     7
100
AcDbVertex
100
AcDb2dVertex
 10
234.7279635372382
 20
270.6613429770395
 30
0.0
  0
VERTEX
  5
46D
330
46B
100
AcDbEntity
  8
BEMAßUNG
 62
     7
100
AcDbVertex
100
AcDb2dVertex
 10
262.107687651487
 20
270.6613429770395
 30
0.0
  0
SEQEND
  5
46E
330
46B
100
AcDbEntity
  8
BEMAßUNG
  0
SPLINE
  5
46F
330
1F
100
AcDbEntity
  8
BEMAßUNG
 62
     7
100
AcDbSpline
210
0.0
220
0.0
230
1.0
 70
     8
 71
     3
 72
    11
 73
     7
 74
     0
 42
0.0000000001
 43
0.0000000001
 40
0.0
 40
0.0
 40
0.0
 40
0.0
 40
1.0
 40
1.0
 40
1.0
 40
2.0
 40
2.0
 40
2.0
 40
2.0
 10
228.2470499103862
 20
247.3173759689867
 30
0.0
 10
230.7595580477789
 20
246.5225063131524
 30
0.0
 10
233.30513910183
 20
246.1552591344247
 30
0.0
 10
235.6254109111457
 20
246.1789441658858
 30
0.0
 10
249.1463771621058
 20
246.1789441658858
 30
0.0
 10
260.1078097222995
 20
257.1396877069824
 30
0.0
 10
260.1078097222995
 20
270.6613429770395
 30
0.0
  0
POLYLINE
  5
470
330
1F
100
AcDbEntity
  8
BEMAßUNG
 62
     7
100
AcDb2dPolyline
 66
     1
 10
0.0
 20
0.0
 30
0.0
  0
VERTEX
  5
471
330
470
100
AcDbEntity
  8
BEMAßUNG
 62
     7
100
AcDbVertex
100
AcDb2dVertex
 10
260.1078097222995
 20
270.6613429770395
 30
0.0
  0
VERTEX
  5
472
330
470
100
AcDbEntity
  8
BEMAßUNG
 62
     7
100
AcDbVertex
100
AcDb2dVertex
 10
259.5226602541298
 20
267.179729479646
 30
0.0
  0
VERTEX
  5
473
330
470
100
AcDbEntity
  8
BEMAßUNG
 62
     7
100
AcDbVertex
100
AcDb2dVertex
 10
260.4433620225628
 20
267.1470010725362
 30
0.0
  0
VERTEX
  5
474
330
470
100
AcDbEntity
  8
BEMAßUNG
 62
     7
100
AcDbVertex
100
AcDb2dVertex
 10
260.1078097222995
 20
270.6613429770395
 30
0.0
  0
SEQEND
  5
475
330
470
100
AcDbEntity
  8
BEMAßUNG
  0
POLYLINE
  5
476
330
1F
100
AcDbEntity
  8
BEMAßUNG
 62
     7
100
AcDb2dPolyline
 66
     1
 10
0.0
 20
0.0
 30
0.0
  0
VERTEX
  5
477
330
476
100
AcDbEntity
  8
BEMAßUNG
 62
     7
100
AcDbVertex
100
AcDb2dVertex
 10
259.526105349615
 20
267.179729479646
 30
0.0
  0
VERTEX
  5
478
330
476
100
AcDbEntity
  8
BEMAßUNG
 62
     7
100
AcDbVertex
100
AcDb2dVertex
 10
259.526794368712
 20
267.2069457339795
 30
0.0
  0
SEQEND
  5
479
330
476
100
AcDbEntity
  8
BEMAßUNG
  0
POLYLINE
  5
47A
330
1F
100
AcDbEntity
  8
BEMAßUNG
 62
     7
100
AcDb2dPolyline
 66
     1
 10
0.0
 20
0.0
 30
0.0
  0
VERTEX
  5
47B
330
47A
100
AcDbEntity
  8
BEMAßUNG
 62
     7
100
AcDbVertex
100
AcDb2dVertex
 10
259.526105349615
 20
267.179729479646
 30
0.0
  0
VERTEX
  5
47C
330
47A
100
AcDbEntity
  8
BEMAßUNG
 62
     7
100
AcDbVertex
100
AcDb2dVertex
 10
259.526794368712
 20
267.2069457339795
 30
0.0
  0
SEQEND
  5
47D
330
47A
100
AcDbEntity
  8
BEMAßUNG
  0
POLYLINE
  5
47E
330
1F
100
AcDbEntity
  8
BEMAßUNG
 62
     7
100
AcDb2dPolyline
 66
     1
 10
0.0
 20
0.0
 30
0.0
  0
VERTEX
  5
47F
330
47E
100
AcDbEntity
  8
BEMAßUNG
 62
     7
100
AcDbVertex
100
AcDb2dVertex
 10
259.5769205080225
 20
267.1780069319034
 30
0.0
  0
VERTEX
  5
480
330
47E
100
AcDbEntity
  8
BEMAßUNG
 62
     7
100
AcDbVertex
100
AcDb2dVertex
 10
259.591734418609
 20
267.5903848614878
 30
0.0
  0
SEQEND
  5
481
330
47E
100
AcDbEntity
  8
BEMAßUNG
  0
POLYLINE
  5
482
330
1F
100
AcDbEntity
  8
BEMAßUNG
 62
     7
100
AcDb2dPolyline
 66
     1
 10
0.0
 20
0.0
 30
0.0
  0
VERTEX
  5
483
330
482
100
AcDbEntity
  8
BEMAßUNG
 62
     7
100
AcDbVertex
100
AcDb2dVertex
 10
259.6277356664299
 20
267.1762843841608
 30
0.0
  0
VERTEX
  5
484
330
482
100
AcDbEntity
  8
BEMAßUNG
 62
     7
100
AcDbVertex
100
AcDb2dVertex
 10
259.6563299589575
 20
267.9745991354803
 30
0.0
  0
SEQEND
  5
485
330
482
100
AcDbEntity
  8
BEMAßUNG
  0
POLYLINE
  5
486
330
1F
100
AcDbEntity
  8
BEMAßUNG
 62
     7
100
AcDb2dPolyline
 66
     1
 10
0.0
 20
0.0
 30
0.0
  0
VERTEX
  5
487
330
486
100
AcDbEntity
  8
BEMAßUNG
 62
     7
100
AcDbVertex
100
AcDb2dVertex
 10
259.6785508248373
 20
267.1744757090311
 30
0.0
  0
VERTEX
  5
488
330
486
100
AcDbEntity
  8
BEMAßUNG
 62
     7
100
AcDbVertex
100
AcDb2dVertex
 10
259.7200642254346
 20
268.3584688999243
 30
0.0
  0
SEQEND
  5
489
330
486
100
AcDbEntity
  8
BEMAßUNG
  0
POLYLINE
  5
48A
330
1F
100
AcDbEntity
  8
BEMAßUNG
 62
     7
100
AcDb2dPolyline
 66
     1
 10
0.0
 20
0.0
 30
0.0
  0
VERTEX
  5
48B
330
48A
100
AcDbEntity
  8
BEMAßUNG
 62
     7
100
AcDbVertex
100
AcDb2dVertex
 10
259.7286769641477
 20
267.1726670339013
 30
0.0
  0
VERTEX
  5
48C
330
48A
100
AcDbEntity
  8
BEMAßUNG
 62
     7
100
AcDbVertex
100
AcDb2dVertex
 10
259.7850042753315
 20
268.7419080274326
 30
0.0
  0
SEQEND
  5
48D
330
48A
100
AcDbEntity
  8
BEMAßUNG
  0
POLYLINE
  5
48E
330
1F
100
AcDbEntity
  8
BEMAßUNG
 62
     7
100
AcDb2dPolyline
 66
     1
 10
0.0
 20
0.0
 30
0.0
  0
VERTEX
  5
48F
330
48E
100
AcDbEntity
  8
BEMAßUNG
 62
     7
100
AcDbVertex
100
AcDb2dVertex
 10
259.7793198677809
 20
267.1709444861586
 30
0.0
  0
VERTEX
  5
490
330
48E
100
AcDbEntity
  8
BEMAßUNG
 62
     7
100
AcDbVertex
100
AcDb2dVertex
 10
259.84959981568
 20
269.1256916644894
 30
0.0
  0
SEQEND
  5
491
330
48E
100
AcDbEntity
  8
BEMAßUNG
  0
POLYLINE
  5
492
330
1F
100
AcDbEntity
  8
BEMAßUNG
 62
     7
100
AcDb2dPolyline
 66
     1
 10
0.0
 20
0.0
 30
0.0
  0
VERTEX
  5
493
330
492
100
AcDbEntity
  8
BEMAßUNG
 62
     7
100
AcDbVertex
100
AcDb2dVertex
 10
259.8301350261883
 20
267.168532919319
 30
0.0
  0
VERTEX
  5
494
330
492
100
AcDbEntity
  8
BEMAßUNG
 62
     7
100
AcDbVertex
100
AcDb2dVertex
 10
259.9141953560284
 20
269.5099059384819
 30
0.0
  0
SEQEND
  5
495
330
492
100
AcDbEntity
  8
BEMAßUNG
  0
POLYLINE
  5
496
330
1F
100
AcDbEntity
  8
BEMAßUNG
 62
     7
100
AcDb2dPolyline
 66
     1
 10
0.0
 20
0.0
 30
0.0
  0
VERTEX
  5
497
330
496
100
AcDbEntity
  8
BEMAßUNG
 62
     7
100
AcDbVertex
100
AcDb2dVertex
 10
259.8809501845957
 20
267.1667242441893
 30
0.0
  0
VERTEX
  5
498
330
496
100
AcDbEntity
  8
BEMAßUNG
 62
     7
100
AcDbVertex
100
AcDb2dVertex
 10
259.9787908963768
 20
269.8933450659902
 30
0.0
  0
SEQEND
  5
499
330
496
100
AcDbEntity
  8
BEMAßUNG
  0
POLYLINE
  5
49A
330
1F
100
AcDbEntity
  8
BEMAßUNG
 62
     7
100
AcDb2dPolyline
 66
     1
 10
0.0
 20
0.0
 30
0.0
  0
VERTEX
  5
49B
330
49A
100
AcDbEntity
  8
BEMAßUNG
 62
     7
100
AcDbVertex
100
AcDb2dVertex
 10
259.9317653430032
 20
267.1650016964466
 30
0.0
  0
VERTEX
  5
49C
330
49A
100
AcDbEntity
  8
BEMAßUNG
 62
     7
100
AcDbVertex
100
AcDb2dVertex
 10
260.043214181951
 20
270.2772148304342
 30
0.0
  0
SEQEND
  5
49D
330
49A
100
AcDbEntity
  8
BEMAßUNG
  0
POLYLINE
  5
49E
330
1F
100
AcDbEntity
  8
BEMAßUNG
 62
     7
100
AcDb2dPolyline
 66
     1
 10
0.0
 20
0.0
 30
0.0
  0
VERTEX
  5
49F
330
49E
100
AcDbEntity
  8
BEMAßUNG
 62
     7
100
AcDbVertex
100
AcDb2dVertex
 10
259.9825805014106
 20
267.1631930213168
 30
0.0
  0
VERTEX
  5
4A0
330
49E
100
AcDbEntity
  8
BEMAßUNG
 62
     7
100
AcDbVertex
100
AcDb2dVertex
 10
260.1078097222995
 20
270.6613429770395
 30
0.0
  0
SEQEND
  5
4A1
330
49E
100
AcDbEntity
  8
BEMAßUNG
  0
POLYLINE
  5
4A2
330
1F
100
AcDbEntity
  8
BEMAßUNG
 62
     7
100
AcDb2dPolyline
 66
     1
 10
0.0
 20
0.0
 30
0.0
  0
VERTEX
  5
4A3
330
4A2
100
AcDbEntity
  8
BEMAßUNG
 62
     7
100
AcDbVertex
100
AcDb2dVertex
 10
260.4397446723033
 20
267.1473455820847
 30
0.0
  0
VERTEX
  5
4A4
330
4A2
100
AcDbEntity
  8
BEMAßUNG
 62
     7
100
AcDbVertex
100
AcDb2dVertex
 10
260.4404336914003
 20
267.1744757090311
 30
0.0
  0
SEQEND
  5
4A5
330
4A2
100
AcDbEntity
  8
BEMAßUNG
  0
POLYLINE
  5
4A6
330
1F
100
AcDbEntity
  8
BEMAßUNG
 62
     7
100
AcDb2dPolyline
 66
     1
 10
0.0
 20
0.0
 30
0.0
  0
VERTEX
  5
4A7
330
4A6
100
AcDbEntity
  8
BEMAßUNG
 62
     7
100
AcDbVertex
100
AcDb2dVertex
 10
260.4397446723033
 20
267.1473455820847
 30
0.0
  0
VERTEX
  5
4A8
330
4A6
100
AcDbEntity
  8
BEMAßUNG
 62
     7
100
AcDbVertex
100
AcDb2dVertex
 10
260.4404336914003
 20
267.1744757090311
 30
0.0
  0
SEQEND
  5
4A9
330
4A6
100
AcDbEntity
  8
BEMAßUNG
  0
POLYLINE
  5
4AA
330
1F
100
AcDbEntity
  8
BEMAßUNG
 62
     7
100
AcDb2dPolyline
 66
     1
 10
0.0
 20
0.0
 30
0.0
  0
VERTEX
  5
4AB
330
4AA
100
AcDbEntity
  8
BEMAßUNG
 62
     7
100
AcDbVertex
100
AcDb2dVertex
 10
260.3889295138958
 20
267.1490681298274
 30
0.0
  0
VERTEX
  5
4AC
330
4AA
100
AcDbEntity
  8
BEMAßUNG
 62
     7
100
AcDbVertex
100
AcDb2dVertex
 10
260.4033989149339
 20
267.5614460594117
 30
0.0
  0
SEQEND
  5
4AD
330
4AA
100
AcDbEntity
  8
BEMAßUNG
  0
POLYLINE
  5
4AE
330
1F
100
AcDbEntity
  8
BEMAßUNG
 62
     7
100
AcDb2dPolyline
 66
     1
 10
0.0
 20
0.0
 30
0.0
  0
VERTEX
  5
4AF
330
4AE
100
AcDbEntity
  8
BEMAßUNG
 62
     7
100
AcDbVertex
100
AcDb2dVertex
 10
260.3381143554884
 20
267.1508768049571
 30
0.0
  0
VERTEX
  5
4B0
330
4AE
100
AcDbEntity
  8
BEMAßUNG
 62
     7
100
AcDbVertex
100
AcDb2dVertex
 10
260.366708648016
 20
267.9491915562766
 30
0.0
  0
SEQEND
  5
4B1
330
4AE
100
AcDbEntity
  8
BEMAßUNG
  0
POLYLINE
  5
4B2
330
1F
100
AcDbEntity
  8
BEMAßUNG
 62
     7
100
AcDb2dPolyline
 66
     1
 10
0.0
 20
0.0
 30
0.0
  0
VERTEX
  5
4B3
330
4B2
100
AcDbEntity
  8
BEMAßUNG
 62
     7
100
AcDbVertex
100
AcDb2dVertex
 10
260.2878159614037
 20
267.1525993526997
 30
0.0
  0
VERTEX
  5
4B4
330
4B2
100
AcDbEntity
  8
BEMAßUNG
 62
     7
100
AcDbVertex
100
AcDb2dVertex
 10
260.3296738715495
 20
268.3365925435929
 30
0.0
  0
SEQEND
  5
4B5
330
4B2
100
AcDbEntity
  8
BEMAßUNG
  0
POLYLINE
  5
4B6
330
1F
100
AcDbEntity
  8
BEMAßUNG
 62
     7
100
AcDb2dPolyline
 66
     1
 10
0.0
 20
0.0
 30
0.0
  0
VERTEX
  5
4B7
330
4B6
100
AcDbEntity
  8
BEMAßUNG
 62
     7
100
AcDbVertex
100
AcDb2dVertex
 10
260.2370008029963
 20
267.1544080278294
 30
0.0
  0
VERTEX
  5
4B8
330
4B6
100
AcDbEntity
  8
BEMAßUNG
 62
     7
100
AcDbVertex
100
AcDb2dVertex
 10
260.2926390950831
 20
268.7242519130707
 30
0.0
  0
SEQEND
  5
4B9
330
4B6
100
AcDbEntity
  8
BEMAßUNG
  0
POLYLINE
  5
4BA
330
1F
100
AcDbEntity
  8
BEMAßUNG
 62
     7
100
AcDb2dPolyline
 66
     1
 10
0.0
 20
0.0
 30
0.0
  0
VERTEX
  5
4BB
330
4BA
100
AcDbEntity
  8
BEMAßUNG
 62
     7
100
AcDbVertex
100
AcDb2dVertex
 10
260.1858411350403
 20
267.1561305755721
 30
0.0
  0
VERTEX
  5
4BC
330
4BA
100
AcDbEntity
  8
BEMAßUNG
 62
     7
100
AcDbVertex
100
AcDb2dVertex
 10
260.2556043186167
 20
269.1115667729999
 30
0.0
  0
SEQEND
  5
4BD
330
4BA
100
AcDbEntity
  8
BEMAßUNG
  0
POLYLINE
  5
4BE
330
1F
100
AcDbEntity
  8
BEMAßUNG
 62
     7
100
AcDb2dPolyline
 66
     1
 10
0.0
 20
0.0
 30
0.0
  0
VERTEX
  5
4BF
330
4BE
100
AcDbEntity
  8
BEMAßUNG
 62
     7
100
AcDbVertex
100
AcDb2dVertex
 10
260.1350259766329
 20
267.1579392507019
 30
0.0
  0
VERTEX
  5
4C0
330
4BE
100
AcDbEntity
  8
BEMAßUNG
 62
     7
100
AcDbVertex
100
AcDb2dVertex
 10
260.2185695421502
 20
269.4986232507677
 30
0.0
  0
SEQEND
  5
4C1
330
4BE
100
AcDbEntity
  8
BEMAßUNG
  0
POLYLINE
  5
4C2
330
1F
100
AcDbEntity
  8
BEMAßUNG
 62
     7
100
AcDb2dPolyline
 66
     1
 10
0.0
 20
0.0
 30
0.0
  0
VERTEX
  5
4C3
330
4C2
100
AcDbEntity
  8
BEMAßUNG
 62
     7
100
AcDbVertex
100
AcDb2dVertex
 10
260.0842108182255
 20
267.1596617984445
 30
0.0
  0
VERTEX
  5
4C4
330
4C2
100
AcDbEntity
  8
BEMAßUNG
 62
     7
100
AcDbVertex
100
AcDb2dVertex
 10
260.1818792752323
 20
269.8862826202455
 30
0.0
  0
SEQEND
  5
4C5
330
4C2
100
AcDbEntity
  8
BEMAßUNG
  0
POLYLINE
  5
4C6
330
1F
100
AcDbEntity
  8
BEMAßUNG
 62
     7
100
AcDb2dPolyline
 66
     1
 10
0.0
 20
0.0
 30
0.0
  0
VERTEX
  5
4C7
330
4C6
100
AcDbEntity
  8
BEMAßUNG
 62
     7
100
AcDbVertex
100
AcDb2dVertex
 10
260.033395659818
 20
267.1614704735742
 30
0.0
  0
VERTEX
  5
4C8
330
4C6
100
AcDbEntity
  8
BEMAßUNG
 62
     7
100
AcDbVertex
100
AcDb2dVertex
 10
260.1448444987659
 20
270.2735974801747
 30
0.0
  0
SEQEND
  5
4C9
330
4C6
100
AcDbEntity
  8
BEMAßUNG
  0
POLYLINE
  5
4CA
330
1F
100
AcDbEntity
  8
BEMAßUNG
 62
     7
100
AcDb2dPolyline
 66
     1
 10
0.0
 20
0.0
 30
0.0
  0
VERTEX
  5
4CB
330
4CA
100
AcDbEntity
  8
BEMAßUNG
 62
     7
100
AcDbVertex
100
AcDb2dVertex
 10
259.9825805014106
 20
267.1631930213168
 30
0.0
  0
VERTEX
  5
4CC
330
4CA
100
AcDbEntity
  8
BEMAßUNG
 62
     7
100
AcDbVertex
100
AcDb2dVertex
 10
260.1078097222995
 20
270.6613429770395
 30
0.0
  0
SEQEND
  5
4CD
330
4CA
100
AcDbEntity
  8
BEMAßUNG
  0
POLYLINE
  5
4CE
330
1F
100
AcDbEntity
  8
BEMAßUNG
 62
     7
100
AcDb2dPolyline
 66
     1
 10
0.0
 20
0.0
 30
0.0
  0
VERTEX
  5
4CF
330
4CE
100
AcDbEntity
  8
BEMAßUNG
 62
     7
100
AcDbVertex
100
AcDb2dVertex
 10
228.2470499103862
 20
247.3173759689867
 30
0.0
  0
VERTEX
  5
4D0
330
4CE
100
AcDbEntity
  8
BEMAßUNG
 62
     7
100
AcDbVertex
100
AcDb2dVertex
 10
231.4968084816223
 20
245.9379597366926
 30
0.0
  0
VERTEX
  5
4D1
330
4CE
100
AcDbEntity
  8
BEMAßUNG
 62
     7
100
AcDbVertex
100
AcDb2dVertex
 10
231.7431328088177
 20
246.8259330980158
 30
0.0
  0
VERTEX
  5
4D2
330
4CE
100
AcDbEntity
  8
BEMAßUNG
 62
     7
100
AcDbVertex
100
AcDb2dVertex
 10
228.2470499103862
 20
247.3173759689867
 30
0.0
  0
SEQEND
  5
4D3
330
4CE
100
AcDbEntity
  8
BEMAßUNG
  0
POLYLINE
  5
4D4
330
1F
100
AcDbEntity
  8
BEMAßUNG
 62
     7
100
AcDb2dPolyline
 66
     1
 10
0.0
 20
0.0
 30
0.0
  0
VERTEX
  5
4D5
330
4D4
100
AcDbEntity
  8
BEMAßUNG
 62
     7
100
AcDbVertex
100
AcDb2dVertex
 10
231.4971529911709
 20
245.941490959565
 30
0.0
  0
VERTEX
  5
4D6
330
4D4
100
AcDbEntity
  8
BEMAßUNG
 62
     7
100
AcDbVertex
100
AcDb2dVertex
 10
231.4714870298058
 20
245.9485534053098
 30
0.0
  0
SEQEND
  5
4D7
330
4D4
100
AcDbEntity
  8
BEMAßUNG
  0
POLYLINE
  5
4D8
330
1F
100
AcDbEntity
  8
BEMAßUNG
 62
     7
100
AcDb2dPolyline
 66
     1
 10
0.0
 20
0.0
 30
0.0
  0
VERTEX
  5
4D9
330
4D8
100
AcDbEntity
  8
BEMAßUNG
 62
     7
100
AcDbVertex
100
AcDb2dVertex
 10
231.4971529911709
 20
245.941490959565
 30
0.0
  0
VERTEX
  5
4DA
330
4D8
100
AcDbEntity
  8
BEMAßUNG
 62
     7
100
AcDbVertex
100
AcDb2dVertex
 10
231.4714870298058
 20
245.9485534053098
 30
0.0
  0
SEQEND
  5
4DB
330
4D8
100
AcDbEntity
  8
BEMAßUNG
  0
POLYLINE
  5
4DC
330
1F
100
AcDbEntity
  8
BEMAßUNG
 62
     7
100
AcDb2dPolyline
 66
     1
 10
0.0
 20
0.0
 30
0.0
  0
VERTEX
  5
4DD
330
4DC
100
AcDbEntity
  8
BEMAßUNG
 62
     7
100
AcDbVertex
100
AcDb2dVertex
 10
231.5109333731119
 20
245.9904974428427
 30
0.0
  0
VERTEX
  5
4DE
330
4DC
100
AcDbEntity
  8
BEMAßUNG
 62
     7
100
AcDbVertex
100
AcDb2dVertex
 10
231.112680335017
 20
246.1009127531449
 30
0.0
  0
SEQEND
  5
4DF
330
4DC
100
AcDbEntity
  8
BEMAßUNG
  0
POLYLINE
  5
4E0
330
1F
100
AcDbEntity
  8
BEMAßUNG
 62
     7
100
AcDb2dPolyline
 66
     1
 10
0.0
 20
0.0
 30
0.0
  0
VERTEX
  5
4E1
330
4E0
100
AcDbEntity
  8
BEMAßUNG
 62
     7
100
AcDbVertex
100
AcDb2dVertex
 10
231.5243692455043
 20
246.0392455439589
 30
0.0
  0
VERTEX
  5
4E2
330
4E0
100
AcDbEntity
  8
BEMAßUNG
 62
     7
100
AcDbVertex
100
AcDb2dVertex
 10
230.7545626593252
 20
246.2526692092702
 30
0.0
  0
SEQEND
  5
4E3
330
4E0
100
AcDbEntity
  8
BEMAßUNG
  0
POLYLINE
  5
4E4
330
1F
100
AcDbEntity
  8
BEMAßUNG
 62
     7
100
AcDb2dPolyline
 66
     1
 10
0.0
 20
0.0
 30
0.0
  0
VERTEX
  5
4E5
330
4E4
100
AcDbEntity
  8
BEMAßUNG
 62
     7
100
AcDbVertex
100
AcDb2dVertex
 10
231.5381496274453
 20
246.0879075176881
 30
0.0
  0
VERTEX
  5
4E6
330
4E4
100
AcDbEntity
  8
BEMAßUNG
 62
     7
100
AcDbVertex
100
AcDb2dVertex
 10
230.3964449836335
 20
246.4050285571053
 30
0.0
  0
SEQEND
  5
4E7
330
4E4
100
AcDbEntity
  8
BEMAßUNG
  0
POLYLINE
  5
4E8
330
1F
100
AcDbEntity
  8
BEMAßUNG
 62
     7
100
AcDb2dPolyline
 66
     1
 10
0.0
 20
0.0
 30
0.0
  0
VERTEX
  5
4E9
330
4E8
100
AcDbEntity
  8
BEMAßUNG
 62
     7
100
AcDbVertex
100
AcDb2dVertex
 10
231.5515854998378
 20
246.1369140009658
 30
0.0
  0
VERTEX
  5
4EA
330
4E8
100
AcDbEntity
  8
BEMAßUNG
 62
     7
100
AcDbVertex
100
AcDb2dVertex
 10
230.0384995627161
 20
246.5571295227791
 30
0.0
  0
SEQEND
  5
4EB
330
4E8
100
AcDbEntity
  8
BEMAßUNG
  0
POLYLINE
  5
4EC
330
1F
100
AcDbEntity
  8
BEMAßUNG
 62
     7
100
AcDb2dPolyline
 66
     1
 10
0.0
 20
0.0
 30
0.0
  0
VERTEX
  5
4ED
330
4EC
100
AcDbEntity
  8
BEMAßUNG
 62
     7
100
AcDbVertex
100
AcDb2dVertex
 10
231.5653658817788
 20
246.1860066116306
 30
0.0
  0
VERTEX
  5
4EE
330
4EC
100
AcDbEntity
  8
BEMAßUNG
 62
     7
100
AcDbVertex
100
AcDb2dVertex
 10
229.6796928679273
 20
246.7087998515173
 30
0.0
  0
SEQEND
  5
4EF
330
4EC
100
AcDbEntity
  8
BEMAßUNG
  0
POLYLINE
  5
4F0
330
1F
100
AcDbEntity
  8
BEMAßUNG
 62
     7
100
AcDb2dPolyline
 66
     1
 10
0.0
 20
0.0
 30
0.0
  0
VERTEX
  5
4F1
330
4F0
100
AcDbEntity
  8
BEMAßUNG
 62
     7
100
AcDbVertex
100
AcDb2dVertex
 10
231.578629499397
 20
246.2353576044568
 30
0.0
  0
VERTEX
  5
4F2
330
4F0
100
AcDbEntity
  8
BEMAßUNG
 62
     7
100
AcDbVertex
100
AcDb2dVertex
 10
229.3215751922356
 20
246.8612453267395
 30
0.0
  0
SEQEND
  5
4F3
330
4F0
100
AcDbEntity
  8
BEMAßUNG
  0
POLYLINE
  5
4F4
330
1F
100
AcDbEntity
  8
BEMAßUNG
 62
     7
100
AcDb2dPolyline
 66
     1
 10
0.0
 20
0.0
 30
0.0
  0
VERTEX
  5
4F5
330
4F4
100
AcDbEntity
  8
BEMAßUNG
 62
     7
100
AcDbVertex
100
AcDb2dVertex
 10
231.592409881338
 20
246.284019578186
 30
0.0
  0
VERTEX
  5
4F6
330
4F4
100
AcDbEntity
  8
BEMAßUNG
 62
     7
100
AcDbVertex
100
AcDb2dVertex
 10
228.9636297713181
 20
247.0132601650262
 30
0.0
  0
SEQEND
  5
4F7
330
4F4
100
AcDbEntity
  8
BEMAßUNG
  0
POLYLINE
  5
4F8
330
1F
100
AcDbEntity
  8
BEMAßUNG
 62
     7
100
AcDb2dPolyline
 66
     1
 10
0.0
 20
0.0
 30
0.0
  0
VERTEX
  5
4F9
330
4F8
100
AcDbEntity
  8
BEMAßUNG
 62
     7
100
AcDbVertex
100
AcDb2dVertex
 10
231.6058457537305
 20
246.3331121888507
 30
0.0
  0
VERTEX
  5
4FA
330
4F8
100
AcDbEntity
  8
BEMAßUNG
 62
     7
100
AcDbVertex
100
AcDb2dVertex
 10
228.6055120956264
 20
247.1649304937643
 30
0.0
  0
SEQEND
  5
4FB
330
4F8
100
AcDbEntity
  8
BEMAßUNG
  0
POLYLINE
  5
4FC
330
1F
100
AcDbEntity
  8
BEMAßUNG
 62
     7
100
AcDb2dPolyline
 66
     1
 10
0.0
 20
0.0
 30
0.0
  0
VERTEX
  5
4FD
330
4FC
100
AcDbEntity
  8
BEMAßUNG
 62
     7
100
AcDbVertex
100
AcDb2dVertex
 10
231.6196261356715
 20
246.3817741625799
 30
0.0
  0
VERTEX
  5
4FE
330
4FC
100
AcDbEntity
  8
BEMAßUNG
 62
     7
100
AcDbVertex
100
AcDb2dVertex
 10
228.2470499103862
 20
247.3173759689867
 30
0.0
  0
SEQEND
  5
4FF
330
4FC
100
AcDbEntity
  8
BEMAßUNG
  0
POLYLINE
  5
500
330
1F
100
AcDbEntity
  8
BEMAßUNG
 62
     7
100
AcDb2dPolyline
 66
     1
 10
0.0
 20
0.0
 30
0.0
  0
VERTEX
  5
501
330
500
100
AcDbEntity
  8
BEMAßUNG
 62
     7
100
AcDbVertex
100
AcDb2dVertex
 10
231.7417547706236
 20
246.8224018751434
 30
0.0
  0
VERTEX
  5
502
330
500
100
AcDbEntity
  8
BEMAßUNG
 62
     7
100
AcDbVertex
100
AcDb2dVertex
 10
231.7155720449357
 20
246.8294643208881
 30
0.0
  0
SEQEND
  5
503
330
500
100
AcDbEntity
  8
BEMAßUNG
  0
POLYLINE
  5
504
330
1F
100
AcDbEntity
  8
BEMAßUNG
 62
     7
100
AcDb2dPolyline
 66
     1
 10
0.0
 20
0.0
 30
0.0
  0
VERTEX
  5
505
330
504
100
AcDbEntity
  8
BEMAßUNG
 62
     7
100
AcDbVertex
100
AcDb2dVertex
 10
231.7417547706236
 20
246.8224018751434
 30
0.0
  0
VERTEX
  5
506
330
504
100
AcDbEntity
  8
BEMAßUNG
 62
     7
100
AcDbVertex
100
AcDb2dVertex
 10
231.7155720449357
 20
246.8294643208881
 30
0.0
  0
SEQEND
  5
507
330
504
100
AcDbEntity
  8
BEMAßUNG
  0
POLYLINE
  5
508
330
1F
100
AcDbEntity
  8
BEMAßUNG
 62
     7
100
AcDb2dPolyline
 66
     1
 10
0.0
 20
0.0
 30
0.0
  0
VERTEX
  5
509
330
508
100
AcDbEntity
  8
BEMAßUNG
 62
     7
100
AcDbVertex
100
AcDb2dVertex
 10
231.7279743886826
 20
246.7733953918657
 30
0.0
  0
VERTEX
  5
50A
330
508
100
AcDbEntity
  8
BEMAßUNG
 62
     7
100
AcDbVertex
100
AcDb2dVertex
 10
231.3300658601362
 20
246.8838107021679
 30
0.0
  0
SEQEND
  5
50B
330
508
100
AcDbEntity
  8
BEMAßUNG
  0
POLYLINE
  5
50C
330
1F
100
AcDbEntity
  8
BEMAßUNG
 62
     7
100
AcDb2dPolyline
 66
     1
 10
0.0
 20
0.0
 30
0.0
  0
VERTEX
  5
50D
330
50C
100
AcDbEntity
  8
BEMAßUNG
 62
     7
100
AcDbVertex
100
AcDb2dVertex
 10
231.7145385162901
 20
246.7243027812009
 30
0.0
  0
VERTEX
  5
50E
330
50C
100
AcDbEntity
  8
BEMAßUNG
 62
     7
100
AcDbVertex
100
AcDb2dVertex
 10
230.9443874205625
 20
246.9377264465121
 30
0.0
  0
SEQEND
  5
50F
330
50C
100
AcDbEntity
  8
BEMAßUNG
  0
POLYLINE
  5
510
330
1F
100
AcDbEntity
  8
BEMAßUNG
 62
     7
100
AcDb2dPolyline
 66
     1
 10
0.0
 20
0.0
 30
0.0
  0
VERTEX
  5
511
330
510
100
AcDbEntity
  8
BEMAßUNG
 62
     7
100
AcDbVertex
100
AcDb2dVertex
 10
231.7007581343491
 20
246.6756408074717
 30
0.0
  0
VERTEX
  5
512
330
510
100
AcDbEntity
  8
BEMAßUNG
 62
     7
100
AcDbVertex
100
AcDb2dVertex
 10
230.5595702548601
 20
246.9920728277919
 30
0.0
  0
SEQEND
  5
513
330
510
100
AcDbEntity
  8
BEMAßUNG
  0
POLYLINE
  5
514
330
1F
100
AcDbEntity
  8
BEMAßUNG
 62
     7
100
AcDb2dPolyline
 66
     1
 10
0.0
 20
0.0
 30
0.0
  0
VERTEX
  5
515
330
514
100
AcDbEntity
  8
BEMAßUNG
 62
     7
100
AcDbVertex
100
AcDb2dVertex
 10
231.6873222619567
 20
246.6269788337426
 30
0.0
  0
VERTEX
  5
516
330
514
100
AcDbEntity
  8
BEMAßUNG
 62
     7
100
AcDbVertex
100
AcDb2dVertex
 10
230.1738918152864
 20
247.0460746995232
 30
0.0
  0
SEQEND
  5
517
330
514
100
AcDbEntity
  8
BEMAßUNG
  0
POLYLINE
  5
518
330
1F
100
AcDbEntity
  8
BEMAßUNG
 62
     7
100
AcDb2dPolyline
 66
     1
 10
0.0
 20
0.0
 30
0.0
  0
VERTEX
  5
519
330
518
100
AcDbEntity
  8
BEMAßUNG
 62
     7
100
AcDbVertex
100
AcDb2dVertex
 10
231.6735418800156
 20
246.5778862230778
 30
0.0
  0
VERTEX
  5
51A
330
518
100
AcDbEntity
  8
BEMAßUNG
 62
     7
100
AcDbVertex
100
AcDb2dVertex
 10
229.7883856304869
 20
247.1003349534159
 30
0.0
  0
SEQEND
  5
51B
330
518
100
AcDbEntity
  8
BEMAßUNG
  0
POLYLINE
  5
51C
330
1F
100
AcDbEntity
  8
BEMAßUNG
 62
     7
100
AcDb2dPolyline
 66
     1
 10
0.0
 20
0.0
 30
0.0
  0
VERTEX
  5
51D
330
51C
100
AcDbEntity
  8
BEMAßUNG
 62
     7
100
AcDbVertex
100
AcDb2dVertex
 10
231.6601060076232
 20
246.5288797398001
 30
0.0
  0
VERTEX
  5
51E
330
51C
100
AcDbEntity
  8
BEMAßUNG
 62
     7
100
AcDbVertex
100
AcDb2dVertex
 10
229.4030517004618
 20
247.1546813346957
 30
0.0
  0
SEQEND
  5
51F
330
51C
100
AcDbEntity
  8
BEMAßUNG
  0
POLYLINE
  5
520
330
1F
100
AcDbEntity
  8
BEMAßUNG
 62
     7
100
AcDb2dPolyline
 66
     1
 10
0.0
 20
0.0
 30
0.0
  0
VERTEX
  5
521
330
520
100
AcDbEntity
  8
BEMAßUNG
 62
     7
100
AcDbVertex
100
AcDb2dVertex
 10
231.646842390005
 20
246.4795287469739
 30
0.0
  0
VERTEX
  5
522
330
520
100
AcDbEntity
  8
BEMAßUNG
 62
     7
100
AcDbVertex
100
AcDb2dVertex
 10
229.0175455156623
 20
247.2090277159755
 30
0.0
  0
SEQEND
  5
523
330
520
100
AcDbEntity
  8
BEMAßUNG
  0
POLYLINE
  5
524
330
1F
100
AcDbEntity
  8
BEMAßUNG
 62
     7
100
AcDb2dPolyline
 66
     1
 10
0.0
 20
0.0
 30
0.0
  0
VERTEX
  5
525
330
524
100
AcDbEntity
  8
BEMAßUNG
 62
     7
100
AcDbVertex
100
AcDb2dVertex
 10
231.633062008064
 20
246.4307806458576
 30
0.0
  0
VERTEX
  5
526
330
524
100
AcDbEntity
  8
BEMAßUNG
 62
     7
100
AcDbVertex
100
AcDb2dVertex
 10
228.6322115856371
 20
247.2630295877068
 30
0.0
  0
SEQEND
  5
527
330
524
100
AcDbEntity
  8
BEMAßUNG
  0
POLYLINE
  5
528
330
1F
100
AcDbEntity
  8
BEMAßUNG
 62
     7
100
AcDb2dPolyline
 66
     1
 10
0.0
 20
0.0
 30
0.0
  0
VERTEX
  5
529
330
528
100
AcDbEntity
  8
BEMAßUNG
 62
     7
100
AcDbVertex
100
AcDb2dVertex
 10
231.6196261356715
 20
246.3817741625799
 30
0.0
  0
VERTEX
  5
52A
330
528
100
AcDbEntity
  8
BEMAßUNG
 62
     7
100
AcDbVertex
100
AcDb2dVertex
 10
228.2470499103862
 20
247.3173759689867
 30
0.0
  0
SEQEND
  5
52B
330
528
100
AcDbEntity
  8
BEMAßUNG
  0
POLYLINE
  5
52C
330
1F
100
AcDbEntity
  8
BEMAßUNG
 62
     7
100
AcDb2dPolyline
 66
     1
 10
0.0
 20
0.0
 30
0.0
  0
VERTEX
  5
52D
330
52C
100
AcDbEntity
  8
BEMAßUNG
 62
     7
100
AcDbVertex
100
AcDb2dVertex
 10
235.5277424541389
 20
269.8612195505902
 30
0.0
  0
VERTEX
  5
52E
330
52C
100
AcDbEntity
  8
BEMAßUNG
 62
     7
100
AcDbVertex
100
AcDb2dVertex
 10
235.5277424541389
 20
292.4300400744619
 30
0.0
  0
SEQEND
  5
52F
330
52C
100
AcDbEntity
  8
BEMAßUNG
  0
POLYLINE
  5
530
330
1F
100
AcDbEntity
  8
BEMAßUNG
 62
     7
100
AcDb2dPolyline
 66
     1
 10
0.0
 20
0.0
 30
0.0
  0
VERTEX
  5
531
330
530
100
AcDbEntity
  8
BEMAßUNG
 62
     7
100
AcDbVertex
100
AcDb2dVertex
 10
190.5120577865734
 20
257.2925638191404
 30
0.0
  0
VERTEX
  5
532
330
530
100
AcDbEntity
  8
BEMAßUNG
 62
     7
100
AcDbVertex
100
AcDb2dVertex
 10
190.5120577865734
 20
280.9286749243425
 30
0.0
  0
SEQEND
  5
533
330
530
100
AcDbEntity
  8
BEMAßUNG
  0
POLYLINE
  5
534
330
1F
100
AcDbEntity
  8
BEMAßUNG
 62
     7
100
AcDb2dPolyline
 66
     1
 10
0.0
 20
0.0
 30
0.0
  0
VERTEX
  5
535
330
534
100
AcDbEntity
  8
BEMAßUNG
 62
     7
100
AcDbVertex
100
AcDb2dVertex
 10
165.4004122850388
 20
241.9150356111792
 30
0.0
  0
VERTEX
  5
536
330
534
100
AcDbEntity
  8
BEMAßUNG
 62
     7
100
AcDbVertex
100
AcDb2dVertex
 10
165.4004122850388
 20
291.8421345299041
 30
0.0
  0
SEQEND
  5
537
330
534
100
AcDbEntity
  8
BEMAßUNG
  0
POLYLINE
  5
538
330
1F
100
AcDbEntity
  8
BEMAßUNG
 62
     7
100
AcDb2dPolyline
 66
     1
 10
0.0
 20
0.0
 30
0.0
  0
VERTEX
  5
539
330
538
100
AcDbEntity
  8
BEMAßUNG
 62
     7
100
AcDbVertex
100
AcDb2dVertex
 10
235.5277424541389
 20
279.9556938319208
 30
0.0
  0
VERTEX
  5
53A
330
538
100
AcDbEntity
  8
BEMAßUNG
 62
     7
100
AcDbVertex
100
AcDb2dVertex
 10
190.5277329710313
 20
279.9556938319208
 30
0.0
  0
SEQEND
  5
53B
330
538
100
AcDbEntity
  8
BEMAßUNG
  0
POLYLINE
  5
53C
330
1F
100
AcDbEntity
  8
BEMAßUNG
 62
     7
100
AcDb2dPolyline
 66
     1
 10
0.0
 20
0.0
 30
0.0
  0
VERTEX
  5
53D
330
53C
100
AcDbEntity
  8
BEMAßUNG
 62
     7
100
AcDbVertex
100
AcDb2dVertex
 10
235.5277424541389
 20
279.9556938319208
 30
0.0
  0
VERTEX
  5
53E
330
53C
100
AcDbEntity
  8
BEMAßUNG
 62
     7
100
AcDbVertex
100
AcDb2dVertex
 10
232.0280422054479
 20
280.4160447161373
 30
0.0
  0
VERTEX
  5
53F
330
53C
100
AcDbEntity
  8
BEMAßUNG
 62
     7
100
AcDbVertex
100
AcDb2dVertex
 10
232.0280422054479
 20
279.4949984381558
 30
0.0
  0
VERTEX
  5
540
330
53C
100
AcDbEntity
  8
BEMAßUNG
 62
     7
100
AcDbVertex
100
AcDb2dVertex
 10
235.5277424541389
 20
279.9556938319208
 30
0.0
  0
SEQEND
  5
541
330
53C
100
AcDbEntity
  8
BEMAßUNG
  0
POLYLINE
  5
542
330
1F
100
AcDbEntity
  8
BEMAßUNG
 62
     7
100
AcDb2dPolyline
 66
     1
 10
0.0
 20
0.0
 30
0.0
  0
VERTEX
  5
543
330
542
100
AcDbEntity
  8
BEMAßUNG
 62
     7
100
AcDbVertex
100
AcDb2dVertex
 10
232.0280422054479
 20
280.4125996206521
 30
0.0
  0
VERTEX
  5
544
330
542
100
AcDbEntity
  8
BEMAßUNG
 62
     7
100
AcDbVertex
100
AcDb2dVertex
 10
232.0552584597813
 20
280.4125996206521
 30
0.0
  0
SEQEND
  5
545
330
542
100
AcDbEntity
  8
BEMAßUNG
  0
POLYLINE
  5
546
330
1F
100
AcDbEntity
  8
BEMAßUNG
 62
     7
100
AcDb2dPolyline
 66
     1
 10
0.0
 20
0.0
 30
0.0
  0
VERTEX
  5
547
330
546
100
AcDbEntity
  8
BEMAßUNG
 62
     7
100
AcDbVertex
100
AcDb2dVertex
 10
232.0280422054479
 20
280.4125996206521
 30
0.0
  0
VERTEX
  5
548
330
546
100
AcDbEntity
  8
BEMAßUNG
 62
     7
100
AcDbVertex
100
AcDb2dVertex
 10
232.0552584597813
 20
280.4125996206521
 30
0.0
  0
SEQEND
  5
549
330
546
100
AcDbEntity
  8
BEMAßUNG
  0
POLYLINE
  5
54A
330
1F
100
AcDbEntity
  8
BEMAßUNG
 62
     7
100
AcDb2dPolyline
 66
     1
 10
0.0
 20
0.0
 30
0.0
  0
VERTEX
  5
54B
330
54A
100
AcDbEntity
  8
BEMAßUNG
 62
     7
100
AcDbVertex
100
AcDb2dVertex
 10
232.0280422054479
 20
280.3617844622447
 30
0.0
  0
VERTEX
  5
54C
330
54A
100
AcDbEntity
  8
BEMAßUNG
 62
     7
100
AcDbVertex
100
AcDb2dVertex
 10
232.4409368993551
 20
280.3617844622447
 30
0.0
  0
SEQEND
  5
54D
330
54A
100
AcDbEntity
  8
BEMAßUNG
  0
POLYLINE
  5
54E
330
1F
100
AcDbEntity
  8
BEMAßUNG
 62
     7
100
AcDb2dPolyline
 66
     1
 10
0.0
 20
0.0
 30
0.0
  0
VERTEX
  5
54F
330
54E
100
AcDbEntity
  8
BEMAßUNG
 62
     7
100
AcDbVertex
100
AcDb2dVertex
 10
232.0280422054479
 20
280.3109693038372
 30
0.0
  0
VERTEX
  5
550
330
54E
100
AcDbEntity
  8
BEMAßUNG
 62
     7
100
AcDbVertex
100
AcDb2dVertex
 10
232.826787593703
 20
280.3109693038372
 30
0.0
  0
SEQEND
  5
551
330
54E
100
AcDbEntity
  8
BEMAßUNG
  0
POLYLINE
  5
552
330
1F
100
AcDbEntity
  8
BEMAßUNG
 62
     7
100
AcDb2dPolyline
 66
     1
 10
0.0
 20
0.0
 30
0.0
  0
VERTEX
  5
553
330
552
100
AcDbEntity
  8
BEMAßUNG
 62
     7
100
AcDbVertex
100
AcDb2dVertex
 10
232.0280422054479
 20
280.2601541454297
 30
0.0
  0
VERTEX
  5
554
330
552
100
AcDbEntity
  8
BEMAßUNG
 62
     7
100
AcDbVertex
100
AcDb2dVertex
 10
233.2124660332768
 20
280.2601541454297
 30
0.0
  0
SEQEND
  5
555
330
552
100
AcDbEntity
  8
BEMAßUNG
  0
POLYLINE
  5
556
330
1F
100
AcDbEntity
  8
BEMAßUNG
 62
     7
100
AcDb2dPolyline
 66
     1
 10
0.0
 20
0.0
 30
0.0
  0
VERTEX
  5
557
330
556
100
AcDbEntity
  8
BEMAßUNG
 62
     7
100
AcDbVertex
100
AcDb2dVertex
 10
232.0280422054479
 20
280.2093389870223
 30
0.0
  0
VERTEX
  5
558
330
556
100
AcDbEntity
  8
BEMAßUNG
 62
     7
100
AcDbVertex
100
AcDb2dVertex
 10
233.5986612371733
 20
280.2093389870223
 30
0.0
  0
SEQEND
  5
559
330
556
100
AcDbEntity
  8
BEMAßUNG
  0
POLYLINE
  5
55A
330
1F
100
AcDbEntity
  8
BEMAßUNG
 62
     7
100
AcDb2dPolyline
 66
     1
 10
0.0
 20
0.0
 30
0.0
  0
VERTEX
  5
55B
330
55A
100
AcDbEntity
  8
BEMAßUNG
 62
     7
100
AcDbVertex
100
AcDb2dVertex
 10
232.0280422054479
 20
280.1585238286149
 30
0.0
  0
VERTEX
  5
55C
330
55A
100
AcDbEntity
  8
BEMAßUNG
 62
     7
100
AcDbVertex
100
AcDb2dVertex
 10
233.984339676747
 20
280.1585238286149
 30
0.0
  0
SEQEND
  5
55D
330
55A
100
AcDbEntity
  8
BEMAßUNG
  0
POLYLINE
  5
55E
330
1F
100
AcDbEntity
  8
BEMAßUNG
 62
     7
100
AcDb2dPolyline
 66
     1
 10
0.0
 20
0.0
 30
0.0
  0
VERTEX
  5
55F
330
55E
100
AcDbEntity
  8
BEMAßUNG
 62
     7
100
AcDbVertex
100
AcDb2dVertex
 10
232.0280422054479
 20
280.1077947975946
 30
0.0
  0
VERTEX
  5
560
330
55E
100
AcDbEntity
  8
BEMAßUNG
 62
     7
100
AcDbVertex
100
AcDb2dVertex
 10
234.3705348806435
 20
280.1077947975946
 30
0.0
  0
SEQEND
  5
561
330
55E
100
AcDbEntity
  8
BEMAßUNG
  0
POLYLINE
  5
562
330
1F
100
AcDbEntity
  8
BEMAßUNG
 62
     7
100
AcDb2dPolyline
 66
     1
 10
0.0
 20
0.0
 30
0.0
  0
VERTEX
  5
563
330
562
100
AcDbEntity
  8
BEMAßUNG
 62
     7
100
AcDbVertex
100
AcDb2dVertex
 10
232.0280422054479
 20
280.0573241487357
 30
0.0
  0
VERTEX
  5
564
330
562
100
AcDbEntity
  8
BEMAßUNG
 62
     7
100
AcDbVertex
100
AcDb2dVertex
 10
234.7565578297657
 20
280.0573241487357
 30
0.0
  0
SEQEND
  5
565
330
562
100
AcDbEntity
  8
BEMAßUNG
  0
POLYLINE
  5
566
330
1F
100
AcDbEntity
  8
BEMAßUNG
 62
     7
100
AcDb2dPolyline
 66
     1
 10
0.0
 20
0.0
 30
0.0
  0
VERTEX
  5
567
330
566
100
AcDbEntity
  8
BEMAßUNG
 62
     7
100
AcDbVertex
100
AcDb2dVertex
 10
232.0280422054479
 20
280.0065089903283
 30
0.0
  0
VERTEX
  5
568
330
566
100
AcDbEntity
  8
BEMAßUNG
 62
     7
100
AcDbVertex
100
AcDb2dVertex
 10
235.1420640145652
 20
280.0065089903283
 30
0.0
  0
SEQEND
  5
569
330
566
100
AcDbEntity
  8
BEMAßUNG
  0
POLYLINE
  5
56A
330
1F
100
AcDbEntity
  8
BEMAßUNG
 62
     7
100
AcDb2dPolyline
 66
     1
 10
0.0
 20
0.0
 30
0.0
  0
VERTEX
  5
56B
330
56A
100
AcDbEntity
  8
BEMAßUNG
 62
     7
100
AcDbVertex
100
AcDb2dVertex
 10
232.0280422054479
 20
279.9556938319208
 30
0.0
  0
VERTEX
  5
56C
330
56A
100
AcDbEntity
  8
BEMAßUNG
 62
     7
100
AcDbVertex
100
AcDb2dVertex
 10
235.5277424541389
 20
279.9556938319208
 30
0.0
  0
SEQEND
  5
56D
330
56A
100
AcDbEntity
  8
BEMAßUNG
  0
POLYLINE
  5
56E
330
1F
100
AcDbEntity
  8
BEMAßUNG
 62
     7
100
AcDb2dPolyline
 66
     1
 10
0.0
 20
0.0
 30
0.0
  0
VERTEX
  5
56F
330
56E
100
AcDbEntity
  8
BEMAßUNG
 62
     7
100
AcDbVertex
100
AcDb2dVertex
 10
232.0280422054479
 20
279.4981851514796
 30
0.0
  0
VERTEX
  5
570
330
56E
100
AcDbEntity
  8
BEMAßUNG
 62
     7
100
AcDbVertex
100
AcDb2dVertex
 10
232.0552584597813
 20
279.4981851514796
 30
0.0
  0
SEQEND
  5
571
330
56E
100
AcDbEntity
  8
BEMAßUNG
  0
POLYLINE
  5
572
330
1F
100
AcDbEntity
  8
BEMAßUNG
 62
     7
100
AcDb2dPolyline
 66
     1
 10
0.0
 20
0.0
 30
0.0
  0
VERTEX
  5
573
330
572
100
AcDbEntity
  8
BEMAßUNG
 62
     7
100
AcDbVertex
100
AcDb2dVertex
 10
232.0280422054479
 20
279.4981851514796
 30
0.0
  0
VERTEX
  5
574
330
572
100
AcDbEntity
  8
BEMAßUNG
 62
     7
100
AcDbVertex
100
AcDb2dVertex
 10
232.0552584597813
 20
279.4981851514796
 30
0.0
  0
SEQEND
  5
575
330
572
100
AcDbEntity
  8
BEMAßUNG
  0
POLYLINE
  5
576
330
1F
100
AcDbEntity
  8
BEMAßUNG
 62
     7
100
AcDb2dPolyline
 66
     1
 10
0.0
 20
0.0
 30
0.0
  0
VERTEX
  5
577
330
576
100
AcDbEntity
  8
BEMAßUNG
 62
     7
100
AcDbVertex
100
AcDb2dVertex
 10
232.0280422054479
 20
279.5493448194356
 30
0.0
  0
VERTEX
  5
578
330
576
100
AcDbEntity
  8
BEMAßUNG
 62
     7
100
AcDbVertex
100
AcDb2dVertex
 10
232.4409368993551
 20
279.5493448194356
 30
0.0
  0
SEQEND
  5
579
330
576
100
AcDbEntity
  8
BEMAßUNG
  0
POLYLINE
  5
57A
330
1F
100
AcDbEntity
  8
BEMAßUNG
 62
     7
100
AcDb2dPolyline
 66
     1
 10
0.0
 20
0.0
 30
0.0
  0
VERTEX
  5
57B
330
57A
100
AcDbEntity
  8
BEMAßUNG
 62
     7
100
AcDbVertex
100
AcDb2dVertex
 10
232.0280422054479
 20
279.6000738504559
 30
0.0
  0
VERTEX
  5
57C
330
57A
100
AcDbEntity
  8
BEMAßUNG
 62
     7
100
AcDbVertex
100
AcDb2dVertex
 10
232.826787593703
 20
279.6000738504559
 30
0.0
  0
SEQEND
  5
57D
330
57A
100
AcDbEntity
  8
BEMAßUNG
  0
POLYLINE
  5
57E
330
1F
100
AcDbEntity
  8
BEMAßUNG
 62
     7
100
AcDb2dPolyline
 66
     1
 10
0.0
 20
0.0
 30
0.0
  0
VERTEX
  5
57F
330
57E
100
AcDbEntity
  8
BEMAßUNG
 62
     7
100
AcDbVertex
100
AcDb2dVertex
 10
232.0280422054479
 20
279.6508890088633
 30
0.0
  0
VERTEX
  5
580
330
57E
100
AcDbEntity
  8
BEMAßUNG
 62
     7
100
AcDbVertex
100
AcDb2dVertex
 10
233.2124660332768
 20
279.6508890088633
 30
0.0
  0
SEQEND
  5
581
330
57E
100
AcDbEntity
  8
BEMAßUNG
  0
POLYLINE
  5
582
330
1F
100
AcDbEntity
  8
BEMAßUNG
 62
     7
100
AcDb2dPolyline
 66
     1
 10
0.0
 20
0.0
 30
0.0
  0
VERTEX
  5
583
330
582
100
AcDbEntity
  8
BEMAßUNG
 62
     7
100
AcDbVertex
100
AcDb2dVertex
 10
232.0280422054479
 20
279.7017041672707
 30
0.0
  0
VERTEX
  5
584
330
582
100
AcDbEntity
  8
BEMAßUNG
 62
     7
100
AcDbVertex
100
AcDb2dVertex
 10
233.5986612371733
 20
279.7017041672707
 30
0.0
  0
SEQEND
  5
585
330
582
100
AcDbEntity
  8
BEMAßUNG
  0
POLYLINE
  5
586
330
1F
100
AcDbEntity
  8
BEMAßUNG
 62
     7
100
AcDb2dPolyline
 66
     1
 10
0.0
 20
0.0
 30
0.0
  0
VERTEX
  5
587
330
586
100
AcDbEntity
  8
BEMAßUNG
 62
     7
100
AcDbVertex
100
AcDb2dVertex
 10
232.0280422054479
 20
279.7525193256782
 30
0.0
  0
VERTEX
  5
588
330
586
100
AcDbEntity
  8
BEMAßUNG
 62
     7
100
AcDbVertex
100
AcDb2dVertex
 10
233.984339676747
 20
279.7525193256782
 30
0.0
  0
SEQEND
  5
589
330
586
100
AcDbEntity
  8
BEMAßUNG
  0
POLYLINE
  5
58A
330
1F
100
AcDbEntity
  8
BEMAßUNG
 62
     7
100
AcDb2dPolyline
 66
     1
 10
0.0
 20
0.0
 30
0.0
  0
VERTEX
  5
58B
330
58A
100
AcDbEntity
  8
BEMAßUNG
 62
     7
100
AcDbVertex
100
AcDb2dVertex
 10
232.0280422054479
 20
279.8033344840856
 30
0.0
  0
VERTEX
  5
58C
330
58A
100
AcDbEntity
  8
BEMAßUNG
 62
     7
100
AcDbVertex
100
AcDb2dVertex
 10
234.3705348806435
 20
279.8033344840856
 30
0.0
  0
SEQEND
  5
58D
330
58A
100
AcDbEntity
  8
BEMAßUNG
  0
POLYLINE
  5
58E
330
1F
100
AcDbEntity
  8
BEMAßUNG
 62
     7
100
AcDb2dPolyline
 66
     1
 10
0.0
 20
0.0
 30
0.0
  0
VERTEX
  5
58F
330
58E
100
AcDbEntity
  8
BEMAßUNG
 62
     7
100
AcDbVertex
100
AcDb2dVertex
 10
232.0280422054479
 20
279.8541496424931
 30
0.0
  0
VERTEX
  5
590
330
58E
100
AcDbEntity
  8
BEMAßUNG
 62
     7
100
AcDbVertex
100
AcDb2dVertex
 10
234.7565578297657
 20
279.8541496424931
 30
0.0
  0
SEQEND
  5
591
330
58E
100
AcDbEntity
  8
BEMAßUNG
  0
POLYLINE
  5
592
330
1F
100
AcDbEntity
  8
BEMAßUNG
 62
     7
100
AcDb2dPolyline
 66
     1
 10
0.0
 20
0.0
 30
0.0
  0
VERTEX
  5
593
330
592
100
AcDbEntity
  8
BEMAßUNG
 62
     7
100
AcDbVertex
100
AcDb2dVertex
 10
232.0280422054479
 20
279.9049648009005
 30
0.0
  0
VERTEX
  5
594
330
592
100
AcDbEntity
  8
BEMAßUNG
 62
     7
100
AcDbVertex
100
AcDb2dVertex
 10
235.1420640145652
 20
279.9049648009005
 30
0.0
  0
SEQEND
  5
595
330
592
100
AcDbEntity
  8
BEMAßUNG
  0
POLYLINE
  5
596
330
1F
100
AcDbEntity
  8
BEMAßUNG
 62
     7
100
AcDb2dPolyline
 66
     1
 10
0.0
 20
0.0
 30
0.0
  0
VERTEX
  5
597
330
596
100
AcDbEntity
  8
BEMAßUNG
 62
     7
100
AcDbVertex
100
AcDb2dVertex
 10
232.0280422054479
 20
279.9556938319208
 30
0.0
  0
VERTEX
  5
598
330
596
100
AcDbEntity
  8
BEMAßUNG
 62
     7
100
AcDbVertex
100
AcDb2dVertex
 10
235.5277424541389
 20
279.9556938319208
 30
0.0
  0
SEQEND
  5
599
330
596
100
AcDbEntity
  8
BEMAßUNG
  0
POLYLINE
  5
59A
330
1F
100
AcDbEntity
  8
BEMAßUNG
 62
     7
100
AcDb2dPolyline
 66
     1
 10
0.0
 20
0.0
 30
0.0
  0
VERTEX
  5
59B
330
59A
100
AcDbEntity
  8
BEMAßUNG
 62
     7
100
AcDbVertex
100
AcDb2dVertex
 10
190.5277329710313
 20
279.9556938319208
 30
0.0
  0
VERTEX
  5
59C
330
59A
100
AcDbEntity
  8
BEMAßUNG
 62
     7
100
AcDbVertex
100
AcDb2dVertex
 10
194.0279499840451
 20
279.4949984381558
 30
0.0
  0
VERTEX
  5
59D
330
59A
100
AcDbEntity
  8
BEMAßUNG
 62
     7
100
AcDbVertex
100
AcDb2dVertex
 10
194.0279499840451
 20
280.4160447161373
 30
0.0
  0
VERTEX
  5
59E
330
59A
100
AcDbEntity
  8
BEMAßUNG
 62
     7
100
AcDbVertex
100
AcDb2dVertex
 10
190.5277329710313
 20
279.9556938319208
 30
0.0
  0
SEQEND
  5
59F
330
59A
100
AcDbEntity
  8
BEMAßUNG
  0
POLYLINE
  5
5A0
330
1F
100
AcDbEntity
  8
BEMAßUNG
 62
     7
100
AcDb2dPolyline
 66
     1
 10
0.0
 20
0.0
 30
0.0
  0
VERTEX
  5
5A1
330
5A0
100
AcDbEntity
  8
BEMAßUNG
 62
     7
100
AcDbVertex
100
AcDb2dVertex
 10
194.0279499840451
 20
279.4981851514796
 30
0.0
  0
VERTEX
  5
5A2
330
5A0
100
AcDbEntity
  8
BEMAßUNG
 62
     7
100
AcDbVertex
100
AcDb2dVertex
 10
194.0007337297116
 20
279.4981851514796
 30
0.0
  0
SEQEND
  5
5A3
330
5A0
100
AcDbEntity
  8
BEMAßUNG
  0
POLYLINE
  5
5A4
330
1F
100
AcDbEntity
  8
BEMAßUNG
 62
     7
100
AcDb2dPolyline
 66
     1
 10
0.0
 20
0.0
 30
0.0
  0
VERTEX
  5
5A5
330
5A4
100
AcDbEntity
  8
BEMAßUNG
 62
     7
100
AcDbVertex
100
AcDb2dVertex
 10
194.0279499840451
 20
279.4981851514796
 30
0.0
  0
VERTEX
  5
5A6
330
5A4
100
AcDbEntity
  8
BEMAßUNG
 62
     7
100
AcDbVertex
100
AcDb2dVertex
 10
194.0007337297116
 20
279.4981851514796
 30
0.0
  0
SEQEND
  5
5A7
330
5A4
100
AcDbEntity
  8
BEMAßUNG
  0
POLYLINE
  5
5A8
330
1F
100
AcDbEntity
  8
BEMAßUNG
 62
     7
100
AcDb2dPolyline
 66
     1
 10
0.0
 20
0.0
 30
0.0
  0
VERTEX
  5
5A9
330
5A8
100
AcDbEntity
  8
BEMAßUNG
 62
     7
100
AcDbVertex
100
AcDb2dVertex
 10
194.0279499840451
 20
279.5493448194356
 30
0.0
  0
VERTEX
  5
5AA
330
5A8
100
AcDbEntity
  8
BEMAßUNG
 62
     7
100
AcDbVertex
100
AcDb2dVertex
 10
193.6145385258151
 20
279.5493448194356
 30
0.0
  0
SEQEND
  5
5AB
330
5A8
100
AcDbEntity
  8
BEMAßUNG
  0
POLYLINE
  5
5AC
330
1F
100
AcDbEntity
  8
BEMAßUNG
 62
     7
100
AcDb2dPolyline
 66
     1
 10
0.0
 20
0.0
 30
0.0
  0
VERTEX
  5
5AD
330
5AC
100
AcDbEntity
  8
BEMAßUNG
 62
     7
100
AcDbVertex
100
AcDb2dVertex
 10
194.0279499840451
 20
279.6000738504559
 30
0.0
  0
VERTEX
  5
5AE
330
5AC
100
AcDbEntity
  8
BEMAßUNG
 62
     7
100
AcDbVertex
100
AcDb2dVertex
 10
193.2292045957899
 20
279.6000738504559
 30
0.0
  0
SEQEND
  5
5AF
330
5AC
100
AcDbEntity
  8
BEMAßUNG
  0
POLYLINE
  5
5B0
330
1F
100
AcDbEntity
  8
BEMAßUNG
 62
     7
100
AcDb2dPolyline
 66
     1
 10
0.0
 20
0.0
 30
0.0
  0
VERTEX
  5
5B1
330
5B0
100
AcDbEntity
  8
BEMAßUNG
 62
     7
100
AcDbVertex
100
AcDb2dVertex
 10
194.0279499840451
 20
279.6508890088633
 30
0.0
  0
VERTEX
  5
5B2
330
5B0
100
AcDbEntity
  8
BEMAßUNG
 62
     7
100
AcDbVertex
100
AcDb2dVertex
 10
192.8430093918934
 20
279.6508890088633
 30
0.0
  0
SEQEND
  5
5B3
330
5B0
100
AcDbEntity
  8
BEMAßUNG
  0
POLYLINE
  5
5B4
330
1F
100
AcDbEntity
  8
BEMAßUNG
 62
     7
100
AcDb2dPolyline
 66
     1
 10
0.0
 20
0.0
 30
0.0
  0
VERTEX
  5
5B5
330
5B4
100
AcDbEntity
  8
BEMAßUNG
 62
     7
100
AcDbVertex
100
AcDb2dVertex
 10
194.0279499840451
 20
279.7017041672707
 30
0.0
  0
VERTEX
  5
5B6
330
5B4
100
AcDbEntity
  8
BEMAßUNG
 62
     7
100
AcDbVertex
100
AcDb2dVertex
 10
192.4573309523197
 20
279.7017041672707
 30
0.0
  0
SEQEND
  5
5B7
330
5B4
100
AcDbEntity
  8
BEMAßUNG
  0
POLYLINE
  5
5B8
330
1F
100
AcDbEntity
  8
BEMAßUNG
 62
     7
100
AcDb2dPolyline
 66
     1
 10
0.0
 20
0.0
 30
0.0
  0
VERTEX
  5
5B9
330
5B8
100
AcDbEntity
  8
BEMAßUNG
 62
     7
100
AcDbVertex
100
AcDb2dVertex
 10
194.0279499840451
 20
279.7525193256782
 30
0.0
  0
VERTEX
  5
5BA
330
5B8
100
AcDbEntity
  8
BEMAßUNG
 62
     7
100
AcDbVertex
100
AcDb2dVertex
 10
192.0711357484232
 20
279.7525193256782
 30
0.0
  0
SEQEND
  5
5BB
330
5B8
100
AcDbEntity
  8
BEMAßUNG
  0
POLYLINE
  5
5BC
330
1F
100
AcDbEntity
  8
BEMAßUNG
 62
     7
100
AcDb2dPolyline
 66
     1
 10
0.0
 20
0.0
 30
0.0
  0
VERTEX
  5
5BD
330
5BC
100
AcDbEntity
  8
BEMAßUNG
 62
     7
100
AcDbVertex
100
AcDb2dVertex
 10
194.0279499840451
 20
279.8033344840856
 30
0.0
  0
VERTEX
  5
5BE
330
5BC
100
AcDbEntity
  8
BEMAßUNG
 62
     7
100
AcDbVertex
100
AcDb2dVertex
 10
191.6854573088495
 20
279.8033344840856
 30
0.0
  0
SEQEND
  5
5BF
330
5BC
100
AcDbEntity
  8
BEMAßUNG
  0
POLYLINE
  5
5C0
330
1F
100
AcDbEntity
  8
BEMAßUNG
 62
     7
100
AcDb2dPolyline
 66
     1
 10
0.0
 20
0.0
 30
0.0
  0
VERTEX
  5
5C1
330
5C0
100
AcDbEntity
  8
BEMAßUNG
 62
     7
100
AcDbVertex
100
AcDb2dVertex
 10
194.0279499840451
 20
279.8541496424931
 30
0.0
  0
VERTEX
  5
5C2
330
5C0
100
AcDbEntity
  8
BEMAßUNG
 62
     7
100
AcDbVertex
100
AcDb2dVertex
 10
191.2996066145015
 20
279.8541496424931
 30
0.0
  0
SEQEND
  5
5C3
330
5C0
100
AcDbEntity
  8
BEMAßUNG
  0
POLYLINE
  5
5C4
330
1F
100
AcDbEntity
  8
BEMAßUNG
 62
     7
100
AcDb2dPolyline
 66
     1
 10
0.0
 20
0.0
 30
0.0
  0
VERTEX
  5
5C5
330
5C4
100
AcDbEntity
  8
BEMAßUNG
 62
     7
100
AcDbVertex
100
AcDb2dVertex
 10
194.0279499840451
 20
279.9049648009005
 30
0.0
  0
VERTEX
  5
5C6
330
5C4
100
AcDbEntity
  8
BEMAßUNG
 62
     7
100
AcDbVertex
100
AcDb2dVertex
 10
190.9139281749278
 20
279.9049648009005
 30
0.0
  0
SEQEND
  5
5C7
330
5C4
100
AcDbEntity
  8
BEMAßUNG
  0
POLYLINE
  5
5C8
330
1F
100
AcDbEntity
  8
BEMAßUNG
 62
     7
100
AcDb2dPolyline
 66
     1
 10
0.0
 20
0.0
 30
0.0
  0
VERTEX
  5
5C9
330
5C8
100
AcDbEntity
  8
BEMAßUNG
 62
     7
100
AcDbVertex
100
AcDb2dVertex
 10
194.0279499840451
 20
279.9556938319208
 30
0.0
  0
VERTEX
  5
5CA
330
5C8
100
AcDbEntity
  8
BEMAßUNG
 62
     7
100
AcDbVertex
100
AcDb2dVertex
 10
190.5277329710313
 20
279.9556938319208
 30
0.0
  0
SEQEND
  5
5CB
330
5C8
100
AcDbEntity
  8
BEMAßUNG
  0
POLYLINE
  5
5CC
330
1F
100
AcDbEntity
  8
BEMAßUNG
 62
     7
100
AcDb2dPolyline
 66
     1
 10
0.0
 20
0.0
 30
0.0
  0
VERTEX
  5
5CD
330
5CC
100
AcDbEntity
  8
BEMAßUNG
 62
     7
100
AcDbVertex
100
AcDb2dVertex
 10
194.0279499840451
 20
280.4125996206521
 30
0.0
  0
VERTEX
  5
5CE
330
5CC
100
AcDbEntity
  8
BEMAßUNG
 62
     7
100
AcDbVertex
100
AcDb2dVertex
 10
194.0007337297116
 20
280.4125996206521
 30
0.0
  0
SEQEND
  5
5CF
330
5CC
100
AcDbEntity
  8
BEMAßUNG
  0
POLYLINE
  5
5D0
330
1F
100
AcDbEntity
  8
BEMAßUNG
 62
     7
100
AcDb2dPolyline
 66
     1
 10
0.0
 20
0.0
 30
0.0
  0
VERTEX
  5
5D1
330
5D0
100
AcDbEntity
  8
BEMAßUNG
 62
     7
100
AcDbVertex
100
AcDb2dVertex
 10
194.0279499840451
 20
280.4125996206521
 30
0.0
  0
VERTEX
  5
5D2
330
5D0
100
AcDbEntity
  8
BEMAßUNG
 62
     7
100
AcDbVertex
100
AcDb2dVertex
 10
194.0007337297116
 20
280.4125996206521
 30
0.0
  0
SEQEND
  5
5D3
330
5D0
100
AcDbEntity
  8
BEMAßUNG
  0
POLYLINE
  5
5D4
330
1F
100
AcDbEntity
  8
BEMAßUNG
 62
     7
100
AcDb2dPolyline
 66
     1
 10
0.0
 20
0.0
 30
0.0
  0
VERTEX
  5
5D5
330
5D4
100
AcDbEntity
  8
BEMAßUNG
 62
     7
100
AcDbVertex
100
AcDb2dVertex
 10
194.0279499840451
 20
280.3617844622447
 30
0.0
  0
VERTEX
  5
5D6
330
5D4
100
AcDbEntity
  8
BEMAßUNG
 62
     7
100
AcDbVertex
100
AcDb2dVertex
 10
193.6145385258151
 20
280.3617844622447
 30
0.0
  0
SEQEND
  5
5D7
330
5D4
100
AcDbEntity
  8
BEMAßUNG
  0
POLYLINE
  5
5D8
330
1F
100
AcDbEntity
  8
BEMAßUNG
 62
     7
100
AcDb2dPolyline
 66
     1
 10
0.0
 20
0.0
 30
0.0
  0
VERTEX
  5
5D9
330
5D8
100
AcDbEntity
  8
BEMAßUNG
 62
     7
100
AcDbVertex
100
AcDb2dVertex
 10
194.0279499840451
 20
280.3109693038372
 30
0.0
  0
VERTEX
  5
5DA
330
5D8
100
AcDbEntity
  8
BEMAßUNG
 62
     7
100
AcDbVertex
100
AcDb2dVertex
 10
193.2292045957899
 20
280.3109693038372
 30
0.0
  0
SEQEND
  5
5DB
330
5D8
100
AcDbEntity
  8
BEMAßUNG
  0
POLYLINE
  5
5DC
330
1F
100
AcDbEntity
  8
BEMAßUNG
 62
     7
100
AcDb2dPolyline
 66
     1
 10
0.0
 20
0.0
 30
0.0
  0
VERTEX
  5
5DD
330
5DC
100
AcDbEntity
  8
BEMAßUNG
 62
     7
100
AcDbVertex
100
AcDb2dVertex
 10
194.0279499840451
 20
280.2601541454297
 30
0.0
  0
VERTEX
  5
5DE
330
5DC
100
AcDbEntity
  8
BEMAßUNG
 62
     7
100
AcDbVertex
100
AcDb2dVertex
 10
192.8430093918934
 20
280.2601541454297
 30
0.0
  0
SEQEND
  5
5DF
330
5DC
100
AcDbEntity
  8
BEMAßUNG
  0
POLYLINE
  5
5E0
330
1F
100
AcDbEntity
  8
BEMAßUNG
 62
     7
100
AcDb2dPolyline
 66
     1
 10
0.0
 20
0.0
 30
0.0
  0
VERTEX
  5
5E1
330
5E0
100
AcDbEntity
  8
BEMAßUNG
 62
     7
100
AcDbVertex
100
AcDb2dVertex
 10
194.0279499840451
 20
280.2093389870223
 30
0.0
  0
VERTEX
  5
5E2
330
5E0
100
AcDbEntity
  8
BEMAßUNG
 62
     7
100
AcDbVertex
100
AcDb2dVertex
 10
192.4573309523197
 20
280.2093389870223
 30
0.0
  0
SEQEND
  5
5E3
330
5E0
100
AcDbEntity
  8
BEMAßUNG
  0
POLYLINE
  5
5E4
330
1F
100
AcDbEntity
  8
BEMAßUNG
 62
     7
100
AcDb2dPolyline
 66
     1
 10
0.0
 20
0.0
 30
0.0
  0
VERTEX
  5
5E5
330
5E4
100
AcDbEntity
  8
BEMAßUNG
 62
     7
100
AcDbVertex
100
AcDb2dVertex
 10
194.0279499840451
 20
280.1585238286149
 30
0.0
  0
VERTEX
  5
5E6
330
5E4
100
AcDbEntity
  8
BEMAßUNG
 62
     7
100
AcDbVertex
100
AcDb2dVertex
 10
192.0711357484232
 20
280.1585238286149
 30
0.0
  0
SEQEND
  5
5E7
330
5E4
100
AcDbEntity
  8
BEMAßUNG
  0
POLYLINE
  5
5E8
330
1F
100
AcDbEntity
  8
BEMAßUNG
 62
     7
100
AcDb2dPolyline
 66
     1
 10
0.0
 20
0.0
 30
0.0
  0
VERTEX
  5
5E9
330
5E8
100
AcDbEntity
  8
BEMAßUNG
 62
     7
100
AcDbVertex
100
AcDb2dVertex
 10
194.0279499840451
 20
280.1077947975946
 30
0.0
  0
VERTEX
  5
5EA
330
5E8
100
AcDbEntity
  8
BEMAßUNG
 62
     7
100
AcDbVertex
100
AcDb2dVertex
 10
191.6854573088495
 20
280.1077947975946
 30
0.0
  0
SEQEND
  5
5EB
330
5E8
100
AcDbEntity
  8
BEMAßUNG
  0
POLYLINE
  5
5EC
330
1F
100
AcDbEntity
  8
BEMAßUNG
 62
     7
100
AcDb2dPolyline
 66
     1
 10
0.0
 20
0.0
 30
0.0
  0
VERTEX
  5
5ED
330
5EC
100
AcDbEntity
  8
BEMAßUNG
 62
     7
100
AcDbVertex
100
AcDb2dVertex
 10
194.0279499840451
 20
280.0573241487357
 30
0.0
  0
VERTEX
  5
5EE
330
5EC
100
AcDbEntity
  8
BEMAßUNG
 62
     7
100
AcDbVertex
100
AcDb2dVertex
 10
191.2996066145015
 20
280.0573241487357
 30
0.0
  0
SEQEND
  5
5EF
330
5EC
100
AcDbEntity
  8
BEMAßUNG
  0
POLYLINE
  5
5F0
330
1F
100
AcDbEntity
  8
BEMAßUNG
 62
     7
100
AcDb2dPolyline
 66
     1
 10
0.0
 20
0.0
 30
0.0
  0
VERTEX
  5
5F1
330
5F0
100
AcDbEntity
  8
BEMAßUNG
 62
     7
100
AcDbVertex
100
AcDb2dVertex
 10
194.0279499840451
 20
280.0065089903283
 30
0.0
  0
VERTEX
  5
5F2
330
5F0
100
AcDbEntity
  8
BEMAßUNG
 62
     7
100
AcDbVertex
100
AcDb2dVertex
 10
190.9139281749278
 20
280.0065089903283
 30
0.0
  0
SEQEND
  5
5F3
330
5F0
100
AcDbEntity
  8
BEMAßUNG
  0
POLYLINE
  5
5F4
330
1F
100
AcDbEntity
  8
BEMAßUNG
 62
     7
100
AcDb2dPolyline
 66
     1
 10
0.0
 20
0.0
 30
0.0
  0
VERTEX
  5
5F5
330
5F4
100
AcDbEntity
  8
BEMAßUNG
 62
     7
100
AcDbVertex
100
AcDb2dVertex
 10
194.0279499840451
 20
279.9556938319208
 30
0.0
  0
VERTEX
  5
5F6
330
5F4
100
AcDbEntity
  8
BEMAßUNG
 62
     7
100
AcDbVertex
100
AcDb2dVertex
 10
190.5277329710313
 20
279.9556938319208
 30
0.0
  0
SEQEND
  5
5F7
330
5F4
100
AcDbEntity
  8
BEMAßUNG
  0
POLYLINE
  5
5F8
330
1F
100
AcDbEntity
  8
BEMAßUNG
 62
     7
100
AcDb2dPolyline
 66
     1
 10
0.0
 20
0.0
 30
0.0
  0
VERTEX
  5
5F9
330
5F8
100
AcDbEntity
  8
BEMAßUNG
 62
     7
100
AcDbVertex
100
AcDb2dVertex
 10
235.5246418682022
 20
290.5162895324057
 30
0.0
  0
VERTEX
  5
5FA
330
5F8
100
AcDbEntity
  8
BEMAßUNG
 62
     7
100
AcDbVertex
100
AcDb2dVertex
 10
165.3881821960662
 20
290.5162895324057
 30
0.0
  0
SEQEND
  5
5FB
330
5F8
100
AcDbEntity
  8
BEMAßUNG
  0
POLYLINE
  5
5FC
330
1F
100
AcDbEntity
  8
BEMAßUNG
 62
     7
100
AcDb2dPolyline
 66
     1
 10
0.0
 20
0.0
 30
0.0
  0
VERTEX
  5
5FD
330
5FC
100
AcDbEntity
  8
BEMAßUNG
 62
     7
100
AcDbVertex
100
AcDb2dVertex
 10
235.4197387106763
 20
290.5162895324057
 30
0.0
  0
VERTEX
  5
5FE
330
5FC
100
AcDbEntity
  8
BEMAßUNG
 62
     7
100
AcDbVertex
100
AcDb2dVertex
 10
231.9200384619853
 20
290.9766404166222
 30
0.0
  0
VERTEX
  5
5FF
330
5FC
100
AcDbEntity
  8
BEMAßUNG
 62
     7
100
AcDbVertex
100
AcDb2dVertex
 10
231.9200384619853
 20
290.0555941386406
 30
0.0
  0
VERTEX
  5
600
330
5FC
100
AcDbEntity
  8
BEMAßUNG
 62
     7
100
AcDbVertex
100
AcDb2dVertex
 10
235.4197387106763
 20
290.5162895324057
 30
0.0
  0
SEQEND
  5
601
330
5FC
100
AcDbEntity
  8
BEMAßUNG
  0
POLYLINE
  5
602
330
1F
100
AcDbEntity
  8
BEMAßUNG
 62
     7
100
AcDb2dPolyline
 66
     1
 10
0.0
 20
0.0
 30
0.0
  0
VERTEX
  5
603
330
602
100
AcDbEntity
  8
BEMAßUNG
 62
     7
100
AcDbVertex
100
AcDb2dVertex
 10
231.9200384619853
 20
290.9731953211369
 30
0.0
  0
VERTEX
  5
604
330
602
100
AcDbEntity
  8
BEMAßUNG
 62
     7
100
AcDbVertex
100
AcDb2dVertex
 10
231.9472547163188
 20
290.9731953211369
 30
0.0
  0
SEQEND
  5
605
330
602
100
AcDbEntity
  8
BEMAßUNG
  0
POLYLINE
  5
606
330
1F
100
AcDbEntity
  8
BEMAßUNG
 62
     7
100
AcDb2dPolyline
 66
     1
 10
0.0
 20
0.0
 30
0.0
  0
VERTEX
  5
607
330
606
100
AcDbEntity
  8
BEMAßUNG
 62
     7
100
AcDbVertex
100
AcDb2dVertex
 10
231.9200384619853
 20
290.9731953211369
 30
0.0
  0
VERTEX
  5
608
330
606
100
AcDbEntity
  8
BEMAßUNG
 62
     7
100
AcDbVertex
100
AcDb2dVertex
 10
231.9472547163188
 20
290.9731953211369
 30
0.0
  0
SEQEND
  5
609
330
606
100
AcDbEntity
  8
BEMAßUNG
  0
POLYLINE
  5
60A
330
1F
100
AcDbEntity
  8
BEMAßUNG
 62
     7
100
AcDb2dPolyline
 66
     1
 10
0.0
 20
0.0
 30
0.0
  0
VERTEX
  5
60B
330
60A
100
AcDbEntity
  8
BEMAßUNG
 62
     7
100
AcDbVertex
100
AcDb2dVertex
 10
231.9200384619853
 20
290.9223801627295
 30
0.0
  0
VERTEX
  5
60C
330
60A
100
AcDbEntity
  8
BEMAßUNG
 62
     7
100
AcDbVertex
100
AcDb2dVertex
 10
232.3329331558925
 20
290.9223801627295
 30
0.0
  0
SEQEND
  5
60D
330
60A
100
AcDbEntity
  8
BEMAßUNG
  0
POLYLINE
  5
60E
330
1F
100
AcDbEntity
  8
BEMAßUNG
 62
     7
100
AcDb2dPolyline
 66
     1
 10
0.0
 20
0.0
 30
0.0
  0
VERTEX
  5
60F
330
60E
100
AcDbEntity
  8
BEMAßUNG
 62
     7
100
AcDbVertex
100
AcDb2dVertex
 10
231.9200384619853
 20
290.8715650043221
 30
0.0
  0
VERTEX
  5
610
330
60E
100
AcDbEntity
  8
BEMAßUNG
 62
     7
100
AcDbVertex
100
AcDb2dVertex
 10
232.7187838502404
 20
290.8715650043221
 30
0.0
  0
SEQEND
  5
611
330
60E
100
AcDbEntity
  8
BEMAßUNG
  0
POLYLINE
  5
612
330
1F
100
AcDbEntity
  8
BEMAßUNG
 62
     7
100
AcDb2dPolyline
 66
     1
 10
0.0
 20
0.0
 30
0.0
  0
VERTEX
  5
613
330
612
100
AcDbEntity
  8
BEMAßUNG
 62
     7
100
AcDbVertex
100
AcDb2dVertex
 10
231.9200384619853
 20
290.8207498459146
 30
0.0
  0
VERTEX
  5
614
330
612
100
AcDbEntity
  8
BEMAßUNG
 62
     7
100
AcDbVertex
100
AcDb2dVertex
 10
233.1044622898142
 20
290.8207498459146
 30
0.0
  0
SEQEND
  5
615
330
612
100
AcDbEntity
  8
BEMAßUNG
  0
POLYLINE
  5
616
330
1F
100
AcDbEntity
  8
BEMAßUNG
 62
     7
100
AcDb2dPolyline
 66
     1
 10
0.0
 20
0.0
 30
0.0
  0
VERTEX
  5
617
330
616
100
AcDbEntity
  8
BEMAßUNG
 62
     7
100
AcDbVertex
100
AcDb2dVertex
 10
231.9200384619853
 20
290.7699346875072
 30
0.0
  0
VERTEX
  5
618
330
616
100
AcDbEntity
  8
BEMAßUNG
 62
     7
100
AcDbVertex
100
AcDb2dVertex
 10
233.4906574937107
 20
290.7699346875072
 30
0.0
  0
SEQEND
  5
619
330
616
100
AcDbEntity
  8
BEMAßUNG
  0
POLYLINE
  5
61A
330
1F
100
AcDbEntity
  8
BEMAßUNG
 62
     7
100
AcDb2dPolyline
 66
     1
 10
0.0
 20
0.0
 30
0.0
  0
VERTEX
  5
61B
330
61A
100
AcDbEntity
  8
BEMAßUNG
 62
     7
100
AcDbVertex
100
AcDb2dVertex
 10
231.9200384619853
 20
290.7191195290998
 30
0.0
  0
VERTEX
  5
61C
330
61A
100
AcDbEntity
  8
BEMAßUNG
 62
     7
100
AcDbVertex
100
AcDb2dVertex
 10
233.8763359332844
 20
290.7191195290998
 30
0.0
  0
SEQEND
  5
61D
330
61A
100
AcDbEntity
  8
BEMAßUNG
  0
POLYLINE
  5
61E
330
1F
100
AcDbEntity
  8
BEMAßUNG
 62
     7
100
AcDb2dPolyline
 66
     1
 10
0.0
 20
0.0
 30
0.0
  0
VERTEX
  5
61F
330
61E
100
AcDbEntity
  8
BEMAßUNG
 62
     7
100
AcDbVertex
100
AcDb2dVertex
 10
231.9200384619853
 20
290.6683904980794
 30
0.0
  0
VERTEX
  5
620
330
61E
100
AcDbEntity
  8
BEMAßUNG
 62
     7
100
AcDbVertex
100
AcDb2dVertex
 10
234.2625311371809
 20
290.6683904980794
 30
0.0
  0
SEQEND
  5
621
330
61E
100
AcDbEntity
  8
BEMAßUNG
  0
POLYLINE
  5
622
330
1F
100
AcDbEntity
  8
BEMAßUNG
 62
     7
100
AcDb2dPolyline
 66
     1
 10
0.0
 20
0.0
 30
0.0
  0
VERTEX
  5
623
330
622
100
AcDbEntity
  8
BEMAßUNG
 62
     7
100
AcDbVertex
100
AcDb2dVertex
 10
231.9200384619853
 20
290.6179198492205
 30
0.0
  0
VERTEX
  5
624
330
622
100
AcDbEntity
  8
BEMAßUNG
 62
     7
100
AcDbVertex
100
AcDb2dVertex
 10
234.6485540863031
 20
290.6179198492205
 30
0.0
  0
SEQEND
  5
625
330
622
100
AcDbEntity
  8
BEMAßUNG
  0
POLYLINE
  5
626
330
1F
100
AcDbEntity
  8
BEMAßUNG
 62
     7
100
AcDb2dPolyline
 66
     1
 10
0.0
 20
0.0
 30
0.0
  0
VERTEX
  5
627
330
626
100
AcDbEntity
  8
BEMAßUNG
 62
     7
100
AcDbVertex
100
AcDb2dVertex
 10
231.9200384619853
 20
290.5671046908131
 30
0.0
  0
VERTEX
  5
628
330
626
100
AcDbEntity
  8
BEMAßUNG
 62
     7
100
AcDbVertex
100
AcDb2dVertex
 10
235.0340602711026
 20
290.5671046908131
 30
0.0
  0
SEQEND
  5
629
330
626
100
AcDbEntity
  8
BEMAßUNG
  0
POLYLINE
  5
62A
330
1F
100
AcDbEntity
  8
BEMAßUNG
 62
     7
100
AcDb2dPolyline
 66
     1
 10
0.0
 20
0.0
 30
0.0
  0
VERTEX
  5
62B
330
62A
100
AcDbEntity
  8
BEMAßUNG
 62
     7
100
AcDbVertex
100
AcDb2dVertex
 10
231.9200384619853
 20
290.5162895324057
 30
0.0
  0
VERTEX
  5
62C
330
62A
100
AcDbEntity
  8
BEMAßUNG
 62
     7
100
AcDbVertex
100
AcDb2dVertex
 10
235.4197387106763
 20
290.5162895324057
 30
0.0
  0
SEQEND
  5
62D
330
62A
100
AcDbEntity
  8
BEMAßUNG
  0
POLYLINE
  5
62E
330
1F
100
AcDbEntity
  8
BEMAßUNG
 62
     7
100
AcDb2dPolyline
 66
     1
 10
0.0
 20
0.0
 30
0.0
  0
VERTEX
  5
62F
330
62E
100
AcDbEntity
  8
BEMAßUNG
 62
     7
100
AcDbVertex
100
AcDb2dVertex
 10
231.9200384619853
 20
290.0587808519645
 30
0.0
  0
VERTEX
  5
630
330
62E
100
AcDbEntity
  8
BEMAßUNG
 62
     7
100
AcDbVertex
100
AcDb2dVertex
 10
231.9472547163188
 20
290.0587808519645
 30
0.0
  0
SEQEND
  5
631
330
62E
100
AcDbEntity
  8
BEMAßUNG
  0
POLYLINE
  5
632
330
1F
100
AcDbEntity
  8
BEMAßUNG
 62
     7
100
AcDb2dPolyline
 66
     1
 10
0.0
 20
0.0
 30
0.0
  0
VERTEX
  5
633
330
632
100
AcDbEntity
  8
BEMAßUNG
 62
     7
100
AcDbVertex
100
AcDb2dVertex
 10
231.9200384619853
 20
290.0587808519645
 30
0.0
  0
VERTEX
  5
634
330
632
100
AcDbEntity
  8
BEMAßUNG
 62
     7
100
AcDbVertex
100
AcDb2dVertex
 10
231.9472547163188
 20
290.0587808519645
 30
0.0
  0
SEQEND
  5
635
330
632
100
AcDbEntity
  8
BEMAßUNG
  0
POLYLINE
  5
636
330
1F
100
AcDbEntity
  8
BEMAßUNG
 62
     7
100
AcDb2dPolyline
 66
     1
 10
0.0
 20
0.0
 30
0.0
  0
VERTEX
  5
637
330
636
100
AcDbEntity
  8
BEMAßUNG
 62
     7
100
AcDbVertex
100
AcDb2dVertex
 10
231.9200384619853
 20
290.1099405199204
 30
0.0
  0
VERTEX
  5
638
330
636
100
AcDbEntity
  8
BEMAßUNG
 62
     7
100
AcDbVertex
100
AcDb2dVertex
 10
232.3329331558925
 20
290.1099405199204
 30
0.0
  0
SEQEND
  5
639
330
636
100
AcDbEntity
  8
BEMAßUNG
  0
POLYLINE
  5
63A
330
1F
100
AcDbEntity
  8
BEMAßUNG
 62
     7
100
AcDb2dPolyline
 66
     1
 10
0.0
 20
0.0
 30
0.0
  0
VERTEX
  5
63B
330
63A
100
AcDbEntity
  8
BEMAßUNG
 62
     7
100
AcDbVertex
100
AcDb2dVertex
 10
231.9200384619853
 20
290.1606695509407
 30
0.0
  0
VERTEX
  5
63C
330
63A
100
AcDbEntity
  8
BEMAßUNG
 62
     7
100
AcDbVertex
100
AcDb2dVertex
 10
232.7187838502404
 20
290.1606695509407
 30
0.0
  0
SEQEND
  5
63D
330
63A
100
AcDbEntity
  8
BEMAßUNG
  0
POLYLINE
  5
63E
330
1F
100
AcDbEntity
  8
BEMAßUNG
 62
     7
100
AcDb2dPolyline
 66
     1
 10
0.0
 20
0.0
 30
0.0
  0
VERTEX
  5
63F
330
63E
100
AcDbEntity
  8
BEMAßUNG
 62
     7
100
AcDbVertex
100
AcDb2dVertex
 10
231.9200384619853
 20
290.2114847093482
 30
0.0
  0
VERTEX
  5
640
330
63E
100
AcDbEntity
  8
BEMAßUNG
 62
     7
100
AcDbVertex
100
AcDb2dVertex
 10
233.1044622898142
 20
290.2114847093482
 30
0.0
  0
SEQEND
  5
641
330
63E
100
AcDbEntity
  8
BEMAßUNG
  0
POLYLINE
  5
642
330
1F
100
AcDbEntity
  8
BEMAßUNG
 62
     7
100
AcDb2dPolyline
 66
     1
 10
0.0
 20
0.0
 30
0.0
  0
VERTEX
  5
643
330
642
100
AcDbEntity
  8
BEMAßUNG
 62
     7
100
AcDbVertex
100
AcDb2dVertex
 10
231.9200384619853
 20
290.2622998677556
 30
0.0
  0
VERTEX
  5
644
330
642
100
AcDbEntity
  8
BEMAßUNG
 62
     7
100
AcDbVertex
100
AcDb2dVertex
 10
233.4906574937107
 20
290.2622998677556
 30
0.0
  0
SEQEND
  5
645
330
642
100
AcDbEntity
  8
BEMAßUNG
  0
POLYLINE
  5
646
330
1F
100
AcDbEntity
  8
BEMAßUNG
 62
     7
100
AcDb2dPolyline
 66
     1
 10
0.0
 20
0.0
 30
0.0
  0
VERTEX
  5
647
330
646
100
AcDbEntity
  8
BEMAßUNG
 62
     7
100
AcDbVertex
100
AcDb2dVertex
 10
231.9200384619853
 20
290.3131150261631
 30
0.0
  0
VERTEX
  5
648
330
646
100
AcDbEntity
  8
BEMAßUNG
 62
     7
100
AcDbVertex
100
AcDb2dVertex
 10
233.8763359332844
 20
290.3131150261631
 30
0.0
  0
SEQEND
  5
649
330
646
100
AcDbEntity
  8
BEMAßUNG
  0
POLYLINE
  5
64A
330
1F
100
AcDbEntity
  8
BEMAßUNG
 62
     7
100
AcDb2dPolyline
 66
     1
 10
0.0
 20
0.0
 30
0.0
  0
VERTEX
  5
64B
330
64A
100
AcDbEntity
  8
BEMAßUNG
 62
     7
100
AcDbVertex
100
AcDb2dVertex
 10
231.9200384619853
 20
290.3639301845705
 30
0.0
  0
VERTEX
  5
64C
330
64A
100
AcDbEntity
  8
BEMAßUNG
 62
     7
100
AcDbVertex
100
AcDb2dVertex
 10
234.2625311371809
 20
290.3639301845705
 30
0.0
  0
SEQEND
  5
64D
330
64A
100
AcDbEntity
  8
BEMAßUNG
  0
POLYLINE
  5
64E
330
1F
100
AcDbEntity
  8
BEMAßUNG
 62
     7
100
AcDb2dPolyline
 66
     1
 10
0.0
 20
0.0
 30
0.0
  0
VERTEX
  5
64F
330
64E
100
AcDbEntity
  8
BEMAßUNG
 62
     7
100
AcDbVertex
100
AcDb2dVertex
 10
231.9200384619853
 20
290.4147453429779
 30
0.0
  0
VERTEX
  5
650
330
64E
100
AcDbEntity
  8
BEMAßUNG
 62
     7
100
AcDbVertex
100
AcDb2dVertex
 10
234.6485540863031
 20
290.4147453429779
 30
0.0
  0
SEQEND
  5
651
330
64E
100
AcDbEntity
  8
BEMAßUNG
  0
POLYLINE
  5
652
330
1F
100
AcDbEntity
  8
BEMAßUNG
 62
     7
100
AcDb2dPolyline
 66
     1
 10
0.0
 20
0.0
 30
0.0
  0
VERTEX
  5
653
330
652
100
AcDbEntity
  8
BEMAßUNG
 62
     7
100
AcDbVertex
100
AcDb2dVertex
 10
231.9200384619853
 20
290.4655605013854
 30
0.0
  0
VERTEX
  5
654
330
652
100
AcDbEntity
  8
BEMAßUNG
 62
     7
100
AcDbVertex
100
AcDb2dVertex
 10
235.0340602711026
 20
290.4655605013854
 30
0.0
  0
SEQEND
  5
655
330
652
100
AcDbEntity
  8
BEMAßUNG
  0
POLYLINE
  5
656
330
1F
100
AcDbEntity
  8
BEMAßUNG
 62
     7
100
AcDb2dPolyline
 66
     1
 10
0.0
 20
0.0
 30
0.0
  0
VERTEX
  5
657
330
656
100
AcDbEntity
  8
BEMAßUNG
 62
     7
100
AcDbVertex
100
AcDb2dVertex
 10
231.9200384619853
 20
290.5162895324057
 30
0.0
  0
VERTEX
  5
658
330
656
100
AcDbEntity
  8
BEMAßUNG
 62
     7
100
AcDbVertex
100
AcDb2dVertex
 10
235.4197387106763
 20
290.5162895324057
 30
0.0
  0
SEQEND
  5
659
330
656
100
AcDbEntity
  8
BEMAßUNG
  0
POLYLINE
  5
65A
330
1F
100
AcDbEntity
  8
BEMAßUNG
 62
     7
100
AcDb2dPolyline
 66
     1
 10
0.0
 20
0.0
 30
0.0
  0
VERTEX
  5
65B
330
65A
100
AcDbEntity
  8
BEMAßUNG
 62
     7
100
AcDbVertex
100
AcDb2dVertex
 10
165.5979885111179
 20
290.5162895324057
 30
0.0
  0
VERTEX
  5
65C
330
65A
100
AcDbEntity
  8
BEMAßUNG
 62
     7
100
AcDbVertex
100
AcDb2dVertex
 10
169.0982055241317
 20
290.0555941386406
 30
0.0
  0
VERTEX
  5
65D
330
65A
100
AcDbEntity
  8
BEMAßUNG
 62
     7
100
AcDbVertex
100
AcDb2dVertex
 10
169.0982055241317
 20
290.9766404166222
 30
0.0
  0
VERTEX
  5
65E
330
65A
100
AcDbEntity
  8
BEMAßUNG
 62
     7
100
AcDbVertex
100
AcDb2dVertex
 10
165.5979885111179
 20
290.5162895324057
 30
0.0
  0
SEQEND
  5
65F
330
65A
100
AcDbEntity
  8
BEMAßUNG
  0
POLYLINE
  5
660
330
1F
100
AcDbEntity
  8
BEMAßUNG
 62
     7
100
AcDb2dPolyline
 66
     1
 10
0.0
 20
0.0
 30
0.0
  0
VERTEX
  5
661
330
660
100
AcDbEntity
  8
BEMAßUNG
 62
     7
100
AcDbVertex
100
AcDb2dVertex
 10
169.0982055241317
 20
290.0587808519645
 30
0.0
  0
VERTEX
  5
662
330
660
100
AcDbEntity
  8
BEMAßUNG
 62
     7
100
AcDbVertex
100
AcDb2dVertex
 10
169.0709892697982
 20
290.0587808519645
 30
0.0
  0
SEQEND
  5
663
330
660
100
AcDbEntity
  8
BEMAßUNG
  0
POLYLINE
  5
664
330
1F
100
AcDbEntity
  8
BEMAßUNG
 62
     7
100
AcDb2dPolyline
 66
     1
 10
0.0
 20
0.0
 30
0.0
  0
VERTEX
  5
665
330
664
100
AcDbEntity
  8
BEMAßUNG
 62
     7
100
AcDbVertex
100
AcDb2dVertex
 10
169.0982055241317
 20
290.0587808519645
 30
0.0
  0
VERTEX
  5
666
330
664
100
AcDbEntity
  8
BEMAßUNG
 62
     7
100
AcDbVertex
100
AcDb2dVertex
 10
169.0709892697982
 20
290.0587808519645
 30
0.0
  0
SEQEND
  5
667
330
664
100
AcDbEntity
  8
BEMAßUNG
  0
POLYLINE
  5
668
330
1F
100
AcDbEntity
  8
BEMAßUNG
 62
     7
100
AcDb2dPolyline
 66
     1
 10
0.0
 20
0.0
 30
0.0
  0
VERTEX
  5
669
330
668
100
AcDbEntity
  8
BEMAßUNG
 62
     7
100
AcDbVertex
100
AcDb2dVertex
 10
169.0982055241317
 20
290.1099405199204
 30
0.0
  0
VERTEX
  5
66A
330
668
100
AcDbEntity
  8
BEMAßUNG
 62
     7
100
AcDbVertex
100
AcDb2dVertex
 10
168.6847940659017
 20
290.1099405199204
 30
0.0
  0
SEQEND
  5
66B
330
668
100
AcDbEntity
  8
BEMAßUNG
  0
POLYLINE
  5
66C
330
1F
100
AcDbEntity
  8
BEMAßUNG
 62
     7
100
AcDb2dPolyline
 66
     1
 10
0.0
 20
0.0
 30
0.0
  0
VERTEX
  5
66D
330
66C
100
AcDbEntity
  8
BEMAßUNG
 62
     7
100
AcDbVertex
100
AcDb2dVertex
 10
169.0982055241317
 20
290.1606695509407
 30
0.0
  0
VERTEX
  5
66E
330
66C
100
AcDbEntity
  8
BEMAßUNG
 62
     7
100
AcDbVertex
100
AcDb2dVertex
 10
168.2994601358765
 20
290.1606695509407
 30
0.0
  0
SEQEND
  5
66F
330
66C
100
AcDbEntity
  8
BEMAßUNG
  0
POLYLINE
  5
670
330
1F
100
AcDbEntity
  8
BEMAßUNG
 62
     7
100
AcDb2dPolyline
 66
     1
 10
0.0
 20
0.0
 30
0.0
  0
VERTEX
  5
671
330
670
100
AcDbEntity
  8
BEMAßUNG
 62
     7
100
AcDbVertex
100
AcDb2dVertex
 10
169.0982055241317
 20
290.2114847093482
 30
0.0
  0
VERTEX
  5
672
330
670
100
AcDbEntity
  8
BEMAßUNG
 62
     7
100
AcDbVertex
100
AcDb2dVertex
 10
167.91326493198
 20
290.2114847093482
 30
0.0
  0
SEQEND
  5
673
330
670
100
AcDbEntity
  8
BEMAßUNG
  0
POLYLINE
  5
674
330
1F
100
AcDbEntity
  8
BEMAßUNG
 62
     7
100
AcDb2dPolyline
 66
     1
 10
0.0
 20
0.0
 30
0.0
  0
VERTEX
  5
675
330
674
100
AcDbEntity
  8
BEMAßUNG
 62
     7
100
AcDbVertex
100
AcDb2dVertex
 10
169.0982055241317
 20
290.2622998677556
 30
0.0
  0
VERTEX
  5
676
330
674
100
AcDbEntity
  8
BEMAßUNG
 62
     7
100
AcDbVertex
100
AcDb2dVertex
 10
167.5275864924063
 20
290.2622998677556
 30
0.0
  0
SEQEND
  5
677
330
674
100
AcDbEntity
  8
BEMAßUNG
  0
POLYLINE
  5
678
330
1F
100
AcDbEntity
  8
BEMAßUNG
 62
     7
100
AcDb2dPolyline
 66
     1
 10
0.0
 20
0.0
 30
0.0
  0
VERTEX
  5
679
330
678
100
AcDbEntity
  8
BEMAßUNG
 62
     7
100
AcDbVertex
100
AcDb2dVertex
 10
169.0982055241317
 20
290.3131150261631
 30
0.0
  0
VERTEX
  5
67A
330
678
100
AcDbEntity
  8
BEMAßUNG
 62
     7
100
AcDbVertex
100
AcDb2dVertex
 10
167.1413912885098
 20
290.3131150261631
 30
0.0
  0
SEQEND
  5
67B
330
678
100
AcDbEntity
  8
BEMAßUNG
  0
POLYLINE
  5
67C
330
1F
100
AcDbEntity
  8
BEMAßUNG
 62
     7
100
AcDb2dPolyline
 66
     1
 10
0.0
 20
0.0
 30
0.0
  0
VERTEX
  5
67D
330
67C
100
AcDbEntity
  8
BEMAßUNG
 62
     7
100
AcDbVertex
100
AcDb2dVertex
 10
169.0982055241317
 20
290.3639301845705
 30
0.0
  0
VERTEX
  5
67E
330
67C
100
AcDbEntity
  8
BEMAßUNG
 62
     7
100
AcDbVertex
100
AcDb2dVertex
 10
166.7557128489361
 20
290.3639301845705
 30
0.0
  0
SEQEND
  5
67F
330
67C
100
AcDbEntity
  8
BEMAßUNG
  0
POLYLINE
  5
680
330
1F
100
AcDbEntity
  8
BEMAßUNG
 62
     7
100
AcDb2dPolyline
 66
     1
 10
0.0
 20
0.0
 30
0.0
  0
VERTEX
  5
681
330
680
100
AcDbEntity
  8
BEMAßUNG
 62
     7
100
AcDbVertex
100
AcDb2dVertex
 10
169.0982055241317
 20
290.4147453429779
 30
0.0
  0
VERTEX
  5
682
330
680
100
AcDbEntity
  8
BEMAßUNG
 62
     7
100
AcDbVertex
100
AcDb2dVertex
 10
166.3698621545881
 20
290.4147453429779
 30
0.0
  0
SEQEND
  5
683
330
680
100
AcDbEntity
  8
BEMAßUNG
  0
POLYLINE
  5
684
330
1F
100
AcDbEntity
  8
BEMAßUNG
 62
     7
100
AcDb2dPolyline
 66
     1
 10
0.0
 20
0.0
 30
0.0
  0
VERTEX
  5
685
330
684
100
AcDbEntity
  8
BEMAßUNG
 62
     7
100
AcDbVertex
100
AcDb2dVertex
 10
169.0982055241317
 20
290.4655605013854
 30
0.0
  0
VERTEX
  5
686
330
684
100
AcDbEntity
  8
BEMAßUNG
 62
     7
100
AcDbVertex
100
AcDb2dVertex
 10
165.9841837150144
 20
290.4655605013854
 30
0.0
  0
SEQEND
  5
687
330
684
100
AcDbEntity
  8
BEMAßUNG
  0
POLYLINE
  5
688
330
1F
100
AcDbEntity
  8
BEMAßUNG
 62
     7
100
AcDb2dPolyline
 66
     1
 10
0.0
 20
0.0
 30
0.0
  0
VERTEX
  5
689
330
688
100
AcDbEntity
  8
BEMAßUNG
 62
     7
100
AcDbVertex
100
AcDb2dVertex
 10
169.0982055241317
 20
290.5162895324057
 30
0.0
  0
VERTEX
  5
68A
330
688
100
AcDbEntity
  8
BEMAßUNG
 62
     7
100
AcDbVertex
100
AcDb2dVertex
 10
165.5979885111179
 20
290.5162895324057
 30
0.0
  0
SEQEND
  5
68B
330
688
100
AcDbEntity
  8
BEMAßUNG
  0
POLYLINE
  5
68C
330
1F
100
AcDbEntity
  8
BEMAßUNG
 62
     7
100
AcDb2dPolyline
 66
     1
 10
0.0
 20
0.0
 30
0.0
  0
VERTEX
  5
68D
330
68C
100
AcDbEntity
  8
BEMAßUNG
 62
     7
100
AcDbVertex
100
AcDb2dVertex
 10
169.0982055241317
 20
290.9731953211369
 30
0.0
  0
VERTEX
  5
68E
330
68C
100
AcDbEntity
  8
BEMAßUNG
 62
     7
100
AcDbVertex
100
AcDb2dVertex
 10
169.0709892697982
 20
290.9731953211369
 30
0.0
  0
SEQEND
  5
68F
330
68C
100
AcDbEntity
  8
BEMAßUNG
  0
POLYLINE
  5
690
330
1F
100
AcDbEntity
  8
BEMAßUNG
 62
     7
100
AcDb2dPolyline
 66
     1
 10
0.0
 20
0.0
 30
0.0
  0
VERTEX
  5
691
330
690
100
AcDbEntity
  8
BEMAßUNG
 62
     7
100
AcDbVertex
100
AcDb2dVertex
 10
169.0982055241317
 20
290.9731953211369
 30
0.0
  0
VERTEX
  5
692
330
690
100
AcDbEntity
  8
BEMAßUNG
 62
     7
100
AcDbVertex
100
AcDb2dVertex
 10
169.0709892697982
 20
290.9731953211369
 30
0.0
  0
SEQEND
  5
693
330
690
100
AcDbEntity
  8
BEMAßUNG
  0
POLYLINE
  5
694
330
1F
100
AcDbEntity
  8
BEMAßUNG
 62
     7
100
AcDb2dPolyline
 66
     1
 10
0.0
 20
0.0
 30
0.0
  0
VERTEX
  5
695
330
694
100
AcDbEntity
  8
BEMAßUNG
 62
     7
100
AcDbVertex
100
AcDb2dVertex
 10
169.0982055241317
 20
290.9223801627295
 30
0.0
  0
VERTEX
  5
696
330
694
100
AcDbEntity
  8
BEMAßUNG
 62
     7
100
AcDbVertex
100
AcDb2dVertex
 10
168.6847940659017
 20
290.9223801627295
 30
0.0
  0
SEQEND
  5
697
330
694
100
AcDbEntity
  8
BEMAßUNG
  0
POLYLINE
  5
698
330
1F
100
AcDbEntity
  8
BEMAßUNG
 62
     7
100
AcDb2dPolyline
 66
     1
 10
0.0
 20
0.0
 30
0.0
  0
VERTEX
  5
699
330
698
100
AcDbEntity
  8
BEMAßUNG
 62
     7
100
AcDbVertex
100
AcDb2dVertex
 10
169.0982055241317
 20
290.8715650043221
 30
0.0
  0
VERTEX
  5
69A
330
698
100
AcDbEntity
  8
BEMAßUNG
 62
     7
100
AcDbVertex
100
AcDb2dVertex
 10
168.2994601358765
 20
290.8715650043221
 30
0.0
  0
SEQEND
  5
69B
330
698
100
AcDbEntity
  8
BEMAßUNG
  0
POLYLINE
  5
69C
330
1F
100
AcDbEntity
  8
BEMAßUNG
 62
     7
100
AcDb2dPolyline
 66
     1
 10
0.0
 20
0.0
 30
0.0
  0
VERTEX
  5
69D
330
69C
100
AcDbEntity
  8
BEMAßUNG
 62
     7
100
AcDbVertex
100
AcDb2dVertex
 10
169.0982055241317
 20
290.8207498459146
 30
0.0
  0
VERTEX
  5
69E
330
69C
100
AcDbEntity
  8
BEMAßUNG
 62
     7
100
AcDbVertex
100
AcDb2dVertex
 10
167.91326493198
 20
290.8207498459146
 30
0.0
  0
SEQEND
  5
69F
330
69C
100
AcDbEntity
  8
BEMAßUNG
  0
POLYLINE
  5
6A0
330
1F
100
AcDbEntity
  8
BEMAßUNG
 62
     7
100
AcDb2dPolyline
 66
     1
 10
0.0
 20
0.0
 30
0.0
  0
VERTEX
  5
6A1
330
6A0
100
AcDbEntity
  8
BEMAßUNG
 62
     7
100
AcDbVertex
100
AcDb2dVertex
 10
169.0982055241317
 20
290.7699346875072
 30
0.0
  0
VERTEX
  5
6A2
330
6A0
100
AcDbEntity
  8
BEMAßUNG
 62
     7
100
AcDbVertex
100
AcDb2dVertex
 10
167.5275864924063
 20
290.7699346875072
 30
0.0
  0
SEQEND
  5
6A3
330
6A0
100
AcDbEntity
  8
BEMAßUNG
  0
POLYLINE
  5
6A4
330
1F
100
AcDbEntity
  8
BEMAßUNG
 62
     7
100
AcDb2dPolyline
 66
     1
 10
0.0
 20
0.0
 30
0.0
  0
VERTEX
  5
6A5
330
6A4
100
AcDbEntity
  8
BEMAßUNG
 62
     7
100
AcDbVertex
100
AcDb2dVertex
 10
169.0982055241317
 20
290.7191195290998
 30
0.0
  0
VERTEX
  5
6A6
330
6A4
100
AcDbEntity
  8
BEMAßUNG
 62
     7
100
AcDbVertex
100
AcDb2dVertex
 10
167.1413912885098
 20
290.7191195290998
 30
0.0
  0
SEQEND
  5
6A7
330
6A4
100
AcDbEntity
  8
BEMAßUNG
  0
POLYLINE
  5
6A8
330
1F
100
AcDbEntity
  8
BEMAßUNG
 62
     7
100
AcDb2dPolyline
 66
     1
 10
0.0
 20
0.0
 30
0.0
  0
VERTEX
  5
6A9
330
6A8
100
AcDbEntity
  8
BEMAßUNG
 62
     7
100
AcDbVertex
100
AcDb2dVertex
 10
169.0982055241317
 20
290.6683904980794
 30
0.0
  0
VERTEX
  5
6AA
330
6A8
100
AcDbEntity
  8
BEMAßUNG
 62
     7
100
AcDbVertex
100
AcDb2dVertex
 10
166.7557128489361
 20
290.6683904980794
 30
0.0
  0
SEQEND
  5
6AB
330
6A8
100
AcDbEntity
  8
BEMAßUNG
  0
POLYLINE
  5
6AC
330
1F
100
AcDbEntity
  8
BEMAßUNG
 62
     7
100
AcDb2dPolyline
 66
     1
 10
0.0
 20
0.0
 30
0.0
  0
VERTEX
  5
6AD
330
6AC
100
AcDbEntity
  8
BEMAßUNG
 62
     7
100
AcDbVertex
100
AcDb2dVertex
 10
169.0982055241317
 20
290.6179198492205
 30
0.0
  0
VERTEX
  5
6AE
330
6AC
100
AcDbEntity
  8
BEMAßUNG
 62
     7
100
AcDbVertex
100
AcDb2dVertex
 10
166.3698621545881
 20
290.6179198492205
 30
0.0
  0
SEQEND
  5
6AF
330
6AC
100
AcDbEntity
  8
BEMAßUNG
  0
POLYLINE
  5
6B0
330
1F
100
AcDbEntity
  8
BEMAßUNG
 62
     7
100
AcDb2dPolyline
 66
     1
 10
0.0
 20
0.0
 30
0.0
  0
VERTEX
  5
6B1
330
6B0
100
AcDbEntity
  8
BEMAßUNG
 62
     7
100
AcDbVertex
100
AcDb2dVertex
 10
169.0982055241317
 20
290.5671046908131
 30
0.0
  0
VERTEX
  5
6B2
330
6B0
100
AcDbEntity
  8
BEMAßUNG
 62
     7
100
AcDbVertex
100
AcDb2dVertex
 10
165.9841837150144
 20
290.5671046908131
 30
0.0
  0
SEQEND
  5
6B3
330
6B0
100
AcDbEntity
  8
BEMAßUNG
  0
POLYLINE
  5
6B4
330
1F
100
AcDbEntity
  8
BEMAßUNG
 62
     7
100
AcDb2dPolyline
 66
     1
 10
0.0
 20
0.0
 30
0.0
  0
VERTEX
  5
6B5
330
6B4
100
AcDbEntity
  8
BEMAßUNG
 62
     7
100
AcDbVertex
100
AcDb2dVertex
 10
169.0982055241317
 20
290.5162895324057
 30
0.0
  0
VERTEX
  5
6B6
330
6B4
100
AcDbEntity
  8
BEMAßUNG
 62
     7
100
AcDbVertex
100
AcDb2dVertex
 10
165.5979885111179
 20
290.5162895324057
 30
0.0
  0
SEQEND
  5
6B7
330
6B4
100
AcDbEntity
  8
BEMAßUNG
  0
POLYLINE
  5
6B8
330
1F
100
AcDbEntity
  8
BEMAßUNG
 62
     7
100
AcDb2dPolyline
 66
     1
 10
0.0
 20
0.0
 30
0.0
  0
VERTEX
  5
6B9
330
6B8
100
AcDbEntity
  8
BEMAßUNG
 62
     7
100
AcDbVertex
100
AcDb2dVertex
 10
234.7279635372382
 20
270.6613429770395
 30
0.0
  0
VERTEX
  5
6BA
330
6B8
100
AcDbEntity
  8
BEMAßUNG
 62
     7
100
AcDbVertex
100
AcDb2dVertex
 10
270.3135605878036
 20
270.6613429770395
 30
0.0
  0
SEQEND
  5
6BB
330
6B8
100
AcDbEntity
  8
BEMAßUNG
  0
POLYLINE
  5
6BC
330
1F
100
AcDbEntity
  8
BEMAßUNG
 62
     7
100
AcDb2dPolyline
 66
     1
 10
0.0
 20
0.0
 30
0.0
  0
VERTEX
  5
6BD
330
6BC
100
AcDbEntity
  8
BEMAßUNG
 62
     7
100
AcDbVertex
100
AcDb2dVertex
 10
215.5275851240695
 20
234.6614731943728
 30
0.0
  0
VERTEX
  5
6BE
330
6BC
100
AcDbEntity
  8
BEMAßUNG
 62
     7
100
AcDbVertex
100
AcDb2dVertex
 10
270.3135605878036
 20
234.6614731943728
 30
0.0
  0
SEQEND
  5
6BF
330
6BC
100
AcDbEntity
  8
BEMAßUNG
  0
POLYLINE
  5
6C0
330
1F
100
AcDbEntity
  8
BEMAßUNG
 62
     7
100
AcDb2dPolyline
 66
     1
 10
0.0
 20
0.0
 30
0.0
  0
VERTEX
  5
6C1
330
6C0
100
AcDbEntity
  8
BEMAßUNG
 62
     7
100
AcDbVertex
100
AcDb2dVertex
 10
268.312993639519
 20
270.6613429770395
 30
0.0
  0
VERTEX
  5
6C2
330
6C0
100
AcDbEntity
  8
BEMAßUNG
 62
     7
100
AcDbVertex
100
AcDb2dVertex
 10
268.312993639519
 20
234.6614731943728
 30
0.0
  0
SEQEND
  5
6C3
330
6C0
100
AcDbEntity
  8
BEMAßUNG
  0
POLYLINE
  5
6C4
330
1F
100
AcDbEntity
  8
BEMAßUNG
 62
     7
100
AcDb2dPolyline
 66
     1
 10
0.0
 20
0.0
 30
0.0
  0
VERTEX
  5
6C5
330
6C4
100
AcDbEntity
  8
BEMAßUNG
 62
     7
100
AcDbVertex
100
AcDb2dVertex
 10
268.312993639519
 20
270.6613429770395
 30
0.0
  0
VERTEX
  5
6C6
330
6C4
100
AcDbEntity
  8
BEMAßUNG
 62
     7
100
AcDbVertex
100
AcDb2dVertex
 10
267.8525566279154
 20
267.1611259640257
 30
0.0
  0
VERTEX
  5
6C7
330
6C4
100
AcDbEntity
  8
BEMAßUNG
 62
     7
100
AcDbVertex
100
AcDb2dVertex
 10
268.7739474154454
 20
267.1611259640257
 30
0.0
  0
VERTEX
  5
6C8
330
6C4
100
AcDbEntity
  8
BEMAßUNG
 62
     7
100
AcDbVertex
100
AcDb2dVertex
 10
268.312993639519
 20
270.6613429770395
 30
0.0
  0
SEQEND
  5
6C9
330
6C4
100
AcDbEntity
  8
BEMAßUNG
  0
POLYLINE
  5
6CA
330
1F
100
AcDbEntity
  8
BEMAßUNG
 62
     7
100
AcDb2dPolyline
 66
     1
 10
0.0
 20
0.0
 30
0.0
  0
VERTEX
  5
6CB
330
6CA
100
AcDbEntity
  8
BEMAßUNG
 62
     7
100
AcDbVertex
100
AcDb2dVertex
 10
267.8560017234006
 20
267.1611259640257
 30
0.0
  0
VERTEX
  5
6CC
330
6CA
100
AcDbEntity
  8
BEMAßUNG
 62
     7
100
AcDbVertex
100
AcDb2dVertex
 10
267.8560017234006
 20
267.1882560909721
 30
0.0
  0
SEQEND
  5
6CD
330
6CA
100
AcDbEntity
  8
BEMAßUNG
  0
POLYLINE
  5
6CE
330
1F
100
AcDbEntity
  8
BEMAßUNG
 62
     7
100
AcDb2dPolyline
 66
     1
 10
0.0
 20
0.0
 30
0.0
  0
VERTEX
  5
6CF
330
6CE
100
AcDbEntity
  8
BEMAßUNG
 62
     7
100
AcDbVertex
100
AcDb2dVertex
 10
267.8560017234006
 20
267.1611259640257
 30
0.0
  0
VERTEX
  5
6D0
330
6CE
100
AcDbEntity
  8
BEMAßUNG
 62
     7
100
AcDbVertex
100
AcDb2dVertex
 10
267.8560017234006
 20
267.1882560909721
 30
0.0
  0
SEQEND
  5
6D1
330
6CE
100
AcDbEntity
  8
BEMAßUNG
  0
POLYLINE
  5
6D2
330
1F
100
AcDbEntity
  8
BEMAßUNG
 62
     7
100
AcDb2dPolyline
 66
     1
 10
0.0
 20
0.0
 30
0.0
  0
VERTEX
  5
6D3
330
6D2
100
AcDbEntity
  8
BEMAßUNG
 62
     7
100
AcDbVertex
100
AcDb2dVertex
 10
267.906816881808
 20
267.1611259640257
 30
0.0
  0
VERTEX
  5
6D4
330
6D2
100
AcDbEntity
  8
BEMAßUNG
 62
     7
100
AcDbVertex
100
AcDb2dVertex
 10
267.906816881808
 20
267.5745374222557
 30
0.0
  0
SEQEND
  5
6D5
330
6D2
100
AcDbEntity
  8
BEMAßUNG
  0
POLYLINE
  5
6D6
330
1F
100
AcDbEntity
  8
BEMAßUNG
 62
     7
100
AcDb2dPolyline
 66
     1
 10
0.0
 20
0.0
 30
0.0
  0
VERTEX
  5
6D7
330
6D6
100
AcDbEntity
  8
BEMAßUNG
 62
     7
100
AcDbVertex
100
AcDb2dVertex
 10
267.9576320402155
 20
267.1611259640257
 30
0.0
  0
VERTEX
  5
6D8
330
6D6
100
AcDbEntity
  8
BEMAßUNG
 62
     7
100
AcDbVertex
100
AcDb2dVertex
 10
267.9576320402155
 20
267.9601297344423
 30
0.0
  0
SEQEND
  5
6D9
330
6D6
100
AcDbEntity
  8
BEMAßUNG
  0
POLYLINE
  5
6DA
330
1F
100
AcDbEntity
  8
BEMAßUNG
 62
     7
100
AcDb2dPolyline
 66
     1
 10
0.0
 20
0.0
 30
0.0
  0
VERTEX
  5
6DB
330
6DA
100
AcDbEntity
  8
BEMAßUNG
 62
     7
100
AcDbVertex
100
AcDb2dVertex
 10
268.0081026890743
 20
267.1611259640257
 30
0.0
  0
VERTEX
  5
6DC
330
6DA
100
AcDbEntity
  8
BEMAßUNG
 62
     7
100
AcDbVertex
100
AcDb2dVertex
 10
268.0081026890743
 20
268.3460665561774
 30
0.0
  0
SEQEND
  5
6DD
330
6DA
100
AcDbEntity
  8
BEMAßUNG
  0
POLYLINE
  5
6DE
330
1F
100
AcDbEntity
  8
BEMAßUNG
 62
     7
100
AcDb2dPolyline
 66
     1
 10
0.0
 20
0.0
 30
0.0
  0
VERTEX
  5
6DF
330
6DE
100
AcDbEntity
  8
BEMAßUNG
 62
     7
100
AcDbVertex
100
AcDb2dVertex
 10
268.0589178474818
 20
267.1611259640257
 30
0.0
  0
VERTEX
  5
6E0
330
6DE
100
AcDbEntity
  8
BEMAßUNG
 62
     7
100
AcDbVertex
100
AcDb2dVertex
 10
268.0589178474818
 20
268.731658868364
 30
0.0
  0
SEQEND
  5
6E1
330
6DE
100
AcDbEntity
  8
BEMAßUNG
  0
POLYLINE
  5
6E2
330
1F
100
AcDbEntity
  8
BEMAßUNG
 62
     7
100
AcDb2dPolyline
 66
     1
 10
0.0
 20
0.0
 30
0.0
  0
VERTEX
  5
6E3
330
6E2
100
AcDbEntity
  8
BEMAßUNG
 62
     7
100
AcDbVertex
100
AcDb2dVertex
 10
268.1097330058893
 20
267.1611259640257
 30
0.0
  0
VERTEX
  5
6E4
330
6E2
100
AcDbEntity
  8
BEMAßUNG
 62
     7
100
AcDbVertex
100
AcDb2dVertex
 10
268.1097330058893
 20
269.1179401996476
 30
0.0
  0
SEQEND
  5
6E5
330
6E2
100
AcDbEntity
  8
BEMAßUNG
  0
POLYLINE
  5
6E6
330
1F
100
AcDbEntity
  8
BEMAßUNG
 62
     7
100
AcDb2dPolyline
 66
     1
 10
0.0
 20
0.0
 30
0.0
  0
VERTEX
  5
6E7
330
6E6
100
AcDbEntity
  8
BEMAßUNG
 62
     7
100
AcDbVertex
100
AcDb2dVertex
 10
268.1605481642967
 20
267.1611259640257
 30
0.0
  0
VERTEX
  5
6E8
330
6E6
100
AcDbEntity
  8
BEMAßUNG
 62
     7
100
AcDbVertex
100
AcDb2dVertex
 10
268.1605481642967
 20
269.5035325118342
 30
0.0
  0
SEQEND
  5
6E9
330
6E6
100
AcDbEntity
  8
BEMAßUNG
  0
POLYLINE
  5
6EA
330
1F
100
AcDbEntity
  8
BEMAßUNG
 62
     7
100
AcDb2dPolyline
 66
     1
 10
0.0
 20
0.0
 30
0.0
  0
VERTEX
  5
6EB
330
6EA
100
AcDbEntity
  8
BEMAßUNG
 62
     7
100
AcDbVertex
100
AcDb2dVertex
 10
268.2113633227041
 20
267.1611259640257
 30
0.0
  0
VERTEX
  5
6EC
330
6EA
100
AcDbEntity
  8
BEMAßUNG
 62
     7
100
AcDbVertex
100
AcDb2dVertex
 10
268.2113633227041
 20
269.8894693335693
 30
0.0
  0
SEQEND
  5
6ED
330
6EA
100
AcDbEntity
  8
BEMAßUNG
  0
POLYLINE
  5
6EE
330
1F
100
AcDbEntity
  8
BEMAßUNG
 62
     7
100
AcDb2dPolyline
 66
     1
 10
0.0
 20
0.0
 30
0.0
  0
VERTEX
  5
6EF
330
6EE
100
AcDbEntity
  8
BEMAßUNG
 62
     7
100
AcDbVertex
100
AcDb2dVertex
 10
268.2621784811116
 20
267.1611259640257
 30
0.0
  0
VERTEX
  5
6F0
330
6EE
100
AcDbEntity
  8
BEMAßUNG
 62
     7
100
AcDbVertex
100
AcDb2dVertex
 10
268.2621784811116
 20
270.2750616457559
 30
0.0
  0
SEQEND
  5
6F1
330
6EE
100
AcDbEntity
  8
BEMAßUNG
  0
POLYLINE
  5
6F2
330
1F
100
AcDbEntity
  8
BEMAßUNG
 62
     7
100
AcDb2dPolyline
 66
     1
 10
0.0
 20
0.0
 30
0.0
  0
VERTEX
  5
6F3
330
6F2
100
AcDbEntity
  8
BEMAßUNG
 62
     7
100
AcDbVertex
100
AcDb2dVertex
 10
268.312993639519
 20
267.1611259640257
 30
0.0
  0
VERTEX
  5
6F4
330
6F2
100
AcDbEntity
  8
BEMAßUNG
 62
     7
100
AcDbVertex
100
AcDb2dVertex
 10
268.312993639519
 20
270.6613429770395
 30
0.0
  0
SEQEND
  5
6F5
330
6F2
100
AcDbEntity
  8
BEMAßUNG
  0
POLYLINE
  5
6F6
330
1F
100
AcDbEntity
  8
BEMAßUNG
 62
     7
100
AcDb2dPolyline
 66
     1
 10
0.0
 20
0.0
 30
0.0
  0
VERTEX
  5
6F7
330
6F6
100
AcDbEntity
  8
BEMAßUNG
 62
     7
100
AcDbVertex
100
AcDb2dVertex
 10
268.7705023199601
 20
267.1611259640257
 30
0.0
  0
VERTEX
  5
6F8
330
6F6
100
AcDbEntity
  8
BEMAßUNG
 62
     7
100
AcDbVertex
100
AcDb2dVertex
 10
268.7705023199601
 20
267.1882560909721
 30
0.0
  0
SEQEND
  5
6F9
330
6F6
100
AcDbEntity
  8
BEMAßUNG
  0
POLYLINE
  5
6FA
330
1F
100
AcDbEntity
  8
BEMAßUNG
 62
     7
100
AcDb2dPolyline
 66
     1
 10
0.0
 20
0.0
 30
0.0
  0
VERTEX
  5
6FB
330
6FA
100
AcDbEntity
  8
BEMAßUNG
 62
     7
100
AcDbVertex
100
AcDb2dVertex
 10
268.7705023199601
 20
267.1611259640257
 30
0.0
  0
VERTEX
  5
6FC
330
6FA
100
AcDbEntity
  8
BEMAßUNG
 62
     7
100
AcDbVertex
100
AcDb2dVertex
 10
268.7705023199601
 20
267.1882560909721
 30
0.0
  0
SEQEND
  5
6FD
330
6FA
100
AcDbEntity
  8
BEMAßUNG
  0
POLYLINE
  5
6FE
330
1F
100
AcDbEntity
  8
BEMAßUNG
 62
     7
100
AcDb2dPolyline
 66
     1
 10
0.0
 20
0.0
 30
0.0
  0
VERTEX
  5
6FF
330
6FE
100
AcDbEntity
  8
BEMAßUNG
 62
     7
100
AcDbVertex
100
AcDb2dVertex
 10
268.7196871615527
 20
267.1611259640257
 30
0.0
  0
VERTEX
  5
700
330
6FE
100
AcDbEntity
  8
BEMAßUNG
 62
     7
100
AcDbVertex
100
AcDb2dVertex
 10
268.7196871615527
 20
267.5745374222557
 30
0.0
  0
SEQEND
  5
701
330
6FE
100
AcDbEntity
  8
BEMAßUNG
  0
POLYLINE
  5
702
330
1F
100
AcDbEntity
  8
BEMAßUNG
 62
     7
100
AcDb2dPolyline
 66
     1
 10
0.0
 20
0.0
 30
0.0
  0
VERTEX
  5
703
330
702
100
AcDbEntity
  8
BEMAßUNG
 62
     7
100
AcDbVertex
100
AcDb2dVertex
 10
268.6688720031453
 20
267.1611259640257
 30
0.0
  0
VERTEX
  5
704
330
702
100
AcDbEntity
  8
BEMAßUNG
 62
     7
100
AcDbVertex
100
AcDb2dVertex
 10
268.6688720031453
 20
267.9601297344423
 30
0.0
  0
SEQEND
  5
705
330
702
100
AcDbEntity
  8
BEMAßUNG
  0
POLYLINE
  5
706
330
1F
100
AcDbEntity
  8
BEMAßUNG
 62
     7
100
AcDb2dPolyline
 66
     1
 10
0.0
 20
0.0
 30
0.0
  0
VERTEX
  5
707
330
706
100
AcDbEntity
  8
BEMAßUNG
 62
     7
100
AcDbVertex
100
AcDb2dVertex
 10
268.6180568447379
 20
267.1611259640257
 30
0.0
  0
VERTEX
  5
708
330
706
100
AcDbEntity
  8
BEMAßUNG
 62
     7
100
AcDbVertex
100
AcDb2dVertex
 10
268.6180568447379
 20
268.3460665561774
 30
0.0
  0
SEQEND
  5
709
330
706
100
AcDbEntity
  8
BEMAßUNG
  0
POLYLINE
  5
70A
330
1F
100
AcDbEntity
  8
BEMAßUNG
 62
     7
100
AcDb2dPolyline
 66
     1
 10
0.0
 20
0.0
 30
0.0
  0
VERTEX
  5
70B
330
70A
100
AcDbEntity
  8
BEMAßUNG
 62
     7
100
AcDbVertex
100
AcDb2dVertex
 10
268.5672416863304
 20
267.1611259640257
 30
0.0
  0
VERTEX
  5
70C
330
70A
100
AcDbEntity
  8
BEMAßUNG
 62
     7
100
AcDbVertex
100
AcDb2dVertex
 10
268.5672416863304
 20
268.731658868364
 30
0.0
  0
SEQEND
  5
70D
330
70A
100
AcDbEntity
  8
BEMAßUNG
  0
POLYLINE
  5
70E
330
1F
100
AcDbEntity
  8
BEMAßUNG
 62
     7
100
AcDb2dPolyline
 66
     1
 10
0.0
 20
0.0
 30
0.0
  0
VERTEX
  5
70F
330
70E
100
AcDbEntity
  8
BEMAßUNG
 62
     7
100
AcDbVertex
100
AcDb2dVertex
 10
268.516426527923
 20
267.1611259640257
 30
0.0
  0
VERTEX
  5
710
330
70E
100
AcDbEntity
  8
BEMAßUNG
 62
     7
100
AcDbVertex
100
AcDb2dVertex
 10
268.516426527923
 20
269.1179401996476
 30
0.0
  0
SEQEND
  5
711
330
70E
100
AcDbEntity
  8
BEMAßUNG
  0
POLYLINE
  5
712
330
1F
100
AcDbEntity
  8
BEMAßUNG
 62
     7
100
AcDb2dPolyline
 66
     1
 10
0.0
 20
0.0
 30
0.0
  0
VERTEX
  5
713
330
712
100
AcDbEntity
  8
BEMAßUNG
 62
     7
100
AcDbVertex
100
AcDb2dVertex
 10
268.465266859967
 20
267.1611259640257
 30
0.0
  0
VERTEX
  5
714
330
712
100
AcDbEntity
  8
BEMAßUNG
 62
     7
100
AcDbVertex
100
AcDb2dVertex
 10
268.465266859967
 20
269.5035325118342
 30
0.0
  0
SEQEND
  5
715
330
712
100
AcDbEntity
  8
BEMAßUNG
  0
POLYLINE
  5
716
330
1F
100
AcDbEntity
  8
BEMAßUNG
 62
     7
100
AcDb2dPolyline
 66
     1
 10
0.0
 20
0.0
 30
0.0
  0
VERTEX
  5
717
330
716
100
AcDbEntity
  8
BEMAßUNG
 62
     7
100
AcDbVertex
100
AcDb2dVertex
 10
268.4144517015596
 20
267.1611259640257
 30
0.0
  0
VERTEX
  5
718
330
716
100
AcDbEntity
  8
BEMAßUNG
 62
     7
100
AcDbVertex
100
AcDb2dVertex
 10
268.4144517015596
 20
269.8894693335693
 30
0.0
  0
SEQEND
  5
719
330
716
100
AcDbEntity
  8
BEMAßUNG
  0
POLYLINE
  5
71A
330
1F
100
AcDbEntity
  8
BEMAßUNG
 62
     7
100
AcDb2dPolyline
 66
     1
 10
0.0
 20
0.0
 30
0.0
  0
VERTEX
  5
71B
330
71A
100
AcDbEntity
  8
BEMAßUNG
 62
     7
100
AcDbVertex
100
AcDb2dVertex
 10
268.3636365431522
 20
267.1611259640257
 30
0.0
  0
VERTEX
  5
71C
330
71A
100
AcDbEntity
  8
BEMAßUNG
 62
     7
100
AcDbVertex
100
AcDb2dVertex
 10
268.3636365431522
 20
270.2750616457559
 30
0.0
  0
SEQEND
  5
71D
330
71A
100
AcDbEntity
  8
BEMAßUNG
  0
POLYLINE
  5
71E
330
1F
100
AcDbEntity
  8
BEMAßUNG
 62
     7
100
AcDb2dPolyline
 66
     1
 10
0.0
 20
0.0
 30
0.0
  0
VERTEX
  5
71F
330
71E
100
AcDbEntity
  8
BEMAßUNG
 62
     7
100
AcDbVertex
100
AcDb2dVertex
 10
268.312993639519
 20
267.1611259640257
 30
0.0
  0
VERTEX
  5
720
330
71E
100
AcDbEntity
  8
BEMAßUNG
 62
     7
100
AcDbVertex
100
AcDb2dVertex
 10
268.312993639519
 20
270.6613429770395
 30
0.0
  0
SEQEND
  5
721
330
71E
100
AcDbEntity
  8
BEMAßUNG
  0
POLYLINE
  5
722
330
1F
100
AcDbEntity
  8
BEMAßUNG
 62
     7
100
AcDb2dPolyline
 66
     1
 10
0.0
 20
0.0
 30
0.0
  0
VERTEX
  5
723
330
722
100
AcDbEntity
  8
BEMAßUNG
 62
     7
100
AcDbVertex
100
AcDb2dVertex
 10
268.312993639519
 20
234.6614731943728
 30
0.0
  0
VERTEX
  5
724
330
722
100
AcDbEntity
  8
BEMAßUNG
 62
     7
100
AcDbVertex
100
AcDb2dVertex
 10
268.7739474154454
 20
238.1610011882896
 30
0.0
  0
VERTEX
  5
725
330
722
100
AcDbEntity
  8
BEMAßUNG
 62
     7
100
AcDbVertex
100
AcDb2dVertex
 10
267.8525566279154
 20
238.1610011882896
 30
0.0
  0
VERTEX
  5
726
330
722
100
AcDbEntity
  8
BEMAßUNG
 62
     7
100
AcDbVertex
100
AcDb2dVertex
 10
268.312993639519
 20
234.6614731943728
 30
0.0
  0
SEQEND
  5
727
330
722
100
AcDbEntity
  8
BEMAßUNG
  0
POLYLINE
  5
728
330
1F
100
AcDbEntity
  8
BEMAßUNG
 62
     7
100
AcDb2dPolyline
 66
     1
 10
0.0
 20
0.0
 30
0.0
  0
VERTEX
  5
729
330
728
100
AcDbEntity
  8
BEMAßUNG
 62
     7
100
AcDbVertex
100
AcDb2dVertex
 10
268.7705023199601
 20
238.1610011882896
 30
0.0
  0
VERTEX
  5
72A
330
728
100
AcDbEntity
  8
BEMAßUNG
 62
     7
100
AcDbVertex
100
AcDb2dVertex
 10
268.7705023199601
 20
238.1337849339562
 30
0.0
  0
SEQEND
  5
72B
330
728
100
AcDbEntity
  8
BEMAßUNG
  0
POLYLINE
  5
72C
330
1F
100
AcDbEntity
  8
BEMAßUNG
 62
     7
100
AcDb2dPolyline
 66
     1
 10
0.0
 20
0.0
 30
0.0
  0
VERTEX
  5
72D
330
72C
100
AcDbEntity
  8
BEMAßUNG
 62
     7
100
AcDbVertex
100
AcDb2dVertex
 10
268.7705023199601
 20
238.1610011882896
 30
0.0
  0
VERTEX
  5
72E
330
72C
100
AcDbEntity
  8
BEMAßUNG
 62
     7
100
AcDbVertex
100
AcDb2dVertex
 10
268.7705023199601
 20
238.1337849339562
 30
0.0
  0
SEQEND
  5
72F
330
72C
100
AcDbEntity
  8
BEMAßUNG
  0
POLYLINE
  5
730
330
1F
100
AcDbEntity
  8
BEMAßUNG
 62
     7
100
AcDb2dPolyline
 66
     1
 10
0.0
 20
0.0
 30
0.0
  0
VERTEX
  5
731
330
730
100
AcDbEntity
  8
BEMAßUNG
 62
     7
100
AcDbVertex
100
AcDb2dVertex
 10
268.7196871615527
 20
238.1610011882896
 30
0.0
  0
VERTEX
  5
732
330
730
100
AcDbEntity
  8
BEMAßUNG
 62
     7
100
AcDbVertex
100
AcDb2dVertex
 10
268.7196871615527
 20
237.7482787491567
 30
0.0
  0
SEQEND
  5
733
330
730
100
AcDbEntity
  8
BEMAßUNG
  0
POLYLINE
  5
734
330
1F
100
AcDbEntity
  8
BEMAßUNG
 62
     7
100
AcDb2dPolyline
 66
     1
 10
0.0
 20
0.0
 30
0.0
  0
VERTEX
  5
735
330
734
100
AcDbEntity
  8
BEMAßUNG
 62
     7
100
AcDbVertex
100
AcDb2dVertex
 10
268.6688720031453
 20
238.1610011882896
 30
0.0
  0
VERTEX
  5
736
330
734
100
AcDbEntity
  8
BEMAßUNG
 62
     7
100
AcDbVertex
100
AcDb2dVertex
 10
268.6688720031453
 20
237.3619112904859
 30
0.0
  0
SEQEND
  5
737
330
734
100
AcDbEntity
  8
BEMAßUNG
  0
POLYLINE
  5
738
330
1F
100
AcDbEntity
  8
BEMAßUNG
 62
     7
100
AcDb2dPolyline
 66
     1
 10
0.0
 20
0.0
 30
0.0
  0
VERTEX
  5
739
330
738
100
AcDbEntity
  8
BEMAßUNG
 62
     7
100
AcDbVertex
100
AcDb2dVertex
 10
268.6180568447379
 20
238.1610011882896
 30
0.0
  0
VERTEX
  5
73A
330
738
100
AcDbEntity
  8
BEMAßUNG
 62
     7
100
AcDbVertex
100
AcDb2dVertex
 10
268.6180568447379
 20
236.9764051056865
 30
0.0
  0
SEQEND
  5
73B
330
738
100
AcDbEntity
  8
BEMAßUNG
  0
POLYLINE
  5
73C
330
1F
100
AcDbEntity
  8
BEMAßUNG
 62
     7
100
AcDb2dPolyline
 66
     1
 10
0.0
 20
0.0
 30
0.0
  0
VERTEX
  5
73D
330
73C
100
AcDbEntity
  8
BEMAßUNG
 62
     7
100
AcDbVertex
100
AcDb2dVertex
 10
268.5672416863304
 20
238.1610011882896
 30
0.0
  0
VERTEX
  5
73E
330
73C
100
AcDbEntity
  8
BEMAßUNG
 62
     7
100
AcDbVertex
100
AcDb2dVertex
 10
268.5672416863304
 20
236.5903821565642
 30
0.0
  0
SEQEND
  5
73F
330
73C
100
AcDbEntity
  8
BEMAßUNG
  0
POLYLINE
  5
740
330
1F
100
AcDbEntity
  8
BEMAßUNG
 62
     7
100
AcDb2dPolyline
 66
     1
 10
0.0
 20
0.0
 30
0.0
  0
VERTEX
  5
741
330
740
100
AcDbEntity
  8
BEMAßUNG
 62
     7
100
AcDbVertex
100
AcDb2dVertex
 10
268.516426527923
 20
238.1610011882896
 30
0.0
  0
VERTEX
  5
742
330
740
100
AcDbEntity
  8
BEMAßUNG
 62
     7
100
AcDbVertex
100
AcDb2dVertex
 10
268.516426527923
 20
236.2048759717647
 30
0.0
  0
SEQEND
  5
743
330
740
100
AcDbEntity
  8
BEMAßUNG
  0
POLYLINE
  5
744
330
1F
100
AcDbEntity
  8
BEMAßUNG
 62
     7
100
AcDb2dPolyline
 66
     1
 10
0.0
 20
0.0
 30
0.0
  0
VERTEX
  5
745
330
744
100
AcDbEntity
  8
BEMAßUNG
 62
     7
100
AcDbVertex
100
AcDb2dVertex
 10
268.465266859967
 20
238.1610011882896
 30
0.0
  0
VERTEX
  5
746
330
744
100
AcDbEntity
  8
BEMAßUNG
 62
     7
100
AcDbVertex
100
AcDb2dVertex
 10
268.465266859967
 20
235.818508513094
 30
0.0
  0
SEQEND
  5
747
330
744
100
AcDbEntity
  8
BEMAßUNG
  0
POLYLINE
  5
748
330
1F
100
AcDbEntity
  8
BEMAßUNG
 62
     7
100
AcDb2dPolyline
 66
     1
 10
0.0
 20
0.0
 30
0.0
  0
VERTEX
  5
749
330
748
100
AcDbEntity
  8
BEMAßUNG
 62
     7
100
AcDbVertex
100
AcDb2dVertex
 10
268.4144517015596
 20
238.1610011882896
 30
0.0
  0
VERTEX
  5
74A
330
748
100
AcDbEntity
  8
BEMAßUNG
 62
     7
100
AcDbVertex
100
AcDb2dVertex
 10
268.4144517015596
 20
235.4330023282945
 30
0.0
  0
SEQEND
  5
74B
330
748
100
AcDbEntity
  8
BEMAßUNG
  0
POLYLINE
  5
74C
330
1F
100
AcDbEntity
  8
BEMAßUNG
 62
     7
100
AcDb2dPolyline
 66
     1
 10
0.0
 20
0.0
 30
0.0
  0
VERTEX
  5
74D
330
74C
100
AcDbEntity
  8
BEMAßUNG
 62
     7
100
AcDbVertex
100
AcDb2dVertex
 10
268.3636365431522
 20
238.1610011882896
 30
0.0
  0
VERTEX
  5
74E
330
74C
100
AcDbEntity
  8
BEMAßUNG
 62
     7
100
AcDbVertex
100
AcDb2dVertex
 10
268.3636365431522
 20
235.0466348696238
 30
0.0
  0
SEQEND
  5
74F
330
74C
100
AcDbEntity
  8
BEMAßUNG
  0
POLYLINE
  5
750
330
1F
100
AcDbEntity
  8
BEMAßUNG
 62
     7
100
AcDb2dPolyline
 66
     1
 10
0.0
 20
0.0
 30
0.0
  0
VERTEX
  5
751
330
750
100
AcDbEntity
  8
BEMAßUNG
 62
     7
100
AcDbVertex
100
AcDb2dVertex
 10
268.312993639519
 20
238.1610011882896
 30
0.0
  0
VERTEX
  5
752
330
750
100
AcDbEntity
  8
BEMAßUNG
 62
     7
100
AcDbVertex
100
AcDb2dVertex
 10
268.312993639519
 20
234.6614731943728
 30
0.0
  0
SEQEND
  5
753
330
750
100
AcDbEntity
  8
BEMAßUNG
  0
POLYLINE
  5
754
330
1F
100
AcDbEntity
  8
BEMAßUNG
 62
     7
100
AcDb2dPolyline
 66
     1
 10
0.0
 20
0.0
 30
0.0
  0
VERTEX
  5
755
330
754
100
AcDbEntity
  8
BEMAßUNG
 62
     7
100
AcDbVertex
100
AcDb2dVertex
 10
267.8560017234006
 20
238.1610011882896
 30
0.0
  0
VERTEX
  5
756
330
754
100
AcDbEntity
  8
BEMAßUNG
 62
     7
100
AcDbVertex
100
AcDb2dVertex
 10
267.8560017234006
 20
238.1337849339562
 30
0.0
  0
SEQEND
  5
757
330
754
100
AcDbEntity
  8
BEMAßUNG
  0
POLYLINE
  5
758
330
1F
100
AcDbEntity
  8
BEMAßUNG
 62
     7
100
AcDb2dPolyline
 66
     1
 10
0.0
 20
0.0
 30
0.0
  0
VERTEX
  5
759
330
758
100
AcDbEntity
  8
BEMAßUNG
 62
     7
100
AcDbVertex
100
AcDb2dVertex
 10
267.8560017234006
 20
238.1610011882896
 30
0.0
  0
VERTEX
  5
75A
330
758
100
AcDbEntity
  8
BEMAßUNG
 62
     7
100
AcDbVertex
100
AcDb2dVertex
 10
267.8560017234006
 20
238.1337849339562
 30
0.0
  0
SEQEND
  5
75B
330
758
100
AcDbEntity
  8
BEMAßUNG
  0
POLYLINE
  5
75C
330
1F
100
AcDbEntity
  8
BEMAßUNG
 62
     7
100
AcDb2dPolyline
 66
     1
 10
0.0
 20
0.0
 30
0.0
  0
VERTEX
  5
75D
330
75C
100
AcDbEntity
  8
BEMAßUNG
 62
     7
100
AcDbVertex
100
AcDb2dVertex
 10
267.906816881808
 20
238.1610011882896
 30
0.0
  0
VERTEX
  5
75E
330
75C
100
AcDbEntity
  8
BEMAßUNG
 62
     7
100
AcDbVertex
100
AcDb2dVertex
 10
267.906816881808
 20
237.7482787491567
 30
0.0
  0
SEQEND
  5
75F
330
75C
100
AcDbEntity
  8
BEMAßUNG
  0
POLYLINE
  5
760
330
1F
100
AcDbEntity
  8
BEMAßUNG
 62
     7
100
AcDb2dPolyline
 66
     1
 10
0.0
 20
0.0
 30
0.0
  0
VERTEX
  5
761
330
760
100
AcDbEntity
  8
BEMAßUNG
 62
     7
100
AcDbVertex
100
AcDb2dVertex
 10
267.9576320402155
 20
238.1610011882896
 30
0.0
  0
VERTEX
  5
762
330
760
100
AcDbEntity
  8
BEMAßUNG
 62
     7
100
AcDbVertex
100
AcDb2dVertex
 10
267.9576320402155
 20
237.3619112904859
 30
0.0
  0
SEQEND
  5
763
330
760
100
AcDbEntity
  8
BEMAßUNG
  0
POLYLINE
  5
764
330
1F
100
AcDbEntity
  8
BEMAßUNG
 62
     7
100
AcDb2dPolyline
 66
     1
 10
0.0
 20
0.0
 30
0.0
  0
VERTEX
  5
765
330
764
100
AcDbEntity
  8
BEMAßUNG
 62
     7
100
AcDbVertex
100
AcDb2dVertex
 10
268.0081026890743
 20
238.1610011882896
 30
0.0
  0
VERTEX
  5
766
330
764
100
AcDbEntity
  8
BEMAßUNG
 62
     7
100
AcDbVertex
100
AcDb2dVertex
 10
268.0081026890743
 20
236.9764051056865
 30
0.0
  0
SEQEND
  5
767
330
764
100
AcDbEntity
  8
BEMAßUNG
  0
POLYLINE
  5
768
330
1F
100
AcDbEntity
  8
BEMAßUNG
 62
     7
100
AcDb2dPolyline
 66
     1
 10
0.0
 20
0.0
 30
0.0
  0
VERTEX
  5
769
330
768
100
AcDbEntity
  8
BEMAßUNG
 62
     7
100
AcDbVertex
100
AcDb2dVertex
 10
268.0589178474818
 20
238.1610011882896
 30
0.0
  0
VERTEX
  5
76A
330
768
100
AcDbEntity
  8
BEMAßUNG
 62
     7
100
AcDbVertex
100
AcDb2dVertex
 10
268.0589178474818
 20
236.5903821565642
 30
0.0
  0
SEQEND
  5
76B
330
768
100
AcDbEntity
  8
BEMAßUNG
  0
POLYLINE
  5
76C
330
1F
100
AcDbEntity
  8
BEMAßUNG
 62
     7
100
AcDb2dPolyline
 66
     1
 10
0.0
 20
0.0
 30
0.0
  0
VERTEX
  5
76D
330
76C
100
AcDbEntity
  8
BEMAßUNG
 62
     7
100
AcDbVertex
100
AcDb2dVertex
 10
268.1097330058893
 20
238.1610011882896
 30
0.0
  0
VERTEX
  5
76E
330
76C
100
AcDbEntity
  8
BEMAßUNG
 62
     7
100
AcDbVertex
100
AcDb2dVertex
 10
268.1097330058893
 20
236.2048759717647
 30
0.0
  0
SEQEND
  5
76F
330
76C
100
AcDbEntity
  8
BEMAßUNG
  0
POLYLINE
  5
770
330
1F
100
AcDbEntity
  8
BEMAßUNG
 62
     7
100
AcDb2dPolyline
 66
     1
 10
0.0
 20
0.0
 30
0.0
  0
VERTEX
  5
771
330
770
100
AcDbEntity
  8
BEMAßUNG
 62
     7
100
AcDbVertex
100
AcDb2dVertex
 10
268.1605481642967
 20
238.1610011882896
 30
0.0
  0
VERTEX
  5
772
330
770
100
AcDbEntity
  8
BEMAßUNG
 62
     7
100
AcDbVertex
100
AcDb2dVertex
 10
268.1605481642967
 20
235.818508513094
 30
0.0
  0
SEQEND
  5
773
330
770
100
AcDbEntity
  8
BEMAßUNG
  0
POLYLINE
  5
774
330
1F
100
AcDbEntity
  8
BEMAßUNG
 62
     7
100
AcDb2dPolyline
 66
     1
 10
0.0
 20
0.0
 30
0.0
  0
VERTEX
  5
775
330
774
100
AcDbEntity
  8
BEMAßUNG
 62
     7
100
AcDbVertex
100
AcDb2dVertex
 10
268.2113633227041
 20
238.1610011882896
 30
0.0
  0
VERTEX
  5
776
330
774
100
AcDbEntity
  8
BEMAßUNG
 62
     7
100
AcDbVertex
100
AcDb2dVertex
 10
268.2113633227041
 20
235.4330023282945
 30
0.0
  0
SEQEND
  5
777
330
774
100
AcDbEntity
  8
BEMAßUNG
  0
POLYLINE
  5
778
330
1F
100
AcDbEntity
  8
BEMAßUNG
 62
     7
100
AcDb2dPolyline
 66
     1
 10
0.0
 20
0.0
 30
0.0
  0
VERTEX
  5
779
330
778
100
AcDbEntity
  8
BEMAßUNG
 62
     7
100
AcDbVertex
100
AcDb2dVertex
 10
268.2621784811116
 20
238.1610011882896
 30
0.0
  0
VERTEX
  5
77A
330
778
100
AcDbEntity
  8
BEMAßUNG
 62
     7
100
AcDbVertex
100
AcDb2dVertex
 10
268.2621784811116
 20
235.0466348696238
 30
0.0
  0
SEQEND
  5
77B
330
778
100
AcDbEntity
  8
BEMAßUNG
  0
POLYLINE
  5
77C
330
1F
100
AcDbEntity
  8
BEMAßUNG
 62
     7
100
AcDb2dPolyline
 66
     1
 10
0.0
 20
0.0
 30
0.0
  0
VERTEX
  5
77D
330
77C
100
AcDbEntity
  8
BEMAßUNG
 62
     7
100
AcDbVertex
100
AcDb2dVertex
 10
268.312993639519
 20
238.1610011882896
 30
0.0
  0
VERTEX
  5
77E
330
77C
100
AcDbEntity
  8
BEMAßUNG
 62
     7
100
AcDbVertex
100
AcDb2dVertex
 10
268.312993639519
 20
234.6614731943728
 30
0.0
  0
SEQEND
  5
77F
330
77C
100
AcDbEntity
  8
BEMAßUNG
  0
POLYLINE
  5
780
330
1F
100
AcDbEntity
  8
BEMAßUNG
 62
     7
100
AcDb2dPolyline
 66
     1
 10
0.0
 20
0.0
 30
0.0
  0
VERTEX
  5
781
330
780
100
AcDbEntity
  8
BEMAßUNG
 62
     7
100
AcDbVertex
100
AcDb2dVertex
 10
215.5275851240695
 20
234.6614731943728
 30
0.0
  0
VERTEX
  5
782
330
780
100
AcDbEntity
  8
BEMAßUNG
 62
     7
100
AcDbVertex
100
AcDb2dVertex
 10
258.2119736767665
 20
234.6614731943728
 30
0.0
  0
SEQEND
  5
783
330
780
100
AcDbEntity
  8
BEMAßUNG
  0
POLYLINE
  5
784
330
1F
100
AcDbEntity
  8
BEMAßUNG
 62
     7
100
AcDb2dPolyline
 66
     1
 10
0.0
 20
0.0
 30
0.0
  0
VERTEX
  5
785
330
784
100
AcDbEntity
  8
BEMAßUNG
 62
     7
100
AcDbVertex
100
AcDb2dVertex
 10
215.5275851240695
 20
234.1114637001527
 30
0.0
  0
VERTEX
  5
786
330
784
100
AcDbEntity
  8
BEMAßUNG
 62
     7
100
AcDbVertex
100
AcDb2dVertex
 10
258.2119736767665
 20
234.1114637001527
 30
0.0
  0
SEQEND
  5
787
330
784
100
AcDbEntity
  8
BEMAßUNG
  0
POLYLINE
  5
788
330
1F
100
AcDbEntity
  8
BEMAßUNG
 62
     7
100
AcDb2dPolyline
 66
     1
 10
0.0
 20
0.0
 30
0.0
  0
VERTEX
  5
789
330
788
100
AcDbEntity
  8
BEMAßUNG
 62
     7
100
AcDbVertex
100
AcDb2dVertex
 10
256.2124402571275
 20
225.3607489128439
 30
0.0
  0
VERTEX
  5
78A
330
788
100
AcDbEntity
  8
BEMAßUNG
 62
     7
100
AcDbVertex
100
AcDb2dVertex
 10
256.2124402571275
 20
245.53333327195
 30
0.0
  0
SEQEND
  5
78B
330
788
100
AcDbEntity
  8
BEMAßUNG
  0
POLYLINE
  5
78C
330
1F
100
AcDbEntity
  8
BEMAßUNG
 62
     7
100
AcDb2dPolyline
 66
     1
 10
0.0
 20
0.0
 30
0.0
  0
VERTEX
  5
78D
330
78C
100
AcDbEntity
  8
BEMAßUNG
 62
     7
100
AcDbVertex
100
AcDb2dVertex
 10
256.2124402571275
 20
234.6614731943728
 30
0.0
  0
VERTEX
  5
78E
330
78C
100
AcDbEntity
  8
BEMAßUNG
 62
     7
100
AcDbVertex
100
AcDb2dVertex
 10
256.6732217782796
 20
238.1610011882896
 30
0.0
  0
VERTEX
  5
78F
330
78C
100
AcDbEntity
  8
BEMAßUNG
 62
     7
100
AcDbVertex
100
AcDb2dVertex
 10
255.7511419716525
 20
238.1610011882896
 30
0.0
  0
VERTEX
  5
790
330
78C
100
AcDbEntity
  8
BEMAßUNG
 62
     7
100
AcDbVertex
100
AcDb2dVertex
 10
256.2124402571275
 20
234.6614731943728
 30
0.0
  0
SEQEND
  5
791
330
78C
100
AcDbEntity
  8
BEMAßUNG
  0
POLYLINE
  5
792
330
1F
100
AcDbEntity
  8
BEMAßUNG
 62
     7
100
AcDb2dPolyline
 66
     1
 10
0.0
 20
0.0
 30
0.0
  0
VERTEX
  5
793
330
792
100
AcDbEntity
  8
BEMAßUNG
 62
     7
100
AcDbVertex
100
AcDb2dVertex
 10
256.6692599184716
 20
238.1610011882896
 30
0.0
  0
VERTEX
  5
794
330
792
100
AcDbEntity
  8
BEMAßUNG
 62
     7
100
AcDbVertex
100
AcDb2dVertex
 10
256.6692599184716
 20
238.1337849339562
 30
0.0
  0
SEQEND
  5
795
330
792
100
AcDbEntity
  8
BEMAßUNG
  0
POLYLINE
  5
796
330
1F
100
AcDbEntity
  8
BEMAßUNG
 62
     7
100
AcDb2dPolyline
 66
     1
 10
0.0
 20
0.0
 30
0.0
  0
VERTEX
  5
797
330
796
100
AcDbEntity
  8
BEMAßUNG
 62
     7
100
AcDbVertex
100
AcDb2dVertex
 10
256.6692599184716
 20
238.1610011882896
 30
0.0
  0
VERTEX
  5
798
330
796
100
AcDbEntity
  8
BEMAßUNG
 62
     7
100
AcDbVertex
100
AcDb2dVertex
 10
256.6692599184716
 20
238.1337849339562
 30
0.0
  0
SEQEND
  5
799
330
796
100
AcDbEntity
  8
BEMAßUNG
  0
POLYLINE
  5
79A
330
1F
100
AcDbEntity
  8
BEMAßUNG
 62
     7
100
AcDb2dPolyline
 66
     1
 10
0.0
 20
0.0
 30
0.0
  0
VERTEX
  5
79B
330
79A
100
AcDbEntity
  8
BEMAßUNG
 62
     7
100
AcDbVertex
100
AcDb2dVertex
 10
256.6186170148384
 20
238.1610011882896
 30
0.0
  0
VERTEX
  5
79C
330
79A
100
AcDbEntity
  8
BEMAßUNG
 62
     7
100
AcDbVertex
100
AcDb2dVertex
 10
256.6186170148384
 20
237.7482787491567
 30
0.0
  0
SEQEND
  5
79D
330
79A
100
AcDbEntity
  8
BEMAßUNG
  0
POLYLINE
  5
79E
330
1F
100
AcDbEntity
  8
BEMAßUNG
 62
     7
100
AcDb2dPolyline
 66
     1
 10
0.0
 20
0.0
 30
0.0
  0
VERTEX
  5
79F
330
79E
100
AcDbEntity
  8
BEMAßUNG
 62
     7
100
AcDbVertex
100
AcDb2dVertex
 10
256.5681463659795
 20
238.1610011882896
 30
0.0
  0
VERTEX
  5
7A0
330
79E
100
AcDbEntity
  8
BEMAßUNG
 62
     7
100
AcDbVertex
100
AcDb2dVertex
 10
256.5681463659795
 20
237.3619112904859
 30
0.0
  0
SEQEND
  5
7A1
330
79E
100
AcDbEntity
  8
BEMAßUNG
  0
POLYLINE
  5
7A2
330
1F
100
AcDbEntity
  8
BEMAßUNG
 62
     7
100
AcDb2dPolyline
 66
     1
 10
0.0
 20
0.0
 30
0.0
  0
VERTEX
  5
7A3
330
7A2
100
AcDbEntity
  8
BEMAßUNG
 62
     7
100
AcDbVertex
100
AcDb2dVertex
 10
256.5173312075721
 20
238.1610011882896
 30
0.0
  0
VERTEX
  5
7A4
330
7A2
100
AcDbEntity
  8
BEMAßUNG
 62
     7
100
AcDbVertex
100
AcDb2dVertex
 10
256.5173312075721
 20
236.9764051056865
 30
0.0
  0
SEQEND
  5
7A5
330
7A2
100
AcDbEntity
  8
BEMAßUNG
  0
POLYLINE
  5
7A6
330
1F
100
AcDbEntity
  8
BEMAßUNG
 62
     7
100
AcDb2dPolyline
 66
     1
 10
0.0
 20
0.0
 30
0.0
  0
VERTEX
  5
7A7
330
7A6
100
AcDbEntity
  8
BEMAßUNG
 62
     7
100
AcDbVertex
100
AcDb2dVertex
 10
256.4665160491646
 20
238.1610011882896
 30
0.0
  0
VERTEX
  5
7A8
330
7A6
100
AcDbEntity
  8
BEMAßUNG
 62
     7
100
AcDbVertex
100
AcDb2dVertex
 10
256.4665160491646
 20
236.5903821565642
 30
0.0
  0
SEQEND
  5
7A9
330
7A6
100
AcDbEntity
  8
BEMAßUNG
  0
POLYLINE
  5
7AA
330
1F
100
AcDbEntity
  8
BEMAßUNG
 62
     7
100
AcDb2dPolyline
 66
     1
 10
0.0
 20
0.0
 30
0.0
  0
VERTEX
  5
7AB
330
7AA
100
AcDbEntity
  8
BEMAßUNG
 62
     7
100
AcDbVertex
100
AcDb2dVertex
 10
256.4157008907572
 20
238.1610011882896
 30
0.0
  0
VERTEX
  5
7AC
330
7AA
100
AcDbEntity
  8
BEMAßUNG
 62
     7
100
AcDbVertex
100
AcDb2dVertex
 10
256.4157008907572
 20
236.2048759717647
 30
0.0
  0
SEQEND
  5
7AD
330
7AA
100
AcDbEntity
  8
BEMAßUNG
  0
POLYLINE
  5
7AE
330
1F
100
AcDbEntity
  8
BEMAßUNG
 62
     7
100
AcDb2dPolyline
 66
     1
 10
0.0
 20
0.0
 30
0.0
  0
VERTEX
  5
7AF
330
7AE
100
AcDbEntity
  8
BEMAßUNG
 62
     7
100
AcDbVertex
100
AcDb2dVertex
 10
256.3648857323498
 20
238.1610011882896
 30
0.0
  0
VERTEX
  5
7B0
330
7AE
100
AcDbEntity
  8
BEMAßUNG
 62
     7
100
AcDbVertex
100
AcDb2dVertex
 10
256.3648857323498
 20
235.818508513094
 30
0.0
  0
SEQEND
  5
7B1
330
7AE
100
AcDbEntity
  8
BEMAßUNG
  0
POLYLINE
  5
7B2
330
1F
100
AcDbEntity
  8
BEMAßUNG
 62
     7
100
AcDb2dPolyline
 66
     1
 10
0.0
 20
0.0
 30
0.0
  0
VERTEX
  5
7B3
330
7B2
100
AcDbEntity
  8
BEMAßUNG
 62
     7
100
AcDbVertex
100
AcDb2dVertex
 10
256.3140705739423
 20
238.1610011882896
 30
0.0
  0
VERTEX
  5
7B4
330
7B2
100
AcDbEntity
  8
BEMAßUNG
 62
     7
100
AcDbVertex
100
AcDb2dVertex
 10
256.3140705739423
 20
235.4330023282945
 30
0.0
  0
SEQEND
  5
7B5
330
7B2
100
AcDbEntity
  8
BEMAßUNG
  0
POLYLINE
  5
7B6
330
1F
100
AcDbEntity
  8
BEMAßUNG
 62
     7
100
AcDb2dPolyline
 66
     1
 10
0.0
 20
0.0
 30
0.0
  0
VERTEX
  5
7B7
330
7B6
100
AcDbEntity
  8
BEMAßUNG
 62
     7
100
AcDbVertex
100
AcDb2dVertex
 10
256.2632554155349
 20
238.1610011882896
 30
0.0
  0
VERTEX
  5
7B8
330
7B6
100
AcDbEntity
  8
BEMAßUNG
 62
     7
100
AcDbVertex
100
AcDb2dVertex
 10
256.2632554155349
 20
235.0466348696238
 30
0.0
  0
SEQEND
  5
7B9
330
7B6
100
AcDbEntity
  8
BEMAßUNG
  0
POLYLINE
  5
7BA
330
1F
100
AcDbEntity
  8
BEMAßUNG
 62
     7
100
AcDb2dPolyline
 66
     1
 10
0.0
 20
0.0
 30
0.0
  0
VERTEX
  5
7BB
330
7BA
100
AcDbEntity
  8
BEMAßUNG
 62
     7
100
AcDbVertex
100
AcDb2dVertex
 10
256.2124402571275
 20
238.1610011882896
 30
0.0
  0
VERTEX
  5
7BC
330
7BA
100
AcDbEntity
  8
BEMAßUNG
 62
     7
100
AcDbVertex
100
AcDb2dVertex
 10
256.2124402571275
 20
234.6614731943728
 30
0.0
  0
SEQEND
  5
7BD
330
7BA
100
AcDbEntity
  8
BEMAßUNG
  0
POLYLINE
  5
7BE
330
1F
100
AcDbEntity
  8
BEMAßUNG
 62
     7
100
AcDb2dPolyline
 66
     1
 10
0.0
 20
0.0
 30
0.0
  0
VERTEX
  5
7BF
330
7BE
100
AcDbEntity
  8
BEMAßUNG
 62
     7
100
AcDbVertex
100
AcDb2dVertex
 10
255.7549315766863
 20
238.1610011882896
 30
0.0
  0
VERTEX
  5
7C0
330
7BE
100
AcDbEntity
  8
BEMAßUNG
 62
     7
100
AcDbVertex
100
AcDb2dVertex
 10
255.7549315766863
 20
238.1337849339562
 30
0.0
  0
SEQEND
  5
7C1
330
7BE
100
AcDbEntity
  8
BEMAßUNG
  0
POLYLINE
  5
7C2
330
1F
100
AcDbEntity
  8
BEMAßUNG
 62
     7
100
AcDb2dPolyline
 66
     1
 10
0.0
 20
0.0
 30
0.0
  0
VERTEX
  5
7C3
330
7C2
100
AcDbEntity
  8
BEMAßUNG
 62
     7
100
AcDbVertex
100
AcDb2dVertex
 10
255.7549315766863
 20
238.1610011882896
 30
0.0
  0
VERTEX
  5
7C4
330
7C2
100
AcDbEntity
  8
BEMAßUNG
 62
     7
100
AcDbVertex
100
AcDb2dVertex
 10
255.7549315766863
 20
238.1337849339562
 30
0.0
  0
SEQEND
  5
7C5
330
7C2
100
AcDbEntity
  8
BEMAßUNG
  0
POLYLINE
  5
7C6
330
1F
100
AcDbEntity
  8
BEMAßUNG
 62
     7
100
AcDb2dPolyline
 66
     1
 10
0.0
 20
0.0
 30
0.0
  0
VERTEX
  5
7C7
330
7C6
100
AcDbEntity
  8
BEMAßUNG
 62
     7
100
AcDbVertex
100
AcDb2dVertex
 10
255.8057467350937
 20
238.1610011882896
 30
0.0
  0
VERTEX
  5
7C8
330
7C6
100
AcDbEntity
  8
BEMAßUNG
 62
     7
100
AcDbVertex
100
AcDb2dVertex
 10
255.8057467350937
 20
237.7482787491567
 30
0.0
  0
SEQEND
  5
7C9
330
7C6
100
AcDbEntity
  8
BEMAßUNG
  0
POLYLINE
  5
7CA
330
1F
100
AcDbEntity
  8
BEMAßUNG
 62
     7
100
AcDb2dPolyline
 66
     1
 10
0.0
 20
0.0
 30
0.0
  0
VERTEX
  5
7CB
330
7CA
100
AcDbEntity
  8
BEMAßUNG
 62
     7
100
AcDbVertex
100
AcDb2dVertex
 10
255.8565618935012
 20
238.1610011882896
 30
0.0
  0
VERTEX
  5
7CC
330
7CA
100
AcDbEntity
  8
BEMAßUNG
 62
     7
100
AcDbVertex
100
AcDb2dVertex
 10
255.8565618935012
 20
237.3619112904859
 30
0.0
  0
SEQEND
  5
7CD
330
7CA
100
AcDbEntity
  8
BEMAßUNG
  0
POLYLINE
  5
7CE
330
1F
100
AcDbEntity
  8
BEMAßUNG
 62
     7
100
AcDb2dPolyline
 66
     1
 10
0.0
 20
0.0
 30
0.0
  0
VERTEX
  5
7CF
330
7CE
100
AcDbEntity
  8
BEMAßUNG
 62
     7
100
AcDbVertex
100
AcDb2dVertex
 10
255.9073770519086
 20
238.1610011882896
 30
0.0
  0
VERTEX
  5
7D0
330
7CE
100
AcDbEntity
  8
BEMAßUNG
 62
     7
100
AcDbVertex
100
AcDb2dVertex
 10
255.9073770519086
 20
236.9764051056865
 30
0.0
  0
SEQEND
  5
7D1
330
7CE
100
AcDbEntity
  8
BEMAßUNG
  0
POLYLINE
  5
7D2
330
1F
100
AcDbEntity
  8
BEMAßUNG
 62
     7
100
AcDb2dPolyline
 66
     1
 10
0.0
 20
0.0
 30
0.0
  0
VERTEX
  5
7D3
330
7D2
100
AcDbEntity
  8
BEMAßUNG
 62
     7
100
AcDbVertex
100
AcDb2dVertex
 10
255.958192210316
 20
238.1610011882896
 30
0.0
  0
VERTEX
  5
7D4
330
7D2
100
AcDbEntity
  8
BEMAßUNG
 62
     7
100
AcDbVertex
100
AcDb2dVertex
 10
255.958192210316
 20
236.5903821565642
 30
0.0
  0
SEQEND
  5
7D5
330
7D2
100
AcDbEntity
  8
BEMAßUNG
  0
POLYLINE
  5
7D6
330
1F
100
AcDbEntity
  8
BEMAßUNG
 62
     7
100
AcDb2dPolyline
 66
     1
 10
0.0
 20
0.0
 30
0.0
  0
VERTEX
  5
7D7
330
7D6
100
AcDbEntity
  8
BEMAßUNG
 62
     7
100
AcDbVertex
100
AcDb2dVertex
 10
256.0090073687235
 20
238.1610011882896
 30
0.0
  0
VERTEX
  5
7D8
330
7D6
100
AcDbEntity
  8
BEMAßUNG
 62
     7
100
AcDbVertex
100
AcDb2dVertex
 10
256.0090073687235
 20
236.2048759717647
 30
0.0
  0
SEQEND
  5
7D9
330
7D6
100
AcDbEntity
  8
BEMAßUNG
  0
POLYLINE
  5
7DA
330
1F
100
AcDbEntity
  8
BEMAßUNG
 62
     7
100
AcDb2dPolyline
 66
     1
 10
0.0
 20
0.0
 30
0.0
  0
VERTEX
  5
7DB
330
7DA
100
AcDbEntity
  8
BEMAßUNG
 62
     7
100
AcDbVertex
100
AcDb2dVertex
 10
256.0598225271309
 20
238.1610011882896
 30
0.0
  0
VERTEX
  5
7DC
330
7DA
100
AcDbEntity
  8
BEMAßUNG
 62
     7
100
AcDbVertex
100
AcDb2dVertex
 10
256.0598225271309
 20
235.818508513094
 30
0.0
  0
SEQEND
  5
7DD
330
7DA
100
AcDbEntity
  8
BEMAßUNG
  0
POLYLINE
  5
7DE
330
1F
100
AcDbEntity
  8
BEMAßUNG
 62
     7
100
AcDb2dPolyline
 66
     1
 10
0.0
 20
0.0
 30
0.0
  0
VERTEX
  5
7DF
330
7DE
100
AcDbEntity
  8
BEMAßUNG
 62
     7
100
AcDbVertex
100
AcDb2dVertex
 10
256.1109821950869
 20
238.1610011882896
 30
0.0
  0
VERTEX
  5
7E0
330
7DE
100
AcDbEntity
  8
BEMAßUNG
 62
     7
100
AcDbVertex
100
AcDb2dVertex
 10
256.1109821950869
 20
235.4330023282945
 30
0.0
  0
SEQEND
  5
7E1
330
7DE
100
AcDbEntity
  8
BEMAßUNG
  0
POLYLINE
  5
7E2
330
1F
100
AcDbEntity
  8
BEMAßUNG
 62
     7
100
AcDb2dPolyline
 66
     1
 10
0.0
 20
0.0
 30
0.0
  0
VERTEX
  5
7E3
330
7E2
100
AcDbEntity
  8
BEMAßUNG
 62
     7
100
AcDbVertex
100
AcDb2dVertex
 10
256.16162509872
 20
238.1610011882896
 30
0.0
  0
VERTEX
  5
7E4
330
7E2
100
AcDbEntity
  8
BEMAßUNG
 62
     7
100
AcDbVertex
100
AcDb2dVertex
 10
256.16162509872
 20
235.0466348696238
 30
0.0
  0
SEQEND
  5
7E5
330
7E2
100
AcDbEntity
  8
BEMAßUNG
  0
POLYLINE
  5
7E6
330
1F
100
AcDbEntity
  8
BEMAßUNG
 62
     7
100
AcDb2dPolyline
 66
     1
 10
0.0
 20
0.0
 30
0.0
  0
VERTEX
  5
7E7
330
7E6
100
AcDbEntity
  8
BEMAßUNG
 62
     7
100
AcDbVertex
100
AcDb2dVertex
 10
256.2124402571275
 20
238.1610011882896
 30
0.0
  0
VERTEX
  5
7E8
330
7E6
100
AcDbEntity
  8
BEMAßUNG
 62
     7
100
AcDbVertex
100
AcDb2dVertex
 10
256.2124402571275
 20
234.6614731943728
 30
0.0
  0
SEQEND
  5
7E9
330
7E6
100
AcDbEntity
  8
BEMAßUNG
  0
POLYLINE
  5
7EA
330
1F
100
AcDbEntity
  8
BEMAßUNG
 62
     7
100
AcDb2dPolyline
 66
     1
 10
0.0
 20
0.0
 30
0.0
  0
VERTEX
  5
7EB
330
7EA
100
AcDbEntity
  8
BEMAßUNG
 62
     7
100
AcDbVertex
100
AcDb2dVertex
 10
256.2124402571275
 20
234.1114637001527
 30
0.0
  0
VERTEX
  5
7EC
330
7EA
100
AcDbEntity
  8
BEMAßUNG
 62
     7
100
AcDbVertex
100
AcDb2dVertex
 10
255.7511419716525
 20
230.6112466871389
 30
0.0
  0
VERTEX
  5
7ED
330
7EA
100
AcDbEntity
  8
BEMAßUNG
 62
     7
100
AcDbVertex
100
AcDb2dVertex
 10
256.6732217782796
 20
230.6112466871389
 30
0.0
  0
VERTEX
  5
7EE
330
7EA
100
AcDbEntity
  8
BEMAßUNG
 62
     7
100
AcDbVertex
100
AcDb2dVertex
 10
256.2124402571275
 20
234.1114637001527
 30
0.0
  0
SEQEND
  5
7EF
330
7EA
100
AcDbEntity
  8
BEMAßUNG
  0
POLYLINE
  5
7F0
330
1F
100
AcDbEntity
  8
BEMAßUNG
 62
     7
100
AcDb2dPolyline
 66
     1
 10
0.0
 20
0.0
 30
0.0
  0
VERTEX
  5
7F1
330
7F0
100
AcDbEntity
  8
BEMAßUNG
 62
     7
100
AcDbVertex
100
AcDb2dVertex
 10
255.7549315766863
 20
230.6112466871389
 30
0.0
  0
VERTEX
  5
7F2
330
7F0
100
AcDbEntity
  8
BEMAßUNG
 62
     7
100
AcDbVertex
100
AcDb2dVertex
 10
255.7549315766863
 20
230.6382906866981
 30
0.0
  0
SEQEND
  5
7F3
330
7F0
100
AcDbEntity
  8
BEMAßUNG
  0
POLYLINE
  5
7F4
330
1F
100
AcDbEntity
  8
BEMAßUNG
 62
     7
100
AcDb2dPolyline
 66
     1
 10
0.0
 20
0.0
 30
0.0
  0
VERTEX
  5
7F5
330
7F4
100
AcDbEntity
  8
BEMAßUNG
 62
     7
100
AcDbVertex
100
AcDb2dVertex
 10
255.7549315766863
 20
230.6112466871389
 30
0.0
  0
VERTEX
  5
7F6
330
7F4
100
AcDbEntity
  8
BEMAßUNG
 62
     7
100
AcDbVertex
100
AcDb2dVertex
 10
255.7549315766863
 20
230.6382906866981
 30
0.0
  0
SEQEND
  5
7F7
330
7F4
100
AcDbEntity
  8
BEMAßUNG
  0
POLYLINE
  5
7F8
330
1F
100
AcDbEntity
  8
BEMAßUNG
 62
     7
100
AcDb2dPolyline
 66
     1
 10
0.0
 20
0.0
 30
0.0
  0
VERTEX
  5
7F9
330
7F8
100
AcDbEntity
  8
BEMAßUNG
 62
     7
100
AcDbVertex
100
AcDb2dVertex
 10
255.8057467350937
 20
230.6112466871389
 30
0.0
  0
VERTEX
  5
7FA
330
7F8
100
AcDbEntity
  8
BEMAßUNG
 62
     7
100
AcDbVertex
100
AcDb2dVertex
 10
255.8057467350937
 20
231.0239691262718
 30
0.0
  0
SEQEND
  5
7FB
330
7F8
100
AcDbEntity
  8
BEMAßUNG
  0
POLYLINE
  5
7FC
330
1F
100
AcDbEntity
  8
BEMAßUNG
 62
     7
100
AcDb2dPolyline
 66
     1
 10
0.0
 20
0.0
 30
0.0
  0
VERTEX
  5
7FD
330
7FC
100
AcDbEntity
  8
BEMAßUNG
 62
     7
100
AcDbVertex
100
AcDb2dVertex
 10
255.8565618935012
 20
230.6112466871389
 30
0.0
  0
VERTEX
  5
7FE
330
7FC
100
AcDbEntity
  8
BEMAßUNG
 62
     7
100
AcDbVertex
100
AcDb2dVertex
 10
255.8565618935012
 20
231.4101643301683
 30
0.0
  0
SEQEND
  5
7FF
330
7FC
100
AcDbEntity
  8
BEMAßUNG
  0
POLYLINE
  5
800
330
1F
100
AcDbEntity
  8
BEMAßUNG
 62
     7
100
AcDb2dPolyline
 66
     1
 10
0.0
 20
0.0
 30
0.0
  0
VERTEX
  5
801
330
800
100
AcDbEntity
  8
BEMAßUNG
 62
     7
100
AcDbVertex
100
AcDb2dVertex
 10
255.9073770519086
 20
230.6112466871389
 30
0.0
  0
VERTEX
  5
802
330
800
100
AcDbEntity
  8
BEMAßUNG
 62
     7
100
AcDbVertex
100
AcDb2dVertex
 10
255.9073770519086
 20
231.795842769742
 30
0.0
  0
SEQEND
  5
803
330
800
100
AcDbEntity
  8
BEMAßUNG
  0
POLYLINE
  5
804
330
1F
100
AcDbEntity
  8
BEMAßUNG
 62
     7
100
AcDb2dPolyline
 66
     1
 10
0.0
 20
0.0
 30
0.0
  0
VERTEX
  5
805
330
804
100
AcDbEntity
  8
BEMAßUNG
 62
     7
100
AcDbVertex
100
AcDb2dVertex
 10
255.958192210316
 20
230.6112466871389
 30
0.0
  0
VERTEX
  5
806
330
804
100
AcDbEntity
  8
BEMAßUNG
 62
     7
100
AcDbVertex
100
AcDb2dVertex
 10
255.958192210316
 20
232.18169346409
 30
0.0
  0
SEQEND
  5
807
330
804
100
AcDbEntity
  8
BEMAßUNG
  0
POLYLINE
  5
808
330
1F
100
AcDbEntity
  8
BEMAßUNG
 62
     7
100
AcDb2dPolyline
 66
     1
 10
0.0
 20
0.0
 30
0.0
  0
VERTEX
  5
809
330
808
100
AcDbEntity
  8
BEMAßUNG
 62
     7
100
AcDbVertex
100
AcDb2dVertex
 10
256.0090073687235
 20
230.6112466871389
 30
0.0
  0
VERTEX
  5
80A
330
808
100
AcDbEntity
  8
BEMAßUNG
 62
     7
100
AcDbVertex
100
AcDb2dVertex
 10
256.0090073687235
 20
232.5673719036637
 30
0.0
  0
SEQEND
  5
80B
330
808
100
AcDbEntity
  8
BEMAßUNG
  0
POLYLINE
  5
80C
330
1F
100
AcDbEntity
  8
BEMAßUNG
 62
     7
100
AcDb2dPolyline
 66
     1
 10
0.0
 20
0.0
 30
0.0
  0
VERTEX
  5
80D
330
80C
100
AcDbEntity
  8
BEMAßUNG
 62
     7
100
AcDbVertex
100
AcDb2dVertex
 10
256.0598225271309
 20
230.6112466871389
 30
0.0
  0
VERTEX
  5
80E
330
80C
100
AcDbEntity
  8
BEMAßUNG
 62
     7
100
AcDbVertex
100
AcDb2dVertex
 10
256.0598225271309
 20
232.9535671075602
 30
0.0
  0
SEQEND
  5
80F
330
80C
100
AcDbEntity
  8
BEMAßUNG
  0
POLYLINE
  5
810
330
1F
100
AcDbEntity
  8
BEMAßUNG
 62
     7
100
AcDb2dPolyline
 66
     1
 10
0.0
 20
0.0
 30
0.0
  0
VERTEX
  5
811
330
810
100
AcDbEntity
  8
BEMAßUNG
 62
     7
100
AcDbVertex
100
AcDb2dVertex
 10
256.1109821950869
 20
230.6112466871389
 30
0.0
  0
VERTEX
  5
812
330
810
100
AcDbEntity
  8
BEMAßUNG
 62
     7
100
AcDbVertex
100
AcDb2dVertex
 10
256.1109821950869
 20
233.3392455471339
 30
0.0
  0
SEQEND
  5
813
330
810
100
AcDbEntity
  8
BEMAßUNG
  0
POLYLINE
  5
814
330
1F
100
AcDbEntity
  8
BEMAßUNG
 62
     7
100
AcDb2dPolyline
 66
     1
 10
0.0
 20
0.0
 30
0.0
  0
VERTEX
  5
815
330
814
100
AcDbEntity
  8
BEMAßUNG
 62
     7
100
AcDbVertex
100
AcDb2dVertex
 10
256.16162509872
 20
230.6112466871389
 30
0.0
  0
VERTEX
  5
816
330
814
100
AcDbEntity
  8
BEMAßUNG
 62
     7
100
AcDbVertex
100
AcDb2dVertex
 10
256.16162509872
 20
233.7250962414819
 30
0.0
  0
SEQEND
  5
817
330
814
100
AcDbEntity
  8
BEMAßUNG
  0
POLYLINE
  5
818
330
1F
100
AcDbEntity
  8
BEMAßUNG
 62
     7
100
AcDb2dPolyline
 66
     1
 10
0.0
 20
0.0
 30
0.0
  0
VERTEX
  5
819
330
818
100
AcDbEntity
  8
BEMAßUNG
 62
     7
100
AcDbVertex
100
AcDb2dVertex
 10
256.2124402571275
 20
230.6112466871389
 30
0.0
  0
VERTEX
  5
81A
330
818
100
AcDbEntity
  8
BEMAßUNG
 62
     7
100
AcDbVertex
100
AcDb2dVertex
 10
256.2124402571275
 20
234.1114637001527
 30
0.0
  0
SEQEND
  5
81B
330
818
100
AcDbEntity
  8
BEMAßUNG
  0
POLYLINE
  5
81C
330
1F
100
AcDbEntity
  8
BEMAßUNG
 62
     7
100
AcDb2dPolyline
 66
     1
 10
0.0
 20
0.0
 30
0.0
  0
VERTEX
  5
81D
330
81C
100
AcDbEntity
  8
BEMAßUNG
 62
     7
100
AcDbVertex
100
AcDb2dVertex
 10
256.6692599184716
 20
230.6112466871389
 30
0.0
  0
VERTEX
  5
81E
330
81C
100
AcDbEntity
  8
BEMAßUNG
 62
     7
100
AcDbVertex
100
AcDb2dVertex
 10
256.6692599184716
 20
230.6382906866981
 30
0.0
  0
SEQEND
  5
81F
330
81C
100
AcDbEntity
  8
BEMAßUNG
  0
POLYLINE
  5
820
330
1F
100
AcDbEntity
  8
BEMAßUNG
 62
     7
100
AcDb2dPolyline
 66
     1
 10
0.0
 20
0.0
 30
0.0
  0
VERTEX
  5
821
330
820
100
AcDbEntity
  8
BEMAßUNG
 62
     7
100
AcDbVertex
100
AcDb2dVertex
 10
256.6692599184716
 20
230.6112466871389
 30
0.0
  0
VERTEX
  5
822
330
820
100
AcDbEntity
  8
BEMAßUNG
 62
     7
100
AcDbVertex
100
AcDb2dVertex
 10
256.6692599184716
 20
230.6382906866981
 30
0.0
  0
SEQEND
  5
823
330
820
100
AcDbEntity
  8
BEMAßUNG
  0
POLYLINE
  5
824
330
1F
100
AcDbEntity
  8
BEMAßUNG
 62
     7
100
AcDb2dPolyline
 66
     1
 10
0.0
 20
0.0
 30
0.0
  0
VERTEX
  5
825
330
824
100
AcDbEntity
  8
BEMAßUNG
 62
     7
100
AcDbVertex
100
AcDb2dVertex
 10
256.6186170148384
 20
230.6112466871389
 30
0.0
  0
VERTEX
  5
826
330
824
100
AcDbEntity
  8
BEMAßUNG
 62
     7
100
AcDbVertex
100
AcDb2dVertex
 10
256.6186170148384
 20
231.0239691262718
 30
0.0
  0
SEQEND
  5
827
330
824
100
AcDbEntity
  8
BEMAßUNG
  0
POLYLINE
  5
828
330
1F
100
AcDbEntity
  8
BEMAßUNG
 62
     7
100
AcDb2dPolyline
 66
     1
 10
0.0
 20
0.0
 30
0.0
  0
VERTEX
  5
829
330
828
100
AcDbEntity
  8
BEMAßUNG
 62
     7
100
AcDbVertex
100
AcDb2dVertex
 10
256.5681463659795
 20
230.6112466871389
 30
0.0
  0
VERTEX
  5
82A
330
828
100
AcDbEntity
  8
BEMAßUNG
 62
     7
100
AcDbVertex
100
AcDb2dVertex
 10
256.5681463659795
 20
231.4101643301683
 30
0.0
  0
SEQEND
  5
82B
330
828
100
AcDbEntity
  8
BEMAßUNG
  0
POLYLINE
  5
82C
330
1F
100
AcDbEntity
  8
BEMAßUNG
 62
     7
100
AcDb2dPolyline
 66
     1
 10
0.0
 20
0.0
 30
0.0
  0
VERTEX
  5
82D
330
82C
100
AcDbEntity
  8
BEMAßUNG
 62
     7
100
AcDbVertex
100
AcDb2dVertex
 10
256.5173312075721
 20
230.6112466871389
 30
0.0
  0
VERTEX
  5
82E
330
82C
100
AcDbEntity
  8
BEMAßUNG
 62
     7
100
AcDbVertex
100
AcDb2dVertex
 10
256.5173312075721
 20
231.795842769742
 30
0.0
  0
SEQEND
  5
82F
330
82C
100
AcDbEntity
  8
BEMAßUNG
  0
POLYLINE
  5
830
330
1F
100
AcDbEntity
  8
BEMAßUNG
 62
     7
100
AcDb2dPolyline
 66
     1
 10
0.0
 20
0.0
 30
0.0
  0
VERTEX
  5
831
330
830
100
AcDbEntity
  8
BEMAßUNG
 62
     7
100
AcDbVertex
100
AcDb2dVertex
 10
256.4665160491646
 20
230.6112466871389
 30
0.0
  0
VERTEX
  5
832
330
830
100
AcDbEntity
  8
BEMAßUNG
 62
     7
100
AcDbVertex
100
AcDb2dVertex
 10
256.4665160491646
 20
232.18169346409
 30
0.0
  0
SEQEND
  5
833
330
830
100
AcDbEntity
  8
BEMAßUNG
  0
POLYLINE
  5
834
330
1F
100
AcDbEntity
  8
BEMAßUNG
 62
     7
100
AcDb2dPolyline
 66
     1
 10
0.0
 20
0.0
 30
0.0
  0
VERTEX
  5
835
330
834
100
AcDbEntity
  8
BEMAßUNG
 62
     7
100
AcDbVertex
100
AcDb2dVertex
 10
256.4157008907572
 20
230.6112466871389
 30
0.0
  0
VERTEX
  5
836
330
834
100
AcDbEntity
  8
BEMAßUNG
 62
     7
100
AcDbVertex
100
AcDb2dVertex
 10
256.4157008907572
 20
232.5673719036637
 30
0.0
  0
SEQEND
  5
837
330
834
100
AcDbEntity
  8
BEMAßUNG
  0
POLYLINE
  5
838
330
1F
100
AcDbEntity
  8
BEMAßUNG
 62
     7
100
AcDb2dPolyline
 66
     1
 10
0.0
 20
0.0
 30
0.0
  0
VERTEX
  5
839
330
838
100
AcDbEntity
  8
BEMAßUNG
 62
     7
100
AcDbVertex
100
AcDb2dVertex
 10
256.3648857323498
 20
230.6112466871389
 30
0.0
  0
VERTEX
  5
83A
330
838
100
AcDbEntity
  8
BEMAßUNG
 62
     7
100
AcDbVertex
100
AcDb2dVertex
 10
256.3648857323498
 20
232.9535671075602
 30
0.0
  0
SEQEND
  5
83B
330
838
100
AcDbEntity
  8
BEMAßUNG
  0
POLYLINE
  5
83C
330
1F
100
AcDbEntity
  8
BEMAßUNG
 62
     7
100
AcDb2dPolyline
 66
     1
 10
0.0
 20
0.0
 30
0.0
  0
VERTEX
  5
83D
330
83C
100
AcDbEntity
  8
BEMAßUNG
 62
     7
100
AcDbVertex
100
AcDb2dVertex
 10
256.3140705739423
 20
230.6112466871389
 30
0.0
  0
VERTEX
  5
83E
330
83C
100
AcDbEntity
  8
BEMAßUNG
 62
     7
100
AcDbVertex
100
AcDb2dVertex
 10
256.3140705739423
 20
233.3392455471339
 30
0.0
  0
SEQEND
  5
83F
330
83C
100
AcDbEntity
  8
BEMAßUNG
  0
POLYLINE
  5
840
330
1F
100
AcDbEntity
  8
BEMAßUNG
 62
     7
100
AcDb2dPolyline
 66
     1
 10
0.0
 20
0.0
 30
0.0
  0
VERTEX
  5
841
330
840
100
AcDbEntity
  8
BEMAßUNG
 62
     7
100
AcDbVertex
100
AcDb2dVertex
 10
256.2632554155349
 20
230.6112466871389
 30
0.0
  0
VERTEX
  5
842
330
840
100
AcDbEntity
  8
BEMAßUNG
 62
     7
100
AcDbVertex
100
AcDb2dVertex
 10
256.2632554155349
 20
233.7250962414819
 30
0.0
  0
SEQEND
  5
843
330
840
100
AcDbEntity
  8
BEMAßUNG
  0
POLYLINE
  5
844
330
1F
100
AcDbEntity
  8
BEMAßUNG
 62
     7
100
AcDb2dPolyline
 66
     1
 10
0.0
 20
0.0
 30
0.0
  0
VERTEX
  5
845
330
844
100
AcDbEntity
  8
BEMAßUNG
 62
     7
100
AcDbVertex
100
AcDb2dVertex
 10
256.2124402571275
 20
230.6112466871389
 30
0.0
  0
VERTEX
  5
846
330
844
100
AcDbEntity
  8
BEMAßUNG
 62
     7
100
AcDbVertex
100
AcDb2dVertex
 10
256.2124402571275
 20
234.1114637001527
 30
0.0
  0
SEQEND
  5
847
330
844
100
AcDbEntity
  8
BEMAßUNG
  0
MTEXT
  5
849
330
1F
100
AcDbEntity
  8
TEXT
 62
     7
100
AcDbMText
 10
252.3565171352616
 20
269.8760334611769
 30
0.0
 40
3.311186211711877
 41
0.0
 71
     7
 72
     1
  1
\fINDEX Univers 45 Light|b0|i0|c0|p34;\W1; 
 11
-4.371139000186241E-8
 21
0.999999999999999
 31
0.0
  0
MTEXT
  5
84A
330
1F
100
AcDbEntity
  8
TEXT
 62
     7
100
AcDbMText
 10
244.571290357694
 20
248.6901603924716
 30
0.0
 40
3.311136109795894
 41
0.0
 71
     7
 72
     1
  1
\fINDEX Univers 45 Light|b0|i0|c0|p34;\W1;107,5°
 11
0.7785861829769088
 21
0.6275376926348308
 31
0.0
  0
MTEXT
  5
84B
330
1F
100
AcDbEntity
  8
TEXT
 62
     7
100
AcDbMText
 10
210.8024644112751
 20
280.5355895294755
 30
0.0
 40
3.311186211711877
 41
0.0
 71
     7
 72
     1
  1
\fINDEX Univers 45 Light|b0|i0|c0|p34;\W1;45
  0
MTEXT
  5
84C
330
1F
100
AcDbEntity
  8
TEXT
 62
     7
100
AcDbMText
 10
196.2062838593686
 20
291.4049519128259
 30
0.0
 40
3.311186211711877
 41
0.0
 71
     7
 72
     1
  1
\fINDEX Univers 45 Light|b0|i0|c0|p34;\W1;70
  0
MTEXT
  5
84D
330
1F
100
AcDbEntity
  8
TEXT
 62
     7
100
AcDbMText
 10
267.4982285572574
 20
247.6580959124778
 30
0.0
 40
3.311186211711877
 41
0.0
 71
     7
 72
     1
  1
\fINDEX Univers 45 Light|b0|i0|c0|p34;\W1;36
 11
-4.371139000186241E-8
 21
0.999999999999999
 31
0.0
  0
MTEXT
  5
84E
330
1F
100
AcDbEntity
  8
TEXT
 62
     7
100
AcDbMText
 10
255.3969861557688
 20
235.7787176602394
 30
0.0
 40
3.311186211711877
 41
0.0
 71
     7
 72
     1
  1
\fINDEX Univers 45 Light|b0|i0|c0|p34;\W1;0,55
 11
-4.371139000186241E-8
 21
0.999999999999999
 31
0.0
  0
ENDSEC
  0
SECTION
  2
OBJECTS
  0
DICTIONARY
  5
C
330
0
100
AcDbDictionary
  3
ACAD_GROUP
350
D
  3
ACAD_LAYOUT
350
1A
  3
ACAD_MLINESTYLE
350
17
  3
ACAD_PLOTSETTINGS
350
19
  3
ACAD_TABLESTYLE
350
86F
  3
ACAD_VISUALSTYLE
350
2A
  3
ACDBHEADERROUNDTRIPXREC
350
84F
  0
DICTIONARY
  5
D
102
{ACAD_REACTORS
330
C
102
}
330
C
100
AcDbDictionary
  0
DICTIONARY
  5
1A
102
{ACAD_REACTORS
330
C
102
}
330
C
100
AcDbDictionary
  0
DICTIONARY
  5
17
102
{ACAD_REACTORS
330
C
102
}
330
C
100
AcDbDictionary
  3
STANDARD
350
18
  0
DICTIONARY
  5
19
102
{ACAD_REACTORS
330
C
102
}
330
C
100
AcDbDictionary
  0
DICTIONARY
  5
86F
102
{ACAD_REACTORS
330
C
102
}
330
C
100
AcDbDictionary
  0
DICTIONARY
  5
2A
102
{ACAD_REACTORS
330
C
102
}
330
C
100
AcDbDictionary
  3
2DWIREFRAME
350
2F
  3
3D_HIDDEN
350
31
  3
3DWIREFRAME
350
30
  3
BASIC
350
32
  3
BRIGHTEN
350
36
  3
COLORCHANGE
350
3A
  3
CONCEPTUAL
350
34
  3
DIM
350
35
  3
FACEPATTERN
350
39
  3
FLAT
350
2B
  3
FLATWITHEDGES
350
2C
  3
GOURAUD
350
2D
  3
GOURAUDWITHEDGES
350
2E
  3
LINEPATTERN
350
38
  3
REALISTIC
350
33
  3
THICKEN
350
37
  0
DICTIONARY
  5
84F
102
{ACAD_REACTORS
330
C
102
}
330
C
100
AcDbDictionary
  3
CEPSNTYPE
350
858
  3
DIMSTYLEDATA
350
86E
  3
FINGERPRINTGUID
350
859
  3
HYPERLINKBASE
350
852
  3
INSUNITS
350
857
  3
LAYOUTDICT
350
854
  3
LWETCUNION
350
856
  3
PLOTSETDICT
350
855
  3
PSVPSCALE
350
85B
  3
PUCSBASE
350
85E
  3
PUCSORGBACK
350
864
  3
PUCSORGBOTTOM
350
860
  3
PUCSORGFRONT
350
863
  3
PUCSORGLEFT
350
861
  3
PUCSORGRIGHT
350
862
  3
PUCSORGTOP
350
85F
  3
PUCSORTHOREF
350
85C
  3
PUCSORTHOVIEW
350
85D
  3
STYLESHEET
350
853
  3
TSTACKALIGN
350
850
  3
TSTACKSIZE
350
851
  3
UCSBASE
350
867
  3
UCSORGBACK
350
86D
  3
UCSORGBOTTOM
350
869
  3
UCSORGFRONT
350
86C
  3
UCSORGLEFT
350
86A
  3
UCSORGRIGHT
350
86B
  3
UCSORGTOP
350
868
  3
UCSORTHOREF
350
865
  3
UCSORTHOVIEW
350
866
  3
VERSIONGUID
350
85A
  0
MLINESTYLE
  5
18
102
{ACAD_REACTORS
330
17
102
}
330
17
100
AcDbMlineStyle
  2
Standard
 70
     0
  3

 62
   256
 51
90.0
 52
90.0
 71
     2
 49
0.5
 62
   256
  6
BYLAYER
 49
-0.5
 62
   256
  6
BYLAYER
  0
VISUALSTYLE
  5
2F
102
{ACAD_REACTORS
330
2A
102
}
330
2A
100
AcDbVisualStyle
  2
2dWireframe
 70
     4
 71
     0
 72
     2
 73
     0
 90
        0
 40
-0.6
 41
-30.0
 62
     5
 63
     7
 74
     1
 91
        4
 64
     7
 65
   257
 75
     1
175
     1
 42
1.0
 92
        0
 66
   257
 43
1.0
 76
     1
 77
     6
 78
     2
 67
     7
 79
     5
170
     0
171
     0
290
     0
174
     0
 93
        1
 44
0.0
173
     0
291
     0
 45
0.0
1001
ACAD
1000
AcDbSavedByObjectVersion
1070
     0
  0
VISUALSTYLE
  5
31
102
{ACAD_REACTORS
330
2A
102
}
330
2A
100
AcDbVisualStyle
  2
3D Hidden
 70
     6
 71
     1
 72
     2
 73
     2
 90
        0
 40
-0.6
 41
-30.0
 62
     5
 63
     7
 74
     2
 91
        2
 64
     7
 65
   257
 75
     2
175
     1
 42
40.0
 92
        0
 66
   257
 43
1.0
 76
     1
 77
     6
 78
     2
 67
     7
 79
     3
170
     0
171
     0
290
     0
174
     0
 93
        1
 44
0.0
173
     0
291
     0
 45
0.0
1001
ACAD
1000
AcDbSavedByObjectVersion
1070
     0
  0
VISUALSTYLE
  5
30
102
{ACAD_REACTORS
330
2A
102
}
330
2A
100
AcDbVisualStyle
  2
3dWireframe
 70
     5
 71
     0
 72
     2
 73
     0
 90
        0
 40
-0.6
 41
-30.0
 62
     5
 63
     7
 74
     1
 91
        4
 64
     7
 65
   257
 75
     1
175
     1
 42
1.0
 92
        0
 66
   257
 43
1.0
 76
     1
 77
     6
 78
     2
 67
     7
 79
     5
170
     0
171
     0
290
     0
174
     0
 93
        1
 44
0.0
173
     0
291
     0
 45
0.0
1001
ACAD
1000
AcDbSavedByObjectVersion
1070
     0
  0
VISUALSTYLE
  5
32
102
{ACAD_REACTORS
330
2A
102
}
330
2A
100
AcDbVisualStyle
  2
Basic
 70
     7
 71
     1
 72
     0
 73
     1
 90
        0
 40
-0.6
 41
-30.0
 62
     5
 63
     7
 74
     0
 91
        4
 64
     7
 65
   257
 75
     1
175
     1
 42
1.0
 92
        8
 66
     7
 43
1.0
 76
     1
 77
     6
 78
     2
 67
     7
 79
     5
170
     0
171
     0
290
     0
174
     0
 93
        1
 44
0.0
173
     0
291
     1
 45
0.0
1001
ACAD
1000
AcDbSavedByObjectVersion
1070
     0
  0
VISUALSTYLE
  5
36
102
{ACAD_REACTORS
330
2A
102
}
330
2A
100
AcDbVisualStyle
  2
Brighten
 70
    12
 71
     2
 72
     2
 73
     0
 90
        0
 40
-0.6
 41
-30.0
 62
     5
 63
     7
 74
     1
 91
        4
 64
     7
 65
   257
 75
     1
175
     1
 42
1.0
 92
        8
 66
     7
 43
1.0
 76
     1
 77
     6
 78
     2
 67
     7
 79
     5
170
     0
171
     0
290
     0
174
     0
 93
        1
 44
50.0
173
     0
291
     1
 45
0.0
1001
ACAD
1000
AcDbSavedByObjectVersion
1070
     0
  0
VISUALSTYLE
  5
3A
102
{ACAD_REACTORS
330
2A
102
}
330
2A
100
AcDbVisualStyle
  2
ColorChange
 70
    16
 71
     2
 72
     2
 73
     3
 90
        0
 40
-0.6
 41
-30.0
 62
     5
 63
     8
 74
     1
 91
        4
 64
     7
 65
   257
 75
     1
175
     1
 42
1.0
 92
        8
 66
     8
 43
1.0
 76
     1
 77
     6
 78
     2
 67
     7
 79
     5
170
     0
171
     0
290
     0
174
     0
 93
        1
 44
0.0
173
     0
291
     1
 45
0.0
1001
ACAD
1000
AcDbSavedByObjectVersion
1070
     0
  0
VISUALSTYLE
  5
34
102
{ACAD_REACTORS
330
2A
102
}
330
2A
100
AcDbVisualStyle
  2
Conceptual
 70
     9
 71
     3
 72
     2
 73
     0
 90
        0
 40
-0.6
 41
-30.0
 62
     5
 63
     7
 74
     2
 91
        2
 64
     7
 65
   257
 75
     1
175
     1
 42
40.0
 92
        8
 66
     7
 43
1.0
 76
     1
 77
     6
 78
     2
 67
     7
 79
     3
170
     0
171
     0
290
     0
174
     0
 93
        1
 44
0.0
173
     0
291
     0
 45
0.0
1001
ACAD
1000
AcDbSavedByObjectVersion
1070
     0
  0
VISUALSTYLE
  5
35
102
{ACAD_REACTORS
330
2A
102
}
330
2A
100
AcDbVisualStyle
  2
Dim
 70
    11
 71
     2
 72
     2
 73
     0
 90
        0
 40
-0.6
 41
-30.0
 62
     5
 63
     7
 74
     1
 91
        4
 64
     7
 65
   257
 75
     1
175
     1
 42
1.0
 92
        8
 66
     7
 43
1.0
 76
     1
 77
     6
 78
     2
 67
     7
 79
     5
170
     0
171
     0
290
     0
174
     0
 93
        1
 44
-50.0
173
     0
291
     1
 45
0.0
1001
ACAD
1000
AcDbSavedByObjectVersion
1070
     0
  0
VISUALSTYLE
  5
39
102
{ACAD_REACTORS
330
2A
102
}
330
2A
100
AcDbVisualStyle
  2
Facepattern
 70
    15
 71
     2
 72
     2
 73
     0
 90
        0
 40
-0.6
 41
-30.0
 62
     5
 63
     7
 74
     1
 91
        4
 64
     7
 65
   257
 75
     1
175
     1
 42
1.0
 92
        8
 66
     7
 43
1.0
 76
     1
 77
     6
 78
     2
 67
     7
 79
     5
170
     0
171
     0
290
     0
174
     0
 93
        1
 44
0.0
173
     0
291
     1
 45
0.0
1001
ACAD
1000
AcDbSavedByObjectVersion
1070
     0
  0
VISUALSTYLE
  5
2B
102
{ACAD_REACTORS
330
2A
102
}
330
2A
100
AcDbVisualStyle
  2
Flat
 70
     0
 71
     2
 72
     1
 73
     1
 90
        2
 40
-0.6
 41
30.0
 62
     5
 63
     7
 74
     0
 91
        4
 64
     7
 65
   257
 75
     1
175
     1
 42
1.0
 92
        8
 66
     7
 43
1.0
 76
     1
 77
     6
 78
     2
 67
     7
 79
     5
170
     0
171
     0
290
     0
174
     0
 93
       13
 44
0.0
173
     0
291
     1
 45
0.0
1001
ACAD
1000
AcDbSavedByObjectVersion
1070
     0
  0
VISUALSTYLE
  5
2C
102
{ACAD_REACTORS
330
2A
102
}
330
2A
100
AcDbVisualStyle
  2
FlatWithEdges
 70
     1
 71
     2
 72
     1
 73
     1
 90
        2
 40
-0.6
 41
30.0
 62
     5
 63
     7
 74
     1
 91
        4
 64
     7
 65
   257
 75
     1
175
     1
 42
1.0
 92
        0
 66
   257
 43
1.0
 76
     1
 77
     6
 78
     2
 67
     7
 79
     5
170
     0
171
     0
290
     0
174
     0
 93
       13
 44
0.0
173
     0
291
     1
 45
0.0
1001
ACAD
1000
AcDbSavedByObjectVersion
1070
     0
  0
VISUALSTYLE
  5
2D
102
{ACAD_REACTORS
330
2A
102
}
330
2A
100
AcDbVisualStyle
  2
Gouraud
 70
     2
 71
     2
 72
     2
 73
     1
 90
        2
 40
-0.6
 41
30.0
 62
     5
 63
     7
 74
     0
 91
        4
 64
     7
 65
   257
 75
     1
175
     1
 42
1.0
 92
        0
 66
     7
 43
1.0
 76
     1
 77
     6
 78
     2
 67
     7
 79
     5
170
     0
171
     0
290
     0
174
     0
 93
       13
 44
0.0
173
     0
291
     1
 45
0.0
1001
ACAD
1000
AcDbSavedByObjectVersion
1070
     0
  0
VISUALSTYLE
  5
2E
102
{ACAD_REACTORS
330
2A
102
}
330
2A
100
AcDbVisualStyle
  2
GouraudWithEdges
 70
     3
 71
     2
 72
     2
 73
     1
 90
        2
 40
-0.6
 41
30.0
 62
     5
 63
     7
 74
     1
 91
        4
 64
     7
 65
   257
 75
     1
175
     1
 42
1.0
 92
        0
 66
   257
 43
1.0
 76
     1
 77
     6
 78
     2
 67
     7
 79
     5
170
     0
171
     0
290
     0
174
     0
 93
       13
 44
0.0
173
     0
291
     1
 45
0.0
1001
ACAD
1000
AcDbSavedByObjectVersion
1070
     0
  0
VISUALSTYLE
  5
38
102
{ACAD_REACTORS
330
2A
102
}
330
2A
100
AcDbVisualStyle
  2
Linepattern
 70
    14
 71
     2
 72
     2
 73
     0
 90
        0
 40
-0.6
 41
-30.0
 62
     5
 63
     7
 74
     1
 91
        4
 64
     7
 65
   257
 75
     7
175
     7
 42
1.0
 92
        8
 66
     7
 43
1.0
 76
     1
 77
     6
 78
     2
 67
     7
 79
     5
170
     0
171
     0
290
     0
174
     0
 93
        1
 44
0.0
173
     0
291
     1
 45
0.0
1001
ACAD
1000
AcDbSavedByObjectVersion
1070
     0
  0
VISUALSTYLE
  5
33
102
{ACAD_REACTORS
330
2A
102
}
330
2A
100
AcDbVisualStyle
  2
Realistic
 70
     8
 71
     2
 72
     2
 73
     0
 90
        0
 40
-0.6
 41
-30.0
 62
     5
 63
     7
 74
     1
 91
        0
 64
     7
 65
   257
 75
     1
175
     1
 42
1.0
 92
        8
 66
     8
 43
1.0
 76
     1
 77
     6
 78
     2
 67
     7
 79
     5
170
     0
171
     0
290
     0
174
     0
 93
       13
 44
0.0
173
     0
291
     0
 45
0.0
1001
ACAD
1000
AcDbSavedByObjectVersion
1070
     0
  0
VISUALSTYLE
  5
37
102
{ACAD_REACTORS
330
2A
102
}
330
2A
100
AcDbVisualStyle
  2
Thicken
 70
    13
 71
     2
 72
     2
 73
     0
 90
        0
 40
-0.6
 41
-30.0
 62
     5
 63
     7
 74
     1
 91
        4
 64
     7
 65
   257
 75
     1
175
     1
 42
1.0
 92
       12
 66
     7
 43
1.0
 76
     1
 77
     6
 78
     2
 67
     7
 79
     5
170
     0
171
     0
290
     0
174
     0
 93
        1
 44
0.0
173
     0
291
     1
 45
0.0
1001
ACAD
1000
AcDbSavedByObjectVersion
1070
     0
  0
XRECORD
  5
858
102
{ACAD_REACTORS
330
84F
102
}
330
84F
100
AcDbXrecord
 90
        0
  0
XRECORD
  5
86E
102
{ACAD_REACTORS
330
84F
102
}
330
84F
100
AcDbXrecord
1000
DSTYLE
1002
{
1070
   340
340
11
1002
}
  0
XRECORD
  5
859
102
{ACAD_REACTORS
330
84F
102
}
330
84F
100
AcDbXrecord
  1
{950C210D-C638-443E-BB2A-E4717D76C8CC}
  0
XRECORD
  5
852
102
{ACAD_REACTORS
330
84F
102
}
330
84F
100
AcDbXrecord
  1

  0
XRECORD
  5
857
102
{ACAD_REACTORS
330
84F
102
}
330
84F
100
AcDbXrecord
 90
        1
  0
XRECORD
  5
854
102
{ACAD_REACTORS
330
84F
102
}
330
84F
100
AcDbXrecord
340
1A
  0
XRECORD
  5
856
102
{ACAD_REACTORS
330
84F
102
}
330
84F
100
AcDbXrecord
 90
    10269
  0
XRECORD
  5
855
102
{ACAD_REACTORS
330
84F
102
}
330
84F
100
AcDbXrecord
340
19
  0
XRECORD
  5
85B
102
{ACAD_REACTORS
330
84F
102
}
330
84F
100
AcDbXrecord
 40
0.0
  0
XRECORD
  5
85E
102
{ACAD_REACTORS
330
84F
102
}
330
84F
100
AcDbXrecord
340
0
  0
XRECORD
  5
864
102
{ACAD_REACTORS
330
84F
102
}
330
84F
100
AcDbXrecord
 10
0.0
 20
0.0
 30
0.0
  0
XRECORD
  5
860
102
{ACAD_REACTORS
330
84F
102
}
330
84F
100
AcDbXrecord
 10
0.0
 20
0.0
 30
0.0
  0
XRECORD
  5
863
102
{ACAD_REACTORS
330
84F
102
}
330
84F
100
AcDbXrecord
 10
0.0
 20
0.0
 30
0.0
  0
XRECORD
  5
861
102
{ACAD_REACTORS
330
84F
102
}
330
84F
100
AcDbXrecord
 10
0.0
 20
0.0
 30
0.0
  0
XRECORD
  5
862
102
{ACAD_REACTORS
330
84F
102
}
330
84F
100
AcDbXrecord
 10
0.0
 20
0.0
 30
0.0
  0
XRECORD
  5
85F
102
{ACAD_REACTORS
330
84F
102
}
330
84F
100
AcDbXrecord
 10
0.0
 20
0.0
 30
0.0
  0
XRECORD
  5
85C
102
{ACAD_REACTORS
330
84F
102
}
330
84F
100
AcDbXrecord
340
0
  0
XRECORD
  5
85D
102
{ACAD_REACTORS
330
84F
102
}
330
84F
100
AcDbXrecord
 70
     0
  0
XRECORD
  5
853
102
{ACAD_REACTORS
330
84F
102
}
330
84F
100
AcDbXrecord
  1

  0
XRECORD
  5
850
102
{ACAD_REACTORS
330
84F
102
}
330
84F
100
AcDbXrecord
 90
        1
  0
XRECORD
  5
851
102
{ACAD_REACTORS
330
84F
102
}
330
84F
100
AcDbXrecord
 90
       70
  0
XRECORD
  5
867
102
{ACAD_REACTORS
330
84F
102
}
330
84F
100
AcDbXrecord
340
0
  0
XRECORD
  5
86D
102
{ACAD_REACTORS
330
84F
102
}
330
84F
100
AcDbXrecord
 10
0.0
 20
0.0
 30
0.0
  0
XRECORD
  5
869
102
{ACAD_REACTORS
330
84F
102
}
330
84F
100
AcDbXrecord
 10
0.0
 20
0.0
 30
0.0
  0
XRECORD
  5
86C
102
{ACAD_REACTORS
330
84F
102
}
330
84F
100
AcDbXrecord
 10
0.0
 20
0.0
 30
0.0
  0
XRECORD
  5
86A
102
{ACAD_REACTORS
330
84F
102
}
330
84F
100
AcDbXrecord
 10
0.0
 20
0.0
 30
0.0
  0
XRECORD
  5
86B
102
{ACAD_REACTORS
330
84F
102
}
330
84F
100
AcDbXrecord
 10
0.0
 20
0.0
 30
0.0
  0
XRECORD
  5
868
102
{ACAD_REACTORS
330
84F
102
}
330
84F
100
AcDbXrecord
 10
0.0
 20
0.0
 30
0.0
  0
XRECORD
  5
865
102
{ACAD_REACTORS
330
84F
102
}
330
84F
100
AcDbXrecord
340
0
  0
XRECORD
  5
866
102
{ACAD_REACTORS
330
84F
102
}
330
84F
100
AcDbXrecord
 70
     0
  0
XRECORD
  5
85A
102
{ACAD_REACTORS
330
84F
102
}
330
84F
100
AcDbXrecord
  1
{FAEB1C32-E019-11D5-929B-00C0DF256EC4}
  0
ENDSEC
  0
EOF
