ISO-10303-21;
HEADER;
/* Generated by software containing ST-Developer
 * from STEP Tools, Inc. (www.steptools.com) 
 */
/* OPTION: using custom schema-name function */

FILE_DESCRIPTION(
/* description */ (''),
/* implementation_level */ '2;1');

FILE_NAME(
/* name */ '10981023_kreiter.stp',
/* time_stamp */ '2019-07-29T14:54:16+02:00',
/* author */ (''),
/* organization */ (''),
/* preprocessor_version */ 'ST-DEVELOPER v16.7',
/* originating_system */ 'SIEMENS PLM Software NX 12.0',
/* authorisation */ '');

FILE_SCHEMA (('AUTOMOTIVE_DESIGN { 1 0 10303 214 3 1 1 1 }'));
ENDSEC;

DATA;
#10=PROPERTY_DEFINITION_REPRESENTATION(#14,#12);
#11=PROPERTY_DEFINITION_REPRESENTATION(#15,#13);
#12=REPRESENTATION('',(#16),#455);
#13=REPRESENTATION('',(#17),#455);
#14=PROPERTY_DEFINITION('pmi validation property','',#21);
#15=PROPERTY_DEFINITION('pmi validation property','',#21);
#16=VALUE_REPRESENTATION_ITEM('number of annotations',COUNT_MEASURE(0.));
#17=VALUE_REPRESENTATION_ITEM('number of views',COUNT_MEASURE(0.));
#18=SHAPE_REPRESENTATION_RELATIONSHIP('None',
'relationship between krei1988677Be0px-None and krei1988677Be0px-None',
#30,#19);
#19=ADVANCED_BREP_SHAPE_REPRESENTATION('krei1988677Be0px-None',(#40),#455);
#20=SHAPE_DEFINITION_REPRESENTATION(#21,#30);
#21=PRODUCT_DEFINITION_SHAPE('','',#22);
#22=PRODUCT_DEFINITION(' ','',#24,#23);
#23=PRODUCT_DEFINITION_CONTEXT('part definition',#29,'design');
#24=PRODUCT_DEFINITION_FORMATION_WITH_SPECIFIED_SOURCE(' ',' ',#26,
 .NOT_KNOWN.);
#25=PRODUCT_RELATED_PRODUCT_CATEGORY('part','',(#26));
#26=PRODUCT('krei1988677Be0px','krei1988677Be0px',' ',(#27));
#27=PRODUCT_CONTEXT(' ',#29,'mechanical');
#28=APPLICATION_PROTOCOL_DEFINITION('international standard',
'automotive_design',2010,#29);
#29=APPLICATION_CONTEXT(
'core data for automotive mechanical design processes');
#30=SHAPE_REPRESENTATION('krei1988677Be0px-None',(#268),#455);
#31=PRESENTATION_LAYER_ASSIGNMENT('10','Layer 10',(#40));
#32=STYLED_ITEM('',(#33),#40);
#33=PRESENTATION_STYLE_ASSIGNMENT((#34));
#34=SURFACE_STYLE_USAGE(.BOTH.,#35);
#35=SURFACE_SIDE_STYLE('',(#36));
#36=SURFACE_STYLE_FILL_AREA(#37);
#37=FILL_AREA_STYLE('',(#38));
#38=FILL_AREA_STYLE_COLOUR('',#39);
#39=COLOUR_RGB('Orange',1.,0.499992370489052,0.);
#40=MANIFOLD_SOLID_BREP('',#41);
#41=CLOSED_SHELL('',(#68,#69,#70,#71,#72,#73,#74,#75,#76,#77,#78,#79,#80,
#81,#82,#83,#84));
#42=TOROIDAL_SURFACE('',#296,3.70235235405143,0.5);
#43=VERTEX_LOOP('',#217);
#44=PLANE('',#279);
#45=PLANE('',#285);
#46=PLANE('',#289);
#47=PLANE('',#295);
#48=PLANE('',#297);
#49=PLANE('',#298);
#50=PLANE('',#299);
#51=PLANE('',#300);
#52=CONICAL_SURFACE('',#276,9.99,29.9999999999999);
#53=CONICAL_SURFACE('',#278,9.99,29.9999999999999);
#54=CONICAL_SURFACE('',#281,1.5,45.);
#55=CONICAL_SURFACE('',#287,2.58339745962156,15.0000000000018);
#56=CONICAL_SURFACE('',#292,10.1,22.);
#57=FACE_OUTER_BOUND('',#126,.T.);
#58=FACE_OUTER_BOUND('',#127,.T.);
#59=FACE_OUTER_BOUND('',#128,.T.);
#60=FACE_OUTER_BOUND('',#146,.T.);
#61=FACE_OUTER_BOUND('',#147,.T.);
#62=FACE_OUTER_BOUND('',#148,.T.);
#63=FACE_OUTER_BOUND('',#149,.T.);
#64=B_SPLINE_CURVE_WITH_KNOTS('',3,(#395,#396,#397,#398),.UNSPECIFIED.,
 .F.,.F.,(4,4),(0.,1.),.UNSPECIFIED.);
#65=B_SPLINE_CURVE_WITH_KNOTS('',3,(#402,#403,#404,#405),.UNSPECIFIED.,
 .F.,.F.,(4,4),(0.,1.),.UNSPECIFIED.);
#66=B_SPLINE_CURVE_WITH_KNOTS('',3,(#410,#411,#412,#413),.UNSPECIFIED.,
 .F.,.F.,(4,4),(0.,1.),.UNSPECIFIED.);
#67=B_SPLINE_CURVE_WITH_KNOTS('',3,(#414,#415,#416,#417),.UNSPECIFIED.,
 .F.,.F.,(4,4),(0.,1.),.UNSPECIFIED.);
#68=ADVANCED_FACE('',(#104,#105),#85,.T.);
#69=ADVANCED_FACE('',(#57),#52,.T.);
#70=ADVANCED_FACE('',(#58),#53,.T.);
#71=ADVANCED_FACE('',(#59),#44,.F.);
#72=ADVANCED_FACE('',(#106,#107),#54,.T.);
#73=ADVANCED_FACE('',(#108,#109),#86,.T.);
#74=ADVANCED_FACE('',(#110,#111),#45,.F.);
#75=ADVANCED_FACE('',(#112,#113),#55,.T.);
#76=ADVANCED_FACE('',(#114,#115),#46,.F.);
#77=ADVANCED_FACE('',(#116,#117),#56,.T.);
#78=ADVANCED_FACE('',(#118,#119),#87,.T.);
#79=ADVANCED_FACE('',(#120,#121),#47,.F.);
#80=ADVANCED_FACE('',(#122,#123),#42,.T.);
#81=ADVANCED_FACE('',(#60),#48,.T.);
#82=ADVANCED_FACE('',(#61),#49,.T.);
#83=ADVANCED_FACE('',(#62),#50,.T.);
#84=ADVANCED_FACE('',(#63),#51,.T.);
#85=CYLINDRICAL_SURFACE('',#274,9.99);
#86=CYLINDRICAL_SURFACE('',#283,1.5);
#87=CYLINDRICAL_SURFACE('',#294,10.1);
#88=LINE('',#378,#96);
#89=LINE('',#383,#97);
#90=LINE('',#387,#98);
#91=LINE('',#391,#99);
#92=LINE('',#419,#100);
#93=LINE('',#420,#101);
#94=LINE('',#448,#102);
#95=LINE('',#451,#103);
#96=VECTOR('',#305,1.);
#97=VECTOR('',#308,1.);
#98=VECTOR('',#311,1.);
#99=VECTOR('',#314,1.);
#100=VECTOR('',#327,1.);
#101=VECTOR('',#328,1.);
#102=VECTOR('',#365,1.);
#103=VECTOR('',#370,1.);
#104=FACE_BOUND('',#124,.T.);
#105=FACE_BOUND('',#125,.T.);
#106=FACE_BOUND('',#43,.T.);
#107=FACE_BOUND('',#129,.T.);
#108=FACE_BOUND('',#130,.T.);
#109=FACE_BOUND('',#131,.T.);
#110=FACE_BOUND('',#132,.T.);
#111=FACE_BOUND('',#133,.T.);
#112=FACE_BOUND('',#134,.T.);
#113=FACE_BOUND('',#135,.T.);
#114=FACE_BOUND('',#136,.T.);
#115=FACE_BOUND('',#137,.T.);
#116=FACE_BOUND('',#138,.T.);
#117=FACE_BOUND('',#139,.T.);
#118=FACE_BOUND('',#140,.T.);
#119=FACE_BOUND('',#141,.T.);
#120=FACE_BOUND('',#142,.T.);
#121=FACE_BOUND('',#143,.T.);
#122=FACE_BOUND('',#144,.T.);
#123=FACE_BOUND('',#145,.T.);
#124=EDGE_LOOP('',(#150));
#125=EDGE_LOOP('',(#151,#152,#153,#154,#155,#156,#157,#158));
#126=EDGE_LOOP('',(#159,#160,#161,#162));
#127=EDGE_LOOP('',(#163,#164,#165,#166));
#128=EDGE_LOOP('',(#167,#168,#169,#170));
#129=EDGE_LOOP('',(#171));
#130=EDGE_LOOP('',(#172));
#131=EDGE_LOOP('',(#173));
#132=EDGE_LOOP('',(#174));
#133=EDGE_LOOP('',(#175));
#134=EDGE_LOOP('',(#176));
#135=EDGE_LOOP('',(#177));
#136=EDGE_LOOP('',(#178));
#137=EDGE_LOOP('',(#179));
#138=EDGE_LOOP('',(#180));
#139=EDGE_LOOP('',(#181));
#140=EDGE_LOOP('',(#182));
#141=EDGE_LOOP('',(#183));
#142=EDGE_LOOP('',(#184));
#143=EDGE_LOOP('',(#185));
#144=EDGE_LOOP('',(#186));
#145=EDGE_LOOP('',(#187));
#146=EDGE_LOOP('',(#188,#189));
#147=EDGE_LOOP('',(#190,#191,#192,#193,#194,#195));
#148=EDGE_LOOP('',(#196,#197));
#149=EDGE_LOOP('',(#198,#199,#200,#201,#202,#203));
#150=ORIENTED_EDGE('',*,*,#226,.F.);
#151=ORIENTED_EDGE('',*,*,#227,.F.);
#152=ORIENTED_EDGE('',*,*,#228,.T.);
#153=ORIENTED_EDGE('',*,*,#229,.F.);
#154=ORIENTED_EDGE('',*,*,#230,.F.);
#155=ORIENTED_EDGE('',*,*,#231,.F.);
#156=ORIENTED_EDGE('',*,*,#232,.T.);
#157=ORIENTED_EDGE('',*,*,#233,.F.);
#158=ORIENTED_EDGE('',*,*,#234,.F.);
#159=ORIENTED_EDGE('',*,*,#228,.F.);
#160=ORIENTED_EDGE('',*,*,#235,.T.);
#161=ORIENTED_EDGE('',*,*,#236,.F.);
#162=ORIENTED_EDGE('',*,*,#237,.T.);
#163=ORIENTED_EDGE('',*,*,#238,.F.);
#164=ORIENTED_EDGE('',*,*,#239,.T.);
#165=ORIENTED_EDGE('',*,*,#232,.F.);
#166=ORIENTED_EDGE('',*,*,#240,.T.);
#167=ORIENTED_EDGE('',*,*,#236,.T.);
#168=ORIENTED_EDGE('',*,*,#241,.T.);
#169=ORIENTED_EDGE('',*,*,#238,.T.);
#170=ORIENTED_EDGE('',*,*,#242,.F.);
#171=ORIENTED_EDGE('',*,*,#243,.T.);
#172=ORIENTED_EDGE('',*,*,#243,.F.);
#173=ORIENTED_EDGE('',*,*,#244,.T.);
#174=ORIENTED_EDGE('',*,*,#244,.F.);
#175=ORIENTED_EDGE('',*,*,#245,.T.);
#176=ORIENTED_EDGE('',*,*,#245,.F.);
#177=ORIENTED_EDGE('',*,*,#246,.T.);
#178=ORIENTED_EDGE('',*,*,#247,.T.);
#179=ORIENTED_EDGE('',*,*,#246,.F.);
#180=ORIENTED_EDGE('',*,*,#248,.T.);
#181=ORIENTED_EDGE('',*,*,#249,.T.);
#182=ORIENTED_EDGE('',*,*,#249,.F.);
#183=ORIENTED_EDGE('',*,*,#250,.T.);
#184=ORIENTED_EDGE('',*,*,#250,.F.);
#185=ORIENTED_EDGE('',*,*,#226,.T.);
#186=ORIENTED_EDGE('',*,*,#248,.F.);
#187=ORIENTED_EDGE('',*,*,#247,.F.);
#188=ORIENTED_EDGE('',*,*,#230,.T.);
#189=ORIENTED_EDGE('',*,*,#251,.F.);
#190=ORIENTED_EDGE('',*,*,#231,.T.);
#191=ORIENTED_EDGE('',*,*,#251,.T.);
#192=ORIENTED_EDGE('',*,*,#229,.T.);
#193=ORIENTED_EDGE('',*,*,#237,.F.);
#194=ORIENTED_EDGE('',*,*,#242,.T.);
#195=ORIENTED_EDGE('',*,*,#240,.F.);
#196=ORIENTED_EDGE('',*,*,#234,.T.);
#197=ORIENTED_EDGE('',*,*,#252,.T.);
#198=ORIENTED_EDGE('',*,*,#227,.T.);
#199=ORIENTED_EDGE('',*,*,#252,.F.);
#200=ORIENTED_EDGE('',*,*,#233,.T.);
#201=ORIENTED_EDGE('',*,*,#239,.F.);
#202=ORIENTED_EDGE('',*,*,#241,.F.);
#203=ORIENTED_EDGE('',*,*,#235,.F.);
#204=VERTEX_POINT('',#377);
#205=VERTEX_POINT('',#379);
#206=VERTEX_POINT('',#380);
#207=VERTEX_POINT('',#382);
#208=VERTEX_POINT('',#384);
#209=VERTEX_POINT('',#386);
#210=VERTEX_POINT('',#388);
#211=VERTEX_POINT('',#390);
#212=VERTEX_POINT('',#392);
#213=VERTEX_POINT('',#399);
#214=VERTEX_POINT('',#401);
#215=VERTEX_POINT('',#408);
#216=VERTEX_POINT('',#409);
#217=VERTEX_POINT('',#422);
#218=VERTEX_POINT('',#424);
#219=VERTEX_POINT('',#427);
#220=VERTEX_POINT('',#430);
#221=VERTEX_POINT('',#433);
#222=VERTEX_POINT('',#436);
#223=VERTEX_POINT('',#439);
#224=VERTEX_POINT('',#441);
#225=VERTEX_POINT('',#444);
#226=EDGE_CURVE('',#204,#204,#253,.T.);
#227=EDGE_CURVE('',#205,#206,#88,.T.);
#228=EDGE_CURVE('',#205,#207,#254,.T.);
#229=EDGE_CURVE('',#208,#207,#89,.T.);
#230=EDGE_CURVE('',#209,#208,#255,.T.);
#231=EDGE_CURVE('',#210,#209,#90,.T.);
#232=EDGE_CURVE('',#210,#211,#256,.T.);
#233=EDGE_CURVE('',#212,#211,#91,.T.);
#234=EDGE_CURVE('',#206,#212,#257,.T.);
#235=EDGE_CURVE('',#205,#213,#64,.T.);
#236=EDGE_CURVE('',#214,#213,#258,.T.);
#237=EDGE_CURVE('',#214,#207,#65,.T.);
#238=EDGE_CURVE('',#215,#216,#259,.T.);
#239=EDGE_CURVE('',#215,#211,#66,.T.);
#240=EDGE_CURVE('',#210,#216,#67,.T.);
#241=EDGE_CURVE('',#213,#215,#92,.T.);
#242=EDGE_CURVE('',#214,#216,#93,.T.);
#243=EDGE_CURVE('',#218,#218,#260,.T.);
#244=EDGE_CURVE('',#219,#219,#261,.T.);
#245=EDGE_CURVE('',#220,#220,#262,.T.);
#246=EDGE_CURVE('',#221,#221,#263,.T.);
#247=EDGE_CURVE('',#222,#222,#264,.T.);
#248=EDGE_CURVE('',#223,#223,#265,.T.);
#249=EDGE_CURVE('',#224,#224,#266,.T.);
#250=EDGE_CURVE('',#225,#225,#267,.T.);
#251=EDGE_CURVE('',#209,#208,#94,.T.);
#252=EDGE_CURVE('',#212,#206,#95,.T.);
#253=CIRCLE('',#269,9.99);
#254=CIRCLE('',#270,9.99);
#255=CIRCLE('',#271,9.99);
#256=CIRCLE('',#272,9.99);
#257=CIRCLE('',#273,9.99);
#258=CIRCLE('',#275,9.41264973081037);
#259=CIRCLE('',#277,9.41264973081037);
#260=CIRCLE('',#280,1.5);
#261=CIRCLE('',#282,1.5);
#262=CIRCLE('',#284,2.57);
#263=CIRCLE('',#286,2.58339745962156);
#264=CIRCLE('',#288,3.70235235405143);
#265=CIRCLE('',#290,4.16594428133483);
#266=CIRCLE('',#291,10.1);
#267=CIRCLE('',#293,10.1);
#268=AXIS2_PLACEMENT_3D('',#375,#301,#302);
#269=AXIS2_PLACEMENT_3D('',#376,#303,#304);
#270=AXIS2_PLACEMENT_3D('',#381,#306,#307);
#271=AXIS2_PLACEMENT_3D('',#385,#309,#310);
#272=AXIS2_PLACEMENT_3D('',#389,#312,#313);
#273=AXIS2_PLACEMENT_3D('',#393,#315,#316);
#274=AXIS2_PLACEMENT_3D('',#394,#317,#318);
#275=AXIS2_PLACEMENT_3D('',#400,#319,#320);
#276=AXIS2_PLACEMENT_3D('',#406,#321,#322);
#277=AXIS2_PLACEMENT_3D('',#407,#323,#324);
#278=AXIS2_PLACEMENT_3D('',#418,#325,#326);
#279=AXIS2_PLACEMENT_3D('',#421,#329,#330);
#280=AXIS2_PLACEMENT_3D('',#423,#331,#332);
#281=AXIS2_PLACEMENT_3D('',#425,#333,#334);
#282=AXIS2_PLACEMENT_3D('',#426,#335,#336);
#283=AXIS2_PLACEMENT_3D('',#428,#337,#338);
#284=AXIS2_PLACEMENT_3D('',#429,#339,#340);
#285=AXIS2_PLACEMENT_3D('',#431,#341,#342);
#286=AXIS2_PLACEMENT_3D('',#432,#343,#344);
#287=AXIS2_PLACEMENT_3D('',#434,#345,#346);
#288=AXIS2_PLACEMENT_3D('',#435,#347,#348);
#289=AXIS2_PLACEMENT_3D('',#437,#349,#350);
#290=AXIS2_PLACEMENT_3D('',#438,#351,#352);
#291=AXIS2_PLACEMENT_3D('',#440,#353,#354);
#292=AXIS2_PLACEMENT_3D('',#442,#355,#356);
#293=AXIS2_PLACEMENT_3D('',#443,#357,#358);
#294=AXIS2_PLACEMENT_3D('',#445,#359,#360);
#295=AXIS2_PLACEMENT_3D('',#446,#361,#362);
#296=AXIS2_PLACEMENT_3D('',#447,#363,#364);
#297=AXIS2_PLACEMENT_3D('',#449,#366,#367);
#298=AXIS2_PLACEMENT_3D('',#450,#368,#369);
#299=AXIS2_PLACEMENT_3D('',#452,#371,#372);
#300=AXIS2_PLACEMENT_3D('',#453,#373,#374);
#301=DIRECTION('',(0.,0.,1.));
#302=DIRECTION('',(1.,0.,0.));
#303=DIRECTION('',(1.,0.,0.));
#304=DIRECTION('',(0.,0.,-1.));
#305=DIRECTION('',(1.,0.,0.));
#306=DIRECTION('',(1.,0.,0.));
#307=DIRECTION('',(0.,0.,-1.));
#308=DIRECTION('',(-1.,0.,0.));
#309=DIRECTION('',(-1.,0.,0.));
#310=DIRECTION('',(0.,0.,1.));
#311=DIRECTION('',(1.,0.,0.));
#312=DIRECTION('',(1.,0.,0.));
#313=DIRECTION('',(0.,0.,-1.));
#314=DIRECTION('',(-1.,0.,0.));
#315=DIRECTION('',(-1.,0.,0.));
#316=DIRECTION('',(0.,0.,1.));
#317=DIRECTION('',(1.,0.,0.));
#318=DIRECTION('',(0.,0.,-1.));
#319=DIRECTION('',(-1.,0.,0.));
#320=DIRECTION('',(0.,0.,-1.));
#321=DIRECTION('',(1.,0.,0.));
#322=DIRECTION('',(0.,0.,-1.));
#323=DIRECTION('',(-1.,0.,0.));
#324=DIRECTION('',(0.,0.,-1.));
#325=DIRECTION('',(1.,0.,0.));
#326=DIRECTION('',(0.,0.,-1.));
#327=DIRECTION('',(0.,0.,-1.));
#328=DIRECTION('',(0.,0.,-1.));
#329=DIRECTION('',(1.,0.,0.));
#330=DIRECTION('',(0.,0.,-1.));
#331=DIRECTION('',(1.,0.,0.));
#332=DIRECTION('',(0.,0.,-1.));
#333=DIRECTION('',(-1.,0.,0.));
#334=DIRECTION('',(-5.54280092174317E-17,0.,1.));
#335=DIRECTION('',(1.,0.,0.));
#336=DIRECTION('',(0.,0.,-1.));
#337=DIRECTION('',(1.,0.,0.));
#338=DIRECTION('',(0.,0.,-1.));
#339=DIRECTION('',(1.,0.,0.));
#340=DIRECTION('',(0.,0.,-1.));
#341=DIRECTION('',(-1.,0.,0.));
#342=DIRECTION('',(0.,0.,1.));
#343=DIRECTION('',(1.,0.,0.));
#344=DIRECTION('',(0.,0.,-1.));
#345=DIRECTION('',(-1.,0.,0.));
#346=DIRECTION('',(2.56490129588774E-16,0.,1.));
#347=DIRECTION('',(1.,0.,0.));
#348=DIRECTION('',(0.,0.,1.));
#349=DIRECTION('',(-1.,0.,0.));
#350=DIRECTION('',(0.,0.,1.));
#351=DIRECTION('',(-1.,0.,0.));
#352=DIRECTION('',(0.,0.,-1.));
#353=DIRECTION('',(1.,0.,0.));
#354=DIRECTION('',(0.,0.,-1.));
#355=DIRECTION('',(-1.,0.,0.));
#356=DIRECTION('',(-1.34044037223941E-16,0.,1.));
#357=DIRECTION('',(1.,0.,0.));
#358=DIRECTION('',(0.,0.,-1.));
#359=DIRECTION('',(1.,0.,0.));
#360=DIRECTION('',(0.,0.,-1.));
#361=DIRECTION('',(1.,0.,0.));
#362=DIRECTION('',(0.,0.,-1.));
#363=DIRECTION('',(-1.,0.,0.));
#364=DIRECTION('',(0.,0.,1.));
#365=DIRECTION('',(0.,0.,1.));
#366=DIRECTION('',(-1.,0.,0.));
#367=DIRECTION('',(0.,0.,1.));
#368=DIRECTION('',(-1.0842021724855E-16,-1.,0.));
#369=DIRECTION('',(1.,-1.09287578986539E-16,0.));
#370=DIRECTION('',(0.,0.,1.));
#371=DIRECTION('',(-1.,0.,0.));
#372=DIRECTION('',(0.,0.,1.));
#373=DIRECTION('',(-1.0842021724855E-16,1.,0.));
#374=DIRECTION('',(1.,1.09287578986539E-16,0.));
#375=CARTESIAN_POINT('',(0.,0.,0.));
#376=CARTESIAN_POINT('',(-31.26,0.,0.));
#377=CARTESIAN_POINT('',(-31.26,0.,-9.99));
#378=CARTESIAN_POINT('',(-117.826012709968,7.99999999999999,5.98331847723318));
#379=CARTESIAN_POINT('',(-95.26,8.,5.98331847723318));
#380=CARTESIAN_POINT('',(-32.26,8.,5.98331847723318));
#381=CARTESIAN_POINT('',(-95.26,0.,0.));
#382=CARTESIAN_POINT('',(-95.26,-8.,5.98331847723318));
#383=CARTESIAN_POINT('',(-117.826012709968,-7.99999999999999,5.98331847723318));
#384=CARTESIAN_POINT('',(-32.26,-8.,5.98331847723318));
#385=CARTESIAN_POINT('',(-32.26,0.,0.));
#386=CARTESIAN_POINT('',(-32.26,-8.,-5.98331847723319));
#387=CARTESIAN_POINT('',(-117.826012709968,-7.99999999999999,-5.98331847723318));
#388=CARTESIAN_POINT('',(-95.26,-8.,-5.98331847723318));
#389=CARTESIAN_POINT('',(-95.26,0.,0.));
#390=CARTESIAN_POINT('',(-95.26,8.,-5.98331847723318));
#391=CARTESIAN_POINT('',(-117.826012709968,7.99999999999999,-5.98331847723318));
#392=CARTESIAN_POINT('',(-32.26,8.,-5.98331847723319));
#393=CARTESIAN_POINT('',(-32.26,0.,0.));
#394=CARTESIAN_POINT('',(-117.826012709968,0.,0.));
#395=CARTESIAN_POINT('',(-95.26,8.,5.98331847723319));
#396=CARTESIAN_POINT('',(-95.6033992034468,8.,5.65229253956901));
#397=CARTESIAN_POINT('',(-95.9380516065907,8.,5.31240148009511));
#398=CARTESIAN_POINT('',(-96.26,8.,4.95963455860657));
#399=CARTESIAN_POINT('',(-96.26,8.,4.95963455860657));
#400=CARTESIAN_POINT('',(-96.26,0.,0.));
#401=CARTESIAN_POINT('',(-96.26,-8.,4.95963455860657));
#402=CARTESIAN_POINT('',(-96.26,-8.,4.95963455860657));
#403=CARTESIAN_POINT('',(-95.9378048278103,-8.,5.31267188178821));
#404=CARTESIAN_POINT('',(-95.6031668149387,-8.,5.65251655471816));
#405=CARTESIAN_POINT('',(-95.26,-8.,5.98331847723318));
#406=CARTESIAN_POINT('',(-95.26,0.,0.));
#407=CARTESIAN_POINT('',(-96.26,0.,0.));
#408=CARTESIAN_POINT('',(-96.26,8.,-4.95963455860657));
#409=CARTESIAN_POINT('',(-96.26,-8.,-4.95963455860657));
#410=CARTESIAN_POINT('',(-96.26,8.,-4.95963455860657));
#411=CARTESIAN_POINT('',(-95.9378048278103,8.,-5.31267188178821));
#412=CARTESIAN_POINT('',(-95.6031668149387,8.,-5.65251655471816));
#413=CARTESIAN_POINT('',(-95.26,8.,-5.98331847723318));
#414=CARTESIAN_POINT('',(-95.26,-8.,-5.98331847723318));
#415=CARTESIAN_POINT('',(-95.6033992034468,-8.,-5.652292539569));
#416=CARTESIAN_POINT('',(-95.9380516065907,-8.,-5.31240148009511));
#417=CARTESIAN_POINT('',(-96.26,-8.,-4.95963455860657));
#418=CARTESIAN_POINT('',(-95.26,0.,0.));
#419=CARTESIAN_POINT('',(-96.26,8.,9.));
#420=CARTESIAN_POINT('',(-96.26,-8.,9.));
#421=CARTESIAN_POINT('',(-96.26,0.,0.));
#422=CARTESIAN_POINT('',(0.,0.,0.));
#423=CARTESIAN_POINT('',(-1.5,0.,0.));
#424=CARTESIAN_POINT('',(-1.5,0.,-1.5));
#425=CARTESIAN_POINT('',(-1.5,0.,0.));
#426=CARTESIAN_POINT('',(-10.21,0.,0.));
#427=CARTESIAN_POINT('',(-10.21,0.,-1.5));
#428=CARTESIAN_POINT('',(-117.826012709968,0.,0.));
#429=CARTESIAN_POINT('',(-10.21,0.,0.));
#430=CARTESIAN_POINT('',(-10.21,0.,-2.57));
#431=CARTESIAN_POINT('',(-10.21,0.,2.57));
#432=CARTESIAN_POINT('',(-10.26,0.,0.));
#433=CARTESIAN_POINT('',(-10.26,0.,-2.58339745962156));
#434=CARTESIAN_POINT('',(-10.26,0.,0.));
#435=CARTESIAN_POINT('',(-10.26,0.,0.));
#436=CARTESIAN_POINT('',(-10.26,0.,3.70235235405143));
#437=CARTESIAN_POINT('',(-10.26,0.,4.03960661247265));
#438=CARTESIAN_POINT('',(-10.572696703292,0.,0.));
#439=CARTESIAN_POINT('',(-10.572696703292,0.,-4.16594428133483));
#440=CARTESIAN_POINT('',(-25.26,0.,0.));
#441=CARTESIAN_POINT('',(-25.26,0.,-10.1));
#442=CARTESIAN_POINT('',(-25.26,0.,0.));
#443=CARTESIAN_POINT('',(-31.26,0.,0.));
#444=CARTESIAN_POINT('',(-31.26,0.,-10.1));
#445=CARTESIAN_POINT('',(-117.826012709968,0.,0.));
#446=CARTESIAN_POINT('',(-31.26,0.,9.99));
#447=CARTESIAN_POINT('',(-10.76,0.,0.));
#448=CARTESIAN_POINT('',(-32.26,-8.,9.));
#449=CARTESIAN_POINT('',(-32.26,-48.,9.));
#450=CARTESIAN_POINT('',(-32.26,-8.,9.));
#451=CARTESIAN_POINT('',(-32.26,8.,9.));
#452=CARTESIAN_POINT('',(-32.26,48.,9.));
#453=CARTESIAN_POINT('',(-32.26,8.,9.));
#454=MECHANICAL_DESIGN_GEOMETRIC_PRESENTATION_REPRESENTATION('',(#32),#455);
#455=(
GEOMETRIC_REPRESENTATION_CONTEXT(3)
GLOBAL_UNCERTAINTY_ASSIGNED_CONTEXT((#456))
GLOBAL_UNIT_ASSIGNED_CONTEXT((#462,#458,#457))
REPRESENTATION_CONTEXT('10981023_kreiter','TOP_LEVEL_ASSEMBLY_PART')
);
#456=UNCERTAINTY_MEASURE_WITH_UNIT(LENGTH_MEASURE(0.0508),#462,
'DISTANCE_ACCURACY_VALUE','Maximum Tolerance applied to model');
#457=(
NAMED_UNIT(*)
SI_UNIT($,.STERADIAN.)
SOLID_ANGLE_UNIT()
);
#458=(
CONVERSION_BASED_UNIT('DEGREE',#460)
NAMED_UNIT(#459)
PLANE_ANGLE_UNIT()
);
#459=DIMENSIONAL_EXPONENTS(0.,0.,0.,0.,0.,0.,0.);
#460=PLANE_ANGLE_MEASURE_WITH_UNIT(PLANE_ANGLE_MEASURE(0.0174532925),#461);
#461=(
NAMED_UNIT(*)
PLANE_ANGLE_UNIT()
SI_UNIT($,.RADIAN.)
);
#462=(
LENGTH_UNIT()
NAMED_UNIT(*)
SI_UNIT(.MILLI.,.METRE.)
);
ENDSEC;
END-ISO-10303-21;
