ISO-10303-21;
HEADER;
/* Generated by software containing ST-Developer
 * from STEP Tools, Inc. (www.steptools.com) 
 */
/* OPTION: using custom schema-name function */

FILE_DESCRIPTION(
/* description */ (''),
/* implementation_level */ '2;1');

FILE_NAME(
/* name */ 'W9990705_stp.stp',
/* time_stamp */ '2017-05-29T12:38:08+02:00',
/* author */ (''),
/* organization */ (''),
/* preprocessor_version */ 'ST-DEVELOPER v15',
/* originating_system */ 'SIEMENS PLM Software NX 9.0',
/* authorisation */ '');

FILE_SCHEMA (('AUTOMOTIVE_DESIGN { 1 0 10303 214 3 1 1 1 }'));
ENDSEC;

DATA;
#10=PROPERTY_DEFINITION_REPRESENTATION(#14,#12);
#11=PROPERTY_DEFINITION_REPRESENTATION(#15,#13);
#12=REPRESENTATION('',(#16),#450);
#13=REPRESENTATION('',(#17),#450);
#14=PROPERTY_DEFINITION('pmi validation property','',#21);
#15=PROPERTY_DEFINITION('pmi validation property','',#21);
#16=VALUE_REPRESENTATION_ITEM('number of annotations',COUNT_MEASURE(0.));
#17=VALUE_REPRESENTATION_ITEM('number of views',COUNT_MEASURE(0.));
#18=SHAPE_REPRESENTATION_RELATIONSHIP('None',
'relationship between reic1C24C78Ap7ha-None and reic1C24C78Ap7ha-None',
#30,#19);
#19=ADVANCED_BREP_SHAPE_REPRESENTATION('reic1C24C78Ap7ha-None',(#40),#450);
#20=SHAPE_DEFINITION_REPRESENTATION(#21,#30);
#21=PRODUCT_DEFINITION_SHAPE('','',#22);
#22=PRODUCT_DEFINITION(' ','',#24,#23);
#23=PRODUCT_DEFINITION_CONTEXT('part definition',#29,'design');
#24=PRODUCT_DEFINITION_FORMATION_WITH_SPECIFIED_SOURCE(' ',' ',#26,
 .NOT_KNOWN.);
#25=PRODUCT_RELATED_PRODUCT_CATEGORY('part','',(#26));
#26=PRODUCT('reic1C24C78Ap7ha','reic1C24C78Ap7ha',' ',(#27));
#27=PRODUCT_CONTEXT(' ',#29,'mechanical');
#28=APPLICATION_PROTOCOL_DEFINITION('international standard',
'automotive_design',2010,#29);
#29=APPLICATION_CONTEXT(
'core data for automotive mechanical design processes');
#30=SHAPE_REPRESENTATION('reic1C24C78Ap7ha-None',(#231),#450);
#31=PRESENTATION_LAYER_ASSIGNMENT('210','Layer 210',(#40));
#32=STYLED_ITEM('',(#33),#40);
#33=PRESENTATION_STYLE_ASSIGNMENT((#34));
#34=SURFACE_STYLE_USAGE(.BOTH.,#35);
#35=SURFACE_SIDE_STYLE('',(#36));
#36=SURFACE_STYLE_FILL_AREA(#37);
#37=FILL_AREA_STYLE('',(#38));
#38=FILL_AREA_STYLE_COLOUR('',#39);
#39=COLOUR_RGB('RAL 7035',0.8,0.8,0.8);
#40=MANIFOLD_SOLID_BREP('',#41);
#41=CLOSED_SHELL('',(#61,#62,#63,#64,#65,#66,#67,#68,#69,#70,#71,#72,#73,
#74,#75,#76,#77,#78));
#42=CONICAL_SURFACE('',#245,5.76923752622916,24.9999999999999);
#43=CONICAL_SURFACE('',#247,12.0013536183757,74.9999999999999);
#44=CONICAL_SURFACE('',#249,4.,45.);
#45=CONICAL_SURFACE('',#251,3.,59.9999999999999);
#46=CONICAL_SURFACE('',#258,10.0723145172501,8.00000000000004);
#47=B_SPLINE_CURVE_WITH_KNOTS('',3,(#355,#356,#357,#358,#359,#360,#361,
#362,#363,#364,#365,#366,#367,#368,#369,#370,#371,#372,#373,#374,#375,#376,
#377,#378,#379,#380,#381,#382,#383,#384,#385,#386,#387,#388,#389,#390,#391,
#392,#393,#394,#395,#396,#397,#398,#399,#400,#401,#402,#403,#404,#405,#406,
#407,#408,#409,#410,#411,#412,#413,#414,#415),.UNSPECIFIED.,.T.,.F.,(1,
3,3,3,3,3,3,3,3,3,3,3,3,3,3,3,3,3,3,3,3,3,1),(-0.0473608215170601,0.,0.0634775935824605,
0.127115126583475,0.179150918460225,0.222096893536584,0.265341474812074,
0.304276165439003,0.344562983641126,0.391295705258434,0.446989842913623,
0.506501320785075,0.569456347121635,0.632416512240411,0.683265021673948,
0.725945669022276,0.768876650354732,0.808136869651811,0.849203196347153,
0.896742436393913,0.95263917848294,1.,1.06347759358246),.UNSPECIFIED.);
#48=CYLINDRICAL_SURFACE('',#241,3.);
#49=CYLINDRICAL_SURFACE('',#256,8.);
#50=CYLINDRICAL_SURFACE('',#262,16.);
#51=CYLINDRICAL_SURFACE('',#265,25.);
#52=PLANE('',#239);
#53=PLANE('',#244);
#54=PLANE('',#252);
#55=PLANE('',#254);
#56=PLANE('',#260);
#57=PLANE('',#264);
#58=FACE_OUTER_BOUND('',#117,.T.);
#59=FACE_OUTER_BOUND('',#133,.T.);
#60=FACE_OUTER_BOUND('',#134,.T.);
#61=ADVANCED_FACE('',(#82,#83),#79,.F.);
#62=ADVANCED_FACE('',(#84,#85),#80,.T.);
#63=ADVANCED_FACE('',(#58),#52,.T.);
#64=ADVANCED_FACE('',(#86,#87),#48,.F.);
#65=ADVANCED_FACE('',(#88,#89,#90),#81,.F.);
#66=ADVANCED_FACE('',(#91,#92),#53,.F.);
#67=ADVANCED_FACE('',(#93,#94),#42,.T.);
#68=ADVANCED_FACE('',(#95,#96),#43,.T.);
#69=ADVANCED_FACE('',(#97,#98),#44,.F.);
#70=ADVANCED_FACE('',(#99,#100),#45,.T.);
#71=ADVANCED_FACE('',(#59),#54,.F.);
#72=ADVANCED_FACE('',(#60),#55,.F.);
#73=ADVANCED_FACE('',(#101,#102),#49,.T.);
#74=ADVANCED_FACE('',(#103,#104),#46,.T.);
#75=ADVANCED_FACE('',(#105,#106),#56,.F.);
#76=ADVANCED_FACE('',(#107,#108),#50,.T.);
#77=ADVANCED_FACE('',(#109,#110),#57,.F.);
#78=ADVANCED_FACE('',(#111,#112),#51,.T.);
#79=TOROIDAL_SURFACE('',#234,12.7778107536833,2.99999999999996);
#80=TOROIDAL_SURFACE('',#237,4.86292973919251,1.);
#81=TOROIDAL_SURFACE('',#243,708.5,700.);
#82=FACE_BOUND('',#113,.T.);
#83=FACE_BOUND('',#114,.T.);
#84=FACE_BOUND('',#115,.T.);
#85=FACE_BOUND('',#116,.T.);
#86=FACE_BOUND('',#118,.T.);
#87=FACE_BOUND('',#119,.T.);
#88=FACE_BOUND('',#120,.T.);
#89=FACE_BOUND('',#121,.T.);
#90=FACE_BOUND('',#122,.T.);
#91=FACE_BOUND('',#123,.T.);
#92=FACE_BOUND('',#124,.T.);
#93=FACE_BOUND('',#125,.T.);
#94=FACE_BOUND('',#126,.T.);
#95=FACE_BOUND('',#127,.T.);
#96=FACE_BOUND('',#128,.T.);
#97=FACE_BOUND('',#129,.T.);
#98=FACE_BOUND('',#130,.T.);
#99=FACE_BOUND('',#131,.T.);
#100=FACE_BOUND('',#132,.T.);
#101=FACE_BOUND('',#135,.T.);
#102=FACE_BOUND('',#136,.T.);
#103=FACE_BOUND('',#137,.T.);
#104=FACE_BOUND('',#138,.T.);
#105=FACE_BOUND('',#139,.T.);
#106=FACE_BOUND('',#140,.T.);
#107=FACE_BOUND('',#141,.T.);
#108=FACE_BOUND('',#142,.T.);
#109=FACE_BOUND('',#143,.T.);
#110=FACE_BOUND('',#144,.T.);
#111=FACE_BOUND('',#145,.T.);
#112=FACE_BOUND('',#146,.T.);
#113=EDGE_LOOP('',(#147));
#114=EDGE_LOOP('',(#148));
#115=EDGE_LOOP('',(#149));
#116=EDGE_LOOP('',(#150));
#117=EDGE_LOOP('',(#151));
#118=EDGE_LOOP('',(#152));
#119=EDGE_LOOP('',(#153));
#120=EDGE_LOOP('',(#154));
#121=EDGE_LOOP('',(#155));
#122=EDGE_LOOP('',(#156));
#123=EDGE_LOOP('',(#157));
#124=EDGE_LOOP('',(#158));
#125=EDGE_LOOP('',(#159));
#126=EDGE_LOOP('',(#160));
#127=EDGE_LOOP('',(#161));
#128=EDGE_LOOP('',(#162));
#129=EDGE_LOOP('',(#163));
#130=EDGE_LOOP('',(#164));
#131=EDGE_LOOP('',(#165));
#132=EDGE_LOOP('',(#166));
#133=EDGE_LOOP('',(#167));
#134=EDGE_LOOP('',(#168));
#135=EDGE_LOOP('',(#169));
#136=EDGE_LOOP('',(#170));
#137=EDGE_LOOP('',(#171));
#138=EDGE_LOOP('',(#172));
#139=EDGE_LOOP('',(#173));
#140=EDGE_LOOP('',(#174));
#141=EDGE_LOOP('',(#175));
#142=EDGE_LOOP('',(#176));
#143=EDGE_LOOP('',(#177));
#144=EDGE_LOOP('',(#178));
#145=EDGE_LOOP('',(#179));
#146=EDGE_LOOP('',(#180));
#147=ORIENTED_EDGE('',*,*,#198,.F.);
#148=ORIENTED_EDGE('',*,*,#199,.T.);
#149=ORIENTED_EDGE('',*,*,#200,.F.);
#150=ORIENTED_EDGE('',*,*,#201,.T.);
#151=ORIENTED_EDGE('',*,*,#202,.T.);
#152=ORIENTED_EDGE('',*,*,#203,.F.);
#153=ORIENTED_EDGE('',*,*,#202,.F.);
#154=ORIENTED_EDGE('',*,*,#204,.T.);
#155=ORIENTED_EDGE('',*,*,#205,.T.);
#156=ORIENTED_EDGE('',*,*,#199,.F.);
#157=ORIENTED_EDGE('',*,*,#203,.T.);
#158=ORIENTED_EDGE('',*,*,#201,.F.);
#159=ORIENTED_EDGE('',*,*,#200,.T.);
#160=ORIENTED_EDGE('',*,*,#204,.F.);
#161=ORIENTED_EDGE('',*,*,#198,.T.);
#162=ORIENTED_EDGE('',*,*,#206,.F.);
#163=ORIENTED_EDGE('',*,*,#205,.F.);
#164=ORIENTED_EDGE('',*,*,#207,.T.);
#165=ORIENTED_EDGE('',*,*,#207,.F.);
#166=ORIENTED_EDGE('',*,*,#208,.F.);
#167=ORIENTED_EDGE('',*,*,#208,.T.);
#168=ORIENTED_EDGE('',*,*,#209,.F.);
#169=ORIENTED_EDGE('',*,*,#210,.T.);
#170=ORIENTED_EDGE('',*,*,#209,.T.);
#171=ORIENTED_EDGE('',*,*,#210,.F.);
#172=ORIENTED_EDGE('',*,*,#211,.F.);
#173=ORIENTED_EDGE('',*,*,#212,.F.);
#174=ORIENTED_EDGE('',*,*,#211,.T.);
#175=ORIENTED_EDGE('',*,*,#212,.T.);
#176=ORIENTED_EDGE('',*,*,#213,.F.);
#177=ORIENTED_EDGE('',*,*,#213,.T.);
#178=ORIENTED_EDGE('',*,*,#214,.T.);
#179=ORIENTED_EDGE('',*,*,#214,.F.);
#180=ORIENTED_EDGE('',*,*,#206,.T.);
#181=VERTEX_POINT('',#338);
#182=VERTEX_POINT('',#340);
#183=VERTEX_POINT('',#343);
#184=VERTEX_POINT('',#345);
#185=VERTEX_POINT('',#348);
#186=VERTEX_POINT('',#351);
#187=VERTEX_POINT('',#354);
#188=VERTEX_POINT('',#416);
#189=VERTEX_POINT('',#421);
#190=VERTEX_POINT('',#424);
#191=VERTEX_POINT('',#427);
#192=VERTEX_POINT('',#431);
#193=VERTEX_POINT('',#434);
#194=VERTEX_POINT('',#437);
#195=VERTEX_POINT('',#440);
#196=VERTEX_POINT('',#443);
#197=VERTEX_POINT('',#446);
#198=EDGE_CURVE('',#181,#181,#215,.T.);
#199=EDGE_CURVE('',#182,#182,#216,.T.);
#200=EDGE_CURVE('',#183,#183,#217,.T.);
#201=EDGE_CURVE('',#184,#184,#218,.T.);
#202=EDGE_CURVE('',#185,#185,#219,.T.);
#203=EDGE_CURVE('',#186,#186,#220,.T.);
#204=EDGE_CURVE('',#187,#187,#221,.T.);
#205=EDGE_CURVE('',#188,#188,#47,.T.);
#206=EDGE_CURVE('',#189,#189,#222,.T.);
#207=EDGE_CURVE('',#190,#190,#223,.T.);
#208=EDGE_CURVE('',#191,#191,#224,.T.);
#209=EDGE_CURVE('',#192,#192,#225,.T.);
#210=EDGE_CURVE('',#193,#193,#226,.T.);
#211=EDGE_CURVE('',#194,#194,#227,.T.);
#212=EDGE_CURVE('',#195,#195,#228,.T.);
#213=EDGE_CURVE('',#196,#196,#229,.T.);
#214=EDGE_CURVE('',#197,#197,#230,.T.);
#215=CIRCLE('',#232,12.0013536183757);
#216=CIRCLE('',#233,9.78331065649685);
#217=CIRCLE('',#235,5.76923752622916);
#218=CIRCLE('',#236,4.86292973919251);
#219=CIRCLE('',#238,3.);
#220=CIRCLE('',#240,3.);
#221=CIRCLE('',#242,8.5);
#222=CIRCLE('',#246,25.);
#223=CIRCLE('',#248,2.76359847008652);
#224=CIRCLE('',#250,2.30717967697245);
#225=CIRCLE('',#253,8.);
#226=CIRCLE('',#255,8.);
#227=CIRCLE('',#257,10.0723145172501);
#228=CIRCLE('',#259,16.);
#229=CIRCLE('',#261,16.);
#230=CIRCLE('',#263,25.);
#231=AXIS2_PLACEMENT_3D('',#336,#266,#267);
#232=AXIS2_PLACEMENT_3D('',#337,#268,#269);
#233=AXIS2_PLACEMENT_3D('',#339,#270,#271);
#234=AXIS2_PLACEMENT_3D('',#341,#272,#273);
#235=AXIS2_PLACEMENT_3D('',#342,#274,#275);
#236=AXIS2_PLACEMENT_3D('',#344,#276,#277);
#237=AXIS2_PLACEMENT_3D('',#346,#278,#279);
#238=AXIS2_PLACEMENT_3D('',#347,#280,#281);
#239=AXIS2_PLACEMENT_3D('',#349,#282,#283);
#240=AXIS2_PLACEMENT_3D('',#350,#284,#285);
#241=AXIS2_PLACEMENT_3D('',#352,#286,#287);
#242=AXIS2_PLACEMENT_3D('',#353,#288,#289);
#243=AXIS2_PLACEMENT_3D('',#417,#290,#291);
#244=AXIS2_PLACEMENT_3D('',#418,#292,#293);
#245=AXIS2_PLACEMENT_3D('',#419,#294,#295);
#246=AXIS2_PLACEMENT_3D('',#420,#296,#297);
#247=AXIS2_PLACEMENT_3D('',#422,#298,#299);
#248=AXIS2_PLACEMENT_3D('',#423,#300,#301);
#249=AXIS2_PLACEMENT_3D('',#425,#302,#303);
#250=AXIS2_PLACEMENT_3D('',#426,#304,#305);
#251=AXIS2_PLACEMENT_3D('',#428,#306,#307);
#252=AXIS2_PLACEMENT_3D('',#429,#308,#309);
#253=AXIS2_PLACEMENT_3D('',#430,#310,#311);
#254=AXIS2_PLACEMENT_3D('',#432,#312,#313);
#255=AXIS2_PLACEMENT_3D('',#433,#314,#315);
#256=AXIS2_PLACEMENT_3D('',#435,#316,#317);
#257=AXIS2_PLACEMENT_3D('',#436,#318,#319);
#258=AXIS2_PLACEMENT_3D('',#438,#320,#321);
#259=AXIS2_PLACEMENT_3D('',#439,#322,#323);
#260=AXIS2_PLACEMENT_3D('',#441,#324,#325);
#261=AXIS2_PLACEMENT_3D('',#442,#326,#327);
#262=AXIS2_PLACEMENT_3D('',#444,#328,#329);
#263=AXIS2_PLACEMENT_3D('',#445,#330,#331);
#264=AXIS2_PLACEMENT_3D('',#447,#332,#333);
#265=AXIS2_PLACEMENT_3D('',#448,#334,#335);
#266=DIRECTION('',(0.,0.,1.));
#267=DIRECTION('',(1.,0.,0.));
#268=DIRECTION('',(0.,0.,-1.));
#269=DIRECTION('',(-1.,0.,0.));
#270=DIRECTION('',(0.,0.,-1.));
#271=DIRECTION('',(-1.,0.,0.));
#272=DIRECTION('',(0.,0.,-1.));
#273=DIRECTION('',(1.,0.,0.));
#274=DIRECTION('',(0.,0.,-1.));
#275=DIRECTION('',(-1.,0.,0.));
#276=DIRECTION('',(0.,0.,-1.));
#277=DIRECTION('',(-1.,0.,0.));
#278=DIRECTION('',(0.,0.,-1.));
#279=DIRECTION('',(1.,0.,0.));
#280=DIRECTION('',(0.,0.,1.));
#281=DIRECTION('',(1.,0.,0.));
#282=DIRECTION('',(0.,0.,1.));
#283=DIRECTION('',(-1.,0.,0.));
#284=DIRECTION('',(0.,0.,-1.));
#285=DIRECTION('',(-1.,0.,0.));
#286=DIRECTION('',(0.,0.,-1.));
#287=DIRECTION('',(1.,0.,0.));
#288=DIRECTION('',(0.,0.,-1.));
#289=DIRECTION('',(-1.,0.,0.));
#290=DIRECTION('',(0.,0.,-1.));
#291=DIRECTION('',(1.,0.,0.));
#292=DIRECTION('',(0.,0.,-1.));
#293=DIRECTION('',(1.,0.,0.));
#294=DIRECTION('',(0.,0.,-1.));
#295=DIRECTION('',(1.,0.,-2.93973035638363E-017));
#296=DIRECTION('',(0.,0.,-1.));
#297=DIRECTION('',(-1.,0.,0.));
#298=DIRECTION('',(0.,0.,-1.));
#299=DIRECTION('',(1.,0.,5.55993368028314E-018));
#300=DIRECTION('',(0.,1.,0.));
#301=DIRECTION('',(0.,0.,1.));
#302=DIRECTION('',(0.,-1.,0.));
#303=DIRECTION('',(-1.,1.05396545851181E-016,0.));
#304=DIRECTION('',(0.,-1.,0.));
#305=DIRECTION('',(0.,0.,1.));
#306=DIRECTION('',(0.,1.,0.));
#307=DIRECTION('',(0.,-5.99886805069694E-018,-1.));
#308=DIRECTION('',(0.,1.,0.));
#309=DIRECTION('',(0.,0.,-1.));
#310=DIRECTION('',(0.,0.,1.));
#311=DIRECTION('',(1.,0.,0.));
#312=DIRECTION('',(0.,0.,1.));
#313=DIRECTION('',(-1.,0.,0.));
#314=DIRECTION('',(0.,0.,-1.));
#315=DIRECTION('',(1.,0.,0.));
#316=DIRECTION('',(0.,0.,-1.));
#317=DIRECTION('',(1.,0.,0.));
#318=DIRECTION('',(0.,0.,1.));
#319=DIRECTION('',(1.,0.,0.));
#320=DIRECTION('',(0.,0.,1.));
#321=DIRECTION('',(-1.,0.,2.53390335898458E-016));
#322=DIRECTION('',(0.,0.,1.));
#323=DIRECTION('',(1.,0.,0.));
#324=DIRECTION('',(0.,0.,1.));
#325=DIRECTION('',(-1.,0.,0.));
#326=DIRECTION('',(0.,0.,1.));
#327=DIRECTION('',(1.,0.,0.));
#328=DIRECTION('',(0.,0.,-1.));
#329=DIRECTION('',(1.,0.,0.));
#330=DIRECTION('',(0.,0.,-1.));
#331=DIRECTION('',(-1.,0.,0.));
#332=DIRECTION('',(0.,0.,1.));
#333=DIRECTION('',(-1.,0.,0.));
#334=DIRECTION('',(0.,0.,-1.));
#335=DIRECTION('',(1.,0.,0.));
#336=CARTESIAN_POINT('',(0.,0.,0.));
#337=CARTESIAN_POINT('',(0.,0.,8.482976800654));
#338=CARTESIAN_POINT('',(-12.0013536183757,0.,8.482976800654));
#339=CARTESIAN_POINT('',(0.,0.,11.19918014053));
#340=CARTESIAN_POINT('',(-9.78331065649685,0.,11.19918014053));
#341=CARTESIAN_POINT('',(0.,0.,11.3807542795212));
#342=CARTESIAN_POINT('',(0.,0.,59.4226182617407));
#343=CARTESIAN_POINT('',(-5.76923752622916,0.,59.4226182617407));
#344=CARTESIAN_POINT('',(0.,0.,60.));
#345=CARTESIAN_POINT('',(-4.86292973919251,0.,60.));
#346=CARTESIAN_POINT('',(0.,0.,59.));
#347=CARTESIAN_POINT('',(0.,0.,20.));
#348=CARTESIAN_POINT('',(3.,0.,20.));
#349=CARTESIAN_POINT('',(0.,3.25,20.));
#350=CARTESIAN_POINT('',(0.,0.,60.));
#351=CARTESIAN_POINT('',(-3.,0.,60.));
#352=CARTESIAN_POINT('',(0.,0.,-44.4524398132479));
#353=CARTESIAN_POINT('',(0.,0.,53.5664792384713));
#354=CARTESIAN_POINT('',(-8.5,0.,53.5664792384713));
#355=CARTESIAN_POINT('',(3.0400251356605,-8.0400251356605,42.0000000000183));
#356=CARTESIAN_POINT('',(3.04568884139555,-8.04568884139289,41.5582205724619));
#357=CARTESIAN_POINT('',(2.98027488640173,-8.0797758537784,41.1098928779154));
#358=CARTESIAN_POINT('',(2.84812061697242,-8.13419754040849,40.6917939101658));
#359=CARTESIAN_POINT('',(2.71569601368298,-8.18873055166461,40.2728396820575));
#360=CARTESIAN_POINT('',(2.51256112992097,-8.26481435896397,39.8716745721438));
#361=CARTESIAN_POINT('',(2.2480624788804,-8.34327775862179,39.5253846233514));
#362=CARTESIAN_POINT('',(2.03119010063163,-8.40761284699495,39.2414484880902));
#363=CARTESIAN_POINT('',(1.76699819030504,-8.47491893437987,38.9869677870801));
#364=CARTESIAN_POINT('',(1.46786182587296,-8.53063356813138,38.7889635547753));
#365=CARTESIAN_POINT('',(1.22058935603647,-8.57668846727388,38.6252890525026));
#366=CARTESIAN_POINT('',(0.943009323771638,-8.61562799575132,38.4967951743497));
#367=CARTESIAN_POINT('',(0.653857773970413,-8.63917835933225,38.4200434161221));
#368=CARTESIAN_POINT('',(0.363473644309078,-8.66282911215152,38.3429644845783));
#369=CARTESIAN_POINT('',(0.0528286165542735,-8.67115353994007,38.3168991231446));
#370=CARTESIAN_POINT('',(-0.246955368432504,-8.66196538042955,38.3463711883297));
#371=CARTESIAN_POINT('',(-0.517969097939607,-8.65365900817167,38.3730148207521));
#372=CARTESIAN_POINT('',(-0.787183029607514,-8.63112345938399,38.4450660846978));
#373=CARTESIAN_POINT('',(-1.03518778469055,-8.59893158485633,38.5531616221667));
#374=CARTESIAN_POINT('',(-1.29221386336696,-8.5655687113408,38.6651892004636));
#375=CARTESIAN_POINT('',(-1.53271694574233,-8.52137405977465,38.8178578338619));
#376=CARTESIAN_POINT('',(-1.7457810942982,-8.47367221325727,38.9968937721175));
#377=CARTESIAN_POINT('',(-1.99278050355248,-8.41837277414473,39.2044452127711));
#378=CARTESIAN_POINT('',(-2.20871734729532,-8.35735024176047,39.4516533728237));
#379=CARTESIAN_POINT('',(-2.386853344035,-8.30059581453015,39.7203369009955));
#380=CARTESIAN_POINT('',(-2.59870089021469,-8.23310083112627,40.0398677492455));
#381=CARTESIAN_POINT('',(-2.7622028537423,-8.17030848014317,40.3973675243817));
#382=CARTESIAN_POINT('',(-2.87144190830774,-8.12450825781982,40.7681829598523));
#383=CARTESIAN_POINT('',(-2.9880091143244,-8.07563559069164,41.1638740378518));
#384=CARTESIAN_POINT('',(-3.04534963330209,-8.04534963330208,41.5846794253003));
#385=CARTESIAN_POINT('',(-3.04002513566075,-8.04002513566075,42.));
#386=CARTESIAN_POINT('',(-3.03440195845345,-8.03440195845345,42.438618128261));
#387=CARTESIAN_POINT('',(-2.95848978541123,-8.05667884944701,42.8828123236386));
#388=CARTESIAN_POINT('',(-2.81608076223994,-8.09977921016922,43.295500016341));
#389=CARTESIAN_POINT('',(-2.6737607397239,-8.14285263467447,43.7079297936791));
#390=CARTESIAN_POINT('',(-2.46084866191486,-8.20756017905389,44.10135947791));
#391=CARTESIAN_POINT('',(-2.18765405037134,-8.27524747455592,44.4375019539436));
#392=CARTESIAN_POINT('',(-1.96631111486129,-8.33008788520131,44.7098454016219));
#393=CARTESIAN_POINT('',(-1.69923143289983,-8.3879668324335,44.9517130073302));
#394=CARTESIAN_POINT('',(-1.40000431791479,-8.4353653382416,45.1371520391928));
#395=CARTESIAN_POINT('',(-1.14848730149929,-8.47520641602629,45.2930238492171));
#396=CARTESIAN_POINT('',(-0.867719524212139,-8.5083072680466,45.4122886965451));
#397=CARTESIAN_POINT('',(-0.577447966304861,-8.5271846082445,45.4795955378244));
#398=CARTESIAN_POINT('',(-0.286119027132087,-8.54613071351883,45.5471475598355));
#399=CARTESIAN_POINT('',(0.0231705582005546,-8.55088743181425,45.5634014935168));
#400=CARTESIAN_POINT('',(0.320249995896961,-8.54018098436877,45.5256660849));
#401=CARTESIAN_POINT('',(0.592939030623231,-8.53035354278649,45.4910287763387));
#402=CARTESIAN_POINT('',(0.862419753620333,-8.50754007847247,45.4106893188138));
#403=CARTESIAN_POINT('',(1.10984727542786,-8.47652739882738,45.2946140563081));
#404=CARTESIAN_POINT('',(1.36898950502246,-8.44404639230789,45.1730430923879));
#405=CARTESIAN_POINT('',(1.61025024548725,-8.40211149900583,45.0100815751388));
#406=CARTESIAN_POINT('',(1.82268963917972,-8.35820865286842,44.8205261628688));
#407=CARTESIAN_POINT('',(2.06842066600601,-8.30742573885973,44.6012652937428));
#408=CARTESIAN_POINT('',(2.28143187736888,-8.25308447423347,44.3418132346353));
#409=CARTESIAN_POINT('',(2.45462310089324,-8.20525179638124,44.0611803683245));
#410=CARTESIAN_POINT('',(2.65782526399934,-8.14913057147769,43.7319188485282));
#411=CARTESIAN_POINT('',(2.8111364579999,-8.10094267266548,43.3654744347677));
#412=CARTESIAN_POINT('',(2.90865250857822,-8.07186776035769,42.9879838670072));
#413=CARTESIAN_POINT('',(2.9915600224935,-8.04714845843304,42.6670438339164));
#414=CARTESIAN_POINT('',(3.03576444682932,-8.03576444683132,42.3323415376765));
#415=CARTESIAN_POINT('',(3.0400251356605,-8.0400251356605,42.0000000000183));
#416=CARTESIAN_POINT('',(3.0400251356605,-8.0400251356605,42.0000000000183));
#417=CARTESIAN_POINT('',(0.,0.,53.5664792384713));
#418=CARTESIAN_POINT('',(0.,0.,60.));
#419=CARTESIAN_POINT('',(0.,0.,59.4226182617407));
#420=CARTESIAN_POINT('',(0.,0.,5.));
#421=CARTESIAN_POINT('',(-25.,0.,5.));
#422=CARTESIAN_POINT('',(0.,0.,8.482976800654));
#423=CARTESIAN_POINT('',(0.,-7.76359847008651,42.));
#424=CARTESIAN_POINT('',(0.,-7.76359847008651,44.7635984700865));
#425=CARTESIAN_POINT('',(0.,-9.,42.));
#426=CARTESIAN_POINT('',(3.46944695195361E-015,-8.02711198315412,42.));
#427=CARTESIAN_POINT('',(3.46944695195361E-015,-8.02711198315412,44.3071796769724));
#428=CARTESIAN_POINT('',(3.46944695195361E-015,-7.62711198315412,42.));
#429=CARTESIAN_POINT('',(3.00000000000001,-8.02711198315412,42.));
#430=CARTESIAN_POINT('',(0.,0.,-41.));
#431=CARTESIAN_POINT('',(8.,0.,-41.));
#432=CARTESIAN_POINT('',(0.,0.,-41.));
#433=CARTESIAN_POINT('',(0.,0.,-33.2452839712988));
#434=CARTESIAN_POINT('',(8.,0.,-33.2452839712988));
#435=CARTESIAN_POINT('',(0.,0.,-41.));
#436=CARTESIAN_POINT('',(0.,0.,-18.5));
#437=CARTESIAN_POINT('',(10.0723145172501,0.,-18.5));
#438=CARTESIAN_POINT('',(0.,0.,-18.5));
#439=CARTESIAN_POINT('',(0.,0.,-18.5));
#440=CARTESIAN_POINT('',(16.,0.,-18.5));
#441=CARTESIAN_POINT('',(0.,16.,-18.5));
#442=CARTESIAN_POINT('',(0.,0.,0.));
#443=CARTESIAN_POINT('',(16.,0.,0.));
#444=CARTESIAN_POINT('',(0.,0.,-41.));
#445=CARTESIAN_POINT('',(0.,0.,0.));
#446=CARTESIAN_POINT('',(-25.,0.,0.));
#447=CARTESIAN_POINT('',(0.,25.,0.));
#448=CARTESIAN_POINT('',(0.,0.,-41.));
#449=MECHANICAL_DESIGN_GEOMETRIC_PRESENTATION_REPRESENTATION('',(#32),#450);
#450=(
GEOMETRIC_REPRESENTATION_CONTEXT(3)
GLOBAL_UNCERTAINTY_ASSIGNED_CONTEXT((#451))
GLOBAL_UNIT_ASSIGNED_CONTEXT((#457,#453,#452))
REPRESENTATION_CONTEXT('W9990705_stp','TOP_LEVEL_ASSEMBLY_PART')
);
#451=UNCERTAINTY_MEASURE_WITH_UNIT(LENGTH_MEASURE(0.0508),#457,
'DISTANCE_ACCURACY_VALUE','Maximum Tolerance applied to model');
#452=(
NAMED_UNIT(*)
SI_UNIT($,.STERADIAN.)
SOLID_ANGLE_UNIT()
);
#453=(
CONVERSION_BASED_UNIT('DEGREE',#455)
NAMED_UNIT(#454)
PLANE_ANGLE_UNIT()
);
#454=DIMENSIONAL_EXPONENTS(0.,0.,0.,0.,0.,0.,0.);
#455=PLANE_ANGLE_MEASURE_WITH_UNIT(PLANE_ANGLE_MEASURE(0.0174532925),#456);
#456=(
NAMED_UNIT(*)
PLANE_ANGLE_UNIT()
SI_UNIT($,.RADIAN.)
);
#457=(
LENGTH_UNIT()
NAMED_UNIT(*)
SI_UNIT(.MILLI.,.METRE.)
);
ENDSEC;
END-ISO-10303-21;
