  0
SECTION
  2
HEADER
  9
$ACADVER
  1
AC1014
  9
$ACADMAINTVER
 70
     9
  9
$DWGCODEPAGE
  3
ASCII
  9
$INSBASE
 10
0.0
 20
0.0
 30
0.0
  9
$EXTMIN
 10
1.000000000000000E+20
 20
1.000000000000000E+20
 30
1.000000000000000E+20
  9
$EXTMAX
 10
-1.000000000000000E+20
 20
-1.000000000000000E+20
 30
-1.000000000000000E+20
  9
$LIMMIN
 10
0.0
 20
0.0
  9
$LIMMAX
 10
12.0
 20
9.0
  9
$ORTHOMODE
 70
     0
  9
$REGENMODE
 70
     1
  9
$FILLMODE
 70
     1
  9
$QTEXTMODE
 70
     0
  9
$MIRRTEXT
 70
     1
  9
$DRAGMODE
 70
     2
  9
$LTSCALE
 40
1.0
  9
$OSMODE
 70
    37
  9
$ATTMODE
 70
     1
  9
$TEXTSIZE
 40
0.2
  9
$TRACEWID
 40
0.05
  9
$TEXTSTYLE
  7
STANDARD
  9
$CLAYER
  8
0
  9
$CELTYPE
  6
BYLAYER
  9
$CECOLOR
 62
   256
  9
$CELTSCALE
 40
1.0
  9
$DELOBJ
 70
     1
  9
$DISPSILH
 70
     0
  9
$DIMSCALE
 40
1.0
  9
$DIMASZ
 40
0.18
  9
$DIMEXO
 40
0.0625
  9
$DIMDLI
 40
0.38
  9
$DIMRND
 40
0.0
  9
$DIMDLE
 40
0.0
  9
$DIMEXE
 40
0.18
  9
$DIMTP
 40
0.0
  9
$DIMTM
 40
0.0
  9
$DIMTXT
 40
0.18
  9
$DIMCEN
 40
0.09
  9
$DIMTSZ
 40
0.0
  9
$DIMTOL
 70
     0
  9
$DIMLIM
 70
     0
  9
$DIMTIH
 70
     1
  9
$DIMTOH
 70
     1
  9
$DIMSE1
 70
     0
  9
$DIMSE2
 70
     0
  9
$DIMTAD
 70
     0
  9
$DIMZIN
 70
     0
  9
$DIMBLK
  1

  9
$DIMASO
 70
     1
  9
$DIMSHO
 70
     1
  9
$DIMPOST
  1

  9
$DIMAPOST
  1

  9
$DIMALT
 70
     0
  9
$DIMALTD
 70
     2
  9
$DIMALTF
 40
25.4
  9
$DIMLFAC
 40
1.0
  9
$DIMTOFL
 70
     0
  9
$DIMTVP
 40
0.0
  9
$DIMTIX
 70
     0
  9
$DIMSOXD
 70
     0
  9
$DIMSAH
 70
     0
  9
$DIMBLK1
  1

  9
$DIMBLK2
  1

  9
$DIMSTYLE
  2
STANDARD
  9
$DIMCLRD
 70
     0
  9
$DIMCLRE
 70
     0
  9
$DIMCLRT
 70
     0
  9
$DIMTFAC
 40
1.0
  9
$DIMGAP
 40
0.09
  9
$DIMJUST
 70
     0
  9
$DIMSD1
 70
     0
  9
$DIMSD2
 70
     0
  9
$DIMTOLJ
 70
     1
  9
$DIMTZIN
 70
     0
  9
$DIMALTZ
 70
     0
  9
$DIMALTTZ
 70
     0
  9
$DIMFIT
 70
     3
  9
$DIMUPT
 70
     0
  9
$DIMUNIT
 70
     2
  9
$DIMDEC
 70
     4
  9
$DIMTDEC
 70
     4
  9
$DIMALTU
 70
     2
  9
$DIMALTTD
 70
     2
  9
$DIMTXSTY
  7
STANDARD
  9
$DIMAUNIT
 70
     0
  9
$LUNITS
 70
     2
  9
$LUPREC
 70
     4
  9
$SKETCHINC
 40
0.1
  9
$FILLETRAD
 40
0.5
  9
$AUNITS
 70
     0
  9
$AUPREC
 70
     0
  9
$MENU
  1
.
  9
$ELEVATION
 40
0.0
  9
$PELEVATION
 40
0.0
  9
$THICKNESS
 40
0.0
  9
$LIMCHECK
 70
     0
  9
$CHAMFERA
 40
0.5
  9
$CHAMFERB
 40
0.5
  9
$CHAMFERC
 40
1.0
  9
$CHAMFERD
 40
0.0
  9
$SKPOLY
 70
     0
  9
$TDCREATE
 40
2454804.507401597
  9
$TDUPDATE
 40
2454804.507401609
  9
$TDINDWG
 40
0.0000000116
  9
$TDUSRTIMER
 40
0.0000000116
  9
$USRTIMER
 70
     1
  9
$ANGBASE
 50
0.0
  9
$ANGDIR
 70
     0
  9
$PDMODE
 70
     0
  9
$PDSIZE
 40
0.0
  9
$PLINEWID
 40
0.0
  9
$COORDS
 70
     1
  9
$SPLFRAME
 70
     0
  9
$SPLINETYPE
 70
     6
  9
$SPLINESEGS
 70
     8
  9
$ATTDIA
 70
     0
  9
$ATTREQ
 70
     1
  9
$HANDLING
 70
     1
  9
$HANDSEED
  5
7C5
  9
$SURFTAB1
 70
     6
  9
$SURFTAB2
 70
     6
  9
$SURFTYPE
 70
     6
  9
$SURFU
 70
     6
  9
$SURFV
 70
     6
  9
$UCSNAME
  2

  9
$UCSORG
 10
0.0
 20
0.0
 30
0.0
  9
$UCSXDIR
 10
1.0
 20
0.0
 30
0.0
  9
$UCSYDIR
 10
0.0
 20
1.0
 30
0.0
  9
$PUCSNAME
  2

  9
$PUCSORG
 10
0.0
 20
0.0
 30
0.0
  9
$PUCSXDIR
 10
1.0
 20
0.0
 30
0.0
  9
$PUCSYDIR
 10
0.0
 20
1.0
 30
0.0
  9
$USERI1
 70
     0
  9
$USERI2
 70
     0
  9
$USERI3
 70
     0
  9
$USERI4
 70
     0
  9
$USERI5
 70
     0
  9
$USERR1
 40
0.0
  9
$USERR2
 40
0.0
  9
$USERR3
 40
0.0
  9
$USERR4
 40
0.0
  9
$USERR5
 40
0.0
  9
$WORLDVIEW
 70
     1
  9
$SHADEDGE
 70
     3
  9
$SHADEDIF
 70
    70
  9
$TILEMODE
 70
     1
  9
$MAXACTVP
 70
    64
  9
$PINSBASE
 10
0.0
 20
0.0
 30
0.0
  9
$PLIMCHECK
 70
     0
  9
$PEXTMIN
 10
1.000000000000000E+20
 20
1.000000000000000E+20
 30
1.000000000000000E+20
  9
$PEXTMAX
 10
-1.000000000000000E+20
 20
-1.000000000000000E+20
 30
-1.000000000000000E+20
  9
$PLIMMIN
 10
0.0
 20
0.0
  9
$PLIMMAX
 10
12.0
 20
9.0
  9
$UNITMODE
 70
     0
  9
$VISRETAIN
 70
     1
  9
$PLINEGEN
 70
     0
  9
$PSLTSCALE
 70
     1
  9
$TREEDEPTH
 70
  3020
  9
$PICKSTYLE
 70
     1
  9
$CMLSTYLE
  2
STANDARD
  9
$CMLJUST
 70
     0
  9
$CMLSCALE
 40
1.0
  9
$PROXYGRAPHICS
 70
     1
  9
$MEASUREMENT
 70
     0
  0
ENDSEC
  0
SECTION
  2
CLASSES
  0
CLASS
  1
ACDBDICTIONARYWDFLT
  2
AcDbDictionaryWithDefault
  3
ObjectDBX Classes
 90
        0
280
     0
281
     0
  0
CLASS
  1
VISUALSTYLE
  2
AcDbVisualStyle
  3
ObjectDBX Classes
 90
     4095
280
     0
281
     0
  0
CLASS
  1
XRECORD
  2
AcDbXrecord
  3
AutoCAD 2000
 90
        0
280
     0
281
     0
  0
CLASS
  1
LWPOLYLINE
  2
AcDbPolyline
  3
AutoCAD 2000
 90
        0
280
     0
281
     1
  0
CLASS
  1
HATCH
  2
AcDbHatch
  3
AutoCAD 2000
 90
        0
280
     0
281
     1
  0
CLASS
  1
ACDBPLACEHOLDER
  2
AcDbPlaceHolder
  3
ObjectDBX Classes
 90
        0
280
     0
281
     0
  0
CLASS
  1
LAYOUT
  2
AcDbLayout
  3
ObjectDBX Classes
 90
        0
280
     0
281
     0
  0
ENDSEC
  0
SECTION
  2
TABLES
  0
TABLE
  2
VPORT
  5
8
330
0
100
AcDbSymbolTable
 70
     1
  0
VPORT
  5
29
330
8
100
AcDbSymbolTableRecord
100
AcDbViewportTableRecord
  2
*ACTIVE
 70
     0
 10
0.0
 20
0.0
 11
1.0
 21
1.0
 12
0.0
 22
0.0
 13
0.0
 23
0.0
 14
0.5
 24
0.5
 15
0.5
 25
0.5
 16
0.0
 26
0.0
 36
1.0
 17
-8.847613934553259
 27
-10.32125450052137
 37
0.0
 40
160.9343345614976
 41
1.019902594106081
 42
50.0
 43
0.0
 44
0.0
 50
0.0
 51
0.0
 71
     0
 72
   100
 73
     1
 74
     3
 75
     0
 76
     0
 77
     0
 78
     0
  0
ENDTAB
  0
TABLE
  2
LTYPE
  5
5
330
0
100
AcDbSymbolTable
 70
     5
  0
LTYPE
  5
14
330
5
100
AcDbSymbolTableRecord
100
AcDbLinetypeTableRecord
  2
BYBLOCK
 70
     0
  3

 72
    65
 73
     0
 40
0.0
  0
LTYPE
  5
15
330
5
100
AcDbSymbolTableRecord
100
AcDbLinetypeTableRecord
  2
BYLAYER
 70
     0
  3

 72
    65
 73
     0
 40
0.0
  0
LTYPE
  5
16
330
5
100
AcDbSymbolTableRecord
100
AcDbLinetypeTableRecord
  2
CONTINUOUS
 70
     0
  3
Solid line
 72
    65
 73
     0
 40
0.0
  0
LTYPE
  5
578
330
5
100
AcDbSymbolTableRecord
100
AcDbLinetypeTableRecord
  2
AI-LINETYPE-1
 70
     0
  3
Adobe Illustrator Linetype No. 1
 72
    65
 73
     4
 40
8.819450260381924
 49
7.055560208305538
 74
     0
 49
-0.7055560208305538
 74
     0
 49
0.3527780104152769
 74
     0
 49
-0.7055560208305538
 74
     0
  0
LTYPE
  5
57D
330
5
100
AcDbSymbolTableRecord
100
AcDbLinetypeTableRecord
  2
AI-LINETYPE-2
 70
     0
  3
Adobe Illustrator Linetype No. 2
 72
    65
 73
     4
 40
8.819450260381924
 49
7.055560208305538
 74
     0
 49
-0.7055560208305538
 74
     0
 49
0.3527780104152769
 74
     0
 49
-0.7055560208305538
 74
     0
  0
LTYPE
  5
582
330
5
100
AcDbSymbolTableRecord
100
AcDbLinetypeTableRecord
  2
AI-LINETYPE-3
 70
     0
  3
Adobe Illustrator Linetype No. 3
 72
    65
 73
     4
 40
8.819450260381924
 49
7.055560208305538
 74
     0
 49
-0.7055560208305538
 74
     0
 49
0.3527780104152769
 74
     0
 49
-0.7055560208305538
 74
     0
  0
LTYPE
  5
587
330
5
100
AcDbSymbolTableRecord
100
AcDbLinetypeTableRecord
  2
AI-LINETYPE-4
 70
     0
  3
Adobe Illustrator Linetype No. 4
 72
    65
 73
     4
 40
8.819450260381924
 49
7.055560208305538
 74
     0
 49
-0.7055560208305538
 74
     0
 49
0.3527780104152769
 74
     0
 49
-0.7055560208305538
 74
     0
  0
ENDTAB
  0
TABLE
  2
LAYER
  5
2
330
0
100
AcDbSymbolTable
 70
     5
  0
LAYER
  5
10
330
2
100
AcDbSymbolTableRecord
100
AcDbLayerTableRecord
  2
0
 70
     0
 62
     7
  6
CONTINUOUS
  0
LAYER
  5
3B
330
2
100
AcDbSymbolTableRecord
100
AcDbLayerTableRecord
  2
GRAU_10_
 70
     1
 62
     7
  6
CONTINUOUS
  0
LAYER
  5
42
330
2
100
AcDbSymbolTableRecord
100
AcDbLayerTableRecord
  2
STANDARDEBENE
 70
     0
 62
     7
  6
CONTINUOUS
  0
LAYER
  5
5D7
330
2
100
AcDbSymbolTableRecord
100
AcDbLayerTableRecord
  2
BEMA_UNG
 70
     1
 62
     7
  6
CONTINUOUS
  0
LAYER
  5
7A0
330
2
100
AcDbSymbolTableRecord
100
AcDbLayerTableRecord
  2
TEXT
 70
     1
 62
     7
  6
CONTINUOUS
  0
ENDTAB
  0
TABLE
  2
STYLE
  5
3
330
0
100
AcDbSymbolTable
 70
     1
  0
STYLE
  5
11
330
3
100
AcDbSymbolTableRecord
100
AcDbTextStyleTableRecord
  2
STANDARD
 70
     0
 40
0.0
 41
1.0
 50
0.0
 71
     0
 42
0.2
  3
txt
  4

  0
ENDTAB
  0
TABLE
  2
VIEW
  5
6
330
0
100
AcDbSymbolTable
 70
     0
  0
ENDTAB
  0
TABLE
  2
UCS
  5
7
330
0
100
AcDbSymbolTable
 70
     0
  0
ENDTAB
  0
TABLE
  2
APPID
  5
9
330
0
100
AcDbSymbolTable
 70
     1
  0
APPID
  5
12
330
9
100
AcDbSymbolTableRecord
100
AcDbRegAppTableRecord
  2
ACAD
 70
     0
  0
ENDTAB
  0
TABLE
  2
DIMSTYLE
  5
A
330
0
100
AcDbSymbolTable
 70
     1
  0
DIMSTYLE
105
27
330
A
100
AcDbSymbolTableRecord
100
AcDbDimStyleTableRecord
  2
STANDARD
 70
     0
  3

  4

  5

  6

  7

 40
1.0
 41
0.18
 42
0.0625
 43
0.38
 44
0.18
 45
0.0
 46
0.0
 47
0.0
 48
0.0
140
0.18
141
0.09
142
0.0
143
25.4
144
1.0
145
0.0
146
1.0
147
0.09
 71
     0
 72
     0
 73
     1
 74
     1
 75
     0
 76
     0
 77
     0
 78
     0
170
     0
171
     2
172
     0
173
     0
174
     0
175
     0
176
     0
177
     0
178
     0
270
     2
271
     4
272
     4
273
     2
274
     2
340
11
275
     0
280
     0
281
     0
282
     0
283
     1
284
     0
285
     0
286
     0
287
     3
288
     0
  0
ENDTAB
  0
TABLE
  2
BLOCK_RECORD
  5
1
330
0
100
AcDbSymbolTable
 70
     1
  0
BLOCK_RECORD
  5
1F
330
1
100
AcDbSymbolTableRecord
100
AcDbBlockTableRecord
  2
*MODEL_SPACE
  0
BLOCK_RECORD
  5
1B
330
1
100
AcDbSymbolTableRecord
100
AcDbBlockTableRecord
  2
*PAPER_SPACE
  0
ENDTAB
  0
ENDSEC
  0
SECTION
  2
BLOCKS
  0
BLOCK
  5
20
330
1F
100
AcDbEntity
  8
0
100
AcDbBlockBegin
  2
*MODEL_SPACE
 70
     0
 71
     0
 10
0.0
 20
0.0
 30
0.0
  3
*MODEL_SPACE
  1

  0
ENDBLK
  5
21
330
1F
100
AcDbEntity
  8
0
100
AcDbBlockEnd
  0
BLOCK
  5
1C
330
1B
100
AcDbEntity
 67
     1
  8
0
100
AcDbBlockBegin
  2
*PAPER_SPACE
 70
     0
 71
     0
 10
0.0
 20
0.0
 30
0.0
  3
*PAPER_SPACE
  1

  0
ENDBLK
  5
1D
330
1B
100
AcDbEntity
 67
     1
  8
0
100
AcDbBlockEnd
  0
ENDSEC
  0
SECTION
  2
ENTITIES
  0
SPLINE
  5
3C
330
1F
100
AcDbEntity
  8
GRAU_10_
100
AcDbSpline
210
0.0
220
0.0
230
1.0
 70
    11
 71
     3
 72
    17
 73
    13
 74
     0
 42
0.0000000001
 43
0.0000000001
 40
0.0
 40
0.0
 40
0.0
 40
0.0
 40
1.0
 40
1.0
 40
1.0
 40
2.0
 40
2.0
 40
2.0
 40
3.0
 40
3.0
 40
3.0
 40
4.0
 40
4.0
 40
4.0
 40
4.0
 10
-50.4288242163795
 20
-35.87535324764615
 30
0.0
 10
-50.4288242163795
 20
-44.67998958766884
 30
0.0
 10
-43.29144293632238
 20
-51.81685410306227
 30
0.0
 10
-34.48697885118759
 20
-51.81685410306227
 30
0.0
 10
-25.68268702094069
 20
-51.81685410306227
 30
0.0
 10
-18.54530574088357
 20
-44.67998958766884
 30
0.0
 10
-18.54530574088357
 20
-35.87535324764615
 30
0.0
 10
-18.54530574088357
 20
-27.07071690762346
 30
0.0
 10
-25.68268702094069
 20
-19.93385239223002
 30
0.0
 10
-34.48697885118759
 20
-19.93385239223002
 30
0.0
 10
-43.29144293632238
 20
-19.93385239223002
 30
0.0
 10
-50.4288242163795
 20
-27.07071690762346
 30
0.0
 10
-50.4288242163795
 20
-35.87535324764615
 30
0.0
  0
HATCH
  5
3D
330
1F
100
AcDbEntity
  8
GRAU_10_
 62
   255
100
AcDbHatch
 10
0.0
 20
0.0
 30
0.0
210
0.0
220
0.0
230
1.0
  2
SOLID
 70
     1
 71
     0
 91
        1
 92
        1
 93
        1
 72
     4
 94
        3
 73
     0
 74
     1
 95
       17
 96
       13
 40
0.0
 40
0.0
 40
0.0
 40
0.0
 40
1.0
 40
1.0
 40
1.0
 40
2.0
 40
2.0
 40
2.0
 40
3.0
 40
3.0
 40
3.0
 40
4.0
 40
4.0
 40
4.0
 40
4.0
 10
-50.4288242163795
 20
-35.87535324764615
 10
-50.4288242163795
 20
-44.67998958766884
 10
-43.29144293632238
 20
-51.81685410306227
 10
-34.48697885118759
 20
-51.81685410306227
 10
-25.68268702094069
 20
-51.81685410306227
 10
-18.54530574088357
 20
-44.67998958766884
 10
-18.54530574088357
 20
-35.87535324764615
 10
-18.54530574088357
 20
-27.07071690762346
 10
-25.68268702094069
 20
-19.93385239223002
 10
-34.48697885118759
 20
-19.93385239223002
 10
-43.29144293632238
 20
-19.93385239223002
 10
-50.4288242163795
 20
-27.07071690762346
 10
-50.4288242163795
 20
-35.87535324764615
 97
        0
 75
     0
 76
     1
 98
        0
  0
SPLINE
  5
3E
330
1F
100
AcDbEntity
  8
GRAU_10_
100
AcDbSpline
210
0.0
220
0.0
230
1.0
 70
    11
 71
     3
 72
    71
 73
    67
 74
     0
 42
0.0000000001
 43
0.0000000001
 40
0.0
 40
0.0
 40
0.0
 40
0.0
 40
1.0
 40
1.0
 40
1.0
 40
2.0
 40
2.0
 40
2.0
 40
3.0
 40
3.0
 40
3.0
 40
4.0
 40
4.0
 40
4.0
 40
5.0
 40
5.0
 40
5.0
 40
6.0
 40
6.0
 40
6.0
 40
7.0
 40
7.0
 40
7.0
 40
8.0
 40
8.0
 40
8.0
 40
9.0
 40
9.0
 40
9.0
 40
10.0
 40
10.0
 40
10.0
 40
11.0
 40
11.0
 40
11.0
 40
12.0
 40
12.0
 40
12.0
 40
13.0
 40
13.0
 40
13.0
 40
14.0
 40
14.0
 40
14.0
 40
15.0
 40
15.0
 40
15.0
 40
16.0
 40
16.0
 40
16.0
 40
17.0
 40
17.0
 40
17.0
 40
18.0
 40
18.0
 40
18.0
 40
19.0
 40
19.0
 40
19.0
 40
20.0
 40
20.0
 40
20.0
 40
21.0
 40
21.0
 40
21.0
 40
22.0
 40
22.0
 40
22.0
 40
22.0
 10
-40.96875802790461
 20
-3.587897060029201
 30
0.0
 10
-40.96875802790461
 20
-3.587897060029201
 30
0.0
 10
-41.30465505930587
 20
-2.403472450841972
 30
0.0
 10
-41.30465505930587
 20
-2.403472450841972
 30
0.0
 10
-41.30465505930587
 20
-2.403472450841972
 30
0.0
 10
-41.30465505930587
 20
21.48052903066692
 30
0.0
 10
-41.30465505930587
 20
21.48052903066692
 30
0.0
 10
-41.30465505930587
 20
21.48052903066692
 30
0.0
 10
-41.13653428871734
 20
22.0133133989357
 30
0.0
 10
-41.13653428871734
 20
22.0133133989357
 30
0.0
 10
-41.13653428871734
 20
22.0133133989357
 30
0.0
 10
-41.50946612101669
 20
22.0041838898771
 30
0.0
 10
-41.50946612101669
 20
22.0041838898771
 30
0.0
 10
-41.50946612101669
 20
22.0041838898771
 30
0.0
 10
-41.88532628641031
 20
21.99212604772423
 30
0.0
 10
-41.87326844425744
 20
22.35282778298282
 30
0.0
 10
-41.86103834721668
 20
22.71352951824141
 30
0.0
 10
-41.87016785627528
 20
22.8499553894567
 30
0.0
 10
-41.87016785627528
 20
22.8499553894567
 30
0.0
 10
-41.87016785627528
 20
22.8499553894567
 30
0.0
 10
-50.07397914730944
 20
22.8044800990516
 30
0.0
 10
-50.07397914730944
 20
22.8044800990516
 30
0.0
 10
-50.07397914730944
 20
22.8044800990516
 30
0.0
 10
-50.38472696507759
 20
23.11522791681974
 30
0.0
 10
-50.38472696507759
 20
23.11522791681974
 30
0.0
 10
-50.38472696507759
 20
23.11522791681974
 30
0.0
 10
-50.36801824095148
 20
31.06582452264373
 30
0.0
 10
-50.36801824095148
 20
31.06582452264373
 30
0.0
 10
-50.36801824095148
 20
31.06582452264373
 30
0.0
 10
-49.81008465904958
 20
31.61152800750486
 30
0.0
 10
-49.81008465904958
 20
31.61152800750486
 30
0.0
 10
-49.81008465904958
 20
31.61152800750486
 30
0.0
 10
-19.02331305480075
 20
31.61152800750486
 30
0.0
 10
-19.02331305480075
 20
31.61152800750486
 30
0.0
 10
-19.02331305480075
 20
31.61152800750486
 30
0.0
 10
-18.47760956993962
 20
31.05979560156729
 30
0.0
 10
-18.47760956993962
 20
31.05979560156729
 30
0.0
 10
-18.47760956993962
 20
31.05979560156729
 30
0.0
 10
-18.46865231576892
 20
23.10764870175223
 30
0.0
 10
-18.46865231576892
 20
23.10764870175223
 30
0.0
 10
-18.46865231576892
 20
23.10764870175223
 30
0.0
 10
-18.74150405819948
 20
22.81671019609237
 30
0.0
 10
-18.74150405819948
 20
22.81671019609237
 30
0.0
 10
-18.74150405819948
 20
22.81671019609237
 30
0.0
 10
-26.96633044555722
 20
22.81671019609237
 30
0.0
 10
-26.96633044555722
 20
22.81671019609237
 30
0.0
 10
-26.96633044555722
 20
22.81671019609237
 30
0.0
 10
-26.96340211246295
 20
22.32561151069493
 30
0.0
 10
-26.96340211246295
 20
22.32561151069493
 30
0.0
 10
-26.96340211246295
 20
22.32561151069493
 30
0.0
 10
-26.96633044555722
 20
21.9950543808185
 30
0.0
 10
-27.3544207079916
 20
21.99212604772423
 30
0.0
 10
-27.74251097042599
 20
21.98902545974207
 30
0.0
 10
-27.71529469813809
 20
22.02537124108856
 30
0.0
 10
-27.71529469813809
 20
22.02537124108856
 30
0.0
 10
-27.71529469813809
 20
22.02537124108856
 30
0.0
 10
-27.56371039678778
 20
21.53117196770896
 30
0.0
 10
-27.56371039678778
 20
21.53117196770896
 30
0.0
 10
-27.56371039678778
 20
21.53117196770896
 30
0.0
 10
-27.54855196665275
 20
-2.497868129410122
 30
0.0
 10
-27.54855196665275
 20
-2.497868129410122
 30
0.0
 10
-27.54855196665275
 20
-2.497868129410122
 30
0.0
 10
-27.84861998137121
 20
-3.549828729803724
 30
0.0
 10
-27.84861998137121
 20
-3.549828729803724
 30
0.0
 10
-27.84861998137121
 20
-3.549828729803724
 30
0.0
 10
-40.96875802790461
 20
-3.587897060029201
 30
0.0
 10
-40.96875802790461
 20
-3.587897060029201
 30
0.0
  0
HATCH
  5
3F
330
1F
100
AcDbEntity
  8
GRAU_10_
 62
   255
100
AcDbHatch
 10
0.0
 20
0.0
 30
0.0
210
0.0
220
0.0
230
1.0
  2
SOLID
 70
     1
 71
     0
 91
        1
 92
        1
 93
        1
 72
     4
 94
        3
 73
     0
 74
     1
 95
       71
 96
       67
 40
0.0
 40
0.0
 40
0.0
 40
0.0
 40
1.0
 40
1.0
 40
1.0
 40
2.0
 40
2.0
 40
2.0
 40
3.0
 40
3.0
 40
3.0
 40
4.0
 40
4.0
 40
4.0
 40
5.0
 40
5.0
 40
5.0
 40
6.0
 40
6.0
 40
6.0
 40
7.0
 40
7.0
 40
7.0
 40
8.0
 40
8.0
 40
8.0
 40
9.0
 40
9.0
 40
9.0
 40
10.0
 40
10.0
 40
10.0
 40
11.0
 40
11.0
 40
11.0
 40
12.0
 40
12.0
 40
12.0
 40
13.0
 40
13.0
 40
13.0
 40
14.0
 40
14.0
 40
14.0
 40
15.0
 40
15.0
 40
15.0
 40
16.0
 40
16.0
 40
16.0
 40
17.0
 40
17.0
 40
17.0
 40
18.0
 40
18.0
 40
18.0
 40
19.0
 40
19.0
 40
19.0
 40
20.0
 40
20.0
 40
20.0
 40
21.0
 40
21.0
 40
21.0
 40
22.0
 40
22.0
 40
22.0
 40
22.0
 10
-40.96875802790461
 20
-3.587897060029201
 10
-40.96875802790461
 20
-3.587897060029201
 10
-41.30465505930587
 20
-2.403472450841972
 10
-41.30465505930587
 20
-2.403472450841972
 10
-41.30465505930587
 20
-2.403472450841972
 10
-41.30465505930587
 20
21.48052903066692
 10
-41.30465505930587
 20
21.48052903066692
 10
-41.30465505930587
 20
21.48052903066692
 10
-41.13653428871734
 20
22.0133133989357
 10
-41.13653428871734
 20
22.0133133989357
 10
-41.13653428871734
 20
22.0133133989357
 10
-41.50946612101669
 20
22.0041838898771
 10
-41.50946612101669
 20
22.0041838898771
 10
-41.50946612101669
 20
22.0041838898771
 10
-41.88532628641031
 20
21.99212604772423
 10
-41.87326844425744
 20
22.35282778298282
 10
-41.86103834721668
 20
22.71352951824141
 10
-41.87016785627528
 20
22.8499553894567
 10
-41.87016785627528
 20
22.8499553894567
 10
-41.87016785627528
 20
22.8499553894567
 10
-50.07397914730944
 20
22.8044800990516
 10
-50.07397914730944
 20
22.8044800990516
 10
-50.07397914730944
 20
22.8044800990516
 10
-50.38472696507759
 20
23.11522791681974
 10
-50.38472696507759
 20
23.11522791681974
 10
-50.38472696507759
 20
23.11522791681974
 10
-50.36801824095148
 20
31.06582452264373
 10
-50.36801824095148
 20
31.06582452264373
 10
-50.36801824095148
 20
31.06582452264373
 10
-49.81008465904958
 20
31.61152800750486
 10
-49.81008465904958
 20
31.61152800750486
 10
-49.81008465904958
 20
31.61152800750486
 10
-19.02331305480075
 20
31.61152800750486
 10
-19.02331305480075
 20
31.61152800750486
 10
-19.02331305480075
 20
31.61152800750486
 10
-18.47760956993962
 20
31.05979560156729
 10
-18.47760956993962
 20
31.05979560156729
 10
-18.47760956993962
 20
31.05979560156729
 10
-18.46865231576892
 20
23.10764870175223
 10
-18.46865231576892
 20
23.10764870175223
 10
-18.46865231576892
 20
23.10764870175223
 10
-18.74150405819948
 20
22.81671019609237
 10
-18.74150405819948
 20
22.81671019609237
 10
-18.74150405819948
 20
22.81671019609237
 10
-26.96633044555722
 20
22.81671019609237
 10
-26.96633044555722
 20
22.81671019609237
 10
-26.96633044555722
 20
22.81671019609237
 10
-26.96340211246295
 20
22.32561151069493
 10
-26.96340211246295
 20
22.32561151069493
 10
-26.96340211246295
 20
22.32561151069493
 10
-26.96633044555722
 20
21.9950543808185
 10
-27.3544207079916
 20
21.99212604772423
 10
-27.74251097042599
 20
21.98902545974207
 10
-27.71529469813809
 20
22.02537124108856
 10
-27.71529469813809
 20
22.02537124108856
 10
-27.71529469813809
 20
22.02537124108856
 10
-27.56371039678778
 20
21.53117196770896
 10
-27.56371039678778
 20
21.53117196770896
 10
-27.56371039678778
 20
21.53117196770896
 10
-27.54855196665275
 20
-2.497868129410122
 10
-27.54855196665275
 20
-2.497868129410122
 10
-27.54855196665275
 20
-2.497868129410122
 10
-27.84861998137121
 20
-3.549828729803724
 10
-27.84861998137121
 20
-3.549828729803724
 10
-27.84861998137121
 20
-3.549828729803724
 10
-40.96875802790461
 20
-3.587897060029201
 10
-40.96875802790461
 20
-3.587897060029201
 97
        0
 75
     0
 76
     1
 98
        0
  0
SPLINE
  5
40
330
1F
100
AcDbEntity
  8
GRAU_10_
100
AcDbSpline
210
0.0
220
0.0
230
1.0
 70
    11
 71
     3
 72
   131
 73
   127
 74
     0
 42
0.0000000001
 43
0.0000000001
 40
0.0
 40
0.0
 40
0.0
 40
0.0
 40
1.0
 40
1.0
 40
1.0
 40
2.0
 40
2.0
 40
2.0
 40
3.0
 40
3.0
 40
3.0
 40
4.0
 40
4.0
 40
4.0
 40
5.0
 40
5.0
 40
5.0
 40
6.0
 40
6.0
 40
6.0
 40
7.0
 40
7.0
 40
7.0
 40
8.0
 40
8.0
 40
8.0
 40
9.0
 40
9.0
 40
9.0
 40
10.0
 40
10.0
 40
10.0
 40
11.0
 40
11.0
 40
11.0
 40
12.0
 40
12.0
 40
12.0
 40
13.0
 40
13.0
 40
13.0
 40
14.0
 40
14.0
 40
14.0
 40
15.0
 40
15.0
 40
15.0
 40
16.0
 40
16.0
 40
16.0
 40
17.0
 40
17.0
 40
17.0
 40
18.0
 40
18.0
 40
18.0
 40
19.0
 40
19.0
 40
19.0
 40
20.0
 40
20.0
 40
20.0
 40
21.0
 40
21.0
 40
21.0
 40
22.0
 40
22.0
 40
22.0
 40
23.0
 40
23.0
 40
23.0
 40
24.0
 40
24.0
 40
24.0
 40
25.0
 40
25.0
 40
25.0
 40
26.0
 40
26.0
 40
26.0
 40
27.0
 40
27.0
 40
27.0
 40
28.0
 40
28.0
 40
28.0
 40
29.0
 40
29.0
 40
29.0
 40
30.0
 40
30.0
 40
30.0
 40
31.0
 40
31.0
 40
31.0
 40
32.0
 40
32.0
 40
32.0
 40
33.0
 40
33.0
 40
33.0
 40
34.0
 40
34.0
 40
34.0
 40
35.0
 40
35.0
 40
35.0
 40
36.0
 40
36.0
 40
36.0
 40
37.0
 40
37.0
 40
37.0
 40
38.0
 40
38.0
 40
38.0
 40
39.0
 40
39.0
 40
39.0
 40
40.0
 40
40.0
 40
40.0
 40
41.0
 40
41.0
 40
41.0
 40
42.0
 40
42.0
 40
42.0
 40
42.0
 10
12.76408719324806
 20
-3.629238233124741
 30
0.0
 10
12.76408719324806
 20
-3.629238233124741
 30
0.0
 10
12.45609545368628
 20
-2.484949012817766
 30
0.0
 10
12.45609545368628
 20
-2.484949012817766
 30
0.0
 10
12.45609545368628
 20
-2.484949012817766
 30
0.0
 10
12.4450711408608
 20
21.47656716824527
 30
0.0
 10
12.4450711408608
 20
21.47656716824527
 30
0.0
 10
12.4450711408608
 20
21.47656716824527
 30
0.0
 10
12.62111563629264
 20
21.98265202888984
 30
0.0
 10
12.62111563629264
 20
21.98265202888984
 30
0.0
 10
12.62111563629264
 20
21.98265202888984
 30
0.0
 10
12.29107527107992
 20
21.98265202888984
 30
0.0
 10
12.29107527107992
 20
21.98265202888984
 30
0.0
 10
12.29107527107992
 20
21.98265202888984
 30
0.0
 10
11.89506128380222
 20
21.94957909041341
 30
0.0
 10
11.88403697097674
 20
22.30166808127709
 30
0.0
 10
11.87318491303916
 20
22.65375707214078
 30
0.0
 10
11.87318491303916
 20
22.81877725474714
 30
0.0
 10
11.87318491303916
 20
22.81877725474714
 30
0.0
 10
11.87318491303916
 20
22.81877725474714
 30
0.0
 10
3.67695283707251
 20
22.85185019322357
 30
0.0
 10
3.67695283707251
 20
22.85185019322357
 30
0.0
 10
3.67695283707251
 20
22.85185019322357
 30
0.0
 10
3.39100972316169
 20
23.17086624561083
 30
0.0
 10
3.39100972316169
 20
23.17086624561083
 30
0.0
 10
3.39100972316169
 20
23.17086624561083
 30
0.0
 10
3.368961097510735
 20
31.06961413017749
 30
0.0
 10
3.368961097510735
 20
31.06961413017749
 30
0.0
 10
3.368961097510735
 20
31.06961413017749
 30
0.0
 10
3.96289595098333
 20
31.61962398723607
 30
0.0
 10
3.96289595098333
 20
31.61962398723607
 30
0.0
 10
3.96289595098333
 20
31.61962398723607
 30
0.0
 10
34.74381088904363
 20
31.67457329647556
 30
0.0
 10
34.74381088904363
 20
31.67457329647556
 30
0.0
 10
34.74381088904363
 20
31.67457329647556
 30
0.0
 10
35.2498957496882
 20
31.05841756246411
 30
0.0
 10
35.2498957496882
 20
31.05841756246411
 30
0.0
 10
35.2498957496882
 20
31.05841756246411
 30
0.0
 10
35.30501731381559
 20
23.10472036865796
 30
0.0
 10
35.30501731381559
 20
23.10472036865796
 30
0.0
 10
35.30501731381559
 20
23.10472036865796
 30
0.0
 10
35.01872969012897
 20
22.79672862909619
 30
0.0
 10
35.01872969012897
 20
22.79672862909619
 30
0.0
 10
35.01872969012897
 20
22.79672862909619
 30
0.0
 10
26.75738526653684
 20
22.80775294192166
 30
0.0
 10
26.75738526653684
 20
22.80775294192166
 30
0.0
 10
26.75738526653684
 20
22.80775294192166
 30
0.0
 10
26.81216232088843
 20
22.33474101975353
 30
0.0
 10
26.81216232088843
 20
22.33474101975353
 30
0.0
 10
26.81216232088843
 20
22.33474101975353
 30
0.0
 10
26.70191919263366
 20
22.03760133812933
 30
0.0
 10
26.51485038437634
 20
22.01555271247837
 30
0.0
 10
26.32812608589482
 20
21.99367634171532
 30
0.0
 10
26.06388708785915
 20
22.02657702530385
 30
0.0
 10
26.06388708785915
 20
22.02657702530385
 30
0.0
 10
26.06388708785915
 20
22.02657702530385
 30
0.0
 10
26.21788295764004
 20
21.54254079031023
 30
0.0
 10
26.21788295764004
 20
21.54254079031023
 30
0.0
 10
26.21788295764004
 20
21.54254079031023
 30
0.0
 10
26.19617884176488
 20
18.97938805838674
 30
0.0
 10
26.19617884176488
 20
18.97938805838674
 30
0.0
 10
26.19617884176488
 20
18.97938805838674
 30
0.0
 10
25.36005361590758
 20
18.93529080708483
 30
0.0
 10
25.36005361590758
 20
18.93529080708483
 30
0.0
 10
25.36005361590758
 20
18.93529080708483
 30
0.0
 10
25.39312655438401
 20
17.35071809331035
 30
0.0
 10
25.39312655438401
 20
17.35071809331035
 30
0.0
 10
25.39312655438401
 20
17.35071809331035
 30
0.0
 10
24.46880682592289
 20
16.4375949325626
 30
0.0
 10
24.46880682592289
 20
16.4375949325626
 30
0.0
 10
24.46880682592289
 20
16.4375949325626
 30
0.0
 10
25.42585498308465
 20
15.31552659279448
 30
0.0
 10
25.42585498308465
 20
15.31552659279448
 30
0.0
 10
25.42585498308465
 20
15.31552659279448
 30
0.0
 10
24.46880682592289
 20
14.20448256585184
 30
0.0
 10
24.46880682592289
 20
14.20448256585184
 30
0.0
 10
24.46880682592289
 20
14.20448256585184
 30
0.0
 10
25.41483067025917
 20
13.12633922249773
 30
0.0
 10
25.41483067025917
 20
13.12633922249773
 30
0.0
 10
25.41483067025917
 20
13.12633922249773
 30
0.0
 10
24.45778251309741
 20
12.02614725349266
 30
0.0
 10
24.45778251309741
 20
12.02614725349266
 30
0.0
 10
24.45778251309741
 20
12.02614725349266
 30
0.0
 10
25.41483067025917
 20
10.87117823013601
 30
0.0
 10
25.41483067025917
 20
10.87117823013601
 30
0.0
 10
25.41483067025917
 20
10.87117823013601
 30
0.0
 10
24.46880682592289
 20
9.803886944719475
 30
0.0
 10
24.46880682592289
 20
9.803886944719475
 30
0.0
 10
24.46880682592289
 20
9.803886944719475
 30
0.0
 10
25.43687929591013
 20
8.725743601365364
 30
0.0
 10
25.43687929591013
 20
8.725743601365364
 30
0.0
 10
25.43687929591013
 20
8.725743601365364
 30
0.0
 10
24.46880682592289
 20
7.603503006709344
 30
0.0
 10
24.46880682592289
 20
7.603503006709344
 30
0.0
 10
24.46880682592289
 20
7.603503006709344
 30
0.0
 10
25.43687929591013
 20
6.503138782816381
 30
0.0
 10
25.43687929591013
 20
6.503138782816381
 30
0.0
 10
25.43687929591013
 20
6.503138782816381
 30
0.0
 10
24.49085545157385
 20
5.413971126636794
 30
0.0
 10
24.49085545157385
 20
5.413971126636794
 30
0.0
 10
24.49085545157385
 20
5.413971126636794
 30
0.0
 10
25.43687929591013
 20
4.291902786868672
 30
0.0
 10
25.43687929591013
 20
4.291902786868672
 30
0.0
 10
25.43687929591013
 20
4.291902786868672
 30
0.0
 10
24.50153525462353
 20
3.202907385576982
 30
0.0
 10
24.50153525462353
 20
3.202907385576982
 30
0.0
 10
24.50153525462353
 20
3.202907385576982
 30
0.0
 10
25.42585498308465
 20
2.091691103746439
 30
0.0
 10
25.42585498308465
 20
2.091691103746439
 30
0.0
 10
25.42585498308465
 20
2.091691103746439
 30
0.0
 10
24.45778251309741
 20
1.035251876267487
 30
0.0
 10
24.45778251309741
 20
1.035251876267487
 30
0.0
 10
24.45778251309741
 20
1.035251876267487
 30
0.0
 10
25.43687929591013
 20
-0.0759644055630552
 30
0.0
 10
25.43687929591013
 20
-0.0759644055630552
 30
0.0
 10
25.43687929591013
 20
-0.0759644055630552
 30
0.0
 10
24.44675820027194
 20
-1.186836177617802
 30
0.0
 10
24.44675820027194
 20
-1.186836177617802
 30
0.0
 10
24.44675820027194
 20
-1.186836177617802
 30
0.0
 10
25.40380635743369
 20
-2.111155906078923
 30
0.0
 10
25.40380635743369
 20
-2.144056589667457
 30
0.0
 10
25.40380635743369
 20
-2.176957273255991
 30
0.0
 10
25.38175773178274
 20
-3.541043730520922
 30
0.0
 10
25.38175773178274
 20
-3.541043730520922
 30
0.0
 10
25.38175773178274
 20
-3.541043730520922
 30
0.0
 10
12.76408719324806
 20
-3.629238233124741
 30
0.0
 10
12.76408719324806
 20
-3.629238233124741
 30
0.0
  0
HATCH
  5
41
330
1F
100
AcDbEntity
  8
GRAU_10_
 62
   255
100
AcDbHatch
 10
0.0
 20
0.0
 30
0.0
210
0.0
220
0.0
230
1.0
  2
SOLID
 70
     1
 71
     0
 91
        1
 92
        1
 93
        1
 72
     4
 94
        3
 73
     0
 74
     1
 95
      131
 96
      127
 40
0.0
 40
0.0
 40
0.0
 40
0.0
 40
1.0
 40
1.0
 40
1.0
 40
2.0
 40
2.0
 40
2.0
 40
3.0
 40
3.0
 40
3.0
 40
4.0
 40
4.0
 40
4.0
 40
5.0
 40
5.0
 40
5.0
 40
6.0
 40
6.0
 40
6.0
 40
7.0
 40
7.0
 40
7.0
 40
8.0
 40
8.0
 40
8.0
 40
9.0
 40
9.0
 40
9.0
 40
10.0
 40
10.0
 40
10.0
 40
11.0
 40
11.0
 40
11.0
 40
12.0
 40
12.0
 40
12.0
 40
13.0
 40
13.0
 40
13.0
 40
14.0
 40
14.0
 40
14.0
 40
15.0
 40
15.0
 40
15.0
 40
16.0
 40
16.0
 40
16.0
 40
17.0
 40
17.0
 40
17.0
 40
18.0
 40
18.0
 40
18.0
 40
19.0
 40
19.0
 40
19.0
 40
20.0
 40
20.0
 40
20.0
 40
21.0
 40
21.0
 40
21.0
 40
22.0
 40
22.0
 40
22.0
 40
23.0
 40
23.0
 40
23.0
 40
24.0
 40
24.0
 40
24.0
 40
25.0
 40
25.0
 40
25.0
 40
26.0
 40
26.0
 40
26.0
 40
27.0
 40
27.0
 40
27.0
 40
28.0
 40
28.0
 40
28.0
 40
29.0
 40
29.0
 40
29.0
 40
30.0
 40
30.0
 40
30.0
 40
31.0
 40
31.0
 40
31.0
 40
32.0
 40
32.0
 40
32.0
 40
33.0
 40
33.0
 40
33.0
 40
34.0
 40
34.0
 40
34.0
 40
35.0
 40
35.0
 40
35.0
 40
36.0
 40
36.0
 40
36.0
 40
37.0
 40
37.0
 40
37.0
 40
38.0
 40
38.0
 40
38.0
 40
39.0
 40
39.0
 40
39.0
 40
40.0
 40
40.0
 40
40.0
 40
41.0
 40
41.0
 40
41.0
 40
42.0
 40
42.0
 40
42.0
 40
42.0
 10
12.76408719324806
 20
-3.629238233124741
 10
12.76408719324806
 20
-3.629238233124741
 10
12.45609545368628
 20
-2.484949012817766
 10
12.45609545368628
 20
-2.484949012817766
 10
12.45609545368628
 20
-2.484949012817766
 10
12.4450711408608
 20
21.47656716824527
 10
12.4450711408608
 20
21.47656716824527
 10
12.4450711408608
 20
21.47656716824527
 10
12.62111563629264
 20
21.98265202888984
 10
12.62111563629264
 20
21.98265202888984
 10
12.62111563629264
 20
21.98265202888984
 10
12.29107527107992
 20
21.98265202888984
 10
12.29107527107992
 20
21.98265202888984
 10
12.29107527107992
 20
21.98265202888984
 10
11.89506128380222
 20
21.94957909041341
 10
11.88403697097674
 20
22.30166808127709
 10
11.87318491303916
 20
22.65375707214078
 10
11.87318491303916
 20
22.81877725474714
 10
11.87318491303916
 20
22.81877725474714
 10
11.87318491303916
 20
22.81877725474714
 10
3.67695283707251
 20
22.85185019322357
 10
3.67695283707251
 20
22.85185019322357
 10
3.67695283707251
 20
22.85185019322357
 10
3.39100972316169
 20
23.17086624561083
 10
3.39100972316169
 20
23.17086624561083
 10
3.39100972316169
 20
23.17086624561083
 10
3.368961097510735
 20
31.06961413017749
 10
3.368961097510735
 20
31.06961413017749
 10
3.368961097510735
 20
31.06961413017749
 10
3.96289595098333
 20
31.61962398723607
 10
3.96289595098333
 20
31.61962398723607
 10
3.96289595098333
 20
31.61962398723607
 10
34.74381088904363
 20
31.67457329647556
 10
34.74381088904363
 20
31.67457329647556
 10
34.74381088904363
 20
31.67457329647556
 10
35.2498957496882
 20
31.05841756246411
 10
35.2498957496882
 20
31.05841756246411
 10
35.2498957496882
 20
31.05841756246411
 10
35.30501731381559
 20
23.10472036865796
 10
35.30501731381559
 20
23.10472036865796
 10
35.30501731381559
 20
23.10472036865796
 10
35.01872969012897
 20
22.79672862909619
 10
35.01872969012897
 20
22.79672862909619
 10
35.01872969012897
 20
22.79672862909619
 10
26.75738526653684
 20
22.80775294192166
 10
26.75738526653684
 20
22.80775294192166
 10
26.75738526653684
 20
22.80775294192166
 10
26.81216232088843
 20
22.33474101975353
 10
26.81216232088843
 20
22.33474101975353
 10
26.81216232088843
 20
22.33474101975353
 10
26.70191919263366
 20
22.03760133812933
 10
26.51485038437634
 20
22.01555271247837
 10
26.32812608589482
 20
21.99367634171532
 10
26.06388708785915
 20
22.02657702530385
 10
26.06388708785915
 20
22.02657702530385
 10
26.06388708785915
 20
22.02657702530385
 10
26.21788295764004
 20
21.54254079031023
 10
26.21788295764004
 20
21.54254079031023
 10
26.21788295764004
 20
21.54254079031023
 10
26.19617884176488
 20
18.97938805838674
 10
26.19617884176488
 20
18.97938805838674
 10
26.19617884176488
 20
18.97938805838674
 10
25.36005361590758
 20
18.93529080708483
 10
25.36005361590758
 20
18.93529080708483
 10
25.36005361590758
 20
18.93529080708483
 10
25.39312655438401
 20
17.35071809331035
 10
25.39312655438401
 20
17.35071809331035
 10
25.39312655438401
 20
17.35071809331035
 10
24.46880682592289
 20
16.4375949325626
 10
24.46880682592289
 20
16.4375949325626
 10
24.46880682592289
 20
16.4375949325626
 10
25.42585498308465
 20
15.31552659279448
 10
25.42585498308465
 20
15.31552659279448
 10
25.42585498308465
 20
15.31552659279448
 10
24.46880682592289
 20
14.20448256585184
 10
24.46880682592289
 20
14.20448256585184
 10
24.46880682592289
 20
14.20448256585184
 10
25.41483067025917
 20
13.12633922249773
 10
25.41483067025917
 20
13.12633922249773
 10
25.41483067025917
 20
13.12633922249773
 10
24.45778251309741
 20
12.02614725349266
 10
24.45778251309741
 20
12.02614725349266
 10
24.45778251309741
 20
12.02614725349266
 10
25.41483067025917
 20
10.87117823013601
 10
25.41483067025917
 20
10.87117823013601
 10
25.41483067025917
 20
10.87117823013601
 10
24.46880682592289
 20
9.803886944719475
 10
24.46880682592289
 20
9.803886944719475
 10
24.46880682592289
 20
9.803886944719475
 10
25.43687929591013
 20
8.725743601365364
 10
25.43687929591013
 20
8.725743601365364
 10
25.43687929591013
 20
8.725743601365364
 10
24.46880682592289
 20
7.603503006709344
 10
24.46880682592289
 20
7.603503006709344
 10
24.46880682592289
 20
7.603503006709344
 10
25.43687929591013
 20
6.503138782816381
 10
25.43687929591013
 20
6.503138782816381
 10
25.43687929591013
 20
6.503138782816381
 10
24.49085545157385
 20
5.413971126636794
 10
24.49085545157385
 20
5.413971126636794
 10
24.49085545157385
 20
5.413971126636794
 10
25.43687929591013
 20
4.291902786868672
 10
25.43687929591013
 20
4.291902786868672
 10
25.43687929591013
 20
4.291902786868672
 10
24.50153525462353
 20
3.202907385576982
 10
24.50153525462353
 20
3.202907385576982
 10
24.50153525462353
 20
3.202907385576982
 10
25.42585498308465
 20
2.091691103746439
 10
25.42585498308465
 20
2.091691103746439
 10
25.42585498308465
 20
2.091691103746439
 10
24.45778251309741
 20
1.035251876267487
 10
24.45778251309741
 20
1.035251876267487
 10
24.45778251309741
 20
1.035251876267487
 10
25.43687929591013
 20
-0.0759644055630552
 10
25.43687929591013
 20
-0.0759644055630552
 10
25.43687929591013
 20
-0.0759644055630552
 10
24.44675820027194
 20
-1.186836177617802
 10
24.44675820027194
 20
-1.186836177617802
 10
24.44675820027194
 20
-1.186836177617802
 10
25.40380635743369
 20
-2.111155906078923
 10
25.40380635743369
 20
-2.144056589667457
 10
25.40380635743369
 20
-2.176957273255991
 10
25.38175773178274
 20
-3.541043730520922
 10
25.38175773178274
 20
-3.541043730520922
 10
25.38175773178274
 20
-3.541043730520922
 10
12.76408719324806
 20
-3.629238233124741
 10
12.76408719324806
 20
-3.629238233124741
 97
        0
 75
     0
 76
     1
 98
        0
  0
SPLINE
  5
43
330
1F
100
AcDbEntity
  8
STANDARDEBENE
 62
     7
100
AcDbSpline
210
0.0
220
0.0
230
1.0
 70
     8
 71
     3
 72
    17
 73
    13
 74
     0
 42
0.0000000001
 43
0.0000000001
 40
0.0
 40
0.0
 40
0.0
 40
0.0
 40
1.0
 40
1.0
 40
1.0
 40
2.0
 40
2.0
 40
2.0
 40
3.0
 40
3.0
 40
3.0
 40
4.0
 40
4.0
 40
4.0
 40
4.0
 10
-44.01232964217586
 20
-35.73065914181176
 30
0.0
 10
-44.2786356988663
 20
-35.65900110844615
 30
0.0
 10
-44.54700881421151
 20
-35.62592816996972
 30
0.0
 10
-44.78868242193252
 20
-35.6276507188487
 30
0.0
 10
-46.4454299337363
 20
-35.6276507188487
 30
0.0
 10
-47.78884580445346
 20
-36.97123884445376
 30
0.0
 10
-47.78884580445346
 20
-38.62833086603333
 30
0.0
 10
-47.78884580445346
 20
-40.28507837783711
 30
0.0
 10
-46.4454299337363
 20
-41.62866650344216
 30
0.0
 10
-44.78868242193252
 20
-41.62866650344216
 30
0.0
 10
-43.40788724054148
 20
-41.62866650344216
 30
0.0
 10
-42.24464998256571
 20
-40.69573403058614
 30
0.0
 10
-41.89083844282305
 20
-39.40554492022949
 30
0.0
  0
POLYLINE
  5
44
330
1F
100
AcDbEntity
  8
STANDARDEBENE
 62
     7
100
AcDb2dPolyline
 66
     1
 10
0.0
 20
0.0
 30
0.0
  0
VERTEX
  5
45
330
44
100
AcDbEntity
  8
STANDARDEBENE
 62
     7
100
AcDbVertex
100
AcDb2dVertex
 10
-53.22710487028388
 20
-33.7569626362755
 30
0.0
  0
VERTEX
  5
46
330
44
100
AcDbEntity
  8
STANDARDEBENE
 62
     7
100
AcDbVertex
100
AcDb2dVertex
 10
-53.22710487028388
 20
-35.20011408708565
 30
0.0
  0
SEQEND
  5
47
330
44
100
AcDbEntity
  8
STANDARDEBENE
  0
POLYLINE
  5
48
330
1F
100
AcDbEntity
  8
STANDARDEBENE
 62
     7
100
AcDb2dPolyline
 66
     1
 10
0.0
 20
0.0
 30
0.0
  0
VERTEX
  5
49
330
48
100
AcDbEntity
  8
STANDARDEBENE
 62
     7
100
AcDbVertex
100
AcDb2dVertex
 10
-53.22710487028388
 20
-33.7569626362755
 30
0.0
  0
VERTEX
  5
4A
330
48
100
AcDbEntity
  8
STANDARDEBENE
 62
     7
100
AcDbVertex
100
AcDb2dVertex
 10
-51.97653438414379
 20
-33.03452563643093
 30
0.0
  0
VERTEX
  5
4B
330
48
100
AcDbEntity
  8
STANDARDEBENE
 62
     7
100
AcDbVertex
100
AcDb2dVertex
 10
-50.72648066266739
 20
-33.7569626362755
 30
0.0
  0
VERTEX
  5
4C
330
48
100
AcDbEntity
  8
STANDARDEBENE
 62
     7
100
AcDbVertex
100
AcDb2dVertex
 10
-50.72648066266739
 20
-35.20011408708565
 30
0.0
  0
SEQEND
  5
4D
330
48
100
AcDbEntity
  8
STANDARDEBENE
  0
POLYLINE
  5
4E
330
1F
100
AcDbEntity
  8
STANDARDEBENE
 62
     7
100
AcDb2dPolyline
 66
     1
 10
0.0
 20
0.0
 30
0.0
  0
VERTEX
  5
4F
330
4E
100
AcDbEntity
  8
STANDARDEBENE
 62
     7
100
AcDbVertex
100
AcDb2dVertex
 10
-51.97653438414379
 20
-35.92151755760283
 30
0.0
  0
VERTEX
  5
50
330
4E
100
AcDbEntity
  8
STANDARDEBENE
 62
     7
100
AcDbVertex
100
AcDb2dVertex
 10
-50.72648066266739
 20
-35.20011408708565
 30
0.0
  0
SEQEND
  5
51
330
4E
100
AcDbEntity
  8
STANDARDEBENE
  0
POLYLINE
  5
52
330
1F
100
AcDbEntity
  8
STANDARDEBENE
 62
     7
100
AcDb2dPolyline
 66
     1
 10
0.0
 20
0.0
 30
0.0
  0
VERTEX
  5
53
330
52
100
AcDbEntity
  8
STANDARDEBENE
 62
     7
100
AcDbVertex
100
AcDb2dVertex
 10
-53.22710487028388
 20
-35.20011408708565
 30
0.0
  0
VERTEX
  5
54
330
52
100
AcDbEntity
  8
STANDARDEBENE
 62
     7
100
AcDbVertex
100
AcDb2dVertex
 10
-51.97653438414379
 20
-35.92151755760283
 30
0.0
  0
SEQEND
  5
55
330
52
100
AcDbEntity
  8
STANDARDEBENE
  0
SPLINE
  5
56
330
1F
100
AcDbEntity
  8
STANDARDEBENE
 62
     7
100
AcDbSpline
210
0.0
220
0.0
230
1.0
 70
    11
 71
     3
 72
    17
 73
    13
 74
     0
 42
0.0000000001
 43
0.0000000001
 40
0.0
 40
0.0
 40
0.0
 40
0.0
 40
1.0
 40
1.0
 40
1.0
 40
2.0
 40
2.0
 40
2.0
 40
3.0
 40
3.0
 40
3.0
 40
4.0
 40
4.0
 40
4.0
 40
4.0
 10
-47.97643137737447
 20
-34.47767708724109
 30
0.0
 10
-47.97643137737447
 20
-32.26902491461185
 30
0.0
 10
-49.76719319196296
 20
-30.47757408047177
 30
0.0
 10
-51.97653438414379
 20
-30.47757408047177
 30
0.0
 10
-54.18535881166093
 20
-30.47757408047177
 30
0.0
 10
-55.97646513602521
 20
-32.26902491461185
 30
0.0
 10
-55.97646513602521
 20
-34.47767708724109
 30
0.0
 10
-55.97646513602521
 20
-36.68770729897351
 30
0.0
 10
-54.18535881166093
 20
-38.478469113562
 30
0.0
 10
-51.97653438414379
 20
-38.478469113562
 30
0.0
 10
-49.76719319196296
 20
-38.478469113562
 30
0.0
 10
-47.97643137737447
 20
-36.68770729897351
 30
0.0
 10
-47.97643137737447
 20
-34.47767708724109
 30
0.0
  0
SPLINE
  5
57
330
1F
100
AcDbEntity
  8
STANDARDEBENE
 62
     7
100
AcDbSpline
210
0.0
220
0.0
230
1.0
 70
     8
 71
     3
 72
    14
 73
    10
 74
     0
 42
0.0000000001
 43
0.0000000001
 40
0.0
 40
0.0
 40
0.0
 40
0.0
 40
1.0
 40
1.0
 40
1.0
 40
2.0
 40
2.0
 40
2.0
 40
3.0
 40
3.0
 40
3.0
 40
3.0
 10
-50.72648066266739
 20
-34.47767708724109
 30
0.0
 10
-50.72648066266739
 20
-33.78796851609716
 30
0.0
 10
-51.28613679344826
 20
-33.22814013042839
 30
0.0
 10
-51.97653438414379
 20
-33.22814013042839
 30
0.0
 10
-52.66710422972721
 20
-33.22814013042839
 30
0.0
 10
-53.22710487028388
 20
-33.78796851609716
 30
0.0
 10
-53.22710487028388
 20
-34.47767708724109
 30
0.0
 10
-53.22710487028388
 20
-34.93828665748057
 30
0.0
 10
-52.97767979260745
 20
-35.34101858538629
 30
0.0
 10
-52.60164737232594
 20
-35.56012680279265
 30
0.0
  0
SPLINE
  5
58
330
1F
100
AcDbEntity
  8
STANDARDEBENE
 62
     7
100
AcDbSpline
210
0.0
220
0.0
230
1.0
 70
     8
 71
     3
 72
    11
 73
     7
 74
     0
 42
0.0000000001
 43
0.0000000001
 40
0.0
 40
0.0
 40
0.0
 40
0.0
 40
1.0
 40
1.0
 40
1.0
 40
2.0
 40
2.0
 40
2.0
 40
2.0
 10
-52.60164737232594
 20
-35.56012680279265
 30
0.0
 10
-52.40234846702786
 20
-35.67553757768437
 30
0.0
 10
-52.18444603383678
 20
-35.72997012226016
 30
0.0
 10
-51.97653438414379
 20
-35.72790306360538
 30
0.0
 10
-51.28613679344826
 20
-35.72790306360538
 30
0.0
 10
-50.72648066266739
 20
-35.16807467793661
 30
0.0
 10
-50.72648066266739
 20
-34.47767708724109
 30
0.0
  0
POLYLINE
  5
59
330
1F
100
AcDbEntity
  8
STANDARDEBENE
 62
     7
100
AcDb2dPolyline
 66
     1
 10
0.0
 20
0.0
 30
0.0
  0
VERTEX
  5
5A
330
59
100
AcDbEntity
  8
STANDARDEBENE
 62
     7
100
AcDbVertex
100
AcDb2dVertex
 10
71.4354800504388
 20
64.94698293309375
 30
0.0
  0
VERTEX
  5
5B
330
59
100
AcDbEntity
  8
STANDARDEBENE
 62
     7
100
AcDbVertex
100
AcDb2dVertex
 10
70.43536817130251
 20
65.94640579267843
 30
0.0
  0
SEQEND
  5
5C
330
59
100
AcDbEntity
  8
STANDARDEBENE
  0
POLYLINE
  5
5D
330
1F
100
AcDbEntity
  8
STANDARDEBENE
 62
     7
100
AcDb2dPolyline
 66
     1
 10
0.0
 20
0.0
 30
0.0
  0
VERTEX
  5
5E
330
5D
100
AcDbEntity
  8
STANDARDEBENE
 62
     7
100
AcDbVertex
100
AcDb2dVertex
 10
14.43530411563527
 20
65.94640579267843
 30
0.0
  0
VERTEX
  5
5F
330
5D
100
AcDbEntity
  8
STANDARDEBENE
 62
     7
100
AcDbVertex
100
AcDb2dVertex
 10
13.43553674627479
 20
64.94698293309375
 30
0.0
  0
SEQEND
  5
60
330
5D
100
AcDbEntity
  8
STANDARDEBENE
  0
POLYLINE
  5
61
330
1F
100
AcDbEntity
  8
STANDARDEBENE
 62
     7
100
AcDb2dPolyline
 66
     1
 10
0.0
 20
0.0
 30
0.0
  0
VERTEX
  5
62
330
61
100
AcDbEntity
  8
STANDARDEBENE
 62
     7
100
AcDbVertex
100
AcDb2dVertex
 10
13.43553674627479
 20
50.44622196005721
 30
0.0
  0
VERTEX
  5
63
330
61
100
AcDbEntity
  8
STANDARDEBENE
 62
     7
100
AcDbVertex
100
AcDb2dVertex
 10
13.93576494073083
 20
49.94668278515276
 30
0.0
  0
SEQEND
  5
64
330
61
100
AcDbEntity
  8
STANDARDEBENE
  0
POLYLINE
  5
65
330
1F
100
AcDbEntity
  8
STANDARDEBENE
 62
     7
100
AcDb2dPolyline
 66
     1
 10
0.0
 20
0.0
 30
0.0
  0
VERTEX
  5
66
330
65
100
AcDbEntity
  8
STANDARDEBENE
 62
     7
100
AcDbVertex
100
AcDb2dVertex
 10
70.93559636575856
 20
49.94668278515276
 30
0.0
  0
VERTEX
  5
67
330
65
100
AcDbEntity
  8
STANDARDEBENE
 62
     7
100
AcDbVertex
100
AcDb2dVertex
 10
71.4354800504388
 20
50.44622196005721
 30
0.0
  0
VERTEX
  5
68
330
65
100
AcDbEntity
  8
STANDARDEBENE
 62
     7
100
AcDbVertex
100
AcDb2dVertex
 10
71.4354800504388
 20
64.94698293309375
 30
0.0
  0
SEQEND
  5
69
330
65
100
AcDbEntity
  8
STANDARDEBENE
  0
POLYLINE
  5
6A
330
1F
100
AcDbEntity
  8
STANDARDEBENE
 62
     7
100
AcDb2dPolyline
 66
     1
 10
0.0
 20
0.0
 30
0.0
  0
VERTEX
  5
6B
330
6A
100
AcDbEntity
  8
STANDARDEBENE
 62
     7
100
AcDbVertex
100
AcDb2dVertex
 10
13.43553674627479
 20
64.94698293309375
 30
0.0
  0
VERTEX
  5
6C
330
6A
100
AcDbEntity
  8
STANDARDEBENE
 62
     7
100
AcDbVertex
100
AcDb2dVertex
 10
13.43553674627479
 20
50.44622196005721
 30
0.0
  0
SEQEND
  5
6D
330
6A
100
AcDbEntity
  8
STANDARDEBENE
  0
POLYLINE
  5
6E
330
1F
100
AcDbEntity
  8
STANDARDEBENE
 62
     7
100
AcDb2dPolyline
 66
     1
 10
0.0
 20
0.0
 30
0.0
  0
VERTEX
  5
6F
330
6E
100
AcDbEntity
  8
STANDARDEBENE
 62
     7
100
AcDbVertex
100
AcDb2dVertex
 10
54.93552884845708
 20
42.94693316052621
 30
0.0
  0
VERTEX
  5
70
330
6E
100
AcDbEntity
  8
STANDARDEBENE
 62
     7
100
AcDbVertex
100
AcDb2dVertex
 10
54.93552884845708
 20
47.54682768695665
 30
0.0
  0
SEQEND
  5
71
330
6E
100
AcDbEntity
  8
STANDARDEBENE
  0
POLYLINE
  5
72
330
1F
100
AcDbEntity
  8
STANDARDEBENE
 62
     7
100
AcDb2dPolyline
 66
     1
 10
0.0
 20
0.0
 30
0.0
  0
VERTEX
  5
73
330
72
100
AcDbEntity
  8
STANDARDEBENE
 62
     7
100
AcDbVertex
100
AcDb2dVertex
 10
29.9354879482565
 20
47.54682768695665
 30
0.0
  0
VERTEX
  5
74
330
72
100
AcDbEntity
  8
STANDARDEBENE
 62
     7
100
AcDbVertex
100
AcDb2dVertex
 10
29.9354879482565
 20
3.946531736633012
 30
0.0
  0
SEQEND
  5
75
330
72
100
AcDbEntity
  8
STANDARDEBENE
  0
POLYLINE
  5
76
330
1F
100
AcDbEntity
  8
STANDARDEBENE
 62
     7
100
AcDb2dPolyline
 66
     1
 10
0.0
 20
0.0
 30
0.0
  0
VERTEX
  5
77
330
76
100
AcDbEntity
  8
STANDARDEBENE
 62
     7
100
AcDbVertex
100
AcDb2dVertex
 10
54.93552884845708
 20
47.54682768695665
 30
0.0
  0
VERTEX
  5
78
330
76
100
AcDbEntity
  8
STANDARDEBENE
 62
     7
100
AcDbVertex
100
AcDb2dVertex
 10
54.68920435876282
 20
48.46666878833242
 30
0.0
  0
SEQEND
  5
79
330
76
100
AcDbEntity
  8
STANDARDEBENE
  0
POLYLINE
  5
7A
330
1F
100
AcDbEntity
  8
STANDARDEBENE
 62
     7
100
AcDb2dPolyline
 66
     1
 10
0.0
 20
0.0
 30
0.0
  0
VERTEX
  5
7B
330
7A
100
AcDbEntity
  8
STANDARDEBENE
 62
     7
100
AcDbVertex
100
AcDb2dVertex
 10
30.18215694772656
 20
48.46666878833242
 30
0.0
  0
VERTEX
  5
7C
330
7A
100
AcDbEntity
  8
STANDARDEBENE
 62
     7
100
AcDbVertex
100
AcDb2dVertex
 10
29.9354879482565
 20
47.54682768695665
 30
0.0
  0
SEQEND
  5
7D
330
7A
100
AcDbEntity
  8
STANDARDEBENE
  0
POLYLINE
  5
7E
330
1F
100
AcDbEntity
  8
STANDARDEBENE
 62
     7
100
AcDb2dPolyline
 66
     1
 10
0.0
 20
0.0
 30
0.0
  0
VERTEX
  5
7F
330
7E
100
AcDbEntity
  8
STANDARDEBENE
 62
     7
100
AcDbVertex
100
AcDb2dVertex
 10
29.9354879482565
 20
3.946531736633012
 30
0.0
  0
VERTEX
  5
80
330
7E
100
AcDbEntity
  8
STANDARDEBENE
 62
     7
100
AcDbVertex
100
AcDb2dVertex
 10
30.47120064961954
 20
1.946652488136252
 30
0.0
  0
SEQEND
  5
81
330
7E
100
AcDbEntity
  8
STANDARDEBENE
  0
POLYLINE
  5
82
330
1F
100
AcDbEntity
  8
STANDARDEBENE
 62
     7
100
AcDb2dPolyline
 66
     1
 10
0.0
 20
0.0
 30
0.0
  0
VERTEX
  5
83
330
82
100
AcDbEntity
  8
STANDARDEBENE
 62
     7
100
AcDbVertex
100
AcDb2dVertex
 10
29.9354879482565
 20
3.946531736633012
 30
0.0
  0
VERTEX
  5
84
330
82
100
AcDbEntity
  8
STANDARDEBENE
 62
     7
100
AcDbVertex
100
AcDb2dVertex
 10
30.04504205695968
 20
3.946531736633012
 30
0.0
  0
VERTEX
  5
85
330
82
100
AcDbEntity
  8
STANDARDEBENE
 62
     7
100
AcDbVertex
100
AcDb2dVertex
 10
30.37094830486286
 20
3.946531736633012
 30
0.0
  0
VERTEX
  5
86
330
82
100
AcDbEntity
  8
STANDARDEBENE
 62
     7
100
AcDbVertex
100
AcDb2dVertex
 10
30.90735002577749
 20
3.946531736633012
 30
0.0
  0
VERTEX
  5
87
330
82
100
AcDbEntity
  8
STANDARDEBENE
 62
     7
100
AcDbVertex
100
AcDb2dVertex
 10
31.64632349486027
 20
3.946531736633012
 30
0.0
  0
VERTEX
  5
88
330
82
100
AcDbEntity
  8
STANDARDEBENE
 62
     7
100
AcDbVertex
100
AcDb2dVertex
 10
32.57305479175197
 20
3.946531736633012
 30
0.0
  0
VERTEX
  5
89
330
82
100
AcDbEntity
  8
STANDARDEBENE
 62
     7
100
AcDbVertex
100
AcDb2dVertex
 10
33.67307450586914
 20
3.946531736633012
 30
0.0
  0
VERTEX
  5
8A
330
82
100
AcDbEntity
  8
STANDARDEBENE
 62
     7
100
AcDbVertex
100
AcDb2dVertex
 10
34.9260565604398
 20
3.946531736633012
 30
0.0
  0
VERTEX
  5
8B
330
82
100
AcDbEntity
  8
STANDARDEBENE
 62
     7
100
AcDbVertex
100
AcDb2dVertex
 10
36.30995232981302
 20
3.946531736633012
 30
0.0
  0
VERTEX
  5
8C
330
82
100
AcDbEntity
  8
STANDARDEBENE
 62
     7
100
AcDbVertex
100
AcDb2dVertex
 10
37.80167965901042
 20
3.946531736633012
 30
0.0
  0
VERTEX
  5
8D
330
82
100
AcDbEntity
  8
STANDARDEBENE
 62
     7
100
AcDbVertex
100
AcDb2dVertex
 10
39.37333325619255
 20
3.946531736633012
 30
0.0
  0
VERTEX
  5
8E
330
82
100
AcDbEntity
  8
STANDARDEBENE
 62
     7
100
AcDbVertex
100
AcDb2dVertex
 10
40.99907488817467
 20
3.946531736633012
 30
0.0
  0
VERTEX
  5
8F
330
82
100
AcDbEntity
  8
STANDARDEBENE
 62
     7
100
AcDbVertex
100
AcDb2dVertex
 10
42.65031024356571
 20
3.946531736633012
 30
0.0
  0
VERTEX
  5
90
330
82
100
AcDbEntity
  8
STANDARDEBENE
 62
     7
100
AcDbVertex
100
AcDb2dVertex
 10
44.29775599142298
 20
3.946531736633012
 30
0.0
  0
VERTEX
  5
91
330
82
100
AcDbEntity
  8
STANDARDEBENE
 62
     7
100
AcDbVertex
100
AcDb2dVertex
 10
45.91247331057963
 20
3.946531736633012
 30
0.0
  0
VERTEX
  5
92
330
82
100
AcDbEntity
  8
STANDARDEBENE
 62
     7
100
AcDbVertex
100
AcDb2dVertex
 10
47.46586788964455
 20
3.946531736633012
 30
0.0
  0
VERTEX
  5
93
330
82
100
AcDbEntity
  8
STANDARDEBENE
 62
     7
100
AcDbVertex
100
AcDb2dVertex
 10
48.93210149543305
 20
3.946531736633012
 30
0.0
  0
VERTEX
  5
94
330
82
100
AcDbEntity
  8
STANDARDEBENE
 62
     7
100
AcDbVertex
100
AcDb2dVertex
 10
50.28464687520881
 20
3.946531736633012
 30
0.0
  0
VERTEX
  5
95
330
82
100
AcDbEntity
  8
STANDARDEBENE
 62
     7
100
AcDbVertex
100
AcDb2dVertex
 10
51.4990438348903
 20
3.946531736633012
 30
0.0
  0
VERTEX
  5
96
330
82
100
AcDbEntity
  8
STANDARDEBENE
 62
     7
100
AcDbVertex
100
AcDb2dVertex
 10
52.55599982703295
 20
3.946531736633012
 30
0.0
  0
VERTEX
  5
97
330
82
100
AcDbEntity
  8
STANDARDEBENE
 62
     7
100
AcDbVertex
100
AcDb2dVertex
 10
53.43587779441636
 20
3.946531736633012
 30
0.0
  0
SEQEND
  5
98
330
82
100
AcDbEntity
  8
STANDARDEBENE
  0
POLYLINE
  5
99
330
1F
100
AcDbEntity
  8
STANDARDEBENE
 62
     7
100
AcDb2dPolyline
 66
     1
 10
0.0
 20
0.0
 30
0.0
  0
VERTEX
  5
9A
330
99
100
AcDbEntity
  8
STANDARDEBENE
 62
     7
100
AcDbVertex
100
AcDb2dVertex
 10
53.43587779441636
 20
4.542361393872486
 30
0.0
  0
VERTEX
  5
9B
330
99
100
AcDbEntity
  8
STANDARDEBENE
 62
     7
100
AcDbVertex
100
AcDb2dVertex
 10
53.43587779441636
 20
3.946531736633012
 30
0.0
  0
SEQEND
  5
9C
330
99
100
AcDbEntity
  8
STANDARDEBENE
  0
POLYLINE
  5
9D
330
1F
100
AcDbEntity
  8
STANDARDEBENE
 62
     7
100
AcDb2dPolyline
 66
     1
 10
0.0
 20
0.0
 30
0.0
  0
VERTEX
  5
9E
330
9D
100
AcDbEntity
  8
STANDARDEBENE
 62
     7
100
AcDbVertex
100
AcDb2dVertex
 10
53.43587779441636
 20
4.542361393872486
 30
0.0
  0
VERTEX
  5
9F
330
9D
100
AcDbEntity
  8
STANDARDEBENE
 62
     7
100
AcDbVertex
100
AcDb2dVertex
 10
52.74685824282403
 20
5.230691925913232
 30
0.0
  0
VERTEX
  5
A0
330
9D
100
AcDbEntity
  8
STANDARDEBENE
 62
     7
100
AcDbVertex
100
AcDb2dVertex
 10
51.94311693589156
 20
6.034949997509388
 30
0.0
  0
VERTEX
  5
A1
330
9D
100
AcDbEntity
  8
STANDARDEBENE
 62
     7
100
AcDbVertex
100
AcDb2dVertex
 10
51.89109595974634
 20
6.104196462444418
 30
0.0
  0
VERTEX
  5
A2
330
9D
100
AcDbEntity
  8
STANDARDEBENE
 62
     7
100
AcDbVertex
100
AcDb2dVertex
 10
51.86422419723424
 20
6.173787437155243
 30
0.0
  0
VERTEX
  5
A3
330
9D
100
AcDbEntity
  8
STANDARDEBENE
 62
     7
100
AcDbVertex
100
AcDb2dVertex
 10
51.85561145283933
 20
6.253541450252057
 30
0.0
  0
VERTEX
  5
A4
330
9D
100
AcDbEntity
  8
STANDARDEBENE
 62
     7
100
AcDbVertex
100
AcDb2dVertex
 10
51.86491321678583
 20
6.320204091868615
 30
0.0
  0
VERTEX
  5
A5
330
9D
100
AcDbEntity
  8
STANDARDEBENE
 62
     7
100
AcDbVertex
100
AcDb2dVertex
 10
51.88696184243678
 20
6.380493302632945
 30
0.0
  0
VERTEX
  5
A6
330
9D
100
AcDbEntity
  8
STANDARDEBENE
 62
     7
100
AcDbVertex
100
AcDb2dVertex
 10
51.94311693589156
 20
6.459041531514472
 30
0.0
  0
SEQEND
  5
A7
330
9D
100
AcDbEntity
  8
STANDARDEBENE
  0
POLYLINE
  5
A8
330
1F
100
AcDbEntity
  8
STANDARDEBENE
 62
     7
100
AcDb2dPolyline
 66
     1
 10
0.0
 20
0.0
 30
0.0
  0
VERTEX
  5
A9
330
A8
100
AcDbEntity
  8
STANDARDEBENE
 62
     7
100
AcDbVertex
100
AcDb2dVertex
 10
53.43587779441636
 20
7.951113370487679
 30
0.0
  0
VERTEX
  5
AA
330
A8
100
AcDbEntity
  8
STANDARDEBENE
 62
     7
100
AcDbVertex
100
AcDb2dVertex
 10
52.74685824282403
 20
7.262438328671138
 30
0.0
  0
VERTEX
  5
AB
330
A8
100
AcDbEntity
  8
STANDARDEBENE
 62
     7
100
AcDbVertex
100
AcDb2dVertex
 10
51.94311693589156
 20
6.459041531514472
 30
0.0
  0
SEQEND
  5
AC
330
A8
100
AcDbEntity
  8
STANDARDEBENE
  0
POLYLINE
  5
AD
330
1F
100
AcDbEntity
  8
STANDARDEBENE
 62
     7
100
AcDb2dPolyline
 66
     1
 10
0.0
 20
0.0
 30
0.0
  0
VERTEX
  5
AE
330
AD
100
AcDbEntity
  8
STANDARDEBENE
 62
     7
100
AcDbVertex
100
AcDb2dVertex
 10
53.43587779441636
 20
8.542636655529702
 30
0.0
  0
VERTEX
  5
AF
330
AD
100
AcDbEntity
  8
STANDARDEBENE
 62
     7
100
AcDbVertex
100
AcDb2dVertex
 10
53.43587779441636
 20
7.951113370487679
 30
0.0
  0
SEQEND
  5
B0
330
AD
100
AcDbEntity
  8
STANDARDEBENE
  0
POLYLINE
  5
B1
330
1F
100
AcDbEntity
  8
STANDARDEBENE
 62
     7
100
AcDb2dPolyline
 66
     1
 10
0.0
 20
0.0
 30
0.0
  0
VERTEX
  5
B2
330
B1
100
AcDbEntity
  8
STANDARDEBENE
 62
     7
100
AcDbVertex
100
AcDb2dVertex
 10
51.94311693589156
 20
10.03401947495132
 30
0.0
  0
VERTEX
  5
B3
330
B1
100
AcDbEntity
  8
STANDARDEBENE
 62
     7
100
AcDbVertex
100
AcDb2dVertex
 10
52.74685824282403
 20
9.230794932682548
 30
0.0
  0
VERTEX
  5
B4
330
B1
100
AcDbEntity
  8
STANDARDEBENE
 62
     7
100
AcDbVertex
100
AcDb2dVertex
 10
53.43587779441636
 20
8.542636655529702
 30
0.0
  0
SEQEND
  5
B5
330
B1
100
AcDbEntity
  8
STANDARDEBENE
  0
POLYLINE
  5
B6
330
1F
100
AcDbEntity
  8
STANDARDEBENE
 62
     7
100
AcDb2dPolyline
 66
     1
 10
0.0
 20
0.0
 30
0.0
  0
VERTEX
  5
B7
330
B6
100
AcDbEntity
  8
STANDARDEBENE
 62
     7
100
AcDbVertex
100
AcDb2dVertex
 10
51.94311693589156
 20
10.03401947495132
 30
0.0
  0
VERTEX
  5
B8
330
B6
100
AcDbEntity
  8
STANDARDEBENE
 62
     7
100
AcDbVertex
100
AcDb2dVertex
 10
51.89109595974634
 20
10.10481623387743
 30
0.0
  0
VERTEX
  5
B9
330
B6
100
AcDbEntity
  8
STANDARDEBENE
 62
     7
100
AcDbVertex
100
AcDb2dVertex
 10
51.86422419723424
 20
10.17354593414876
 30
0.0
  0
VERTEX
  5
BA
330
B6
100
AcDbEntity
  8
STANDARDEBENE
 62
     7
100
AcDbVertex
100
AcDb2dVertex
 10
51.85561145283933
 20
10.25295543746978
 30
0.0
  0
VERTEX
  5
BB
330
B6
100
AcDbEntity
  8
STANDARDEBENE
 62
     7
100
AcDbVertex
100
AcDb2dVertex
 10
51.86491321678583
 20
10.32065160841373
 30
0.0
  0
VERTEX
  5
BC
330
B6
100
AcDbEntity
  8
STANDARDEBENE
 62
     7
100
AcDbVertex
100
AcDb2dVertex
 10
51.88696184243678
 20
10.37990728985067
 30
0.0
  0
VERTEX
  5
BD
330
B6
100
AcDbEntity
  8
STANDARDEBENE
 62
     7
100
AcDbVertex
100
AcDb2dVertex
 10
51.94311693589156
 20
10.45880002850799
 30
0.0
  0
SEQEND
  5
BE
330
B6
100
AcDbEntity
  8
STANDARDEBENE
  0
POLYLINE
  5
BF
330
1F
100
AcDbEntity
  8
STANDARDEBENE
 62
     7
100
AcDb2dPolyline
 66
     1
 10
0.0
 20
0.0
 30
0.0
  0
VERTEX
  5
C0
330
BF
100
AcDbEntity
  8
STANDARDEBENE
 62
     7
100
AcDbVertex
100
AcDb2dVertex
 10
53.43587779441636
 20
11.9505273577054
 30
0.0
  0
VERTEX
  5
C1
330
BF
100
AcDbEntity
  8
STANDARDEBENE
 62
     7
100
AcDbVertex
100
AcDb2dVertex
 10
52.74685824282403
 20
11.26219682566466
 30
0.0
  0
VERTEX
  5
C2
330
BF
100
AcDbEntity
  8
STANDARDEBENE
 62
     7
100
AcDbVertex
100
AcDb2dVertex
 10
51.94311693589156
 20
10.45880002850799
 30
0.0
  0
SEQEND
  5
C3
330
BF
100
AcDbEntity
  8
STANDARDEBENE
  0
POLYLINE
  5
C4
330
1F
100
AcDbEntity
  8
STANDARDEBENE
 62
     7
100
AcDb2dPolyline
 66
     1
 10
0.0
 20
0.0
 30
0.0
  0
VERTEX
  5
C5
330
C4
100
AcDbEntity
  8
STANDARDEBENE
 62
     7
100
AcDbVertex
100
AcDb2dVertex
 10
53.43587779441636
 20
12.54239515252322
 30
0.0
  0
VERTEX
  5
C6
330
C4
100
AcDbEntity
  8
STANDARDEBENE
 62
     7
100
AcDbVertex
100
AcDb2dVertex
 10
53.43587779441636
 20
11.9505273577054
 30
0.0
  0
SEQEND
  5
C7
330
C4
100
AcDbEntity
  8
STANDARDEBENE
  0
POLYLINE
  5
C8
330
1F
100
AcDbEntity
  8
STANDARDEBENE
 62
     7
100
AcDb2dPolyline
 66
     1
 10
0.0
 20
0.0
 30
0.0
  0
VERTEX
  5
C9
330
C8
100
AcDbEntity
  8
STANDARDEBENE
 62
     7
100
AcDbVertex
100
AcDb2dVertex
 10
53.43587779441636
 20
12.54239515252322
 30
0.0
  0
VERTEX
  5
CA
330
C8
100
AcDbEntity
  8
STANDARDEBENE
 62
     7
100
AcDbVertex
100
AcDb2dVertex
 10
52.74685824282403
 20
13.23107019433976
 30
0.0
  0
VERTEX
  5
CB
330
C8
100
AcDbEntity
  8
STANDARDEBENE
 62
     7
100
AcDbVertex
100
AcDb2dVertex
 10
51.94311693589156
 20
14.03481150127222
 30
0.0
  0
VERTEX
  5
CC
330
C8
100
AcDbEntity
  8
STANDARDEBENE
 62
     7
100
AcDbVertex
100
AcDb2dVertex
 10
51.89109595974634
 20
14.10457473087095
 30
0.0
  0
VERTEX
  5
CD
330
C8
100
AcDbEntity
  8
STANDARDEBENE
 62
     7
100
AcDbVertex
100
AcDb2dVertex
 10
51.86422419723424
 20
14.17347668603018
 30
0.0
  0
VERTEX
  5
CE
330
C8
100
AcDbEntity
  8
STANDARDEBENE
 62
     7
100
AcDbVertex
100
AcDb2dVertex
 10
51.85561145283933
 20
14.25340295401489
 30
0.0
  0
VERTEX
  5
CF
330
C8
100
AcDbEntity
  8
STANDARDEBENE
 62
     7
100
AcDbVertex
100
AcDb2dVertex
 10
51.86491321678583
 20
14.32006559563145
 30
0.0
  0
VERTEX
  5
D0
330
C8
100
AcDbEntity
  8
STANDARDEBENE
 62
     7
100
AcDbVertex
100
AcDb2dVertex
 10
51.88696184243678
 20
14.38018255150788
 30
0.0
  0
VERTEX
  5
D1
330
C8
100
AcDbEntity
  8
STANDARDEBENE
 62
     7
100
AcDbVertex
100
AcDb2dVertex
 10
51.94311693589156
 20
14.45890303527731
 30
0.0
  0
SEQEND
  5
D2
330
C8
100
AcDbEntity
  8
STANDARDEBENE
  0
POLYLINE
  5
D3
330
1F
100
AcDbEntity
  8
STANDARDEBENE
 62
     7
100
AcDb2dPolyline
 66
     1
 10
0.0
 20
0.0
 30
0.0
  0
VERTEX
  5
D4
330
D3
100
AcDbEntity
  8
STANDARDEBENE
 62
     7
100
AcDbVertex
100
AcDb2dVertex
 10
53.43587779441636
 20
15.95080261936262
 30
0.0
  0
VERTEX
  5
D5
330
D3
100
AcDbEntity
  8
STANDARDEBENE
 62
     7
100
AcDbVertex
100
AcDb2dVertex
 10
52.74685824282403
 20
15.26212757754608
 30
0.0
  0
VERTEX
  5
D6
330
D3
100
AcDbEntity
  8
STANDARDEBENE
 62
     7
100
AcDbVertex
100
AcDb2dVertex
 10
51.94311693589156
 20
14.45890303527731
 30
0.0
  0
SEQEND
  5
D7
330
D3
100
AcDbEntity
  8
STANDARDEBENE
  0
POLYLINE
  5
D8
330
1F
100
AcDbEntity
  8
STANDARDEBENE
 62
     7
100
AcDb2dPolyline
 66
     1
 10
0.0
 20
0.0
 30
0.0
  0
VERTEX
  5
D9
330
D8
100
AcDbEntity
  8
STANDARDEBENE
 62
     7
100
AcDbVertex
100
AcDb2dVertex
 10
53.43587779441636
 20
16.54249815929254
 30
0.0
  0
VERTEX
  5
DA
330
D8
100
AcDbEntity
  8
STANDARDEBENE
 62
     7
100
AcDbVertex
100
AcDb2dVertex
 10
53.43587779441636
 20
15.95080261936262
 30
0.0
  0
SEQEND
  5
DB
330
D8
100
AcDbEntity
  8
STANDARDEBENE
  0
POLYLINE
  5
DC
330
1F
100
AcDbEntity
  8
STANDARDEBENE
 62
     7
100
AcDb2dPolyline
 66
     1
 10
0.0
 20
0.0
 30
0.0
  0
VERTEX
  5
DD
330
DC
100
AcDbEntity
  8
STANDARDEBENE
 62
     7
100
AcDbVertex
100
AcDb2dVertex
 10
53.43587779441636
 20
16.54249815929254
 30
0.0
  0
VERTEX
  5
DE
330
DC
100
AcDbEntity
  8
STANDARDEBENE
 62
     7
100
AcDbVertex
100
AcDb2dVertex
 10
52.74685824282403
 20
17.23065643644539
 30
0.0
  0
VERTEX
  5
DF
330
DC
100
AcDbEntity
  8
STANDARDEBENE
 62
     7
100
AcDbVertex
100
AcDb2dVertex
 10
51.94311693589156
 20
18.03422548848995
 30
0.0
  0
VERTEX
  5
E0
330
DC
100
AcDbEntity
  8
STANDARDEBENE
 62
     7
100
AcDbVertex
100
AcDb2dVertex
 10
51.89109595974634
 20
18.10433322786447
 30
0.0
  0
VERTEX
  5
E1
330
DC
100
AcDbEntity
  8
STANDARDEBENE
 62
     7
100
AcDbVertex
100
AcDb2dVertex
 10
51.86422419723424
 20
18.1735796927995
 30
0.0
  0
VERTEX
  5
E2
330
DC
100
AcDbEntity
  8
STANDARDEBENE
 62
     7
100
AcDbVertex
100
AcDb2dVertex
 10
51.85561145283933
 20
18.25316145100841
 30
0.0
  0
VERTEX
  5
E3
330
DC
100
AcDbEntity
  8
STANDARDEBENE
 62
     7
100
AcDbVertex
100
AcDb2dVertex
 10
51.86491321678583
 20
18.32085762195236
 30
0.0
  0
VERTEX
  5
E4
330
DC
100
AcDbEntity
  8
STANDARDEBENE
 62
     7
100
AcDbVertex
100
AcDb2dVertex
 10
51.88696184243678
 20
18.3802855582772
 30
0.0
  0
VERTEX
  5
E5
330
DC
100
AcDbEntity
  8
STANDARDEBENE
 62
     7
100
AcDbVertex
100
AcDb2dVertex
 10
51.94311693589156
 20
18.45866153227083
 30
0.0
  0
SEQEND
  5
E6
330
DC
100
AcDbEntity
  8
STANDARDEBENE
  0
POLYLINE
  5
E7
330
1F
100
AcDbEntity
  8
STANDARDEBENE
 62
     7
100
AcDb2dPolyline
 66
     1
 10
0.0
 20
0.0
 30
0.0
  0
VERTEX
  5
E8
330
E7
100
AcDbEntity
  8
STANDARDEBENE
 62
     7
100
AcDbVertex
100
AcDb2dVertex
 10
53.43587779441636
 20
19.95056111635614
 30
0.0
  0
VERTEX
  5
E9
330
E7
100
AcDbEntity
  8
STANDARDEBENE
 62
     7
100
AcDbVertex
100
AcDb2dVertex
 10
52.74685824282403
 20
19.26223058431539
 30
0.0
  0
VERTEX
  5
EA
330
E7
100
AcDbEntity
  8
STANDARDEBENE
 62
     7
100
AcDbVertex
100
AcDb2dVertex
 10
51.94311693589156
 20
18.45866153227083
 30
0.0
  0
SEQEND
  5
EB
330
E7
100
AcDbEntity
  8
STANDARDEBENE
  0
POLYLINE
  5
EC
330
1F
100
AcDbEntity
  8
STANDARDEBENE
 62
     7
100
AcDb2dPolyline
 66
     1
 10
0.0
 20
0.0
 30
0.0
  0
VERTEX
  5
ED
330
EC
100
AcDbEntity
  8
STANDARDEBENE
 62
     7
100
AcDbVertex
100
AcDb2dVertex
 10
53.43587779441636
 20
20.54294567583765
 30
0.0
  0
VERTEX
  5
EE
330
EC
100
AcDbEntity
  8
STANDARDEBENE
 62
     7
100
AcDbVertex
100
AcDb2dVertex
 10
53.43587779441636
 20
19.95056111635614
 30
0.0
  0
SEQEND
  5
EF
330
EC
100
AcDbEntity
  8
STANDARDEBENE
  0
POLYLINE
  5
F0
330
1F
100
AcDbEntity
  8
STANDARDEBENE
 62
     7
100
AcDb2dPolyline
 66
     1
 10
0.0
 20
0.0
 30
0.0
  0
VERTEX
  5
F1
330
F0
100
AcDbEntity
  8
STANDARDEBENE
 62
     7
100
AcDbVertex
100
AcDb2dVertex
 10
53.43587779441636
 20
20.54294567583765
 30
0.0
  0
VERTEX
  5
F2
330
F0
100
AcDbEntity
  8
STANDARDEBENE
 62
     7
100
AcDbVertex
100
AcDb2dVertex
 10
52.74685824282403
 20
21.23127620787839
 30
0.0
  0
VERTEX
  5
F3
330
F0
100
AcDbEntity
  8
STANDARDEBENE
 62
     7
100
AcDbVertex
100
AcDb2dVertex
 10
51.94311693589156
 20
22.03467300503506
 30
0.0
  0
VERTEX
  5
F4
330
F0
100
AcDbEntity
  8
STANDARDEBENE
 62
     7
100
AcDbVertex
100
AcDb2dVertex
 10
51.89109595974634
 20
22.10478074440958
 30
0.0
  0
VERTEX
  5
F5
330
F0
100
AcDbEntity
  8
STANDARDEBENE
 62
     7
100
AcDbVertex
100
AcDb2dVertex
 10
51.86422419723424
 20
22.17333818979302
 30
0.0
  0
VERTEX
  5
F6
330
F0
100
AcDbEntity
  8
STANDARDEBENE
 62
     7
100
AcDbVertex
100
AcDb2dVertex
 10
51.85561145283933
 20
22.25326445777773
 30
0.0
  0
VERTEX
  5
F7
330
F0
100
AcDbEntity
  8
STANDARDEBENE
 62
     7
100
AcDbVertex
100
AcDb2dVertex
 10
51.86491321678583
 20
22.32027160917009
 30
0.0
  0
VERTEX
  5
F8
330
F0
100
AcDbEntity
  8
STANDARDEBENE
 62
     7
100
AcDbVertex
100
AcDb2dVertex
 10
51.88696184243678
 20
22.38004405527072
 30
0.0
  0
VERTEX
  5
F9
330
F0
100
AcDbEntity
  8
STANDARDEBENE
 62
     7
100
AcDbVertex
100
AcDb2dVertex
 10
51.94311693589156
 20
22.45893679392804
 30
0.0
  0
SEQEND
  5
FA
330
F0
100
AcDbEntity
  8
STANDARDEBENE
  0
POLYLINE
  5
FB
330
1F
100
AcDbEntity
  8
STANDARDEBENE
 62
     7
100
AcDb2dPolyline
 66
     1
 10
0.0
 20
0.0
 30
0.0
  0
VERTEX
  5
FC
330
FB
100
AcDbEntity
  8
STANDARDEBENE
 62
     7
100
AcDbVertex
100
AcDb2dVertex
 10
53.43587779441636
 20
23.95066412312545
 30
0.0
  0
VERTEX
  5
FD
330
FB
100
AcDbEntity
  8
STANDARDEBENE
 62
     7
100
AcDbVertex
100
AcDb2dVertex
 10
52.74685824282403
 20
23.26267810086051
 30
0.0
  0
VERTEX
  5
FE
330
FB
100
AcDbEntity
  8
STANDARDEBENE
 62
     7
100
AcDbVertex
100
AcDb2dVertex
 10
51.94311693589156
 20
22.45893679392804
 30
0.0
  0
SEQEND
  5
FF
330
FB
100
AcDbEntity
  8
STANDARDEBENE
  0
POLYLINE
  5
100
330
1F
100
AcDbEntity
  8
STANDARDEBENE
 62
     7
100
AcDb2dPolyline
 66
     1
 10
0.0
 20
0.0
 30
0.0
  0
VERTEX
  5
101
330
100
100
AcDbEntity
  8
STANDARDEBENE
 62
     7
100
AcDbVertex
100
AcDb2dVertex
 10
53.43587779441636
 20
24.54235966305538
 30
0.0
  0
VERTEX
  5
102
330
100
100
AcDbEntity
  8
STANDARDEBENE
 62
     7
100
AcDbVertex
100
AcDb2dVertex
 10
53.43587779441636
 20
23.95066412312545
 30
0.0
  0
SEQEND
  5
103
330
100
100
AcDbEntity
  8
STANDARDEBENE
  0
POLYLINE
  5
104
330
1F
100
AcDbEntity
  8
STANDARDEBENE
 62
     7
100
AcDb2dPolyline
 66
     1
 10
0.0
 20
0.0
 30
0.0
  0
VERTEX
  5
105
330
104
100
AcDbEntity
  8
STANDARDEBENE
 62
     7
100
AcDbVertex
100
AcDb2dVertex
 10
53.43587779441636
 20
24.54235966305538
 30
0.0
  0
VERTEX
  5
106
330
104
100
AcDbEntity
  8
STANDARDEBENE
 62
     7
100
AcDbVertex
100
AcDb2dVertex
 10
52.74685824282403
 20
25.23103470487192
 30
0.0
  0
VERTEX
  5
107
330
104
100
AcDbEntity
  8
STANDARDEBENE
 62
     7
100
AcDbVertex
100
AcDb2dVertex
 10
51.94311693589156
 20
26.03443150202858
 30
0.0
  0
VERTEX
  5
108
330
104
100
AcDbEntity
  8
STANDARDEBENE
 62
     7
100
AcDbVertex
100
AcDb2dVertex
 10
51.89109595974634
 20
26.1045392414031
 30
0.0
  0
VERTEX
  5
109
330
104
100
AcDbEntity
  8
STANDARDEBENE
 62
     7
100
AcDbVertex
100
AcDb2dVertex
 10
51.86422419723424
 20
26.17378570633813
 30
0.0
  0
VERTEX
  5
10A
330
104
100
AcDbEntity
  8
STANDARDEBENE
 62
     7
100
AcDbVertex
100
AcDb2dVertex
 10
51.85561145283933
 20
26.25336746454705
 30
0.0
  0
VERTEX
  5
10B
330
104
100
AcDbEntity
  8
STANDARDEBENE
 62
     7
100
AcDbVertex
100
AcDb2dVertex
 10
51.86491321678583
 20
26.3205468708273
 30
0.0
  0
VERTEX
  5
10C
330
104
100
AcDbEntity
  8
STANDARDEBENE
 62
     7
100
AcDbVertex
100
AcDb2dVertex
 10
51.88696184243678
 20
26.38049157181583
 30
0.0
  0
VERTEX
  5
10D
330
104
100
AcDbEntity
  8
STANDARDEBENE
 62
     7
100
AcDbVertex
100
AcDb2dVertex
 10
51.94311693589156
 20
26.45835078114577
 30
0.0
  0
VERTEX
  5
10E
330
104
100
AcDbEntity
  8
STANDARDEBENE
 62
     7
100
AcDbVertex
100
AcDb2dVertex
 10
52.74685824282403
 20
27.26243659785403
 30
0.0
  0
VERTEX
  5
10F
330
104
100
AcDbEntity
  8
STANDARDEBENE
 62
     7
100
AcDbVertex
100
AcDb2dVertex
 10
53.43587779441636
 20
27.95111163967057
 30
0.0
  0
SEQEND
  5
110
330
104
100
AcDbEntity
  8
STANDARDEBENE
  0
POLYLINE
  5
111
330
1F
100
AcDbEntity
  8
STANDARDEBENE
 62
     7
100
AcDb2dPolyline
 66
     1
 10
0.0
 20
0.0
 30
0.0
  0
VERTEX
  5
112
330
111
100
AcDbEntity
  8
STANDARDEBENE
 62
     7
100
AcDbVertex
100
AcDb2dVertex
 10
53.43587779441636
 20
28.54263492471259
 30
0.0
  0
VERTEX
  5
113
330
111
100
AcDbEntity
  8
STANDARDEBENE
 62
     7
100
AcDbVertex
100
AcDb2dVertex
 10
53.43587779441636
 20
27.95111163967057
 30
0.0
  0
SEQEND
  5
114
330
111
100
AcDbEntity
  8
STANDARDEBENE
  0
POLYLINE
  5
115
330
1F
100
AcDbEntity
  8
STANDARDEBENE
 62
     7
100
AcDb2dPolyline
 66
     1
 10
0.0
 20
0.0
 30
0.0
  0
VERTEX
  5
116
330
115
100
AcDbEntity
  8
STANDARDEBENE
 62
     7
100
AcDbVertex
100
AcDb2dVertex
 10
53.43587779441636
 20
28.54263492471259
 30
0.0
  0
VERTEX
  5
117
330
115
100
AcDbEntity
  8
STANDARDEBENE
 62
     7
100
AcDbVertex
100
AcDb2dVertex
 10
52.74685824282403
 20
29.23113771164123
 30
0.0
  0
VERTEX
  5
118
330
115
100
AcDbEntity
  8
STANDARDEBENE
 62
     7
100
AcDbVertex
100
AcDb2dVertex
 10
51.94311693589156
 20
30.0341899990221
 30
0.0
  0
VERTEX
  5
119
330
115
100
AcDbEntity
  8
STANDARDEBENE
 62
     7
100
AcDbVertex
100
AcDb2dVertex
 10
51.89109595974634
 20
30.10498675794821
 30
0.0
  0
VERTEX
  5
11A
330
115
100
AcDbEntity
  8
STANDARDEBENE
 62
     7
100
AcDbVertex
100
AcDb2dVertex
 10
51.86422419723424
 20
30.17388871310745
 30
0.0
  0
VERTEX
  5
11B
330
115
100
AcDbEntity
  8
STANDARDEBENE
 62
     7
100
AcDbVertex
100
AcDb2dVertex
 10
51.85561145283933
 20
30.25312596154057
 30
0.0
  0
VERTEX
  5
11C
330
115
100
AcDbEntity
  8
STANDARDEBENE
 62
     7
100
AcDbVertex
100
AcDb2dVertex
 10
51.86491321678583
 20
30.32030536782082
 30
0.0
  0
VERTEX
  5
11D
330
115
100
AcDbEntity
  8
STANDARDEBENE
 62
     7
100
AcDbVertex
100
AcDb2dVertex
 10
51.88696184243678
 20
30.37990555903356
 30
0.0
  0
VERTEX
  5
11E
330
115
100
AcDbEntity
  8
STANDARDEBENE
 62
     7
100
AcDbVertex
100
AcDb2dVertex
 10
51.94311693589156
 20
30.45914280746668
 30
0.0
  0
SEQEND
  5
11F
330
115
100
AcDbEntity
  8
STANDARDEBENE
  0
POLYLINE
  5
120
330
1F
100
AcDbEntity
  8
STANDARDEBENE
 62
     7
100
AcDb2dPolyline
 66
     1
 10
0.0
 20
0.0
 30
0.0
  0
VERTEX
  5
121
330
120
100
AcDbEntity
  8
STANDARDEBENE
 62
     7
100
AcDbVertex
100
AcDb2dVertex
 10
53.43587779441636
 20
31.95052562688829
 30
0.0
  0
VERTEX
  5
122
330
120
100
AcDbEntity
  8
STANDARDEBENE
 62
     7
100
AcDbVertex
100
AcDb2dVertex
 10
52.74685824282403
 20
31.26219509484755
 30
0.0
  0
VERTEX
  5
123
330
120
100
AcDbEntity
  8
STANDARDEBENE
 62
     7
100
AcDbVertex
100
AcDb2dVertex
 10
51.94311693589156
 20
30.45914280746668
 30
0.0
  0
SEQEND
  5
124
330
120
100
AcDbEntity
  8
STANDARDEBENE
  0
POLYLINE
  5
125
330
1F
100
AcDbEntity
  8
STANDARDEBENE
 62
     7
100
AcDb2dPolyline
 66
     1
 10
0.0
 20
0.0
 30
0.0
  0
VERTEX
  5
126
330
125
100
AcDbEntity
  8
STANDARDEBENE
 62
     7
100
AcDbVertex
100
AcDb2dVertex
 10
53.43587779441636
 20
32.54222116681821
 30
0.0
  0
VERTEX
  5
127
330
125
100
AcDbEntity
  8
STANDARDEBENE
 62
     7
100
AcDbVertex
100
AcDb2dVertex
 10
53.43587779441636
 20
31.95052562688829
 30
0.0
  0
SEQEND
  5
128
330
125
100
AcDbEntity
  8
STANDARDEBENE
  0
POLYLINE
  5
129
330
1F
100
AcDbEntity
  8
STANDARDEBENE
 62
     7
100
AcDb2dPolyline
 66
     1
 10
0.0
 20
0.0
 30
0.0
  0
VERTEX
  5
12A
330
129
100
AcDbEntity
  8
STANDARDEBENE
 62
     7
100
AcDbVertex
100
AcDb2dVertex
 10
53.43587779441636
 20
32.54222116681821
 30
0.0
  0
VERTEX
  5
12B
330
129
100
AcDbEntity
  8
STANDARDEBENE
 62
     7
100
AcDbVertex
100
AcDb2dVertex
 10
52.74685824282403
 20
33.23089620863475
 30
0.0
  0
VERTEX
  5
12C
330
129
100
AcDbEntity
  8
STANDARDEBENE
 62
     7
100
AcDbVertex
100
AcDb2dVertex
 10
51.94311693589156
 20
34.03480977045511
 30
0.0
  0
VERTEX
  5
12D
330
129
100
AcDbEntity
  8
STANDARDEBENE
 62
     7
100
AcDbVertex
100
AcDb2dVertex
 10
51.89109595974634
 20
34.10440074516594
 30
0.0
  0
VERTEX
  5
12E
330
129
100
AcDbEntity
  8
STANDARDEBENE
 62
     7
100
AcDbVertex
100
AcDb2dVertex
 10
51.86422419723424
 20
34.17347495521307
 30
0.0
  0
VERTEX
  5
12F
330
129
100
AcDbEntity
  8
STANDARDEBENE
 62
     7
100
AcDbVertex
100
AcDb2dVertex
 10
51.85561145283933
 20
34.25374573297358
 30
0.0
  0
VERTEX
  5
130
330
129
100
AcDbEntity
  8
STANDARDEBENE
 62
     7
100
AcDbVertex
100
AcDb2dVertex
 10
51.86491321678583
 20
34.32006386481434
 30
0.0
  0
VERTEX
  5
131
330
129
100
AcDbEntity
  8
STANDARDEBENE
 62
     7
100
AcDbVertex
100
AcDb2dVertex
 10
51.88696184243678
 20
34.38018082069078
 30
0.0
  0
VERTEX
  5
132
330
129
100
AcDbEntity
  8
STANDARDEBENE
 62
     7
100
AcDbVertex
100
AcDb2dVertex
 10
51.94311693589156
 20
34.4589013044602
 30
0.0
  0
SEQEND
  5
133
330
129
100
AcDbEntity
  8
STANDARDEBENE
  0
POLYLINE
  5
134
330
1F
100
AcDbEntity
  8
STANDARDEBENE
 62
     7
100
AcDb2dPolyline
 66
     1
 10
0.0
 20
0.0
 30
0.0
  0
VERTEX
  5
135
330
134
100
AcDbEntity
  8
STANDARDEBENE
 62
     7
100
AcDbVertex
100
AcDb2dVertex
 10
53.43587779441636
 20
35.9509731434334
 30
0.0
  0
VERTEX
  5
136
330
134
100
AcDbEntity
  8
STANDARDEBENE
 62
     7
100
AcDbVertex
100
AcDb2dVertex
 10
52.74685824282403
 20
35.26212584672896
 30
0.0
  0
VERTEX
  5
137
330
134
100
AcDbEntity
  8
STANDARDEBENE
 62
     7
100
AcDbVertex
100
AcDb2dVertex
 10
51.94311693589156
 20
34.4589013044602
 30
0.0
  0
SEQEND
  5
138
330
134
100
AcDbEntity
  8
STANDARDEBENE
  0
POLYLINE
  5
139
330
1F
100
AcDbEntity
  8
STANDARDEBENE
 62
     7
100
AcDb2dPolyline
 66
     1
 10
0.0
 20
0.0
 30
0.0
  0
VERTEX
  5
13A
330
139
100
AcDbEntity
  8
STANDARDEBENE
 62
     7
100
AcDbVertex
100
AcDb2dVertex
 10
53.43587779441636
 20
36.54249642847542
 30
0.0
  0
VERTEX
  5
13B
330
139
100
AcDbEntity
  8
STANDARDEBENE
 62
     7
100
AcDbVertex
100
AcDb2dVertex
 10
53.43587779441636
 20
35.9509731434334
 30
0.0
  0
SEQEND
  5
13C
330
139
100
AcDbEntity
  8
STANDARDEBENE
  0
POLYLINE
  5
13D
330
1F
100
AcDbEntity
  8
STANDARDEBENE
 62
     7
100
AcDb2dPolyline
 66
     1
 10
0.0
 20
0.0
 30
0.0
  0
VERTEX
  5
13E
330
13D
100
AcDbEntity
  8
STANDARDEBENE
 62
     7
100
AcDbVertex
100
AcDb2dVertex
 10
53.43587779441636
 20
36.54249642847542
 30
0.0
  0
VERTEX
  5
13F
330
13D
100
AcDbEntity
  8
STANDARDEBENE
 62
     7
100
AcDbVertex
100
AcDb2dVertex
 10
52.74685824282403
 20
37.23065470562828
 30
0.0
  0
VERTEX
  5
140
330
13D
100
AcDbEntity
  8
STANDARDEBENE
 62
     7
100
AcDbVertex
100
AcDb2dVertex
 10
51.94311693589156
 20
38.03422375767283
 30
0.0
  0
VERTEX
  5
141
330
13D
100
AcDbEntity
  8
STANDARDEBENE
 62
     7
100
AcDbVertex
100
AcDb2dVertex
 10
51.89109595974634
 20
38.10467600682315
 30
0.0
  0
VERTEX
  5
142
330
13D
100
AcDbEntity
  8
STANDARDEBENE
 62
     7
100
AcDbVertex
100
AcDb2dVertex
 10
51.86422419723424
 20
38.17357796198239
 30
0.0
  0
VERTEX
  5
143
330
13D
100
AcDbEntity
  8
STANDARDEBENE
 62
     7
100
AcDbVertex
100
AcDb2dVertex
 10
51.85561145283933
 20
38.25281521041551
 30
0.0
  0
VERTEX
  5
144
330
13D
100
AcDbEntity
  8
STANDARDEBENE
 62
     7
100
AcDbVertex
100
AcDb2dVertex
 10
51.86491321678583
 20
38.32085589113525
 30
0.0
  0
VERTEX
  5
145
330
13D
100
AcDbEntity
  8
STANDARDEBENE
 62
     7
100
AcDbVertex
100
AcDb2dVertex
 10
51.88696184243678
 20
38.37993931768429
 30
0.0
  0
VERTEX
  5
146
330
13D
100
AcDbEntity
  8
STANDARDEBENE
 62
     7
100
AcDbVertex
100
AcDb2dVertex
 10
51.94311693589156
 20
38.45865980145372
 30
0.0
  0
SEQEND
  5
147
330
13D
100
AcDbEntity
  8
STANDARDEBENE
  0
POLYLINE
  5
148
330
1F
100
AcDbEntity
  8
STANDARDEBENE
 62
     7
100
AcDb2dPolyline
 66
     1
 10
0.0
 20
0.0
 30
0.0
  0
VERTEX
  5
149
330
148
100
AcDbEntity
  8
STANDARDEBENE
 62
     7
100
AcDbVertex
100
AcDb2dVertex
 10
53.43587779441636
 20
39.95038713065113
 30
0.0
  0
VERTEX
  5
14A
330
148
100
AcDbEntity
  8
STANDARDEBENE
 62
     7
100
AcDbVertex
100
AcDb2dVertex
 10
52.74685824282403
 20
39.26222885349828
 30
0.0
  0
VERTEX
  5
14B
330
148
100
AcDbEntity
  8
STANDARDEBENE
 62
     7
100
AcDbVertex
100
AcDb2dVertex
 10
51.94311693589156
 20
38.45865980145372
 30
0.0
  0
SEQEND
  5
14C
330
148
100
AcDbEntity
  8
STANDARDEBENE
  0
POLYLINE
  5
14D
330
1F
100
AcDbEntity
  8
STANDARDEBENE
 62
     7
100
AcDb2dPolyline
 66
     1
 10
0.0
 20
0.0
 30
0.0
  0
VERTEX
  5
14E
330
14D
100
AcDbEntity
  8
STANDARDEBENE
 62
     7
100
AcDbVertex
100
AcDb2dVertex
 10
53.43587779441636
 20
42.94693316052621
 30
0.0
  0
VERTEX
  5
14F
330
14D
100
AcDbEntity
  8
STANDARDEBENE
 62
     7
100
AcDbVertex
100
AcDb2dVertex
 10
53.43587779441636
 20
39.95038713065113
 30
0.0
  0
SEQEND
  5
150
330
14D
100
AcDbEntity
  8
STANDARDEBENE
  0
POLYLINE
  5
151
330
1F
100
AcDbEntity
  8
STANDARDEBENE
 62
     7
100
AcDb2dPolyline
 66
     1
 10
0.0
 20
0.0
 30
0.0
  0
VERTEX
  5
152
330
151
100
AcDbEntity
  8
STANDARDEBENE
 62
     7
100
AcDbVertex
100
AcDb2dVertex
 10
54.93552884845708
 20
42.94693316052621
 30
0.0
  0
VERTEX
  5
153
330
151
100
AcDbEntity
  8
STANDARDEBENE
 62
     7
100
AcDbVertex
100
AcDb2dVertex
 10
54.76568552898957
 20
42.94693316052621
 30
0.0
  0
VERTEX
  5
154
330
151
100
AcDbEntity
  8
STANDARDEBENE
 62
     7
100
AcDbVertex
100
AcDb2dVertex
 10
54.26132321722398
 20
42.94693316052621
 30
0.0
  0
VERTEX
  5
155
330
151
100
AcDbEntity
  8
STANDARDEBENE
 62
     7
100
AcDbVertex
100
AcDb2dVertex
 10
53.43587779441636
 20
42.94693316052621
 30
0.0
  0
SEQEND
  5
156
330
151
100
AcDbEntity
  8
STANDARDEBENE
  0
POLYLINE
  5
157
330
1F
100
AcDbEntity
  8
STANDARDEBENE
 62
     7
100
AcDb2dPolyline
 66
     1
 10
0.0
 20
0.0
 30
0.0
  0
VERTEX
  5
158
330
157
100
AcDbEntity
  8
STANDARDEBENE
 62
     7
100
AcDbVertex
100
AcDb2dVertex
 10
42.43533614346889
 20
47.54682768695665
 30
0.0
  0
VERTEX
  5
159
330
157
100
AcDbEntity
  8
STANDARDEBENE
 62
     7
100
AcDbVertex
100
AcDb2dVertex
 10
44.06658993186375
 20
47.54682768695665
 30
0.0
  0
VERTEX
  5
15A
330
157
100
AcDbEntity
  8
STANDARDEBENE
 62
     7
100
AcDbVertex
100
AcDb2dVertex
 10
45.67131646752231
 20
47.54682768695665
 30
0.0
  0
VERTEX
  5
15B
330
157
100
AcDbEntity
  8
STANDARDEBENE
 62
     7
100
AcDbVertex
100
AcDb2dVertex
 10
47.21954339995029
 20
47.54682768695665
 30
0.0
  0
VERTEX
  5
15C
330
157
100
AcDbEntity
  8
STANDARDEBENE
 62
     7
100
AcDbVertex
100
AcDb2dVertex
 10
48.6847434764114
 20
47.54682768695665
 30
0.0
  0
VERTEX
  5
15D
330
157
100
AcDbEntity
  8
STANDARDEBENE
 62
     7
100
AcDbVertex
100
AcDb2dVertex
 10
50.04452356147888
 20
47.54682768695665
 30
0.0
  0
VERTEX
  5
15E
330
157
100
AcDbEntity
  8
STANDARDEBENE
 62
     7
100
AcDbVertex
100
AcDb2dVertex
 10
51.2744234610712
 20
47.54682768695665
 30
0.0
  0
VERTEX
  5
15F
330
157
100
AcDbEntity
  8
STANDARDEBENE
 62
     7
100
AcDbVertex
100
AcDb2dVertex
 10
52.35239454953741
 20
47.54682768695665
 30
0.0
  0
VERTEX
  5
160
330
157
100
AcDbEntity
  8
STANDARDEBENE
 62
     7
100
AcDbVertex
100
AcDb2dVertex
 10
53.26052231853611
 20
47.54682768695665
 30
0.0
  0
VERTEX
  5
161
330
157
100
AcDbEntity
  8
STANDARDEBENE
 62
     7
100
AcDbVertex
100
AcDb2dVertex
 10
53.98399284770807
 20
47.54682768695665
 30
0.0
  0
VERTEX
  5
162
330
157
100
AcDbEntity
  8
STANDARDEBENE
 62
     7
100
AcDbVertex
100
AcDb2dVertex
 10
54.50937025579722
 20
47.54682768695665
 30
0.0
  0
VERTEX
  5
163
330
157
100
AcDbEntity
  8
STANDARDEBENE
 62
     7
100
AcDbVertex
100
AcDb2dVertex
 10
54.82838630818448
 20
47.54682768695665
 30
0.0
  0
VERTEX
  5
164
330
157
100
AcDbEntity
  8
STANDARDEBENE
 62
     7
100
AcDbVertex
100
AcDb2dVertex
 10
54.93552884845708
 20
47.54682768695665
 30
0.0
  0
SEQEND
  5
165
330
157
100
AcDbEntity
  8
STANDARDEBENE
  0
POLYLINE
  5
166
330
1F
100
AcDbEntity
  8
STANDARDEBENE
 62
     7
100
AcDb2dPolyline
 66
     1
 10
0.0
 20
0.0
 30
0.0
  0
VERTEX
  5
167
330
166
100
AcDbEntity
  8
STANDARDEBENE
 62
     7
100
AcDbVertex
100
AcDb2dVertex
 10
29.9354879482565
 20
47.54682768695665
 30
0.0
  0
VERTEX
  5
168
330
166
100
AcDbEntity
  8
STANDARDEBENE
 62
     7
100
AcDbVertex
100
AcDb2dVertex
 10
30.04228597875331
 20
47.54682768695665
 30
0.0
  0
VERTEX
  5
169
330
166
100
AcDbEntity
  8
STANDARDEBENE
 62
     7
100
AcDbVertex
100
AcDb2dVertex
 10
30.36095752136477
 20
47.54682768695665
 30
0.0
  0
VERTEX
  5
16A
330
166
100
AcDbEntity
  8
STANDARDEBENE
 62
     7
100
AcDbVertex
100
AcDb2dVertex
 10
30.88667943922972
 20
47.54682768695665
 30
0.0
  0
VERTEX
  5
16B
330
166
100
AcDbEntity
  8
STANDARDEBENE
 62
     7
100
AcDbVertex
100
AcDb2dVertex
 10
31.61014996840168
 20
47.54682768695665
 30
0.0
  0
VERTEX
  5
16C
330
166
100
AcDbEntity
  8
STANDARDEBENE
 62
     7
100
AcDbVertex
100
AcDb2dVertex
 10
32.51862224717618
 20
47.54682768695665
 30
0.0
  0
VERTEX
  5
16D
330
166
100
AcDbEntity
  8
STANDARDEBENE
 62
     7
100
AcDbVertex
100
AcDb2dVertex
 10
33.59693784541818
 20
47.54682768695665
 30
0.0
  0
VERTEX
  5
16E
330
166
100
AcDbEntity
  8
STANDARDEBENE
 62
     7
100
AcDbVertex
100
AcDb2dVertex
 10
34.82614872545891
 20
47.54682768695665
 30
0.0
  0
VERTEX
  5
16F
330
166
100
AcDbEntity
  8
STANDARDEBENE
 62
     7
100
AcDbVertex
100
AcDb2dVertex
 10
36.1852397909748
 20
47.54682768695665
 30
0.0
  0
VERTEX
  5
170
330
166
100
AcDbEntity
  8
STANDARDEBENE
 62
     7
100
AcDbVertex
100
AcDb2dVertex
 10
37.65216241631489
 20
47.54682768695665
 30
0.0
  0
VERTEX
  5
171
330
166
100
AcDbEntity
  8
STANDARDEBENE
 62
     7
100
AcDbVertex
100
AcDb2dVertex
 10
39.20038934874287
 20
47.54682768695665
 30
0.0
  0
VERTEX
  5
172
330
166
100
AcDbEntity
  8
STANDARDEBENE
 62
     7
100
AcDbVertex
100
AcDb2dVertex
 10
40.80373784529824
 20
47.54682768695665
 30
0.0
  0
VERTEX
  5
173
330
166
100
AcDbEntity
  8
STANDARDEBENE
 62
     7
100
AcDbVertex
100
AcDb2dVertex
 10
42.43533614346889
 20
47.54682768695665
 30
0.0
  0
SEQEND
  5
174
330
166
100
AcDbEntity
  8
STANDARDEBENE
  0
POLYLINE
  5
175
330
1F
100
AcDbEntity
  8
STANDARDEBENE
 62
     7
100
AcDb2dPolyline
 66
     1
 10
0.0
 20
0.0
 30
0.0
  0
VERTEX
  5
176
330
175
100
AcDbEntity
  8
STANDARDEBENE
 62
     7
100
AcDbVertex
100
AcDb2dVertex
 10
53.43587779441636
 20
3.946531736633012
 30
0.0
  0
VERTEX
  5
177
330
175
100
AcDbEntity
  8
STANDARDEBENE
 62
     7
100
AcDbVertex
100
AcDb2dVertex
 10
53.43587779441636
 20
1.946652488136252
 30
0.0
  0
VERTEX
  5
178
330
175
100
AcDbEntity
  8
STANDARDEBENE
 62
     7
100
AcDbVertex
100
AcDb2dVertex
 10
52.7306662833616
 20
1.946652488136252
 30
0.0
  0
VERTEX
  5
179
330
175
100
AcDbEntity
  8
STANDARDEBENE
 62
     7
100
AcDbVertex
100
AcDb2dVertex
 10
51.85113282575399
 20
1.946652488136252
 30
0.0
  0
VERTEX
  5
17A
330
175
100
AcDbEntity
  8
STANDARDEBENE
 62
     7
100
AcDbVertex
100
AcDb2dVertex
 10
50.81140232240115
 20
1.946652488136252
 30
0.0
  0
VERTEX
  5
17B
330
175
100
AcDbEntity
  8
STANDARDEBENE
 62
     7
100
AcDbVertex
100
AcDb2dVertex
 10
49.63007830119609
 20
1.946652488136252
 30
0.0
  0
VERTEX
  5
17C
330
175
100
AcDbEntity
  8
STANDARDEBENE
 62
     7
100
AcDbVertex
100
AcDb2dVertex
 10
48.32645330958338
 20
1.946652488136252
 30
0.0
  0
VERTEX
  5
17D
330
175
100
AcDbEntity
  8
STANDARDEBENE
 62
     7
100
AcDbVertex
100
AcDb2dVertex
 10
46.92292048298979
 20
1.946652488136252
 30
0.0
  0
VERTEX
  5
17E
330
175
100
AcDbEntity
  8
STANDARDEBENE
 62
     7
100
AcDbVertex
100
AcDb2dVertex
 10
45.44325099594524
 20
1.946652488136252
 30
0.0
  0
VERTEX
  5
17F
330
175
100
AcDbEntity
  8
STANDARDEBENE
 62
     7
100
AcDbVertex
100
AcDb2dVertex
 10
43.91224955230707
 20
1.946652488136252
 30
0.0
  0
VERTEX
  5
180
330
175
100
AcDbEntity
  8
STANDARDEBENE
 62
     7
100
AcDbVertex
100
AcDb2dVertex
 10
42.35644340481157
 20
1.946652488136252
 30
0.0
  0
VERTEX
  5
181
330
175
100
AcDbEntity
  8
STANDARDEBENE
 62
     7
100
AcDbVertex
100
AcDb2dVertex
 10
40.80235980619506
 20
1.946652488136252
 30
0.0
  0
VERTEX
  5
182
330
175
100
AcDbEntity
  8
STANDARDEBENE
 62
     7
100
AcDbVertex
100
AcDb2dVertex
 10
39.27549247986644
 20
1.946652488136252
 30
0.0
  0
VERTEX
  5
183
330
175
100
AcDbEntity
  8
STANDARDEBENE
 62
     7
100
AcDbVertex
100
AcDb2dVertex
 10
37.80271318833781
 20
1.946652488136252
 30
0.0
  0
VERTEX
  5
184
330
175
100
AcDbEntity
  8
STANDARDEBENE
 62
     7
100
AcDbVertex
100
AcDb2dVertex
 10
36.40779310613912
 20
1.946652488136252
 30
0.0
  0
VERTEX
  5
185
330
175
100
AcDbEntity
  8
STANDARDEBENE
 62
     7
100
AcDbVertex
100
AcDb2dVertex
 10
35.11553693712769
 20
1.946652488136252
 30
0.0
  0
VERTEX
  5
186
330
175
100
AcDbEntity
  8
STANDARDEBENE
 62
     7
100
AcDbVertex
100
AcDb2dVertex
 10
33.94764879717868
 20
1.946652488136252
 30
0.0
  0
VERTEX
  5
187
330
175
100
AcDbEntity
  8
STANDARDEBENE
 62
     7
100
AcDbVertex
100
AcDb2dVertex
 10
32.92376574351247
 20
1.946652488136252
 30
0.0
  0
VERTEX
  5
188
330
175
100
AcDbEntity
  8
STANDARDEBENE
 62
     7
100
AcDbVertex
100
AcDb2dVertex
 10
32.06076875514307
 20
1.946652488136252
 30
0.0
  0
VERTEX
  5
189
330
175
100
AcDbEntity
  8
STANDARDEBENE
 62
     7
100
AcDbVertex
100
AcDb2dVertex
 10
31.37484979153289
 20
1.946652488136252
 30
0.0
  0
VERTEX
  5
18A
330
175
100
AcDbEntity
  8
STANDARDEBENE
 62
     7
100
AcDbVertex
100
AcDb2dVertex
 10
30.87599963618004
 20
1.946652488136252
 30
0.0
  0
VERTEX
  5
18B
330
175
100
AcDbEntity
  8
STANDARDEBENE
 62
     7
100
AcDbVertex
100
AcDb2dVertex
 10
30.57283103347941
 20
1.946652488136252
 30
0.0
  0
VERTEX
  5
18C
330
175
100
AcDbEntity
  8
STANDARDEBENE
 62
     7
100
AcDbVertex
100
AcDb2dVertex
 10
30.47120064961954
 20
1.946652488136252
 30
0.0
  0
SEQEND
  5
18D
330
175
100
AcDbEntity
  8
STANDARDEBENE
  0
POLYLINE
  5
18E
330
1F
100
AcDbEntity
  8
STANDARDEBENE
 62
     7
100
AcDb2dPolyline
 66
     1
 10
0.0
 20
0.0
 30
0.0
  0
VERTEX
  5
18F
330
18E
100
AcDbEntity
  8
STANDARDEBENE
 62
     7
100
AcDbVertex
100
AcDb2dVertex
 10
42.43533614346889
 20
65.94640579267843
 30
0.0
  0
VERTEX
  5
190
330
18E
100
AcDbEntity
  8
STANDARDEBENE
 62
     7
100
AcDbVertex
100
AcDb2dVertex
 10
44.87584339520895
 20
65.94640579267843
 30
0.0
  0
VERTEX
  5
191
330
18E
100
AcDbEntity
  8
STANDARDEBENE
 62
     7
100
AcDbVertex
100
AcDb2dVertex
 10
47.29740260928023
 20
65.94640579267843
 30
0.0
  0
VERTEX
  5
192
330
18E
100
AcDbEntity
  8
STANDARDEBENE
 62
     7
100
AcDbVertex
100
AcDb2dVertex
 10
49.68209927734131
 20
65.94640579267843
 30
0.0
  0
VERTEX
  5
193
330
18E
100
AcDbEntity
  8
STANDARDEBENE
 62
     7
100
AcDbVertex
100
AcDb2dVertex
 10
52.01201889105079
 20
65.94640579267843
 30
0.0
  0
VERTEX
  5
194
330
18E
100
AcDbEntity
  8
STANDARDEBENE
 62
     7
100
AcDbVertex
100
AcDb2dVertex
 10
54.2682134127399
 20
65.94640579267843
 30
0.0
  0
VERTEX
  5
195
330
18E
100
AcDbEntity
  8
STANDARDEBENE
 62
     7
100
AcDbVertex
100
AcDb2dVertex
 10
56.4355244122736
 20
65.94640579267843
 30
0.0
  0
VERTEX
  5
196
330
18E
100
AcDbEntity
  8
STANDARDEBENE
 62
     7
100
AcDbVertex
100
AcDb2dVertex
 10
58.4953483617589
 20
65.94640579267843
 30
0.0
  0
VERTEX
  5
197
330
18E
100
AcDbEntity
  8
STANDARDEBENE
 62
     7
100
AcDbVertex
100
AcDb2dVertex
 10
60.43321585061235
 20
65.94640579267843
 30
0.0
  0
VERTEX
  5
198
330
18E
100
AcDbEntity
  8
STANDARDEBENE
 62
     7
100
AcDbVertex
100
AcDb2dVertex
 10
62.23465746825051
 20
65.94640579267843
 30
0.0
  0
VERTEX
  5
199
330
18E
100
AcDbEntity
  8
STANDARDEBENE
 62
     7
100
AcDbVertex
100
AcDb2dVertex
 10
63.88520380408996
 20
65.94640579267843
 30
0.0
  0
VERTEX
  5
19A
330
18E
100
AcDbEntity
  8
STANDARDEBENE
 62
     7
100
AcDbVertex
100
AcDb2dVertex
 10
65.37176348665042
 20
65.94640579267843
 30
0.0
  0
VERTEX
  5
19B
330
18E
100
AcDbEntity
  8
STANDARDEBENE
 62
     7
100
AcDbVertex
100
AcDb2dVertex
 10
66.68400122265804
 20
65.94640579267843
 30
0.0
  0
VERTEX
  5
19C
330
18E
100
AcDbEntity
  8
STANDARDEBENE
 62
     7
100
AcDbVertex
100
AcDb2dVertex
 10
67.8119262286147
 20
65.94640579267843
 30
0.0
  0
VERTEX
  5
19D
330
18E
100
AcDbEntity
  8
STANDARDEBENE
 62
     7
100
AcDbVertex
100
AcDb2dVertex
 10
68.74727026990129
 20
65.94640579267843
 30
0.0
  0
VERTEX
  5
19E
330
18E
100
AcDbEntity
  8
STANDARDEBENE
 62
     7
100
AcDbVertex
100
AcDb2dVertex
 10
69.48176511189872
 20
65.94640579267843
 30
0.0
  0
VERTEX
  5
19F
330
18E
100
AcDbEntity
  8
STANDARDEBENE
 62
     7
100
AcDbVertex
100
AcDb2dVertex
 10
70.00989859819425
 20
65.94640579267843
 30
0.0
  0
VERTEX
  5
1A0
330
18E
100
AcDbEntity
  8
STANDARDEBENE
 62
     7
100
AcDbVertex
100
AcDb2dVertex
 10
70.3289146505815
 20
65.94640579267843
 30
0.0
  0
VERTEX
  5
1A1
330
18E
100
AcDbEntity
  8
STANDARDEBENE
 62
     7
100
AcDbVertex
100
AcDb2dVertex
 10
70.43536817130251
 20
65.94640579267843
 30
0.0
  0
SEQEND
  5
1A2
330
18E
100
AcDbEntity
  8
STANDARDEBENE
  0
POLYLINE
  5
1A3
330
1F
100
AcDbEntity
  8
STANDARDEBENE
 62
     7
100
AcDb2dPolyline
 66
     1
 10
0.0
 20
0.0
 30
0.0
  0
VERTEX
  5
1A4
330
1A3
100
AcDbEntity
  8
STANDARDEBENE
 62
     7
100
AcDbVertex
100
AcDb2dVertex
 10
14.43530411563527
 20
65.94640579267843
 30
0.0
  0
VERTEX
  5
1A5
330
1A3
100
AcDbEntity
  8
STANDARDEBENE
 62
     7
100
AcDbVertex
100
AcDb2dVertex
 10
14.54210214613208
 20
65.94640579267843
 30
0.0
  0
VERTEX
  5
1A6
330
1A3
100
AcDbEntity
  8
STANDARDEBENE
 62
     7
100
AcDbVertex
100
AcDb2dVertex
 10
14.86094594363144
 20
65.94640579267843
 30
0.0
  0
VERTEX
  5
1A7
330
1A3
100
AcDbEntity
  8
STANDARDEBENE
 62
     7
100
AcDbVertex
100
AcDb2dVertex
 10
15.38959619459066
 20
65.94640579267843
 30
0.0
  0
VERTEX
  5
1A8
330
1A3
100
AcDbEntity
  8
STANDARDEBENE
 62
     7
100
AcDbVertex
100
AcDb2dVertex
 10
16.12426329147599
 20
65.94640579267843
 30
0.0
  0
VERTEX
  5
1A9
330
1A3
100
AcDbEntity
  8
STANDARDEBENE
 62
     7
100
AcDbVertex
100
AcDb2dVertex
 10
17.058918313211
 20
65.94640579267843
 30
0.0
  0
VERTEX
  5
1AA
330
1A3
100
AcDbEntity
  8
STANDARDEBENE
 62
     7
100
AcDbVertex
100
AcDb2dVertex
 10
18.18701557405555
 20
65.94640579267843
 30
0.0
  0
VERTEX
  5
1AB
330
1A3
100
AcDbEntity
  8
STANDARDEBENE
 62
     7
100
AcDbVertex
100
AcDb2dVertex
 10
19.49959781983895
 20
65.94640579267843
 30
0.0
  0
VERTEX
  5
1AC
330
1A3
100
AcDbEntity
  8
STANDARDEBENE
 62
     7
100
AcDbVertex
100
AcDb2dVertex
 10
20.98650201217522
 20
65.94640579267843
 30
0.0
  0
VERTEX
  5
1AD
330
1A3
100
AcDbEntity
  8
STANDARDEBENE
 62
     7
100
AcDbVertex
100
AcDb2dVertex
 10
22.63670383823887
 20
65.94640579267843
 30
0.0
  0
VERTEX
  5
1AE
330
1A3
100
AcDbEntity
  8
STANDARDEBENE
 62
     7
100
AcDbVertex
100
AcDb2dVertex
 10
24.43745643632544
 20
65.94640579267843
 30
0.0
  0
VERTEX
  5
1AF
330
1A3
100
AcDbEntity
  8
STANDARDEBENE
 62
     7
100
AcDbVertex
100
AcDb2dVertex
 10
26.37497941540309
 20
65.94640579267843
 30
0.0
  0
VERTEX
  5
1B0
330
1A3
100
AcDbEntity
  8
STANDARDEBENE
 62
     7
100
AcDbVertex
100
AcDb2dVertex
 10
28.43549238443998
 20
65.94640579267843
 30
0.0
  0
VERTEX
  5
1B1
330
1A3
100
AcDbEntity
  8
STANDARDEBENE
 62
     7
100
AcDbVertex
100
AcDb2dVertex
 10
30.60211436442209
 20
65.94640579267843
 30
0.0
  0
VERTEX
  5
1B2
330
1A3
100
AcDbEntity
  8
STANDARDEBENE
 62
     7
100
AcDbVertex
100
AcDb2dVertex
 10
32.85899790566279
 20
65.94640579267843
 30
0.0
  0
VERTEX
  5
1B3
330
1A3
100
AcDbEntity
  8
STANDARDEBENE
 62
     7
100
AcDbVertex
100
AcDb2dVertex
 10
35.18822849982069
 20
65.94640579267843
 30
0.0
  0
VERTEX
  5
1B4
330
1A3
100
AcDbEntity
  8
STANDARDEBENE
 62
     7
100
AcDbVertex
100
AcDb2dVertex
 10
37.57292516788176
 20
65.94640579267843
 30
0.0
  0
VERTEX
  5
1B5
330
1A3
100
AcDbEntity
  8
STANDARDEBENE
 62
     7
100
AcDbVertex
100
AcDb2dVertex
 10
39.99482889172884
 20
65.94640579267843
 30
0.0
  0
VERTEX
  5
1B6
330
1A3
100
AcDbEntity
  8
STANDARDEBENE
 62
     7
100
AcDbVertex
100
AcDb2dVertex
 10
42.43533614346889
 20
65.94640579267843
 30
0.0
  0
SEQEND
  5
1B7
330
1A3
100
AcDbEntity
  8
STANDARDEBENE
  0
POLYLINE
  5
1B8
330
1F
100
AcDbEntity
  8
STANDARDEBENE
 62
     7
100
AcDb2dPolyline
 66
     1
 10
0.0
 20
0.0
 30
0.0
  0
VERTEX
  5
1B9
330
1B8
100
AcDbEntity
  8
STANDARDEBENE
 62
     7
100
AcDbVertex
100
AcDb2dVertex
 10
42.43533614346889
 20
50.44622196005721
 30
0.0
  0
VERTEX
  5
1BA
330
1B8
100
AcDbEntity
  8
STANDARDEBENE
 62
     7
100
AcDbVertex
100
AcDb2dVertex
 10
44.96231534893379
 20
50.44622196005721
 30
0.0
  0
VERTEX
  5
1BB
330
1B8
100
AcDbEntity
  8
STANDARDEBENE
 62
     7
100
AcDbVertex
100
AcDb2dVertex
 10
47.47103553628149
 20
50.44622196005721
 30
0.0
  0
VERTEX
  5
1BC
330
1B8
100
AcDbEntity
  8
STANDARDEBENE
 62
     7
100
AcDbVertex
100
AcDb2dVertex
 10
49.94117062874002
 20
50.44622196005721
 30
0.0
  0
VERTEX
  5
1BD
330
1B8
100
AcDbEntity
  8
STANDARDEBENE
 62
     7
100
AcDbVertex
100
AcDb2dVertex
 10
52.35411709841639
 20
50.44622196005721
 30
0.0
  0
VERTEX
  5
1BE
330
1B8
100
AcDbEntity
  8
STANDARDEBENE
 62
     7
100
AcDbVertex
100
AcDb2dVertex
 10
54.6912714174176
 20
50.44622196005721
 30
0.0
  0
VERTEX
  5
1BF
330
1B8
100
AcDbEntity
  8
STANDARDEBENE
 62
     7
100
AcDbVertex
100
AcDb2dVertex
 10
56.93471907740225
 20
50.44622196005721
 30
0.0
  0
VERTEX
  5
1C0
330
1B8
100
AcDbEntity
  8
STANDARDEBENE
 62
     7
100
AcDbVertex
100
AcDb2dVertex
 10
59.06964615801111
 20
50.44622196005721
 30
0.0
  0
VERTEX
  5
1C1
330
1B8
100
AcDbEntity
  8
STANDARDEBENE
 62
     7
100
AcDbVertex
100
AcDb2dVertex
 10
61.07641560202379
 20
50.44622196005721
 30
0.0
  0
VERTEX
  5
1C2
330
1B8
100
AcDbEntity
  8
STANDARDEBENE
 62
     7
100
AcDbVertex
100
AcDb2dVertex
 10
62.94193603796005
 20
50.44622196005721
 30
0.0
  0
VERTEX
  5
1C3
330
1B8
100
AcDbEntity
  8
STANDARDEBENE
 62
     7
100
AcDbVertex
100
AcDb2dVertex
 10
64.65001550635745
 20
50.44622196005721
 30
0.0
  0
VERTEX
  5
1C4
330
1B8
100
AcDbEntity
  8
STANDARDEBENE
 62
     7
100
AcDbVertex
100
AcDb2dVertex
 10
66.19100773349372
 20
50.44622196005721
 30
0.0
  0
VERTEX
  5
1C5
330
1B8
100
AcDbEntity
  8
STANDARDEBENE
 62
     7
100
AcDbVertex
100
AcDb2dVertex
 10
67.5500987990096
 20
50.44622196005721
 30
0.0
  0
VERTEX
  5
1C6
330
1B8
100
AcDbEntity
  8
STANDARDEBENE
 62
     7
100
AcDbVertex
100
AcDb2dVertex
 10
68.71833144873442
 20
50.44622196005721
 30
0.0
  0
VERTEX
  5
1C7
330
1B8
100
AcDbEntity
  8
STANDARDEBENE
 62
     7
100
AcDbVertex
100
AcDb2dVertex
 10
69.68674842849744
 20
50.44622196005721
 30
0.0
  0
VERTEX
  5
1C8
330
1B8
100
AcDbEntity
  8
STANDARDEBENE
 62
     7
100
AcDbVertex
100
AcDb2dVertex
 10
70.44708150367958
 20
50.44622196005721
 30
0.0
  0
VERTEX
  5
1C9
330
1B8
100
AcDbEntity
  8
STANDARDEBENE
 62
     7
100
AcDbVertex
100
AcDb2dVertex
 10
70.9945075374197
 20
50.44622196005721
 30
0.0
  0
VERTEX
  5
1CA
330
1B8
100
AcDbEntity
  8
STANDARDEBENE
 62
     7
100
AcDbVertex
100
AcDb2dVertex
 10
71.32523692218402
 20
50.44622196005721
 30
0.0
  0
VERTEX
  5
1CB
330
1B8
100
AcDbEntity
  8
STANDARDEBENE
 62
     7
100
AcDbVertex
100
AcDb2dVertex
 10
71.4354800504388
 20
50.44622196005721
 30
0.0
  0
SEQEND
  5
1CC
330
1B8
100
AcDbEntity
  8
STANDARDEBENE
  0
POLYLINE
  5
1CD
330
1F
100
AcDbEntity
  8
STANDARDEBENE
 62
     7
100
AcDb2dPolyline
 66
     1
 10
0.0
 20
0.0
 30
0.0
  0
VERTEX
  5
1CE
330
1CD
100
AcDbEntity
  8
STANDARDEBENE
 62
     7
100
AcDbVertex
100
AcDb2dVertex
 10
13.43553674627479
 20
50.44622196005721
 30
0.0
  0
VERTEX
  5
1CF
330
1CD
100
AcDbEntity
  8
STANDARDEBENE
 62
     7
100
AcDbVertex
100
AcDb2dVertex
 10
13.54577987452956
 20
50.44622196005721
 30
0.0
  0
VERTEX
  5
1D0
330
1CD
100
AcDbEntity
  8
STANDARDEBENE
 62
     7
100
AcDbVertex
100
AcDb2dVertex
 10
13.87582023974229
 20
50.44622196005721
 30
0.0
  0
VERTEX
  5
1D1
330
1CD
100
AcDbEntity
  8
STANDARDEBENE
 62
     7
100
AcDbVertex
100
AcDb2dVertex
 10
14.4234185283703
 20
50.44622196005721
 30
0.0
  0
VERTEX
  5
1D2
330
1CD
100
AcDbEntity
  8
STANDARDEBENE
 62
     7
100
AcDbVertex
100
AcDb2dVertex
 10
15.18478513287984
 20
50.44622196005721
 30
0.0
  0
VERTEX
  5
1D3
330
1CD
100
AcDbEntity
  8
STANDARDEBENE
 62
     7
100
AcDbVertex
100
AcDb2dVertex
 10
16.15285760286707
 20
50.44622196005721
 30
0.0
  0
VERTEX
  5
1D4
330
1CD
100
AcDbEntity
  8
STANDARDEBENE
 62
     7
100
AcDbVertex
100
AcDb2dVertex
 10
17.32091799770398
 20
50.44622196005721
 30
0.0
  0
VERTEX
  5
1D5
330
1CD
100
AcDbEntity
  8
STANDARDEBENE
 62
     7
100
AcDbVertex
100
AcDb2dVertex
 10
18.68035357299566
 20
50.44622196005721
 30
0.0
  0
VERTEX
  5
1D6
330
1CD
100
AcDbEntity
  8
STANDARDEBENE
 62
     7
100
AcDbVertex
100
AcDb2dVertex
 10
20.22031227080454
 20
50.44622196005721
 30
0.0
  0
VERTEX
  5
1D7
330
1CD
100
AcDbEntity
  8
STANDARDEBENE
 62
     7
100
AcDbVertex
100
AcDb2dVertex
 10
21.92942526852933
 20
50.44622196005721
 30
0.0
  0
VERTEX
  5
1D8
330
1CD
100
AcDbEntity
  8
STANDARDEBENE
 62
     7
100
AcDbVertex
100
AcDb2dVertex
 10
23.79494570446559
 20
50.44622196005721
 30
0.0
  0
VERTEX
  5
1D9
330
1CD
100
AcDbEntity
  8
STANDARDEBENE
 62
     7
100
AcDbVertex
100
AcDb2dVertex
 10
25.80171514847827
 20
50.44622196005721
 30
0.0
  0
VERTEX
  5
1DA
330
1CD
100
AcDbEntity
  8
STANDARDEBENE
 62
     7
100
AcDbVertex
100
AcDb2dVertex
 10
27.93526418998394
 20
50.44622196005721
 30
0.0
  0
VERTEX
  5
1DB
330
1CD
100
AcDbEntity
  8
STANDARDEBENE
 62
     7
100
AcDbVertex
100
AcDb2dVertex
 10
30.17940086952019
 20
50.44622196005721
 30
0.0
  0
VERTEX
  5
1DC
330
1CD
100
AcDbEntity
  8
STANDARDEBENE
 62
     7
100
AcDbVertex
100
AcDb2dVertex
 10
32.5162106787456
 20
50.44622196005721
 30
0.0
  0
VERTEX
  5
1DD
330
1CD
100
AcDbEntity
  8
STANDARDEBENE
 62
     7
100
AcDbVertex
100
AcDb2dVertex
 10
34.93019067774936
 20
50.44622196005721
 30
0.0
  0
VERTEX
  5
1DE
330
1CD
100
AcDbEntity
  8
STANDARDEBENE
 62
     7
100
AcDbVertex
100
AcDb2dVertex
 10
37.3992922408805
 20
50.44622196005721
 30
0.0
  0
VERTEX
  5
1DF
330
1CD
100
AcDbEntity
  8
STANDARDEBENE
 62
     7
100
AcDbVertex
100
AcDb2dVertex
 10
39.9080124282282
 20
50.44622196005721
 30
0.0
  0
VERTEX
  5
1E0
330
1CD
100
AcDbEntity
  8
STANDARDEBENE
 62
     7
100
AcDbVertex
100
AcDb2dVertex
 10
42.43533614346889
 20
50.44622196005721
 30
0.0
  0
SEQEND
  5
1E1
330
1CD
100
AcDbEntity
  8
STANDARDEBENE
  0
POLYLINE
  5
1E2
330
1F
100
AcDbEntity
  8
STANDARDEBENE
 62
     7
100
AcDb2dPolyline
 66
     1
 10
0.0
 20
0.0
 30
0.0
  0
VERTEX
  5
1E3
330
1E2
100
AcDbEntity
  8
STANDARDEBENE
 62
     7
100
AcDbVertex
100
AcDb2dVertex
 10
71.4354800504388
 20
64.94698293309375
 30
0.0
  0
VERTEX
  5
1E4
330
1E2
100
AcDbEntity
  8
STANDARDEBENE
 62
     7
100
AcDbVertex
100
AcDb2dVertex
 10
71.33109358837255
 20
64.94698293309375
 30
0.0
  0
VERTEX
  5
1E5
330
1E2
100
AcDbEntity
  8
STANDARDEBENE
 62
     7
100
AcDbVertex
100
AcDb2dVertex
 10
71.01827871194963
 20
64.94698293309375
 30
0.0
  0
VERTEX
  5
1E6
330
1E2
100
AcDbEntity
  8
STANDARDEBENE
 62
     7
100
AcDbVertex
100
AcDb2dVertex
 10
70.4997914993764
 20
64.94698293309375
 30
0.0
  0
VERTEX
  5
1E7
330
1E2
100
AcDbEntity
  8
STANDARDEBENE
 62
     7
100
AcDbVertex
100
AcDb2dVertex
 10
69.77873253863503
 20
64.94698293309375
 30
0.0
  0
VERTEX
  5
1E8
330
1E2
100
AcDbEntity
  8
STANDARDEBENE
 62
     7
100
AcDbVertex
100
AcDb2dVertex
 10
68.86130300568982
 20
64.94698293309375
 30
0.0
  0
VERTEX
  5
1E9
330
1E2
100
AcDbEntity
  8
STANDARDEBENE
 62
     7
100
AcDbVertex
100
AcDb2dVertex
 10
67.75301505695354
 20
64.94698293309375
 30
0.0
  0
VERTEX
  5
1EA
330
1E2
100
AcDbEntity
  8
STANDARDEBENE
 62
     7
100
AcDbVertex
100
AcDb2dVertex
 10
66.46213692704531
 20
64.94698293309375
 30
0.0
  0
VERTEX
  5
1EB
330
1E2
100
AcDbEntity
  8
STANDARDEBENE
 62
     7
100
AcDbVertex
100
AcDb2dVertex
 10
64.99831488968738
 20
64.94698293309375
 30
0.0
  0
VERTEX
  5
1EC
330
1E2
100
AcDbEntity
  8
STANDARDEBENE
 62
     7
100
AcDbVertex
100
AcDb2dVertex
 10
63.37222874792946
 20
64.94698293309375
 30
0.0
  0
VERTEX
  5
1ED
330
1E2
100
AcDbEntity
  8
STANDARDEBENE
 62
     7
100
AcDbVertex
100
AcDb2dVertex
 10
61.59524732437283
 20
64.94698293309375
 30
0.0
  0
VERTEX
  5
1EE
330
1E2
100
AcDbEntity
  8
STANDARDEBENE
 62
     7
100
AcDbVertex
100
AcDb2dVertex
 10
59.67977297094613
 20
64.94698293309375
 30
0.0
  0
VERTEX
  5
1EF
330
1E2
100
AcDbEntity
  8
STANDARDEBENE
 62
     7
100
AcDbVertex
100
AcDb2dVertex
 10
57.64027509823281
 20
64.94698293309375
 30
0.0
  0
VERTEX
  5
1F0
330
1E2
100
AcDbEntity
  8
STANDARDEBENE
 62
     7
100
AcDbVertex
100
AcDb2dVertex
 10
55.49122311681631
 20
64.94698293309375
 30
0.0
  0
VERTEX
  5
1F1
330
1E2
100
AcDbEntity
  8
STANDARDEBENE
 62
     7
100
AcDbVertex
100
AcDb2dVertex
 10
53.24846447638325
 20
64.94698293309375
 30
0.0
  0
VERTEX
  5
1F2
330
1E2
100
AcDbEntity
  8
STANDARDEBENE
 62
     7
100
AcDbVertex
100
AcDb2dVertex
 10
50.92646858751706
 20
64.94698293309375
 30
0.0
  0
VERTEX
  5
1F3
330
1E2
100
AcDbEntity
  8
STANDARDEBENE
 62
     7
100
AcDbVertex
100
AcDb2dVertex
 10
48.54521701721395
 20
64.94698293309375
 30
0.0
  0
VERTEX
  5
1F4
330
1E2
100
AcDbEntity
  8
STANDARDEBENE
 62
     7
100
AcDbVertex
100
AcDb2dVertex
 10
46.11849015650574
 20
64.94698293309375
 30
0.0
  0
VERTEX
  5
1F5
330
1E2
100
AcDbEntity
  8
STANDARDEBENE
 62
     7
100
AcDbVertex
100
AcDb2dVertex
 10
43.6669585919402
 20
64.94698293309375
 30
0.0
  0
VERTEX
  5
1F6
330
1E2
100
AcDbEntity
  8
STANDARDEBENE
 62
     7
100
AcDbVertex
100
AcDb2dVertex
 10
41.20440271454918
 20
64.94698293309375
 30
0.0
  0
VERTEX
  5
1F7
330
1E2
100
AcDbEntity
  8
STANDARDEBENE
 62
     7
100
AcDbVertex
100
AcDb2dVertex
 10
38.75183762065625
 20
64.94698293309375
 30
0.0
  0
VERTEX
  5
1F8
330
1E2
100
AcDbEntity
  8
STANDARDEBENE
 62
     7
100
AcDbVertex
100
AcDb2dVertex
 10
36.32614428927543
 20
64.94698293309375
 30
0.0
  0
VERTEX
  5
1F9
330
1E2
100
AcDbEntity
  8
STANDARDEBENE
 62
     7
100
AcDbVertex
100
AcDb2dVertex
 10
33.94351467986912
 20
64.94698293309375
 30
0.0
  0
VERTEX
  5
1FA
330
1E2
100
AcDbEntity
  8
STANDARDEBENE
 62
     7
100
AcDbVertex
100
AcDb2dVertex
 10
31.62289683010614
 20
64.94698293309375
 30
0.0
  0
VERTEX
  5
1FB
330
1E2
100
AcDbEntity
  8
STANDARDEBENE
 62
     7
100
AcDbVertex
100
AcDb2dVertex
 10
29.37944917012148
 20
64.94698293309375
 30
0.0
  0
VERTEX
  5
1FC
330
1E2
100
AcDbEntity
  8
STANDARDEBENE
 62
     7
100
AcDbVertex
100
AcDb2dVertex
 10
27.23039718870498
 20
64.94698293309375
 30
0.0
  0
VERTEX
  5
1FD
330
1E2
100
AcDbEntity
  8
STANDARDEBENE
 62
     7
100
AcDbVertex
100
AcDb2dVertex
 10
25.19124382576746
 20
64.94698293309375
 30
0.0
  0
VERTEX
  5
1FE
330
1E2
100
AcDbEntity
  8
STANDARDEBENE
 62
     7
100
AcDbVertex
100
AcDb2dVertex
 10
23.27611398211656
 20
64.94698293309375
 30
0.0
  0
VERTEX
  5
1FF
330
1E2
100
AcDbEntity
  8
STANDARDEBENE
 62
     7
100
AcDbVertex
100
AcDb2dVertex
 10
21.49878804878412
 20
64.94698293309375
 30
0.0
  0
VERTEX
  5
200
330
1E2
100
AcDbEntity
  8
STANDARDEBENE
 62
     7
100
AcDbVertex
100
AcDb2dVertex
 10
19.8727019070262
 20
64.94698293309375
 30
0.0
  0
VERTEX
  5
201
330
1E2
100
AcDbEntity
  8
STANDARDEBENE
 62
     7
100
AcDbVertex
100
AcDb2dVertex
 10
18.40853535989249
 20
64.94698293309375
 30
0.0
  0
VERTEX
  5
202
330
1E2
100
AcDbEntity
  8
STANDARDEBENE
 62
     7
100
AcDbVertex
100
AcDb2dVertex
 10
17.11800173976004
 20
64.94698293309375
 30
0.0
  0
VERTEX
  5
203
330
1E2
100
AcDbEntity
  8
STANDARDEBENE
 62
     7
100
AcDbVertex
100
AcDb2dVertex
 10
16.01005830079956
 20
64.94698293309375
 30
0.0
  0
VERTEX
  5
204
330
1E2
100
AcDbEntity
  8
STANDARDEBENE
 62
     7
100
AcDbVertex
100
AcDb2dVertex
 10
15.09193974830277
 20
64.94698293309375
 30
0.0
  0
VERTEX
  5
205
330
1E2
100
AcDbEntity
  8
STANDARDEBENE
 62
     7
100
AcDbVertex
100
AcDb2dVertex
 10
14.37105304244928
 20
64.94698293309375
 30
0.0
  0
VERTEX
  5
206
330
1E2
100
AcDbEntity
  8
STANDARDEBENE
 62
     7
100
AcDbVertex
100
AcDb2dVertex
 10
13.85308259453975
 20
64.94698293309375
 30
0.0
  0
VERTEX
  5
207
330
1E2
100
AcDbEntity
  8
STANDARDEBENE
 62
     7
100
AcDbVertex
100
AcDb2dVertex
 10
13.53957869856523
 20
64.94698293309375
 30
0.0
  0
VERTEX
  5
208
330
1E2
100
AcDbEntity
  8
STANDARDEBENE
 62
     7
100
AcDbVertex
100
AcDb2dVertex
 10
13.43553674627479
 20
64.94698293309375
 30
0.0
  0
SEQEND
  5
209
330
1E2
100
AcDbEntity
  8
STANDARDEBENE
  0
POLYLINE
  5
20A
330
1F
100
AcDbEntity
  8
STANDARDEBENE
 62
     7
100
AcDb2dPolyline
 66
     1
 10
0.0
 20
0.0
 30
0.0
  0
VERTEX
  5
20B
330
20A
100
AcDbEntity
  8
STANDARDEBENE
 62
     7
100
AcDbVertex
100
AcDb2dVertex
 10
70.93559636575856
 20
49.94668278515276
 30
0.0
  0
VERTEX
  5
20C
330
20A
100
AcDbEntity
  8
STANDARDEBENE
 62
     7
100
AcDbVertex
100
AcDb2dVertex
 10
70.8322434330197
 20
49.94668278515276
 30
0.0
  0
VERTEX
  5
20D
330
20A
100
AcDbEntity
  8
STANDARDEBENE
 62
     7
100
AcDbVertex
100
AcDb2dVertex
 10
70.52494071300953
 20
49.94668278515276
 30
0.0
  0
VERTEX
  5
20E
330
20A
100
AcDbEntity
  8
STANDARDEBENE
 62
     7
100
AcDbVertex
100
AcDb2dVertex
 10
70.01609977415858
 20
49.94668278515276
 30
0.0
  0
VERTEX
  5
20F
330
20A
100
AcDbEntity
  8
STANDARDEBENE
 62
     7
100
AcDbVertex
100
AcDb2dVertex
 10
69.30778767512166
 20
49.94668278515276
 30
0.0
  0
VERTEX
  5
210
330
20A
100
AcDbEntity
  8
STANDARDEBENE
 62
     7
100
AcDbVertex
100
AcDb2dVertex
 10
68.4051720625357
 20
49.94668278515276
 30
0.0
  0
VERTEX
  5
211
330
20A
100
AcDbEntity
  8
STANDARDEBENE
 62
     7
100
AcDbVertex
100
AcDb2dVertex
 10
67.31583215146821
 20
49.94668278515276
 30
0.0
  0
VERTEX
  5
212
330
20A
100
AcDbEntity
  8
STANDARDEBENE
 62
     7
100
AcDbVertex
100
AcDb2dVertex
 10
66.0480361765383
 20
49.94668278515276
 30
0.0
  0
VERTEX
  5
213
330
20A
100
AcDbEntity
  8
STANDARDEBENE
 62
     7
100
AcDbVertex
100
AcDb2dVertex
 10
64.6093633528135
 20
49.94668278515276
 30
0.0
  0
VERTEX
  5
214
330
20A
100
AcDbEntity
  8
STANDARDEBENE
 62
     7
100
AcDbVertex
100
AcDb2dVertex
 10
63.01152701267088
 20
49.94668278515276
 30
0.0
  0
VERTEX
  5
215
330
20A
100
AcDbEntity
  8
STANDARDEBENE
 62
     7
100
AcDbVertex
100
AcDb2dVertex
 10
61.2645179396085
 20
49.94668278515276
 30
0.0
  0
VERTEX
  5
216
330
20A
100
AcDbEntity
  8
STANDARDEBENE
 62
     7
100
AcDbVertex
100
AcDb2dVertex
 10
59.38211652465824
 20
49.94668278515276
 30
0.0
  0
VERTEX
  5
217
330
20A
100
AcDbEntity
  8
STANDARDEBENE
 62
     7
100
AcDbVertex
100
AcDb2dVertex
 10
57.37844766862771
 20
49.94668278515276
 30
0.0
  0
VERTEX
  5
218
330
20A
100
AcDbEntity
  8
STANDARDEBENE
 62
     7
100
AcDbVertex
100
AcDb2dVertex
 10
55.26625823322141
 20
49.94668278515276
 30
0.0
  0
VERTEX
  5
219
330
20A
100
AcDbEntity
  8
STANDARDEBENE
 62
     7
100
AcDbVertex
100
AcDb2dVertex
 10
53.06208468767752
 20
49.94668278515276
 30
0.0
  0
VERTEX
  5
21A
330
20A
100
AcDbEntity
  8
STANDARDEBENE
 62
     7
100
AcDbVertex
100
AcDb2dVertex
 10
50.78142997190688
 20
49.94668278515276
 30
0.0
  0
VERTEX
  5
21B
330
20A
100
AcDbEntity
  8
STANDARDEBENE
 62
     7
100
AcDbVertex
100
AcDb2dVertex
 10
48.43910800626873
 20
49.94668278515276
 30
0.0
  0
VERTEX
  5
21C
330
20A
100
AcDbEntity
  8
STANDARDEBENE
 62
     7
100
AcDbVertex
100
AcDb2dVertex
 10
46.05510035775924
 20
49.94668278515276
 30
0.0
  0
VERTEX
  5
21D
330
20A
100
AcDbEntity
  8
STANDARDEBENE
 62
     7
100
AcDbVertex
100
AcDb2dVertex
 10
43.64490996628924
 20
49.94668278515276
 30
0.0
  0
VERTEX
  5
21E
330
20A
100
AcDbEntity
  8
STANDARDEBENE
 62
     7
100
AcDbVertex
100
AcDb2dVertex
 10
41.22507330109696
 20
49.94668278515276
 30
0.0
  0
VERTEX
  5
21F
330
20A
100
AcDbEntity
  8
STANDARDEBENE
 62
     7
100
AcDbVertex
100
AcDb2dVertex
 10
38.81591643895435
 20
49.94668278515276
 30
0.0
  0
VERTEX
  5
220
330
20A
100
AcDbEntity
  8
STANDARDEBENE
 62
     7
100
AcDbVertex
100
AcDb2dVertex
 10
36.43087526111746
 20
49.94668278515276
 30
0.0
  0
VERTEX
  5
221
330
20A
100
AcDbEntity
  8
STANDARDEBENE
 62
     7
100
AcDbVertex
100
AcDb2dVertex
 10
34.09062035413409
 20
49.94668278515276
 30
0.0
  0
VERTEX
  5
222
330
20A
100
AcDbEntity
  8
STANDARDEBENE
 62
     7
100
AcDbVertex
100
AcDb2dVertex
 10
31.80927661881186
 20
49.94668278515276
 30
0.0
  0
VERTEX
  5
223
330
20A
100
AcDbEntity
  8
STANDARDEBENE
 62
     7
100
AcDbVertex
100
AcDb2dVertex
 10
29.60441405371638
 20
49.94668278515276
 30
0.0
  0
VERTEX
  5
224
330
20A
100
AcDbEntity
  8
STANDARDEBENE
 62
     7
100
AcDbVertex
100
AcDb2dVertex
 10
27.49291363786166
 20
49.94668278515276
 30
0.0
  0
VERTEX
  5
225
330
20A
100
AcDbEntity
  8
STANDARDEBENE
 62
     7
100
AcDbVertex
100
AcDb2dVertex
 10
25.48821125250376
 20
49.94668278515276
 30
0.0
  0
VERTEX
  5
226
330
20A
100
AcDbEntity
  8
STANDARDEBENE
 62
     7
100
AcDbVertex
100
AcDb2dVertex
 10
23.60615434732929
 20
49.94668278515276
 30
0.0
  0
VERTEX
  5
227
330
20A
100
AcDbEntity
  8
STANDARDEBENE
 62
     7
100
AcDbVertex
100
AcDb2dVertex
 10
21.8598342938185
 20
49.94668278515276
 30
0.0
  0
VERTEX
  5
228
330
20A
100
AcDbEntity
  8
STANDARDEBENE
 62
     7
100
AcDbVertex
100
AcDb2dVertex
 10
20.26130893412428
 20
49.94668278515276
 30
0.0
  0
VERTEX
  5
229
330
20A
100
AcDbEntity
  8
STANDARDEBENE
 62
     7
100
AcDbVertex
100
AcDb2dVertex
 10
18.82263611039948
 20
49.94668278515276
 30
0.0
  0
VERTEX
  5
22A
330
20A
100
AcDbEntity
  8
STANDARDEBENE
 62
     7
100
AcDbVertex
100
AcDb2dVertex
 10
17.55432337080589
 20
49.94668278515276
 30
0.0
  0
VERTEX
  5
22B
330
20A
100
AcDbEntity
  8
STANDARDEBENE
 62
     7
100
AcDbVertex
100
AcDb2dVertex
 10
16.4649834597384
 20
49.94668278515276
 30
0.0
  0
VERTEX
  5
22C
330
20A
100
AcDbEntity
  8
STANDARDEBENE
 62
     7
100
AcDbVertex
100
AcDb2dVertex
 10
15.56305686670403
 20
49.94668278515276
 30
0.0
  0
VERTEX
  5
22D
330
20A
100
AcDbEntity
  8
STANDARDEBENE
 62
     7
100
AcDbVertex
100
AcDb2dVertex
 10
14.85491702255501
 20
49.94668278515276
 30
0.0
  0
VERTEX
  5
22E
330
20A
100
AcDbEntity
  8
STANDARDEBENE
 62
     7
100
AcDbVertex
100
AcDb2dVertex
 10
14.34538706415247
 20
49.94668278515276
 30
0.0
  0
VERTEX
  5
22F
330
20A
100
AcDbEntity
  8
STANDARDEBENE
 62
     7
100
AcDbVertex
100
AcDb2dVertex
 10
14.03808434414229
 20
49.94668278515276
 30
0.0
  0
VERTEX
  5
230
330
20A
100
AcDbEntity
  8
STANDARDEBENE
 62
     7
100
AcDbVertex
100
AcDb2dVertex
 10
13.93576494073083
 20
49.94668278515276
 30
0.0
  0
SEQEND
  5
231
330
20A
100
AcDbEntity
  8
STANDARDEBENE
  0
POLYLINE
  5
232
330
1F
100
AcDbEntity
  8
STANDARDEBENE
 62
     7
100
AcDb2dPolyline
 66
     1
 10
0.0
 20
0.0
 30
0.0
  0
VERTEX
  5
233
330
232
100
AcDbEntity
  8
STANDARDEBENE
 62
     7
100
AcDbVertex
100
AcDb2dVertex
 10
-26.28833520679036
 20
64.94698293309375
 30
0.0
  0
VERTEX
  5
234
330
232
100
AcDbEntity
  8
STANDARDEBENE
 62
     7
100
AcDbVertex
100
AcDb2dVertex
 10
-27.28896385059033
 20
65.94640579267843
 30
0.0
  0
SEQEND
  5
235
330
232
100
AcDbEntity
  8
STANDARDEBENE
  0
POLYLINE
  5
236
330
1F
100
AcDbEntity
  8
STANDARDEBENE
 62
     7
100
AcDb2dPolyline
 66
     1
 10
0.0
 20
0.0
 30
0.0
  0
VERTEX
  5
237
330
236
100
AcDbEntity
  8
STANDARDEBENE
 62
     7
100
AcDbVertex
100
AcDb2dVertex
 10
-83.28885565136967
 20
65.94640579267843
 30
0.0
  0
VERTEX
  5
238
330
236
100
AcDbEntity
  8
STANDARDEBENE
 62
     7
100
AcDbVertex
100
AcDb2dVertex
 10
-84.28827851095437
 20
64.94698293309375
 30
0.0
  0
SEQEND
  5
239
330
236
100
AcDbEntity
  8
STANDARDEBENE
  0
POLYLINE
  5
23A
330
1F
100
AcDbEntity
  8
STANDARDEBENE
 62
     7
100
AcDb2dPolyline
 66
     1
 10
0.0
 20
0.0
 30
0.0
  0
VERTEX
  5
23B
330
23A
100
AcDbEntity
  8
STANDARDEBENE
 62
     7
100
AcDbVertex
100
AcDb2dVertex
 10
-84.28827851095437
 20
50.44622196005721
 30
0.0
  0
VERTEX
  5
23C
330
23A
100
AcDbEntity
  8
STANDARDEBENE
 62
     7
100
AcDbVertex
100
AcDb2dVertex
 10
-83.78839482627413
 20
49.94668278515276
 30
0.0
  0
SEQEND
  5
23D
330
23A
100
AcDbEntity
  8
STANDARDEBENE
  0
POLYLINE
  5
23E
330
1F
100
AcDbEntity
  8
STANDARDEBENE
 62
     7
100
AcDb2dPolyline
 66
     1
 10
0.0
 20
0.0
 30
0.0
  0
VERTEX
  5
23F
330
23E
100
AcDbEntity
  8
STANDARDEBENE
 62
     7
100
AcDbVertex
100
AcDb2dVertex
 10
-26.7883911463585
 20
49.94668278515276
 30
0.0
  0
VERTEX
  5
240
330
23E
100
AcDbEntity
  8
STANDARDEBENE
 62
     7
100
AcDbVertex
100
AcDb2dVertex
 10
-26.28833520679036
 20
50.44622196005721
 30
0.0
  0
VERTEX
  5
241
330
23E
100
AcDbEntity
  8
STANDARDEBENE
 62
     7
100
AcDbVertex
100
AcDb2dVertex
 10
-26.28833520679036
 20
64.94698293309375
 30
0.0
  0
SEQEND
  5
242
330
23E
100
AcDbEntity
  8
STANDARDEBENE
  0
POLYLINE
  5
243
330
1F
100
AcDbEntity
  8
STANDARDEBENE
 62
     7
100
AcDb2dPolyline
 66
     1
 10
0.0
 20
0.0
 30
0.0
  0
VERTEX
  5
244
330
243
100
AcDbEntity
  8
STANDARDEBENE
 62
     7
100
AcDbVertex
100
AcDb2dVertex
 10
-84.28827851095437
 20
64.94698293309375
 30
0.0
  0
VERTEX
  5
245
330
243
100
AcDbEntity
  8
STANDARDEBENE
 62
     7
100
AcDbVertex
100
AcDb2dVertex
 10
-84.28827851095437
 20
50.44622196005721
 30
0.0
  0
SEQEND
  5
246
330
243
100
AcDbEntity
  8
STANDARDEBENE
  0
POLYLINE
  5
247
330
1F
100
AcDbEntity
  8
STANDARDEBENE
 62
     7
100
AcDb2dPolyline
 66
     1
 10
0.0
 20
0.0
 30
0.0
  0
VERTEX
  5
248
330
247
100
AcDbEntity
  8
STANDARDEBENE
 62
     7
100
AcDbVertex
100
AcDb2dVertex
 10
-42.78863091854787
 20
3.946531736633012
 30
0.0
  0
VERTEX
  5
249
330
247
100
AcDbEntity
  8
STANDARDEBENE
 62
     7
100
AcDbVertex
100
AcDb2dVertex
 10
-42.78863091854787
 20
47.54682768695665
 30
0.0
  0
SEQEND
  5
24A
330
247
100
AcDbEntity
  8
STANDARDEBENE
  0
POLYLINE
  5
24B
330
1F
100
AcDbEntity
  8
STANDARDEBENE
 62
     7
100
AcDb2dPolyline
 66
     1
 10
0.0
 20
0.0
 30
0.0
  0
VERTEX
  5
24C
330
24B
100
AcDbEntity
  8
STANDARDEBENE
 62
     7
100
AcDbVertex
100
AcDb2dVertex
 10
-67.78884407363635
 20
47.54682768695665
 30
0.0
  0
VERTEX
  5
24D
330
24B
100
AcDbEntity
  8
STANDARDEBENE
 62
     7
100
AcDbVertex
100
AcDb2dVertex
 10
-67.78884407363635
 20
3.946531736633012
 30
0.0
  0
SEQEND
  5
24E
330
24B
100
AcDbEntity
  8
STANDARDEBENE
  0
POLYLINE
  5
24F
330
1F
100
AcDbEntity
  8
STANDARDEBENE
 62
     7
100
AcDb2dPolyline
 66
     1
 10
0.0
 20
0.0
 30
0.0
  0
VERTEX
  5
250
330
24F
100
AcDbEntity
  8
STANDARDEBENE
 62
     7
100
AcDbVertex
100
AcDb2dVertex
 10
-42.78863091854787
 20
47.54682768695665
 30
0.0
  0
VERTEX
  5
251
330
24F
100
AcDbEntity
  8
STANDARDEBENE
 62
     7
100
AcDbVertex
100
AcDb2dVertex
 10
-43.03512766313003
 20
48.46666878833242
 30
0.0
  0
SEQEND
  5
252
330
24F
100
AcDbEntity
  8
STANDARDEBENE
  0
POLYLINE
  5
253
330
1F
100
AcDbEntity
  8
STANDARDEBENE
 62
     7
100
AcDb2dPolyline
 66
     1
 10
0.0
 20
0.0
 30
0.0
  0
VERTEX
  5
254
330
253
100
AcDbEntity
  8
STANDARDEBENE
 62
     7
100
AcDbVertex
100
AcDb2dVertex
 10
-67.5416583095026
 20
48.46666878833242
 30
0.0
  0
VERTEX
  5
255
330
253
100
AcDbEntity
  8
STANDARDEBENE
 62
     7
100
AcDbVertex
100
AcDb2dVertex
 10
-67.78884407363635
 20
47.54682768695665
 30
0.0
  0
SEQEND
  5
256
330
253
100
AcDbEntity
  8
STANDARDEBENE
  0
POLYLINE
  5
257
330
1F
100
AcDbEntity
  8
STANDARDEBENE
 62
     7
100
AcDb2dPolyline
 66
     1
 10
0.0
 20
0.0
 30
0.0
  0
VERTEX
  5
258
330
257
100
AcDbEntity
  8
STANDARDEBENE
 62
     7
100
AcDbVertex
100
AcDb2dVertex
 10
-67.78884407363635
 20
3.946531736633012
 30
0.0
  0
VERTEX
  5
259
330
257
100
AcDbEntity
  8
STANDARDEBENE
 62
     7
100
AcDbVertex
100
AcDb2dVertex
 10
-67.2529591173854
 20
1.946652488136252
 30
0.0
  0
SEQEND
  5
25A
330
257
100
AcDbEntity
  8
STANDARDEBENE
  0
POLYLINE
  5
25B
330
1F
100
AcDbEntity
  8
STANDARDEBENE
 62
     7
100
AcDb2dPolyline
 66
     1
 10
0.0
 20
0.0
 30
0.0
  0
VERTEX
  5
25C
330
25B
100
AcDbEntity
  8
STANDARDEBENE
 62
     7
100
AcDbVertex
100
AcDb2dVertex
 10
-43.32451587479881
 20
1.946652488136252
 30
0.0
  0
VERTEX
  5
25D
330
25B
100
AcDbEntity
  8
STANDARDEBENE
 62
     7
100
AcDbVertex
100
AcDb2dVertex
 10
-42.78863091854787
 20
3.946531736633012
 30
0.0
  0
SEQEND
  5
25E
330
25B
100
AcDbEntity
  8
STANDARDEBENE
  0
POLYLINE
  5
25F
330
1F
100
AcDbEntity
  8
STANDARDEBENE
 62
     7
100
AcDb2dPolyline
 66
     1
 10
0.0
 20
0.0
 30
0.0
  0
VERTEX
  5
260
330
25F
100
AcDbEntity
  8
STANDARDEBENE
 62
     7
100
AcDbVertex
100
AcDb2dVertex
 10
-49.35136989257698
 20
3.946531736633012
 30
0.0
  0
VERTEX
  5
261
330
25F
100
AcDbEntity
  8
STANDARDEBENE
 62
     7
100
AcDbVertex
100
AcDb2dVertex
 10
-49.35136989257698
 20
4.542361393872486
 30
0.0
  0
SEQEND
  5
262
330
25F
100
AcDbEntity
  8
STANDARDEBENE
  0
POLYLINE
  5
263
330
1F
100
AcDbEntity
  8
STANDARDEBENE
 62
     7
100
AcDb2dPolyline
 66
     1
 10
0.0
 20
0.0
 30
0.0
  0
VERTEX
  5
264
330
263
100
AcDbEntity
  8
STANDARDEBENE
 62
     7
100
AcDbVertex
100
AcDb2dVertex
 10
-49.35136989257698
 20
3.946531736633012
 30
0.0
  0
VERTEX
  5
265
330
263
100
AcDbEntity
  8
STANDARDEBENE
 62
     7
100
AcDbVertex
100
AcDb2dVertex
 10
-47.93009481252989
 20
3.946531736633012
 30
0.0
  0
VERTEX
  5
266
330
263
100
AcDbEntity
  8
STANDARDEBENE
 62
     7
100
AcDbVertex
100
AcDb2dVertex
 10
-46.64162825105222
 20
3.946531736633012
 30
0.0
  0
VERTEX
  5
267
330
263
100
AcDbEntity
  8
STANDARDEBENE
 62
     7
100
AcDbVertex
100
AcDb2dVertex
 10
-45.5100858924497
 20
3.946531736633012
 30
0.0
  0
VERTEX
  5
268
330
263
100
AcDbEntity
  8
STANDARDEBENE
 62
     7
100
AcDbVertex
100
AcDb2dVertex
 10
-44.55389900972743
 20
3.946531736633012
 30
0.0
  0
VERTEX
  5
269
330
263
100
AcDbEntity
  8
STANDARDEBENE
 62
     7
100
AcDbVertex
100
AcDb2dVertex
 10
-43.79184338566631
 20
3.946531736633012
 30
0.0
  0
VERTEX
  5
26A
330
263
100
AcDbEntity
  8
STANDARDEBENE
 62
     7
100
AcDbVertex
100
AcDb2dVertex
 10
-43.23838843084976
 20
3.946531736633012
 30
0.0
  0
VERTEX
  5
26B
330
263
100
AcDbEntity
  8
STANDARDEBENE
 62
     7
100
AcDbVertex
100
AcDb2dVertex
 10
-42.90145787012111
 20
3.946531736633012
 30
0.0
  0
VERTEX
  5
26C
330
263
100
AcDbEntity
  8
STANDARDEBENE
 62
     7
100
AcDbVertex
100
AcDb2dVertex
 10
-42.78863091854787
 20
3.946531736633012
 30
0.0
  0
SEQEND
  5
26D
330
263
100
AcDbEntity
  8
STANDARDEBENE
  0
POLYLINE
  5
26E
330
1F
100
AcDbEntity
  8
STANDARDEBENE
 62
     7
100
AcDb2dPolyline
 66
     1
 10
0.0
 20
0.0
 30
0.0
  0
VERTEX
  5
26F
330
26E
100
AcDbEntity
  8
STANDARDEBENE
 62
     7
100
AcDbVertex
100
AcDb2dVertex
 10
-67.78884407363635
 20
3.946531736633012
 30
0.0
  0
VERTEX
  5
270
330
26E
100
AcDbEntity
  8
STANDARDEBENE
 62
     7
100
AcDbVertex
100
AcDb2dVertex
 10
-67.6756726122873
 20
3.946531736633012
 30
0.0
  0
VERTEX
  5
271
330
26E
100
AcDbEntity
  8
STANDARDEBENE
 62
     7
100
AcDbVertex
100
AcDb2dVertex
 10
-67.33943107111024
 20
3.946531736633012
 30
0.0
  0
VERTEX
  5
272
330
26E
100
AcDbEntity
  8
STANDARDEBENE
 62
     7
100
AcDbVertex
100
AcDb2dVertex
 10
-66.78528709674211
 20
3.946531736633012
 30
0.0
  0
VERTEX
  5
273
330
26E
100
AcDbEntity
  8
STANDARDEBENE
 62
     7
100
AcDbVertex
100
AcDb2dVertex
 10
-66.02374823734468
 20
3.946531736633012
 30
0.0
  0
VERTEX
  5
274
330
26E
100
AcDbEntity
  8
STANDARDEBENE
 62
     7
100
AcDbVertex
100
AcDb2dVertex
 10
-65.06756135462241
 20
3.946531736633012
 30
0.0
  0
VERTEX
  5
275
330
26E
100
AcDbEntity
  8
STANDARDEBENE
 62
     7
100
AcDbVertex
100
AcDb2dVertex
 10
-63.9353299764683
 20
3.946531736633012
 30
0.0
  0
VERTEX
  5
276
330
26E
100
AcDbEntity
  8
STANDARDEBENE
 62
     7
100
AcDbVertex
100
AcDb2dVertex
 10
-62.64651890521483
 20
3.946531736633012
 30
0.0
  0
VERTEX
  5
277
330
26E
100
AcDbEntity
  8
STANDARDEBENE
 62
     7
100
AcDbVertex
100
AcDb2dVertex
 10
-61.22524382516774
 20
3.946531736633012
 30
0.0
  0
SEQEND
  5
278
330
26E
100
AcDbEntity
  8
STANDARDEBENE
  0
POLYLINE
  5
279
330
1F
100
AcDbEntity
  8
STANDARDEBENE
 62
     7
100
AcDb2dPolyline
 66
     1
 10
0.0
 20
0.0
 30
0.0
  0
VERTEX
  5
27A
330
279
100
AcDbEntity
  8
STANDARDEBENE
 62
     7
100
AcDbVertex
100
AcDb2dVertex
 10
-61.22524382516774
 20
4.542361393872486
 30
0.0
  0
VERTEX
  5
27B
330
279
100
AcDbEntity
  8
STANDARDEBENE
 62
     7
100
AcDbVertex
100
AcDb2dVertex
 10
-61.22524382516774
 20
3.946531736633012
 30
0.0
  0
SEQEND
  5
27C
330
279
100
AcDbEntity
  8
STANDARDEBENE
  0
POLYLINE
  5
27D
330
1F
100
AcDbEntity
  8
STANDARDEBENE
 62
     7
100
AcDb2dPolyline
 66
     1
 10
0.0
 20
0.0
 30
0.0
  0
VERTEX
  5
27E
330
27D
100
AcDbEntity
  8
STANDARDEBENE
 62
     7
100
AcDbVertex
100
AcDb2dVertex
 10
-61.22524382516774
 20
4.542361393872486
 30
0.0
  0
VERTEX
  5
27F
330
27D
100
AcDbEntity
  8
STANDARDEBENE
 62
     7
100
AcDbVertex
100
AcDb2dVertex
 10
-62.35368559578809
 20
5.230691925913232
 30
0.0
  0
VERTEX
  5
280
330
27D
100
AcDbEntity
  8
STANDARDEBENE
 62
     7
100
AcDbVertex
100
AcDb2dVertex
 10
-63.40289011797532
 20
6.034949997509388
 30
0.0
  0
VERTEX
  5
281
330
27D
100
AcDbEntity
  8
STANDARDEBENE
 62
     7
100
AcDbVertex
100
AcDb2dVertex
 10
-63.46421285806704
 20
6.104196462444418
 30
0.0
  0
VERTEX
  5
282
330
27D
100
AcDbEntity
  8
STANDARDEBENE
 62
     7
100
AcDbVertex
100
AcDb2dVertex
 10
-63.4950464830008
 20
6.173787437155243
 30
0.0
  0
VERTEX
  5
283
330
27D
100
AcDbEntity
  8
STANDARDEBENE
 62
     7
100
AcDbVertex
100
AcDb2dVertex
 10
-63.50503726649889
 20
6.253541450252057
 30
0.0
  0
VERTEX
  5
284
330
27D
100
AcDbEntity
  8
STANDARDEBENE
 62
     7
100
AcDbVertex
100
AcDb2dVertex
 10
-63.4950464830008
 20
6.320204091868615
 30
0.0
  0
VERTEX
  5
285
330
27D
100
AcDbEntity
  8
STANDARDEBENE
 62
     7
100
AcDbVertex
100
AcDb2dVertex
 10
-63.46903599492818
 20
6.380493302632945
 30
0.0
  0
VERTEX
  5
286
330
27D
100
AcDbEntity
  8
STANDARDEBENE
 62
     7
100
AcDbVertex
100
AcDb2dVertex
 10
-63.40289011797532
 20
6.459041531514472
 30
0.0
  0
SEQEND
  5
287
330
27D
100
AcDbEntity
  8
STANDARDEBENE
  0
POLYLINE
  5
288
330
1F
100
AcDbEntity
  8
STANDARDEBENE
 62
     7
100
AcDb2dPolyline
 66
     1
 10
0.0
 20
0.0
 30
0.0
  0
VERTEX
  5
289
330
288
100
AcDbEntity
  8
STANDARDEBENE
 62
     7
100
AcDbVertex
100
AcDb2dVertex
 10
-61.22524382516774
 20
8.542636655529702
 30
0.0
  0
VERTEX
  5
28A
330
288
100
AcDbEntity
  8
STANDARDEBENE
 62
     7
100
AcDbVertex
100
AcDb2dVertex
 10
-61.22524382516774
 20
7.951113370487679
 30
0.0
  0
VERTEX
  5
28B
330
288
100
AcDbEntity
  8
STANDARDEBENE
 62
     7
100
AcDbVertex
100
AcDb2dVertex
 10
-62.35368559578809
 20
7.262438328671138
 30
0.0
  0
VERTEX
  5
28C
330
288
100
AcDbEntity
  8
STANDARDEBENE
 62
     7
100
AcDbVertex
100
AcDb2dVertex
 10
-63.40289011797532
 20
6.459041531514472
 30
0.0
  0
SEQEND
  5
28D
330
288
100
AcDbEntity
  8
STANDARDEBENE
  0
POLYLINE
  5
28E
330
1F
100
AcDbEntity
  8
STANDARDEBENE
 62
     7
100
AcDb2dPolyline
 66
     1
 10
0.0
 20
0.0
 30
0.0
  0
VERTEX
  5
28F
330
28E
100
AcDbEntity
  8
STANDARDEBENE
 62
     7
100
AcDbVertex
100
AcDb2dVertex
 10
-63.40289011797532
 20
10.03401947495132
 30
0.0
  0
VERTEX
  5
290
330
28E
100
AcDbEntity
  8
STANDARDEBENE
 62
     7
100
AcDbVertex
100
AcDb2dVertex
 10
-62.35368559578809
 20
9.230794932682548
 30
0.0
  0
VERTEX
  5
291
330
28E
100
AcDbEntity
  8
STANDARDEBENE
 62
     7
100
AcDbVertex
100
AcDb2dVertex
 10
-61.22524382516774
 20
8.542636655529702
 30
0.0
  0
SEQEND
  5
292
330
28E
100
AcDbEntity
  8
STANDARDEBENE
  0
POLYLINE
  5
293
330
1F
100
AcDbEntity
  8
STANDARDEBENE
 62
     7
100
AcDb2dPolyline
 66
     1
 10
0.0
 20
0.0
 30
0.0
  0
VERTEX
  5
294
330
293
100
AcDbEntity
  8
STANDARDEBENE
 62
     7
100
AcDbVertex
100
AcDb2dVertex
 10
-63.40289011797532
 20
10.03401947495132
 30
0.0
  0
VERTEX
  5
295
330
293
100
AcDbEntity
  8
STANDARDEBENE
 62
     7
100
AcDbVertex
100
AcDb2dVertex
 10
-63.46421285806704
 20
10.10481623387743
 30
0.0
  0
VERTEX
  5
296
330
293
100
AcDbEntity
  8
STANDARDEBENE
 62
     7
100
AcDbVertex
100
AcDb2dVertex
 10
-63.4950464830008
 20
10.17354593414876
 30
0.0
  0
VERTEX
  5
297
330
293
100
AcDbEntity
  8
STANDARDEBENE
 62
     7
100
AcDbVertex
100
AcDb2dVertex
 10
-63.50503726649889
 20
10.25295543746978
 30
0.0
  0
VERTEX
  5
298
330
293
100
AcDbEntity
  8
STANDARDEBENE
 62
     7
100
AcDbVertex
100
AcDb2dVertex
 10
-63.4950464830008
 20
10.32065160841373
 30
0.0
  0
VERTEX
  5
299
330
293
100
AcDbEntity
  8
STANDARDEBENE
 62
     7
100
AcDbVertex
100
AcDb2dVertex
 10
-63.46903599492818
 20
10.37990728985067
 30
0.0
  0
VERTEX
  5
29A
330
293
100
AcDbEntity
  8
STANDARDEBENE
 62
     7
100
AcDbVertex
100
AcDb2dVertex
 10
-63.40289011797532
 20
10.45880002850799
 30
0.0
  0
SEQEND
  5
29B
330
293
100
AcDbEntity
  8
STANDARDEBENE
  0
POLYLINE
  5
29C
330
1F
100
AcDbEntity
  8
STANDARDEBENE
 62
     7
100
AcDb2dPolyline
 66
     1
 10
0.0
 20
0.0
 30
0.0
  0
VERTEX
  5
29D
330
29C
100
AcDbEntity
  8
STANDARDEBENE
 62
     7
100
AcDbVertex
100
AcDb2dVertex
 10
-61.22524382516774
 20
11.9505273577054
 30
0.0
  0
VERTEX
  5
29E
330
29C
100
AcDbEntity
  8
STANDARDEBENE
 62
     7
100
AcDbVertex
100
AcDb2dVertex
 10
-62.35368559578809
 20
11.26219682566466
 30
0.0
  0
VERTEX
  5
29F
330
29C
100
AcDbEntity
  8
STANDARDEBENE
 62
     7
100
AcDbVertex
100
AcDb2dVertex
 10
-63.40289011797532
 20
10.45880002850799
 30
0.0
  0
SEQEND
  5
2A0
330
29C
100
AcDbEntity
  8
STANDARDEBENE
  0
POLYLINE
  5
2A1
330
1F
100
AcDbEntity
  8
STANDARDEBENE
 62
     7
100
AcDb2dPolyline
 66
     1
 10
0.0
 20
0.0
 30
0.0
  0
VERTEX
  5
2A2
330
2A1
100
AcDbEntity
  8
STANDARDEBENE
 62
     7
100
AcDbVertex
100
AcDb2dVertex
 10
-61.22524382516774
 20
12.54239515252322
 30
0.0
  0
VERTEX
  5
2A3
330
2A1
100
AcDbEntity
  8
STANDARDEBENE
 62
     7
100
AcDbVertex
100
AcDb2dVertex
 10
-61.22524382516774
 20
11.9505273577054
 30
0.0
  0
SEQEND
  5
2A4
330
2A1
100
AcDbEntity
  8
STANDARDEBENE
  0
POLYLINE
  5
2A5
330
1F
100
AcDbEntity
  8
STANDARDEBENE
 62
     7
100
AcDb2dPolyline
 66
     1
 10
0.0
 20
0.0
 30
0.0
  0
VERTEX
  5
2A6
330
2A5
100
AcDbEntity
  8
STANDARDEBENE
 62
     7
100
AcDbVertex
100
AcDb2dVertex
 10
-61.22524382516774
 20
12.54239515252322
 30
0.0
  0
VERTEX
  5
2A7
330
2A5
100
AcDbEntity
  8
STANDARDEBENE
 62
     7
100
AcDbVertex
100
AcDb2dVertex
 10
-62.35368559578809
 20
13.23107019433976
 30
0.0
  0
VERTEX
  5
2A8
330
2A5
100
AcDbEntity
  8
STANDARDEBENE
 62
     7
100
AcDbVertex
100
AcDb2dVertex
 10
-63.40289011797532
 20
14.03481150127222
 30
0.0
  0
VERTEX
  5
2A9
330
2A5
100
AcDbEntity
  8
STANDARDEBENE
 62
     7
100
AcDbVertex
100
AcDb2dVertex
 10
-63.46421285806704
 20
14.10457473087095
 30
0.0
  0
VERTEX
  5
2AA
330
2A5
100
AcDbEntity
  8
STANDARDEBENE
 62
     7
100
AcDbVertex
100
AcDb2dVertex
 10
-63.4950464830008
 20
14.17347668603018
 30
0.0
  0
VERTEX
  5
2AB
330
2A5
100
AcDbEntity
  8
STANDARDEBENE
 62
     7
100
AcDbVertex
100
AcDb2dVertex
 10
-63.50503726649889
 20
14.25340295401489
 30
0.0
  0
VERTEX
  5
2AC
330
2A5
100
AcDbEntity
  8
STANDARDEBENE
 62
     7
100
AcDbVertex
100
AcDb2dVertex
 10
-63.4950464830008
 20
14.32006559563145
 30
0.0
  0
VERTEX
  5
2AD
330
2A5
100
AcDbEntity
  8
STANDARDEBENE
 62
     7
100
AcDbVertex
100
AcDb2dVertex
 10
-63.46903599492818
 20
14.38018255150788
 30
0.0
  0
VERTEX
  5
2AE
330
2A5
100
AcDbEntity
  8
STANDARDEBENE
 62
     7
100
AcDbVertex
100
AcDb2dVertex
 10
-63.40289011797532
 20
14.45890303527731
 30
0.0
  0
SEQEND
  5
2AF
330
2A5
100
AcDbEntity
  8
STANDARDEBENE
  0
POLYLINE
  5
2B0
330
1F
100
AcDbEntity
  8
STANDARDEBENE
 62
     7
100
AcDb2dPolyline
 66
     1
 10
0.0
 20
0.0
 30
0.0
  0
VERTEX
  5
2B1
330
2B0
100
AcDbEntity
  8
STANDARDEBENE
 62
     7
100
AcDbVertex
100
AcDb2dVertex
 10
-61.22524382516774
 20
15.95080261936262
 30
0.0
  0
VERTEX
  5
2B2
330
2B0
100
AcDbEntity
  8
STANDARDEBENE
 62
     7
100
AcDbVertex
100
AcDb2dVertex
 10
-62.35368559578809
 20
15.26212757754608
 30
0.0
  0
VERTEX
  5
2B3
330
2B0
100
AcDbEntity
  8
STANDARDEBENE
 62
     7
100
AcDbVertex
100
AcDb2dVertex
 10
-63.40289011797532
 20
14.45890303527731
 30
0.0
  0
SEQEND
  5
2B4
330
2B0
100
AcDbEntity
  8
STANDARDEBENE
  0
POLYLINE
  5
2B5
330
1F
100
AcDbEntity
  8
STANDARDEBENE
 62
     7
100
AcDb2dPolyline
 66
     1
 10
0.0
 20
0.0
 30
0.0
  0
VERTEX
  5
2B6
330
2B5
100
AcDbEntity
  8
STANDARDEBENE
 62
     7
100
AcDbVertex
100
AcDb2dVertex
 10
-61.22524382516774
 20
16.54249815929254
 30
0.0
  0
VERTEX
  5
2B7
330
2B5
100
AcDbEntity
  8
STANDARDEBENE
 62
     7
100
AcDbVertex
100
AcDb2dVertex
 10
-61.22524382516774
 20
15.95080261936262
 30
0.0
  0
SEQEND
  5
2B8
330
2B5
100
AcDbEntity
  8
STANDARDEBENE
  0
POLYLINE
  5
2B9
330
1F
100
AcDbEntity
  8
STANDARDEBENE
 62
     7
100
AcDb2dPolyline
 66
     1
 10
0.0
 20
0.0
 30
0.0
  0
VERTEX
  5
2BA
330
2B9
100
AcDbEntity
  8
STANDARDEBENE
 62
     7
100
AcDbVertex
100
AcDb2dVertex
 10
-61.22524382516774
 20
16.54249815929254
 30
0.0
  0
VERTEX
  5
2BB
330
2B9
100
AcDbEntity
  8
STANDARDEBENE
 62
     7
100
AcDbVertex
100
AcDb2dVertex
 10
-62.35368559578809
 20
17.23065643644539
 30
0.0
  0
VERTEX
  5
2BC
330
2B9
100
AcDbEntity
  8
STANDARDEBENE
 62
     7
100
AcDbVertex
100
AcDb2dVertex
 10
-63.40289011797532
 20
18.03422548848995
 30
0.0
  0
VERTEX
  5
2BD
330
2B9
100
AcDbEntity
  8
STANDARDEBENE
 62
     7
100
AcDbVertex
100
AcDb2dVertex
 10
-63.46421285806704
 20
18.10433322786447
 30
0.0
  0
VERTEX
  5
2BE
330
2B9
100
AcDbEntity
  8
STANDARDEBENE
 62
     7
100
AcDbVertex
100
AcDb2dVertex
 10
-63.4950464830008
 20
18.1735796927995
 30
0.0
  0
VERTEX
  5
2BF
330
2B9
100
AcDbEntity
  8
STANDARDEBENE
 62
     7
100
AcDbVertex
100
AcDb2dVertex
 10
-63.50503726649889
 20
18.25316145100841
 30
0.0
  0
VERTEX
  5
2C0
330
2B9
100
AcDbEntity
  8
STANDARDEBENE
 62
     7
100
AcDbVertex
100
AcDb2dVertex
 10
-63.4950464830008
 20
18.32085762195236
 30
0.0
  0
VERTEX
  5
2C1
330
2B9
100
AcDbEntity
  8
STANDARDEBENE
 62
     7
100
AcDbVertex
100
AcDb2dVertex
 10
-63.46903599492818
 20
18.3802855582772
 30
0.0
  0
VERTEX
  5
2C2
330
2B9
100
AcDbEntity
  8
STANDARDEBENE
 62
     7
100
AcDbVertex
100
AcDb2dVertex
 10
-63.40289011797532
 20
18.45866153227083
 30
0.0
  0
SEQEND
  5
2C3
330
2B9
100
AcDbEntity
  8
STANDARDEBENE
  0
POLYLINE
  5
2C4
330
1F
100
AcDbEntity
  8
STANDARDEBENE
 62
     7
100
AcDb2dPolyline
 66
     1
 10
0.0
 20
0.0
 30
0.0
  0
VERTEX
  5
2C5
330
2C4
100
AcDbEntity
  8
STANDARDEBENE
 62
     7
100
AcDbVertex
100
AcDb2dVertex
 10
-61.22524382516774
 20
19.95056111635614
 30
0.0
  0
VERTEX
  5
2C6
330
2C4
100
AcDbEntity
  8
STANDARDEBENE
 62
     7
100
AcDbVertex
100
AcDb2dVertex
 10
-62.35368559578809
 20
19.26223058431539
 30
0.0
  0
VERTEX
  5
2C7
330
2C4
100
AcDbEntity
  8
STANDARDEBENE
 62
     7
100
AcDbVertex
100
AcDb2dVertex
 10
-63.40289011797532
 20
18.45866153227083
 30
0.0
  0
SEQEND
  5
2C8
330
2C4
100
AcDbEntity
  8
STANDARDEBENE
  0
POLYLINE
  5
2C9
330
1F
100
AcDbEntity
  8
STANDARDEBENE
 62
     7
100
AcDb2dPolyline
 66
     1
 10
0.0
 20
0.0
 30
0.0
  0
VERTEX
  5
2CA
330
2C9
100
AcDbEntity
  8
STANDARDEBENE
 62
     7
100
AcDbVertex
100
AcDb2dVertex
 10
-61.22524382516774
 20
20.54294567583765
 30
0.0
  0
VERTEX
  5
2CB
330
2C9
100
AcDbEntity
  8
STANDARDEBENE
 62
     7
100
AcDbVertex
100
AcDb2dVertex
 10
-61.22524382516774
 20
19.95056111635614
 30
0.0
  0
SEQEND
  5
2CC
330
2C9
100
AcDbEntity
  8
STANDARDEBENE
  0
POLYLINE
  5
2CD
330
1F
100
AcDbEntity
  8
STANDARDEBENE
 62
     7
100
AcDb2dPolyline
 66
     1
 10
0.0
 20
0.0
 30
0.0
  0
VERTEX
  5
2CE
330
2CD
100
AcDbEntity
  8
STANDARDEBENE
 62
     7
100
AcDbVertex
100
AcDb2dVertex
 10
-61.22524382516774
 20
20.54294567583765
 30
0.0
  0
VERTEX
  5
2CF
330
2CD
100
AcDbEntity
  8
STANDARDEBENE
 62
     7
100
AcDbVertex
100
AcDb2dVertex
 10
-62.35368559578809
 20
21.23127620787839
 30
0.0
  0
VERTEX
  5
2D0
330
2CD
100
AcDbEntity
  8
STANDARDEBENE
 62
     7
100
AcDbVertex
100
AcDb2dVertex
 10
-63.40289011797532
 20
22.03467300503506
 30
0.0
  0
VERTEX
  5
2D1
330
2CD
100
AcDbEntity
  8
STANDARDEBENE
 62
     7
100
AcDbVertex
100
AcDb2dVertex
 10
-63.46421285806704
 20
22.10478074440958
 30
0.0
  0
VERTEX
  5
2D2
330
2CD
100
AcDbEntity
  8
STANDARDEBENE
 62
     7
100
AcDbVertex
100
AcDb2dVertex
 10
-63.4950464830008
 20
22.17333818979302
 30
0.0
  0
VERTEX
  5
2D3
330
2CD
100
AcDbEntity
  8
STANDARDEBENE
 62
     7
100
AcDbVertex
100
AcDb2dVertex
 10
-63.50503726649889
 20
22.25326445777773
 30
0.0
  0
VERTEX
  5
2D4
330
2CD
100
AcDbEntity
  8
STANDARDEBENE
 62
     7
100
AcDbVertex
100
AcDb2dVertex
 10
-63.4950464830008
 20
22.32027160917009
 30
0.0
  0
VERTEX
  5
2D5
330
2CD
100
AcDbEntity
  8
STANDARDEBENE
 62
     7
100
AcDbVertex
100
AcDb2dVertex
 10
-63.46903599492818
 20
22.38004405527072
 30
0.0
  0
VERTEX
  5
2D6
330
2CD
100
AcDbEntity
  8
STANDARDEBENE
 62
     7
100
AcDbVertex
100
AcDb2dVertex
 10
-63.40289011797532
 20
22.45893679392804
 30
0.0
  0
SEQEND
  5
2D7
330
2CD
100
AcDbEntity
  8
STANDARDEBENE
  0
POLYLINE
  5
2D8
330
1F
100
AcDbEntity
  8
STANDARDEBENE
 62
     7
100
AcDb2dPolyline
 66
     1
 10
0.0
 20
0.0
 30
0.0
  0
VERTEX
  5
2D9
330
2D8
100
AcDbEntity
  8
STANDARDEBENE
 62
     7
100
AcDbVertex
100
AcDb2dVertex
 10
-61.22524382516774
 20
23.95066412312545
 30
0.0
  0
VERTEX
  5
2DA
330
2D8
100
AcDbEntity
  8
STANDARDEBENE
 62
     7
100
AcDbVertex
100
AcDb2dVertex
 10
-62.35368559578809
 20
23.26267810086051
 30
0.0
  0
VERTEX
  5
2DB
330
2D8
100
AcDbEntity
  8
STANDARDEBENE
 62
     7
100
AcDbVertex
100
AcDb2dVertex
 10
-63.40289011797532
 20
22.45893679392804
 30
0.0
  0
SEQEND
  5
2DC
330
2D8
100
AcDbEntity
  8
STANDARDEBENE
  0
POLYLINE
  5
2DD
330
1F
100
AcDbEntity
  8
STANDARDEBENE
 62
     7
100
AcDb2dPolyline
 66
     1
 10
0.0
 20
0.0
 30
0.0
  0
VERTEX
  5
2DE
330
2DD
100
AcDbEntity
  8
STANDARDEBENE
 62
     7
100
AcDbVertex
100
AcDb2dVertex
 10
-61.22524382516774
 20
24.54235966305538
 30
0.0
  0
VERTEX
  5
2DF
330
2DD
100
AcDbEntity
  8
STANDARDEBENE
 62
     7
100
AcDbVertex
100
AcDb2dVertex
 10
-61.22524382516774
 20
23.95066412312545
 30
0.0
  0
SEQEND
  5
2E0
330
2DD
100
AcDbEntity
  8
STANDARDEBENE
  0
POLYLINE
  5
2E1
330
1F
100
AcDbEntity
  8
STANDARDEBENE
 62
     7
100
AcDb2dPolyline
 66
     1
 10
0.0
 20
0.0
 30
0.0
  0
VERTEX
  5
2E2
330
2E1
100
AcDbEntity
  8
STANDARDEBENE
 62
     7
100
AcDbVertex
100
AcDb2dVertex
 10
-61.22524382516774
 20
24.54235966305538
 30
0.0
  0
VERTEX
  5
2E3
330
2E1
100
AcDbEntity
  8
STANDARDEBENE
 62
     7
100
AcDbVertex
100
AcDb2dVertex
 10
-62.35368559578809
 20
25.23103470487192
 30
0.0
  0
VERTEX
  5
2E4
330
2E1
100
AcDbEntity
  8
STANDARDEBENE
 62
     7
100
AcDbVertex
100
AcDb2dVertex
 10
-63.40289011797532
 20
26.03443150202858
 30
0.0
  0
VERTEX
  5
2E5
330
2E1
100
AcDbEntity
  8
STANDARDEBENE
 62
     7
100
AcDbVertex
100
AcDb2dVertex
 10
-63.46421285806704
 20
26.1045392414031
 30
0.0
  0
VERTEX
  5
2E6
330
2E1
100
AcDbEntity
  8
STANDARDEBENE
 62
     7
100
AcDbVertex
100
AcDb2dVertex
 10
-63.4950464830008
 20
26.17378570633813
 30
0.0
  0
VERTEX
  5
2E7
330
2E1
100
AcDbEntity
  8
STANDARDEBENE
 62
     7
100
AcDbVertex
100
AcDb2dVertex
 10
-63.50503726649889
 20
26.25336746454705
 30
0.0
  0
VERTEX
  5
2E8
330
2E1
100
AcDbEntity
  8
STANDARDEBENE
 62
     7
100
AcDbVertex
100
AcDb2dVertex
 10
-63.4950464830008
 20
26.3205468708273
 30
0.0
  0
VERTEX
  5
2E9
330
2E1
100
AcDbEntity
  8
STANDARDEBENE
 62
     7
100
AcDbVertex
100
AcDb2dVertex
 10
-63.46903599492818
 20
26.38049157181583
 30
0.0
  0
VERTEX
  5
2EA
330
2E1
100
AcDbEntity
  8
STANDARDEBENE
 62
     7
100
AcDbVertex
100
AcDb2dVertex
 10
-63.40289011797532
 20
26.45835078114577
 30
0.0
  0
VERTEX
  5
2EB
330
2E1
100
AcDbEntity
  8
STANDARDEBENE
 62
     7
100
AcDbVertex
100
AcDb2dVertex
 10
-62.35368559578809
 20
27.26243659785403
 30
0.0
  0
VERTEX
  5
2EC
330
2E1
100
AcDbEntity
  8
STANDARDEBENE
 62
     7
100
AcDbVertex
100
AcDb2dVertex
 10
-61.22524382516774
 20
27.95111163967057
 30
0.0
  0
SEQEND
  5
2ED
330
2E1
100
AcDbEntity
  8
STANDARDEBENE
  0
POLYLINE
  5
2EE
330
1F
100
AcDbEntity
  8
STANDARDEBENE
 62
     7
100
AcDb2dPolyline
 66
     1
 10
0.0
 20
0.0
 30
0.0
  0
VERTEX
  5
2EF
330
2EE
100
AcDbEntity
  8
STANDARDEBENE
 62
     7
100
AcDbVertex
100
AcDb2dVertex
 10
-61.22524382516774
 20
28.54263492471259
 30
0.0
  0
VERTEX
  5
2F0
330
2EE
100
AcDbEntity
  8
STANDARDEBENE
 62
     7
100
AcDbVertex
100
AcDb2dVertex
 10
-61.22524382516774
 20
27.95111163967057
 30
0.0
  0
SEQEND
  5
2F1
330
2EE
100
AcDbEntity
  8
STANDARDEBENE
  0
POLYLINE
  5
2F2
330
1F
100
AcDbEntity
  8
STANDARDEBENE
 62
     7
100
AcDb2dPolyline
 66
     1
 10
0.0
 20
0.0
 30
0.0
  0
VERTEX
  5
2F3
330
2F2
100
AcDbEntity
  8
STANDARDEBENE
 62
     7
100
AcDbVertex
100
AcDb2dVertex
 10
-61.22524382516774
 20
28.54263492471259
 30
0.0
  0
VERTEX
  5
2F4
330
2F2
100
AcDbEntity
  8
STANDARDEBENE
 62
     7
100
AcDbVertex
100
AcDb2dVertex
 10
-62.35368559578809
 20
29.23113771164123
 30
0.0
  0
VERTEX
  5
2F5
330
2F2
100
AcDbEntity
  8
STANDARDEBENE
 62
     7
100
AcDbVertex
100
AcDb2dVertex
 10
-63.40289011797532
 20
30.0341899990221
 30
0.0
  0
VERTEX
  5
2F6
330
2F2
100
AcDbEntity
  8
STANDARDEBENE
 62
     7
100
AcDbVertex
100
AcDb2dVertex
 10
-63.46421285806704
 20
30.10498675794821
 30
0.0
  0
VERTEX
  5
2F7
330
2F2
100
AcDbEntity
  8
STANDARDEBENE
 62
     7
100
AcDbVertex
100
AcDb2dVertex
 10
-63.4950464830008
 20
30.17388871310745
 30
0.0
  0
VERTEX
  5
2F8
330
2F2
100
AcDbEntity
  8
STANDARDEBENE
 62
     7
100
AcDbVertex
100
AcDb2dVertex
 10
-63.50503726649889
 20
30.25312596154057
 30
0.0
  0
VERTEX
  5
2F9
330
2F2
100
AcDbEntity
  8
STANDARDEBENE
 62
     7
100
AcDbVertex
100
AcDb2dVertex
 10
-63.4950464830008
 20
30.32030536782082
 30
0.0
  0
VERTEX
  5
2FA
330
2F2
100
AcDbEntity
  8
STANDARDEBENE
 62
     7
100
AcDbVertex
100
AcDb2dVertex
 10
-63.46903599492818
 20
30.37990555903356
 30
0.0
  0
VERTEX
  5
2FB
330
2F2
100
AcDbEntity
  8
STANDARDEBENE
 62
     7
100
AcDbVertex
100
AcDb2dVertex
 10
-63.40289011797532
 20
30.45914280746668
 30
0.0
  0
SEQEND
  5
2FC
330
2F2
100
AcDbEntity
  8
STANDARDEBENE
  0
POLYLINE
  5
2FD
330
1F
100
AcDbEntity
  8
STANDARDEBENE
 62
     7
100
AcDb2dPolyline
 66
     1
 10
0.0
 20
0.0
 30
0.0
  0
VERTEX
  5
2FE
330
2FD
100
AcDbEntity
  8
STANDARDEBENE
 62
     7
100
AcDbVertex
100
AcDb2dVertex
 10
-61.22524382516774
 20
31.95052562688829
 30
0.0
  0
VERTEX
  5
2FF
330
2FD
100
AcDbEntity
  8
STANDARDEBENE
 62
     7
100
AcDbVertex
100
AcDb2dVertex
 10
-62.35368559578809
 20
31.26219509484755
 30
0.0
  0
VERTEX
  5
300
330
2FD
100
AcDbEntity
  8
STANDARDEBENE
 62
     7
100
AcDbVertex
100
AcDb2dVertex
 10
-63.40289011797532
 20
30.45914280746668
 30
0.0
  0
SEQEND
  5
301
330
2FD
100
AcDbEntity
  8
STANDARDEBENE
  0
POLYLINE
  5
302
330
1F
100
AcDbEntity
  8
STANDARDEBENE
 62
     7
100
AcDb2dPolyline
 66
     1
 10
0.0
 20
0.0
 30
0.0
  0
VERTEX
  5
303
330
302
100
AcDbEntity
  8
STANDARDEBENE
 62
     7
100
AcDbVertex
100
AcDb2dVertex
 10
-61.22524382516774
 20
32.54222116681821
 30
0.0
  0
VERTEX
  5
304
330
302
100
AcDbEntity
  8
STANDARDEBENE
 62
     7
100
AcDbVertex
100
AcDb2dVertex
 10
-61.22524382516774
 20
31.95052562688829
 30
0.0
  0
SEQEND
  5
305
330
302
100
AcDbEntity
  8
STANDARDEBENE
  0
POLYLINE
  5
306
330
1F
100
AcDbEntity
  8
STANDARDEBENE
 62
     7
100
AcDb2dPolyline
 66
     1
 10
0.0
 20
0.0
 30
0.0
  0
VERTEX
  5
307
330
306
100
AcDbEntity
  8
STANDARDEBENE
 62
     7
100
AcDbVertex
100
AcDb2dVertex
 10
-61.22524382516774
 20
32.54222116681821
 30
0.0
  0
VERTEX
  5
308
330
306
100
AcDbEntity
  8
STANDARDEBENE
 62
     7
100
AcDbVertex
100
AcDb2dVertex
 10
-62.35368559578809
 20
33.23089620863475
 30
0.0
  0
VERTEX
  5
309
330
306
100
AcDbEntity
  8
STANDARDEBENE
 62
     7
100
AcDbVertex
100
AcDb2dVertex
 10
-63.40289011797532
 20
34.03480977045511
 30
0.0
  0
VERTEX
  5
30A
330
306
100
AcDbEntity
  8
STANDARDEBENE
 62
     7
100
AcDbVertex
100
AcDb2dVertex
 10
-63.46421285806704
 20
34.10440074516594
 30
0.0
  0
VERTEX
  5
30B
330
306
100
AcDbEntity
  8
STANDARDEBENE
 62
     7
100
AcDbVertex
100
AcDb2dVertex
 10
-63.4950464830008
 20
34.17347495521307
 30
0.0
  0
VERTEX
  5
30C
330
306
100
AcDbEntity
  8
STANDARDEBENE
 62
     7
100
AcDbVertex
100
AcDb2dVertex
 10
-63.50503726649889
 20
34.25374573297358
 30
0.0
  0
VERTEX
  5
30D
330
306
100
AcDbEntity
  8
STANDARDEBENE
 62
     7
100
AcDbVertex
100
AcDb2dVertex
 10
-63.4950464830008
 20
34.32006386481434
 30
0.0
  0
VERTEX
  5
30E
330
306
100
AcDbEntity
  8
STANDARDEBENE
 62
     7
100
AcDbVertex
100
AcDb2dVertex
 10
-63.46903599492818
 20
34.38018082069078
 30
0.0
  0
VERTEX
  5
30F
330
306
100
AcDbEntity
  8
STANDARDEBENE
 62
     7
100
AcDbVertex
100
AcDb2dVertex
 10
-63.40289011797532
 20
34.4589013044602
 30
0.0
  0
SEQEND
  5
310
330
306
100
AcDbEntity
  8
STANDARDEBENE
  0
POLYLINE
  5
311
330
1F
100
AcDbEntity
  8
STANDARDEBENE
 62
     7
100
AcDb2dPolyline
 66
     1
 10
0.0
 20
0.0
 30
0.0
  0
VERTEX
  5
312
330
311
100
AcDbEntity
  8
STANDARDEBENE
 62
     7
100
AcDbVertex
100
AcDb2dVertex
 10
-61.22524382516774
 20
35.9509731434334
 30
0.0
  0
VERTEX
  5
313
330
311
100
AcDbEntity
  8
STANDARDEBENE
 62
     7
100
AcDbVertex
100
AcDb2dVertex
 10
-62.35368559578809
 20
35.26212584672896
 30
0.0
  0
VERTEX
  5
314
330
311
100
AcDbEntity
  8
STANDARDEBENE
 62
     7
100
AcDbVertex
100
AcDb2dVertex
 10
-63.40289011797532
 20
34.4589013044602
 30
0.0
  0
SEQEND
  5
315
330
311
100
AcDbEntity
  8
STANDARDEBENE
  0
POLYLINE
  5
316
330
1F
100
AcDbEntity
  8
STANDARDEBENE
 62
     7
100
AcDb2dPolyline
 66
     1
 10
0.0
 20
0.0
 30
0.0
  0
VERTEX
  5
317
330
316
100
AcDbEntity
  8
STANDARDEBENE
 62
     7
100
AcDbVertex
100
AcDb2dVertex
 10
-61.22524382516774
 20
36.54249642847542
 30
0.0
  0
VERTEX
  5
318
330
316
100
AcDbEntity
  8
STANDARDEBENE
 62
     7
100
AcDbVertex
100
AcDb2dVertex
 10
-61.22524382516774
 20
35.9509731434334
 30
0.0
  0
SEQEND
  5
319
330
316
100
AcDbEntity
  8
STANDARDEBENE
  0
POLYLINE
  5
31A
330
1F
100
AcDbEntity
  8
STANDARDEBENE
 62
     7
100
AcDb2dPolyline
 66
     1
 10
0.0
 20
0.0
 30
0.0
  0
VERTEX
  5
31B
330
31A
100
AcDbEntity
  8
STANDARDEBENE
 62
     7
100
AcDbVertex
100
AcDb2dVertex
 10
-61.22524382516774
 20
36.54249642847542
 30
0.0
  0
VERTEX
  5
31C
330
31A
100
AcDbEntity
  8
STANDARDEBENE
 62
     7
100
AcDbVertex
100
AcDb2dVertex
 10
-62.35368559578809
 20
37.23065470562828
 30
0.0
  0
VERTEX
  5
31D
330
31A
100
AcDbEntity
  8
STANDARDEBENE
 62
     7
100
AcDbVertex
100
AcDb2dVertex
 10
-63.40289011797532
 20
38.03422375767283
 30
0.0
  0
VERTEX
  5
31E
330
31A
100
AcDbEntity
  8
STANDARDEBENE
 62
     7
100
AcDbVertex
100
AcDb2dVertex
 10
-63.46421285806704
 20
38.10467600682315
 30
0.0
  0
VERTEX
  5
31F
330
31A
100
AcDbEntity
  8
STANDARDEBENE
 62
     7
100
AcDbVertex
100
AcDb2dVertex
 10
-63.4950464830008
 20
38.17357796198239
 30
0.0
  0
VERTEX
  5
320
330
31A
100
AcDbEntity
  8
STANDARDEBENE
 62
     7
100
AcDbVertex
100
AcDb2dVertex
 10
-63.50503726649889
 20
38.25281521041551
 30
0.0
  0
VERTEX
  5
321
330
31A
100
AcDbEntity
  8
STANDARDEBENE
 62
     7
100
AcDbVertex
100
AcDb2dVertex
 10
-63.4950464830008
 20
38.32085589113525
 30
0.0
  0
VERTEX
  5
322
330
31A
100
AcDbEntity
  8
STANDARDEBENE
 62
     7
100
AcDbVertex
100
AcDb2dVertex
 10
-63.46903599492818
 20
38.37993931768429
 30
0.0
  0
VERTEX
  5
323
330
31A
100
AcDbEntity
  8
STANDARDEBENE
 62
     7
100
AcDbVertex
100
AcDb2dVertex
 10
-63.40289011797532
 20
38.45865980145372
 30
0.0
  0
SEQEND
  5
324
330
31A
100
AcDbEntity
  8
STANDARDEBENE
  0
POLYLINE
  5
325
330
1F
100
AcDbEntity
  8
STANDARDEBENE
 62
     7
100
AcDb2dPolyline
 66
     1
 10
0.0
 20
0.0
 30
0.0
  0
VERTEX
  5
326
330
325
100
AcDbEntity
  8
STANDARDEBENE
 62
     7
100
AcDbVertex
100
AcDb2dVertex
 10
-61.22524382516774
 20
39.95038713065113
 30
0.0
  0
VERTEX
  5
327
330
325
100
AcDbEntity
  8
STANDARDEBENE
 62
     7
100
AcDbVertex
100
AcDb2dVertex
 10
-62.35368559578809
 20
39.26222885349828
 30
0.0
  0
VERTEX
  5
328
330
325
100
AcDbEntity
  8
STANDARDEBENE
 62
     7
100
AcDbVertex
100
AcDb2dVertex
 10
-63.40289011797532
 20
38.45865980145372
 30
0.0
  0
SEQEND
  5
329
330
325
100
AcDbEntity
  8
STANDARDEBENE
  0
POLYLINE
  5
32A
330
1F
100
AcDbEntity
  8
STANDARDEBENE
 62
     7
100
AcDb2dPolyline
 66
     1
 10
0.0
 20
0.0
 30
0.0
  0
VERTEX
  5
32B
330
32A
100
AcDbEntity
  8
STANDARDEBENE
 62
     7
100
AcDbVertex
100
AcDb2dVertex
 10
-61.22524382516774
 20
42.94693316052621
 30
0.0
  0
VERTEX
  5
32C
330
32A
100
AcDbEntity
  8
STANDARDEBENE
 62
     7
100
AcDbVertex
100
AcDb2dVertex
 10
-61.22524382516774
 20
39.95038713065113
 30
0.0
  0
SEQEND
  5
32D
330
32A
100
AcDbEntity
  8
STANDARDEBENE
  0
POLYLINE
  5
32E
330
1F
100
AcDbEntity
  8
STANDARDEBENE
 62
     7
100
AcDb2dPolyline
 66
     1
 10
0.0
 20
0.0
 30
0.0
  0
VERTEX
  5
32F
330
32E
100
AcDbEntity
  8
STANDARDEBENE
 62
     7
100
AcDbVertex
100
AcDb2dVertex
 10
-49.35136989257698
 20
42.94693316052621
 30
0.0
  0
VERTEX
  5
330
330
32E
100
AcDbEntity
  8
STANDARDEBENE
 62
     7
100
AcDbVertex
100
AcDb2dVertex
 10
-50.96074731020879
 20
42.94693316052621
 30
0.0
  0
VERTEX
  5
331
330
32E
100
AcDbEntity
  8
STANDARDEBENE
 62
     7
100
AcDbVertex
100
AcDb2dVertex
 10
-52.65694119134123
 20
42.94693316052621
 30
0.0
  0
VERTEX
  5
332
330
32E
100
AcDbEntity
  8
STANDARDEBENE
 62
     7
100
AcDbVertex
100
AcDb2dVertex
 10
-54.40550055839468
 20
42.94693316052621
 30
0.0
  0
VERTEX
  5
333
330
32E
100
AcDbEntity
  8
STANDARDEBENE
 62
     7
100
AcDbVertex
100
AcDb2dVertex
 10
-56.17128541423794
 20
42.94693316052621
 30
0.0
  0
VERTEX
  5
334
330
32E
100
AcDbEntity
  8
STANDARDEBENE
 62
     7
100
AcDbVertex
100
AcDb2dVertex
 10
-57.9198447812914
 20
42.94693316052621
 30
0.0
  0
VERTEX
  5
335
330
32E
100
AcDbEntity
  8
STANDARDEBENE
 62
     7
100
AcDbVertex
100
AcDb2dVertex
 10
-59.61603866242383
 20
42.94693316052621
 30
0.0
  0
VERTEX
  5
336
330
32E
100
AcDbEntity
  8
STANDARDEBENE
 62
     7
100
AcDbVertex
100
AcDb2dVertex
 10
-61.22524382516774
 20
42.94693316052621
 30
0.0
  0
SEQEND
  5
337
330
32E
100
AcDbEntity
  8
STANDARDEBENE
  0
POLYLINE
  5
338
330
1F
100
AcDbEntity
  8
STANDARDEBENE
 62
     7
100
AcDb2dPolyline
 66
     1
 10
0.0
 20
0.0
 30
0.0
  0
VERTEX
  5
339
330
338
100
AcDbEntity
  8
STANDARDEBENE
 62
     7
100
AcDbVertex
100
AcDb2dVertex
 10
-49.35136989257698
 20
39.95038713065113
 30
0.0
  0
VERTEX
  5
33A
330
338
100
AcDbEntity
  8
STANDARDEBENE
 62
     7
100
AcDbVertex
100
AcDb2dVertex
 10
-49.35136989257698
 20
42.94693316052621
 30
0.0
  0
SEQEND
  5
33B
330
338
100
AcDbEntity
  8
STANDARDEBENE
  0
POLYLINE
  5
33C
330
1F
100
AcDbEntity
  8
STANDARDEBENE
 62
     7
100
AcDb2dPolyline
 66
     1
 10
0.0
 20
0.0
 30
0.0
  0
VERTEX
  5
33D
330
33C
100
AcDbEntity
  8
STANDARDEBENE
 62
     7
100
AcDbVertex
100
AcDb2dVertex
 10
-47.1740681095452
 20
38.45865980145372
 30
0.0
  0
VERTEX
  5
33E
330
33C
100
AcDbEntity
  8
STANDARDEBENE
 62
     7
100
AcDbVertex
100
AcDb2dVertex
 10
-48.22344488662033
 20
39.26222885349828
 30
0.0
  0
VERTEX
  5
33F
330
33C
100
AcDbEntity
  8
STANDARDEBENE
 62
     7
100
AcDbVertex
100
AcDb2dVertex
 10
-49.35136989257698
 20
39.95038713065113
 30
0.0
  0
SEQEND
  5
340
330
33C
100
AcDbEntity
  8
STANDARDEBENE
  0
POLYLINE
  5
341
330
1F
100
AcDbEntity
  8
STANDARDEBENE
 62
     7
100
AcDb2dPolyline
 66
     1
 10
0.0
 20
0.0
 30
0.0
  0
VERTEX
  5
342
330
341
100
AcDbEntity
  8
STANDARDEBENE
 62
     7
100
AcDbVertex
100
AcDb2dVertex
 10
-47.1740681095452
 20
38.45865980145372
 30
0.0
  0
VERTEX
  5
343
330
341
100
AcDbEntity
  8
STANDARDEBENE
 62
     7
100
AcDbVertex
100
AcDb2dVertex
 10
-47.11326213411717
 20
38.38872431696709
 30
0.0
  0
VERTEX
  5
344
330
341
100
AcDbEntity
  8
STANDARDEBENE
 62
     7
100
AcDbVertex
100
AcDb2dVertex
 10
-47.08225625429552
 20
38.31965010691997
 30
0.0
  0
VERTEX
  5
345
330
341
100
AcDbEntity
  8
STANDARDEBENE
 62
     7
100
AcDbVertex
100
AcDb2dVertex
 10
-47.07192096102163
 20
38.24006834871105
 30
0.0
  0
VERTEX
  5
346
330
341
100
AcDbEntity
  8
STANDARDEBENE
 62
     7
100
AcDbVertex
100
AcDb2dVertex
 10
-47.08260076407132
 20
38.17323345220659
 30
0.0
  0
VERTEX
  5
347
330
341
100
AcDbEntity
  8
STANDARDEBENE
 62
     7
100
AcDbVertex
100
AcDb2dVertex
 10
-47.10792223259233
 20
38.11311649633016
 30
0.0
  0
VERTEX
  5
348
330
341
100
AcDbEntity
  8
STANDARDEBENE
 62
     7
100
AcDbVertex
100
AcDb2dVertex
 10
-47.1740681095452
 20
38.03422375767283
 30
0.0
  0
VERTEX
  5
349
330
341
100
AcDbEntity
  8
STANDARDEBENE
 62
     7
100
AcDbVertex
100
AcDb2dVertex
 10
-48.22344488662033
 20
37.23065470562828
 30
0.0
  0
VERTEX
  5
34A
330
341
100
AcDbEntity
  8
STANDARDEBENE
 62
     7
100
AcDbVertex
100
AcDb2dVertex
 10
-49.35136989257698
 20
36.54249642847542
 30
0.0
  0
SEQEND
  5
34B
330
341
100
AcDbEntity
  8
STANDARDEBENE
  0
POLYLINE
  5
34C
330
1F
100
AcDbEntity
  8
STANDARDEBENE
 62
     7
100
AcDb2dPolyline
 66
     1
 10
0.0
 20
0.0
 30
0.0
  0
VERTEX
  5
34D
330
34C
100
AcDbEntity
  8
STANDARDEBENE
 62
     7
100
AcDbVertex
100
AcDb2dVertex
 10
-49.35136989257698
 20
35.9509731434334
 30
0.0
  0
VERTEX
  5
34E
330
34C
100
AcDbEntity
  8
STANDARDEBENE
 62
     7
100
AcDbVertex
100
AcDb2dVertex
 10
-49.35136989257698
 20
36.54249642847542
 30
0.0
  0
SEQEND
  5
34F
330
34C
100
AcDbEntity
  8
STANDARDEBENE
  0
POLYLINE
  5
350
330
1F
100
AcDbEntity
  8
STANDARDEBENE
 62
     7
100
AcDb2dPolyline
 66
     1
 10
0.0
 20
0.0
 30
0.0
  0
VERTEX
  5
351
330
350
100
AcDbEntity
  8
STANDARDEBENE
 62
     7
100
AcDbVertex
100
AcDb2dVertex
 10
-47.1740681095452
 20
34.4589013044602
 30
0.0
  0
VERTEX
  5
352
330
350
100
AcDbEntity
  8
STANDARDEBENE
 62
     7
100
AcDbVertex
100
AcDb2dVertex
 10
-48.22344488662033
 20
35.26212584672896
 30
0.0
  0
VERTEX
  5
353
330
350
100
AcDbEntity
  8
STANDARDEBENE
 62
     7
100
AcDbVertex
100
AcDb2dVertex
 10
-49.35136989257698
 20
35.9509731434334
 30
0.0
  0
SEQEND
  5
354
330
350
100
AcDbEntity
  8
STANDARDEBENE
  0
POLYLINE
  5
355
330
1F
100
AcDbEntity
  8
STANDARDEBENE
 62
     7
100
AcDb2dPolyline
 66
     1
 10
0.0
 20
0.0
 30
0.0
  0
VERTEX
  5
356
330
355
100
AcDbEntity
  8
STANDARDEBENE
 62
     7
100
AcDbVertex
100
AcDb2dVertex
 10
-47.1740681095452
 20
34.4589013044602
 30
0.0
  0
VERTEX
  5
357
330
355
100
AcDbEntity
  8
STANDARDEBENE
 62
     7
100
AcDbVertex
100
AcDb2dVertex
 10
-47.11326213411717
 20
34.38896581997358
 30
0.0
  0
VERTEX
  5
358
330
355
100
AcDbEntity
  8
STANDARDEBENE
 62
     7
100
AcDbVertex
100
AcDb2dVertex
 10
-47.08225625429552
 20
34.31989160992644
 30
0.0
  0
VERTEX
  5
359
330
355
100
AcDbEntity
  8
STANDARDEBENE
 62
     7
100
AcDbVertex
100
AcDb2dVertex
 10
-47.07192096102163
 20
34.24030985171753
 30
0.0
  0
VERTEX
  5
35A
330
355
100
AcDbEntity
  8
STANDARDEBENE
 62
     7
100
AcDbVertex
100
AcDb2dVertex
 10
-47.08260076407132
 20
34.17261368077358
 30
0.0
  0
VERTEX
  5
35B
330
355
100
AcDbEntity
  8
STANDARDEBENE
 62
     7
100
AcDbVertex
100
AcDb2dVertex
 10
-47.10792223259233
 20
34.11284123467294
 30
0.0
  0
VERTEX
  5
35C
330
355
100
AcDbEntity
  8
STANDARDEBENE
 62
     7
100
AcDbVertex
100
AcDb2dVertex
 10
-47.1740681095452
 20
34.03480977045511
 30
0.0
  0
VERTEX
  5
35D
330
355
100
AcDbEntity
  8
STANDARDEBENE
 62
     7
100
AcDbVertex
100
AcDb2dVertex
 10
-48.22344488662033
 20
33.23089620863475
 30
0.0
  0
VERTEX
  5
35E
330
355
100
AcDbEntity
  8
STANDARDEBENE
 62
     7
100
AcDbVertex
100
AcDb2dVertex
 10
-49.35136989257698
 20
32.54222116681821
 30
0.0
  0
SEQEND
  5
35F
330
355
100
AcDbEntity
  8
STANDARDEBENE
  0
POLYLINE
  5
360
330
1F
100
AcDbEntity
  8
STANDARDEBENE
 62
     7
100
AcDb2dPolyline
 66
     1
 10
0.0
 20
0.0
 30
0.0
  0
VERTEX
  5
361
330
360
100
AcDbEntity
  8
STANDARDEBENE
 62
     7
100
AcDbVertex
100
AcDb2dVertex
 10
-49.35136989257698
 20
31.95052562688829
 30
0.0
  0
VERTEX
  5
362
330
360
100
AcDbEntity
  8
STANDARDEBENE
 62
     7
100
AcDbVertex
100
AcDb2dVertex
 10
-49.35136989257698
 20
32.54222116681821
 30
0.0
  0
SEQEND
  5
363
330
360
100
AcDbEntity
  8
STANDARDEBENE
  0
POLYLINE
  5
364
330
1F
100
AcDbEntity
  8
STANDARDEBENE
 62
     7
100
AcDb2dPolyline
 66
     1
 10
0.0
 20
0.0
 30
0.0
  0
VERTEX
  5
365
330
364
100
AcDbEntity
  8
STANDARDEBENE
 62
     7
100
AcDbVertex
100
AcDb2dVertex
 10
-47.1740681095452
 20
30.45914280746668
 30
0.0
  0
VERTEX
  5
366
330
364
100
AcDbEntity
  8
STANDARDEBENE
 62
     7
100
AcDbVertex
100
AcDb2dVertex
 10
-48.22344488662033
 20
31.26219509484755
 30
0.0
  0
VERTEX
  5
367
330
364
100
AcDbEntity
  8
STANDARDEBENE
 62
     7
100
AcDbVertex
100
AcDb2dVertex
 10
-49.35136989257698
 20
31.95052562688829
 30
0.0
  0
SEQEND
  5
368
330
364
100
AcDbEntity
  8
STANDARDEBENE
  0
POLYLINE
  5
369
330
1F
100
AcDbEntity
  8
STANDARDEBENE
 62
     7
100
AcDb2dPolyline
 66
     1
 10
0.0
 20
0.0
 30
0.0
  0
VERTEX
  5
36A
330
369
100
AcDbEntity
  8
STANDARDEBENE
 62
     7
100
AcDbVertex
100
AcDb2dVertex
 10
-47.1740681095452
 20
30.45914280746668
 30
0.0
  0
VERTEX
  5
36B
330
369
100
AcDbEntity
  8
STANDARDEBENE
 62
     7
100
AcDbVertex
100
AcDb2dVertex
 10
-47.11326213411717
 20
30.38869055831636
 30
0.0
  0
VERTEX
  5
36C
330
369
100
AcDbEntity
  8
STANDARDEBENE
 62
     7
100
AcDbVertex
100
AcDb2dVertex
 10
-47.08225625429552
 20
30.32013311293292
 30
0.0
  0
VERTEX
  5
36D
330
369
100
AcDbEntity
  8
STANDARDEBENE
 62
     7
100
AcDbVertex
100
AcDb2dVertex
 10
-47.07192096102163
 20
30.24020684494821
 30
0.0
  0
VERTEX
  5
36E
330
369
100
AcDbEntity
  8
STANDARDEBENE
 62
     7
100
AcDbVertex
100
AcDb2dVertex
 10
-47.08260076407132
 20
30.17285518378006
 30
0.0
  0
VERTEX
  5
36F
330
369
100
AcDbEntity
  8
STANDARDEBENE
 62
     7
100
AcDbVertex
100
AcDb2dVertex
 10
-47.10792223259233
 20
30.11342724745522
 30
0.0
  0
VERTEX
  5
370
330
369
100
AcDbEntity
  8
STANDARDEBENE
 62
     7
100
AcDbVertex
100
AcDb2dVertex
 10
-47.1740681095452
 20
30.0341899990221
 30
0.0
  0
VERTEX
  5
371
330
369
100
AcDbEntity
  8
STANDARDEBENE
 62
     7
100
AcDbVertex
100
AcDb2dVertex
 10
-48.22344488662033
 20
29.23113771164123
 30
0.0
  0
VERTEX
  5
372
330
369
100
AcDbEntity
  8
STANDARDEBENE
 62
     7
100
AcDbVertex
100
AcDb2dVertex
 10
-49.35136989257698
 20
28.54263492471259
 30
0.0
  0
SEQEND
  5
373
330
369
100
AcDbEntity
  8
STANDARDEBENE
  0
POLYLINE
  5
374
330
1F
100
AcDbEntity
  8
STANDARDEBENE
 62
     7
100
AcDb2dPolyline
 66
     1
 10
0.0
 20
0.0
 30
0.0
  0
VERTEX
  5
375
330
374
100
AcDbEntity
  8
STANDARDEBENE
 62
     7
100
AcDbVertex
100
AcDb2dVertex
 10
-49.35136989257698
 20
27.95111163967057
 30
0.0
  0
VERTEX
  5
376
330
374
100
AcDbEntity
  8
STANDARDEBENE
 62
     7
100
AcDbVertex
100
AcDb2dVertex
 10
-49.35136989257698
 20
28.54263492471259
 30
0.0
  0
SEQEND
  5
377
330
374
100
AcDbEntity
  8
STANDARDEBENE
  0
POLYLINE
  5
378
330
1F
100
AcDbEntity
  8
STANDARDEBENE
 62
     7
100
AcDb2dPolyline
 66
     1
 10
0.0
 20
0.0
 30
0.0
  0
VERTEX
  5
379
330
378
100
AcDbEntity
  8
STANDARDEBENE
 62
     7
100
AcDbVertex
100
AcDb2dVertex
 10
-49.35136989257698
 20
27.95111163967057
 30
0.0
  0
VERTEX
  5
37A
330
378
100
AcDbEntity
  8
STANDARDEBENE
 62
     7
100
AcDbVertex
100
AcDb2dVertex
 10
-48.22344488662033
 20
27.26243659785403
 30
0.0
  0
VERTEX
  5
37B
330
378
100
AcDbEntity
  8
STANDARDEBENE
 62
     7
100
AcDbVertex
100
AcDb2dVertex
 10
-47.1740681095452
 20
26.45835078114577
 30
0.0
  0
VERTEX
  5
37C
330
378
100
AcDbEntity
  8
STANDARDEBENE
 62
     7
100
AcDbVertex
100
AcDb2dVertex
 10
-47.11326213411717
 20
26.38893206132284
 30
0.0
  0
VERTEX
  5
37D
330
378
100
AcDbEntity
  8
STANDARDEBENE
 62
     7
100
AcDbVertex
100
AcDb2dVertex
 10
-47.08225625429552
 20
26.31968559638781
 30
0.0
  0
VERTEX
  5
37E
330
378
100
AcDbEntity
  8
STANDARDEBENE
 62
     7
100
AcDbVertex
100
AcDb2dVertex
 10
-47.07192096102163
 20
26.2397593284031
 30
0.0
  0
VERTEX
  5
37F
330
378
100
AcDbEntity
  8
STANDARDEBENE
 62
     7
100
AcDbVertex
100
AcDb2dVertex
 10
-47.08260076407132
 20
26.17309668678654
 30
0.0
  0
VERTEX
  5
380
330
378
100
AcDbEntity
  8
STANDARDEBENE
 62
     7
100
AcDbVertex
100
AcDb2dVertex
 10
-47.10792223259233
 20
26.11297973091011
 30
0.0
  0
VERTEX
  5
381
330
378
100
AcDbEntity
  8
STANDARDEBENE
 62
     7
100
AcDbVertex
100
AcDb2dVertex
 10
-47.1740681095452
 20
26.03443150202858
 30
0.0
  0
VERTEX
  5
382
330
378
100
AcDbEntity
  8
STANDARDEBENE
 62
     7
100
AcDbVertex
100
AcDb2dVertex
 10
-48.22344488662033
 20
25.23103470487192
 30
0.0
  0
VERTEX
  5
383
330
378
100
AcDbEntity
  8
STANDARDEBENE
 62
     7
100
AcDbVertex
100
AcDb2dVertex
 10
-49.35136989257698
 20
24.54235966305538
 30
0.0
  0
SEQEND
  5
384
330
378
100
AcDbEntity
  8
STANDARDEBENE
  0
POLYLINE
  5
385
330
1F
100
AcDbEntity
  8
STANDARDEBENE
 62
     7
100
AcDb2dPolyline
 66
     1
 10
0.0
 20
0.0
 30
0.0
  0
VERTEX
  5
386
330
385
100
AcDbEntity
  8
STANDARDEBENE
 62
     7
100
AcDbVertex
100
AcDb2dVertex
 10
-49.35136989257698
 20
23.95066412312545
 30
0.0
  0
VERTEX
  5
387
330
385
100
AcDbEntity
  8
STANDARDEBENE
 62
     7
100
AcDbVertex
100
AcDb2dVertex
 10
-49.35136989257698
 20
24.54235966305538
 30
0.0
  0
SEQEND
  5
388
330
385
100
AcDbEntity
  8
STANDARDEBENE
  0
POLYLINE
  5
389
330
1F
100
AcDbEntity
  8
STANDARDEBENE
 62
     7
100
AcDb2dPolyline
 66
     1
 10
0.0
 20
0.0
 30
0.0
  0
VERTEX
  5
38A
330
389
100
AcDbEntity
  8
STANDARDEBENE
 62
     7
100
AcDbVertex
100
AcDb2dVertex
 10
-47.1740681095452
 20
22.45893679392804
 30
0.0
  0
VERTEX
  5
38B
330
389
100
AcDbEntity
  8
STANDARDEBENE
 62
     7
100
AcDbVertex
100
AcDb2dVertex
 10
-48.22344488662033
 20
23.26267810086051
 30
0.0
  0
VERTEX
  5
38C
330
389
100
AcDbEntity
  8
STANDARDEBENE
 62
     7
100
AcDbVertex
100
AcDb2dVertex
 10
-49.35136989257698
 20
23.95066412312545
 30
0.0
  0
SEQEND
  5
38D
330
389
100
AcDbEntity
  8
STANDARDEBENE
  0
POLYLINE
  5
38E
330
1F
100
AcDbEntity
  8
STANDARDEBENE
 62
     7
100
AcDb2dPolyline
 66
     1
 10
0.0
 20
0.0
 30
0.0
  0
VERTEX
  5
38F
330
38E
100
AcDbEntity
  8
STANDARDEBENE
 62
     7
100
AcDbVertex
100
AcDb2dVertex
 10
-47.1740681095452
 20
22.45893679392804
 30
0.0
  0
VERTEX
  5
390
330
38E
100
AcDbEntity
  8
STANDARDEBENE
 62
     7
100
AcDbVertex
100
AcDb2dVertex
 10
-47.11326213411717
 20
22.38848454477773
 30
0.0
  0
VERTEX
  5
391
330
38E
100
AcDbEntity
  8
STANDARDEBENE
 62
     7
100
AcDbVertex
100
AcDb2dVertex
 10
-47.08225625429552
 20
22.31992709939429
 30
0.0
  0
VERTEX
  5
392
330
38E
100
AcDbEntity
  8
STANDARDEBENE
 62
     7
100
AcDbVertex
100
AcDb2dVertex
 10
-47.07192096102163
 20
22.24034534118537
 30
0.0
  0
VERTEX
  5
393
330
38E
100
AcDbEntity
  8
STANDARDEBENE
 62
     7
100
AcDbVertex
100
AcDb2dVertex
 10
-47.08260076407132
 20
22.17264917024143
 30
0.0
  0
VERTEX
  5
394
330
38E
100
AcDbEntity
  8
STANDARDEBENE
 62
     7
100
AcDbVertex
100
AcDb2dVertex
 10
-47.10792223259233
 20
22.11356574369238
 30
0.0
  0
VERTEX
  5
395
330
38E
100
AcDbEntity
  8
STANDARDEBENE
 62
     7
100
AcDbVertex
100
AcDb2dVertex
 10
-47.1740681095452
 20
22.03467300503506
 30
0.0
  0
SEQEND
  5
396
330
38E
100
AcDbEntity
  8
STANDARDEBENE
  0
POLYLINE
  5
397
330
1F
100
AcDbEntity
  8
STANDARDEBENE
 62
     7
100
AcDb2dPolyline
 66
     1
 10
0.0
 20
0.0
 30
0.0
  0
VERTEX
  5
398
330
397
100
AcDbEntity
  8
STANDARDEBENE
 62
     7
100
AcDbVertex
100
AcDb2dVertex
 10
-49.35136989257698
 20
19.95056111635614
 30
0.0
  0
VERTEX
  5
399
330
397
100
AcDbEntity
  8
STANDARDEBENE
 62
     7
100
AcDbVertex
100
AcDb2dVertex
 10
-49.35136989257698
 20
20.54294567583765
 30
0.0
  0
SEQEND
  5
39A
330
397
100
AcDbEntity
  8
STANDARDEBENE
  0
POLYLINE
  5
39B
330
1F
100
AcDbEntity
  8
STANDARDEBENE
 62
     7
100
AcDb2dPolyline
 66
     1
 10
0.0
 20
0.0
 30
0.0
  0
VERTEX
  5
39C
330
39B
100
AcDbEntity
  8
STANDARDEBENE
 62
     7
100
AcDbVertex
100
AcDb2dVertex
 10
-47.1740681095452
 20
22.03467300503506
 30
0.0
  0
VERTEX
  5
39D
330
39B
100
AcDbEntity
  8
STANDARDEBENE
 62
     7
100
AcDbVertex
100
AcDb2dVertex
 10
-48.22344488662033
 20
21.23127620787839
 30
0.0
  0
VERTEX
  5
39E
330
39B
100
AcDbEntity
  8
STANDARDEBENE
 62
     7
100
AcDbVertex
100
AcDb2dVertex
 10
-49.35136989257698
 20
20.54294567583765
 30
0.0
  0
SEQEND
  5
39F
330
39B
100
AcDbEntity
  8
STANDARDEBENE
  0
POLYLINE
  5
3A0
330
1F
100
AcDbEntity
  8
STANDARDEBENE
 62
     7
100
AcDb2dPolyline
 66
     1
 10
0.0
 20
0.0
 30
0.0
  0
VERTEX
  5
3A1
330
3A0
100
AcDbEntity
  8
STANDARDEBENE
 62
     7
100
AcDbVertex
100
AcDb2dVertex
 10
-47.1740681095452
 20
18.45866153227083
 30
0.0
  0
VERTEX
  5
3A2
330
3A0
100
AcDbEntity
  8
STANDARDEBENE
 62
     7
100
AcDbVertex
100
AcDb2dVertex
 10
-48.22344488662033
 20
19.26223058431539
 30
0.0
  0
VERTEX
  5
3A3
330
3A0
100
AcDbEntity
  8
STANDARDEBENE
 62
     7
100
AcDbVertex
100
AcDb2dVertex
 10
-49.35136989257698
 20
19.95056111635614
 30
0.0
  0
SEQEND
  5
3A4
330
3A0
100
AcDbEntity
  8
STANDARDEBENE
  0
POLYLINE
  5
3A5
330
1F
100
AcDbEntity
  8
STANDARDEBENE
 62
     7
100
AcDb2dPolyline
 66
     1
 10
0.0
 20
0.0
 30
0.0
  0
VERTEX
  5
3A6
330
3A5
100
AcDbEntity
  8
STANDARDEBENE
 62
     7
100
AcDbVertex
100
AcDb2dVertex
 10
-47.1740681095452
 20
18.45866153227083
 30
0.0
  0
VERTEX
  5
3A7
330
3A5
100
AcDbEntity
  8
STANDARDEBENE
 62
     7
100
AcDbVertex
100
AcDb2dVertex
 10
-47.11326213411717
 20
18.38872604778421
 30
0.0
  0
VERTEX
  5
3A8
330
3A5
100
AcDbEntity
  8
STANDARDEBENE
 62
     7
100
AcDbVertex
100
AcDb2dVertex
 10
-47.08225625429552
 20
18.31947958284918
 30
0.0
  0
VERTEX
  5
3A9
330
3A5
100
AcDbEntity
  8
STANDARDEBENE
 62
     7
100
AcDbVertex
100
AcDb2dVertex
 10
-47.07192096102163
 20
18.23972556975236
 30
0.0
  0
VERTEX
  5
3AA
330
3A5
100
AcDbEntity
  8
STANDARDEBENE
 62
     7
100
AcDbVertex
100
AcDb2dVertex
 10
-47.08260076407132
 20
18.1732351830237
 30
0.0
  0
VERTEX
  5
3AB
330
3A5
100
AcDbEntity
  8
STANDARDEBENE
 62
     7
100
AcDbVertex
100
AcDb2dVertex
 10
-47.10792223259233
 20
18.11277371737147
 30
0.0
  0
VERTEX
  5
3AC
330
3A5
100
AcDbEntity
  8
STANDARDEBENE
 62
     7
100
AcDbVertex
100
AcDb2dVertex
 10
-47.1740681095452
 20
18.03422548848995
 30
0.0
  0
VERTEX
  5
3AD
330
3A5
100
AcDbEntity
  8
STANDARDEBENE
 62
     7
100
AcDbVertex
100
AcDb2dVertex
 10
-48.22344488662033
 20
17.23065643644539
 30
0.0
  0
VERTEX
  5
3AE
330
3A5
100
AcDbEntity
  8
STANDARDEBENE
 62
     7
100
AcDbVertex
100
AcDb2dVertex
 10
-49.35136989257698
 20
16.54249815929254
 30
0.0
  0
SEQEND
  5
3AF
330
3A5
100
AcDbEntity
  8
STANDARDEBENE
  0
POLYLINE
  5
3B0
330
1F
100
AcDbEntity
  8
STANDARDEBENE
 62
     7
100
AcDb2dPolyline
 66
     1
 10
0.0
 20
0.0
 30
0.0
  0
VERTEX
  5
3B1
330
3B0
100
AcDbEntity
  8
STANDARDEBENE
 62
     7
100
AcDbVertex
100
AcDb2dVertex
 10
-49.35136989257698
 20
15.95080261936262
 30
0.0
  0
VERTEX
  5
3B2
330
3B0
100
AcDbEntity
  8
STANDARDEBENE
 62
     7
100
AcDbVertex
100
AcDb2dVertex
 10
-49.35136989257698
 20
16.54249815929254
 30
0.0
  0
SEQEND
  5
3B3
330
3B0
100
AcDbEntity
  8
STANDARDEBENE
  0
POLYLINE
  5
3B4
330
1F
100
AcDbEntity
  8
STANDARDEBENE
 62
     7
100
AcDb2dPolyline
 66
     1
 10
0.0
 20
0.0
 30
0.0
  0
VERTEX
  5
3B5
330
3B4
100
AcDbEntity
  8
STANDARDEBENE
 62
     7
100
AcDbVertex
100
AcDb2dVertex
 10
-47.1740681095452
 20
14.45890303527731
 30
0.0
  0
VERTEX
  5
3B6
330
3B4
100
AcDbEntity
  8
STANDARDEBENE
 62
     7
100
AcDbVertex
100
AcDb2dVertex
 10
-48.22344488662033
 20
15.26212757754608
 30
0.0
  0
VERTEX
  5
3B7
330
3B4
100
AcDbEntity
  8
STANDARDEBENE
 62
     7
100
AcDbVertex
100
AcDb2dVertex
 10
-49.35136989257698
 20
15.95080261936262
 30
0.0
  0
SEQEND
  5
3B8
330
3B4
100
AcDbEntity
  8
STANDARDEBENE
  0
POLYLINE
  5
3B9
330
1F
100
AcDbEntity
  8
STANDARDEBENE
 62
     7
100
AcDb2dPolyline
 66
     1
 10
0.0
 20
0.0
 30
0.0
  0
VERTEX
  5
3BA
330
3B9
100
AcDbEntity
  8
STANDARDEBENE
 62
     7
100
AcDbVertex
100
AcDb2dVertex
 10
-47.1740681095452
 20
14.45890303527731
 30
0.0
  0
VERTEX
  5
3BB
330
3B9
100
AcDbEntity
  8
STANDARDEBENE
 62
     7
100
AcDbVertex
100
AcDb2dVertex
 10
-47.11326213411717
 20
14.38896755079069
 30
0.0
  0
VERTEX
  5
3BC
330
3B9
100
AcDbEntity
  8
STANDARDEBENE
 62
     7
100
AcDbVertex
100
AcDb2dVertex
 10
-47.08225625429552
 20
14.31972108585566
 30
0.0
  0
VERTEX
  5
3BD
330
3B9
100
AcDbEntity
  8
STANDARDEBENE
 62
     7
100
AcDbVertex
100
AcDb2dVertex
 10
-47.07192096102163
 20
14.23996707275884
 30
0.0
  0
VERTEX
  5
3BE
330
3B9
100
AcDbEntity
  8
STANDARDEBENE
 62
     7
100
AcDbVertex
100
AcDb2dVertex
 10
-47.08260076407132
 20
14.17261541159069
 30
0.0
  0
VERTEX
  5
3BF
330
3B9
100
AcDbEntity
  8
STANDARDEBENE
 62
     7
100
AcDbVertex
100
AcDb2dVertex
 10
-47.10792223259233
 20
14.11301522037795
 30
0.0
  0
VERTEX
  5
3C0
330
3B9
100
AcDbEntity
  8
STANDARDEBENE
 62
     7
100
AcDbVertex
100
AcDb2dVertex
 10
-47.1740681095452
 20
14.03481150127222
 30
0.0
  0
VERTEX
  5
3C1
330
3B9
100
AcDbEntity
  8
STANDARDEBENE
 62
     7
100
AcDbVertex
100
AcDb2dVertex
 10
-48.22344488662033
 20
13.23107019433976
 30
0.0
  0
VERTEX
  5
3C2
330
3B9
100
AcDbEntity
  8
STANDARDEBENE
 62
     7
100
AcDbVertex
100
AcDb2dVertex
 10
-49.35136989257698
 20
12.54239515252322
 30
0.0
  0
SEQEND
  5
3C3
330
3B9
100
AcDbEntity
  8
STANDARDEBENE
  0
POLYLINE
  5
3C4
330
1F
100
AcDbEntity
  8
STANDARDEBENE
 62
     7
100
AcDb2dPolyline
 66
     1
 10
0.0
 20
0.0
 30
0.0
  0
VERTEX
  5
3C5
330
3C4
100
AcDbEntity
  8
STANDARDEBENE
 62
     7
100
AcDbVertex
100
AcDb2dVertex
 10
-49.35136989257698
 20
11.9505273577054
 30
0.0
  0
VERTEX
  5
3C6
330
3C4
100
AcDbEntity
  8
STANDARDEBENE
 62
     7
100
AcDbVertex
100
AcDb2dVertex
 10
-49.35136989257698
 20
12.54239515252322
 30
0.0
  0
SEQEND
  5
3C7
330
3C4
100
AcDbEntity
  8
STANDARDEBENE
  0
POLYLINE
  5
3C8
330
1F
100
AcDbEntity
  8
STANDARDEBENE
 62
     7
100
AcDb2dPolyline
 66
     1
 10
0.0
 20
0.0
 30
0.0
  0
VERTEX
  5
3C9
330
3C8
100
AcDbEntity
  8
STANDARDEBENE
 62
     7
100
AcDbVertex
100
AcDb2dVertex
 10
-47.1740681095452
 20
10.45880002850799
 30
0.0
  0
VERTEX
  5
3CA
330
3C8
100
AcDbEntity
  8
STANDARDEBENE
 62
     7
100
AcDbVertex
100
AcDb2dVertex
 10
-48.22344488662033
 20
11.26219682566466
 30
0.0
  0
VERTEX
  5
3CB
330
3C8
100
AcDbEntity
  8
STANDARDEBENE
 62
     7
100
AcDbVertex
100
AcDb2dVertex
 10
-49.35136989257698
 20
11.9505273577054
 30
0.0
  0
SEQEND
  5
3CC
330
3C8
100
AcDbEntity
  8
STANDARDEBENE
  0
POLYLINE
  5
3CD
330
1F
100
AcDbEntity
  8
STANDARDEBENE
 62
     7
100
AcDb2dPolyline
 66
     1
 10
0.0
 20
0.0
 30
0.0
  0
VERTEX
  5
3CE
330
3CD
100
AcDbEntity
  8
STANDARDEBENE
 62
     7
100
AcDbVertex
100
AcDb2dVertex
 10
-47.1740681095452
 20
10.45880002850799
 30
0.0
  0
VERTEX
  5
3CF
330
3CD
100
AcDbEntity
  8
STANDARDEBENE
 62
     7
100
AcDbVertex
100
AcDb2dVertex
 10
-47.11326213411717
 20
10.38834777935767
 30
0.0
  0
VERTEX
  5
3D0
330
3CD
100
AcDbEntity
  8
STANDARDEBENE
 62
     7
100
AcDbVertex
100
AcDb2dVertex
 10
-47.08225625429552
 20
10.31979033397424
 30
0.0
  0
VERTEX
  5
3D1
330
3CD
100
AcDbEntity
  8
STANDARDEBENE
 62
     7
100
AcDbVertex
100
AcDb2dVertex
 10
-47.07192096102163
 20
10.23986406598953
 30
0.0
  0
VERTEX
  5
3D2
330
3CD
100
AcDbEntity
  8
STANDARDEBENE
 62
     7
100
AcDbVertex
100
AcDb2dVertex
 10
-47.08260076407132
 20
10.17285691459717
 30
0.0
  0
VERTEX
  5
3D3
330
3CD
100
AcDbEntity
  8
STANDARDEBENE
 62
     7
100
AcDbVertex
100
AcDb2dVertex
 10
-47.10792223259233
 20
10.11325672338443
 30
0.0
  0
VERTEX
  5
3D4
330
3CD
100
AcDbEntity
  8
STANDARDEBENE
 62
     7
100
AcDbVertex
100
AcDb2dVertex
 10
-47.1740681095452
 20
10.03401947495132
 30
0.0
  0
SEQEND
  5
3D5
330
3CD
100
AcDbEntity
  8
STANDARDEBENE
  0
POLYLINE
  5
3D6
330
1F
100
AcDbEntity
  8
STANDARDEBENE
 62
     7
100
AcDb2dPolyline
 66
     1
 10
0.0
 20
0.0
 30
0.0
  0
VERTEX
  5
3D7
330
3D6
100
AcDbEntity
  8
STANDARDEBENE
 62
     7
100
AcDbVertex
100
AcDb2dVertex
 10
-49.35136989257698
 20
7.951113370487679
 30
0.0
  0
VERTEX
  5
3D8
330
3D6
100
AcDbEntity
  8
STANDARDEBENE
 62
     7
100
AcDbVertex
100
AcDb2dVertex
 10
-49.35136989257698
 20
8.542636655529702
 30
0.0
  0
VERTEX
  5
3D9
330
3D6
100
AcDbEntity
  8
STANDARDEBENE
 62
     7
100
AcDbVertex
100
AcDb2dVertex
 10
-48.22344488662033
 20
9.230794932682548
 30
0.0
  0
VERTEX
  5
3DA
330
3D6
100
AcDbEntity
  8
STANDARDEBENE
 62
     7
100
AcDbVertex
100
AcDb2dVertex
 10
-47.1740681095452
 20
10.03401947495132
 30
0.0
  0
SEQEND
  5
3DB
330
3D6
100
AcDbEntity
  8
STANDARDEBENE
  0
POLYLINE
  5
3DC
330
1F
100
AcDbEntity
  8
STANDARDEBENE
 62
     7
100
AcDb2dPolyline
 66
     1
 10
0.0
 20
0.0
 30
0.0
  0
VERTEX
  5
3DD
330
3DC
100
AcDbEntity
  8
STANDARDEBENE
 62
     7
100
AcDbVertex
100
AcDb2dVertex
 10
-47.1740681095452
 20
6.459041531514472
 30
0.0
  0
VERTEX
  5
3DE
330
3DC
100
AcDbEntity
  8
STANDARDEBENE
 62
     7
100
AcDbVertex
100
AcDb2dVertex
 10
-48.22344488662033
 20
7.262438328671138
 30
0.0
  0
VERTEX
  5
3DF
330
3DC
100
AcDbEntity
  8
STANDARDEBENE
 62
     7
100
AcDbVertex
100
AcDb2dVertex
 10
-49.35136989257698
 20
7.951113370487679
 30
0.0
  0
SEQEND
  5
3E0
330
3DC
100
AcDbEntity
  8
STANDARDEBENE
  0
POLYLINE
  5
3E1
330
1F
100
AcDbEntity
  8
STANDARDEBENE
 62
     7
100
AcDb2dPolyline
 66
     1
 10
0.0
 20
0.0
 30
0.0
  0
VERTEX
  5
3E2
330
3E1
100
AcDbEntity
  8
STANDARDEBENE
 62
     7
100
AcDbVertex
100
AcDb2dVertex
 10
-47.1740681095452
 20
6.459041531514472
 30
0.0
  0
VERTEX
  5
3E3
330
3E1
100
AcDbEntity
  8
STANDARDEBENE
 62
     7
100
AcDbVertex
100
AcDb2dVertex
 10
-47.11326213411717
 20
6.388933792139952
 30
0.0
  0
VERTEX
  5
3E4
330
3E1
100
AcDbEntity
  8
STANDARDEBENE
 62
     7
100
AcDbVertex
100
AcDb2dVertex
 10
-47.08225625429552
 20
6.320031836980718
 30
0.0
  0
VERTEX
  5
3E5
330
3E1
100
AcDbEntity
  8
STANDARDEBENE
 62
     7
100
AcDbVertex
100
AcDb2dVertex
 10
-47.07192096102163
 20
6.240105568996007
 30
0.0
  0
VERTEX
  5
3E6
330
3E1
100
AcDbEntity
  8
STANDARDEBENE
 62
     7
100
AcDbVertex
100
AcDb2dVertex
 10
-47.08260076407132
 20
6.172753907827856
 30
0.0
  0
VERTEX
  5
3E7
330
3E1
100
AcDbEntity
  8
STANDARDEBENE
 62
     7
100
AcDbVertex
100
AcDb2dVertex
 10
-47.10792223259233
 20
6.112636951951424
 30
0.0
  0
VERTEX
  5
3E8
330
3E1
100
AcDbEntity
  8
STANDARDEBENE
 62
     7
100
AcDbVertex
100
AcDb2dVertex
 10
-47.1740681095452
 20
6.034949997509388
 30
0.0
  0
VERTEX
  5
3E9
330
3E1
100
AcDbEntity
  8
STANDARDEBENE
 62
     7
100
AcDbVertex
100
AcDb2dVertex
 10
-48.22344488662033
 20
5.230691925913232
 30
0.0
  0
VERTEX
  5
3EA
330
3E1
100
AcDbEntity
  8
STANDARDEBENE
 62
     7
100
AcDbVertex
100
AcDb2dVertex
 10
-49.35136989257698
 20
4.542361393872486
 30
0.0
  0
SEQEND
  5
3EB
330
3E1
100
AcDbEntity
  8
STANDARDEBENE
  0
POLYLINE
  5
3EC
330
1F
100
AcDbEntity
  8
STANDARDEBENE
 62
     7
100
AcDb2dPolyline
 66
     1
 10
0.0
 20
0.0
 30
0.0
  0
VERTEX
  5
3ED
330
3EC
100
AcDbEntity
  8
STANDARDEBENE
 62
     7
100
AcDbVertex
100
AcDb2dVertex
 10
-67.78884407363635
 20
47.54682768695665
 30
0.0
  0
VERTEX
  5
3EE
330
3EC
100
AcDbEntity
  8
STANDARDEBENE
 62
     7
100
AcDbVertex
100
AcDb2dVertex
 10
-67.68204604313954
 20
47.54682768695665
 30
0.0
  0
VERTEX
  5
3EF
330
3EC
100
AcDbEntity
  8
STANDARDEBENE
 62
     7
100
AcDbVertex
100
AcDb2dVertex
 10
-67.3621687163128
 20
47.54682768695665
 30
0.0
  0
VERTEX
  5
3F0
330
3EC
100
AcDbEntity
  8
STANDARDEBENE
 62
     7
100
AcDbVertex
100
AcDb2dVertex
 10
-66.83730807288732
 20
47.54682768695665
 30
0.0
  0
VERTEX
  5
3F1
330
3EC
100
AcDbEntity
  8
STANDARDEBENE
 62
     7
100
AcDbVertex
100
AcDb2dVertex
 10
-66.11383754371538
 20
47.54682768695665
 30
0.0
  0
VERTEX
  5
3F2
330
3EC
100
AcDbEntity
  8
STANDARDEBENE
 62
     7
100
AcDbVertex
100
AcDb2dVertex
 10
-65.20553751982878
 20
47.54682768695665
 30
0.0
  0
VERTEX
  5
3F3
330
3EC
100
AcDbEntity
  8
STANDARDEBENE
 62
     7
100
AcDbVertex
100
AcDb2dVertex
 10
-64.12722192158677
 20
47.54682768695665
 30
0.0
  0
VERTEX
  5
3F4
330
3EC
100
AcDbEntity
  8
STANDARDEBENE
 62
     7
100
AcDbVertex
100
AcDb2dVertex
 10
-62.89766653177024
 20
47.54682768695665
 30
0.0
  0
VERTEX
  5
3F5
330
3EC
100
AcDbEntity
  8
STANDARDEBENE
 62
     7
100
AcDbVertex
100
AcDb2dVertex
 10
-61.53874772114225
 20
47.54682768695665
 30
0.0
  0
VERTEX
  5
3F6
330
3EC
100
AcDbEntity
  8
STANDARDEBENE
 62
     7
100
AcDbVertex
100
AcDb2dVertex
 10
-60.07216960557796
 20
47.54682768695665
 30
0.0
  0
VERTEX
  5
3F7
330
3EC
100
AcDbEntity
  8
STANDARDEBENE
 62
     7
100
AcDbVertex
100
AcDb2dVertex
 10
-58.52342590848628
 20
47.54682768695665
 30
0.0
  0
VERTEX
  5
3F8
330
3EC
100
AcDbEntity
  8
STANDARDEBENE
 62
     7
100
AcDbVertex
100
AcDb2dVertex
 10
-56.92042192170671
 20
47.54682768695665
 30
0.0
  0
VERTEX
  5
3F9
330
3EC
100
AcDbEntity
  8
STANDARDEBENE
 62
     7
100
AcDbVertex
100
AcDb2dVertex
 10
-55.28882362353605
 20
47.54682768695665
 30
0.0
  0
VERTEX
  5
3FA
330
3EC
100
AcDbEntity
  8
STANDARDEBENE
 62
     7
100
AcDbVertex
100
AcDb2dVertex
 10
-53.6570530704775
 20
47.54682768695665
 30
0.0
  0
VERTEX
  5
3FB
330
3EC
100
AcDbEntity
  8
STANDARDEBENE
 62
     7
100
AcDbVertex
100
AcDb2dVertex
 10
-52.05318780925844
 20
47.54682768695665
 30
0.0
  0
VERTEX
  5
3FC
330
3EC
100
AcDbEntity
  8
STANDARDEBENE
 62
     7
100
AcDbVertex
100
AcDb2dVertex
 10
-50.50478862194256
 20
47.54682768695665
 30
0.0
  0
VERTEX
  5
3FD
330
3EC
100
AcDbEntity
  8
STANDARDEBENE
 62
     7
100
AcDbVertex
100
AcDb2dVertex
 10
-49.03872727104196
 20
47.54682768695665
 30
0.0
  0
VERTEX
  5
3FE
330
3EC
100
AcDbEntity
  8
STANDARDEBENE
 62
     7
100
AcDbVertex
100
AcDb2dVertex
 10
-47.67911944086238
 20
47.54682768695665
 30
0.0
  0
VERTEX
  5
3FF
330
3EC
100
AcDbEntity
  8
STANDARDEBENE
 62
     7
100
AcDbVertex
100
AcDb2dVertex
 10
-46.44956405104585
 20
47.54682768695665
 30
0.0
  0
VERTEX
  5
400
330
3EC
100
AcDbEntity
  8
STANDARDEBENE
 62
     7
100
AcDbVertex
100
AcDb2dVertex
 10
-45.37193747235543
 20
47.54682768695665
 30
0.0
  0
VERTEX
  5
401
330
3EC
100
AcDbEntity
  8
STANDARDEBENE
 62
     7
100
AcDbVertex
100
AcDb2dVertex
 10
-44.46329293869304
 20
47.54682768695665
 30
0.0
  0
VERTEX
  5
402
330
3EC
100
AcDbEntity
  8
STANDARDEBENE
 62
     7
100
AcDbVertex
100
AcDb2dVertex
 10
-43.74016691929688
 20
47.54682768695665
 30
0.0
  0
VERTEX
  5
403
330
3EC
100
AcDbEntity
  8
STANDARDEBENE
 62
     7
100
AcDbVertex
100
AcDb2dVertex
 10
-43.21461725631983
 20
47.54682768695665
 30
0.0
  0
VERTEX
  5
404
330
3EC
100
AcDbEntity
  8
STANDARDEBENE
 62
     7
100
AcDbVertex
100
AcDb2dVertex
 10
-42.89577345882047
 20
47.54682768695665
 30
0.0
  0
VERTEX
  5
405
330
3EC
100
AcDbEntity
  8
STANDARDEBENE
 62
     7
100
AcDbVertex
100
AcDb2dVertex
 10
-42.78863091854787
 20
47.54682768695665
 30
0.0
  0
SEQEND
  5
406
330
3EC
100
AcDbEntity
  8
STANDARDEBENE
  0
POLYLINE
  5
407
330
1F
100
AcDbEntity
  8
STANDARDEBENE
 62
     7
100
AcDb2dPolyline
 66
     1
 10
0.0
 20
0.0
 30
0.0
  0
VERTEX
  5
408
330
407
100
AcDbEntity
  8
STANDARDEBENE
 62
     7
100
AcDbVertex
100
AcDb2dVertex
 10
-59.99413814136013
 20
1.946652488136252
 30
0.0
  0
VERTEX
  5
409
330
407
100
AcDbEntity
  8
STANDARDEBENE
 62
     7
100
AcDbVertex
100
AcDb2dVertex
 10
-50.58299234104829
 20
1.946652488136252
 30
0.0
  0
SEQEND
  5
40A
330
407
100
AcDbEntity
  8
STANDARDEBENE
  0
POLYLINE
  5
40B
330
1F
100
AcDbEntity
  8
STANDARDEBENE
 62
     7
100
AcDb2dPolyline
 66
     1
 10
0.0
 20
0.0
 30
0.0
  0
VERTEX
  5
40C
330
40B
100
AcDbEntity
  8
STANDARDEBENE
 62
     7
100
AcDbVertex
100
AcDb2dVertex
 10
-61.22524382516774
 20
4.542361393872486
 30
0.0
  0
VERTEX
  5
40D
330
40B
100
AcDbEntity
  8
STANDARDEBENE
 62
     7
100
AcDbVertex
100
AcDb2dVertex
 10
-49.35136989257698
 20
4.542361393872486
 30
0.0
  0
SEQEND
  5
40E
330
40B
100
AcDbEntity
  8
STANDARDEBENE
  0
POLYLINE
  5
40F
330
1F
100
AcDbEntity
  8
STANDARDEBENE
 62
     7
100
AcDb2dPolyline
 66
     1
 10
0.0
 20
0.0
 30
0.0
  0
VERTEX
  5
410
330
40F
100
AcDbEntity
  8
STANDARDEBENE
 62
     7
100
AcDbVertex
100
AcDb2dVertex
 10
-50.58299234104829
 20
1.946652488136252
 30
0.0
  0
VERTEX
  5
411
330
40F
100
AcDbEntity
  8
STANDARDEBENE
 62
     7
100
AcDbVertex
100
AcDb2dVertex
 10
-49.35136989257698
 20
3.946531736633012
 30
0.0
  0
SEQEND
  5
412
330
40F
100
AcDbEntity
  8
STANDARDEBENE
  0
POLYLINE
  5
413
330
1F
100
AcDbEntity
  8
STANDARDEBENE
 62
     7
100
AcDb2dPolyline
 66
     1
 10
0.0
 20
0.0
 30
0.0
  0
VERTEX
  5
414
330
413
100
AcDbEntity
  8
STANDARDEBENE
 62
     7
100
AcDbVertex
100
AcDb2dVertex
 10
-61.22524382516774
 20
7.951113370487679
 30
0.0
  0
VERTEX
  5
415
330
413
100
AcDbEntity
  8
STANDARDEBENE
 62
     7
100
AcDbVertex
100
AcDb2dVertex
 10
-49.35136989257698
 20
7.951113370487679
 30
0.0
  0
SEQEND
  5
416
330
413
100
AcDbEntity
  8
STANDARDEBENE
  0
POLYLINE
  5
417
330
1F
100
AcDbEntity
  8
STANDARDEBENE
 62
     7
100
AcDb2dPolyline
 66
     1
 10
0.0
 20
0.0
 30
0.0
  0
VERTEX
  5
418
330
417
100
AcDbEntity
  8
STANDARDEBENE
 62
     7
100
AcDbVertex
100
AcDb2dVertex
 10
-61.22524382516774
 20
8.542636655529702
 30
0.0
  0
VERTEX
  5
419
330
417
100
AcDbEntity
  8
STANDARDEBENE
 62
     7
100
AcDbVertex
100
AcDb2dVertex
 10
-49.35136989257698
 20
8.542636655529702
 30
0.0
  0
SEQEND
  5
41A
330
417
100
AcDbEntity
  8
STANDARDEBENE
  0
POLYLINE
  5
41B
330
1F
100
AcDbEntity
  8
STANDARDEBENE
 62
     7
100
AcDb2dPolyline
 66
     1
 10
0.0
 20
0.0
 30
0.0
  0
VERTEX
  5
41C
330
41B
100
AcDbEntity
  8
STANDARDEBENE
 62
     7
100
AcDbVertex
100
AcDb2dVertex
 10
-61.22524382516774
 20
11.9505273577054
 30
0.0
  0
VERTEX
  5
41D
330
41B
100
AcDbEntity
  8
STANDARDEBENE
 62
     7
100
AcDbVertex
100
AcDb2dVertex
 10
-49.35136989257698
 20
11.9505273577054
 30
0.0
  0
SEQEND
  5
41E
330
41B
100
AcDbEntity
  8
STANDARDEBENE
  0
POLYLINE
  5
41F
330
1F
100
AcDbEntity
  8
STANDARDEBENE
 62
     7
100
AcDb2dPolyline
 66
     1
 10
0.0
 20
0.0
 30
0.0
  0
VERTEX
  5
420
330
41F
100
AcDbEntity
  8
STANDARDEBENE
 62
     7
100
AcDbVertex
100
AcDb2dVertex
 10
-61.22524382516774
 20
3.946531736633012
 30
0.0
  0
VERTEX
  5
421
330
41F
100
AcDbEntity
  8
STANDARDEBENE
 62
     7
100
AcDbVertex
100
AcDb2dVertex
 10
-59.99413814136013
 20
1.946652488136252
 30
0.0
  0
SEQEND
  5
422
330
41F
100
AcDbEntity
  8
STANDARDEBENE
  0
POLYLINE
  5
423
330
1F
100
AcDbEntity
  8
STANDARDEBENE
 62
     7
100
AcDb2dPolyline
 66
     1
 10
0.0
 20
0.0
 30
0.0
  0
VERTEX
  5
424
330
423
100
AcDbEntity
  8
STANDARDEBENE
 62
     7
100
AcDbVertex
100
AcDb2dVertex
 10
-61.22524382516774
 20
12.54239515252322
 30
0.0
  0
VERTEX
  5
425
330
423
100
AcDbEntity
  8
STANDARDEBENE
 62
     7
100
AcDbVertex
100
AcDb2dVertex
 10
-49.35136989257698
 20
12.54239515252322
 30
0.0
  0
SEQEND
  5
426
330
423
100
AcDbEntity
  8
STANDARDEBENE
  0
POLYLINE
  5
427
330
1F
100
AcDbEntity
  8
STANDARDEBENE
 62
     7
100
AcDb2dPolyline
 66
     1
 10
0.0
 20
0.0
 30
0.0
  0
VERTEX
  5
428
330
427
100
AcDbEntity
  8
STANDARDEBENE
 62
     7
100
AcDbVertex
100
AcDb2dVertex
 10
-61.22524382516774
 20
15.95080261936262
 30
0.0
  0
VERTEX
  5
429
330
427
100
AcDbEntity
  8
STANDARDEBENE
 62
     7
100
AcDbVertex
100
AcDb2dVertex
 10
-49.35136989257698
 20
15.95080261936262
 30
0.0
  0
SEQEND
  5
42A
330
427
100
AcDbEntity
  8
STANDARDEBENE
  0
POLYLINE
  5
42B
330
1F
100
AcDbEntity
  8
STANDARDEBENE
 62
     7
100
AcDb2dPolyline
 66
     1
 10
0.0
 20
0.0
 30
0.0
  0
VERTEX
  5
42C
330
42B
100
AcDbEntity
  8
STANDARDEBENE
 62
     7
100
AcDbVertex
100
AcDb2dVertex
 10
-61.22524382516774
 20
16.54249815929254
 30
0.0
  0
VERTEX
  5
42D
330
42B
100
AcDbEntity
  8
STANDARDEBENE
 62
     7
100
AcDbVertex
100
AcDb2dVertex
 10
-49.35136989257698
 20
16.54249815929254
 30
0.0
  0
SEQEND
  5
42E
330
42B
100
AcDbEntity
  8
STANDARDEBENE
  0
POLYLINE
  5
42F
330
1F
100
AcDbEntity
  8
STANDARDEBENE
 62
     7
100
AcDb2dPolyline
 66
     1
 10
0.0
 20
0.0
 30
0.0
  0
VERTEX
  5
430
330
42F
100
AcDbEntity
  8
STANDARDEBENE
 62
     7
100
AcDbVertex
100
AcDb2dVertex
 10
-61.22524382516774
 20
19.95056111635614
 30
0.0
  0
VERTEX
  5
431
330
42F
100
AcDbEntity
  8
STANDARDEBENE
 62
     7
100
AcDbVertex
100
AcDb2dVertex
 10
-49.35136989257698
 20
19.95056111635614
 30
0.0
  0
SEQEND
  5
432
330
42F
100
AcDbEntity
  8
STANDARDEBENE
  0
POLYLINE
  5
433
330
1F
100
AcDbEntity
  8
STANDARDEBENE
 62
     7
100
AcDb2dPolyline
 66
     1
 10
0.0
 20
0.0
 30
0.0
  0
VERTEX
  5
434
330
433
100
AcDbEntity
  8
STANDARDEBENE
 62
     7
100
AcDbVertex
100
AcDb2dVertex
 10
-61.22524382516774
 20
20.54294567583765
 30
0.0
  0
VERTEX
  5
435
330
433
100
AcDbEntity
  8
STANDARDEBENE
 62
     7
100
AcDbVertex
100
AcDb2dVertex
 10
-49.35136989257698
 20
20.54294567583765
 30
0.0
  0
SEQEND
  5
436
330
433
100
AcDbEntity
  8
STANDARDEBENE
  0
POLYLINE
  5
437
330
1F
100
AcDbEntity
  8
STANDARDEBENE
 62
     7
100
AcDb2dPolyline
 66
     1
 10
0.0
 20
0.0
 30
0.0
  0
VERTEX
  5
438
330
437
100
AcDbEntity
  8
STANDARDEBENE
 62
     7
100
AcDbVertex
100
AcDb2dVertex
 10
-61.22524382516774
 20
23.95066412312545
 30
0.0
  0
VERTEX
  5
439
330
437
100
AcDbEntity
  8
STANDARDEBENE
 62
     7
100
AcDbVertex
100
AcDb2dVertex
 10
-49.35136989257698
 20
23.95066412312545
 30
0.0
  0
SEQEND
  5
43A
330
437
100
AcDbEntity
  8
STANDARDEBENE
  0
POLYLINE
  5
43B
330
1F
100
AcDbEntity
  8
STANDARDEBENE
 62
     7
100
AcDb2dPolyline
 66
     1
 10
0.0
 20
0.0
 30
0.0
  0
VERTEX
  5
43C
330
43B
100
AcDbEntity
  8
STANDARDEBENE
 62
     7
100
AcDbVertex
100
AcDb2dVertex
 10
-61.22524382516774
 20
24.54235966305538
 30
0.0
  0
VERTEX
  5
43D
330
43B
100
AcDbEntity
  8
STANDARDEBENE
 62
     7
100
AcDbVertex
100
AcDb2dVertex
 10
-49.35136989257698
 20
24.54235966305538
 30
0.0
  0
SEQEND
  5
43E
330
43B
100
AcDbEntity
  8
STANDARDEBENE
  0
POLYLINE
  5
43F
330
1F
100
AcDbEntity
  8
STANDARDEBENE
 62
     7
100
AcDb2dPolyline
 66
     1
 10
0.0
 20
0.0
 30
0.0
  0
VERTEX
  5
440
330
43F
100
AcDbEntity
  8
STANDARDEBENE
 62
     7
100
AcDbVertex
100
AcDb2dVertex
 10
-61.22524382516774
 20
27.95111163967057
 30
0.0
  0
VERTEX
  5
441
330
43F
100
AcDbEntity
  8
STANDARDEBENE
 62
     7
100
AcDbVertex
100
AcDb2dVertex
 10
-49.35136989257698
 20
27.95111163967057
 30
0.0
  0
SEQEND
  5
442
330
43F
100
AcDbEntity
  8
STANDARDEBENE
  0
POLYLINE
  5
443
330
1F
100
AcDbEntity
  8
STANDARDEBENE
 62
     7
100
AcDb2dPolyline
 66
     1
 10
0.0
 20
0.0
 30
0.0
  0
VERTEX
  5
444
330
443
100
AcDbEntity
  8
STANDARDEBENE
 62
     7
100
AcDbVertex
100
AcDb2dVertex
 10
-61.22524382516774
 20
28.54263492471259
 30
0.0
  0
VERTEX
  5
445
330
443
100
AcDbEntity
  8
STANDARDEBENE
 62
     7
100
AcDbVertex
100
AcDb2dVertex
 10
-49.35136989257698
 20
28.54263492471259
 30
0.0
  0
SEQEND
  5
446
330
443
100
AcDbEntity
  8
STANDARDEBENE
  0
POLYLINE
  5
447
330
1F
100
AcDbEntity
  8
STANDARDEBENE
 62
     7
100
AcDb2dPolyline
 66
     1
 10
0.0
 20
0.0
 30
0.0
  0
VERTEX
  5
448
330
447
100
AcDbEntity
  8
STANDARDEBENE
 62
     7
100
AcDbVertex
100
AcDb2dVertex
 10
-61.22524382516774
 20
31.95052562688829
 30
0.0
  0
VERTEX
  5
449
330
447
100
AcDbEntity
  8
STANDARDEBENE
 62
     7
100
AcDbVertex
100
AcDb2dVertex
 10
-49.35136989257698
 20
31.95052562688829
 30
0.0
  0
SEQEND
  5
44A
330
447
100
AcDbEntity
  8
STANDARDEBENE
  0
POLYLINE
  5
44B
330
1F
100
AcDbEntity
  8
STANDARDEBENE
 62
     7
100
AcDb2dPolyline
 66
     1
 10
0.0
 20
0.0
 30
0.0
  0
VERTEX
  5
44C
330
44B
100
AcDbEntity
  8
STANDARDEBENE
 62
     7
100
AcDbVertex
100
AcDb2dVertex
 10
-61.22524382516774
 20
32.54222116681821
 30
0.0
  0
VERTEX
  5
44D
330
44B
100
AcDbEntity
  8
STANDARDEBENE
 62
     7
100
AcDbVertex
100
AcDb2dVertex
 10
-49.35136989257698
 20
32.54222116681821
 30
0.0
  0
SEQEND
  5
44E
330
44B
100
AcDbEntity
  8
STANDARDEBENE
  0
POLYLINE
  5
44F
330
1F
100
AcDbEntity
  8
STANDARDEBENE
 62
     7
100
AcDb2dPolyline
 66
     1
 10
0.0
 20
0.0
 30
0.0
  0
VERTEX
  5
450
330
44F
100
AcDbEntity
  8
STANDARDEBENE
 62
     7
100
AcDbVertex
100
AcDb2dVertex
 10
-61.22524382516774
 20
35.9509731434334
 30
0.0
  0
VERTEX
  5
451
330
44F
100
AcDbEntity
  8
STANDARDEBENE
 62
     7
100
AcDbVertex
100
AcDb2dVertex
 10
-49.35136989257698
 20
35.9509731434334
 30
0.0
  0
SEQEND
  5
452
330
44F
100
AcDbEntity
  8
STANDARDEBENE
  0
POLYLINE
  5
453
330
1F
100
AcDbEntity
  8
STANDARDEBENE
 62
     7
100
AcDb2dPolyline
 66
     1
 10
0.0
 20
0.0
 30
0.0
  0
VERTEX
  5
454
330
453
100
AcDbEntity
  8
STANDARDEBENE
 62
     7
100
AcDbVertex
100
AcDb2dVertex
 10
-61.22524382516774
 20
36.54249642847542
 30
0.0
  0
VERTEX
  5
455
330
453
100
AcDbEntity
  8
STANDARDEBENE
 62
     7
100
AcDbVertex
100
AcDb2dVertex
 10
-49.35136989257698
 20
36.54249642847542
 30
0.0
  0
SEQEND
  5
456
330
453
100
AcDbEntity
  8
STANDARDEBENE
  0
POLYLINE
  5
457
330
1F
100
AcDbEntity
  8
STANDARDEBENE
 62
     7
100
AcDb2dPolyline
 66
     1
 10
0.0
 20
0.0
 30
0.0
  0
VERTEX
  5
458
330
457
100
AcDbEntity
  8
STANDARDEBENE
 62
     7
100
AcDbVertex
100
AcDb2dVertex
 10
-63.23184101429253
 20
37.98719817327666
 30
0.0
  0
VERTEX
  5
459
330
457
100
AcDbEntity
  8
STANDARDEBENE
 62
     7
100
AcDbVertex
100
AcDb2dVertex
 10
-47.2545111421936
 20
37.98719817327666
 30
0.0
  0
SEQEND
  5
45A
330
457
100
AcDbEntity
  8
STANDARDEBENE
  0
POLYLINE
  5
45B
330
1F
100
AcDbEntity
  8
STANDARDEBENE
 62
     7
100
AcDb2dPolyline
 66
     1
 10
0.0
 20
0.0
 30
0.0
  0
VERTEX
  5
45C
330
45B
100
AcDbEntity
  8
STANDARDEBENE
 62
     7
100
AcDbVertex
100
AcDb2dVertex
 10
-63.23184101429253
 20
38.45917656611741
 30
0.0
  0
VERTEX
  5
45D
330
45B
100
AcDbEntity
  8
STANDARDEBENE
 62
     7
100
AcDbVertex
100
AcDb2dVertex
 10
-47.2545111421936
 20
38.45917656611741
 30
0.0
  0
SEQEND
  5
45E
330
45B
100
AcDbEntity
  8
STANDARDEBENE
  0
POLYLINE
  5
45F
330
1F
100
AcDbEntity
  8
STANDARDEBENE
 62
     7
100
AcDb2dPolyline
 66
     1
 10
0.0
 20
0.0
 30
0.0
  0
VERTEX
  5
460
330
45F
100
AcDbEntity
  8
STANDARDEBENE
 62
     7
100
AcDbVertex
100
AcDb2dVertex
 10
-63.23184101429253
 20
33.99656918534174
 30
0.0
  0
VERTEX
  5
461
330
45F
100
AcDbEntity
  8
STANDARDEBENE
 62
     7
100
AcDbVertex
100
AcDb2dVertex
 10
-47.2545111421936
 20
33.99656918534174
 30
0.0
  0
SEQEND
  5
462
330
45F
100
AcDbEntity
  8
STANDARDEBENE
  0
POLYLINE
  5
463
330
1F
100
AcDbEntity
  8
STANDARDEBENE
 62
     7
100
AcDb2dPolyline
 66
     1
 10
0.0
 20
0.0
 30
0.0
  0
VERTEX
  5
464
330
463
100
AcDbEntity
  8
STANDARDEBENE
 62
     7
100
AcDbVertex
100
AcDb2dVertex
 10
-63.23184101429253
 20
34.46820306840669
 30
0.0
  0
VERTEX
  5
465
330
463
100
AcDbEntity
  8
STANDARDEBENE
 62
     7
100
AcDbVertex
100
AcDb2dVertex
 10
-47.2545111421936
 20
34.46820306840669
 30
0.0
  0
SEQEND
  5
466
330
463
100
AcDbEntity
  8
STANDARDEBENE
  0
POLYLINE
  5
467
330
1F
100
AcDbEntity
  8
STANDARDEBENE
 62
     7
100
AcDb2dPolyline
 66
     1
 10
0.0
 20
0.0
 30
0.0
  0
VERTEX
  5
468
330
467
100
AcDbEntity
  8
STANDARDEBENE
 62
     7
100
AcDbVertex
100
AcDb2dVertex
 10
-63.23184101429253
 20
30.00594019740682
 30
0.0
  0
VERTEX
  5
469
330
467
100
AcDbEntity
  8
STANDARDEBENE
 62
     7
100
AcDbVertex
100
AcDb2dVertex
 10
-47.2545111421936
 20
30.00594019740682
 30
0.0
  0
SEQEND
  5
46A
330
467
100
AcDbEntity
  8
STANDARDEBENE
  0
POLYLINE
  5
46B
330
1F
100
AcDbEntity
  8
STANDARDEBENE
 62
     7
100
AcDb2dPolyline
 66
     1
 10
0.0
 20
0.0
 30
0.0
  0
VERTEX
  5
46C
330
46B
100
AcDbEntity
  8
STANDARDEBENE
 62
     7
100
AcDbVertex
100
AcDb2dVertex
 10
-63.23184101429253
 20
30.47757408047177
 30
0.0
  0
VERTEX
  5
46D
330
46B
100
AcDbEntity
  8
STANDARDEBENE
 62
     7
100
AcDbVertex
100
AcDb2dVertex
 10
-47.2545111421936
 20
30.47757408047177
 30
0.0
  0
SEQEND
  5
46E
330
46B
100
AcDbEntity
  8
STANDARDEBENE
  0
POLYLINE
  5
46F
330
1F
100
AcDbEntity
  8
STANDARDEBENE
 62
     7
100
AcDb2dPolyline
 66
     1
 10
0.0
 20
0.0
 30
0.0
  0
VERTEX
  5
470
330
46F
100
AcDbEntity
  8
STANDARDEBENE
 62
     7
100
AcDbVertex
100
AcDb2dVertex
 10
-63.23184101429253
 20
26.0149666996961
 30
0.0
  0
VERTEX
  5
471
330
46F
100
AcDbEntity
  8
STANDARDEBENE
 62
     7
100
AcDbVertex
100
AcDb2dVertex
 10
-47.2545111421936
 20
26.0149666996961
 30
0.0
  0
SEQEND
  5
472
330
46F
100
AcDbEntity
  8
STANDARDEBENE
  0
POLYLINE
  5
473
330
1F
100
AcDbEntity
  8
STANDARDEBENE
 62
     7
100
AcDb2dPolyline
 66
     1
 10
0.0
 20
0.0
 30
0.0
  0
VERTEX
  5
474
330
473
100
AcDbEntity
  8
STANDARDEBENE
 62
     7
100
AcDbVertex
100
AcDb2dVertex
 10
-63.23184101429253
 20
26.48694509253685
 30
0.0
  0
VERTEX
  5
475
330
473
100
AcDbEntity
  8
STANDARDEBENE
 62
     7
100
AcDbVertex
100
AcDb2dVertex
 10
-47.2545111421936
 20
26.48694509253685
 30
0.0
  0
SEQEND
  5
476
330
473
100
AcDbEntity
  8
STANDARDEBENE
  0
POLYLINE
  5
477
330
1F
100
AcDbEntity
  8
STANDARDEBENE
 62
     7
100
AcDb2dPolyline
 66
     1
 10
0.0
 20
0.0
 30
0.0
  0
VERTEX
  5
478
330
477
100
AcDbEntity
  8
STANDARDEBENE
 62
     7
100
AcDbVertex
100
AcDb2dVertex
 10
-63.23184101429253
 20
22.02433771176118
 30
0.0
  0
VERTEX
  5
479
330
477
100
AcDbEntity
  8
STANDARDEBENE
 62
     7
100
AcDbVertex
100
AcDb2dVertex
 10
-47.2545111421936
 20
22.02433771176118
 30
0.0
  0
SEQEND
  5
47A
330
477
100
AcDbEntity
  8
STANDARDEBENE
  0
POLYLINE
  5
47B
330
1F
100
AcDbEntity
  8
STANDARDEBENE
 62
     7
100
AcDb2dPolyline
 66
     1
 10
0.0
 20
0.0
 30
0.0
  0
VERTEX
  5
47C
330
47B
100
AcDbEntity
  8
STANDARDEBENE
 62
     7
100
AcDbVertex
100
AcDb2dVertex
 10
-63.23184101429253
 20
22.49597159482613
 30
0.0
  0
VERTEX
  5
47D
330
47B
100
AcDbEntity
  8
STANDARDEBENE
 62
     7
100
AcDbVertex
100
AcDb2dVertex
 10
-47.2545111421936
 20
22.49597159482613
 30
0.0
  0
SEQEND
  5
47E
330
47B
100
AcDbEntity
  8
STANDARDEBENE
  0
POLYLINE
  5
47F
330
1F
100
AcDbEntity
  8
STANDARDEBENE
 62
     7
100
AcDb2dPolyline
 66
     1
 10
0.0
 20
0.0
 30
0.0
  0
VERTEX
  5
480
330
47F
100
AcDbEntity
  8
STANDARDEBENE
 62
     7
100
AcDbVertex
100
AcDb2dVertex
 10
-63.23184101429253
 20
18.03336421405046
 30
0.0
  0
VERTEX
  5
481
330
47F
100
AcDbEntity
  8
STANDARDEBENE
 62
     7
100
AcDbVertex
100
AcDb2dVertex
 10
-47.2545111421936
 20
18.03336421405046
 30
0.0
  0
SEQEND
  5
482
330
47F
100
AcDbEntity
  8
STANDARDEBENE
  0
POLYLINE
  5
483
330
1F
100
AcDbEntity
  8
STANDARDEBENE
 62
     7
100
AcDb2dPolyline
 66
     1
 10
0.0
 20
0.0
 30
0.0
  0
VERTEX
  5
484
330
483
100
AcDbEntity
  8
STANDARDEBENE
 62
     7
100
AcDbVertex
100
AcDb2dVertex
 10
-63.23184101429253
 20
18.50534260689121
 30
0.0
  0
VERTEX
  5
485
330
483
100
AcDbEntity
  8
STANDARDEBENE
 62
     7
100
AcDbVertex
100
AcDb2dVertex
 10
-47.2545111421936
 20
18.50534260689121
 30
0.0
  0
SEQEND
  5
486
330
483
100
AcDbEntity
  8
STANDARDEBENE
  0
POLYLINE
  5
487
330
1F
100
AcDbEntity
  8
STANDARDEBENE
 62
     7
100
AcDb2dPolyline
 66
     1
 10
0.0
 20
0.0
 30
0.0
  0
VERTEX
  5
488
330
487
100
AcDbEntity
  8
STANDARDEBENE
 62
     7
100
AcDbVertex
100
AcDb2dVertex
 10
-63.23184101429253
 20
14.01259062073337
 30
0.0
  0
VERTEX
  5
489
330
487
100
AcDbEntity
  8
STANDARDEBENE
 62
     7
100
AcDbVertex
100
AcDb2dVertex
 10
-47.2545111421936
 20
14.01259062073337
 30
0.0
  0
SEQEND
  5
48A
330
487
100
AcDbEntity
  8
STANDARDEBENE
  0
POLYLINE
  5
48B
330
1F
100
AcDbEntity
  8
STANDARDEBENE
 62
     7
100
AcDb2dPolyline
 66
     1
 10
0.0
 20
0.0
 30
0.0
  0
VERTEX
  5
48C
330
48B
100
AcDbEntity
  8
STANDARDEBENE
 62
     7
100
AcDbVertex
100
AcDb2dVertex
 10
-63.23184101429253
 20
14.48456901357412
 30
0.0
  0
VERTEX
  5
48D
330
48B
100
AcDbEntity
  8
STANDARDEBENE
 62
     7
100
AcDbVertex
100
AcDb2dVertex
 10
-47.2545111421936
 20
14.48456901357412
 30
0.0
  0
SEQEND
  5
48E
330
48B
100
AcDbEntity
  8
STANDARDEBENE
  0
POLYLINE
  5
48F
330
1F
100
AcDbEntity
  8
STANDARDEBENE
 62
     7
100
AcDb2dPolyline
 66
     1
 10
0.0
 20
0.0
 30
0.0
  0
VERTEX
  5
490
330
48F
100
AcDbEntity
  8
STANDARDEBENE
 62
     7
100
AcDbVertex
100
AcDb2dVertex
 10
-63.23184101429253
 20
9.991817027416285
 30
0.0
  0
VERTEX
  5
491
330
48F
100
AcDbEntity
  8
STANDARDEBENE
 62
     7
100
AcDbVertex
100
AcDb2dVertex
 10
-47.2545111421936
 20
9.991817027416285
 30
0.0
  0
SEQEND
  5
492
330
48F
100
AcDbEntity
  8
STANDARDEBENE
  0
POLYLINE
  5
493
330
1F
100
AcDbEntity
  8
STANDARDEBENE
 62
     7
100
AcDb2dPolyline
 66
     1
 10
0.0
 20
0.0
 30
0.0
  0
VERTEX
  5
494
330
493
100
AcDbEntity
  8
STANDARDEBENE
 62
     7
100
AcDbVertex
100
AcDb2dVertex
 10
-63.23184101429253
 20
10.46379542025704
 30
0.0
  0
VERTEX
  5
495
330
493
100
AcDbEntity
  8
STANDARDEBENE
 62
     7
100
AcDbVertex
100
AcDb2dVertex
 10
-47.2545111421936
 20
10.46379542025704
 30
0.0
  0
SEQEND
  5
496
330
493
100
AcDbEntity
  8
STANDARDEBENE
  0
POLYLINE
  5
497
330
1F
100
AcDbEntity
  8
STANDARDEBENE
 62
     7
100
AcDb2dPolyline
 66
     1
 10
0.0
 20
0.0
 30
0.0
  0
VERTEX
  5
498
330
497
100
AcDbEntity
  8
STANDARDEBENE
 62
     7
100
AcDbVertex
100
AcDb2dVertex
 10
-63.23184101429253
 20
6.001188039481363
 30
0.0
  0
VERTEX
  5
499
330
497
100
AcDbEntity
  8
STANDARDEBENE
 62
     7
100
AcDbVertex
100
AcDb2dVertex
 10
-47.2545111421936
 20
6.001188039481363
 30
0.0
  0
SEQEND
  5
49A
330
497
100
AcDbEntity
  8
STANDARDEBENE
  0
POLYLINE
  5
49B
330
1F
100
AcDbEntity
  8
STANDARDEBENE
 62
     7
100
AcDb2dPolyline
 66
     1
 10
0.0
 20
0.0
 30
0.0
  0
VERTEX
  5
49C
330
49B
100
AcDbEntity
  8
STANDARDEBENE
 62
     7
100
AcDbVertex
100
AcDb2dVertex
 10
-63.23184101429253
 20
6.472821922546318
 30
0.0
  0
VERTEX
  5
49D
330
49B
100
AcDbEntity
  8
STANDARDEBENE
 62
     7
100
AcDbVertex
100
AcDb2dVertex
 10
-47.2545111421936
 20
6.472821922546318
 30
0.0
  0
SEQEND
  5
49E
330
49B
100
AcDbEntity
  8
STANDARDEBENE
  0
POLYLINE
  5
49F
330
1F
100
AcDbEntity
  8
STANDARDEBENE
 62
     7
100
AcDb2dPolyline
 66
     1
 10
0.0
 20
0.0
 30
0.0
  0
VERTEX
  5
4A0
330
49F
100
AcDbEntity
  8
STANDARDEBENE
 62
     7
100
AcDbVertex
100
AcDb2dVertex
 10
-59.99413814136013
 20
1.946652488136252
 30
0.0
  0
VERTEX
  5
4A1
330
49F
100
AcDbEntity
  8
STANDARDEBENE
 62
     7
100
AcDbVertex
100
AcDb2dVertex
 10
-61.54253732867601
 20
1.946652488136252
 30
0.0
  0
VERTEX
  5
4A2
330
49F
100
AcDbEntity
  8
STANDARDEBENE
 62
     7
100
AcDbVertex
100
AcDb2dVertex
 10
-62.95812799742247
 20
1.946652488136252
 30
0.0
  0
VERTEX
  5
4A3
330
49F
100
AcDbEntity
  8
STANDARDEBENE
 62
     7
100
AcDbVertex
100
AcDb2dVertex
 10
-64.21093779710523
 20
1.946652488136252
 30
0.0
  0
VERTEX
  5
4A4
330
49F
100
AcDbEntity
  8
STANDARDEBENE
 62
     7
100
AcDbVertex
100
AcDb2dVertex
 10
-65.27426722010011
 20
1.946652488136252
 30
0.0
  0
VERTEX
  5
4A5
330
49F
100
AcDbEntity
  8
STANDARDEBENE
 62
     7
100
AcDbVertex
100
AcDb2dVertex
 10
-66.12572313098035
 20
1.946652488136252
 30
0.0
  0
VERTEX
  5
4A6
330
49F
100
AcDbEntity
  8
STANDARDEBENE
 62
     7
100
AcDbVertex
100
AcDb2dVertex
 10
-66.74773553118033
 20
1.946652488136252
 30
0.0
  0
VERTEX
  5
4A7
330
49F
100
AcDbEntity
  8
STANDARDEBENE
 62
     7
100
AcDbVertex
100
AcDb2dVertex
 10
-67.12617951989242
 20
1.946652488136252
 30
0.0
  0
VERTEX
  5
4A8
330
49F
100
AcDbEntity
  8
STANDARDEBENE
 62
     7
100
AcDbVertex
100
AcDb2dVertex
 10
-67.2529591173854
 20
1.946652488136252
 30
0.0
  0
SEQEND
  5
4A9
330
49F
100
AcDbEntity
  8
STANDARDEBENE
  0
POLYLINE
  5
4AA
330
1F
100
AcDbEntity
  8
STANDARDEBENE
 62
     7
100
AcDb2dPolyline
 66
     1
 10
0.0
 20
0.0
 30
0.0
  0
VERTEX
  5
4AB
330
4AA
100
AcDbEntity
  8
STANDARDEBENE
 62
     7
100
AcDbVertex
100
AcDb2dVertex
 10
-43.32451587479881
 20
1.946652488136252
 30
0.0
  0
VERTEX
  5
4AC
330
4AA
100
AcDbEntity
  8
STANDARDEBENE
 62
     7
100
AcDbVertex
100
AcDb2dVertex
 10
-43.4514677271797
 20
1.946652488136252
 30
0.0
  0
VERTEX
  5
4AD
330
4AA
100
AcDbEntity
  8
STANDARDEBENE
 62
     7
100
AcDbVertex
100
AcDb2dVertex
 10
-43.82939495122809
 20
1.946652488136252
 30
0.0
  0
VERTEX
  5
4AE
330
4AA
100
AcDbEntity
  8
STANDARDEBENE
 62
     7
100
AcDbVertex
100
AcDb2dVertex
 10
-44.45106284165228
 20
1.946652488136252
 30
0.0
  0
VERTEX
  5
4AF
330
4AA
100
AcDbEntity
  8
STANDARDEBENE
 62
     7
100
AcDbVertex
100
AcDb2dVertex
 10
-45.30269100742041
 20
1.946652488136252
 30
0.0
  0
VERTEX
  5
4B0
330
4AA
100
AcDbEntity
  8
STANDARDEBENE
 62
     7
100
AcDbVertex
100
AcDb2dVertex
 10
-46.36619268530318
 20
1.946652488136252
 30
0.0
  0
VERTEX
  5
4B1
330
4AA
100
AcDbEntity
  8
STANDARDEBENE
 62
     7
100
AcDbVertex
100
AcDb2dVertex
 10
-47.61900248498595
 20
1.946652488136252
 30
0.0
  0
VERTEX
  5
4B2
330
4AA
100
AcDbEntity
  8
STANDARDEBENE
 62
     7
100
AcDbVertex
100
AcDb2dVertex
 10
-49.03442089884451
 20
1.946652488136252
 30
0.0
  0
VERTEX
  5
4B3
330
4AA
100
AcDbEntity
  8
STANDARDEBENE
 62
     7
100
AcDbVertex
100
AcDb2dVertex
 10
-50.58299234104829
 20
1.946652488136252
 30
0.0
  0
SEQEND
  5
4B4
330
4AA
100
AcDbEntity
  8
STANDARDEBENE
  0
POLYLINE
  5
4B5
330
1F
100
AcDbEntity
  8
STANDARDEBENE
 62
     7
100
AcDb2dPolyline
 66
     1
 10
0.0
 20
0.0
 30
0.0
  0
VERTEX
  5
4B6
330
4B5
100
AcDbEntity
  8
STANDARDEBENE
 62
     7
100
AcDbVertex
100
AcDb2dVertex
 10
-61.22524382516774
 20
39.95038713065113
 30
0.0
  0
VERTEX
  5
4B7
330
4B5
100
AcDbEntity
  8
STANDARDEBENE
 62
     7
100
AcDbVertex
100
AcDb2dVertex
 10
-49.35136989257698
 20
39.95038713065113
 30
0.0
  0
SEQEND
  5
4B8
330
4B5
100
AcDbEntity
  8
STANDARDEBENE
  0
POLYLINE
  5
4B9
330
1F
100
AcDbEntity
  8
STANDARDEBENE
 62
     7
100
AcDb2dPolyline
 66
     1
 10
0.0
 20
0.0
 30
0.0
  0
VERTEX
  5
4BA
330
4B9
100
AcDbEntity
  8
STANDARDEBENE
 62
     7
100
AcDbVertex
100
AcDb2dVertex
 10
-83.28885565136967
 20
65.94640579267843
 30
0.0
  0
VERTEX
  5
4BB
330
4B9
100
AcDbEntity
  8
STANDARDEBENE
 62
     7
100
AcDbVertex
100
AcDb2dVertex
 10
-83.18205762087287
 20
65.94640579267843
 30
0.0
  0
VERTEX
  5
4BC
330
4B9
100
AcDbEntity
  8
STANDARDEBENE
 62
     7
100
AcDbVertex
100
AcDb2dVertex
 10
-82.86321382337351
 20
65.94640579267843
 30
0.0
  0
VERTEX
  5
4BD
330
4B9
100
AcDbEntity
  8
STANDARDEBENE
 62
     7
100
AcDbVertex
100
AcDb2dVertex
 10
-82.3345635724143
 20
65.94640579267843
 30
0.0
  0
VERTEX
  5
4BE
330
4B9
100
AcDbEntity
  8
STANDARDEBENE
 62
     7
100
AcDbVertex
100
AcDb2dVertex
 10
-81.59989647552896
 20
65.94640579267843
 30
0.0
  0
VERTEX
  5
4BF
330
4B9
100
AcDbEntity
  8
STANDARDEBENE
 62
     7
100
AcDbVertex
100
AcDb2dVertex
 10
-80.66524145379395
 20
65.94640579267843
 30
0.0
  0
VERTEX
  5
4C0
330
4B9
100
AcDbEntity
  8
STANDARDEBENE
 62
     7
100
AcDbVertex
100
AcDb2dVertex
 10
-79.5371441929494
 20
65.94640579267843
 30
0.0
  0
VERTEX
  5
4C1
330
4B9
100
AcDbEntity
  8
STANDARDEBENE
 62
     7
100
AcDbVertex
100
AcDb2dVertex
 10
-78.224561947166
 20
65.94640579267843
 30
0.0
  0
VERTEX
  5
4C2
330
4B9
100
AcDbEntity
  8
STANDARDEBENE
 62
     7
100
AcDbVertex
100
AcDb2dVertex
 10
-76.73783000971763
 20
65.94640579267843
 30
0.0
  0
VERTEX
  5
4C3
330
4B9
100
AcDbEntity
  8
STANDARDEBENE
 62
     7
100
AcDbVertex
100
AcDb2dVertex
 10
-75.08745592876608
 20
65.94640579267843
 30
0.0
  0
VERTEX
  5
4C4
330
4B9
100
AcDbEntity
  8
STANDARDEBENE
 62
     7
100
AcDbVertex
100
AcDb2dVertex
 10
-73.28653107579161
 20
65.94640579267843
 30
0.0
  0
VERTEX
  5
4C5
330
4B9
100
AcDbEntity
  8
STANDARDEBENE
 62
     7
100
AcDbVertex
100
AcDb2dVertex
 10
-71.34849133205026
 20
65.94640579267843
 30
0.0
  0
VERTEX
  5
4C6
330
4B9
100
AcDbEntity
  8
STANDARDEBENE
 62
     7
100
AcDbVertex
100
AcDb2dVertex
 10
-69.28832287278917
 20
65.94640579267843
 30
0.0
  0
VERTEX
  5
4C7
330
4B9
100
AcDbEntity
  8
STANDARDEBENE
 62
     7
100
AcDbVertex
100
AcDb2dVertex
 10
-67.12204540258287
 20
65.94640579267843
 30
0.0
  0
VERTEX
  5
4C8
330
4B9
100
AcDbEntity
  8
STANDARDEBENE
 62
     7
100
AcDbVertex
100
AcDb2dVertex
 10
-64.86481735156636
 20
65.94640579267843
 30
0.0
  0
VERTEX
  5
4C9
330
4B9
100
AcDbEntity
  8
STANDARDEBENE
 62
     7
100
AcDbVertex
100
AcDb2dVertex
 10
-62.53506999274477
 20
65.94640579267843
 30
0.0
  0
VERTEX
  5
4CA
330
4B9
100
AcDbEntity
  8
STANDARDEBENE
 62
     7
100
AcDbVertex
100
AcDb2dVertex
 10
-60.15037332468369
 20
65.94640579267843
 30
0.0
  0
VERTEX
  5
4CB
330
4B9
100
AcDbEntity
  8
STANDARDEBENE
 62
     7
100
AcDbVertex
100
AcDb2dVertex
 10
-57.72846960083663
 20
65.94640579267843
 30
0.0
  0
VERTEX
  5
4CC
330
4B9
100
AcDbEntity
  8
STANDARDEBENE
 62
     7
100
AcDbVertex
100
AcDb2dVertex
 10
-55.28882362353605
 20
65.94640579267843
 30
0.0
  0
VERTEX
  5
4CD
330
4B9
100
AcDbEntity
  8
STANDARDEBENE
 62
     7
100
AcDbVertex
100
AcDb2dVertex
 10
-52.848316371796
 20
65.94640579267843
 30
0.0
  0
VERTEX
  5
4CE
330
4B9
100
AcDbEntity
  8
STANDARDEBENE
 62
     7
100
AcDbVertex
100
AcDb2dVertex
 10
-50.42641264794893
 20
65.94640579267843
 30
0.0
  0
VERTEX
  5
4CF
330
4B9
100
AcDbEntity
  8
STANDARDEBENE
 62
     7
100
AcDbVertex
100
AcDb2dVertex
 10
-48.04154372499995
 20
65.94640579267843
 30
0.0
  0
VERTEX
  5
4D0
330
4B9
100
AcDbEntity
  8
STANDARDEBENE
 62
     7
100
AcDbVertex
100
AcDb2dVertex
 10
-45.71196862106626
 20
65.94640579267843
 30
0.0
  0
VERTEX
  5
4D1
330
4B9
100
AcDbEntity
  8
STANDARDEBENE
 62
     7
100
AcDbVertex
100
AcDb2dVertex
 10
-43.45525733471345
 20
65.94640579267843
 30
0.0
  0
VERTEX
  5
4D2
330
4B9
100
AcDbEntity
  8
STANDARDEBENE
 62
     7
100
AcDbVertex
100
AcDb2dVertex
 10
-41.28846309984345
 20
65.94640579267843
 30
0.0
  0
VERTEX
  5
4D3
330
4B9
100
AcDbEntity
  8
STANDARDEBENE
 62
     7
100
AcDbVertex
100
AcDb2dVertex
 10
-39.22829464058236
 20
65.94640579267843
 30
0.0
  0
VERTEX
  5
4D4
330
4B9
100
AcDbEntity
  8
STANDARDEBENE
 62
     7
100
AcDbVertex
100
AcDb2dVertex
 10
-37.29059940661681
 20
65.94640579267843
 30
0.0
  0
VERTEX
  5
4D5
330
4B9
100
AcDbEntity
  8
STANDARDEBENE
 62
     7
100
AcDbVertex
100
AcDb2dVertex
 10
-35.48950229875444
 20
65.94640579267843
 30
0.0
  0
VERTEX
  5
4D6
330
4B9
100
AcDbEntity
  8
STANDARDEBENE
 62
     7
100
AcDbVertex
100
AcDb2dVertex
 10
-33.83930047269079
 20
65.94640579267843
 30
0.0
  0
VERTEX
  5
4D7
330
4B9
100
AcDbEntity
  8
STANDARDEBENE
 62
     7
100
AcDbVertex
100
AcDb2dVertex
 10
-32.35222402546663
 20
65.94640579267843
 30
0.0
  0
VERTEX
  5
4D8
330
4B9
100
AcDbEntity
  8
STANDARDEBENE
 62
     7
100
AcDbVertex
100
AcDb2dVertex
 10
-31.03964177968322
 20
65.94640579267843
 30
0.0
  0
VERTEX
  5
4D9
330
4B9
100
AcDbEntity
  8
STANDARDEBENE
 62
     7
100
AcDbVertex
100
AcDb2dVertex
 10
-29.91154451883867
 20
65.94640579267843
 30
0.0
  0
VERTEX
  5
4DA
330
4B9
100
AcDbEntity
  8
STANDARDEBENE
 62
     7
100
AcDbVertex
100
AcDb2dVertex
 10
-28.97706175199156
 20
65.94640579267843
 30
0.0
  0
VERTEX
  5
4DB
330
4B9
100
AcDbEntity
  8
STANDARDEBENE
 62
     7
100
AcDbVertex
100
AcDb2dVertex
 10
-28.24222240021833
 20
65.94640579267843
 30
0.0
  0
VERTEX
  5
4DC
330
4B9
100
AcDbEntity
  8
STANDARDEBENE
 62
     7
100
AcDbVertex
100
AcDb2dVertex
 10
-27.71357214925911
 20
65.94640579267843
 30
0.0
  0
VERTEX
  5
4DD
330
4B9
100
AcDbEntity
  8
STANDARDEBENE
 62
     7
100
AcDbVertex
100
AcDb2dVertex
 10
-27.39541737131135
 20
65.94640579267843
 30
0.0
  0
VERTEX
  5
4DE
330
4B9
100
AcDbEntity
  8
STANDARDEBENE
 62
     7
100
AcDbVertex
100
AcDb2dVertex
 10
-27.28896385059033
 20
65.94640579267843
 30
0.0
  0
SEQEND
  5
4DF
330
4B9
100
AcDbEntity
  8
STANDARDEBENE
  0
POLYLINE
  5
4E0
330
1F
100
AcDbEntity
  8
STANDARDEBENE
 62
     7
100
AcDb2dPolyline
 66
     1
 10
0.0
 20
0.0
 30
0.0
  0
VERTEX
  5
4E1
330
4E0
100
AcDbEntity
  8
STANDARDEBENE
 62
     7
100
AcDbVertex
100
AcDb2dVertex
 10
-84.28827851095437
 20
50.44622196005721
 30
0.0
  0
VERTEX
  5
4E2
330
4E0
100
AcDbEntity
  8
STANDARDEBENE
 62
     7
100
AcDbVertex
100
AcDb2dVertex
 10
-84.18406430377603
 20
50.44622196005721
 30
0.0
  0
VERTEX
  5
4E3
330
4E0
100
AcDbEntity
  8
STANDARDEBENE
 62
     7
100
AcDbVertex
100
AcDb2dVertex
 10
-83.8710771724652
 20
50.44622196005721
 30
0.0
  0
VERTEX
  5
4E4
330
4E0
100
AcDbEntity
  8
STANDARDEBENE
 62
     7
100
AcDbVertex
100
AcDb2dVertex
 10
-83.35276221477987
 20
50.44622196005721
 30
0.0
  0
VERTEX
  5
4E5
330
4E0
100
AcDbEntity
  8
STANDARDEBENE
 62
     7
100
AcDbVertex
100
AcDb2dVertex
 10
-82.63239227359009
 20
50.44622196005721
 30
0.0
  0
VERTEX
  5
4E6
330
4E0
100
AcDbEntity
  8
STANDARDEBENE
 62
     7
100
AcDbVertex
100
AcDb2dVertex
 10
-81.71392921131749
 20
50.44622196005721
 30
0.0
  0
VERTEX
  5
4E7
330
4E0
100
AcDbEntity
  8
STANDARDEBENE
 62
     7
100
AcDbVertex
100
AcDb2dVertex
 10
-80.60581351746912
 20
50.44622196005721
 30
0.0
  0
VERTEX
  5
4E8
330
4E0
100
AcDbEntity
  8
STANDARDEBENE
 62
     7
100
AcDbVertex
100
AcDb2dVertex
 10
-79.31545215222457
 20
50.44622196005721
 30
0.0
  0
VERTEX
  5
4E9
330
4E0
100
AcDbEntity
  8
STANDARDEBENE
 62
     7
100
AcDbVertex
100
AcDb2dVertex
 10
-77.85163011486664
 20
50.44622196005721
 30
0.0
  0
VERTEX
  5
4EA
330
4E0
100
AcDbEntity
  8
STANDARDEBENE
 62
     7
100
AcDbVertex
100
AcDb2dVertex
 10
-76.22519946333293
 20
50.44622196005721
 30
0.0
  0
VERTEX
  5
4EB
330
4E0
100
AcDbEntity
  8
STANDARDEBENE
 62
     7
100
AcDbVertex
100
AcDb2dVertex
 10
-74.44787353000049
 20
50.44622196005721
 30
0.0
  0
VERTEX
  5
4EC
330
4E0
100
AcDbEntity
  8
STANDARDEBENE
 62
     7
100
AcDbVertex
100
AcDb2dVertex
 10
-72.53308819612539
 20
50.44622196005721
 30
0.0
  0
VERTEX
  5
4ED
330
4E0
100
AcDbEntity
  8
STANDARDEBENE
 62
     7
100
AcDbVertex
100
AcDb2dVertex
 10
-70.49324581363628
 20
50.44622196005721
 30
0.0
  0
VERTEX
  5
4EE
330
4E0
100
AcDbEntity
  8
STANDARDEBENE
 62
     7
100
AcDbVertex
100
AcDb2dVertex
 10
-68.34471059688346
 20
50.44622196005721
 30
0.0
  0
VERTEX
  5
4EF
330
4E0
100
AcDbEntity
  8
STANDARDEBENE
 62
     7
100
AcDbVertex
100
AcDb2dVertex
 10
-66.10126293689882
 20
50.44622196005721
 30
0.0
  0
VERTEX
  5
4F0
330
4E0
100
AcDbEntity
  8
STANDARDEBENE
 62
     7
100
AcDbVertex
100
AcDb2dVertex
 10
-63.78030057736002
 20
50.44622196005721
 30
0.0
  0
VERTEX
  5
4F1
330
4E0
100
AcDbEntity
  8
STANDARDEBENE
 62
     7
100
AcDbVertex
100
AcDb2dVertex
 10
-61.39818773261742
 20
50.44622196005721
 30
0.0
  0
VERTEX
  5
4F2
330
4E0
100
AcDbEntity
  8
STANDARDEBENE
 62
     7
100
AcDbVertex
100
AcDb2dVertex
 10
-58.971805381685
 20
50.44622196005721
 30
0.0
  0
VERTEX
  5
4F3
330
4E0
100
AcDbEntity
  8
STANDARDEBENE
 62
     7
100
AcDbVertex
100
AcDb2dVertex
 10
-56.51924028779207
 20
50.44622196005721
 30
0.0
  0
VERTEX
  5
4F4
330
4E0
100
AcDbEntity
  8
STANDARDEBENE
 62
     7
100
AcDbVertex
100
AcDb2dVertex
 10
-54.05789019461634
 20
50.44622196005721
 30
0.0
  0
VERTEX
  5
4F5
330
4E0
100
AcDbEntity
  8
STANDARDEBENE
 62
     7
100
AcDbVertex
100
AcDb2dVertex
 10
-51.60498059094762
 20
50.44622196005721
 30
0.0
  0
VERTEX
  5
4F6
330
4E0
100
AcDbEntity
  8
STANDARDEBENE
 62
     7
100
AcDbVertex
100
AcDb2dVertex
 10
-49.17877049490311
 20
50.44622196005721
 30
0.0
  0
VERTEX
  5
4F7
330
4E0
100
AcDbEntity
  8
STANDARDEBENE
 62
     7
100
AcDbVertex
100
AcDb2dVertex
 10
-46.79682990504839
 20
50.44622196005721
 30
0.0
  0
VERTEX
  5
4F8
330
4E0
100
AcDbEntity
  8
STANDARDEBENE
 62
     7
100
AcDbVertex
100
AcDb2dVertex
 10
-44.47552303573381
 20
50.44622196005721
 30
0.0
  0
VERTEX
  5
4F9
330
4E0
100
AcDbEntity
  8
STANDARDEBENE
 62
     7
100
AcDbVertex
100
AcDb2dVertex
 10
-42.23276439530075
 20
50.44622196005721
 30
0.0
  0
VERTEX
  5
4FA
330
4E0
100
AcDbEntity
  8
STANDARDEBENE
 62
     7
100
AcDbVertex
100
AcDb2dVertex
 10
-40.08371241388424
 20
50.44622196005721
 30
0.0
  0
VERTEX
  5
4FB
330
4E0
100
AcDbEntity
  8
STANDARDEBENE
 62
     7
100
AcDbVertex
100
AcDb2dVertex
 10
-38.04387003139513
 20
50.44622196005721
 30
0.0
  0
VERTEX
  5
4FC
330
4E0
100
AcDbEntity
  8
STANDARDEBENE
 62
     7
100
AcDbVertex
100
AcDb2dVertex
 10
-36.12908469752002
 20
50.44622196005721
 30
0.0
  0
VERTEX
  5
4FD
330
4E0
100
AcDbEntity
  8
STANDARDEBENE
 62
     7
100
AcDbVertex
100
AcDb2dVertex
 10
-34.35141425441179
 20
50.44622196005721
 30
0.0
  0
VERTEX
  5
4FE
330
4E0
100
AcDbEntity
  8
STANDARDEBENE
 62
     7
100
AcDbVertex
100
AcDb2dVertex
 10
-32.72550036754177
 20
50.44622196005721
 30
0.0
  0
VERTEX
  5
4FF
330
4E0
100
AcDbEntity
  8
STANDARDEBENE
 62
     7
100
AcDbVertex
100
AcDb2dVertex
 10
-31.26133382040805
 20
50.44622196005721
 30
0.0
  0
VERTEX
  5
500
330
4E0
100
AcDbEntity
  8
STANDARDEBENE
 62
     7
100
AcDbVertex
100
AcDb2dVertex
 10
-29.9711447100514
 20
50.44622196005721
 30
0.0
  0
VERTEX
  5
501
330
4E0
100
AcDbEntity
  8
STANDARDEBENE
 62
     7
100
AcDbVertex
100
AcDb2dVertex
 10
-28.86302901620303
 20
50.44622196005721
 30
0.0
  0
VERTEX
  5
502
330
4E0
100
AcDbEntity
  8
STANDARDEBENE
 62
     7
100
AcDbVertex
100
AcDb2dVertex
 10
-27.94542722836993
 20
50.44622196005721
 30
0.0
  0
VERTEX
  5
503
330
4E0
100
AcDbEntity
  8
STANDARDEBENE
 62
     7
100
AcDbVertex
100
AcDb2dVertex
 10
-27.22436826762855
 20
50.44622196005721
 30
0.0
  0
VERTEX
  5
504
330
4E0
100
AcDbEntity
  8
STANDARDEBENE
 62
     7
100
AcDbVertex
100
AcDb2dVertex
 10
-26.70570880016742
 20
50.44622196005721
 30
0.0
  0
VERTEX
  5
505
330
4E0
100
AcDbEntity
  8
STANDARDEBENE
 62
     7
100
AcDbVertex
100
AcDb2dVertex
 10
-26.39323843352029
 20
50.44622196005721
 30
0.0
  0
VERTEX
  5
506
330
4E0
100
AcDbEntity
  8
STANDARDEBENE
 62
     7
100
AcDbVertex
100
AcDb2dVertex
 10
-26.28833520679036
 20
50.44622196005721
 30
0.0
  0
SEQEND
  5
507
330
4E0
100
AcDbEntity
  8
STANDARDEBENE
  0
POLYLINE
  5
508
330
1F
100
AcDbEntity
  8
STANDARDEBENE
 62
     7
100
AcDb2dPolyline
 66
     1
 10
0.0
 20
0.0
 30
0.0
  0
VERTEX
  5
509
330
508
100
AcDbEntity
  8
STANDARDEBENE
 62
     7
100
AcDbVertex
100
AcDb2dVertex
 10
-26.28833520679036
 20
64.94698293309375
 30
0.0
  0
VERTEX
  5
50A
330
508
100
AcDbEntity
  8
STANDARDEBENE
 62
     7
100
AcDbVertex
100
AcDb2dVertex
 10
-26.39323843352029
 20
64.94698293309375
 30
0.0
  0
VERTEX
  5
50B
330
508
100
AcDbEntity
  8
STANDARDEBENE
 62
     7
100
AcDbVertex
100
AcDb2dVertex
 10
-26.70570880016742
 20
64.94698293309375
 30
0.0
  0
VERTEX
  5
50C
330
508
100
AcDbEntity
  8
STANDARDEBENE
 62
     7
100
AcDbVertex
100
AcDb2dVertex
 10
-27.22436826762855
 20
64.94698293309375
 30
0.0
  0
VERTEX
  5
50D
330
508
100
AcDbEntity
  8
STANDARDEBENE
 62
     7
100
AcDbVertex
100
AcDb2dVertex
 10
-27.94542722836993
 20
64.94698293309375
 30
0.0
  0
VERTEX
  5
50E
330
508
100
AcDbEntity
  8
STANDARDEBENE
 62
     7
100
AcDbVertex
100
AcDb2dVertex
 10
-28.86302901620303
 20
64.94698293309375
 30
0.0
  0
VERTEX
  5
50F
330
508
100
AcDbEntity
  8
STANDARDEBENE
 62
     7
100
AcDbVertex
100
AcDb2dVertex
 10
-29.9711447100514
 20
64.94698293309375
 30
0.0
  0
VERTEX
  5
510
330
508
100
AcDbEntity
  8
STANDARDEBENE
 62
     7
100
AcDbVertex
100
AcDb2dVertex
 10
-31.26133382040805
 20
64.94698293309375
 30
0.0
  0
VERTEX
  5
511
330
508
100
AcDbEntity
  8
STANDARDEBENE
 62
     7
100
AcDbVertex
100
AcDb2dVertex
 10
-32.72550036754177
 20
64.94698293309375
 30
0.0
  0
VERTEX
  5
512
330
508
100
AcDbEntity
  8
STANDARDEBENE
 62
     7
100
AcDbVertex
100
AcDb2dVertex
 10
-34.35141425441179
 20
64.94698293309375
 30
0.0
  0
VERTEX
  5
513
330
508
100
AcDbEntity
  8
STANDARDEBENE
 62
     7
100
AcDbVertex
100
AcDb2dVertex
 10
-36.12908469752002
 20
64.94698293309375
 30
0.0
  0
VERTEX
  5
514
330
508
100
AcDbEntity
  8
STANDARDEBENE
 62
     7
100
AcDbVertex
100
AcDb2dVertex
 10
-38.04387003139513
 20
64.94698293309375
 30
0.0
  0
VERTEX
  5
515
330
508
100
AcDbEntity
  8
STANDARDEBENE
 62
     7
100
AcDbVertex
100
AcDb2dVertex
 10
-40.08371241388424
 20
64.94698293309375
 30
0.0
  0
VERTEX
  5
516
330
508
100
AcDbEntity
  8
STANDARDEBENE
 62
     7
100
AcDbVertex
100
AcDb2dVertex
 10
-42.23276439530075
 20
64.94698293309375
 30
0.0
  0
VERTEX
  5
517
330
508
100
AcDbEntity
  8
STANDARDEBENE
 62
     7
100
AcDbVertex
100
AcDb2dVertex
 10
-44.47552303573381
 20
64.94698293309375
 30
0.0
  0
VERTEX
  5
518
330
508
100
AcDbEntity
  8
STANDARDEBENE
 62
     7
100
AcDbVertex
100
AcDb2dVertex
 10
-46.79682990504839
 20
64.94698293309375
 30
0.0
  0
VERTEX
  5
519
330
508
100
AcDbEntity
  8
STANDARDEBENE
 62
     7
100
AcDbVertex
100
AcDb2dVertex
 10
-49.17877049490311
 20
64.94698293309375
 30
0.0
  0
VERTEX
  5
51A
330
508
100
AcDbEntity
  8
STANDARDEBENE
 62
     7
100
AcDbVertex
100
AcDb2dVertex
 10
-51.60498059094762
 20
64.94698293309375
 30
0.0
  0
VERTEX
  5
51B
330
508
100
AcDbEntity
  8
STANDARDEBENE
 62
     7
100
AcDbVertex
100
AcDb2dVertex
 10
-54.05789019461634
 20
64.94698293309375
 30
0.0
  0
VERTEX
  5
51C
330
508
100
AcDbEntity
  8
STANDARDEBENE
 62
     7
100
AcDbVertex
100
AcDb2dVertex
 10
-56.51924028779207
 20
64.94698293309375
 30
0.0
  0
VERTEX
  5
51D
330
508
100
AcDbEntity
  8
STANDARDEBENE
 62
     7
100
AcDbVertex
100
AcDb2dVertex
 10
-58.971805381685
 20
64.94698293309375
 30
0.0
  0
VERTEX
  5
51E
330
508
100
AcDbEntity
  8
STANDARDEBENE
 62
     7
100
AcDbVertex
100
AcDb2dVertex
 10
-61.39818773261742
 20
64.94698293309375
 30
0.0
  0
VERTEX
  5
51F
330
508
100
AcDbEntity
  8
STANDARDEBENE
 62
     7
100
AcDbVertex
100
AcDb2dVertex
 10
-63.78030057736002
 20
64.94698293309375
 30
0.0
  0
VERTEX
  5
520
330
508
100
AcDbEntity
  8
STANDARDEBENE
 62
     7
100
AcDbVertex
100
AcDb2dVertex
 10
-66.10126293689882
 20
64.94698293309375
 30
0.0
  0
VERTEX
  5
521
330
508
100
AcDbEntity
  8
STANDARDEBENE
 62
     7
100
AcDbVertex
100
AcDb2dVertex
 10
-68.34471059688346
 20
64.94698293309375
 30
0.0
  0
VERTEX
  5
522
330
508
100
AcDbEntity
  8
STANDARDEBENE
 62
     7
100
AcDbVertex
100
AcDb2dVertex
 10
-70.49324581363628
 20
64.94698293309375
 30
0.0
  0
VERTEX
  5
523
330
508
100
AcDbEntity
  8
STANDARDEBENE
 62
     7
100
AcDbVertex
100
AcDb2dVertex
 10
-72.53308819612539
 20
64.94698293309375
 30
0.0
  0
VERTEX
  5
524
330
508
100
AcDbEntity
  8
STANDARDEBENE
 62
     7
100
AcDbVertex
100
AcDb2dVertex
 10
-74.44787353000049
 20
64.94698293309375
 30
0.0
  0
VERTEX
  5
525
330
508
100
AcDbEntity
  8
STANDARDEBENE
 62
     7
100
AcDbVertex
100
AcDb2dVertex
 10
-76.22519946333293
 20
64.94698293309375
 30
0.0
  0
VERTEX
  5
526
330
508
100
AcDbEntity
  8
STANDARDEBENE
 62
     7
100
AcDbVertex
100
AcDb2dVertex
 10
-77.85163011486664
 20
64.94698293309375
 30
0.0
  0
VERTEX
  5
527
330
508
100
AcDbEntity
  8
STANDARDEBENE
 62
     7
100
AcDbVertex
100
AcDb2dVertex
 10
-79.31545215222457
 20
64.94698293309375
 30
0.0
  0
VERTEX
  5
528
330
508
100
AcDbEntity
  8
STANDARDEBENE
 62
     7
100
AcDbVertex
100
AcDb2dVertex
 10
-80.60581351746912
 20
64.94698293309375
 30
0.0
  0
VERTEX
  5
529
330
508
100
AcDbEntity
  8
STANDARDEBENE
 62
     7
100
AcDbVertex
100
AcDb2dVertex
 10
-81.71392921131749
 20
64.94698293309375
 30
0.0
  0
VERTEX
  5
52A
330
508
100
AcDbEntity
  8
STANDARDEBENE
 62
     7
100
AcDbVertex
100
AcDb2dVertex
 10
-82.63239227359009
 20
64.94698293309375
 30
0.0
  0
VERTEX
  5
52B
330
508
100
AcDbEntity
  8
STANDARDEBENE
 62
     7
100
AcDbVertex
100
AcDb2dVertex
 10
-83.35276221477987
 20
64.94698293309375
 30
0.0
  0
VERTEX
  5
52C
330
508
100
AcDbEntity
  8
STANDARDEBENE
 62
     7
100
AcDbVertex
100
AcDb2dVertex
 10
-83.8710771724652
 20
64.94698293309375
 30
0.0
  0
VERTEX
  5
52D
330
508
100
AcDbEntity
  8
STANDARDEBENE
 62
     7
100
AcDbVertex
100
AcDb2dVertex
 10
-84.18406430377603
 20
64.94698293309375
 30
0.0
  0
VERTEX
  5
52E
330
508
100
AcDbEntity
  8
STANDARDEBENE
 62
     7
100
AcDbVertex
100
AcDb2dVertex
 10
-84.28827851095437
 20
64.94698293309375
 30
0.0
  0
SEQEND
  5
52F
330
508
100
AcDbEntity
  8
STANDARDEBENE
  0
POLYLINE
  5
530
330
1F
100
AcDbEntity
  8
STANDARDEBENE
 62
     7
100
AcDb2dPolyline
 66
     1
 10
0.0
 20
0.0
 30
0.0
  0
VERTEX
  5
531
330
530
100
AcDbEntity
  8
STANDARDEBENE
 62
     7
100
AcDbVertex
100
AcDb2dVertex
 10
-26.7883911463585
 20
49.94668278515276
 30
0.0
  0
VERTEX
  5
532
330
530
100
AcDbEntity
  8
STANDARDEBENE
 62
     7
100
AcDbVertex
100
AcDb2dVertex
 10
-26.89088280465786
 20
49.94668278515276
 30
0.0
  0
VERTEX
  5
533
330
530
100
AcDbEntity
  8
STANDARDEBENE
 62
     7
100
AcDbVertex
100
AcDb2dVertex
 10
-27.19801326978014
 20
49.94668278515276
 30
0.0
  0
VERTEX
  5
534
330
530
100
AcDbEntity
  8
STANDARDEBENE
 62
     7
100
AcDbVertex
100
AcDb2dVertex
 10
-27.70788773795847
 20
49.94668278515276
 30
0.0
  0
VERTEX
  5
535
330
530
100
AcDbEntity
  8
STANDARDEBENE
 62
     7
100
AcDbVertex
100
AcDb2dVertex
 10
-28.41671660165909
 20
49.94668278515276
 30
0.0
  0
VERTEX
  5
536
330
530
100
AcDbEntity
  8
STANDARDEBENE
 62
     7
100
AcDbVertex
100
AcDb2dVertex
 10
-29.31864319469346
 20
49.94668278515276
 30
0.0
  0
VERTEX
  5
537
330
530
100
AcDbEntity
  8
STANDARDEBENE
 62
     7
100
AcDbVertex
100
AcDb2dVertex
 10
-30.40763859598515
 20
49.94668278515276
 30
0.0
  0
VERTEX
  5
538
330
530
100
AcDbEntity
  8
STANDARDEBENE
 62
     7
100
AcDbVertex
100
AcDb2dVertex
 10
-31.67646810024244
 20
49.94668278515276
 30
0.0
  0
VERTEX
  5
539
330
530
100
AcDbEntity
  8
STANDARDEBENE
 62
     7
100
AcDbVertex
100
AcDb2dVertex
 10
-33.11462415930355
 20
49.94668278515276
 30
0.0
  0
VERTEX
  5
53A
330
530
100
AcDbEntity
  8
STANDARDEBENE
 62
     7
100
AcDbVertex
100
AcDb2dVertex
 10
-34.71280500922197
 20
49.94668278515276
 30
0.0
  0
VERTEX
  5
53B
330
530
100
AcDbEntity
  8
STANDARDEBENE
 62
     7
100
AcDbVertex
100
AcDb2dVertex
 10
-36.45981408228435
 20
49.94668278515276
 30
0.0
  0
VERTEX
  5
53C
330
530
100
AcDbEntity
  8
STANDARDEBENE
 62
     7
100
AcDbVertex
100
AcDb2dVertex
 10
-38.34169873257092
 20
49.94668278515276
 30
0.0
  0
VERTEX
  5
53D
330
530
100
AcDbEntity
  8
STANDARDEBENE
 62
     7
100
AcDbVertex
100
AcDb2dVertex
 10
-40.34553984348933
 20
49.94668278515276
 30
0.0
  0
VERTEX
  5
53E
330
530
100
AcDbEntity
  8
STANDARDEBENE
 62
     7
100
AcDbVertex
100
AcDb2dVertex
 10
-42.45790153378354
 20
49.94668278515276
 30
0.0
  0
VERTEX
  5
53F
330
530
100
AcDbEntity
  8
STANDARDEBENE
 62
     7
100
AcDbVertex
100
AcDb2dVertex
 10
-44.66190282443954
 20
49.94668278515276
 30
0.0
  0
VERTEX
  5
540
330
530
100
AcDbEntity
  8
STANDARDEBENE
 62
     7
100
AcDbVertex
100
AcDb2dVertex
 10
-46.94290204998597
 20
49.94668278515276
 30
0.0
  0
VERTEX
  5
541
330
530
100
AcDbEntity
  8
STANDARDEBENE
 62
     7
100
AcDbVertex
100
AcDb2dVertex
 10
-49.28401823140883
 20
49.94668278515276
 30
0.0
  0
VERTEX
  5
542
330
530
100
AcDbEntity
  8
STANDARDEBENE
 62
     7
100
AcDbVertex
100
AcDb2dVertex
 10
-51.66819813480622
 20
49.94668278515276
 30
0.0
  0
VERTEX
  5
543
330
530
100
AcDbEntity
  8
STANDARDEBENE
 62
     7
100
AcDbVertex
100
AcDb2dVertex
 10
-54.07890529093991
 20
49.94668278515276
 30
0.0
  0
VERTEX
  5
544
330
530
100
AcDbEntity
  8
STANDARDEBENE
 62
     7
100
AcDbVertex
100
AcDb2dVertex
 10
-56.49822519146851
 20
49.94668278515276
 30
0.0
  0
VERTEX
  5
545
330
530
100
AcDbEntity
  8
STANDARDEBENE
 62
     7
100
AcDbVertex
100
AcDb2dVertex
 10
-58.9085878378264
 20
49.94668278515276
 30
0.0
  0
VERTEX
  5
546
330
530
100
AcDbEntity
  8
STANDARDEBENE
 62
     7
100
AcDbVertex
100
AcDb2dVertex
 10
-61.29293999611168
 20
49.94668278515276
 30
0.0
  0
VERTEX
  5
547
330
530
100
AcDbEntity
  8
STANDARDEBENE
 62
     7
100
AcDbVertex
100
AcDb2dVertex
 10
-63.63371166775875
 20
49.94668278515276
 30
0.0
  0
VERTEX
  5
548
330
530
100
AcDbEntity
  8
STANDARDEBENE
 62
     7
100
AcDbVertex
100
AcDb2dVertex
 10
-65.91471089330518
 20
49.94668278515276
 30
0.0
  0
VERTEX
  5
549
330
530
100
AcDbEntity
  8
STANDARDEBENE
 62
     7
100
AcDbVertex
100
AcDb2dVertex
 10
-68.11922894862488
 20
49.94668278515276
 30
0.0
  0
VERTEX
  5
54A
330
530
100
AcDbEntity
  8
STANDARDEBENE
 62
     7
100
AcDbVertex
100
AcDb2dVertex
 10
-70.23141838403119
 20
49.94668278515276
 30
0.0
  0
VERTEX
  5
54B
330
530
100
AcDbEntity
  8
STANDARDEBENE
 62
     7
100
AcDbVertex
100
AcDb2dVertex
 10
-72.23577625961329
 20
49.94668278515276
 30
0.0
  0
VERTEX
  5
54C
330
530
100
AcDbEntity
  8
STANDARDEBENE
 62
     7
100
AcDbVertex
100
AcDb2dVertex
 10
-74.11748865501197
 20
49.94668278515276
 30
0.0
  0
VERTEX
  5
54D
330
530
100
AcDbEntity
  8
STANDARDEBENE
 62
     7
100
AcDbVertex
100
AcDb2dVertex
 10
-75.86415321829854
 20
49.94668278515276
 30
0.0
  0
VERTEX
  5
54E
330
530
100
AcDbEntity
  8
STANDARDEBENE
 62
     7
100
AcDbVertex
100
AcDb2dVertex
 10
-77.46267857799278
 20
49.94668278515276
 30
0.0
  0
VERTEX
  5
54F
330
530
100
AcDbEntity
  8
STANDARDEBENE
 62
     7
100
AcDbVertex
100
AcDb2dVertex
 10
-78.90135140171758
 20
49.94668278515276
 30
0.0
  0
VERTEX
  5
550
330
530
100
AcDbEntity
  8
STANDARDEBENE
 62
     7
100
AcDbVertex
100
AcDb2dVertex
 10
-80.16914737664747
 20
49.94668278515276
 30
0.0
  0
VERTEX
  5
551
330
530
100
AcDbEntity
  8
STANDARDEBENE
 62
     7
100
AcDbVertex
100
AcDb2dVertex
 10
-81.25848728771496
 20
49.94668278515276
 30
0.0
  0
VERTEX
  5
552
330
530
100
AcDbEntity
  8
STANDARDEBENE
 62
     7
100
AcDbVertex
100
AcDb2dVertex
 10
-82.16024162586143
 20
49.94668278515276
 30
0.0
  0
VERTEX
  5
553
330
530
100
AcDbEntity
  8
STANDARDEBENE
 62
     7
100
AcDbVertex
100
AcDb2dVertex
 10
-82.86855372489835
 20
49.94668278515276
 30
0.0
  0
VERTEX
  5
554
330
530
100
AcDbEntity
  8
STANDARDEBENE
 62
     7
100
AcDbVertex
100
AcDb2dVertex
 10
-83.37877270285247
 20
49.94668278515276
 30
0.0
  0
VERTEX
  5
555
330
530
100
AcDbEntity
  8
STANDARDEBENE
 62
     7
100
AcDbVertex
100
AcDb2dVertex
 10
-83.68607542286266
 20
49.94668278515276
 30
0.0
  0
VERTEX
  5
556
330
530
100
AcDbEntity
  8
STANDARDEBENE
 62
     7
100
AcDbVertex
100
AcDb2dVertex
 10
-83.78839482627413
 20
49.94668278515276
 30
0.0
  0
SEQEND
  5
557
330
530
100
AcDbEntity
  8
STANDARDEBENE
  0
SPLINE
  5
558
330
1F
100
AcDbEntity
  8
STANDARDEBENE
 62
     7
100
AcDbSpline
210
0.0
220
0.0
230
1.0
 70
     8
 71
     3
 72
     8
 73
     4
 74
     0
 42
0.0000000001
 43
0.0000000001
 40
0.0
 40
0.0
 40
0.0
 40
0.0
 40
1.0
 40
1.0
 40
1.0
 40
1.0
 10
-41.28846309984345
 20
-32.56599234134815
 30
0.0
 10
-43.52191997633001
 20
-31.27683676031888
 30
0.0
 10
-46.17016662287516
 20
-31.35848557718257
 30
0.0
 10
-48.29234684177956
 20
-32.56840390977872
 30
0.0
  0
SPLINE
  5
559
330
1F
100
AcDbEntity
  8
STANDARDEBENE
 62
     7
100
AcDbSpline
210
0.0
220
0.0
230
1.0
 70
    11
 71
     3
 72
    17
 73
    13
 74
     0
 42
0.0000000001
 43
0.0000000001
 40
0.0
 40
0.0
 40
0.0
 40
0.0
 40
1.0
 40
1.0
 40
1.0
 40
2.0
 40
2.0
 40
2.0
 40
3.0
 40
3.0
 40
3.0
 40
4.0
 40
4.0
 40
4.0
 40
4.0
 10
-27.28896385059033
 20
-56.81500193031308
 30
0.0
 10
-27.28896385059033
 20
-41.35168064370205
 30
0.0
 10
-39.82464106248553
 20
-28.81462539270366
 30
0.0
 10
-55.28882362353605
 20
-28.81462539270366
 30
0.0
 10
-70.7521449101471
 20
-28.81462539270366
 30
0.0
 10
-83.28885565136967
 20
-41.35168064370205
 30
0.0
 10
-83.28885565136967
 20
-56.81500193031308
 30
0.0
 10
-83.28885565136967
 20
-72.27866772669992
 30
0.0
 10
-70.7521449101471
 20
-84.8150339581467
 30
0.0
 10
-55.28882362353605
 20
-84.8150339581467
 30
0.0
 10
-39.82464106248553
 20
-84.8150339581467
 30
0.0
 10
-27.28896385059033
 20
-72.27866772669992
 30
0.0
 10
-27.28896385059033
 20
-56.81500193031308
 30
0.0
  0
SPLINE
  5
55A
330
1F
100
AcDbEntity
  8
STANDARDEBENE
 62
     7
100
AcDbSpline
210
0.0
220
0.0
230
1.0
 70
     8
 71
     3
 72
     8
 73
     4
 74
     0
 42
0.0000000001
 43
0.0000000001
 40
0.0
 40
0.0
 40
0.0
 40
0.0
 40
1.0
 40
1.0
 40
1.0
 40
1.0
 10
-37.78824377775437
 20
-38.62833086603333
 30
0.0
 10
-37.78824377775437
 20
-36.05139774307798
 30
0.0
 10
-39.18161356596197
 20
-33.79933733869843
 30
0.0
 10
-41.28846309984345
 20
-32.56599234134815
 30
0.0
  0
SPLINE
  5
55B
330
1F
100
AcDbEntity
  8
STANDARDEBENE
 62
     7
100
AcDbSpline
210
0.0
220
0.0
230
1.0
 70
     8
 71
     3
 72
    14
 73
    10
 74
     0
 42
0.0000000001
 43
0.0000000001
 40
0.0
 40
0.0
 40
0.0
 40
0.0
 40
1.0
 40
1.0
 40
1.0
 40
2.0
 40
2.0
 40
2.0
 40
3.0
 40
3.0
 40
3.0
 40
3.0
 10
-51.78860430144698
 20
-38.62454125849957
 30
0.0
 10
-51.78860430144698
 20
-38.62557478782696
 30
0.0
 10
-51.78860430144698
 20
-38.62695282693014
 30
0.0
 10
-51.78860430144698
 20
-38.62833086603333
 30
0.0
 10
-51.78860430144698
 20
-42.49373055046635
 30
0.0
 10
-48.65408210636554
 20
-45.62808049065989
 30
0.0
 10
-44.78868242193252
 20
-45.62808049065989
 30
0.0
 10
-40.92207695328423
 20
-45.62808049065989
 30
0.0
 10
-37.78824377775437
 20
-42.49373055046635
 30
0.0
 10
-37.78824377775437
 20
-38.62833086603333
 30
0.0
  0
SPLINE
  5
55C
330
1F
100
AcDbEntity
  8
STANDARDEBENE
 62
     7
100
AcDbSpline
210
0.0
220
0.0
230
1.0
 70
     8
 71
     3
 72
    17
 73
    13
 74
     0
 42
0.0000000001
 43
0.0000000001
 40
0.0
 40
0.0
 40
0.0
 40
0.0
 40
1.0
 40
1.0
 40
1.0
 40
2.0
 40
2.0
 40
2.0
 40
3.0
 40
3.0
 40
3.0
 40
4.0
 40
4.0
 40
4.0
 40
4.0
 10
-48.29234684177956
 20
-32.56840390977872
 30
0.0
 10
-49.02563589956171
 20
-31.15350226058386
 30
0.0
 10
-50.46069137064065
 20
-30.33804762127432
 30
0.0
 10
-51.97653438414379
 20
-30.32805683777623
 30
0.0
 10
-54.268041157852
 20
-30.32805683777623
 30
0.0
 10
-56.12649914338444
 20
-32.18599805864497
 30
0.0
 10
-56.12649914338444
 20
-34.47767708724109
 30
0.0
 10
-56.12649914338444
 20
-36.77038964516459
 30
0.0
 10
-54.268041157852
 20
-38.62833086603333
 30
0.0
 10
-51.97653438414379
 20
-38.62833086603333
 30
0.0
 10
-51.91073301696672
 20
-38.62833086603333
 30
0.0
 10
-51.84458714001386
 20
-38.62695282693014
 30
0.0
 10
-51.78860430144698
 20
-38.62454125849957
 30
0.0
  0
SPLINE
  5
55D
330
1F
100
AcDbEntity
  8
STANDARDEBENE
 62
     7
100
AcDbSpline
210
0.0
220
0.0
230
1.0
 70
    11
 71
     3
 72
    17
 73
    13
 74
     0
 42
0.0000000001
 43
0.0000000001
 40
0.0
 40
0.0
 40
0.0
 40
0.0
 40
1.0
 40
1.0
 40
1.0
 40
2.0
 40
2.0
 40
2.0
 40
3.0
 40
3.0
 40
3.0
 40
4.0
 40
4.0
 40
4.0
 40
4.0
 10
-26.28833520679036
 20
-56.81500193031308
 30
0.0
 10
-26.28833520679036
 20
-40.7987424535492
 30
0.0
 10
-39.27256414677217
 20
-27.81485802334318
 30
0.0
 10
-55.28882362353605
 20
-27.81485802334318
 30
0.0
 10
-71.30439408074835
 20
-27.81485802334318
 30
0.0
 10
-84.28827851095437
 20
-40.7987424535492
 30
0.0
 10
-84.28827851095437
 20
-56.81500193031308
 30
0.0
 10
-84.28827851095437
 20
-72.83091689730118
 30
0.0
 10
-71.30439408074835
 20
-85.81514583728298
 30
0.0
 10
-55.28882362353605
 20
-85.81514583728298
 30
0.0
 10
-39.27256414677217
 20
-85.81514583728298
 30
0.0
 10
-26.28833520679036
 20
-72.83091689730118
 30
0.0
 10
-26.28833520679036
 20
-56.81500193031308
 30
0.0
  0
POLYLINE
  5
55E
330
1F
100
AcDbEntity
  8
STANDARDEBENE
 62
     7
100
AcDb2dPolyline
 66
     1
 10
0.0
 20
0.0
 30
0.0
  0
VERTEX
  5
55F
330
55E
100
AcDbEntity
  8
STANDARDEBENE
 62
     7
100
AcDbVertex
100
AcDb2dVertex
 10
-47.8479292310025
 20
-34.05806418032135
 30
0.0
  0
VERTEX
  5
560
330
55E
100
AcDbEntity
  8
STANDARDEBENE
 62
     7
100
AcDbVertex
100
AcDb2dVertex
 10
-48.000891571456
 20
-33.2894628705201
 30
0.0
  0
VERTEX
  5
561
330
55E
100
AcDbEntity
  8
STANDARDEBENE
 62
     7
100
AcDbVertex
100
AcDb2dVertex
 10
-48.29234684177956
 20
-32.56840390977872
 30
0.0
  0
SEQEND
  5
562
330
55E
100
AcDbEntity
  8
STANDARDEBENE
  0
POLYLINE
  5
563
330
1F
100
AcDbEntity
  8
STANDARDEBENE
 62
     7
100
AcDb2dPolyline
 66
     1
 10
0.0
 20
0.0
 30
0.0
  0
VERTEX
  5
564
330
563
100
AcDbEntity
  8
STANDARDEBENE
 62
     7
100
AcDbVertex
100
AcDb2dVertex
 10
-51.78860430144698
 20
-38.62454125849957
 30
0.0
  0
VERTEX
  5
565
330
563
100
AcDbEntity
  8
STANDARDEBENE
 62
     7
100
AcDbVertex
100
AcDb2dVertex
 10
-51.03343887290178
 20
-38.51981028665754
 30
0.0
  0
VERTEX
  5
566
330
563
100
AcDbEntity
  8
STANDARDEBENE
 62
     7
100
AcDbVertex
100
AcDb2dVertex
 10
-50.2762063857018
 20
-38.26349501346519
 30
0.0
  0
SEQEND
  5
567
330
563
100
AcDbEntity
  8
STANDARDEBENE
  0
POLYLINE
  5
568
330
1F
100
AcDbEntity
  8
STANDARDEBENE
 62
     7
100
AcDb2dPolyline
 66
     1
 10
0.0
 20
0.0
 30
0.0
  0
VERTEX
  5
569
330
568
100
AcDbEntity
  8
STANDARDEBENE
 62
     7
100
AcDbVertex
100
AcDb2dVertex
 10
-50.07914679394639
 20
-37.96928366493526
 30
0.0
  0
VERTEX
  5
56A
330
568
100
AcDbEntity
  8
STANDARDEBENE
 62
     7
100
AcDbVertex
100
AcDb2dVertex
 10
-50.2762063857018
 20
-38.26349501346519
 30
0.0
  0
SEQEND
  5
56B
330
568
100
AcDbEntity
  8
STANDARDEBENE
  0
POLYLINE
  5
56C
330
1F
100
AcDbEntity
  8
STANDARDEBENE
 62
     7
100
AcDb2dPolyline
 66
     1
 10
0.0
 20
0.0
 30
0.0
  0
VERTEX
  5
56D
330
56C
100
AcDbEntity
  8
STANDARDEBENE
 62
     7
100
AcDbVertex
100
AcDb2dVertex
 10
-47.8479292310025
 20
-34.05806418032135
 30
0.0
  0
VERTEX
  5
56E
330
56C
100
AcDbEntity
  8
STANDARDEBENE
 62
     7
100
AcDbVertex
100
AcDb2dVertex
 10
-47.99262333683689
 20
-34.35262003862708
 30
0.0
  0
SEQEND
  5
56F
330
56C
100
AcDbEntity
  8
STANDARDEBENE
  0
SPLINE
  5
570
330
1F
100
AcDbEntity
  8
STANDARDEBENE
 62
     7
100
AcDbSpline
210
0.0
220
0.0
230
1.0
 70
     8
 71
     3
 72
    11
 73
     7
 74
     0
 42
0.0000000001
 43
0.0000000001
 40
0.0
 40
0.0
 40
0.0
 40
0.0
 40
1.0
 40
1.0
 40
1.0
 40
2.0
 40
2.0
 40
2.0
 40
2.0
 10
-39.78863979091483
 20
-38.62833086603333
 30
0.0
 10
-39.78863979091483
 20
-35.86708501302704
 30
0.0
 10
-42.02726431403833
 20
-33.62846048990353
 30
0.0
 10
-44.78868242193252
 20
-33.62846048990353
 30
0.0
 10
-46.00893604780256
 20
-33.62846048990353
 30
0.0
 10
-47.12755928981272
 20
-34.06633241494046
 30
0.0
 10
-47.98797245486364
 20
-34.78601333657866
 30
0.0
  0
SPLINE
  5
571
330
1F
100
AcDbEntity
  8
STANDARDEBENE
 62
     7
100
AcDbSpline
210
0.0
220
0.0
230
1.0
 70
     8
 71
     3
 72
    14
 73
    10
 74
     0
 42
0.0000000001
 43
0.0000000001
 40
0.0
 40
0.0
 40
0.0
 40
0.0
 40
1.0
 40
1.0
 40
1.0
 40
2.0
 40
2.0
 40
2.0
 40
3.0
 40
3.0
 40
3.0
 40
3.0
 10
-49.71586123536933
 20
-37.77808073936838
 30
0.0
 10
-49.76684868218716
 20
-38.07435914655309
 30
0.0
 10
-49.7906198567171
 20
-38.36822598530722
 30
0.0
 10
-49.78889730783812
 20
-38.62833086603333
 30
0.0
 10
-49.78889730783812
 20
-41.38992122881542
 30
0.0
 10
-47.54975602005092
 20
-43.62854575193892
 30
0.0
 10
-44.78868242193252
 20
-43.62854575193892
 30
0.0
 10
-42.02726431403833
 20
-43.62854575193892
 30
0.0
 10
-39.78863979091483
 20
-41.38992122881542
 30
0.0
 10
-39.78863979091483
 20
-38.62833086603333
 30
0.0
  0
SPLINE
  5
572
330
1F
100
AcDbEntity
  8
STANDARDEBENE
 62
     7
100
AcDbSpline
210
0.0
220
0.0
230
1.0
 70
    11
 71
     3
 72
    17
 73
    13
 74
     0
 42
0.0000000001
 43
0.0000000001
 40
0.0
 40
0.0
 40
0.0
 40
0.0
 40
1.0
 40
1.0
 40
1.0
 40
2.0
 40
2.0
 40
2.0
 40
3.0
 40
3.0
 40
3.0
 40
4.0
 40
4.0
 40
4.0
 40
4.0
 10
-41.21766634091733
 20
-38.62833086603333
 30
0.0
 10
-41.21766634091733
 20
-36.65635690937606
 30
0.0
 10
-42.81619170061156
 20
-35.05783154968184
 30
0.0
 10
-44.78868242193252
 20
-35.05783154968184
 30
0.0
 10
-46.76065637858979
 20
-35.05783154968184
 30
0.0
 10
-48.35918173828401
 20
-36.65635690937606
 30
0.0
 10
-48.35918173828401
 20
-38.62833086603333
 30
0.0
 10
-48.35918173828401
 20
-40.6006493324664
 30
0.0
 10
-46.76065637858979
 20
-42.19917469216062
 30
0.0
 10
-44.78868242193252
 20
-42.19917469216062
 30
0.0
 10
-42.81619170061156
 20
-42.19917469216062
 30
0.0
 10
-41.21766634091733
 20
-40.6006493324664
 30
0.0
 10
-41.21766634091733
 20
-38.62833086603333
 30
0.0
  0
SPLINE
  5
573
330
1F
100
AcDbEntity
  8
STANDARDEBENE
 62
     7
100
AcDbSpline
210
0.0
220
0.0
230
1.0
 70
    11
 71
     3
 72
    17
 73
    13
 74
     0
 42
0.0000000001
 43
0.0000000001
 40
0.0
 40
0.0
 40
0.0
 40
0.0
 40
1.0
 40
1.0
 40
1.0
 40
2.0
 40
2.0
 40
2.0
 40
3.0
 40
3.0
 40
3.0
 40
4.0
 40
4.0
 40
4.0
 40
4.0
 10
-42.28857497897972
 20
-38.62833086603333
 30
0.0
 10
-42.28857497897972
 20
-37.24753568464229
 30
0.0
 10
-43.40788724054148
 20
-36.12891244263213
 30
0.0
 10
-44.78868242193252
 20
-36.12891244263213
 30
0.0
 10
-46.16964985821146
 20
-36.12891244263213
 30
0.0
 10
-47.28896211977322
 20
-37.24753568464229
 30
0.0
 10
-47.28896211977322
 20
-38.62833086603333
 30
0.0
 10
-47.28896211977322
 20
-40.00947055720017
 30
0.0
 10
-46.16964985821146
 20
-41.12809379921033
 30
0.0
 10
-44.78868242193252
 20
-41.12809379921033
 30
0.0
 10
-43.40788724054148
 20
-41.12809379921033
 30
0.0
 10
-42.28857497897972
 20
-40.00947055720017
 30
0.0
 10
-42.28857497897972
 20
-38.62833086603333
 30
0.0
  0
POLYLINE
  5
574
330
1F
100
AcDbEntity
  8
STANDARDEBENE
  6
AI-LINETYPE-1
 62
     7
100
AcDb2dPolyline
 66
     1
 10
0.0
 20
0.0
 30
0.0
  0
VERTEX
  5
575
330
574
100
AcDbEntity
  8
STANDARDEBENE
  6
AI-LINETYPE-1
 62
     7
100
AcDbVertex
100
AcDb2dVertex
 10
42.43533614346889
 20
0.0740696017961763
 30
0.0
  0
VERTEX
  5
576
330
574
100
AcDbEntity
  8
STANDARDEBENE
  6
AI-LINETYPE-1
 62
     7
100
AcDbVertex
100
AcDb2dVertex
 10
42.43533614346889
 20
68.52402793518537
 30
0.0
  0
SEQEND
  5
577
330
574
100
AcDbEntity
  8
STANDARDEBENE
  6
AI-LINETYPE-1
  0
POLYLINE
  5
579
330
1F
100
AcDbEntity
  8
STANDARDEBENE
  6
AI-LINETYPE-2
 62
     7
100
AcDb2dPolyline
 66
     1
 10
0.0
 20
0.0
 30
0.0
  0
VERTEX
  5
57A
330
579
100
AcDbEntity
  8
STANDARDEBENE
  6
AI-LINETYPE-2
 62
     7
100
AcDbVertex
100
AcDb2dVertex
 10
-55.28882362353605
 20
-0.9532585496279992
 30
0.0
  0
VERTEX
  5
57B
330
579
100
AcDbEntity
  8
STANDARDEBENE
  6
AI-LINETYPE-2
 62
     7
100
AcDbVertex
100
AcDb2dVertex
 10
-55.28882362353605
 20
68.28183756280066
 30
0.0
  0
SEQEND
  5
57C
330
579
100
AcDbEntity
  8
STANDARDEBENE
  6
AI-LINETYPE-2
  0
POLYLINE
  5
57E
330
1F
100
AcDbEntity
  8
STANDARDEBENE
  6
AI-LINETYPE-3
 62
     7
100
AcDb2dPolyline
 66
     1
 10
0.0
 20
0.0
 30
0.0
  0
VERTEX
  5
57F
330
57E
100
AcDbEntity
  8
STANDARDEBENE
  6
AI-LINETYPE-3
 62
     7
100
AcDbVertex
100
AcDb2dVertex
 10
-55.28882362353605
 20
-89.16653693622811
 30
0.0
  0
VERTEX
  5
580
330
57E
100
AcDbEntity
  8
STANDARDEBENE
  6
AI-LINETYPE-3
 62
     7
100
AcDbVertex
100
AcDb2dVertex
 10
-55.28882362353605
 20
-24.29672419291271
 30
0.0
  0
SEQEND
  5
581
330
57E
100
AcDbEntity
  8
STANDARDEBENE
  6
AI-LINETYPE-3
  0
POLYLINE
  5
583
330
1F
100
AcDbEntity
  8
STANDARDEBENE
  6
AI-LINETYPE-4
 62
     7
100
AcDb2dPolyline
 66
     1
 10
0.0
 20
0.0
 30
0.0
  0
VERTEX
  5
584
330
583
100
AcDbEntity
  8
STANDARDEBENE
  6
AI-LINETYPE-4
 62
     7
100
AcDbVertex
100
AcDb2dVertex
 10
-89.26299967345105
 20
-56.81500193031308
 30
0.0
  0
VERTEX
  5
585
330
583
100
AcDbEntity
  8
STANDARDEBENE
  6
AI-LINETYPE-4
 62
     7
100
AcDbVertex
100
AcDb2dVertex
 10
-24.62831485211652
 20
-56.81500193031308
 30
0.0
  0
SEQEND
  5
586
330
583
100
AcDbEntity
  8
STANDARDEBENE
  6
AI-LINETYPE-4
  0
POLYLINE
  5
588
330
1F
100
AcDbEntity
  8
STANDARDEBENE
 62
     7
100
AcDb2dPolyline
 66
     1
 10
0.0
 20
0.0
 30
0.0
  0
VERTEX
  5
589
330
588
100
AcDbEntity
  8
STANDARDEBENE
 62
     7
100
AcDbVertex
100
AcDb2dVertex
 10
28.89541293512787
 20
49.65367722083812
 30
0.0
  0
VERTEX
  5
58A
330
588
100
AcDbEntity
  8
STANDARDEBENE
 62
     7
100
AcDbVertex
100
AcDb2dVertex
 10
28.89541293512787
 20
49.06008687714132
 30
0.0
  0
SEQEND
  5
58B
330
588
100
AcDbEntity
  8
STANDARDEBENE
  0
POLYLINE
  5
58C
330
1F
100
AcDbEntity
  8
STANDARDEBENE
 62
     7
100
AcDb2dPolyline
 66
     1
 10
0.0
 20
0.0
 30
0.0
  0
VERTEX
  5
58D
330
58C
100
AcDbEntity
  8
STANDARDEBENE
 62
     7
100
AcDbVertex
100
AcDb2dVertex
 10
55.97525935180992
 20
49.06008687714132
 30
0.0
  0
VERTEX
  5
58E
330
58C
100
AcDbEntity
  8
STANDARDEBENE
 62
     7
100
AcDbVertex
100
AcDb2dVertex
 10
55.97525935180992
 20
49.65367722083812
 30
0.0
  0
SEQEND
  5
58F
330
58C
100
AcDbEntity
  8
STANDARDEBENE
  0
SPLINE
  5
590
330
1F
100
AcDbEntity
  8
STANDARDEBENE
 62
     7
100
AcDbSpline
210
0.0
220
0.0
230
1.0
 70
     8
 71
     3
 72
     8
 73
     4
 74
     0
 42
0.0000000001
 43
0.0000000001
 40
0.0
 40
0.0
 40
0.0
 40
0.0
 40
1.0
 40
1.0
 40
1.0
 40
1.0
 10
55.38201351788892
 20
48.46666878833242
 30
0.0
 10
55.71033133422267
 20
48.46666878833242
 30
0.0
 10
55.97525935180992
 20
48.73245808035917
 30
0.0
 10
55.97525935180992
 20
49.06008687714132
 30
0.0
  0
SPLINE
  5
591
330
1F
100
AcDbEntity
  8
STANDARDEBENE
 62
     7
100
AcDbSpline
210
0.0
220
0.0
230
1.0
 70
     8
 71
     3
 72
     8
 73
     4
 74
     0
 42
0.0000000001
 43
0.0000000001
 40
0.0
 40
0.0
 40
0.0
 40
0.0
 40
1.0
 40
1.0
 40
1.0
 40
1.0
 10
28.89541293512787
 20
49.06008687714132
 30
0.0
 10
28.89541293512787
 20
48.73245808035917
 30
0.0
 10
29.16137448204251
 20
48.46666878833242
 30
0.0
 10
29.48900327882466
 20
48.46666878833242
 30
0.0
  0
SPLINE
  5
592
330
1F
100
AcDbEntity
  8
STANDARDEBENE
 62
     7
100
AcDbSpline
210
0.0
220
0.0
230
1.0
 70
     8
 71
     3
 72
     8
 73
     4
 74
     0
 42
0.0000000001
 43
0.0000000001
 40
0.0
 40
0.0
 40
0.0
 40
0.0
 40
1.0
 40
1.0
 40
1.0
 40
1.0
 10
55.97525935180992
 20
49.65367722083812
 30
0.0
 10
55.97525935180992
 20
49.76099201599863
 30
0.0
 10
55.94597602086725
 20
49.8624501449706
 30
0.0
 10
55.89774465225578
 20
49.94668278515276
 30
0.0
  0
SPLINE
  5
593
330
1F
100
AcDbEntity
  8
STANDARDEBENE
 62
     7
100
AcDbSpline
210
0.0
220
0.0
230
1.0
 70
     8
 71
     3
 72
     8
 73
     4
 74
     0
 42
0.0000000001
 43
0.0000000001
 40
0.0
 40
0.0
 40
0.0
 40
0.0
 40
1.0
 40
1.0
 40
1.0
 40
1.0
 10
28.9732721444578
 20
49.94668278515276
 30
0.0
 10
28.9195286194336
 20
49.85245936147251
 30
0.0
 10
28.89506842535207
 20
49.75065672272474
 30
0.0
 10
28.89541293512787
 20
49.65367722083812
 30
0.0
  0
POLYLINE
  5
594
330
1F
100
AcDbEntity
  8
STANDARDEBENE
 62
     7
100
AcDb2dPolyline
 66
     1
 10
0.0
 20
0.0
 30
0.0
  0
VERTEX
  5
595
330
594
100
AcDbEntity
  8
STANDARDEBENE
 62
     7
100
AcDbVertex
100
AcDb2dVertex
 10
55.38201351788892
 20
48.46666878833242
 30
0.0
  0
VERTEX
  5
596
330
594
100
AcDbEntity
  8
STANDARDEBENE
 62
     7
100
AcDbVertex
100
AcDb2dVertex
 10
55.28003862425325
 20
48.46666878833242
 30
0.0
  0
VERTEX
  5
597
330
594
100
AcDbEntity
  8
STANDARDEBENE
 62
     7
100
AcDbVertex
100
AcDb2dVertex
 10
54.97549198244944
 20
48.46666878833242
 30
0.0
  0
VERTEX
  5
598
330
594
100
AcDbEntity
  8
STANDARDEBENE
 62
     7
100
AcDbVertex
100
AcDb2dVertex
 10
54.47319672933862
 20
48.46666878833242
 30
0.0
  0
VERTEX
  5
599
330
594
100
AcDbEntity
  8
STANDARDEBENE
 62
     7
100
AcDbVertex
100
AcDb2dVertex
 10
53.78107658976412
 20
48.46666878833242
 30
0.0
  0
VERTEX
  5
59A
330
594
100
AcDbEntity
  8
STANDARDEBENE
 62
     7
100
AcDbVertex
100
AcDb2dVertex
 10
52.90981136677561
 20
48.46666878833242
 30
0.0
  0
VERTEX
  5
59B
330
594
100
AcDbEntity
  8
STANDARDEBENE
 62
     7
100
AcDbVertex
100
AcDb2dVertex
 10
51.87318145140494
 20
48.46666878833242
 30
0.0
  0
VERTEX
  5
59C
330
594
100
AcDbEntity
  8
STANDARDEBENE
 62
     7
100
AcDbVertex
100
AcDb2dVertex
 10
50.68806782266612
 20
48.46666878833242
 30
0.0
  0
VERTEX
  5
59D
330
594
100
AcDbEntity
  8
STANDARDEBENE
 62
     7
100
AcDbVertex
100
AcDb2dVertex
 10
49.37204047912476
 20
48.46666878833242
 30
0.0
  0
VERTEX
  5
59E
330
594
100
AcDbEntity
  8
STANDARDEBENE
 62
     7
100
AcDbVertex
100
AcDb2dVertex
 10
47.94749255620759
 20
48.46666878833242
 30
0.0
  0
VERTEX
  5
59F
330
594
100
AcDbEntity
  8
STANDARDEBENE
 62
     7
100
AcDbVertex
100
AcDb2dVertex
 10
46.4361281697898
 20
48.46666878833242
 30
0.0
  0
VERTEX
  5
5A0
330
594
100
AcDbEntity
  8
STANDARDEBENE
 62
     7
100
AcDbVertex
100
AcDb2dVertex
 10
44.86206300417711
 20
48.46666878833242
 30
0.0
  0
VERTEX
  5
5A1
330
594
100
AcDbEntity
  8
STANDARDEBENE
 62
     7
100
AcDbVertex
100
AcDb2dVertex
 10
43.24837921434785
 20
48.46666878833242
 30
0.0
  0
VERTEX
  5
5A2
330
594
100
AcDbEntity
  8
STANDARDEBENE
 62
     7
100
AcDbVertex
100
AcDb2dVertex
 10
41.62229307258993
 20
48.46666878833242
 30
0.0
  0
VERTEX
  5
5A3
330
594
100
AcDbEntity
  8
STANDARDEBENE
 62
     7
100
AcDbVertex
100
AcDb2dVertex
 10
40.00929830231227
 20
48.46666878833242
 30
0.0
  0
VERTEX
  5
5A4
330
594
100
AcDbEntity
  8
STANDARDEBENE
 62
     7
100
AcDbVertex
100
AcDb2dVertex
 10
38.43454411714799
 20
48.46666878833242
 30
0.0
  0
VERTEX
  5
5A5
330
594
100
AcDbEntity
  8
STANDARDEBENE
 62
     7
100
AcDbVertex
100
AcDb2dVertex
 10
36.9224907111786
 20
48.46666878833242
 30
0.0
  0
VERTEX
  5
5A6
330
594
100
AcDbEntity
  8
STANDARDEBENE
 62
     7
100
AcDbVertex
100
AcDb2dVertex
 10
35.49828729803724
 20
48.46666878833242
 30
0.0
  0
VERTEX
  5
5A7
330
594
100
AcDbEntity
  8
STANDARDEBENE
 62
     7
100
AcDbVertex
100
AcDb2dVertex
 10
34.18329348382326
 20
48.46666878833242
 30
0.0
  0
VERTEX
  5
5A8
330
594
100
AcDbEntity
  8
STANDARDEBENE
 62
     7
100
AcDbVertex
100
AcDb2dVertex
 10
32.99783534530864
 20
48.46666878833242
 30
0.0
  0
VERTEX
  5
5A9
330
594
100
AcDbEntity
  8
STANDARDEBENE
 62
     7
100
AcDbVertex
100
AcDb2dVertex
 10
31.96154993971377
 20
48.46666878833242
 30
0.0
  0
VERTEX
  5
5AA
330
594
100
AcDbEntity
  8
STANDARDEBENE
 62
     7
100
AcDbVertex
100
AcDb2dVertex
 10
31.08994020694946
 20
48.46666878833242
 30
0.0
  0
VERTEX
  5
5AB
330
594
100
AcDbEntity
  8
STANDARDEBENE
 62
     7
100
AcDbVertex
100
AcDb2dVertex
 10
30.39816457715076
 20
48.46666878833242
 30
0.0
  0
VERTEX
  5
5AC
330
594
100
AcDbEntity
  8
STANDARDEBENE
 62
     7
100
AcDbVertex
100
AcDb2dVertex
 10
29.89586932403994
 20
48.46666878833242
 30
0.0
  0
VERTEX
  5
5AD
330
594
100
AcDbEntity
  8
STANDARDEBENE
 62
     7
100
AcDbVertex
100
AcDb2dVertex
 10
29.59097817246033
 20
48.46666878833242
 30
0.0
  0
VERTEX
  5
5AE
330
594
100
AcDbEntity
  8
STANDARDEBENE
 62
     7
100
AcDbVertex
100
AcDb2dVertex
 10
29.48900327882466
 20
48.46666878833242
 30
0.0
  0
SEQEND
  5
5AF
330
594
100
AcDbEntity
  8
STANDARDEBENE
  0
POLYLINE
  5
5B0
330
1F
100
AcDbEntity
  8
STANDARDEBENE
 62
     7
100
AcDb2dPolyline
 66
     1
 10
0.0
 20
0.0
 30
0.0
  0
VERTEX
  5
5B1
330
5B0
100
AcDbEntity
  8
STANDARDEBENE
 62
     7
100
AcDbVertex
100
AcDb2dVertex
 10
-68.82891908676498
 20
49.65367722083812
 30
0.0
  0
VERTEX
  5
5B2
330
5B0
100
AcDbEntity
  8
STANDARDEBENE
 62
     7
100
AcDbVertex
100
AcDb2dVertex
 10
-68.82891908676498
 20
49.06008687714132
 30
0.0
  0
SEQEND
  5
5B3
330
5B0
100
AcDbEntity
  8
STANDARDEBENE
  0
POLYLINE
  5
5B4
330
1F
100
AcDbEntity
  8
STANDARDEBENE
 62
     7
100
AcDb2dPolyline
 66
     1
 10
0.0
 20
0.0
 30
0.0
  0
VERTEX
  5
5B5
330
5B4
100
AcDbEntity
  8
STANDARDEBENE
 62
     7
100
AcDbVertex
100
AcDb2dVertex
 10
-41.74855590541923
 20
49.06008687714132
 30
0.0
  0
VERTEX
  5
5B6
330
5B4
100
AcDbEntity
  8
STANDARDEBENE
 62
     7
100
AcDbVertex
100
AcDb2dVertex
 10
-41.74855590541923
 20
49.65367722083812
 30
0.0
  0
SEQEND
  5
5B7
330
5B4
100
AcDbEntity
  8
STANDARDEBENE
  0
SPLINE
  5
5B8
330
1F
100
AcDbEntity
  8
STANDARDEBENE
 62
     7
100
AcDbSpline
210
0.0
220
0.0
230
1.0
 70
     8
 71
     3
 72
     8
 73
     4
 74
     0
 42
0.0000000001
 43
0.0000000001
 40
0.0
 40
0.0
 40
0.0
 40
0.0
 40
1.0
 40
1.0
 40
1.0
 40
1.0
 10
-42.34145722956444
 20
48.46666878833242
 30
0.0
 10
-42.01417294255808
 20
48.46666878833242
 30
0.0
 10
-41.74855590541923
 20
48.73245808035917
 30
0.0
 10
-41.74855590541923
 20
49.06008687714132
 30
0.0
  0
SPLINE
  5
5B9
330
1F
100
AcDbEntity
  8
STANDARDEBENE
 62
     7
100
AcDbSpline
210
0.0
220
0.0
230
1.0
 70
     8
 71
     3
 72
     8
 73
     4
 74
     0
 42
0.0000000001
 43
0.0000000001
 40
0.0
 40
0.0
 40
0.0
 40
0.0
 40
1.0
 40
1.0
 40
1.0
 40
1.0
 10
-68.82891908676498
 20
49.06008687714132
 30
0.0
 10
-68.82891908676498
 20
48.73245808035917
 30
0.0
 10
-68.56278528496244
 20
48.46666878833242
 30
0.0
 10
-68.23515648818028
 20
48.46666878833242
 30
0.0
  0
SPLINE
  5
5BA
330
1F
100
AcDbEntity
  8
STANDARDEBENE
 62
     7
100
AcDbSpline
210
0.0
220
0.0
230
1.0
 70
     8
 71
     3
 72
     8
 73
     4
 74
     0
 42
0.0000000001
 43
0.0000000001
 40
0.0
 40
0.0
 40
0.0
 40
0.0
 40
1.0
 40
1.0
 40
1.0
 40
1.0
 10
-41.74855590541923
 20
49.65367722083812
 30
0.0
 10
-41.74855590541923
 20
49.76099201599863
 30
0.0
 10
-41.77715021681031
 20
49.8624501449706
 30
0.0
 10
-41.82624285986127
 20
49.94668278515276
 30
0.0
  0
SPLINE
  5
5BB
330
1F
100
AcDbEntity
  8
STANDARDEBENE
 62
     7
100
AcDbSpline
210
0.0
220
0.0
230
1.0
 70
     8
 71
     3
 72
     8
 73
     4
 74
     0
 42
0.0000000001
 43
0.0000000001
 40
0.0
 40
0.0
 40
0.0
 40
0.0
 40
1.0
 40
1.0
 40
1.0
 40
1.0
 10
-68.75088762254715
 20
49.94668278515276
 30
0.0
 10
-68.80445889268346
 20
49.85245936147251
 30
0.0
 10
-68.82926359654078
 20
49.75065672272474
 30
0.0
 10
-68.82891908676498
 20
49.65367722083812
 30
0.0
  0
POLYLINE
  5
5BC
330
1F
100
AcDbEntity
  8
STANDARDEBENE
 62
     7
100
AcDb2dPolyline
 66
     1
 10
0.0
 20
0.0
 30
0.0
  0
VERTEX
  5
5BD
330
5BC
100
AcDbEntity
  8
STANDARDEBENE
 62
     7
100
AcDbVertex
100
AcDb2dVertex
 10
-42.34145722956444
 20
48.46666878833242
 30
0.0
  0
VERTEX
  5
5BE
330
5BC
100
AcDbEntity
  8
STANDARDEBENE
 62
     7
100
AcDbVertex
100
AcDb2dVertex
 10
-42.45238937737081
 20
48.46666878833242
 30
0.0
  0
VERTEX
  5
5BF
330
5BC
100
AcDbEntity
  8
STANDARDEBENE
 62
     7
100
AcDbVertex
100
AcDb2dVertex
 10
-42.78311876213512
 20
48.46666878833242
 30
0.0
  0
VERTEX
  5
5C0
330
5BC
100
AcDbEntity
  8
STANDARDEBENE
 62
     7
100
AcDbVertex
100
AcDb2dVertex
 10
-43.32744420789307
 20
48.46666878833242
 30
0.0
  0
VERTEX
  5
5C1
330
5BC
100
AcDbEntity
  8
STANDARDEBENE
 62
     7
100
AcDbVertex
100
AcDb2dVertex
 10
-44.07658071536184
 20
48.46666878833242
 30
0.0
  0
VERTEX
  5
5C2
330
5BC
100
AcDbEntity
  8
STANDARDEBENE
 62
     7
100
AcDbVertex
100
AcDb2dVertex
 10
-45.01743691306118
 20
48.46666878833242
 30
0.0
  0
VERTEX
  5
5C3
330
5BC
100
AcDbEntity
  8
STANDARDEBENE
 62
     7
100
AcDbVertex
100
AcDb2dVertex
 10
-46.13382084152867
 20
48.46666878833242
 30
0.0
  0
VERTEX
  5
5C4
330
5BC
100
AcDbEntity
  8
STANDARDEBENE
 62
     7
100
AcDbVertex
100
AcDb2dVertex
 10
-47.40730122775921
 20
48.46666878833242
 30
0.0
  0
VERTEX
  5
5C5
330
5BC
100
AcDbEntity
  8
STANDARDEBENE
 62
     7
100
AcDbVertex
100
AcDb2dVertex
 10
-48.81548493632604
 20
48.46666878833242
 30
0.0
  0
VERTEX
  5
5C6
330
5BC
100
AcDbEntity
  8
STANDARDEBENE
 62
     7
100
AcDbVertex
100
AcDb2dVertex
 10
-50.33373951825976
 20
48.46666878833242
 30
0.0
  0
VERTEX
  5
5C7
330
5BC
100
AcDbEntity
  8
STANDARDEBENE
 62
     7
100
AcDbVertex
100
AcDb2dVertex
 10
-51.93760477947882
 20
48.46666878833242
 30
0.0
  0
VERTEX
  5
5C8
330
5BC
100
AcDbEntity
  8
STANDARDEBENE
 62
     7
100
AcDbVertex
100
AcDb2dVertex
 10
-53.59814189881636
 20
48.46666878833242
 30
0.0
  0
VERTEX
  5
5C9
330
5BC
100
AcDbEntity
  8
STANDARDEBENE
 62
     7
100
AcDbVertex
100
AcDb2dVertex
 10
-55.28882362353605
 20
48.46666878833242
 30
0.0
  0
VERTEX
  5
5CA
330
5BC
100
AcDbEntity
  8
STANDARDEBENE
 62
     7
100
AcDbVertex
100
AcDb2dVertex
 10
-56.97881632870416
 20
48.46666878833242
 30
0.0
  0
VERTEX
  5
5CB
330
5BC
100
AcDbEntity
  8
STANDARDEBENE
 62
     7
100
AcDbVertex
100
AcDb2dVertex
 10
-58.6393534480417
 20
48.46666878833242
 30
0.0
  0
VERTEX
  5
5CC
330
5BC
100
AcDbEntity
  8
STANDARDEBENE
 62
     7
100
AcDbVertex
100
AcDb2dVertex
 10
-60.24304645437286
 20
48.46666878833242
 30
0.0
  0
VERTEX
  5
5CD
330
5BC
100
AcDbEntity
  8
STANDARDEBENE
 62
     7
100
AcDbVertex
100
AcDb2dVertex
 10
-61.76147329119448
 20
48.46666878833242
 30
0.0
  0
VERTEX
  5
5CE
330
5BC
100
AcDbEntity
  8
STANDARDEBENE
 62
     7
100
AcDbVertex
100
AcDb2dVertex
 10
-63.17017376442501
 20
48.46666878833242
 30
0.0
  0
VERTEX
  5
5CF
330
5BC
100
AcDbEntity
  8
STANDARDEBENE
 62
     7
100
AcDbVertex
100
AcDb2dVertex
 10
-64.44296513110396
 20
48.46666878833242
 30
0.0
  0
VERTEX
  5
5D0
330
5BC
100
AcDbEntity
  8
STANDARDEBENE
 62
     7
100
AcDbVertex
100
AcDb2dVertex
 10
-65.55986582423513
 20
48.46666878833242
 30
0.0
  0
VERTEX
  5
5D1
330
5BC
100
AcDbEntity
  8
STANDARDEBENE
 62
     7
100
AcDbVertex
100
AcDb2dVertex
 10
-66.50037751215868
 20
48.46666878833242
 30
0.0
  0
VERTEX
  5
5D2
330
5BC
100
AcDbEntity
  8
STANDARDEBENE
 62
     7
100
AcDbVertex
100
AcDb2dVertex
 10
-67.24985852940324
 20
48.46666878833242
 30
0.0
  0
VERTEX
  5
5D3
330
5BC
100
AcDbEntity
  8
STANDARDEBENE
 62
     7
100
AcDbVertex
100
AcDb2dVertex
 10
-67.79418397516119
 20
48.46666878833242
 30
0.0
  0
VERTEX
  5
5D4
330
5BC
100
AcDbEntity
  8
STANDARDEBENE
 62
     7
100
AcDbVertex
100
AcDb2dVertex
 10
-68.12456885014971
 20
48.46666878833242
 30
0.0
  0
VERTEX
  5
5D5
330
5BC
100
AcDbEntity
  8
STANDARDEBENE
 62
     7
100
AcDbVertex
100
AcDb2dVertex
 10
-68.23515648818028
 20
48.46666878833242
 30
0.0
  0
SEQEND
  5
5D6
330
5BC
100
AcDbEntity
  8
STANDARDEBENE
  0
POLYLINE
  5
5D8
330
1F
100
AcDbEntity
  8
BEMA_UNG
 62
     7
100
AcDb2dPolyline
 66
     1
 10
0.0
 20
0.0
 30
0.0
  0
VERTEX
  5
5D9
330
5D8
100
AcDbEntity
  8
BEMA_UNG
 62
     7
100
AcDbVertex
100
AcDb2dVertex
 10
-50.36974078983046
 20
31.07633207080551
 30
0.0
  0
VERTEX
  5
5DA
330
5D8
100
AcDbEntity
  8
BEMA_UNG
 62
     7
100
AcDbVertex
100
AcDb2dVertex
 10
-50.39661255234256
 20
38.31189863696455
 30
0.0
  0
SEQEND
  5
5DB
330
5D8
100
AcDbEntity
  8
BEMA_UNG
  0
POLYLINE
  5
5DC
330
1F
100
AcDbEntity
  8
BEMA_UNG
 62
     7
100
AcDb2dPolyline
 66
     1
 10
0.0
 20
0.0
 30
0.0
  0
VERTEX
  5
5DD
330
5DC
100
AcDbEntity
  8
BEMA_UNG
 62
     7
100
AcDbVertex
100
AcDb2dVertex
 10
-18.46968584509631
 20
31.07633207080551
 30
0.0
  0
VERTEX
  5
5DE
330
5DC
100
AcDbEntity
  8
BEMA_UNG
 62
     7
100
AcDbVertex
100
AcDb2dVertex
 10
-18.49672986249631
 20
38.31189863696455
 30
0.0
  0
SEQEND
  5
5DF
330
5DC
100
AcDbEntity
  8
BEMA_UNG
  0
POLYLINE
  5
5E0
330
1F
100
AcDbEntity
  8
BEMA_UNG
 62
     7
100
AcDb2dPolyline
 66
     1
 10
0.0
 20
0.0
 30
0.0
  0
VERTEX
  5
5E1
330
5E0
100
AcDbEntity
  8
BEMA_UNG
 62
     7
100
AcDbVertex
100
AcDb2dVertex
 10
-50.39661255234256
 20
37.21205117773528
 30
0.0
  0
VERTEX
  5
5E2
330
5E0
100
AcDbEntity
  8
BEMA_UNG
 62
     7
100
AcDbVertex
100
AcDb2dVertex
 10
-18.49672986249631
 20
37.21205117773528
 30
0.0
  0
SEQEND
  5
5E3
330
5E0
100
AcDbEntity
  8
BEMA_UNG
  0
POLYLINE
  5
5E4
330
1F
100
AcDbEntity
  8
BEMA_UNG
 62
     7
100
AcDb2dPolyline
 66
     1
 10
0.0
 20
0.0
 30
0.0
  0
VERTEX
  5
5E5
330
5E4
100
AcDbEntity
  8
BEMA_UNG
 62
     7
100
AcDbVertex
100
AcDb2dVertex
 10
-50.39661255234256
 20
37.21205117773528
 30
0.0
  0
VERTEX
  5
5E6
330
5E4
100
AcDbEntity
  8
BEMA_UNG
 62
     7
100
AcDbVertex
100
AcDb2dVertex
 10
-49.02184629202794
 20
37.0308390356665
 30
0.0
  0
VERTEX
  5
5E7
330
5E4
100
AcDbEntity
  8
BEMA_UNG
 62
     7
100
AcDbVertex
100
AcDb2dVertex
 10
-49.02184629202794
 20
37.39291881002827
 30
0.0
  0
VERTEX
  5
5E8
330
5E4
100
AcDbEntity
  8
BEMA_UNG
 62
     7
100
AcDbVertex
100
AcDb2dVertex
 10
-50.39661255234256
 20
37.21205117773528
 30
0.0
  0
SEQEND
  5
5E9
330
5E4
100
AcDbEntity
  8
BEMA_UNG
  0
POLYLINE
  5
5EA
330
1F
100
AcDbEntity
  8
BEMA_UNG
 62
     7
100
AcDb2dPolyline
 66
     1
 10
0.0
 20
0.0
 30
0.0
  0
VERTEX
  5
5EB
330
5EA
100
AcDbEntity
  8
BEMA_UNG
 62
     7
100
AcDbVertex
100
AcDb2dVertex
 10
-49.02184629202794
 20
37.04427491692255
 30
0.0
  0
VERTEX
  5
5EC
330
5EA
100
AcDbEntity
  8
BEMA_UNG
 62
     7
100
AcDbVertex
100
AcDb2dVertex
 10
-49.12347667588782
 20
37.04427491692255
 30
0.0
  0
SEQEND
  5
5ED
330
5EA
100
AcDbEntity
  8
BEMA_UNG
  0
POLYLINE
  5
5EE
330
1F
100
AcDbEntity
  8
BEMA_UNG
 62
     7
100
AcDb2dPolyline
 66
     1
 10
0.0
 20
0.0
 30
0.0
  0
VERTEX
  5
5EF
330
5EE
100
AcDbEntity
  8
BEMA_UNG
 62
     7
100
AcDbVertex
100
AcDb2dVertex
 10
-49.02184629202794
 20
37.04427491692255
 30
0.0
  0
VERTEX
  5
5F0
330
5EE
100
AcDbEntity
  8
BEMA_UNG
 62
     7
100
AcDbVertex
100
AcDb2dVertex
 10
-49.12347667588782
 20
37.04427491692255
 30
0.0
  0
SEQEND
  5
5F1
330
5EE
100
AcDbEntity
  8
BEMA_UNG
  0
POLYLINE
  5
5F2
330
1F
100
AcDbEntity
  8
BEMA_UNG
 62
     7
100
AcDb2dPolyline
 66
     1
 10
0.0
 20
0.0
 30
0.0
  0
VERTEX
  5
5F3
330
5F2
100
AcDbEntity
  8
BEMA_UNG
 62
     7
100
AcDbVertex
100
AcDb2dVertex
 10
-49.02184629202794
 20
37.07235246364993
 30
0.0
  0
VERTEX
  5
5F4
330
5F2
100
AcDbEntity
  8
BEMA_UNG
 62
     7
100
AcDbVertex
100
AcDb2dVertex
 10
-49.33569469777826
 20
37.07235246364993
 30
0.0
  0
SEQEND
  5
5F5
330
5F2
100
AcDbEntity
  8
BEMA_UNG
  0
POLYLINE
  5
5F6
330
1F
100
AcDbEntity
  8
BEMA_UNG
 62
     7
100
AcDb2dPolyline
 66
     1
 10
0.0
 20
0.0
 30
0.0
  0
VERTEX
  5
5F7
330
5F6
100
AcDbEntity
  8
BEMA_UNG
 62
     7
100
AcDbVertex
100
AcDb2dVertex
 10
-49.02184629202794
 20
37.10025775548942
 30
0.0
  0
VERTEX
  5
5F8
330
5F6
100
AcDbEntity
  8
BEMA_UNG
 62
     7
100
AcDbVertex
100
AcDb2dVertex
 10
-49.5477404647808
 20
37.10025775548942
 30
0.0
  0
SEQEND
  5
5F9
330
5F6
100
AcDbEntity
  8
BEMA_UNG
  0
POLYLINE
  5
5FA
330
1F
100
AcDbEntity
  8
BEMA_UNG
 62
     7
100
AcDb2dPolyline
 66
     1
 10
0.0
 20
0.0
 30
0.0
  0
VERTEX
  5
5FB
330
5FA
100
AcDbEntity
  8
BEMA_UNG
 62
     7
100
AcDbVertex
100
AcDb2dVertex
 10
-49.02184629202794
 20
37.12816304732891
 30
0.0
  0
VERTEX
  5
5FC
330
5FA
100
AcDbEntity
  8
BEMA_UNG
 62
     7
100
AcDbVertex
100
AcDb2dVertex
 10
-49.76030299644704
 20
37.12816304732891
 30
0.0
  0
SEQEND
  5
5FD
330
5FA
100
AcDbEntity
  8
BEMA_UNG
  0
POLYLINE
  5
5FE
330
1F
100
AcDbEntity
  8
BEMA_UNG
 62
     7
100
AcDb2dPolyline
 66
     1
 10
0.0
 20
0.0
 30
0.0
  0
VERTEX
  5
5FF
330
5FE
100
AcDbEntity
  8
BEMA_UNG
 62
     7
100
AcDbVertex
100
AcDb2dVertex
 10
-49.02184629202794
 20
37.1560683391684
 30
0.0
  0
VERTEX
  5
600
330
5FE
100
AcDbEntity
  8
BEMA_UNG
 62
     7
100
AcDbVertex
100
AcDb2dVertex
 10
-49.97234876344958
 20
37.1560683391684
 30
0.0
  0
SEQEND
  5
601
330
5FE
100
AcDbEntity
  8
BEMA_UNG
  0
POLYLINE
  5
602
330
1F
100
AcDbEntity
  8
BEMA_UNG
 62
     7
100
AcDb2dPolyline
 66
     1
 10
0.0
 20
0.0
 30
0.0
  0
VERTEX
  5
603
330
602
100
AcDbEntity
  8
BEMA_UNG
 62
     7
100
AcDbVertex
100
AcDb2dVertex
 10
-49.02184629202794
 20
37.18397363100789
 30
0.0
  0
VERTEX
  5
604
330
602
100
AcDbEntity
  8
BEMA_UNG
 62
     7
100
AcDbVertex
100
AcDb2dVertex
 10
-50.18473904022792
 20
37.18397363100789
 30
0.0
  0
SEQEND
  5
605
330
602
100
AcDbEntity
  8
BEMA_UNG
  0
POLYLINE
  5
606
330
1F
100
AcDbEntity
  8
BEMA_UNG
 62
     7
100
AcDb2dPolyline
 66
     1
 10
0.0
 20
0.0
 30
0.0
  0
VERTEX
  5
607
330
606
100
AcDbEntity
  8
BEMA_UNG
 62
     7
100
AcDbVertex
100
AcDb2dVertex
 10
-49.02184629202794
 20
37.21205117773528
 30
0.0
  0
VERTEX
  5
608
330
606
100
AcDbEntity
  8
BEMA_UNG
 62
     7
100
AcDbVertex
100
AcDb2dVertex
 10
-50.39661255234256
 20
37.21205117773528
 30
0.0
  0
SEQEND
  5
609
330
606
100
AcDbEntity
  8
BEMA_UNG
  0
POLYLINE
  5
60A
330
1F
100
AcDbEntity
  8
BEMA_UNG
 62
     7
100
AcDb2dPolyline
 66
     1
 10
0.0
 20
0.0
 30
0.0
  0
VERTEX
  5
60B
330
60A
100
AcDbEntity
  8
BEMA_UNG
 62
     7
100
AcDbVertex
100
AcDb2dVertex
 10
-49.02184629202794
 20
37.37982743854801
 30
0.0
  0
VERTEX
  5
60C
330
60A
100
AcDbEntity
  8
BEMA_UNG
 62
     7
100
AcDbVertex
100
AcDb2dVertex
 10
-49.12347667588782
 20
37.37982743854801
 30
0.0
  0
SEQEND
  5
60D
330
60A
100
AcDbEntity
  8
BEMA_UNG
  0
POLYLINE
  5
60E
330
1F
100
AcDbEntity
  8
BEMA_UNG
 62
     7
100
AcDb2dPolyline
 66
     1
 10
0.0
 20
0.0
 30
0.0
  0
VERTEX
  5
60F
330
60E
100
AcDbEntity
  8
BEMA_UNG
 62
     7
100
AcDbVertex
100
AcDb2dVertex
 10
-49.02184629202794
 20
37.37982743854801
 30
0.0
  0
VERTEX
  5
610
330
60E
100
AcDbEntity
  8
BEMA_UNG
 62
     7
100
AcDbVertex
100
AcDb2dVertex
 10
-49.12347667588782
 20
37.37982743854801
 30
0.0
  0
SEQEND
  5
611
330
60E
100
AcDbEntity
  8
BEMA_UNG
  0
POLYLINE
  5
612
330
1F
100
AcDbEntity
  8
BEMA_UNG
 62
     7
100
AcDb2dPolyline
 66
     1
 10
0.0
 20
0.0
 30
0.0
  0
VERTEX
  5
613
330
612
100
AcDbEntity
  8
BEMA_UNG
 62
     7
100
AcDbVertex
100
AcDb2dVertex
 10
-49.02184629202794
 20
37.35192214670852
 30
0.0
  0
VERTEX
  5
614
330
612
100
AcDbEntity
  8
BEMA_UNG
 62
     7
100
AcDbVertex
100
AcDb2dVertex
 10
-49.33569469777826
 20
37.35192214670852
 30
0.0
  0
SEQEND
  5
615
330
612
100
AcDbEntity
  8
BEMA_UNG
  0
POLYLINE
  5
616
330
1F
100
AcDbEntity
  8
BEMA_UNG
 62
     7
100
AcDb2dPolyline
 66
     1
 10
0.0
 20
0.0
 30
0.0
  0
VERTEX
  5
617
330
616
100
AcDbEntity
  8
BEMA_UNG
 62
     7
100
AcDbVertex
100
AcDb2dVertex
 10
-49.02184629202794
 20
37.32384459998114
 30
0.0
  0
VERTEX
  5
618
330
616
100
AcDbEntity
  8
BEMA_UNG
 62
     7
100
AcDbVertex
100
AcDb2dVertex
 10
-49.5477404647808
 20
37.32384459998114
 30
0.0
  0
SEQEND
  5
619
330
616
100
AcDbEntity
  8
BEMA_UNG
  0
POLYLINE
  5
61A
330
1F
100
AcDbEntity
  8
BEMA_UNG
 62
     7
100
AcDb2dPolyline
 66
     1
 10
0.0
 20
0.0
 30
0.0
  0
VERTEX
  5
61B
330
61A
100
AcDbEntity
  8
BEMA_UNG
 62
     7
100
AcDbVertex
100
AcDb2dVertex
 10
-49.02184629202794
 20
37.29593930814165
 30
0.0
  0
VERTEX
  5
61C
330
61A
100
AcDbEntity
  8
BEMA_UNG
 62
     7
100
AcDbVertex
100
AcDb2dVertex
 10
-49.76030299644704
 20
37.29593930814165
 30
0.0
  0
SEQEND
  5
61D
330
61A
100
AcDbEntity
  8
BEMA_UNG
  0
POLYLINE
  5
61E
330
1F
100
AcDbEntity
  8
BEMA_UNG
 62
     7
100
AcDb2dPolyline
 66
     1
 10
0.0
 20
0.0
 30
0.0
  0
VERTEX
  5
61F
330
61E
100
AcDbEntity
  8
BEMA_UNG
 62
     7
100
AcDbVertex
100
AcDb2dVertex
 10
-49.02184629202794
 20
37.26803401630216
 30
0.0
  0
VERTEX
  5
620
330
61E
100
AcDbEntity
  8
BEMA_UNG
 62
     7
100
AcDbVertex
100
AcDb2dVertex
 10
-49.97234876344958
 20
37.26803401630216
 30
0.0
  0
SEQEND
  5
621
330
61E
100
AcDbEntity
  8
BEMA_UNG
  0
POLYLINE
  5
622
330
1F
100
AcDbEntity
  8
BEMA_UNG
 62
     7
100
AcDb2dPolyline
 66
     1
 10
0.0
 20
0.0
 30
0.0
  0
VERTEX
  5
623
330
622
100
AcDbEntity
  8
BEMA_UNG
 62
     7
100
AcDbVertex
100
AcDb2dVertex
 10
-49.02184629202794
 20
37.23978421468687
 30
0.0
  0
VERTEX
  5
624
330
622
100
AcDbEntity
  8
BEMA_UNG
 62
     7
100
AcDbVertex
100
AcDb2dVertex
 10
-50.18473904022792
 20
37.23978421468687
 30
0.0
  0
SEQEND
  5
625
330
622
100
AcDbEntity
  8
BEMA_UNG
  0
POLYLINE
  5
626
330
1F
100
AcDbEntity
  8
BEMA_UNG
 62
     7
100
AcDb2dPolyline
 66
     1
 10
0.0
 20
0.0
 30
0.0
  0
VERTEX
  5
627
330
626
100
AcDbEntity
  8
BEMA_UNG
 62
     7
100
AcDbVertex
100
AcDb2dVertex
 10
-49.02184629202794
 20
37.21205117773528
 30
0.0
  0
VERTEX
  5
628
330
626
100
AcDbEntity
  8
BEMA_UNG
 62
     7
100
AcDbVertex
100
AcDb2dVertex
 10
-50.39661255234256
 20
37.21205117773528
 30
0.0
  0
SEQEND
  5
629
330
626
100
AcDbEntity
  8
BEMA_UNG
  0
POLYLINE
  5
62A
330
1F
100
AcDbEntity
  8
BEMA_UNG
 62
     7
100
AcDb2dPolyline
 66
     1
 10
0.0
 20
0.0
 30
0.0
  0
VERTEX
  5
62B
330
62A
100
AcDbEntity
  8
BEMA_UNG
 62
     7
100
AcDbVertex
100
AcDb2dVertex
 10
-18.49672986249631
 20
37.21205117773528
 30
0.0
  0
VERTEX
  5
62C
330
62A
100
AcDbEntity
  8
BEMA_UNG
 62
     7
100
AcDbVertex
100
AcDb2dVertex
 10
-19.87184063258671
 20
37.39291881002827
 30
0.0
  0
VERTEX
  5
62D
330
62A
100
AcDbEntity
  8
BEMA_UNG
 62
     7
100
AcDbVertex
100
AcDb2dVertex
 10
-19.87184063258671
 20
37.0308390356665
 30
0.0
  0
VERTEX
  5
62E
330
62A
100
AcDbEntity
  8
BEMA_UNG
 62
     7
100
AcDbVertex
100
AcDb2dVertex
 10
-18.49672986249631
 20
37.21205117773528
 30
0.0
  0
SEQEND
  5
62F
330
62A
100
AcDbEntity
  8
BEMA_UNG
  0
POLYLINE
  5
630
330
1F
100
AcDbEntity
  8
BEMA_UNG
 62
     7
100
AcDb2dPolyline
 66
     1
 10
0.0
 20
0.0
 30
0.0
  0
VERTEX
  5
631
330
630
100
AcDbEntity
  8
BEMA_UNG
 62
     7
100
AcDbVertex
100
AcDb2dVertex
 10
-19.87184063258671
 20
37.37982743854801
 30
0.0
  0
VERTEX
  5
632
330
630
100
AcDbEntity
  8
BEMA_UNG
 62
     7
100
AcDbVertex
100
AcDb2dVertex
 10
-19.77003799383894
 20
37.37982743854801
 30
0.0
  0
SEQEND
  5
633
330
630
100
AcDbEntity
  8
BEMA_UNG
  0
POLYLINE
  5
634
330
1F
100
AcDbEntity
  8
BEMA_UNG
 62
     7
100
AcDb2dPolyline
 66
     1
 10
0.0
 20
0.0
 30
0.0
  0
VERTEX
  5
635
330
634
100
AcDbEntity
  8
BEMA_UNG
 62
     7
100
AcDbVertex
100
AcDb2dVertex
 10
-19.87184063258671
 20
37.37982743854801
 30
0.0
  0
VERTEX
  5
636
330
634
100
AcDbEntity
  8
BEMA_UNG
 62
     7
100
AcDbVertex
100
AcDb2dVertex
 10
-19.77003799383894
 20
37.37982743854801
 30
0.0
  0
SEQEND
  5
637
330
634
100
AcDbEntity
  8
BEMA_UNG
  0
POLYLINE
  5
638
330
1F
100
AcDbEntity
  8
BEMA_UNG
 62
     7
100
AcDb2dPolyline
 66
     1
 10
0.0
 20
0.0
 30
0.0
  0
VERTEX
  5
639
330
638
100
AcDbEntity
  8
BEMA_UNG
 62
     7
100
AcDbVertex
100
AcDb2dVertex
 10
-19.87184063258671
 20
37.35192214670852
 30
0.0
  0
VERTEX
  5
63A
330
638
100
AcDbEntity
  8
BEMA_UNG
 62
     7
100
AcDbVertex
100
AcDb2dVertex
 10
-19.5581644817243
 20
37.35192214670852
 30
0.0
  0
SEQEND
  5
63B
330
638
100
AcDbEntity
  8
BEMA_UNG
  0
POLYLINE
  5
63C
330
1F
100
AcDbEntity
  8
BEMA_UNG
 62
     7
100
AcDb2dPolyline
 66
     1
 10
0.0
 20
0.0
 30
0.0
  0
VERTEX
  5
63D
330
63C
100
AcDbEntity
  8
BEMA_UNG
 62
     7
100
AcDbVertex
100
AcDb2dVertex
 10
-19.87184063258671
 20
37.32384459998114
 30
0.0
  0
VERTEX
  5
63E
330
63C
100
AcDbEntity
  8
BEMA_UNG
 62
     7
100
AcDbVertex
100
AcDb2dVertex
 10
-19.34560195005806
 20
37.32384459998114
 30
0.0
  0
SEQEND
  5
63F
330
63C
100
AcDbEntity
  8
BEMA_UNG
  0
POLYLINE
  5
640
330
1F
100
AcDbEntity
  8
BEMA_UNG
 62
     7
100
AcDb2dPolyline
 66
     1
 10
0.0
 20
0.0
 30
0.0
  0
VERTEX
  5
641
330
640
100
AcDbEntity
  8
BEMA_UNG
 62
     7
100
AcDbVertex
100
AcDb2dVertex
 10
-19.87184063258671
 20
37.29593930814165
 30
0.0
  0
VERTEX
  5
642
330
640
100
AcDbEntity
  8
BEMA_UNG
 62
     7
100
AcDbVertex
100
AcDb2dVertex
 10
-19.13338392816762
 20
37.29593930814165
 30
0.0
  0
SEQEND
  5
643
330
640
100
AcDbEntity
  8
BEMA_UNG
  0
POLYLINE
  5
644
330
1F
100
AcDbEntity
  8
BEMA_UNG
 62
     7
100
AcDb2dPolyline
 66
     1
 10
0.0
 20
0.0
 30
0.0
  0
VERTEX
  5
645
330
644
100
AcDbEntity
  8
BEMA_UNG
 62
     7
100
AcDbVertex
100
AcDb2dVertex
 10
-19.87184063258671
 20
37.26803401630216
 30
0.0
  0
VERTEX
  5
646
330
644
100
AcDbEntity
  8
BEMA_UNG
 62
     7
100
AcDbVertex
100
AcDb2dVertex
 10
-18.92116590627719
 20
37.26803401630216
 30
0.0
  0
SEQEND
  5
647
330
644
100
AcDbEntity
  8
BEMA_UNG
  0
POLYLINE
  5
648
330
1F
100
AcDbEntity
  8
BEMA_UNG
 62
     7
100
AcDb2dPolyline
 66
     1
 10
0.0
 20
0.0
 30
0.0
  0
VERTEX
  5
649
330
648
100
AcDbEntity
  8
BEMA_UNG
 62
     7
100
AcDbVertex
100
AcDb2dVertex
 10
-19.87184063258671
 20
37.23978421468687
 30
0.0
  0
VERTEX
  5
64A
330
648
100
AcDbEntity
  8
BEMA_UNG
 62
     7
100
AcDbVertex
100
AcDb2dVertex
 10
-18.70929239416254
 20
37.23978421468687
 30
0.0
  0
SEQEND
  5
64B
330
648
100
AcDbEntity
  8
BEMA_UNG
  0
POLYLINE
  5
64C
330
1F
100
AcDbEntity
  8
BEMA_UNG
 62
     7
100
AcDb2dPolyline
 66
     1
 10
0.0
 20
0.0
 30
0.0
  0
VERTEX
  5
64D
330
64C
100
AcDbEntity
  8
BEMA_UNG
 62
     7
100
AcDbVertex
100
AcDb2dVertex
 10
-19.87184063258671
 20
37.21205117773528
 30
0.0
  0
VERTEX
  5
64E
330
64C
100
AcDbEntity
  8
BEMA_UNG
 62
     7
100
AcDbVertex
100
AcDb2dVertex
 10
-18.49672986249631
 20
37.21205117773528
 30
0.0
  0
SEQEND
  5
64F
330
64C
100
AcDbEntity
  8
BEMA_UNG
  0
POLYLINE
  5
650
330
1F
100
AcDbEntity
  8
BEMA_UNG
 62
     7
100
AcDb2dPolyline
 66
     1
 10
0.0
 20
0.0
 30
0.0
  0
VERTEX
  5
651
330
650
100
AcDbEntity
  8
BEMA_UNG
 62
     7
100
AcDbVertex
100
AcDb2dVertex
 10
-19.87184063258671
 20
37.04427491692255
 30
0.0
  0
VERTEX
  5
652
330
650
100
AcDbEntity
  8
BEMA_UNG
 62
     7
100
AcDbVertex
100
AcDb2dVertex
 10
-19.77003799383894
 20
37.04427491692255
 30
0.0
  0
SEQEND
  5
653
330
650
100
AcDbEntity
  8
BEMA_UNG
  0
POLYLINE
  5
654
330
1F
100
AcDbEntity
  8
BEMA_UNG
 62
     7
100
AcDb2dPolyline
 66
     1
 10
0.0
 20
0.0
 30
0.0
  0
VERTEX
  5
655
330
654
100
AcDbEntity
  8
BEMA_UNG
 62
     7
100
AcDbVertex
100
AcDb2dVertex
 10
-19.87184063258671
 20
37.04427491692255
 30
0.0
  0
VERTEX
  5
656
330
654
100
AcDbEntity
  8
BEMA_UNG
 62
     7
100
AcDbVertex
100
AcDb2dVertex
 10
-19.77003799383894
 20
37.04427491692255
 30
0.0
  0
SEQEND
  5
657
330
654
100
AcDbEntity
  8
BEMA_UNG
  0
POLYLINE
  5
658
330
1F
100
AcDbEntity
  8
BEMA_UNG
 62
     7
100
AcDb2dPolyline
 66
     1
 10
0.0
 20
0.0
 30
0.0
  0
VERTEX
  5
659
330
658
100
AcDbEntity
  8
BEMA_UNG
 62
     7
100
AcDbVertex
100
AcDb2dVertex
 10
-19.87184063258671
 20
37.07235246364993
 30
0.0
  0
VERTEX
  5
65A
330
658
100
AcDbEntity
  8
BEMA_UNG
 62
     7
100
AcDbVertex
100
AcDb2dVertex
 10
-19.5581644817243
 20
37.07235246364993
 30
0.0
  0
SEQEND
  5
65B
330
658
100
AcDbEntity
  8
BEMA_UNG
  0
POLYLINE
  5
65C
330
1F
100
AcDbEntity
  8
BEMA_UNG
 62
     7
100
AcDb2dPolyline
 66
     1
 10
0.0
 20
0.0
 30
0.0
  0
VERTEX
  5
65D
330
65C
100
AcDbEntity
  8
BEMA_UNG
 62
     7
100
AcDbVertex
100
AcDb2dVertex
 10
-19.87184063258671
 20
37.10025775548942
 30
0.0
  0
VERTEX
  5
65E
330
65C
100
AcDbEntity
  8
BEMA_UNG
 62
     7
100
AcDbVertex
100
AcDb2dVertex
 10
-19.34560195005806
 20
37.10025775548942
 30
0.0
  0
SEQEND
  5
65F
330
65C
100
AcDbEntity
  8
BEMA_UNG
  0
POLYLINE
  5
660
330
1F
100
AcDbEntity
  8
BEMA_UNG
 62
     7
100
AcDb2dPolyline
 66
     1
 10
0.0
 20
0.0
 30
0.0
  0
VERTEX
  5
661
330
660
100
AcDbEntity
  8
BEMA_UNG
 62
     7
100
AcDbVertex
100
AcDb2dVertex
 10
-19.87184063258671
 20
37.12816304732891
 30
0.0
  0
VERTEX
  5
662
330
660
100
AcDbEntity
  8
BEMA_UNG
 62
     7
100
AcDbVertex
100
AcDb2dVertex
 10
-19.13338392816762
 20
37.12816304732891
 30
0.0
  0
SEQEND
  5
663
330
660
100
AcDbEntity
  8
BEMA_UNG
  0
POLYLINE
  5
664
330
1F
100
AcDbEntity
  8
BEMA_UNG
 62
     7
100
AcDb2dPolyline
 66
     1
 10
0.0
 20
0.0
 30
0.0
  0
VERTEX
  5
665
330
664
100
AcDbEntity
  8
BEMA_UNG
 62
     7
100
AcDbVertex
100
AcDb2dVertex
 10
-19.87184063258671
 20
37.1560683391684
 30
0.0
  0
VERTEX
  5
666
330
664
100
AcDbEntity
  8
BEMA_UNG
 62
     7
100
AcDbVertex
100
AcDb2dVertex
 10
-18.92116590627719
 20
37.1560683391684
 30
0.0
  0
SEQEND
  5
667
330
664
100
AcDbEntity
  8
BEMA_UNG
  0
POLYLINE
  5
668
330
1F
100
AcDbEntity
  8
BEMA_UNG
 62
     7
100
AcDb2dPolyline
 66
     1
 10
0.0
 20
0.0
 30
0.0
  0
VERTEX
  5
669
330
668
100
AcDbEntity
  8
BEMA_UNG
 62
     7
100
AcDbVertex
100
AcDb2dVertex
 10
-19.87184063258671
 20
37.18397363100789
 30
0.0
  0
VERTEX
  5
66A
330
668
100
AcDbEntity
  8
BEMA_UNG
 62
     7
100
AcDbVertex
100
AcDb2dVertex
 10
-18.70929239416254
 20
37.18397363100789
 30
0.0
  0
SEQEND
  5
66B
330
668
100
AcDbEntity
  8
BEMA_UNG
  0
POLYLINE
  5
66C
330
1F
100
AcDbEntity
  8
BEMA_UNG
 62
     7
100
AcDb2dPolyline
 66
     1
 10
0.0
 20
0.0
 30
0.0
  0
VERTEX
  5
66D
330
66C
100
AcDbEntity
  8
BEMA_UNG
 62
     7
100
AcDbVertex
100
AcDb2dVertex
 10
-19.87184063258671
 20
37.21205117773528
 30
0.0
  0
VERTEX
  5
66E
330
66C
100
AcDbEntity
  8
BEMA_UNG
 62
     7
100
AcDbVertex
100
AcDb2dVertex
 10
-18.49672986249631
 20
37.21205117773528
 30
0.0
  0
SEQEND
  5
66F
330
66C
100
AcDbEntity
  8
BEMA_UNG
  0
POLYLINE
  5
670
330
1F
100
AcDbEntity
  8
BEMA_UNG
 62
     7
100
AcDb2dPolyline
 66
     1
 10
0.0
 20
0.0
 30
0.0
  0
VERTEX
  5
671
330
670
100
AcDbEntity
  8
BEMA_UNG
 62
     7
100
AcDbVertex
100
AcDb2dVertex
 10
12.45333937547991
 20
-2.473924699992288
 30
0.0
  0
VERTEX
  5
672
330
670
100
AcDbEntity
  8
BEMA_UNG
 62
     7
100
AcDbVertex
100
AcDb2dVertex
 10
12.45333937547991
 20
-9.969596146877432
 30
0.0
  0
SEQEND
  5
673
330
670
100
AcDbEntity
  8
BEMA_UNG
  0
POLYLINE
  5
674
330
1F
100
AcDbEntity
  8
BEMA_UNG
 62
     7
100
AcDb2dPolyline
 66
     1
 10
0.0
 20
0.0
 30
0.0
  0
VERTEX
  5
675
330
674
100
AcDbEntity
  8
BEMA_UNG
 62
     7
100
AcDbVertex
100
AcDb2dVertex
 10
26.2034135470566
 20
18.97628747040457
 30
0.0
  0
VERTEX
  5
676
330
674
100
AcDbEntity
  8
BEMA_UNG
 62
     7
100
AcDbVertex
100
AcDb2dVertex
 10
26.2034135470566
 20
-9.969596146877432
 30
0.0
  0
SEQEND
  5
677
330
674
100
AcDbEntity
  8
BEMA_UNG
  0
POLYLINE
  5
678
330
1F
100
AcDbEntity
  8
BEMA_UNG
 62
     7
100
AcDb2dPolyline
 66
     1
 10
0.0
 20
0.0
 30
0.0
  0
VERTEX
  5
679
330
678
100
AcDbEntity
  8
BEMA_UNG
 62
     7
100
AcDbVertex
100
AcDb2dVertex
 10
12.45333937547991
 20
-8.868542903432877
 30
0.0
  0
VERTEX
  5
67A
330
678
100
AcDbEntity
  8
BEMA_UNG
 62
     7
100
AcDbVertex
100
AcDb2dVertex
 10
26.2034135470566
 20
-8.868542903432877
 30
0.0
  0
SEQEND
  5
67B
330
678
100
AcDbEntity
  8
BEMA_UNG
  0
POLYLINE
  5
67C
330
1F
100
AcDbEntity
  8
BEMA_UNG
 62
     7
100
AcDb2dPolyline
 66
     1
 10
0.0
 20
0.0
 30
0.0
  0
VERTEX
  5
67D
330
67C
100
AcDbEntity
  8
BEMA_UNG
 62
     7
100
AcDbVertex
100
AcDb2dVertex
 10
12.45333937547991
 20
-8.868542903432877
 30
0.0
  0
VERTEX
  5
67E
330
67C
100
AcDbEntity
  8
BEMA_UNG
 62
     7
100
AcDbVertex
100
AcDb2dVertex
 10
13.82931142000981
 20
-9.049755045501662
 30
0.0
  0
VERTEX
  5
67F
330
67C
100
AcDbEntity
  8
BEMA_UNG
 62
     7
100
AcDbVertex
100
AcDb2dVertex
 10
13.82931142000981
 20
-8.68750301625199
 30
0.0
  0
VERTEX
  5
680
330
67C
100
AcDbEntity
  8
BEMA_UNG
 62
     7
100
AcDbVertex
100
AcDb2dVertex
 10
12.45333937547991
 20
-8.868542903432877
 30
0.0
  0
SEQEND
  5
681
330
67C
100
AcDbEntity
  8
BEMA_UNG
  0
POLYLINE
  5
682
330
1F
100
AcDbEntity
  8
BEMA_UNG
 62
     7
100
AcDb2dPolyline
 66
     1
 10
0.0
 20
0.0
 30
0.0
  0
VERTEX
  5
683
330
682
100
AcDbEntity
  8
BEMA_UNG
 62
     7
100
AcDbVertex
100
AcDb2dVertex
 10
13.82931142000981
 20
-9.036491419133508
 30
0.0
  0
VERTEX
  5
684
330
682
100
AcDbEntity
  8
BEMA_UNG
 62
     7
100
AcDbVertex
100
AcDb2dVertex
 10
13.72664750682255
 20
-9.036491419133508
 30
0.0
  0
SEQEND
  5
685
330
682
100
AcDbEntity
  8
BEMA_UNG
  0
POLYLINE
  5
686
330
1F
100
AcDbEntity
  8
BEMA_UNG
 62
     7
100
AcDb2dPolyline
 66
     1
 10
0.0
 20
0.0
 30
0.0
  0
VERTEX
  5
687
330
686
100
AcDbEntity
  8
BEMA_UNG
 62
     7
100
AcDbVertex
100
AcDb2dVertex
 10
13.82931142000981
 20
-9.036491419133508
 30
0.0
  0
VERTEX
  5
688
330
686
100
AcDbEntity
  8
BEMA_UNG
 62
     7
100
AcDbVertex
100
AcDb2dVertex
 10
13.72664750682255
 20
-9.036491419133508
 30
0.0
  0
SEQEND
  5
689
330
686
100
AcDbEntity
  8
BEMA_UNG
  0
POLYLINE
  5
68A
330
1F
100
AcDbEntity
  8
BEMA_UNG
 62
     7
100
AcDb2dPolyline
 66
     1
 10
0.0
 20
0.0
 30
0.0
  0
VERTEX
  5
68B
330
68A
100
AcDbEntity
  8
BEMA_UNG
 62
     7
100
AcDbVertex
100
AcDb2dVertex
 10
13.82931142000981
 20
-9.008413872406122
 30
0.0
  0
VERTEX
  5
68C
330
68A
100
AcDbEntity
  8
BEMA_UNG
 62
     7
100
AcDbVertex
100
AcDb2dVertex
 10
13.51460173982001
 20
-9.008413872406122
 30
0.0
  0
SEQEND
  5
68D
330
68A
100
AcDbEntity
  8
BEMA_UNG
  0
POLYLINE
  5
68E
330
1F
100
AcDbEntity
  8
BEMA_UNG
 62
     7
100
AcDb2dPolyline
 66
     1
 10
0.0
 20
0.0
 30
0.0
  0
VERTEX
  5
68F
330
68E
100
AcDbEntity
  8
BEMA_UNG
 62
     7
100
AcDbVertex
100
AcDb2dVertex
 10
13.82931142000981
 20
-8.980336325678733
 30
0.0
  0
VERTEX
  5
690
330
68E
100
AcDbEntity
  8
BEMA_UNG
 62
     7
100
AcDbVertex
100
AcDb2dVertex
 10
13.30221146304167
 20
-8.980336325678733
 30
0.0
  0
SEQEND
  5
691
330
68E
100
AcDbEntity
  8
BEMA_UNG
  0
POLYLINE
  5
692
330
1F
100
AcDbEntity
  8
BEMA_UNG
 62
     7
100
AcDb2dPolyline
 66
     1
 10
0.0
 20
0.0
 30
0.0
  0
VERTEX
  5
693
330
692
100
AcDbEntity
  8
BEMA_UNG
 62
     7
100
AcDbVertex
100
AcDb2dVertex
 10
13.82931142000981
 20
-8.952431033839243
 30
0.0
  0
VERTEX
  5
694
330
692
100
AcDbEntity
  8
BEMA_UNG
 62
     7
100
AcDbVertex
100
AcDb2dVertex
 10
13.09016569603913
 20
-8.952431033839243
 30
0.0
  0
SEQEND
  5
695
330
692
100
AcDbEntity
  8
BEMA_UNG
  0
POLYLINE
  5
696
330
1F
100
AcDbEntity
  8
BEMA_UNG
 62
     7
100
AcDb2dPolyline
 66
     1
 10
0.0
 20
0.0
 30
0.0
  0
VERTEX
  5
697
330
696
100
AcDbEntity
  8
BEMA_UNG
 62
     7
100
AcDbVertex
100
AcDb2dVertex
 10
13.82931142000981
 20
-8.924353487111857
 30
0.0
  0
VERTEX
  5
698
330
696
100
AcDbEntity
  8
BEMA_UNG
 62
     7
100
AcDbVertex
100
AcDb2dVertex
 10
12.87760316437289
 20
-8.924353487111857
 30
0.0
  0
SEQEND
  5
699
330
696
100
AcDbEntity
  8
BEMA_UNG
  0
POLYLINE
  5
69A
330
1F
100
AcDbEntity
  8
BEMA_UNG
 62
     7
100
AcDb2dPolyline
 66
     1
 10
0.0
 20
0.0
 30
0.0
  0
VERTEX
  5
69B
330
69A
100
AcDbEntity
  8
BEMA_UNG
 62
     7
100
AcDbVertex
100
AcDb2dVertex
 10
13.82931142000981
 20
-8.896448195272367
 30
0.0
  0
VERTEX
  5
69C
330
69A
100
AcDbEntity
  8
BEMA_UNG
 62
     7
100
AcDbVertex
100
AcDb2dVertex
 10
12.66572965225825
 20
-8.896448195272367
 30
0.0
  0
SEQEND
  5
69D
330
69A
100
AcDbEntity
  8
BEMA_UNG
  0
POLYLINE
  5
69E
330
1F
100
AcDbEntity
  8
BEMA_UNG
 62
     7
100
AcDb2dPolyline
 66
     1
 10
0.0
 20
0.0
 30
0.0
  0
VERTEX
  5
69F
330
69E
100
AcDbEntity
  8
BEMA_UNG
 62
     7
100
AcDbVertex
100
AcDb2dVertex
 10
13.82931142000981
 20
-8.868542903432877
 30
0.0
  0
VERTEX
  5
6A0
330
69E
100
AcDbEntity
  8
BEMA_UNG
 62
     7
100
AcDbVertex
100
AcDb2dVertex
 10
12.45333937547991
 20
-8.868542903432877
 30
0.0
  0
SEQEND
  5
6A1
330
69E
100
AcDbEntity
  8
BEMA_UNG
  0
POLYLINE
  5
6A2
330
1F
100
AcDbEntity
  8
BEMA_UNG
 62
     7
100
AcDb2dPolyline
 66
     1
 10
0.0
 20
0.0
 30
0.0
  0
VERTEX
  5
6A3
330
6A2
100
AcDbEntity
  8
BEMA_UNG
 62
     7
100
AcDbVertex
100
AcDb2dVertex
 10
13.82931142000981
 20
-8.700766642620142
 30
0.0
  0
VERTEX
  5
6A4
330
6A2
100
AcDbEntity
  8
BEMA_UNG
 62
     7
100
AcDbVertex
100
AcDb2dVertex
 10
13.72664750682255
 20
-8.700766642620142
 30
0.0
  0
SEQEND
  5
6A5
330
6A2
100
AcDbEntity
  8
BEMA_UNG
  0
POLYLINE
  5
6A6
330
1F
100
AcDbEntity
  8
BEMA_UNG
 62
     7
100
AcDb2dPolyline
 66
     1
 10
0.0
 20
0.0
 30
0.0
  0
VERTEX
  5
6A7
330
6A6
100
AcDbEntity
  8
BEMA_UNG
 62
     7
100
AcDbVertex
100
AcDb2dVertex
 10
13.82931142000981
 20
-8.700766642620142
 30
0.0
  0
VERTEX
  5
6A8
330
6A6
100
AcDbEntity
  8
BEMA_UNG
 62
     7
100
AcDbVertex
100
AcDb2dVertex
 10
13.72664750682255
 20
-8.700766642620142
 30
0.0
  0
SEQEND
  5
6A9
330
6A6
100
AcDbEntity
  8
BEMA_UNG
  0
POLYLINE
  5
6AA
330
1F
100
AcDbEntity
  8
BEMA_UNG
 62
     7
100
AcDb2dPolyline
 66
     1
 10
0.0
 20
0.0
 30
0.0
  0
VERTEX
  5
6AB
330
6AA
100
AcDbEntity
  8
BEMA_UNG
 62
     7
100
AcDbVertex
100
AcDb2dVertex
 10
13.82931142000981
 20
-8.729016444235429
 30
0.0
  0
VERTEX
  5
6AC
330
6AA
100
AcDbEntity
  8
BEMA_UNG
 62
     7
100
AcDbVertex
100
AcDb2dVertex
 10
13.51460173982001
 20
-8.729016444235429
 30
0.0
  0
SEQEND
  5
6AD
330
6AA
100
AcDbEntity
  8
BEMA_UNG
  0
POLYLINE
  5
6AE
330
1F
100
AcDbEntity
  8
BEMA_UNG
 62
     7
100
AcDb2dPolyline
 66
     1
 10
0.0
 20
0.0
 30
0.0
  0
VERTEX
  5
6AF
330
6AE
100
AcDbEntity
  8
BEMA_UNG
 62
     7
100
AcDbVertex
100
AcDb2dVertex
 10
13.82931142000981
 20
-8.756921736074919
 30
0.0
  0
VERTEX
  5
6B0
330
6AE
100
AcDbEntity
  8
BEMA_UNG
 62
     7
100
AcDbVertex
100
AcDb2dVertex
 10
13.30221146304167
 20
-8.756921736074919
 30
0.0
  0
SEQEND
  5
6B1
330
6AE
100
AcDbEntity
  8
BEMA_UNG
  0
POLYLINE
  5
6B2
330
1F
100
AcDbEntity
  8
BEMA_UNG
 62
     7
100
AcDb2dPolyline
 66
     1
 10
0.0
 20
0.0
 30
0.0
  0
VERTEX
  5
6B3
330
6B2
100
AcDbEntity
  8
BEMA_UNG
 62
     7
100
AcDbVertex
100
AcDb2dVertex
 10
13.82931142000981
 20
-8.784827027914407
 30
0.0
  0
VERTEX
  5
6B4
330
6B2
100
AcDbEntity
  8
BEMA_UNG
 62
     7
100
AcDbVertex
100
AcDb2dVertex
 10
13.09016569603913
 20
-8.784827027914407
 30
0.0
  0
SEQEND
  5
6B5
330
6B2
100
AcDbEntity
  8
BEMA_UNG
  0
POLYLINE
  5
6B6
330
1F
100
AcDbEntity
  8
BEMA_UNG
 62
     7
100
AcDb2dPolyline
 66
     1
 10
0.0
 20
0.0
 30
0.0
  0
VERTEX
  5
6B7
330
6B6
100
AcDbEntity
  8
BEMA_UNG
 62
     7
100
AcDbVertex
100
AcDb2dVertex
 10
13.82931142000981
 20
-8.812904574641795
 30
0.0
  0
VERTEX
  5
6B8
330
6B6
100
AcDbEntity
  8
BEMA_UNG
 62
     7
100
AcDbVertex
100
AcDb2dVertex
 10
12.87760316437289
 20
-8.812904574641795
 30
0.0
  0
SEQEND
  5
6B9
330
6B6
100
AcDbEntity
  8
BEMA_UNG
  0
POLYLINE
  5
6BA
330
1F
100
AcDbEntity
  8
BEMA_UNG
 62
     7
100
AcDb2dPolyline
 66
     1
 10
0.0
 20
0.0
 30
0.0
  0
VERTEX
  5
6BB
330
6BA
100
AcDbEntity
  8
BEMA_UNG
 62
     7
100
AcDbVertex
100
AcDb2dVertex
 10
13.82931142000981
 20
-8.840809866481285
 30
0.0
  0
VERTEX
  5
6BC
330
6BA
100
AcDbEntity
  8
BEMA_UNG
 62
     7
100
AcDbVertex
100
AcDb2dVertex
 10
12.66572965225825
 20
-8.840809866481285
 30
0.0
  0
SEQEND
  5
6BD
330
6BA
100
AcDbEntity
  8
BEMA_UNG
  0
POLYLINE
  5
6BE
330
1F
100
AcDbEntity
  8
BEMA_UNG
 62
     7
100
AcDb2dPolyline
 66
     1
 10
0.0
 20
0.0
 30
0.0
  0
VERTEX
  5
6BF
330
6BE
100
AcDbEntity
  8
BEMA_UNG
 62
     7
100
AcDbVertex
100
AcDb2dVertex
 10
13.82931142000981
 20
-8.868542903432877
 30
0.0
  0
VERTEX
  5
6C0
330
6BE
100
AcDbEntity
  8
BEMA_UNG
 62
     7
100
AcDbVertex
100
AcDb2dVertex
 10
12.45333937547991
 20
-8.868542903432877
 30
0.0
  0
SEQEND
  5
6C1
330
6BE
100
AcDbEntity
  8
BEMA_UNG
  0
POLYLINE
  5
6C2
330
1F
100
AcDbEntity
  8
BEMA_UNG
 62
     7
100
AcDb2dPolyline
 66
     1
 10
0.0
 20
0.0
 30
0.0
  0
VERTEX
  5
6C3
330
6C2
100
AcDbEntity
  8
BEMA_UNG
 62
     7
100
AcDbVertex
100
AcDb2dVertex
 10
26.2034135470566
 20
-8.868542903432877
 30
0.0
  0
VERTEX
  5
6C4
330
6C2
100
AcDbEntity
  8
BEMA_UNG
 62
     7
100
AcDbVertex
100
AcDb2dVertex
 10
24.8274415025267
 20
-8.68750301625199
 30
0.0
  0
VERTEX
  5
6C5
330
6C2
100
AcDbEntity
  8
BEMA_UNG
 62
     7
100
AcDbVertex
100
AcDb2dVertex
 10
24.8274415025267
 20
-9.049755045501662
 30
0.0
  0
VERTEX
  5
6C6
330
6C2
100
AcDbEntity
  8
BEMA_UNG
 62
     7
100
AcDbVertex
100
AcDb2dVertex
 10
26.2034135470566
 20
-8.868542903432877
 30
0.0
  0
SEQEND
  5
6C7
330
6C2
100
AcDbEntity
  8
BEMA_UNG
  0
POLYLINE
  5
6C8
330
1F
100
AcDbEntity
  8
BEMA_UNG
 62
     7
100
AcDb2dPolyline
 66
     1
 10
0.0
 20
0.0
 30
0.0
  0
VERTEX
  5
6C9
330
6C8
100
AcDbEntity
  8
BEMA_UNG
 62
     7
100
AcDbVertex
100
AcDb2dVertex
 10
24.8274415025267
 20
-8.700766642620142
 30
0.0
  0
VERTEX
  5
6CA
330
6C8
100
AcDbEntity
  8
BEMA_UNG
 62
     7
100
AcDbVertex
100
AcDb2dVertex
 10
24.93010541571396
 20
-8.700766642620142
 30
0.0
  0
SEQEND
  5
6CB
330
6C8
100
AcDbEntity
  8
BEMA_UNG
  0
POLYLINE
  5
6CC
330
1F
100
AcDbEntity
  8
BEMA_UNG
 62
     7
100
AcDb2dPolyline
 66
     1
 10
0.0
 20
0.0
 30
0.0
  0
VERTEX
  5
6CD
330
6CC
100
AcDbEntity
  8
BEMA_UNG
 62
     7
100
AcDbVertex
100
AcDb2dVertex
 10
24.8274415025267
 20
-8.700766642620142
 30
0.0
  0
VERTEX
  5
6CE
330
6CC
100
AcDbEntity
  8
BEMA_UNG
 62
     7
100
AcDbVertex
100
AcDb2dVertex
 10
24.93010541571396
 20
-8.700766642620142
 30
0.0
  0
SEQEND
  5
6CF
330
6CC
100
AcDbEntity
  8
BEMA_UNG
  0
POLYLINE
  5
6D0
330
1F
100
AcDbEntity
  8
BEMA_UNG
 62
     7
100
AcDb2dPolyline
 66
     1
 10
0.0
 20
0.0
 30
0.0
  0
VERTEX
  5
6D1
330
6D0
100
AcDbEntity
  8
BEMA_UNG
 62
     7
100
AcDbVertex
100
AcDb2dVertex
 10
24.8274415025267
 20
-8.729016444235429
 30
0.0
  0
VERTEX
  5
6D2
330
6D0
100
AcDbEntity
  8
BEMA_UNG
 62
     7
100
AcDbVertex
100
AcDb2dVertex
 10
25.1423234376044
 20
-8.729016444235429
 30
0.0
  0
SEQEND
  5
6D3
330
6D0
100
AcDbEntity
  8
BEMA_UNG
  0
POLYLINE
  5
6D4
330
1F
100
AcDbEntity
  8
BEMA_UNG
 62
     7
100
AcDb2dPolyline
 66
     1
 10
0.0
 20
0.0
 30
0.0
  0
VERTEX
  5
6D5
330
6D4
100
AcDbEntity
  8
BEMA_UNG
 62
     7
100
AcDbVertex
100
AcDb2dVertex
 10
24.8274415025267
 20
-8.756921736074919
 30
0.0
  0
VERTEX
  5
6D6
330
6D4
100
AcDbEntity
  8
BEMA_UNG
 62
     7
100
AcDbVertex
100
AcDb2dVertex
 10
25.35419694971905
 20
-8.756921736074919
 30
0.0
  0
SEQEND
  5
6D7
330
6D4
100
AcDbEntity
  8
BEMA_UNG
  0
POLYLINE
  5
6D8
330
1F
100
AcDbEntity
  8
BEMA_UNG
 62
     7
100
AcDb2dPolyline
 66
     1
 10
0.0
 20
0.0
 30
0.0
  0
VERTEX
  5
6D9
330
6D8
100
AcDbEntity
  8
BEMA_UNG
 62
     7
100
AcDbVertex
100
AcDb2dVertex
 10
24.8274415025267
 20
-8.784827027914407
 30
0.0
  0
VERTEX
  5
6DA
330
6D8
100
AcDbEntity
  8
BEMA_UNG
 62
     7
100
AcDbVertex
100
AcDb2dVertex
 10
25.56675948138528
 20
-8.784827027914407
 30
0.0
  0
SEQEND
  5
6DB
330
6D8
100
AcDbEntity
  8
BEMA_UNG
  0
POLYLINE
  5
6DC
330
1F
100
AcDbEntity
  8
BEMA_UNG
 62
     7
100
AcDb2dPolyline
 66
     1
 10
0.0
 20
0.0
 30
0.0
  0
VERTEX
  5
6DD
330
6DC
100
AcDbEntity
  8
BEMA_UNG
 62
     7
100
AcDbVertex
100
AcDb2dVertex
 10
24.8274415025267
 20
-8.812904574641795
 30
0.0
  0
VERTEX
  5
6DE
330
6DC
100
AcDbEntity
  8
BEMA_UNG
 62
     7
100
AcDbVertex
100
AcDb2dVertex
 10
25.77863299349993
 20
-8.812904574641795
 30
0.0
  0
SEQEND
  5
6DF
330
6DC
100
AcDbEntity
  8
BEMA_UNG
  0
POLYLINE
  5
6E0
330
1F
100
AcDbEntity
  8
BEMA_UNG
 62
     7
100
AcDb2dPolyline
 66
     1
 10
0.0
 20
0.0
 30
0.0
  0
VERTEX
  5
6E1
330
6E0
100
AcDbEntity
  8
BEMA_UNG
 62
     7
100
AcDbVertex
100
AcDb2dVertex
 10
24.8274415025267
 20
-8.840809866481285
 30
0.0
  0
VERTEX
  5
6E2
330
6E0
100
AcDbEntity
  8
BEMA_UNG
 62
     7
100
AcDbVertex
100
AcDb2dVertex
 10
25.99119552516616
 20
-8.840809866481285
 30
0.0
  0
SEQEND
  5
6E3
330
6E0
100
AcDbEntity
  8
BEMA_UNG
  0
POLYLINE
  5
6E4
330
1F
100
AcDbEntity
  8
BEMA_UNG
 62
     7
100
AcDb2dPolyline
 66
     1
 10
0.0
 20
0.0
 30
0.0
  0
VERTEX
  5
6E5
330
6E4
100
AcDbEntity
  8
BEMA_UNG
 62
     7
100
AcDbVertex
100
AcDb2dVertex
 10
24.8274415025267
 20
-8.868542903432877
 30
0.0
  0
VERTEX
  5
6E6
330
6E4
100
AcDbEntity
  8
BEMA_UNG
 62
     7
100
AcDbVertex
100
AcDb2dVertex
 10
26.2034135470566
 20
-8.868542903432877
 30
0.0
  0
SEQEND
  5
6E7
330
6E4
100
AcDbEntity
  8
BEMA_UNG
  0
POLYLINE
  5
6E8
330
1F
100
AcDbEntity
  8
BEMA_UNG
 62
     7
100
AcDb2dPolyline
 66
     1
 10
0.0
 20
0.0
 30
0.0
  0
VERTEX
  5
6E9
330
6E8
100
AcDbEntity
  8
BEMA_UNG
 62
     7
100
AcDbVertex
100
AcDb2dVertex
 10
24.8274415025267
 20
-9.036491419133508
 30
0.0
  0
VERTEX
  5
6EA
330
6E8
100
AcDbEntity
  8
BEMA_UNG
 62
     7
100
AcDbVertex
100
AcDb2dVertex
 10
24.93010541571396
 20
-9.036491419133508
 30
0.0
  0
SEQEND
  5
6EB
330
6E8
100
AcDbEntity
  8
BEMA_UNG
  0
POLYLINE
  5
6EC
330
1F
100
AcDbEntity
  8
BEMA_UNG
 62
     7
100
AcDb2dPolyline
 66
     1
 10
0.0
 20
0.0
 30
0.0
  0
VERTEX
  5
6ED
330
6EC
100
AcDbEntity
  8
BEMA_UNG
 62
     7
100
AcDbVertex
100
AcDb2dVertex
 10
24.8274415025267
 20
-9.036491419133508
 30
0.0
  0
VERTEX
  5
6EE
330
6EC
100
AcDbEntity
  8
BEMA_UNG
 62
     7
100
AcDbVertex
100
AcDb2dVertex
 10
24.93010541571396
 20
-9.036491419133508
 30
0.0
  0
SEQEND
  5
6EF
330
6EC
100
AcDbEntity
  8
BEMA_UNG
  0
POLYLINE
  5
6F0
330
1F
100
AcDbEntity
  8
BEMA_UNG
 62
     7
100
AcDb2dPolyline
 66
     1
 10
0.0
 20
0.0
 30
0.0
  0
VERTEX
  5
6F1
330
6F0
100
AcDbEntity
  8
BEMA_UNG
 62
     7
100
AcDbVertex
100
AcDb2dVertex
 10
24.8274415025267
 20
-9.008413872406122
 30
0.0
  0
VERTEX
  5
6F2
330
6F0
100
AcDbEntity
  8
BEMA_UNG
 62
     7
100
AcDbVertex
100
AcDb2dVertex
 10
25.1423234376044
 20
-9.008413872406122
 30
0.0
  0
SEQEND
  5
6F3
330
6F0
100
AcDbEntity
  8
BEMA_UNG
  0
POLYLINE
  5
6F4
330
1F
100
AcDbEntity
  8
BEMA_UNG
 62
     7
100
AcDb2dPolyline
 66
     1
 10
0.0
 20
0.0
 30
0.0
  0
VERTEX
  5
6F5
330
6F4
100
AcDbEntity
  8
BEMA_UNG
 62
     7
100
AcDbVertex
100
AcDb2dVertex
 10
24.8274415025267
 20
-8.980336325678733
 30
0.0
  0
VERTEX
  5
6F6
330
6F4
100
AcDbEntity
  8
BEMA_UNG
 62
     7
100
AcDbVertex
100
AcDb2dVertex
 10
25.35419694971905
 20
-8.980336325678733
 30
0.0
  0
SEQEND
  5
6F7
330
6F4
100
AcDbEntity
  8
BEMA_UNG
  0
POLYLINE
  5
6F8
330
1F
100
AcDbEntity
  8
BEMA_UNG
 62
     7
100
AcDb2dPolyline
 66
     1
 10
0.0
 20
0.0
 30
0.0
  0
VERTEX
  5
6F9
330
6F8
100
AcDbEntity
  8
BEMA_UNG
 62
     7
100
AcDbVertex
100
AcDb2dVertex
 10
24.8274415025267
 20
-8.952431033839243
 30
0.0
  0
VERTEX
  5
6FA
330
6F8
100
AcDbEntity
  8
BEMA_UNG
 62
     7
100
AcDbVertex
100
AcDb2dVertex
 10
25.56675948138528
 20
-8.952431033839243
 30
0.0
  0
SEQEND
  5
6FB
330
6F8
100
AcDbEntity
  8
BEMA_UNG
  0
POLYLINE
  5
6FC
330
1F
100
AcDbEntity
  8
BEMA_UNG
 62
     7
100
AcDb2dPolyline
 66
     1
 10
0.0
 20
0.0
 30
0.0
  0
VERTEX
  5
6FD
330
6FC
100
AcDbEntity
  8
BEMA_UNG
 62
     7
100
AcDbVertex
100
AcDb2dVertex
 10
24.8274415025267
 20
-8.924353487111857
 30
0.0
  0
VERTEX
  5
6FE
330
6FC
100
AcDbEntity
  8
BEMA_UNG
 62
     7
100
AcDbVertex
100
AcDb2dVertex
 10
25.77863299349993
 20
-8.924353487111857
 30
0.0
  0
SEQEND
  5
6FF
330
6FC
100
AcDbEntity
  8
BEMA_UNG
  0
POLYLINE
  5
700
330
1F
100
AcDbEntity
  8
BEMA_UNG
 62
     7
100
AcDb2dPolyline
 66
     1
 10
0.0
 20
0.0
 30
0.0
  0
VERTEX
  5
701
330
700
100
AcDbEntity
  8
BEMA_UNG
 62
     7
100
AcDbVertex
100
AcDb2dVertex
 10
24.8274415025267
 20
-8.896448195272367
 30
0.0
  0
VERTEX
  5
702
330
700
100
AcDbEntity
  8
BEMA_UNG
 62
     7
100
AcDbVertex
100
AcDb2dVertex
 10
25.99119552516616
 20
-8.896448195272367
 30
0.0
  0
SEQEND
  5
703
330
700
100
AcDbEntity
  8
BEMA_UNG
  0
POLYLINE
  5
704
330
1F
100
AcDbEntity
  8
BEMA_UNG
 62
     7
100
AcDb2dPolyline
 66
     1
 10
0.0
 20
0.0
 30
0.0
  0
VERTEX
  5
705
330
704
100
AcDbEntity
  8
BEMA_UNG
 62
     7
100
AcDbVertex
100
AcDb2dVertex
 10
24.8274415025267
 20
-8.868542903432877
 30
0.0
  0
VERTEX
  5
706
330
704
100
AcDbEntity
  8
BEMA_UNG
 62
     7
100
AcDbVertex
100
AcDb2dVertex
 10
26.2034135470566
 20
-8.868542903432877
 30
0.0
  0
SEQEND
  5
707
330
704
100
AcDbEntity
  8
BEMA_UNG
  0
POLYLINE
  5
708
330
1F
100
AcDbEntity
  8
BEMA_UNG
 62
     7
100
AcDb2dPolyline
 66
     1
 10
0.0
 20
0.0
 30
0.0
  0
VERTEX
  5
709
330
708
100
AcDbEntity
  8
BEMA_UNG
 62
     7
100
AcDbVertex
100
AcDb2dVertex
 10
-18.61989210734344
 20
22.82618421492676
 30
0.0
  0
VERTEX
  5
70A
330
708
100
AcDbEntity
  8
BEMA_UNG
 62
     7
100
AcDbVertex
100
AcDb2dVertex
 10
-9.733606950457057
 20
22.82618421492676
 30
0.0
  0
SEQEND
  5
70B
330
708
100
AcDbEntity
  8
BEMA_UNG
  0
POLYLINE
  5
70C
330
1F
100
AcDbEntity
  8
BEMA_UNG
 62
     7
100
AcDb2dPolyline
 66
     1
 10
0.0
 20
0.0
 30
0.0
  0
VERTEX
  5
70D
330
70C
100
AcDbEntity
  8
BEMA_UNG
 62
     7
100
AcDbVertex
100
AcDb2dVertex
 10
-18.94080296349757
 20
31.6259974180883
 30
0.0
  0
VERTEX
  5
70E
330
70C
100
AcDbEntity
  8
BEMA_UNG
 62
     7
100
AcDbVertex
100
AcDb2dVertex
 10
-9.733606950457057
 20
31.6259974180883
 30
0.0
  0
SEQEND
  5
70F
330
70C
100
AcDbEntity
  8
BEMA_UNG
  0
POLYLINE
  5
710
330
1F
100
AcDbEntity
  8
BEMA_UNG
 62
     7
100
AcDb2dPolyline
 66
     1
 10
0.0
 20
0.0
 30
0.0
  0
VERTEX
  5
711
330
710
100
AcDbEntity
  8
BEMA_UNG
 62
     7
100
AcDbVertex
100
AcDb2dVertex
 10
-10.43433983442646
 20
22.82618421492676
 30
0.0
  0
VERTEX
  5
712
330
710
100
AcDbEntity
  8
BEMA_UNG
 62
     7
100
AcDbVertex
100
AcDb2dVertex
 10
-10.43433983442646
 20
31.6259974180883
 30
0.0
  0
SEQEND
  5
713
330
710
100
AcDbEntity
  8
BEMA_UNG
  0
POLYLINE
  5
714
330
1F
100
AcDbEntity
  8
BEMA_UNG
 62
     7
100
AcDb2dPolyline
 66
     1
 10
0.0
 20
0.0
 30
0.0
  0
VERTEX
  5
715
330
714
100
AcDbEntity
  8
BEMA_UNG
 62
     7
100
AcDbVertex
100
AcDb2dVertex
 10
-10.43433983442646
 20
22.82618421492676
 30
0.0
  0
VERTEX
  5
716
330
714
100
AcDbEntity
  8
BEMA_UNG
 62
     7
100
AcDbVertex
100
AcDb2dVertex
 10
-10.25329994724558
 20
24.20129498501717
 30
0.0
  0
VERTEX
  5
717
330
714
100
AcDbEntity
  8
BEMA_UNG
 62
     7
100
AcDbVertex
100
AcDb2dVertex
 10
-10.61537972160735
 20
24.20129498501717
 30
0.0
  0
VERTEX
  5
718
330
714
100
AcDbEntity
  8
BEMA_UNG
 62
     7
100
AcDbVertex
100
AcDb2dVertex
 10
-10.43433983442646
 20
22.82618421492676
 30
0.0
  0
SEQEND
  5
719
330
714
100
AcDbEntity
  8
BEMA_UNG
  0
POLYLINE
  5
71A
330
1F
100
AcDbEntity
  8
BEMA_UNG
 62
     7
100
AcDb2dPolyline
 66
     1
 10
0.0
 20
0.0
 30
0.0
  0
VERTEX
  5
71B
330
71A
100
AcDbEntity
  8
BEMA_UNG
 62
     7
100
AcDbVertex
100
AcDb2dVertex
 10
-10.26690808338953
 20
24.20129498501717
 30
0.0
  0
VERTEX
  5
71C
330
71A
100
AcDbEntity
  8
BEMA_UNG
 62
     7
100
AcDbVertex
100
AcDb2dVertex
 10
-10.26690808338953
 20
24.0996646011573
 30
0.0
  0
SEQEND
  5
71D
330
71A
100
AcDbEntity
  8
BEMA_UNG
  0
POLYLINE
  5
71E
330
1F
100
AcDbEntity
  8
BEMA_UNG
 62
     7
100
AcDb2dPolyline
 66
     1
 10
0.0
 20
0.0
 30
0.0
  0
VERTEX
  5
71F
330
71E
100
AcDbEntity
  8
BEMA_UNG
 62
     7
100
AcDbVertex
100
AcDb2dVertex
 10
-10.26690808338953
 20
24.20129498501717
 30
0.0
  0
VERTEX
  5
720
330
71E
100
AcDbEntity
  8
BEMA_UNG
 62
     7
100
AcDbVertex
100
AcDb2dVertex
 10
-10.26690808338953
 20
24.0996646011573
 30
0.0
  0
SEQEND
  5
721
330
71E
100
AcDbEntity
  8
BEMA_UNG
  0
POLYLINE
  5
722
330
1F
100
AcDbEntity
  8
BEMA_UNG
 62
     7
100
AcDb2dPolyline
 66
     1
 10
0.0
 20
0.0
 30
0.0
  0
VERTEX
  5
723
330
722
100
AcDbEntity
  8
BEMA_UNG
 62
     7
100
AcDbVertex
100
AcDb2dVertex
 10
-10.29481337522902
 20
24.20129498501717
 30
0.0
  0
VERTEX
  5
724
330
722
100
AcDbEntity
  8
BEMA_UNG
 62
     7
100
AcDbVertex
100
AcDb2dVertex
 10
-10.29481337522902
 20
23.88710206949106
 30
0.0
  0
SEQEND
  5
725
330
722
100
AcDbEntity
  8
BEMA_UNG
  0
POLYLINE
  5
726
330
1F
100
AcDbEntity
  8
BEMA_UNG
 62
     7
100
AcDb2dPolyline
 66
     1
 10
0.0
 20
0.0
 30
0.0
  0
VERTEX
  5
727
330
726
100
AcDbEntity
  8
BEMA_UNG
 62
     7
100
AcDbVertex
100
AcDb2dVertex
 10
-10.3228909219564
 20
24.20129498501717
 30
0.0
  0
VERTEX
  5
728
330
726
100
AcDbEntity
  8
BEMA_UNG
 62
     7
100
AcDbVertex
100
AcDb2dVertex
 10
-10.3228909219564
 20
23.67505630248852
 30
0.0
  0
SEQEND
  5
729
330
726
100
AcDbEntity
  8
BEMA_UNG
  0
POLYLINE
  5
72A
330
1F
100
AcDbEntity
  8
BEMA_UNG
 62
     7
100
AcDb2dPolyline
 66
     1
 10
0.0
 20
0.0
 30
0.0
  0
VERTEX
  5
72B
330
72A
100
AcDbEntity
  8
BEMA_UNG
 62
     7
100
AcDbVertex
100
AcDb2dVertex
 10
-10.350623958908
 20
24.20129498501717
 30
0.0
  0
VERTEX
  5
72C
330
72A
100
AcDbEntity
  8
BEMA_UNG
 62
     7
100
AcDbVertex
100
AcDb2dVertex
 10
-10.350623958908
 20
23.46266602571018
 30
0.0
  0
SEQEND
  5
72D
330
72A
100
AcDbEntity
  8
BEMA_UNG
  0
POLYLINE
  5
72E
330
1F
100
AcDbEntity
  8
BEMA_UNG
 62
     7
100
AcDb2dPolyline
 66
     1
 10
0.0
 20
0.0
 30
0.0
  0
VERTEX
  5
72F
330
72E
100
AcDbEntity
  8
BEMA_UNG
 62
     7
100
AcDbVertex
100
AcDb2dVertex
 10
-10.37852925074749
 20
24.20129498501717
 30
0.0
  0
VERTEX
  5
730
330
72E
100
AcDbEntity
  8
BEMA_UNG
 62
     7
100
AcDbVertex
100
AcDb2dVertex
 10
-10.37852925074749
 20
23.25079251359554
 30
0.0
  0
SEQEND
  5
731
330
72E
100
AcDbEntity
  8
BEMA_UNG
  0
POLYLINE
  5
732
330
1F
100
AcDbEntity
  8
BEMA_UNG
 62
     7
100
AcDb2dPolyline
 66
     1
 10
0.0
 20
0.0
 30
0.0
  0
VERTEX
  5
733
330
732
100
AcDbEntity
  8
BEMA_UNG
 62
     7
100
AcDbVertex
100
AcDb2dVertex
 10
-10.40643454258697
 20
24.20129498501717
 30
0.0
  0
VERTEX
  5
734
330
732
100
AcDbEntity
  8
BEMA_UNG
 62
     7
100
AcDbVertex
100
AcDb2dVertex
 10
-10.40643454258697
 20
23.0382299819293
 30
0.0
  0
SEQEND
  5
735
330
732
100
AcDbEntity
  8
BEMA_UNG
  0
POLYLINE
  5
736
330
1F
100
AcDbEntity
  8
BEMA_UNG
 62
     7
100
AcDb2dPolyline
 66
     1
 10
0.0
 20
0.0
 30
0.0
  0
VERTEX
  5
737
330
736
100
AcDbEntity
  8
BEMA_UNG
 62
     7
100
AcDbVertex
100
AcDb2dVertex
 10
-10.43433983442646
 20
24.20129498501717
 30
0.0
  0
VERTEX
  5
738
330
736
100
AcDbEntity
  8
BEMA_UNG
 62
     7
100
AcDbVertex
100
AcDb2dVertex
 10
-10.43433983442646
 20
22.82618421492676
 30
0.0
  0
SEQEND
  5
739
330
736
100
AcDbEntity
  8
BEMA_UNG
  0
POLYLINE
  5
73A
330
1F
100
AcDbEntity
  8
BEMA_UNG
 62
     7
100
AcDb2dPolyline
 66
     1
 10
0.0
 20
0.0
 30
0.0
  0
VERTEX
  5
73B
330
73A
100
AcDbEntity
  8
BEMA_UNG
 62
     7
100
AcDbVertex
100
AcDb2dVertex
 10
-10.6021160952392
 20
24.20129498501717
 30
0.0
  0
VERTEX
  5
73C
330
73A
100
AcDbEntity
  8
BEMA_UNG
 62
     7
100
AcDbVertex
100
AcDb2dVertex
 10
-10.6021160952392
 20
24.0996646011573
 30
0.0
  0
SEQEND
  5
73D
330
73A
100
AcDbEntity
  8
BEMA_UNG
  0
POLYLINE
  5
73E
330
1F
100
AcDbEntity
  8
BEMA_UNG
 62
     7
100
AcDb2dPolyline
 66
     1
 10
0.0
 20
0.0
 30
0.0
  0
VERTEX
  5
73F
330
73E
100
AcDbEntity
  8
BEMA_UNG
 62
     7
100
AcDbVertex
100
AcDb2dVertex
 10
-10.6021160952392
 20
24.20129498501717
 30
0.0
  0
VERTEX
  5
740
330
73E
100
AcDbEntity
  8
BEMA_UNG
 62
     7
100
AcDbVertex
100
AcDb2dVertex
 10
-10.6021160952392
 20
24.0996646011573
 30
0.0
  0
SEQEND
  5
741
330
73E
100
AcDbEntity
  8
BEMA_UNG
  0
POLYLINE
  5
742
330
1F
100
AcDbEntity
  8
BEMA_UNG
 62
     7
100
AcDb2dPolyline
 66
     1
 10
0.0
 20
0.0
 30
0.0
  0
VERTEX
  5
743
330
742
100
AcDbEntity
  8
BEMA_UNG
 62
     7
100
AcDbVertex
100
AcDb2dVertex
 10
-10.57421080339971
 20
24.20129498501717
 30
0.0
  0
VERTEX
  5
744
330
742
100
AcDbEntity
  8
BEMA_UNG
 62
     7
100
AcDbVertex
100
AcDb2dVertex
 10
-10.57421080339971
 20
23.88710206949106
 30
0.0
  0
SEQEND
  5
745
330
742
100
AcDbEntity
  8
BEMA_UNG
  0
POLYLINE
  5
746
330
1F
100
AcDbEntity
  8
BEMA_UNG
 62
     7
100
AcDb2dPolyline
 66
     1
 10
0.0
 20
0.0
 30
0.0
  0
VERTEX
  5
747
330
746
100
AcDbEntity
  8
BEMA_UNG
 62
     7
100
AcDbVertex
100
AcDb2dVertex
 10
-10.54613325667232
 20
24.20129498501717
 30
0.0
  0
VERTEX
  5
748
330
746
100
AcDbEntity
  8
BEMA_UNG
 62
     7
100
AcDbVertex
100
AcDb2dVertex
 10
-10.54613325667232
 20
23.67505630248852
 30
0.0
  0
SEQEND
  5
749
330
746
100
AcDbEntity
  8
BEMA_UNG
  0
POLYLINE
  5
74A
330
1F
100
AcDbEntity
  8
BEMA_UNG
 62
     7
100
AcDb2dPolyline
 66
     1
 10
0.0
 20
0.0
 30
0.0
  0
VERTEX
  5
74B
330
74A
100
AcDbEntity
  8
BEMA_UNG
 62
     7
100
AcDbVertex
100
AcDb2dVertex
 10
-10.51822796483283
 20
24.20129498501717
 30
0.0
  0
VERTEX
  5
74C
330
74A
100
AcDbEntity
  8
BEMA_UNG
 62
     7
100
AcDbVertex
100
AcDb2dVertex
 10
-10.51822796483283
 20
23.46266602571018
 30
0.0
  0
SEQEND
  5
74D
330
74A
100
AcDbEntity
  8
BEMA_UNG
  0
POLYLINE
  5
74E
330
1F
100
AcDbEntity
  8
BEMA_UNG
 62
     7
100
AcDb2dPolyline
 66
     1
 10
0.0
 20
0.0
 30
0.0
  0
VERTEX
  5
74F
330
74E
100
AcDbEntity
  8
BEMA_UNG
 62
     7
100
AcDbVertex
100
AcDb2dVertex
 10
-10.49015041810544
 20
24.20129498501717
 30
0.0
  0
VERTEX
  5
750
330
74E
100
AcDbEntity
  8
BEMA_UNG
 62
     7
100
AcDbVertex
100
AcDb2dVertex
 10
-10.49015041810544
 20
23.25079251359554
 30
0.0
  0
SEQEND
  5
751
330
74E
100
AcDbEntity
  8
BEMA_UNG
  0
POLYLINE
  5
752
330
1F
100
AcDbEntity
  8
BEMA_UNG
 62
     7
100
AcDb2dPolyline
 66
     1
 10
0.0
 20
0.0
 30
0.0
  0
VERTEX
  5
753
330
752
100
AcDbEntity
  8
BEMA_UNG
 62
     7
100
AcDbVertex
100
AcDb2dVertex
 10
-10.46224512626595
 20
24.20129498501717
 30
0.0
  0
VERTEX
  5
754
330
752
100
AcDbEntity
  8
BEMA_UNG
 62
     7
100
AcDbVertex
100
AcDb2dVertex
 10
-10.46224512626595
 20
23.0382299819293
 30
0.0
  0
SEQEND
  5
755
330
752
100
AcDbEntity
  8
BEMA_UNG
  0
POLYLINE
  5
756
330
1F
100
AcDbEntity
  8
BEMA_UNG
 62
     7
100
AcDb2dPolyline
 66
     1
 10
0.0
 20
0.0
 30
0.0
  0
VERTEX
  5
757
330
756
100
AcDbEntity
  8
BEMA_UNG
 62
     7
100
AcDbVertex
100
AcDb2dVertex
 10
-10.43433983442646
 20
24.20129498501717
 30
0.0
  0
VERTEX
  5
758
330
756
100
AcDbEntity
  8
BEMA_UNG
 62
     7
100
AcDbVertex
100
AcDb2dVertex
 10
-10.43433983442646
 20
22.82618421492676
 30
0.0
  0
SEQEND
  5
759
330
756
100
AcDbEntity
  8
BEMA_UNG
  0
POLYLINE
  5
75A
330
1F
100
AcDbEntity
  8
BEMA_UNG
 62
     7
100
AcDb2dPolyline
 66
     1
 10
0.0
 20
0.0
 30
0.0
  0
VERTEX
  5
75B
330
75A
100
AcDbEntity
  8
BEMA_UNG
 62
     7
100
AcDbVertex
100
AcDb2dVertex
 10
-10.43433983442646
 20
31.6259974180883
 30
0.0
  0
VERTEX
  5
75C
330
75A
100
AcDbEntity
  8
BEMA_UNG
 62
     7
100
AcDbVertex
100
AcDb2dVertex
 10
-10.61537972160735
 20
30.25105890288579
 30
0.0
  0
VERTEX
  5
75D
330
75A
100
AcDbEntity
  8
BEMA_UNG
 62
     7
100
AcDbVertex
100
AcDb2dVertex
 10
-10.25329994724558
 20
30.25105890288579
 30
0.0
  0
VERTEX
  5
75E
330
75A
100
AcDbEntity
  8
BEMA_UNG
 62
     7
100
AcDbVertex
100
AcDb2dVertex
 10
-10.43433983442646
 20
31.6259974180883
 30
0.0
  0
SEQEND
  5
75F
330
75A
100
AcDbEntity
  8
BEMA_UNG
  0
POLYLINE
  5
760
330
1F
100
AcDbEntity
  8
BEMA_UNG
 62
     7
100
AcDb2dPolyline
 66
     1
 10
0.0
 20
0.0
 30
0.0
  0
VERTEX
  5
761
330
760
100
AcDbEntity
  8
BEMA_UNG
 62
     7
100
AcDbVertex
100
AcDb2dVertex
 10
-10.6021160952392
 20
30.25105890288579
 30
0.0
  0
VERTEX
  5
762
330
760
100
AcDbEntity
  8
BEMA_UNG
 62
     7
100
AcDbVertex
100
AcDb2dVertex
 10
-10.6021160952392
 20
30.35268928674566
 30
0.0
  0
SEQEND
  5
763
330
760
100
AcDbEntity
  8
BEMA_UNG
  0
POLYLINE
  5
764
330
1F
100
AcDbEntity
  8
BEMA_UNG
 62
     7
100
AcDb2dPolyline
 66
     1
 10
0.0
 20
0.0
 30
0.0
  0
VERTEX
  5
765
330
764
100
AcDbEntity
  8
BEMA_UNG
 62
     7
100
AcDbVertex
100
AcDb2dVertex
 10
-10.6021160952392
 20
30.25105890288579
 30
0.0
  0
VERTEX
  5
766
330
764
100
AcDbEntity
  8
BEMA_UNG
 62
     7
100
AcDbVertex
100
AcDb2dVertex
 10
-10.6021160952392
 20
30.35268928674566
 30
0.0
  0
SEQEND
  5
767
330
764
100
AcDbEntity
  8
BEMA_UNG
  0
POLYLINE
  5
768
330
1F
100
AcDbEntity
  8
BEMA_UNG
 62
     7
100
AcDb2dPolyline
 66
     1
 10
0.0
 20
0.0
 30
0.0
  0
VERTEX
  5
769
330
768
100
AcDbEntity
  8
BEMA_UNG
 62
     7
100
AcDbVertex
100
AcDb2dVertex
 10
-10.57421080339971
 20
30.25105890288579
 30
0.0
  0
VERTEX
  5
76A
330
768
100
AcDbEntity
  8
BEMA_UNG
 62
     7
100
AcDbVertex
100
AcDb2dVertex
 10
-10.57421080339971
 20
30.5649073086361
 30
0.0
  0
SEQEND
  5
76B
330
768
100
AcDbEntity
  8
BEMA_UNG
  0
POLYLINE
  5
76C
330
1F
100
AcDbEntity
  8
BEMA_UNG
 62
     7
100
AcDb2dPolyline
 66
     1
 10
0.0
 20
0.0
 30
0.0
  0
VERTEX
  5
76D
330
76C
100
AcDbEntity
  8
BEMA_UNG
 62
     7
100
AcDbVertex
100
AcDb2dVertex
 10
-10.54613325667232
 20
30.25105890288579
 30
0.0
  0
VERTEX
  5
76E
330
76C
100
AcDbEntity
  8
BEMA_UNG
 62
     7
100
AcDbVertex
100
AcDb2dVertex
 10
-10.54613325667232
 20
30.77712533052654
 30
0.0
  0
SEQEND
  5
76F
330
76C
100
AcDbEntity
  8
BEMA_UNG
  0
POLYLINE
  5
770
330
1F
100
AcDbEntity
  8
BEMA_UNG
 62
     7
100
AcDb2dPolyline
 66
     1
 10
0.0
 20
0.0
 30
0.0
  0
VERTEX
  5
771
330
770
100
AcDbEntity
  8
BEMA_UNG
 62
     7
100
AcDbVertex
100
AcDb2dVertex
 10
-10.51822796483283
 20
30.25105890288579
 30
0.0
  0
VERTEX
  5
772
330
770
100
AcDbEntity
  8
BEMA_UNG
 62
     7
100
AcDbVertex
100
AcDb2dVertex
 10
-10.51822796483283
 20
30.98951560730488
 30
0.0
  0
SEQEND
  5
773
330
770
100
AcDbEntity
  8
BEMA_UNG
  0
POLYLINE
  5
774
330
1F
100
AcDbEntity
  8
BEMA_UNG
 62
     7
100
AcDb2dPolyline
 66
     1
 10
0.0
 20
0.0
 30
0.0
  0
VERTEX
  5
775
330
774
100
AcDbEntity
  8
BEMA_UNG
 62
     7
100
AcDbVertex
100
AcDb2dVertex
 10
-10.49015041810544
 20
30.25105890288579
 30
0.0
  0
VERTEX
  5
776
330
774
100
AcDbEntity
  8
BEMA_UNG
 62
     7
100
AcDbVertex
100
AcDb2dVertex
 10
-10.49015041810544
 20
31.20156137430742
 30
0.0
  0
SEQEND
  5
777
330
774
100
AcDbEntity
  8
BEMA_UNG
  0
POLYLINE
  5
778
330
1F
100
AcDbEntity
  8
BEMA_UNG
 62
     7
100
AcDb2dPolyline
 66
     1
 10
0.0
 20
0.0
 30
0.0
  0
VERTEX
  5
779
330
778
100
AcDbEntity
  8
BEMA_UNG
 62
     7
100
AcDbVertex
100
AcDb2dVertex
 10
-10.46224512626595
 20
30.25105890288579
 30
0.0
  0
VERTEX
  5
77A
330
778
100
AcDbEntity
  8
BEMA_UNG
 62
     7
100
AcDbVertex
100
AcDb2dVertex
 10
-10.46224512626595
 20
31.41412390597366
 30
0.0
  0
SEQEND
  5
77B
330
778
100
AcDbEntity
  8
BEMA_UNG
  0
POLYLINE
  5
77C
330
1F
100
AcDbEntity
  8
BEMA_UNG
 62
     7
100
AcDb2dPolyline
 66
     1
 10
0.0
 20
0.0
 30
0.0
  0
VERTEX
  5
77D
330
77C
100
AcDbEntity
  8
BEMA_UNG
 62
     7
100
AcDbVertex
100
AcDb2dVertex
 10
-10.43433983442646
 20
30.25105890288579
 30
0.0
  0
VERTEX
  5
77E
330
77C
100
AcDbEntity
  8
BEMA_UNG
 62
     7
100
AcDbVertex
100
AcDb2dVertex
 10
-10.43433983442646
 20
31.6259974180883
 30
0.0
  0
SEQEND
  5
77F
330
77C
100
AcDbEntity
  8
BEMA_UNG
  0
POLYLINE
  5
780
330
1F
100
AcDbEntity
  8
BEMA_UNG
 62
     7
100
AcDb2dPolyline
 66
     1
 10
0.0
 20
0.0
 30
0.0
  0
VERTEX
  5
781
330
780
100
AcDbEntity
  8
BEMA_UNG
 62
     7
100
AcDbVertex
100
AcDb2dVertex
 10
-10.26690808338953
 20
30.25105890288579
 30
0.0
  0
VERTEX
  5
782
330
780
100
AcDbEntity
  8
BEMA_UNG
 62
     7
100
AcDbVertex
100
AcDb2dVertex
 10
-10.26690808338953
 20
30.35268928674566
 30
0.0
  0
SEQEND
  5
783
330
780
100
AcDbEntity
  8
BEMA_UNG
  0
POLYLINE
  5
784
330
1F
100
AcDbEntity
  8
BEMA_UNG
 62
     7
100
AcDb2dPolyline
 66
     1
 10
0.0
 20
0.0
 30
0.0
  0
VERTEX
  5
785
330
784
100
AcDbEntity
  8
BEMA_UNG
 62
     7
100
AcDbVertex
100
AcDb2dVertex
 10
-10.26690808338953
 20
30.25105890288579
 30
0.0
  0
VERTEX
  5
786
330
784
100
AcDbEntity
  8
BEMA_UNG
 62
     7
100
AcDbVertex
100
AcDb2dVertex
 10
-10.26690808338953
 20
30.35268928674566
 30
0.0
  0
SEQEND
  5
787
330
784
100
AcDbEntity
  8
BEMA_UNG
  0
POLYLINE
  5
788
330
1F
100
AcDbEntity
  8
BEMA_UNG
 62
     7
100
AcDb2dPolyline
 66
     1
 10
0.0
 20
0.0
 30
0.0
  0
VERTEX
  5
789
330
788
100
AcDbEntity
  8
BEMA_UNG
 62
     7
100
AcDbVertex
100
AcDb2dVertex
 10
-10.29481337522902
 20
30.25105890288579
 30
0.0
  0
VERTEX
  5
78A
330
788
100
AcDbEntity
  8
BEMA_UNG
 62
     7
100
AcDbVertex
100
AcDb2dVertex
 10
-10.29481337522902
 20
30.5649073086361
 30
0.0
  0
SEQEND
  5
78B
330
788
100
AcDbEntity
  8
BEMA_UNG
  0
POLYLINE
  5
78C
330
1F
100
AcDbEntity
  8
BEMA_UNG
 62
     7
100
AcDb2dPolyline
 66
     1
 10
0.0
 20
0.0
 30
0.0
  0
VERTEX
  5
78D
330
78C
100
AcDbEntity
  8
BEMA_UNG
 62
     7
100
AcDbVertex
100
AcDb2dVertex
 10
-10.3228909219564
 20
30.25105890288579
 30
0.0
  0
VERTEX
  5
78E
330
78C
100
AcDbEntity
  8
BEMA_UNG
 62
     7
100
AcDbVertex
100
AcDb2dVertex
 10
-10.3228909219564
 20
30.77712533052654
 30
0.0
  0
SEQEND
  5
78F
330
78C
100
AcDbEntity
  8
BEMA_UNG
  0
POLYLINE
  5
790
330
1F
100
AcDbEntity
  8
BEMA_UNG
 62
     7
100
AcDb2dPolyline
 66
     1
 10
0.0
 20
0.0
 30
0.0
  0
VERTEX
  5
791
330
790
100
AcDbEntity
  8
BEMA_UNG
 62
     7
100
AcDbVertex
100
AcDb2dVertex
 10
-10.350623958908
 20
30.25105890288579
 30
0.0
  0
VERTEX
  5
792
330
790
100
AcDbEntity
  8
BEMA_UNG
 62
     7
100
AcDbVertex
100
AcDb2dVertex
 10
-10.350623958908
 20
30.98951560730488
 30
0.0
  0
SEQEND
  5
793
330
790
100
AcDbEntity
  8
BEMA_UNG
  0
POLYLINE
  5
794
330
1F
100
AcDbEntity
  8
BEMA_UNG
 62
     7
100
AcDb2dPolyline
 66
     1
 10
0.0
 20
0.0
 30
0.0
  0
VERTEX
  5
795
330
794
100
AcDbEntity
  8
BEMA_UNG
 62
     7
100
AcDbVertex
100
AcDb2dVertex
 10
-10.37852925074749
 20
30.25105890288579
 30
0.0
  0
VERTEX
  5
796
330
794
100
AcDbEntity
  8
BEMA_UNG
 62
     7
100
AcDbVertex
100
AcDb2dVertex
 10
-10.37852925074749
 20
31.20156137430742
 30
0.0
  0
SEQEND
  5
797
330
794
100
AcDbEntity
  8
BEMA_UNG
  0
POLYLINE
  5
798
330
1F
100
AcDbEntity
  8
BEMA_UNG
 62
     7
100
AcDb2dPolyline
 66
     1
 10
0.0
 20
0.0
 30
0.0
  0
VERTEX
  5
799
330
798
100
AcDbEntity
  8
BEMA_UNG
 62
     7
100
AcDbVertex
100
AcDb2dVertex
 10
-10.40643454258697
 20
30.25105890288579
 30
0.0
  0
VERTEX
  5
79A
330
798
100
AcDbEntity
  8
BEMA_UNG
 62
     7
100
AcDbVertex
100
AcDb2dVertex
 10
-10.40643454258697
 20
31.41412390597366
 30
0.0
  0
SEQEND
  5
79B
330
798
100
AcDbEntity
  8
BEMA_UNG
  0
POLYLINE
  5
79C
330
1F
100
AcDbEntity
  8
BEMA_UNG
 62
     7
100
AcDb2dPolyline
 66
     1
 10
0.0
 20
0.0
 30
0.0
  0
VERTEX
  5
79D
330
79C
100
AcDbEntity
  8
BEMA_UNG
 62
     7
100
AcDbVertex
100
AcDb2dVertex
 10
-10.43433983442646
 20
30.25105890288579
 30
0.0
  0
VERTEX
  5
79E
330
79C
100
AcDbEntity
  8
BEMA_UNG
 62
     7
100
AcDbVertex
100
AcDb2dVertex
 10
-10.43433983442646
 20
31.6259974180883
 30
0.0
  0
SEQEND
  5
79F
330
79C
100
AcDbEntity
  8
BEMA_UNG
  0
MTEXT
  5
7A1
330
1F
100
AcDbEntity
  8
TEXT
 62
     7
100
AcDbMText
 10
-37.398430966441
 20
37.9024487684308
 30
0.0
 40
2.398890470823883
 41
0.0
 71
     7
 72
     1
  1
\fINDEX Univers 45 Light|b0|i0|c0|p34;\W1;\U+00F858
  0
MTEXT
  5
7A2
330
1F
100
AcDbEntity
  8
TEXT
 62
     7
100
AcDbMText
 10
14.47009960299068
 20
-8.133359041883852
 30
0.0
 40
2.398890470823883
 41
0.0
 71
     7
 72
     1
  1
\fINDEX Univers 45 Light|b0|i0|c0|p34;\W1;\U+00F825h6
  0
MTEXT
  5
7A3
330
1F
100
AcDbEntity
  8
TEXT
 62
     7
100
AcDbMText
 10
-11.11612468072708
 20
25.47839272389357
 30
0.0
 40
2.398890470823883
 41
0.0
 71
     7
 72
     1
  1
\fINDEX Univers 45 Light|b0|i0|c0|p34;\W1;16
 11
-4.371139000186241E-8
 21
0.999999999999999
 31
0.0
  0
ENDSEC
  0
SECTION
  2
OBJECTS
  0
DICTIONARY
  5
C
330
0
100
AcDbDictionary
  3
ACAD_GROUP
350
D
  3
ACAD_LAYOUT
350
1A
  3
ACAD_MLINESTYLE
350
17
  3
ACAD_PLOTSETTINGS
350
19
  3
ACAD_TABLESTYLE
350
7C4
  3
ACAD_VISUALSTYLE
350
2A
  3
ACDBHEADERROUNDTRIPXREC
350
7A4
  0
DICTIONARY
  5
D
102
{ACAD_REACTORS
330
C
102
}
330
C
100
AcDbDictionary
  0
DICTIONARY
  5
1A
102
{ACAD_REACTORS
330
C
102
}
330
C
100
AcDbDictionary
  0
DICTIONARY
  5
17
102
{ACAD_REACTORS
330
C
102
}
330
C
100
AcDbDictionary
  3
STANDARD
350
18
  0
DICTIONARY
  5
19
102
{ACAD_REACTORS
330
C
102
}
330
C
100
AcDbDictionary
  0
DICTIONARY
  5
7C4
102
{ACAD_REACTORS
330
C
102
}
330
C
100
AcDbDictionary
  0
DICTIONARY
  5
2A
102
{ACAD_REACTORS
330
C
102
}
330
C
100
AcDbDictionary
  3
2DWIREFRAME
350
2F
  3
3D_HIDDEN
350
31
  3
3DWIREFRAME
350
30
  3
BASIC
350
32
  3
BRIGHTEN
350
36
  3
COLORCHANGE
350
3A
  3
CONCEPTUAL
350
34
  3
DIM
350
35
  3
FACEPATTERN
350
39
  3
FLAT
350
2B
  3
FLATWITHEDGES
350
2C
  3
GOURAUD
350
2D
  3
GOURAUDWITHEDGES
350
2E
  3
LINEPATTERN
350
38
  3
REALISTIC
350
33
  3
THICKEN
350
37
  0
DICTIONARY
  5
7A4
102
{ACAD_REACTORS
330
C
102
}
330
C
100
AcDbDictionary
  3
CEPSNTYPE
350
7AD
  3
DIMSTYLEDATA
350
7C3
  3
FINGERPRINTGUID
350
7AE
  3
HYPERLINKBASE
350
7A7
  3
INSUNITS
350
7AC
  3
LAYOUTDICT
350
7A9
  3
LWETCUNION
350
7AB
  3
PLOTSETDICT
350
7AA
  3
PSVPSCALE
350
7B0
  3
PUCSBASE
350
7B3
  3
PUCSORGBACK
350
7B9
  3
PUCSORGBOTTOM
350
7B5
  3
PUCSORGFRONT
350
7B8
  3
PUCSORGLEFT
350
7B6
  3
PUCSORGRIGHT
350
7B7
  3
PUCSORGTOP
350
7B4
  3
PUCSORTHOREF
350
7B1
  3
PUCSORTHOVIEW
350
7B2
  3
STYLESHEET
350
7A8
  3
TSTACKALIGN
350
7A5
  3
TSTACKSIZE
350
7A6
  3
UCSBASE
350
7BC
  3
UCSORGBACK
350
7C2
  3
UCSORGBOTTOM
350
7BE
  3
UCSORGFRONT
350
7C1
  3
UCSORGLEFT
350
7BF
  3
UCSORGRIGHT
350
7C0
  3
UCSORGTOP
350
7BD
  3
UCSORTHOREF
350
7BA
  3
UCSORTHOVIEW
350
7BB
  3
VERSIONGUID
350
7AF
  0
MLINESTYLE
  5
18
102
{ACAD_REACTORS
330
17
102
}
330
17
100
AcDbMlineStyle
  2
Standard
 70
     0
  3

 62
   256
 51
90.0
 52
90.0
 71
     2
 49
0.5
 62
   256
  6
BYLAYER
 49
-0.5
 62
   256
  6
BYLAYER
  0
VISUALSTYLE
  5
2F
102
{ACAD_REACTORS
330
2A
102
}
330
2A
100
AcDbVisualStyle
  2
2dWireframe
 70
     4
 71
     0
 72
     2
 73
     0
 90
        0
 40
-0.6
 41
-30.0
 62
     5
 63
     7
 74
     1
 91
        4
 64
     7
 65
   257
 75
     1
175
     1
 42
1.0
 92
        0
 66
   257
 43
1.0
 76
     1
 77
     6
 78
     2
 67
     7
 79
     5
170
     0
171
     0
290
     0
174
     0
 93
        1
 44
0.0
173
     0
291
     0
 45
0.0
1001
ACAD
1000
AcDbSavedByObjectVersion
1070
     0
  0
VISUALSTYLE
  5
31
102
{ACAD_REACTORS
330
2A
102
}
330
2A
100
AcDbVisualStyle
  2
3D Hidden
 70
     6
 71
     1
 72
     2
 73
     2
 90
        0
 40
-0.6
 41
-30.0
 62
     5
 63
     7
 74
     2
 91
        2
 64
     7
 65
   257
 75
     2
175
     1
 42
40.0
 92
        0
 66
   257
 43
1.0
 76
     1
 77
     6
 78
     2
 67
     7
 79
     3
170
     0
171
     0
290
     0
174
     0
 93
        1
 44
0.0
173
     0
291
     0
 45
0.0
1001
ACAD
1000
AcDbSavedByObjectVersion
1070
     0
  0
VISUALSTYLE
  5
30
102
{ACAD_REACTORS
330
2A
102
}
330
2A
100
AcDbVisualStyle
  2
3dWireframe
 70
     5
 71
     0
 72
     2
 73
     0
 90
        0
 40
-0.6
 41
-30.0
 62
     5
 63
     7
 74
     1
 91
        4
 64
     7
 65
   257
 75
     1
175
     1
 42
1.0
 92
        0
 66
   257
 43
1.0
 76
     1
 77
     6
 78
     2
 67
     7
 79
     5
170
     0
171
     0
290
     0
174
     0
 93
        1
 44
0.0
173
     0
291
     0
 45
0.0
1001
ACAD
1000
AcDbSavedByObjectVersion
1070
     0
  0
VISUALSTYLE
  5
32
102
{ACAD_REACTORS
330
2A
102
}
330
2A
100
AcDbVisualStyle
  2
Basic
 70
     7
 71
     1
 72
     0
 73
     1
 90
        0
 40
-0.6
 41
-30.0
 62
     5
 63
     7
 74
     0
 91
        4
 64
     7
 65
   257
 75
     1
175
     1
 42
1.0
 92
        8
 66
     7
 43
1.0
 76
     1
 77
     6
 78
     2
 67
     7
 79
     5
170
     0
171
     0
290
     0
174
     0
 93
        1
 44
0.0
173
     0
291
     1
 45
0.0
1001
ACAD
1000
AcDbSavedByObjectVersion
1070
     0
  0
VISUALSTYLE
  5
36
102
{ACAD_REACTORS
330
2A
102
}
330
2A
100
AcDbVisualStyle
  2
Brighten
 70
    12
 71
     2
 72
     2
 73
     0
 90
        0
 40
-0.6
 41
-30.0
 62
     5
 63
     7
 74
     1
 91
        4
 64
     7
 65
   257
 75
     1
175
     1
 42
1.0
 92
        8
 66
     7
 43
1.0
 76
     1
 77
     6
 78
     2
 67
     7
 79
     5
170
     0
171
     0
290
     0
174
     0
 93
        1
 44
50.0
173
     0
291
     1
 45
0.0
1001
ACAD
1000
AcDbSavedByObjectVersion
1070
     0
  0
VISUALSTYLE
  5
3A
102
{ACAD_REACTORS
330
2A
102
}
330
2A
100
AcDbVisualStyle
  2
ColorChange
 70
    16
 71
     2
 72
     2
 73
     3
 90
        0
 40
-0.6
 41
-30.0
 62
     5
 63
     8
 74
     1
 91
        4
 64
     7
 65
   257
 75
     1
175
     1
 42
1.0
 92
        8
 66
     8
 43
1.0
 76
     1
 77
     6
 78
     2
 67
     7
 79
     5
170
     0
171
     0
290
     0
174
     0
 93
        1
 44
0.0
173
     0
291
     1
 45
0.0
1001
ACAD
1000
AcDbSavedByObjectVersion
1070
     0
  0
VISUALSTYLE
  5
34
102
{ACAD_REACTORS
330
2A
102
}
330
2A
100
AcDbVisualStyle
  2
Conceptual
 70
     9
 71
     3
 72
     2
 73
     0
 90
        0
 40
-0.6
 41
-30.0
 62
     5
 63
     7
 74
     2
 91
        2
 64
     7
 65
   257
 75
     1
175
     1
 42
40.0
 92
        8
 66
     7
 43
1.0
 76
     1
 77
     6
 78
     2
 67
     7
 79
     3
170
     0
171
     0
290
     0
174
     0
 93
        1
 44
0.0
173
     0
291
     0
 45
0.0
1001
ACAD
1000
AcDbSavedByObjectVersion
1070
     0
  0
VISUALSTYLE
  5
35
102
{ACAD_REACTORS
330
2A
102
}
330
2A
100
AcDbVisualStyle
  2
Dim
 70
    11
 71
     2
 72
     2
 73
     0
 90
        0
 40
-0.6
 41
-30.0
 62
     5
 63
     7
 74
     1
 91
        4
 64
     7
 65
   257
 75
     1
175
     1
 42
1.0
 92
        8
 66
     7
 43
1.0
 76
     1
 77
     6
 78
     2
 67
     7
 79
     5
170
     0
171
     0
290
     0
174
     0
 93
        1
 44
-50.0
173
     0
291
     1
 45
0.0
1001
ACAD
1000
AcDbSavedByObjectVersion
1070
     0
  0
VISUALSTYLE
  5
39
102
{ACAD_REACTORS
330
2A
102
}
330
2A
100
AcDbVisualStyle
  2
Facepattern
 70
    15
 71
     2
 72
     2
 73
     0
 90
        0
 40
-0.6
 41
-30.0
 62
     5
 63
     7
 74
     1
 91
        4
 64
     7
 65
   257
 75
     1
175
     1
 42
1.0
 92
        8
 66
     7
 43
1.0
 76
     1
 77
     6
 78
     2
 67
     7
 79
     5
170
     0
171
     0
290
     0
174
     0
 93
        1
 44
0.0
173
     0
291
     1
 45
0.0
1001
ACAD
1000
AcDbSavedByObjectVersion
1070
     0
  0
VISUALSTYLE
  5
2B
102
{ACAD_REACTORS
330
2A
102
}
330
2A
100
AcDbVisualStyle
  2
Flat
 70
     0
 71
     2
 72
     1
 73
     1
 90
        2
 40
-0.6
 41
30.0
 62
     5
 63
     7
 74
     0
 91
        4
 64
     7
 65
   257
 75
     1
175
     1
 42
1.0
 92
        8
 66
     7
 43
1.0
 76
     1
 77
     6
 78
     2
 67
     7
 79
     5
170
     0
171
     0
290
     0
174
     0
 93
       13
 44
0.0
173
     0
291
     1
 45
0.0
1001
ACAD
1000
AcDbSavedByObjectVersion
1070
     0
  0
VISUALSTYLE
  5
2C
102
{ACAD_REACTORS
330
2A
102
}
330
2A
100
AcDbVisualStyle
  2
FlatWithEdges
 70
     1
 71
     2
 72
     1
 73
     1
 90
        2
 40
-0.6
 41
30.0
 62
     5
 63
     7
 74
     1
 91
        4
 64
     7
 65
   257
 75
     1
175
     1
 42
1.0
 92
        0
 66
   257
 43
1.0
 76
     1
 77
     6
 78
     2
 67
     7
 79
     5
170
     0
171
     0
290
     0
174
     0
 93
       13
 44
0.0
173
     0
291
     1
 45
0.0
1001
ACAD
1000
AcDbSavedByObjectVersion
1070
     0
  0
VISUALSTYLE
  5
2D
102
{ACAD_REACTORS
330
2A
102
}
330
2A
100
AcDbVisualStyle
  2
Gouraud
 70
     2
 71
     2
 72
     2
 73
     1
 90
        2
 40
-0.6
 41
30.0
 62
     5
 63
     7
 74
     0
 91
        4
 64
     7
 65
   257
 75
     1
175
     1
 42
1.0
 92
        0
 66
     7
 43
1.0
 76
     1
 77
     6
 78
     2
 67
     7
 79
     5
170
     0
171
     0
290
     0
174
     0
 93
       13
 44
0.0
173
     0
291
     1
 45
0.0
1001
ACAD
1000
AcDbSavedByObjectVersion
1070
     0
  0
VISUALSTYLE
  5
2E
102
{ACAD_REACTORS
330
2A
102
}
330
2A
100
AcDbVisualStyle
  2
GouraudWithEdges
 70
     3
 71
     2
 72
     2
 73
     1
 90
        2
 40
-0.6
 41
30.0
 62
     5
 63
     7
 74
     1
 91
        4
 64
     7
 65
   257
 75
     1
175
     1
 42
1.0
 92
        0
 66
   257
 43
1.0
 76
     1
 77
     6
 78
     2
 67
     7
 79
     5
170
     0
171
     0
290
     0
174
     0
 93
       13
 44
0.0
173
     0
291
     1
 45
0.0
1001
ACAD
1000
AcDbSavedByObjectVersion
1070
     0
  0
VISUALSTYLE
  5
38
102
{ACAD_REACTORS
330
2A
102
}
330
2A
100
AcDbVisualStyle
  2
Linepattern
 70
    14
 71
     2
 72
     2
 73
     0
 90
        0
 40
-0.6
 41
-30.0
 62
     5
 63
     7
 74
     1
 91
        4
 64
     7
 65
   257
 75
     7
175
     7
 42
1.0
 92
        8
 66
     7
 43
1.0
 76
     1
 77
     6
 78
     2
 67
     7
 79
     5
170
     0
171
     0
290
     0
174
     0
 93
        1
 44
0.0
173
     0
291
     1
 45
0.0
1001
ACAD
1000
AcDbSavedByObjectVersion
1070
     0
  0
VISUALSTYLE
  5
33
102
{ACAD_REACTORS
330
2A
102
}
330
2A
100
AcDbVisualStyle
  2
Realistic
 70
     8
 71
     2
 72
     2
 73
     0
 90
        0
 40
-0.6
 41
-30.0
 62
     5
 63
     7
 74
     1
 91
        0
 64
     7
 65
   257
 75
     1
175
     1
 42
1.0
 92
        8
 66
     8
 43
1.0
 76
     1
 77
     6
 78
     2
 67
     7
 79
     5
170
     0
171
     0
290
     0
174
     0
 93
       13
 44
0.0
173
     0
291
     0
 45
0.0
1001
ACAD
1000
AcDbSavedByObjectVersion
1070
     0
  0
VISUALSTYLE
  5
37
102
{ACAD_REACTORS
330
2A
102
}
330
2A
100
AcDbVisualStyle
  2
Thicken
 70
    13
 71
     2
 72
     2
 73
     0
 90
        0
 40
-0.6
 41
-30.0
 62
     5
 63
     7
 74
     1
 91
        4
 64
     7
 65
   257
 75
     1
175
     1
 42
1.0
 92
       12
 66
     7
 43
1.0
 76
     1
 77
     6
 78
     2
 67
     7
 79
     5
170
     0
171
     0
290
     0
174
     0
 93
        1
 44
0.0
173
     0
291
     1
 45
0.0
1001
ACAD
1000
AcDbSavedByObjectVersion
1070
     0
  0
XRECORD
  5
7AD
102
{ACAD_REACTORS
330
7A4
102
}
330
7A4
100
AcDbXrecord
 90
        0
  0
XRECORD
  5
7C3
102
{ACAD_REACTORS
330
7A4
102
}
330
7A4
100
AcDbXrecord
1000
DSTYLE
1002
{
1070
   340
340
11
1002
}
  0
XRECORD
  5
7AE
102
{ACAD_REACTORS
330
7A4
102
}
330
7A4
100
AcDbXrecord
  1
{65C0F754-4600-4167-8FBA-C09CD779524C}
  0
XRECORD
  5
7A7
102
{ACAD_REACTORS
330
7A4
102
}
330
7A4
100
AcDbXrecord
  1

  0
XRECORD
  5
7AC
102
{ACAD_REACTORS
330
7A4
102
}
330
7A4
100
AcDbXrecord
 90
        1
  0
XRECORD
  5
7A9
102
{ACAD_REACTORS
330
7A4
102
}
330
7A4
100
AcDbXrecord
340
1A
  0
XRECORD
  5
7AB
102
{ACAD_REACTORS
330
7A4
102
}
330
7A4
100
AcDbXrecord
 90
    10269
  0
XRECORD
  5
7AA
102
{ACAD_REACTORS
330
7A4
102
}
330
7A4
100
AcDbXrecord
340
19
  0
XRECORD
  5
7B0
102
{ACAD_REACTORS
330
7A4
102
}
330
7A4
100
AcDbXrecord
 40
0.0
  0
XRECORD
  5
7B3
102
{ACAD_REACTORS
330
7A4
102
}
330
7A4
100
AcDbXrecord
340
0
  0
XRECORD
  5
7B9
102
{ACAD_REACTORS
330
7A4
102
}
330
7A4
100
AcDbXrecord
 10
0.0
 20
0.0
 30
0.0
  0
XRECORD
  5
7B5
102
{ACAD_REACTORS
330
7A4
102
}
330
7A4
100
AcDbXrecord
 10
0.0
 20
0.0
 30
0.0
  0
XRECORD
  5
7B8
102
{ACAD_REACTORS
330
7A4
102
}
330
7A4
100
AcDbXrecord
 10
0.0
 20
0.0
 30
0.0
  0
XRECORD
  5
7B6
102
{ACAD_REACTORS
330
7A4
102
}
330
7A4
100
AcDbXrecord
 10
0.0
 20
0.0
 30
0.0
  0
XRECORD
  5
7B7
102
{ACAD_REACTORS
330
7A4
102
}
330
7A4
100
AcDbXrecord
 10
0.0
 20
0.0
 30
0.0
  0
XRECORD
  5
7B4
102
{ACAD_REACTORS
330
7A4
102
}
330
7A4
100
AcDbXrecord
 10
0.0
 20
0.0
 30
0.0
  0
XRECORD
  5
7B1
102
{ACAD_REACTORS
330
7A4
102
}
330
7A4
100
AcDbXrecord
340
0
  0
XRECORD
  5
7B2
102
{ACAD_REACTORS
330
7A4
102
}
330
7A4
100
AcDbXrecord
 70
     0
  0
XRECORD
  5
7A8
102
{ACAD_REACTORS
330
7A4
102
}
330
7A4
100
AcDbXrecord
  1

  0
XRECORD
  5
7A5
102
{ACAD_REACTORS
330
7A4
102
}
330
7A4
100
AcDbXrecord
 90
        1
  0
XRECORD
  5
7A6
102
{ACAD_REACTORS
330
7A4
102
}
330
7A4
100
AcDbXrecord
 90
       70
  0
XRECORD
  5
7BC
102
{ACAD_REACTORS
330
7A4
102
}
330
7A4
100
AcDbXrecord
340
0
  0
XRECORD
  5
7C2
102
{ACAD_REACTORS
330
7A4
102
}
330
7A4
100
AcDbXrecord
 10
0.0
 20
0.0
 30
0.0
  0
XRECORD
  5
7BE
102
{ACAD_REACTORS
330
7A4
102
}
330
7A4
100
AcDbXrecord
 10
0.0
 20
0.0
 30
0.0
  0
XRECORD
  5
7C1
102
{ACAD_REACTORS
330
7A4
102
}
330
7A4
100
AcDbXrecord
 10
0.0
 20
0.0
 30
0.0
  0
XRECORD
  5
7BF
102
{ACAD_REACTORS
330
7A4
102
}
330
7A4
100
AcDbXrecord
 10
0.0
 20
0.0
 30
0.0
  0
XRECORD
  5
7C0
102
{ACAD_REACTORS
330
7A4
102
}
330
7A4
100
AcDbXrecord
 10
0.0
 20
0.0
 30
0.0
  0
XRECORD
  5
7BD
102
{ACAD_REACTORS
330
7A4
102
}
330
7A4
100
AcDbXrecord
 10
0.0
 20
0.0
 30
0.0
  0
XRECORD
  5
7BA
102
{ACAD_REACTORS
330
7A4
102
}
330
7A4
100
AcDbXrecord
340
0
  0
XRECORD
  5
7BB
102
{ACAD_REACTORS
330
7A4
102
}
330
7A4
100
AcDbXrecord
 70
     0
  0
XRECORD
  5
7AF
102
{ACAD_REACTORS
330
7A4
102
}
330
7A4
100
AcDbXrecord
  1
{FAEB1C32-E019-11D5-929B-00C0DF256EC4}
  0
ENDSEC
  0
EOF
