  0
SECTION
  2
HEADER
  9
$ACADVER
  1
AC1014
  9
$ACADMAINTVER
 70
     9
  9
$DWGCODEPAGE
  3
ANSI_1252
  9
$INSBASE
 10
0.0
 20
0.0
 30
0.0
  9
$EXTMIN
 10
1.000000000000000E+20
 20
1.000000000000000E+20
 30
1.000000000000000E+20
  9
$EXTMAX
 10
-1.000000000000000E+20
 20
-1.000000000000000E+20
 30
-1.000000000000000E+20
  9
$LIMMIN
 10
0.0
 20
0.0
  9
$LIMMAX
 10
12.0
 20
9.0
  9
$ORTHOMODE
 70
     0
  9
$REGENMODE
 70
     1
  9
$FILLMODE
 70
     1
  9
$QTEXTMODE
 70
     0
  9
$MIRRTEXT
 70
     1
  9
$DRAGMODE
 70
     2
  9
$LTSCALE
 40
1.0
  9
$OSMODE
 70
    37
  9
$ATTMODE
 70
     1
  9
$TEXTSIZE
 40
0.2
  9
$TRACEWID
 40
0.05
  9
$TEXTSTYLE
  7
STANDARD
  9
$CLAYER
  8
0
  9
$CELTYPE
  6
BYLAYER
  9
$CECOLOR
 62
   256
  9
$CELTSCALE
 40
1.0
  9
$DELOBJ
 70
     1
  9
$DISPSILH
 70
     0
  9
$DIMSCALE
 40
1.0
  9
$DIMASZ
 40
0.18
  9
$DIMEXO
 40
0.0625
  9
$DIMDLI
 40
0.38
  9
$DIMRND
 40
0.0
  9
$DIMDLE
 40
0.0
  9
$DIMEXE
 40
0.18
  9
$DIMTP
 40
0.0
  9
$DIMTM
 40
0.0
  9
$DIMTXT
 40
0.18
  9
$DIMCEN
 40
0.09
  9
$DIMTSZ
 40
0.0
  9
$DIMTOL
 70
     0
  9
$DIMLIM
 70
     0
  9
$DIMTIH
 70
     1
  9
$DIMTOH
 70
     1
  9
$DIMSE1
 70
     0
  9
$DIMSE2
 70
     0
  9
$DIMTAD
 70
     0
  9
$DIMZIN
 70
     0
  9
$DIMBLK
  1

  9
$DIMASO
 70
     1
  9
$DIMSHO
 70
     1
  9
$DIMPOST
  1

  9
$DIMAPOST
  1

  9
$DIMALT
 70
     0
  9
$DIMALTD
 70
     2
  9
$DIMALTF
 40
25.4
  9
$DIMLFAC
 40
1.0
  9
$DIMTOFL
 70
     0
  9
$DIMTVP
 40
0.0
  9
$DIMTIX
 70
     0
  9
$DIMSOXD
 70
     0
  9
$DIMSAH
 70
     0
  9
$DIMBLK1
  1

  9
$DIMBLK2
  1

  9
$DIMSTYLE
  2
STANDARD
  9
$DIMCLRD
 70
     0
  9
$DIMCLRE
 70
     0
  9
$DIMCLRT
 70
     0
  9
$DIMTFAC
 40
1.0
  9
$DIMGAP
 40
0.09
  9
$DIMJUST
 70
     0
  9
$DIMSD1
 70
     0
  9
$DIMSD2
 70
     0
  9
$DIMTOLJ
 70
     1
  9
$DIMTZIN
 70
     0
  9
$DIMALTZ
 70
     0
  9
$DIMALTTZ
 70
     0
  9
$DIMFIT
 70
     3
  9
$DIMUPT
 70
     0
  9
$DIMUNIT
 70
     2
  9
$DIMDEC
 70
     4
  9
$DIMTDEC
 70
     4
  9
$DIMALTU
 70
     2
  9
$DIMALTTD
 70
     2
  9
$DIMTXSTY
  7
STANDARD
  9
$DIMAUNIT
 70
     0
  9
$LUNITS
 70
     2
  9
$LUPREC
 70
     4
  9
$SKETCHINC
 40
0.1
  9
$FILLETRAD
 40
0.5
  9
$AUNITS
 70
     0
  9
$AUPREC
 70
     0
  9
$MENU
  1
.
  9
$ELEVATION
 40
0.0
  9
$PELEVATION
 40
0.0
  9
$THICKNESS
 40
0.0
  9
$LIMCHECK
 70
     0
  9
$CHAMFERA
 40
0.5
  9
$CHAMFERB
 40
0.5
  9
$CHAMFERC
 40
1.0
  9
$CHAMFERD
 40
0.0
  9
$SKPOLY
 70
     0
  9
$TDCREATE
 40
2458442.393765625
  9
$TDUPDATE
 40
2458442.393765637
  9
$TDINDWG
 40
0.0000000116
  9
$TDUSRTIMER
 40
0.0000000116
  9
$USRTIMER
 70
     1
  9
$ANGBASE
 50
0.0
  9
$ANGDIR
 70
     0
  9
$PDMODE
 70
     0
  9
$PDSIZE
 40
0.0
  9
$PLINEWID
 40
0.0
  9
$COORDS
 70
     1
  9
$SPLFRAME
 70
     0
  9
$SPLINETYPE
 70
     6
  9
$SPLINESEGS
 70
     8
  9
$ATTDIA
 70
     0
  9
$ATTREQ
 70
     1
  9
$HANDLING
 70
     1
  9
$HANDSEED
  5
1C5
  9
$SURFTAB1
 70
     6
  9
$SURFTAB2
 70
     6
  9
$SURFTYPE
 70
     6
  9
$SURFU
 70
     6
  9
$SURFV
 70
     6
  9
$UCSNAME
  2

  9
$UCSORG
 10
0.0
 20
0.0
 30
0.0
  9
$UCSXDIR
 10
1.0
 20
0.0
 30
0.0
  9
$UCSYDIR
 10
0.0
 20
1.0
 30
0.0
  9
$PUCSNAME
  2

  9
$PUCSORG
 10
0.0
 20
0.0
 30
0.0
  9
$PUCSXDIR
 10
1.0
 20
0.0
 30
0.0
  9
$PUCSYDIR
 10
0.0
 20
1.0
 30
0.0
  9
$USERI1
 70
     0
  9
$USERI2
 70
     0
  9
$USERI3
 70
     0
  9
$USERI4
 70
     0
  9
$USERI5
 70
     0
  9
$USERR1
 40
0.0
  9
$USERR2
 40
0.0
  9
$USERR3
 40
0.0
  9
$USERR4
 40
0.0
  9
$USERR5
 40
0.0
  9
$WORLDVIEW
 70
     1
  9
$SHADEDGE
 70
     3
  9
$SHADEDIF
 70
    70
  9
$TILEMODE
 70
     1
  9
$MAXACTVP
 70
    64
  9
$PINSBASE
 10
0.0
 20
0.0
 30
0.0
  9
$PLIMCHECK
 70
     0
  9
$PEXTMIN
 10
1.000000000000000E+20
 20
1.000000000000000E+20
 30
1.000000000000000E+20
  9
$PEXTMAX
 10
-1.000000000000000E+20
 20
-1.000000000000000E+20
 30
-1.000000000000000E+20
  9
$PLIMMIN
 10
0.0
 20
0.0
  9
$PLIMMAX
 10
12.0
 20
9.0
  9
$UNITMODE
 70
     0
  9
$VISRETAIN
 70
     1
  9
$PLINEGEN
 70
     0
  9
$PSLTSCALE
 70
     1
  9
$TREEDEPTH
 70
  3020
  9
$PICKSTYLE
 70
     1
  9
$CMLSTYLE
  2
STANDARD
  9
$CMLJUST
 70
     0
  9
$CMLSCALE
 40
1.0
  9
$PROXYGRAPHICS
 70
     1
  9
$MEASUREMENT
 70
     0
  0
ENDSEC
  0
SECTION
  2
CLASSES
  0
CLASS
  1
ACDBDICTIONARYWDFLT
  2
AcDbDictionaryWithDefault
  3
ObjectDBX Classes
 90
        0
280
     0
281
     0
  0
CLASS
  1
VISUALSTYLE
  2
AcDbVisualStyle
  3
ObjectDBX Classes
 90
     4095
280
     0
281
     0
  0
CLASS
  1
XRECORD
  2
AcDbXrecord
  3
AutoCAD 2000
 90
        0
280
     0
281
     0
  0
CLASS
  1
LWPOLYLINE
  2
AcDbPolyline
  3
AutoCAD 2000
 90
        0
280
     0
281
     1
  0
CLASS
  1
HATCH
  2
AcDbHatch
  3
AutoCAD 2000
 90
        0
280
     0
281
     1
  0
CLASS
  1
ACDBPLACEHOLDER
  2
AcDbPlaceHolder
  3
ObjectDBX Classes
 90
        0
280
     0
281
     0
  0
CLASS
  1
LAYOUT
  2
AcDbLayout
  3
ObjectDBX Classes
 90
        0
280
     0
281
     0
  0
ENDSEC
  0
SECTION
  2
TABLES
  0
TABLE
  2
VPORT
  5
8
330
0
100
AcDbSymbolTable
 70
     1
  0
VPORT
  5
29
330
8
100
AcDbSymbolTableRecord
100
AcDbViewportTableRecord
  2
*ACTIVE
 70
     0
 10
0.0
 20
0.0
 11
1.0
 21
1.0
 12
0.0
 22
0.0
 13
0.0
 23
0.0
 14
0.5
 24
0.5
 15
0.5
 25
0.5
 16
0.0
 26
0.0
 36
1.0
 17
151.7051242025251
 27
-38.7753248329711
 37
0.0
 40
27.21504855005388
 41
2.270277797117594
 42
50.0
 43
0.0
 44
0.0
 50
0.0
 51
0.0
 71
     0
 72
   100
 73
     1
 74
     3
 75
     0
 76
     0
 77
     0
 78
     0
  0
ENDTAB
  0
TABLE
  2
LTYPE
  5
5
330
0
100
AcDbSymbolTable
 70
     1
  0
LTYPE
  5
14
330
5
100
AcDbSymbolTableRecord
100
AcDbLinetypeTableRecord
  2
BYBLOCK
 70
     0
  3

 72
    65
 73
     0
 40
0.0
  0
LTYPE
  5
15
330
5
100
AcDbSymbolTableRecord
100
AcDbLinetypeTableRecord
  2
BYLAYER
 70
     0
  3

 72
    65
 73
     0
 40
0.0
  0
LTYPE
  5
16
330
5
100
AcDbSymbolTableRecord
100
AcDbLinetypeTableRecord
  2
CONTINUOUS
 70
     0
  3
Solid line
 72
    65
 73
     0
 40
0.0
  0
ENDTAB
  0
TABLE
  2
LAYER
  5
2
330
0
100
AcDbSymbolTable
 70
     5
  0
LAYER
  5
10
330
2
100
AcDbSymbolTableRecord
100
AcDbLayerTableRecord
  2
0
 70
     0
 62
     7
  6
CONTINUOUS
  0
LAYER
  5
3B
330
2
100
AcDbSymbolTableRecord
100
AcDbLayerTableRecord
  2
GRAU_10_
 70
     1
 62
     7
  6
CONTINUOUS
  0
LAYER
  5
3E
330
2
100
AcDbSymbolTableRecord
100
AcDbLayerTableRecord
  2
STANDARDEBENE
 70
     0
 62
     7
  6
CONTINUOUS
  0
LAYER
  5
70
330
2
100
AcDbSymbolTableRecord
100
AcDbLayerTableRecord
  2
BEMAßUNG
 70
     1
 62
     7
  6
CONTINUOUS
  0
LAYER
  5
1A1
330
2
100
AcDbSymbolTableRecord
100
AcDbLayerTableRecord
  2
TEXT
 70
     1
 62
     7
  6
CONTINUOUS
  0
ENDTAB
  0
TABLE
  2
STYLE
  5
3
330
0
100
AcDbSymbolTable
 70
     1
  0
STYLE
  5
11
330
3
100
AcDbSymbolTableRecord
100
AcDbTextStyleTableRecord
  2
STANDARD
 70
     0
 40
0.0
 41
1.0
 50
0.0
 71
     0
 42
0.2
  3
txt
  4

  0
ENDTAB
  0
TABLE
  2
VIEW
  5
6
330
0
100
AcDbSymbolTable
 70
     0
  0
ENDTAB
  0
TABLE
  2
UCS
  5
7
330
0
100
AcDbSymbolTable
 70
     0
  0
ENDTAB
  0
TABLE
  2
APPID
  5
9
330
0
100
AcDbSymbolTable
 70
     1
  0
APPID
  5
12
330
9
100
AcDbSymbolTableRecord
100
AcDbRegAppTableRecord
  2
ACAD
 70
     0
  0
ENDTAB
  0
TABLE
  2
DIMSTYLE
  5
A
330
0
100
AcDbSymbolTable
 70
     1
  0
DIMSTYLE
105
27
330
A
100
AcDbSymbolTableRecord
100
AcDbDimStyleTableRecord
  2
STANDARD
 70
     0
  3

  4

  5

  6

  7

 40
1.0
 41
0.18
 42
0.0625
 43
0.38
 44
0.18
 45
0.0
 46
0.0
 47
0.0
 48
0.0
140
0.18
141
0.09
142
0.0
143
25.4
144
1.0
145
0.0
146
1.0
147
0.09
 71
     0
 72
     0
 73
     1
 74
     1
 75
     0
 76
     0
 77
     0
 78
     0
170
     0
171
     2
172
     0
173
     0
174
     0
175
     0
176
     0
177
     0
178
     0
270
     2
271
     4
272
     4
273
     2
274
     2
340
11
275
     0
280
     0
281
     0
282
     0
283
     1
284
     0
285
     0
286
     0
287
     3
288
     0
  0
ENDTAB
  0
TABLE
  2
BLOCK_RECORD
  5
1
330
0
100
AcDbSymbolTable
 70
     1
  0
BLOCK_RECORD
  5
1F
330
1
100
AcDbSymbolTableRecord
100
AcDbBlockTableRecord
  2
*MODEL_SPACE
  0
BLOCK_RECORD
  5
1B
330
1
100
AcDbSymbolTableRecord
100
AcDbBlockTableRecord
  2
*PAPER_SPACE
  0
ENDTAB
  0
ENDSEC
  0
SECTION
  2
BLOCKS
  0
BLOCK
  5
20
330
1F
100
AcDbEntity
  8
0
100
AcDbBlockBegin
  2
*MODEL_SPACE
 70
     0
 71
     0
 10
0.0
 20
0.0
 30
0.0
  3
*MODEL_SPACE
  1

  0
ENDBLK
  5
21
330
1F
100
AcDbEntity
  8
0
100
AcDbBlockEnd
  0
BLOCK
  5
1C
330
1B
100
AcDbEntity
 67
     1
  8
0
100
AcDbBlockBegin
  2
*PAPER_SPACE
 70
     0
 71
     0
 10
0.0
 20
0.0
 30
0.0
  3
*PAPER_SPACE
  1

  0
ENDBLK
  5
1D
330
1B
100
AcDbEntity
 67
     1
  8
0
100
AcDbBlockEnd
  0
ENDSEC
  0
SECTION
  2
ENTITIES
  0
SPLINE
  5
3C
330
1F
100
AcDbEntity
  8
GRAU_10_
100
AcDbSpline
210
0.0
220
0.0
230
1.0
 70
    11
 71
     3
 72
    74
 73
    70
 74
     0
 42
0.0000000001
 43
0.0000000001
 40
0.0
 40
0.0
 40
0.0
 40
0.0
 40
1.0
 40
1.0
 40
1.0
 40
2.0
 40
2.0
 40
2.0
 40
3.0
 40
3.0
 40
3.0
 40
4.0
 40
4.0
 40
4.0
 40
5.0
 40
5.0
 40
5.0
 40
6.0
 40
6.0
 40
6.0
 40
7.0
 40
7.0
 40
7.0
 40
8.0
 40
8.0
 40
8.0
 40
9.0
 40
9.0
 40
9.0
 40
10.0
 40
10.0
 40
10.0
 40
11.0
 40
11.0
 40
11.0
 40
12.0
 40
12.0
 40
12.0
 40
13.0
 40
13.0
 40
13.0
 40
14.0
 40
14.0
 40
14.0
 40
15.0
 40
15.0
 40
15.0
 40
16.0
 40
16.0
 40
16.0
 40
17.0
 40
17.0
 40
17.0
 40
18.0
 40
18.0
 40
18.0
 40
19.0
 40
19.0
 40
19.0
 40
20.0
 40
20.0
 40
20.0
 40
21.0
 40
21.0
 40
21.0
 40
22.0
 40
22.0
 40
22.0
 40
23.0
 40
23.0
 40
23.0
 40
23.0
 10
131.509629958442
 20
-45.96790905968858
 30
0.0
 10
131.509629958442
 20
-45.96790905968858
 30
0.0
 10
130.220130718313
 20
-45.96790905968858
 30
0.0
 10
130.220130718313
 20
-45.96790905968858
 30
0.0
 10
130.220130718313
 20
-45.96790905968858
 30
0.0
 10
130.220130718313
 20
-49.47449949935013
 30
0.0
 10
130.220130718313
 20
-49.47449949935013
 30
0.0
 10
130.220130718313
 20
-49.47449949935013
 30
0.0
 10
130.1133327582703
 20
-52.21352266489801
 30
0.0
 10
133.0127251186565
 20
-52.21352266489801
 30
0.0
 10
135.9117729694943
 20
-52.21352266489801
 30
0.0
 10
141.1341932155845
 20
-52.21352266489801
 30
0.0
 10
141.1341932155845
 20
-52.21352266489801
 30
0.0
 10
141.1341932155845
 20
-52.21352266489801
 30
0.0
 10
141.954814960171
 20
-52.48017305545635
 30
0.0
 10
143.6704725118254
 20
-50.9772501500161
 30
0.0
 10
145.3868190825769
 20
-49.47449949935013
 30
0.0
 10
147.2674967079748
 20
-47.90181341033357
 30
0.0
 10
152.227400678089
 20
-47.79622123371067
 30
0.0
 10
157.1873046482032
 20
-47.69062905708776
 30
0.0
 10
179.840185501915
 20
-46.81126843447774
 30
0.0
 10
179.840185501915
 20
-46.81126843447774
 30
0.0
 10
179.840185501915
 20
-46.81126843447774
 30
0.0
 10
182.4078151670717
 20
-46.63539630995574
 30
0.0
 10
182.4078151670717
 20
-43.99714218735141
 30
0.0
 10
182.4078151670717
 20
-41.35906031952135
 30
0.0
 10
182.4026475238438
 20
-42.60308429924506
 30
0.0
 10
182.4026475238438
 20
-42.60308429924506
 30
0.0
 10
182.4026475238438
 20
-42.60308429924506
 30
0.0
 10
182.3282334613624
 20
-40.30193276987244
 30
0.0
 10
179.8184814003579
 20
-40.03373208634574
 30
0.0
 10
177.3087293393534
 20
-39.7657036575933
 30
0.0
 10
152.4192924966174
 20
-39.04671222982166
 30
0.0
 10
152.4192924966174
 20
-39.04671222982166
 30
0.0
 10
152.4192924966174
 20
-39.04671222982166
 30
0.0
 10
148.2166205141611
 20
-39.69921331472798
 30
0.0
 10
144.3023030238203
 20
-36.47580972395397
 30
0.0
 10
143.4778916742
 20
-35.79678140381122
 30
0.0
 10
142.8960150467413
 20
-34.69727917969374
 30
0.0
 10
141.4566541530039
 20
-34.63251138457104
 30
0.0
 10
141.4566541530039
 20
-34.63251138457104
 30
0.0
 10
132.5559054573124
 20
-34.60839571617429
 30
0.0
 10
132.5559054573124
 20
-34.60839571617429
 30
0.0
 10
132.5559054573124
 20
-34.60839571617429
 30
0.0
 10
130.2518255967773
 20
-35.14186875206523
 30
0.0
 10
130.1546739040933
 20
-37.10643445252895
 30
0.0
 10
130.0575222114092
 20
-39.07100015299267
 30
0.0
 10
130.1546739040933
 20
-40.91429849237559
 30
0.0
 10
130.1546739040933
 20
-40.91429849237559
 30
0.0
 10
130.1546739040933
 20
-40.91429849237559
 30
0.0
 10
131.488614875982
 20
-40.91429849237559
 30
0.0
 10
131.488614875982
 20
-40.91429849237559
 30
0.0
 10
131.488614875982
 20
-40.91429849237559
 30
0.0
 10
132.9197075405548
 20
-38.48895127075971
 30
0.0
 10
132.9197075405548
 20
-38.48895127075971
 30
0.0
 10
132.9197075405548
 20
-38.48895127075971
 30
0.0
 10
138.6192735113521
 20
-38.44037542441769
 30
0.0
 10
138.6192735113521
 20
-38.44037542441769
 30
0.0
 10
138.6192735113521
 20
-38.44037542441769
 30
0.0
 10
141.4814588404977
 20
-43.38804930555924
 30
0.0
 10
141.4814588404977
 20
-43.38804930555924
 30
0.0
 10
141.4814588404977
 20
-43.38804930555924
 30
0.0
 10
138.6192735113521
 20
-48.38429903304282
 30
0.0
 10
138.6192735113521
 20
-48.38429903304282
 30
0.0
 10
138.6192735113521
 20
-48.38429903304282
 30
0.0
 10
132.9679388773483
 20
-48.38429903304282
 30
0.0
 10
132.9679388773483
 20
-48.38429903304282
 30
0.0
 10
132.9679388773483
 20
-48.38429903304282
 30
0.0
 10
131.509629958442
 20
-45.96790905968858
 30
0.0
 10
131.509629958442
 20
-45.96790905968858
 30
0.0
  0
HATCH
  5
3D
330
1F
100
AcDbEntity
  8
GRAU_10_
 62
   255
100
AcDbHatch
 10
0.0
 20
0.0
 30
0.0
210
0.0
220
0.0
230
1.0
  2
SOLID
 70
     1
 71
     0
 91
        1
 92
        1
 93
        1
 72
     4
 94
        3
 73
     0
 74
     1
 95
       74
 96
       70
 40
0.0
 40
0.0
 40
0.0
 40
0.0
 40
1.0
 40
1.0
 40
1.0
 40
2.0
 40
2.0
 40
2.0
 40
3.0
 40
3.0
 40
3.0
 40
4.0
 40
4.0
 40
4.0
 40
5.0
 40
5.0
 40
5.0
 40
6.0
 40
6.0
 40
6.0
 40
7.0
 40
7.0
 40
7.0
 40
8.0
 40
8.0
 40
8.0
 40
9.0
 40
9.0
 40
9.0
 40
10.0
 40
10.0
 40
10.0
 40
11.0
 40
11.0
 40
11.0
 40
12.0
 40
12.0
 40
12.0
 40
13.0
 40
13.0
 40
13.0
 40
14.0
 40
14.0
 40
14.0
 40
15.0
 40
15.0
 40
15.0
 40
16.0
 40
16.0
 40
16.0
 40
17.0
 40
17.0
 40
17.0
 40
18.0
 40
18.0
 40
18.0
 40
19.0
 40
19.0
 40
19.0
 40
20.0
 40
20.0
 40
20.0
 40
21.0
 40
21.0
 40
21.0
 40
22.0
 40
22.0
 40
22.0
 40
23.0
 40
23.0
 40
23.0
 40
23.0
 10
131.509629958442
 20
-45.96790905968858
 10
131.509629958442
 20
-45.96790905968858
 10
130.220130718313
 20
-45.96790905968858
 10
130.220130718313
 20
-45.96790905968858
 10
130.220130718313
 20
-45.96790905968858
 10
130.220130718313
 20
-49.47449949935013
 10
130.220130718313
 20
-49.47449949935013
 10
130.220130718313
 20
-49.47449949935013
 10
130.1133327582703
 20
-52.21352266489801
 10
133.0127251186565
 20
-52.21352266489801
 10
135.9117729694943
 20
-52.21352266489801
 10
141.1341932155845
 20
-52.21352266489801
 10
141.1341932155845
 20
-52.21352266489801
 10
141.1341932155845
 20
-52.21352266489801
 10
141.954814960171
 20
-52.48017305545635
 10
143.6704725118254
 20
-50.9772501500161
 10
145.3868190825769
 20
-49.47449949935013
 10
147.2674967079748
 20
-47.90181341033357
 10
152.227400678089
 20
-47.79622123371067
 10
157.1873046482032
 20
-47.69062905708776
 10
179.840185501915
 20
-46.81126843447774
 10
179.840185501915
 20
-46.81126843447774
 10
179.840185501915
 20
-46.81126843447774
 10
182.4078151670717
 20
-46.63539630995574
 10
182.4078151670717
 20
-43.99714218735141
 10
182.4078151670717
 20
-41.35906031952135
 10
182.4026475238438
 20
-42.60308429924506
 10
182.4026475238438
 20
-42.60308429924506
 10
182.4026475238438
 20
-42.60308429924506
 10
182.3282334613624
 20
-40.30193276987244
 10
179.8184814003579
 20
-40.03373208634574
 10
177.3087293393534
 20
-39.7657036575933
 10
152.4192924966174
 20
-39.04671222982166
 10
152.4192924966174
 20
-39.04671222982166
 10
152.4192924966174
 20
-39.04671222982166
 10
148.2166205141611
 20
-39.69921331472798
 10
144.3023030238203
 20
-36.47580972395397
 10
143.4778916742
 20
-35.79678140381122
 10
142.8960150467413
 20
-34.69727917969374
 10
141.4566541530039
 20
-34.63251138457104
 10
141.4566541530039
 20
-34.63251138457104
 10
132.5559054573124
 20
-34.60839571617429
 10
132.5559054573124
 20
-34.60839571617429
 10
132.5559054573124
 20
-34.60839571617429
 10
130.2518255967773
 20
-35.14186875206523
 10
130.1546739040933
 20
-37.10643445252895
 10
130.0575222114092
 20
-39.07100015299267
 10
130.1546739040933
 20
-40.91429849237559
 10
130.1546739040933
 20
-40.91429849237559
 10
130.1546739040933
 20
-40.91429849237559
 10
131.488614875982
 20
-40.91429849237559
 10
131.488614875982
 20
-40.91429849237559
 10
131.488614875982
 20
-40.91429849237559
 10
132.9197075405548
 20
-38.48895127075971
 10
132.9197075405548
 20
-38.48895127075971
 10
132.9197075405548
 20
-38.48895127075971
 10
138.6192735113521
 20
-38.44037542441769
 10
138.6192735113521
 20
-38.44037542441769
 10
138.6192735113521
 20
-38.44037542441769
 10
141.4814588404977
 20
-43.38804930555924
 10
141.4814588404977
 20
-43.38804930555924
 10
141.4814588404977
 20
-43.38804930555924
 10
138.6192735113521
 20
-48.38429903304282
 10
138.6192735113521
 20
-48.38429903304282
 10
138.6192735113521
 20
-48.38429903304282
 10
132.9679388773483
 20
-48.38429903304282
 10
132.9679388773483
 20
-48.38429903304282
 10
132.9679388773483
 20
-48.38429903304282
 10
131.509629958442
 20
-45.96790905968858
 10
131.509629958442
 20
-45.96790905968858
 97
        0
 75
     0
 76
     1
 98
        0
  0
POLYLINE
  5
3F
330
1F
100
AcDbEntity
  8
STANDARDEBENE
 62
   250
100
AcDb2dPolyline
 66
     1
 10
0.0
 20
0.0
 30
0.0
  0
VERTEX
  5
40
330
3F
100
AcDbEntity
  8
STANDARDEBENE
 62
   250
100
AcDbVertex
100
AcDb2dVertex
 10
141.2809542832562
 20
-34.60667316843167
 30
0.0
  0
VERTEX
  5
41
330
3F
100
AcDbEntity
  8
STANDARDEBENE
 62
   250
100
AcDbVertex
100
AcDb2dVertex
 10
132.9214300882974
 20
-34.60667316843167
 30
0.0
  0
SEQEND
  5
42
330
3F
100
AcDbEntity
  8
STANDARDEBENE
  0
POLYLINE
  5
43
330
1F
100
AcDbEntity
  8
STANDARDEBENE
 62
   250
100
AcDb2dPolyline
 66
     1
 10
0.0
 20
0.0
 30
0.0
  0
VERTEX
  5
44
330
43
100
AcDbEntity
  8
STANDARDEBENE
 62
   250
100
AcDbVertex
100
AcDb2dVertex
 10
130.1718993815195
 20
-37.35672063953235
 30
0.0
  0
VERTEX
  5
45
330
43
100
AcDbEntity
  8
STANDARDEBENE
 62
   250
100
AcDbVertex
100
AcDb2dVertex
 10
130.1718993815195
 20
-40.88759900236491
 30
0.0
  0
VERTEX
  5
46
330
43
100
AcDbEntity
  8
STANDARDEBENE
 62
   250
100
AcDbVertex
100
AcDb2dVertex
 10
131.522721321286
 20
-40.88759900236491
 30
0.0
  0
VERTEX
  5
47
330
43
100
AcDbEntity
  8
STANDARDEBENE
 62
   250
100
AcDbVertex
100
AcDb2dVertex
 10
132.9262532219768
 20
-38.45656737319836
 30
0.0
  0
VERTEX
  5
48
330
43
100
AcDbEntity
  8
STANDARDEBENE
 62
   250
100
AcDbVertex
100
AcDb2dVertex
 10
138.6420111415548
 20
-38.45656737319836
 30
0.0
  0
VERTEX
  5
49
330
43
100
AcDbEntity
  8
STANDARDEBENE
 62
   250
100
AcDbVertex
100
AcDb2dVertex
 10
141.4997178465695
 20
-43.40648056640533
 30
0.0
  0
VERTEX
  5
4A
330
43
100
AcDbEntity
  8
STANDARDEBENE
 62
   250
100
AcDbVertex
100
AcDb2dVertex
 10
138.6420111415548
 20
-48.35656601438656
 30
0.0
  0
VERTEX
  5
4B
330
43
100
AcDbEntity
  8
STANDARDEBENE
 62
   250
100
AcDbVertex
100
AcDb2dVertex
 10
132.9262532219768
 20
-48.35656601438656
 30
0.0
  0
VERTEX
  5
4C
330
43
100
AcDbEntity
  8
STANDARDEBENE
 62
   250
100
AcDbVertex
100
AcDb2dVertex
 10
131.522721321286
 20
-45.92570663999427
 30
0.0
  0
VERTEX
  5
4D
330
43
100
AcDbEntity
  8
STANDARDEBENE
 62
   250
100
AcDbVertex
100
AcDb2dVertex
 10
130.1718993815195
 20
-45.92570663999427
 30
0.0
  0
VERTEX
  5
4E
330
43
100
AcDbEntity
  8
STANDARDEBENE
 62
   250
100
AcDbVertex
100
AcDb2dVertex
 10
130.1718993815195
 20
-49.45641274805256
 30
0.0
  0
SEQEND
  5
4F
330
43
100
AcDbEntity
  8
STANDARDEBENE
  0
POLYLINE
  5
50
330
1F
100
AcDbEntity
  8
STANDARDEBENE
 62
   250
100
AcDb2dPolyline
 66
     1
 10
0.0
 20
0.0
 30
0.0
  0
VERTEX
  5
51
330
50
100
AcDbEntity
  8
STANDARDEBENE
 62
   250
100
AcDbVertex
100
AcDb2dVertex
 10
132.9214300882974
 20
-52.20646021915325
 30
0.0
  0
VERTEX
  5
52
330
50
100
AcDbEntity
  8
STANDARDEBENE
 62
   250
100
AcDbVertex
100
AcDb2dVertex
 10
141.2809542832562
 20
-52.20646021915325
 30
0.0
  0
SEQEND
  5
53
330
50
100
AcDbEntity
  8
STANDARDEBENE
  0
POLYLINE
  5
54
330
1F
100
AcDbEntity
  8
STANDARDEBENE
 62
   250
100
AcDb2dPolyline
 66
     1
 10
0.0
 20
0.0
 30
0.0
  0
VERTEX
  5
55
330
54
100
AcDbEntity
  8
STANDARDEBENE
 62
   250
100
AcDbVertex
100
AcDb2dVertex
 10
143.2253661751312
 20
-51.40134140425036
 30
0.0
  0
VERTEX
  5
56
330
54
100
AcDbEntity
  8
STANDARDEBENE
 62
   250
100
AcDbVertex
100
AcDb2dVertex
 10
143.6077717739939
 20
-51.01893580538763
 30
0.0
  0
SEQEND
  5
57
330
54
100
AcDbEntity
  8
STANDARDEBENE
  0
POLYLINE
  5
58
330
1F
100
AcDbEntity
  8
STANDARDEBENE
 62
   250
100
AcDb2dPolyline
 66
     1
 10
0.0
 20
0.0
 30
0.0
  0
VERTEX
  5
59
330
58
100
AcDbEntity
  8
STANDARDEBENE
 62
   250
100
AcDbVertex
100
AcDb2dVertex
 10
179.7678384967247
 20
-46.79921060027937
 30
0.0
  0
VERTEX
  5
5A
330
58
100
AcDbEntity
  8
STANDARDEBENE
 62
   250
100
AcDbVertex
100
AcDb2dVertex
 10
151.0023247235341
 20
-47.80362818900396
 30
0.0
  0
SEQEND
  5
5B
330
58
100
AcDbEntity
  8
STANDARDEBENE
  0
POLYLINE
  5
5C
330
1F
100
AcDbEntity
  8
STANDARDEBENE
 62
   250
100
AcDb2dPolyline
 66
     1
 10
0.0
 20
0.0
 30
0.0
  0
VERTEX
  5
5D
330
5C
100
AcDbEntity
  8
STANDARDEBENE
 62
   250
100
AcDbVertex
100
AcDb2dVertex
 10
182.4215955490127
 20
-44.05071342214705
 30
0.0
  0
VERTEX
  5
5E
330
5C
100
AcDbEntity
  8
STANDARDEBENE
 62
   250
100
AcDbVertex
100
AcDb2dVertex
 10
182.4215955490127
 20
-42.76224771066361
 30
0.0
  0
SEQEND
  5
5F
330
5C
100
AcDbEntity
  8
STANDARDEBENE
  0
POLYLINE
  5
60
330
1F
100
AcDbEntity
  8
STANDARDEBENE
 62
   250
100
AcDb2dPolyline
 66
     1
 10
0.0
 20
0.0
 30
0.0
  0
VERTEX
  5
61
330
60
100
AcDbEntity
  8
STANDARDEBENE
 62
   250
100
AcDbVertex
100
AcDb2dVertex
 10
179.7678384967247
 20
-40.01409504207981
 30
0.0
  0
VERTEX
  5
62
330
60
100
AcDbEntity
  8
STANDARDEBENE
 62
   250
100
AcDbVertex
100
AcDb2dVertex
 10
151.0023247235341
 20
-39.00950519858096
 30
0.0
  0
SEQEND
  5
63
330
60
100
AcDbEntity
  8
STANDARDEBENE
  0
POLYLINE
  5
64
330
1F
100
AcDbEntity
  8
STANDARDEBENE
 62
   250
100
AcDb2dPolyline
 66
     1
 10
0.0
 20
0.0
 30
0.0
  0
VERTEX
  5
65
330
64
100
AcDbEntity
  8
STANDARDEBENE
 62
   250
100
AcDbVertex
100
AcDb2dVertex
 10
143.2253661751312
 20
-35.41179198333455
 30
0.0
  0
VERTEX
  5
66
330
64
100
AcDbEntity
  8
STANDARDEBENE
 62
   250
100
AcDbVertex
100
AcDb2dVertex
 10
143.6077717739939
 20
-35.79436983697155
 30
0.0
  0
SEQEND
  5
67
330
64
100
AcDbEntity
  8
STANDARDEBENE
  0
SPLINE
  5
68
330
1F
100
AcDbEntity
  8
STANDARDEBENE
 62
   250
100
AcDbSpline
210
0.0
220
0.0
230
1.0
 70
     8
 71
     3
 72
     8
 73
     4
 74
     0
 42
0.0000000001
 43
0.0000000001
 40
0.0
 40
0.0
 40
0.0
 40
0.0
 40
1.0
 40
1.0
 40
1.0
 40
1.0
 10
182.4215955490127
 20
-42.76224771066361
 30
0.0
 10
182.4215955490127
 20
-41.27741155652092
 30
0.0
 10
181.2447509312513
 20
-40.0669772577784
 30
0.0
 10
179.7678384967247
 20
-40.01409504207981
 30
0.0
  0
SPLINE
  5
69
330
1F
100
AcDbEntity
  8
STANDARDEBENE
 62
   250
100
AcDbSpline
210
0.0
220
0.0
230
1.0
 70
     8
 71
     3
 72
     8
 73
     4
 74
     0
 42
0.0000000001
 43
0.0000000001
 40
0.0
 40
0.0
 40
0.0
 40
0.0
 40
1.0
 40
1.0
 40
1.0
 40
1.0
 10
143.6077717739939
 20
-35.79436983697155
 30
0.0
 10
145.6603596641058
 20
-37.84661321753487
 30
0.0
 10
148.3216959264612
 20
-38.9183824229961
 30
0.0
 10
151.0023247235341
 20
-39.00950519858096
 30
0.0
  0
SPLINE
  5
6A
330
1F
100
AcDbEntity
  8
STANDARDEBENE
 62
   250
100
AcDbSpline
210
0.0
220
0.0
230
1.0
 70
     8
 71
     3
 72
     8
 73
     4
 74
     0
 42
0.0000000001
 43
0.0000000001
 40
0.0
 40
0.0
 40
0.0
 40
0.0
 40
1.0
 40
1.0
 40
1.0
 40
1.0
 10
143.2253661751312
 20
-35.41179198333455
 30
0.0
 10
142.6886202985292
 20
-34.87521836150689
 30
0.0
 10
141.9847872908927
 20
-34.60667316843167
 30
0.0
 10
141.2809542832562
 20
-34.60667316843167
 30
0.0
  0
SPLINE
  5
6B
330
1F
100
AcDbEntity
  8
STANDARDEBENE
 62
   250
100
AcDbSpline
210
0.0
220
0.0
230
1.0
 70
     8
 71
     3
 72
     8
 73
     4
 74
     0
 42
0.0000000001
 43
0.0000000001
 40
0.0
 40
0.0
 40
0.0
 40
0.0
 40
1.0
 40
1.0
 40
1.0
 40
1.0
 10
132.9214300882974
 20
-34.60667316843167
 30
0.0
 10
131.4028319983993
 20
-34.60667316843167
 30
0.0
 10
130.1718993815195
 20
-35.83795029485996
 30
0.0
 10
130.1718993815195
 20
-37.35672063953235
 30
0.0
  0
SPLINE
  5
6C
330
1F
100
AcDbEntity
  8
STANDARDEBENE
 62
   250
100
AcDbSpline
210
0.0
220
0.0
230
1.0
 70
     8
 71
     3
 72
     8
 73
     4
 74
     0
 42
0.0000000001
 43
0.0000000001
 40
0.0
 40
0.0
 40
0.0
 40
0.0
 40
1.0
 40
1.0
 40
1.0
 40
1.0
 10
130.1718993815195
 20
-49.45641274805256
 30
0.0
 10
130.1718993815195
 20
-50.97518309272495
 30
0.0
 10
131.4028319983993
 20
-52.20646021915325
 30
0.0
 10
132.9214300882974
 20
-52.20646021915325
 30
0.0
  0
SPLINE
  5
6D
330
1F
100
AcDbEntity
  8
STANDARDEBENE
 62
   250
100
AcDbSpline
210
0.0
220
0.0
230
1.0
 70
     8
 71
     3
 72
     8
 73
     4
 74
     0
 42
0.0000000001
 43
0.0000000001
 40
0.0
 40
0.0
 40
0.0
 40
0.0
 40
1.0
 40
1.0
 40
1.0
 40
1.0
 10
141.2809542832562
 20
-52.20646021915325
 30
0.0
 10
142.0402533282052
 20
-52.20646021915325
 30
0.0
 10
142.7278943870611
 20
-51.89864093754618
 30
0.0
 10
143.2253661751312
 20
-51.40134140425036
 30
0.0
  0
SPLINE
  5
6E
330
1F
100
AcDbEntity
  8
STANDARDEBENE
 62
   250
100
AcDbSpline
210
0.0
220
0.0
230
1.0
 70
     8
 71
     3
 72
     8
 73
     4
 74
     0
 42
0.0000000001
 43
0.0000000001
 40
0.0
 40
0.0
 40
0.0
 40
0.0
 40
1.0
 40
1.0
 40
1.0
 40
1.0
 10
151.0023247235341
 20
-47.80362818900396
 30
0.0
 10
148.1012098154053
 20
-47.90508625104457
 30
0.0
 10
145.5022297813328
 20
-49.12068819301497
 30
0.0
 10
143.6077717739939
 20
-51.01893580538763
 30
0.0
  0
SPLINE
  5
6F
330
1F
100
AcDbEntity
  8
STANDARDEBENE
 62
   250
100
AcDbSpline
210
0.0
220
0.0
230
1.0
 70
     8
 71
     3
 72
     8
 73
     4
 74
     0
 42
0.0000000001
 43
0.0000000001
 40
0.0
 40
0.0
 40
0.0
 40
0.0
 40
1.0
 40
1.0
 40
1.0
 40
1.0
 10
179.7678384967247
 20
-46.79921060027937
 30
0.0
 10
181.2519856317703
 20
-46.74753416800062
 30
0.0
 10
182.41987300127
 20
-45.52865938531922
 30
0.0
 10
182.4215955490127
 20
-44.05071342214705
 30
0.0
  0
POLYLINE
  5
71
330
1F
100
AcDbEntity
  8
BEMAßUNG
 62
     7
100
AcDb2dPolyline
 66
     1
 10
0.0
 20
0.0
 30
0.0
  0
VERTEX
  5
72
330
71
100
AcDbEntity
  8
BEMAßUNG
 62
     7
100
AcDbVertex
100
AcDb2dVertex
 10
132.9214300882974
 20
-52.20646021915325
 30
0.0
  0
VERTEX
  5
73
330
71
100
AcDbEntity
  8
BEMAßUNG
 62
     7
100
AcDbVertex
100
AcDb2dVertex
 10
123.5090847130463
 20
-52.20646021915325
 30
0.0
  0
SEQEND
  5
74
330
71
100
AcDbEntity
  8
BEMAßUNG
  0
POLYLINE
  5
75
330
1F
100
AcDbEntity
  8
BEMAßUNG
 62
     7
100
AcDb2dPolyline
 66
     1
 10
0.0
 20
0.0
 30
0.0
  0
VERTEX
  5
76
330
75
100
AcDbEntity
  8
BEMAßUNG
 62
     7
100
AcDbVertex
100
AcDb2dVertex
 10
132.9214300882974
 20
-34.60667316843167
 30
0.0
  0
VERTEX
  5
77
330
75
100
AcDbEntity
  8
BEMAßUNG
 62
     7
100
AcDbVertex
100
AcDb2dVertex
 10
123.5090847130463
 20
-34.60667316843167
 30
0.0
  0
SEQEND
  5
78
330
75
100
AcDbEntity
  8
BEMAßUNG
  0
POLYLINE
  5
79
330
1F
100
AcDbEntity
  8
BEMAßUNG
 62
     7
100
AcDb2dPolyline
 66
     1
 10
0.0
 20
0.0
 30
0.0
  0
VERTEX
  5
7A
330
79
100
AcDbEntity
  8
BEMAßUNG
 62
     7
100
AcDbVertex
100
AcDb2dVertex
 10
124.6094482110351
 20
-52.20646021915325
 30
0.0
  0
VERTEX
  5
7B
330
79
100
AcDbEntity
  8
BEMAßUNG
 62
     7
100
AcDbVertex
100
AcDb2dVertex
 10
124.6094482110351
 20
-34.60667316843167
 30
0.0
  0
SEQEND
  5
7C
330
79
100
AcDbEntity
  8
BEMAßUNG
  0
POLYLINE
  5
7D
330
1F
100
AcDbEntity
  8
BEMAßUNG
 62
     7
100
AcDb2dPolyline
 66
     1
 10
0.0
 20
0.0
 30
0.0
  0
VERTEX
  5
7E
330
7D
100
AcDbEntity
  8
BEMAßUNG
 62
     7
100
AcDbVertex
100
AcDb2dVertex
 10
124.6094482110351
 20
-52.20646021915325
 30
0.0
  0
VERTEX
  5
7F
330
7D
100
AcDbEntity
  8
BEMAßUNG
 62
     7
100
AcDbVertex
100
AcDb2dVertex
 10
124.7906602335593
 20
-50.83152261099004
 30
0.0
  0
VERTEX
  5
80
330
7D
100
AcDbEntity
  8
BEMAßUNG
 62
     7
100
AcDbVertex
100
AcDb2dVertex
 10
124.4285806980595
 20
-50.83152261099004
 30
0.0
  0
VERTEX
  5
81
330
7D
100
AcDbEntity
  8
BEMAßUNG
 62
     7
100
AcDbVertex
100
AcDb2dVertex
 10
124.6094482110351
 20
-52.20646021915325
 30
0.0
  0
SEQEND
  5
82
330
7D
100
AcDbEntity
  8
BEMAßUNG
  0
POLYLINE
  5
83
330
1F
100
AcDbEntity
  8
BEMAßUNG
 62
     7
100
AcDb2dPolyline
 66
     1
 10
0.0
 20
0.0
 30
0.0
  0
VERTEX
  5
84
330
83
100
AcDbEntity
  8
BEMAßUNG
 62
     7
100
AcDbVertex
100
AcDb2dVertex
 10
124.7772243611668
 20
-50.83152261099004
 30
0.0
  0
VERTEX
  5
85
330
83
100
AcDbEntity
  8
BEMAßUNG
 62
     7
100
AcDbVertex
100
AcDb2dVertex
 10
124.7772243611668
 20
-50.93315292780491
 30
0.0
  0
SEQEND
  5
86
330
83
100
AcDbEntity
  8
BEMAßUNG
  0
POLYLINE
  5
87
330
1F
100
AcDbEntity
  8
BEMAßUNG
 62
     7
100
AcDb2dPolyline
 66
     1
 10
0.0
 20
0.0
 30
0.0
  0
VERTEX
  5
88
330
87
100
AcDbEntity
  8
BEMAßUNG
 62
     7
100
AcDbVertex
100
AcDb2dVertex
 10
124.7772243611668
 20
-50.83152261099004
 30
0.0
  0
VERTEX
  5
89
330
87
100
AcDbEntity
  8
BEMAßUNG
 62
     7
100
AcDbVertex
100
AcDb2dVertex
 10
124.7772243611668
 20
-50.93315292780491
 30
0.0
  0
SEQEND
  5
8A
330
87
100
AcDbEntity
  8
BEMAßUNG
  0
POLYLINE
  5
8B
330
1F
100
AcDbEntity
  8
BEMAßUNG
 62
     7
100
AcDb2dPolyline
 66
     1
 10
0.0
 20
0.0
 30
0.0
  0
VERTEX
  5
8C
330
8B
100
AcDbEntity
  8
BEMAßUNG
 62
     7
100
AcDbVertex
100
AcDb2dVertex
 10
124.7493190877363
 20
-50.83152261099004
 30
0.0
  0
VERTEX
  5
8D
330
8B
100
AcDbEntity
  8
BEMAßUNG
 62
     7
100
AcDbVertex
100
AcDb2dVertex
 10
124.7493190877363
 20
-51.14554306447056
 30
0.0
  0
SEQEND
  5
8E
330
8B
100
AcDbEntity
  8
BEMAßUNG
  0
POLYLINE
  5
8F
330
1F
100
AcDbEntity
  8
BEMAßUNG
 62
     7
100
AcDb2dPolyline
 66
     1
 10
0.0
 20
0.0
 30
0.0
  0
VERTEX
  5
90
330
8F
100
AcDbEntity
  8
BEMAßUNG
 62
     7
100
AcDbVertex
100
AcDb2dVertex
 10
124.7214138143058
 20
-50.83152261099004
 30
0.0
  0
VERTEX
  5
91
330
8F
100
AcDbEntity
  8
BEMAßUNG
 62
     7
100
AcDbVertex
100
AcDb2dVertex
 10
124.7214138143058
 20
-51.35758869158769
 30
0.0
  0
SEQEND
  5
92
330
8F
100
AcDbEntity
  8
BEMAßUNG
  0
POLYLINE
  5
93
330
1F
100
AcDbEntity
  8
BEMAßUNG
 62
     7
100
AcDb2dPolyline
 66
     1
 10
0.0
 20
0.0
 30
0.0
  0
VERTEX
  5
94
330
93
100
AcDbEntity
  8
BEMAßUNG
 62
     7
100
AcDbVertex
100
AcDb2dVertex
 10
124.6935085408752
 20
-50.83152261099004
 30
0.0
  0
VERTEX
  5
95
330
93
100
AcDbEntity
  8
BEMAßUNG
 62
     7
100
AcDbVertex
100
AcDb2dVertex
 10
124.6935085408752
 20
-51.56997882825334
 30
0.0
  0
SEQEND
  5
96
330
93
100
AcDbEntity
  8
BEMAßUNG
  0
POLYLINE
  5
97
330
1F
100
AcDbEntity
  8
BEMAßUNG
 62
     7
100
AcDb2dPolyline
 66
     1
 10
0.0
 20
0.0
 30
0.0
  0
VERTEX
  5
98
330
97
100
AcDbEntity
  8
BEMAßUNG
 62
     7
100
AcDbVertex
100
AcDb2dVertex
 10
124.6656032674447
 20
-50.83152261099004
 30
0.0
  0
VERTEX
  5
99
330
97
100
AcDbEntity
  8
BEMAßUNG
 62
     7
100
AcDbVertex
100
AcDb2dVertex
 10
124.6656032674447
 20
-51.78202445537047
 30
0.0
  0
SEQEND
  5
9A
330
97
100
AcDbEntity
  8
BEMAßUNG
  0
POLYLINE
  5
9B
330
1F
100
AcDbEntity
  8
BEMAßUNG
 62
     7
100
AcDb2dPolyline
 66
     1
 10
0.0
 20
0.0
 30
0.0
  0
VERTEX
  5
9C
330
9B
100
AcDbEntity
  8
BEMAßUNG
 62
     7
100
AcDbVertex
100
AcDb2dVertex
 10
124.6376979940142
 20
-50.83152261099004
 30
0.0
  0
VERTEX
  5
9D
330
9B
100
AcDbEntity
  8
BEMAßUNG
 62
     7
100
AcDbVertex
100
AcDb2dVertex
 10
124.6376979940142
 20
-51.99441459203612
 30
0.0
  0
SEQEND
  5
9E
330
9B
100
AcDbEntity
  8
BEMAßUNG
  0
POLYLINE
  5
9F
330
1F
100
AcDbEntity
  8
BEMAßUNG
 62
     7
100
AcDb2dPolyline
 66
     1
 10
0.0
 20
0.0
 30
0.0
  0
VERTEX
  5
A0
330
9F
100
AcDbEntity
  8
BEMAßUNG
 62
     7
100
AcDbVertex
100
AcDb2dVertex
 10
124.6094482110351
 20
-50.83152261099004
 30
0.0
  0
VERTEX
  5
A1
330
9F
100
AcDbEntity
  8
BEMAßUNG
 62
     7
100
AcDbVertex
100
AcDb2dVertex
 10
124.6094482110351
 20
-52.20646021915325
 30
0.0
  0
SEQEND
  5
A2
330
9F
100
AcDbEntity
  8
BEMAßUNG
  0
POLYLINE
  5
A3
330
1F
100
AcDbEntity
  8
BEMAßUNG
 62
     7
100
AcDb2dPolyline
 66
     1
 10
0.0
 20
0.0
 30
0.0
  0
VERTEX
  5
A4
330
A3
100
AcDbEntity
  8
BEMAßUNG
 62
     7
100
AcDbVertex
100
AcDb2dVertex
 10
124.442016570452
 20
-50.83152261099004
 30
0.0
  0
VERTEX
  5
A5
330
A3
100
AcDbEntity
  8
BEMAßUNG
 62
     7
100
AcDbVertex
100
AcDb2dVertex
 10
124.442016570452
 20
-50.93315292780491
 30
0.0
  0
SEQEND
  5
A6
330
A3
100
AcDbEntity
  8
BEMAßUNG
  0
POLYLINE
  5
A7
330
1F
100
AcDbEntity
  8
BEMAßUNG
 62
     7
100
AcDb2dPolyline
 66
     1
 10
0.0
 20
0.0
 30
0.0
  0
VERTEX
  5
A8
330
A7
100
AcDbEntity
  8
BEMAßUNG
 62
     7
100
AcDbVertex
100
AcDb2dVertex
 10
124.442016570452
 20
-50.83152261099004
 30
0.0
  0
VERTEX
  5
A9
330
A7
100
AcDbEntity
  8
BEMAßUNG
 62
     7
100
AcDbVertex
100
AcDb2dVertex
 10
124.442016570452
 20
-50.93315292780491
 30
0.0
  0
SEQEND
  5
AA
330
A7
100
AcDbEntity
  8
BEMAßUNG
  0
POLYLINE
  5
AB
330
1F
100
AcDbEntity
  8
BEMAßUNG
 62
     7
100
AcDb2dPolyline
 66
     1
 10
0.0
 20
0.0
 30
0.0
  0
VERTEX
  5
AC
330
AB
100
AcDbEntity
  8
BEMAßUNG
 62
     7
100
AcDbVertex
100
AcDb2dVertex
 10
124.470266353431
 20
-50.83152261099004
 30
0.0
  0
VERTEX
  5
AD
330
AB
100
AcDbEntity
  8
BEMAßUNG
 62
     7
100
AcDbVertex
100
AcDb2dVertex
 10
124.470266353431
 20
-51.14554306447056
 30
0.0
  0
SEQEND
  5
AE
330
AB
100
AcDbEntity
  8
BEMAßUNG
  0
POLYLINE
  5
AF
330
1F
100
AcDbEntity
  8
BEMAßUNG
 62
     7
100
AcDb2dPolyline
 66
     1
 10
0.0
 20
0.0
 30
0.0
  0
VERTEX
  5
B0
330
AF
100
AcDbEntity
  8
BEMAßUNG
 62
     7
100
AcDbVertex
100
AcDb2dVertex
 10
124.4974826077645
 20
-50.83152261099004
 30
0.0
  0
VERTEX
  5
B1
330
AF
100
AcDbEntity
  8
BEMAßUNG
 62
     7
100
AcDbVertex
100
AcDb2dVertex
 10
124.4974826077645
 20
-51.35758869158769
 30
0.0
  0
SEQEND
  5
B2
330
AF
100
AcDbEntity
  8
BEMAßUNG
  0
POLYLINE
  5
B3
330
1F
100
AcDbEntity
  8
BEMAßUNG
 62
     7
100
AcDb2dPolyline
 66
     1
 10
0.0
 20
0.0
 30
0.0
  0
VERTEX
  5
B4
330
B3
100
AcDbEntity
  8
BEMAßUNG
 62
     7
100
AcDbVertex
100
AcDb2dVertex
 10
124.5257323907436
 20
-50.83152261099004
 30
0.0
  0
VERTEX
  5
B5
330
B3
100
AcDbEntity
  8
BEMAßUNG
 62
     7
100
AcDbVertex
100
AcDb2dVertex
 10
124.5257323907436
 20
-51.56997882825334
 30
0.0
  0
SEQEND
  5
B6
330
B3
100
AcDbEntity
  8
BEMAßUNG
  0
POLYLINE
  5
B7
330
1F
100
AcDbEntity
  8
BEMAßUNG
 62
     7
100
AcDb2dPolyline
 66
     1
 10
0.0
 20
0.0
 30
0.0
  0
VERTEX
  5
B8
330
B7
100
AcDbEntity
  8
BEMAßUNG
 62
     7
100
AcDbVertex
100
AcDb2dVertex
 10
124.5536376641741
 20
-50.83152261099004
 30
0.0
  0
VERTEX
  5
B9
330
B7
100
AcDbEntity
  8
BEMAßUNG
 62
     7
100
AcDbVertex
100
AcDb2dVertex
 10
124.5536376641741
 20
-51.78202445537047
 30
0.0
  0
SEQEND
  5
BA
330
B7
100
AcDbEntity
  8
BEMAßUNG
  0
POLYLINE
  5
BB
330
1F
100
AcDbEntity
  8
BEMAßUNG
 62
     7
100
AcDb2dPolyline
 66
     1
 10
0.0
 20
0.0
 30
0.0
  0
VERTEX
  5
BC
330
BB
100
AcDbEntity
  8
BEMAßUNG
 62
     7
100
AcDbVertex
100
AcDb2dVertex
 10
124.5815429376046
 20
-50.83152261099004
 30
0.0
  0
VERTEX
  5
BD
330
BB
100
AcDbEntity
  8
BEMAßUNG
 62
     7
100
AcDbVertex
100
AcDb2dVertex
 10
124.5815429376046
 20
-51.99441459203612
 30
0.0
  0
SEQEND
  5
BE
330
BB
100
AcDbEntity
  8
BEMAßUNG
  0
POLYLINE
  5
BF
330
1F
100
AcDbEntity
  8
BEMAßUNG
 62
     7
100
AcDb2dPolyline
 66
     1
 10
0.0
 20
0.0
 30
0.0
  0
VERTEX
  5
C0
330
BF
100
AcDbEntity
  8
BEMAßUNG
 62
     7
100
AcDbVertex
100
AcDb2dVertex
 10
124.6094482110351
 20
-50.83152261099004
 30
0.0
  0
VERTEX
  5
C1
330
BF
100
AcDbEntity
  8
BEMAßUNG
 62
     7
100
AcDbVertex
100
AcDb2dVertex
 10
124.6094482110351
 20
-52.20646021915325
 30
0.0
  0
SEQEND
  5
C2
330
BF
100
AcDbEntity
  8
BEMAßUNG
  0
POLYLINE
  5
C3
330
1F
100
AcDbEntity
  8
BEMAßUNG
 62
     7
100
AcDb2dPolyline
 66
     1
 10
0.0
 20
0.0
 30
0.0
  0
VERTEX
  5
C4
330
C3
100
AcDbEntity
  8
BEMAßUNG
 62
     7
100
AcDbVertex
100
AcDb2dVertex
 10
124.6094482110351
 20
-34.60667316843167
 30
0.0
  0
VERTEX
  5
C5
330
C3
100
AcDbEntity
  8
BEMAßUNG
 62
     7
100
AcDbVertex
100
AcDb2dVertex
 10
124.4285806980595
 20
-35.98178303136914
 30
0.0
  0
VERTEX
  5
C6
330
C3
100
AcDbEntity
  8
BEMAßUNG
 62
     7
100
AcDbVertex
100
AcDb2dVertex
 10
124.7906602335593
 20
-35.98178303136914
 30
0.0
  0
VERTEX
  5
C7
330
C3
100
AcDbEntity
  8
BEMAßUNG
 62
     7
100
AcDbVertex
100
AcDb2dVertex
 10
124.6094482110351
 20
-34.60667316843167
 30
0.0
  0
SEQEND
  5
C8
330
C3
100
AcDbEntity
  8
BEMAßUNG
  0
POLYLINE
  5
C9
330
1F
100
AcDbEntity
  8
BEMAßUNG
 62
     7
100
AcDb2dPolyline
 66
     1
 10
0.0
 20
0.0
 30
0.0
  0
VERTEX
  5
CA
330
C9
100
AcDbEntity
  8
BEMAßUNG
 62
     7
100
AcDbVertex
100
AcDb2dVertex
 10
124.442016570452
 20
-35.98178303136914
 30
0.0
  0
VERTEX
  5
CB
330
C9
100
AcDbEntity
  8
BEMAßUNG
 62
     7
100
AcDbVertex
100
AcDb2dVertex
 10
124.442016570452
 20
-35.88015271455427
 30
0.0
  0
SEQEND
  5
CC
330
C9
100
AcDbEntity
  8
BEMAßUNG
  0
POLYLINE
  5
CD
330
1F
100
AcDbEntity
  8
BEMAßUNG
 62
     7
100
AcDb2dPolyline
 66
     1
 10
0.0
 20
0.0
 30
0.0
  0
VERTEX
  5
CE
330
CD
100
AcDbEntity
  8
BEMAßUNG
 62
     7
100
AcDbVertex
100
AcDb2dVertex
 10
124.442016570452
 20
-35.98178303136914
 30
0.0
  0
VERTEX
  5
CF
330
CD
100
AcDbEntity
  8
BEMAßUNG
 62
     7
100
AcDbVertex
100
AcDb2dVertex
 10
124.442016570452
 20
-35.88015271455427
 30
0.0
  0
SEQEND
  5
D0
330
CD
100
AcDbEntity
  8
BEMAßUNG
  0
POLYLINE
  5
D1
330
1F
100
AcDbEntity
  8
BEMAßUNG
 62
     7
100
AcDb2dPolyline
 66
     1
 10
0.0
 20
0.0
 30
0.0
  0
VERTEX
  5
D2
330
D1
100
AcDbEntity
  8
BEMAßUNG
 62
     7
100
AcDbVertex
100
AcDb2dVertex
 10
124.470266353431
 20
-35.98178303136914
 30
0.0
  0
VERTEX
  5
D3
330
D1
100
AcDbEntity
  8
BEMAßUNG
 62
     7
100
AcDbVertex
100
AcDb2dVertex
 10
124.470266353431
 20
-35.66759032311435
 30
0.0
  0
SEQEND
  5
D4
330
D1
100
AcDbEntity
  8
BEMAßUNG
  0
POLYLINE
  5
D5
330
1F
100
AcDbEntity
  8
BEMAßUNG
 62
     7
100
AcDb2dPolyline
 66
     1
 10
0.0
 20
0.0
 30
0.0
  0
VERTEX
  5
D6
330
D5
100
AcDbEntity
  8
BEMAßUNG
 62
     7
100
AcDbVertex
100
AcDb2dVertex
 10
124.4974826077645
 20
-35.98178303136914
 30
0.0
  0
VERTEX
  5
D7
330
D5
100
AcDbEntity
  8
BEMAßUNG
 62
     7
100
AcDbVertex
100
AcDb2dVertex
 10
124.4974826077645
 20
-35.45554469599723
 30
0.0
  0
SEQEND
  5
D8
330
D5
100
AcDbEntity
  8
BEMAßUNG
  0
POLYLINE
  5
D9
330
1F
100
AcDbEntity
  8
BEMAßUNG
 62
     7
100
AcDb2dPolyline
 66
     1
 10
0.0
 20
0.0
 30
0.0
  0
VERTEX
  5
DA
330
D9
100
AcDbEntity
  8
BEMAßUNG
 62
     7
100
AcDbVertex
100
AcDb2dVertex
 10
124.5257323907436
 20
-35.98178303136914
 30
0.0
  0
VERTEX
  5
DB
330
D9
100
AcDbEntity
  8
BEMAßUNG
 62
     7
100
AcDbVertex
100
AcDb2dVertex
 10
124.5257323907436
 20
-35.24298230455731
 30
0.0
  0
SEQEND
  5
DC
330
D9
100
AcDbEntity
  8
BEMAßUNG
  0
POLYLINE
  5
DD
330
1F
100
AcDbEntity
  8
BEMAßUNG
 62
     7
100
AcDb2dPolyline
 66
     1
 10
0.0
 20
0.0
 30
0.0
  0
VERTEX
  5
DE
330
DD
100
AcDbEntity
  8
BEMAßUNG
 62
     7
100
AcDbVertex
100
AcDb2dVertex
 10
124.5536376641741
 20
-35.98178303136914
 30
0.0
  0
VERTEX
  5
DF
330
DD
100
AcDbEntity
  8
BEMAßUNG
 62
     7
100
AcDbVertex
100
AcDb2dVertex
 10
124.5536376641741
 20
-35.03128118698871
 30
0.0
  0
SEQEND
  5
E0
330
DD
100
AcDbEntity
  8
BEMAßUNG
  0
POLYLINE
  5
E1
330
1F
100
AcDbEntity
  8
BEMAßUNG
 62
     7
100
AcDb2dPolyline
 66
     1
 10
0.0
 20
0.0
 30
0.0
  0
VERTEX
  5
E2
330
E1
100
AcDbEntity
  8
BEMAßUNG
 62
     7
100
AcDbVertex
100
AcDb2dVertex
 10
124.5815429376046
 20
-35.98178303136914
 30
0.0
  0
VERTEX
  5
E3
330
E1
100
AcDbEntity
  8
BEMAßUNG
 62
     7
100
AcDbVertex
100
AcDb2dVertex
 10
124.5815429376046
 20
-34.8187187955488
 30
0.0
  0
SEQEND
  5
E4
330
E1
100
AcDbEntity
  8
BEMAßUNG
  0
POLYLINE
  5
E5
330
1F
100
AcDbEntity
  8
BEMAßUNG
 62
     7
100
AcDb2dPolyline
 66
     1
 10
0.0
 20
0.0
 30
0.0
  0
VERTEX
  5
E6
330
E5
100
AcDbEntity
  8
BEMAßUNG
 62
     7
100
AcDbVertex
100
AcDb2dVertex
 10
124.6094482110351
 20
-35.98178303136914
 30
0.0
  0
VERTEX
  5
E7
330
E5
100
AcDbEntity
  8
BEMAßUNG
 62
     7
100
AcDbVertex
100
AcDb2dVertex
 10
124.6094482110351
 20
-34.60667316843167
 30
0.0
  0
SEQEND
  5
E8
330
E5
100
AcDbEntity
  8
BEMAßUNG
  0
POLYLINE
  5
E9
330
1F
100
AcDbEntity
  8
BEMAßUNG
 62
     7
100
AcDb2dPolyline
 66
     1
 10
0.0
 20
0.0
 30
0.0
  0
VERTEX
  5
EA
330
E9
100
AcDbEntity
  8
BEMAßUNG
 62
     7
100
AcDbVertex
100
AcDb2dVertex
 10
124.7772243611668
 20
-35.98178303136914
 30
0.0
  0
VERTEX
  5
EB
330
E9
100
AcDbEntity
  8
BEMAßUNG
 62
     7
100
AcDbVertex
100
AcDb2dVertex
 10
124.7772243611668
 20
-35.88015271455427
 30
0.0
  0
SEQEND
  5
EC
330
E9
100
AcDbEntity
  8
BEMAßUNG
  0
POLYLINE
  5
ED
330
1F
100
AcDbEntity
  8
BEMAßUNG
 62
     7
100
AcDb2dPolyline
 66
     1
 10
0.0
 20
0.0
 30
0.0
  0
VERTEX
  5
EE
330
ED
100
AcDbEntity
  8
BEMAßUNG
 62
     7
100
AcDbVertex
100
AcDb2dVertex
 10
124.7772243611668
 20
-35.98178303136914
 30
0.0
  0
VERTEX
  5
EF
330
ED
100
AcDbEntity
  8
BEMAßUNG
 62
     7
100
AcDbVertex
100
AcDb2dVertex
 10
124.7772243611668
 20
-35.88015271455427
 30
0.0
  0
SEQEND
  5
F0
330
ED
100
AcDbEntity
  8
BEMAßUNG
  0
POLYLINE
  5
F1
330
1F
100
AcDbEntity
  8
BEMAßUNG
 62
     7
100
AcDb2dPolyline
 66
     1
 10
0.0
 20
0.0
 30
0.0
  0
VERTEX
  5
F2
330
F1
100
AcDbEntity
  8
BEMAßUNG
 62
     7
100
AcDbVertex
100
AcDb2dVertex
 10
124.7493190877363
 20
-35.98178303136914
 30
0.0
  0
VERTEX
  5
F3
330
F1
100
AcDbEntity
  8
BEMAßUNG
 62
     7
100
AcDbVertex
100
AcDb2dVertex
 10
124.7493190877363
 20
-35.66759032311435
 30
0.0
  0
SEQEND
  5
F4
330
F1
100
AcDbEntity
  8
BEMAßUNG
  0
POLYLINE
  5
F5
330
1F
100
AcDbEntity
  8
BEMAßUNG
 62
     7
100
AcDb2dPolyline
 66
     1
 10
0.0
 20
0.0
 30
0.0
  0
VERTEX
  5
F6
330
F5
100
AcDbEntity
  8
BEMAßUNG
 62
     7
100
AcDbVertex
100
AcDb2dVertex
 10
124.7214138143058
 20
-35.98178303136914
 30
0.0
  0
VERTEX
  5
F7
330
F5
100
AcDbEntity
  8
BEMAßUNG
 62
     7
100
AcDbVertex
100
AcDb2dVertex
 10
124.7214138143058
 20
-35.45554469599723
 30
0.0
  0
SEQEND
  5
F8
330
F5
100
AcDbEntity
  8
BEMAßUNG
  0
POLYLINE
  5
F9
330
1F
100
AcDbEntity
  8
BEMAßUNG
 62
     7
100
AcDb2dPolyline
 66
     1
 10
0.0
 20
0.0
 30
0.0
  0
VERTEX
  5
FA
330
F9
100
AcDbEntity
  8
BEMAßUNG
 62
     7
100
AcDbVertex
100
AcDb2dVertex
 10
124.6935085408752
 20
-35.98178303136914
 30
0.0
  0
VERTEX
  5
FB
330
F9
100
AcDbEntity
  8
BEMAßUNG
 62
     7
100
AcDbVertex
100
AcDb2dVertex
 10
124.6935085408752
 20
-35.24298230455731
 30
0.0
  0
SEQEND
  5
FC
330
F9
100
AcDbEntity
  8
BEMAßUNG
  0
POLYLINE
  5
FD
330
1F
100
AcDbEntity
  8
BEMAßUNG
 62
     7
100
AcDb2dPolyline
 66
     1
 10
0.0
 20
0.0
 30
0.0
  0
VERTEX
  5
FE
330
FD
100
AcDbEntity
  8
BEMAßUNG
 62
     7
100
AcDbVertex
100
AcDb2dVertex
 10
124.6656032674447
 20
-35.98178303136914
 30
0.0
  0
VERTEX
  5
FF
330
FD
100
AcDbEntity
  8
BEMAßUNG
 62
     7
100
AcDbVertex
100
AcDb2dVertex
 10
124.6656032674447
 20
-35.03128118698871
 30
0.0
  0
SEQEND
  5
100
330
FD
100
AcDbEntity
  8
BEMAßUNG
  0
POLYLINE
  5
101
330
1F
100
AcDbEntity
  8
BEMAßUNG
 62
     7
100
AcDb2dPolyline
 66
     1
 10
0.0
 20
0.0
 30
0.0
  0
VERTEX
  5
102
330
101
100
AcDbEntity
  8
BEMAßUNG
 62
     7
100
AcDbVertex
100
AcDb2dVertex
 10
124.6376979940142
 20
-35.98178303136914
 30
0.0
  0
VERTEX
  5
103
330
101
100
AcDbEntity
  8
BEMAßUNG
 62
     7
100
AcDbVertex
100
AcDb2dVertex
 10
124.6376979940142
 20
-34.8187187955488
 30
0.0
  0
SEQEND
  5
104
330
101
100
AcDbEntity
  8
BEMAßUNG
  0
POLYLINE
  5
105
330
1F
100
AcDbEntity
  8
BEMAßUNG
 62
     7
100
AcDb2dPolyline
 66
     1
 10
0.0
 20
0.0
 30
0.0
  0
VERTEX
  5
106
330
105
100
AcDbEntity
  8
BEMAßUNG
 62
     7
100
AcDbVertex
100
AcDb2dVertex
 10
124.6094482110351
 20
-35.98178303136914
 30
0.0
  0
VERTEX
  5
107
330
105
100
AcDbEntity
  8
BEMAßUNG
 62
     7
100
AcDbVertex
100
AcDb2dVertex
 10
124.6094482110351
 20
-34.60667316843167
 30
0.0
  0
SEQEND
  5
108
330
105
100
AcDbEntity
  8
BEMAßUNG
  0
POLYLINE
  5
109
330
1F
100
AcDbEntity
  8
BEMAßUNG
 62
     7
100
AcDb2dPolyline
 66
     1
 10
0.0
 20
0.0
 30
0.0
  0
VERTEX
  5
10A
330
109
100
AcDbEntity
  8
BEMAßUNG
 62
     7
100
AcDbVertex
100
AcDb2dVertex
 10
182.4215955490127
 20
-42.76224771066361
 30
0.0
  0
VERTEX
  5
10B
330
109
100
AcDbEntity
  8
BEMAßUNG
 62
     7
100
AcDbVertex
100
AcDb2dVertex
 10
182.4215955490127
 20
-27.86513806812052
 30
0.0
  0
SEQEND
  5
10C
330
109
100
AcDbEntity
  8
BEMAßUNG
  0
POLYLINE
  5
10D
330
1F
100
AcDbEntity
  8
BEMAßUNG
 62
     7
100
AcDb2dPolyline
 66
     1
 10
0.0
 20
0.0
 30
0.0
  0
VERTEX
  5
10E
330
10D
100
AcDbEntity
  8
BEMAßUNG
 62
     7
100
AcDbVertex
100
AcDb2dVertex
 10
130.1718993815195
 20
-37.35672063953235
 30
0.0
  0
VERTEX
  5
10F
330
10D
100
AcDbEntity
  8
BEMAßUNG
 62
     7
100
AcDbVertex
100
AcDb2dVertex
 10
130.1718993815195
 20
-27.86513806812052
 30
0.0
  0
SEQEND
  5
110
330
10D
100
AcDbEntity
  8
BEMAßUNG
  0
POLYLINE
  5
111
330
1F
100
AcDbEntity
  8
BEMAßUNG
 62
     7
100
AcDb2dPolyline
 66
     1
 10
0.0
 20
0.0
 30
0.0
  0
VERTEX
  5
112
330
111
100
AcDbEntity
  8
BEMAßUNG
 62
     7
100
AcDbVertex
100
AcDb2dVertex
 10
182.4215955490127
 20
-28.96498480178653
 30
0.0
  0
VERTEX
  5
113
330
111
100
AcDbEntity
  8
BEMAßUNG
 62
     7
100
AcDbVertex
100
AcDb2dVertex
 10
130.1718993815195
 20
-28.96498480178653
 30
0.0
  0
SEQEND
  5
114
330
111
100
AcDbEntity
  8
BEMAßUNG
  0
POLYLINE
  5
115
330
1F
100
AcDbEntity
  8
BEMAßUNG
 62
     7
100
AcDb2dPolyline
 66
     1
 10
0.0
 20
0.0
 30
0.0
  0
VERTEX
  5
116
330
115
100
AcDbEntity
  8
BEMAßUNG
 62
     7
100
AcDbVertex
100
AcDb2dVertex
 10
182.4215955490127
 20
-28.96498480178653
 30
0.0
  0
VERTEX
  5
117
330
115
100
AcDbEntity
  8
BEMAßUNG
 62
     7
100
AcDbVertex
100
AcDb2dVertex
 10
181.047002450398
 20
-28.78411728881091
 30
0.0
  0
VERTEX
  5
118
330
115
100
AcDbEntity
  8
BEMAßUNG
 62
     7
100
AcDbVertex
100
AcDb2dVertex
 10
181.047002450398
 20
-29.14619682431067
 30
0.0
  0
VERTEX
  5
119
330
115
100
AcDbEntity
  8
BEMAßUNG
 62
     7
100
AcDbVertex
100
AcDb2dVertex
 10
182.4215955490127
 20
-28.96498480178653
 30
0.0
  0
SEQEND
  5
11A
330
115
100
AcDbEntity
  8
BEMAßUNG
  0
POLYLINE
  5
11B
330
1F
100
AcDbEntity
  8
BEMAßUNG
 62
     7
100
AcDb2dPolyline
 66
     1
 10
0.0
 20
0.0
 30
0.0
  0
VERTEX
  5
11C
330
11B
100
AcDbEntity
  8
BEMAßUNG
 62
     7
100
AcDbVertex
100
AcDb2dVertex
 10
181.047002450398
 20
-28.79720865165487
 30
0.0
  0
VERTEX
  5
11D
330
11B
100
AcDbEntity
  8
BEMAßUNG
 62
     7
100
AcDbVertex
100
AcDb2dVertex
 10
181.1486327672129
 20
-28.79720865165487
 30
0.0
  0
SEQEND
  5
11E
330
11B
100
AcDbEntity
  8
BEMAßUNG
  0
POLYLINE
  5
11F
330
1F
100
AcDbEntity
  8
BEMAßUNG
 62
     7
100
AcDb2dPolyline
 66
     1
 10
0.0
 20
0.0
 30
0.0
  0
VERTEX
  5
120
330
11F
100
AcDbEntity
  8
BEMAßUNG
 62
     7
100
AcDbVertex
100
AcDb2dVertex
 10
181.047002450398
 20
-28.79720865165487
 30
0.0
  0
VERTEX
  5
121
330
11F
100
AcDbEntity
  8
BEMAßUNG
 62
     7
100
AcDbVertex
100
AcDb2dVertex
 10
181.1486327672129
 20
-28.79720865165487
 30
0.0
  0
SEQEND
  5
122
330
11F
100
AcDbEntity
  8
BEMAßUNG
  0
POLYLINE
  5
123
330
1F
100
AcDbEntity
  8
BEMAßUNG
 62
     7
100
AcDb2dPolyline
 66
     1
 10
0.0
 20
0.0
 30
0.0
  0
VERTEX
  5
124
330
123
100
AcDbEntity
  8
BEMAßUNG
 62
     7
100
AcDbVertex
100
AcDb2dVertex
 10
181.047002450398
 20
-28.82511392508539
 30
0.0
  0
VERTEX
  5
125
330
123
100
AcDbEntity
  8
BEMAßUNG
 62
     7
100
AcDbVertex
100
AcDb2dVertex
 10
181.3605061395557
 20
-28.82511392508539
 30
0.0
  0
SEQEND
  5
126
330
123
100
AcDbEntity
  8
BEMAßUNG
  0
POLYLINE
  5
127
330
1F
100
AcDbEntity
  8
BEMAßUNG
 62
     7
100
AcDb2dPolyline
 66
     1
 10
0.0
 20
0.0
 30
0.0
  0
VERTEX
  5
128
330
127
100
AcDbEntity
  8
BEMAßUNG
 62
     7
100
AcDbVertex
100
AcDb2dVertex
 10
181.047002450398
 20
-28.85301919851591
 30
0.0
  0
VERTEX
  5
129
330
127
100
AcDbEntity
  8
BEMAßUNG
 62
     7
100
AcDbVertex
100
AcDb2dVertex
 10
181.5727240214471
 20
-28.85301919851591
 30
0.0
  0
SEQEND
  5
12A
330
127
100
AcDbEntity
  8
BEMAßUNG
  0
POLYLINE
  5
12B
330
1F
100
AcDbEntity
  8
BEMAßUNG
 62
     7
100
AcDb2dPolyline
 66
     1
 10
0.0
 20
0.0
 30
0.0
  0
VERTEX
  5
12C
330
12B
100
AcDbEntity
  8
BEMAßUNG
 62
     7
100
AcDbVertex
100
AcDb2dVertex
 10
181.047002450398
 20
-28.8810967267207
 30
0.0
  0
VERTEX
  5
12D
330
12B
100
AcDbEntity
  8
BEMAßUNG
 62
     7
100
AcDbVertex
100
AcDb2dVertex
 10
181.7849419033385
 20
-28.8810967267207
 30
0.0
  0
SEQEND
  5
12E
330
12B
100
AcDbEntity
  8
BEMAßUNG
  0
POLYLINE
  5
12F
330
1F
100
AcDbEntity
  8
BEMAßUNG
 62
     7
100
AcDb2dPolyline
 66
     1
 10
0.0
 20
0.0
 30
0.0
  0
VERTEX
  5
130
330
12F
100
AcDbEntity
  8
BEMAßUNG
 62
     7
100
AcDbVertex
100
AcDb2dVertex
 10
181.047002450398
 20
-28.90900200015122
 30
0.0
  0
VERTEX
  5
131
330
12F
100
AcDbEntity
  8
BEMAßUNG
 62
     7
100
AcDbVertex
100
AcDb2dVertex
 10
181.9975042947784
 20
-28.90900200015122
 30
0.0
  0
SEQEND
  5
132
330
12F
100
AcDbEntity
  8
BEMAßUNG
  0
POLYLINE
  5
133
330
1F
100
AcDbEntity
  8
BEMAßUNG
 62
     7
100
AcDb2dPolyline
 66
     1
 10
0.0
 20
0.0
 30
0.0
  0
VERTEX
  5
134
330
133
100
AcDbEntity
  8
BEMAßUNG
 62
     7
100
AcDbVertex
100
AcDb2dVertex
 10
181.047002450398
 20
-28.93707952835601
 30
0.0
  0
VERTEX
  5
135
330
133
100
AcDbEntity
  8
BEMAßUNG
 62
     7
100
AcDbVertex
100
AcDb2dVertex
 10
182.2093776671213
 20
-28.93707952835601
 30
0.0
  0
SEQEND
  5
136
330
133
100
AcDbEntity
  8
BEMAßUNG
  0
POLYLINE
  5
137
330
1F
100
AcDbEntity
  8
BEMAßUNG
 62
     7
100
AcDb2dPolyline
 66
     1
 10
0.0
 20
0.0
 30
0.0
  0
VERTEX
  5
138
330
137
100
AcDbEntity
  8
BEMAßUNG
 62
     7
100
AcDbVertex
100
AcDb2dVertex
 10
181.047002450398
 20
-28.96498480178653
 30
0.0
  0
VERTEX
  5
139
330
137
100
AcDbEntity
  8
BEMAßUNG
 62
     7
100
AcDbVertex
100
AcDb2dVertex
 10
182.4215955490127
 20
-28.96498480178653
 30
0.0
  0
SEQEND
  5
13A
330
137
100
AcDbEntity
  8
BEMAßUNG
  0
POLYLINE
  5
13B
330
1F
100
AcDbEntity
  8
BEMAßUNG
 62
     7
100
AcDb2dPolyline
 66
     1
 10
0.0
 20
0.0
 30
0.0
  0
VERTEX
  5
13C
330
13B
100
AcDbEntity
  8
BEMAßUNG
 62
     7
100
AcDbVertex
100
AcDb2dVertex
 10
181.047002450398
 20
-29.1327609519182
 30
0.0
  0
VERTEX
  5
13D
330
13B
100
AcDbEntity
  8
BEMAßUNG
 62
     7
100
AcDbVertex
100
AcDb2dVertex
 10
181.1486327672129
 20
-29.1327609519182
 30
0.0
  0
SEQEND
  5
13E
330
13B
100
AcDbEntity
  8
BEMAßUNG
  0
POLYLINE
  5
13F
330
1F
100
AcDbEntity
  8
BEMAßUNG
 62
     7
100
AcDb2dPolyline
 66
     1
 10
0.0
 20
0.0
 30
0.0
  0
VERTEX
  5
140
330
13F
100
AcDbEntity
  8
BEMAßUNG
 62
     7
100
AcDbVertex
100
AcDb2dVertex
 10
181.047002450398
 20
-29.1327609519182
 30
0.0
  0
VERTEX
  5
141
330
13F
100
AcDbEntity
  8
BEMAßUNG
 62
     7
100
AcDbVertex
100
AcDb2dVertex
 10
181.1486327672129
 20
-29.1327609519182
 30
0.0
  0
SEQEND
  5
142
330
13F
100
AcDbEntity
  8
BEMAßUNG
  0
POLYLINE
  5
143
330
1F
100
AcDbEntity
  8
BEMAßUNG
 62
     7
100
AcDb2dPolyline
 66
     1
 10
0.0
 20
0.0
 30
0.0
  0
VERTEX
  5
144
330
143
100
AcDbEntity
  8
BEMAßUNG
 62
     7
100
AcDbVertex
100
AcDb2dVertex
 10
181.047002450398
 20
-29.10468342371341
 30
0.0
  0
VERTEX
  5
145
330
143
100
AcDbEntity
  8
BEMAßUNG
 62
     7
100
AcDbVertex
100
AcDb2dVertex
 10
181.3605061395557
 20
-29.10468342371341
 30
0.0
  0
SEQEND
  5
146
330
143
100
AcDbEntity
  8
BEMAßUNG
  0
POLYLINE
  5
147
330
1F
100
AcDbEntity
  8
BEMAßUNG
 62
     7
100
AcDb2dPolyline
 66
     1
 10
0.0
 20
0.0
 30
0.0
  0
VERTEX
  5
148
330
147
100
AcDbEntity
  8
BEMAßUNG
 62
     7
100
AcDbVertex
100
AcDb2dVertex
 10
181.047002450398
 20
-29.07677815028289
 30
0.0
  0
VERTEX
  5
149
330
147
100
AcDbEntity
  8
BEMAßUNG
 62
     7
100
AcDbVertex
100
AcDb2dVertex
 10
181.5727240214471
 20
-29.07677815028289
 30
0.0
  0
SEQEND
  5
14A
330
147
100
AcDbEntity
  8
BEMAßUNG
  0
POLYLINE
  5
14B
330
1F
100
AcDbEntity
  8
BEMAßUNG
 62
     7
100
AcDb2dPolyline
 66
     1
 10
0.0
 20
0.0
 30
0.0
  0
VERTEX
  5
14C
330
14B
100
AcDbEntity
  8
BEMAßUNG
 62
     7
100
AcDbVertex
100
AcDb2dVertex
 10
181.047002450398
 20
-29.04887287685237
 30
0.0
  0
VERTEX
  5
14D
330
14B
100
AcDbEntity
  8
BEMAßUNG
 62
     7
100
AcDbVertex
100
AcDb2dVertex
 10
181.7849419033385
 20
-29.04887287685237
 30
0.0
  0
SEQEND
  5
14E
330
14B
100
AcDbEntity
  8
BEMAßUNG
  0
POLYLINE
  5
14F
330
1F
100
AcDbEntity
  8
BEMAßUNG
 62
     7
100
AcDb2dPolyline
 66
     1
 10
0.0
 20
0.0
 30
0.0
  0
VERTEX
  5
150
330
14F
100
AcDbEntity
  8
BEMAßUNG
 62
     7
100
AcDbVertex
100
AcDb2dVertex
 10
181.047002450398
 20
-29.02096760342184
 30
0.0
  0
VERTEX
  5
151
330
14F
100
AcDbEntity
  8
BEMAßUNG
 62
     7
100
AcDbVertex
100
AcDb2dVertex
 10
181.9975042947784
 20
-29.02096760342184
 30
0.0
  0
SEQEND
  5
152
330
14F
100
AcDbEntity
  8
BEMAßUNG
  0
POLYLINE
  5
153
330
1F
100
AcDbEntity
  8
BEMAßUNG
 62
     7
100
AcDb2dPolyline
 66
     1
 10
0.0
 20
0.0
 30
0.0
  0
VERTEX
  5
154
330
153
100
AcDbEntity
  8
BEMAßUNG
 62
     7
100
AcDbVertex
100
AcDb2dVertex
 10
181.047002450398
 20
-28.99306232999132
 30
0.0
  0
VERTEX
  5
155
330
153
100
AcDbEntity
  8
BEMAßUNG
 62
     7
100
AcDbVertex
100
AcDb2dVertex
 10
182.2093776671213
 20
-28.99306232999132
 30
0.0
  0
SEQEND
  5
156
330
153
100
AcDbEntity
  8
BEMAßUNG
  0
POLYLINE
  5
157
330
1F
100
AcDbEntity
  8
BEMAßUNG
 62
     7
100
AcDb2dPolyline
 66
     1
 10
0.0
 20
0.0
 30
0.0
  0
VERTEX
  5
158
330
157
100
AcDbEntity
  8
BEMAßUNG
 62
     7
100
AcDbVertex
100
AcDb2dVertex
 10
181.047002450398
 20
-28.96498480178653
 30
0.0
  0
VERTEX
  5
159
330
157
100
AcDbEntity
  8
BEMAßUNG
 62
     7
100
AcDbVertex
100
AcDb2dVertex
 10
182.4215955490127
 20
-28.96498480178653
 30
0.0
  0
SEQEND
  5
15A
330
157
100
AcDbEntity
  8
BEMAßUNG
  0
POLYLINE
  5
15B
330
1F
100
AcDbEntity
  8
BEMAßUNG
 62
     7
100
AcDb2dPolyline
 66
     1
 10
0.0
 20
0.0
 30
0.0
  0
VERTEX
  5
15C
330
15B
100
AcDbEntity
  8
BEMAßUNG
 62
     7
100
AcDbVertex
100
AcDb2dVertex
 10
130.1718993815195
 20
-28.96498480178653
 30
0.0
  0
VERTEX
  5
15D
330
15B
100
AcDbEntity
  8
BEMAßUNG
 62
     7
100
AcDbVertex
100
AcDb2dVertex
 10
131.5468369896827
 20
-29.14619682431067
 30
0.0
  0
VERTEX
  5
15E
330
15B
100
AcDbEntity
  8
BEMAßUNG
 62
     7
100
AcDbVertex
100
AcDb2dVertex
 10
131.5468369896827
 20
-28.78411728881091
 30
0.0
  0
VERTEX
  5
15F
330
15B
100
AcDbEntity
  8
BEMAßUNG
 62
     7
100
AcDbVertex
100
AcDb2dVertex
 10
130.1718993815195
 20
-28.96498480178653
 30
0.0
  0
SEQEND
  5
160
330
15B
100
AcDbEntity
  8
BEMAßUNG
  0
POLYLINE
  5
161
330
1F
100
AcDbEntity
  8
BEMAßUNG
 62
     7
100
AcDb2dPolyline
 66
     1
 10
0.0
 20
0.0
 30
0.0
  0
VERTEX
  5
162
330
161
100
AcDbEntity
  8
BEMAßUNG
 62
     7
100
AcDbVertex
100
AcDb2dVertex
 10
131.5468369896827
 20
-29.1327609519182
 30
0.0
  0
VERTEX
  5
163
330
161
100
AcDbEntity
  8
BEMAßUNG
 62
     7
100
AcDbVertex
100
AcDb2dVertex
 10
131.4452066728679
 20
-29.1327609519182
 30
0.0
  0
SEQEND
  5
164
330
161
100
AcDbEntity
  8
BEMAßUNG
  0
POLYLINE
  5
165
330
1F
100
AcDbEntity
  8
BEMAßUNG
 62
     7
100
AcDb2dPolyline
 66
     1
 10
0.0
 20
0.0
 30
0.0
  0
VERTEX
  5
166
330
165
100
AcDbEntity
  8
BEMAßUNG
 62
     7
100
AcDbVertex
100
AcDb2dVertex
 10
131.5468369896827
 20
-29.1327609519182
 30
0.0
  0
VERTEX
  5
167
330
165
100
AcDbEntity
  8
BEMAßUNG
 62
     7
100
AcDbVertex
100
AcDb2dVertex
 10
131.4452066728679
 20
-29.1327609519182
 30
0.0
  0
SEQEND
  5
168
330
165
100
AcDbEntity
  8
BEMAßUNG
  0
POLYLINE
  5
169
330
1F
100
AcDbEntity
  8
BEMAßUNG
 62
     7
100
AcDb2dPolyline
 66
     1
 10
0.0
 20
0.0
 30
0.0
  0
VERTEX
  5
16A
330
169
100
AcDbEntity
  8
BEMAßUNG
 62
     7
100
AcDbVertex
100
AcDb2dVertex
 10
131.5468369896827
 20
-29.10468342371341
 30
0.0
  0
VERTEX
  5
16B
330
169
100
AcDbEntity
  8
BEMAßUNG
 62
     7
100
AcDbVertex
100
AcDb2dVertex
 10
131.2329887909765
 20
-29.10468342371341
 30
0.0
  0
SEQEND
  5
16C
330
169
100
AcDbEntity
  8
BEMAßUNG
  0
POLYLINE
  5
16D
330
1F
100
AcDbEntity
  8
BEMAßUNG
 62
     7
100
AcDb2dPolyline
 66
     1
 10
0.0
 20
0.0
 30
0.0
  0
VERTEX
  5
16E
330
16D
100
AcDbEntity
  8
BEMAßUNG
 62
     7
100
AcDbVertex
100
AcDb2dVertex
 10
131.5468369896827
 20
-29.07677815028289
 30
0.0
  0
VERTEX
  5
16F
330
16D
100
AcDbEntity
  8
BEMAßUNG
 62
     7
100
AcDbVertex
100
AcDb2dVertex
 10
131.0207709090851
 20
-29.07677815028289
 30
0.0
  0
SEQEND
  5
170
330
16D
100
AcDbEntity
  8
BEMAßUNG
  0
POLYLINE
  5
171
330
1F
100
AcDbEntity
  8
BEMAßUNG
 62
     7
100
AcDb2dPolyline
 66
     1
 10
0.0
 20
0.0
 30
0.0
  0
VERTEX
  5
172
330
171
100
AcDbEntity
  8
BEMAßUNG
 62
     7
100
AcDbVertex
100
AcDb2dVertex
 10
131.5468369896827
 20
-29.04887287685237
 30
0.0
  0
VERTEX
  5
173
330
171
100
AcDbEntity
  8
BEMAßUNG
 62
     7
100
AcDbVertex
100
AcDb2dVertex
 10
130.8085530271937
 20
-29.04887287685237
 30
0.0
  0
SEQEND
  5
174
330
171
100
AcDbEntity
  8
BEMAßUNG
  0
POLYLINE
  5
175
330
1F
100
AcDbEntity
  8
BEMAßUNG
 62
     7
100
AcDb2dPolyline
 66
     1
 10
0.0
 20
0.0
 30
0.0
  0
VERTEX
  5
176
330
175
100
AcDbEntity
  8
BEMAßUNG
 62
     7
100
AcDbVertex
100
AcDb2dVertex
 10
131.5468369896827
 20
-29.02096760342184
 30
0.0
  0
VERTEX
  5
177
330
175
100
AcDbEntity
  8
BEMAßUNG
 62
     7
100
AcDbVertex
100
AcDb2dVertex
 10
130.5956461262053
 20
-29.02096760342184
 30
0.0
  0
SEQEND
  5
178
330
175
100
AcDbEntity
  8
BEMAßUNG
  0
POLYLINE
  5
179
330
1F
100
AcDbEntity
  8
BEMAßUNG
 62
     7
100
AcDb2dPolyline
 66
     1
 10
0.0
 20
0.0
 30
0.0
  0
VERTEX
  5
17A
330
179
100
AcDbEntity
  8
BEMAßUNG
 62
     7
100
AcDbVertex
100
AcDb2dVertex
 10
131.5468369896827
 20
-28.99306232999132
 30
0.0
  0
VERTEX
  5
17B
330
179
100
AcDbEntity
  8
BEMAßUNG
 62
     7
100
AcDbVertex
100
AcDb2dVertex
 10
130.3841172634109
 20
-28.99306232999132
 30
0.0
  0
SEQEND
  5
17C
330
179
100
AcDbEntity
  8
BEMAßUNG
  0
POLYLINE
  5
17D
330
1F
100
AcDbEntity
  8
BEMAßUNG
 62
     7
100
AcDb2dPolyline
 66
     1
 10
0.0
 20
0.0
 30
0.0
  0
VERTEX
  5
17E
330
17D
100
AcDbEntity
  8
BEMAßUNG
 62
     7
100
AcDbVertex
100
AcDb2dVertex
 10
131.5468369896827
 20
-28.96498480178653
 30
0.0
  0
VERTEX
  5
17F
330
17D
100
AcDbEntity
  8
BEMAßUNG
 62
     7
100
AcDbVertex
100
AcDb2dVertex
 10
130.1718993815195
 20
-28.96498480178653
 30
0.0
  0
SEQEND
  5
180
330
17D
100
AcDbEntity
  8
BEMAßUNG
  0
POLYLINE
  5
181
330
1F
100
AcDbEntity
  8
BEMAßUNG
 62
     7
100
AcDb2dPolyline
 66
     1
 10
0.0
 20
0.0
 30
0.0
  0
VERTEX
  5
182
330
181
100
AcDbEntity
  8
BEMAßUNG
 62
     7
100
AcDbVertex
100
AcDb2dVertex
 10
131.5468369896827
 20
-28.79720865165487
 30
0.0
  0
VERTEX
  5
183
330
181
100
AcDbEntity
  8
BEMAßUNG
 62
     7
100
AcDbVertex
100
AcDb2dVertex
 10
131.4452066728679
 20
-28.79720865165487
 30
0.0
  0
SEQEND
  5
184
330
181
100
AcDbEntity
  8
BEMAßUNG
  0
POLYLINE
  5
185
330
1F
100
AcDbEntity
  8
BEMAßUNG
 62
     7
100
AcDb2dPolyline
 66
     1
 10
0.0
 20
0.0
 30
0.0
  0
VERTEX
  5
186
330
185
100
AcDbEntity
  8
BEMAßUNG
 62
     7
100
AcDbVertex
100
AcDb2dVertex
 10
131.5468369896827
 20
-28.79720865165487
 30
0.0
  0
VERTEX
  5
187
330
185
100
AcDbEntity
  8
BEMAßUNG
 62
     7
100
AcDbVertex
100
AcDb2dVertex
 10
131.4452066728679
 20
-28.79720865165487
 30
0.0
  0
SEQEND
  5
188
330
185
100
AcDbEntity
  8
BEMAßUNG
  0
POLYLINE
  5
189
330
1F
100
AcDbEntity
  8
BEMAßUNG
 62
     7
100
AcDb2dPolyline
 66
     1
 10
0.0
 20
0.0
 30
0.0
  0
VERTEX
  5
18A
330
189
100
AcDbEntity
  8
BEMAßUNG
 62
     7
100
AcDbVertex
100
AcDb2dVertex
 10
131.5468369896827
 20
-28.82511392508539
 30
0.0
  0
VERTEX
  5
18B
330
189
100
AcDbEntity
  8
BEMAßUNG
 62
     7
100
AcDbVertex
100
AcDb2dVertex
 10
131.2329887909765
 20
-28.82511392508539
 30
0.0
  0
SEQEND
  5
18C
330
189
100
AcDbEntity
  8
BEMAßUNG
  0
POLYLINE
  5
18D
330
1F
100
AcDbEntity
  8
BEMAßUNG
 62
     7
100
AcDb2dPolyline
 66
     1
 10
0.0
 20
0.0
 30
0.0
  0
VERTEX
  5
18E
330
18D
100
AcDbEntity
  8
BEMAßUNG
 62
     7
100
AcDbVertex
100
AcDb2dVertex
 10
131.5468369896827
 20
-28.85301919851591
 30
0.0
  0
VERTEX
  5
18F
330
18D
100
AcDbEntity
  8
BEMAßUNG
 62
     7
100
AcDbVertex
100
AcDb2dVertex
 10
131.0207709090851
 20
-28.85301919851591
 30
0.0
  0
SEQEND
  5
190
330
18D
100
AcDbEntity
  8
BEMAßUNG
  0
POLYLINE
  5
191
330
1F
100
AcDbEntity
  8
BEMAßUNG
 62
     7
100
AcDb2dPolyline
 66
     1
 10
0.0
 20
0.0
 30
0.0
  0
VERTEX
  5
192
330
191
100
AcDbEntity
  8
BEMAßUNG
 62
     7
100
AcDbVertex
100
AcDb2dVertex
 10
131.5468369896827
 20
-28.8810967267207
 30
0.0
  0
VERTEX
  5
193
330
191
100
AcDbEntity
  8
BEMAßUNG
 62
     7
100
AcDbVertex
100
AcDb2dVertex
 10
130.8085530271937
 20
-28.8810967267207
 30
0.0
  0
SEQEND
  5
194
330
191
100
AcDbEntity
  8
BEMAßUNG
  0
POLYLINE
  5
195
330
1F
100
AcDbEntity
  8
BEMAßUNG
 62
     7
100
AcDb2dPolyline
 66
     1
 10
0.0
 20
0.0
 30
0.0
  0
VERTEX
  5
196
330
195
100
AcDbEntity
  8
BEMAßUNG
 62
     7
100
AcDbVertex
100
AcDb2dVertex
 10
131.5468369896827
 20
-28.90900200015122
 30
0.0
  0
VERTEX
  5
197
330
195
100
AcDbEntity
  8
BEMAßUNG
 62
     7
100
AcDbVertex
100
AcDb2dVertex
 10
130.5956461262053
 20
-28.90900200015122
 30
0.0
  0
SEQEND
  5
198
330
195
100
AcDbEntity
  8
BEMAßUNG
  0
POLYLINE
  5
199
330
1F
100
AcDbEntity
  8
BEMAßUNG
 62
     7
100
AcDb2dPolyline
 66
     1
 10
0.0
 20
0.0
 30
0.0
  0
VERTEX
  5
19A
330
199
100
AcDbEntity
  8
BEMAßUNG
 62
     7
100
AcDbVertex
100
AcDb2dVertex
 10
131.5468369896827
 20
-28.93707952835601
 30
0.0
  0
VERTEX
  5
19B
330
199
100
AcDbEntity
  8
BEMAßUNG
 62
     7
100
AcDbVertex
100
AcDb2dVertex
 10
130.3841172634109
 20
-28.93707952835601
 30
0.0
  0
SEQEND
  5
19C
330
199
100
AcDbEntity
  8
BEMAßUNG
  0
POLYLINE
  5
19D
330
1F
100
AcDbEntity
  8
BEMAßUNG
 62
     7
100
AcDb2dPolyline
 66
     1
 10
0.0
 20
0.0
 30
0.0
  0
VERTEX
  5
19E
330
19D
100
AcDbEntity
  8
BEMAßUNG
 62
     7
100
AcDbVertex
100
AcDb2dVertex
 10
131.5468369896827
 20
-28.96498480178653
 30
0.0
  0
VERTEX
  5
19F
330
19D
100
AcDbEntity
  8
BEMAßUNG
 62
     7
100
AcDbVertex
100
AcDb2dVertex
 10
130.1718993815195
 20
-28.96498480178653
 30
0.0
  0
SEQEND
  5
1A0
330
19D
100
AcDbEntity
  8
BEMAßUNG
  0
MTEXT
  5
1A2
330
1F
100
AcDbEntity
  8
TEXT
 62
     7
100
AcDbMText
 10
123.8549722997654
 20
-44.26499836132959
 30
0.0
 40
2.398888888289167
 41
0.0
 71
     7
 72
     1
  1
\fINDEX Univers 45 Light|b0|i0|c0|p34;\W1;A
 11
-4.371139000186241E-8
 21
0.999999999999999
 31
0.0
  0
MTEXT
  5
1A3
330
1F
100
AcDbEntity
  8
TEXT
 62
     7
100
AcDbMText
 10
154.5039197747421
 20
-28.21050889051682
 30
0.0
 40
2.398888888289167
 41
0.0
 71
     7
 72
     1
  1
\fINDEX Univers 45 Light|b0|i0|c0|p34;\W1;B
  0
ENDSEC
  0
SECTION
  2
OBJECTS
  0
DICTIONARY
  5
C
330
0
100
AcDbDictionary
  3
ACAD_GROUP
350
D
  3
ACAD_LAYOUT
350
1A
  3
ACAD_MLINESTYLE
350
17
  3
ACAD_PLOTSETTINGS
350
19
  3
ACAD_TABLESTYLE
350
1C4
  3
ACAD_VISUALSTYLE
350
2A
  3
ACDBHEADERROUNDTRIPXREC
350
1A4
  0
DICTIONARY
  5
D
102
{ACAD_REACTORS
330
C
102
}
330
C
100
AcDbDictionary
  0
DICTIONARY
  5
1A
102
{ACAD_REACTORS
330
C
102
}
330
C
100
AcDbDictionary
  0
DICTIONARY
  5
17
102
{ACAD_REACTORS
330
C
102
}
330
C
100
AcDbDictionary
  3
STANDARD
350
18
  0
DICTIONARY
  5
19
102
{ACAD_REACTORS
330
C
102
}
330
C
100
AcDbDictionary
  0
DICTIONARY
  5
1C4
102
{ACAD_REACTORS
330
C
102
}
330
C
100
AcDbDictionary
  0
DICTIONARY
  5
2A
102
{ACAD_REACTORS
330
C
102
}
330
C
100
AcDbDictionary
  3
2DWIREFRAME
350
2F
  3
3D_HIDDEN
350
31
  3
3DWIREFRAME
350
30
  3
BASIC
350
32
  3
BRIGHTEN
350
36
  3
COLORCHANGE
350
3A
  3
CONCEPTUAL
350
34
  3
DIM
350
35
  3
FACEPATTERN
350
39
  3
FLAT
350
2B
  3
FLATWITHEDGES
350
2C
  3
GOURAUD
350
2D
  3
GOURAUDWITHEDGES
350
2E
  3
LINEPATTERN
350
38
  3
REALISTIC
350
33
  3
THICKEN
350
37
  0
DICTIONARY
  5
1A4
102
{ACAD_REACTORS
330
C
102
}
330
C
100
AcDbDictionary
  3
CEPSNTYPE
350
1AD
  3
DIMSTYLEDATA
350
1C3
  3
FINGERPRINTGUID
350
1AE
  3
HYPERLINKBASE
350
1A7
  3
INSUNITS
350
1AC
  3
LAYOUTDICT
350
1A9
  3
LWETCUNION
350
1AB
  3
PLOTSETDICT
350
1AA
  3
PSVPSCALE
350
1B0
  3
PUCSBASE
350
1B3
  3
PUCSORGBACK
350
1B9
  3
PUCSORGBOTTOM
350
1B5
  3
PUCSORGFRONT
350
1B8
  3
PUCSORGLEFT
350
1B6
  3
PUCSORGRIGHT
350
1B7
  3
PUCSORGTOP
350
1B4
  3
PUCSORTHOREF
350
1B1
  3
PUCSORTHOVIEW
350
1B2
  3
STYLESHEET
350
1A8
  3
TSTACKALIGN
350
1A5
  3
TSTACKSIZE
350
1A6
  3
UCSBASE
350
1BC
  3
UCSORGBACK
350
1C2
  3
UCSORGBOTTOM
350
1BE
  3
UCSORGFRONT
350
1C1
  3
UCSORGLEFT
350
1BF
  3
UCSORGRIGHT
350
1C0
  3
UCSORGTOP
350
1BD
  3
UCSORTHOREF
350
1BA
  3
UCSORTHOVIEW
350
1BB
  3
VERSIONGUID
350
1AF
  0
MLINESTYLE
  5
18
102
{ACAD_REACTORS
330
17
102
}
330
17
100
AcDbMlineStyle
  2
Standard
 70
     0
  3

 62
   256
 51
90.0
 52
90.0
 71
     2
 49
0.5
 62
   256
  6
BYLAYER
 49
-0.5
 62
   256
  6
BYLAYER
  0
VISUALSTYLE
  5
2F
102
{ACAD_REACTORS
330
2A
102
}
330
2A
100
AcDbVisualStyle
  2
2dWireframe
 70
     4
 71
     0
 72
     2
 73
     0
 90
        0
 40
-0.6
 41
-30.0
 62
     5
 63
     7
 74
     1
 91
        4
 64
     7
 65
   257
 75
     1
175
     1
 42
1.0
 92
        0
 66
   257
 43
1.0
 76
     1
 77
     6
 78
     2
 67
     7
 79
     5
170
     0
171
     0
290
     0
174
     0
 93
        1
 44
0.0
173
     0
291
     0
 45
0.0
1001
ACAD
1000
AcDbSavedByObjectVersion
1070
     0
  0
VISUALSTYLE
  5
31
102
{ACAD_REACTORS
330
2A
102
}
330
2A
100
AcDbVisualStyle
  2
3D Hidden
 70
     6
 71
     1
 72
     2
 73
     2
 90
        0
 40
-0.6
 41
-30.0
 62
     5
 63
     7
 74
     2
 91
        2
 64
     7
 65
   257
 75
     2
175
     1
 42
40.0
 92
        0
 66
   257
 43
1.0
 76
     1
 77
     6
 78
     2
 67
     7
 79
     3
170
     0
171
     0
290
     0
174
     0
 93
        1
 44
0.0
173
     0
291
     0
 45
0.0
1001
ACAD
1000
AcDbSavedByObjectVersion
1070
     0
  0
VISUALSTYLE
  5
30
102
{ACAD_REACTORS
330
2A
102
}
330
2A
100
AcDbVisualStyle
  2
3dWireframe
 70
     5
 71
     0
 72
     2
 73
     0
 90
        0
 40
-0.6
 41
-30.0
 62
     5
 63
     7
 74
     1
 91
        4
 64
     7
 65
   257
 75
     1
175
     1
 42
1.0
 92
        0
 66
   257
 43
1.0
 76
     1
 77
     6
 78
     2
 67
     7
 79
     5
170
     0
171
     0
290
     0
174
     0
 93
        1
 44
0.0
173
     0
291
     0
 45
0.0
1001
ACAD
1000
AcDbSavedByObjectVersion
1070
     0
  0
VISUALSTYLE
  5
32
102
{ACAD_REACTORS
330
2A
102
}
330
2A
100
AcDbVisualStyle
  2
Basic
 70
     7
 71
     1
 72
     0
 73
     1
 90
        0
 40
-0.6
 41
-30.0
 62
     5
 63
     7
 74
     0
 91
        4
 64
     7
 65
   257
 75
     1
175
     1
 42
1.0
 92
        8
 66
     7
 43
1.0
 76
     1
 77
     6
 78
     2
 67
     7
 79
     5
170
     0
171
     0
290
     0
174
     0
 93
        1
 44
0.0
173
     0
291
     1
 45
0.0
1001
ACAD
1000
AcDbSavedByObjectVersion
1070
     0
  0
VISUALSTYLE
  5
36
102
{ACAD_REACTORS
330
2A
102
}
330
2A
100
AcDbVisualStyle
  2
Brighten
 70
    12
 71
     2
 72
     2
 73
     0
 90
        0
 40
-0.6
 41
-30.0
 62
     5
 63
     7
 74
     1
 91
        4
 64
     7
 65
   257
 75
     1
175
     1
 42
1.0
 92
        8
 66
     7
 43
1.0
 76
     1
 77
     6
 78
     2
 67
     7
 79
     5
170
     0
171
     0
290
     0
174
     0
 93
        1
 44
50.0
173
     0
291
     1
 45
0.0
1001
ACAD
1000
AcDbSavedByObjectVersion
1070
     0
  0
VISUALSTYLE
  5
3A
102
{ACAD_REACTORS
330
2A
102
}
330
2A
100
AcDbVisualStyle
  2
ColorChange
 70
    16
 71
     2
 72
     2
 73
     3
 90
        0
 40
-0.6
 41
-30.0
 62
     5
 63
     8
 74
     1
 91
        4
 64
     7
 65
   257
 75
     1
175
     1
 42
1.0
 92
        8
 66
     8
 43
1.0
 76
     1
 77
     6
 78
     2
 67
     7
 79
     5
170
     0
171
     0
290
     0
174
     0
 93
        1
 44
0.0
173
     0
291
     1
 45
0.0
1001
ACAD
1000
AcDbSavedByObjectVersion
1070
     0
  0
VISUALSTYLE
  5
34
102
{ACAD_REACTORS
330
2A
102
}
330
2A
100
AcDbVisualStyle
  2
Conceptual
 70
     9
 71
     3
 72
     2
 73
     0
 90
        0
 40
-0.6
 41
-30.0
 62
     5
 63
     7
 74
     2
 91
        2
 64
     7
 65
   257
 75
     1
175
     1
 42
40.0
 92
        8
 66
     7
 43
1.0
 76
     1
 77
     6
 78
     2
 67
     7
 79
     3
170
     0
171
     0
290
     0
174
     0
 93
        1
 44
0.0
173
     0
291
     0
 45
0.0
1001
ACAD
1000
AcDbSavedByObjectVersion
1070
     0
  0
VISUALSTYLE
  5
35
102
{ACAD_REACTORS
330
2A
102
}
330
2A
100
AcDbVisualStyle
  2
Dim
 70
    11
 71
     2
 72
     2
 73
     0
 90
        0
 40
-0.6
 41
-30.0
 62
     5
 63
     7
 74
     1
 91
        4
 64
     7
 65
   257
 75
     1
175
     1
 42
1.0
 92
        8
 66
     7
 43
1.0
 76
     1
 77
     6
 78
     2
 67
     7
 79
     5
170
     0
171
     0
290
     0
174
     0
 93
        1
 44
-50.0
173
     0
291
     1
 45
0.0
1001
ACAD
1000
AcDbSavedByObjectVersion
1070
     0
  0
VISUALSTYLE
  5
39
102
{ACAD_REACTORS
330
2A
102
}
330
2A
100
AcDbVisualStyle
  2
Facepattern
 70
    15
 71
     2
 72
     2
 73
     0
 90
        0
 40
-0.6
 41
-30.0
 62
     5
 63
     7
 74
     1
 91
        4
 64
     7
 65
   257
 75
     1
175
     1
 42
1.0
 92
        8
 66
     7
 43
1.0
 76
     1
 77
     6
 78
     2
 67
     7
 79
     5
170
     0
171
     0
290
     0
174
     0
 93
        1
 44
0.0
173
     0
291
     1
 45
0.0
1001
ACAD
1000
AcDbSavedByObjectVersion
1070
     0
  0
VISUALSTYLE
  5
2B
102
{ACAD_REACTORS
330
2A
102
}
330
2A
100
AcDbVisualStyle
  2
Flat
 70
     0
 71
     2
 72
     1
 73
     1
 90
        2
 40
-0.6
 41
30.0
 62
     5
 63
     7
 74
     0
 91
        4
 64
     7
 65
   257
 75
     1
175
     1
 42
1.0
 92
        8
 66
     7
 43
1.0
 76
     1
 77
     6
 78
     2
 67
     7
 79
     5
170
     0
171
     0
290
     0
174
     0
 93
       13
 44
0.0
173
     0
291
     1
 45
0.0
1001
ACAD
1000
AcDbSavedByObjectVersion
1070
     0
  0
VISUALSTYLE
  5
2C
102
{ACAD_REACTORS
330
2A
102
}
330
2A
100
AcDbVisualStyle
  2
FlatWithEdges
 70
     1
 71
     2
 72
     1
 73
     1
 90
        2
 40
-0.6
 41
30.0
 62
     5
 63
     7
 74
     1
 91
        4
 64
     7
 65
   257
 75
     1
175
     1
 42
1.0
 92
        0
 66
   257
 43
1.0
 76
     1
 77
     6
 78
     2
 67
     7
 79
     5
170
     0
171
     0
290
     0
174
     0
 93
       13
 44
0.0
173
     0
291
     1
 45
0.0
1001
ACAD
1000
AcDbSavedByObjectVersion
1070
     0
  0
VISUALSTYLE
  5
2D
102
{ACAD_REACTORS
330
2A
102
}
330
2A
100
AcDbVisualStyle
  2
Gouraud
 70
     2
 71
     2
 72
     2
 73
     1
 90
        2
 40
-0.6
 41
30.0
 62
     5
 63
     7
 74
     0
 91
        4
 64
     7
 65
   257
 75
     1
175
     1
 42
1.0
 92
        0
 66
     7
 43
1.0
 76
     1
 77
     6
 78
     2
 67
     7
 79
     5
170
     0
171
     0
290
     0
174
     0
 93
       13
 44
0.0
173
     0
291
     1
 45
0.0
1001
ACAD
1000
AcDbSavedByObjectVersion
1070
     0
  0
VISUALSTYLE
  5
2E
102
{ACAD_REACTORS
330
2A
102
}
330
2A
100
AcDbVisualStyle
  2
GouraudWithEdges
 70
     3
 71
     2
 72
     2
 73
     1
 90
        2
 40
-0.6
 41
30.0
 62
     5
 63
     7
 74
     1
 91
        4
 64
     7
 65
   257
 75
     1
175
     1
 42
1.0
 92
        0
 66
   257
 43
1.0
 76
     1
 77
     6
 78
     2
 67
     7
 79
     5
170
     0
171
     0
290
     0
174
     0
 93
       13
 44
0.0
173
     0
291
     1
 45
0.0
1001
ACAD
1000
AcDbSavedByObjectVersion
1070
     0
  0
VISUALSTYLE
  5
38
102
{ACAD_REACTORS
330
2A
102
}
330
2A
100
AcDbVisualStyle
  2
Linepattern
 70
    14
 71
     2
 72
     2
 73
     0
 90
        0
 40
-0.6
 41
-30.0
 62
     5
 63
     7
 74
     1
 91
        4
 64
     7
 65
   257
 75
     7
175
     7
 42
1.0
 92
        8
 66
     7
 43
1.0
 76
     1
 77
     6
 78
     2
 67
     7
 79
     5
170
     0
171
     0
290
     0
174
     0
 93
        1
 44
0.0
173
     0
291
     1
 45
0.0
1001
ACAD
1000
AcDbSavedByObjectVersion
1070
     0
  0
VISUALSTYLE
  5
33
102
{ACAD_REACTORS
330
2A
102
}
330
2A
100
AcDbVisualStyle
  2
Realistic
 70
     8
 71
     2
 72
     2
 73
     0
 90
        0
 40
-0.6
 41
-30.0
 62
     5
 63
     7
 74
     1
 91
        0
 64
     7
 65
   257
 75
     1
175
     1
 42
1.0
 92
        8
 66
     8
 43
1.0
 76
     1
 77
     6
 78
     2
 67
     7
 79
     5
170
     0
171
     0
290
     0
174
     0
 93
       13
 44
0.0
173
     0
291
     0
 45
0.0
1001
ACAD
1000
AcDbSavedByObjectVersion
1070
     0
  0
VISUALSTYLE
  5
37
102
{ACAD_REACTORS
330
2A
102
}
330
2A
100
AcDbVisualStyle
  2
Thicken
 70
    13
 71
     2
 72
     2
 73
     0
 90
        0
 40
-0.6
 41
-30.0
 62
     5
 63
     7
 74
     1
 91
        4
 64
     7
 65
   257
 75
     1
175
     1
 42
1.0
 92
       12
 66
     7
 43
1.0
 76
     1
 77
     6
 78
     2
 67
     7
 79
     5
170
     0
171
     0
290
     0
174
     0
 93
        1
 44
0.0
173
     0
291
     1
 45
0.0
1001
ACAD
1000
AcDbSavedByObjectVersion
1070
     0
  0
XRECORD
  5
1AD
102
{ACAD_REACTORS
330
1A4
102
}
330
1A4
100
AcDbXrecord
 90
        0
  0
XRECORD
  5
1C3
102
{ACAD_REACTORS
330
1A4
102
}
330
1A4
100
AcDbXrecord
1000
DSTYLE
1002
{
1070
   340
340
11
1002
}
  0
XRECORD
  5
1AE
102
{ACAD_REACTORS
330
1A4
102
}
330
1A4
100
AcDbXrecord
  1
{396FF1CC-92B3-43CF-BE9A-2647EAC209B3}
  0
XRECORD
  5
1A7
102
{ACAD_REACTORS
330
1A4
102
}
330
1A4
100
AcDbXrecord
  1

  0
XRECORD
  5
1AC
102
{ACAD_REACTORS
330
1A4
102
}
330
1A4
100
AcDbXrecord
 90
        1
  0
XRECORD
  5
1A9
102
{ACAD_REACTORS
330
1A4
102
}
330
1A4
100
AcDbXrecord
340
1A
  0
XRECORD
  5
1AB
102
{ACAD_REACTORS
330
1A4
102
}
330
1A4
100
AcDbXrecord
 90
    10269
  0
XRECORD
  5
1AA
102
{ACAD_REACTORS
330
1A4
102
}
330
1A4
100
AcDbXrecord
340
19
  0
XRECORD
  5
1B0
102
{ACAD_REACTORS
330
1A4
102
}
330
1A4
100
AcDbXrecord
 40
0.0
  0
XRECORD
  5
1B3
102
{ACAD_REACTORS
330
1A4
102
}
330
1A4
100
AcDbXrecord
340
0
  0
XRECORD
  5
1B9
102
{ACAD_REACTORS
330
1A4
102
}
330
1A4
100
AcDbXrecord
 10
0.0
 20
0.0
 30
0.0
  0
XRECORD
  5
1B5
102
{ACAD_REACTORS
330
1A4
102
}
330
1A4
100
AcDbXrecord
 10
0.0
 20
0.0
 30
0.0
  0
XRECORD
  5
1B8
102
{ACAD_REACTORS
330
1A4
102
}
330
1A4
100
AcDbXrecord
 10
0.0
 20
0.0
 30
0.0
  0
XRECORD
  5
1B6
102
{ACAD_REACTORS
330
1A4
102
}
330
1A4
100
AcDbXrecord
 10
0.0
 20
0.0
 30
0.0
  0
XRECORD
  5
1B7
102
{ACAD_REACTORS
330
1A4
102
}
330
1A4
100
AcDbXrecord
 10
0.0
 20
0.0
 30
0.0
  0
XRECORD
  5
1B4
102
{ACAD_REACTORS
330
1A4
102
}
330
1A4
100
AcDbXrecord
 10
0.0
 20
0.0
 30
0.0
  0
XRECORD
  5
1B1
102
{ACAD_REACTORS
330
1A4
102
}
330
1A4
100
AcDbXrecord
340
0
  0
XRECORD
  5
1B2
102
{ACAD_REACTORS
330
1A4
102
}
330
1A4
100
AcDbXrecord
 70
     0
  0
XRECORD
  5
1A8
102
{ACAD_REACTORS
330
1A4
102
}
330
1A4
100
AcDbXrecord
  1

  0
XRECORD
  5
1A5
102
{ACAD_REACTORS
330
1A4
102
}
330
1A4
100
AcDbXrecord
 90
        1
  0
XRECORD
  5
1A6
102
{ACAD_REACTORS
330
1A4
102
}
330
1A4
100
AcDbXrecord
 90
       70
  0
XRECORD
  5
1BC
102
{ACAD_REACTORS
330
1A4
102
}
330
1A4
100
AcDbXrecord
340
0
  0
XRECORD
  5
1C2
102
{ACAD_REACTORS
330
1A4
102
}
330
1A4
100
AcDbXrecord
 10
0.0
 20
0.0
 30
0.0
  0
XRECORD
  5
1BE
102
{ACAD_REACTORS
330
1A4
102
}
330
1A4
100
AcDbXrecord
 10
0.0
 20
0.0
 30
0.0
  0
XRECORD
  5
1C1
102
{ACAD_REACTORS
330
1A4
102
}
330
1A4
100
AcDbXrecord
 10
0.0
 20
0.0
 30
0.0
  0
XRECORD
  5
1BF
102
{ACAD_REACTORS
330
1A4
102
}
330
1A4
100
AcDbXrecord
 10
0.0
 20
0.0
 30
0.0
  0
XRECORD
  5
1C0
102
{ACAD_REACTORS
330
1A4
102
}
330
1A4
100
AcDbXrecord
 10
0.0
 20
0.0
 30
0.0
  0
XRECORD
  5
1BD
102
{ACAD_REACTORS
330
1A4
102
}
330
1A4
100
AcDbXrecord
 10
0.0
 20
0.0
 30
0.0
  0
XRECORD
  5
1BA
102
{ACAD_REACTORS
330
1A4
102
}
330
1A4
100
AcDbXrecord
340
0
  0
XRECORD
  5
1BB
102
{ACAD_REACTORS
330
1A4
102
}
330
1A4
100
AcDbXrecord
 70
     0
  0
XRECORD
  5
1AF
102
{ACAD_REACTORS
330
1A4
102
}
330
1A4
100
AcDbXrecord
  1
{FAEB1C32-E019-11D5-929B-00C0DF256EC4}
  0
ENDSEC
  0
EOF
