  0
SECTION
  2
HEADER
  9
$ACADVER
  1
AC1014
  9
$ACADMAINTVER
 70
     9
  9
$DWGCODEPAGE
  3
ANSI_1252
  9
$INSBASE
 10
0.0
 20
0.0
 30
0.0
  9
$EXTMIN
 10
1.000000000000000E+20
 20
1.000000000000000E+20
 30
1.000000000000000E+20
  9
$EXTMAX
 10
-1.000000000000000E+20
 20
-1.000000000000000E+20
 30
-1.000000000000000E+20
  9
$LIMMIN
 10
0.0
 20
0.0
  9
$LIMMAX
 10
12.0
 20
9.0
  9
$ORTHOMODE
 70
     0
  9
$REGENMODE
 70
     1
  9
$FILLMODE
 70
     1
  9
$QTEXTMODE
 70
     0
  9
$MIRRTEXT
 70
     1
  9
$DRAGMODE
 70
     2
  9
$LTSCALE
 40
1.0
  9
$OSMODE
 70
    37
  9
$ATTMODE
 70
     1
  9
$TEXTSIZE
 40
0.2
  9
$TRACEWID
 40
0.05
  9
$TEXTSTYLE
  7
STANDARD
  9
$CLAYER
  8
0
  9
$CELTYPE
  6
BYLAYER
  9
$CECOLOR
 62
   256
  9
$CELTSCALE
 40
1.0
  9
$DELOBJ
 70
     1
  9
$DISPSILH
 70
     0
  9
$DIMSCALE
 40
1.0
  9
$DIMASZ
 40
0.18
  9
$DIMEXO
 40
0.0625
  9
$DIMDLI
 40
0.38
  9
$DIMRND
 40
0.0
  9
$DIMDLE
 40
0.0
  9
$DIMEXE
 40
0.18
  9
$DIMTP
 40
0.0
  9
$DIMTM
 40
0.0
  9
$DIMTXT
 40
0.18
  9
$DIMCEN
 40
0.09
  9
$DIMTSZ
 40
0.0
  9
$DIMTOL
 70
     0
  9
$DIMLIM
 70
     0
  9
$DIMTIH
 70
     1
  9
$DIMTOH
 70
     1
  9
$DIMSE1
 70
     0
  9
$DIMSE2
 70
     0
  9
$DIMTAD
 70
     0
  9
$DIMZIN
 70
     0
  9
$DIMBLK
  1

  9
$DIMASO
 70
     1
  9
$DIMSHO
 70
     1
  9
$DIMPOST
  1

  9
$DIMAPOST
  1

  9
$DIMALT
 70
     0
  9
$DIMALTD
 70
     2
  9
$DIMALTF
 40
25.4
  9
$DIMLFAC
 40
1.0
  9
$DIMTOFL
 70
     0
  9
$DIMTVP
 40
0.0
  9
$DIMTIX
 70
     0
  9
$DIMSOXD
 70
     0
  9
$DIMSAH
 70
     0
  9
$DIMBLK1
  1

  9
$DIMBLK2
  1

  9
$DIMSTYLE
  2
STANDARD
  9
$DIMCLRD
 70
     0
  9
$DIMCLRE
 70
     0
  9
$DIMCLRT
 70
     0
  9
$DIMTFAC
 40
1.0
  9
$DIMGAP
 40
0.09
  9
$DIMJUST
 70
     0
  9
$DIMSD1
 70
     0
  9
$DIMSD2
 70
     0
  9
$DIMTOLJ
 70
     1
  9
$DIMTZIN
 70
     0
  9
$DIMALTZ
 70
     0
  9
$DIMALTTZ
 70
     0
  9
$DIMFIT
 70
     3
  9
$DIMUPT
 70
     0
  9
$DIMUNIT
 70
     2
  9
$DIMDEC
 70
     4
  9
$DIMTDEC
 70
     4
  9
$DIMALTU
 70
     2
  9
$DIMALTTD
 70
     2
  9
$DIMTXSTY
  7
STANDARD
  9
$DIMAUNIT
 70
     0
  9
$LUNITS
 70
     2
  9
$LUPREC
 70
     4
  9
$SKETCHINC
 40
0.1
  9
$FILLETRAD
 40
0.5
  9
$AUNITS
 70
     0
  9
$AUPREC
 70
     0
  9
$MENU
  1
.
  9
$ELEVATION
 40
0.0
  9
$PELEVATION
 40
0.0
  9
$THICKNESS
 40
0.0
  9
$LIMCHECK
 70
     0
  9
$CHAMFERA
 40
0.5
  9
$CHAMFERB
 40
0.5
  9
$CHAMFERC
 40
1.0
  9
$CHAMFERD
 40
0.0
  9
$SKPOLY
 70
     0
  9
$TDCREATE
 40
2458276.414378553
  9
$TDUPDATE
 40
2458276.414378565
  9
$TDINDWG
 40
0.0000000116
  9
$TDUSRTIMER
 40
0.0000000116
  9
$USRTIMER
 70
     1
  9
$ANGBASE
 50
0.0
  9
$ANGDIR
 70
     0
  9
$PDMODE
 70
     0
  9
$PDSIZE
 40
0.0
  9
$PLINEWID
 40
0.0
  9
$COORDS
 70
     1
  9
$SPLFRAME
 70
     0
  9
$SPLINETYPE
 70
     6
  9
$SPLINESEGS
 70
     8
  9
$ATTDIA
 70
     0
  9
$ATTREQ
 70
     1
  9
$HANDLING
 70
     1
  9
$HANDSEED
  5
2B8
  9
$SURFTAB1
 70
     6
  9
$SURFTAB2
 70
     6
  9
$SURFTYPE
 70
     6
  9
$SURFU
 70
     6
  9
$SURFV
 70
     6
  9
$UCSNAME
  2

  9
$UCSORG
 10
0.0
 20
0.0
 30
0.0
  9
$UCSXDIR
 10
1.0
 20
0.0
 30
0.0
  9
$UCSYDIR
 10
0.0
 20
1.0
 30
0.0
  9
$PUCSNAME
  2

  9
$PUCSORG
 10
0.0
 20
0.0
 30
0.0
  9
$PUCSXDIR
 10
1.0
 20
0.0
 30
0.0
  9
$PUCSYDIR
 10
0.0
 20
1.0
 30
0.0
  9
$USERI1
 70
     0
  9
$USERI2
 70
     0
  9
$USERI3
 70
     0
  9
$USERI4
 70
     0
  9
$USERI5
 70
     0
  9
$USERR1
 40
0.0
  9
$USERR2
 40
0.0
  9
$USERR3
 40
0.0
  9
$USERR4
 40
0.0
  9
$USERR5
 40
0.0
  9
$WORLDVIEW
 70
     1
  9
$SHADEDGE
 70
     3
  9
$SHADEDIF
 70
    70
  9
$TILEMODE
 70
     1
  9
$MAXACTVP
 70
    64
  9
$PINSBASE
 10
0.0
 20
0.0
 30
0.0
  9
$PLIMCHECK
 70
     0
  9
$PEXTMIN
 10
1.000000000000000E+20
 20
1.000000000000000E+20
 30
1.000000000000000E+20
  9
$PEXTMAX
 10
-1.000000000000000E+20
 20
-1.000000000000000E+20
 30
-1.000000000000000E+20
  9
$PLIMMIN
 10
0.0
 20
0.0
  9
$PLIMMAX
 10
12.0
 20
9.0
  9
$UNITMODE
 70
     0
  9
$VISRETAIN
 70
     1
  9
$PLINEGEN
 70
     0
  9
$PSLTSCALE
 70
     1
  9
$TREEDEPTH
 70
  3020
  9
$PICKSTYLE
 70
     1
  9
$CMLSTYLE
  2
STANDARD
  9
$CMLJUST
 70
     0
  9
$CMLSCALE
 40
1.0
  9
$PROXYGRAPHICS
 70
     1
  9
$MEASUREMENT
 70
     0
  0
ENDSEC
  0
SECTION
  2
CLASSES
  0
CLASS
  1
ACDBDICTIONARYWDFLT
  2
AcDbDictionaryWithDefault
  3
ObjectDBX Classes
 90
        0
280
     0
281
     0
  0
CLASS
  1
VISUALSTYLE
  2
AcDbVisualStyle
  3
ObjectDBX Classes
 90
     4095
280
     0
281
     0
  0
CLASS
  1
XRECORD
  2
AcDbXrecord
  3
AutoCAD 2000
 90
        0
280
     0
281
     0
  0
CLASS
  1
LWPOLYLINE
  2
AcDbPolyline
  3
AutoCAD 2000
 90
        0
280
     0
281
     1
  0
CLASS
  1
HATCH
  2
AcDbHatch
  3
AutoCAD 2000
 90
        0
280
     0
281
     1
  0
CLASS
  1
ACDBPLACEHOLDER
  2
AcDbPlaceHolder
  3
ObjectDBX Classes
 90
        0
280
     0
281
     0
  0
CLASS
  1
LAYOUT
  2
AcDbLayout
  3
ObjectDBX Classes
 90
        0
280
     0
281
     0
  0
ENDSEC
  0
SECTION
  2
TABLES
  0
TABLE
  2
VPORT
  5
8
330
0
100
AcDbSymbolTable
 70
     1
  0
VPORT
  5
29
330
8
100
AcDbSymbolTableRecord
100
AcDbViewportTableRecord
  2
*ACTIVE
 70
     0
 10
0.0
 20
0.0
 11
1.0
 21
1.0
 12
0.0
 22
0.0
 13
0.0
 23
0.0
 14
0.5
 24
0.5
 15
0.5
 25
0.5
 16
0.0
 26
0.0
 36
1.0
 17
14.98685437993384
 27
-46.70843233424304
 37
0.0
 40
296.9999592356459
 41
0.7070705664688927
 42
50.0
 43
0.0
 44
0.0
 50
0.0
 51
0.0
 71
     0
 72
   100
 73
     1
 74
     3
 75
     0
 76
     0
 77
     0
 78
     0
  0
ENDTAB
  0
TABLE
  2
LTYPE
  5
5
330
0
100
AcDbSymbolTable
 70
     2
  0
LTYPE
  5
14
330
5
100
AcDbSymbolTableRecord
100
AcDbLinetypeTableRecord
  2
BYBLOCK
 70
     0
  3

 72
    65
 73
     0
 40
0.0
  0
LTYPE
  5
15
330
5
100
AcDbSymbolTableRecord
100
AcDbLinetypeTableRecord
  2
BYLAYER
 70
     0
  3

 72
    65
 73
     0
 40
0.0
  0
LTYPE
  5
16
330
5
100
AcDbSymbolTableRecord
100
AcDbLinetypeTableRecord
  2
CONTINUOUS
 70
     0
  3
Solid line
 72
    65
 73
     0
 40
0.0
  0
LTYPE
  5
9B
330
5
100
AcDbSymbolTableRecord
100
AcDbLinetypeTableRecord
  2
AI-LINETYPE-1
 70
     0
  3
Adobe Illustrator Linetype No. 1
 72
    65
 73
     4
 40
8.819444442239584
 49
7.055555553791667
 74
     0
 49
-0.7055555553791667
 74
     0
 49
0.3527777776895833
 74
     0
 49
-0.7055555553791667
 74
     0
  0
ENDTAB
  0
TABLE
  2
LAYER
  5
2
330
0
100
AcDbSymbolTable
 70
     5
  0
LAYER
  5
10
330
2
100
AcDbSymbolTableRecord
100
AcDbLayerTableRecord
  2
0
 70
     0
 62
     7
  6
CONTINUOUS
  0
LAYER
  5
3B
330
2
100
AcDbSymbolTableRecord
100
AcDbLayerTableRecord
  2
GRAU_10_
 70
     1
 62
     7
  6
CONTINUOUS
  0
LAYER
  5
4E
330
2
100
AcDbSymbolTableRecord
100
AcDbLayerTableRecord
  2
STANDARDEBENE
 70
     0
 62
     7
  6
CONTINUOUS
  0
LAYER
  5
1FC
330
2
100
AcDbSymbolTableRecord
100
AcDbLayerTableRecord
  2
BEMAßUNG
 70
     1
 62
     7
  6
CONTINUOUS
  0
LAYER
  5
295
330
2
100
AcDbSymbolTableRecord
100
AcDbLayerTableRecord
  2
TEXT
 70
     1
 62
     7
  6
CONTINUOUS
  0
ENDTAB
  0
TABLE
  2
STYLE
  5
3
330
0
100
AcDbSymbolTable
 70
     1
  0
STYLE
  5
11
330
3
100
AcDbSymbolTableRecord
100
AcDbTextStyleTableRecord
  2
STANDARD
 70
     0
 40
0.0
 41
1.0
 50
0.0
 71
     0
 42
0.2
  3
txt
  4

  0
ENDTAB
  0
TABLE
  2
VIEW
  5
6
330
0
100
AcDbSymbolTable
 70
     0
  0
ENDTAB
  0
TABLE
  2
UCS
  5
7
330
0
100
AcDbSymbolTable
 70
     0
  0
ENDTAB
  0
TABLE
  2
APPID
  5
9
330
0
100
AcDbSymbolTable
 70
     1
  0
APPID
  5
12
330
9
100
AcDbSymbolTableRecord
100
AcDbRegAppTableRecord
  2
ACAD
 70
     0
  0
ENDTAB
  0
TABLE
  2
DIMSTYLE
  5
A
330
0
100
AcDbSymbolTable
 70
     1
  0
DIMSTYLE
105
27
330
A
100
AcDbSymbolTableRecord
100
AcDbDimStyleTableRecord
  2
STANDARD
 70
     0
  3

  4

  5

  6

  7

 40
1.0
 41
0.18
 42
0.0625
 43
0.38
 44
0.18
 45
0.0
 46
0.0
 47
0.0
 48
0.0
140
0.18
141
0.09
142
0.0
143
25.4
144
1.0
145
0.0
146
1.0
147
0.09
 71
     0
 72
     0
 73
     1
 74
     1
 75
     0
 76
     0
 77
     0
 78
     0
170
     0
171
     2
172
     0
173
     0
174
     0
175
     0
176
     0
177
     0
178
     0
270
     2
271
     4
272
     4
273
     2
274
     2
340
11
275
     0
280
     0
281
     0
282
     0
283
     1
284
     0
285
     0
286
     0
287
     3
288
     0
  0
ENDTAB
  0
TABLE
  2
BLOCK_RECORD
  5
1
330
0
100
AcDbSymbolTable
 70
     1
  0
BLOCK_RECORD
  5
1F
330
1
100
AcDbSymbolTableRecord
100
AcDbBlockTableRecord
  2
*MODEL_SPACE
  0
BLOCK_RECORD
  5
1B
330
1
100
AcDbSymbolTableRecord
100
AcDbBlockTableRecord
  2
*PAPER_SPACE
  0
ENDTAB
  0
ENDSEC
  0
SECTION
  2
BLOCKS
  0
BLOCK
  5
20
330
1F
100
AcDbEntity
  8
0
100
AcDbBlockBegin
  2
*MODEL_SPACE
 70
     0
 71
     0
 10
0.0
 20
0.0
 30
0.0
  3
*MODEL_SPACE
  1

  0
ENDBLK
  5
21
330
1F
100
AcDbEntity
  8
0
100
AcDbBlockEnd
  0
BLOCK
  5
1C
330
1B
100
AcDbEntity
 67
     1
  8
0
100
AcDbBlockBegin
  2
*PAPER_SPACE
 70
     0
 71
     0
 10
0.0
 20
0.0
 30
0.0
  3
*PAPER_SPACE
  1

  0
ENDBLK
  5
1D
330
1B
100
AcDbEntity
 67
     1
  8
0
100
AcDbBlockEnd
  0
ENDSEC
  0
SECTION
  2
ENTITIES
  0
POLYLINE
  5
3C
330
1F
100
AcDbEntity
  8
GRAU_10_
100
AcDb2dPolyline
 66
     1
 10
0.0
 20
0.0
 30
0.0
  0
VERTEX
  5
3D
330
3C
100
AcDbEntity
  8
GRAU_10_
100
AcDbVertex
100
AcDb2dVertex
 10
0.7050387910563792
 20
-8.7431355772413
 30
0.0
  0
VERTEX
  5
3E
330
3C
100
AcDbEntity
  8
GRAU_10_
100
AcDbVertex
100
AcDb2dVertex
 10
0.1651923285177297
 20
-8.455297849448677
 30
0.0
  0
VERTEX
  5
3F
330
3C
100
AcDbEntity
  8
GRAU_10_
100
AcDbVertex
100
AcDb2dVertex
 10
0.1651923285177297
 20
-0.5188313800786255
 30
0.0
  0
VERTEX
  5
40
330
3C
100
AcDbEntity
  8
GRAU_10_
100
AcDbVertex
100
AcDb2dVertex
 10
0.6690375432355185
 20
-0.1409044053467184
 30
0.0
  0
VERTEX
  5
41
330
3C
100
AcDbEntity
  8
GRAU_10_
100
AcDbVertex
100
AcDb2dVertex
 10
1.604897731803637
 20
-0.1049031575258575
 30
0.0
  0
VERTEX
  5
42
330
3C
100
AcDbEntity
  8
GRAU_10_
100
AcDbVertex
100
AcDb2dVertex
 10
1.766817219610379
 20
-1.112765841735697
 30
0.0
  0
VERTEX
  5
43
330
3C
100
AcDbEntity
  8
GRAU_10_
100
AcDbVertex
100
AcDb2dVertex
 10
2.774679903820219
 20
-1.112765841735697
 30
0.0
  0
VERTEX
  5
44
330
3C
100
AcDbEntity
  8
GRAU_10_
100
AcDbVertex
100
AcDb2dVertex
 10
2.846510144687678
 20
-0.21290690098844
 30
0.0
  0
VERTEX
  5
45
330
3C
100
AcDbEntity
  8
GRAU_10_
100
AcDbVertex
100
AcDb2dVertex
 10
13.82430690843628
 20
-1.688613552095208
 30
0.0
  0
VERTEX
  5
46
330
3C
100
AcDbEntity
  8
GRAU_10_
100
AcDbVertex
100
AcDb2dVertex
 10
13.80622015713872
 20
-7.159425182671949
 30
0.0
  0
VERTEX
  5
47
330
3C
100
AcDbEntity
  8
GRAU_10_
100
AcDbVertex
100
AcDb2dVertex
 10
2.990515135971121
 20
-8.671133081599578
 30
0.0
  0
VERTEX
  5
48
330
3C
100
AcDbEntity
  8
GRAU_10_
100
AcDbVertex
100
AcDb2dVertex
 10
2.86459689598524
 20
-7.71735839650816
 30
0.0
  0
VERTEX
  5
49
330
3C
100
AcDbEntity
  8
GRAU_10_
100
AcDbVertex
100
AcDb2dVertex
 10
1.766817219610379
 20
-7.64535590086644
 30
0.0
  0
VERTEX
  5
4A
330
3C
100
AcDbEntity
  8
GRAU_10_
100
AcDbVertex
100
AcDb2dVertex
 10
1.730815971789518
 20
-8.68921983289714
 30
0.0
  0
VERTEX
  5
4B
330
3C
100
AcDbEntity
  8
GRAU_10_
100
AcDbVertex
100
AcDb2dVertex
 10
0.7050387910563792
 20
-8.7431355772413
 30
0.0
  0
SEQEND
  5
4C
330
3C
100
AcDbEntity
  8
GRAU_10_
  0
HATCH
  5
4D
330
1F
100
AcDbEntity
  8
GRAU_10_
 62
   255
100
AcDbHatch
 10
0.0
 20
0.0
 30
0.0
210
0.0
220
0.0
230
1.0
  2
SOLID
 70
     1
 71
     0
 91
        1
 92
        1
 93
       14
 72
     1
 10
0.7050387910563792
 20
-8.7431355772413
 11
0.1651923285177297
 21
-8.455297849448677
 72
     1
 10
0.1651923285177297
 20
-8.455297849448677
 11
0.1651923285177297
 21
-0.5188313800786251
 72
     1
 10
0.1651923285177297
 20
-0.5188313800786255
 11
0.6690375432355185
 21
-0.1409044053467183
 72
     1
 10
0.6690375432355185
 20
-0.1409044053467184
 11
1.604897731803637
 21
-0.1049031575258575
 72
     1
 10
1.604897731803637
 20
-0.1049031575258575
 11
1.766817219610379
 21
-1.112765841735697
 72
     1
 10
1.766817219610379
 20
-1.112765841735697
 11
2.774679903820219
 21
-1.112765841735697
 72
     1
 10
2.774679903820219
 20
-1.112765841735697
 11
2.846510144687678
 21
-0.2129069009884399
 72
     1
 10
2.846510144687678
 20
-0.21290690098844
 11
13.82430690843628
 21
-1.688613552095208
 72
     1
 10
13.82430690843628
 20
-1.688613552095208
 11
13.80622015713872
 21
-7.159425182671949
 72
     1
 10
13.80622015713872
 20
-7.159425182671949
 11
2.990515135971121
 21
-8.671133081599578
 72
     1
 10
2.990515135971121
 20
-8.671133081599578
 11
2.86459689598524
 21
-7.71735839650816
 72
     1
 10
2.86459689598524
 20
-7.71735839650816
 11
1.766817219610379
 21
-7.64535590086644
 72
     1
 10
1.766817219610379
 20
-7.64535590086644
 11
1.730815971789518
 21
-8.68921983289714
 72
     1
 10
1.730815971789518
 20
-8.68921983289714
 11
0.7050387910563791
 21
-8.7431355772413
 97
        0
 75
     0
 76
     1
 98
        0
  0
POLYLINE
  5
4F
330
1F
100
AcDbEntity
  8
STANDARDEBENE
 62
     7
100
AcDb2dPolyline
 66
     1
 10
0.0
 20
0.0
 30
0.0
  0
VERTEX
  5
50
330
4F
100
AcDbEntity
  8
STANDARDEBENE
 62
     7
100
AcDbVertex
100
AcDb2dVertex
 10
0.1956814235621908
 20
-6.430270723218822
 30
0.0
  0
VERTEX
  5
51
330
4F
100
AcDbEntity
  8
STANDARDEBENE
 62
     7
100
AcDbVertex
100
AcDb2dVertex
 10
0.6810953774338928
 20
-6.430270723218822
 30
0.0
  0
SEQEND
  5
52
330
4F
100
AcDbEntity
  8
STANDARDEBENE
  0
POLYLINE
  5
53
330
1F
100
AcDbEntity
  8
STANDARDEBENE
 62
     7
100
AcDb2dPolyline
 66
     1
 10
0.0
 20
0.0
 30
0.0
  0
VERTEX
  5
54
330
53
100
AcDbEntity
  8
STANDARDEBENE
 62
     7
100
AcDbVertex
100
AcDb2dVertex
 10
1.652956813822872
 20
-6.430270723218822
 30
0.0
  0
VERTEX
  5
55
330
53
100
AcDbEntity
  8
STANDARDEBENE
 62
     7
100
AcDbVertex
100
AcDb2dVertex
 10
2.624301485889064
 20
-6.430270723218822
 30
0.0
  0
SEQEND
  5
56
330
53
100
AcDbEntity
  8
STANDARDEBENE
  0
POLYLINE
  5
57
330
1F
100
AcDbEntity
  8
STANDARDEBENE
 62
     7
100
AcDb2dPolyline
 66
     1
 10
0.0
 20
0.0
 30
0.0
  0
VERTEX
  5
58
330
57
100
AcDbEntity
  8
STANDARDEBENE
 62
     7
100
AcDbVertex
100
AcDb2dVertex
 10
3.595818412729518
 20
-6.430270723218822
 30
0.0
  0
VERTEX
  5
59
330
57
100
AcDbEntity
  8
STANDARDEBENE
 62
     7
100
AcDbVertex
100
AcDb2dVertex
 10
4.567335339569972
 20
-6.430270723218822
 30
0.0
  0
SEQEND
  5
5A
330
57
100
AcDbEntity
  8
STANDARDEBENE
  0
POLYLINE
  5
5B
330
1F
100
AcDbEntity
  8
STANDARDEBENE
 62
     7
100
AcDb2dPolyline
 66
     1
 10
0.0
 20
0.0
 30
0.0
  0
VERTEX
  5
5C
330
5B
100
AcDbEntity
  8
STANDARDEBENE
 62
     7
100
AcDbVertex
100
AcDb2dVertex
 10
5.538507756861901
 20
-6.430270723218822
 30
0.0
  0
VERTEX
  5
5D
330
5B
100
AcDbEntity
  8
STANDARDEBENE
 62
     7
100
AcDbVertex
100
AcDb2dVertex
 10
6.510024683702356
 20
-6.430270723218822
 30
0.0
  0
SEQEND
  5
5E
330
5B
100
AcDbEntity
  8
STANDARDEBENE
  0
POLYLINE
  5
5F
330
1F
100
AcDbEntity
  8
STANDARDEBENE
 62
     7
100
AcDb2dPolyline
 66
     1
 10
0.0
 20
0.0
 30
0.0
  0
VERTEX
  5
60
330
5F
100
AcDbEntity
  8
STANDARDEBENE
 62
     7
100
AcDbVertex
100
AcDb2dVertex
 10
7.481197100994285
 20
-6.430270723218822
 30
0.0
  0
VERTEX
  5
61
330
5F
100
AcDbEntity
  8
STANDARDEBENE
 62
     7
100
AcDbVertex
100
AcDb2dVertex
 10
8.452886282609
 20
-6.430270723218822
 30
0.0
  0
SEQEND
  5
62
330
5F
100
AcDbEntity
  8
STANDARDEBENE
  0
POLYLINE
  5
63
330
1F
100
AcDbEntity
  8
STANDARDEBENE
 62
     7
100
AcDb2dPolyline
 66
     1
 10
0.0
 20
0.0
 30
0.0
  0
VERTEX
  5
64
330
63
100
AcDbEntity
  8
STANDARDEBENE
 62
     7
100
AcDbVertex
100
AcDb2dVertex
 10
9.424403209449455
 20
-6.430270723218822
 30
0.0
  0
VERTEX
  5
65
330
63
100
AcDbEntity
  8
STANDARDEBENE
 62
     7
100
AcDbVertex
100
AcDb2dVertex
 10
10.39557562674139
 20
-6.430270723218822
 30
0.0
  0
SEQEND
  5
66
330
63
100
AcDbEntity
  8
STANDARDEBENE
  0
POLYLINE
  5
67
330
1F
100
AcDbEntity
  8
STANDARDEBENE
 62
     7
100
AcDb2dPolyline
 66
     1
 10
0.0
 20
0.0
 30
0.0
  0
VERTEX
  5
68
330
67
100
AcDbEntity
  8
STANDARDEBENE
 62
     7
100
AcDbVertex
100
AcDb2dVertex
 10
11.36709255358184
 20
-6.430270723218822
 30
0.0
  0
VERTEX
  5
69
330
67
100
AcDbEntity
  8
STANDARDEBENE
 62
     7
100
AcDbVertex
100
AcDb2dVertex
 10
12.33860948042229
 20
-6.430270723218822
 30
0.0
  0
SEQEND
  5
6A
330
67
100
AcDbEntity
  8
STANDARDEBENE
  0
POLYLINE
  5
6B
330
1F
100
AcDbEntity
  8
STANDARDEBENE
 62
     7
100
AcDb2dPolyline
 66
     1
 10
0.0
 20
0.0
 30
0.0
  0
VERTEX
  5
6C
330
6B
100
AcDbEntity
  8
STANDARDEBENE
 62
     7
100
AcDbVertex
100
AcDb2dVertex
 10
13.30978189771422
 20
-6.430270723218822
 30
0.0
  0
VERTEX
  5
6D
330
6B
100
AcDbEntity
  8
STANDARDEBENE
 62
     7
100
AcDbVertex
100
AcDb2dVertex
 10
13.79605712545724
 20
-6.430270723218822
 30
0.0
  0
SEQEND
  5
6E
330
6B
100
AcDbEntity
  8
STANDARDEBENE
  0
POLYLINE
  5
6F
330
1F
100
AcDbEntity
  8
STANDARDEBENE
 62
     7
100
AcDb2dPolyline
 66
     1
 10
0.0
 20
0.0
 30
0.0
  0
VERTEX
  5
70
330
6F
100
AcDbEntity
  8
STANDARDEBENE
 62
     7
100
AcDbVertex
100
AcDb2dVertex
 10
0.1956814235621908
 20
-2.430859374392285
 30
0.0
  0
VERTEX
  5
71
330
6F
100
AcDbEntity
  8
STANDARDEBENE
 62
     7
100
AcDbVertex
100
AcDb2dVertex
 10
0.6810953774338928
 20
-2.430859374392285
 30
0.0
  0
SEQEND
  5
72
330
6F
100
AcDbEntity
  8
STANDARDEBENE
  0
POLYLINE
  5
73
330
1F
100
AcDbEntity
  8
STANDARDEBENE
 62
     7
100
AcDb2dPolyline
 66
     1
 10
0.0
 20
0.0
 30
0.0
  0
VERTEX
  5
74
330
73
100
AcDbEntity
  8
STANDARDEBENE
 62
     7
100
AcDbVertex
100
AcDb2dVertex
 10
1.652956813822872
 20
-2.430859374392285
 30
0.0
  0
VERTEX
  5
75
330
73
100
AcDbEntity
  8
STANDARDEBENE
 62
     7
100
AcDbVertex
100
AcDb2dVertex
 10
2.624301485889064
 20
-2.430859374392285
 30
0.0
  0
SEQEND
  5
76
330
73
100
AcDbEntity
  8
STANDARDEBENE
  0
POLYLINE
  5
77
330
1F
100
AcDbEntity
  8
STANDARDEBENE
 62
     7
100
AcDb2dPolyline
 66
     1
 10
0.0
 20
0.0
 30
0.0
  0
VERTEX
  5
78
330
77
100
AcDbEntity
  8
STANDARDEBENE
 62
     7
100
AcDbVertex
100
AcDb2dVertex
 10
3.595818412729518
 20
-2.430859374392285
 30
0.0
  0
VERTEX
  5
79
330
77
100
AcDbEntity
  8
STANDARDEBENE
 62
     7
100
AcDbVertex
100
AcDb2dVertex
 10
4.567335339569972
 20
-2.430859374392285
 30
0.0
  0
SEQEND
  5
7A
330
77
100
AcDbEntity
  8
STANDARDEBENE
  0
POLYLINE
  5
7B
330
1F
100
AcDbEntity
  8
STANDARDEBENE
 62
     7
100
AcDb2dPolyline
 66
     1
 10
0.0
 20
0.0
 30
0.0
  0
VERTEX
  5
7C
330
7B
100
AcDbEntity
  8
STANDARDEBENE
 62
     7
100
AcDbVertex
100
AcDb2dVertex
 10
5.538507756861901
 20
-2.430859374392285
 30
0.0
  0
VERTEX
  5
7D
330
7B
100
AcDbEntity
  8
STANDARDEBENE
 62
     7
100
AcDbVertex
100
AcDb2dVertex
 10
6.510024683702356
 20
-2.430859374392285
 30
0.0
  0
SEQEND
  5
7E
330
7B
100
AcDbEntity
  8
STANDARDEBENE
  0
POLYLINE
  5
7F
330
1F
100
AcDbEntity
  8
STANDARDEBENE
 62
     7
100
AcDb2dPolyline
 66
     1
 10
0.0
 20
0.0
 30
0.0
  0
VERTEX
  5
80
330
7F
100
AcDbEntity
  8
STANDARDEBENE
 62
     7
100
AcDbVertex
100
AcDb2dVertex
 10
7.481197100994285
 20
-2.430859374392285
 30
0.0
  0
VERTEX
  5
81
330
7F
100
AcDbEntity
  8
STANDARDEBENE
 62
     7
100
AcDbVertex
100
AcDb2dVertex
 10
8.452886282609
 20
-2.430859374392285
 30
0.0
  0
SEQEND
  5
82
330
7F
100
AcDbEntity
  8
STANDARDEBENE
  0
POLYLINE
  5
83
330
1F
100
AcDbEntity
  8
STANDARDEBENE
 62
     7
100
AcDb2dPolyline
 66
     1
 10
0.0
 20
0.0
 30
0.0
  0
VERTEX
  5
84
330
83
100
AcDbEntity
  8
STANDARDEBENE
 62
     7
100
AcDbVertex
100
AcDb2dVertex
 10
9.424403209449455
 20
-2.430859374392285
 30
0.0
  0
VERTEX
  5
85
330
83
100
AcDbEntity
  8
STANDARDEBENE
 62
     7
100
AcDbVertex
100
AcDb2dVertex
 10
10.39557562674139
 20
-2.430859374392285
 30
0.0
  0
SEQEND
  5
86
330
83
100
AcDbEntity
  8
STANDARDEBENE
  0
POLYLINE
  5
87
330
1F
100
AcDbEntity
  8
STANDARDEBENE
 62
     7
100
AcDb2dPolyline
 66
     1
 10
0.0
 20
0.0
 30
0.0
  0
VERTEX
  5
88
330
87
100
AcDbEntity
  8
STANDARDEBENE
 62
     7
100
AcDbVertex
100
AcDb2dVertex
 10
11.36709255358184
 20
-2.430859374392285
 30
0.0
  0
VERTEX
  5
89
330
87
100
AcDbEntity
  8
STANDARDEBENE
 62
     7
100
AcDbVertex
100
AcDb2dVertex
 10
12.33860948042229
 20
-2.430859374392285
 30
0.0
  0
SEQEND
  5
8A
330
87
100
AcDbEntity
  8
STANDARDEBENE
  0
POLYLINE
  5
8B
330
1F
100
AcDbEntity
  8
STANDARDEBENE
 62
     7
100
AcDb2dPolyline
 66
     1
 10
0.0
 20
0.0
 30
0.0
  0
VERTEX
  5
8C
330
8B
100
AcDbEntity
  8
STANDARDEBENE
 62
     7
100
AcDbVertex
100
AcDb2dVertex
 10
13.30978189771422
 20
-2.430859374392285
 30
0.0
  0
VERTEX
  5
8D
330
8B
100
AcDbEntity
  8
STANDARDEBENE
 62
     7
100
AcDbVertex
100
AcDb2dVertex
 10
13.79605712545724
 20
-2.430859374392285
 30
0.0
  0
SEQEND
  5
8E
330
8B
100
AcDbEntity
  8
STANDARDEBENE
  0
POLYLINE
  5
8F
330
1F
100
AcDbEntity
  8
STANDARDEBENE
 62
     7
100
AcDb2dPolyline
 66
     1
 10
0.0
 20
0.0
 30
0.0
  0
VERTEX
  5
90
330
8F
100
AcDbEntity
  8
STANDARDEBENE
 62
     7
100
AcDbVertex
100
AcDb2dVertex
 10
13.79605712545724
 20
-1.713935003911794
 30
0.0
  0
VERTEX
  5
91
330
8F
100
AcDbEntity
  8
STANDARDEBENE
 62
     7
100
AcDbVertex
100
AcDb2dVertex
 10
2.895947264901013
 20
-0.1819010416211914
 30
0.0
  0
SEQEND
  5
92
330
8F
100
AcDbEntity
  8
STANDARDEBENE
  0
POLYLINE
  5
93
330
1F
100
AcDbEntity
  8
STANDARDEBENE
 62
     7
100
AcDb2dPolyline
 66
     1
 10
0.0
 20
0.0
 30
0.0
  0
VERTEX
  5
94
330
93
100
AcDbEntity
  8
STANDARDEBENE
 62
     7
100
AcDbVertex
100
AcDb2dVertex
 10
13.79605712545724
 20
-7.14702283892505
 30
0.0
  0
VERTEX
  5
95
330
93
100
AcDbEntity
  8
STANDARDEBENE
 62
     7
100
AcDbVertex
100
AcDb2dVertex
 10
2.895947264901013
 20
-8.67957356553844
 30
0.0
  0
SEQEND
  5
96
330
93
100
AcDbEntity
  8
STANDARDEBENE
  0
POLYLINE
  5
97
330
1F
100
AcDbEntity
  8
STANDARDEBENE
  6
AI-LINETYPE-1
 62
   250
100
AcDb2dPolyline
 66
     1
 10
0.0
 20
0.0
 30
0.0
  0
VERTEX
  5
98
330
97
100
AcDbEntity
  8
STANDARDEBENE
  6
AI-LINETYPE-1
 62
   250
100
AcDbVertex
100
AcDb2dVertex
 10
-0.5839436847498475
 20
-4.430392794031291
 30
0.0
  0
VERTEX
  5
99
330
97
100
AcDbEntity
  8
STANDARDEBENE
  6
AI-LINETYPE-1
 62
   250
100
AcDbVertex
100
AcDb2dVertex
 10
14.40911186705745
 20
-4.430392794031291
 30
0.0
  0
SEQEND
  5
9A
330
97
100
AcDbEntity
  8
STANDARDEBENE
  6
AI-LINETYPE-1
  0
POLYLINE
  5
9C
330
1F
100
AcDbEntity
  8
STANDARDEBENE
 62
   250
100
AcDb2dPolyline
 66
     1
 10
0.0
 20
0.0
 30
0.0
  0
VERTEX
  5
9D
330
9C
100
AcDbEntity
  8
STANDARDEBENE
 62
   250
100
AcDbVertex
100
AcDb2dVertex
 10
1.695331488291445
 20
-0.180350748652829
 30
0.0
  0
VERTEX
  5
9E
330
9C
100
AcDbEntity
  8
STANDARDEBENE
 62
   250
100
AcDbVertex
100
AcDb2dVertex
 10
0.6955647784719422
 20
-0.180350748652829
 30
0.0
  0
VERTEX
  5
9F
330
9C
100
AcDbEntity
  8
STANDARDEBENE
 62
   250
100
AcDbVertex
100
AcDb2dVertex
 10
0.1956814235621908
 20
-0.4690497503167654
 30
0.0
  0
SEQEND
  5
A0
330
9C
100
AcDbEntity
  8
STANDARDEBENE
  0
POLYLINE
  5
A1
330
1F
100
AcDbEntity
  8
STANDARDEBENE
 62
   250
100
AcDb2dPolyline
 66
     1
 10
0.0
 20
0.0
 30
0.0
  0
VERTEX
  5
A2
330
A1
100
AcDbEntity
  8
STANDARDEBENE
 62
   250
100
AcDbVertex
100
AcDb2dVertex
 10
0.6955647784719422
 20
-8.680607094184015
 30
0.0
  0
VERTEX
  5
A3
330
A1
100
AcDbEntity
  8
STANDARDEBENE
 62
   250
100
AcDbVertex
100
AcDb2dVertex
 10
1.695331488291445
 20
-8.680607094184015
 30
0.0
  0
SEQEND
  5
A4
330
A1
100
AcDbEntity
  8
STANDARDEBENE
  0
POLYLINE
  5
A5
330
1F
100
AcDbEntity
  8
STANDARDEBENE
 62
   250
100
AcDb2dPolyline
 66
     1
 10
0.0
 20
0.0
 30
0.0
  0
VERTEX
  5
A6
330
A5
100
AcDbEntity
  8
STANDARDEBENE
 62
   250
100
AcDbVertex
100
AcDb2dVertex
 10
0.1956814235621908
 20
-8.39208034729434
 30
0.0
  0
VERTEX
  5
A7
330
A5
100
AcDbEntity
  8
STANDARDEBENE
 62
   250
100
AcDbVertex
100
AcDb2dVertex
 10
0.6955647784719422
 20
-8.680607094184015
 30
0.0
  0
SEQEND
  5
A8
330
A5
100
AcDbEntity
  8
STANDARDEBENE
  0
POLYLINE
  5
A9
330
1F
100
AcDbEntity
  8
STANDARDEBENE
 62
   250
100
AcDb2dPolyline
 66
     1
 10
0.0
 20
0.0
 30
0.0
  0
VERTEX
  5
AA
330
A9
100
AcDbEntity
  8
STANDARDEBENE
 62
   250
100
AcDbVertex
100
AcDb2dVertex
 10
2.44085015129951
 20
-1.180978732343644
 30
0.0
  0
VERTEX
  5
AB
330
A9
100
AcDbEntity
  8
STANDARDEBENE
 62
   250
100
AcDbVertex
100
AcDb2dVertex
 10
1.695331488291445
 20
-1.180978732343644
 30
0.0
  0
SEQEND
  5
AC
330
A9
100
AcDbEntity
  8
STANDARDEBENE
  0
POLYLINE
  5
AD
330
1F
100
AcDbEntity
  8
STANDARDEBENE
 62
   250
100
AcDb2dPolyline
 66
     1
 10
0.0
 20
0.0
 30
0.0
  0
VERTEX
  5
AE
330
AD
100
AcDbEntity
  8
STANDARDEBENE
 62
   250
100
AcDbVertex
100
AcDb2dVertex
 10
1.695331488291445
 20
-7.680495874815987
 30
0.0
  0
VERTEX
  5
AF
330
AD
100
AcDbEntity
  8
STANDARDEBENE
 62
   250
100
AcDbVertex
100
AcDb2dVertex
 10
2.44085015129951
 20
-7.680495874815987
 30
0.0
  0
SEQEND
  5
B0
330
AD
100
AcDbEntity
  8
STANDARDEBENE
  0
POLYLINE
  5
B1
330
1F
100
AcDbEntity
  8
STANDARDEBENE
 62
   250
100
AcDb2dPolyline
 66
     1
 10
0.0
 20
0.0
 30
0.0
  0
VERTEX
  5
B2
330
B1
100
AcDbEntity
  8
STANDARDEBENE
 62
   250
100
AcDbVertex
100
AcDb2dVertex
 10
2.895947264901013
 20
-0.8009847003205872
 30
0.0
  0
VERTEX
  5
B3
330
B1
100
AcDbEntity
  8
STANDARDEBENE
 62
   250
100
AcDbVertex
100
AcDb2dVertex
 10
2.895947264901013
 20
-1.425063747473595
 30
0.0
  0
VERTEX
  5
B4
330
B1
100
AcDbEntity
  8
STANDARDEBENE
 62
   250
100
AcDbVertex
100
AcDb2dVertex
 10
2.895947264901013
 20
-2.219158256823683
 30
0.0
  0
VERTEX
  5
B5
330
B1
100
AcDbEntity
  8
STANDARDEBENE
 62
   250
100
AcDbVertex
100
AcDb2dVertex
 10
10.28447129734208
 20
-2.739023165547883
 30
0.0
  0
VERTEX
  5
B6
330
B1
100
AcDbEntity
  8
STANDARDEBENE
 62
   250
100
AcDbVertex
100
AcDb2dVertex
 10
13.79605712545724
 20
-2.985692002291771
 30
0.0
  0
SEQEND
  5
B7
330
B1
100
AcDbEntity
  8
STANDARDEBENE
  0
POLYLINE
  5
B8
330
1F
100
AcDbEntity
  8
STANDARDEBENE
 62
   250
100
AcDb2dPolyline
 66
     1
 10
0.0
 20
0.0
 30
0.0
  0
VERTEX
  5
B9
330
B8
100
AcDbEntity
  8
STANDARDEBENE
 62
   250
100
AcDbVertex
100
AcDb2dVertex
 10
13.79605712545724
 20
-1.713935003911794
 30
0.0
  0
VERTEX
  5
BA
330
B8
100
AcDbEntity
  8
STANDARDEBENE
 62
   250
100
AcDbVertex
100
AcDb2dVertex
 10
13.79605712545724
 20
-1.887912325916911
 30
0.0
  0
VERTEX
  5
BB
330
B8
100
AcDbEntity
  8
STANDARDEBENE
 62
   250
100
AcDbVertex
100
AcDb2dVertex
 10
13.79605712545724
 20
-2.326989745512003
 30
0.0
  0
VERTEX
  5
BC
330
B8
100
AcDbEntity
  8
STANDARDEBENE
 62
   250
100
AcDbVertex
100
AcDb2dVertex
 10
13.79605712545724
 20
-2.985692002291771
 30
0.0
  0
SEQEND
  5
BD
330
B8
100
AcDbEntity
  8
STANDARDEBENE
  0
POLYLINE
  5
BE
330
1F
100
AcDbEntity
  8
STANDARDEBENE
 62
   250
100
AcDb2dPolyline
 66
     1
 10
0.0
 20
0.0
 30
0.0
  0
VERTEX
  5
BF
330
BE
100
AcDbEntity
  8
STANDARDEBENE
 62
   250
100
AcDbVertex
100
AcDb2dVertex
 10
2.895947264901013
 20
-0.1819010416211914
 30
0.0
  0
VERTEX
  5
C0
330
BE
100
AcDbEntity
  8
STANDARDEBENE
 62
   250
100
AcDbVertex
100
AcDb2dVertex
 10
13.22382676535724
 20
-1.633836533879735
 30
0.0
  0
VERTEX
  5
C1
330
BE
100
AcDbEntity
  8
STANDARDEBENE
 62
   250
100
AcDbVertex
100
AcDb2dVertex
 10
13.79605712545724
 20
-1.713935003911794
 30
0.0
  0
SEQEND
  5
C2
330
BE
100
AcDbEntity
  8
STANDARDEBENE
  0
POLYLINE
  5
C3
330
1F
100
AcDbEntity
  8
STANDARDEBENE
 62
   250
100
AcDb2dPolyline
 66
     1
 10
0.0
 20
0.0
 30
0.0
  0
VERTEX
  5
C4
330
C3
100
AcDbEntity
  8
STANDARDEBENE
 62
   250
100
AcDbVertex
100
AcDb2dVertex
 10
2.895947264901013
 20
-0.1819010416211914
 30
0.0
  0
VERTEX
  5
C5
330
C3
100
AcDbEntity
  8
STANDARDEBENE
 62
   250
100
AcDbVertex
100
AcDb2dVertex
 10
2.895947264901013
 20
-0.3253892685818471
 30
0.0
  0
VERTEX
  5
C6
330
C3
100
AcDbEntity
  8
STANDARDEBENE
 62
   250
100
AcDbVertex
100
AcDb2dVertex
 10
2.895947264901013
 20
-0.7009046764740794
 30
0.0
  0
VERTEX
  5
C7
330
C3
100
AcDbEntity
  8
STANDARDEBENE
 62
   250
100
AcDbVertex
100
AcDb2dVertex
 10
10.28447129734208
 20
-1.600419107672812
 30
0.0
  0
VERTEX
  5
C8
330
C3
100
AcDbEntity
  8
STANDARDEBENE
 62
   250
100
AcDbVertex
100
AcDb2dVertex
 10
11.41187879489009
 20
-1.737533907985755
 30
0.0
  0
SEQEND
  5
C9
330
C3
100
AcDbEntity
  8
STANDARDEBENE
  0
POLYLINE
  5
CA
330
1F
100
AcDbEntity
  8
STANDARDEBENE
 62
   250
100
AcDb2dPolyline
 66
     1
 10
0.0
 20
0.0
 30
0.0
  0
VERTEX
  5
CB
330
CA
100
AcDbEntity
  8
STANDARDEBENE
 62
   250
100
AcDbVertex
100
AcDb2dVertex
 10
11.41187879489009
 20
-1.837786186606526
 30
0.0
  0
VERTEX
  5
CC
330
CA
100
AcDbEntity
  8
STANDARDEBENE
 62
   250
100
AcDbVertex
100
AcDb2dVertex
 10
11.41187879489009
 20
-1.737533907985755
 30
0.0
  0
SEQEND
  5
CD
330
CA
100
AcDbEntity
  8
STANDARDEBENE
  0
POLYLINE
  5
CE
330
1F
100
AcDbEntity
  8
STANDARDEBENE
 62
   250
100
AcDb2dPolyline
 66
     1
 10
0.0
 20
0.0
 30
0.0
  0
VERTEX
  5
CF
330
CE
100
AcDbEntity
  8
STANDARDEBENE
 62
   250
100
AcDbVertex
100
AcDb2dVertex
 10
2.895947264901013
 20
-0.8009847003205872
 30
0.0
  0
VERTEX
  5
D0
330
CE
100
AcDbEntity
  8
STANDARDEBENE
 62
   250
100
AcDbVertex
100
AcDb2dVertex
 10
10.28447129734208
 20
-1.700154621970795
 30
0.0
  0
VERTEX
  5
D1
330
CE
100
AcDbEntity
  8
STANDARDEBENE
 62
   250
100
AcDbVertex
100
AcDb2dVertex
 10
11.41187879489009
 20
-1.837786186606526
 30
0.0
  0
SEQEND
  5
D2
330
CE
100
AcDbEntity
  8
STANDARDEBENE
  0
POLYLINE
  5
D3
330
1F
100
AcDbEntity
  8
STANDARDEBENE
 62
   250
100
AcDb2dPolyline
 66
     1
 10
0.0
 20
0.0
 30
0.0
  0
VERTEX
  5
D4
330
D3
100
AcDbEntity
  8
STANDARDEBENE
 62
   250
100
AcDbVertex
100
AcDb2dVertex
 10
10.40728895139123
 20
-4.330485024959046
 30
0.0
  0
VERTEX
  5
D5
330
D3
100
AcDbEntity
  8
STANDARDEBENE
 62
   250
100
AcDbVertex
100
AcDb2dVertex
 10
10.40728895139123
 20
-4.530472817877799
 30
0.0
  0
SEQEND
  5
D6
330
D3
100
AcDbEntity
  8
STANDARDEBENE
  0
POLYLINE
  5
D7
330
1F
100
AcDbEntity
  8
STANDARDEBENE
 62
   250
100
AcDb2dPolyline
 66
     1
 10
0.0
 20
0.0
 30
0.0
  0
VERTEX
  5
D8
330
D7
100
AcDbEntity
  8
STANDARDEBENE
 62
   250
100
AcDbVertex
100
AcDb2dVertex
 10
13.79605712545724
 20
-2.985692002291771
 30
0.0
  0
VERTEX
  5
D9
330
D7
100
AcDbEntity
  8
STANDARDEBENE
 62
   250
100
AcDbVertex
100
AcDb2dVertex
 10
13.79605712545724
 20
-3.158980305199838
 30
0.0
  0
SEQEND
  5
DA
330
D7
100
AcDbEntity
  8
STANDARDEBENE
  0
POLYLINE
  5
DB
330
1F
100
AcDbEntity
  8
STANDARDEBENE
 62
   250
100
AcDb2dPolyline
 66
     1
 10
0.0
 20
0.0
 30
0.0
  0
VERTEX
  5
DC
330
DB
100
AcDbEntity
  8
STANDARDEBENE
 62
   250
100
AcDbVertex
100
AcDb2dVertex
 10
2.895947264901013
 20
-2.392446559731749
 30
0.0
  0
VERTEX
  5
DD
330
DB
100
AcDbEntity
  8
STANDARDEBENE
 62
   250
100
AcDbVertex
100
AcDb2dVertex
 10
2.895947264901013
 20
-2.219158256823683
 30
0.0
  0
SEQEND
  5
DE
330
DB
100
AcDbEntity
  8
STANDARDEBENE
  0
POLYLINE
  5
DF
330
1F
100
AcDbEntity
  8
STANDARDEBENE
 62
   250
100
AcDb2dPolyline
 66
     1
 10
0.0
 20
0.0
 30
0.0
  0
VERTEX
  5
E0
330
DF
100
AcDbEntity
  8
STANDARDEBENE
 62
   250
100
AcDbVertex
100
AcDb2dVertex
 10
2.44085015129951
 20
-2.719730630830484
 30
0.0
  0
VERTEX
  5
E1
330
DF
100
AcDbEntity
  8
STANDARDEBENE
 62
   250
100
AcDbVertex
100
AcDb2dVertex
 10
2.895947264901013
 20
-2.719730630830484
 30
0.0
  0
SEQEND
  5
E2
330
DF
100
AcDbEntity
  8
STANDARDEBENE
  0
POLYLINE
  5
E3
330
1F
100
AcDbEntity
  8
STANDARDEBENE
 62
   250
100
AcDb2dPolyline
 66
     1
 10
0.0
 20
0.0
 30
0.0
  0
VERTEX
  5
E4
330
E3
100
AcDbEntity
  8
STANDARDEBENE
 62
   250
100
AcDbVertex
100
AcDb2dVertex
 10
1.695331488291445
 20
-1.667426214860921
 30
0.0
  0
VERTEX
  5
E5
330
E3
100
AcDbEntity
  8
STANDARDEBENE
 62
   250
100
AcDbVertex
100
AcDb2dVertex
 10
2.895947264901013
 20
-1.667426214860921
 30
0.0
  0
SEQEND
  5
E6
330
E3
100
AcDbEntity
  8
STANDARDEBENE
  0
POLYLINE
  5
E7
330
1F
100
AcDbEntity
  8
STANDARDEBENE
 62
   250
100
AcDb2dPolyline
 66
     1
 10
0.0
 20
0.0
 30
0.0
  0
VERTEX
  5
E8
330
E7
100
AcDbEntity
  8
STANDARDEBENE
 62
   250
100
AcDbVertex
100
AcDb2dVertex
 10
2.44085015129951
 20
-2.719730630830484
 30
0.0
  0
VERTEX
  5
E9
330
E7
100
AcDbEntity
  8
STANDARDEBENE
 62
   250
100
AcDbVertex
100
AcDb2dVertex
 10
2.44085015129951
 20
-2.893363443287076
 30
0.0
  0
SEQEND
  5
EA
330
E7
100
AcDbEntity
  8
STANDARDEBENE
  0
POLYLINE
  5
EB
330
1F
100
AcDbEntity
  8
STANDARDEBENE
 62
   250
100
AcDb2dPolyline
 66
     1
 10
0.0
 20
0.0
 30
0.0
  0
VERTEX
  5
EC
330
EB
100
AcDbEntity
  8
STANDARDEBENE
 62
   250
100
AcDbVertex
100
AcDb2dVertex
 10
1.695331488291445
 20
-4.330485024959046
 30
0.0
  0
VERTEX
  5
ED
330
EB
100
AcDbEntity
  8
STANDARDEBENE
 62
   250
100
AcDbVertex
100
AcDb2dVertex
 10
2.895947264901013
 20
-4.330485024959046
 30
0.0
  0
SEQEND
  5
EE
330
EB
100
AcDbEntity
  8
STANDARDEBENE
  0
POLYLINE
  5
EF
330
1F
100
AcDbEntity
  8
STANDARDEBENE
 62
   250
100
AcDb2dPolyline
 66
     1
 10
0.0
 20
0.0
 30
0.0
  0
VERTEX
  5
F0
330
EF
100
AcDbEntity
  8
STANDARDEBENE
 62
   250
100
AcDbVertex
100
AcDb2dVertex
 10
2.44085015129951
 20
-2.893363443287076
 30
0.0
  0
VERTEX
  5
F1
330
EF
100
AcDbEntity
  8
STANDARDEBENE
 62
   250
100
AcDbVertex
100
AcDb2dVertex
 10
2.895947264901013
 20
-2.893363443287076
 30
0.0
  0
SEQEND
  5
F2
330
EF
100
AcDbEntity
  8
STANDARDEBENE
  0
POLYLINE
  5
F3
330
1F
100
AcDbEntity
  8
STANDARDEBENE
 62
   250
100
AcDb2dPolyline
 66
     1
 10
0.0
 20
0.0
 30
0.0
  0
VERTEX
  5
F4
330
F3
100
AcDbEntity
  8
STANDARDEBENE
 62
   250
100
AcDbVertex
100
AcDb2dVertex
 10
2.895947264901013
 20
-2.392446559731749
 30
0.0
  0
VERTEX
  5
F5
330
F3
100
AcDbEntity
  8
STANDARDEBENE
 62
   250
100
AcDbVertex
100
AcDb2dVertex
 10
10.28447129734208
 20
-2.91231146845595
 30
0.0
  0
VERTEX
  5
F6
330
F3
100
AcDbEntity
  8
STANDARDEBENE
 62
   250
100
AcDbVertex
100
AcDb2dVertex
 10
13.79605712545724
 20
-3.158980305199838
 30
0.0
  0
SEQEND
  5
F7
330
F3
100
AcDbEntity
  8
STANDARDEBENE
  0
POLYLINE
  5
F8
330
1F
100
AcDbEntity
  8
STANDARDEBENE
 62
   250
100
AcDb2dPolyline
 66
     1
 10
0.0
 20
0.0
 30
0.0
  0
VERTEX
  5
F9
330
F8
100
AcDbEntity
  8
STANDARDEBENE
 62
   250
100
AcDbVertex
100
AcDb2dVertex
 10
2.895947264901013
 20
-2.392446559731749
 30
0.0
  0
VERTEX
  5
FA
330
F8
100
AcDbEntity
  8
STANDARDEBENE
 62
   250
100
AcDbVertex
100
AcDb2dVertex
 10
2.895947264901013
 20
-3.330373805591018
 30
0.0
  0
VERTEX
  5
FB
330
F8
100
AcDbEntity
  8
STANDARDEBENE
 62
   250
100
AcDbVertex
100
AcDb2dVertex
 10
2.895947264901013
 20
-4.330485024959046
 30
0.0
  0
VERTEX
  5
FC
330
F8
100
AcDbEntity
  8
STANDARDEBENE
 62
   250
100
AcDbVertex
100
AcDb2dVertex
 10
11.41187879489009
 20
-4.330485024959046
 30
0.0
  0
SEQEND
  5
FD
330
F8
100
AcDbEntity
  8
STANDARDEBENE
  0
POLYLINE
  5
FE
330
1F
100
AcDbEntity
  8
STANDARDEBENE
 62
   250
100
AcDb2dPolyline
 66
     1
 10
0.0
 20
0.0
 30
0.0
  0
VERTEX
  5
FF
330
FE
100
AcDbEntity
  8
STANDARDEBENE
 62
   250
100
AcDbVertex
100
AcDb2dVertex
 10
11.41187879489009
 20
-4.530472817877799
 30
0.0
  0
VERTEX
  5
100
330
FE
100
AcDbEntity
  8
STANDARDEBENE
 62
   250
100
AcDbVertex
100
AcDb2dVertex
 10
11.41187879489009
 20
-4.330485024959046
 30
0.0
  0
SEQEND
  5
101
330
FE
100
AcDbEntity
  8
STANDARDEBENE
  0
POLYLINE
  5
102
330
1F
100
AcDbEntity
  8
STANDARDEBENE
 62
   250
100
AcDb2dPolyline
 66
     1
 10
0.0
 20
0.0
 30
0.0
  0
VERTEX
  5
103
330
102
100
AcDbEntity
  8
STANDARDEBENE
 62
   250
100
AcDbVertex
100
AcDb2dVertex
 10
2.895947264901013
 20
-4.530472817877799
 30
0.0
  0
VERTEX
  5
104
330
102
100
AcDbEntity
  8
STANDARDEBENE
 62
   250
100
AcDbVertex
100
AcDb2dVertex
 10
11.41187879489009
 20
-4.530472817877799
 30
0.0
  0
SEQEND
  5
105
330
102
100
AcDbEntity
  8
STANDARDEBENE
  0
POLYLINE
  5
106
330
1F
100
AcDbEntity
  8
STANDARDEBENE
 62
   250
100
AcDb2dPolyline
 66
     1
 10
0.0
 20
0.0
 30
0.0
  0
VERTEX
  5
107
330
106
100
AcDbEntity
  8
STANDARDEBENE
 62
   250
100
AcDbVertex
100
AcDb2dVertex
 10
2.895947264901013
 20
-4.530472817877799
 30
0.0
  0
VERTEX
  5
108
330
106
100
AcDbEntity
  8
STANDARDEBENE
 62
   250
100
AcDbVertex
100
AcDb2dVertex
 10
2.895947264901013
 20
-5.530584037245826
 30
0.0
  0
VERTEX
  5
109
330
106
100
AcDbEntity
  8
STANDARDEBENE
 62
   250
100
AcDbVertex
100
AcDb2dVertex
 10
2.895947264901013
 20
-6.468683537879357
 30
0.0
  0
VERTEX
  5
10A
330
106
100
AcDbEntity
  8
STANDARDEBENE
 62
   250
100
AcDbVertex
100
AcDb2dVertex
 10
10.28447129734208
 20
-5.949163138703682
 30
0.0
  0
VERTEX
  5
10B
330
106
100
AcDbEntity
  8
STANDARDEBENE
 62
   250
100
AcDbVertex
100
AcDb2dVertex
 10
13.79605712545724
 20
-5.702494301959794
 30
0.0
  0
SEQEND
  5
10C
330
106
100
AcDbEntity
  8
STANDARDEBENE
  0
POLYLINE
  5
10D
330
1F
100
AcDbEntity
  8
STANDARDEBENE
 62
   250
100
AcDb2dPolyline
 66
     1
 10
0.0
 20
0.0
 30
0.0
  0
VERTEX
  5
10E
330
10D
100
AcDbEntity
  8
STANDARDEBENE
 62
   250
100
AcDbVertex
100
AcDb2dVertex
 10
13.79605712545724
 20
-3.158980305199838
 30
0.0
  0
VERTEX
  5
10F
330
10D
100
AcDbEntity
  8
STANDARDEBENE
 62
   250
100
AcDbVertex
100
AcDb2dVertex
 10
13.79605712545724
 20
-3.991143119661936
 30
0.0
  0
VERTEX
  5
110
330
10D
100
AcDbEntity
  8
STANDARDEBENE
 62
   250
100
AcDbVertex
100
AcDb2dVertex
 10
13.79605712545724
 20
-4.869814723174907
 30
0.0
  0
VERTEX
  5
111
330
10D
100
AcDbEntity
  8
STANDARDEBENE
 62
   250
100
AcDbVertex
100
AcDb2dVertex
 10
13.79605712545724
 20
-5.702494301959794
 30
0.0
  0
SEQEND
  5
112
330
10D
100
AcDbEntity
  8
STANDARDEBENE
  0
POLYLINE
  5
113
330
1F
100
AcDbEntity
  8
STANDARDEBENE
 62
   250
100
AcDb2dPolyline
 66
     1
 10
0.0
 20
0.0
 30
0.0
  0
VERTEX
  5
114
330
113
100
AcDbEntity
  8
STANDARDEBENE
 62
   250
100
AcDbVertex
100
AcDb2dVertex
 10
2.44085015129951
 20
-5.968455673421081
 30
0.0
  0
VERTEX
  5
115
330
113
100
AcDbEntity
  8
STANDARDEBENE
 62
   250
100
AcDbVertex
100
AcDb2dVertex
 10
2.895947264901013
 20
-5.968455673421081
 30
0.0
  0
SEQEND
  5
116
330
113
100
AcDbEntity
  8
STANDARDEBENE
  0
POLYLINE
  5
117
330
1F
100
AcDbEntity
  8
STANDARDEBENE
 62
   250
100
AcDb2dPolyline
 66
     1
 10
0.0
 20
0.0
 30
0.0
  0
VERTEX
  5
118
330
117
100
AcDbEntity
  8
STANDARDEBENE
 62
   250
100
AcDbVertex
100
AcDb2dVertex
 10
1.695331488291445
 20
-4.530472817877799
 30
0.0
  0
VERTEX
  5
119
330
117
100
AcDbEntity
  8
STANDARDEBENE
 62
   250
100
AcDbVertex
100
AcDb2dVertex
 10
2.895947264901013
 20
-4.530472817877799
 30
0.0
  0
SEQEND
  5
11A
330
117
100
AcDbEntity
  8
STANDARDEBENE
  0
POLYLINE
  5
11B
330
1F
100
AcDbEntity
  8
STANDARDEBENE
 62
   250
100
AcDb2dPolyline
 66
     1
 10
0.0
 20
0.0
 30
0.0
  0
VERTEX
  5
11C
330
11B
100
AcDbEntity
  8
STANDARDEBENE
 62
   250
100
AcDbVertex
100
AcDb2dVertex
 10
1.695331488291445
 20
-7.193703882750185
 30
0.0
  0
VERTEX
  5
11D
330
11B
100
AcDbEntity
  8
STANDARDEBENE
 62
   250
100
AcDbVertex
100
AcDb2dVertex
 10
2.895947264901013
 20
-7.193703882750185
 30
0.0
  0
SEQEND
  5
11E
330
11B
100
AcDbEntity
  8
STANDARDEBENE
  0
POLYLINE
  5
11F
330
1F
100
AcDbEntity
  8
STANDARDEBENE
 62
   250
100
AcDb2dPolyline
 66
     1
 10
0.0
 20
0.0
 30
0.0
  0
VERTEX
  5
120
330
11F
100
AcDbEntity
  8
STANDARDEBENE
 62
   250
100
AcDbVertex
100
AcDb2dVertex
 10
2.44085015129951
 20
-6.141743976329147
 30
0.0
  0
VERTEX
  5
121
330
11F
100
AcDbEntity
  8
STANDARDEBENE
 62
   250
100
AcDbVertex
100
AcDb2dVertex
 10
2.895947264901013
 20
-6.141743976329147
 30
0.0
  0
SEQEND
  5
122
330
11F
100
AcDbEntity
  8
STANDARDEBENE
  0
POLYLINE
  5
123
330
1F
100
AcDbEntity
  8
STANDARDEBENE
 62
   250
100
AcDb2dPolyline
 66
     1
 10
0.0
 20
0.0
 30
0.0
  0
VERTEX
  5
124
330
123
100
AcDbEntity
  8
STANDARDEBENE
 62
   250
100
AcDbVertex
100
AcDb2dVertex
 10
2.895947264901013
 20
-6.641971840787424
 30
0.0
  0
VERTEX
  5
125
330
123
100
AcDbEntity
  8
STANDARDEBENE
 62
   250
100
AcDbVertex
100
AcDb2dVertex
 10
10.28447129734208
 20
-6.121934677288961
 30
0.0
  0
VERTEX
  5
126
330
123
100
AcDbEntity
  8
STANDARDEBENE
 62
   250
100
AcDbVertex
100
AcDb2dVertex
 10
13.79605712545724
 20
-5.87578260486786
 30
0.0
  0
SEQEND
  5
127
330
123
100
AcDbEntity
  8
STANDARDEBENE
  0
POLYLINE
  5
128
330
1F
100
AcDbEntity
  8
STANDARDEBENE
 62
   250
100
AcDb2dPolyline
 66
     1
 10
0.0
 20
0.0
 30
0.0
  0
VERTEX
  5
129
330
128
100
AcDbEntity
  8
STANDARDEBENE
 62
   250
100
AcDbVertex
100
AcDb2dVertex
 10
2.44085015129951
 20
-5.968455673421081
 30
0.0
  0
VERTEX
  5
12A
330
128
100
AcDbEntity
  8
STANDARDEBENE
 62
   250
100
AcDbVertex
100
AcDb2dVertex
 10
2.44085015129951
 20
-6.141743976329147
 30
0.0
  0
SEQEND
  5
12B
330
128
100
AcDbEntity
  8
STANDARDEBENE
  0
POLYLINE
  5
12C
330
1F
100
AcDbEntity
  8
STANDARDEBENE
 62
   250
100
AcDb2dPolyline
 66
     1
 10
0.0
 20
0.0
 30
0.0
  0
VERTEX
  5
12D
330
12C
100
AcDbEntity
  8
STANDARDEBENE
 62
   250
100
AcDbVertex
100
AcDb2dVertex
 10
2.895947264901013
 20
-6.641971840787424
 30
0.0
  0
VERTEX
  5
12E
330
12C
100
AcDbEntity
  8
STANDARDEBENE
 62
   250
100
AcDbVertex
100
AcDb2dVertex
 10
2.895947264901013
 20
-7.436066350137511
 30
0.0
  0
VERTEX
  5
12F
330
12C
100
AcDbEntity
  8
STANDARDEBENE
 62
   250
100
AcDbVertex
100
AcDb2dVertex
 10
2.895947264901013
 20
-8.060145397290519
 30
0.0
  0
VERTEX
  5
130
330
12C
100
AcDbEntity
  8
STANDARDEBENE
 62
   250
100
AcDbVertex
100
AcDb2dVertex
 10
10.28447129734208
 20
-7.160803220866049
 30
0.0
  0
VERTEX
  5
131
330
12C
100
AcDbEntity
  8
STANDARDEBENE
 62
   250
100
AcDbVertex
100
AcDb2dVertex
 10
11.41187879489009
 20
-7.023688420553106
 30
0.0
  0
SEQEND
  5
132
330
12C
100
AcDbEntity
  8
STANDARDEBENE
  0
POLYLINE
  5
133
330
1F
100
AcDbEntity
  8
STANDARDEBENE
 62
   250
100
AcDb2dPolyline
 66
     1
 10
0.0
 20
0.0
 30
0.0
  0
VERTEX
  5
134
330
133
100
AcDbEntity
  8
STANDARDEBENE
 62
   250
100
AcDbVertex
100
AcDb2dVertex
 10
11.41187879489009
 20
-7.123423934851089
 30
0.0
  0
VERTEX
  5
135
330
133
100
AcDbEntity
  8
STANDARDEBENE
 62
   250
100
AcDbVertex
100
AcDb2dVertex
 10
11.41187879489009
 20
-7.023688420553106
 30
0.0
  0
SEQEND
  5
136
330
133
100
AcDbEntity
  8
STANDARDEBENE
  0
POLYLINE
  5
137
330
1F
100
AcDbEntity
  8
STANDARDEBENE
 62
   250
100
AcDb2dPolyline
 66
     1
 10
0.0
 20
0.0
 30
0.0
  0
VERTEX
  5
138
330
137
100
AcDbEntity
  8
STANDARDEBENE
 62
   250
100
AcDbVertex
100
AcDb2dVertex
 10
2.895947264901013
 20
-8.160225421137028
 30
0.0
  0
VERTEX
  5
139
330
137
100
AcDbEntity
  8
STANDARDEBENE
 62
   250
100
AcDbVertex
100
AcDb2dVertex
 10
10.28447129734208
 20
-7.260710989938294
 30
0.0
  0
VERTEX
  5
13A
330
137
100
AcDbEntity
  8
STANDARDEBENE
 62
   250
100
AcDbVertex
100
AcDb2dVertex
 10
11.41187879489009
 20
-7.123423934851089
 30
0.0
  0
SEQEND
  5
13B
330
137
100
AcDbEntity
  8
STANDARDEBENE
  0
POLYLINE
  5
13C
330
1F
100
AcDbEntity
  8
STANDARDEBENE
 62
   250
100
AcDb2dPolyline
 66
     1
 10
0.0
 20
0.0
 30
0.0
  0
VERTEX
  5
13D
330
13C
100
AcDbEntity
  8
STANDARDEBENE
 62
   250
100
AcDbVertex
100
AcDb2dVertex
 10
2.895947264901013
 20
-8.160225421137028
 30
0.0
  0
VERTEX
  5
13E
330
13C
100
AcDbEntity
  8
STANDARDEBENE
 62
   250
100
AcDbVertex
100
AcDb2dVertex
 10
2.895947264901013
 20
-8.536085338577784
 30
0.0
  0
VERTEX
  5
13F
330
13C
100
AcDbEntity
  8
STANDARDEBENE
 62
   250
100
AcDbVertex
100
AcDb2dVertex
 10
2.895947264901013
 20
-8.67957356553844
 30
0.0
  0
VERTEX
  5
140
330
13C
100
AcDbEntity
  8
STANDARDEBENE
 62
   250
100
AcDbVertex
100
AcDb2dVertex
 10
13.01849907443635
 20
-7.256060111033207
 30
0.0
  0
VERTEX
  5
141
330
13C
100
AcDbEntity
  8
STANDARDEBENE
 62
   250
100
AcDbVertex
100
AcDb2dVertex
 10
13.79605712545724
 20
-7.14702283892505
 30
0.0
  0
SEQEND
  5
142
330
13C
100
AcDbEntity
  8
STANDARDEBENE
  0
POLYLINE
  5
143
330
1F
100
AcDbEntity
  8
STANDARDEBENE
 62
   250
100
AcDb2dPolyline
 66
     1
 10
0.0
 20
0.0
 30
0.0
  0
VERTEX
  5
144
330
143
100
AcDbEntity
  8
STANDARDEBENE
 62
   250
100
AcDbVertex
100
AcDb2dVertex
 10
13.79605712545724
 20
-5.87578260486786
 30
0.0
  0
VERTEX
  5
145
330
143
100
AcDbEntity
  8
STANDARDEBENE
 62
   250
100
AcDbVertex
100
AcDb2dVertex
 10
13.79605712545724
 20
-6.533968097324841
 30
0.0
  0
VERTEX
  5
146
330
143
100
AcDbEntity
  8
STANDARDEBENE
 62
   250
100
AcDbVertex
100
AcDb2dVertex
 10
13.79605712545724
 20
-6.973217771694196
 30
0.0
  0
VERTEX
  5
147
330
143
100
AcDbEntity
  8
STANDARDEBENE
 62
   250
100
AcDbVertex
100
AcDb2dVertex
 10
13.79605712545724
 20
-7.14702283892505
 30
0.0
  0
SEQEND
  5
148
330
143
100
AcDbEntity
  8
STANDARDEBENE
  0
POLYLINE
  5
149
330
1F
100
AcDbEntity
  8
STANDARDEBENE
 62
   250
100
AcDb2dPolyline
 66
     1
 10
0.0
 20
0.0
 30
0.0
  0
VERTEX
  5
14A
330
149
100
AcDbEntity
  8
STANDARDEBENE
 62
   250
100
AcDbVertex
100
AcDb2dVertex
 10
13.79605712545724
 20
-5.87578260486786
 30
0.0
  0
VERTEX
  5
14B
330
149
100
AcDbEntity
  8
STANDARDEBENE
 62
   250
100
AcDbVertex
100
AcDb2dVertex
 10
13.79605712545724
 20
-5.702494301959794
 30
0.0
  0
SEQEND
  5
14C
330
149
100
AcDbEntity
  8
STANDARDEBENE
  0
POLYLINE
  5
14D
330
1F
100
AcDbEntity
  8
STANDARDEBENE
 62
   250
100
AcDb2dPolyline
 66
     1
 10
0.0
 20
0.0
 30
0.0
  0
VERTEX
  5
14E
330
14D
100
AcDbEntity
  8
STANDARDEBENE
 62
   250
100
AcDbVertex
100
AcDb2dVertex
 10
2.895947264901013
 20
-8.060145397290519
 30
0.0
  0
VERTEX
  5
14F
330
14D
100
AcDbEntity
  8
STANDARDEBENE
 62
   250
100
AcDbVertex
100
AcDb2dVertex
 10
2.895947264901013
 20
-8.160225421137028
 30
0.0
  0
SEQEND
  5
150
330
14D
100
AcDbEntity
  8
STANDARDEBENE
  0
POLYLINE
  5
151
330
1F
100
AcDbEntity
  8
STANDARDEBENE
 62
   250
100
AcDb2dPolyline
 66
     1
 10
0.0
 20
0.0
 30
0.0
  0
VERTEX
  5
152
330
151
100
AcDbEntity
  8
STANDARDEBENE
 62
   250
100
AcDbVertex
100
AcDb2dVertex
 10
2.44085015129951
 20
-7.678773327073363
 30
0.0
  0
VERTEX
  5
153
330
151
100
AcDbEntity
  8
STANDARDEBENE
 62
   250
100
AcDbVertex
100
AcDb2dVertex
 10
2.895947264901013
 20
-7.678773327073363
 30
0.0
  0
SEQEND
  5
154
330
151
100
AcDbEntity
  8
STANDARDEBENE
  0
POLYLINE
  5
155
330
1F
100
AcDbEntity
  8
STANDARDEBENE
 62
   250
100
AcDb2dPolyline
 66
     1
 10
0.0
 20
0.0
 30
0.0
  0
VERTEX
  5
156
330
155
100
AcDbEntity
  8
STANDARDEBENE
 62
   250
100
AcDbVertex
100
AcDb2dVertex
 10
1.695331488291445
 20
-7.293783906596693
 30
0.0
  0
VERTEX
  5
157
330
155
100
AcDbEntity
  8
STANDARDEBENE
 62
   250
100
AcDbVertex
100
AcDb2dVertex
 10
2.895947264901013
 20
-7.293783906596693
 30
0.0
  0
SEQEND
  5
158
330
155
100
AcDbEntity
  8
STANDARDEBENE
  0
POLYLINE
  5
159
330
1F
100
AcDbEntity
  8
STANDARDEBENE
 62
   250
100
AcDb2dPolyline
 66
     1
 10
0.0
 20
0.0
 30
0.0
  0
VERTEX
  5
15A
330
159
100
AcDbEntity
  8
STANDARDEBENE
 62
   250
100
AcDbVertex
100
AcDb2dVertex
 10
1.695331488291445
 20
-1.567518445788676
 30
0.0
  0
VERTEX
  5
15B
330
159
100
AcDbEntity
  8
STANDARDEBENE
 62
   250
100
AcDbVertex
100
AcDb2dVertex
 10
2.895947264901013
 20
-1.567518445788676
 30
0.0
  0
SEQEND
  5
15C
330
159
100
AcDbEntity
  8
STANDARDEBENE
  0
POLYLINE
  5
15D
330
1F
100
AcDbEntity
  8
STANDARDEBENE
 62
   250
100
AcDb2dPolyline
 66
     1
 10
0.0
 20
0.0
 30
0.0
  0
VERTEX
  5
15E
330
15D
100
AcDbEntity
  8
STANDARDEBENE
 62
   250
100
AcDbVertex
100
AcDb2dVertex
 10
2.44085015129951
 20
-1.182356770537744
 30
0.0
  0
VERTEX
  5
15F
330
15D
100
AcDbEntity
  8
STANDARDEBENE
 62
   250
100
AcDbVertex
100
AcDb2dVertex
 10
2.895947264901013
 20
-1.182356770537744
 30
0.0
  0
SEQEND
  5
160
330
15D
100
AcDbEntity
  8
STANDARDEBENE
  0
POLYLINE
  5
161
330
1F
100
AcDbEntity
  8
STANDARDEBENE
 62
   250
100
AcDb2dPolyline
 66
     1
 10
0.0
 20
0.0
 30
0.0
  0
VERTEX
  5
162
330
161
100
AcDbEntity
  8
STANDARDEBENE
 62
   250
100
AcDbVertex
100
AcDb2dVertex
 10
2.895947264901013
 20
-0.8009847003205872
 30
0.0
  0
VERTEX
  5
163
330
161
100
AcDbEntity
  8
STANDARDEBENE
 62
   250
100
AcDbVertex
100
AcDb2dVertex
 10
2.895947264901013
 20
-0.7009046764740794
 30
0.0
  0
SEQEND
  5
164
330
161
100
AcDbEntity
  8
STANDARDEBENE
  0
POLYLINE
  5
165
330
1F
100
AcDbEntity
  8
STANDARDEBENE
 62
   250
100
AcDb2dPolyline
 66
     1
 10
0.0
 20
0.0
 30
0.0
  0
VERTEX
  5
166
330
165
100
AcDbEntity
  8
STANDARDEBENE
 62
   250
100
AcDbVertex
100
AcDb2dVertex
 10
2.895947264901013
 20
-6.468683537879357
 30
0.0
  0
VERTEX
  5
167
330
165
100
AcDbEntity
  8
STANDARDEBENE
 62
   250
100
AcDbVertex
100
AcDb2dVertex
 10
2.895947264901013
 20
-6.641971840787424
 30
0.0
  0
SEQEND
  5
168
330
165
100
AcDbEntity
  8
STANDARDEBENE
  0
POLYLINE
  5
169
330
1F
100
AcDbEntity
  8
STANDARDEBENE
 62
   250
100
AcDb2dPolyline
 66
     1
 10
0.0
 20
0.0
 30
0.0
  0
VERTEX
  5
16A
330
169
100
AcDbEntity
  8
STANDARDEBENE
 62
   250
100
AcDbVertex
100
AcDb2dVertex
 10
1.695331488291445
 20
-0.7009046764740794
 30
0.0
  0
VERTEX
  5
16B
330
169
100
AcDbEntity
  8
STANDARDEBENE
 62
   250
100
AcDbVertex
100
AcDb2dVertex
 10
1.695331488291445
 20
-0.8009847003205872
 30
0.0
  0
SEQEND
  5
16C
330
169
100
AcDbEntity
  8
STANDARDEBENE
  0
POLYLINE
  5
16D
330
1F
100
AcDbEntity
  8
STANDARDEBENE
 62
   250
100
AcDb2dPolyline
 66
     1
 10
0.0
 20
0.0
 30
0.0
  0
VERTEX
  5
16E
330
16D
100
AcDbEntity
  8
STANDARDEBENE
 62
   250
100
AcDbVertex
100
AcDb2dVertex
 10
1.695331488291445
 20
-0.180350748652829
 30
0.0
  0
VERTEX
  5
16F
330
16D
100
AcDbEntity
  8
STANDARDEBENE
 62
   250
100
AcDbVertex
100
AcDb2dVertex
 10
1.695331488291445
 20
-0.3126424152864227
 30
0.0
  0
VERTEX
  5
170
330
16D
100
AcDbEntity
  8
STANDARDEBENE
 62
   250
100
AcDbVertex
100
AcDb2dVertex
 10
1.695331488291445
 20
-0.7009046764740794
 30
0.0
  0
SEQEND
  5
171
330
16D
100
AcDbEntity
  8
STANDARDEBENE
  0
POLYLINE
  5
172
330
1F
100
AcDbEntity
  8
STANDARDEBENE
 62
   250
100
AcDb2dPolyline
 66
     1
 10
0.0
 20
0.0
 30
0.0
  0
VERTEX
  5
173
330
172
100
AcDbEntity
  8
STANDARDEBENE
 62
   250
100
AcDbVertex
100
AcDb2dVertex
 10
1.695331488291445
 20
-4.530472817877799
 30
0.0
  0
VERTEX
  5
174
330
172
100
AcDbEntity
  8
STANDARDEBENE
 62
   250
100
AcDbVertex
100
AcDb2dVertex
 10
1.695331488291445
 20
-5.578643119265061
 30
0.0
  0
VERTEX
  5
175
330
172
100
AcDbEntity
  8
STANDARDEBENE
 62
   250
100
AcDbVertex
100
AcDb2dVertex
 10
1.695331488291445
 20
-6.555499944107653
 30
0.0
  0
VERTEX
  5
176
330
172
100
AcDbEntity
  8
STANDARDEBENE
 62
   250
100
AcDbVertex
100
AcDb2dVertex
 10
1.695331488291445
 20
-7.400409611865176
 30
0.0
  0
VERTEX
  5
177
330
172
100
AcDbEntity
  8
STANDARDEBENE
 62
   250
100
AcDbVertex
100
AcDb2dVertex
 10
1.695331488291445
 20
-8.060145397290519
 30
0.0
  0
SEQEND
  5
178
330
172
100
AcDbEntity
  8
STANDARDEBENE
  0
POLYLINE
  5
179
330
1F
100
AcDbEntity
  8
STANDARDEBENE
 62
   250
100
AcDb2dPolyline
 66
     1
 10
0.0
 20
0.0
 30
0.0
  0
VERTEX
  5
17A
330
179
100
AcDbEntity
  8
STANDARDEBENE
 62
   250
100
AcDbVertex
100
AcDb2dVertex
 10
1.695331488291445
 20
-8.160225421137028
 30
0.0
  0
VERTEX
  5
17B
330
179
100
AcDbEntity
  8
STANDARDEBENE
 62
   250
100
AcDbVertex
100
AcDb2dVertex
 10
1.695331488291445
 20
-8.548659937098947
 30
0.0
  0
VERTEX
  5
17C
330
179
100
AcDbEntity
  8
STANDARDEBENE
 62
   250
100
AcDbVertex
100
AcDb2dVertex
 10
1.695331488291445
 20
-8.680607094184015
 30
0.0
  0
SEQEND
  5
17D
330
179
100
AcDbEntity
  8
STANDARDEBENE
  0
POLYLINE
  5
17E
330
1F
100
AcDbEntity
  8
STANDARDEBENE
 62
   250
100
AcDb2dPolyline
 66
     1
 10
0.0
 20
0.0
 30
0.0
  0
VERTEX
  5
17F
330
17E
100
AcDbEntity
  8
STANDARDEBENE
 62
   250
100
AcDbVertex
100
AcDb2dVertex
 10
1.695331488291445
 20
-8.160225421137028
 30
0.0
  0
VERTEX
  5
180
330
17E
100
AcDbEntity
  8
STANDARDEBENE
 62
   250
100
AcDbVertex
100
AcDb2dVertex
 10
1.695331488291445
 20
-8.060145397290519
 30
0.0
  0
SEQEND
  5
181
330
17E
100
AcDbEntity
  8
STANDARDEBENE
  0
POLYLINE
  5
182
330
1F
100
AcDbEntity
  8
STANDARDEBENE
 62
   250
100
AcDb2dPolyline
 66
     1
 10
0.0
 20
0.0
 30
0.0
  0
VERTEX
  5
183
330
182
100
AcDbEntity
  8
STANDARDEBENE
 62
   250
100
AcDbVertex
100
AcDb2dVertex
 10
0.6955647784719422
 20
-0.7009046764740794
 30
0.0
  0
VERTEX
  5
184
330
182
100
AcDbEntity
  8
STANDARDEBENE
 62
   250
100
AcDbVertex
100
AcDb2dVertex
 10
1.695331488291445
 20
-0.7009046764740794
 30
0.0
  0
SEQEND
  5
185
330
182
100
AcDbEntity
  8
STANDARDEBENE
  0
POLYLINE
  5
186
330
1F
100
AcDbEntity
  8
STANDARDEBENE
 62
   250
100
AcDb2dPolyline
 66
     1
 10
0.0
 20
0.0
 30
0.0
  0
VERTEX
  5
187
330
186
100
AcDbEntity
  8
STANDARDEBENE
 62
   250
100
AcDbVertex
100
AcDb2dVertex
 10
0.6955647784719422
 20
-0.180350748652829
 30
0.0
  0
VERTEX
  5
188
330
186
100
AcDbEntity
  8
STANDARDEBENE
 62
   250
100
AcDbVertex
100
AcDb2dVertex
 10
0.6955647784719422
 20
-0.3126424152864227
 30
0.0
  0
VERTEX
  5
189
330
186
100
AcDbEntity
  8
STANDARDEBENE
 62
   250
100
AcDbVertex
100
AcDb2dVertex
 10
0.6955647784719422
 20
-0.7009046764740794
 30
0.0
  0
SEQEND
  5
18A
330
186
100
AcDbEntity
  8
STANDARDEBENE
  0
POLYLINE
  5
18B
330
1F
100
AcDbEntity
  8
STANDARDEBENE
 62
   250
100
AcDb2dPolyline
 66
     1
 10
0.0
 20
0.0
 30
0.0
  0
VERTEX
  5
18C
330
18B
100
AcDbEntity
  8
STANDARDEBENE
 62
   250
100
AcDbVertex
100
AcDb2dVertex
 10
0.6955647784719422
 20
-8.060145397290519
 30
0.0
  0
VERTEX
  5
18D
330
18B
100
AcDbEntity
  8
STANDARDEBENE
 62
   250
100
AcDbVertex
100
AcDb2dVertex
 10
1.695331488291445
 20
-8.060145397290519
 30
0.0
  0
SEQEND
  5
18E
330
18B
100
AcDbEntity
  8
STANDARDEBENE
  0
POLYLINE
  5
18F
330
1F
100
AcDbEntity
  8
STANDARDEBENE
 62
   250
100
AcDb2dPolyline
 66
     1
 10
0.0
 20
0.0
 30
0.0
  0
VERTEX
  5
190
330
18F
100
AcDbEntity
  8
STANDARDEBENE
 62
   250
100
AcDbVertex
100
AcDb2dVertex
 10
0.6955647784719422
 20
-4.530472817877799
 30
0.0
  0
VERTEX
  5
191
330
18F
100
AcDbEntity
  8
STANDARDEBENE
 62
   250
100
AcDbVertex
100
AcDb2dVertex
 10
0.6955647784719422
 20
-5.578643119265061
 30
0.0
  0
VERTEX
  5
192
330
18F
100
AcDbEntity
  8
STANDARDEBENE
 62
   250
100
AcDbVertex
100
AcDb2dVertex
 10
0.6955647784719422
 20
-6.555499944107653
 30
0.0
  0
VERTEX
  5
193
330
18F
100
AcDbEntity
  8
STANDARDEBENE
 62
   250
100
AcDbVertex
100
AcDb2dVertex
 10
0.6955647784719422
 20
-7.400409611865176
 30
0.0
  0
VERTEX
  5
194
330
18F
100
AcDbEntity
  8
STANDARDEBENE
 62
   250
100
AcDbVertex
100
AcDb2dVertex
 10
0.6955647784719422
 20
-8.060145397290519
 30
0.0
  0
SEQEND
  5
195
330
18F
100
AcDbEntity
  8
STANDARDEBENE
  0
POLYLINE
  5
196
330
1F
100
AcDbEntity
  8
STANDARDEBENE
 62
   250
100
AcDb2dPolyline
 66
     1
 10
0.0
 20
0.0
 30
0.0
  0
VERTEX
  5
197
330
196
100
AcDbEntity
  8
STANDARDEBENE
 62
   250
100
AcDbVertex
100
AcDb2dVertex
 10
0.6955647784719422
 20
-4.530472817877799
 30
0.0
  0
VERTEX
  5
198
330
196
100
AcDbEntity
  8
STANDARDEBENE
 62
   250
100
AcDbVertex
100
AcDb2dVertex
 10
1.695331488291445
 20
-4.530472817877799
 30
0.0
  0
SEQEND
  5
199
330
196
100
AcDbEntity
  8
STANDARDEBENE
  0
POLYLINE
  5
19A
330
1F
100
AcDbEntity
  8
STANDARDEBENE
 62
   250
100
AcDb2dPolyline
 66
     1
 10
0.0
 20
0.0
 30
0.0
  0
VERTEX
  5
19B
330
19A
100
AcDbEntity
  8
STANDARDEBENE
 62
   250
100
AcDbVertex
100
AcDb2dVertex
 10
0.6955647784719422
 20
-8.160225421137028
 30
0.0
  0
VERTEX
  5
19C
330
19A
100
AcDbEntity
  8
STANDARDEBENE
 62
   250
100
AcDbVertex
100
AcDb2dVertex
 10
0.6955647784719422
 20
-8.548659937098947
 30
0.0
  0
VERTEX
  5
19D
330
19A
100
AcDbEntity
  8
STANDARDEBENE
 62
   250
100
AcDbVertex
100
AcDb2dVertex
 10
0.6955647784719422
 20
-8.680607094184015
 30
0.0
  0
SEQEND
  5
19E
330
19A
100
AcDbEntity
  8
STANDARDEBENE
  0
POLYLINE
  5
19F
330
1F
100
AcDbEntity
  8
STANDARDEBENE
 62
   250
100
AcDb2dPolyline
 66
     1
 10
0.0
 20
0.0
 30
0.0
  0
VERTEX
  5
1A0
330
19F
100
AcDbEntity
  8
STANDARDEBENE
 62
   250
100
AcDbVertex
100
AcDb2dVertex
 10
0.6955647784719422
 20
-8.160225421137028
 30
0.0
  0
VERTEX
  5
1A1
330
19F
100
AcDbEntity
  8
STANDARDEBENE
 62
   250
100
AcDbVertex
100
AcDb2dVertex
 10
1.695331488291445
 20
-8.160225421137028
 30
0.0
  0
SEQEND
  5
1A2
330
19F
100
AcDbEntity
  8
STANDARDEBENE
  0
POLYLINE
  5
1A3
330
1F
100
AcDbEntity
  8
STANDARDEBENE
 62
   250
100
AcDb2dPolyline
 66
     1
 10
0.0
 20
0.0
 30
0.0
  0
VERTEX
  5
1A4
330
1A3
100
AcDbEntity
  8
STANDARDEBENE
 62
   250
100
AcDbVertex
100
AcDb2dVertex
 10
0.1956814235621908
 20
-0.4690497503167654
 30
0.0
  0
VERTEX
  5
1A5
330
1A3
100
AcDbEntity
  8
STANDARDEBENE
 62
   250
100
AcDbVertex
100
AcDb2dVertex
 10
0.1956814235621908
 20
-0.5916951495916596
 30
0.0
  0
VERTEX
  5
1A6
330
1A3
100
AcDbEntity
  8
STANDARDEBENE
 62
   250
100
AcDbVertex
100
AcDb2dVertex
 10
0.1956814235621908
 20
-0.9513631182517426
 30
0.0
  0
VERTEX
  5
1A7
330
1A3
100
AcDbEntity
  8
STANDARDEBENE
 62
   250
100
AcDbVertex
100
AcDb2dVertex
 10
0.6955647784719422
 20
-0.7009046764740794
 30
0.0
  0
SEQEND
  5
1A8
330
1A3
100
AcDbEntity
  8
STANDARDEBENE
  0
POLYLINE
  5
1A9
330
1F
100
AcDbEntity
  8
STANDARDEBENE
 62
   250
100
AcDb2dPolyline
 66
     1
 10
0.0
 20
0.0
 30
0.0
  0
VERTEX
  5
1AA
330
1A9
100
AcDbEntity
  8
STANDARDEBENE
 62
   250
100
AcDbVertex
100
AcDb2dVertex
 10
0.1956814235621908
 20
-4.530472817877799
 30
0.0
  0
VERTEX
  5
1AB
330
1A9
100
AcDbEntity
  8
STANDARDEBENE
 62
   250
100
AcDbVertex
100
AcDb2dVertex
 10
0.1956814235621908
 20
-5.504229056783665
 30
0.0
  0
VERTEX
  5
1AC
330
1A9
100
AcDbEntity
  8
STANDARDEBENE
 62
   250
100
AcDbVertex
100
AcDb2dVertex
 10
0.1956814235621908
 20
-6.41149495282421
 30
0.0
  0
VERTEX
  5
1AD
330
1A9
100
AcDbEntity
  8
STANDARDEBENE
 62
   250
100
AcDbVertex
100
AcDb2dVertex
 10
0.1956814235621908
 20
-7.19611544958986
 30
0.0
  0
VERTEX
  5
1AE
330
1A9
100
AcDbEntity
  8
STANDARDEBENE
 62
   250
100
AcDbVertex
100
AcDb2dVertex
 10
0.1956814235621908
 20
-7.810203719835644
 30
0.0
  0
VERTEX
  5
1AF
330
1A9
100
AcDbEntity
  8
STANDARDEBENE
 62
   250
100
AcDbVertex
100
AcDb2dVertex
 10
0.6955647784719422
 20
-8.060145397290519
 30
0.0
  0
SEQEND
  5
1B0
330
1A9
100
AcDbEntity
  8
STANDARDEBENE
  0
POLYLINE
  5
1B1
330
1F
100
AcDbEntity
  8
STANDARDEBENE
 62
   250
100
AcDb2dPolyline
 66
     1
 10
0.0
 20
0.0
 30
0.0
  0
VERTEX
  5
1B2
330
1B1
100
AcDbEntity
  8
STANDARDEBENE
 62
   250
100
AcDbVertex
100
AcDb2dVertex
 10
0.1956814235621908
 20
-4.530472817877799
 30
0.0
  0
VERTEX
  5
1B3
330
1B1
100
AcDbEntity
  8
STANDARDEBENE
 62
   250
100
AcDbVertex
100
AcDb2dVertex
 10
0.6955647784719422
 20
-4.530472817877799
 30
0.0
  0
SEQEND
  5
1B4
330
1B1
100
AcDbEntity
  8
STANDARDEBENE
  0
POLYLINE
  5
1B5
330
1F
100
AcDbEntity
  8
STANDARDEBENE
 62
   250
100
AcDb2dPolyline
 66
     1
 10
0.0
 20
0.0
 30
0.0
  0
VERTEX
  5
1B6
330
1B5
100
AcDbEntity
  8
STANDARDEBENE
 62
   250
100
AcDbVertex
100
AcDb2dVertex
 10
0.1956814235621908
 20
-7.910111488907889
 30
0.0
  0
VERTEX
  5
1B7
330
1B5
100
AcDbEntity
  8
STANDARDEBENE
 62
   250
100
AcDbVertex
100
AcDb2dVertex
 10
0.1956814235621908
 20
-8.269262693245185
 30
0.0
  0
VERTEX
  5
1B8
330
1B5
100
AcDbEntity
  8
STANDARDEBENE
 62
   250
100
AcDbVertex
100
AcDb2dVertex
 10
0.1956814235621908
 20
-8.39208034729434
 30
0.0
  0
SEQEND
  5
1B9
330
1B5
100
AcDbEntity
  8
STANDARDEBENE
  0
POLYLINE
  5
1BA
330
1F
100
AcDbEntity
  8
STANDARDEBENE
 62
   250
100
AcDb2dPolyline
 66
     1
 10
0.0
 20
0.0
 30
0.0
  0
VERTEX
  5
1BB
330
1BA
100
AcDbEntity
  8
STANDARDEBENE
 62
   250
100
AcDbVertex
100
AcDb2dVertex
 10
0.1956814235621908
 20
-1.0507541230012
 30
0.0
  0
VERTEX
  5
1BC
330
1BA
100
AcDbEntity
  8
STANDARDEBENE
 62
   250
100
AcDbVertex
100
AcDb2dVertex
 10
0.1956814235621908
 20
-0.9513631182517426
 30
0.0
  0
SEQEND
  5
1BD
330
1BA
100
AcDbEntity
  8
STANDARDEBENE
  0
POLYLINE
  5
1BE
330
1F
100
AcDbEntity
  8
STANDARDEBENE
 62
   250
100
AcDb2dPolyline
 66
     1
 10
0.0
 20
0.0
 30
0.0
  0
VERTEX
  5
1BF
330
1BE
100
AcDbEntity
  8
STANDARDEBENE
 62
   250
100
AcDbVertex
100
AcDb2dVertex
 10
0.1956814235621908
 20
-7.910111488907889
 30
0.0
  0
VERTEX
  5
1C0
330
1BE
100
AcDbEntity
  8
STANDARDEBENE
 62
   250
100
AcDbVertex
100
AcDb2dVertex
 10
0.6955647784719422
 20
-8.160225421137028
 30
0.0
  0
SEQEND
  5
1C1
330
1BE
100
AcDbEntity
  8
STANDARDEBENE
  0
POLYLINE
  5
1C2
330
1F
100
AcDbEntity
  8
STANDARDEBENE
 62
   250
100
AcDb2dPolyline
 66
     1
 10
0.0
 20
0.0
 30
0.0
  0
VERTEX
  5
1C3
330
1C2
100
AcDbEntity
  8
STANDARDEBENE
 62
   250
100
AcDbVertex
100
AcDb2dVertex
 10
0.1956814235621908
 20
-7.810203719835644
 30
0.0
  0
VERTEX
  5
1C4
330
1C2
100
AcDbEntity
  8
STANDARDEBENE
 62
   250
100
AcDbVertex
100
AcDb2dVertex
 10
0.1956814235621908
 20
-7.910111488907889
 30
0.0
  0
SEQEND
  5
1C5
330
1C2
100
AcDbEntity
  8
STANDARDEBENE
  0
POLYLINE
  5
1C6
330
1F
100
AcDbEntity
  8
STANDARDEBENE
 62
   250
100
AcDb2dPolyline
 66
     1
 10
0.0
 20
0.0
 30
0.0
  0
VERTEX
  5
1C7
330
1C6
100
AcDbEntity
  8
STANDARDEBENE
 62
   250
100
AcDbVertex
100
AcDb2dVertex
 10
1.695331488291445
 20
-0.8009847003205872
 30
0.0
  0
VERTEX
  5
1C8
330
1C6
100
AcDbEntity
  8
STANDARDEBENE
 62
   250
100
AcDbVertex
100
AcDb2dVertex
 10
1.695331488291445
 20
-1.460720485745931
 30
0.0
  0
VERTEX
  5
1C9
330
1C6
100
AcDbEntity
  8
STANDARDEBENE
 62
   250
100
AcDbVertex
100
AcDb2dVertex
 10
1.695331488291445
 20
-2.305630153503454
 30
0.0
  0
VERTEX
  5
1CA
330
1C6
100
AcDbEntity
  8
STANDARDEBENE
 62
   250
100
AcDbVertex
100
AcDb2dVertex
 10
1.695331488291445
 20
-3.282314723571782
 30
0.0
  0
VERTEX
  5
1CB
330
1C6
100
AcDbEntity
  8
STANDARDEBENE
 62
   250
100
AcDbVertex
100
AcDb2dVertex
 10
1.695331488291445
 20
-4.330485024959046
 30
0.0
  0
SEQEND
  5
1CC
330
1C6
100
AcDbEntity
  8
STANDARDEBENE
  0
POLYLINE
  5
1CD
330
1F
100
AcDbEntity
  8
STANDARDEBENE
 62
   250
100
AcDb2dPolyline
 66
     1
 10
0.0
 20
0.0
 30
0.0
  0
VERTEX
  5
1CE
330
1CD
100
AcDbEntity
  8
STANDARDEBENE
 62
   250
100
AcDbVertex
100
AcDb2dVertex
 10
0.6955647784719422
 20
-0.8009847003205872
 30
0.0
  0
VERTEX
  5
1CF
330
1CD
100
AcDbEntity
  8
STANDARDEBENE
 62
   250
100
AcDbVertex
100
AcDb2dVertex
 10
1.695331488291445
 20
-0.8009847003205872
 30
0.0
  0
SEQEND
  5
1D0
330
1CD
100
AcDbEntity
  8
STANDARDEBENE
  0
POLYLINE
  5
1D1
330
1F
100
AcDbEntity
  8
STANDARDEBENE
 62
   250
100
AcDb2dPolyline
 66
     1
 10
0.0
 20
0.0
 30
0.0
  0
VERTEX
  5
1D2
330
1D1
100
AcDbEntity
  8
STANDARDEBENE
 62
   250
100
AcDbVertex
100
AcDb2dVertex
 10
0.6955647784719422
 20
-4.330485024959046
 30
0.0
  0
VERTEX
  5
1D3
330
1D1
100
AcDbEntity
  8
STANDARDEBENE
 62
   250
100
AcDbVertex
100
AcDb2dVertex
 10
1.695331488291445
 20
-4.330485024959046
 30
0.0
  0
SEQEND
  5
1D4
330
1D1
100
AcDbEntity
  8
STANDARDEBENE
  0
POLYLINE
  5
1D5
330
1F
100
AcDbEntity
  8
STANDARDEBENE
 62
   250
100
AcDb2dPolyline
 66
     1
 10
0.0
 20
0.0
 30
0.0
  0
VERTEX
  5
1D6
330
1D5
100
AcDbEntity
  8
STANDARDEBENE
 62
   250
100
AcDbVertex
100
AcDb2dVertex
 10
0.6955647784719422
 20
-0.8009847003205872
 30
0.0
  0
VERTEX
  5
1D7
330
1D5
100
AcDbEntity
  8
STANDARDEBENE
 62
   250
100
AcDbVertex
100
AcDb2dVertex
 10
0.6955647784719422
 20
-1.460720485745931
 30
0.0
  0
VERTEX
  5
1D8
330
1D5
100
AcDbEntity
  8
STANDARDEBENE
 62
   250
100
AcDbVertex
100
AcDb2dVertex
 10
0.6955647784719422
 20
-2.305630153503454
 30
0.0
  0
VERTEX
  5
1D9
330
1D5
100
AcDbEntity
  8
STANDARDEBENE
 62
   250
100
AcDbVertex
100
AcDb2dVertex
 10
0.6955647784719422
 20
-3.282314723571782
 30
0.0
  0
VERTEX
  5
1DA
330
1D5
100
AcDbEntity
  8
STANDARDEBENE
 62
   250
100
AcDbVertex
100
AcDb2dVertex
 10
0.6955647784719422
 20
-4.330485024959046
 30
0.0
  0
SEQEND
  5
1DB
330
1D5
100
AcDbEntity
  8
STANDARDEBENE
  0
POLYLINE
  5
1DC
330
1F
100
AcDbEntity
  8
STANDARDEBENE
 62
   250
100
AcDb2dPolyline
 66
     1
 10
0.0
 20
0.0
 30
0.0
  0
VERTEX
  5
1DD
330
1DC
100
AcDbEntity
  8
STANDARDEBENE
 62
   250
100
AcDbVertex
100
AcDb2dVertex
 10
0.1956814235621908
 20
-1.0507541230012
 30
0.0
  0
VERTEX
  5
1DE
330
1DC
100
AcDbEntity
  8
STANDARDEBENE
 62
   250
100
AcDbVertex
100
AcDb2dVertex
 10
0.6955647784719422
 20
-0.8009847003205872
 30
0.0
  0
SEQEND
  5
1DF
330
1DC
100
AcDbEntity
  8
STANDARDEBENE
  0
POLYLINE
  5
1E0
330
1F
100
AcDbEntity
  8
STANDARDEBENE
 62
   250
100
AcDb2dPolyline
 66
     1
 10
0.0
 20
0.0
 30
0.0
  0
VERTEX
  5
1E1
330
1E0
100
AcDbEntity
  8
STANDARDEBENE
 62
   250
100
AcDbVertex
100
AcDb2dVertex
 10
0.1956814235621908
 20
-1.0507541230012
 30
0.0
  0
VERTEX
  5
1E2
330
1E0
100
AcDbEntity
  8
STANDARDEBENE
 62
   250
100
AcDbVertex
100
AcDb2dVertex
 10
0.1956814235621908
 20
-1.664842393246984
 30
0.0
  0
VERTEX
  5
1E3
330
1E0
100
AcDbEntity
  8
STANDARDEBENE
 62
   250
100
AcDbVertex
100
AcDb2dVertex
 10
0.1956814235621908
 20
-2.44980739956116
 30
0.0
  0
VERTEX
  5
1E4
330
1E0
100
AcDbEntity
  8
STANDARDEBENE
 62
   250
100
AcDbVertex
100
AcDb2dVertex
 10
0.1956814235621908
 20
-3.356901040827442
 30
0.0
  0
VERTEX
  5
1E5
330
1E0
100
AcDbEntity
  8
STANDARDEBENE
 62
   250
100
AcDbVertex
100
AcDb2dVertex
 10
0.1956814235621908
 20
-4.330485024959046
 30
0.0
  0
VERTEX
  5
1E6
330
1E0
100
AcDbEntity
  8
STANDARDEBENE
 62
   250
100
AcDbVertex
100
AcDb2dVertex
 10
0.6955647784719422
 20
-4.330485024959046
 30
0.0
  0
SEQEND
  5
1E7
330
1E0
100
AcDbEntity
  8
STANDARDEBENE
  0
POLYLINE
  5
1E8
330
1F
100
AcDbEntity
  8
STANDARDEBENE
 62
   250
100
AcDb2dPolyline
 66
     1
 10
0.0
 20
0.0
 30
0.0
  0
VERTEX
  5
1E9
330
1E8
100
AcDbEntity
  8
STANDARDEBENE
 62
   250
100
AcDbVertex
100
AcDb2dVertex
 10
11.31955023588539
 20
-7.031784394943443
 30
0.0
  0
VERTEX
  5
1EA
330
1E8
100
AcDbEntity
  8
STANDARDEBENE
 62
   250
100
AcDbVertex
100
AcDb2dVertex
 10
11.36640353448479
 20
-7.077604164897266
 30
0.0
  0
VERTEX
  5
1EB
330
1E8
100
AcDbEntity
  8
STANDARDEBENE
 62
   250
100
AcDbVertex
100
AcDb2dVertex
 10
11.41187879489009
 20
-7.123423934851089
 30
0.0
  0
SEQEND
  5
1EC
330
1E8
100
AcDbEntity
  8
STANDARDEBENE
  0
POLYLINE
  5
1ED
330
1F
100
AcDbEntity
  8
STANDARDEBENE
 62
   250
100
AcDb2dPolyline
 66
     1
 10
0.0
 20
0.0
 30
0.0
  0
VERTEX
  5
1EE
330
1ED
100
AcDbEntity
  8
STANDARDEBENE
 62
   250
100
AcDbVertex
100
AcDb2dVertex
 10
11.31955023588539
 20
-1.830034721764714
 30
0.0
  0
VERTEX
  5
1EF
330
1ED
100
AcDbEntity
  8
STANDARDEBENE
 62
   250
100
AcDbVertex
100
AcDb2dVertex
 10
11.36640353448479
 20
-1.784214951810891
 30
0.0
  0
VERTEX
  5
1F0
330
1ED
100
AcDbEntity
  8
STANDARDEBENE
 62
   250
100
AcDbVertex
100
AcDb2dVertex
 10
11.41187879489009
 20
-1.737533907985755
 30
0.0
  0
SEQEND
  5
1F1
330
1ED
100
AcDbEntity
  8
STANDARDEBENE
  0
POLYLINE
  5
1F2
330
1F
100
AcDbEntity
  8
STANDARDEBENE
 62
   250
100
AcDb2dPolyline
 66
     1
 10
0.0
 20
0.0
 30
0.0
  0
VERTEX
  5
1F3
330
1F2
100
AcDbEntity
  8
STANDARDEBENE
 62
   250
100
AcDbVertex
100
AcDb2dVertex
 10
2.44085015129951
 20
-6.141743976329147
 30
0.0
  0
VERTEX
  5
1F4
330
1F2
100
AcDbEntity
  8
STANDARDEBENE
 62
   250
100
AcDbVertex
100
AcDb2dVertex
 10
2.575208875224253
 20
-6.054238551003801
 30
0.0
  0
VERTEX
  5
1F5
330
1F2
100
AcDbEntity
  8
STANDARDEBENE
 62
   250
100
AcDbVertex
100
AcDb2dVertex
 10
2.71249593031146
 20
-5.968455673421081
 30
0.0
  0
SEQEND
  5
1F6
330
1F2
100
AcDbEntity
  8
STANDARDEBENE
  0
POLYLINE
  5
1F7
330
1F
100
AcDbEntity
  8
STANDARDEBENE
 62
   250
100
AcDb2dPolyline
 66
     1
 10
0.0
 20
0.0
 30
0.0
  0
VERTEX
  5
1F8
330
1F7
100
AcDbEntity
  8
STANDARDEBENE
 62
   250
100
AcDbVertex
100
AcDb2dVertex
 10
2.44085015129951
 20
-2.719730630830484
 30
0.0
  0
VERTEX
  5
1F9
330
1F7
100
AcDbEntity
  8
STANDARDEBENE
 62
   250
100
AcDbVertex
100
AcDb2dVertex
 10
2.575208875224253
 20
-2.80723605615583
 30
0.0
  0
VERTEX
  5
1FA
330
1F7
100
AcDbEntity
  8
STANDARDEBENE
 62
   250
100
AcDbVertex
100
AcDb2dVertex
 10
2.71249593031146
 20
-2.893363443287076
 30
0.0
  0
SEQEND
  5
1FB
330
1F7
100
AcDbEntity
  8
STANDARDEBENE
  0
POLYLINE
  5
1FD
330
1F
100
AcDbEntity
  8
BEMAßUNG
 62
     7
100
AcDb2dPolyline
 66
     1
 10
0.0
 20
0.0
 30
0.0
  0
VERTEX
  5
1FE
330
1FD
100
AcDbEntity
  8
BEMAßUNG
 62
     7
100
AcDbVertex
100
AcDb2dVertex
 10
0.1956814235621908
 20
-2.430859374392285
 30
0.0
  0
VERTEX
  5
1FF
330
1FD
100
AcDbEntity
  8
BEMAßUNG
 62
     7
100
AcDbVertex
100
AcDb2dVertex
 10
-4.757849119904288
 20
-2.430859374392285
 30
0.0
  0
SEQEND
  5
200
330
1FD
100
AcDbEntity
  8
BEMAßUNG
  0
POLYLINE
  5
201
330
1F
100
AcDbEntity
  8
BEMAßUNG
 62
     7
100
AcDb2dPolyline
 66
     1
 10
0.0
 20
0.0
 30
0.0
  0
VERTEX
  5
202
330
201
100
AcDbEntity
  8
BEMAßUNG
 62
     7
100
AcDbVertex
100
AcDb2dVertex
 10
0.1956814235621908
 20
-6.430270723218822
 30
0.0
  0
VERTEX
  5
203
330
201
100
AcDbEntity
  8
BEMAßUNG
 62
     7
100
AcDbVertex
100
AcDb2dVertex
 10
-4.809008787860248
 20
-6.430270723218822
 30
0.0
  0
SEQEND
  5
204
330
201
100
AcDbEntity
  8
BEMAßUNG
  0
POLYLINE
  5
205
330
1F
100
AcDbEntity
  8
BEMAßUNG
 62
     7
100
AcDb2dPolyline
 66
     1
 10
0.0
 20
0.0
 30
0.0
  0
VERTEX
  5
206
330
205
100
AcDbEntity
  8
BEMAßUNG
 62
     7
100
AcDbVertex
100
AcDb2dVertex
 10
-4.35907931748662
 20
1.125512695031122
 30
0.0
  0
VERTEX
  5
207
330
205
100
AcDbEntity
  8
BEMAßUNG
 62
     7
100
AcDbVertex
100
AcDb2dVertex
 10
-4.35907931748662
 20
-9.97630750618648
 30
0.0
  0
SEQEND
  5
208
330
205
100
AcDbEntity
  8
BEMAßUNG
  0
POLYLINE
  5
209
330
1F
100
AcDbEntity
  8
BEMAßUNG
 62
     7
100
AcDb2dPolyline
 66
     1
 10
0.0
 20
0.0
 30
0.0
  0
VERTEX
  5
20A
330
209
100
AcDbEntity
  8
BEMAßUNG
 62
     7
100
AcDbVertex
100
AcDb2dVertex
 10
-4.35907931748662
 20
-2.430859374392285
 30
0.0
  0
VERTEX
  5
20B
330
209
100
AcDbEntity
  8
BEMAßUNG
 62
     7
100
AcDbVertex
100
AcDb2dVertex
 10
-4.030417208193785
 20
0.0694186740277842
 30
0.0
  0
VERTEX
  5
20C
330
209
100
AcDbEntity
  8
BEMAßUNG
 62
     7
100
AcDbVertex
100
AcDb2dVertex
 10
-4.688258191102241
 20
0.0694186740277842
 30
0.0
  0
VERTEX
  5
20D
330
209
100
AcDbEntity
  8
BEMAßUNG
 62
     7
100
AcDbVertex
100
AcDb2dVertex
 10
-4.35907931748662
 20
-2.430859374392285
 30
0.0
  0
SEQEND
  5
20E
330
209
100
AcDbEntity
  8
BEMAßUNG
  0
POLYLINE
  5
20F
330
1F
100
AcDbEntity
  8
BEMAßUNG
 62
     7
100
AcDb2dPolyline
 66
     1
 10
0.0
 20
0.0
 30
0.0
  0
VERTEX
  5
210
330
20F
100
AcDbEntity
  8
BEMAßUNG
 62
     7
100
AcDbVertex
100
AcDb2dVertex
 10
-4.054360621816271
 20
0.0694186740277842
 30
0.0
  0
VERTEX
  5
211
330
20F
100
AcDbEntity
  8
BEMAßUNG
 62
     7
100
AcDbVertex
100
AcDb2dVertex
 10
-4.054360621816271
 20
-0.1155829535301321
 30
0.0
  0
SEQEND
  5
212
330
20F
100
AcDbEntity
  8
BEMAßUNG
  0
POLYLINE
  5
213
330
1F
100
AcDbEntity
  8
BEMAßUNG
 62
     7
100
AcDb2dPolyline
 66
     1
 10
0.0
 20
0.0
 30
0.0
  0
VERTEX
  5
214
330
213
100
AcDbEntity
  8
BEMAßUNG
 62
     7
100
AcDbVertex
100
AcDb2dVertex
 10
-4.054360621816271
 20
0.0694186740277842
 30
0.0
  0
VERTEX
  5
215
330
213
100
AcDbEntity
  8
BEMAßUNG
 62
     7
100
AcDbVertex
100
AcDb2dVertex
 10
-4.054360621816271
 20
-0.1155829535301321
 30
0.0
  0
SEQEND
  5
216
330
213
100
AcDbEntity
  8
BEMAßUNG
  0
POLYLINE
  5
217
330
1F
100
AcDbEntity
  8
BEMAßUNG
 62
     7
100
AcDb2dPolyline
 66
     1
 10
0.0
 20
0.0
 30
0.0
  0
VERTEX
  5
218
330
217
100
AcDbEntity
  8
BEMAßUNG
 62
     7
100
AcDbVertex
100
AcDb2dVertex
 10
-4.105175780223706
 20
0.0694186740277842
 30
0.0
  0
VERTEX
  5
219
330
217
100
AcDbEntity
  8
BEMAßUNG
 62
     7
100
AcDbVertex
100
AcDb2dVertex
 10
-4.105175780223706
 20
-0.5010891383295889
 30
0.0
  0
SEQEND
  5
21A
330
217
100
AcDbEntity
  8
BEMAßUNG
  0
POLYLINE
  5
21B
330
1F
100
AcDbEntity
  8
BEMAßUNG
 62
     7
100
AcDb2dPolyline
 66
     1
 10
0.0
 20
0.0
 30
0.0
  0
VERTEX
  5
21C
330
21B
100
AcDbEntity
  8
BEMAßUNG
 62
     7
100
AcDbVertex
100
AcDb2dVertex
 10
-4.156335448179666
 20
0.0694186740277842
 30
0.0
  0
VERTEX
  5
21D
330
21B
100
AcDbEntity
  8
BEMAßUNG
 62
     7
100
AcDbVertex
100
AcDb2dVertex
 10
-4.156335448179666
 20
-0.8874565970003581
 30
0.0
  0
SEQEND
  5
21E
330
21B
100
AcDbEntity
  8
BEMAßUNG
  0
POLYLINE
  5
21F
330
1F
100
AcDbEntity
  8
BEMAßUNG
 62
     7
100
AcDb2dPolyline
 66
     1
 10
0.0
 20
0.0
 30
0.0
  0
VERTEX
  5
220
330
21F
100
AcDbEntity
  8
BEMAßUNG
 62
     7
100
AcDbVertex
100
AcDb2dVertex
 10
-4.207150606587102
 20
0.0694186740277842
 30
0.0
  0
VERTEX
  5
221
330
21F
100
AcDbEntity
  8
BEMAßUNG
 62
     7
100
AcDbVertex
100
AcDb2dVertex
 10
-4.207150606587102
 20
-1.272962781799815
 30
0.0
  0
SEQEND
  5
222
330
21F
100
AcDbEntity
  8
BEMAßUNG
  0
POLYLINE
  5
223
330
1F
100
AcDbEntity
  8
BEMAßUNG
 62
     7
100
AcDb2dPolyline
 66
     1
 10
0.0
 20
0.0
 30
0.0
  0
VERTEX
  5
224
330
223
100
AcDbEntity
  8
BEMAßUNG
 62
     7
100
AcDbVertex
100
AcDb2dVertex
 10
-4.257449000671749
 20
0.0694186740277842
 30
0.0
  0
VERTEX
  5
225
330
223
100
AcDbEntity
  8
BEMAßUNG
 62
     7
100
AcDbVertex
100
AcDb2dVertex
 10
-4.257449000671749
 20
-1.658985730922059
 30
0.0
  0
SEQEND
  5
226
330
223
100
AcDbEntity
  8
BEMAßUNG
  0
POLYLINE
  5
227
330
1F
100
AcDbEntity
  8
BEMAßUNG
 62
     7
100
AcDb2dPolyline
 66
     1
 10
0.0
 20
0.0
 30
0.0
  0
VERTEX
  5
228
330
227
100
AcDbEntity
  8
BEMAßUNG
 62
     7
100
AcDbVertex
100
AcDb2dVertex
 10
-4.308264159079184
 20
0.0694186740277842
 30
0.0
  0
VERTEX
  5
229
330
227
100
AcDbEntity
  8
BEMAßUNG
 62
     7
100
AcDbVertex
100
AcDb2dVertex
 10
-4.308264159079184
 20
-2.044491915721516
 30
0.0
  0
SEQEND
  5
22A
330
227
100
AcDbEntity
  8
BEMAßUNG
  0
POLYLINE
  5
22B
330
1F
100
AcDbEntity
  8
BEMAßUNG
 62
     7
100
AcDb2dPolyline
 66
     1
 10
0.0
 20
0.0
 30
0.0
  0
VERTEX
  5
22C
330
22B
100
AcDbEntity
  8
BEMAßUNG
 62
     7
100
AcDbVertex
100
AcDb2dVertex
 10
-4.35907931748662
 20
0.0694186740277842
 30
0.0
  0
VERTEX
  5
22D
330
22B
100
AcDbEntity
  8
BEMAßUNG
 62
     7
100
AcDbVertex
100
AcDb2dVertex
 10
-4.35907931748662
 20
-2.430859374392285
 30
0.0
  0
SEQEND
  5
22E
330
22B
100
AcDbEntity
  8
BEMAßUNG
  0
POLYLINE
  5
22F
330
1F
100
AcDbEntity
  8
BEMAßUNG
 62
     7
100
AcDb2dPolyline
 66
     1
 10
0.0
 20
0.0
 30
0.0
  0
VERTEX
  5
230
330
22F
100
AcDbEntity
  8
BEMAßUNG
 62
     7
100
AcDbVertex
100
AcDb2dVertex
 10
-4.664314777479754
 20
0.0694186740277842
 30
0.0
  0
VERTEX
  5
231
330
22F
100
AcDbEntity
  8
BEMAßUNG
 62
     7
100
AcDbVertex
100
AcDb2dVertex
 10
-4.664314777479754
 20
-0.1155829535301321
 30
0.0
  0
SEQEND
  5
232
330
22F
100
AcDbEntity
  8
BEMAßUNG
  0
POLYLINE
  5
233
330
1F
100
AcDbEntity
  8
BEMAßUNG
 62
     7
100
AcDb2dPolyline
 66
     1
 10
0.0
 20
0.0
 30
0.0
  0
VERTEX
  5
234
330
233
100
AcDbEntity
  8
BEMAßUNG
 62
     7
100
AcDbVertex
100
AcDb2dVertex
 10
-4.664314777479754
 20
0.0694186740277842
 30
0.0
  0
VERTEX
  5
235
330
233
100
AcDbEntity
  8
BEMAßUNG
 62
     7
100
AcDbVertex
100
AcDb2dVertex
 10
-4.664314777479754
 20
-0.1155829535301321
 30
0.0
  0
SEQEND
  5
236
330
233
100
AcDbEntity
  8
BEMAßUNG
  0
POLYLINE
  5
237
330
1F
100
AcDbEntity
  8
BEMAßUNG
 62
     7
100
AcDb2dPolyline
 66
     1
 10
0.0
 20
0.0
 30
0.0
  0
VERTEX
  5
238
330
237
100
AcDbEntity
  8
BEMAßUNG
 62
     7
100
AcDbVertex
100
AcDb2dVertex
 10
-4.613155109523794
 20
0.0694186740277842
 30
0.0
  0
VERTEX
  5
239
330
237
100
AcDbEntity
  8
BEMAßUNG
 62
     7
100
AcDbVertex
100
AcDb2dVertex
 10
-4.613155109523794
 20
-0.5010891383295889
 30
0.0
  0
SEQEND
  5
23A
330
237
100
AcDbEntity
  8
BEMAßUNG
  0
POLYLINE
  5
23B
330
1F
100
AcDbEntity
  8
BEMAßUNG
 62
     7
100
AcDb2dPolyline
 66
     1
 10
0.0
 20
0.0
 30
0.0
  0
VERTEX
  5
23C
330
23B
100
AcDbEntity
  8
BEMAßUNG
 62
     7
100
AcDbVertex
100
AcDb2dVertex
 10
-4.56233995111636
 20
0.0694186740277842
 30
0.0
  0
VERTEX
  5
23D
330
23B
100
AcDbEntity
  8
BEMAßUNG
 62
     7
100
AcDbVertex
100
AcDb2dVertex
 10
-4.56233995111636
 20
-0.8874565970003581
 30
0.0
  0
SEQEND
  5
23E
330
23B
100
AcDbEntity
  8
BEMAßUNG
  0
POLYLINE
  5
23F
330
1F
100
AcDbEntity
  8
BEMAßUNG
 62
     7
100
AcDb2dPolyline
 66
     1
 10
0.0
 20
0.0
 30
0.0
  0
VERTEX
  5
240
330
23F
100
AcDbEntity
  8
BEMAßUNG
 62
     7
100
AcDbVertex
100
AcDb2dVertex
 10
-4.511869302257449
 20
0.0694186740277842
 30
0.0
  0
VERTEX
  5
241
330
23F
100
AcDbEntity
  8
BEMAßUNG
 62
     7
100
AcDbVertex
100
AcDb2dVertex
 10
-4.511869302257449
 20
-1.272962781799815
 30
0.0
  0
SEQEND
  5
242
330
23F
100
AcDbEntity
  8
BEMAßUNG
  0
POLYLINE
  5
243
330
1F
100
AcDbEntity
  8
BEMAßUNG
 62
     7
100
AcDb2dPolyline
 66
     1
 10
0.0
 20
0.0
 30
0.0
  0
VERTEX
  5
244
330
243
100
AcDbEntity
  8
BEMAßUNG
 62
     7
100
AcDbVertex
100
AcDb2dVertex
 10
-4.461054143850014
 20
0.0694186740277842
 30
0.0
  0
VERTEX
  5
245
330
243
100
AcDbEntity
  8
BEMAßUNG
 62
     7
100
AcDbVertex
100
AcDb2dVertex
 10
-4.461054143850014
 20
-1.658985730922059
 30
0.0
  0
SEQEND
  5
246
330
243
100
AcDbEntity
  8
BEMAßUNG
  0
POLYLINE
  5
247
330
1F
100
AcDbEntity
  8
BEMAßUNG
 62
     7
100
AcDb2dPolyline
 66
     1
 10
0.0
 20
0.0
 30
0.0
  0
VERTEX
  5
248
330
247
100
AcDbEntity
  8
BEMAßUNG
 62
     7
100
AcDbVertex
100
AcDb2dVertex
 10
-4.41023898544258
 20
0.0694186740277842
 30
0.0
  0
VERTEX
  5
249
330
247
100
AcDbEntity
  8
BEMAßUNG
 62
     7
100
AcDbVertex
100
AcDb2dVertex
 10
-4.41023898544258
 20
-2.044491915721516
 30
0.0
  0
SEQEND
  5
24A
330
247
100
AcDbEntity
  8
BEMAßUNG
  0
POLYLINE
  5
24B
330
1F
100
AcDbEntity
  8
BEMAßUNG
 62
     7
100
AcDb2dPolyline
 66
     1
 10
0.0
 20
0.0
 30
0.0
  0
VERTEX
  5
24C
330
24B
100
AcDbEntity
  8
BEMAßUNG
 62
     7
100
AcDbVertex
100
AcDb2dVertex
 10
-4.35907931748662
 20
0.0694186740277842
 30
0.0
  0
VERTEX
  5
24D
330
24B
100
AcDbEntity
  8
BEMAßUNG
 62
     7
100
AcDbVertex
100
AcDb2dVertex
 10
-4.35907931748662
 20
-2.430859374392285
 30
0.0
  0
SEQEND
  5
24E
330
24B
100
AcDbEntity
  8
BEMAßUNG
  0
POLYLINE
  5
24F
330
1F
100
AcDbEntity
  8
BEMAßUNG
 62
     7
100
AcDb2dPolyline
 66
     1
 10
0.0
 20
0.0
 30
0.0
  0
VERTEX
  5
250
330
24F
100
AcDbEntity
  8
BEMAßUNG
 62
     7
100
AcDbVertex
100
AcDb2dVertex
 10
-4.35907931748662
 20
-6.430270723218822
 30
0.0
  0
VERTEX
  5
251
330
24F
100
AcDbEntity
  8
BEMAßUNG
 62
     7
100
AcDbVertex
100
AcDb2dVertex
 10
-4.688258191102241
 20
-8.930376516864628
 30
0.0
  0
VERTEX
  5
252
330
24F
100
AcDbEntity
  8
BEMAßUNG
 62
     7
100
AcDbVertex
100
AcDb2dVertex
 10
-4.030417208193785
 20
-8.930376516864628
 30
0.0
  0
VERTEX
  5
253
330
24F
100
AcDbEntity
  8
BEMAßUNG
 62
     7
100
AcDbVertex
100
AcDb2dVertex
 10
-4.35907931748662
 20
-6.430270723218822
 30
0.0
  0
SEQEND
  5
254
330
24F
100
AcDbEntity
  8
BEMAßUNG
  0
POLYLINE
  5
255
330
1F
100
AcDbEntity
  8
BEMAßUNG
 62
     7
100
AcDb2dPolyline
 66
     1
 10
0.0
 20
0.0
 30
0.0
  0
VERTEX
  5
256
330
255
100
AcDbEntity
  8
BEMAßUNG
 62
     7
100
AcDbVertex
100
AcDb2dVertex
 10
-4.664314777479754
 20
-8.930376516864628
 30
0.0
  0
VERTEX
  5
257
330
255
100
AcDbEntity
  8
BEMAßUNG
 62
     7
100
AcDbVertex
100
AcDb2dVertex
 10
-4.664314777479754
 20
-8.745547144080975
 30
0.0
  0
SEQEND
  5
258
330
255
100
AcDbEntity
  8
BEMAßUNG
  0
POLYLINE
  5
259
330
1F
100
AcDbEntity
  8
BEMAßUNG
 62
     7
100
AcDb2dPolyline
 66
     1
 10
0.0
 20
0.0
 30
0.0
  0
VERTEX
  5
25A
330
259
100
AcDbEntity
  8
BEMAßUNG
 62
     7
100
AcDbVertex
100
AcDb2dVertex
 10
-4.664314777479754
 20
-8.930376516864628
 30
0.0
  0
VERTEX
  5
25B
330
259
100
AcDbEntity
  8
BEMAßUNG
 62
     7
100
AcDbVertex
100
AcDb2dVertex
 10
-4.664314777479754
 20
-8.745547144080975
 30
0.0
  0
SEQEND
  5
25C
330
259
100
AcDbEntity
  8
BEMAßUNG
  0
POLYLINE
  5
25D
330
1F
100
AcDbEntity
  8
BEMAßUNG
 62
     7
100
AcDb2dPolyline
 66
     1
 10
0.0
 20
0.0
 30
0.0
  0
VERTEX
  5
25E
330
25D
100
AcDbEntity
  8
BEMAßUNG
 62
     7
100
AcDbVertex
100
AcDb2dVertex
 10
-4.613155109523794
 20
-8.930376516864628
 30
0.0
  0
VERTEX
  5
25F
330
25D
100
AcDbEntity
  8
BEMAßUNG
 62
     7
100
AcDbVertex
100
AcDb2dVertex
 10
-4.613155109523794
 20
-8.360040959281518
 30
0.0
  0
SEQEND
  5
260
330
25D
100
AcDbEntity
  8
BEMAßUNG
  0
POLYLINE
  5
261
330
1F
100
AcDbEntity
  8
BEMAßUNG
 62
     7
100
AcDb2dPolyline
 66
     1
 10
0.0
 20
0.0
 30
0.0
  0
VERTEX
  5
262
330
261
100
AcDbEntity
  8
BEMAßUNG
 62
     7
100
AcDbVertex
100
AcDb2dVertex
 10
-4.56233995111636
 20
-8.930376516864628
 30
0.0
  0
VERTEX
  5
263
330
261
100
AcDbEntity
  8
BEMAßUNG
 62
     7
100
AcDbVertex
100
AcDb2dVertex
 10
-4.56233995111636
 20
-7.974018010159273
 30
0.0
  0
SEQEND
  5
264
330
261
100
AcDbEntity
  8
BEMAßUNG
  0
POLYLINE
  5
265
330
1F
100
AcDbEntity
  8
BEMAßUNG
 62
     7
100
AcDb2dPolyline
 66
     1
 10
0.0
 20
0.0
 30
0.0
  0
VERTEX
  5
266
330
265
100
AcDbEntity
  8
BEMAßUNG
 62
     7
100
AcDbVertex
100
AcDb2dVertex
 10
-4.511869302257449
 20
-8.930376516864628
 30
0.0
  0
VERTEX
  5
267
330
265
100
AcDbEntity
  8
BEMAßUNG
 62
     7
100
AcDbVertex
100
AcDb2dVertex
 10
-4.511869302257449
 20
-7.588339570585554
 30
0.0
  0
SEQEND
  5
268
330
265
100
AcDbEntity
  8
BEMAßUNG
  0
POLYLINE
  5
269
330
1F
100
AcDbEntity
  8
BEMAßUNG
 62
     7
100
AcDb2dPolyline
 66
     1
 10
0.0
 20
0.0
 30
0.0
  0
VERTEX
  5
26A
330
269
100
AcDbEntity
  8
BEMAßUNG
 62
     7
100
AcDbVertex
100
AcDb2dVertex
 10
-4.461054143850014
 20
-8.930376516864628
 30
0.0
  0
VERTEX
  5
26B
330
269
100
AcDbEntity
  8
BEMAßUNG
 62
     7
100
AcDbVertex
100
AcDb2dVertex
 10
-4.461054143850014
 20
-7.202144366689048
 30
0.0
  0
SEQEND
  5
26C
330
269
100
AcDbEntity
  8
BEMAßUNG
  0
POLYLINE
  5
26D
330
1F
100
AcDbEntity
  8
BEMAßUNG
 62
     7
100
AcDb2dPolyline
 66
     1
 10
0.0
 20
0.0
 30
0.0
  0
VERTEX
  5
26E
330
26D
100
AcDbEntity
  8
BEMAßUNG
 62
     7
100
AcDbVertex
100
AcDb2dVertex
 10
-4.41023898544258
 20
-8.930376516864628
 30
0.0
  0
VERTEX
  5
26F
330
26D
100
AcDbEntity
  8
BEMAßUNG
 62
     7
100
AcDbVertex
100
AcDb2dVertex
 10
-4.41023898544258
 20
-6.816638181889591
 30
0.0
  0
SEQEND
  5
270
330
26D
100
AcDbEntity
  8
BEMAßUNG
  0
POLYLINE
  5
271
330
1F
100
AcDbEntity
  8
BEMAßUNG
 62
     7
100
AcDb2dPolyline
 66
     1
 10
0.0
 20
0.0
 30
0.0
  0
VERTEX
  5
272
330
271
100
AcDbEntity
  8
BEMAßUNG
 62
     7
100
AcDbVertex
100
AcDb2dVertex
 10
-4.35907931748662
 20
-8.930376516864628
 30
0.0
  0
VERTEX
  5
273
330
271
100
AcDbEntity
  8
BEMAßUNG
 62
     7
100
AcDbVertex
100
AcDb2dVertex
 10
-4.35907931748662
 20
-6.430270723218822
 30
0.0
  0
SEQEND
  5
274
330
271
100
AcDbEntity
  8
BEMAßUNG
  0
POLYLINE
  5
275
330
1F
100
AcDbEntity
  8
BEMAßUNG
 62
     7
100
AcDb2dPolyline
 66
     1
 10
0.0
 20
0.0
 30
0.0
  0
VERTEX
  5
276
330
275
100
AcDbEntity
  8
BEMAßUNG
 62
     7
100
AcDbVertex
100
AcDb2dVertex
 10
-4.054360621816271
 20
-8.930376516864628
 30
0.0
  0
VERTEX
  5
277
330
275
100
AcDbEntity
  8
BEMAßUNG
 62
     7
100
AcDbVertex
100
AcDb2dVertex
 10
-4.054360621816271
 20
-8.745547144080975
 30
0.0
  0
SEQEND
  5
278
330
275
100
AcDbEntity
  8
BEMAßUNG
  0
POLYLINE
  5
279
330
1F
100
AcDbEntity
  8
BEMAßUNG
 62
     7
100
AcDb2dPolyline
 66
     1
 10
0.0
 20
0.0
 30
0.0
  0
VERTEX
  5
27A
330
279
100
AcDbEntity
  8
BEMAßUNG
 62
     7
100
AcDbVertex
100
AcDb2dVertex
 10
-4.054360621816271
 20
-8.930376516864628
 30
0.0
  0
VERTEX
  5
27B
330
279
100
AcDbEntity
  8
BEMAßUNG
 62
     7
100
AcDbVertex
100
AcDb2dVertex
 10
-4.054360621816271
 20
-8.745547144080975
 30
0.0
  0
SEQEND
  5
27C
330
279
100
AcDbEntity
  8
BEMAßUNG
  0
POLYLINE
  5
27D
330
1F
100
AcDbEntity
  8
BEMAßUNG
 62
     7
100
AcDb2dPolyline
 66
     1
 10
0.0
 20
0.0
 30
0.0
  0
VERTEX
  5
27E
330
27D
100
AcDbEntity
  8
BEMAßUNG
 62
     7
100
AcDbVertex
100
AcDb2dVertex
 10
-4.105175780223706
 20
-8.930376516864628
 30
0.0
  0
VERTEX
  5
27F
330
27D
100
AcDbEntity
  8
BEMAßUNG
 62
     7
100
AcDbVertex
100
AcDb2dVertex
 10
-4.105175780223706
 20
-8.360040959281518
 30
0.0
  0
SEQEND
  5
280
330
27D
100
AcDbEntity
  8
BEMAßUNG
  0
POLYLINE
  5
281
330
1F
100
AcDbEntity
  8
BEMAßUNG
 62
     7
100
AcDb2dPolyline
 66
     1
 10
0.0
 20
0.0
 30
0.0
  0
VERTEX
  5
282
330
281
100
AcDbEntity
  8
BEMAßUNG
 62
     7
100
AcDbVertex
100
AcDb2dVertex
 10
-4.156335448179666
 20
-8.930376516864628
 30
0.0
  0
VERTEX
  5
283
330
281
100
AcDbEntity
  8
BEMAßUNG
 62
     7
100
AcDbVertex
100
AcDb2dVertex
 10
-4.156335448179666
 20
-7.974018010159273
 30
0.0
  0
SEQEND
  5
284
330
281
100
AcDbEntity
  8
BEMAßUNG
  0
POLYLINE
  5
285
330
1F
100
AcDbEntity
  8
BEMAßUNG
 62
     7
100
AcDb2dPolyline
 66
     1
 10
0.0
 20
0.0
 30
0.0
  0
VERTEX
  5
286
330
285
100
AcDbEntity
  8
BEMAßUNG
 62
     7
100
AcDbVertex
100
AcDb2dVertex
 10
-4.207150606587102
 20
-8.930376516864628
 30
0.0
  0
VERTEX
  5
287
330
285
100
AcDbEntity
  8
BEMAßUNG
 62
     7
100
AcDbVertex
100
AcDb2dVertex
 10
-4.207150606587102
 20
-7.588339570585554
 30
0.0
  0
SEQEND
  5
288
330
285
100
AcDbEntity
  8
BEMAßUNG
  0
POLYLINE
  5
289
330
1F
100
AcDbEntity
  8
BEMAßUNG
 62
     7
100
AcDb2dPolyline
 66
     1
 10
0.0
 20
0.0
 30
0.0
  0
VERTEX
  5
28A
330
289
100
AcDbEntity
  8
BEMAßUNG
 62
     7
100
AcDbVertex
100
AcDb2dVertex
 10
-4.257449000671749
 20
-8.930376516864628
 30
0.0
  0
VERTEX
  5
28B
330
289
100
AcDbEntity
  8
BEMAßUNG
 62
     7
100
AcDbVertex
100
AcDb2dVertex
 10
-4.257449000671749
 20
-7.202144366689048
 30
0.0
  0
SEQEND
  5
28C
330
289
100
AcDbEntity
  8
BEMAßUNG
  0
POLYLINE
  5
28D
330
1F
100
AcDbEntity
  8
BEMAßUNG
 62
     7
100
AcDb2dPolyline
 66
     1
 10
0.0
 20
0.0
 30
0.0
  0
VERTEX
  5
28E
330
28D
100
AcDbEntity
  8
BEMAßUNG
 62
     7
100
AcDbVertex
100
AcDb2dVertex
 10
-4.308264159079184
 20
-8.930376516864628
 30
0.0
  0
VERTEX
  5
28F
330
28D
100
AcDbEntity
  8
BEMAßUNG
 62
     7
100
AcDbVertex
100
AcDb2dVertex
 10
-4.308264159079184
 20
-6.816638181889591
 30
0.0
  0
SEQEND
  5
290
330
28D
100
AcDbEntity
  8
BEMAßUNG
  0
POLYLINE
  5
291
330
1F
100
AcDbEntity
  8
BEMAßUNG
 62
     7
100
AcDb2dPolyline
 66
     1
 10
0.0
 20
0.0
 30
0.0
  0
VERTEX
  5
292
330
291
100
AcDbEntity
  8
BEMAßUNG
 62
     7
100
AcDbVertex
100
AcDb2dVertex
 10
-4.35907931748662
 20
-8.930376516864628
 30
0.0
  0
VERTEX
  5
293
330
291
100
AcDbEntity
  8
BEMAßUNG
 62
     7
100
AcDbVertex
100
AcDb2dVertex
 10
-4.35907931748662
 20
-6.430270723218822
 30
0.0
  0
SEQEND
  5
294
330
291
100
AcDbEntity
  8
BEMAßUNG
  0
MTEXT
  5
296
330
1F
100
AcDbEntity
  8
TEXT
 62
     7
100
AcDbMText
 10
-5.102530923203534
 20
-5.441528318952118
 30
0.0
 40
2.398888888289167
 41
0.0
 71
     7
 72
     1
  1
\fINDEX Univers 45 Light|b0|i0|c0|p34;\W1;D
 11
-4.371139000186241E-8
 21
0.999999999999999
 31
0.0
  0
ENDSEC
  0
SECTION
  2
OBJECTS
  0
DICTIONARY
  5
C
330
0
100
AcDbDictionary
  3
ACAD_GROUP
350
D
  3
ACAD_LAYOUT
350
1A
  3
ACAD_MLINESTYLE
350
17
  3
ACAD_PLOTSETTINGS
350
19
  3
ACAD_TABLESTYLE
350
2B7
  3
ACAD_VISUALSTYLE
350
2A
  3
ACDBHEADERROUNDTRIPXREC
350
297
  0
DICTIONARY
  5
D
102
{ACAD_REACTORS
330
C
102
}
330
C
100
AcDbDictionary
  0
DICTIONARY
  5
1A
102
{ACAD_REACTORS
330
C
102
}
330
C
100
AcDbDictionary
  0
DICTIONARY
  5
17
102
{ACAD_REACTORS
330
C
102
}
330
C
100
AcDbDictionary
  3
STANDARD
350
18
  0
DICTIONARY
  5
19
102
{ACAD_REACTORS
330
C
102
}
330
C
100
AcDbDictionary
  0
DICTIONARY
  5
2B7
102
{ACAD_REACTORS
330
C
102
}
330
C
100
AcDbDictionary
  0
DICTIONARY
  5
2A
102
{ACAD_REACTORS
330
C
102
}
330
C
100
AcDbDictionary
  3
2DWIREFRAME
350
2F
  3
3D_HIDDEN
350
31
  3
3DWIREFRAME
350
30
  3
BASIC
350
32
  3
BRIGHTEN
350
36
  3
COLORCHANGE
350
3A
  3
CONCEPTUAL
350
34
  3
DIM
350
35
  3
FACEPATTERN
350
39
  3
FLAT
350
2B
  3
FLATWITHEDGES
350
2C
  3
GOURAUD
350
2D
  3
GOURAUDWITHEDGES
350
2E
  3
LINEPATTERN
350
38
  3
REALISTIC
350
33
  3
THICKEN
350
37
  0
DICTIONARY
  5
297
102
{ACAD_REACTORS
330
C
102
}
330
C
100
AcDbDictionary
  3
CEPSNTYPE
350
2A0
  3
DIMSTYLEDATA
350
2B6
  3
FINGERPRINTGUID
350
2A1
  3
HYPERLINKBASE
350
29A
  3
INSUNITS
350
29F
  3
LAYOUTDICT
350
29C
  3
LWETCUNION
350
29E
  3
PLOTSETDICT
350
29D
  3
PSVPSCALE
350
2A3
  3
PUCSBASE
350
2A6
  3
PUCSORGBACK
350
2AC
  3
PUCSORGBOTTOM
350
2A8
  3
PUCSORGFRONT
350
2AB
  3
PUCSORGLEFT
350
2A9
  3
PUCSORGRIGHT
350
2AA
  3
PUCSORGTOP
350
2A7
  3
PUCSORTHOREF
350
2A4
  3
PUCSORTHOVIEW
350
2A5
  3
STYLESHEET
350
29B
  3
TSTACKALIGN
350
298
  3
TSTACKSIZE
350
299
  3
UCSBASE
350
2AF
  3
UCSORGBACK
350
2B5
  3
UCSORGBOTTOM
350
2B1
  3
UCSORGFRONT
350
2B4
  3
UCSORGLEFT
350
2B2
  3
UCSORGRIGHT
350
2B3
  3
UCSORGTOP
350
2B0
  3
UCSORTHOREF
350
2AD
  3
UCSORTHOVIEW
350
2AE
  3
VERSIONGUID
350
2A2
  0
MLINESTYLE
  5
18
102
{ACAD_REACTORS
330
17
102
}
330
17
100
AcDbMlineStyle
  2
Standard
 70
     0
  3

 62
   256
 51
90.0
 52
90.0
 71
     2
 49
0.5
 62
   256
  6
BYLAYER
 49
-0.5
 62
   256
  6
BYLAYER
  0
VISUALSTYLE
  5
2F
102
{ACAD_REACTORS
330
2A
102
}
330
2A
100
AcDbVisualStyle
  2
2dWireframe
 70
     4
 71
     0
 72
     2
 73
     0
 90
        0
 40
-0.6
 41
-30.0
 62
     5
 63
     7
 74
     1
 91
        4
 64
     7
 65
   257
 75
     1
175
     1
 42
1.0
 92
        0
 66
   257
 43
1.0
 76
     1
 77
     6
 78
     2
 67
     7
 79
     5
170
     0
171
     0
290
     0
174
     0
 93
        1
 44
0.0
173
     0
291
     0
 45
0.0
1001
ACAD
1000
AcDbSavedByObjectVersion
1070
     0
  0
VISUALSTYLE
  5
31
102
{ACAD_REACTORS
330
2A
102
}
330
2A
100
AcDbVisualStyle
  2
3D Hidden
 70
     6
 71
     1
 72
     2
 73
     2
 90
        0
 40
-0.6
 41
-30.0
 62
     5
 63
     7
 74
     2
 91
        2
 64
     7
 65
   257
 75
     2
175
     1
 42
40.0
 92
        0
 66
   257
 43
1.0
 76
     1
 77
     6
 78
     2
 67
     7
 79
     3
170
     0
171
     0
290
     0
174
     0
 93
        1
 44
0.0
173
     0
291
     0
 45
0.0
1001
ACAD
1000
AcDbSavedByObjectVersion
1070
     0
  0
VISUALSTYLE
  5
30
102
{ACAD_REACTORS
330
2A
102
}
330
2A
100
AcDbVisualStyle
  2
3dWireframe
 70
     5
 71
     0
 72
     2
 73
     0
 90
        0
 40
-0.6
 41
-30.0
 62
     5
 63
     7
 74
     1
 91
        4
 64
     7
 65
   257
 75
     1
175
     1
 42
1.0
 92
        0
 66
   257
 43
1.0
 76
     1
 77
     6
 78
     2
 67
     7
 79
     5
170
     0
171
     0
290
     0
174
     0
 93
        1
 44
0.0
173
     0
291
     0
 45
0.0
1001
ACAD
1000
AcDbSavedByObjectVersion
1070
     0
  0
VISUALSTYLE
  5
32
102
{ACAD_REACTORS
330
2A
102
}
330
2A
100
AcDbVisualStyle
  2
Basic
 70
     7
 71
     1
 72
     0
 73
     1
 90
        0
 40
-0.6
 41
-30.0
 62
     5
 63
     7
 74
     0
 91
        4
 64
     7
 65
   257
 75
     1
175
     1
 42
1.0
 92
        8
 66
     7
 43
1.0
 76
     1
 77
     6
 78
     2
 67
     7
 79
     5
170
     0
171
     0
290
     0
174
     0
 93
        1
 44
0.0
173
     0
291
     1
 45
0.0
1001
ACAD
1000
AcDbSavedByObjectVersion
1070
     0
  0
VISUALSTYLE
  5
36
102
{ACAD_REACTORS
330
2A
102
}
330
2A
100
AcDbVisualStyle
  2
Brighten
 70
    12
 71
     2
 72
     2
 73
     0
 90
        0
 40
-0.6
 41
-30.0
 62
     5
 63
     7
 74
     1
 91
        4
 64
     7
 65
   257
 75
     1
175
     1
 42
1.0
 92
        8
 66
     7
 43
1.0
 76
     1
 77
     6
 78
     2
 67
     7
 79
     5
170
     0
171
     0
290
     0
174
     0
 93
        1
 44
50.0
173
     0
291
     1
 45
0.0
1001
ACAD
1000
AcDbSavedByObjectVersion
1070
     0
  0
VISUALSTYLE
  5
3A
102
{ACAD_REACTORS
330
2A
102
}
330
2A
100
AcDbVisualStyle
  2
ColorChange
 70
    16
 71
     2
 72
     2
 73
     3
 90
        0
 40
-0.6
 41
-30.0
 62
     5
 63
     8
 74
     1
 91
        4
 64
     7
 65
   257
 75
     1
175
     1
 42
1.0
 92
        8
 66
     8
 43
1.0
 76
     1
 77
     6
 78
     2
 67
     7
 79
     5
170
     0
171
     0
290
     0
174
     0
 93
        1
 44
0.0
173
     0
291
     1
 45
0.0
1001
ACAD
1000
AcDbSavedByObjectVersion
1070
     0
  0
VISUALSTYLE
  5
34
102
{ACAD_REACTORS
330
2A
102
}
330
2A
100
AcDbVisualStyle
  2
Conceptual
 70
     9
 71
     3
 72
     2
 73
     0
 90
        0
 40
-0.6
 41
-30.0
 62
     5
 63
     7
 74
     2
 91
        2
 64
     7
 65
   257
 75
     1
175
     1
 42
40.0
 92
        8
 66
     7
 43
1.0
 76
     1
 77
     6
 78
     2
 67
     7
 79
     3
170
     0
171
     0
290
     0
174
     0
 93
        1
 44
0.0
173
     0
291
     0
 45
0.0
1001
ACAD
1000
AcDbSavedByObjectVersion
1070
     0
  0
VISUALSTYLE
  5
35
102
{ACAD_REACTORS
330
2A
102
}
330
2A
100
AcDbVisualStyle
  2
Dim
 70
    11
 71
     2
 72
     2
 73
     0
 90
        0
 40
-0.6
 41
-30.0
 62
     5
 63
     7
 74
     1
 91
        4
 64
     7
 65
   257
 75
     1
175
     1
 42
1.0
 92
        8
 66
     7
 43
1.0
 76
     1
 77
     6
 78
     2
 67
     7
 79
     5
170
     0
171
     0
290
     0
174
     0
 93
        1
 44
-50.0
173
     0
291
     1
 45
0.0
1001
ACAD
1000
AcDbSavedByObjectVersion
1070
     0
  0
VISUALSTYLE
  5
39
102
{ACAD_REACTORS
330
2A
102
}
330
2A
100
AcDbVisualStyle
  2
Facepattern
 70
    15
 71
     2
 72
     2
 73
     0
 90
        0
 40
-0.6
 41
-30.0
 62
     5
 63
     7
 74
     1
 91
        4
 64
     7
 65
   257
 75
     1
175
     1
 42
1.0
 92
        8
 66
     7
 43
1.0
 76
     1
 77
     6
 78
     2
 67
     7
 79
     5
170
     0
171
     0
290
     0
174
     0
 93
        1
 44
0.0
173
     0
291
     1
 45
0.0
1001
ACAD
1000
AcDbSavedByObjectVersion
1070
     0
  0
VISUALSTYLE
  5
2B
102
{ACAD_REACTORS
330
2A
102
}
330
2A
100
AcDbVisualStyle
  2
Flat
 70
     0
 71
     2
 72
     1
 73
     1
 90
        2
 40
-0.6
 41
30.0
 62
     5
 63
     7
 74
     0
 91
        4
 64
     7
 65
   257
 75
     1
175
     1
 42
1.0
 92
        8
 66
     7
 43
1.0
 76
     1
 77
     6
 78
     2
 67
     7
 79
     5
170
     0
171
     0
290
     0
174
     0
 93
       13
 44
0.0
173
     0
291
     1
 45
0.0
1001
ACAD
1000
AcDbSavedByObjectVersion
1070
     0
  0
VISUALSTYLE
  5
2C
102
{ACAD_REACTORS
330
2A
102
}
330
2A
100
AcDbVisualStyle
  2
FlatWithEdges
 70
     1
 71
     2
 72
     1
 73
     1
 90
        2
 40
-0.6
 41
30.0
 62
     5
 63
     7
 74
     1
 91
        4
 64
     7
 65
   257
 75
     1
175
     1
 42
1.0
 92
        0
 66
   257
 43
1.0
 76
     1
 77
     6
 78
     2
 67
     7
 79
     5
170
     0
171
     0
290
     0
174
     0
 93
       13
 44
0.0
173
     0
291
     1
 45
0.0
1001
ACAD
1000
AcDbSavedByObjectVersion
1070
     0
  0
VISUALSTYLE
  5
2D
102
{ACAD_REACTORS
330
2A
102
}
330
2A
100
AcDbVisualStyle
  2
Gouraud
 70
     2
 71
     2
 72
     2
 73
     1
 90
        2
 40
-0.6
 41
30.0
 62
     5
 63
     7
 74
     0
 91
        4
 64
     7
 65
   257
 75
     1
175
     1
 42
1.0
 92
        0
 66
     7
 43
1.0
 76
     1
 77
     6
 78
     2
 67
     7
 79
     5
170
     0
171
     0
290
     0
174
     0
 93
       13
 44
0.0
173
     0
291
     1
 45
0.0
1001
ACAD
1000
AcDbSavedByObjectVersion
1070
     0
  0
VISUALSTYLE
  5
2E
102
{ACAD_REACTORS
330
2A
102
}
330
2A
100
AcDbVisualStyle
  2
GouraudWithEdges
 70
     3
 71
     2
 72
     2
 73
     1
 90
        2
 40
-0.6
 41
30.0
 62
     5
 63
     7
 74
     1
 91
        4
 64
     7
 65
   257
 75
     1
175
     1
 42
1.0
 92
        0
 66
   257
 43
1.0
 76
     1
 77
     6
 78
     2
 67
     7
 79
     5
170
     0
171
     0
290
     0
174
     0
 93
       13
 44
0.0
173
     0
291
     1
 45
0.0
1001
ACAD
1000
AcDbSavedByObjectVersion
1070
     0
  0
VISUALSTYLE
  5
38
102
{ACAD_REACTORS
330
2A
102
}
330
2A
100
AcDbVisualStyle
  2
Linepattern
 70
    14
 71
     2
 72
     2
 73
     0
 90
        0
 40
-0.6
 41
-30.0
 62
     5
 63
     7
 74
     1
 91
        4
 64
     7
 65
   257
 75
     7
175
     7
 42
1.0
 92
        8
 66
     7
 43
1.0
 76
     1
 77
     6
 78
     2
 67
     7
 79
     5
170
     0
171
     0
290
     0
174
     0
 93
        1
 44
0.0
173
     0
291
     1
 45
0.0
1001
ACAD
1000
AcDbSavedByObjectVersion
1070
     0
  0
VISUALSTYLE
  5
33
102
{ACAD_REACTORS
330
2A
102
}
330
2A
100
AcDbVisualStyle
  2
Realistic
 70
     8
 71
     2
 72
     2
 73
     0
 90
        0
 40
-0.6
 41
-30.0
 62
     5
 63
     7
 74
     1
 91
        0
 64
     7
 65
   257
 75
     1
175
     1
 42
1.0
 92
        8
 66
     8
 43
1.0
 76
     1
 77
     6
 78
     2
 67
     7
 79
     5
170
     0
171
     0
290
     0
174
     0
 93
       13
 44
0.0
173
     0
291
     0
 45
0.0
1001
ACAD
1000
AcDbSavedByObjectVersion
1070
     0
  0
VISUALSTYLE
  5
37
102
{ACAD_REACTORS
330
2A
102
}
330
2A
100
AcDbVisualStyle
  2
Thicken
 70
    13
 71
     2
 72
     2
 73
     0
 90
        0
 40
-0.6
 41
-30.0
 62
     5
 63
     7
 74
     1
 91
        4
 64
     7
 65
   257
 75
     1
175
     1
 42
1.0
 92
       12
 66
     7
 43
1.0
 76
     1
 77
     6
 78
     2
 67
     7
 79
     5
170
     0
171
     0
290
     0
174
     0
 93
        1
 44
0.0
173
     0
291
     1
 45
0.0
1001
ACAD
1000
AcDbSavedByObjectVersion
1070
     0
  0
XRECORD
  5
2A0
102
{ACAD_REACTORS
330
297
102
}
330
297
100
AcDbXrecord
 90
        0
  0
XRECORD
  5
2B6
102
{ACAD_REACTORS
330
297
102
}
330
297
100
AcDbXrecord
1000
DSTYLE
1002
{
1070
   340
340
11
1002
}
  0
XRECORD
  5
2A1
102
{ACAD_REACTORS
330
297
102
}
330
297
100
AcDbXrecord
  1
{E103BD8F-CE4D-4086-9938-CC16B07DD1F8}
  0
XRECORD
  5
29A
102
{ACAD_REACTORS
330
297
102
}
330
297
100
AcDbXrecord
  1

  0
XRECORD
  5
29F
102
{ACAD_REACTORS
330
297
102
}
330
297
100
AcDbXrecord
 90
        1
  0
XRECORD
  5
29C
102
{ACAD_REACTORS
330
297
102
}
330
297
100
AcDbXrecord
340
1A
  0
XRECORD
  5
29E
102
{ACAD_REACTORS
330
297
102
}
330
297
100
AcDbXrecord
 90
    10269
  0
XRECORD
  5
29D
102
{ACAD_REACTORS
330
297
102
}
330
297
100
AcDbXrecord
340
19
  0
XRECORD
  5
2A3
102
{ACAD_REACTORS
330
297
102
}
330
297
100
AcDbXrecord
 40
0.0
  0
XRECORD
  5
2A6
102
{ACAD_REACTORS
330
297
102
}
330
297
100
AcDbXrecord
340
0
  0
XRECORD
  5
2AC
102
{ACAD_REACTORS
330
297
102
}
330
297
100
AcDbXrecord
 10
0.0
 20
0.0
 30
0.0
  0
XRECORD
  5
2A8
102
{ACAD_REACTORS
330
297
102
}
330
297
100
AcDbXrecord
 10
0.0
 20
0.0
 30
0.0
  0
XRECORD
  5
2AB
102
{ACAD_REACTORS
330
297
102
}
330
297
100
AcDbXrecord
 10
0.0
 20
0.0
 30
0.0
  0
XRECORD
  5
2A9
102
{ACAD_REACTORS
330
297
102
}
330
297
100
AcDbXrecord
 10
0.0
 20
0.0
 30
0.0
  0
XRECORD
  5
2AA
102
{ACAD_REACTORS
330
297
102
}
330
297
100
AcDbXrecord
 10
0.0
 20
0.0
 30
0.0
  0
XRECORD
  5
2A7
102
{ACAD_REACTORS
330
297
102
}
330
297
100
AcDbXrecord
 10
0.0
 20
0.0
 30
0.0
  0
XRECORD
  5
2A4
102
{ACAD_REACTORS
330
297
102
}
330
297
100
AcDbXrecord
340
0
  0
XRECORD
  5
2A5
102
{ACAD_REACTORS
330
297
102
}
330
297
100
AcDbXrecord
 70
     0
  0
XRECORD
  5
29B
102
{ACAD_REACTORS
330
297
102
}
330
297
100
AcDbXrecord
  1

  0
XRECORD
  5
298
102
{ACAD_REACTORS
330
297
102
}
330
297
100
AcDbXrecord
 90
        1
  0
XRECORD
  5
299
102
{ACAD_REACTORS
330
297
102
}
330
297
100
AcDbXrecord
 90
       70
  0
XRECORD
  5
2AF
102
{ACAD_REACTORS
330
297
102
}
330
297
100
AcDbXrecord
340
0
  0
XRECORD
  5
2B5
102
{ACAD_REACTORS
330
297
102
}
330
297
100
AcDbXrecord
 10
0.0
 20
0.0
 30
0.0
  0
XRECORD
  5
2B1
102
{ACAD_REACTORS
330
297
102
}
330
297
100
AcDbXrecord
 10
0.0
 20
0.0
 30
0.0
  0
XRECORD
  5
2B4
102
{ACAD_REACTORS
330
297
102
}
330
297
100
AcDbXrecord
 10
0.0
 20
0.0
 30
0.0
  0
XRECORD
  5
2B2
102
{ACAD_REACTORS
330
297
102
}
330
297
100
AcDbXrecord
 10
0.0
 20
0.0
 30
0.0
  0
XRECORD
  5
2B3
102
{ACAD_REACTORS
330
297
102
}
330
297
100
AcDbXrecord
 10
0.0
 20
0.0
 30
0.0
  0
XRECORD
  5
2B0
102
{ACAD_REACTORS
330
297
102
}
330
297
100
AcDbXrecord
 10
0.0
 20
0.0
 30
0.0
  0
XRECORD
  5
2AD
102
{ACAD_REACTORS
330
297
102
}
330
297
100
AcDbXrecord
340
0
  0
XRECORD
  5
2AE
102
{ACAD_REACTORS
330
297
102
}
330
297
100
AcDbXrecord
 70
     0
  0
XRECORD
  5
2A2
102
{ACAD_REACTORS
330
297
102
}
330
297
100
AcDbXrecord
  1
{FAEB1C32-E019-11D5-929B-00C0DF256EC4}
  0
ENDSEC
  0
EOF
