  0
SECTION
  2
HEADER
  9
$ACADVER
  1
AC1014
  9
$ACADMAINTVER
 70
     9
  9
$DWGCODEPAGE
  3
ASCII
  9
$INSBASE
 10
0.0
 20
0.0
 30
0.0
  9
$EXTMIN
 10
1.000000000000000E+20
 20
1.000000000000000E+20
 30
1.000000000000000E+20
  9
$EXTMAX
 10
-1.000000000000000E+20
 20
-1.000000000000000E+20
 30
-1.000000000000000E+20
  9
$LIMMIN
 10
0.0
 20
0.0
  9
$LIMMAX
 10
12.0
 20
9.0
  9
$ORTHOMODE
 70
     0
  9
$REGENMODE
 70
     1
  9
$FILLMODE
 70
     1
  9
$QTEXTMODE
 70
     0
  9
$MIRRTEXT
 70
     1
  9
$DRAGMODE
 70
     2
  9
$LTSCALE
 40
1.0
  9
$OSMODE
 70
    37
  9
$ATTMODE
 70
     1
  9
$TEXTSIZE
 40
0.2
  9
$TRACEWID
 40
0.05
  9
$TEXTSTYLE
  7
STANDARD
  9
$CLAYER
  8
0
  9
$CELTYPE
  6
BYLAYER
  9
$CECOLOR
 62
   256
  9
$CELTSCALE
 40
1.0
  9
$DELOBJ
 70
     1
  9
$DISPSILH
 70
     0
  9
$DIMSCALE
 40
1.0
  9
$DIMASZ
 40
0.18
  9
$DIMEXO
 40
0.0625
  9
$DIMDLI
 40
0.38
  9
$DIMRND
 40
0.0
  9
$DIMDLE
 40
0.0
  9
$DIMEXE
 40
0.18
  9
$DIMTP
 40
0.0
  9
$DIMTM
 40
0.0
  9
$DIMTXT
 40
0.18
  9
$DIMCEN
 40
0.09
  9
$DIMTSZ
 40
0.0
  9
$DIMTOL
 70
     0
  9
$DIMLIM
 70
     0
  9
$DIMTIH
 70
     1
  9
$DIMTOH
 70
     1
  9
$DIMSE1
 70
     0
  9
$DIMSE2
 70
     0
  9
$DIMTAD
 70
     0
  9
$DIMZIN
 70
     0
  9
$DIMBLK
  1

  9
$DIMASO
 70
     1
  9
$DIMSHO
 70
     1
  9
$DIMPOST
  1

  9
$DIMAPOST
  1

  9
$DIMALT
 70
     0
  9
$DIMALTD
 70
     2
  9
$DIMALTF
 40
25.4
  9
$DIMLFAC
 40
1.0
  9
$DIMTOFL
 70
     0
  9
$DIMTVP
 40
0.0
  9
$DIMTIX
 70
     0
  9
$DIMSOXD
 70
     0
  9
$DIMSAH
 70
     0
  9
$DIMBLK1
  1

  9
$DIMBLK2
  1

  9
$DIMSTYLE
  2
STANDARD
  9
$DIMCLRD
 70
     0
  9
$DIMCLRE
 70
     0
  9
$DIMCLRT
 70
     0
  9
$DIMTFAC
 40
1.0
  9
$DIMGAP
 40
0.09
  9
$DIMJUST
 70
     0
  9
$DIMSD1
 70
     0
  9
$DIMSD2
 70
     0
  9
$DIMTOLJ
 70
     1
  9
$DIMTZIN
 70
     0
  9
$DIMALTZ
 70
     0
  9
$DIMALTTZ
 70
     0
  9
$DIMFIT
 70
     3
  9
$DIMUPT
 70
     0
  9
$DIMUNIT
 70
     2
  9
$DIMDEC
 70
     4
  9
$DIMTDEC
 70
     4
  9
$DIMALTU
 70
     2
  9
$DIMALTTD
 70
     2
  9
$DIMTXSTY
  7
STANDARD
  9
$DIMAUNIT
 70
     0
  9
$LUNITS
 70
     2
  9
$LUPREC
 70
     4
  9
$SKETCHINC
 40
0.1
  9
$FILLETRAD
 40
0.5
  9
$AUNITS
 70
     0
  9
$AUPREC
 70
     0
  9
$MENU
  1
.
  9
$ELEVATION
 40
0.0
  9
$PELEVATION
 40
0.0
  9
$THICKNESS
 40
0.0
  9
$LIMCHECK
 70
     0
  9
$CHAMFERA
 40
0.5
  9
$CHAMFERB
 40
0.5
  9
$CHAMFERC
 40
1.0
  9
$CHAMFERD
 40
0.0
  9
$SKPOLY
 70
     0
  9
$TDCREATE
 40
2455854.426230127
  9
$TDUPDATE
 40
2455854.426230139
  9
$TDINDWG
 40
0.0000000116
  9
$TDUSRTIMER
 40
0.0000000116
  9
$USRTIMER
 70
     1
  9
$ANGBASE
 50
0.0
  9
$ANGDIR
 70
     0
  9
$PDMODE
 70
     0
  9
$PDSIZE
 40
0.0
  9
$PLINEWID
 40
0.0
  9
$COORDS
 70
     1
  9
$SPLFRAME
 70
     0
  9
$SPLINETYPE
 70
     6
  9
$SPLINESEGS
 70
     8
  9
$ATTDIA
 70
     0
  9
$ATTREQ
 70
     1
  9
$HANDLING
 70
     1
  9
$HANDSEED
  5
80B
  9
$SURFTAB1
 70
     6
  9
$SURFTAB2
 70
     6
  9
$SURFTYPE
 70
     6
  9
$SURFU
 70
     6
  9
$SURFV
 70
     6
  9
$UCSNAME
  2

  9
$UCSORG
 10
0.0
 20
0.0
 30
0.0
  9
$UCSXDIR
 10
1.0
 20
0.0
 30
0.0
  9
$UCSYDIR
 10
0.0
 20
1.0
 30
0.0
  9
$PUCSNAME
  2

  9
$PUCSORG
 10
0.0
 20
0.0
 30
0.0
  9
$PUCSXDIR
 10
1.0
 20
0.0
 30
0.0
  9
$PUCSYDIR
 10
0.0
 20
1.0
 30
0.0
  9
$USERI1
 70
     0
  9
$USERI2
 70
     0
  9
$USERI3
 70
     0
  9
$USERI4
 70
     0
  9
$USERI5
 70
     0
  9
$USERR1
 40
0.0
  9
$USERR2
 40
0.0
  9
$USERR3
 40
0.0
  9
$USERR4
 40
0.0
  9
$USERR5
 40
0.0
  9
$WORLDVIEW
 70
     1
  9
$SHADEDGE
 70
     3
  9
$SHADEDIF
 70
    70
  9
$TILEMODE
 70
     1
  9
$MAXACTVP
 70
    64
  9
$PINSBASE
 10
0.0
 20
0.0
 30
0.0
  9
$PLIMCHECK
 70
     0
  9
$PEXTMIN
 10
1.000000000000000E+20
 20
1.000000000000000E+20
 30
1.000000000000000E+20
  9
$PEXTMAX
 10
-1.000000000000000E+20
 20
-1.000000000000000E+20
 30
-1.000000000000000E+20
  9
$PLIMMIN
 10
0.0
 20
0.0
  9
$PLIMMAX
 10
12.0
 20
9.0
  9
$UNITMODE
 70
     0
  9
$VISRETAIN
 70
     1
  9
$PLINEGEN
 70
     0
  9
$PSLTSCALE
 70
     1
  9
$TREEDEPTH
 70
  3020
  9
$PICKSTYLE
 70
     1
  9
$CMLSTYLE
  2
STANDARD
  9
$CMLJUST
 70
     0
  9
$CMLSCALE
 40
1.0
  9
$PROXYGRAPHICS
 70
     1
  9
$MEASUREMENT
 70
     0
  0
ENDSEC
  0
SECTION
  2
CLASSES
  0
CLASS
  1
ACDBDICTIONARYWDFLT
  2
AcDbDictionaryWithDefault
  3
ObjectDBX Classes
 90
        0
280
     0
281
     0
  0
CLASS
  1
VISUALSTYLE
  2
AcDbVisualStyle
  3
ObjectDBX Classes
 90
     4095
280
     0
281
     0
  0
CLASS
  1
XRECORD
  2
AcDbXrecord
  3
AutoCAD 2000
 90
        0
280
     0
281
     0
  0
CLASS
  1
LWPOLYLINE
  2
AcDbPolyline
  3
AutoCAD 2000
 90
        0
280
     0
281
     1
  0
CLASS
  1
HATCH
  2
AcDbHatch
  3
AutoCAD 2000
 90
        0
280
     0
281
     1
  0
CLASS
  1
ACDBPLACEHOLDER
  2
AcDbPlaceHolder
  3
ObjectDBX Classes
 90
        0
280
     0
281
     0
  0
CLASS
  1
LAYOUT
  2
AcDbLayout
  3
ObjectDBX Classes
 90
        0
280
     0
281
     0
  0
ENDSEC
  0
SECTION
  2
TABLES
  0
TABLE
  2
VPORT
  5
8
330
0
100
AcDbSymbolTable
 70
     1
  0
VPORT
  5
29
330
8
100
AcDbSymbolTableRecord
100
AcDbViewportTableRecord
  2
*ACTIVE
 70
     0
 10
0.0
 20
0.0
 11
1.0
 21
1.0
 12
0.0
 22
0.0
 13
0.0
 23
0.0
 14
0.5
 24
0.5
 15
0.5
 25
0.5
 16
0.0
 26
0.0
 36
1.0
 17
14.99780245206646
 27
42.57434583800264
 37
0.0
 40
190.3719886582399
 41
0.5425913654377549
 42
50.0
 43
0.0
 44
0.0
 50
0.0
 51
0.0
 71
     0
 72
   100
 73
     1
 74
     3
 75
     0
 76
     0
 77
     0
 78
     0
  0
ENDTAB
  0
TABLE
  2
LTYPE
  5
5
330
0
100
AcDbSymbolTable
 70
     5
  0
LTYPE
  5
14
330
5
100
AcDbSymbolTableRecord
100
AcDbLinetypeTableRecord
  2
BYBLOCK
 70
     0
  3

 72
    65
 73
     0
 40
0.0
  0
LTYPE
  5
15
330
5
100
AcDbSymbolTableRecord
100
AcDbLinetypeTableRecord
  2
BYLAYER
 70
     0
  3

 72
    65
 73
     0
 40
0.0
  0
LTYPE
  5
16
330
5
100
AcDbSymbolTableRecord
100
AcDbLinetypeTableRecord
  2
CONTINUOUS
 70
     0
  3
Solid line
 72
    65
 73
     0
 40
0.0
  0
LTYPE
  5
3EA
330
5
100
AcDbSymbolTableRecord
100
AcDbLinetypeTableRecord
  2
AI-LINETYPE-1
 70
     0
  3
Adobe Illustrator Linetype No. 1
 72
    65
 73
     4
 40
8.819450260381924
 49
7.055560208305538
 74
     0
 49
-0.7055560208305538
 74
     0
 49
0.3527780104152769
 74
     0
 49
-0.7055560208305538
 74
     0
  0
LTYPE
  5
3EF
330
5
100
AcDbSymbolTableRecord
100
AcDbLinetypeTableRecord
  2
AI-LINETYPE-2
 70
     0
  3
Adobe Illustrator Linetype No. 2
 72
    65
 73
     4
 40
8.819450260381924
 49
7.055560208305538
 74
     0
 49
-0.7055560208305538
 74
     0
 49
0.3527780104152769
 74
     0
 49
-0.7055560208305538
 74
     0
  0
LTYPE
  5
3F4
330
5
100
AcDbSymbolTableRecord
100
AcDbLinetypeTableRecord
  2
AI-LINETYPE-3
 70
     0
  3
Adobe Illustrator Linetype No. 3
 72
    65
 73
     4
 40
8.819450260381924
 49
7.055560208305538
 74
     0
 49
-0.7055560208305538
 74
     0
 49
0.3527780104152769
 74
     0
 49
-0.7055560208305538
 74
     0
  0
LTYPE
  5
3F9
330
5
100
AcDbSymbolTableRecord
100
AcDbLinetypeTableRecord
  2
AI-LINETYPE-4
 70
     0
  3
Adobe Illustrator Linetype No. 4
 72
    65
 73
     4
 40
8.819450260381924
 49
7.055560208305538
 74
     0
 49
-0.7055560208305538
 74
     0
 49
0.3527780104152769
 74
     0
 49
-0.7055560208305538
 74
     0
  0
ENDTAB
  0
TABLE
  2
LAYER
  5
2
330
0
100
AcDbSymbolTable
 70
     5
  0
LAYER
  5
10
330
2
100
AcDbSymbolTableRecord
100
AcDbLayerTableRecord
  2
0
 70
     0
 62
     7
  6
CONTINUOUS
  0
LAYER
  5
3B
330
2
100
AcDbSymbolTableRecord
100
AcDbLayerTableRecord
  2
GRAU_10_
 70
     0
 62
     7
  6
CONTINUOUS
  0
LAYER
  5
3C
330
2
100
AcDbSymbolTableRecord
100
AcDbLayerTableRecord
  2
STANDARDEBENE
 70
     0
 62
     7
  6
CONTINUOUS
  0
LAYER
  5
589
330
2
100
AcDbSymbolTableRecord
100
AcDbLayerTableRecord
  2
BEMA_UNG
 70
     1
 62
     7
  6
CONTINUOUS
  0
LAYER
  5
7E6
330
2
100
AcDbSymbolTableRecord
100
AcDbLayerTableRecord
  2
TEXT
 70
     1
 62
     7
  6
CONTINUOUS
  0
ENDTAB
  0
TABLE
  2
STYLE
  5
3
330
0
100
AcDbSymbolTable
 70
     1
  0
STYLE
  5
11
330
3
100
AcDbSymbolTableRecord
100
AcDbTextStyleTableRecord
  2
STANDARD
 70
     0
 40
0.0
 41
1.0
 50
0.0
 71
     0
 42
0.2
  3
txt
  4

  0
ENDTAB
  0
TABLE
  2
VIEW
  5
6
330
0
100
AcDbSymbolTable
 70
     0
  0
ENDTAB
  0
TABLE
  2
UCS
  5
7
330
0
100
AcDbSymbolTable
 70
     0
  0
ENDTAB
  0
TABLE
  2
APPID
  5
9
330
0
100
AcDbSymbolTable
 70
     1
  0
APPID
  5
12
330
9
100
AcDbSymbolTableRecord
100
AcDbRegAppTableRecord
  2
ACAD
 70
     0
  0
ENDTAB
  0
TABLE
  2
DIMSTYLE
  5
A
330
0
100
AcDbSymbolTable
 70
     1
  0
DIMSTYLE
105
27
330
A
100
AcDbSymbolTableRecord
100
AcDbDimStyleTableRecord
  2
STANDARD
 70
     0
  3

  4

  5

  6

  7

 40
1.0
 41
0.18
 42
0.0625
 43
0.38
 44
0.18
 45
0.0
 46
0.0
 47
0.0
 48
0.0
140
0.18
141
0.09
142
0.0
143
25.4
144
1.0
145
0.0
146
1.0
147
0.09
 71
     0
 72
     0
 73
     1
 74
     1
 75
     0
 76
     0
 77
     0
 78
     0
170
     0
171
     2
172
     0
173
     0
174
     0
175
     0
176
     0
177
     0
178
     0
270
     2
271
     4
272
     4
273
     2
274
     2
340
11
275
     0
280
     0
281
     0
282
     0
283
     1
284
     0
285
     0
286
     0
287
     3
288
     0
  0
ENDTAB
  0
TABLE
  2
BLOCK_RECORD
  5
1
330
0
100
AcDbSymbolTable
 70
     1
  0
BLOCK_RECORD
  5
1F
330
1
100
AcDbSymbolTableRecord
100
AcDbBlockTableRecord
  2
*MODEL_SPACE
  0
BLOCK_RECORD
  5
1B
330
1
100
AcDbSymbolTableRecord
100
AcDbBlockTableRecord
  2
*PAPER_SPACE
  0
ENDTAB
  0
ENDSEC
  0
SECTION
  2
BLOCKS
  0
BLOCK
  5
20
330
1F
100
AcDbEntity
  8
0
100
AcDbBlockBegin
  2
*MODEL_SPACE
 70
     0
 71
     0
 10
0.0
 20
0.0
 30
0.0
  3
*MODEL_SPACE
  1

  0
ENDBLK
  5
21
330
1F
100
AcDbEntity
  8
0
100
AcDbBlockEnd
  0
BLOCK
  5
1C
330
1B
100
AcDbEntity
 67
     1
  8
0
100
AcDbBlockBegin
  2
*PAPER_SPACE
 70
     0
 71
     0
 10
0.0
 20
0.0
 30
0.0
  3
*PAPER_SPACE
  1

  0
ENDBLK
  5
1D
330
1B
100
AcDbEntity
 67
     1
  8
0
100
AcDbBlockEnd
  0
ENDSEC
  0
SECTION
  2
ENTITIES
  0
POLYLINE
  5
3D
330
1F
100
AcDbEntity
  8
STANDARDEBENE
 62
     7
100
AcDb2dPolyline
 66
     1
 10
0.0
 20
0.0
 30
0.0
  0
VERTEX
  5
3E
330
3D
100
AcDbEntity
  8
STANDARDEBENE
 62
     7
100
AcDbVertex
100
AcDb2dVertex
 10
-1.727199760954093
 20
0.0942234236802522
 30
0.0
  0
VERTEX
  5
3F
330
3D
100
AcDbEntity
  8
STANDARDEBENE
 62
     7
100
AcDbVertex
100
AcDb2dVertex
 10
-1.813671714678931
 20
0.2444296859273818
 30
0.0
  0
SEQEND
  5
40
330
3D
100
AcDbEntity
  8
STANDARDEBENE
  0
POLYLINE
  5
41
330
1F
100
AcDbEntity
  8
STANDARDEBENE
 62
     7
100
AcDb2dPolyline
 66
     1
 10
0.0
 20
0.0
 30
0.0
  0
VERTEX
  5
42
330
41
100
AcDbEntity
  8
STANDARDEBENE
 62
     7
100
AcDbVertex
100
AcDb2dVertex
 10
-1.987132386792302
 20
0.5439809359821506
 30
0.0
  0
VERTEX
  5
43
330
41
100
AcDbEntity
  8
STANDARDEBENE
 62
     7
100
AcDbVertex
100
AcDb2dVertex
 10
-2.07360434051714
 20
0.6938426884534841
 30
0.0
  0
SEQEND
  5
44
330
41
100
AcDbEntity
  8
STANDARDEBENE
  0
POLYLINE
  5
45
330
1F
100
AcDbEntity
  8
STANDARDEBENE
 62
     7
100
AcDb2dPolyline
 66
     1
 10
0.0
 20
0.0
 30
0.0
  0
VERTEX
  5
46
330
45
100
AcDbEntity
  8
STANDARDEBENE
 62
     7
100
AcDbVertex
100
AcDb2dVertex
 10
-18.07349960293071
 20
0.6938426884534841
 30
0.0
  0
VERTEX
  5
47
330
45
100
AcDbEntity
  8
STANDARDEBENE
 62
     7
100
AcDbVertex
100
AcDb2dVertex
 10
-18.16066057620714
 20
0.5439809359821506
 30
0.0
  0
SEQEND
  5
48
330
45
100
AcDbEntity
  8
STANDARDEBENE
  0
POLYLINE
  5
49
330
1F
100
AcDbEntity
  8
STANDARDEBENE
 62
     7
100
AcDb2dPolyline
 66
     1
 10
0.0
 20
0.0
 30
0.0
  0
VERTEX
  5
4A
330
49
100
AcDbEntity
  8
STANDARDEBENE
 62
     7
100
AcDbVertex
100
AcDb2dVertex
 10
-18.33343222876892
 20
0.2444296859273818
 30
0.0
  0
VERTEX
  5
4B
330
49
100
AcDbEntity
  8
STANDARDEBENE
 62
     7
100
AcDbVertex
100
AcDb2dVertex
 10
-18.41990418249376
 20
0.0942234236802522
 30
0.0
  0
SEQEND
  5
4C
330
49
100
AcDbEntity
  8
STANDARDEBENE
  0
POLYLINE
  5
4D
330
1F
100
AcDbEntity
  8
STANDARDEBENE
 62
     7
100
AcDb2dPolyline
 66
     1
 10
0.0
 20
0.0
 30
0.0
  0
VERTEX
  5
4E
330
4D
100
AcDbEntity
  8
STANDARDEBENE
 62
     7
100
AcDbVertex
100
AcDb2dVertex
 10
-18.27383203755618
 20
9.867965763017562
 30
0.0
  0
VERTEX
  5
4F
330
4D
100
AcDbEntity
  8
STANDARDEBENE
 62
     7
100
AcDbVertex
100
AcDb2dVertex
 10
-18.27383203755618
 20
9.62456960641757
 30
0.0
  0
SEQEND
  5
50
330
4D
100
AcDbEntity
  8
STANDARDEBENE
  0
POLYLINE
  5
51
330
1F
100
AcDbEntity
  8
STANDARDEBENE
 62
     7
100
AcDb2dPolyline
 66
     1
 10
0.0
 20
0.0
 30
0.0
  0
VERTEX
  5
52
330
51
100
AcDbEntity
  8
STANDARDEBENE
 62
     7
100
AcDbVertex
100
AcDb2dVertex
 10
-18.27383203755618
 20
9.136916018778091
 30
0.0
  0
VERTEX
  5
53
330
51
100
AcDbEntity
  8
STANDARDEBENE
 62
     7
100
AcDbVertex
100
AcDb2dVertex
 10
-18.27383203755618
 20
8.893519862178099
 30
0.0
  0
SEQEND
  5
54
330
51
100
AcDbEntity
  8
STANDARDEBENE
  0
POLYLINE
  5
55
330
1F
100
AcDbEntity
  8
STANDARDEBENE
 62
     7
100
AcDb2dPolyline
 66
     1
 10
0.0
 20
0.0
 30
0.0
  0
VERTEX
  5
56
330
55
100
AcDbEntity
  8
STANDARDEBENE
 62
     7
100
AcDbVertex
100
AcDb2dVertex
 10
-1.873960925443261
 20
8.893519862178099
 30
0.0
  0
VERTEX
  5
57
330
55
100
AcDbEntity
  8
STANDARDEBENE
 62
     7
100
AcDbVertex
100
AcDb2dVertex
 10
-1.873960925443261
 20
9.136916018778091
 30
0.0
  0
SEQEND
  5
58
330
55
100
AcDbEntity
  8
STANDARDEBENE
  0
POLYLINE
  5
59
330
1F
100
AcDbEntity
  8
STANDARDEBENE
 62
     7
100
AcDb2dPolyline
 66
     1
 10
0.0
 20
0.0
 30
0.0
  0
VERTEX
  5
5A
330
59
100
AcDbEntity
  8
STANDARDEBENE
 62
     7
100
AcDbVertex
100
AcDb2dVertex
 10
-1.873960925443261
 20
9.62456960641757
 30
0.0
  0
VERTEX
  5
5B
330
59
100
AcDbEntity
  8
STANDARDEBENE
 62
     7
100
AcDbVertex
100
AcDb2dVertex
 10
-1.873960925443261
 20
9.867965763017562
 30
0.0
  0
SEQEND
  5
5C
330
59
100
AcDbEntity
  8
STANDARDEBENE
  0
POLYLINE
  5
5D
330
1F
100
AcDbEntity
  8
STANDARDEBENE
 62
     7
100
AcDb2dPolyline
 66
     1
 10
0.0
 20
0.0
 30
0.0
  0
VERTEX
  5
5E
330
5D
100
AcDbEntity
  8
STANDARDEBENE
 62
     7
100
AcDbVertex
100
AcDb2dVertex
 10
-18.25970713674854
 20
8.789822419663452
 30
0.0
  0
VERTEX
  5
5F
330
5D
100
AcDbEntity
  8
STANDARDEBENE
 62
     7
100
AcDbVertex
100
AcDb2dVertex
 10
-18.21319831701606
 20
8.616189492662183
 30
0.0
  0
SEQEND
  5
60
330
5D
100
AcDbEntity
  8
STANDARDEBENE
  0
POLYLINE
  5
61
330
1F
100
AcDbEntity
  8
STANDARDEBENE
 62
     7
100
AcDb2dPolyline
 66
     1
 10
0.0
 20
0.0
 30
0.0
  0
VERTEX
  5
62
330
61
100
AcDbEntity
  8
STANDARDEBENE
 62
     7
100
AcDbVertex
100
AcDb2dVertex
 10
-18.12052518732689
 20
8.26840687399595
 30
0.0
  0
VERTEX
  5
63
330
61
100
AcDbEntity
  8
STANDARDEBENE
 62
     7
100
AcDbVertex
100
AcDb2dVertex
 10
-18.07349960293071
 20
8.094429437218885
 30
0.0
  0
SEQEND
  5
64
330
61
100
AcDbEntity
  8
STANDARDEBENE
  0
POLYLINE
  5
65
330
1F
100
AcDbEntity
  8
STANDARDEBENE
 62
     7
100
AcDb2dPolyline
 66
     1
 10
0.0
 20
0.0
 30
0.0
  0
VERTEX
  5
66
330
65
100
AcDbEntity
  8
STANDARDEBENE
 62
     7
100
AcDbVertex
100
AcDb2dVertex
 10
-2.07360434051714
 20
8.094429437218885
 30
0.0
  0
VERTEX
  5
67
330
65
100
AcDbEntity
  8
STANDARDEBENE
 62
     7
100
AcDbVertex
100
AcDb2dVertex
 10
-2.027440030560454
 20
8.26840687399595
 30
0.0
  0
SEQEND
  5
68
330
65
100
AcDbEntity
  8
STANDARDEBENE
  0
POLYLINE
  5
69
330
1F
100
AcDbEntity
  8
STANDARDEBENE
 62
     7
100
AcDb2dPolyline
 66
     1
 10
0.0
 20
0.0
 30
0.0
  0
VERTEX
  5
6A
330
69
100
AcDbEntity
  8
STANDARDEBENE
 62
     7
100
AcDbVertex
100
AcDb2dVertex
 10
-1.933905626431794
 20
8.616189492662183
 30
0.0
  0
VERTEX
  5
6B
330
69
100
AcDbEntity
  8
STANDARDEBENE
 62
     7
100
AcDbVertex
100
AcDb2dVertex
 10
-1.887396806699311
 20
8.789822419663452
 30
0.0
  0
SEQEND
  5
6C
330
69
100
AcDbEntity
  8
STANDARDEBENE
  0
POLYLINE
  5
6D
330
1F
100
AcDbEntity
  8
STANDARDEBENE
 62
     7
100
AcDb2dPolyline
 66
     1
 10
0.0
 20
0.0
 30
0.0
  0
VERTEX
  5
6E
330
6D
100
AcDbEntity
  8
STANDARDEBENE
 62
     7
100
AcDbVertex
100
AcDb2dVertex
 10
-2.067575419440707
 20
10.21040848015895
 30
0.0
  0
VERTEX
  5
6F
330
6D
100
AcDbEntity
  8
STANDARDEBENE
 62
     7
100
AcDbVertex
100
AcDb2dVertex
 10
-2.694583211389735
 20
10.58764668465576
 30
0.0
  0
SEQEND
  5
70
330
6D
100
AcDbEntity
  8
STANDARDEBENE
  0
POLYLINE
  5
71
330
1F
100
AcDbEntity
  8
STANDARDEBENE
 62
     7
100
AcDb2dPolyline
 66
     1
 10
0.0
 20
0.0
 30
0.0
  0
VERTEX
  5
72
330
71
100
AcDbEntity
  8
STANDARDEBENE
 62
     7
100
AcDbVertex
100
AcDb2dVertex
 10
-3.947220756184604
 20
11.34005603499459
 30
0.0
  0
VERTEX
  5
73
330
71
100
AcDbEntity
  8
STANDARDEBENE
 62
     7
100
AcDbVertex
100
AcDb2dVertex
 10
-4.573367273694141
 20
11.71643296505191
 30
0.0
  0
SEQEND
  5
74
330
71
100
AcDbEntity
  8
STANDARDEBENE
  0
POLYLINE
  5
75
330
1F
100
AcDbEntity
  8
STANDARDEBENE
 62
     7
100
AcDb2dPolyline
 66
     1
 10
0.0
 20
0.0
 30
0.0
  0
VERTEX
  5
76
330
75
100
AcDbEntity
  8
STANDARDEBENE
 62
     7
100
AcDbVertex
100
AcDb2dVertex
 10
-15.57373666975371
 20
11.71643296505191
 30
0.0
  0
VERTEX
  5
77
330
75
100
AcDbEntity
  8
STANDARDEBENE
 62
     7
100
AcDbVertex
100
AcDb2dVertex
 10
-16.19988318726325
 20
11.34005603499459
 30
0.0
  0
SEQEND
  5
78
330
75
100
AcDbEntity
  8
STANDARDEBENE
  0
POLYLINE
  5
79
330
1F
100
AcDbEntity
  8
STANDARDEBENE
 62
     7
100
AcDb2dPolyline
 66
     1
 10
0.0
 20
0.0
 30
0.0
  0
VERTEX
  5
7A
330
79
100
AcDbEntity
  8
STANDARDEBENE
 62
     7
100
AcDbVertex
100
AcDb2dVertex
 10
-17.45338200649761
 20
10.58764668465576
 30
0.0
  0
VERTEX
  5
7B
330
79
100
AcDbEntity
  8
STANDARDEBENE
 62
     7
100
AcDbVertex
100
AcDb2dVertex
 10
-18.07952852400715
 20
10.21040848015895
 30
0.0
  0
SEQEND
  5
7C
330
79
100
AcDbEntity
  8
STANDARDEBENE
  0
POLYLINE
  5
7D
330
1F
100
AcDbEntity
  8
STANDARDEBENE
 62
     7
100
AcDb2dPolyline
 66
     1
 10
0.0
 20
0.0
 30
0.0
  0
VERTEX
  5
7E
330
7D
100
AcDbEntity
  8
STANDARDEBENE
 62
     7
100
AcDbVertex
100
AcDb2dVertex
 10
-18.07349960293071
 20
8.094429437218885
 30
0.0
  0
VERTEX
  5
7F
330
7D
100
AcDbEntity
  8
STANDARDEBENE
 62
     7
100
AcDbVertex
100
AcDb2dVertex
 10
-18.07349960293071
 20
7.631580553436732
 30
0.0
  0
SEQEND
  5
80
330
7D
100
AcDbEntity
  8
STANDARDEBENE
  0
POLYLINE
  5
81
330
1F
100
AcDbEntity
  8
STANDARDEBENE
 62
     7
100
AcDb2dPolyline
 66
     1
 10
0.0
 20
0.0
 30
0.0
  0
VERTEX
  5
82
330
81
100
AcDbEntity
  8
STANDARDEBENE
 62
     7
100
AcDbVertex
100
AcDb2dVertex
 10
-18.07349960293071
 20
6.707088570087713
 30
0.0
  0
VERTEX
  5
83
330
81
100
AcDbEntity
  8
STANDARDEBENE
 62
     7
100
AcDbVertex
100
AcDb2dVertex
 10
-18.07349960293071
 20
5.782079822075
 30
0.0
  0
SEQEND
  5
84
330
81
100
AcDbEntity
  8
STANDARDEBENE
  0
POLYLINE
  5
85
330
1F
100
AcDbEntity
  8
STANDARDEBENE
 62
     7
100
AcDb2dPolyline
 66
     1
 10
0.0
 20
0.0
 30
0.0
  0
VERTEX
  5
86
330
85
100
AcDbEntity
  8
STANDARDEBENE
 62
     7
100
AcDbVertex
100
AcDb2dVertex
 10
-18.07349960293071
 20
4.856726564286491
 30
0.0
  0
VERTEX
  5
87
330
85
100
AcDbEntity
  8
STANDARDEBENE
 62
     7
100
AcDbVertex
100
AcDb2dVertex
 10
-18.07349960293071
 20
3.931717816273777
 30
0.0
  0
SEQEND
  5
88
330
85
100
AcDbEntity
  8
STANDARDEBENE
  0
POLYLINE
  5
89
330
1F
100
AcDbEntity
  8
STANDARDEBENE
 62
     7
100
AcDb2dPolyline
 66
     1
 10
0.0
 20
0.0
 30
0.0
  0
VERTEX
  5
8A
330
89
100
AcDbEntity
  8
STANDARDEBENE
 62
     7
100
AcDbVertex
100
AcDb2dVertex
 10
-18.07349960293071
 20
3.006364558485267
 30
0.0
  0
VERTEX
  5
8B
330
89
100
AcDbEntity
  8
STANDARDEBENE
 62
     7
100
AcDbVertex
100
AcDb2dVertex
 10
-18.07349960293071
 20
2.081355810472554
 30
0.0
  0
SEQEND
  5
8C
330
89
100
AcDbEntity
  8
STANDARDEBENE
  0
POLYLINE
  5
8D
330
1F
100
AcDbEntity
  8
STANDARDEBENE
 62
     7
100
AcDb2dPolyline
 66
     1
 10
0.0
 20
0.0
 30
0.0
  0
VERTEX
  5
8E
330
8D
100
AcDbEntity
  8
STANDARDEBENE
 62
     7
100
AcDbVertex
100
AcDb2dVertex
 10
-18.07349960293071
 20
1.156691572235637
 30
0.0
  0
VERTEX
  5
8F
330
8D
100
AcDbEntity
  8
STANDARDEBENE
 62
     7
100
AcDbVertex
100
AcDb2dVertex
 10
-18.07349960293071
 20
0.6938426884534841
 30
0.0
  0
SEQEND
  5
90
330
8D
100
AcDbEntity
  8
STANDARDEBENE
  0
POLYLINE
  5
91
330
1F
100
AcDbEntity
  8
STANDARDEBENE
 62
     7
100
AcDb2dPolyline
 66
     1
 10
0.0
 20
0.0
 30
0.0
  0
VERTEX
  5
92
330
91
100
AcDbEntity
  8
STANDARDEBENE
 62
     7
100
AcDbVertex
100
AcDb2dVertex
 10
-2.07360434051714
 20
0.6938426884534841
 30
0.0
  0
VERTEX
  5
93
330
91
100
AcDbEntity
  8
STANDARDEBENE
 62
     7
100
AcDbVertex
100
AcDb2dVertex
 10
-2.07360434051714
 20
1.156691572235637
 30
0.0
  0
SEQEND
  5
94
330
91
100
AcDbEntity
  8
STANDARDEBENE
  0
POLYLINE
  5
95
330
1F
100
AcDbEntity
  8
STANDARDEBENE
 62
     7
100
AcDb2dPolyline
 66
     1
 10
0.0
 20
0.0
 30
0.0
  0
VERTEX
  5
96
330
95
100
AcDbEntity
  8
STANDARDEBENE
 62
     7
100
AcDbVertex
100
AcDb2dVertex
 10
-2.07360434051714
 20
2.081355810472554
 30
0.0
  0
VERTEX
  5
97
330
95
100
AcDbEntity
  8
STANDARDEBENE
 62
     7
100
AcDbVertex
100
AcDb2dVertex
 10
-2.07360434051714
 20
3.006364558485267
 30
0.0
  0
SEQEND
  5
98
330
95
100
AcDbEntity
  8
STANDARDEBENE
  0
POLYLINE
  5
99
330
1F
100
AcDbEntity
  8
STANDARDEBENE
 62
     7
100
AcDb2dPolyline
 66
     1
 10
0.0
 20
0.0
 30
0.0
  0
VERTEX
  5
9A
330
99
100
AcDbEntity
  8
STANDARDEBENE
 62
     7
100
AcDbVertex
100
AcDb2dVertex
 10
-2.07360434051714
 20
3.931717816273777
 30
0.0
  0
VERTEX
  5
9B
330
99
100
AcDbEntity
  8
STANDARDEBENE
 62
     7
100
AcDbVertex
100
AcDb2dVertex
 10
-2.07360434051714
 20
4.856726564286491
 30
0.0
  0
SEQEND
  5
9C
330
99
100
AcDbEntity
  8
STANDARDEBENE
  0
POLYLINE
  5
9D
330
1F
100
AcDbEntity
  8
STANDARDEBENE
 62
     7
100
AcDb2dPolyline
 66
     1
 10
0.0
 20
0.0
 30
0.0
  0
VERTEX
  5
9E
330
9D
100
AcDbEntity
  8
STANDARDEBENE
 62
     7
100
AcDbVertex
100
AcDb2dVertex
 10
-2.07360434051714
 20
5.782079822075
 30
0.0
  0
VERTEX
  5
9F
330
9D
100
AcDbEntity
  8
STANDARDEBENE
 62
     7
100
AcDbVertex
100
AcDb2dVertex
 10
-2.07360434051714
 20
6.707088570087713
 30
0.0
  0
SEQEND
  5
A0
330
9D
100
AcDbEntity
  8
STANDARDEBENE
  0
POLYLINE
  5
A1
330
1F
100
AcDbEntity
  8
STANDARDEBENE
 62
     7
100
AcDb2dPolyline
 66
     1
 10
0.0
 20
0.0
 30
0.0
  0
VERTEX
  5
A2
330
A1
100
AcDbEntity
  8
STANDARDEBENE
 62
     7
100
AcDbVertex
100
AcDb2dVertex
 10
-2.07360434051714
 20
7.631580553436732
 30
0.0
  0
VERTEX
  5
A3
330
A1
100
AcDbEntity
  8
STANDARDEBENE
 62
     7
100
AcDbVertex
100
AcDb2dVertex
 10
-2.07360434051714
 20
8.094429437218885
 30
0.0
  0
SEQEND
  5
A4
330
A1
100
AcDbEntity
  8
STANDARDEBENE
  0
POLYLINE
  5
A5
330
1F
100
AcDbEntity
  8
STANDARDEBENE
 62
     7
100
AcDb2dPolyline
 66
     1
 10
0.0
 20
0.0
 30
0.0
  0
VERTEX
  5
A6
330
A5
100
AcDbEntity
  8
STANDARDEBENE
 62
     7
100
AcDbVertex
100
AcDb2dVertex
 10
-15.57373666975371
 20
30.09413470001063
 30
0.0
  0
VERTEX
  5
A7
330
A5
100
AcDbEntity
  8
STANDARDEBENE
 62
     7
100
AcDbVertex
100
AcDb2dVertex
 10
-15.57373666975371
 20
29.58357121228071
 30
0.0
  0
SEQEND
  5
A8
330
A5
100
AcDbEntity
  8
STANDARDEBENE
  0
POLYLINE
  5
A9
330
1F
100
AcDbEntity
  8
STANDARDEBENE
 62
     7
100
AcDb2dPolyline
 66
     1
 10
0.0
 20
0.0
 30
0.0
  0
VERTEX
  5
AA
330
A9
100
AcDbEntity
  8
STANDARDEBENE
 62
     7
100
AcDbVertex
100
AcDb2dVertex
 10
-15.57373666975371
 20
28.56261649170877
 30
0.0
  0
VERTEX
  5
AB
330
A9
100
AcDbEntity
  8
STANDARDEBENE
 62
     7
100
AcDbVertex
100
AcDb2dVertex
 10
-15.57373666975371
 20
27.54166177113682
 30
0.0
  0
SEQEND
  5
AC
330
A9
100
AcDbEntity
  8
STANDARDEBENE
  0
POLYLINE
  5
AD
330
1F
100
AcDbEntity
  8
STANDARDEBENE
 62
     7
100
AcDb2dPolyline
 66
     1
 10
0.0
 20
0.0
 30
0.0
  0
VERTEX
  5
AE
330
AD
100
AcDbEntity
  8
STANDARDEBENE
 62
     7
100
AcDbVertex
100
AcDb2dVertex
 10
-15.57373666975371
 20
26.52122381522857
 30
0.0
  0
VERTEX
  5
AF
330
AD
100
AcDbEntity
  8
STANDARDEBENE
 62
     7
100
AcDbVertex
100
AcDb2dVertex
 10
-15.57373666975371
 20
25.49958007510503
 30
0.0
  0
SEQEND
  5
B0
330
AD
100
AcDbEntity
  8
STANDARDEBENE
  0
POLYLINE
  5
B1
330
1F
100
AcDbEntity
  8
STANDARDEBENE
 62
     7
100
AcDb2dPolyline
 66
     1
 10
0.0
 20
0.0
 30
0.0
  0
VERTEX
  5
B2
330
B1
100
AcDbEntity
  8
STANDARDEBENE
 62
     7
100
AcDbVertex
100
AcDb2dVertex
 10
-15.57373666975371
 20
24.47862535453308
 30
0.0
  0
VERTEX
  5
B3
330
B1
100
AcDbEntity
  8
STANDARDEBENE
 62
     7
100
AcDbVertex
100
AcDb2dVertex
 10
-15.57373666975371
 20
23.45767063396114
 30
0.0
  0
SEQEND
  5
B4
330
B1
100
AcDbEntity
  8
STANDARDEBENE
  0
POLYLINE
  5
B5
330
1F
100
AcDbEntity
  8
STANDARDEBENE
 62
     7
100
AcDb2dPolyline
 66
     1
 10
0.0
 20
0.0
 30
0.0
  0
VERTEX
  5
B6
330
B5
100
AcDbEntity
  8
STANDARDEBENE
 62
     7
100
AcDbVertex
100
AcDb2dVertex
 10
-15.57373666975371
 20
22.43706042316499
 30
0.0
  0
VERTEX
  5
B7
330
B5
100
AcDbEntity
  8
STANDARDEBENE
 62
     7
100
AcDbVertex
100
AcDb2dVertex
 10
-15.57373666975371
 20
21.41610570259304
 30
0.0
  0
SEQEND
  5
B8
330
B5
100
AcDbEntity
  8
STANDARDEBENE
  0
POLYLINE
  5
B9
330
1F
100
AcDbEntity
  8
STANDARDEBENE
 62
     7
100
AcDb2dPolyline
 66
     1
 10
0.0
 20
0.0
 30
0.0
  0
VERTEX
  5
BA
330
B9
100
AcDbEntity
  8
STANDARDEBENE
 62
     7
100
AcDbVertex
100
AcDb2dVertex
 10
-15.57373666975371
 20
20.39515098202109
 30
0.0
  0
VERTEX
  5
BB
330
B9
100
AcDbEntity
  8
STANDARDEBENE
 62
     7
100
AcDbVertex
100
AcDb2dVertex
 10
-15.57373666975371
 20
19.37419626144915
 30
0.0
  0
SEQEND
  5
BC
330
B9
100
AcDbEntity
  8
STANDARDEBENE
  0
POLYLINE
  5
BD
330
1F
100
AcDbEntity
  8
STANDARDEBENE
 62
     7
100
AcDb2dPolyline
 66
     1
 10
0.0
 20
0.0
 30
0.0
  0
VERTEX
  5
BE
330
BD
100
AcDbEntity
  8
STANDARDEBENE
 62
     7
100
AcDbVertex
100
AcDb2dVertex
 10
-15.57373666975371
 20
18.3532415408772
 30
0.0
  0
VERTEX
  5
BF
330
BD
100
AcDbEntity
  8
STANDARDEBENE
 62
     7
100
AcDbVertex
100
AcDb2dVertex
 10
-15.57373666975371
 20
17.33194231052946
 30
0.0
  0
SEQEND
  5
C0
330
BD
100
AcDbEntity
  8
STANDARDEBENE
  0
POLYLINE
  5
C1
330
1F
100
AcDbEntity
  8
STANDARDEBENE
 62
     7
100
AcDb2dPolyline
 66
     1
 10
0.0
 20
0.0
 30
0.0
  0
VERTEX
  5
C2
330
C1
100
AcDbEntity
  8
STANDARDEBENE
 62
     7
100
AcDbVertex
100
AcDb2dVertex
 10
-15.57373666975371
 20
16.31098758995751
 30
0.0
  0
VERTEX
  5
C3
330
C1
100
AcDbEntity
  8
STANDARDEBENE
 62
     7
100
AcDbVertex
100
AcDb2dVertex
 10
-15.57373666975371
 20
15.29003286938557
 30
0.0
  0
SEQEND
  5
C4
330
C1
100
AcDbEntity
  8
STANDARDEBENE
  0
POLYLINE
  5
C5
330
1F
100
AcDbEntity
  8
STANDARDEBENE
 62
     7
100
AcDb2dPolyline
 66
     1
 10
0.0
 20
0.0
 30
0.0
  0
VERTEX
  5
C6
330
C5
100
AcDbEntity
  8
STANDARDEBENE
 62
     7
100
AcDbVertex
100
AcDb2dVertex
 10
-15.57373666975371
 20
14.26925040370152
 30
0.0
  0
VERTEX
  5
C7
330
C5
100
AcDbEntity
  8
STANDARDEBENE
 62
     7
100
AcDbVertex
100
AcDb2dVertex
 10
-15.57373666975371
 20
13.24829568312957
 30
0.0
  0
SEQEND
  5
C8
330
C5
100
AcDbEntity
  8
STANDARDEBENE
  0
POLYLINE
  5
C9
330
1F
100
AcDbEntity
  8
STANDARDEBENE
 62
     7
100
AcDb2dPolyline
 66
     1
 10
0.0
 20
0.0
 30
0.0
  0
VERTEX
  5
CA
330
C9
100
AcDbEntity
  8
STANDARDEBENE
 62
     7
100
AcDbVertex
100
AcDb2dVertex
 10
-15.57373666975371
 20
12.22699645278183
 30
0.0
  0
VERTEX
  5
CB
330
C9
100
AcDbEntity
  8
STANDARDEBENE
 62
     7
100
AcDbVertex
100
AcDb2dVertex
 10
-15.57373666975371
 20
11.71643296505191
 30
0.0
  0
SEQEND
  5
CC
330
C9
100
AcDbEntity
  8
STANDARDEBENE
  0
POLYLINE
  5
CD
330
1F
100
AcDbEntity
  8
STANDARDEBENE
 62
     7
100
AcDb2dPolyline
 66
     1
 10
0.0
 20
0.0
 30
0.0
  0
VERTEX
  5
CE
330
CD
100
AcDbEntity
  8
STANDARDEBENE
 62
     7
100
AcDbVertex
100
AcDb2dVertex
 10
-4.573367273694141
 20
11.71643296505191
 30
0.0
  0
VERTEX
  5
CF
330
CD
100
AcDbEntity
  8
STANDARDEBENE
 62
     7
100
AcDbVertex
100
AcDb2dVertex
 10
-4.573367273694141
 20
12.22699645278183
 30
0.0
  0
SEQEND
  5
D0
330
CD
100
AcDbEntity
  8
STANDARDEBENE
  0
POLYLINE
  5
D1
330
1F
100
AcDbEntity
  8
STANDARDEBENE
 62
     7
100
AcDb2dPolyline
 66
     1
 10
0.0
 20
0.0
 30
0.0
  0
VERTEX
  5
D2
330
D1
100
AcDbEntity
  8
STANDARDEBENE
 62
     7
100
AcDbVertex
100
AcDb2dVertex
 10
-4.573367273694141
 20
13.24829568312957
 30
0.0
  0
VERTEX
  5
D3
330
D1
100
AcDbEntity
  8
STANDARDEBENE
 62
     7
100
AcDbVertex
100
AcDb2dVertex
 10
-4.573367273694141
 20
14.26925040370152
 30
0.0
  0
SEQEND
  5
D4
330
D1
100
AcDbEntity
  8
STANDARDEBENE
  0
POLYLINE
  5
D5
330
1F
100
AcDbEntity
  8
STANDARDEBENE
 62
     7
100
AcDb2dPolyline
 66
     1
 10
0.0
 20
0.0
 30
0.0
  0
VERTEX
  5
D6
330
D5
100
AcDbEntity
  8
STANDARDEBENE
 62
     7
100
AcDbVertex
100
AcDb2dVertex
 10
-4.573367273694141
 20
15.29003286938557
 30
0.0
  0
VERTEX
  5
D7
330
D5
100
AcDbEntity
  8
STANDARDEBENE
 62
     7
100
AcDbVertex
100
AcDb2dVertex
 10
-4.573367273694141
 20
16.31098758995751
 30
0.0
  0
SEQEND
  5
D8
330
D5
100
AcDbEntity
  8
STANDARDEBENE
  0
POLYLINE
  5
D9
330
1F
100
AcDbEntity
  8
STANDARDEBENE
 62
     7
100
AcDb2dPolyline
 66
     1
 10
0.0
 20
0.0
 30
0.0
  0
VERTEX
  5
DA
330
D9
100
AcDbEntity
  8
STANDARDEBENE
 62
     7
100
AcDbVertex
100
AcDb2dVertex
 10
-4.573367273694141
 20
17.33194231052946
 30
0.0
  0
VERTEX
  5
DB
330
D9
100
AcDbEntity
  8
STANDARDEBENE
 62
     7
100
AcDbVertex
100
AcDb2dVertex
 10
-4.573367273694141
 20
18.3532415408772
 30
0.0
  0
SEQEND
  5
DC
330
D9
100
AcDbEntity
  8
STANDARDEBENE
  0
POLYLINE
  5
DD
330
1F
100
AcDbEntity
  8
STANDARDEBENE
 62
     7
100
AcDb2dPolyline
 66
     1
 10
0.0
 20
0.0
 30
0.0
  0
VERTEX
  5
DE
330
DD
100
AcDbEntity
  8
STANDARDEBENE
 62
     7
100
AcDbVertex
100
AcDb2dVertex
 10
-4.573367273694141
 20
19.37419626144915
 30
0.0
  0
VERTEX
  5
DF
330
DD
100
AcDbEntity
  8
STANDARDEBENE
 62
     7
100
AcDbVertex
100
AcDb2dVertex
 10
-4.573367273694141
 20
20.39515098202109
 30
0.0
  0
SEQEND
  5
E0
330
DD
100
AcDbEntity
  8
STANDARDEBENE
  0
POLYLINE
  5
E1
330
1F
100
AcDbEntity
  8
STANDARDEBENE
 62
     7
100
AcDb2dPolyline
 66
     1
 10
0.0
 20
0.0
 30
0.0
  0
VERTEX
  5
E2
330
E1
100
AcDbEntity
  8
STANDARDEBENE
 62
     7
100
AcDbVertex
100
AcDb2dVertex
 10
-4.573367273694141
 20
21.41610570259304
 30
0.0
  0
VERTEX
  5
E3
330
E1
100
AcDbEntity
  8
STANDARDEBENE
 62
     7
100
AcDbVertex
100
AcDb2dVertex
 10
-4.573367273694141
 20
22.43706042316499
 30
0.0
  0
SEQEND
  5
E4
330
E1
100
AcDbEntity
  8
STANDARDEBENE
  0
POLYLINE
  5
E5
330
1F
100
AcDbEntity
  8
STANDARDEBENE
 62
     7
100
AcDb2dPolyline
 66
     1
 10
0.0
 20
0.0
 30
0.0
  0
VERTEX
  5
E6
330
E5
100
AcDbEntity
  8
STANDARDEBENE
 62
     7
100
AcDbVertex
100
AcDb2dVertex
 10
-4.573367273694141
 20
23.45767063396114
 30
0.0
  0
VERTEX
  5
E7
330
E5
100
AcDbEntity
  8
STANDARDEBENE
 62
     7
100
AcDbVertex
100
AcDb2dVertex
 10
-4.573367273694141
 20
24.47862535453308
 30
0.0
  0
SEQEND
  5
E8
330
E5
100
AcDbEntity
  8
STANDARDEBENE
  0
POLYLINE
  5
E9
330
1F
100
AcDbEntity
  8
STANDARDEBENE
 62
     7
100
AcDb2dPolyline
 66
     1
 10
0.0
 20
0.0
 30
0.0
  0
VERTEX
  5
EA
330
E9
100
AcDbEntity
  8
STANDARDEBENE
 62
     7
100
AcDbVertex
100
AcDb2dVertex
 10
-4.573367273694141
 20
25.49958007510503
 30
0.0
  0
VERTEX
  5
EB
330
E9
100
AcDbEntity
  8
STANDARDEBENE
 62
     7
100
AcDbVertex
100
AcDb2dVertex
 10
-4.573367273694141
 20
26.52122381522857
 30
0.0
  0
SEQEND
  5
EC
330
E9
100
AcDbEntity
  8
STANDARDEBENE
  0
POLYLINE
  5
ED
330
1F
100
AcDbEntity
  8
STANDARDEBENE
 62
     7
100
AcDb2dPolyline
 66
     1
 10
0.0
 20
0.0
 30
0.0
  0
VERTEX
  5
EE
330
ED
100
AcDbEntity
  8
STANDARDEBENE
 62
     7
100
AcDbVertex
100
AcDb2dVertex
 10
-4.573367273694141
 20
27.54166177113682
 30
0.0
  0
VERTEX
  5
EF
330
ED
100
AcDbEntity
  8
STANDARDEBENE
 62
     7
100
AcDbVertex
100
AcDb2dVertex
 10
-4.573367273694141
 20
28.56261649170877
 30
0.0
  0
SEQEND
  5
F0
330
ED
100
AcDbEntity
  8
STANDARDEBENE
  0
POLYLINE
  5
F1
330
1F
100
AcDbEntity
  8
STANDARDEBENE
 62
     7
100
AcDb2dPolyline
 66
     1
 10
0.0
 20
0.0
 30
0.0
  0
VERTEX
  5
F2
330
F1
100
AcDbEntity
  8
STANDARDEBENE
 62
     7
100
AcDbVertex
100
AcDb2dVertex
 10
-4.573367273694141
 20
29.58357121228071
 30
0.0
  0
VERTEX
  5
F3
330
F1
100
AcDbEntity
  8
STANDARDEBENE
 62
     7
100
AcDbVertex
100
AcDb2dVertex
 10
-4.573367273694141
 20
30.09413470001063
 30
0.0
  0
VERTEX
  5
F4
330
F1
100
AcDbEntity
  8
STANDARDEBENE
 62
     7
100
AcDbVertex
100
AcDb2dVertex
 10
-4.698596577196049
 20
30.16958234091
 30
0.0
  0
SEQEND
  5
F5
330
F1
100
AcDbEntity
  8
STANDARDEBENE
  0
POLYLINE
  5
F6
330
1F
100
AcDbEntity
  8
STANDARDEBENE
 62
     7
100
AcDb2dPolyline
 66
     1
 10
0.0
 20
0.0
 30
0.0
  0
VERTEX
  5
F7
330
F6
100
AcDbEntity
  8
STANDARDEBENE
 62
     7
100
AcDbVertex
100
AcDb2dVertex
 10
-4.948366164648271
 20
30.31944409338133
 30
0.0
  0
VERTEX
  5
F8
330
F6
100
AcDbEntity
  8
STANDARDEBENE
 62
     7
100
AcDbVertex
100
AcDb2dVertex
 10
-5.073939977925975
 20
30.39506398916859
 30
0.0
  0
SEQEND
  5
F9
330
F6
100
AcDbEntity
  8
STANDARDEBENE
  0
POLYLINE
  5
FA
330
1F
100
AcDbEntity
  8
STANDARDEBENE
 62
     7
100
AcDb2dPolyline
 66
     1
 10
0.0
 20
0.0
 30
0.0
  0
VERTEX
  5
FB
330
FA
100
AcDbEntity
  8
STANDARDEBENE
 62
     7
100
AcDbVertex
100
AcDb2dVertex
 10
-15.07385298507347
 20
30.39506398916859
 30
0.0
  0
VERTEX
  5
FC
330
FA
100
AcDbEntity
  8
STANDARDEBENE
 62
     7
100
AcDbVertex
100
AcDb2dVertex
 10
-15.19873777879958
 20
30.31944409338133
 30
0.0
  0
SEQEND
  5
FD
330
FA
100
AcDbEntity
  8
STANDARDEBENE
  0
POLYLINE
  5
FE
330
1F
100
AcDbEntity
  8
STANDARDEBENE
 62
     7
100
AcDb2dPolyline
 66
     1
 10
0.0
 20
0.0
 30
0.0
  0
VERTEX
  5
FF
330
FE
100
AcDbEntity
  8
STANDARDEBENE
 62
     7
100
AcDbVertex
100
AcDb2dVertex
 10
-15.4485073662518
 20
30.16958234091
 30
0.0
  0
VERTEX
  5
100
330
FE
100
AcDbEntity
  8
STANDARDEBENE
 62
     7
100
AcDbVertex
100
AcDb2dVertex
 10
-15.57373666975371
 20
30.09413470001063
 30
0.0
  0
SEQEND
  5
101
330
FE
100
AcDbEntity
  8
STANDARDEBENE
  0
POLYLINE
  5
102
330
1F
100
AcDbEntity
  8
STANDARDEBENE
 62
     7
100
AcDb2dPolyline
 66
     1
 10
0.0
 20
0.0
 30
0.0
  0
VERTEX
  5
103
330
102
100
AcDbEntity
  8
STANDARDEBENE
 62
     7
100
AcDbVertex
100
AcDb2dVertex
 10
-15.07385298507347
 20
120.0944714211094
 30
0.0
  0
VERTEX
  5
104
330
102
100
AcDbEntity
  8
STANDARDEBENE
 62
     7
100
AcDbVertex
100
AcDb2dVertex
 10
-15.07385298507347
 20
119.5959657755324
 30
0.0
  0
SEQEND
  5
105
330
102
100
AcDbEntity
  8
STANDARDEBENE
  0
POLYLINE
  5
106
330
1F
100
AcDbEntity
  8
STANDARDEBENE
 62
     7
100
AcDb2dPolyline
 66
     1
 10
0.0
 20
0.0
 30
0.0
  0
VERTEX
  5
107
330
106
100
AcDbEntity
  8
STANDARDEBENE
 62
     7
100
AcDbVertex
100
AcDb2dVertex
 10
-15.07385298507347
 20
118.5990406118222
 30
0.0
  0
VERTEX
  5
108
330
106
100
AcDbEntity
  8
STANDARDEBENE
 62
     7
100
AcDbVertex
100
AcDb2dVertex
 10
-15.07385298507347
 20
117.6028044676636
 30
0.0
  0
SEQEND
  5
109
330
106
100
AcDbEntity
  8
STANDARDEBENE
  0
POLYLINE
  5
10A
330
1F
100
AcDbEntity
  8
STANDARDEBENE
 62
     7
100
AcDb2dPolyline
 66
     1
 10
0.0
 20
0.0
 30
0.0
  0
VERTEX
  5
10B
330
10A
100
AcDbEntity
  8
STANDARDEBENE
 62
     7
100
AcDbVertex
100
AcDb2dVertex
 10
-15.07385298507347
 20
116.6062238137293
 30
0.0
  0
VERTEX
  5
10C
330
10A
100
AcDbEntity
  8
STANDARDEBENE
 62
     7
100
AcDbVertex
100
AcDb2dVertex
 10
-15.07385298507347
 20
115.6092125225752
 30
0.0
  0
SEQEND
  5
10D
330
10A
100
AcDbEntity
  8
STANDARDEBENE
  0
POLYLINE
  5
10E
330
1F
100
AcDbEntity
  8
STANDARDEBENE
 62
     7
100
AcDb2dPolyline
 66
     1
 10
0.0
 20
0.0
 30
0.0
  0
VERTEX
  5
10F
330
10E
100
AcDbEntity
  8
STANDARDEBENE
 62
     7
100
AcDbVertex
100
AcDb2dVertex
 10
-15.07385298507347
 20
114.6129763784166
 30
0.0
  0
VERTEX
  5
110
330
10E
100
AcDbEntity
  8
STANDARDEBENE
 62
     7
100
AcDbVertex
100
AcDb2dVertex
 10
-15.07385298507347
 20
113.6160512147064
 30
0.0
  0
SEQEND
  5
111
330
10E
100
AcDbEntity
  8
STANDARDEBENE
  0
POLYLINE
  5
112
330
1F
100
AcDbEntity
  8
STANDARDEBENE
 62
     7
100
AcDb2dPolyline
 66
     1
 10
0.0
 20
0.0
 30
0.0
  0
VERTEX
  5
113
330
112
100
AcDbEntity
  8
STANDARDEBENE
 62
     7
100
AcDbVertex
100
AcDb2dVertex
 10
-15.07385298507347
 20
112.6191260509963
 30
0.0
  0
VERTEX
  5
114
330
112
100
AcDbEntity
  8
STANDARDEBENE
 62
     7
100
AcDbVertex
100
AcDb2dVertex
 10
-15.07385298507347
 20
111.6228899068377
 30
0.0
  0
SEQEND
  5
115
330
112
100
AcDbEntity
  8
STANDARDEBENE
  0
POLYLINE
  5
116
330
1F
100
AcDbEntity
  8
STANDARDEBENE
 62
     7
100
AcDb2dPolyline
 66
     1
 10
0.0
 20
0.0
 30
0.0
  0
VERTEX
  5
117
330
116
100
AcDbEntity
  8
STANDARDEBENE
 62
     7
100
AcDbVertex
100
AcDb2dVertex
 10
-15.07385298507347
 20
110.6258786156836
 30
0.0
  0
VERTEX
  5
118
330
116
100
AcDbEntity
  8
STANDARDEBENE
 62
     7
100
AcDbVertex
100
AcDb2dVertex
 10
-15.07385298507347
 20
109.629642471525
 30
0.0
  0
SEQEND
  5
119
330
116
100
AcDbEntity
  8
STANDARDEBENE
  0
POLYLINE
  5
11A
330
1F
100
AcDbEntity
  8
STANDARDEBENE
 62
     7
100
AcDb2dPolyline
 66
     1
 10
0.0
 20
0.0
 30
0.0
  0
VERTEX
  5
11B
330
11A
100
AcDbEntity
  8
STANDARDEBENE
 62
     7
100
AcDbVertex
100
AcDb2dVertex
 10
-15.07385298507347
 20
108.6327173078148
 30
0.0
  0
VERTEX
  5
11C
330
11A
100
AcDbEntity
  8
STANDARDEBENE
 62
     7
100
AcDbVertex
100
AcDb2dVertex
 10
-15.07385298507347
 20
107.6357060166607
 30
0.0
  0
SEQEND
  5
11D
330
11A
100
AcDbEntity
  8
STANDARDEBENE
  0
POLYLINE
  5
11E
330
1F
100
AcDbEntity
  8
STANDARDEBENE
 62
     7
100
AcDb2dPolyline
 66
     1
 10
0.0
 20
0.0
 30
0.0
  0
VERTEX
  5
11F
330
11E
100
AcDbEntity
  8
STANDARDEBENE
 62
     7
100
AcDbVertex
100
AcDb2dVertex
 10
-15.07385298507347
 20
106.6395559999461
 30
0.0
  0
VERTEX
  5
120
330
11E
100
AcDbEntity
  8
STANDARDEBENE
 62
     7
100
AcDbVertex
100
AcDb2dVertex
 10
-15.07385298507347
 20
105.6428892185678
 30
0.0
  0
SEQEND
  5
121
330
11E
100
AcDbEntity
  8
STANDARDEBENE
  0
POLYLINE
  5
122
330
1F
100
AcDbEntity
  8
STANDARDEBENE
 62
     7
100
AcDb2dPolyline
 66
     1
 10
0.0
 20
0.0
 30
0.0
  0
VERTEX
  5
123
330
122
100
AcDbEntity
  8
STANDARDEBENE
 62
     7
100
AcDbVertex
100
AcDb2dVertex
 10
-15.07385298507347
 20
104.6459640548576
 30
0.0
  0
VERTEX
  5
124
330
122
100
AcDbEntity
  8
STANDARDEBENE
 62
     7
100
AcDbVertex
100
AcDb2dVertex
 10
-15.07385298507347
 20
103.6497279106991
 30
0.0
  0
SEQEND
  5
125
330
122
100
AcDbEntity
  8
STANDARDEBENE
  0
POLYLINE
  5
126
330
1F
100
AcDbEntity
  8
STANDARDEBENE
 62
     7
100
AcDb2dPolyline
 66
     1
 10
0.0
 20
0.0
 30
0.0
  0
VERTEX
  5
127
330
126
100
AcDbEntity
  8
STANDARDEBENE
 62
     7
100
AcDbVertex
100
AcDb2dVertex
 10
-15.07385298507347
 20
102.6527166195449
 30
0.0
  0
VERTEX
  5
128
330
126
100
AcDbEntity
  8
STANDARDEBENE
 62
     7
100
AcDbVertex
100
AcDb2dVertex
 10
-15.07385298507347
 20
101.6557914558348
 30
0.0
  0
SEQEND
  5
129
330
126
100
AcDbEntity
  8
STANDARDEBENE
  0
POLYLINE
  5
12A
330
1F
100
AcDbEntity
  8
STANDARDEBENE
 62
     7
100
AcDb2dPolyline
 66
     1
 10
0.0
 20
0.0
 30
0.0
  0
VERTEX
  5
12B
330
12A
100
AcDbEntity
  8
STANDARDEBENE
 62
     7
100
AcDbVertex
100
AcDb2dVertex
 10
-15.07385298507347
 20
100.6595553116762
 30
0.0
  0
VERTEX
  5
12C
330
12A
100
AcDbEntity
  8
STANDARDEBENE
 62
     7
100
AcDbVertex
100
AcDb2dVertex
 10
-15.07385298507347
 20
99.66263014796604
 30
0.0
  0
SEQEND
  5
12D
330
12A
100
AcDbEntity
  8
STANDARDEBENE
  0
POLYLINE
  5
12E
330
1F
100
AcDbEntity
  8
STANDARDEBENE
 62
     7
100
AcDb2dPolyline
 66
     1
 10
0.0
 20
0.0
 30
0.0
  0
VERTEX
  5
12F
330
12E
100
AcDbEntity
  8
STANDARDEBENE
 62
     7
100
AcDbVertex
100
AcDb2dVertex
 10
-15.07385298507347
 20
98.66639400380747
 30
0.0
  0
VERTEX
  5
130
330
12E
100
AcDbEntity
  8
STANDARDEBENE
 62
     7
100
AcDbVertex
100
AcDb2dVertex
 10
-15.07385298507347
 20
97.66938271265336
 30
0.0
  0
SEQEND
  5
131
330
12E
100
AcDbEntity
  8
STANDARDEBENE
  0
POLYLINE
  5
132
330
1F
100
AcDbEntity
  8
STANDARDEBENE
 62
     7
100
AcDb2dPolyline
 66
     1
 10
0.0
 20
0.0
 30
0.0
  0
VERTEX
  5
133
330
132
100
AcDbEntity
  8
STANDARDEBENE
 62
     7
100
AcDbVertex
100
AcDb2dVertex
 10
-15.07385298507347
 20
96.6724575489432
 30
0.0
  0
VERTEX
  5
134
330
132
100
AcDbEntity
  8
STANDARDEBENE
 62
     7
100
AcDbVertex
100
AcDb2dVertex
 10
-15.07385298507347
 20
95.67622140478463
 30
0.0
  0
SEQEND
  5
135
330
132
100
AcDbEntity
  8
STANDARDEBENE
  0
POLYLINE
  5
136
330
1F
100
AcDbEntity
  8
STANDARDEBENE
 62
     7
100
AcDb2dPolyline
 66
     1
 10
0.0
 20
0.0
 30
0.0
  0
VERTEX
  5
137
330
136
100
AcDbEntity
  8
STANDARDEBENE
 62
     7
100
AcDbVertex
100
AcDb2dVertex
 10
-15.07385298507347
 20
94.67964075085025
 30
0.0
  0
VERTEX
  5
138
330
136
100
AcDbEntity
  8
STANDARDEBENE
 62
     7
100
AcDbVertex
100
AcDb2dVertex
 10
-15.07385298507347
 20
93.6827155871401
 30
0.0
  0
SEQEND
  5
139
330
136
100
AcDbEntity
  8
STANDARDEBENE
  0
POLYLINE
  5
13A
330
1F
100
AcDbEntity
  8
STANDARDEBENE
 62
     7
100
AcDb2dPolyline
 66
     1
 10
0.0
 20
0.0
 30
0.0
  0
VERTEX
  5
13B
330
13A
100
AcDbEntity
  8
STANDARDEBENE
 62
     7
100
AcDbVertex
100
AcDb2dVertex
 10
-15.07385298507347
 20
92.68639331553757
 30
0.0
  0
VERTEX
  5
13C
330
13A
100
AcDbEntity
  8
STANDARDEBENE
 62
     7
100
AcDbVertex
100
AcDb2dVertex
 10
-15.07385298507347
 20
91.68946815182741
 30
0.0
  0
SEQEND
  5
13D
330
13A
100
AcDbEntity
  8
STANDARDEBENE
  0
POLYLINE
  5
13E
330
1F
100
AcDbEntity
  8
STANDARDEBENE
 62
     7
100
AcDb2dPolyline
 66
     1
 10
0.0
 20
0.0
 30
0.0
  0
VERTEX
  5
13F
330
13E
100
AcDbEntity
  8
STANDARDEBENE
 62
     7
100
AcDbVertex
100
AcDb2dVertex
 10
-15.07385298507347
 20
90.69254298811724
 30
0.0
  0
VERTEX
  5
140
330
13E
100
AcDbEntity
  8
STANDARDEBENE
 62
     7
100
AcDbVertex
100
AcDb2dVertex
 10
-15.07385298507347
 20
89.69622071651473
 30
0.0
  0
SEQEND
  5
141
330
13E
100
AcDbEntity
  8
STANDARDEBENE
  0
POLYLINE
  5
142
330
1F
100
AcDbEntity
  8
STANDARDEBENE
 62
     7
100
AcDb2dPolyline
 66
     1
 10
0.0
 20
0.0
 30
0.0
  0
VERTEX
  5
143
330
142
100
AcDbEntity
  8
STANDARDEBENE
 62
     7
100
AcDbVertex
100
AcDb2dVertex
 10
-15.07385298507347
 20
88.69938168024851
 30
0.0
  0
VERTEX
  5
144
330
142
100
AcDbEntity
  8
STANDARDEBENE
 62
     7
100
AcDbVertex
100
AcDb2dVertex
 10
-15.07385298507347
 20
87.70305940864598
 30
0.0
  0
SEQEND
  5
145
330
142
100
AcDbEntity
  8
STANDARDEBENE
  0
POLYLINE
  5
146
330
1F
100
AcDbEntity
  8
STANDARDEBENE
 62
     7
100
AcDb2dPolyline
 66
     1
 10
0.0
 20
0.0
 30
0.0
  0
VERTEX
  5
147
330
146
100
AcDbEntity
  8
STANDARDEBENE
 62
     7
100
AcDbVertex
100
AcDb2dVertex
 10
-15.07385298507347
 20
86.70613424493582
 30
0.0
  0
VERTEX
  5
148
330
146
100
AcDbEntity
  8
STANDARDEBENE
 62
     7
100
AcDbVertex
100
AcDb2dVertex
 10
-15.07385298507347
 20
85.70920908122567
 30
0.0
  0
SEQEND
  5
149
330
146
100
AcDbEntity
  8
STANDARDEBENE
  0
POLYLINE
  5
14A
330
1F
100
AcDbEntity
  8
STANDARDEBENE
 62
     7
100
AcDb2dPolyline
 66
     1
 10
0.0
 20
0.0
 30
0.0
  0
VERTEX
  5
14B
330
14A
100
AcDbEntity
  8
STANDARDEBENE
 62
     7
100
AcDbVertex
100
AcDb2dVertex
 10
-15.07385298507347
 20
84.7129729370671
 30
0.0
  0
VERTEX
  5
14C
330
14A
100
AcDbEntity
  8
STANDARDEBENE
 62
     7
100
AcDbVertex
100
AcDb2dVertex
 10
-15.07385298507347
 20
83.71639228313272
 30
0.0
  0
SEQEND
  5
14D
330
14A
100
AcDbEntity
  8
STANDARDEBENE
  0
POLYLINE
  5
14E
330
1F
100
AcDbEntity
  8
STANDARDEBENE
 62
     7
100
AcDb2dPolyline
 66
     1
 10
0.0
 20
0.0
 30
0.0
  0
VERTEX
  5
14F
330
14E
100
AcDbEntity
  8
STANDARDEBENE
 62
     7
100
AcDbVertex
100
AcDb2dVertex
 10
-15.07385298507347
 20
82.71938099197861
 30
0.0
  0
VERTEX
  5
150
330
14E
100
AcDbEntity
  8
STANDARDEBENE
 62
     7
100
AcDbVertex
100
AcDb2dVertex
 10
-15.07385298507347
 20
81.72314484782004
 30
0.0
  0
SEQEND
  5
151
330
14E
100
AcDbEntity
  8
STANDARDEBENE
  0
POLYLINE
  5
152
330
1F
100
AcDbEntity
  8
STANDARDEBENE
 62
     7
100
AcDb2dPolyline
 66
     1
 10
0.0
 20
0.0
 30
0.0
  0
VERTEX
  5
153
330
152
100
AcDbEntity
  8
STANDARDEBENE
 62
     7
100
AcDbVertex
100
AcDb2dVertex
 10
-15.07385298507347
 20
80.72621968410988
 30
0.0
  0
VERTEX
  5
154
330
152
100
AcDbEntity
  8
STANDARDEBENE
 62
     7
100
AcDbVertex
100
AcDb2dVertex
 10
-15.07385298507347
 20
79.72920839295577
 30
0.0
  0
SEQEND
  5
155
330
152
100
AcDbEntity
  8
STANDARDEBENE
  0
POLYLINE
  5
156
330
1F
100
AcDbEntity
  8
STANDARDEBENE
 62
     7
100
AcDb2dPolyline
 66
     1
 10
0.0
 20
0.0
 30
0.0
  0
VERTEX
  5
157
330
156
100
AcDbEntity
  8
STANDARDEBENE
 62
     7
100
AcDbVertex
100
AcDb2dVertex
 10
-15.07385298507347
 20
78.73305837624115
 30
0.0
  0
VERTEX
  5
158
330
156
100
AcDbEntity
  8
STANDARDEBENE
 62
     7
100
AcDbVertex
100
AcDb2dVertex
 10
-15.07385298507347
 20
77.73604708508702
 30
0.0
  0
SEQEND
  5
159
330
156
100
AcDbEntity
  8
STANDARDEBENE
  0
POLYLINE
  5
15A
330
1F
100
AcDbEntity
  8
STANDARDEBENE
 62
     7
100
AcDb2dPolyline
 66
     1
 10
0.0
 20
0.0
 30
0.0
  0
VERTEX
  5
15B
330
15A
100
AcDbEntity
  8
STANDARDEBENE
 62
     7
100
AcDbVertex
100
AcDb2dVertex
 10
-15.07385298507347
 20
76.7398970683724
 30
0.0
  0
VERTEX
  5
15C
330
15A
100
AcDbEntity
  8
STANDARDEBENE
 62
     7
100
AcDbVertex
100
AcDb2dVertex
 10
-15.07385298507347
 20
75.74288577721829
 30
0.0
  0
SEQEND
  5
15D
330
15A
100
AcDbEntity
  8
STANDARDEBENE
  0
POLYLINE
  5
15E
330
1F
100
AcDbEntity
  8
STANDARDEBENE
 62
     7
100
AcDb2dPolyline
 66
     1
 10
0.0
 20
0.0
 30
0.0
  0
VERTEX
  5
15F
330
15E
100
AcDbEntity
  8
STANDARDEBENE
 62
     7
100
AcDbVertex
100
AcDb2dVertex
 10
-15.07385298507347
 20
74.74587448606418
 30
0.0
  0
VERTEX
  5
160
330
15E
100
AcDbEntity
  8
STANDARDEBENE
 62
     7
100
AcDbVertex
100
AcDb2dVertex
 10
-15.07385298507347
 20
73.74937995957376
 30
0.0
  0
SEQEND
  5
161
330
15E
100
AcDbEntity
  8
STANDARDEBENE
  0
POLYLINE
  5
162
330
1F
100
AcDbEntity
  8
STANDARDEBENE
 62
     7
100
AcDb2dPolyline
 66
     1
 10
0.0
 20
0.0
 30
0.0
  0
VERTEX
  5
163
330
162
100
AcDbEntity
  8
STANDARDEBENE
 62
     7
100
AcDbVertex
100
AcDb2dVertex
 10
-15.07385298507347
 20
72.75305768797125
 30
0.0
  0
VERTEX
  5
164
330
162
100
AcDbEntity
  8
STANDARDEBENE
 62
     7
100
AcDbVertex
100
AcDb2dVertex
 10
-15.07385298507347
 20
71.75604639681713
 30
0.0
  0
SEQEND
  5
165
330
162
100
AcDbEntity
  8
STANDARDEBENE
  0
POLYLINE
  5
166
330
1F
100
AcDbEntity
  8
STANDARDEBENE
 62
     7
100
AcDb2dPolyline
 66
     1
 10
0.0
 20
0.0
 30
0.0
  0
VERTEX
  5
167
330
166
100
AcDbEntity
  8
STANDARDEBENE
 62
     7
100
AcDbVertex
100
AcDb2dVertex
 10
-15.07385298507347
 20
70.75920736055092
 30
0.0
  0
VERTEX
  5
168
330
166
100
AcDbEntity
  8
STANDARDEBENE
 62
     7
100
AcDbVertex
100
AcDb2dVertex
 10
-15.07385298507347
 20
69.7628850889484
 30
0.0
  0
SEQEND
  5
169
330
166
100
AcDbEntity
  8
STANDARDEBENE
  0
POLYLINE
  5
16A
330
1F
100
AcDbEntity
  8
STANDARDEBENE
 62
     7
100
AcDb2dPolyline
 66
     1
 10
0.0
 20
0.0
 30
0.0
  0
VERTEX
  5
16B
330
16A
100
AcDbEntity
  8
STANDARDEBENE
 62
     7
100
AcDbVertex
100
AcDb2dVertex
 10
-15.07385298507347
 20
68.76587379779428
 30
0.0
  0
VERTEX
  5
16C
330
16A
100
AcDbEntity
  8
STANDARDEBENE
 62
     7
100
AcDbVertex
100
AcDb2dVertex
 10
-15.07385298507347
 20
67.76972378107966
 30
0.0
  0
SEQEND
  5
16D
330
16A
100
AcDbEntity
  8
STANDARDEBENE
  0
POLYLINE
  5
16E
330
1F
100
AcDbEntity
  8
STANDARDEBENE
 62
     7
100
AcDb2dPolyline
 66
     1
 10
0.0
 20
0.0
 30
0.0
  0
VERTEX
  5
16F
330
16E
100
AcDbEntity
  8
STANDARDEBENE
 62
     7
100
AcDbVertex
100
AcDb2dVertex
 10
-15.07385298507347
 20
66.77271248992555
 30
0.0
  0
VERTEX
  5
170
330
16E
100
AcDbEntity
  8
STANDARDEBENE
 62
     7
100
AcDbVertex
100
AcDb2dVertex
 10
-15.07385298507347
 20
65.77621796343513
 30
0.0
  0
SEQEND
  5
171
330
16E
100
AcDbEntity
  8
STANDARDEBENE
  0
POLYLINE
  5
172
330
1F
100
AcDbEntity
  8
STANDARDEBENE
 62
     7
100
AcDb2dPolyline
 66
     1
 10
0.0
 20
0.0
 30
0.0
  0
VERTEX
  5
173
330
172
100
AcDbEntity
  8
STANDARDEBENE
 62
     7
100
AcDbVertex
100
AcDb2dVertex
 10
-15.07385298507347
 20
64.7795511820568
 30
0.0
  0
VERTEX
  5
174
330
172
100
AcDbEntity
  8
STANDARDEBENE
 62
     7
100
AcDbVertex
100
AcDb2dVertex
 10
-15.07385298507347
 20
63.7825398909027
 30
0.0
  0
SEQEND
  5
175
330
172
100
AcDbEntity
  8
STANDARDEBENE
  0
POLYLINE
  5
176
330
1F
100
AcDbEntity
  8
STANDARDEBENE
 62
     7
100
AcDb2dPolyline
 66
     1
 10
0.0
 20
0.0
 30
0.0
  0
VERTEX
  5
177
330
176
100
AcDbEntity
  8
STANDARDEBENE
 62
     7
100
AcDbVertex
100
AcDb2dVertex
 10
-15.07385298507347
 20
62.78604536441228
 30
0.0
  0
VERTEX
  5
178
330
176
100
AcDbEntity
  8
STANDARDEBENE
 62
     7
100
AcDbVertex
100
AcDb2dVertex
 10
-15.07385298507347
 20
61.78972309280976
 30
0.0
  0
SEQEND
  5
179
330
176
100
AcDbEntity
  8
STANDARDEBENE
  0
POLYLINE
  5
17A
330
1F
100
AcDbEntity
  8
STANDARDEBENE
 62
     7
100
AcDb2dPolyline
 66
     1
 10
0.0
 20
0.0
 30
0.0
  0
VERTEX
  5
17B
330
17A
100
AcDbEntity
  8
STANDARDEBENE
 62
     7
100
AcDbVertex
100
AcDb2dVertex
 10
-15.07385298507347
 20
60.79288405654355
 30
0.0
  0
VERTEX
  5
17C
330
17A
100
AcDbEntity
  8
STANDARDEBENE
 62
     7
100
AcDbVertex
100
AcDb2dVertex
 10
-15.07385298507347
 20
59.79587276538943
 30
0.0
  0
SEQEND
  5
17D
330
17A
100
AcDbEntity
  8
STANDARDEBENE
  0
POLYLINE
  5
17E
330
1F
100
AcDbEntity
  8
STANDARDEBENE
 62
     7
100
AcDb2dPolyline
 66
     1
 10
0.0
 20
0.0
 30
0.0
  0
VERTEX
  5
17F
330
17E
100
AcDbEntity
  8
STANDARDEBENE
 62
     7
100
AcDbVertex
100
AcDb2dVertex
 10
-15.07385298507347
 20
58.79955049378692
 30
0.0
  0
VERTEX
  5
180
330
17E
100
AcDbEntity
  8
STANDARDEBENE
 62
     7
100
AcDbVertex
100
AcDb2dVertex
 10
-15.07385298507347
 20
57.8027114575207
 30
0.0
  0
SEQEND
  5
181
330
17E
100
AcDbEntity
  8
STANDARDEBENE
  0
POLYLINE
  5
182
330
1F
100
AcDbEntity
  8
STANDARDEBENE
 62
     7
100
AcDb2dPolyline
 66
     1
 10
0.0
 20
0.0
 30
0.0
  0
VERTEX
  5
183
330
182
100
AcDbEntity
  8
STANDARDEBENE
 62
     7
100
AcDbVertex
100
AcDb2dVertex
 10
-15.07385298507347
 20
56.80638918591818
 30
0.0
  0
VERTEX
  5
184
330
182
100
AcDbEntity
  8
STANDARDEBENE
 62
     7
100
AcDbVertex
100
AcDb2dVertex
 10
-15.07385298507347
 20
55.80955014965196
 30
0.0
  0
SEQEND
  5
185
330
182
100
AcDbEntity
  8
STANDARDEBENE
  0
POLYLINE
  5
186
330
1F
100
AcDbEntity
  8
STANDARDEBENE
 62
     7
100
AcDb2dPolyline
 66
     1
 10
0.0
 20
0.0
 30
0.0
  0
VERTEX
  5
187
330
186
100
AcDbEntity
  8
STANDARDEBENE
 62
     7
100
AcDbVertex
100
AcDb2dVertex
 10
-15.07385298507347
 20
54.81322787804945
 30
0.0
  0
VERTEX
  5
188
330
186
100
AcDbEntity
  8
STANDARDEBENE
 62
     7
100
AcDbVertex
100
AcDb2dVertex
 10
-15.07385298507347
 20
53.81587207711954
 30
0.0
  0
SEQEND
  5
189
330
186
100
AcDbEntity
  8
STANDARDEBENE
  0
POLYLINE
  5
18A
330
1F
100
AcDbEntity
  8
STANDARDEBENE
 62
     7
100
AcDb2dPolyline
 66
     1
 10
0.0
 20
0.0
 30
0.0
  0
VERTEX
  5
18B
330
18A
100
AcDbEntity
  8
STANDARDEBENE
 62
     7
100
AcDbVertex
100
AcDb2dVertex
 10
-15.07385298507347
 20
52.81937755062912
 30
0.0
  0
VERTEX
  5
18C
330
18A
100
AcDbEntity
  8
STANDARDEBENE
 62
     7
100
AcDbVertex
100
AcDb2dVertex
 10
-15.07385298507347
 20
51.8230552790266
 30
0.0
  0
SEQEND
  5
18D
330
18A
100
AcDbEntity
  8
STANDARDEBENE
  0
POLYLINE
  5
18E
330
1F
100
AcDbEntity
  8
STANDARDEBENE
 62
     7
100
AcDb2dPolyline
 66
     1
 10
0.0
 20
0.0
 30
0.0
  0
VERTEX
  5
18F
330
18E
100
AcDbEntity
  8
STANDARDEBENE
 62
     7
100
AcDbVertex
100
AcDb2dVertex
 10
-15.07385298507347
 20
50.82656075253618
 30
0.0
  0
VERTEX
  5
190
330
18E
100
AcDbEntity
  8
STANDARDEBENE
 62
     7
100
AcDbVertex
100
AcDb2dVertex
 10
-15.07385298507347
 20
49.82989397115787
 30
0.0
  0
SEQEND
  5
191
330
18E
100
AcDbEntity
  8
STANDARDEBENE
  0
POLYLINE
  5
192
330
1F
100
AcDbEntity
  8
STANDARDEBENE
 62
     7
100
AcDb2dPolyline
 66
     1
 10
0.0
 20
0.0
 30
0.0
  0
VERTEX
  5
193
330
192
100
AcDbEntity
  8
STANDARDEBENE
 62
     7
100
AcDbVertex
100
AcDb2dVertex
 10
-15.07385298507347
 20
48.83288268000375
 30
0.0
  0
VERTEX
  5
194
330
192
100
AcDbEntity
  8
STANDARDEBENE
 62
     7
100
AcDbVertex
100
AcDb2dVertex
 10
-15.07385298507347
 20
47.83638815351333
 30
0.0
  0
SEQEND
  5
195
330
192
100
AcDbEntity
  8
STANDARDEBENE
  0
POLYLINE
  5
196
330
1F
100
AcDbEntity
  8
STANDARDEBENE
 62
     7
100
AcDb2dPolyline
 66
     1
 10
0.0
 20
0.0
 30
0.0
  0
VERTEX
  5
197
330
196
100
AcDbEntity
  8
STANDARDEBENE
 62
     7
100
AcDbVertex
100
AcDb2dVertex
 10
-15.07385298507347
 20
46.83972137213502
 30
0.0
  0
VERTEX
  5
198
330
196
100
AcDbEntity
  8
STANDARDEBENE
 62
     7
100
AcDbVertex
100
AcDb2dVertex
 10
-15.07385298507347
 20
45.8428823358688
 30
0.0
  0
SEQEND
  5
199
330
196
100
AcDbEntity
  8
STANDARDEBENE
  0
POLYLINE
  5
19A
330
1F
100
AcDbEntity
  8
STANDARDEBENE
 62
     7
100
AcDb2dPolyline
 66
     1
 10
0.0
 20
0.0
 30
0.0
  0
VERTEX
  5
19B
330
19A
100
AcDbEntity
  8
STANDARDEBENE
 62
     7
100
AcDbVertex
100
AcDb2dVertex
 10
-15.07385298507347
 20
44.84621555449048
 30
0.0
  0
VERTEX
  5
19C
330
19A
100
AcDbEntity
  8
STANDARDEBENE
 62
     7
100
AcDbVertex
100
AcDb2dVertex
 10
-15.07385298507347
 20
43.84989328288796
 30
0.0
  0
SEQEND
  5
19D
330
19A
100
AcDbEntity
  8
STANDARDEBENE
  0
POLYLINE
  5
19E
330
1F
100
AcDbEntity
  8
STANDARDEBENE
 62
     7
100
AcDb2dPolyline
 66
     1
 10
0.0
 20
0.0
 30
0.0
  0
VERTEX
  5
19F
330
19E
100
AcDbEntity
  8
STANDARDEBENE
 62
     7
100
AcDbVertex
100
AcDb2dVertex
 10
-15.07385298507347
 20
42.85270973684595
 30
0.0
  0
VERTEX
  5
1A0
330
19E
100
AcDbEntity
  8
STANDARDEBENE
 62
     7
100
AcDbVertex
100
AcDb2dVertex
 10
-15.07385298507347
 20
41.85604295546764
 30
0.0
  0
SEQEND
  5
1A1
330
19E
100
AcDbEntity
  8
STANDARDEBENE
  0
POLYLINE
  5
1A2
330
1F
100
AcDbEntity
  8
STANDARDEBENE
 62
     7
100
AcDb2dPolyline
 66
     1
 10
0.0
 20
0.0
 30
0.0
  0
VERTEX
  5
1A3
330
1A2
100
AcDbEntity
  8
STANDARDEBENE
 62
     7
100
AcDbVertex
100
AcDb2dVertex
 10
-15.07385298507347
 20
40.85989293875301
 30
0.0
  0
VERTEX
  5
1A4
330
1A2
100
AcDbEntity
  8
STANDARDEBENE
 62
     7
100
AcDbVertex
100
AcDb2dVertex
 10
-15.07385298507347
 20
39.8632261573747
 30
0.0
  0
SEQEND
  5
1A5
330
1A2
100
AcDbEntity
  8
STANDARDEBENE
  0
POLYLINE
  5
1A6
330
1F
100
AcDbEntity
  8
STANDARDEBENE
 62
     7
100
AcDb2dPolyline
 66
     1
 10
0.0
 20
0.0
 30
0.0
  0
VERTEX
  5
1A7
330
1A6
100
AcDbEntity
  8
STANDARDEBENE
 62
     7
100
AcDbVertex
100
AcDb2dVertex
 10
-15.07385298507347
 20
38.86621486622059
 30
0.0
  0
VERTEX
  5
1A8
330
1A6
100
AcDbEntity
  8
STANDARDEBENE
 62
     7
100
AcDbVertex
100
AcDb2dVertex
 10
-15.07385298507347
 20
37.86972033973016
 30
0.0
  0
SEQEND
  5
1A9
330
1A6
100
AcDbEntity
  8
STANDARDEBENE
  0
POLYLINE
  5
1AA
330
1F
100
AcDbEntity
  8
STANDARDEBENE
 62
     7
100
AcDb2dPolyline
 66
     1
 10
0.0
 20
0.0
 30
0.0
  0
VERTEX
  5
1AB
330
1AA
100
AcDbEntity
  8
STANDARDEBENE
 62
     7
100
AcDbVertex
100
AcDb2dVertex
 10
-15.07385298507347
 20
36.87305355835185
 30
0.0
  0
VERTEX
  5
1AC
330
1AA
100
AcDbEntity
  8
STANDARDEBENE
 62
     7
100
AcDbVertex
100
AcDb2dVertex
 10
-15.07385298507347
 20
35.87604226719774
 30
0.0
  0
SEQEND
  5
1AD
330
1AA
100
AcDbEntity
  8
STANDARDEBENE
  0
POLYLINE
  5
1AE
330
1F
100
AcDbEntity
  8
STANDARDEBENE
 62
     7
100
AcDb2dPolyline
 66
     1
 10
0.0
 20
0.0
 30
0.0
  0
VERTEX
  5
1AF
330
1AE
100
AcDbEntity
  8
STANDARDEBENE
 62
     7
100
AcDbVertex
100
AcDb2dVertex
 10
-15.07385298507347
 20
34.87954774070732
 30
0.0
  0
VERTEX
  5
1B0
330
1AE
100
AcDbEntity
  8
STANDARDEBENE
 62
     7
100
AcDbVertex
100
AcDb2dVertex
 10
-15.07385298507347
 20
33.882880959329
 30
0.0
  0
SEQEND
  5
1B1
330
1AE
100
AcDbEntity
  8
STANDARDEBENE
  0
POLYLINE
  5
1B2
330
1F
100
AcDbEntity
  8
STANDARDEBENE
 62
     7
100
AcDb2dPolyline
 66
     1
 10
0.0
 20
0.0
 30
0.0
  0
VERTEX
  5
1B3
330
1B2
100
AcDbEntity
  8
STANDARDEBENE
 62
     7
100
AcDbVertex
100
AcDb2dVertex
 10
-15.07385298507347
 20
32.88673094261438
 30
0.0
  0
VERTEX
  5
1B4
330
1B2
100
AcDbEntity
  8
STANDARDEBENE
 62
     7
100
AcDbVertex
100
AcDb2dVertex
 10
-15.07385298507347
 20
31.88937514168447
 30
0.0
  0
SEQEND
  5
1B5
330
1B2
100
AcDbEntity
  8
STANDARDEBENE
  0
POLYLINE
  5
1B6
330
1F
100
AcDbEntity
  8
STANDARDEBENE
 62
     7
100
AcDb2dPolyline
 66
     1
 10
0.0
 20
0.0
 30
0.0
  0
VERTEX
  5
1B7
330
1B6
100
AcDbEntity
  8
STANDARDEBENE
 62
     7
100
AcDbVertex
100
AcDb2dVertex
 10
-15.07385298507347
 20
30.89270836030616
 30
0.0
  0
VERTEX
  5
1B8
330
1B6
100
AcDbEntity
  8
STANDARDEBENE
 62
     7
100
AcDbVertex
100
AcDb2dVertex
 10
-15.07385298507347
 20
30.39506398916859
 30
0.0
  0
SEQEND
  5
1B9
330
1B6
100
AcDbEntity
  8
STANDARDEBENE
  0
POLYLINE
  5
1BA
330
1F
100
AcDbEntity
  8
STANDARDEBENE
 62
     7
100
AcDb2dPolyline
 66
     1
 10
0.0
 20
0.0
 30
0.0
  0
VERTEX
  5
1BB
330
1BA
100
AcDbEntity
  8
STANDARDEBENE
 62
     7
100
AcDbVertex
100
AcDb2dVertex
 10
-5.073939977925975
 20
30.39506398916859
 30
0.0
  0
VERTEX
  5
1BC
330
1BA
100
AcDbEntity
  8
STANDARDEBENE
 62
     7
100
AcDbVertex
100
AcDb2dVertex
 10
-5.073939977925975
 20
30.89270836030616
 30
0.0
  0
SEQEND
  5
1BD
330
1BA
100
AcDbEntity
  8
STANDARDEBENE
  0
POLYLINE
  5
1BE
330
1F
100
AcDbEntity
  8
STANDARDEBENE
 62
     7
100
AcDb2dPolyline
 66
     1
 10
0.0
 20
0.0
 30
0.0
  0
VERTEX
  5
1BF
330
1BE
100
AcDbEntity
  8
STANDARDEBENE
 62
     7
100
AcDbVertex
100
AcDb2dVertex
 10
-5.073939977925975
 20
31.88937514168447
 30
0.0
  0
VERTEX
  5
1C0
330
1BE
100
AcDbEntity
  8
STANDARDEBENE
 62
     7
100
AcDbVertex
100
AcDb2dVertex
 10
-5.073939977925975
 20
32.88673094261438
 30
0.0
  0
SEQEND
  5
1C1
330
1BE
100
AcDbEntity
  8
STANDARDEBENE
  0
POLYLINE
  5
1C2
330
1F
100
AcDbEntity
  8
STANDARDEBENE
 62
     7
100
AcDb2dPolyline
 66
     1
 10
0.0
 20
0.0
 30
0.0
  0
VERTEX
  5
1C3
330
1C2
100
AcDbEntity
  8
STANDARDEBENE
 62
     7
100
AcDbVertex
100
AcDb2dVertex
 10
-5.073939977925975
 20
33.882880959329
 30
0.0
  0
VERTEX
  5
1C4
330
1C2
100
AcDbEntity
  8
STANDARDEBENE
 62
     7
100
AcDbVertex
100
AcDb2dVertex
 10
-5.073939977925975
 20
34.87954774070732
 30
0.0
  0
SEQEND
  5
1C5
330
1C2
100
AcDbEntity
  8
STANDARDEBENE
  0
POLYLINE
  5
1C6
330
1F
100
AcDbEntity
  8
STANDARDEBENE
 62
     7
100
AcDb2dPolyline
 66
     1
 10
0.0
 20
0.0
 30
0.0
  0
VERTEX
  5
1C7
330
1C6
100
AcDbEntity
  8
STANDARDEBENE
 62
     7
100
AcDbVertex
100
AcDb2dVertex
 10
-5.073939977925975
 20
35.87604226719774
 30
0.0
  0
VERTEX
  5
1C8
330
1C6
100
AcDbEntity
  8
STANDARDEBENE
 62
     7
100
AcDbVertex
100
AcDb2dVertex
 10
-5.073939977925975
 20
36.87305355835185
 30
0.0
  0
SEQEND
  5
1C9
330
1C6
100
AcDbEntity
  8
STANDARDEBENE
  0
POLYLINE
  5
1CA
330
1F
100
AcDbEntity
  8
STANDARDEBENE
 62
     7
100
AcDb2dPolyline
 66
     1
 10
0.0
 20
0.0
 30
0.0
  0
VERTEX
  5
1CB
330
1CA
100
AcDbEntity
  8
STANDARDEBENE
 62
     7
100
AcDbVertex
100
AcDb2dVertex
 10
-5.073939977925975
 20
37.86972033973016
 30
0.0
  0
VERTEX
  5
1CC
330
1CA
100
AcDbEntity
  8
STANDARDEBENE
 62
     7
100
AcDbVertex
100
AcDb2dVertex
 10
-5.073939977925975
 20
38.86621486622059
 30
0.0
  0
SEQEND
  5
1CD
330
1CA
100
AcDbEntity
  8
STANDARDEBENE
  0
POLYLINE
  5
1CE
330
1F
100
AcDbEntity
  8
STANDARDEBENE
 62
     7
100
AcDb2dPolyline
 66
     1
 10
0.0
 20
0.0
 30
0.0
  0
VERTEX
  5
1CF
330
1CE
100
AcDbEntity
  8
STANDARDEBENE
 62
     7
100
AcDbVertex
100
AcDb2dVertex
 10
-5.073939977925975
 20
39.8632261573747
 30
0.0
  0
VERTEX
  5
1D0
330
1CE
100
AcDbEntity
  8
STANDARDEBENE
 62
     7
100
AcDbVertex
100
AcDb2dVertex
 10
-5.073939977925975
 20
40.85989293875301
 30
0.0
  0
SEQEND
  5
1D1
330
1CE
100
AcDbEntity
  8
STANDARDEBENE
  0
POLYLINE
  5
1D2
330
1F
100
AcDbEntity
  8
STANDARDEBENE
 62
     7
100
AcDb2dPolyline
 66
     1
 10
0.0
 20
0.0
 30
0.0
  0
VERTEX
  5
1D3
330
1D2
100
AcDbEntity
  8
STANDARDEBENE
 62
     7
100
AcDbVertex
100
AcDb2dVertex
 10
-5.073939977925975
 20
41.85604295546764
 30
0.0
  0
VERTEX
  5
1D4
330
1D2
100
AcDbEntity
  8
STANDARDEBENE
 62
     7
100
AcDbVertex
100
AcDb2dVertex
 10
-5.073939977925975
 20
42.85270973684595
 30
0.0
  0
SEQEND
  5
1D5
330
1D2
100
AcDbEntity
  8
STANDARDEBENE
  0
POLYLINE
  5
1D6
330
1F
100
AcDbEntity
  8
STANDARDEBENE
 62
     7
100
AcDb2dPolyline
 66
     1
 10
0.0
 20
0.0
 30
0.0
  0
VERTEX
  5
1D7
330
1D6
100
AcDbEntity
  8
STANDARDEBENE
 62
     7
100
AcDbVertex
100
AcDb2dVertex
 10
-5.073939977925975
 20
43.84989328288796
 30
0.0
  0
VERTEX
  5
1D8
330
1D6
100
AcDbEntity
  8
STANDARDEBENE
 62
     7
100
AcDbVertex
100
AcDb2dVertex
 10
-5.073939977925975
 20
44.84621555449048
 30
0.0
  0
SEQEND
  5
1D9
330
1D6
100
AcDbEntity
  8
STANDARDEBENE
  0
POLYLINE
  5
1DA
330
1F
100
AcDbEntity
  8
STANDARDEBENE
 62
     7
100
AcDb2dPolyline
 66
     1
 10
0.0
 20
0.0
 30
0.0
  0
VERTEX
  5
1DB
330
1DA
100
AcDbEntity
  8
STANDARDEBENE
 62
     7
100
AcDbVertex
100
AcDb2dVertex
 10
-5.073939977925975
 20
45.8428823358688
 30
0.0
  0
VERTEX
  5
1DC
330
1DA
100
AcDbEntity
  8
STANDARDEBENE
 62
     7
100
AcDbVertex
100
AcDb2dVertex
 10
-5.073939977925975
 20
46.83972137213502
 30
0.0
  0
SEQEND
  5
1DD
330
1DA
100
AcDbEntity
  8
STANDARDEBENE
  0
POLYLINE
  5
1DE
330
1F
100
AcDbEntity
  8
STANDARDEBENE
 62
     7
100
AcDb2dPolyline
 66
     1
 10
0.0
 20
0.0
 30
0.0
  0
VERTEX
  5
1DF
330
1DE
100
AcDbEntity
  8
STANDARDEBENE
 62
     7
100
AcDbVertex
100
AcDb2dVertex
 10
-5.073939977925975
 20
47.83638815351333
 30
0.0
  0
VERTEX
  5
1E0
330
1DE
100
AcDbEntity
  8
STANDARDEBENE
 62
     7
100
AcDbVertex
100
AcDb2dVertex
 10
-5.073939977925975
 20
48.83288268000375
 30
0.0
  0
SEQEND
  5
1E1
330
1DE
100
AcDbEntity
  8
STANDARDEBENE
  0
POLYLINE
  5
1E2
330
1F
100
AcDbEntity
  8
STANDARDEBENE
 62
     7
100
AcDb2dPolyline
 66
     1
 10
0.0
 20
0.0
 30
0.0
  0
VERTEX
  5
1E3
330
1E2
100
AcDbEntity
  8
STANDARDEBENE
 62
     7
100
AcDbVertex
100
AcDb2dVertex
 10
-5.073939977925975
 20
49.82989397115787
 30
0.0
  0
VERTEX
  5
1E4
330
1E2
100
AcDbEntity
  8
STANDARDEBENE
 62
     7
100
AcDbVertex
100
AcDb2dVertex
 10
-5.073939977925975
 20
50.82656075253618
 30
0.0
  0
SEQEND
  5
1E5
330
1E2
100
AcDbEntity
  8
STANDARDEBENE
  0
POLYLINE
  5
1E6
330
1F
100
AcDbEntity
  8
STANDARDEBENE
 62
     7
100
AcDb2dPolyline
 66
     1
 10
0.0
 20
0.0
 30
0.0
  0
VERTEX
  5
1E7
330
1E6
100
AcDbEntity
  8
STANDARDEBENE
 62
     7
100
AcDbVertex
100
AcDb2dVertex
 10
-5.073939977925975
 20
51.8230552790266
 30
0.0
  0
VERTEX
  5
1E8
330
1E6
100
AcDbEntity
  8
STANDARDEBENE
 62
     7
100
AcDbVertex
100
AcDb2dVertex
 10
-5.073939977925975
 20
52.81937755062912
 30
0.0
  0
SEQEND
  5
1E9
330
1E6
100
AcDbEntity
  8
STANDARDEBENE
  0
POLYLINE
  5
1EA
330
1F
100
AcDbEntity
  8
STANDARDEBENE
 62
     7
100
AcDb2dPolyline
 66
     1
 10
0.0
 20
0.0
 30
0.0
  0
VERTEX
  5
1EB
330
1EA
100
AcDbEntity
  8
STANDARDEBENE
 62
     7
100
AcDbVertex
100
AcDb2dVertex
 10
-5.073939977925975
 20
53.81587207711954
 30
0.0
  0
VERTEX
  5
1EC
330
1EA
100
AcDbEntity
  8
STANDARDEBENE
 62
     7
100
AcDbVertex
100
AcDb2dVertex
 10
-5.073939977925975
 20
54.81322787804945
 30
0.0
  0
SEQEND
  5
1ED
330
1EA
100
AcDbEntity
  8
STANDARDEBENE
  0
POLYLINE
  5
1EE
330
1F
100
AcDbEntity
  8
STANDARDEBENE
 62
     7
100
AcDb2dPolyline
 66
     1
 10
0.0
 20
0.0
 30
0.0
  0
VERTEX
  5
1EF
330
1EE
100
AcDbEntity
  8
STANDARDEBENE
 62
     7
100
AcDbVertex
100
AcDb2dVertex
 10
-5.073939977925975
 20
55.80955014965196
 30
0.0
  0
VERTEX
  5
1F0
330
1EE
100
AcDbEntity
  8
STANDARDEBENE
 62
     7
100
AcDbVertex
100
AcDb2dVertex
 10
-5.073939977925975
 20
56.80638918591818
 30
0.0
  0
SEQEND
  5
1F1
330
1EE
100
AcDbEntity
  8
STANDARDEBENE
  0
POLYLINE
  5
1F2
330
1F
100
AcDbEntity
  8
STANDARDEBENE
 62
     7
100
AcDb2dPolyline
 66
     1
 10
0.0
 20
0.0
 30
0.0
  0
VERTEX
  5
1F3
330
1F2
100
AcDbEntity
  8
STANDARDEBENE
 62
     7
100
AcDbVertex
100
AcDb2dVertex
 10
-5.073939977925975
 20
57.8027114575207
 30
0.0
  0
VERTEX
  5
1F4
330
1F2
100
AcDbEntity
  8
STANDARDEBENE
 62
     7
100
AcDbVertex
100
AcDb2dVertex
 10
-5.073939977925975
 20
58.79955049378692
 30
0.0
  0
SEQEND
  5
1F5
330
1F2
100
AcDbEntity
  8
STANDARDEBENE
  0
POLYLINE
  5
1F6
330
1F
100
AcDbEntity
  8
STANDARDEBENE
 62
     7
100
AcDb2dPolyline
 66
     1
 10
0.0
 20
0.0
 30
0.0
  0
VERTEX
  5
1F7
330
1F6
100
AcDbEntity
  8
STANDARDEBENE
 62
     7
100
AcDbVertex
100
AcDb2dVertex
 10
-5.073939977925975
 20
59.79587276538943
 30
0.0
  0
VERTEX
  5
1F8
330
1F6
100
AcDbEntity
  8
STANDARDEBENE
 62
     7
100
AcDbVertex
100
AcDb2dVertex
 10
-5.073939977925975
 20
60.79288405654355
 30
0.0
  0
SEQEND
  5
1F9
330
1F6
100
AcDbEntity
  8
STANDARDEBENE
  0
POLYLINE
  5
1FA
330
1F
100
AcDbEntity
  8
STANDARDEBENE
 62
     7
100
AcDb2dPolyline
 66
     1
 10
0.0
 20
0.0
 30
0.0
  0
VERTEX
  5
1FB
330
1FA
100
AcDbEntity
  8
STANDARDEBENE
 62
     7
100
AcDbVertex
100
AcDb2dVertex
 10
-5.073939977925975
 20
61.78972309280976
 30
0.0
  0
VERTEX
  5
1FC
330
1FA
100
AcDbEntity
  8
STANDARDEBENE
 62
     7
100
AcDbVertex
100
AcDb2dVertex
 10
-5.073939977925975
 20
62.78604536441228
 30
0.0
  0
SEQEND
  5
1FD
330
1FA
100
AcDbEntity
  8
STANDARDEBENE
  0
POLYLINE
  5
1FE
330
1F
100
AcDbEntity
  8
STANDARDEBENE
 62
     7
100
AcDb2dPolyline
 66
     1
 10
0.0
 20
0.0
 30
0.0
  0
VERTEX
  5
1FF
330
1FE
100
AcDbEntity
  8
STANDARDEBENE
 62
     7
100
AcDbVertex
100
AcDb2dVertex
 10
-5.073939977925975
 20
63.7825398909027
 30
0.0
  0
VERTEX
  5
200
330
1FE
100
AcDbEntity
  8
STANDARDEBENE
 62
     7
100
AcDbVertex
100
AcDb2dVertex
 10
-5.073939977925975
 20
64.7795511820568
 30
0.0
  0
SEQEND
  5
201
330
1FE
100
AcDbEntity
  8
STANDARDEBENE
  0
POLYLINE
  5
202
330
1F
100
AcDbEntity
  8
STANDARDEBENE
 62
     7
100
AcDb2dPolyline
 66
     1
 10
0.0
 20
0.0
 30
0.0
  0
VERTEX
  5
203
330
202
100
AcDbEntity
  8
STANDARDEBENE
 62
     7
100
AcDbVertex
100
AcDb2dVertex
 10
-5.073939977925975
 20
65.77621796343513
 30
0.0
  0
VERTEX
  5
204
330
202
100
AcDbEntity
  8
STANDARDEBENE
 62
     7
100
AcDbVertex
100
AcDb2dVertex
 10
-5.073939977925975
 20
66.77271248992555
 30
0.0
  0
SEQEND
  5
205
330
202
100
AcDbEntity
  8
STANDARDEBENE
  0
POLYLINE
  5
206
330
1F
100
AcDbEntity
  8
STANDARDEBENE
 62
     7
100
AcDb2dPolyline
 66
     1
 10
0.0
 20
0.0
 30
0.0
  0
VERTEX
  5
207
330
206
100
AcDbEntity
  8
STANDARDEBENE
 62
     7
100
AcDbVertex
100
AcDb2dVertex
 10
-5.073939977925975
 20
67.76972378107966
 30
0.0
  0
VERTEX
  5
208
330
206
100
AcDbEntity
  8
STANDARDEBENE
 62
     7
100
AcDbVertex
100
AcDb2dVertex
 10
-5.073939977925975
 20
68.76587379779428
 30
0.0
  0
SEQEND
  5
209
330
206
100
AcDbEntity
  8
STANDARDEBENE
  0
POLYLINE
  5
20A
330
1F
100
AcDbEntity
  8
STANDARDEBENE
 62
     7
100
AcDb2dPolyline
 66
     1
 10
0.0
 20
0.0
 30
0.0
  0
VERTEX
  5
20B
330
20A
100
AcDbEntity
  8
STANDARDEBENE
 62
     7
100
AcDbVertex
100
AcDb2dVertex
 10
-5.073939977925975
 20
69.7628850889484
 30
0.0
  0
VERTEX
  5
20C
330
20A
100
AcDbEntity
  8
STANDARDEBENE
 62
     7
100
AcDbVertex
100
AcDb2dVertex
 10
-5.073939977925975
 20
70.75920736055092
 30
0.0
  0
SEQEND
  5
20D
330
20A
100
AcDbEntity
  8
STANDARDEBENE
  0
POLYLINE
  5
20E
330
1F
100
AcDbEntity
  8
STANDARDEBENE
 62
     7
100
AcDb2dPolyline
 66
     1
 10
0.0
 20
0.0
 30
0.0
  0
VERTEX
  5
20F
330
20E
100
AcDbEntity
  8
STANDARDEBENE
 62
     7
100
AcDbVertex
100
AcDb2dVertex
 10
-5.073939977925975
 20
71.75604639681713
 30
0.0
  0
VERTEX
  5
210
330
20E
100
AcDbEntity
  8
STANDARDEBENE
 62
     7
100
AcDbVertex
100
AcDb2dVertex
 10
-5.073939977925975
 20
72.75305768797125
 30
0.0
  0
SEQEND
  5
211
330
20E
100
AcDbEntity
  8
STANDARDEBENE
  0
POLYLINE
  5
212
330
1F
100
AcDbEntity
  8
STANDARDEBENE
 62
     7
100
AcDb2dPolyline
 66
     1
 10
0.0
 20
0.0
 30
0.0
  0
VERTEX
  5
213
330
212
100
AcDbEntity
  8
STANDARDEBENE
 62
     7
100
AcDbVertex
100
AcDb2dVertex
 10
-5.073939977925975
 20
73.74937995957376
 30
0.0
  0
VERTEX
  5
214
330
212
100
AcDbEntity
  8
STANDARDEBENE
 62
     7
100
AcDbVertex
100
AcDb2dVertex
 10
-5.073939977925975
 20
74.74587448606418
 30
0.0
  0
SEQEND
  5
215
330
212
100
AcDbEntity
  8
STANDARDEBENE
  0
POLYLINE
  5
216
330
1F
100
AcDbEntity
  8
STANDARDEBENE
 62
     7
100
AcDb2dPolyline
 66
     1
 10
0.0
 20
0.0
 30
0.0
  0
VERTEX
  5
217
330
216
100
AcDbEntity
  8
STANDARDEBENE
 62
     7
100
AcDbVertex
100
AcDb2dVertex
 10
-5.073939977925975
 20
75.74288577721829
 30
0.0
  0
VERTEX
  5
218
330
216
100
AcDbEntity
  8
STANDARDEBENE
 62
     7
100
AcDbVertex
100
AcDb2dVertex
 10
-5.073939977925975
 20
76.7398970683724
 30
0.0
  0
SEQEND
  5
219
330
216
100
AcDbEntity
  8
STANDARDEBENE
  0
POLYLINE
  5
21A
330
1F
100
AcDbEntity
  8
STANDARDEBENE
 62
     7
100
AcDb2dPolyline
 66
     1
 10
0.0
 20
0.0
 30
0.0
  0
VERTEX
  5
21B
330
21A
100
AcDbEntity
  8
STANDARDEBENE
 62
     7
100
AcDbVertex
100
AcDb2dVertex
 10
-5.073939977925975
 20
77.73604708508702
 30
0.0
  0
VERTEX
  5
21C
330
21A
100
AcDbEntity
  8
STANDARDEBENE
 62
     7
100
AcDbVertex
100
AcDb2dVertex
 10
-5.073939977925975
 20
78.73305837624115
 30
0.0
  0
SEQEND
  5
21D
330
21A
100
AcDbEntity
  8
STANDARDEBENE
  0
POLYLINE
  5
21E
330
1F
100
AcDbEntity
  8
STANDARDEBENE
 62
     7
100
AcDb2dPolyline
 66
     1
 10
0.0
 20
0.0
 30
0.0
  0
VERTEX
  5
21F
330
21E
100
AcDbEntity
  8
STANDARDEBENE
 62
     7
100
AcDbVertex
100
AcDb2dVertex
 10
-5.073939977925975
 20
79.72920839295577
 30
0.0
  0
VERTEX
  5
220
330
21E
100
AcDbEntity
  8
STANDARDEBENE
 62
     7
100
AcDbVertex
100
AcDb2dVertex
 10
-5.073939977925975
 20
80.72621968410988
 30
0.0
  0
SEQEND
  5
221
330
21E
100
AcDbEntity
  8
STANDARDEBENE
  0
POLYLINE
  5
222
330
1F
100
AcDbEntity
  8
STANDARDEBENE
 62
     7
100
AcDb2dPolyline
 66
     1
 10
0.0
 20
0.0
 30
0.0
  0
VERTEX
  5
223
330
222
100
AcDbEntity
  8
STANDARDEBENE
 62
     7
100
AcDbVertex
100
AcDb2dVertex
 10
-5.073939977925975
 20
81.72314484782004
 30
0.0
  0
VERTEX
  5
224
330
222
100
AcDbEntity
  8
STANDARDEBENE
 62
     7
100
AcDbVertex
100
AcDb2dVertex
 10
-5.073939977925975
 20
82.71938099197861
 30
0.0
  0
SEQEND
  5
225
330
222
100
AcDbEntity
  8
STANDARDEBENE
  0
POLYLINE
  5
226
330
1F
100
AcDbEntity
  8
STANDARDEBENE
 62
     7
100
AcDb2dPolyline
 66
     1
 10
0.0
 20
0.0
 30
0.0
  0
VERTEX
  5
227
330
226
100
AcDbEntity
  8
STANDARDEBENE
 62
     7
100
AcDbVertex
100
AcDb2dVertex
 10
-5.073939977925975
 20
83.71639228313272
 30
0.0
  0
VERTEX
  5
228
330
226
100
AcDbEntity
  8
STANDARDEBENE
 62
     7
100
AcDbVertex
100
AcDb2dVertex
 10
-5.073939977925975
 20
84.7129729370671
 30
0.0
  0
SEQEND
  5
229
330
226
100
AcDbEntity
  8
STANDARDEBENE
  0
POLYLINE
  5
22A
330
1F
100
AcDbEntity
  8
STANDARDEBENE
 62
     7
100
AcDb2dPolyline
 66
     1
 10
0.0
 20
0.0
 30
0.0
  0
VERTEX
  5
22B
330
22A
100
AcDbEntity
  8
STANDARDEBENE
 62
     7
100
AcDbVertex
100
AcDb2dVertex
 10
-5.073939977925975
 20
85.70920908122567
 30
0.0
  0
VERTEX
  5
22C
330
22A
100
AcDbEntity
  8
STANDARDEBENE
 62
     7
100
AcDbVertex
100
AcDb2dVertex
 10
-5.073939977925975
 20
86.70613424493582
 30
0.0
  0
SEQEND
  5
22D
330
22A
100
AcDbEntity
  8
STANDARDEBENE
  0
POLYLINE
  5
22E
330
1F
100
AcDbEntity
  8
STANDARDEBENE
 62
     7
100
AcDb2dPolyline
 66
     1
 10
0.0
 20
0.0
 30
0.0
  0
VERTEX
  5
22F
330
22E
100
AcDbEntity
  8
STANDARDEBENE
 62
     7
100
AcDbVertex
100
AcDb2dVertex
 10
-5.073939977925975
 20
87.70305940864598
 30
0.0
  0
VERTEX
  5
230
330
22E
100
AcDbEntity
  8
STANDARDEBENE
 62
     7
100
AcDbVertex
100
AcDb2dVertex
 10
-5.073939977925975
 20
88.69938168024851
 30
0.0
  0
SEQEND
  5
231
330
22E
100
AcDbEntity
  8
STANDARDEBENE
  0
POLYLINE
  5
232
330
1F
100
AcDbEntity
  8
STANDARDEBENE
 62
     7
100
AcDb2dPolyline
 66
     1
 10
0.0
 20
0.0
 30
0.0
  0
VERTEX
  5
233
330
232
100
AcDbEntity
  8
STANDARDEBENE
 62
     7
100
AcDbVertex
100
AcDb2dVertex
 10
-5.073939977925975
 20
89.69622071651473
 30
0.0
  0
VERTEX
  5
234
330
232
100
AcDbEntity
  8
STANDARDEBENE
 62
     7
100
AcDbVertex
100
AcDb2dVertex
 10
-5.073939977925975
 20
90.69254298811724
 30
0.0
  0
SEQEND
  5
235
330
232
100
AcDbEntity
  8
STANDARDEBENE
  0
POLYLINE
  5
236
330
1F
100
AcDbEntity
  8
STANDARDEBENE
 62
     7
100
AcDb2dPolyline
 66
     1
 10
0.0
 20
0.0
 30
0.0
  0
VERTEX
  5
237
330
236
100
AcDbEntity
  8
STANDARDEBENE
 62
     7
100
AcDbVertex
100
AcDb2dVertex
 10
-5.073939977925975
 20
91.68946815182741
 30
0.0
  0
VERTEX
  5
238
330
236
100
AcDbEntity
  8
STANDARDEBENE
 62
     7
100
AcDbVertex
100
AcDb2dVertex
 10
-5.073939977925975
 20
92.68639331553757
 30
0.0
  0
SEQEND
  5
239
330
236
100
AcDbEntity
  8
STANDARDEBENE
  0
POLYLINE
  5
23A
330
1F
100
AcDbEntity
  8
STANDARDEBENE
 62
     7
100
AcDb2dPolyline
 66
     1
 10
0.0
 20
0.0
 30
0.0
  0
VERTEX
  5
23B
330
23A
100
AcDbEntity
  8
STANDARDEBENE
 62
     7
100
AcDbVertex
100
AcDb2dVertex
 10
-5.073939977925975
 20
93.6827155871401
 30
0.0
  0
VERTEX
  5
23C
330
23A
100
AcDbEntity
  8
STANDARDEBENE
 62
     7
100
AcDbVertex
100
AcDb2dVertex
 10
-5.073939977925975
 20
94.67964075085025
 30
0.0
  0
SEQEND
  5
23D
330
23A
100
AcDbEntity
  8
STANDARDEBENE
  0
POLYLINE
  5
23E
330
1F
100
AcDbEntity
  8
STANDARDEBENE
 62
     7
100
AcDb2dPolyline
 66
     1
 10
0.0
 20
0.0
 30
0.0
  0
VERTEX
  5
23F
330
23E
100
AcDbEntity
  8
STANDARDEBENE
 62
     7
100
AcDbVertex
100
AcDb2dVertex
 10
-5.073939977925975
 20
95.67622140478463
 30
0.0
  0
VERTEX
  5
240
330
23E
100
AcDbEntity
  8
STANDARDEBENE
 62
     7
100
AcDbVertex
100
AcDb2dVertex
 10
-5.073939977925975
 20
96.6724575489432
 30
0.0
  0
SEQEND
  5
241
330
23E
100
AcDbEntity
  8
STANDARDEBENE
  0
POLYLINE
  5
242
330
1F
100
AcDbEntity
  8
STANDARDEBENE
 62
     7
100
AcDb2dPolyline
 66
     1
 10
0.0
 20
0.0
 30
0.0
  0
VERTEX
  5
243
330
242
100
AcDbEntity
  8
STANDARDEBENE
 62
     7
100
AcDbVertex
100
AcDb2dVertex
 10
-5.073939977925975
 20
97.66938271265336
 30
0.0
  0
VERTEX
  5
244
330
242
100
AcDbEntity
  8
STANDARDEBENE
 62
     7
100
AcDbVertex
100
AcDb2dVertex
 10
-5.073939977925975
 20
98.66639400380747
 30
0.0
  0
SEQEND
  5
245
330
242
100
AcDbEntity
  8
STANDARDEBENE
  0
POLYLINE
  5
246
330
1F
100
AcDbEntity
  8
STANDARDEBENE
 62
     7
100
AcDb2dPolyline
 66
     1
 10
0.0
 20
0.0
 30
0.0
  0
VERTEX
  5
247
330
246
100
AcDbEntity
  8
STANDARDEBENE
 62
     7
100
AcDbVertex
100
AcDb2dVertex
 10
-5.073939977925975
 20
99.66263014796604
 30
0.0
  0
VERTEX
  5
248
330
246
100
AcDbEntity
  8
STANDARDEBENE
 62
     7
100
AcDbVertex
100
AcDb2dVertex
 10
-5.073939977925975
 20
100.6595553116762
 30
0.0
  0
SEQEND
  5
249
330
246
100
AcDbEntity
  8
STANDARDEBENE
  0
POLYLINE
  5
24A
330
1F
100
AcDbEntity
  8
STANDARDEBENE
 62
     7
100
AcDb2dPolyline
 66
     1
 10
0.0
 20
0.0
 30
0.0
  0
VERTEX
  5
24B
330
24A
100
AcDbEntity
  8
STANDARDEBENE
 62
     7
100
AcDbVertex
100
AcDb2dVertex
 10
-5.073939977925975
 20
101.6557914558348
 30
0.0
  0
VERTEX
  5
24C
330
24A
100
AcDbEntity
  8
STANDARDEBENE
 62
     7
100
AcDbVertex
100
AcDb2dVertex
 10
-5.073939977925975
 20
102.6527166195449
 30
0.0
  0
SEQEND
  5
24D
330
24A
100
AcDbEntity
  8
STANDARDEBENE
  0
POLYLINE
  5
24E
330
1F
100
AcDbEntity
  8
STANDARDEBENE
 62
     7
100
AcDb2dPolyline
 66
     1
 10
0.0
 20
0.0
 30
0.0
  0
VERTEX
  5
24F
330
24E
100
AcDbEntity
  8
STANDARDEBENE
 62
     7
100
AcDbVertex
100
AcDb2dVertex
 10
-5.073939977925975
 20
103.6497279106991
 30
0.0
  0
VERTEX
  5
250
330
24E
100
AcDbEntity
  8
STANDARDEBENE
 62
     7
100
AcDbVertex
100
AcDb2dVertex
 10
-5.073939977925975
 20
104.6459640548576
 30
0.0
  0
SEQEND
  5
251
330
24E
100
AcDbEntity
  8
STANDARDEBENE
  0
POLYLINE
  5
252
330
1F
100
AcDbEntity
  8
STANDARDEBENE
 62
     7
100
AcDb2dPolyline
 66
     1
 10
0.0
 20
0.0
 30
0.0
  0
VERTEX
  5
253
330
252
100
AcDbEntity
  8
STANDARDEBENE
 62
     7
100
AcDbVertex
100
AcDb2dVertex
 10
-5.073939977925975
 20
105.6428892185678
 30
0.0
  0
VERTEX
  5
254
330
252
100
AcDbEntity
  8
STANDARDEBENE
 62
     7
100
AcDbVertex
100
AcDb2dVertex
 10
-5.073939977925975
 20
106.6395559999461
 30
0.0
  0
SEQEND
  5
255
330
252
100
AcDbEntity
  8
STANDARDEBENE
  0
POLYLINE
  5
256
330
1F
100
AcDbEntity
  8
STANDARDEBENE
 62
     7
100
AcDb2dPolyline
 66
     1
 10
0.0
 20
0.0
 30
0.0
  0
VERTEX
  5
257
330
256
100
AcDbEntity
  8
STANDARDEBENE
 62
     7
100
AcDbVertex
100
AcDb2dVertex
 10
-5.073939977925975
 20
107.6357060166607
 30
0.0
  0
VERTEX
  5
258
330
256
100
AcDbEntity
  8
STANDARDEBENE
 62
     7
100
AcDbVertex
100
AcDb2dVertex
 10
-5.073939977925975
 20
108.6327173078148
 30
0.0
  0
SEQEND
  5
259
330
256
100
AcDbEntity
  8
STANDARDEBENE
  0
POLYLINE
  5
25A
330
1F
100
AcDbEntity
  8
STANDARDEBENE
 62
     7
100
AcDb2dPolyline
 66
     1
 10
0.0
 20
0.0
 30
0.0
  0
VERTEX
  5
25B
330
25A
100
AcDbEntity
  8
STANDARDEBENE
 62
     7
100
AcDbVertex
100
AcDb2dVertex
 10
-5.073939977925975
 20
109.629642471525
 30
0.0
  0
VERTEX
  5
25C
330
25A
100
AcDbEntity
  8
STANDARDEBENE
 62
     7
100
AcDbVertex
100
AcDb2dVertex
 10
-5.073939977925975
 20
110.6258786156836
 30
0.0
  0
SEQEND
  5
25D
330
25A
100
AcDbEntity
  8
STANDARDEBENE
  0
POLYLINE
  5
25E
330
1F
100
AcDbEntity
  8
STANDARDEBENE
 62
     7
100
AcDb2dPolyline
 66
     1
 10
0.0
 20
0.0
 30
0.0
  0
VERTEX
  5
25F
330
25E
100
AcDbEntity
  8
STANDARDEBENE
 62
     7
100
AcDbVertex
100
AcDb2dVertex
 10
-5.073939977925975
 20
111.6228899068377
 30
0.0
  0
VERTEX
  5
260
330
25E
100
AcDbEntity
  8
STANDARDEBENE
 62
     7
100
AcDbVertex
100
AcDb2dVertex
 10
-5.073939977925975
 20
112.6191260509963
 30
0.0
  0
SEQEND
  5
261
330
25E
100
AcDbEntity
  8
STANDARDEBENE
  0
POLYLINE
  5
262
330
1F
100
AcDbEntity
  8
STANDARDEBENE
 62
     7
100
AcDb2dPolyline
 66
     1
 10
0.0
 20
0.0
 30
0.0
  0
VERTEX
  5
263
330
262
100
AcDbEntity
  8
STANDARDEBENE
 62
     7
100
AcDbVertex
100
AcDb2dVertex
 10
-5.073939977925975
 20
113.6160512147064
 30
0.0
  0
VERTEX
  5
264
330
262
100
AcDbEntity
  8
STANDARDEBENE
 62
     7
100
AcDbVertex
100
AcDb2dVertex
 10
-5.073939977925975
 20
114.6129763784166
 30
0.0
  0
SEQEND
  5
265
330
262
100
AcDbEntity
  8
STANDARDEBENE
  0
POLYLINE
  5
266
330
1F
100
AcDbEntity
  8
STANDARDEBENE
 62
     7
100
AcDb2dPolyline
 66
     1
 10
0.0
 20
0.0
 30
0.0
  0
VERTEX
  5
267
330
266
100
AcDbEntity
  8
STANDARDEBENE
 62
     7
100
AcDbVertex
100
AcDb2dVertex
 10
-5.073939977925975
 20
115.6092125225752
 30
0.0
  0
VERTEX
  5
268
330
266
100
AcDbEntity
  8
STANDARDEBENE
 62
     7
100
AcDbVertex
100
AcDb2dVertex
 10
-5.073939977925975
 20
116.6062238137293
 30
0.0
  0
SEQEND
  5
269
330
266
100
AcDbEntity
  8
STANDARDEBENE
  0
POLYLINE
  5
26A
330
1F
100
AcDbEntity
  8
STANDARDEBENE
 62
     7
100
AcDb2dPolyline
 66
     1
 10
0.0
 20
0.0
 30
0.0
  0
VERTEX
  5
26B
330
26A
100
AcDbEntity
  8
STANDARDEBENE
 62
     7
100
AcDbVertex
100
AcDb2dVertex
 10
-5.073939977925975
 20
117.6028044676636
 30
0.0
  0
VERTEX
  5
26C
330
26A
100
AcDbEntity
  8
STANDARDEBENE
 62
     7
100
AcDbVertex
100
AcDb2dVertex
 10
-5.073939977925975
 20
118.5990406118222
 30
0.0
  0
SEQEND
  5
26D
330
26A
100
AcDbEntity
  8
STANDARDEBENE
  0
POLYLINE
  5
26E
330
1F
100
AcDbEntity
  8
STANDARDEBENE
 62
     7
100
AcDb2dPolyline
 66
     1
 10
0.0
 20
0.0
 30
0.0
  0
VERTEX
  5
26F
330
26E
100
AcDbEntity
  8
STANDARDEBENE
 62
     7
100
AcDbVertex
100
AcDb2dVertex
 10
-5.073939977925975
 20
119.5959657755324
 30
0.0
  0
VERTEX
  5
270
330
26E
100
AcDbEntity
  8
STANDARDEBENE
 62
     7
100
AcDbVertex
100
AcDb2dVertex
 10
-5.073939977925975
 20
120.0944714211094
 30
0.0
  0
SEQEND
  5
271
330
26E
100
AcDbEntity
  8
STANDARDEBENE
  0
POLYLINE
  5
272
330
1F
100
AcDbEntity
  8
STANDARDEBENE
 62
     7
100
AcDb2dPolyline
 66
     1
 10
0.0
 20
0.0
 30
0.0
  0
VERTEX
  5
273
330
272
100
AcDbEntity
  8
STANDARDEBENE
 62
     7
100
AcDbVertex
100
AcDb2dVertex
 10
-15.20373317054863
 20
10.09448094060354
 30
0.0
  0
VERTEX
  5
274
330
272
100
AcDbEntity
  8
STANDARDEBENE
 62
     7
100
AcDbVertex
100
AcDb2dVertex
 10
-14.69041360461233
 20
10.09448094060354
 30
0.0
  0
SEQEND
  5
275
330
272
100
AcDbEntity
  8
STANDARDEBENE
  0
POLYLINE
  5
276
330
1F
100
AcDbEntity
  8
STANDARDEBENE
 62
     7
100
AcDb2dPolyline
 66
     1
 10
0.0
 20
0.0
 30
0.0
  0
VERTEX
  5
277
330
276
100
AcDbEntity
  8
STANDARDEBENE
 62
     7
100
AcDbVertex
100
AcDb2dVertex
 10
-13.66480800206714
 20
10.09448094060354
 30
0.0
  0
VERTEX
  5
278
330
276
100
AcDbEntity
  8
STANDARDEBENE
 62
     7
100
AcDbVertex
100
AcDb2dVertex
 10
-12.63834112508245
 20
10.09448094060354
 30
0.0
  0
SEQEND
  5
279
330
276
100
AcDbEntity
  8
STANDARDEBENE
  0
POLYLINE
  5
27A
330
1F
100
AcDbEntity
  8
STANDARDEBENE
 62
     7
100
AcDb2dPolyline
 66
     1
 10
0.0
 20
0.0
 30
0.0
  0
VERTEX
  5
27B
330
27A
100
AcDbEntity
  8
STANDARDEBENE
 62
     7
100
AcDbVertex
100
AcDb2dVertex
 10
-11.61273552253726
 20
10.09448094060354
 30
0.0
  0
VERTEX
  5
27C
330
27A
100
AcDbEntity
  8
STANDARDEBENE
 62
     7
100
AcDbVertex
100
AcDb2dVertex
 10
-10.58644090044047
 20
10.09448094060354
 30
0.0
  0
SEQEND
  5
27D
330
27A
100
AcDbEntity
  8
STANDARDEBENE
  0
POLYLINE
  5
27E
330
1F
100
AcDbEntity
  8
STANDARDEBENE
 62
     7
100
AcDb2dPolyline
 66
     1
 10
0.0
 20
0.0
 30
0.0
  0
VERTEX
  5
27F
330
27E
100
AcDbEntity
  8
STANDARDEBENE
 62
     7
100
AcDbVertex
100
AcDb2dVertex
 10
-9.560663043007379
 20
10.09448094060354
 30
0.0
  0
VERTEX
  5
280
330
27E
100
AcDbEntity
  8
STANDARDEBENE
 62
     7
100
AcDbVertex
100
AcDb2dVertex
 10
-8.535057440462186
 20
10.09448094060354
 30
0.0
  0
SEQEND
  5
281
330
27E
100
AcDbEntity
  8
STANDARDEBENE
  0
POLYLINE
  5
282
330
1F
100
AcDbEntity
  8
STANDARDEBENE
 62
     7
100
AcDb2dPolyline
 66
     1
 10
0.0
 20
0.0
 30
0.0
  0
VERTEX
  5
283
330
282
100
AcDbEntity
  8
STANDARDEBENE
 62
     7
100
AcDbVertex
100
AcDb2dVertex
 10
-7.508935073253296
 20
10.09448094060354
 30
0.0
  0
VERTEX
  5
284
330
282
100
AcDbEntity
  8
STANDARDEBENE
 62
     7
100
AcDbVertex
100
AcDb2dVertex
 10
-6.482984960932305
 20
10.09448094060354
 30
0.0
  0
SEQEND
  5
285
330
282
100
AcDbEntity
  8
STANDARDEBENE
  0
POLYLINE
  5
286
330
1F
100
AcDbEntity
  8
STANDARDEBENE
 62
     7
100
AcDb2dPolyline
 66
     1
 10
0.0
 20
0.0
 30
0.0
  0
VERTEX
  5
287
330
286
100
AcDbEntity
  8
STANDARDEBENE
 62
     7
100
AcDbVertex
100
AcDb2dVertex
 10
-5.456690338835519
 20
10.09448094060354
 30
0.0
  0
VERTEX
  5
288
330
286
100
AcDbEntity
  8
STANDARDEBENE
 62
     7
100
AcDbVertex
100
AcDb2dVertex
 10
-4.944232047338717
 20
10.09448094060354
 30
0.0
  0
SEQEND
  5
289
330
286
100
AcDbEntity
  8
STANDARDEBENE
  0
POLYLINE
  5
28A
330
1F
100
AcDbEntity
  8
STANDARDEBENE
 62
     7
100
AcDb2dPolyline
 66
     1
 10
0.0
 20
0.0
 30
0.0
  0
VERTEX
  5
28B
330
28A
100
AcDbEntity
  8
STANDARDEBENE
 62
     7
100
AcDbVertex
100
AcDb2dVertex
 10
-4.877224895946362
 20
8.840982121369183
 30
0.0
  0
VERTEX
  5
28C
330
28A
100
AcDbEntity
  8
STANDARDEBENE
 62
     7
100
AcDbVertex
100
AcDb2dVertex
 10
-5.397090147622781
 20
8.840982121369183
 30
0.0
  0
SEQEND
  5
28D
330
28A
100
AcDbEntity
  8
STANDARDEBENE
  0
POLYLINE
  5
28E
330
1F
100
AcDbEntity
  8
STANDARDEBENE
 62
     7
100
AcDb2dPolyline
 66
     1
 10
0.0
 20
0.0
 30
0.0
  0
VERTEX
  5
28F
330
28E
100
AcDbEntity
  8
STANDARDEBENE
 62
     7
100
AcDbVertex
100
AcDb2dVertex
 10
-6.436131631424026
 20
8.840982121369183
 30
0.0
  0
VERTEX
  5
290
330
28E
100
AcDbEntity
  8
STANDARDEBENE
 62
     7
100
AcDbVertex
100
AcDb2dVertex
 10
-7.475345370113169
 20
8.840982121369183
 30
0.0
  0
SEQEND
  5
291
330
28E
100
AcDbEntity
  8
STANDARDEBENE
  0
POLYLINE
  5
292
330
1F
100
AcDbEntity
  8
STANDARDEBENE
 62
     7
100
AcDb2dPolyline
 66
     1
 10
0.0
 20
0.0
 30
0.0
  0
VERTEX
  5
293
330
292
100
AcDbEntity
  8
STANDARDEBENE
 62
     7
100
AcDbVertex
100
AcDb2dVertex
 10
-8.514559108802313
 20
8.840982121369183
 30
0.0
  0
VERTEX
  5
294
330
292
100
AcDbEntity
  8
STANDARDEBENE
 62
     7
100
AcDbVertex
100
AcDb2dVertex
 10
-9.553945102379355
 20
8.840982121369183
 30
0.0
  0
SEQEND
  5
295
330
292
100
AcDbEntity
  8
STANDARDEBENE
  0
POLYLINE
  5
296
330
1F
100
AcDbEntity
  8
STANDARDEBENE
 62
     7
100
AcDb2dPolyline
 66
     1
 10
0.0
 20
0.0
 30
0.0
  0
VERTEX
  5
297
330
296
100
AcDbEntity
  8
STANDARDEBENE
 62
     7
100
AcDbVertex
100
AcDb2dVertex
 10
-10.5931588410685
 20
8.840982121369183
 30
0.0
  0
VERTEX
  5
298
330
296
100
AcDbEntity
  8
STANDARDEBENE
 62
     7
100
AcDbVertex
100
AcDb2dVertex
 10
-11.63254483464554
 20
8.840982121369183
 30
0.0
  0
SEQEND
  5
299
330
296
100
AcDbEntity
  8
STANDARDEBENE
  0
POLYLINE
  5
29A
330
1F
100
AcDbEntity
  8
STANDARDEBENE
 62
     7
100
AcDb2dPolyline
 66
     1
 10
0.0
 20
0.0
 30
0.0
  0
VERTEX
  5
29B
330
29A
100
AcDbEntity
  8
STANDARDEBENE
 62
     7
100
AcDbVertex
100
AcDb2dVertex
 10
-12.67175857333468
 20
8.840982121369183
 30
0.0
  0
VERTEX
  5
29C
330
29A
100
AcDbEntity
  8
STANDARDEBENE
 62
     7
100
AcDbVertex
100
AcDb2dVertex
 10
-13.71148907668752
 20
8.840982121369183
 30
0.0
  0
SEQEND
  5
29D
330
29A
100
AcDbEntity
  8
STANDARDEBENE
  0
POLYLINE
  5
29E
330
1F
100
AcDbEntity
  8
STANDARDEBENE
 62
     7
100
AcDb2dPolyline
 66
     1
 10
0.0
 20
0.0
 30
0.0
  0
VERTEX
  5
29F
330
29E
100
AcDbEntity
  8
STANDARDEBENE
 62
     7
100
AcDbVertex
100
AcDb2dVertex
 10
-14.75070281537666
 20
8.840982121369183
 30
0.0
  0
VERTEX
  5
2A0
330
29E
100
AcDbEntity
  8
STANDARDEBENE
 62
     7
100
AcDbVertex
100
AcDb2dVertex
 10
-15.27005130238939
 20
8.840982121369183
 30
0.0
  0
SEQEND
  5
2A1
330
29E
100
AcDbEntity
  8
STANDARDEBENE
  0
POLYLINE
  5
2A2
330
1F
100
AcDbEntity
  8
STANDARDEBENE
 62
     7
100
AcDb2dPolyline
 66
     1
 10
0.0
 20
0.0
 30
0.0
  0
VERTEX
  5
2A3
330
2A2
100
AcDbEntity
  8
STANDARDEBENE
 62
     7
100
AcDbVertex
100
AcDb2dVertex
 10
-16.07362035443395
 20
11.41619269544555
 30
0.0
  0
VERTEX
  5
2A4
330
2A2
100
AcDbEntity
  8
STANDARDEBENE
 62
     7
100
AcDbVertex
100
AcDb2dVertex
 10
-16.07362035443395
 20
11.89988442066337
 30
0.0
  0
SEQEND
  5
2A5
330
2A2
100
AcDbEntity
  8
STANDARDEBENE
  0
POLYLINE
  5
2A6
330
1F
100
AcDbEntity
  8
STANDARDEBENE
 62
     7
100
AcDb2dPolyline
 66
     1
 10
0.0
 20
0.0
 30
0.0
  0
VERTEX
  5
2A7
330
2A6
100
AcDbEntity
  8
STANDARDEBENE
 62
     7
100
AcDbVertex
100
AcDb2dVertex
 10
-16.07362035443395
 20
12.8679568906506
 30
0.0
  0
VERTEX
  5
2A8
330
2A6
100
AcDbEntity
  8
STANDARDEBENE
 62
     7
100
AcDbVertex
100
AcDb2dVertex
 10
-16.07362035443395
 20
13.83568485086204
 30
0.0
  0
SEQEND
  5
2A9
330
2A6
100
AcDbEntity
  8
STANDARDEBENE
  0
POLYLINE
  5
2AA
330
1F
100
AcDbEntity
  8
STANDARDEBENE
 62
     7
100
AcDb2dPolyline
 66
     1
 10
0.0
 20
0.0
 30
0.0
  0
VERTEX
  5
2AB
330
2AA
100
AcDbEntity
  8
STANDARDEBENE
 62
     7
100
AcDbVertex
100
AcDb2dVertex
 10
-16.07362035443395
 20
14.80324055618558
 30
0.0
  0
VERTEX
  5
2AC
330
2AA
100
AcDbEntity
  8
STANDARDEBENE
 62
     7
100
AcDbVertex
100
AcDb2dVertex
 10
-16.07362035443395
 20
15.77096851639702
 30
0.0
  0
SEQEND
  5
2AD
330
2AA
100
AcDbEntity
  8
STANDARDEBENE
  0
POLYLINE
  5
2AE
330
1F
100
AcDbEntity
  8
STANDARDEBENE
 62
     7
100
AcDb2dPolyline
 66
     1
 10
0.0
 20
0.0
 30
0.0
  0
VERTEX
  5
2AF
330
2AE
100
AcDbEntity
  8
STANDARDEBENE
 62
     7
100
AcDbVertex
100
AcDb2dVertex
 10
-16.07362035443395
 20
16.73938549616005
 30
0.0
  0
VERTEX
  5
2B0
330
2AE
100
AcDbEntity
  8
STANDARDEBENE
 62
     7
100
AcDbVertex
100
AcDb2dVertex
 10
-16.07362035443395
 20
17.70694120148359
 30
0.0
  0
SEQEND
  5
2B1
330
2AE
100
AcDbEntity
  8
STANDARDEBENE
  0
POLYLINE
  5
2B2
330
1F
100
AcDbEntity
  8
STANDARDEBENE
 62
     7
100
AcDb2dPolyline
 66
     1
 10
0.0
 20
0.0
 30
0.0
  0
VERTEX
  5
2B3
330
2B2
100
AcDbEntity
  8
STANDARDEBENE
 62
     7
100
AcDbVertex
100
AcDb2dVertex
 10
-16.07362035443395
 20
18.67466916169503
 30
0.0
  0
VERTEX
  5
2B4
330
2B2
100
AcDbEntity
  8
STANDARDEBENE
 62
     7
100
AcDbVertex
100
AcDb2dVertex
 10
-16.07362035443395
 20
19.64239712190647
 30
0.0
  0
SEQEND
  5
2B5
330
2B2
100
AcDbEntity
  8
STANDARDEBENE
  0
POLYLINE
  5
2B6
330
1F
100
AcDbEntity
  8
STANDARDEBENE
 62
     7
100
AcDb2dPolyline
 66
     1
 10
0.0
 20
0.0
 30
0.0
  0
VERTEX
  5
2B7
330
2B6
100
AcDbEntity
  8
STANDARDEBENE
 62
     7
100
AcDbVertex
100
AcDb2dVertex
 10
-16.07362035443395
 20
20.60995282723
 30
0.0
  0
VERTEX
  5
2B8
330
2B6
100
AcDbEntity
  8
STANDARDEBENE
 62
     7
100
AcDbVertex
100
AcDb2dVertex
 10
-16.07362035443395
 20
21.09398906222362
 30
0.0
  0
SEQEND
  5
2B9
330
2B6
100
AcDbEntity
  8
STANDARDEBENE
  0
POLYLINE
  5
2BA
330
1F
100
AcDbEntity
  8
STANDARDEBENE
 62
     7
100
AcDb2dPolyline
 66
     1
 10
0.0
 20
0.0
 30
0.0
  0
VERTEX
  5
2BB
330
2BA
100
AcDbEntity
  8
STANDARDEBENE
 62
     7
100
AcDbVertex
100
AcDb2dVertex
 10
-15.57373666975371
 20
21.09398906222362
 30
0.0
  0
VERTEX
  5
2BC
330
2BA
100
AcDbEntity
  8
STANDARDEBENE
 62
     7
100
AcDbVertex
100
AcDb2dVertex
 10
-15.69862146347982
 20
21.09398906222362
 30
0.0
  0
SEQEND
  5
2BD
330
2BA
100
AcDbEntity
  8
STANDARDEBENE
  0
POLYLINE
  5
2BE
330
1F
100
AcDbEntity
  8
STANDARDEBENE
 62
     7
100
AcDb2dPolyline
 66
     1
 10
0.0
 20
0.0
 30
0.0
  0
VERTEX
  5
2BF
330
2BE
100
AcDbEntity
  8
STANDARDEBENE
 62
     7
100
AcDbVertex
100
AcDb2dVertex
 10
-15.94908007048364
 20
21.09398906222362
 30
0.0
  0
VERTEX
  5
2C0
330
2BE
100
AcDbEntity
  8
STANDARDEBENE
 62
     7
100
AcDbVertex
100
AcDb2dVertex
 10
-16.07362035443395
 20
21.09398906222362
 30
0.0
  0
SEQEND
  5
2C1
330
2BE
100
AcDbEntity
  8
STANDARDEBENE
  0
POLYLINE
  5
2C2
330
1F
100
AcDbEntity
  8
STANDARDEBENE
 62
     7
100
AcDb2dPolyline
 66
     1
 10
0.0
 20
0.0
 30
0.0
  0
VERTEX
  5
2C3
330
2C2
100
AcDbEntity
  8
STANDARDEBENE
 62
     7
100
AcDbVertex
100
AcDb2dVertex
 10
-4.573367273694141
 20
21.09398906222362
 30
0.0
  0
VERTEX
  5
2C4
330
2C2
100
AcDbEntity
  8
STANDARDEBENE
 62
     7
100
AcDbVertex
100
AcDb2dVertex
 10
-4.448826989743827
 20
21.09398906222362
 30
0.0
  0
SEQEND
  5
2C5
330
2C2
100
AcDbEntity
  8
STANDARDEBENE
  0
POLYLINE
  5
2C6
330
1F
100
AcDbEntity
  8
STANDARDEBENE
 62
     7
100
AcDb2dPolyline
 66
     1
 10
0.0
 20
0.0
 30
0.0
  0
VERTEX
  5
2C7
330
2C6
100
AcDbEntity
  8
STANDARDEBENE
 62
     7
100
AcDbVertex
100
AcDb2dVertex
 10
-4.198712892515807
 20
21.09398906222362
 30
0.0
  0
VERTEX
  5
2C8
330
2C6
100
AcDbEntity
  8
STANDARDEBENE
 62
     7
100
AcDbVertex
100
AcDb2dVertex
 10
-4.0734835890139
 20
21.09398906222362
 30
0.0
  0
SEQEND
  5
2C9
330
2C6
100
AcDbEntity
  8
STANDARDEBENE
  0
POLYLINE
  5
2CA
330
1F
100
AcDbEntity
  8
STANDARDEBENE
 62
     7
100
AcDb2dPolyline
 66
     1
 10
0.0
 20
0.0
 30
0.0
  0
VERTEX
  5
2CB
330
2CA
100
AcDbEntity
  8
STANDARDEBENE
 62
     7
100
AcDbVertex
100
AcDb2dVertex
 10
-15.57373666975371
 20
21.09398906222362
 30
0.0
  0
VERTEX
  5
2CC
330
2CA
100
AcDbEntity
  8
STANDARDEBENE
 62
     7
100
AcDbVertex
100
AcDb2dVertex
 10
-15.02372681269513
 20
21.09398906222362
 30
0.0
  0
SEQEND
  5
2CD
330
2CA
100
AcDbEntity
  8
STANDARDEBENE
  0
POLYLINE
  5
2CE
330
1F
100
AcDbEntity
  8
STANDARDEBENE
 62
     7
100
AcDb2dPolyline
 66
     1
 10
0.0
 20
0.0
 30
0.0
  0
VERTEX
  5
2CF
330
2CE
100
AcDbEntity
  8
STANDARDEBENE
 62
     7
100
AcDbVertex
100
AcDb2dVertex
 10
-13.92336258880216
 20
21.09398906222362
 30
0.0
  0
VERTEX
  5
2D0
330
2CE
100
AcDbEntity
  8
STANDARDEBENE
 62
     7
100
AcDbVertex
100
AcDb2dVertex
 10
-12.8235151295729
 20
21.09398906222362
 30
0.0
  0
SEQEND
  5
2D1
330
2CE
100
AcDbEntity
  8
STANDARDEBENE
  0
POLYLINE
  5
2D2
330
1F
100
AcDbEntity
  8
STANDARDEBENE
 62
     7
100
AcDb2dPolyline
 66
     1
 10
0.0
 20
0.0
 30
0.0
  0
VERTEX
  5
2D3
330
2D2
100
AcDbEntity
  8
STANDARDEBENE
 62
     7
100
AcDbVertex
100
AcDb2dVertex
 10
-11.72349541545573
 20
21.09398906222362
 30
0.0
  0
VERTEX
  5
2D4
330
2D2
100
AcDbEntity
  8
STANDARDEBENE
 62
     7
100
AcDbVertex
100
AcDb2dVertex
 10
-10.62399246600225
 20
21.09398906222362
 30
0.0
  0
SEQEND
  5
2D5
330
2D2
100
AcDbEntity
  8
STANDARDEBENE
  0
POLYLINE
  5
2D6
330
1F
100
AcDbEntity
  8
STANDARDEBENE
 62
     7
100
AcDb2dPolyline
 66
     1
 10
0.0
 20
0.0
 30
0.0
  0
VERTEX
  5
2D7
330
2D6
100
AcDbEntity
  8
STANDARDEBENE
 62
     7
100
AcDbVertex
100
AcDb2dVertex
 10
-9.523972751885088
 20
21.09398906222362
 30
0.0
  0
VERTEX
  5
2D8
330
2D6
100
AcDbEntity
  8
STANDARDEBENE
 62
     7
100
AcDbVertex
100
AcDb2dVertex
 10
-8.423608527992124
 20
21.09398906222362
 30
0.0
  0
SEQEND
  5
2D9
330
2D6
100
AcDbEntity
  8
STANDARDEBENE
  0
POLYLINE
  5
2DA
330
1F
100
AcDbEntity
  8
STANDARDEBENE
 62
     7
100
AcDb2dPolyline
 66
     1
 10
0.0
 20
0.0
 30
0.0
  0
VERTEX
  5
2DB
330
2DA
100
AcDbEntity
  8
STANDARDEBENE
 62
     7
100
AcDbVertex
100
AcDb2dVertex
 10
-7.323588813874958
 20
21.09398906222362
 30
0.0
  0
VERTEX
  5
2DC
330
2DA
100
AcDbEntity
  8
STANDARDEBENE
 62
     7
100
AcDbVertex
100
AcDb2dVertex
 10
-6.223741354645688
 20
21.09398906222362
 30
0.0
  0
SEQEND
  5
2DD
330
2DA
100
AcDbEntity
  8
STANDARDEBENE
  0
POLYLINE
  5
2DE
330
1F
100
AcDbEntity
  8
STANDARDEBENE
 62
     7
100
AcDb2dPolyline
 66
     1
 10
0.0
 20
0.0
 30
0.0
  0
VERTEX
  5
2DF
330
2DE
100
AcDbEntity
  8
STANDARDEBENE
 62
     7
100
AcDbVertex
100
AcDb2dVertex
 10
-5.123377130752725
 20
21.09398906222362
 30
0.0
  0
VERTEX
  5
2E0
330
2DE
100
AcDbEntity
  8
STANDARDEBENE
 62
     7
100
AcDbVertex
100
AcDb2dVertex
 10
-4.573367273694141
 20
21.09398906222362
 30
0.0
  0
SEQEND
  5
2E1
330
2DE
100
AcDbEntity
  8
STANDARDEBENE
  0
POLYLINE
  5
2E2
330
1F
100
AcDbEntity
  8
STANDARDEBENE
 62
     7
100
AcDb2dPolyline
 66
     1
 10
0.0
 20
0.0
 30
0.0
  0
VERTEX
  5
2E3
330
2E2
100
AcDbEntity
  8
STANDARDEBENE
 62
     7
100
AcDbVertex
100
AcDb2dVertex
 10
-4.0734835890139
 20
11.41619269544555
 30
0.0
  0
VERTEX
  5
2E4
330
2E2
100
AcDbEntity
  8
STANDARDEBENE
 62
     7
100
AcDbVertex
100
AcDb2dVertex
 10
-4.0734835890139
 20
11.89988442066337
 30
0.0
  0
SEQEND
  5
2E5
330
2E2
100
AcDbEntity
  8
STANDARDEBENE
  0
POLYLINE
  5
2E6
330
1F
100
AcDbEntity
  8
STANDARDEBENE
 62
     7
100
AcDb2dPolyline
 66
     1
 10
0.0
 20
0.0
 30
0.0
  0
VERTEX
  5
2E7
330
2E6
100
AcDbEntity
  8
STANDARDEBENE
 62
     7
100
AcDbVertex
100
AcDb2dVertex
 10
-4.0734835890139
 20
12.8679568906506
 30
0.0
  0
VERTEX
  5
2E8
330
2E6
100
AcDbEntity
  8
STANDARDEBENE
 62
     7
100
AcDbVertex
100
AcDb2dVertex
 10
-4.0734835890139
 20
13.83568485086204
 30
0.0
  0
SEQEND
  5
2E9
330
2E6
100
AcDbEntity
  8
STANDARDEBENE
  0
POLYLINE
  5
2EA
330
1F
100
AcDbEntity
  8
STANDARDEBENE
 62
     7
100
AcDb2dPolyline
 66
     1
 10
0.0
 20
0.0
 30
0.0
  0
VERTEX
  5
2EB
330
2EA
100
AcDbEntity
  8
STANDARDEBENE
 62
     7
100
AcDbVertex
100
AcDb2dVertex
 10
-4.0734835890139
 20
14.80324055618558
 30
0.0
  0
VERTEX
  5
2EC
330
2EA
100
AcDbEntity
  8
STANDARDEBENE
 62
     7
100
AcDbVertex
100
AcDb2dVertex
 10
-4.0734835890139
 20
15.77096851639702
 30
0.0
  0
SEQEND
  5
2ED
330
2EA
100
AcDbEntity
  8
STANDARDEBENE
  0
POLYLINE
  5
2EE
330
1F
100
AcDbEntity
  8
STANDARDEBENE
 62
     7
100
AcDb2dPolyline
 66
     1
 10
0.0
 20
0.0
 30
0.0
  0
VERTEX
  5
2EF
330
2EE
100
AcDbEntity
  8
STANDARDEBENE
 62
     7
100
AcDbVertex
100
AcDb2dVertex
 10
-4.0734835890139
 20
16.73938549616005
 30
0.0
  0
VERTEX
  5
2F0
330
2EE
100
AcDbEntity
  8
STANDARDEBENE
 62
     7
100
AcDbVertex
100
AcDb2dVertex
 10
-4.0734835890139
 20
17.70694120148359
 30
0.0
  0
SEQEND
  5
2F1
330
2EE
100
AcDbEntity
  8
STANDARDEBENE
  0
POLYLINE
  5
2F2
330
1F
100
AcDbEntity
  8
STANDARDEBENE
 62
     7
100
AcDb2dPolyline
 66
     1
 10
0.0
 20
0.0
 30
0.0
  0
VERTEX
  5
2F3
330
2F2
100
AcDbEntity
  8
STANDARDEBENE
 62
     7
100
AcDbVertex
100
AcDb2dVertex
 10
-4.0734835890139
 20
18.67466916169503
 30
0.0
  0
VERTEX
  5
2F4
330
2F2
100
AcDbEntity
  8
STANDARDEBENE
 62
     7
100
AcDbVertex
100
AcDb2dVertex
 10
-4.0734835890139
 20
19.64239712190647
 30
0.0
  0
SEQEND
  5
2F5
330
2F2
100
AcDbEntity
  8
STANDARDEBENE
  0
POLYLINE
  5
2F6
330
1F
100
AcDbEntity
  8
STANDARDEBENE
 62
     7
100
AcDb2dPolyline
 66
     1
 10
0.0
 20
0.0
 30
0.0
  0
VERTEX
  5
2F7
330
2F6
100
AcDbEntity
  8
STANDARDEBENE
 62
     7
100
AcDbVertex
100
AcDb2dVertex
 10
-4.0734835890139
 20
20.60995282723
 30
0.0
  0
VERTEX
  5
2F8
330
2F6
100
AcDbEntity
  8
STANDARDEBENE
 62
     7
100
AcDbVertex
100
AcDb2dVertex
 10
-4.0734835890139
 20
21.09398906222362
 30
0.0
  0
SEQEND
  5
2F9
330
2F6
100
AcDbEntity
  8
STANDARDEBENE
  0
POLYLINE
  5
2FA
330
1F
100
AcDbEntity
  8
STANDARDEBENE
 62
     7
100
AcDb2dPolyline
 66
     1
 10
0.0
 20
0.0
 30
0.0
  0
VERTEX
  5
2FB
330
2FA
100
AcDbEntity
  8
STANDARDEBENE
 62
     7
100
AcDbVertex
100
AcDb2dVertex
 10
-16.07362035443395
 20
21.09398906222362
 30
0.0
  0
VERTEX
  5
2FC
330
2FA
100
AcDbEntity
  8
STANDARDEBENE
 62
     7
100
AcDbVertex
100
AcDb2dVertex
 10
-15.94908007048364
 20
21.31103022097521
 30
0.0
  0
SEQEND
  5
2FD
330
2FA
100
AcDbEntity
  8
STANDARDEBENE
  0
POLYLINE
  5
2FE
330
1F
100
AcDbEntity
  8
STANDARDEBENE
 62
     7
100
AcDb2dPolyline
 66
     1
 10
0.0
 20
0.0
 30
0.0
  0
VERTEX
  5
2FF
330
2FE
100
AcDbEntity
  8
STANDARDEBENE
 62
     7
100
AcDbVertex
100
AcDb2dVertex
 10
-15.69862146347982
 20
21.7433899895994
 30
0.0
  0
VERTEX
  5
300
330
2FE
100
AcDbEntity
  8
STANDARDEBENE
 62
     7
100
AcDbVertex
100
AcDb2dVertex
 10
-15.57373666975371
 20
21.96043114835099
 30
0.0
  0
SEQEND
  5
301
330
2FE
100
AcDbEntity
  8
STANDARDEBENE
  0
POLYLINE
  5
302
330
1F
100
AcDbEntity
  8
STANDARDEBENE
 62
     7
100
AcDb2dPolyline
 66
     1
 10
0.0
 20
0.0
 30
0.0
  0
VERTEX
  5
303
330
302
100
AcDbEntity
  8
STANDARDEBENE
 62
     7
100
AcDbVertex
100
AcDb2dVertex
 10
-4.0734835890139
 20
21.09398906222362
 30
0.0
  0
VERTEX
  5
304
330
302
100
AcDbEntity
  8
STANDARDEBENE
 62
     7
100
AcDbVertex
100
AcDb2dVertex
 10
-4.198712892515807
 20
21.31103022097521
 30
0.0
  0
SEQEND
  5
305
330
302
100
AcDbEntity
  8
STANDARDEBENE
  0
POLYLINE
  5
306
330
1F
100
AcDbEntity
  8
STANDARDEBENE
 62
     7
100
AcDb2dPolyline
 66
     1
 10
0.0
 20
0.0
 30
0.0
  0
VERTEX
  5
307
330
306
100
AcDbEntity
  8
STANDARDEBENE
 62
     7
100
AcDbVertex
100
AcDb2dVertex
 10
-4.448826989743827
 20
21.7433899895994
 30
0.0
  0
VERTEX
  5
308
330
306
100
AcDbEntity
  8
STANDARDEBENE
 62
     7
100
AcDbVertex
100
AcDb2dVertex
 10
-4.573367273694141
 20
21.96043114835099
 30
0.0
  0
SEQEND
  5
309
330
306
100
AcDbEntity
  8
STANDARDEBENE
  0
POLYLINE
  5
30A
330
1F
100
AcDbEntity
  8
STANDARDEBENE
 62
     7
100
AcDb2dPolyline
 66
     1
 10
0.0
 20
0.0
 30
0.0
  0
VERTEX
  5
30B
330
30A
100
AcDbEntity
  8
STANDARDEBENE
 62
     7
100
AcDbVertex
100
AcDb2dVertex
 10
-18.07952852400715
 20
10.21040848015895
 30
0.0
  0
VERTEX
  5
30C
330
30A
100
AcDbEntity
  8
STANDARDEBENE
 62
     7
100
AcDbVertex
100
AcDb2dVertex
 10
-18.15084204759695
 20
10.13806142724176
 30
0.0
  0
SEQEND
  5
30D
330
30A
100
AcDbEntity
  8
STANDARDEBENE
  0
POLYLINE
  5
30E
330
1F
100
AcDbEntity
  8
STANDARDEBENE
 62
     7
100
AcDb2dPolyline
 66
     1
 10
0.0
 20
0.0
 30
0.0
  0
VERTEX
  5
30F
330
30E
100
AcDbEntity
  8
STANDARDEBENE
 62
     7
100
AcDbVertex
100
AcDb2dVertex
 10
-18.24782154948358
 20
9.966323304007368
 30
0.0
  0
VERTEX
  5
310
330
30E
100
AcDbEntity
  8
STANDARDEBENE
 62
     7
100
AcDbVertex
100
AcDb2dVertex
 10
-18.27383203755618
 20
9.867965763017562
 30
0.0
  0
SEQEND
  5
311
330
30E
100
AcDbEntity
  8
STANDARDEBENE
  0
POLYLINE
  5
312
330
1F
100
AcDbEntity
  8
STANDARDEBENE
 62
     7
100
AcDb2dPolyline
 66
     1
 10
0.0
 20
0.0
 30
0.0
  0
VERTEX
  5
313
330
312
100
AcDbEntity
  8
STANDARDEBENE
 62
     7
100
AcDbVertex
100
AcDb2dVertex
 10
-1.873960925443261
 20
9.867965763017562
 30
0.0
  0
VERTEX
  5
314
330
312
100
AcDbEntity
  8
STANDARDEBENE
 62
     7
100
AcDbVertex
100
AcDb2dVertex
 10
-1.899282393964279
 20
9.966323304007368
 30
0.0
  0
SEQEND
  5
315
330
312
100
AcDbEntity
  8
STANDARDEBENE
  0
POLYLINE
  5
316
330
1F
100
AcDbEntity
  8
STANDARDEBENE
 62
     7
100
AcDb2dPolyline
 66
     1
 10
0.0
 20
0.0
 30
0.0
  0
VERTEX
  5
317
330
316
100
AcDbEntity
  8
STANDARDEBENE
 62
     7
100
AcDbVertex
100
AcDb2dVertex
 10
-1.996434150738798
 20
10.13806142724176
 30
0.0
  0
VERTEX
  5
318
330
316
100
AcDbEntity
  8
STANDARDEBENE
 62
     7
100
AcDbVertex
100
AcDb2dVertex
 10
-2.067575419440707
 20
10.21040848015895
 30
0.0
  0
SEQEND
  5
319
330
316
100
AcDbEntity
  8
STANDARDEBENE
  0
POLYLINE
  5
31A
330
1F
100
AcDbEntity
  8
STANDARDEBENE
 62
     7
100
AcDb2dPolyline
 66
     1
 10
0.0
 20
0.0
 30
0.0
  0
VERTEX
  5
31B
330
31A
100
AcDbEntity
  8
STANDARDEBENE
 62
     7
100
AcDbVertex
100
AcDb2dVertex
 10
-18.27383203755618
 20
8.893519862178099
 30
0.0
  0
VERTEX
  5
31C
330
31A
100
AcDbEntity
  8
STANDARDEBENE
 62
     7
100
AcDbVertex
100
AcDb2dVertex
 10
-18.2721094886772
 20
8.866992609441795
 30
0.0
  0
SEQEND
  5
31D
330
31A
100
AcDbEntity
  8
STANDARDEBENE
  0
POLYLINE
  5
31E
330
1F
100
AcDbEntity
  8
STANDARDEBENE
 62
     7
100
AcDb2dPolyline
 66
     1
 10
0.0
 20
0.0
 30
0.0
  0
VERTEX
  5
31F
330
31E
100
AcDbEntity
  8
STANDARDEBENE
 62
     7
100
AcDbVertex
100
AcDb2dVertex
 10
-18.26539154804918
 20
8.815660652848164
 30
0.0
  0
VERTEX
  5
320
330
31E
100
AcDbEntity
  8
STANDARDEBENE
 62
     7
100
AcDbVertex
100
AcDb2dVertex
 10
-18.25970713674854
 20
8.789822419663452
 30
0.0
  0
SEQEND
  5
321
330
31E
100
AcDbEntity
  8
STANDARDEBENE
  0
POLYLINE
  5
322
330
1F
100
AcDbEntity
  8
STANDARDEBENE
 62
     7
100
AcDb2dPolyline
 66
     1
 10
0.0
 20
0.0
 30
0.0
  0
VERTEX
  5
323
330
322
100
AcDbEntity
  8
STANDARDEBENE
 62
     7
100
AcDbVertex
100
AcDb2dVertex
 10
-1.887396806699311
 20
8.789822419663452
 30
0.0
  0
VERTEX
  5
324
330
322
100
AcDbEntity
  8
STANDARDEBENE
 62
     7
100
AcDbVertex
100
AcDb2dVertex
 10
-1.882401414950267
 20
8.815660652848164
 30
0.0
  0
SEQEND
  5
325
330
322
100
AcDbEntity
  8
STANDARDEBENE
  0
POLYLINE
  5
326
330
1F
100
AcDbEntity
  8
STANDARDEBENE
 62
     7
100
AcDb2dPolyline
 66
     1
 10
0.0
 20
0.0
 30
0.0
  0
VERTEX
  5
327
330
326
100
AcDbEntity
  8
STANDARDEBENE
 62
     7
100
AcDbVertex
100
AcDb2dVertex
 10
-1.875683474322241
 20
8.866992609441795
 30
0.0
  0
VERTEX
  5
328
330
326
100
AcDbEntity
  8
STANDARDEBENE
 62
     7
100
AcDbVertex
100
AcDb2dVertex
 10
-1.873960925443261
 20
8.893519862178099
 30
0.0
  0
SEQEND
  5
329
330
326
100
AcDbEntity
  8
STANDARDEBENE
  0
POLYLINE
  5
32A
330
1F
100
AcDbEntity
  8
STANDARDEBENE
 62
     7
100
AcDb2dPolyline
 66
     1
 10
0.0
 20
0.0
 30
0.0
  0
VERTEX
  5
32B
330
32A
100
AcDbEntity
  8
STANDARDEBENE
 62
     7
100
AcDbVertex
100
AcDb2dVertex
 10
-18.07349960293071
 20
0.6938426884534841
 30
0.0
  0
VERTEX
  5
32C
330
32A
100
AcDbEntity
  8
STANDARDEBENE
 62
     7
100
AcDbVertex
100
AcDb2dVertex
 10
-17.96480676866702
 20
0.6938426884534841
 30
0.0
  0
VERTEX
  5
32D
330
32A
100
AcDbEntity
  8
STANDARDEBENE
 62
     7
100
AcDbVertex
100
AcDb2dVertex
 10
-17.63993405009123
 20
0.6938426884534841
 30
0.0
  0
VERTEX
  5
32E
330
32A
100
AcDbEntity
  8
STANDARDEBENE
 62
     7
100
AcDbVertex
100
AcDb2dVertex
 10
-17.57361591825047
 20
0.6938426884534841
 30
0.0
  0
SEQEND
  5
32F
330
32A
100
AcDbEntity
  8
STANDARDEBENE
  0
POLYLINE
  5
330
330
1F
100
AcDbEntity
  8
STANDARDEBENE
 62
     7
100
AcDb2dPolyline
 66
     1
 10
0.0
 20
0.0
 30
0.0
  0
VERTEX
  5
331
330
330
100
AcDbEntity
  8
STANDARDEBENE
 62
     7
100
AcDbVertex
100
AcDb2dVertex
 10
-16.57350403911419
 20
0.6938426884534841
 30
0.0
  0
VERTEX
  5
332
330
330
100
AcDbEntity
  8
STANDARDEBENE
 62
     7
100
AcDbVertex
100
AcDb2dVertex
 10
-16.38660748574477
 20
0.6938426884534841
 30
0.0
  0
VERTEX
  5
333
330
330
100
AcDbEntity
  8
STANDARDEBENE
 62
     7
100
AcDbVertex
100
AcDb2dVertex
 10
-15.57373666975371
 20
0.6938426884534841
 30
0.0
  0
SEQEND
  5
334
330
330
100
AcDbEntity
  8
STANDARDEBENE
  0
POLYLINE
  5
335
330
1F
100
AcDbEntity
  8
STANDARDEBENE
 62
     7
100
AcDb2dPolyline
 66
     1
 10
0.0
 20
0.0
 30
0.0
  0
VERTEX
  5
336
330
335
100
AcDbEntity
  8
STANDARDEBENE
 62
     7
100
AcDbVertex
100
AcDb2dVertex
 10
-14.57396930039323
 20
0.6938426884534841
 30
0.0
  0
VERTEX
  5
337
330
335
100
AcDbEntity
  8
STANDARDEBENE
 62
     7
100
AcDbVertex
100
AcDb2dVertex
 10
-14.44908450666712
 20
0.6938426884534841
 30
0.0
  0
VERTEX
  5
338
330
335
100
AcDbEntity
  8
STANDARDEBENE
 62
     7
100
AcDbVertex
100
AcDb2dVertex
 10
-13.57351291148115
 20
0.6938426884534841
 30
0.0
  0
SEQEND
  5
339
330
335
100
AcDbEntity
  8
STANDARDEBENE
  0
POLYLINE
  5
33A
330
1F
100
AcDbEntity
  8
STANDARDEBENE
 62
     7
100
AcDb2dPolyline
 66
     1
 10
0.0
 20
0.0
 30
0.0
  0
VERTEX
  5
33B
330
33A
100
AcDbEntity
  8
STANDARDEBENE
 62
     7
100
AcDbVertex
100
AcDb2dVertex
 10
-12.57374554212067
 20
0.6938426884534841
 30
0.0
  0
VERTEX
  5
33C
330
33A
100
AcDbEntity
  8
STANDARDEBENE
 62
     7
100
AcDbVertex
100
AcDb2dVertex
 10
-12.03786058586973
 20
0.6938426884534841
 30
0.0
  0
VERTEX
  5
33D
330
33A
100
AcDbEntity
  8
STANDARDEBENE
 62
     7
100
AcDbVertex
100
AcDb2dVertex
 10
-11.57363366298439
 20
0.6938426884534841
 30
0.0
  0
SEQEND
  5
33E
330
33A
100
AcDbEntity
  8
STANDARDEBENE
  0
POLYLINE
  5
33F
330
1F
100
AcDbEntity
  8
STANDARDEBENE
 62
     7
100
AcDb2dPolyline
 66
     1
 10
0.0
 20
0.0
 30
0.0
  0
VERTEX
  5
340
330
33F
100
AcDbEntity
  8
STANDARDEBENE
 62
     7
100
AcDbVertex
100
AcDb2dVertex
 10
-10.57386629362391
 20
0.6938426884534841
 30
0.0
  0
VERTEX
  5
341
330
33F
100
AcDbEntity
  8
STANDARDEBENE
 62
     7
100
AcDbVertex
100
AcDb2dVertex
 10
-9.57409892426343
 20
0.6938426884534841
 30
0.0
  0
SEQEND
  5
342
330
33F
100
AcDbEntity
  8
STANDARDEBENE
  0
POLYLINE
  5
343
330
1F
100
AcDbEntity
  8
STANDARDEBENE
 62
     7
100
AcDb2dPolyline
 66
     1
 10
0.0
 20
0.0
 30
0.0
  0
VERTEX
  5
344
330
343
100
AcDbEntity
  8
STANDARDEBENE
 62
     7
100
AcDbVertex
100
AcDb2dVertex
 10
-8.573642535351356
 20
0.6938426884534841
 30
0.0
  0
VERTEX
  5
345
330
343
100
AcDbEntity
  8
STANDARDEBENE
 62
     7
100
AcDbVertex
100
AcDb2dVertex
 10
-8.109587867353916
 20
0.6938426884534841
 30
0.0
  0
VERTEX
  5
346
330
343
100
AcDbEntity
  8
STANDARDEBENE
 62
     7
100
AcDbVertex
100
AcDb2dVertex
 10
-7.57335840132718
 20
0.6938426884534841
 30
0.0
  0
SEQEND
  5
347
330
343
100
AcDbEntity
  8
STANDARDEBENE
  0
POLYLINE
  5
348
330
1F
100
AcDbEntity
  8
STANDARDEBENE
 62
     7
100
AcDb2dPolyline
 66
     1
 10
0.0
 20
0.0
 30
0.0
  0
VERTEX
  5
349
330
348
100
AcDbEntity
  8
STANDARDEBENE
 62
     7
100
AcDbVertex
100
AcDb2dVertex
 10
-6.573591031966698
 20
0.6938426884534841
 30
0.0
  0
VERTEX
  5
34A
330
348
100
AcDbEntity
  8
STANDARDEBENE
 62
     7
100
AcDbVertex
100
AcDb2dVertex
 10
-5.698019436780735
 20
0.6938426884534841
 30
0.0
  0
VERTEX
  5
34B
330
348
100
AcDbEntity
  8
STANDARDEBENE
 62
     7
100
AcDbVertex
100
AcDb2dVertex
 10
-5.573823662606216
 20
0.6938426884534841
 30
0.0
  0
SEQEND
  5
34C
330
348
100
AcDbEntity
  8
STANDARDEBENE
  0
POLYLINE
  5
34D
330
1F
100
AcDbEntity
  8
STANDARDEBENE
 62
     7
100
AcDb2dPolyline
 66
     1
 10
0.0
 20
0.0
 30
0.0
  0
VERTEX
  5
34E
330
34D
100
AcDbEntity
  8
STANDARDEBENE
 62
     7
100
AcDbVertex
100
AcDb2dVertex
 10
-4.573367273694141
 20
0.6938426884534841
 30
0.0
  0
VERTEX
  5
34F
330
34D
100
AcDbEntity
  8
STANDARDEBENE
 62
     7
100
AcDbVertex
100
AcDb2dVertex
 10
-3.760668712590979
 20
0.6938426884534841
 30
0.0
  0
VERTEX
  5
350
330
34D
100
AcDbEntity
  8
STANDARDEBENE
 62
     7
100
AcDbVertex
100
AcDb2dVertex
 10
-3.573599904333659
 20
0.6938426884534841
 30
0.0
  0
SEQEND
  5
351
330
34D
100
AcDbEntity
  8
STANDARDEBENE
  0
POLYLINE
  5
352
330
1F
100
AcDbEntity
  8
STANDARDEBENE
 62
     7
100
AcDb2dPolyline
 66
     1
 10
0.0
 20
0.0
 30
0.0
  0
VERTEX
  5
353
330
352
100
AcDbEntity
  8
STANDARDEBENE
 62
     7
100
AcDbVertex
100
AcDb2dVertex
 10
-2.573488025197381
 20
0.6938426884534841
 30
0.0
  0
VERTEX
  5
354
330
352
100
AcDbEntity
  8
STANDARDEBENE
 62
     7
100
AcDbVertex
100
AcDb2dVertex
 10
-2.507169893356619
 20
0.6938426884534841
 30
0.0
  0
VERTEX
  5
355
330
352
100
AcDbEntity
  8
STANDARDEBENE
 62
     7
100
AcDbVertex
100
AcDb2dVertex
 10
-2.182986194332424
 20
0.6938426884534841
 30
0.0
  0
VERTEX
  5
356
330
352
100
AcDbEntity
  8
STANDARDEBENE
 62
     7
100
AcDbVertex
100
AcDb2dVertex
 10
-2.07360434051714
 20
0.6938426884534841
 30
0.0
  0
SEQEND
  5
357
330
352
100
AcDbEntity
  8
STANDARDEBENE
  0
POLYLINE
  5
358
330
1F
100
AcDbEntity
  8
STANDARDEBENE
 62
     7
100
AcDb2dPolyline
 66
     1
 10
0.0
 20
0.0
 30
0.0
  0
VERTEX
  5
359
330
358
100
AcDbEntity
  8
STANDARDEBENE
 62
     7
100
AcDbVertex
100
AcDb2dVertex
 10
-18.07349960293071
 20
8.094429437218885
 30
0.0
  0
VERTEX
  5
35A
330
358
100
AcDbEntity
  8
STANDARDEBENE
 62
     7
100
AcDbVertex
100
AcDb2dVertex
 10
-17.96480676866702
 20
8.094429437218885
 30
0.0
  0
VERTEX
  5
35B
330
358
100
AcDbEntity
  8
STANDARDEBENE
 62
     7
100
AcDbVertex
100
AcDb2dVertex
 10
-17.63993405009123
 20
8.094429437218885
 30
0.0
  0
VERTEX
  5
35C
330
358
100
AcDbEntity
  8
STANDARDEBENE
 62
     7
100
AcDbVertex
100
AcDb2dVertex
 10
-17.57361591825047
 20
8.094429437218885
 30
0.0
  0
SEQEND
  5
35D
330
358
100
AcDbEntity
  8
STANDARDEBENE
  0
POLYLINE
  5
35E
330
1F
100
AcDbEntity
  8
STANDARDEBENE
 62
     7
100
AcDb2dPolyline
 66
     1
 10
0.0
 20
0.0
 30
0.0
  0
VERTEX
  5
35F
330
35E
100
AcDbEntity
  8
STANDARDEBENE
 62
     7
100
AcDbVertex
100
AcDb2dVertex
 10
-16.57350403911419
 20
8.094429437218885
 30
0.0
  0
VERTEX
  5
360
330
35E
100
AcDbEntity
  8
STANDARDEBENE
 62
     7
100
AcDbVertex
100
AcDb2dVertex
 10
-16.38660748574477
 20
8.094429437218885
 30
0.0
  0
VERTEX
  5
361
330
35E
100
AcDbEntity
  8
STANDARDEBENE
 62
     7
100
AcDbVertex
100
AcDb2dVertex
 10
-15.57373666975371
 20
8.094429437218885
 30
0.0
  0
SEQEND
  5
362
330
35E
100
AcDbEntity
  8
STANDARDEBENE
  0
POLYLINE
  5
363
330
1F
100
AcDbEntity
  8
STANDARDEBENE
 62
     7
100
AcDb2dPolyline
 66
     1
 10
0.0
 20
0.0
 30
0.0
  0
VERTEX
  5
364
330
363
100
AcDbEntity
  8
STANDARDEBENE
 62
     7
100
AcDbVertex
100
AcDb2dVertex
 10
-14.57396930039323
 20
8.094429437218885
 30
0.0
  0
VERTEX
  5
365
330
363
100
AcDbEntity
  8
STANDARDEBENE
 62
     7
100
AcDbVertex
100
AcDb2dVertex
 10
-14.44908450666712
 20
8.094429437218885
 30
0.0
  0
VERTEX
  5
366
330
363
100
AcDbEntity
  8
STANDARDEBENE
 62
     7
100
AcDbVertex
100
AcDb2dVertex
 10
-13.57351291148115
 20
8.094429437218885
 30
0.0
  0
SEQEND
  5
367
330
363
100
AcDbEntity
  8
STANDARDEBENE
  0
POLYLINE
  5
368
330
1F
100
AcDbEntity
  8
STANDARDEBENE
 62
     7
100
AcDb2dPolyline
 66
     1
 10
0.0
 20
0.0
 30
0.0
  0
VERTEX
  5
369
330
368
100
AcDbEntity
  8
STANDARDEBENE
 62
     7
100
AcDbVertex
100
AcDb2dVertex
 10
-12.57374554212067
 20
8.094429437218885
 30
0.0
  0
VERTEX
  5
36A
330
368
100
AcDbEntity
  8
STANDARDEBENE
 62
     7
100
AcDbVertex
100
AcDb2dVertex
 10
-12.03786058586973
 20
8.094429437218885
 30
0.0
  0
VERTEX
  5
36B
330
368
100
AcDbEntity
  8
STANDARDEBENE
 62
     7
100
AcDbVertex
100
AcDb2dVertex
 10
-11.57363366298439
 20
8.094429437218885
 30
0.0
  0
SEQEND
  5
36C
330
368
100
AcDbEntity
  8
STANDARDEBENE
  0
POLYLINE
  5
36D
330
1F
100
AcDbEntity
  8
STANDARDEBENE
 62
     7
100
AcDb2dPolyline
 66
     1
 10
0.0
 20
0.0
 30
0.0
  0
VERTEX
  5
36E
330
36D
100
AcDbEntity
  8
STANDARDEBENE
 62
     7
100
AcDbVertex
100
AcDb2dVertex
 10
-10.57386629362391
 20
8.094429437218885
 30
0.0
  0
VERTEX
  5
36F
330
36D
100
AcDbEntity
  8
STANDARDEBENE
 62
     7
100
AcDbVertex
100
AcDb2dVertex
 10
-9.57409892426343
 20
8.094429437218885
 30
0.0
  0
SEQEND
  5
370
330
36D
100
AcDbEntity
  8
STANDARDEBENE
  0
POLYLINE
  5
371
330
1F
100
AcDbEntity
  8
STANDARDEBENE
 62
     7
100
AcDb2dPolyline
 66
     1
 10
0.0
 20
0.0
 30
0.0
  0
VERTEX
  5
372
330
371
100
AcDbEntity
  8
STANDARDEBENE
 62
     7
100
AcDbVertex
100
AcDb2dVertex
 10
-8.573642535351356
 20
8.094429437218885
 30
0.0
  0
VERTEX
  5
373
330
371
100
AcDbEntity
  8
STANDARDEBENE
 62
     7
100
AcDbVertex
100
AcDb2dVertex
 10
-8.109587867353916
 20
8.094429437218885
 30
0.0
  0
VERTEX
  5
374
330
371
100
AcDbEntity
  8
STANDARDEBENE
 62
     7
100
AcDbVertex
100
AcDb2dVertex
 10
-7.57335840132718
 20
8.094429437218885
 30
0.0
  0
SEQEND
  5
375
330
371
100
AcDbEntity
  8
STANDARDEBENE
  0
POLYLINE
  5
376
330
1F
100
AcDbEntity
  8
STANDARDEBENE
 62
     7
100
AcDb2dPolyline
 66
     1
 10
0.0
 20
0.0
 30
0.0
  0
VERTEX
  5
377
330
376
100
AcDbEntity
  8
STANDARDEBENE
 62
     7
100
AcDbVertex
100
AcDb2dVertex
 10
-6.573591031966698
 20
8.094429437218885
 30
0.0
  0
VERTEX
  5
378
330
376
100
AcDbEntity
  8
STANDARDEBENE
 62
     7
100
AcDbVertex
100
AcDb2dVertex
 10
-5.698019436780735
 20
8.094429437218885
 30
0.0
  0
VERTEX
  5
379
330
376
100
AcDbEntity
  8
STANDARDEBENE
 62
     7
100
AcDbVertex
100
AcDb2dVertex
 10
-5.573823662606216
 20
8.094429437218885
 30
0.0
  0
SEQEND
  5
37A
330
376
100
AcDbEntity
  8
STANDARDEBENE
  0
POLYLINE
  5
37B
330
1F
100
AcDbEntity
  8
STANDARDEBENE
 62
     7
100
AcDb2dPolyline
 66
     1
 10
0.0
 20
0.0
 30
0.0
  0
VERTEX
  5
37C
330
37B
100
AcDbEntity
  8
STANDARDEBENE
 62
     7
100
AcDbVertex
100
AcDb2dVertex
 10
-4.573367273694141
 20
8.094429437218885
 30
0.0
  0
VERTEX
  5
37D
330
37B
100
AcDbEntity
  8
STANDARDEBENE
 62
     7
100
AcDbVertex
100
AcDb2dVertex
 10
-3.760668712590979
 20
8.094429437218885
 30
0.0
  0
VERTEX
  5
37E
330
37B
100
AcDbEntity
  8
STANDARDEBENE
 62
     7
100
AcDbVertex
100
AcDb2dVertex
 10
-3.573599904333659
 20
8.094429437218885
 30
0.0
  0
SEQEND
  5
37F
330
37B
100
AcDbEntity
  8
STANDARDEBENE
  0
POLYLINE
  5
380
330
1F
100
AcDbEntity
  8
STANDARDEBENE
 62
     7
100
AcDb2dPolyline
 66
     1
 10
0.0
 20
0.0
 30
0.0
  0
VERTEX
  5
381
330
380
100
AcDbEntity
  8
STANDARDEBENE
 62
     7
100
AcDbVertex
100
AcDb2dVertex
 10
-2.573488025197381
 20
8.094429437218885
 30
0.0
  0
VERTEX
  5
382
330
380
100
AcDbEntity
  8
STANDARDEBENE
 62
     7
100
AcDbVertex
100
AcDb2dVertex
 10
-2.507169893356619
 20
8.094429437218885
 30
0.0
  0
VERTEX
  5
383
330
380
100
AcDbEntity
  8
STANDARDEBENE
 62
     7
100
AcDbVertex
100
AcDb2dVertex
 10
-2.182986194332424
 20
8.094429437218885
 30
0.0
  0
VERTEX
  5
384
330
380
100
AcDbEntity
  8
STANDARDEBENE
 62
     7
100
AcDbVertex
100
AcDb2dVertex
 10
-2.07360434051714
 20
8.094429437218885
 30
0.0
  0
SEQEND
  5
385
330
380
100
AcDbEntity
  8
STANDARDEBENE
  0
POLYLINE
  5
386
330
1F
100
AcDbEntity
  8
STANDARDEBENE
 62
     7
100
AcDb2dPolyline
 66
     1
 10
0.0
 20
0.0
 30
0.0
  0
VERTEX
  5
387
330
386
100
AcDbEntity
  8
STANDARDEBENE
 62
     7
100
AcDbVertex
100
AcDb2dVertex
 10
-15.57373666975371
 20
11.71643296505191
 30
0.0
  0
VERTEX
  5
388
330
386
100
AcDbEntity
  8
STANDARDEBENE
 62
     7
100
AcDbVertex
100
AcDb2dVertex
 10
-15.46831667836008
 20
11.71643296505191
 30
0.0
  0
VERTEX
  5
389
330
386
100
AcDbEntity
  8
STANDARDEBENE
 62
     7
100
AcDbVertex
100
AcDb2dVertex
 10
-15.15532954704926
 20
11.71643296505191
 30
0.0
  0
VERTEX
  5
38A
330
386
100
AcDbEntity
  8
STANDARDEBENE
 62
     7
100
AcDbVertex
100
AcDb2dVertex
 10
-15.02372681269513
 20
11.71643296505191
 30
0.0
  0
SEQEND
  5
38B
330
386
100
AcDbEntity
  8
STANDARDEBENE
  0
POLYLINE
  5
38C
330
1F
100
AcDbEntity
  8
STANDARDEBENE
 62
     7
100
AcDb2dPolyline
 66
     1
 10
0.0
 20
0.0
 30
0.0
  0
VERTEX
  5
38D
330
38C
100
AcDbEntity
  8
STANDARDEBENE
 62
     7
100
AcDbVertex
100
AcDb2dVertex
 10
-13.92336258880216
 20
11.71643296505191
 30
0.0
  0
VERTEX
  5
38E
330
38C
100
AcDbEntity
  8
STANDARDEBENE
 62
     7
100
AcDbVertex
100
AcDb2dVertex
 10
-13.12961206536779
 20
11.71643296505191
 30
0.0
  0
VERTEX
  5
38F
330
38C
100
AcDbEntity
  8
STANDARDEBENE
 62
     7
100
AcDbVertex
100
AcDb2dVertex
 10
-12.8235151295729
 20
11.71643296505191
 30
0.0
  0
SEQEND
  5
390
330
38C
100
AcDbEntity
  8
STANDARDEBENE
  0
POLYLINE
  5
391
330
1F
100
AcDbEntity
  8
STANDARDEBENE
 62
     7
100
AcDb2dPolyline
 66
     1
 10
0.0
 20
0.0
 30
0.0
  0
VERTEX
  5
392
330
391
100
AcDbEntity
  8
STANDARDEBENE
 62
     7
100
AcDbVertex
100
AcDb2dVertex
 10
-11.72349541545573
 20
11.71643296505191
 30
0.0
  0
VERTEX
  5
393
330
391
100
AcDbEntity
  8
STANDARDEBENE
 62
     7
100
AcDbVertex
100
AcDb2dVertex
 10
-11.14713056054874
 20
11.71643296505191
 30
0.0
  0
VERTEX
  5
394
330
391
100
AcDbEntity
  8
STANDARDEBENE
 62
     7
100
AcDbVertex
100
AcDb2dVertex
 10
-10.62399246600225
 20
11.71643296505191
 30
0.0
  0
SEQEND
  5
395
330
391
100
AcDbEntity
  8
STANDARDEBENE
  0
POLYLINE
  5
396
330
1F
100
AcDbEntity
  8
STANDARDEBENE
 62
     7
100
AcDb2dPolyline
 66
     1
 10
0.0
 20
0.0
 30
0.0
  0
VERTEX
  5
397
330
396
100
AcDbEntity
  8
STANDARDEBENE
 62
     7
100
AcDbVertex
100
AcDb2dVertex
 10
-9.523972751885088
 20
11.71643296505191
 30
0.0
  0
VERTEX
  5
398
330
396
100
AcDbEntity
  8
STANDARDEBENE
 62
     7
100
AcDbVertex
100
AcDb2dVertex
 10
-9.000834657338606
 20
11.71643296505191
 30
0.0
  0
VERTEX
  5
399
330
396
100
AcDbEntity
  8
STANDARDEBENE
 62
     7
100
AcDbVertex
100
AcDb2dVertex
 10
-8.423608527992124
 20
11.71643296505191
 30
0.0
  0
SEQEND
  5
39A
330
396
100
AcDbEntity
  8
STANDARDEBENE
  0
POLYLINE
  5
39B
330
1F
100
AcDbEntity
  8
STANDARDEBENE
 62
     7
100
AcDb2dPolyline
 66
     1
 10
0.0
 20
0.0
 30
0.0
  0
VERTEX
  5
39C
330
39B
100
AcDbEntity
  8
STANDARDEBENE
 62
     7
100
AcDbVertex
100
AcDb2dVertex
 10
-7.323588813874958
 20
11.71643296505191
 30
0.0
  0
VERTEX
  5
39D
330
39B
100
AcDbEntity
  8
STANDARDEBENE
 62
     7
100
AcDbVertex
100
AcDb2dVertex
 10
-7.018180897631654
 20
11.71643296505191
 30
0.0
  0
VERTEX
  5
39E
330
39B
100
AcDbEntity
  8
STANDARDEBENE
 62
     7
100
AcDbVertex
100
AcDb2dVertex
 10
-6.223741354645688
 20
11.71643296505191
 30
0.0
  0
SEQEND
  5
39F
330
39B
100
AcDbEntity
  8
STANDARDEBENE
  0
POLYLINE
  5
3A0
330
1F
100
AcDbEntity
  8
STANDARDEBENE
 62
     7
100
AcDb2dPolyline
 66
     1
 10
0.0
 20
0.0
 30
0.0
  0
VERTEX
  5
3A1
330
3A0
100
AcDbEntity
  8
STANDARDEBENE
 62
     7
100
AcDbVertex
100
AcDb2dVertex
 10
-5.123377130752725
 20
11.71643296505191
 30
0.0
  0
VERTEX
  5
3A2
330
3A0
100
AcDbEntity
  8
STANDARDEBENE
 62
     7
100
AcDbVertex
100
AcDb2dVertex
 10
-4.992463415950181
 20
11.71643296505191
 30
0.0
  0
VERTEX
  5
3A3
330
3A0
100
AcDbEntity
  8
STANDARDEBENE
 62
     7
100
AcDbVertex
100
AcDb2dVertex
 10
-4.67964853952726
 20
11.71643296505191
 30
0.0
  0
VERTEX
  5
3A4
330
3A0
100
AcDbEntity
  8
STANDARDEBENE
 62
     7
100
AcDbVertex
100
AcDb2dVertex
 10
-4.573367273694141
 20
11.71643296505191
 30
0.0
  0
SEQEND
  5
3A5
330
3A0
100
AcDbEntity
  8
STANDARDEBENE
  0
POLYLINE
  5
3A6
330
1F
100
AcDbEntity
  8
STANDARDEBENE
 62
     7
100
AcDb2dPolyline
 66
     1
 10
0.0
 20
0.0
 30
0.0
  0
VERTEX
  5
3A7
330
3A6
100
AcDbEntity
  8
STANDARDEBENE
 62
     7
100
AcDbVertex
100
AcDb2dVertex
 10
-15.57373666975371
 20
30.09413470001063
 30
0.0
  0
VERTEX
  5
3A8
330
3A6
100
AcDbEntity
  8
STANDARDEBENE
 62
     7
100
AcDbVertex
100
AcDb2dVertex
 10
-15.46831667836008
 20
30.09413470001063
 30
0.0
  0
VERTEX
  5
3A9
330
3A6
100
AcDbEntity
  8
STANDARDEBENE
 62
     7
100
AcDbVertex
100
AcDb2dVertex
 10
-15.15532954704926
 20
30.09413470001063
 30
0.0
  0
VERTEX
  5
3AA
330
3A6
100
AcDbEntity
  8
STANDARDEBENE
 62
     7
100
AcDbVertex
100
AcDb2dVertex
 10
-15.02372681269513
 20
30.09413470001063
 30
0.0
  0
SEQEND
  5
3AB
330
3A6
100
AcDbEntity
  8
STANDARDEBENE
  0
POLYLINE
  5
3AC
330
1F
100
AcDbEntity
  8
STANDARDEBENE
 62
     7
100
AcDb2dPolyline
 66
     1
 10
0.0
 20
0.0
 30
0.0
  0
VERTEX
  5
3AD
330
3AC
100
AcDbEntity
  8
STANDARDEBENE
 62
     7
100
AcDbVertex
100
AcDb2dVertex
 10
-13.92336258880216
 20
30.09413470001063
 30
0.0
  0
VERTEX
  5
3AE
330
3AC
100
AcDbEntity
  8
STANDARDEBENE
 62
     7
100
AcDbVertex
100
AcDb2dVertex
 10
-13.12961206536779
 20
30.09413470001063
 30
0.0
  0
VERTEX
  5
3AF
330
3AC
100
AcDbEntity
  8
STANDARDEBENE
 62
     7
100
AcDbVertex
100
AcDb2dVertex
 10
-12.8235151295729
 20
30.09413470001063
 30
0.0
  0
SEQEND
  5
3B0
330
3AC
100
AcDbEntity
  8
STANDARDEBENE
  0
POLYLINE
  5
3B1
330
1F
100
AcDbEntity
  8
STANDARDEBENE
 62
     7
100
AcDb2dPolyline
 66
     1
 10
0.0
 20
0.0
 30
0.0
  0
VERTEX
  5
3B2
330
3B1
100
AcDbEntity
  8
STANDARDEBENE
 62
     7
100
AcDbVertex
100
AcDb2dVertex
 10
-11.72349541545573
 20
30.09413470001063
 30
0.0
  0
VERTEX
  5
3B3
330
3B1
100
AcDbEntity
  8
STANDARDEBENE
 62
     7
100
AcDbVertex
100
AcDb2dVertex
 10
-11.14713056054874
 20
30.09413470001063
 30
0.0
  0
VERTEX
  5
3B4
330
3B1
100
AcDbEntity
  8
STANDARDEBENE
 62
     7
100
AcDbVertex
100
AcDb2dVertex
 10
-10.62399246600225
 20
30.09413470001063
 30
0.0
  0
SEQEND
  5
3B5
330
3B1
100
AcDbEntity
  8
STANDARDEBENE
  0
POLYLINE
  5
3B6
330
1F
100
AcDbEntity
  8
STANDARDEBENE
 62
     7
100
AcDb2dPolyline
 66
     1
 10
0.0
 20
0.0
 30
0.0
  0
VERTEX
  5
3B7
330
3B6
100
AcDbEntity
  8
STANDARDEBENE
 62
     7
100
AcDbVertex
100
AcDb2dVertex
 10
-9.523972751885088
 20
30.09413470001063
 30
0.0
  0
VERTEX
  5
3B8
330
3B6
100
AcDbEntity
  8
STANDARDEBENE
 62
     7
100
AcDbVertex
100
AcDb2dVertex
 10
-9.000834657338606
 20
30.09413470001063
 30
0.0
  0
VERTEX
  5
3B9
330
3B6
100
AcDbEntity
  8
STANDARDEBENE
 62
     7
100
AcDbVertex
100
AcDb2dVertex
 10
-8.423608527992124
 20
30.09413470001063
 30
0.0
  0
SEQEND
  5
3BA
330
3B6
100
AcDbEntity
  8
STANDARDEBENE
  0
POLYLINE
  5
3BB
330
1F
100
AcDbEntity
  8
STANDARDEBENE
 62
     7
100
AcDb2dPolyline
 66
     1
 10
0.0
 20
0.0
 30
0.0
  0
VERTEX
  5
3BC
330
3BB
100
AcDbEntity
  8
STANDARDEBENE
 62
     7
100
AcDbVertex
100
AcDb2dVertex
 10
-7.323588813874958
 20
30.09413470001063
 30
0.0
  0
VERTEX
  5
3BD
330
3BB
100
AcDbEntity
  8
STANDARDEBENE
 62
     7
100
AcDbVertex
100
AcDb2dVertex
 10
-7.018180897631654
 20
30.09413470001063
 30
0.0
  0
VERTEX
  5
3BE
330
3BB
100
AcDbEntity
  8
STANDARDEBENE
 62
     7
100
AcDbVertex
100
AcDb2dVertex
 10
-6.223741354645688
 20
30.09413470001063
 30
0.0
  0
SEQEND
  5
3BF
330
3BB
100
AcDbEntity
  8
STANDARDEBENE
  0
POLYLINE
  5
3C0
330
1F
100
AcDbEntity
  8
STANDARDEBENE
 62
     7
100
AcDb2dPolyline
 66
     1
 10
0.0
 20
0.0
 30
0.0
  0
VERTEX
  5
3C1
330
3C0
100
AcDbEntity
  8
STANDARDEBENE
 62
     7
100
AcDbVertex
100
AcDb2dVertex
 10
-5.123377130752725
 20
30.09413470001063
 30
0.0
  0
VERTEX
  5
3C2
330
3C0
100
AcDbEntity
  8
STANDARDEBENE
 62
     7
100
AcDbVertex
100
AcDb2dVertex
 10
-4.992463415950181
 20
30.09413470001063
 30
0.0
  0
VERTEX
  5
3C3
330
3C0
100
AcDbEntity
  8
STANDARDEBENE
 62
     7
100
AcDbVertex
100
AcDb2dVertex
 10
-4.67964853952726
 20
30.09413470001063
 30
0.0
  0
VERTEX
  5
3C4
330
3C0
100
AcDbEntity
  8
STANDARDEBENE
 62
     7
100
AcDbVertex
100
AcDb2dVertex
 10
-4.573367273694141
 20
30.09413470001063
 30
0.0
  0
SEQEND
  5
3C5
330
3C0
100
AcDbEntity
  8
STANDARDEBENE
  0
POLYLINE
  5
3C6
330
1F
100
AcDbEntity
  8
STANDARDEBENE
 62
     7
100
AcDb2dPolyline
 66
     1
 10
0.0
 20
0.0
 30
0.0
  0
VERTEX
  5
3C7
330
3C6
100
AcDbEntity
  8
STANDARDEBENE
 62
     7
100
AcDbVertex
100
AcDb2dVertex
 10
-15.07385298507347
 20
30.39506398916859
 30
0.0
  0
VERTEX
  5
3C8
330
3C6
100
AcDbEntity
  8
STANDARDEBENE
 62
     7
100
AcDbVertex
100
AcDb2dVertex
 10
-14.96481564103398
 20
30.39506398916859
 30
0.0
  0
VERTEX
  5
3C9
330
3C6
100
AcDbEntity
  8
STANDARDEBENE
 62
     7
100
AcDbVertex
100
AcDb2dVertex
 10
-14.64132096156138
 20
30.39506398916859
 30
0.0
  0
VERTEX
  5
3CA
330
3C6
100
AcDbEntity
  8
STANDARDEBENE
 62
     7
100
AcDbVertex
100
AcDb2dVertex
 10
-14.57396930039323
 20
30.39506398916859
 30
0.0
  0
SEQEND
  5
3CB
330
3C6
100
AcDbEntity
  8
STANDARDEBENE
  0
POLYLINE
  5
3CC
330
1F
100
AcDbEntity
  8
STANDARDEBENE
 62
     7
100
AcDb2dPolyline
 66
     1
 10
0.0
 20
0.0
 30
0.0
  0
VERTEX
  5
3CD
330
3CC
100
AcDbEntity
  8
STANDARDEBENE
 62
     7
100
AcDbVertex
100
AcDb2dVertex
 10
-13.57351291148115
 20
30.39506398916859
 30
0.0
  0
VERTEX
  5
3CE
330
3CC
100
AcDbEntity
  8
STANDARDEBENE
 62
     7
100
AcDbVertex
100
AcDb2dVertex
 10
-13.41934478681237
 20
30.39506398916859
 30
0.0
  0
VERTEX
  5
3CF
330
3CC
100
AcDbEntity
  8
STANDARDEBENE
 62
     7
100
AcDbVertex
100
AcDb2dVertex
 10
-12.57374554212067
 20
30.39506398916859
 30
0.0
  0
SEQEND
  5
3D0
330
3CC
100
AcDbEntity
  8
STANDARDEBENE
  0
POLYLINE
  5
3D1
330
1F
100
AcDbEntity
  8
STANDARDEBENE
 62
     7
100
AcDb2dPolyline
 66
     1
 10
0.0
 20
0.0
 30
0.0
  0
VERTEX
  5
3D2
330
3D1
100
AcDbEntity
  8
STANDARDEBENE
 62
     7
100
AcDbVertex
100
AcDb2dVertex
 10
-11.57363366298439
 20
30.39506398916859
 30
0.0
  0
VERTEX
  5
3D3
330
3D1
100
AcDbEntity
  8
STANDARDEBENE
 62
     7
100
AcDbVertex
100
AcDb2dVertex
 10
-10.59677619371436
 20
30.39506398916859
 30
0.0
  0
VERTEX
  5
3D4
330
3D1
100
AcDbEntity
  8
STANDARDEBENE
 62
     7
100
AcDbVertex
100
AcDb2dVertex
 10
-10.57386629362391
 20
30.39506398916859
 30
0.0
  0
SEQEND
  5
3D5
330
3D1
100
AcDbEntity
  8
STANDARDEBENE
  0
POLYLINE
  5
3D6
330
1F
100
AcDbEntity
  8
STANDARDEBENE
 62
     7
100
AcDb2dPolyline
 66
     1
 10
0.0
 20
0.0
 30
0.0
  0
VERTEX
  5
3D7
330
3D6
100
AcDbEntity
  8
STANDARDEBENE
 62
     7
100
AcDbVertex
100
AcDb2dVertex
 10
-9.57409892426343
 20
30.39506398916859
 30
0.0
  0
VERTEX
  5
3D8
330
3D6
100
AcDbEntity
  8
STANDARDEBENE
 62
     7
100
AcDbVertex
100
AcDb2dVertex
 10
-9.551189024172984
 20
30.39506398916859
 30
0.0
  0
VERTEX
  5
3D9
330
3D6
100
AcDbEntity
  8
STANDARDEBENE
 62
     7
100
AcDbVertex
100
AcDb2dVertex
 10
-8.573642535351356
 20
30.39506398916859
 30
0.0
  0
SEQEND
  5
3DA
330
3D6
100
AcDbEntity
  8
STANDARDEBENE
  0
POLYLINE
  5
3DB
330
1F
100
AcDbEntity
  8
STANDARDEBENE
 62
     7
100
AcDb2dPolyline
 66
     1
 10
0.0
 20
0.0
 30
0.0
  0
VERTEX
  5
3DC
330
3DB
100
AcDbEntity
  8
STANDARDEBENE
 62
     7
100
AcDbVertex
100
AcDb2dVertex
 10
-7.57335840132718
 20
30.39506398916859
 30
0.0
  0
VERTEX
  5
3DD
330
3DB
100
AcDbEntity
  8
STANDARDEBENE
 62
     7
100
AcDbVertex
100
AcDb2dVertex
 10
-6.727759156635483
 20
30.39506398916859
 30
0.0
  0
VERTEX
  5
3DE
330
3DB
100
AcDbEntity
  8
STANDARDEBENE
 62
     7
100
AcDbVertex
100
AcDb2dVertex
 10
-6.573591031966698
 20
30.39506398916859
 30
0.0
  0
SEQEND
  5
3DF
330
3DB
100
AcDbEntity
  8
STANDARDEBENE
  0
POLYLINE
  5
3E0
330
1F
100
AcDbEntity
  8
STANDARDEBENE
 62
     7
100
AcDb2dPolyline
 66
     1
 10
0.0
 20
0.0
 30
0.0
  0
VERTEX
  5
3E1
330
3E0
100
AcDbEntity
  8
STANDARDEBENE
 62
     7
100
AcDbVertex
100
AcDb2dVertex
 10
-5.573823662606216
 20
30.39506398916859
 30
0.0
  0
VERTEX
  5
3E2
330
3E0
100
AcDbEntity
  8
STANDARDEBENE
 62
     7
100
AcDbVertex
100
AcDb2dVertex
 10
-5.505782981886473
 20
30.39506398916859
 30
0.0
  0
VERTEX
  5
3E3
330
3E0
100
AcDbEntity
  8
STANDARDEBENE
 62
     7
100
AcDbVertex
100
AcDb2dVertex
 10
-5.182977321965462
 20
30.39506398916859
 30
0.0
  0
VERTEX
  5
3E4
330
3E0
100
AcDbEntity
  8
STANDARDEBENE
 62
     7
100
AcDbVertex
100
AcDb2dVertex
 10
-5.073939977925975
 20
30.39506398916859
 30
0.0
  0
SEQEND
  5
3E5
330
3E0
100
AcDbEntity
  8
STANDARDEBENE
  0
POLYLINE
  5
3E6
330
1F
100
AcDbEntity
  8
STANDARDEBENE
  6
AI-LINETYPE-1
 62
     7
100
AcDb2dPolyline
 66
     1
 10
0.0
 20
0.0
 30
0.0
  0
VERTEX
  5
3E7
330
3E6
100
AcDbEntity
  8
STANDARDEBENE
  6
AI-LINETYPE-1
 62
     7
100
AcDbVertex
100
AcDb2dVertex
 10
55.4557386099093
 20
121.7673247649317
 30
0.0
  0
VERTEX
  5
3E8
330
3E6
100
AcDbEntity
  8
STANDARDEBENE
  6
AI-LINETYPE-1
 62
     7
100
AcDbVertex
100
AcDb2dVertex
 10
55.4557386099093
 20
-2.675118409057251
 30
0.0
  0
SEQEND
  5
3E9
330
3E6
100
AcDbEntity
  8
STANDARDEBENE
  6
AI-LINETYPE-1
  0
POLYLINE
  5
3EB
330
1F
100
AcDbEntity
  8
STANDARDEBENE
  6
AI-LINETYPE-2
 62
     7
100
AcDb2dPolyline
 66
     1
 10
0.0
 20
0.0
 30
0.0
  0
VERTEX
  5
3EC
330
3EB
100
AcDbEntity
  8
STANDARDEBENE
  6
AI-LINETYPE-2
 62
     7
100
AcDbVertex
100
AcDb2dVertex
 10
-10.07398260894367
 20
122.7374642935737
 30
0.0
  0
VERTEX
  5
3ED
330
3EB
100
AcDbEntity
  8
STANDARDEBENE
  6
AI-LINETYPE-2
 62
     7
100
AcDbVertex
100
AcDb2dVertex
 10
-10.07398260894367
 20
-1.264006367396143
 30
0.0
  0
SEQEND
  5
3EE
330
3EB
100
AcDbEntity
  8
STANDARDEBENE
  6
AI-LINETYPE-2
  0
POLYLINE
  5
3F0
330
1F
100
AcDbEntity
  8
STANDARDEBENE
  6
AI-LINETYPE-3
 62
     7
100
AcDb2dPolyline
 66
     1
 10
0.0
 20
0.0
 30
0.0
  0
VERTEX
  5
3F1
330
3F0
100
AcDbEntity
  8
STANDARDEBENE
  6
AI-LINETYPE-3
 62
     7
100
AcDbVertex
100
AcDb2dVertex
 10
-10.07398260894367
 20
-50.70115919414637
 30
0.0
  0
VERTEX
  5
3F2
330
3F0
100
AcDbEntity
  8
STANDARDEBENE
  6
AI-LINETYPE-3
 62
     7
100
AcDbVertex
100
AcDb2dVertex
 10
-10.07398260894367
 20
-29.32174378267563
 30
0.0
  0
SEQEND
  5
3F3
330
3F0
100
AcDbEntity
  8
STANDARDEBENE
  6
AI-LINETYPE-3
  0
POLYLINE
  5
3F5
330
1F
100
AcDbEntity
  8
STANDARDEBENE
  6
AI-LINETYPE-4
 62
     7
100
AcDb2dPolyline
 66
     1
 10
0.0
 20
0.0
 30
0.0
  0
VERTEX
  5
3F6
330
3F5
100
AcDbEntity
  8
STANDARDEBENE
  6
AI-LINETYPE-4
 62
     7
100
AcDbVertex
100
AcDb2dVertex
 10
0.716235823880235
 20
-39.96589007056195
 30
0.0
  0
VERTEX
  5
3F7
330
3F5
100
AcDbEntity
  8
STANDARDEBENE
  6
AI-LINETYPE-4
 62
     7
100
AcDbVertex
100
AcDb2dVertex
 10
-20.84525300409879
 20
-39.96589007056195
 30
0.0
  0
SEQEND
  5
3F8
330
3F5
100
AcDbEntity
  8
STANDARDEBENE
  6
AI-LINETYPE-4
  0
POLYLINE
  5
3FA
330
1F
100
AcDbEntity
  8
STANDARDEBENE
 62
     7
100
AcDb2dPolyline
 66
     1
 10
0.0
 20
0.0
 30
0.0
  0
VERTEX
  5
3FB
330
3FA
100
AcDbEntity
  8
STANDARDEBENE
 62
     7
100
AcDbVertex
100
AcDb2dVertex
 10
45.45582560276181
 20
118.0945921726127
 30
0.0
  0
VERTEX
  5
3FC
330
3FA
100
AcDbEntity
  8
STANDARDEBENE
 62
     7
100
AcDbVertex
100
AcDb2dVertex
 10
45.45582560276181
 20
0.5941071083604932
 30
0.0
  0
SEQEND
  5
3FD
330
3FA
100
AcDbEntity
  8
STANDARDEBENE
  0
POLYLINE
  5
3FE
330
1F
100
AcDbEntity
  8
STANDARDEBENE
 62
     7
100
AcDb2dPolyline
 66
     1
 10
0.0
 20
0.0
 30
0.0
  0
VERTEX
  5
3FF
330
3FE
100
AcDbEntity
  8
STANDARDEBENE
 62
     7
100
AcDbVertex
100
AcDb2dVertex
 10
65.45582387194469
 20
0.5941071083604932
 30
0.0
  0
VERTEX
  5
400
330
3FE
100
AcDbEntity
  8
STANDARDEBENE
 62
     7
100
AcDbVertex
100
AcDb2dVertex
 10
65.45582387194469
 20
118.0945921726127
 30
0.0
  0
SEQEND
  5
401
330
3FE
100
AcDbEntity
  8
STANDARDEBENE
  0
POLYLINE
  5
402
330
1F
100
AcDbEntity
  8
STANDARDEBENE
 62
     7
100
AcDb2dPolyline
 66
     1
 10
0.0
 20
0.0
 30
0.0
  0
VERTEX
  5
403
330
402
100
AcDbEntity
  8
STANDARDEBENE
 62
     7
100
AcDbVertex
100
AcDb2dVertex
 10
45.45582560276181
 20
0.5941071083604932
 30
0.0
  0
VERTEX
  5
404
330
402
100
AcDbEntity
  8
STANDARDEBENE
 62
     7
100
AcDbVertex
100
AcDb2dVertex
 10
45.95605379721784
 20
0.0942234236802522
 30
0.0
  0
SEQEND
  5
405
330
402
100
AcDbEntity
  8
STANDARDEBENE
  0
POLYLINE
  5
406
330
1F
100
AcDbEntity
  8
STANDARDEBENE
 62
     7
100
AcDb2dPolyline
 66
     1
 10
0.0
 20
0.0
 30
0.0
  0
VERTEX
  5
407
330
406
100
AcDbEntity
  8
STANDARDEBENE
 62
     7
100
AcDbVertex
100
AcDb2dVertex
 10
64.95628469704025
 20
0.0942234236802522
 30
0.0
  0
VERTEX
  5
408
330
406
100
AcDbEntity
  8
STANDARDEBENE
 62
     7
100
AcDbVertex
100
AcDb2dVertex
 10
65.45582387194469
 20
0.5941071083604932
 30
0.0
  0
SEQEND
  5
409
330
406
100
AcDbEntity
  8
STANDARDEBENE
  0
POLYLINE
  5
40A
330
1F
100
AcDbEntity
  8
STANDARDEBENE
 62
     7
100
AcDb2dPolyline
 66
     1
 10
0.0
 20
0.0
 30
0.0
  0
VERTEX
  5
40B
330
40A
100
AcDbEntity
  8
STANDARDEBENE
 62
     7
100
AcDbVertex
100
AcDb2dVertex
 10
47.45604936103436
 20
120.0944714211094
 30
0.0
  0
VERTEX
  5
40C
330
40A
100
AcDbEntity
  8
STANDARDEBENE
 62
     7
100
AcDbVertex
100
AcDb2dVertex
 10
45.45582560276181
 20
118.0945921726127
 30
0.0
  0
SEQEND
  5
40D
330
40A
100
AcDbEntity
  8
STANDARDEBENE
  0
POLYLINE
  5
40E
330
1F
100
AcDbEntity
  8
STANDARDEBENE
 62
     7
100
AcDb2dPolyline
 66
     1
 10
0.0
 20
0.0
 30
0.0
  0
VERTEX
  5
40F
330
40E
100
AcDbEntity
  8
STANDARDEBENE
 62
     7
100
AcDbVertex
100
AcDb2dVertex
 10
65.45582387194469
 20
118.0945921726127
 30
0.0
  0
VERTEX
  5
410
330
40E
100
AcDbEntity
  8
STANDARDEBENE
 62
     7
100
AcDbVertex
100
AcDb2dVertex
 10
63.45594462344793
 20
120.0944714211094
 30
0.0
  0
SEQEND
  5
411
330
40E
100
AcDbEntity
  8
STANDARDEBENE
  0
POLYLINE
  5
412
330
1F
100
AcDbEntity
  8
STANDARDEBENE
 62
     7
100
AcDb2dPolyline
 66
     1
 10
0.0
 20
0.0
 30
0.0
  0
VERTEX
  5
413
330
412
100
AcDbEntity
  8
STANDARDEBENE
 62
     7
100
AcDbVertex
100
AcDb2dVertex
 10
45.45582560276181
 20
118.0945921726127
 30
0.0
  0
VERTEX
  5
414
330
412
100
AcDbEntity
  8
STANDARDEBENE
 62
     7
100
AcDbVertex
100
AcDb2dVertex
 10
45.56486294680129
 20
118.0945921726127
 30
0.0
  0
VERTEX
  5
415
330
412
100
AcDbEntity
  8
STANDARDEBENE
 62
     7
100
AcDbVertex
100
AcDb2dVertex
 10
45.88835762627389
 20
118.0945921726127
 30
0.0
  0
VERTEX
  5
416
330
412
100
AcDbEntity
  8
STANDARDEBENE
 62
     7
100
AcDbVertex
100
AcDb2dVertex
 10
46.42062522987897
 20
118.0945921726127
 30
0.0
  0
VERTEX
  5
417
330
412
100
AcDbEntity
  8
STANDARDEBENE
 62
     7
100
AcDbVertex
100
AcDb2dVertex
 10
47.14840213124838
 20
118.0945921726127
 30
0.0
  0
VERTEX
  5
418
330
412
100
AcDbEntity
  8
STANDARDEBENE
 62
     7
100
AcDbVertex
100
AcDb2dVertex
 10
48.05756342957447
 20
118.0945921726127
 30
0.0
  0
VERTEX
  5
419
330
412
100
AcDbEntity
  8
STANDARDEBENE
 62
     7
100
AcDbVertex
100
AcDb2dVertex
 10
50.16475747323174
 20
120.0944714211094
 30
0.0
  0
SEQEND
  5
41A
330
412
100
AcDbEntity
  8
STANDARDEBENE
  0
POLYLINE
  5
41B
330
1F
100
AcDbEntity
  8
STANDARDEBENE
 62
     7
100
AcDb2dPolyline
 66
     1
 10
0.0
 20
0.0
 30
0.0
  0
VERTEX
  5
41C
330
41B
100
AcDbEntity
  8
STANDARDEBENE
 62
     7
100
AcDbVertex
100
AcDb2dVertex
 10
47.45604936103436
 20
120.0944714211094
 30
0.0
  0
VERTEX
  5
41D
330
41B
100
AcDbEntity
  8
STANDARDEBENE
 62
     7
100
AcDbVertex
100
AcDb2dVertex
 10
47.57077111637449
 20
120.0944714211094
 30
0.0
  0
VERTEX
  5
41E
330
41B
100
AcDbEntity
  8
STANDARDEBENE
 62
     7
100
AcDbVertex
100
AcDb2dVertex
 10
47.91218030418849
 20
120.0944714211094
 30
0.0
  0
VERTEX
  5
41F
330
41B
100
AcDbEntity
  8
STANDARDEBENE
 62
     7
100
AcDbVertex
100
AcDb2dVertex
 10
48.46959712142669
 20
120.0944714211094
 30
0.0
  0
VERTEX
  5
420
330
41B
100
AcDbEntity
  8
STANDARDEBENE
 62
     7
100
AcDbVertex
100
AcDb2dVertex
 10
49.22769088306616
 20
120.0944714211094
 30
0.0
  0
VERTEX
  5
421
330
41B
100
AcDbEntity
  8
STANDARDEBENE
 62
     7
100
AcDbVertex
100
AcDb2dVertex
 10
50.16475747323174
 20
120.0944714211094
 30
0.0
  0
SEQEND
  5
422
330
41B
100
AcDbEntity
  8
STANDARDEBENE
  0
POLYLINE
  5
423
330
1F
100
AcDbEntity
  8
STANDARDEBENE
 62
     7
100
AcDb2dPolyline
 66
     1
 10
0.0
 20
0.0
 30
0.0
  0
VERTEX
  5
424
330
423
100
AcDbEntity
  8
STANDARDEBENE
 62
     7
100
AcDbVertex
100
AcDb2dVertex
 10
60.74740876613846
 20
120.0944714211094
 30
0.0
  0
VERTEX
  5
425
330
423
100
AcDbEntity
  8
STANDARDEBENE
 62
     7
100
AcDbVertex
100
AcDb2dVertex
 10
61.68464761119193
 20
120.0944714211094
 30
0.0
  0
VERTEX
  5
426
330
423
100
AcDbEntity
  8
STANDARDEBENE
 62
     7
100
AcDbVertex
100
AcDb2dVertex
 10
62.4427413728314
 20
120.0944714211094
 30
0.0
  0
VERTEX
  5
427
330
423
100
AcDbEntity
  8
STANDARDEBENE
 62
     7
100
AcDbVertex
100
AcDb2dVertex
 10
62.9998136802938
 20
120.0944714211094
 30
0.0
  0
VERTEX
  5
428
330
423
100
AcDbEntity
  8
STANDARDEBENE
 62
     7
100
AcDbVertex
100
AcDb2dVertex
 10
63.34087835833201
 20
120.0944714211094
 30
0.0
  0
VERTEX
  5
429
330
423
100
AcDbEntity
  8
STANDARDEBENE
 62
     7
100
AcDbVertex
100
AcDb2dVertex
 10
63.45594462344793
 20
120.0944714211094
 30
0.0
  0
SEQEND
  5
42A
330
423
100
AcDbEntity
  8
STANDARDEBENE
  0
POLYLINE
  5
42B
330
1F
100
AcDbEntity
  8
STANDARDEBENE
 62
     7
100
AcDb2dPolyline
 66
     1
 10
0.0
 20
0.0
 30
0.0
  0
VERTEX
  5
42C
330
42B
100
AcDbEntity
  8
STANDARDEBENE
 62
     7
100
AcDbVertex
100
AcDb2dVertex
 10
60.74740876613846
 20
120.0944714211094
 30
0.0
  0
VERTEX
  5
42D
330
42B
100
AcDbEntity
  8
STANDARDEBENE
 62
     7
100
AcDbVertex
100
AcDb2dVertex
 10
62.85408604513203
 20
118.0945921726127
 30
0.0
  0
VERTEX
  5
42E
330
42B
100
AcDbEntity
  8
STANDARDEBENE
 62
     7
100
AcDbVertex
100
AcDb2dVertex
 10
63.76324734345811
 20
118.0945921726127
 30
0.0
  0
VERTEX
  5
42F
330
42B
100
AcDbEntity
  8
STANDARDEBENE
 62
     7
100
AcDbVertex
100
AcDb2dVertex
 10
64.49171326437911
 20
118.0945921726127
 30
0.0
  0
VERTEX
  5
430
330
42B
100
AcDbEntity
  8
STANDARDEBENE
 62
     7
100
AcDbVertex
100
AcDb2dVertex
 10
65.0232918484326
 20
118.0945921726127
 30
0.0
  0
VERTEX
  5
431
330
42B
100
AcDbEntity
  8
STANDARDEBENE
 62
     7
100
AcDbVertex
100
AcDb2dVertex
 10
65.347131037681
 20
118.0945921726127
 30
0.0
  0
VERTEX
  5
432
330
42B
100
AcDbEntity
  8
STANDARDEBENE
 62
     7
100
AcDbVertex
100
AcDb2dVertex
 10
65.45582387194469
 20
118.0945921726127
 30
0.0
  0
SEQEND
  5
433
330
42B
100
AcDbEntity
  8
STANDARDEBENE
  0
POLYLINE
  5
434
330
1F
100
AcDbEntity
  8
STANDARDEBENE
 62
     7
100
AcDb2dPolyline
 66
     1
 10
0.0
 20
0.0
 30
0.0
  0
VERTEX
  5
435
330
434
100
AcDbEntity
  8
STANDARDEBENE
 62
     7
100
AcDbVertex
100
AcDb2dVertex
 10
52.04388604531194
 20
84.09449176206903
 30
0.0
  0
VERTEX
  5
436
330
434
100
AcDbEntity
  8
STANDARDEBENE
 62
     7
100
AcDbVertex
100
AcDb2dVertex
 10
52.04388604531194
 20
12.09401567932451
 30
0.0
  0
SEQEND
  5
437
330
434
100
AcDbEntity
  8
STANDARDEBENE
  0
POLYLINE
  5
438
330
1F
100
AcDbEntity
  8
STANDARDEBENE
 62
     7
100
AcDb2dPolyline
 66
     1
 10
0.0
 20
0.0
 30
0.0
  0
VERTEX
  5
439
330
438
100
AcDbEntity
  8
STANDARDEBENE
 62
     7
100
AcDbVertex
100
AcDb2dVertex
 10
58.86810793917035
 20
84.09449176206903
 30
0.0
  0
VERTEX
  5
43A
330
438
100
AcDbEntity
  8
STANDARDEBENE
 62
     7
100
AcDbVertex
100
AcDb2dVertex
 10
57.18810601750033
 20
84.09449176206903
 30
0.0
  0
VERTEX
  5
43B
330
438
100
AcDbEntity
  8
STANDARDEBENE
 62
     7
100
AcDbVertex
100
AcDb2dVertex
 10
55.4557386099093
 20
84.09449176206903
 30
0.0
  0
VERTEX
  5
43C
330
438
100
AcDbEntity
  8
STANDARDEBENE
 62
     7
100
AcDbVertex
100
AcDb2dVertex
 10
53.72388796698196
 20
84.09449176206903
 30
0.0
  0
VERTEX
  5
43D
330
438
100
AcDbEntity
  8
STANDARDEBENE
 62
     7
100
AcDbVertex
100
AcDb2dVertex
 10
52.04388604531194
 20
84.09449176206903
 30
0.0
  0
SEQEND
  5
43E
330
438
100
AcDbEntity
  8
STANDARDEBENE
  0
POLYLINE
  5
43F
330
1F
100
AcDbEntity
  8
STANDARDEBENE
 62
     7
100
AcDb2dPolyline
 66
     1
 10
0.0
 20
0.0
 30
0.0
  0
VERTEX
  5
440
330
43F
100
AcDbEntity
  8
STANDARDEBENE
 62
     7
100
AcDbVertex
100
AcDb2dVertex
 10
58.86810793917035
 20
12.09401567932451
 30
0.0
  0
VERTEX
  5
441
330
43F
100
AcDbEntity
  8
STANDARDEBENE
 62
     7
100
AcDbVertex
100
AcDb2dVertex
 10
58.86810793917035
 20
84.09449176206903
 30
0.0
  0
SEQEND
  5
442
330
43F
100
AcDbEntity
  8
STANDARDEBENE
  0
POLYLINE
  5
443
330
1F
100
AcDbEntity
  8
STANDARDEBENE
 62
     7
100
AcDb2dPolyline
 66
     1
 10
0.0
 20
0.0
 30
0.0
  0
VERTEX
  5
444
330
443
100
AcDbEntity
  8
STANDARDEBENE
 62
     7
100
AcDbVertex
100
AcDb2dVertex
 10
52.04388604531194
 20
12.09401567932451
 30
0.0
  0
VERTEX
  5
445
330
443
100
AcDbEntity
  8
STANDARDEBENE
 62
     7
100
AcDbVertex
100
AcDb2dVertex
 10
53.72388796698196
 20
12.09401567932451
 30
0.0
  0
VERTEX
  5
446
330
443
100
AcDbEntity
  8
STANDARDEBENE
 62
     7
100
AcDbVertex
100
AcDb2dVertex
 10
55.4557386099093
 20
12.09401567932451
 30
0.0
  0
VERTEX
  5
447
330
443
100
AcDbEntity
  8
STANDARDEBENE
 62
     7
100
AcDbVertex
100
AcDb2dVertex
 10
57.18810601750033
 20
12.09401567932451
 30
0.0
  0
VERTEX
  5
448
330
443
100
AcDbEntity
  8
STANDARDEBENE
 62
     7
100
AcDbVertex
100
AcDb2dVertex
 10
58.86810793917035
 20
12.09401567932451
 30
0.0
  0
SEQEND
  5
449
330
443
100
AcDbEntity
  8
STANDARDEBENE
  0
POLYLINE
  5
44A
330
1F
100
AcDbEntity
  8
STANDARDEBENE
 62
     7
100
AcDb2dPolyline
 66
     1
 10
0.0
 20
0.0
 30
0.0
  0
VERTEX
  5
44B
330
44A
100
AcDbEntity
  8
STANDARDEBENE
 62
     7
100
AcDbVertex
100
AcDb2dVertex
 10
55.4557386099093
 20
0.5941071083604932
 30
0.0
  0
VERTEX
  5
44C
330
44A
100
AcDbEntity
  8
STANDARDEBENE
 62
     7
100
AcDbVertex
100
AcDb2dVertex
 10
56.87942525838697
 20
0.5941071083604932
 30
0.0
  0
VERTEX
  5
44D
330
44A
100
AcDbEntity
  8
STANDARDEBENE
 62
     7
100
AcDbVertex
100
AcDb2dVertex
 10
58.27331181125827
 20
0.5941071083604932
 30
0.0
  0
VERTEX
  5
44E
330
44A
100
AcDbEntity
  8
STANDARDEBENE
 62
     7
100
AcDbVertex
100
AcDb2dVertex
 10
59.6103542511232
 20
0.5941071083604932
 30
0.0
  0
VERTEX
  5
44F
330
44A
100
AcDbEntity
  8
STANDARDEBENE
 62
     7
100
AcDbVertex
100
AcDb2dVertex
 10
60.86264728614227
 20
0.5941071083604932
 30
0.0
  0
VERTEX
  5
450
330
44A
100
AcDbEntity
  8
STANDARDEBENE
 62
     7
100
AcDbVertex
100
AcDb2dVertex
 10
62.00418042824288
 20
0.5941071083604932
 30
0.0
  0
VERTEX
  5
451
330
44A
100
AcDbEntity
  8
STANDARDEBENE
 62
     7
100
AcDbVertex
100
AcDb2dVertex
 10
63.01324956154986
 20
0.5941071083604932
 30
0.0
  0
VERTEX
  5
452
330
44A
100
AcDbEntity
  8
STANDARDEBENE
 62
     7
100
AcDbVertex
100
AcDb2dVertex
 10
63.86832282507595
 20
0.5941071083604932
 30
0.0
  0
VERTEX
  5
453
330
44A
100
AcDbEntity
  8
STANDARDEBENE
 62
     7
100
AcDbVertex
100
AcDb2dVertex
 10
64.55200247514344
 20
0.5941071083604932
 30
0.0
  0
VERTEX
  5
454
330
44A
100
AcDbEntity
  8
STANDARDEBENE
 62
     7
100
AcDbVertex
100
AcDb2dVertex
 10
65.0511971402721
 20
0.5941071083604932
 30
0.0
  0
VERTEX
  5
455
330
44A
100
AcDbEntity
  8
STANDARDEBENE
 62
     7
100
AcDbVertex
100
AcDb2dVertex
 10
65.35384897830903
 20
0.5941071083604932
 30
0.0
  0
VERTEX
  5
456
330
44A
100
AcDbEntity
  8
STANDARDEBENE
 62
     7
100
AcDbVertex
100
AcDb2dVertex
 10
65.45582387194469
 20
0.5941071083604932
 30
0.0
  0
SEQEND
  5
457
330
44A
100
AcDbEntity
  8
STANDARDEBENE
  0
POLYLINE
  5
458
330
1F
100
AcDbEntity
  8
STANDARDEBENE
 62
     7
100
AcDb2dPolyline
 66
     1
 10
0.0
 20
0.0
 30
0.0
  0
VERTEX
  5
459
330
458
100
AcDbEntity
  8
STANDARDEBENE
 62
     7
100
AcDbVertex
100
AcDb2dVertex
 10
45.45582560276181
 20
0.5941071083604932
 30
0.0
  0
VERTEX
  5
45A
330
458
100
AcDbEntity
  8
STANDARDEBENE
 62
     7
100
AcDbVertex
100
AcDb2dVertex
 10
45.55814500617327
 20
0.5941071083604932
 30
0.0
  0
VERTEX
  5
45B
330
458
100
AcDbEntity
  8
STANDARDEBENE
 62
     7
100
AcDbVertex
100
AcDb2dVertex
 10
45.861141353986
 20
0.5941071083604932
 30
0.0
  0
VERTEX
  5
45C
330
458
100
AcDbEntity
  8
STANDARDEBENE
 62
     7
100
AcDbVertex
100
AcDb2dVertex
 10
46.35964699956305
 20
0.5941071083604932
 30
0.0
  0
VERTEX
  5
45D
330
458
100
AcDbEntity
  8
STANDARDEBENE
 62
     7
100
AcDbVertex
100
AcDb2dVertex
 10
47.04332664963055
 20
0.5941071083604932
 30
0.0
  0
VERTEX
  5
45E
330
458
100
AcDbEntity
  8
STANDARDEBENE
 62
     7
100
AcDbVertex
100
AcDb2dVertex
 10
47.89874442293244
 20
0.5941071083604932
 30
0.0
  0
VERTEX
  5
45F
330
458
100
AcDbEntity
  8
STANDARDEBENE
 62
     7
100
AcDbVertex
100
AcDb2dVertex
 10
48.90695228179992
 20
0.5941071083604932
 30
0.0
  0
VERTEX
  5
460
330
458
100
AcDbEntity
  8
STANDARDEBENE
 62
     7
100
AcDbVertex
100
AcDb2dVertex
 10
50.04934669834002
 20
0.5941071083604932
 30
0.0
  0
VERTEX
  5
461
330
458
100
AcDbEntity
  8
STANDARDEBENE
 62
     7
100
AcDbVertex
100
AcDb2dVertex
 10
51.30198424313489
 20
0.5941071083604932
 30
0.0
  0
VERTEX
  5
462
330
458
100
AcDbEntity
  8
STANDARDEBENE
 62
     7
100
AcDbVertex
100
AcDb2dVertex
 10
52.63833766344823
 20
0.5941071083604932
 30
0.0
  0
VERTEX
  5
463
330
458
100
AcDbEntity
  8
STANDARDEBENE
 62
     7
100
AcDbVertex
100
AcDb2dVertex
 10
54.03256872609533
 20
0.5941071083604932
 30
0.0
  0
VERTEX
  5
464
330
458
100
AcDbEntity
  8
STANDARDEBENE
 62
     7
100
AcDbVertex
100
AcDb2dVertex
 10
55.4557386099093
 20
0.5941071083604932
 30
0.0
  0
SEQEND
  5
465
330
458
100
AcDbEntity
  8
STANDARDEBENE
  0
POLYLINE
  5
466
330
1F
100
AcDbEntity
  8
STANDARDEBENE
 62
     7
100
AcDb2dPolyline
 66
     1
 10
0.0
 20
0.0
 30
0.0
  0
VERTEX
  5
467
330
466
100
AcDbEntity
  8
STANDARDEBENE
 62
     7
100
AcDbVertex
100
AcDb2dVertex
 10
62.85408604513203
 20
118.0945921726127
 30
0.0
  0
VERTEX
  5
468
330
466
100
AcDbEntity
  8
STANDARDEBENE
 62
     7
100
AcDbVertex
100
AcDb2dVertex
 10
62.26876393605433
 20
116.4672141191955
 30
0.0
  0
VERTEX
  5
469
330
466
100
AcDbEntity
  8
STANDARDEBENE
 62
     7
100
AcDbVertex
100
AcDb2dVertex
 10
61.63624398769257
 20
114.9798792896395
 30
0.0
  0
VERTEX
  5
46A
330
466
100
AcDbEntity
  8
STANDARDEBENE
 62
     7
100
AcDbVertex
100
AcDb2dVertex
 10
60.96066031735628
 20
113.6424923399988
 30
0.0
  0
VERTEX
  5
46B
330
466
100
AcDbEntity
  8
STANDARDEBENE
 62
     7
100
AcDbVertex
100
AcDb2dVertex
 10
60.24735282657031
 20
112.4638382695561
 30
0.0
  0
VERTEX
  5
46C
330
466
100
AcDbEntity
  8
STANDARDEBENE
 62
     7
100
AcDbVertex
100
AcDb2dVertex
 10
59.50062788753212
 20
111.4520991854867
 30
0.0
  0
VERTEX
  5
46D
330
466
100
AcDbEntity
  8
STANDARDEBENE
 62
     7
100
AcDbVertex
100
AcDb2dVertex
 10
58.72582540176654
 20
110.6145959205263
 30
0.0
  0
VERTEX
  5
46E
330
466
100
AcDbEntity
  8
STANDARDEBENE
 62
     7
100
AcDbVertex
100
AcDb2dVertex
 10
57.9282852707984
 20
109.9577019055269
 30
0.0
  0
VERTEX
  5
46F
330
466
100
AcDbEntity
  8
STANDARDEBENE
 62
     7
100
AcDbVertex
100
AcDb2dVertex
 10
57.11403641570416
 20
109.484345473583
 30
0.0
  0
VERTEX
  5
470
330
466
100
AcDbEntity
  8
STANDARDEBENE
 62
     7
100
AcDbVertex
100
AcDb2dVertex
 10
56.28824648312074
 20
109.1996081438874
 30
0.0
  0
VERTEX
  5
471
330
466
100
AcDbEntity
  8
STANDARDEBENE
 62
     7
100
AcDbVertex
100
AcDb2dVertex
 10
55.4557386099093
 20
109.1043511908798
 30
0.0
  0
VERTEX
  5
472
330
466
100
AcDbEntity
  8
STANDARDEBENE
 62
     7
100
AcDbVertex
100
AcDb2dVertex
 10
54.62374750136155
 20
109.1996081438874
 30
0.0
  0
VERTEX
  5
473
330
466
100
AcDbEntity
  8
STANDARDEBENE
 62
     7
100
AcDbVertex
100
AcDb2dVertex
 10
53.79830207855393
 20
109.484345473583
 30
0.0
  0
VERTEX
  5
474
330
466
100
AcDbEntity
  8
STANDARDEBENE
 62
     7
100
AcDbVertex
100
AcDb2dVertex
 10
52.9833642039081
 20
109.9577019055269
 30
0.0
  0
VERTEX
  5
475
330
466
100
AcDbEntity
  8
STANDARDEBENE
 62
     7
100
AcDbVertex
100
AcDb2dVertex
 10
52.18582407293997
 20
110.6145959205263
 30
0.0
  0
VERTEX
  5
476
330
466
100
AcDbEntity
  8
STANDARDEBENE
 62
     7
100
AcDbVertex
100
AcDb2dVertex
 10
51.41136609695018
 20
111.4520991854867
 30
0.0
  0
VERTEX
  5
477
330
466
100
AcDbEntity
  8
STANDARDEBENE
 62
     7
100
AcDbVertex
100
AcDb2dVertex
 10
50.66429664813618
 20
112.4638382695561
 30
0.0
  0
VERTEX
  5
478
330
466
100
AcDbEntity
  8
STANDARDEBENE
 62
     7
100
AcDbVertex
100
AcDb2dVertex
 10
49.95081690246231
 20
113.6424923399988
 30
0.0
  0
VERTEX
  5
479
330
466
100
AcDbEntity
  8
STANDARDEBENE
 62
     7
100
AcDbVertex
100
AcDb2dVertex
 10
49.27540548701393
 20
114.9798792896395
 30
0.0
  0
VERTEX
  5
47A
330
466
100
AcDbEntity
  8
STANDARDEBENE
 62
     7
100
AcDbVertex
100
AcDb2dVertex
 10
48.64323004842796
 20
116.4672141191955
 30
0.0
  0
VERTEX
  5
47B
330
466
100
AcDbEntity
  8
STANDARDEBENE
 62
     7
100
AcDbVertex
100
AcDb2dVertex
 10
48.05756342957447
 20
118.0945921726127
 30
0.0
  0
SEQEND
  5
47C
330
466
100
AcDbEntity
  8
STANDARDEBENE
  0
POLYLINE
  5
47D
330
1F
100
AcDbEntity
  8
STANDARDEBENE
 62
     7
100
AcDb2dPolyline
 66
     1
 10
0.0
 20
0.0
 30
0.0
  0
VERTEX
  5
47E
330
47D
100
AcDbEntity
  8
STANDARDEBENE
 62
     7
100
AcDbVertex
100
AcDb2dVertex
 10
50.16475747323174
 20
120.0944714211094
 30
0.0
  0
VERTEX
  5
47F
330
47D
100
AcDbEntity
  8
STANDARDEBENE
 62
     7
100
AcDbVertex
100
AcDb2dVertex
 10
60.74740876613846
 20
120.0944714211094
 30
0.0
  0
SEQEND
  5
480
330
47D
100
AcDbEntity
  8
STANDARDEBENE
  0
POLYLINE
  5
481
330
1F
100
AcDbEntity
  8
STANDARDEBENE
 62
     7
100
AcDb2dPolyline
 66
     1
 10
0.0
 20
0.0
 30
0.0
  0
VERTEX
  5
482
330
481
100
AcDbEntity
  8
STANDARDEBENE
 62
     7
100
AcDbVertex
100
AcDb2dVertex
 10
55.4557386099093
 20
0.0942234236802522
 30
0.0
  0
VERTEX
  5
483
330
481
100
AcDbEntity
  8
STANDARDEBENE
 62
     7
100
AcDbVertex
100
AcDb2dVertex
 10
56.94229829246976
 20
0.0942234236802522
 30
0.0
  0
VERTEX
  5
484
330
481
100
AcDbEntity
  8
STANDARDEBENE
 62
     7
100
AcDbVertex
100
AcDb2dVertex
 10
58.39147866435635
 20
0.0942234236802522
 30
0.0
  0
VERTEX
  5
485
330
481
100
AcDbEntity
  8
STANDARDEBENE
 62
     7
100
AcDbVertex
100
AcDb2dVertex
 10
59.76865649310154
 20
0.0942234236802522
 30
0.0
  0
VERTEX
  5
486
330
481
100
AcDbEntity
  8
STANDARDEBENE
 62
     7
100
AcDbVertex
100
AcDb2dVertex
 10
61.0400698206773
 20
0.0942234236802522
 30
0.0
  0
VERTEX
  5
487
330
481
100
AcDbEntity
  8
STANDARDEBENE
 62
     7
100
AcDbVertex
100
AcDb2dVertex
 10
62.17367923793459
 20
0.0942234236802522
 30
0.0
  0
VERTEX
  5
488
330
481
100
AcDbEntity
  8
STANDARDEBENE
 62
     7
100
AcDbVertex
100
AcDb2dVertex
 10
63.14192396280973
 20
0.0942234236802522
 30
0.0
  0
VERTEX
  5
489
330
481
100
AcDbEntity
  8
STANDARDEBENE
 62
     7
100
AcDbVertex
100
AcDb2dVertex
 10
63.92051605610907
 20
0.0942234236802522
 30
0.0
  0
VERTEX
  5
48A
330
481
100
AcDbEntity
  8
STANDARDEBENE
 62
     7
100
AcDbVertex
100
AcDb2dVertex
 10
64.49102424482753
 20
0.0942234236802522
 30
0.0
  0
VERTEX
  5
48B
330
481
100
AcDbEntity
  8
STANDARDEBENE
 62
     7
100
AcDbVertex
100
AcDb2dVertex
 10
64.83915137326954
 20
0.0942234236802522
 30
0.0
  0
VERTEX
  5
48C
330
481
100
AcDbEntity
  8
STANDARDEBENE
 62
     7
100
AcDbVertex
100
AcDb2dVertex
 10
64.95628469704025
 20
0.0942234236802522
 30
0.0
  0
SEQEND
  5
48D
330
481
100
AcDbEntity
  8
STANDARDEBENE
  0
POLYLINE
  5
48E
330
1F
100
AcDbEntity
  8
STANDARDEBENE
 62
     7
100
AcDb2dPolyline
 66
     1
 10
0.0
 20
0.0
 30
0.0
  0
VERTEX
  5
48F
330
48E
100
AcDbEntity
  8
STANDARDEBENE
 62
     7
100
AcDbVertex
100
AcDb2dVertex
 10
45.95605379721784
 20
0.0942234236802522
 30
0.0
  0
VERTEX
  5
490
330
48E
100
AcDbEntity
  8
STANDARDEBENE
 62
     7
100
AcDbVertex
100
AcDb2dVertex
 10
46.07284261121274
 20
0.0942234236802522
 30
0.0
  0
VERTEX
  5
491
330
48E
100
AcDbEntity
  8
STANDARDEBENE
 62
     7
100
AcDbVertex
100
AcDb2dVertex
 10
46.42062522987897
 20
0.0942234236802522
 30
0.0
  0
VERTEX
  5
492
330
48E
100
AcDbEntity
  8
STANDARDEBENE
 62
     7
100
AcDbVertex
100
AcDb2dVertex
 10
46.99147792837323
 20
0.0942234236802522
 30
0.0
  0
VERTEX
  5
493
330
48E
100
AcDbEntity
  8
STANDARDEBENE
 62
     7
100
AcDbVertex
100
AcDb2dVertex
 10
47.77007002167257
 20
0.0942234236802522
 30
0.0
  0
VERTEX
  5
494
330
48E
100
AcDbEntity
  8
STANDARDEBENE
 62
     7
100
AcDbVertex
100
AcDb2dVertex
 10
48.7384870014356
 20
0.0942234236802522
 30
0.0
  0
VERTEX
  5
495
330
48E
100
AcDbEntity
  8
STANDARDEBENE
 62
     7
100
AcDbVertex
100
AcDb2dVertex
 10
49.87226867358079
 20
0.0942234236802522
 30
0.0
  0
VERTEX
  5
496
330
48E
100
AcDbEntity
  8
STANDARDEBENE
 62
     7
100
AcDbVertex
100
AcDb2dVertex
 10
51.14333749138076
 20
0.0942234236802522
 30
0.0
  0
VERTEX
  5
497
330
48E
100
AcDbEntity
  8
STANDARDEBENE
 62
     7
100
AcDbVertex
100
AcDb2dVertex
 10
52.52051532012594
 20
0.0942234236802522
 30
0.0
  0
VERTEX
  5
498
330
48E
100
AcDbEntity
  8
STANDARDEBENE
 62
     7
100
AcDbVertex
100
AcDb2dVertex
 10
53.96969569201252
 20
0.0942234236802522
 30
0.0
  0
VERTEX
  5
499
330
48E
100
AcDbEntity
  8
STANDARDEBENE
 62
     7
100
AcDbVertex
100
AcDb2dVertex
 10
55.4557386099093
 20
0.0942234236802522
 30
0.0
  0
SEQEND
  5
49A
330
48E
100
AcDbEntity
  8
STANDARDEBENE
  0
POLYLINE
  5
49B
330
1F
100
AcDbEntity
  8
STANDARDEBENE
 62
     7
100
AcDb2dPolyline
 66
     1
 10
0.0
 20
0.0
 30
0.0
  0
VERTEX
  5
49C
330
49B
100
AcDbEntity
  8
STANDARDEBENE
 62
     7
100
AcDbVertex
100
AcDb2dVertex
 10
-20.07372336120327
 20
12.09401567932451
 30
0.0
  0
VERTEX
  5
49D
330
49B
100
AcDbEntity
  8
STANDARDEBENE
 62
     7
100
AcDbVertex
100
AcDb2dVertex
 10
-20.07372336120327
 20
0.5941071083604932
 30
0.0
  0
SEQEND
  5
49E
330
49B
100
AcDbEntity
  8
STANDARDEBENE
  0
POLYLINE
  5
49F
330
1F
100
AcDbEntity
  8
STANDARDEBENE
 62
     7
100
AcDb2dPolyline
 66
     1
 10
0.0
 20
0.0
 30
0.0
  0
VERTEX
  5
4A0
330
49F
100
AcDbEntity
  8
STANDARDEBENE
 62
     7
100
AcDbVertex
100
AcDb2dVertex
 10
-20.07372336120327
 20
109.1043511908798
 30
0.0
  0
VERTEX
  5
4A1
330
49F
100
AcDbEntity
  8
STANDARDEBENE
 62
     7
100
AcDbVertex
100
AcDb2dVertex
 10
-20.07372336120327
 20
84.09449176206903
 30
0.0
  0
SEQEND
  5
4A2
330
49F
100
AcDbEntity
  8
STANDARDEBENE
  0
POLYLINE
  5
4A3
330
1F
100
AcDbEntity
  8
STANDARDEBENE
 62
     7
100
AcDb2dPolyline
 66
     1
 10
0.0
 20
0.0
 30
0.0
  0
VERTEX
  5
4A4
330
4A3
100
AcDbEntity
  8
STANDARDEBENE
 62
     7
100
AcDbVertex
100
AcDb2dVertex
 10
-0.0740696017961763
 20
84.09449176206903
 30
0.0
  0
VERTEX
  5
4A5
330
4A3
100
AcDbEntity
  8
STANDARDEBENE
 62
     7
100
AcDbVertex
100
AcDb2dVertex
 10
-0.0740696017961763
 20
109.1043511908798
 30
0.0
  0
SEQEND
  5
4A6
330
4A3
100
AcDbEntity
  8
STANDARDEBENE
  0
POLYLINE
  5
4A7
330
1F
100
AcDbEntity
  8
STANDARDEBENE
 62
     7
100
AcDb2dPolyline
 66
     1
 10
0.0
 20
0.0
 30
0.0
  0
VERTEX
  5
4A8
330
4A7
100
AcDbEntity
  8
STANDARDEBENE
 62
     7
100
AcDbVertex
100
AcDb2dVertex
 10
-0.0740696017961763
 20
0.5941071083604932
 30
0.0
  0
VERTEX
  5
4A9
330
4A7
100
AcDbEntity
  8
STANDARDEBENE
 62
     7
100
AcDbVertex
100
AcDb2dVertex
 10
-0.0740696017961763
 20
12.09401567932451
 30
0.0
  0
SEQEND
  5
4AA
330
4A7
100
AcDbEntity
  8
STANDARDEBENE
  0
POLYLINE
  5
4AB
330
1F
100
AcDbEntity
  8
STANDARDEBENE
 62
     7
100
AcDb2dPolyline
 66
     1
 10
0.0
 20
0.0
 30
0.0
  0
VERTEX
  5
4AC
330
4AB
100
AcDbEntity
  8
STANDARDEBENE
 62
     7
100
AcDbVertex
100
AcDb2dVertex
 10
-20.07372336120327
 20
0.5941071083604932
 30
0.0
  0
VERTEX
  5
4AD
330
4AB
100
AcDbEntity
  8
STANDARDEBENE
 62
     7
100
AcDbVertex
100
AcDb2dVertex
 10
-19.57383967652303
 20
0.0942234236802522
 30
0.0
  0
SEQEND
  5
4AE
330
4AB
100
AcDbEntity
  8
STANDARDEBENE
  0
POLYLINE
  5
4AF
330
1F
100
AcDbEntity
  8
STANDARDEBENE
 62
     7
100
AcDb2dPolyline
 66
     1
 10
0.0
 20
0.0
 30
0.0
  0
VERTEX
  5
4B0
330
4AF
100
AcDbEntity
  8
STANDARDEBENE
 62
     7
100
AcDbVertex
100
AcDb2dVertex
 10
-0.5739532864764173
 20
0.0942234236802522
 30
0.0
  0
VERTEX
  5
4B1
330
4AF
100
AcDbEntity
  8
STANDARDEBENE
 62
     7
100
AcDbVertex
100
AcDb2dVertex
 10
-0.0740696017961763
 20
0.5941071083604932
 30
0.0
  0
SEQEND
  5
4B2
330
4AF
100
AcDbEntity
  8
STANDARDEBENE
  0
POLYLINE
  5
4B3
330
1F
100
AcDbEntity
  8
STANDARDEBENE
 62
     7
100
AcDb2dPolyline
 66
     1
 10
0.0
 20
0.0
 30
0.0
  0
VERTEX
  5
4B4
330
4B3
100
AcDbEntity
  8
STANDARDEBENE
 62
     7
100
AcDbVertex
100
AcDb2dVertex
 10
-16.07362035443395
 20
120.0944714211094
 30
0.0
  0
VERTEX
  5
4B5
330
4B3
100
AcDbEntity
  8
STANDARDEBENE
 62
     7
100
AcDbVertex
100
AcDb2dVertex
 10
-15.09469582650914
 20
120.0944714211094
 30
0.0
  0
VERTEX
  5
4B6
330
4B3
100
AcDbEntity
  8
STANDARDEBENE
 62
     7
100
AcDbVertex
100
AcDb2dVertex
 10
-13.97107719274993
 20
120.0944714211094
 30
0.0
  0
VERTEX
  5
4B7
330
4B3
100
AcDbEntity
  8
STANDARDEBENE
 62
     7
100
AcDbVertex
100
AcDb2dVertex
 10
-12.73566513674487
 20
120.0944714211094
 30
0.0
  0
VERTEX
  5
4B8
330
4B3
100
AcDbEntity
  8
STANDARDEBENE
 62
     7
100
AcDbVertex
100
AcDb2dVertex
 10
-11.42428867517675
 20
120.0944714211094
 30
0.0
  0
VERTEX
  5
4B9
330
4B3
100
AcDbEntity
  8
STANDARDEBENE
 62
     7
100
AcDbVertex
100
AcDb2dVertex
 10
-10.07398260894367
 20
120.0944714211094
 30
0.0
  0
VERTEX
  5
4BA
330
4B3
100
AcDbEntity
  8
STANDARDEBENE
 62
     7
100
AcDbVertex
100
AcDb2dVertex
 10
-8.72350428782269
 20
120.0944714211094
 30
0.0
  0
VERTEX
  5
4BB
330
4B3
100
AcDbEntity
  8
STANDARDEBENE
 62
     7
100
AcDbVertex
100
AcDb2dVertex
 10
-7.41143880670298
 20
120.0944714211094
 30
0.0
  0
VERTEX
  5
4BC
330
4B3
100
AcDbEntity
  8
STANDARDEBENE
 62
     7
100
AcDbVertex
100
AcDb2dVertex
 10
-6.176715770249511
 20
120.0944714211094
 30
0.0
  0
VERTEX
  5
4BD
330
4B3
100
AcDbEntity
  8
STANDARDEBENE
 62
     7
100
AcDbVertex
100
AcDb2dVertex
 10
-5.053269391378205
 20
120.0944714211094
 30
0.0
  0
VERTEX
  5
4BE
330
4B3
100
AcDbEntity
  8
STANDARDEBENE
 62
     7
100
AcDbVertex
100
AcDb2dVertex
 10
-4.0734835890139
 20
120.0944714211094
 30
0.0
  0
SEQEND
  5
4BF
330
4B3
100
AcDbEntity
  8
STANDARDEBENE
  0
POLYLINE
  5
4C0
330
1F
100
AcDbEntity
  8
STANDARDEBENE
 62
     7
100
AcDb2dPolyline
 66
     1
 10
0.0
 20
0.0
 30
0.0
  0
VERTEX
  5
4C1
330
4C0
100
AcDbEntity
  8
STANDARDEBENE
 62
     7
100
AcDbVertex
100
AcDb2dVertex
 10
-16.07362035443395
 20
120.0944714211094
 30
0.0
  0
VERTEX
  5
4C2
330
4C0
100
AcDbEntity
  8
STANDARDEBENE
 62
     7
100
AcDbVertex
100
AcDb2dVertex
 10
-16.80174176557916
 20
118.0945921726127
 30
0.0
  0
VERTEX
  5
4C3
330
4C0
100
AcDbEntity
  8
STANDARDEBENE
 62
     7
100
AcDbVertex
100
AcDb2dVertex
 10
-15.64074382114607
 20
118.0945921726127
 30
0.0
  0
VERTEX
  5
4C4
330
4C0
100
AcDbEntity
  8
STANDARDEBENE
 62
     7
100
AcDbVertex
100
AcDb2dVertex
 10
-14.35813392585693
 20
118.0945921726127
 30
0.0
  0
VERTEX
  5
4C5
330
4C0
100
AcDbEntity
  8
STANDARDEBENE
 62
     7
100
AcDbVertex
100
AcDb2dVertex
 10
-12.98285090087862
 20
118.0945921726127
 30
0.0
  0
VERTEX
  5
4C6
330
4C0
100
AcDbEntity
  8
STANDARDEBENE
 62
     7
100
AcDbVertex
100
AcDb2dVertex
 10
-11.54435033204172
 20
118.0945921726127
 30
0.0
  0
VERTEX
  5
4C7
330
4C0
100
AcDbEntity
  8
STANDARDEBENE
 62
     7
100
AcDbVertex
100
AcDb2dVertex
 10
-10.07398260894367
 20
118.0945921726127
 30
0.0
  0
VERTEX
  5
4C8
330
4C0
100
AcDbEntity
  8
STANDARDEBENE
 62
     7
100
AcDbVertex
100
AcDb2dVertex
 10
-8.602753611406133
 20
118.0945921726127
 30
0.0
  0
VERTEX
  5
4C9
330
4C0
100
AcDbEntity
  8
STANDARDEBENE
 62
     7
100
AcDbVertex
100
AcDb2dVertex
 10
-7.164253042569229
 20
118.0945921726127
 30
0.0
  0
VERTEX
  5
4CA
330
4C0
100
AcDbEntity
  8
STANDARDEBENE
 62
     7
100
AcDbVertex
100
AcDb2dVertex
 10
-5.789142272478822
 20
118.0945921726127
 30
0.0
  0
VERTEX
  5
4CB
330
4C0
100
AcDbEntity
  8
STANDARDEBENE
 62
     7
100
AcDbVertex
100
AcDb2dVertex
 10
-4.507049141853379
 20
118.0945921726127
 30
0.0
  0
VERTEX
  5
4CC
330
4C0
100
AcDbEntity
  8
STANDARDEBENE
 62
     7
100
AcDbVertex
100
AcDb2dVertex
 10
-3.34605119742029
 20
118.0945921726127
 30
0.0
  0
VERTEX
  5
4CD
330
4C0
100
AcDbEntity
  8
STANDARDEBENE
 62
     7
100
AcDbVertex
100
AcDb2dVertex
 10
-4.0734835890139
 20
120.0944714211094
 30
0.0
  0
SEQEND
  5
4CE
330
4C0
100
AcDbEntity
  8
STANDARDEBENE
  0
POLYLINE
  5
4CF
330
1F
100
AcDbEntity
  8
STANDARDEBENE
 62
     7
100
AcDb2dPolyline
 66
     1
 10
0.0
 20
0.0
 30
0.0
  0
VERTEX
  5
4D0
330
4CF
100
AcDbEntity
  8
STANDARDEBENE
 62
     7
100
AcDbVertex
100
AcDb2dVertex
 10
-0.6735166116815101
 20
84.09449176206903
 30
0.0
  0
VERTEX
  5
4D1
330
4CF
100
AcDbEntity
  8
STANDARDEBENE
 62
     7
100
AcDbVertex
100
AcDb2dVertex
 10
-0.6735166116815101
 20
12.09401567932451
 30
0.0
  0
SEQEND
  5
4D2
330
4CF
100
AcDbEntity
  8
STANDARDEBENE
  0
POLYLINE
  5
4D3
330
1F
100
AcDbEntity
  8
STANDARDEBENE
 62
     7
100
AcDb2dPolyline
 66
     1
 10
0.0
 20
0.0
 30
0.0
  0
VERTEX
  5
4D4
330
4D3
100
AcDbEntity
  8
STANDARDEBENE
 62
     7
100
AcDbVertex
100
AcDb2dVertex
 10
-0.0740696017961763
 20
84.09449176206903
 30
0.0
  0
VERTEX
  5
4D5
330
4D3
100
AcDbEntity
  8
STANDARDEBENE
 62
     7
100
AcDbVertex
100
AcDb2dVertex
 10
-0.2251371384827963
 20
84.09449176206903
 30
0.0
  0
VERTEX
  5
4D6
330
4D3
100
AcDbEntity
  8
STANDARDEBENE
 62
     7
100
AcDbVertex
100
AcDb2dVertex
 10
-0.6735166116815101
 20
84.09449176206903
 30
0.0
  0
SEQEND
  5
4D7
330
4D3
100
AcDbEntity
  8
STANDARDEBENE
  0
POLYLINE
  5
4D8
330
1F
100
AcDbEntity
  8
STANDARDEBENE
 62
     7
100
AcDb2dPolyline
 66
     1
 10
0.0
 20
0.0
 30
0.0
  0
VERTEX
  5
4D9
330
4D8
100
AcDbEntity
  8
STANDARDEBENE
 62
     7
100
AcDbVertex
100
AcDb2dVertex
 10
-0.6735166116815101
 20
12.09401567932451
 30
0.0
  0
VERTEX
  5
4DA
330
4D8
100
AcDbEntity
  8
STANDARDEBENE
 62
     7
100
AcDbVertex
100
AcDb2dVertex
 10
-0.2251371384827963
 20
12.09401567932451
 30
0.0
  0
VERTEX
  5
4DB
330
4D8
100
AcDbEntity
  8
STANDARDEBENE
 62
     7
100
AcDbVertex
100
AcDb2dVertex
 10
-0.0740696017961763
 20
12.09401567932451
 30
0.0
  0
SEQEND
  5
4DC
330
4D8
100
AcDbEntity
  8
STANDARDEBENE
  0
POLYLINE
  5
4DD
330
1F
100
AcDbEntity
  8
STANDARDEBENE
 62
     7
100
AcDb2dPolyline
 66
     1
 10
0.0
 20
0.0
 30
0.0
  0
VERTEX
  5
4DE
330
4DD
100
AcDbEntity
  8
STANDARDEBENE
 62
     7
100
AcDbVertex
100
AcDb2dVertex
 10
-19.47375958665424
 20
84.09449176206903
 30
0.0
  0
VERTEX
  5
4DF
330
4DD
100
AcDbEntity
  8
STANDARDEBENE
 62
     7
100
AcDbVertex
100
AcDb2dVertex
 10
-19.92282807940455
 20
84.09449176206903
 30
0.0
  0
VERTEX
  5
4E0
330
4DD
100
AcDbEntity
  8
STANDARDEBENE
 62
     7
100
AcDbVertex
100
AcDb2dVertex
 10
-20.07372336120327
 20
84.09449176206903
 30
0.0
  0
SEQEND
  5
4E1
330
4DD
100
AcDbEntity
  8
STANDARDEBENE
  0
POLYLINE
  5
4E2
330
1F
100
AcDbEntity
  8
STANDARDEBENE
 62
     7
100
AcDb2dPolyline
 66
     1
 10
0.0
 20
0.0
 30
0.0
  0
VERTEX
  5
4E3
330
4E2
100
AcDbEntity
  8
STANDARDEBENE
 62
     7
100
AcDbVertex
100
AcDb2dVertex
 10
-19.47375958665424
 20
12.09401567932451
 30
0.0
  0
VERTEX
  5
4E4
330
4E2
100
AcDbEntity
  8
STANDARDEBENE
 62
     7
100
AcDbVertex
100
AcDb2dVertex
 10
-19.47375958665424
 20
84.09449176206903
 30
0.0
  0
SEQEND
  5
4E5
330
4E2
100
AcDbEntity
  8
STANDARDEBENE
  0
POLYLINE
  5
4E6
330
1F
100
AcDbEntity
  8
STANDARDEBENE
 62
     7
100
AcDb2dPolyline
 66
     1
 10
0.0
 20
0.0
 30
0.0
  0
VERTEX
  5
4E7
330
4E6
100
AcDbEntity
  8
STANDARDEBENE
 62
     7
100
AcDbVertex
100
AcDb2dVertex
 10
-20.07372336120327
 20
12.09401567932451
 30
0.0
  0
VERTEX
  5
4E8
330
4E6
100
AcDbEntity
  8
STANDARDEBENE
 62
     7
100
AcDbVertex
100
AcDb2dVertex
 10
-19.92282807940455
 20
12.09401567932451
 30
0.0
  0
VERTEX
  5
4E9
330
4E6
100
AcDbEntity
  8
STANDARDEBENE
 62
     7
100
AcDbVertex
100
AcDb2dVertex
 10
-19.47375958665424
 20
12.09401567932451
 30
0.0
  0
SEQEND
  5
4EA
330
4E6
100
AcDbEntity
  8
STANDARDEBENE
  0
POLYLINE
  5
4EB
330
1F
100
AcDbEntity
  8
STANDARDEBENE
 62
     7
100
AcDb2dPolyline
 66
     1
 10
0.0
 20
0.0
 30
0.0
  0
VERTEX
  5
4EC
330
4EB
100
AcDbEntity
  8
STANDARDEBENE
 62
     7
100
AcDbVertex
100
AcDb2dVertex
 10
-20.07372336120327
 20
0.5941071083604932
 30
0.0
  0
VERTEX
  5
4ED
330
4EB
100
AcDbEntity
  8
STANDARDEBENE
 62
     7
100
AcDbVertex
100
AcDb2dVertex
 10
-19.9717484675676
 20
0.5941071083604932
 30
0.0
  0
VERTEX
  5
4EE
330
4EB
100
AcDbEntity
  8
STANDARDEBENE
 62
     7
100
AcDbVertex
100
AcDb2dVertex
 10
-19.66840760997908
 20
0.5941071083604932
 30
0.0
  0
VERTEX
  5
4EF
330
4EB
100
AcDbEntity
  8
STANDARDEBENE
 62
     7
100
AcDbVertex
100
AcDb2dVertex
 10
-19.17024647417782
 20
0.5941071083604932
 30
0.0
  0
VERTEX
  5
4F0
330
4EB
100
AcDbEntity
  8
STANDARDEBENE
 62
     7
100
AcDbVertex
100
AcDb2dVertex
 10
-18.48622231433452
 20
0.5941071083604932
 30
0.0
  0
VERTEX
  5
4F1
330
4EB
100
AcDbEntity
  8
STANDARDEBENE
 62
     7
100
AcDbVertex
100
AcDb2dVertex
 10
-17.63149356058423
 20
0.5941071083604932
 30
0.0
  0
VERTEX
  5
4F2
330
4EB
100
AcDbEntity
  8
STANDARDEBENE
 62
     7
100
AcDbVertex
100
AcDb2dVertex
 10
-16.62225217238935
 20
0.5941071083604932
 30
0.0
  0
VERTEX
  5
4F3
330
4EB
100
AcDbEntity
  8
STANDARDEBENE
 62
     7
100
AcDbVertex
100
AcDb2dVertex
 10
-15.47985775584925
 20
0.5941071083604932
 30
0.0
  0
VERTEX
  5
4F4
330
4EB
100
AcDbEntity
  8
STANDARDEBENE
 62
     7
100
AcDbVertex
100
AcDb2dVertex
 10
-14.22790923060598
 20
0.5941071083604932
 30
0.0
  0
VERTEX
  5
4F5
330
4EB
100
AcDbEntity
  8
STANDARDEBENE
 62
     7
100
AcDbVertex
100
AcDb2dVertex
 10
-12.89086679074105
 20
0.5941071083604932
 30
0.0
  0
VERTEX
  5
4F6
330
4EB
100
AcDbEntity
  8
STANDARDEBENE
 62
     7
100
AcDbVertex
100
AcDb2dVertex
 10
-11.49663572809395
 20
0.5941071083604932
 30
0.0
  0
VERTEX
  5
4F7
330
4EB
100
AcDbEntity
  8
STANDARDEBENE
 62
     7
100
AcDbVertex
100
AcDb2dVertex
 10
-10.07398260894367
 20
0.5941071083604932
 30
0.0
  0
VERTEX
  5
4F8
330
4EB
100
AcDbEntity
  8
STANDARDEBENE
 62
     7
100
AcDbVertex
100
AcDb2dVertex
 10
-8.650468215353902
 20
0.5941071083604932
 30
0.0
  0
VERTEX
  5
4F9
330
4EB
100
AcDbEntity
  8
STANDARDEBENE
 62
     7
100
AcDbVertex
100
AcDb2dVertex
 10
-7.256237152706806
 20
0.5941071083604932
 30
0.0
  0
VERTEX
  5
4FA
330
4EB
100
AcDbEntity
  8
STANDARDEBENE
 62
     7
100
AcDbVertex
100
AcDb2dVertex
 10
-5.919194712841875
 20
0.5941071083604932
 30
0.0
  0
VERTEX
  5
4FB
330
4EB
100
AcDbEntity
  8
STANDARDEBENE
 62
     7
100
AcDbVertex
100
AcDb2dVertex
 10
-4.667246187598598
 20
0.5941071083604932
 30
0.0
  0
VERTEX
  5
4FC
330
4EB
100
AcDbEntity
  8
STANDARDEBENE
 62
     7
100
AcDbVertex
100
AcDb2dVertex
 10
-3.5250240259464
 20
0.5941071083604932
 30
0.0
  0
VERTEX
  5
4FD
330
4EB
100
AcDbEntity
  8
STANDARDEBENE
 62
     7
100
AcDbVertex
100
AcDb2dVertex
 10
-2.516299402415217
 20
0.5941071083604932
 30
0.0
  0
VERTEX
  5
4FE
330
4EB
100
AcDbEntity
  8
STANDARDEBENE
 62
     7
100
AcDbVertex
100
AcDb2dVertex
 10
-1.66088162911333
 20
0.5941071083604932
 30
0.0
  0
VERTEX
  5
4FF
330
4EB
100
AcDbEntity
  8
STANDARDEBENE
 62
     7
100
AcDbVertex
100
AcDb2dVertex
 10
-0.9775464888216291
 20
0.5941071083604932
 30
0.0
  0
VERTEX
  5
500
330
4EB
100
AcDbEntity
  8
STANDARDEBENE
 62
     7
100
AcDbVertex
100
AcDb2dVertex
 10
-0.4786963334687766
 20
0.5941071083604932
 30
0.0
  0
VERTEX
  5
501
330
4EB
100
AcDbEntity
  8
STANDARDEBENE
 62
     7
100
AcDbVertex
100
AcDb2dVertex
 10
-0.1756999856560461
 20
0.5941071083604932
 30
0.0
  0
VERTEX
  5
502
330
4EB
100
AcDbEntity
  8
STANDARDEBENE
 62
     7
100
AcDbVertex
100
AcDb2dVertex
 10
-0.0740696017961763
 20
0.5941071083604932
 30
0.0
  0
SEQEND
  5
503
330
4EB
100
AcDbEntity
  8
STANDARDEBENE
  0
POLYLINE
  5
504
330
1F
100
AcDbEntity
  8
STANDARDEBENE
 62
     7
100
AcDb2dPolyline
 66
     1
 10
0.0
 20
0.0
 30
0.0
  0
VERTEX
  5
505
330
504
100
AcDbEntity
  8
STANDARDEBENE
 62
     7
100
AcDbVertex
100
AcDb2dVertex
 10
-16.80174176557916
 20
118.0945921726127
 30
0.0
  0
VERTEX
  5
506
330
504
100
AcDbEntity
  8
STANDARDEBENE
 62
     7
100
AcDbVertex
100
AcDb2dVertex
 10
-17.39412632506067
 20
116.4672141191955
 30
0.0
  0
VERTEX
  5
507
330
504
100
AcDbEntity
  8
STANDARDEBENE
 62
     7
100
AcDbVertex
100
AcDb2dVertex
 10
-17.93483441817276
 20
114.9798792896395
 30
0.0
  0
VERTEX
  5
508
330
504
100
AcDbEntity
  8
STANDARDEBENE
 62
     7
100
AcDbVertex
100
AcDb2dVertex
 10
-18.42162673137274
 20
113.6424923399988
 30
0.0
  0
VERTEX
  5
509
330
504
100
AcDbEntity
  8
STANDARDEBENE
 62
     7
100
AcDbVertex
100
AcDb2dVertex
 10
-18.85140267667846
 20
112.4638382695561
 30
0.0
  0
VERTEX
  5
50A
330
504
100
AcDbEntity
  8
STANDARDEBENE
 62
     7
100
AcDbVertex
100
AcDb2dVertex
 10
-19.21933911722877
 20
111.4520991854867
 30
0.0
  0
VERTEX
  5
50B
330
504
100
AcDbEntity
  8
STANDARDEBENE
 62
     7
100
AcDbVertex
100
AcDb2dVertex
 10
-19.52371350414468
 20
110.6145959205263
 30
0.0
  0
VERTEX
  5
50C
330
504
100
AcDbEntity
  8
STANDARDEBENE
 62
     7
100
AcDbVertex
100
AcDb2dVertex
 10
-19.76297554343513
 20
109.9577019055269
 30
0.0
  0
VERTEX
  5
50D
330
504
100
AcDbEntity
  8
STANDARDEBENE
 62
     7
100
AcDbVertex
100
AcDb2dVertex
 10
-19.93505817644531
 20
109.484345473583
 30
0.0
  0
VERTEX
  5
50E
330
504
100
AcDbEntity
  8
STANDARDEBENE
 62
     7
100
AcDbVertex
100
AcDb2dVertex
 10
-20.03892787384785
 20
109.1996081438874
 30
0.0
  0
VERTEX
  5
50F
330
504
100
AcDbEntity
  8
STANDARDEBENE
 62
     7
100
AcDbVertex
100
AcDb2dVertex
 10
-20.07372336120327
 20
109.1043511908798
 30
0.0
  0
SEQEND
  5
510
330
504
100
AcDbEntity
  8
STANDARDEBENE
  0
POLYLINE
  5
511
330
1F
100
AcDbEntity
  8
STANDARDEBENE
 62
     7
100
AcDb2dPolyline
 66
     1
 10
0.0
 20
0.0
 30
0.0
  0
VERTEX
  5
512
330
511
100
AcDbEntity
  8
STANDARDEBENE
 62
     7
100
AcDbVertex
100
AcDb2dVertex
 10
-0.0740696017961763
 20
109.1043511908798
 30
0.0
  0
VERTEX
  5
513
330
511
100
AcDbEntity
  8
STANDARDEBENE
 62
     7
100
AcDbVertex
100
AcDb2dVertex
 10
-0.1083483244878951
 20
109.1996081438874
 30
0.0
  0
VERTEX
  5
514
330
511
100
AcDbEntity
  8
STANDARDEBENE
 62
     7
100
AcDbVertex
100
AcDb2dVertex
 10
-0.2120457670025419
 20
109.484345473583
 30
0.0
  0
VERTEX
  5
515
330
511
100
AcDbEntity
  8
STANDARDEBENE
 62
     7
100
AcDbVertex
100
AcDb2dVertex
 10
-0.3841284000127282
 20
109.9577019055269
 30
0.0
  0
VERTEX
  5
516
330
511
100
AcDbEntity
  8
STANDARDEBENE
 62
     7
100
AcDbVertex
100
AcDb2dVertex
 10
-0.6233904393031675
 20
110.6145959205263
 30
0.0
  0
VERTEX
  5
517
330
511
100
AcDbEntity
  8
STANDARDEBENE
 62
     7
100
AcDbVertex
100
AcDb2dVertex
 10
-0.928453845770675
 20
111.4520991854867
 30
0.0
  0
VERTEX
  5
518
330
511
100
AcDbEntity
  8
STANDARDEBENE
 62
     7
100
AcDbVertex
100
AcDb2dVertex
 10
-1.296390286320983
 20
112.4638382695561
 30
0.0
  0
VERTEX
  5
519
330
511
100
AcDbEntity
  8
STANDARDEBENE
 62
     7
100
AcDbVertex
100
AcDb2dVertex
 10
-1.725477212075112
 20
113.6424923399988
 30
0.0
  0
VERTEX
  5
51A
330
511
100
AcDbEntity
  8
STANDARDEBENE
 62
     7
100
AcDbVertex
100
AcDb2dVertex
 10
-2.212269525275098
 20
114.9798792896395
 30
0.0
  0
VERTEX
  5
51B
330
511
100
AcDbEntity
  8
STANDARDEBENE
 62
     7
100
AcDbVertex
100
AcDb2dVertex
 10
-2.753838892826676
 20
116.4672141191955
 30
0.0
  0
VERTEX
  5
51C
330
511
100
AcDbEntity
  8
STANDARDEBENE
 62
     7
100
AcDbVertex
100
AcDb2dVertex
 10
-3.34605119742029
 20
118.0945921726127
 30
0.0
  0
SEQEND
  5
51D
330
511
100
AcDbEntity
  8
STANDARDEBENE
  0
POLYLINE
  5
51E
330
1F
100
AcDbEntity
  8
STANDARDEBENE
 62
     7
100
AcDb2dPolyline
 66
     1
 10
0.0
 20
0.0
 30
0.0
  0
VERTEX
  5
51F
330
51E
100
AcDbEntity
  8
STANDARDEBENE
 62
     7
100
AcDbVertex
100
AcDb2dVertex
 10
-19.57383967652303
 20
0.0942234236802522
 30
0.0
  0
VERTEX
  5
520
330
51E
100
AcDbEntity
  8
STANDARDEBENE
 62
     7
100
AcDbVertex
100
AcDb2dVertex
 10
-19.46738615580201
 20
0.0942234236802522
 30
0.0
  0
VERTEX
  5
521
330
51E
100
AcDbEntity
  8
STANDARDEBENE
 62
     7
100
AcDbVertex
100
AcDb2dVertex
 10
-19.15198745606062
 20
0.0942234236802522
 30
0.0
  0
VERTEX
  5
522
330
51E
100
AcDbEntity
  8
STANDARDEBENE
 62
     7
100
AcDbVertex
100
AcDb2dVertex
 10
-18.63298347882369
 20
0.0942234236802522
 30
0.0
  0
VERTEX
  5
523
330
51E
100
AcDbEntity
  8
STANDARDEBENE
 62
     7
100
AcDbVertex
100
AcDb2dVertex
 10
-17.92329334068358
 20
0.0942234236802522
 30
0.0
  0
VERTEX
  5
524
330
51E
100
AcDbEntity
  8
STANDARDEBENE
 62
     7
100
AcDbVertex
100
AcDb2dVertex
 10
-17.03738645222374
 20
0.0942234236802522
 30
0.0
  0
VERTEX
  5
525
330
51E
100
AcDbEntity
  8
STANDARDEBENE
 62
     7
100
AcDbVertex
100
AcDb2dVertex
 10
-15.99679467443141
 20
0.0942234236802522
 30
0.0
  0
VERTEX
  5
526
330
51E
100
AcDbEntity
  8
STANDARDEBENE
 62
     7
100
AcDbVertex
100
AcDb2dVertex
 10
-14.82408339762125
 20
0.0942234236802522
 30
0.0
  0
VERTEX
  5
527
330
51E
100
AcDbEntity
  8
STANDARDEBENE
 62
     7
100
AcDbVertex
100
AcDb2dVertex
 10
-13.54457409031428
 20
0.0942234236802522
 30
0.0
  0
VERTEX
  5
528
330
51E
100
AcDbEntity
  8
STANDARDEBENE
 62
     7
100
AcDbVertex
100
AcDb2dVertex
 10
-12.18737782856527
 20
0.0942234236802522
 30
0.0
  0
VERTEX
  5
529
330
51E
100
AcDbEntity
  8
STANDARDEBENE
 62
     7
100
AcDbVertex
100
AcDb2dVertex
 10
-10.78367274708378
 20
0.0942234236802522
 30
0.0
  0
VERTEX
  5
52A
330
51E
100
AcDbEntity
  8
STANDARDEBENE
 62
     7
100
AcDbVertex
100
AcDb2dVertex
 10
-9.364120215915666
 20
0.0942234236802522
 30
0.0
  0
VERTEX
  5
52B
330
51E
100
AcDbEntity
  8
STANDARDEBENE
 62
     7
100
AcDbVertex
100
AcDb2dVertex
 10
-7.959726114882583
 20
0.0942234236802522
 30
0.0
  0
VERTEX
  5
52C
330
51E
100
AcDbEntity
  8
STANDARDEBENE
 62
     7
100
AcDbVertex
100
AcDb2dVertex
 10
-6.603218872685169
 20
0.0942234236802522
 30
0.0
  0
VERTEX
  5
52D
330
51E
100
AcDbEntity
  8
STANDARDEBENE
 62
     7
100
AcDbVertex
100
AcDb2dVertex
 10
-5.323709565378198
 20
0.0942234236802522
 30
0.0
  0
VERTEX
  5
52E
330
51E
100
AcDbEntity
  8
STANDARDEBENE
 62
     7
100
AcDbVertex
100
AcDb2dVertex
 10
-4.150481523904344
 20
0.0942234236802522
 30
0.0
  0
VERTEX
  5
52F
330
51E
100
AcDbEntity
  8
STANDARDEBENE
 62
     7
100
AcDbVertex
100
AcDb2dVertex
 10
-3.109717491224118
 20
0.0942234236802522
 30
0.0
  0
VERTEX
  5
530
330
51E
100
AcDbEntity
  8
STANDARDEBENE
 62
     7
100
AcDbVertex
100
AcDb2dVertex
 10
-2.22467187720376
 20
0.0942234236802522
 30
0.0
  0
VERTEX
  5
531
330
51E
100
AcDbEntity
  8
STANDARDEBENE
 62
     7
100
AcDbVertex
100
AcDb2dVertex
 10
-1.514809484175754
 20
0.0942234236802522
 30
0.0
  0
VERTEX
  5
532
330
51E
100
AcDbEntity
  8
STANDARDEBENE
 62
     7
100
AcDbVertex
100
AcDb2dVertex
 10
-0.9958055069388261
 20
0.0942234236802522
 30
0.0
  0
VERTEX
  5
533
330
51E
100
AcDbEntity
  8
STANDARDEBENE
 62
     7
100
AcDbVertex
100
AcDb2dVertex
 10
-0.6797177876458411
 20
0.0942234236802522
 30
0.0
  0
VERTEX
  5
534
330
51E
100
AcDbEntity
  8
STANDARDEBENE
 62
     7
100
AcDbVertex
100
AcDb2dVertex
 10
-0.5739532864764173
 20
0.0942234236802522
 30
0.0
  0
SEQEND
  5
535
330
51E
100
AcDbEntity
  8
STANDARDEBENE
  0
SPLINE
  5
536
330
1F
100
AcDbEntity
  8
STANDARDEBENE
 62
     7
100
AcDbSpline
210
0.0
220
0.0
230
1.0
 70
     8
 71
     3
 72
     8
 73
     4
 74
     0
 42
0.0000000001
 43
0.0000000001
 40
0.0
 40
0.0
 40
0.0
 40
0.0
 40
1.0
 40
1.0
 40
1.0
 40
1.0
 10
-3.34605119742029
 20
-32.56771489022713
 30
0.0
 10
-7.185095884004897
 20
-29.07593605764506
 30
0.0
 10
-13.00093766410792
 20
-29.13071311199665
 30
0.0
 10
-16.80174176557916
 20
-32.56771489022713
 30
0.0
  0
POLYLINE
  5
537
330
1F
100
AcDbEntity
  8
STANDARDEBENE
 62
     7
100
AcDb2dPolyline
 66
     1
 10
0.0
 20
0.0
 30
0.0
  0
VERTEX
  5
538
330
537
100
AcDbEntity
  8
STANDARDEBENE
 62
     7
100
AcDbVertex
100
AcDb2dVertex
 10
-16.80174176557916
 20
-32.56771489022713
 30
0.0
  0
VERTEX
  5
539
330
537
100
AcDbEntity
  8
STANDARDEBENE
 62
     7
100
AcDbVertex
100
AcDb2dVertex
 10
-16.07362035443395
 20
-34.6742199143328
 30
0.0
  0
SEQEND
  5
53A
330
537
100
AcDbEntity
  8
STANDARDEBENE
  0
SPLINE
  5
53B
330
1F
100
AcDbEntity
  8
STANDARDEBENE
 62
     7
100
AcDbSpline
210
0.0
220
0.0
230
1.0
 70
     8
 71
     3
 72
    11
 73
     7
 74
     0
 42
0.0000000001
 43
0.0000000001
 40
0.0
 40
0.0
 40
0.0
 40
0.0
 40
1.0
 40
1.0
 40
1.0
 40
2.0
 40
2.0
 40
2.0
 40
2.0
 10
-4.0734835890139
 20
-34.6742199143328
 30
0.0
 10
-5.651855126824048
 20
-32.8851806486233
 30
0.0
 10
-7.850688770843096
 20
-31.96947366455708
 30
0.0
 10
-10.07398260894367
 20
-31.96551180213542
 30
0.0
 10
-12.45936829655635
 20
-31.96551180213542
 30
0.0
 10
-14.60084106290533
 20
-33.00972093257361
 30
0.0
 10
-16.07362035443395
 20
-34.6742199143328
 30
0.0
  0
POLYLINE
  5
53C
330
1F
100
AcDbEntity
  8
STANDARDEBENE
 62
     7
100
AcDb2dPolyline
 66
     1
 10
0.0
 20
0.0
 30
0.0
  0
VERTEX
  5
53D
330
53C
100
AcDbEntity
  8
STANDARDEBENE
 62
     7
100
AcDbVertex
100
AcDb2dVertex
 10
-4.0734835890139
 20
-34.6742199143328
 30
0.0
  0
VERTEX
  5
53E
330
53C
100
AcDbEntity
  8
STANDARDEBENE
 62
     7
100
AcDbVertex
100
AcDb2dVertex
 10
-3.34605119742029
 20
-32.56771489022713
 30
0.0
  0
SEQEND
  5
53F
330
53C
100
AcDbEntity
  8
STANDARDEBENE
  0
SPLINE
  5
540
330
1F
100
AcDbEntity
  8
STANDARDEBENE
 62
     7
100
AcDbSpline
210
0.0
220
0.0
230
1.0
 70
     8
 71
     3
 72
    11
 73
     7
 74
     0
 42
0.0000000001
 43
0.0000000001
 40
0.0
 40
0.0
 40
0.0
 40
0.0
 40
1.0
 40
1.0
 40
1.0
 40
2.0
 40
2.0
 40
2.0
 40
2.0
 10
-16.07362035443395
 20
-45.25756022679111
 30
0.0
 10
-14.4959378361754
 20
-47.04642723761272
 30
0.0
 10
-12.29641517260476
 20
-47.96230647656683
 30
0.0
 10
-10.07398260894367
 20
-47.96609608410059
 30
0.0
 10
-7.6884246664431
 20
-47.96609608410059
 30
0.0
 10
-5.547124154982012
 20
-46.9218869536624
 30
0.0
 10
-4.0734835890139
 20
-45.25756022679111
 30
0.0
  0
POLYLINE
  5
541
330
1F
100
AcDbEntity
  8
STANDARDEBENE
 62
     7
100
AcDb2dPolyline
 66
     1
 10
0.0
 20
0.0
 30
0.0
  0
VERTEX
  5
542
330
541
100
AcDbEntity
  8
STANDARDEBENE
 62
     7
100
AcDbVertex
100
AcDb2dVertex
 10
-16.07362035443395
 20
-45.25756022679111
 30
0.0
  0
VERTEX
  5
543
330
541
100
AcDbEntity
  8
STANDARDEBENE
 62
     7
100
AcDbVertex
100
AcDb2dVertex
 10
-16.80174176557916
 20
-47.36389299600889
 30
0.0
  0
SEQEND
  5
544
330
541
100
AcDbEntity
  8
STANDARDEBENE
  0
SPLINE
  5
545
330
1F
100
AcDbEntity
  8
STANDARDEBENE
 62
     7
100
AcDbSpline
210
0.0
220
0.0
230
1.0
 70
     8
 71
     3
 72
     8
 73
     4
 74
     0
 42
0.0000000001
 43
0.0000000001
 40
0.0
 40
0.0
 40
0.0
 40
0.0
 40
1.0
 40
1.0
 40
1.0
 40
1.0
 10
-16.80174176557916
 20
-47.36389299600889
 30
0.0
 10
-12.96252482410665
 20
-50.85584408347885
 30
0.0
 10
-7.146855298891523
 20
-50.80106702912726
 30
0.0
 10
-3.34605119742029
 20
-47.36389299600889
 30
0.0
  0
POLYLINE
  5
546
330
1F
100
AcDbEntity
  8
STANDARDEBENE
 62
     7
100
AcDb2dPolyline
 66
     1
 10
0.0
 20
0.0
 30
0.0
  0
VERTEX
  5
547
330
546
100
AcDbEntity
  8
STANDARDEBENE
 62
     7
100
AcDbVertex
100
AcDb2dVertex
 10
-3.34605119742029
 20
-47.36389299600889
 30
0.0
  0
VERTEX
  5
548
330
546
100
AcDbEntity
  8
STANDARDEBENE
 62
     7
100
AcDbVertex
100
AcDb2dVertex
 10
-4.0734835890139
 20
-45.25756022679111
 30
0.0
  0
SEQEND
  5
549
330
546
100
AcDbEntity
  8
STANDARDEBENE
  0
POLYLINE
  5
54A
330
1F
100
AcDbEntity
  8
STANDARDEBENE
 62
     7
100
AcDb2dPolyline
 66
     1
 10
0.0
 20
0.0
 30
0.0
  0
VERTEX
  5
54B
330
54A
100
AcDbEntity
  8
STANDARDEBENE
 62
     7
100
AcDbVertex
100
AcDb2dVertex
 10
-16.80174176557916
 20
-47.36389299600889
 30
0.0
  0
VERTEX
  5
54C
330
54A
100
AcDbEntity
  8
STANDARDEBENE
 62
     7
100
AcDbVertex
100
AcDb2dVertex
 10
-17.39412632506067
 20
-46.77908765159489
 30
0.0
  0
VERTEX
  5
54D
330
54A
100
AcDbEntity
  8
STANDARDEBENE
 62
     7
100
AcDbVertex
100
AcDb2dVertex
 10
-17.93483441817276
 20
-46.14622319345732
 30
0.0
  0
VERTEX
  5
54E
330
54A
100
AcDbEntity
  8
STANDARDEBENE
 62
     7
100
AcDbVertex
100
AcDb2dVertex
 10
-18.42162673137274
 20
-45.47098403289684
 30
0.0
  0
VERTEX
  5
54F
330
54A
100
AcDbEntity
  8
STANDARDEBENE
 62
     7
100
AcDbVertex
100
AcDb2dVertex
 10
-18.85140267667846
 20
-44.75767654211086
 30
0.0
  0
VERTEX
  5
550
330
54A
100
AcDbEntity
  8
STANDARDEBENE
 62
     7
100
AcDbVertex
100
AcDb2dVertex
 10
-19.21933911722877
 20
-44.01043483840898
 30
0.0
  0
VERTEX
  5
551
330
54A
100
AcDbEntity
  8
STANDARDEBENE
 62
     7
100
AcDbVertex
100
AcDb2dVertex
 10
-19.52371350414468
 20
-43.23580460753129
 30
0.0
  0
VERTEX
  5
552
330
54A
100
AcDbEntity
  8
STANDARDEBENE
 62
     7
100
AcDbVertex
100
AcDb2dVertex
 10
-19.76297554343513
 20
-42.43809222167526
 30
0.0
  0
VERTEX
  5
553
330
54A
100
AcDbEntity
  8
STANDARDEBENE
 62
     7
100
AcDbVertex
100
AcDb2dVertex
 10
-19.93505817644531
 20
-41.62384336658102
 30
0.0
  0
VERTEX
  5
554
330
54A
100
AcDbEntity
  8
STANDARDEBENE
 62
     7
100
AcDbVertex
100
AcDb2dVertex
 10
-20.03892787384785
 20
-40.79736441444601
 30
0.0
  0
VERTEX
  5
555
330
54A
100
AcDbEntity
  8
STANDARDEBENE
 62
     7
100
AcDbVertex
100
AcDb2dVertex
 10
-20.07372336120327
 20
-39.96589007056195
 30
0.0
  0
VERTEX
  5
556
330
54A
100
AcDbEntity
  8
STANDARDEBENE
 62
     7
100
AcDbVertex
100
AcDb2dVertex
 10
-20.03892787384785
 20
-39.13407121690211
 30
0.0
  0
VERTEX
  5
557
330
54A
100
AcDbEntity
  8
STANDARDEBENE
 62
     7
100
AcDbVertex
100
AcDb2dVertex
 10
-19.93505817644531
 20
-38.30810902943079
 30
0.0
  0
VERTEX
  5
558
330
54A
100
AcDbEntity
  8
STANDARDEBENE
 62
     7
100
AcDbVertex
100
AcDb2dVertex
 10
-19.76297554343513
 20
-37.49351566456075
 30
0.0
  0
VERTEX
  5
559
330
54A
100
AcDbEntity
  8
STANDARDEBENE
 62
     7
100
AcDbVertex
100
AcDb2dVertex
 10
-19.52371350414468
 20
-36.69597553359262
 30
0.0
  0
VERTEX
  5
55A
330
54A
100
AcDbEntity
  8
STANDARDEBENE
 62
     7
100
AcDbVertex
100
AcDb2dVertex
 10
-19.21933911722877
 20
-35.92134530271493
 30
0.0
  0
VERTEX
  5
55B
330
54A
100
AcDbEntity
  8
STANDARDEBENE
 62
     7
100
AcDbVertex
100
AcDb2dVertex
 10
-18.85140267667846
 20
-35.17410359901304
 30
0.0
  0
VERTEX
  5
55C
330
54A
100
AcDbEntity
  8
STANDARDEBENE
 62
     7
100
AcDbVertex
100
AcDb2dVertex
 10
-18.42162673137274
 20
-34.46079610822707
 30
0.0
  0
VERTEX
  5
55D
330
54A
100
AcDbEntity
  8
STANDARDEBENE
 62
     7
100
AcDbVertex
100
AcDb2dVertex
 10
-17.93483441817276
 20
-33.78555694766658
 30
0.0
  0
VERTEX
  5
55E
330
54A
100
AcDbEntity
  8
STANDARDEBENE
 62
     7
100
AcDbVertex
100
AcDb2dVertex
 10
-17.39412632506067
 20
-33.15303699930482
 30
0.0
  0
VERTEX
  5
55F
330
54A
100
AcDbEntity
  8
STANDARDEBENE
 62
     7
100
AcDbVertex
100
AcDb2dVertex
 10
-16.80174176557916
 20
-32.56771489022713
 30
0.0
  0
SEQEND
  5
560
330
54A
100
AcDbEntity
  8
STANDARDEBENE
  0
POLYLINE
  5
561
330
1F
100
AcDbEntity
  8
STANDARDEBENE
 62
     7
100
AcDb2dPolyline
 66
     1
 10
0.0
 20
0.0
 30
0.0
  0
VERTEX
  5
562
330
561
100
AcDbEntity
  8
STANDARDEBENE
 62
     7
100
AcDbVertex
100
AcDb2dVertex
 10
-3.34605119742029
 20
-32.56771489022713
 30
0.0
  0
VERTEX
  5
563
330
561
100
AcDbEntity
  8
STANDARDEBENE
 62
     7
100
AcDbVertex
100
AcDb2dVertex
 10
-2.753838892826676
 20
-33.15303699930482
 30
0.0
  0
VERTEX
  5
564
330
561
100
AcDbEntity
  8
STANDARDEBENE
 62
     7
100
AcDbVertex
100
AcDb2dVertex
 10
-2.212269525275098
 20
-33.78555694766658
 30
0.0
  0
VERTEX
  5
565
330
561
100
AcDbEntity
  8
STANDARDEBENE
 62
     7
100
AcDbVertex
100
AcDb2dVertex
 10
-1.725477212075112
 20
-34.46079610822707
 30
0.0
  0
VERTEX
  5
566
330
561
100
AcDbEntity
  8
STANDARDEBENE
 62
     7
100
AcDbVertex
100
AcDb2dVertex
 10
-1.296390286320983
 20
-35.17410359901304
 30
0.0
  0
VERTEX
  5
567
330
561
100
AcDbEntity
  8
STANDARDEBENE
 62
     7
100
AcDbVertex
100
AcDb2dVertex
 10
-0.928453845770675
 20
-35.92134530271493
 30
0.0
  0
VERTEX
  5
568
330
561
100
AcDbEntity
  8
STANDARDEBENE
 62
     7
100
AcDbVertex
100
AcDb2dVertex
 10
-0.6233904393031675
 20
-36.69597553359262
 30
0.0
  0
VERTEX
  5
569
330
561
100
AcDbEntity
  8
STANDARDEBENE
 62
     7
100
AcDbVertex
100
AcDb2dVertex
 10
-0.3841284000127282
 20
-37.49351566456075
 30
0.0
  0
VERTEX
  5
56A
330
561
100
AcDbEntity
  8
STANDARDEBENE
 62
     7
100
AcDbVertex
100
AcDb2dVertex
 10
-0.2120457670025419
 20
-38.30810902943079
 30
0.0
  0
VERTEX
  5
56B
330
561
100
AcDbEntity
  8
STANDARDEBENE
 62
     7
100
AcDbVertex
100
AcDb2dVertex
 10
-0.1083483244878951
 20
-39.13407121690211
 30
0.0
  0
VERTEX
  5
56C
330
561
100
AcDbEntity
  8
STANDARDEBENE
 62
     7
100
AcDbVertex
100
AcDb2dVertex
 10
-0.0740696017961763
 20
-39.96589007056195
 30
0.0
  0
VERTEX
  5
56D
330
561
100
AcDbEntity
  8
STANDARDEBENE
 62
     7
100
AcDbVertex
100
AcDb2dVertex
 10
-0.1083483244878951
 20
-40.79736441444601
 30
0.0
  0
VERTEX
  5
56E
330
561
100
AcDbEntity
  8
STANDARDEBENE
 62
     7
100
AcDbVertex
100
AcDb2dVertex
 10
-0.2120457670025419
 20
-41.62384336658102
 30
0.0
  0
VERTEX
  5
56F
330
561
100
AcDbEntity
  8
STANDARDEBENE
 62
     7
100
AcDbVertex
100
AcDb2dVertex
 10
-0.3841284000127282
 20
-42.43809222167526
 30
0.0
  0
VERTEX
  5
570
330
561
100
AcDbEntity
  8
STANDARDEBENE
 62
     7
100
AcDbVertex
100
AcDb2dVertex
 10
-0.6233904393031675
 20
-43.23580460753129
 30
0.0
  0
VERTEX
  5
571
330
561
100
AcDbEntity
  8
STANDARDEBENE
 62
     7
100
AcDbVertex
100
AcDb2dVertex
 10
-0.928453845770675
 20
-44.01043483840898
 30
0.0
  0
VERTEX
  5
572
330
561
100
AcDbEntity
  8
STANDARDEBENE
 62
     7
100
AcDbVertex
100
AcDb2dVertex
 10
-1.296390286320983
 20
-44.75767654211086
 30
0.0
  0
VERTEX
  5
573
330
561
100
AcDbEntity
  8
STANDARDEBENE
 62
     7
100
AcDbVertex
100
AcDb2dVertex
 10
-1.725477212075112
 20
-45.47098403289684
 30
0.0
  0
VERTEX
  5
574
330
561
100
AcDbEntity
  8
STANDARDEBENE
 62
     7
100
AcDbVertex
100
AcDb2dVertex
 10
-2.212269525275098
 20
-46.14622319345732
 30
0.0
  0
VERTEX
  5
575
330
561
100
AcDbEntity
  8
STANDARDEBENE
 62
     7
100
AcDbVertex
100
AcDb2dVertex
 10
-2.753838892826676
 20
-46.77908765159489
 30
0.0
  0
VERTEX
  5
576
330
561
100
AcDbEntity
  8
STANDARDEBENE
 62
     7
100
AcDbVertex
100
AcDb2dVertex
 10
-3.34605119742029
 20
-47.36389299600889
 30
0.0
  0
SEQEND
  5
577
330
561
100
AcDbEntity
  8
STANDARDEBENE
  0
SPLINE
  5
578
330
1F
100
AcDbEntity
  8
STANDARDEBENE
 62
     7
100
AcDbSpline
210
0.0
220
0.0
230
1.0
 70
    11
 71
     3
 72
    17
 73
    13
 74
     0
 42
0.0000000001
 43
0.0000000001
 40
0.0
 40
0.0
 40
0.0
 40
0.0
 40
1.0
 40
1.0
 40
1.0
 40
2.0
 40
2.0
 40
2.0
 40
3.0
 40
3.0
 40
3.0
 40
4.0
 40
4.0
 40
4.0
 40
4.0
 10
-5.073939977925975
 20
-39.96589007056195
 30
0.0
 10
-5.073939977925975
 20
-37.20429970777987
 30
0.0
 10
-7.312392246161582
 20
-34.96601969443216
 30
0.0
 10
-10.07398260894367
 20
-34.96601969443216
 30
0.0
 10
-12.83540071683786
 20
-34.96601969443216
 30
0.0
 10
-15.07385298507347
 20
-37.20429970777987
 30
0.0
 10
-15.07385298507347
 20
-39.96589007056195
 30
0.0
 10
-15.07385298507347
 20
-42.72713592356825
 30
0.0
 10
-12.83540071683786
 20
-44.96576044669175
 30
0.0
 10
-10.07398260894367
 20
-44.96576044669175
 30
0.0
 10
-7.312392246161582
 20
-44.96576044669175
 30
0.0
 10
-5.073939977925975
 20
-42.72713592356825
 30
0.0
 10
-5.073939977925975
 20
-39.96589007056195
 30
0.0
  0
POLYLINE
  5
579
330
1F
100
AcDbEntity
  8
STANDARDEBENE
 62
     7
100
AcDb2dPolyline
 66
     1
 10
0.0
 20
0.0
 30
0.0
  0
VERTEX
  5
57A
330
579
100
AcDbEntity
  8
STANDARDEBENE
 62
     7
100
AcDbVertex
100
AcDb2dVertex
 10
-16.07362035443395
 20
-34.6742199143328
 30
0.0
  0
VERTEX
  5
57B
330
579
100
AcDbEntity
  8
STANDARDEBENE
 62
     7
100
AcDbVertex
100
AcDb2dVertex
 10
-16.07362035443395
 20
-45.25756022679111
 30
0.0
  0
SEQEND
  5
57C
330
579
100
AcDbEntity
  8
STANDARDEBENE
  0
POLYLINE
  5
57D
330
1F
100
AcDbEntity
  8
STANDARDEBENE
 62
     7
100
AcDb2dPolyline
 66
     1
 10
0.0
 20
0.0
 30
0.0
  0
VERTEX
  5
57E
330
57D
100
AcDbEntity
  8
STANDARDEBENE
 62
     7
100
AcDbVertex
100
AcDb2dVertex
 10
-4.0734835890139
 20
-45.25756022679111
 30
0.0
  0
VERTEX
  5
57F
330
57D
100
AcDbEntity
  8
STANDARDEBENE
 62
     7
100
AcDbVertex
100
AcDb2dVertex
 10
-4.0734835890139
 20
-34.6742199143328
 30
0.0
  0
SEQEND
  5
580
330
57D
100
AcDbEntity
  8
STANDARDEBENE
  0
POLYLINE
  5
581
330
1F
100
AcDbEntity
  8
STANDARDEBENE
 62
     7
100
AcDb2dPolyline
 66
     1
 10
0.0
 20
0.0
 30
0.0
  0
VERTEX
  5
582
330
581
100
AcDbEntity
  8
STANDARDEBENE
 62
     7
100
AcDbVertex
100
AcDb2dVertex
 10
52.08471045374379
 20
84.04987774610342
 30
0.0
  0
VERTEX
  5
583
330
581
100
AcDbEntity
  8
STANDARDEBENE
 62
     7
100
AcDbVertex
100
AcDb2dVertex
 10
58.8271112758506
 20
12.13139498999839
 30
0.0
  0
SEQEND
  5
584
330
581
100
AcDbEntity
  8
STANDARDEBENE
  0
POLYLINE
  5
585
330
1F
100
AcDbEntity
  8
STANDARDEBENE
 62
     7
100
AcDb2dPolyline
 66
     1
 10
0.0
 20
0.0
 30
0.0
  0
VERTEX
  5
586
330
585
100
AcDbEntity
  8
STANDARDEBENE
 62
     7
100
AcDbVertex
100
AcDb2dVertex
 10
52.06851849428137
 20
12.13139498999839
 30
0.0
  0
VERTEX
  5
587
330
585
100
AcDbEntity
  8
STANDARDEBENE
 62
     7
100
AcDbVertex
100
AcDb2dVertex
 10
58.84226970598564
 20
84.08071137103717
 30
0.0
  0
SEQEND
  5
588
330
585
100
AcDbEntity
  8
STANDARDEBENE
  0
POLYLINE
  5
58A
330
1F
100
AcDbEntity
  8
BEMA_UNG
 62
     7
100
AcDb2dPolyline
 66
     1
 10
0.0
 20
0.0
 30
0.0
  0
VERTEX
  5
58B
330
58A
100
AcDbEntity
  8
BEMA_UNG
 62
     7
100
AcDbVertex
100
AcDb2dVertex
 10
45.45582560276181
 20
0.5941071083604932
 30
0.0
  0
VERTEX
  5
58C
330
58A
100
AcDbEntity
  8
BEMA_UNG
 62
     7
100
AcDbVertex
100
AcDb2dVertex
 10
45.45582560276181
 20
-12.55720907288246
 30
0.0
  0
SEQEND
  5
58D
330
58A
100
AcDbEntity
  8
BEMA_UNG
  0
POLYLINE
  5
58E
330
1F
100
AcDbEntity
  8
BEMA_UNG
 62
     7
100
AcDb2dPolyline
 66
     1
 10
0.0
 20
0.0
 30
0.0
  0
VERTEX
  5
58F
330
58E
100
AcDbEntity
  8
BEMA_UNG
 62
     7
100
AcDbVertex
100
AcDb2dVertex
 10
65.45582387194469
 20
0.5941071083604932
 30
0.0
  0
VERTEX
  5
590
330
58E
100
AcDbEntity
  8
BEMA_UNG
 62
     7
100
AcDbVertex
100
AcDb2dVertex
 10
65.45582387194469
 20
-12.55720907288246
 30
0.0
  0
SEQEND
  5
591
330
58E
100
AcDbEntity
  8
BEMA_UNG
  0
POLYLINE
  5
592
330
1F
100
AcDbEntity
  8
BEMA_UNG
 62
     7
100
AcDb2dPolyline
 66
     1
 10
0.0
 20
0.0
 30
0.0
  0
VERTEX
  5
593
330
592
100
AcDbEntity
  8
BEMA_UNG
 62
     7
100
AcDbVertex
100
AcDb2dVertex
 10
45.45582560276181
 20
-10.556813059722
 30
0.0
  0
VERTEX
  5
594
330
592
100
AcDbEntity
  8
BEMA_UNG
 62
     7
100
AcDbVertex
100
AcDb2dVertex
 10
65.45582387194469
 20
-10.556813059722
 30
0.0
  0
SEQEND
  5
595
330
592
100
AcDbEntity
  8
BEMA_UNG
  0
POLYLINE
  5
596
330
1F
100
AcDbEntity
  8
BEMA_UNG
 62
     7
100
AcDb2dPolyline
 66
     1
 10
0.0
 20
0.0
 30
0.0
  0
VERTEX
  5
597
330
596
100
AcDbEntity
  8
BEMA_UNG
 62
     7
100
AcDbVertex
100
AcDb2dVertex
 10
45.45582560276181
 20
-10.556813059722
 30
0.0
  0
VERTEX
  5
598
330
596
100
AcDbEntity
  8
BEMA_UNG
 62
     7
100
AcDbVertex
100
AcDb2dVertex
 10
48.95604492485088
 20
-11.01793939462517
 30
0.0
  0
VERTEX
  5
599
330
596
100
AcDbEntity
  8
BEMA_UNG
 62
     7
100
AcDbVertex
100
AcDb2dVertex
 10
48.95604492485088
 20
-10.09620348948252
 30
0.0
  0
VERTEX
  5
59A
330
596
100
AcDbEntity
  8
BEMA_UNG
 62
     7
100
AcDbVertex
100
AcDb2dVertex
 10
45.45582560276181
 20
-10.556813059722
 30
0.0
  0
SEQEND
  5
59B
330
596
100
AcDbEntity
  8
BEMA_UNG
  0
POLYLINE
  5
59C
330
1F
100
AcDbEntity
  8
BEMA_UNG
 62
     7
100
AcDb2dPolyline
 66
     1
 10
0.0
 20
0.0
 30
0.0
  0
VERTEX
  5
59D
330
59C
100
AcDbEntity
  8
BEMA_UNG
 62
     7
100
AcDbVertex
100
AcDb2dVertex
 10
48.95604492485088
 20
-11.01414978709142
 30
0.0
  0
VERTEX
  5
59E
330
59C
100
AcDbEntity
  8
BEMA_UNG
 62
     7
100
AcDbVertex
100
AcDb2dVertex
 10
48.92882865256298
 20
-11.01414978709142
 30
0.0
  0
SEQEND
  5
59F
330
59C
100
AcDbEntity
  8
BEMA_UNG
  0
POLYLINE
  5
5A0
330
1F
100
AcDbEntity
  8
BEMA_UNG
 62
     7
100
AcDb2dPolyline
 66
     1
 10
0.0
 20
0.0
 30
0.0
  0
VERTEX
  5
5A1
330
5A0
100
AcDbEntity
  8
BEMA_UNG
 62
     7
100
AcDbVertex
100
AcDb2dVertex
 10
48.95604492485088
 20
-11.01414978709142
 30
0.0
  0
VERTEX
  5
5A2
330
5A0
100
AcDbEntity
  8
BEMA_UNG
 62
     7
100
AcDbVertex
100
AcDb2dVertex
 10
48.92882865256298
 20
-11.01414978709142
 30
0.0
  0
SEQEND
  5
5A3
330
5A0
100
AcDbEntity
  8
BEMA_UNG
  0
POLYLINE
  5
5A4
330
1F
100
AcDbEntity
  8
BEMA_UNG
 62
     7
100
AcDb2dPolyline
 66
     1
 10
0.0
 20
0.0
 30
0.0
  0
VERTEX
  5
5A5
330
5A4
100
AcDbEntity
  8
BEMA_UNG
 62
     7
100
AcDbVertex
100
AcDb2dVertex
 10
48.95604492485088
 20
-10.96299008538569
 30
0.0
  0
VERTEX
  5
5A6
330
5A4
100
AcDbEntity
  8
BEMA_UNG
 62
     7
100
AcDbVertex
100
AcDb2dVertex
 10
48.54263319389548
 20
-10.96299008538569
 30
0.0
  0
SEQEND
  5
5A7
330
5A4
100
AcDbEntity
  8
BEMA_UNG
  0
POLYLINE
  5
5A8
330
1F
100
AcDbEntity
  8
BEMA_UNG
 62
     7
100
AcDb2dPolyline
 66
     1
 10
0.0
 20
0.0
 30
0.0
  0
VERTEX
  5
5A9
330
5A8
100
AcDbEntity
  8
BEMA_UNG
 62
     7
100
AcDbVertex
100
AcDb2dVertex
 10
48.95604492485088
 20
-10.91217489345575
 30
0.0
  0
VERTEX
  5
5AA
330
5A8
100
AcDbEntity
  8
BEMA_UNG
 62
     7
100
AcDbVertex
100
AcDb2dVertex
 10
48.15729900966746
 20
-10.91217489345575
 30
0.0
  0
SEQEND
  5
5AB
330
5A8
100
AcDbEntity
  8
BEMA_UNG
  0
POLYLINE
  5
5AC
330
1F
100
AcDbEntity
  8
BEMA_UNG
 62
     7
100
AcDb2dPolyline
 66
     1
 10
0.0
 20
0.0
 30
0.0
  0
VERTEX
  5
5AD
330
5AC
100
AcDbEntity
  8
BEMA_UNG
 62
     7
100
AcDbVertex
100
AcDb2dVertex
 10
48.95604492485088
 20
-10.86204872107741
 30
0.0
  0
VERTEX
  5
5AE
330
5AC
100
AcDbEntity
  8
BEMA_UNG
 62
     7
100
AcDbVertex
100
AcDb2dVertex
 10
47.77144806077575
 20
-10.86204872107741
 30
0.0
  0
SEQEND
  5
5AF
330
5AC
100
AcDbEntity
  8
BEMA_UNG
  0
POLYLINE
  5
5B0
330
1F
100
AcDbEntity
  8
BEMA_UNG
 62
     7
100
AcDb2dPolyline
 66
     1
 10
0.0
 20
0.0
 30
0.0
  0
VERTEX
  5
5B1
330
5B0
100
AcDbEntity
  8
BEMA_UNG
 62
     7
100
AcDbVertex
100
AcDb2dVertex
 10
48.95604492485088
 20
-10.81054450959588
 30
0.0
  0
VERTEX
  5
5B2
330
5B0
100
AcDbEntity
  8
BEMA_UNG
 62
     7
100
AcDbVertex
100
AcDb2dVertex
 10
47.38542485699615
 20
-10.81054450959588
 30
0.0
  0
SEQEND
  5
5B3
330
5B0
100
AcDbEntity
  8
BEMA_UNG
  0
POLYLINE
  5
5B4
330
1F
100
AcDbEntity
  8
BEMA_UNG
 62
     7
100
AcDb2dPolyline
 66
     1
 10
0.0
 20
0.0
 30
0.0
  0
VERTEX
  5
5B5
330
5B4
100
AcDbEntity
  8
BEMA_UNG
 62
     7
100
AcDbVertex
100
AcDb2dVertex
 10
48.95604492485088
 20
-10.75972931766595
 30
0.0
  0
VERTEX
  5
5B6
330
5B4
100
AcDbEntity
  8
BEMA_UNG
 62
     7
100
AcDbVertex
100
AcDb2dVertex
 10
46.99922939832864
 20
-10.75972931766595
 30
0.0
  0
SEQEND
  5
5B7
330
5B4
100
AcDbEntity
  8
BEMA_UNG
  0
POLYLINE
  5
5B8
330
1F
100
AcDbEntity
  8
BEMA_UNG
 62
     7
100
AcDb2dPolyline
 66
     1
 10
0.0
 20
0.0
 30
0.0
  0
VERTEX
  5
5B9
330
5B8
100
AcDbEntity
  8
BEMA_UNG
 62
     7
100
AcDbVertex
100
AcDb2dVertex
 10
48.95604492485088
 20
-10.70925863551181
 30
0.0
  0
VERTEX
  5
5BA
330
5B8
100
AcDbEntity
  8
BEMA_UNG
 62
     7
100
AcDbVertex
100
AcDb2dVertex
 10
46.61320619454904
 20
-10.70925863551181
 30
0.0
  0
SEQEND
  5
5BB
330
5B8
100
AcDbEntity
  8
BEMA_UNG
  0
POLYLINE
  5
5BC
330
1F
100
AcDbEntity
  8
BEMA_UNG
 62
     7
100
AcDb2dPolyline
 66
     1
 10
0.0
 20
0.0
 30
0.0
  0
VERTEX
  5
5BD
330
5BC
100
AcDbEntity
  8
BEMA_UNG
 62
     7
100
AcDbVertex
100
AcDb2dVertex
 10
48.95604492485088
 20
-10.65844344358187
 30
0.0
  0
VERTEX
  5
5BE
330
5BC
100
AcDbEntity
  8
BEMA_UNG
 62
     7
100
AcDbVertex
100
AcDb2dVertex
 10
46.22804426520891
 20
-10.65844344358187
 30
0.0
  0
SEQEND
  5
5BF
330
5BC
100
AcDbEntity
  8
BEMA_UNG
  0
POLYLINE
  5
5C0
330
1F
100
AcDbEntity
  8
BEMA_UNG
 62
     7
100
AcDb2dPolyline
 66
     1
 10
0.0
 20
0.0
 30
0.0
  0
VERTEX
  5
5C1
330
5C0
100
AcDbEntity
  8
BEMA_UNG
 62
     7
100
AcDbVertex
100
AcDb2dVertex
 10
48.95604492485088
 20
-10.60762825165194
 30
0.0
  0
VERTEX
  5
5C2
330
5C0
100
AcDbEntity
  8
BEMA_UNG
 62
     7
100
AcDbVertex
100
AcDb2dVertex
 10
45.84202106142931
 20
-10.60762825165194
 30
0.0
  0
SEQEND
  5
5C3
330
5C0
100
AcDbEntity
  8
BEMA_UNG
  0
POLYLINE
  5
5C4
330
1F
100
AcDbEntity
  8
BEMA_UNG
 62
     7
100
AcDb2dPolyline
 66
     1
 10
0.0
 20
0.0
 30
0.0
  0
VERTEX
  5
5C5
330
5C4
100
AcDbEntity
  8
BEMA_UNG
 62
     7
100
AcDbVertex
100
AcDb2dVertex
 10
48.95604492485088
 20
-10.556813059722
 30
0.0
  0
VERTEX
  5
5C6
330
5C4
100
AcDbEntity
  8
BEMA_UNG
 62
     7
100
AcDbVertex
100
AcDb2dVertex
 10
45.45582560276181
 20
-10.556813059722
 30
0.0
  0
SEQEND
  5
5C7
330
5C4
100
AcDbEntity
  8
BEMA_UNG
  0
POLYLINE
  5
5C8
330
1F
100
AcDbEntity
  8
BEMA_UNG
 62
     7
100
AcDb2dPolyline
 66
     1
 10
0.0
 20
0.0
 30
0.0
  0
VERTEX
  5
5C9
330
5C8
100
AcDbEntity
  8
BEMA_UNG
 62
     7
100
AcDbVertex
100
AcDb2dVertex
 10
48.95604492485088
 20
-10.09964858724049
 30
0.0
  0
VERTEX
  5
5CA
330
5C8
100
AcDbEntity
  8
BEMA_UNG
 62
     7
100
AcDbVertex
100
AcDb2dVertex
 10
48.92882865256298
 20
-10.09964858724049
 30
0.0
  0
SEQEND
  5
5CB
330
5C8
100
AcDbEntity
  8
BEMA_UNG
  0
POLYLINE
  5
5CC
330
1F
100
AcDbEntity
  8
BEMA_UNG
 62
     7
100
AcDb2dPolyline
 66
     1
 10
0.0
 20
0.0
 30
0.0
  0
VERTEX
  5
5CD
330
5CC
100
AcDbEntity
  8
BEMA_UNG
 62
     7
100
AcDbVertex
100
AcDb2dVertex
 10
48.95604492485088
 20
-10.09964858724049
 30
0.0
  0
VERTEX
  5
5CE
330
5CC
100
AcDbEntity
  8
BEMA_UNG
 62
     7
100
AcDbVertex
100
AcDb2dVertex
 10
48.92882865256298
 20
-10.09964858724049
 30
0.0
  0
SEQEND
  5
5CF
330
5CC
100
AcDbEntity
  8
BEMA_UNG
  0
POLYLINE
  5
5D0
330
1F
100
AcDbEntity
  8
BEMA_UNG
 62
     7
100
AcDb2dPolyline
 66
     1
 10
0.0
 20
0.0
 30
0.0
  0
VERTEX
  5
5D1
330
5D0
100
AcDbEntity
  8
BEMA_UNG
 62
     7
100
AcDbVertex
100
AcDb2dVertex
 10
48.95604492485088
 20
-10.15046377917042
 30
0.0
  0
VERTEX
  5
5D2
330
5D0
100
AcDbEntity
  8
BEMA_UNG
 62
     7
100
AcDbVertex
100
AcDb2dVertex
 10
48.54263319389548
 20
-10.15046377917042
 30
0.0
  0
SEQEND
  5
5D3
330
5D0
100
AcDbEntity
  8
BEMA_UNG
  0
POLYLINE
  5
5D4
330
1F
100
AcDbEntity
  8
BEMA_UNG
 62
     7
100
AcDb2dPolyline
 66
     1
 10
0.0
 20
0.0
 30
0.0
  0
VERTEX
  5
5D5
330
5D4
100
AcDbEntity
  8
BEMA_UNG
 62
     7
100
AcDbVertex
100
AcDb2dVertex
 10
48.95604492485088
 20
-10.20127897110036
 30
0.0
  0
VERTEX
  5
5D6
330
5D4
100
AcDbEntity
  8
BEMA_UNG
 62
     7
100
AcDbVertex
100
AcDb2dVertex
 10
48.15729900966746
 20
-10.20127897110036
 30
0.0
  0
SEQEND
  5
5D7
330
5D4
100
AcDbEntity
  8
BEMA_UNG
  0
POLYLINE
  5
5D8
330
1F
100
AcDbEntity
  8
BEMA_UNG
 62
     7
100
AcDb2dPolyline
 66
     1
 10
0.0
 20
0.0
 30
0.0
  0
VERTEX
  5
5D9
330
5D8
100
AcDbEntity
  8
BEMA_UNG
 62
     7
100
AcDbVertex
100
AcDb2dVertex
 10
48.95604492485088
 20
-10.25174965325449
 30
0.0
  0
VERTEX
  5
5DA
330
5D8
100
AcDbEntity
  8
BEMA_UNG
 62
     7
100
AcDbVertex
100
AcDb2dVertex
 10
47.77144806077575
 20
-10.25174965325449
 30
0.0
  0
SEQEND
  5
5DB
330
5D8
100
AcDbEntity
  8
BEMA_UNG
  0
POLYLINE
  5
5DC
330
1F
100
AcDbEntity
  8
BEMA_UNG
 62
     7
100
AcDb2dPolyline
 66
     1
 10
0.0
 20
0.0
 30
0.0
  0
VERTEX
  5
5DD
330
5DC
100
AcDbEntity
  8
BEMA_UNG
 62
     7
100
AcDbVertex
100
AcDb2dVertex
 10
48.95604492485088
 20
-10.30325386473602
 30
0.0
  0
VERTEX
  5
5DE
330
5DC
100
AcDbEntity
  8
BEMA_UNG
 62
     7
100
AcDbVertex
100
AcDb2dVertex
 10
47.38542485699615
 20
-10.30325386473602
 30
0.0
  0
SEQEND
  5
5DF
330
5DC
100
AcDbEntity
  8
BEMA_UNG
  0
POLYLINE
  5
5E0
330
1F
100
AcDbEntity
  8
BEMA_UNG
 62
     7
100
AcDb2dPolyline
 66
     1
 10
0.0
 20
0.0
 30
0.0
  0
VERTEX
  5
5E1
330
5E0
100
AcDbEntity
  8
BEMA_UNG
 62
     7
100
AcDbVertex
100
AcDb2dVertex
 10
48.95604492485088
 20
-10.35406905666596
 30
0.0
  0
VERTEX
  5
5E2
330
5E0
100
AcDbEntity
  8
BEMA_UNG
 62
     7
100
AcDbVertex
100
AcDb2dVertex
 10
46.99922939832864
 20
-10.35406905666596
 30
0.0
  0
SEQEND
  5
5E3
330
5E0
100
AcDbEntity
  8
BEMA_UNG
  0
POLYLINE
  5
5E4
330
1F
100
AcDbEntity
  8
BEMA_UNG
 62
     7
100
AcDb2dPolyline
 66
     1
 10
0.0
 20
0.0
 30
0.0
  0
VERTEX
  5
5E5
330
5E4
100
AcDbEntity
  8
BEMA_UNG
 62
     7
100
AcDbVertex
100
AcDb2dVertex
 10
48.95604492485088
 20
-10.4041952290443
 30
0.0
  0
VERTEX
  5
5E6
330
5E4
100
AcDbEntity
  8
BEMA_UNG
 62
     7
100
AcDbVertex
100
AcDb2dVertex
 10
46.61320619454904
 20
-10.4041952290443
 30
0.0
  0
SEQEND
  5
5E7
330
5E4
100
AcDbEntity
  8
BEMA_UNG
  0
POLYLINE
  5
5E8
330
1F
100
AcDbEntity
  8
BEMA_UNG
 62
     7
100
AcDb2dPolyline
 66
     1
 10
0.0
 20
0.0
 30
0.0
  0
VERTEX
  5
5E9
330
5E8
100
AcDbEntity
  8
BEMA_UNG
 62
     7
100
AcDbVertex
100
AcDb2dVertex
 10
48.95604492485088
 20
-10.45483816608634
 30
0.0
  0
VERTEX
  5
5EA
330
5E8
100
AcDbEntity
  8
BEMA_UNG
 62
     7
100
AcDbVertex
100
AcDb2dVertex
 10
46.22804426520891
 20
-10.45483816608634
 30
0.0
  0
SEQEND
  5
5EB
330
5E8
100
AcDbEntity
  8
BEMA_UNG
  0
POLYLINE
  5
5EC
330
1F
100
AcDbEntity
  8
BEMA_UNG
 62
     7
100
AcDb2dPolyline
 66
     1
 10
0.0
 20
0.0
 30
0.0
  0
VERTEX
  5
5ED
330
5EC
100
AcDbEntity
  8
BEMA_UNG
 62
     7
100
AcDbVertex
100
AcDb2dVertex
 10
48.95604492485088
 20
-10.50617012267996
 30
0.0
  0
VERTEX
  5
5EE
330
5EC
100
AcDbEntity
  8
BEMA_UNG
 62
     7
100
AcDbVertex
100
AcDb2dVertex
 10
45.84202106142931
 20
-10.50617012267996
 30
0.0
  0
SEQEND
  5
5EF
330
5EC
100
AcDbEntity
  8
BEMA_UNG
  0
POLYLINE
  5
5F0
330
1F
100
AcDbEntity
  8
BEMA_UNG
 62
     7
100
AcDb2dPolyline
 66
     1
 10
0.0
 20
0.0
 30
0.0
  0
VERTEX
  5
5F1
330
5F0
100
AcDbEntity
  8
BEMA_UNG
 62
     7
100
AcDbVertex
100
AcDb2dVertex
 10
48.95604492485088
 20
-10.556813059722
 30
0.0
  0
VERTEX
  5
5F2
330
5F0
100
AcDbEntity
  8
BEMA_UNG
 62
     7
100
AcDbVertex
100
AcDb2dVertex
 10
45.45582560276181
 20
-10.556813059722
 30
0.0
  0
SEQEND
  5
5F3
330
5F0
100
AcDbEntity
  8
BEMA_UNG
  0
POLYLINE
  5
5F4
330
1F
100
AcDbEntity
  8
BEMA_UNG
 62
     7
100
AcDb2dPolyline
 66
     1
 10
0.0
 20
0.0
 30
0.0
  0
VERTEX
  5
5F5
330
5F4
100
AcDbEntity
  8
BEMA_UNG
 62
     7
100
AcDbVertex
100
AcDb2dVertex
 10
65.45582387194469
 20
-10.556813059722
 30
0.0
  0
VERTEX
  5
5F6
330
5F4
100
AcDbEntity
  8
BEMA_UNG
 62
     7
100
AcDbVertex
100
AcDb2dVertex
 10
61.95629356940721
 20
-10.09620348948252
 30
0.0
  0
VERTEX
  5
5F7
330
5F4
100
AcDbEntity
  8
BEMA_UNG
 62
     7
100
AcDbVertex
100
AcDb2dVertex
 10
61.95629356940721
 20
-11.01793939462517
 30
0.0
  0
VERTEX
  5
5F8
330
5F4
100
AcDbEntity
  8
BEMA_UNG
 62
     7
100
AcDbVertex
100
AcDb2dVertex
 10
65.45582387194469
 20
-10.556813059722
 30
0.0
  0
SEQEND
  5
5F9
330
5F4
100
AcDbEntity
  8
BEMA_UNG
  0
POLYLINE
  5
5FA
330
1F
100
AcDbEntity
  8
BEMA_UNG
 62
     7
100
AcDb2dPolyline
 66
     1
 10
0.0
 20
0.0
 30
0.0
  0
VERTEX
  5
5FB
330
5FA
100
AcDbEntity
  8
BEMA_UNG
 62
     7
100
AcDbVertex
100
AcDb2dVertex
 10
61.95629356940721
 20
-10.09964858724049
 30
0.0
  0
VERTEX
  5
5FC
330
5FA
100
AcDbEntity
  8
BEMA_UNG
 62
     7
100
AcDbVertex
100
AcDb2dVertex
 10
61.98350984169511
 20
-10.09964858724049
 30
0.0
  0
SEQEND
  5
5FD
330
5FA
100
AcDbEntity
  8
BEMA_UNG
  0
POLYLINE
  5
5FE
330
1F
100
AcDbEntity
  8
BEMA_UNG
 62
     7
100
AcDb2dPolyline
 66
     1
 10
0.0
 20
0.0
 30
0.0
  0
VERTEX
  5
5FF
330
5FE
100
AcDbEntity
  8
BEMA_UNG
 62
     7
100
AcDbVertex
100
AcDb2dVertex
 10
61.95629356940721
 20
-10.09964858724049
 30
0.0
  0
VERTEX
  5
600
330
5FE
100
AcDbEntity
  8
BEMA_UNG
 62
     7
100
AcDbVertex
100
AcDb2dVertex
 10
61.98350984169511
 20
-10.09964858724049
 30
0.0
  0
SEQEND
  5
601
330
5FE
100
AcDbEntity
  8
BEMA_UNG
  0
POLYLINE
  5
602
330
1F
100
AcDbEntity
  8
BEMA_UNG
 62
     7
100
AcDb2dPolyline
 66
     1
 10
0.0
 20
0.0
 30
0.0
  0
VERTEX
  5
603
330
602
100
AcDbEntity
  8
BEMA_UNG
 62
     7
100
AcDbVertex
100
AcDb2dVertex
 10
61.95629356940721
 20
-10.15046377917042
 30
0.0
  0
VERTEX
  5
604
330
602
100
AcDbEntity
  8
BEMA_UNG
 62
     7
100
AcDbVertex
100
AcDb2dVertex
 10
62.36901628081102
 20
-10.15046377917042
 30
0.0
  0
SEQEND
  5
605
330
602
100
AcDbEntity
  8
BEMA_UNG
  0
POLYLINE
  5
606
330
1F
100
AcDbEntity
  8
BEMA_UNG
 62
     7
100
AcDb2dPolyline
 66
     1
 10
0.0
 20
0.0
 30
0.0
  0
VERTEX
  5
607
330
606
100
AcDbEntity
  8
BEMA_UNG
 62
     7
100
AcDbVertex
100
AcDb2dVertex
 10
61.95629356940721
 20
-10.20127897110036
 30
0.0
  0
VERTEX
  5
608
330
606
100
AcDbEntity
  8
BEMA_UNG
 62
     7
100
AcDbVertex
100
AcDb2dVertex
 10
62.75503948459063
 20
-10.20127897110036
 30
0.0
  0
SEQEND
  5
609
330
606
100
AcDbEntity
  8
BEMA_UNG
  0
POLYLINE
  5
60A
330
1F
100
AcDbEntity
  8
BEMA_UNG
 62
     7
100
AcDb2dPolyline
 66
     1
 10
0.0
 20
0.0
 30
0.0
  0
VERTEX
  5
60B
330
60A
100
AcDbEntity
  8
BEMA_UNG
 62
     7
100
AcDbVertex
100
AcDb2dVertex
 10
61.95629356940721
 20
-10.25174965325449
 30
0.0
  0
VERTEX
  5
60C
330
60A
100
AcDbEntity
  8
BEMA_UNG
 62
     7
100
AcDbVertex
100
AcDb2dVertex
 10
63.14054592370654
 20
-10.25174965325449
 30
0.0
  0
SEQEND
  5
60D
330
60A
100
AcDbEntity
  8
BEMA_UNG
  0
POLYLINE
  5
60E
330
1F
100
AcDbEntity
  8
BEMA_UNG
 62
     7
100
AcDb2dPolyline
 66
     1
 10
0.0
 20
0.0
 30
0.0
  0
VERTEX
  5
60F
330
60E
100
AcDbEntity
  8
BEMA_UNG
 62
     7
100
AcDbVertex
100
AcDb2dVertex
 10
61.95629356940721
 20
-10.30325386473602
 30
0.0
  0
VERTEX
  5
610
330
60E
100
AcDbEntity
  8
BEMA_UNG
 62
     7
100
AcDbVertex
100
AcDb2dVertex
 10
63.52691363726194
 20
-10.30325386473602
 30
0.0
  0
SEQEND
  5
611
330
60E
100
AcDbEntity
  8
BEMA_UNG
  0
POLYLINE
  5
612
330
1F
100
AcDbEntity
  8
BEMA_UNG
 62
     7
100
AcDb2dPolyline
 66
     1
 10
0.0
 20
0.0
 30
0.0
  0
VERTEX
  5
613
330
612
100
AcDbEntity
  8
BEMA_UNG
 62
     7
100
AcDbVertex
100
AcDb2dVertex
 10
61.95629356940721
 20
-10.35406905666596
 30
0.0
  0
VERTEX
  5
614
330
612
100
AcDbEntity
  8
BEMA_UNG
 62
     7
100
AcDbVertex
100
AcDb2dVertex
 10
63.91242007637786
 20
-10.35406905666596
 30
0.0
  0
SEQEND
  5
615
330
612
100
AcDbEntity
  8
BEMA_UNG
  0
POLYLINE
  5
616
330
1F
100
AcDbEntity
  8
BEMA_UNG
 62
     7
100
AcDb2dPolyline
 66
     1
 10
0.0
 20
0.0
 30
0.0
  0
VERTEX
  5
617
330
616
100
AcDbEntity
  8
BEMA_UNG
 62
     7
100
AcDbVertex
100
AcDb2dVertex
 10
61.95629356940721
 20
-10.4041952290443
 30
0.0
  0
VERTEX
  5
618
330
616
100
AcDbEntity
  8
BEMA_UNG
 62
     7
100
AcDbVertex
100
AcDb2dVertex
 10
64.29878778993326
 20
-10.4041952290443
 30
0.0
  0
SEQEND
  5
619
330
616
100
AcDbEntity
  8
BEMA_UNG
  0
POLYLINE
  5
61A
330
1F
100
AcDbEntity
  8
BEMA_UNG
 62
     7
100
AcDb2dPolyline
 66
     1
 10
0.0
 20
0.0
 30
0.0
  0
VERTEX
  5
61B
330
61A
100
AcDbEntity
  8
BEMA_UNG
 62
     7
100
AcDbVertex
100
AcDb2dVertex
 10
61.95629356940721
 20
-10.45483816608634
 30
0.0
  0
VERTEX
  5
61C
330
61A
100
AcDbEntity
  8
BEMA_UNG
 62
     7
100
AcDbVertex
100
AcDb2dVertex
 10
64.68394971927337
 20
-10.45483816608634
 30
0.0
  0
SEQEND
  5
61D
330
61A
100
AcDbEntity
  8
BEMA_UNG
  0
POLYLINE
  5
61E
330
1F
100
AcDbEntity
  8
BEMA_UNG
 62
     7
100
AcDb2dPolyline
 66
     1
 10
0.0
 20
0.0
 30
0.0
  0
VERTEX
  5
61F
330
61E
100
AcDbEntity
  8
BEMA_UNG
 62
     7
100
AcDbVertex
100
AcDb2dVertex
 10
61.95629356940721
 20
-10.50617012267996
 30
0.0
  0
VERTEX
  5
620
330
61E
100
AcDbEntity
  8
BEMA_UNG
 62
     7
100
AcDbVertex
100
AcDb2dVertex
 10
65.07031743282877
 20
-10.50617012267996
 30
0.0
  0
SEQEND
  5
621
330
61E
100
AcDbEntity
  8
BEMA_UNG
  0
POLYLINE
  5
622
330
1F
100
AcDbEntity
  8
BEMA_UNG
 62
     7
100
AcDb2dPolyline
 66
     1
 10
0.0
 20
0.0
 30
0.0
  0
VERTEX
  5
623
330
622
100
AcDbEntity
  8
BEMA_UNG
 62
     7
100
AcDbVertex
100
AcDb2dVertex
 10
61.95629356940721
 20
-10.556813059722
 30
0.0
  0
VERTEX
  5
624
330
622
100
AcDbEntity
  8
BEMA_UNG
 62
     7
100
AcDbVertex
100
AcDb2dVertex
 10
65.45582387194469
 20
-10.556813059722
 30
0.0
  0
SEQEND
  5
625
330
622
100
AcDbEntity
  8
BEMA_UNG
  0
POLYLINE
  5
626
330
1F
100
AcDbEntity
  8
BEMA_UNG
 62
     7
100
AcDb2dPolyline
 66
     1
 10
0.0
 20
0.0
 30
0.0
  0
VERTEX
  5
627
330
626
100
AcDbEntity
  8
BEMA_UNG
 62
     7
100
AcDbVertex
100
AcDb2dVertex
 10
61.95629356940721
 20
-11.01414978709142
 30
0.0
  0
VERTEX
  5
628
330
626
100
AcDbEntity
  8
BEMA_UNG
 62
     7
100
AcDbVertex
100
AcDb2dVertex
 10
61.98350984169511
 20
-11.01414978709142
 30
0.0
  0
SEQEND
  5
629
330
626
100
AcDbEntity
  8
BEMA_UNG
  0
POLYLINE
  5
62A
330
1F
100
AcDbEntity
  8
BEMA_UNG
 62
     7
100
AcDb2dPolyline
 66
     1
 10
0.0
 20
0.0
 30
0.0
  0
VERTEX
  5
62B
330
62A
100
AcDbEntity
  8
BEMA_UNG
 62
     7
100
AcDbVertex
100
AcDb2dVertex
 10
61.95629356940721
 20
-11.01414978709142
 30
0.0
  0
VERTEX
  5
62C
330
62A
100
AcDbEntity
  8
BEMA_UNG
 62
     7
100
AcDbVertex
100
AcDb2dVertex
 10
61.98350984169511
 20
-11.01414978709142
 30
0.0
  0
SEQEND
  5
62D
330
62A
100
AcDbEntity
  8
BEMA_UNG
  0
POLYLINE
  5
62E
330
1F
100
AcDbEntity
  8
BEMA_UNG
 62
     7
100
AcDb2dPolyline
 66
     1
 10
0.0
 20
0.0
 30
0.0
  0
VERTEX
  5
62F
330
62E
100
AcDbEntity
  8
BEMA_UNG
 62
     7
100
AcDbVertex
100
AcDb2dVertex
 10
61.95629356940721
 20
-10.96299008538569
 30
0.0
  0
VERTEX
  5
630
330
62E
100
AcDbEntity
  8
BEMA_UNG
 62
     7
100
AcDbVertex
100
AcDb2dVertex
 10
62.36901628081102
 20
-10.96299008538569
 30
0.0
  0
SEQEND
  5
631
330
62E
100
AcDbEntity
  8
BEMA_UNG
  0
POLYLINE
  5
632
330
1F
100
AcDbEntity
  8
BEMA_UNG
 62
     7
100
AcDb2dPolyline
 66
     1
 10
0.0
 20
0.0
 30
0.0
  0
VERTEX
  5
633
330
632
100
AcDbEntity
  8
BEMA_UNG
 62
     7
100
AcDbVertex
100
AcDb2dVertex
 10
61.95629356940721
 20
-10.91217489345575
 30
0.0
  0
VERTEX
  5
634
330
632
100
AcDbEntity
  8
BEMA_UNG
 62
     7
100
AcDbVertex
100
AcDb2dVertex
 10
62.75503948459063
 20
-10.91217489345575
 30
0.0
  0
SEQEND
  5
635
330
632
100
AcDbEntity
  8
BEMA_UNG
  0
POLYLINE
  5
636
330
1F
100
AcDbEntity
  8
BEMA_UNG
 62
     7
100
AcDb2dPolyline
 66
     1
 10
0.0
 20
0.0
 30
0.0
  0
VERTEX
  5
637
330
636
100
AcDbEntity
  8
BEMA_UNG
 62
     7
100
AcDbVertex
100
AcDb2dVertex
 10
61.95629356940721
 20
-10.86204872107741
 30
0.0
  0
VERTEX
  5
638
330
636
100
AcDbEntity
  8
BEMA_UNG
 62
     7
100
AcDbVertex
100
AcDb2dVertex
 10
63.14054592370654
 20
-10.86204872107741
 30
0.0
  0
SEQEND
  5
639
330
636
100
AcDbEntity
  8
BEMA_UNG
  0
POLYLINE
  5
63A
330
1F
100
AcDbEntity
  8
BEMA_UNG
 62
     7
100
AcDb2dPolyline
 66
     1
 10
0.0
 20
0.0
 30
0.0
  0
VERTEX
  5
63B
330
63A
100
AcDbEntity
  8
BEMA_UNG
 62
     7
100
AcDbVertex
100
AcDb2dVertex
 10
61.95629356940721
 20
-10.81054450959588
 30
0.0
  0
VERTEX
  5
63C
330
63A
100
AcDbEntity
  8
BEMA_UNG
 62
     7
100
AcDbVertex
100
AcDb2dVertex
 10
63.52691363726194
 20
-10.81054450959588
 30
0.0
  0
SEQEND
  5
63D
330
63A
100
AcDbEntity
  8
BEMA_UNG
  0
POLYLINE
  5
63E
330
1F
100
AcDbEntity
  8
BEMA_UNG
 62
     7
100
AcDb2dPolyline
 66
     1
 10
0.0
 20
0.0
 30
0.0
  0
VERTEX
  5
63F
330
63E
100
AcDbEntity
  8
BEMA_UNG
 62
     7
100
AcDbVertex
100
AcDb2dVertex
 10
61.95629356940721
 20
-10.75972931766595
 30
0.0
  0
VERTEX
  5
640
330
63E
100
AcDbEntity
  8
BEMA_UNG
 62
     7
100
AcDbVertex
100
AcDb2dVertex
 10
63.91242007637786
 20
-10.75972931766595
 30
0.0
  0
SEQEND
  5
641
330
63E
100
AcDbEntity
  8
BEMA_UNG
  0
POLYLINE
  5
642
330
1F
100
AcDbEntity
  8
BEMA_UNG
 62
     7
100
AcDb2dPolyline
 66
     1
 10
0.0
 20
0.0
 30
0.0
  0
VERTEX
  5
643
330
642
100
AcDbEntity
  8
BEMA_UNG
 62
     7
100
AcDbVertex
100
AcDb2dVertex
 10
61.95629356940721
 20
-10.70925863551181
 30
0.0
  0
VERTEX
  5
644
330
642
100
AcDbEntity
  8
BEMA_UNG
 62
     7
100
AcDbVertex
100
AcDb2dVertex
 10
64.29878778993326
 20
-10.70925863551181
 30
0.0
  0
SEQEND
  5
645
330
642
100
AcDbEntity
  8
BEMA_UNG
  0
POLYLINE
  5
646
330
1F
100
AcDbEntity
  8
BEMA_UNG
 62
     7
100
AcDb2dPolyline
 66
     1
 10
0.0
 20
0.0
 30
0.0
  0
VERTEX
  5
647
330
646
100
AcDbEntity
  8
BEMA_UNG
 62
     7
100
AcDbVertex
100
AcDb2dVertex
 10
61.95629356940721
 20
-10.65844344358187
 30
0.0
  0
VERTEX
  5
648
330
646
100
AcDbEntity
  8
BEMA_UNG
 62
     7
100
AcDbVertex
100
AcDb2dVertex
 10
64.68394971927337
 20
-10.65844344358187
 30
0.0
  0
SEQEND
  5
649
330
646
100
AcDbEntity
  8
BEMA_UNG
  0
POLYLINE
  5
64A
330
1F
100
AcDbEntity
  8
BEMA_UNG
 62
     7
100
AcDb2dPolyline
 66
     1
 10
0.0
 20
0.0
 30
0.0
  0
VERTEX
  5
64B
330
64A
100
AcDbEntity
  8
BEMA_UNG
 62
     7
100
AcDbVertex
100
AcDb2dVertex
 10
61.95629356940721
 20
-10.60762825165194
 30
0.0
  0
VERTEX
  5
64C
330
64A
100
AcDbEntity
  8
BEMA_UNG
 62
     7
100
AcDbVertex
100
AcDb2dVertex
 10
65.07031743282877
 20
-10.60762825165194
 30
0.0
  0
SEQEND
  5
64D
330
64A
100
AcDbEntity
  8
BEMA_UNG
  0
POLYLINE
  5
64E
330
1F
100
AcDbEntity
  8
BEMA_UNG
 62
     7
100
AcDb2dPolyline
 66
     1
 10
0.0
 20
0.0
 30
0.0
  0
VERTEX
  5
64F
330
64E
100
AcDbEntity
  8
BEMA_UNG
 62
     7
100
AcDbVertex
100
AcDb2dVertex
 10
61.95629356940721
 20
-10.556813059722
 30
0.0
  0
VERTEX
  5
650
330
64E
100
AcDbEntity
  8
BEMA_UNG
 62
     7
100
AcDbVertex
100
AcDb2dVertex
 10
65.45582387194469
 20
-10.556813059722
 30
0.0
  0
SEQEND
  5
651
330
64E
100
AcDbEntity
  8
BEMA_UNG
  0
POLYLINE
  5
652
330
1F
100
AcDbEntity
  8
BEMA_UNG
 62
     7
100
AcDb2dPolyline
 66
     1
 10
0.0
 20
0.0
 30
0.0
  0
VERTEX
  5
653
330
652
100
AcDbEntity
  8
BEMA_UNG
 62
     7
100
AcDbVertex
100
AcDb2dVertex
 10
-15.07385298507347
 20
120.0944714211094
 30
0.0
  0
VERTEX
  5
654
330
652
100
AcDbEntity
  8
BEMA_UNG
 62
     7
100
AcDbVertex
100
AcDb2dVertex
 10
-15.07385298507347
 20
132.5132736915658
 30
0.0
  0
SEQEND
  5
655
330
652
100
AcDbEntity
  8
BEMA_UNG
  0
POLYLINE
  5
656
330
1F
100
AcDbEntity
  8
BEMA_UNG
 62
     7
100
AcDb2dPolyline
 66
     1
 10
0.0
 20
0.0
 30
0.0
  0
VERTEX
  5
657
330
656
100
AcDbEntity
  8
BEMA_UNG
 62
     7
100
AcDbVertex
100
AcDb2dVertex
 10
-5.073939977925975
 20
120.0944714211094
 30
0.0
  0
VERTEX
  5
658
330
656
100
AcDbEntity
  8
BEMA_UNG
 62
     7
100
AcDbVertex
100
AcDb2dVertex
 10
-5.073939977925975
 20
132.5132736915658
 30
0.0
  0
SEQEND
  5
659
330
656
100
AcDbEntity
  8
BEMA_UNG
  0
POLYLINE
  5
65A
330
1F
100
AcDbEntity
  8
BEMA_UNG
 62
     7
100
AcDb2dPolyline
 66
     1
 10
0.0
 20
0.0
 30
0.0
  0
VERTEX
  5
65B
330
65A
100
AcDbEntity
  8
BEMA_UNG
 62
     7
100
AcDbVertex
100
AcDb2dVertex
 10
-15.07385298507347
 20
130.513394443069
 30
0.0
  0
VERTEX
  5
65C
330
65A
100
AcDbEntity
  8
BEMA_UNG
 62
     7
100
AcDbVertex
100
AcDb2dVertex
 10
15.7639060659932
 20
130.513394443069
 30
0.0
  0
SEQEND
  5
65D
330
65A
100
AcDbEntity
  8
BEMA_UNG
  0
POLYLINE
  5
65E
330
1F
100
AcDbEntity
  8
BEMA_UNG
 62
     7
100
AcDb2dPolyline
 66
     1
 10
0.0
 20
0.0
 30
0.0
  0
VERTEX
  5
65F
330
65E
100
AcDbEntity
  8
BEMA_UNG
 62
     7
100
AcDbVertex
100
AcDb2dVertex
 10
-15.07385298507347
 20
130.513394443069
 30
0.0
  0
VERTEX
  5
660
330
65E
100
AcDbEntity
  8
BEMA_UNG
 62
     7
100
AcDbVertex
100
AcDb2dVertex
 10
-11.57363366298439
 20
130.0523542356098
 30
0.0
  0
VERTEX
  5
661
330
65E
100
AcDbEntity
  8
BEMA_UNG
 62
     7
100
AcDbVertex
100
AcDb2dVertex
 10
-11.57363366298439
 20
130.9738317584206
 30
0.0
  0
VERTEX
  5
662
330
65E
100
AcDbEntity
  8
BEMA_UNG
 62
     7
100
AcDbVertex
100
AcDb2dVertex
 10
-15.07385298507347
 20
130.513394443069
 30
0.0
  0
SEQEND
  5
663
330
65E
100
AcDbEntity
  8
BEMA_UNG
  0
POLYLINE
  5
664
330
1F
100
AcDbEntity
  8
BEMA_UNG
 62
     7
100
AcDb2dPolyline
 66
     1
 10
0.0
 20
0.0
 30
0.0
  0
VERTEX
  5
665
330
664
100
AcDbEntity
  8
BEMA_UNG
 62
     7
100
AcDbVertex
100
AcDb2dVertex
 10
-11.57363366298439
 20
130.0558854608117
 30
0.0
  0
VERTEX
  5
666
330
664
100
AcDbEntity
  8
BEMA_UNG
 62
     7
100
AcDbVertex
100
AcDb2dVertex
 10
-11.60067768038439
 20
130.0558854608117
 30
0.0
  0
SEQEND
  5
667
330
664
100
AcDbEntity
  8
BEMA_UNG
  0
POLYLINE
  5
668
330
1F
100
AcDbEntity
  8
BEMA_UNG
 62
     7
100
AcDb2dPolyline
 66
     1
 10
0.0
 20
0.0
 30
0.0
  0
VERTEX
  5
669
330
668
100
AcDbEntity
  8
BEMA_UNG
 62
     7
100
AcDbVertex
100
AcDb2dVertex
 10
-11.57363366298439
 20
130.0558854608117
 30
0.0
  0
VERTEX
  5
66A
330
668
100
AcDbEntity
  8
BEMA_UNG
 62
     7
100
AcDbVertex
100
AcDb2dVertex
 10
-11.60067768038439
 20
130.0558854608117
 30
0.0
  0
SEQEND
  5
66B
330
668
100
AcDbEntity
  8
BEMA_UNG
  0
POLYLINE
  5
66C
330
1F
100
AcDbEntity
  8
BEMA_UNG
 62
     7
100
AcDb2dPolyline
 66
     1
 10
0.0
 20
0.0
 30
0.0
  0
VERTEX
  5
66D
330
66C
100
AcDbEntity
  8
BEMA_UNG
 62
     7
100
AcDbVertex
100
AcDb2dVertex
 10
-11.57363366298439
 20
130.1067006527416
 30
0.0
  0
VERTEX
  5
66E
330
66C
100
AcDbEntity
  8
BEMA_UNG
 62
     7
100
AcDbVertex
100
AcDb2dVertex
 10
-11.9870453939398
 20
130.1067006527416
 30
0.0
  0
SEQEND
  5
66F
330
66C
100
AcDbEntity
  8
BEMA_UNG
  0
POLYLINE
  5
670
330
1F
100
AcDbEntity
  8
BEMA_UNG
 62
     7
100
AcDb2dPolyline
 66
     1
 10
0.0
 20
0.0
 30
0.0
  0
VERTEX
  5
671
330
670
100
AcDbEntity
  8
BEMA_UNG
 62
     7
100
AcDbVertex
100
AcDb2dVertex
 10
-11.57363366298439
 20
130.1574297172276
 30
0.0
  0
VERTEX
  5
672
330
670
100
AcDbEntity
  8
BEMA_UNG
 62
     7
100
AcDbVertex
100
AcDb2dVertex
 10
-12.37289634283151
 20
130.1574297172276
 30
0.0
  0
SEQEND
  5
673
330
670
100
AcDbEntity
  8
BEMA_UNG
  0
POLYLINE
  5
674
330
1F
100
AcDbEntity
  8
BEMA_UNG
 62
     7
100
AcDb2dPolyline
 66
     1
 10
0.0
 20
0.0
 30
0.0
  0
VERTEX
  5
675
330
674
100
AcDbEntity
  8
BEMA_UNG
 62
     7
100
AcDbVertex
100
AcDb2dVertex
 10
-11.57363366298439
 20
130.2082449091576
 30
0.0
  0
VERTEX
  5
676
330
674
100
AcDbEntity
  8
BEMA_UNG
 62
     7
100
AcDbVertex
100
AcDb2dVertex
 10
-12.75823052705952
 20
130.2082449091576
 30
0.0
  0
SEQEND
  5
677
330
674
100
AcDbEntity
  8
BEMA_UNG
  0
POLYLINE
  5
678
330
1F
100
AcDbEntity
  8
BEMA_UNG
 62
     7
100
AcDb2dPolyline
 66
     1
 10
0.0
 20
0.0
 30
0.0
  0
VERTEX
  5
679
330
678
100
AcDbEntity
  8
BEMA_UNG
 62
     7
100
AcDbVertex
100
AcDb2dVertex
 10
-11.57363366298439
 20
130.2594046108633
 30
0.0
  0
VERTEX
  5
67A
330
678
100
AcDbEntity
  8
BEMA_UNG
 62
     7
100
AcDbVertex
100
AcDb2dVertex
 10
-13.14408147595123
 20
130.2594046108633
 30
0.0
  0
SEQEND
  5
67B
330
678
100
AcDbEntity
  8
BEMA_UNG
  0
POLYLINE
  5
67C
330
1F
100
AcDbEntity
  8
BEMA_UNG
 62
     7
100
AcDb2dPolyline
 66
     1
 10
0.0
 20
0.0
 30
0.0
  0
VERTEX
  5
67D
330
67C
100
AcDbEntity
  8
BEMA_UNG
 62
     7
100
AcDbVertex
100
AcDb2dVertex
 10
-11.57363366298439
 20
130.3102198027932
 30
0.0
  0
VERTEX
  5
67E
330
67C
100
AcDbEntity
  8
BEMA_UNG
 62
     7
100
AcDbVertex
100
AcDb2dVertex
 10
-13.53044918950663
 20
130.3102198027932
 30
0.0
  0
SEQEND
  5
67F
330
67C
100
AcDbEntity
  8
BEMA_UNG
  0
POLYLINE
  5
680
330
1F
100
AcDbEntity
  8
BEMA_UNG
 62
     7
100
AcDb2dPolyline
 66
     1
 10
0.0
 20
0.0
 30
0.0
  0
VERTEX
  5
681
330
680
100
AcDbEntity
  8
BEMA_UNG
 62
     7
100
AcDbVertex
100
AcDb2dVertex
 10
-11.57363366298439
 20
130.3609488672792
 30
0.0
  0
VERTEX
  5
682
330
680
100
AcDbEntity
  8
BEMA_UNG
 62
     7
100
AcDbVertex
100
AcDb2dVertex
 10
-13.91647239328624
 20
130.3609488672792
 30
0.0
  0
SEQEND
  5
683
330
680
100
AcDbEntity
  8
BEMA_UNG
  0
POLYLINE
  5
684
330
1F
100
AcDbEntity
  8
BEMA_UNG
 62
     7
100
AcDb2dPolyline
 66
     1
 10
0.0
 20
0.0
 30
0.0
  0
VERTEX
  5
685
330
684
100
AcDbEntity
  8
BEMA_UNG
 62
     7
100
AcDbVertex
100
AcDb2dVertex
 10
-11.57363366298439
 20
130.4117640592091
 30
0.0
  0
VERTEX
  5
686
330
684
100
AcDbEntity
  8
BEMA_UNG
 62
     7
100
AcDbVertex
100
AcDb2dVertex
 10
-14.30197883240215
 20
130.4117640592091
 30
0.0
  0
SEQEND
  5
687
330
684
100
AcDbEntity
  8
BEMA_UNG
  0
POLYLINE
  5
688
330
1F
100
AcDbEntity
  8
BEMA_UNG
 62
     7
100
AcDb2dPolyline
 66
     1
 10
0.0
 20
0.0
 30
0.0
  0
VERTEX
  5
689
330
688
100
AcDbEntity
  8
BEMA_UNG
 62
     7
100
AcDbVertex
100
AcDb2dVertex
 10
-11.57363366298439
 20
130.4625792511391
 30
0.0
  0
VERTEX
  5
68A
330
688
100
AcDbEntity
  8
BEMA_UNG
 62
     7
100
AcDbVertex
100
AcDb2dVertex
 10
-14.68748527151807
 20
130.4625792511391
 30
0.0
  0
SEQEND
  5
68B
330
688
100
AcDbEntity
  8
BEMA_UNG
  0
POLYLINE
  5
68C
330
1F
100
AcDbEntity
  8
BEMA_UNG
 62
     7
100
AcDb2dPolyline
 66
     1
 10
0.0
 20
0.0
 30
0.0
  0
VERTEX
  5
68D
330
68C
100
AcDbEntity
  8
BEMA_UNG
 62
     7
100
AcDbVertex
100
AcDb2dVertex
 10
-11.57363366298439
 20
130.513394443069
 30
0.0
  0
VERTEX
  5
68E
330
68C
100
AcDbEntity
  8
BEMA_UNG
 62
     7
100
AcDbVertex
100
AcDb2dVertex
 10
-15.07385298507347
 20
130.513394443069
 30
0.0
  0
SEQEND
  5
68F
330
68C
100
AcDbEntity
  8
BEMA_UNG
  0
POLYLINE
  5
690
330
1F
100
AcDbEntity
  8
BEMA_UNG
 62
     7
100
AcDb2dPolyline
 66
     1
 10
0.0
 20
0.0
 30
0.0
  0
VERTEX
  5
691
330
690
100
AcDbEntity
  8
BEMA_UNG
 62
     7
100
AcDbVertex
100
AcDb2dVertex
 10
-11.57363366298439
 20
130.9702144057747
 30
0.0
  0
VERTEX
  5
692
330
690
100
AcDbEntity
  8
BEMA_UNG
 62
     7
100
AcDbVertex
100
AcDb2dVertex
 10
-11.60067768038439
 20
130.9702144057747
 30
0.0
  0
SEQEND
  5
693
330
690
100
AcDbEntity
  8
BEMA_UNG
  0
POLYLINE
  5
694
330
1F
100
AcDbEntity
  8
BEMA_UNG
 62
     7
100
AcDb2dPolyline
 66
     1
 10
0.0
 20
0.0
 30
0.0
  0
VERTEX
  5
695
330
694
100
AcDbEntity
  8
BEMA_UNG
 62
     7
100
AcDbVertex
100
AcDb2dVertex
 10
-11.57363366298439
 20
130.9702144057747
 30
0.0
  0
VERTEX
  5
696
330
694
100
AcDbEntity
  8
BEMA_UNG
 62
     7
100
AcDbVertex
100
AcDb2dVertex
 10
-11.60067768038439
 20
130.9702144057747
 30
0.0
  0
SEQEND
  5
697
330
694
100
AcDbEntity
  8
BEMA_UNG
  0
POLYLINE
  5
698
330
1F
100
AcDbEntity
  8
BEMA_UNG
 62
     7
100
AcDb2dPolyline
 66
     1
 10
0.0
 20
0.0
 30
0.0
  0
VERTEX
  5
699
330
698
100
AcDbEntity
  8
BEMA_UNG
 62
     7
100
AcDbVertex
100
AcDb2dVertex
 10
-11.57363366298439
 20
130.9194853412887
 30
0.0
  0
VERTEX
  5
69A
330
698
100
AcDbEntity
  8
BEMA_UNG
 62
     7
100
AcDbVertex
100
AcDb2dVertex
 10
-11.9870453939398
 20
130.9194853412887
 30
0.0
  0
SEQEND
  5
69B
330
698
100
AcDbEntity
  8
BEMA_UNG
  0
POLYLINE
  5
69C
330
1F
100
AcDbEntity
  8
BEMA_UNG
 62
     7
100
AcDb2dPolyline
 66
     1
 10
0.0
 20
0.0
 30
0.0
  0
VERTEX
  5
69D
330
69C
100
AcDbEntity
  8
BEMA_UNG
 62
     7
100
AcDbVertex
100
AcDb2dVertex
 10
-11.57363366298439
 20
130.8686701493588
 30
0.0
  0
VERTEX
  5
69E
330
69C
100
AcDbEntity
  8
BEMA_UNG
 62
     7
100
AcDbVertex
100
AcDb2dVertex
 10
-12.37289634283151
 20
130.8686701493588
 30
0.0
  0
SEQEND
  5
69F
330
69C
100
AcDbEntity
  8
BEMA_UNG
  0
POLYLINE
  5
6A0
330
1F
100
AcDbEntity
  8
BEMA_UNG
 62
     7
100
AcDb2dPolyline
 66
     1
 10
0.0
 20
0.0
 30
0.0
  0
VERTEX
  5
6A1
330
6A0
100
AcDbEntity
  8
BEMA_UNG
 62
     7
100
AcDbVertex
100
AcDb2dVertex
 10
-11.57363366298439
 20
130.8178549574289
 30
0.0
  0
VERTEX
  5
6A2
330
6A0
100
AcDbEntity
  8
BEMA_UNG
 62
     7
100
AcDbVertex
100
AcDb2dVertex
 10
-12.75823052705952
 20
130.8178549574289
 30
0.0
  0
SEQEND
  5
6A3
330
6A0
100
AcDbEntity
  8
BEMA_UNG
  0
POLYLINE
  5
6A4
330
1F
100
AcDbEntity
  8
BEMA_UNG
 62
     7
100
AcDb2dPolyline
 66
     1
 10
0.0
 20
0.0
 30
0.0
  0
VERTEX
  5
6A5
330
6A4
100
AcDbEntity
  8
BEMA_UNG
 62
     7
100
AcDbVertex
100
AcDb2dVertex
 10
-11.57363366298439
 20
130.7670397654989
 30
0.0
  0
VERTEX
  5
6A6
330
6A4
100
AcDbEntity
  8
BEMA_UNG
 62
     7
100
AcDbVertex
100
AcDb2dVertex
 10
-13.14408147595123
 20
130.7670397654989
 30
0.0
  0
SEQEND
  5
6A7
330
6A4
100
AcDbEntity
  8
BEMA_UNG
  0
POLYLINE
  5
6A8
330
1F
100
AcDbEntity
  8
BEMA_UNG
 62
     7
100
AcDb2dPolyline
 66
     1
 10
0.0
 20
0.0
 30
0.0
  0
VERTEX
  5
6A9
330
6A8
100
AcDbEntity
  8
BEMA_UNG
 62
     7
100
AcDbVertex
100
AcDb2dVertex
 10
-11.57363366298439
 20
130.7166552107888
 30
0.0
  0
VERTEX
  5
6AA
330
6A8
100
AcDbEntity
  8
BEMA_UNG
 62
     7
100
AcDbVertex
100
AcDb2dVertex
 10
-13.53044918950663
 20
130.7166552107888
 30
0.0
  0
SEQEND
  5
6AB
330
6A8
100
AcDbEntity
  8
BEMA_UNG
  0
POLYLINE
  5
6AC
330
1F
100
AcDbEntity
  8
BEMA_UNG
 62
     7
100
AcDb2dPolyline
 66
     1
 10
0.0
 20
0.0
 30
0.0
  0
VERTEX
  5
6AD
330
6AC
100
AcDbEntity
  8
BEMA_UNG
 62
     7
100
AcDbVertex
100
AcDb2dVertex
 10
-11.57363366298439
 20
130.6658400188588
 30
0.0
  0
VERTEX
  5
6AE
330
6AC
100
AcDbEntity
  8
BEMA_UNG
 62
     7
100
AcDbVertex
100
AcDb2dVertex
 10
-13.91647239328624
 20
130.6658400188588
 30
0.0
  0
SEQEND
  5
6AF
330
6AC
100
AcDbEntity
  8
BEMA_UNG
  0
POLYLINE
  5
6B0
330
1F
100
AcDbEntity
  8
BEMA_UNG
 62
     7
100
AcDb2dPolyline
 66
     1
 10
0.0
 20
0.0
 30
0.0
  0
VERTEX
  5
6B1
330
6B0
100
AcDbEntity
  8
BEMA_UNG
 62
     7
100
AcDbVertex
100
AcDb2dVertex
 10
-11.57363366298439
 20
130.6150248269289
 30
0.0
  0
VERTEX
  5
6B2
330
6B0
100
AcDbEntity
  8
BEMA_UNG
 62
     7
100
AcDbVertex
100
AcDb2dVertex
 10
-14.30197883240215
 20
130.6150248269289
 30
0.0
  0
SEQEND
  5
6B3
330
6B0
100
AcDbEntity
  8
BEMA_UNG
  0
POLYLINE
  5
6B4
330
1F
100
AcDbEntity
  8
BEMA_UNG
 62
     7
100
AcDb2dPolyline
 66
     1
 10
0.0
 20
0.0
 30
0.0
  0
VERTEX
  5
6B5
330
6B4
100
AcDbEntity
  8
BEMA_UNG
 62
     7
100
AcDbVertex
100
AcDb2dVertex
 10
-11.57363366298439
 20
130.5642096349989
 30
0.0
  0
VERTEX
  5
6B6
330
6B4
100
AcDbEntity
  8
BEMA_UNG
 62
     7
100
AcDbVertex
100
AcDb2dVertex
 10
-14.68748527151807
 20
130.5642096349989
 30
0.0
  0
SEQEND
  5
6B7
330
6B4
100
AcDbEntity
  8
BEMA_UNG
  0
POLYLINE
  5
6B8
330
1F
100
AcDbEntity
  8
BEMA_UNG
 62
     7
100
AcDb2dPolyline
 66
     1
 10
0.0
 20
0.0
 30
0.0
  0
VERTEX
  5
6B9
330
6B8
100
AcDbEntity
  8
BEMA_UNG
 62
     7
100
AcDbVertex
100
AcDb2dVertex
 10
-11.57363366298439
 20
130.513394443069
 30
0.0
  0
VERTEX
  5
6BA
330
6B8
100
AcDbEntity
  8
BEMA_UNG
 62
     7
100
AcDbVertex
100
AcDb2dVertex
 10
-15.07385298507347
 20
130.513394443069
 30
0.0
  0
SEQEND
  5
6BB
330
6B8
100
AcDbEntity
  8
BEMA_UNG
  0
POLYLINE
  5
6BC
330
1F
100
AcDbEntity
  8
BEMA_UNG
 62
     7
100
AcDb2dPolyline
 66
     1
 10
0.0
 20
0.0
 30
0.0
  0
VERTEX
  5
6BD
330
6BC
100
AcDbEntity
  8
BEMA_UNG
 62
     7
100
AcDbVertex
100
AcDb2dVertex
 10
-5.073939977925975
 20
130.513394443069
 30
0.0
  0
VERTEX
  5
6BE
330
6BC
100
AcDbEntity
  8
BEMA_UNG
 62
     7
100
AcDbVertex
100
AcDb2dVertex
 10
-8.573642535351356
 20
130.9738317584206
 30
0.0
  0
VERTEX
  5
6BF
330
6BC
100
AcDbEntity
  8
BEMA_UNG
 62
     7
100
AcDbVertex
100
AcDb2dVertex
 10
-8.573642535351356
 20
130.0523542356098
 30
0.0
  0
VERTEX
  5
6C0
330
6BC
100
AcDbEntity
  8
BEMA_UNG
 62
     7
100
AcDbVertex
100
AcDb2dVertex
 10
-5.073939977925975
 20
130.513394443069
 30
0.0
  0
SEQEND
  5
6C1
330
6BC
100
AcDbEntity
  8
BEMA_UNG
  0
POLYLINE
  5
6C2
330
1F
100
AcDbEntity
  8
BEMA_UNG
 62
     7
100
AcDb2dPolyline
 66
     1
 10
0.0
 20
0.0
 30
0.0
  0
VERTEX
  5
6C3
330
6C2
100
AcDbEntity
  8
BEMA_UNG
 62
     7
100
AcDbVertex
100
AcDb2dVertex
 10
-8.573642535351356
 20
130.9702144057747
 30
0.0
  0
VERTEX
  5
6C4
330
6C2
100
AcDbEntity
  8
BEMA_UNG
 62
     7
100
AcDbVertex
100
AcDb2dVertex
 10
-8.54642626306346
 20
130.9702144057747
 30
0.0
  0
SEQEND
  5
6C5
330
6C2
100
AcDbEntity
  8
BEMA_UNG
  0
POLYLINE
  5
6C6
330
1F
100
AcDbEntity
  8
BEMA_UNG
 62
     7
100
AcDb2dPolyline
 66
     1
 10
0.0
 20
0.0
 30
0.0
  0
VERTEX
  5
6C7
330
6C6
100
AcDbEntity
  8
BEMA_UNG
 62
     7
100
AcDbVertex
100
AcDb2dVertex
 10
-8.573642535351356
 20
130.9702144057747
 30
0.0
  0
VERTEX
  5
6C8
330
6C6
100
AcDbEntity
  8
BEMA_UNG
 62
     7
100
AcDbVertex
100
AcDb2dVertex
 10
-8.54642626306346
 20
130.9702144057747
 30
0.0
  0
SEQEND
  5
6C9
330
6C6
100
AcDbEntity
  8
BEMA_UNG
  0
POLYLINE
  5
6CA
330
1F
100
AcDbEntity
  8
BEMA_UNG
 62
     7
100
AcDb2dPolyline
 66
     1
 10
0.0
 20
0.0
 30
0.0
  0
VERTEX
  5
6CB
330
6CA
100
AcDbEntity
  8
BEMA_UNG
 62
     7
100
AcDbVertex
100
AcDb2dVertex
 10
-8.573642535351356
 20
130.9194853412887
 30
0.0
  0
VERTEX
  5
6CC
330
6CA
100
AcDbEntity
  8
BEMA_UNG
 62
     7
100
AcDbVertex
100
AcDb2dVertex
 10
-8.160747569059648
 20
130.9194853412887
 30
0.0
  0
SEQEND
  5
6CD
330
6CA
100
AcDbEntity
  8
BEMA_UNG
  0
POLYLINE
  5
6CE
330
1F
100
AcDbEntity
  8
BEMA_UNG
 62
     7
100
AcDb2dPolyline
 66
     1
 10
0.0
 20
0.0
 30
0.0
  0
VERTEX
  5
6CF
330
6CE
100
AcDbEntity
  8
BEMA_UNG
 62
     7
100
AcDbVertex
100
AcDb2dVertex
 10
-8.573642535351356
 20
130.8686701493588
 30
0.0
  0
VERTEX
  5
6D0
330
6CE
100
AcDbEntity
  8
BEMA_UNG
 62
     7
100
AcDbVertex
100
AcDb2dVertex
 10
-7.774896620167938
 20
130.8686701493588
 30
0.0
  0
SEQEND
  5
6D1
330
6CE
100
AcDbEntity
  8
BEMA_UNG
  0
POLYLINE
  5
6D2
330
1F
100
AcDbEntity
  8
BEMA_UNG
 62
     7
100
AcDb2dPolyline
 66
     1
 10
0.0
 20
0.0
 30
0.0
  0
VERTEX
  5
6D3
330
6D2
100
AcDbEntity
  8
BEMA_UNG
 62
     7
100
AcDbVertex
100
AcDb2dVertex
 10
-8.573642535351356
 20
130.8178549574289
 30
0.0
  0
VERTEX
  5
6D4
330
6D2
100
AcDbEntity
  8
BEMA_UNG
 62
     7
100
AcDbVertex
100
AcDb2dVertex
 10
-7.388873416388331
 20
130.8178549574289
 30
0.0
  0
SEQEND
  5
6D5
330
6D2
100
AcDbEntity
  8
BEMA_UNG
  0
POLYLINE
  5
6D6
330
1F
100
AcDbEntity
  8
BEMA_UNG
 62
     7
100
AcDb2dPolyline
 66
     1
 10
0.0
 20
0.0
 30
0.0
  0
VERTEX
  5
6D7
330
6D6
100
AcDbEntity
  8
BEMA_UNG
 62
     7
100
AcDbVertex
100
AcDb2dVertex
 10
-8.573642535351356
 20
130.7670397654989
 30
0.0
  0
VERTEX
  5
6D8
330
6D6
100
AcDbEntity
  8
BEMA_UNG
 62
     7
100
AcDbVertex
100
AcDb2dVertex
 10
-7.003022467496622
 20
130.7670397654989
 30
0.0
  0
SEQEND
  5
6D9
330
6D6
100
AcDbEntity
  8
BEMA_UNG
  0
POLYLINE
  5
6DA
330
1F
100
AcDbEntity
  8
BEMA_UNG
 62
     7
100
AcDb2dPolyline
 66
     1
 10
0.0
 20
0.0
 30
0.0
  0
VERTEX
  5
6DB
330
6DA
100
AcDbEntity
  8
BEMA_UNG
 62
     7
100
AcDbVertex
100
AcDb2dVertex
 10
-8.573642535351356
 20
130.7166552107888
 30
0.0
  0
VERTEX
  5
6DC
330
6DA
100
AcDbEntity
  8
BEMA_UNG
 62
     7
100
AcDbVertex
100
AcDb2dVertex
 10
-6.617343773492811
 20
130.7166552107888
 30
0.0
  0
SEQEND
  5
6DD
330
6DA
100
AcDbEntity
  8
BEMA_UNG
  0
POLYLINE
  5
6DE
330
1F
100
AcDbEntity
  8
BEMA_UNG
 62
     7
100
AcDb2dPolyline
 66
     1
 10
0.0
 20
0.0
 30
0.0
  0
VERTEX
  5
6DF
330
6DE
100
AcDbEntity
  8
BEMA_UNG
 62
     7
100
AcDbVertex
100
AcDb2dVertex
 10
-8.573642535351356
 20
130.6658400188588
 30
0.0
  0
VERTEX
  5
6E0
330
6DE
100
AcDbEntity
  8
BEMA_UNG
 62
     7
100
AcDbVertex
100
AcDb2dVertex
 10
-6.231492824601102
 20
130.6658400188588
 30
0.0
  0
SEQEND
  5
6E1
330
6DE
100
AcDbEntity
  8
BEMA_UNG
  0
POLYLINE
  5
6E2
330
1F
100
AcDbEntity
  8
BEMA_UNG
 62
     7
100
AcDb2dPolyline
 66
     1
 10
0.0
 20
0.0
 30
0.0
  0
VERTEX
  5
6E3
330
6E2
100
AcDbEntity
  8
BEMA_UNG
 62
     7
100
AcDbVertex
100
AcDb2dVertex
 10
-8.573642535351356
 20
130.6150248269289
 30
0.0
  0
VERTEX
  5
6E4
330
6E2
100
AcDbEntity
  8
BEMA_UNG
 62
     7
100
AcDbVertex
100
AcDb2dVertex
 10
-5.845125111045698
 20
130.6150248269289
 30
0.0
  0
SEQEND
  5
6E5
330
6E2
100
AcDbEntity
  8
BEMA_UNG
  0
POLYLINE
  5
6E6
330
1F
100
AcDbEntity
  8
BEMA_UNG
 62
     7
100
AcDb2dPolyline
 66
     1
 10
0.0
 20
0.0
 30
0.0
  0
VERTEX
  5
6E7
330
6E6
100
AcDbEntity
  8
BEMA_UNG
 62
     7
100
AcDbVertex
100
AcDb2dVertex
 10
-8.573642535351356
 20
130.5642096349989
 30
0.0
  0
VERTEX
  5
6E8
330
6E6
100
AcDbEntity
  8
BEMA_UNG
 62
     7
100
AcDbVertex
100
AcDb2dVertex
 10
-5.459618671929785
 20
130.5642096349989
 30
0.0
  0
SEQEND
  5
6E9
330
6E6
100
AcDbEntity
  8
BEMA_UNG
  0
POLYLINE
  5
6EA
330
1F
100
AcDbEntity
  8
BEMA_UNG
 62
     7
100
AcDb2dPolyline
 66
     1
 10
0.0
 20
0.0
 30
0.0
  0
VERTEX
  5
6EB
330
6EA
100
AcDbEntity
  8
BEMA_UNG
 62
     7
100
AcDbVertex
100
AcDb2dVertex
 10
-8.573642535351356
 20
130.513394443069
 30
0.0
  0
VERTEX
  5
6EC
330
6EA
100
AcDbEntity
  8
BEMA_UNG
 62
     7
100
AcDbVertex
100
AcDb2dVertex
 10
-5.073939977925975
 20
130.513394443069
 30
0.0
  0
SEQEND
  5
6ED
330
6EA
100
AcDbEntity
  8
BEMA_UNG
  0
POLYLINE
  5
6EE
330
1F
100
AcDbEntity
  8
BEMA_UNG
 62
     7
100
AcDb2dPolyline
 66
     1
 10
0.0
 20
0.0
 30
0.0
  0
VERTEX
  5
6EF
330
6EE
100
AcDbEntity
  8
BEMA_UNG
 62
     7
100
AcDbVertex
100
AcDb2dVertex
 10
-8.573642535351356
 20
130.0558854608117
 30
0.0
  0
VERTEX
  5
6F0
330
6EE
100
AcDbEntity
  8
BEMA_UNG
 62
     7
100
AcDbVertex
100
AcDb2dVertex
 10
-8.54642626306346
 20
130.0558854608117
 30
0.0
  0
SEQEND
  5
6F1
330
6EE
100
AcDbEntity
  8
BEMA_UNG
  0
POLYLINE
  5
6F2
330
1F
100
AcDbEntity
  8
BEMA_UNG
 62
     7
100
AcDb2dPolyline
 66
     1
 10
0.0
 20
0.0
 30
0.0
  0
VERTEX
  5
6F3
330
6F2
100
AcDbEntity
  8
BEMA_UNG
 62
     7
100
AcDbVertex
100
AcDb2dVertex
 10
-8.573642535351356
 20
130.0558854608117
 30
0.0
  0
VERTEX
  5
6F4
330
6F2
100
AcDbEntity
  8
BEMA_UNG
 62
     7
100
AcDbVertex
100
AcDb2dVertex
 10
-8.54642626306346
 20
130.0558854608117
 30
0.0
  0
SEQEND
  5
6F5
330
6F2
100
AcDbEntity
  8
BEMA_UNG
  0
POLYLINE
  5
6F6
330
1F
100
AcDbEntity
  8
BEMA_UNG
 62
     7
100
AcDb2dPolyline
 66
     1
 10
0.0
 20
0.0
 30
0.0
  0
VERTEX
  5
6F7
330
6F6
100
AcDbEntity
  8
BEMA_UNG
 62
     7
100
AcDbVertex
100
AcDb2dVertex
 10
-8.573642535351356
 20
130.1067006527416
 30
0.0
  0
VERTEX
  5
6F8
330
6F6
100
AcDbEntity
  8
BEMA_UNG
 62
     7
100
AcDbVertex
100
AcDb2dVertex
 10
-8.160747569059648
 20
130.1067006527416
 30
0.0
  0
SEQEND
  5
6F9
330
6F6
100
AcDbEntity
  8
BEMA_UNG
  0
POLYLINE
  5
6FA
330
1F
100
AcDbEntity
  8
BEMA_UNG
 62
     7
100
AcDb2dPolyline
 66
     1
 10
0.0
 20
0.0
 30
0.0
  0
VERTEX
  5
6FB
330
6FA
100
AcDbEntity
  8
BEMA_UNG
 62
     7
100
AcDbVertex
100
AcDb2dVertex
 10
-8.573642535351356
 20
130.1574297172276
 30
0.0
  0
VERTEX
  5
6FC
330
6FA
100
AcDbEntity
  8
BEMA_UNG
 62
     7
100
AcDbVertex
100
AcDb2dVertex
 10
-7.774896620167938
 20
130.1574297172276
 30
0.0
  0
SEQEND
  5
6FD
330
6FA
100
AcDbEntity
  8
BEMA_UNG
  0
POLYLINE
  5
6FE
330
1F
100
AcDbEntity
  8
BEMA_UNG
 62
     7
100
AcDb2dPolyline
 66
     1
 10
0.0
 20
0.0
 30
0.0
  0
VERTEX
  5
6FF
330
6FE
100
AcDbEntity
  8
BEMA_UNG
 62
     7
100
AcDbVertex
100
AcDb2dVertex
 10
-8.573642535351356
 20
130.2082449091576
 30
0.0
  0
VERTEX
  5
700
330
6FE
100
AcDbEntity
  8
BEMA_UNG
 62
     7
100
AcDbVertex
100
AcDb2dVertex
 10
-7.388873416388331
 20
130.2082449091576
 30
0.0
  0
SEQEND
  5
701
330
6FE
100
AcDbEntity
  8
BEMA_UNG
  0
POLYLINE
  5
702
330
1F
100
AcDbEntity
  8
BEMA_UNG
 62
     7
100
AcDb2dPolyline
 66
     1
 10
0.0
 20
0.0
 30
0.0
  0
VERTEX
  5
703
330
702
100
AcDbEntity
  8
BEMA_UNG
 62
     7
100
AcDbVertex
100
AcDb2dVertex
 10
-8.573642535351356
 20
130.2594046108633
 30
0.0
  0
VERTEX
  5
704
330
702
100
AcDbEntity
  8
BEMA_UNG
 62
     7
100
AcDbVertex
100
AcDb2dVertex
 10
-7.003022467496622
 20
130.2594046108633
 30
0.0
  0
SEQEND
  5
705
330
702
100
AcDbEntity
  8
BEMA_UNG
  0
POLYLINE
  5
706
330
1F
100
AcDbEntity
  8
BEMA_UNG
 62
     7
100
AcDb2dPolyline
 66
     1
 10
0.0
 20
0.0
 30
0.0
  0
VERTEX
  5
707
330
706
100
AcDbEntity
  8
BEMA_UNG
 62
     7
100
AcDbVertex
100
AcDb2dVertex
 10
-8.573642535351356
 20
130.3102198027932
 30
0.0
  0
VERTEX
  5
708
330
706
100
AcDbEntity
  8
BEMA_UNG
 62
     7
100
AcDbVertex
100
AcDb2dVertex
 10
-6.617343773492811
 20
130.3102198027932
 30
0.0
  0
SEQEND
  5
709
330
706
100
AcDbEntity
  8
BEMA_UNG
  0
POLYLINE
  5
70A
330
1F
100
AcDbEntity
  8
BEMA_UNG
 62
     7
100
AcDb2dPolyline
 66
     1
 10
0.0
 20
0.0
 30
0.0
  0
VERTEX
  5
70B
330
70A
100
AcDbEntity
  8
BEMA_UNG
 62
     7
100
AcDbVertex
100
AcDb2dVertex
 10
-8.573642535351356
 20
130.3609488672792
 30
0.0
  0
VERTEX
  5
70C
330
70A
100
AcDbEntity
  8
BEMA_UNG
 62
     7
100
AcDbVertex
100
AcDb2dVertex
 10
-6.231492824601102
 20
130.3609488672792
 30
0.0
  0
SEQEND
  5
70D
330
70A
100
AcDbEntity
  8
BEMA_UNG
  0
POLYLINE
  5
70E
330
1F
100
AcDbEntity
  8
BEMA_UNG
 62
     7
100
AcDb2dPolyline
 66
     1
 10
0.0
 20
0.0
 30
0.0
  0
VERTEX
  5
70F
330
70E
100
AcDbEntity
  8
BEMA_UNG
 62
     7
100
AcDbVertex
100
AcDb2dVertex
 10
-8.573642535351356
 20
130.4117640592091
 30
0.0
  0
VERTEX
  5
710
330
70E
100
AcDbEntity
  8
BEMA_UNG
 62
     7
100
AcDbVertex
100
AcDb2dVertex
 10
-5.845125111045698
 20
130.4117640592091
 30
0.0
  0
SEQEND
  5
711
330
70E
100
AcDbEntity
  8
BEMA_UNG
  0
POLYLINE
  5
712
330
1F
100
AcDbEntity
  8
BEMA_UNG
 62
     7
100
AcDb2dPolyline
 66
     1
 10
0.0
 20
0.0
 30
0.0
  0
VERTEX
  5
713
330
712
100
AcDbEntity
  8
BEMA_UNG
 62
     7
100
AcDbVertex
100
AcDb2dVertex
 10
-8.573642535351356
 20
130.4625792511391
 30
0.0
  0
VERTEX
  5
714
330
712
100
AcDbEntity
  8
BEMA_UNG
 62
     7
100
AcDbVertex
100
AcDb2dVertex
 10
-5.459618671929785
 20
130.4625792511391
 30
0.0
  0
SEQEND
  5
715
330
712
100
AcDbEntity
  8
BEMA_UNG
  0
POLYLINE
  5
716
330
1F
100
AcDbEntity
  8
BEMA_UNG
 62
     7
100
AcDb2dPolyline
 66
     1
 10
0.0
 20
0.0
 30
0.0
  0
VERTEX
  5
717
330
716
100
AcDbEntity
  8
BEMA_UNG
 62
     7
100
AcDbVertex
100
AcDb2dVertex
 10
-8.573642535351356
 20
130.513394443069
 30
0.0
  0
VERTEX
  5
718
330
716
100
AcDbEntity
  8
BEMA_UNG
 62
     7
100
AcDbVertex
100
AcDb2dVertex
 10
-5.073939977925975
 20
130.513394443069
 30
0.0
  0
SEQEND
  5
719
330
716
100
AcDbEntity
  8
BEMA_UNG
  0
POLYLINE
  5
71A
330
1F
100
AcDbEntity
  8
BEMA_UNG
 62
     7
100
AcDb2dPolyline
 66
     1
 10
0.0
 20
0.0
 30
0.0
  0
VERTEX
  5
71B
330
71A
100
AcDbEntity
  8
BEMA_UNG
 62
     7
100
AcDbVertex
100
AcDb2dVertex
 10
-16.07362035443395
 20
120.0944714211094
 30
0.0
  0
VERTEX
  5
71C
330
71A
100
AcDbEntity
  8
BEMA_UNG
 62
     7
100
AcDbVertex
100
AcDb2dVertex
 10
-31.84527789038256
 20
120.0944714211094
 30
0.0
  0
SEQEND
  5
71D
330
71A
100
AcDbEntity
  8
BEMA_UNG
  0
POLYLINE
  5
71E
330
1F
100
AcDbEntity
  8
BEMA_UNG
 62
     7
100
AcDb2dPolyline
 66
     1
 10
0.0
 20
0.0
 30
0.0
  0
VERTEX
  5
71F
330
71E
100
AcDbEntity
  8
BEMA_UNG
 62
     7
100
AcDbVertex
100
AcDb2dVertex
 10
-19.57383967652303
 20
0.0942234236802522
 30
0.0
  0
VERTEX
  5
720
330
71E
100
AcDbEntity
  8
BEMA_UNG
 62
     7
100
AcDbVertex
100
AcDb2dVertex
 10
-31.84527789038256
 20
0.0942234236802522
 30
0.0
  0
SEQEND
  5
721
330
71E
100
AcDbEntity
  8
BEMA_UNG
  0
POLYLINE
  5
722
330
1F
100
AcDbEntity
  8
BEMA_UNG
 62
     7
100
AcDb2dPolyline
 66
     1
 10
0.0
 20
0.0
 30
0.0
  0
VERTEX
  5
723
330
722
100
AcDbEntity
  8
BEMA_UNG
 62
     7
100
AcDbVertex
100
AcDb2dVertex
 10
-29.8453986418858
 20
120.0944714211094
 30
0.0
  0
VERTEX
  5
724
330
722
100
AcDbEntity
  8
BEMA_UNG
 62
     7
100
AcDbVertex
100
AcDb2dVertex
 10
-29.8453986418858
 20
0.0942234236802522
 30
0.0
  0
SEQEND
  5
725
330
722
100
AcDbEntity
  8
BEMA_UNG
  0
POLYLINE
  5
726
330
1F
100
AcDbEntity
  8
BEMA_UNG
 62
     7
100
AcDb2dPolyline
 66
     1
 10
0.0
 20
0.0
 30
0.0
  0
VERTEX
  5
727
330
726
100
AcDbEntity
  8
BEMA_UNG
 62
     7
100
AcDbVertex
100
AcDb2dVertex
 10
-29.8453986418858
 20
120.0944714211094
 30
0.0
  0
VERTEX
  5
728
330
726
100
AcDbEntity
  8
BEMA_UNG
 62
     7
100
AcDbVertex
100
AcDb2dVertex
 10
-30.30618046701318
 20
116.5941659715764
 30
0.0
  0
VERTEX
  5
729
330
726
100
AcDbEntity
  8
BEMA_UNG
 62
     7
100
AcDbVertex
100
AcDb2dVertex
 10
-29.38496132653422
 20
116.5941659715764
 30
0.0
  0
VERTEX
  5
72A
330
726
100
AcDbEntity
  8
BEMA_UNG
 62
     7
100
AcDbVertex
100
AcDb2dVertex
 10
-29.8453986418858
 20
120.0944714211094
 30
0.0
  0
SEQEND
  5
72B
330
726
100
AcDbEntity
  8
BEMA_UNG
  0
POLYLINE
  5
72C
330
1F
100
AcDbEntity
  8
BEMA_UNG
 62
     7
100
AcDb2dPolyline
 66
     1
 10
0.0
 20
0.0
 30
0.0
  0
VERTEX
  5
72D
330
72C
100
AcDbEntity
  8
BEMA_UNG
 62
     7
100
AcDbVertex
100
AcDb2dVertex
 10
-30.30290762414311
 20
116.5941659715764
 30
0.0
  0
VERTEX
  5
72E
330
72C
100
AcDbEntity
  8
BEMA_UNG
 62
     7
100
AcDbVertex
100
AcDb2dVertex
 10
-30.30290762414311
 20
116.6213822438643
 30
0.0
  0
SEQEND
  5
72F
330
72C
100
AcDbEntity
  8
BEMA_UNG
  0
POLYLINE
  5
730
330
1F
100
AcDbEntity
  8
BEMA_UNG
 62
     7
100
AcDb2dPolyline
 66
     1
 10
0.0
 20
0.0
 30
0.0
  0
VERTEX
  5
731
330
730
100
AcDbEntity
  8
BEMA_UNG
 62
     7
100
AcDbVertex
100
AcDb2dVertex
 10
-30.30290762414311
 20
116.5941659715764
 30
0.0
  0
VERTEX
  5
732
330
730
100
AcDbEntity
  8
BEMA_UNG
 62
     7
100
AcDbVertex
100
AcDb2dVertex
 10
-30.30290762414311
 20
116.6213822438643
 30
0.0
  0
SEQEND
  5
733
330
730
100
AcDbEntity
  8
BEMA_UNG
  0
POLYLINE
  5
734
330
1F
100
AcDbEntity
  8
BEMA_UNG
 62
     7
100
AcDb2dPolyline
 66
     1
 10
0.0
 20
0.0
 30
0.0
  0
VERTEX
  5
735
330
734
100
AcDbEntity
  8
BEMA_UNG
 62
     7
100
AcDbVertex
100
AcDb2dVertex
 10
-30.25209243221318
 20
116.5941659715764
 30
0.0
  0
VERTEX
  5
736
330
734
100
AcDbEntity
  8
BEMA_UNG
 62
     7
100
AcDbVertex
100
AcDb2dVertex
 10
-30.25209243221318
 20
117.0076638299758
 30
0.0
  0
SEQEND
  5
737
330
734
100
AcDbEntity
  8
BEMA_UNG
  0
POLYLINE
  5
738
330
1F
100
AcDbEntity
  8
BEMA_UNG
 62
     7
100
AcDb2dPolyline
 66
     1
 10
0.0
 20
0.0
 30
0.0
  0
VERTEX
  5
739
330
738
100
AcDbEntity
  8
BEMA_UNG
 62
     7
100
AcDbVertex
100
AcDb2dVertex
 10
-30.20093273050745
 20
116.5941659715764
 30
0.0
  0
VERTEX
  5
73A
330
738
100
AcDbEntity
  8
BEMA_UNG
 62
     7
100
AcDbVertex
100
AcDb2dVertex
 10
-30.20093273050745
 20
117.3932563965356
 30
0.0
  0
SEQEND
  5
73B
330
738
100
AcDbEntity
  8
BEMA_UNG
  0
POLYLINE
  5
73C
330
1F
100
AcDbEntity
  8
BEMA_UNG
 62
     7
100
AcDb2dPolyline
 66
     1
 10
0.0
 20
0.0
 30
0.0
  0
VERTEX
  5
73D
330
73C
100
AcDbEntity
  8
BEMA_UNG
 62
     7
100
AcDbVertex
100
AcDb2dVertex
 10
-30.15046204835331
 20
116.5941659715764
 30
0.0
  0
VERTEX
  5
73E
330
73C
100
AcDbEntity
  8
BEMA_UNG
 62
     7
100
AcDbVertex
100
AcDb2dVertex
 10
-30.15046204835331
 20
117.7791934728713
 30
0.0
  0
SEQEND
  5
73F
330
73C
100
AcDbEntity
  8
BEMA_UNG
  0
POLYLINE
  5
740
330
1F
100
AcDbEntity
  8
BEMA_UNG
 62
     7
100
AcDb2dPolyline
 66
     1
 10
0.0
 20
0.0
 30
0.0
  0
VERTEX
  5
741
330
740
100
AcDbEntity
  8
BEMA_UNG
 62
     7
100
AcDbVertex
100
AcDb2dVertex
 10
-30.09930234664758
 20
116.5941659715764
 30
0.0
  0
VERTEX
  5
742
330
740
100
AcDbEntity
  8
BEMA_UNG
 62
     7
100
AcDbVertex
100
AcDb2dVertex
 10
-30.09930234664758
 20
118.1647860394311
 30
0.0
  0
SEQEND
  5
743
330
740
100
AcDbEntity
  8
BEMA_UNG
  0
POLYLINE
  5
744
330
1F
100
AcDbEntity
  8
BEMA_UNG
 62
     7
100
AcDb2dPolyline
 66
     1
 10
0.0
 20
0.0
 30
0.0
  0
VERTEX
  5
745
330
744
100
AcDbEntity
  8
BEMA_UNG
 62
     7
100
AcDbVertex
100
AcDb2dVertex
 10
-30.04900391938134
 20
116.5941659715764
 30
0.0
  0
VERTEX
  5
746
330
744
100
AcDbEntity
  8
BEMA_UNG
 62
     7
100
AcDbVertex
100
AcDb2dVertex
 10
-30.04900391938134
 20
118.5510676255426
 30
0.0
  0
SEQEND
  5
747
330
744
100
AcDbEntity
  8
BEMA_UNG
  0
POLYLINE
  5
748
330
1F
100
AcDbEntity
  8
BEMA_UNG
 62
     7
100
AcDb2dPolyline
 66
     1
 10
0.0
 20
0.0
 30
0.0
  0
VERTEX
  5
749
330
748
100
AcDbEntity
  8
BEMA_UNG
 62
     7
100
AcDbVertex
100
AcDb2dVertex
 10
-29.9981887274514
 20
116.5941659715764
 30
0.0
  0
VERTEX
  5
74A
330
748
100
AcDbEntity
  8
BEMA_UNG
 62
     7
100
AcDbVertex
100
AcDb2dVertex
 10
-29.9981887274514
 20
118.9366601921025
 30
0.0
  0
SEQEND
  5
74B
330
748
100
AcDbEntity
  8
BEMA_UNG
  0
POLYLINE
  5
74C
330
1F
100
AcDbEntity
  8
BEMA_UNG
 62
     7
100
AcDb2dPolyline
 66
     1
 10
0.0
 20
0.0
 30
0.0
  0
VERTEX
  5
74D
330
74C
100
AcDbEntity
  8
BEMA_UNG
 62
     7
100
AcDbVertex
100
AcDb2dVertex
 10
-29.94702902574567
 20
116.5941659715764
 30
0.0
  0
VERTEX
  5
74E
330
74C
100
AcDbEntity
  8
BEMA_UNG
 62
     7
100
AcDbVertex
100
AcDb2dVertex
 10
-29.94702902574567
 20
119.3225972684381
 30
0.0
  0
SEQEND
  5
74F
330
74C
100
AcDbEntity
  8
BEMA_UNG
  0
POLYLINE
  5
750
330
1F
100
AcDbEntity
  8
BEMA_UNG
 62
     7
100
AcDb2dPolyline
 66
     1
 10
0.0
 20
0.0
 30
0.0
  0
VERTEX
  5
751
330
750
100
AcDbEntity
  8
BEMA_UNG
 62
     7
100
AcDbVertex
100
AcDb2dVertex
 10
-29.89655834359153
 20
116.5941659715764
 30
0.0
  0
VERTEX
  5
752
330
750
100
AcDbEntity
  8
BEMA_UNG
 62
     7
100
AcDbVertex
100
AcDb2dVertex
 10
-29.89655834359153
 20
119.708189834998
 30
0.0
  0
SEQEND
  5
753
330
750
100
AcDbEntity
  8
BEMA_UNG
  0
POLYLINE
  5
754
330
1F
100
AcDbEntity
  8
BEMA_UNG
 62
     7
100
AcDb2dPolyline
 66
     1
 10
0.0
 20
0.0
 30
0.0
  0
VERTEX
  5
755
330
754
100
AcDbEntity
  8
BEMA_UNG
 62
     7
100
AcDbVertex
100
AcDb2dVertex
 10
-29.8453986418858
 20
116.5941659715764
 30
0.0
  0
VERTEX
  5
756
330
754
100
AcDbEntity
  8
BEMA_UNG
 62
     7
100
AcDbVertex
100
AcDb2dVertex
 10
-29.8453986418858
 20
120.0944714211094
 30
0.0
  0
SEQEND
  5
757
330
754
100
AcDbEntity
  8
BEMA_UNG
  0
POLYLINE
  5
758
330
1F
100
AcDbEntity
  8
BEMA_UNG
 62
     7
100
AcDb2dPolyline
 66
     1
 10
0.0
 20
0.0
 30
0.0
  0
VERTEX
  5
759
330
758
100
AcDbEntity
  8
BEMA_UNG
 62
     7
100
AcDbVertex
100
AcDb2dVertex
 10
-29.38857867918008
 20
116.5941659715764
 30
0.0
  0
VERTEX
  5
75A
330
758
100
AcDbEntity
  8
BEMA_UNG
 62
     7
100
AcDbVertex
100
AcDb2dVertex
 10
-29.38857867918008
 20
116.6213822438643
 30
0.0
  0
SEQEND
  5
75B
330
758
100
AcDbEntity
  8
BEMA_UNG
  0
POLYLINE
  5
75C
330
1F
100
AcDbEntity
  8
BEMA_UNG
 62
     7
100
AcDb2dPolyline
 66
     1
 10
0.0
 20
0.0
 30
0.0
  0
VERTEX
  5
75D
330
75C
100
AcDbEntity
  8
BEMA_UNG
 62
     7
100
AcDbVertex
100
AcDb2dVertex
 10
-29.38857867918008
 20
116.5941659715764
 30
0.0
  0
VERTEX
  5
75E
330
75C
100
AcDbEntity
  8
BEMA_UNG
 62
     7
100
AcDbVertex
100
AcDb2dVertex
 10
-29.38857867918008
 20
116.6213822438643
 30
0.0
  0
SEQEND
  5
75F
330
75C
100
AcDbEntity
  8
BEMA_UNG
  0
POLYLINE
  5
760
330
1F
100
AcDbEntity
  8
BEMA_UNG
 62
     7
100
AcDb2dPolyline
 66
     1
 10
0.0
 20
0.0
 30
0.0
  0
VERTEX
  5
761
330
760
100
AcDbEntity
  8
BEMA_UNG
 62
     7
100
AcDbVertex
100
AcDb2dVertex
 10
-29.43904936133422
 20
116.5941659715764
 30
0.0
  0
VERTEX
  5
762
330
760
100
AcDbEntity
  8
BEMA_UNG
 62
     7
100
AcDbVertex
100
AcDb2dVertex
 10
-29.43904936133422
 20
117.0076638299758
 30
0.0
  0
SEQEND
  5
763
330
760
100
AcDbEntity
  8
BEMA_UNG
  0
POLYLINE
  5
764
330
1F
100
AcDbEntity
  8
BEMA_UNG
 62
     7
100
AcDb2dPolyline
 66
     1
 10
0.0
 20
0.0
 30
0.0
  0
VERTEX
  5
765
330
764
100
AcDbEntity
  8
BEMA_UNG
 62
     7
100
AcDbVertex
100
AcDb2dVertex
 10
-29.49003680815205
 20
116.5941659715764
 30
0.0
  0
VERTEX
  5
766
330
764
100
AcDbEntity
  8
BEMA_UNG
 62
     7
100
AcDbVertex
100
AcDb2dVertex
 10
-29.49003680815205
 20
117.3932563965356
 30
0.0
  0
SEQEND
  5
767
330
764
100
AcDbEntity
  8
BEMA_UNG
  0
POLYLINE
  5
768
330
1F
100
AcDbEntity
  8
BEMA_UNG
 62
     7
100
AcDb2dPolyline
 66
     1
 10
0.0
 20
0.0
 30
0.0
  0
VERTEX
  5
769
330
768
100
AcDbEntity
  8
BEMA_UNG
 62
     7
100
AcDbVertex
100
AcDb2dVertex
 10
-29.54050749030619
 20
116.5941659715764
 30
0.0
  0
VERTEX
  5
76A
330
768
100
AcDbEntity
  8
BEMA_UNG
 62
     7
100
AcDbVertex
100
AcDb2dVertex
 10
-29.54050749030619
 20
117.7791934728713
 30
0.0
  0
SEQEND
  5
76B
330
768
100
AcDbEntity
  8
BEMA_UNG
  0
POLYLINE
  5
76C
330
1F
100
AcDbEntity
  8
BEMA_UNG
 62
     7
100
AcDb2dPolyline
 66
     1
 10
0.0
 20
0.0
 30
0.0
  0
VERTEX
  5
76D
330
76C
100
AcDbEntity
  8
BEMA_UNG
 62
     7
100
AcDbVertex
100
AcDb2dVertex
 10
-29.59166719201192
 20
116.5941659715764
 30
0.0
  0
VERTEX
  5
76E
330
76C
100
AcDbEntity
  8
BEMA_UNG
 62
     7
100
AcDbVertex
100
AcDb2dVertex
 10
-29.59166719201192
 20
118.1647860394311
 30
0.0
  0
SEQEND
  5
76F
330
76C
100
AcDbEntity
  8
BEMA_UNG
  0
POLYLINE
  5
770
330
1F
100
AcDbEntity
  8
BEMA_UNG
 62
     7
100
AcDb2dPolyline
 66
     1
 10
0.0
 20
0.0
 30
0.0
  0
VERTEX
  5
771
330
770
100
AcDbEntity
  8
BEMA_UNG
 62
     7
100
AcDbVertex
100
AcDb2dVertex
 10
-29.64248238394186
 20
116.5941659715764
 30
0.0
  0
VERTEX
  5
772
330
770
100
AcDbEntity
  8
BEMA_UNG
 62
     7
100
AcDbVertex
100
AcDb2dVertex
 10
-29.64248238394186
 20
118.5510676255426
 30
0.0
  0
SEQEND
  5
773
330
770
100
AcDbEntity
  8
BEMA_UNG
  0
POLYLINE
  5
774
330
1F
100
AcDbEntity
  8
BEMA_UNG
 62
     7
100
AcDb2dPolyline
 66
     1
 10
0.0
 20
0.0
 30
0.0
  0
VERTEX
  5
775
330
774
100
AcDbEntity
  8
BEMA_UNG
 62
     7
100
AcDbVertex
100
AcDb2dVertex
 10
-29.692953066096
 20
116.5941659715764
 30
0.0
  0
VERTEX
  5
776
330
774
100
AcDbEntity
  8
BEMA_UNG
 62
     7
100
AcDbVertex
100
AcDb2dVertex
 10
-29.692953066096
 20
118.9366601921025
 30
0.0
  0
SEQEND
  5
777
330
774
100
AcDbEntity
  8
BEMA_UNG
  0
POLYLINE
  5
778
330
1F
100
AcDbEntity
  8
BEMA_UNG
 62
     7
100
AcDb2dPolyline
 66
     1
 10
0.0
 20
0.0
 30
0.0
  0
VERTEX
  5
779
330
778
100
AcDbEntity
  8
BEMA_UNG
 62
     7
100
AcDbVertex
100
AcDb2dVertex
 10
-29.74411276780173
 20
116.5941659715764
 30
0.0
  0
VERTEX
  5
77A
330
778
100
AcDbEntity
  8
BEMA_UNG
 62
     7
100
AcDbVertex
100
AcDb2dVertex
 10
-29.74411276780173
 20
119.3225972684381
 30
0.0
  0
SEQEND
  5
77B
330
778
100
AcDbEntity
  8
BEMA_UNG
  0
POLYLINE
  5
77C
330
1F
100
AcDbEntity
  8
BEMA_UNG
 62
     7
100
AcDb2dPolyline
 66
     1
 10
0.0
 20
0.0
 30
0.0
  0
VERTEX
  5
77D
330
77C
100
AcDbEntity
  8
BEMA_UNG
 62
     7
100
AcDbVertex
100
AcDb2dVertex
 10
-29.79458344995587
 20
116.5941659715764
 30
0.0
  0
VERTEX
  5
77E
330
77C
100
AcDbEntity
  8
BEMA_UNG
 62
     7
100
AcDbVertex
100
AcDb2dVertex
 10
-29.79458344995587
 20
119.708189834998
 30
0.0
  0
SEQEND
  5
77F
330
77C
100
AcDbEntity
  8
BEMA_UNG
  0
POLYLINE
  5
780
330
1F
100
AcDbEntity
  8
BEMA_UNG
 62
     7
100
AcDb2dPolyline
 66
     1
 10
0.0
 20
0.0
 30
0.0
  0
VERTEX
  5
781
330
780
100
AcDbEntity
  8
BEMA_UNG
 62
     7
100
AcDbVertex
100
AcDb2dVertex
 10
-29.8453986418858
 20
116.5941659715764
 30
0.0
  0
VERTEX
  5
782
330
780
100
AcDbEntity
  8
BEMA_UNG
 62
     7
100
AcDbVertex
100
AcDb2dVertex
 10
-29.8453986418858
 20
120.0944714211094
 30
0.0
  0
SEQEND
  5
783
330
780
100
AcDbEntity
  8
BEMA_UNG
  0
POLYLINE
  5
784
330
1F
100
AcDbEntity
  8
BEMA_UNG
 62
     7
100
AcDb2dPolyline
 66
     1
 10
0.0
 20
0.0
 30
0.0
  0
VERTEX
  5
785
330
784
100
AcDbEntity
  8
BEMA_UNG
 62
     7
100
AcDbVertex
100
AcDb2dVertex
 10
-29.8453986418858
 20
0.0942234236802522
 30
0.0
  0
VERTEX
  5
786
330
784
100
AcDbEntity
  8
BEMA_UNG
 62
     7
100
AcDbVertex
100
AcDb2dVertex
 10
-29.38496132653422
 20
3.594098235993532
 30
0.0
  0
VERTEX
  5
787
330
784
100
AcDbEntity
  8
BEMA_UNG
 62
     7
100
AcDbVertex
100
AcDb2dVertex
 10
-30.30618046701318
 20
3.594098235993532
 30
0.0
  0
VERTEX
  5
788
330
784
100
AcDbEntity
  8
BEMA_UNG
 62
     7
100
AcDbVertex
100
AcDb2dVertex
 10
-29.8453986418858
 20
0.0942234236802522
 30
0.0
  0
SEQEND
  5
789
330
784
100
AcDbEntity
  8
BEMA_UNG
  0
POLYLINE
  5
78A
330
1F
100
AcDbEntity
  8
BEMA_UNG
 62
     7
100
AcDb2dPolyline
 66
     1
 10
0.0
 20
0.0
 30
0.0
  0
VERTEX
  5
78B
330
78A
100
AcDbEntity
  8
BEMA_UNG
 62
     7
100
AcDbVertex
100
AcDb2dVertex
 10
-29.38857867918008
 20
3.594098235993532
 30
0.0
  0
VERTEX
  5
78C
330
78A
100
AcDbEntity
  8
BEMA_UNG
 62
     7
100
AcDbVertex
100
AcDb2dVertex
 10
-29.38857867918008
 20
3.566881963705634
 30
0.0
  0
SEQEND
  5
78D
330
78A
100
AcDbEntity
  8
BEMA_UNG
  0
POLYLINE
  5
78E
330
1F
100
AcDbEntity
  8
BEMA_UNG
 62
     7
100
AcDb2dPolyline
 66
     1
 10
0.0
 20
0.0
 30
0.0
  0
VERTEX
  5
78F
330
78E
100
AcDbEntity
  8
BEMA_UNG
 62
     7
100
AcDbVertex
100
AcDb2dVertex
 10
-29.38857867918008
 20
3.594098235993532
 30
0.0
  0
VERTEX
  5
790
330
78E
100
AcDbEntity
  8
BEMA_UNG
 62
     7
100
AcDbVertex
100
AcDb2dVertex
 10
-29.38857867918008
 20
3.566881963705634
 30
0.0
  0
SEQEND
  5
791
330
78E
100
AcDbEntity
  8
BEMA_UNG
  0
POLYLINE
  5
792
330
1F
100
AcDbEntity
  8
BEMA_UNG
 62
     7
100
AcDb2dPolyline
 66
     1
 10
0.0
 20
0.0
 30
0.0
  0
VERTEX
  5
793
330
792
100
AcDbEntity
  8
BEMA_UNG
 62
     7
100
AcDbVertex
100
AcDb2dVertex
 10
-29.43904936133422
 20
3.594098235993532
 30
0.0
  0
VERTEX
  5
794
330
792
100
AcDbEntity
  8
BEMA_UNG
 62
     7
100
AcDbVertex
100
AcDb2dVertex
 10
-29.43904936133422
 20
3.181031014813925
 30
0.0
  0
SEQEND
  5
795
330
792
100
AcDbEntity
  8
BEMA_UNG
  0
POLYLINE
  5
796
330
1F
100
AcDbEntity
  8
BEMA_UNG
 62
     7
100
AcDb2dPolyline
 66
     1
 10
0.0
 20
0.0
 30
0.0
  0
VERTEX
  5
797
330
796
100
AcDbEntity
  8
BEMA_UNG
 62
     7
100
AcDbVertex
100
AcDb2dVertex
 10
-29.49003680815205
 20
3.594098235993532
 30
0.0
  0
VERTEX
  5
798
330
796
100
AcDbEntity
  8
BEMA_UNG
 62
     7
100
AcDbVertex
100
AcDb2dVertex
 10
-29.49003680815205
 20
2.795352320810114
 30
0.0
  0
SEQEND
  5
799
330
796
100
AcDbEntity
  8
BEMA_UNG
  0
POLYLINE
  5
79A
330
1F
100
AcDbEntity
  8
BEMA_UNG
 62
     7
100
AcDb2dPolyline
 66
     1
 10
0.0
 20
0.0
 30
0.0
  0
VERTEX
  5
79B
330
79A
100
AcDbEntity
  8
BEMA_UNG
 62
     7
100
AcDbVertex
100
AcDb2dVertex
 10
-29.54050749030619
 20
3.594098235993532
 30
0.0
  0
VERTEX
  5
79C
330
79A
100
AcDbEntity
  8
BEMA_UNG
 62
     7
100
AcDbVertex
100
AcDb2dVertex
 10
-29.54050749030619
 20
2.409501371918405
 30
0.0
  0
SEQEND
  5
79D
330
79A
100
AcDbEntity
  8
BEMA_UNG
  0
POLYLINE
  5
79E
330
1F
100
AcDbEntity
  8
BEMA_UNG
 62
     7
100
AcDb2dPolyline
 66
     1
 10
0.0
 20
0.0
 30
0.0
  0
VERTEX
  5
79F
330
79E
100
AcDbEntity
  8
BEMA_UNG
 62
     7
100
AcDbVertex
100
AcDb2dVertex
 10
-29.59166719201192
 20
3.594098235993532
 30
0.0
  0
VERTEX
  5
7A0
330
79E
100
AcDbEntity
  8
BEMA_UNG
 62
     7
100
AcDbVertex
100
AcDb2dVertex
 10
-29.59166719201192
 20
2.023478168138798
 30
0.0
  0
SEQEND
  5
7A1
330
79E
100
AcDbEntity
  8
BEMA_UNG
  0
POLYLINE
  5
7A2
330
1F
100
AcDbEntity
  8
BEMA_UNG
 62
     7
100
AcDb2dPolyline
 66
     1
 10
0.0
 20
0.0
 30
0.0
  0
VERTEX
  5
7A3
330
7A2
100
AcDbEntity
  8
BEMA_UNG
 62
     7
100
AcDbVertex
100
AcDb2dVertex
 10
-29.64248238394186
 20
3.594098235993532
 30
0.0
  0
VERTEX
  5
7A4
330
7A2
100
AcDbEntity
  8
BEMA_UNG
 62
     7
100
AcDbVertex
100
AcDb2dVertex
 10
-29.64248238394186
 20
1.637627219247089
 30
0.0
  0
SEQEND
  5
7A5
330
7A2
100
AcDbEntity
  8
BEMA_UNG
  0
POLYLINE
  5
7A6
330
1F
100
AcDbEntity
  8
BEMA_UNG
 62
     7
100
AcDb2dPolyline
 66
     1
 10
0.0
 20
0.0
 30
0.0
  0
VERTEX
  5
7A7
330
7A6
100
AcDbEntity
  8
BEMA_UNG
 62
     7
100
AcDbVertex
100
AcDb2dVertex
 10
-29.692953066096
 20
3.594098235993532
 30
0.0
  0
VERTEX
  5
7A8
330
7A6
100
AcDbEntity
  8
BEMA_UNG
 62
     7
100
AcDbVertex
100
AcDb2dVertex
 10
-29.692953066096
 20
1.251948525243278
 30
0.0
  0
SEQEND
  5
7A9
330
7A6
100
AcDbEntity
  8
BEMA_UNG
  0
POLYLINE
  5
7AA
330
1F
100
AcDbEntity
  8
BEMA_UNG
 62
     7
100
AcDb2dPolyline
 66
     1
 10
0.0
 20
0.0
 30
0.0
  0
VERTEX
  5
7AB
330
7AA
100
AcDbEntity
  8
BEMA_UNG
 62
     7
100
AcDbVertex
100
AcDb2dVertex
 10
-29.74411276780173
 20
3.594098235993532
 30
0.0
  0
VERTEX
  5
7AC
330
7AA
100
AcDbEntity
  8
BEMA_UNG
 62
     7
100
AcDbVertex
100
AcDb2dVertex
 10
-29.74411276780173
 20
0.8660975763515685
 30
0.0
  0
SEQEND
  5
7AD
330
7AA
100
AcDbEntity
  8
BEMA_UNG
  0
POLYLINE
  5
7AE
330
1F
100
AcDbEntity
  8
BEMA_UNG
 62
     7
100
AcDb2dPolyline
 66
     1
 10
0.0
 20
0.0
 30
0.0
  0
VERTEX
  5
7AF
330
7AE
100
AcDbEntity
  8
BEMA_UNG
 62
     7
100
AcDbVertex
100
AcDb2dVertex
 10
-29.79458344995587
 20
3.594098235993532
 30
0.0
  0
VERTEX
  5
7B0
330
7AE
100
AcDbEntity
  8
BEMA_UNG
 62
     7
100
AcDbVertex
100
AcDb2dVertex
 10
-29.79458344995587
 20
0.4800743725719613
 30
0.0
  0
SEQEND
  5
7B1
330
7AE
100
AcDbEntity
  8
BEMA_UNG
  0
POLYLINE
  5
7B2
330
1F
100
AcDbEntity
  8
BEMA_UNG
 62
     7
100
AcDb2dPolyline
 66
     1
 10
0.0
 20
0.0
 30
0.0
  0
VERTEX
  5
7B3
330
7B2
100
AcDbEntity
  8
BEMA_UNG
 62
     7
100
AcDbVertex
100
AcDb2dVertex
 10
-29.8453986418858
 20
3.594098235993532
 30
0.0
  0
VERTEX
  5
7B4
330
7B2
100
AcDbEntity
  8
BEMA_UNG
 62
     7
100
AcDbVertex
100
AcDb2dVertex
 10
-29.8453986418858
 20
0.0942234236802522
 30
0.0
  0
SEQEND
  5
7B5
330
7B2
100
AcDbEntity
  8
BEMA_UNG
  0
POLYLINE
  5
7B6
330
1F
100
AcDbEntity
  8
BEMA_UNG
 62
     7
100
AcDb2dPolyline
 66
     1
 10
0.0
 20
0.0
 30
0.0
  0
VERTEX
  5
7B7
330
7B6
100
AcDbEntity
  8
BEMA_UNG
 62
     7
100
AcDbVertex
100
AcDb2dVertex
 10
-30.30290762414311
 20
3.594098235993532
 30
0.0
  0
VERTEX
  5
7B8
330
7B6
100
AcDbEntity
  8
BEMA_UNG
 62
     7
100
AcDbVertex
100
AcDb2dVertex
 10
-30.30290762414311
 20
3.566881963705634
 30
0.0
  0
SEQEND
  5
7B9
330
7B6
100
AcDbEntity
  8
BEMA_UNG
  0
POLYLINE
  5
7BA
330
1F
100
AcDbEntity
  8
BEMA_UNG
 62
     7
100
AcDb2dPolyline
 66
     1
 10
0.0
 20
0.0
 30
0.0
  0
VERTEX
  5
7BB
330
7BA
100
AcDbEntity
  8
BEMA_UNG
 62
     7
100
AcDbVertex
100
AcDb2dVertex
 10
-30.30290762414311
 20
3.594098235993532
 30
0.0
  0
VERTEX
  5
7BC
330
7BA
100
AcDbEntity
  8
BEMA_UNG
 62
     7
100
AcDbVertex
100
AcDb2dVertex
 10
-30.30290762414311
 20
3.566881963705634
 30
0.0
  0
SEQEND
  5
7BD
330
7BA
100
AcDbEntity
  8
BEMA_UNG
  0
POLYLINE
  5
7BE
330
1F
100
AcDbEntity
  8
BEMA_UNG
 62
     7
100
AcDb2dPolyline
 66
     1
 10
0.0
 20
0.0
 30
0.0
  0
VERTEX
  5
7BF
330
7BE
100
AcDbEntity
  8
BEMA_UNG
 62
     7
100
AcDbVertex
100
AcDb2dVertex
 10
-30.25209243221318
 20
3.594098235993532
 30
0.0
  0
VERTEX
  5
7C0
330
7BE
100
AcDbEntity
  8
BEMA_UNG
 62
     7
100
AcDbVertex
100
AcDb2dVertex
 10
-30.25209243221318
 20
3.181031014813925
 30
0.0
  0
SEQEND
  5
7C1
330
7BE
100
AcDbEntity
  8
BEMA_UNG
  0
POLYLINE
  5
7C2
330
1F
100
AcDbEntity
  8
BEMA_UNG
 62
     7
100
AcDb2dPolyline
 66
     1
 10
0.0
 20
0.0
 30
0.0
  0
VERTEX
  5
7C3
330
7C2
100
AcDbEntity
  8
BEMA_UNG
 62
     7
100
AcDbVertex
100
AcDb2dVertex
 10
-30.20093273050745
 20
3.594098235993532
 30
0.0
  0
VERTEX
  5
7C4
330
7C2
100
AcDbEntity
  8
BEMA_UNG
 62
     7
100
AcDbVertex
100
AcDb2dVertex
 10
-30.20093273050745
 20
2.795352320810114
 30
0.0
  0
SEQEND
  5
7C5
330
7C2
100
AcDbEntity
  8
BEMA_UNG
  0
POLYLINE
  5
7C6
330
1F
100
AcDbEntity
  8
BEMA_UNG
 62
     7
100
AcDb2dPolyline
 66
     1
 10
0.0
 20
0.0
 30
0.0
  0
VERTEX
  5
7C7
330
7C6
100
AcDbEntity
  8
BEMA_UNG
 62
     7
100
AcDbVertex
100
AcDb2dVertex
 10
-30.15046204835331
 20
3.594098235993532
 30
0.0
  0
VERTEX
  5
7C8
330
7C6
100
AcDbEntity
  8
BEMA_UNG
 62
     7
100
AcDbVertex
100
AcDb2dVertex
 10
-30.15046204835331
 20
2.409501371918405
 30
0.0
  0
SEQEND
  5
7C9
330
7C6
100
AcDbEntity
  8
BEMA_UNG
  0
POLYLINE
  5
7CA
330
1F
100
AcDbEntity
  8
BEMA_UNG
 62
     7
100
AcDb2dPolyline
 66
     1
 10
0.0
 20
0.0
 30
0.0
  0
VERTEX
  5
7CB
330
7CA
100
AcDbEntity
  8
BEMA_UNG
 62
     7
100
AcDbVertex
100
AcDb2dVertex
 10
-30.09930234664758
 20
3.594098235993532
 30
0.0
  0
VERTEX
  5
7CC
330
7CA
100
AcDbEntity
  8
BEMA_UNG
 62
     7
100
AcDbVertex
100
AcDb2dVertex
 10
-30.09930234664758
 20
2.023478168138798
 30
0.0
  0
SEQEND
  5
7CD
330
7CA
100
AcDbEntity
  8
BEMA_UNG
  0
POLYLINE
  5
7CE
330
1F
100
AcDbEntity
  8
BEMA_UNG
 62
     7
100
AcDb2dPolyline
 66
     1
 10
0.0
 20
0.0
 30
0.0
  0
VERTEX
  5
7CF
330
7CE
100
AcDbEntity
  8
BEMA_UNG
 62
     7
100
AcDbVertex
100
AcDb2dVertex
 10
-30.04900391938134
 20
3.594098235993532
 30
0.0
  0
VERTEX
  5
7D0
330
7CE
100
AcDbEntity
  8
BEMA_UNG
 62
     7
100
AcDbVertex
100
AcDb2dVertex
 10
-30.04900391938134
 20
1.637627219247089
 30
0.0
  0
SEQEND
  5
7D1
330
7CE
100
AcDbEntity
  8
BEMA_UNG
  0
POLYLINE
  5
7D2
330
1F
100
AcDbEntity
  8
BEMA_UNG
 62
     7
100
AcDb2dPolyline
 66
     1
 10
0.0
 20
0.0
 30
0.0
  0
VERTEX
  5
7D3
330
7D2
100
AcDbEntity
  8
BEMA_UNG
 62
     7
100
AcDbVertex
100
AcDb2dVertex
 10
-29.9981887274514
 20
3.594098235993532
 30
0.0
  0
VERTEX
  5
7D4
330
7D2
100
AcDbEntity
  8
BEMA_UNG
 62
     7
100
AcDbVertex
100
AcDb2dVertex
 10
-29.9981887274514
 20
1.251948525243278
 30
0.0
  0
SEQEND
  5
7D5
330
7D2
100
AcDbEntity
  8
BEMA_UNG
  0
POLYLINE
  5
7D6
330
1F
100
AcDbEntity
  8
BEMA_UNG
 62
     7
100
AcDb2dPolyline
 66
     1
 10
0.0
 20
0.0
 30
0.0
  0
VERTEX
  5
7D7
330
7D6
100
AcDbEntity
  8
BEMA_UNG
 62
     7
100
AcDbVertex
100
AcDb2dVertex
 10
-29.94702902574567
 20
3.594098235993532
 30
0.0
  0
VERTEX
  5
7D8
330
7D6
100
AcDbEntity
  8
BEMA_UNG
 62
     7
100
AcDbVertex
100
AcDb2dVertex
 10
-29.94702902574567
 20
0.8660975763515685
 30
0.0
  0
SEQEND
  5
7D9
330
7D6
100
AcDbEntity
  8
BEMA_UNG
  0
POLYLINE
  5
7DA
330
1F
100
AcDbEntity
  8
BEMA_UNG
 62
     7
100
AcDb2dPolyline
 66
     1
 10
0.0
 20
0.0
 30
0.0
  0
VERTEX
  5
7DB
330
7DA
100
AcDbEntity
  8
BEMA_UNG
 62
     7
100
AcDbVertex
100
AcDb2dVertex
 10
-29.89655834359153
 20
3.594098235993532
 30
0.0
  0
VERTEX
  5
7DC
330
7DA
100
AcDbEntity
  8
BEMA_UNG
 62
     7
100
AcDbVertex
100
AcDb2dVertex
 10
-29.89655834359153
 20
0.4800743725719613
 30
0.0
  0
SEQEND
  5
7DD
330
7DA
100
AcDbEntity
  8
BEMA_UNG
  0
POLYLINE
  5
7DE
330
1F
100
AcDbEntity
  8
BEMA_UNG
 62
     7
100
AcDb2dPolyline
 66
     1
 10
0.0
 20
0.0
 30
0.0
  0
VERTEX
  5
7DF
330
7DE
100
AcDbEntity
  8
BEMA_UNG
 62
     7
100
AcDbVertex
100
AcDb2dVertex
 10
-29.8453986418858
 20
3.594098235993532
 30
0.0
  0
VERTEX
  5
7E0
330
7DE
100
AcDbEntity
  8
BEMA_UNG
 62
     7
100
AcDbVertex
100
AcDb2dVertex
 10
-29.8453986418858
 20
0.0942234236802522
 30
0.0
  0
SEQEND
  5
7E1
330
7DE
100
AcDbEntity
  8
BEMA_UNG
  0
POLYLINE
  5
7E2
330
1F
100
AcDbEntity
  8
BEMA_UNG
 62
     7
100
AcDb2dPolyline
 66
     1
 10
0.0
 20
0.0
 30
0.0
  0
VERTEX
  5
7E3
330
7E2
100
AcDbEntity
  8
BEMA_UNG
 62
     7
100
AcDbVertex
100
AcDb2dVertex
 10
-16.07362035443395
 20
120.0944714211094
 30
0.0
  0
VERTEX
  5
7E4
330
7E2
100
AcDbEntity
  8
BEMA_UNG
 62
     7
100
AcDbVertex
100
AcDb2dVertex
 10
-20.88728319674592
 20
120.0944714211094
 30
0.0
  0
SEQEND
  5
7E5
330
7E2
100
AcDbEntity
  8
BEMA_UNG
  0
MTEXT
  5
7E7
330
1F
100
AcDbEntity
  8
TEXT
 62
     7
100
AcDbMText
 10
50.54819685369287
 20
-8.52196606898193
 30
0.0
 40
3.311188396084465
 41
0.0
 71
     7
 72
     1
  1
\fINDEX Univers 45 Light|b0|i0|c0|p34;\W1;\U+00F820g6
  0
MTEXT
  5
7E8
330
1F
100
AcDbEntity
  8
TEXT
 62
     7
100
AcDbMText
 10
-3.354663941815194
 20
131.6941155721664
 30
0.0
 40
3.311188396084465
 41
0.0
 71
     7
 72
     1
  1
\fINDEX Univers 45 Light|b0|i0|c0|p34;\W1;\U+00F810
  0
MTEXT
  5
7E9
330
1F
100
AcDbEntity
  8
TEXT
 62
     7
100
AcDbMText
 10
-31.43668929628831
 20
57.65698382235892
 30
0.0
 40
3.311188396084465
 41
0.0
 71
     7
 72
     1
  1
\fINDEX Univers 45 Light|b0|i0|c0|p34;\W0.8;120
 11
-4.371139000186241E-8
 21
0.999999999999999
 31
0.0
  0
ENDSEC
  0
SECTION
  2
OBJECTS
  0
DICTIONARY
  5
C
330
0
100
AcDbDictionary
  3
ACAD_GROUP
350
D
  3
ACAD_LAYOUT
350
1A
  3
ACAD_MLINESTYLE
350
17
  3
ACAD_PLOTSETTINGS
350
19
  3
ACAD_TABLESTYLE
350
80A
  3
ACAD_VISUALSTYLE
350
2A
  3
ACDBHEADERROUNDTRIPXREC
350
7EA
  0
DICTIONARY
  5
D
102
{ACAD_REACTORS
330
C
102
}
330
C
100
AcDbDictionary
  0
DICTIONARY
  5
1A
102
{ACAD_REACTORS
330
C
102
}
330
C
100
AcDbDictionary
  0
DICTIONARY
  5
17
102
{ACAD_REACTORS
330
C
102
}
330
C
100
AcDbDictionary
  3
STANDARD
350
18
  0
DICTIONARY
  5
19
102
{ACAD_REACTORS
330
C
102
}
330
C
100
AcDbDictionary
  0
DICTIONARY
  5
80A
102
{ACAD_REACTORS
330
C
102
}
330
C
100
AcDbDictionary
  0
DICTIONARY
  5
2A
102
{ACAD_REACTORS
330
C
102
}
330
C
100
AcDbDictionary
  3
2DWIREFRAME
350
2F
  3
3D_HIDDEN
350
31
  3
3DWIREFRAME
350
30
  3
BASIC
350
32
  3
BRIGHTEN
350
36
  3
COLORCHANGE
350
3A
  3
CONCEPTUAL
350
34
  3
DIM
350
35
  3
FACEPATTERN
350
39
  3
FLAT
350
2B
  3
FLATWITHEDGES
350
2C
  3
GOURAUD
350
2D
  3
GOURAUDWITHEDGES
350
2E
  3
LINEPATTERN
350
38
  3
REALISTIC
350
33
  3
THICKEN
350
37
  0
DICTIONARY
  5
7EA
102
{ACAD_REACTORS
330
C
102
}
330
C
100
AcDbDictionary
  3
CEPSNTYPE
350
7F3
  3
DIMSTYLEDATA
350
809
  3
FINGERPRINTGUID
350
7F4
  3
HYPERLINKBASE
350
7ED
  3
INSUNITS
350
7F2
  3
LAYOUTDICT
350
7EF
  3
LWETCUNION
350
7F1
  3
PLOTSETDICT
350
7F0
  3
PSVPSCALE
350
7F6
  3
PUCSBASE
350
7F9
  3
PUCSORGBACK
350
7FF
  3
PUCSORGBOTTOM
350
7FB
  3
PUCSORGFRONT
350
7FE
  3
PUCSORGLEFT
350
7FC
  3
PUCSORGRIGHT
350
7FD
  3
PUCSORGTOP
350
7FA
  3
PUCSORTHOREF
350
7F7
  3
PUCSORTHOVIEW
350
7F8
  3
STYLESHEET
350
7EE
  3
TSTACKALIGN
350
7EB
  3
TSTACKSIZE
350
7EC
  3
UCSBASE
350
802
  3
UCSORGBACK
350
808
  3
UCSORGBOTTOM
350
804
  3
UCSORGFRONT
350
807
  3
UCSORGLEFT
350
805
  3
UCSORGRIGHT
350
806
  3
UCSORGTOP
350
803
  3
UCSORTHOREF
350
800
  3
UCSORTHOVIEW
350
801
  3
VERSIONGUID
350
7F5
  0
MLINESTYLE
  5
18
102
{ACAD_REACTORS
330
17
102
}
330
17
100
AcDbMlineStyle
  2
Standard
 70
     0
  3

 62
   256
 51
90.0
 52
90.0
 71
     2
 49
0.5
 62
   256
  6
BYLAYER
 49
-0.5
 62
   256
  6
BYLAYER
  0
VISUALSTYLE
  5
2F
102
{ACAD_REACTORS
330
2A
102
}
330
2A
100
AcDbVisualStyle
  2
2dWireframe
 70
     4
 71
     0
 72
     2
 73
     0
 90
        0
 40
-0.6
 41
-30.0
 62
     5
 63
     7
 74
     1
 91
        4
 64
     7
 65
   257
 75
     1
175
     1
 42
1.0
 92
        0
 66
   257
 43
1.0
 76
     1
 77
     6
 78
     2
 67
     7
 79
     5
170
     0
171
     0
290
     0
174
     0
 93
        1
 44
0.0
173
     0
291
     0
 45
0.0
1001
ACAD
1000
AcDbSavedByObjectVersion
1070
     0
  0
VISUALSTYLE
  5
31
102
{ACAD_REACTORS
330
2A
102
}
330
2A
100
AcDbVisualStyle
  2
3D Hidden
 70
     6
 71
     1
 72
     2
 73
     2
 90
        0
 40
-0.6
 41
-30.0
 62
     5
 63
     7
 74
     2
 91
        2
 64
     7
 65
   257
 75
     2
175
     1
 42
40.0
 92
        0
 66
   257
 43
1.0
 76
     1
 77
     6
 78
     2
 67
     7
 79
     3
170
     0
171
     0
290
     0
174
     0
 93
        1
 44
0.0
173
     0
291
     0
 45
0.0
1001
ACAD
1000
AcDbSavedByObjectVersion
1070
     0
  0
VISUALSTYLE
  5
30
102
{ACAD_REACTORS
330
2A
102
}
330
2A
100
AcDbVisualStyle
  2
3dWireframe
 70
     5
 71
     0
 72
     2
 73
     0
 90
        0
 40
-0.6
 41
-30.0
 62
     5
 63
     7
 74
     1
 91
        4
 64
     7
 65
   257
 75
     1
175
     1
 42
1.0
 92
        0
 66
   257
 43
1.0
 76
     1
 77
     6
 78
     2
 67
     7
 79
     5
170
     0
171
     0
290
     0
174
     0
 93
        1
 44
0.0
173
     0
291
     0
 45
0.0
1001
ACAD
1000
AcDbSavedByObjectVersion
1070
     0
  0
VISUALSTYLE
  5
32
102
{ACAD_REACTORS
330
2A
102
}
330
2A
100
AcDbVisualStyle
  2
Basic
 70
     7
 71
     1
 72
     0
 73
     1
 90
        0
 40
-0.6
 41
-30.0
 62
     5
 63
     7
 74
     0
 91
        4
 64
     7
 65
   257
 75
     1
175
     1
 42
1.0
 92
        8
 66
     7
 43
1.0
 76
     1
 77
     6
 78
     2
 67
     7
 79
     5
170
     0
171
     0
290
     0
174
     0
 93
        1
 44
0.0
173
     0
291
     1
 45
0.0
1001
ACAD
1000
AcDbSavedByObjectVersion
1070
     0
  0
VISUALSTYLE
  5
36
102
{ACAD_REACTORS
330
2A
102
}
330
2A
100
AcDbVisualStyle
  2
Brighten
 70
    12
 71
     2
 72
     2
 73
     0
 90
        0
 40
-0.6
 41
-30.0
 62
     5
 63
     7
 74
     1
 91
        4
 64
     7
 65
   257
 75
     1
175
     1
 42
1.0
 92
        8
 66
     7
 43
1.0
 76
     1
 77
     6
 78
     2
 67
     7
 79
     5
170
     0
171
     0
290
     0
174
     0
 93
        1
 44
50.0
173
     0
291
     1
 45
0.0
1001
ACAD
1000
AcDbSavedByObjectVersion
1070
     0
  0
VISUALSTYLE
  5
3A
102
{ACAD_REACTORS
330
2A
102
}
330
2A
100
AcDbVisualStyle
  2
ColorChange
 70
    16
 71
     2
 72
     2
 73
     3
 90
        0
 40
-0.6
 41
-30.0
 62
     5
 63
     8
 74
     1
 91
        4
 64
     7
 65
   257
 75
     1
175
     1
 42
1.0
 92
        8
 66
     8
 43
1.0
 76
     1
 77
     6
 78
     2
 67
     7
 79
     5
170
     0
171
     0
290
     0
174
     0
 93
        1
 44
0.0
173
     0
291
     1
 45
0.0
1001
ACAD
1000
AcDbSavedByObjectVersion
1070
     0
  0
VISUALSTYLE
  5
34
102
{ACAD_REACTORS
330
2A
102
}
330
2A
100
AcDbVisualStyle
  2
Conceptual
 70
     9
 71
     3
 72
     2
 73
     0
 90
        0
 40
-0.6
 41
-30.0
 62
     5
 63
     7
 74
     2
 91
        2
 64
     7
 65
   257
 75
     1
175
     1
 42
40.0
 92
        8
 66
     7
 43
1.0
 76
     1
 77
     6
 78
     2
 67
     7
 79
     3
170
     0
171
     0
290
     0
174
     0
 93
        1
 44
0.0
173
     0
291
     0
 45
0.0
1001
ACAD
1000
AcDbSavedByObjectVersion
1070
     0
  0
VISUALSTYLE
  5
35
102
{ACAD_REACTORS
330
2A
102
}
330
2A
100
AcDbVisualStyle
  2
Dim
 70
    11
 71
     2
 72
     2
 73
     0
 90
        0
 40
-0.6
 41
-30.0
 62
     5
 63
     7
 74
     1
 91
        4
 64
     7
 65
   257
 75
     1
175
     1
 42
1.0
 92
        8
 66
     7
 43
1.0
 76
     1
 77
     6
 78
     2
 67
     7
 79
     5
170
     0
171
     0
290
     0
174
     0
 93
        1
 44
-50.0
173
     0
291
     1
 45
0.0
1001
ACAD
1000
AcDbSavedByObjectVersion
1070
     0
  0
VISUALSTYLE
  5
39
102
{ACAD_REACTORS
330
2A
102
}
330
2A
100
AcDbVisualStyle
  2
Facepattern
 70
    15
 71
     2
 72
     2
 73
     0
 90
        0
 40
-0.6
 41
-30.0
 62
     5
 63
     7
 74
     1
 91
        4
 64
     7
 65
   257
 75
     1
175
     1
 42
1.0
 92
        8
 66
     7
 43
1.0
 76
     1
 77
     6
 78
     2
 67
     7
 79
     5
170
     0
171
     0
290
     0
174
     0
 93
        1
 44
0.0
173
     0
291
     1
 45
0.0
1001
ACAD
1000
AcDbSavedByObjectVersion
1070
     0
  0
VISUALSTYLE
  5
2B
102
{ACAD_REACTORS
330
2A
102
}
330
2A
100
AcDbVisualStyle
  2
Flat
 70
     0
 71
     2
 72
     1
 73
     1
 90
        2
 40
-0.6
 41
30.0
 62
     5
 63
     7
 74
     0
 91
        4
 64
     7
 65
   257
 75
     1
175
     1
 42
1.0
 92
        8
 66
     7
 43
1.0
 76
     1
 77
     6
 78
     2
 67
     7
 79
     5
170
     0
171
     0
290
     0
174
     0
 93
       13
 44
0.0
173
     0
291
     1
 45
0.0
1001
ACAD
1000
AcDbSavedByObjectVersion
1070
     0
  0
VISUALSTYLE
  5
2C
102
{ACAD_REACTORS
330
2A
102
}
330
2A
100
AcDbVisualStyle
  2
FlatWithEdges
 70
     1
 71
     2
 72
     1
 73
     1
 90
        2
 40
-0.6
 41
30.0
 62
     5
 63
     7
 74
     1
 91
        4
 64
     7
 65
   257
 75
     1
175
     1
 42
1.0
 92
        0
 66
   257
 43
1.0
 76
     1
 77
     6
 78
     2
 67
     7
 79
     5
170
     0
171
     0
290
     0
174
     0
 93
       13
 44
0.0
173
     0
291
     1
 45
0.0
1001
ACAD
1000
AcDbSavedByObjectVersion
1070
     0
  0
VISUALSTYLE
  5
2D
102
{ACAD_REACTORS
330
2A
102
}
330
2A
100
AcDbVisualStyle
  2
Gouraud
 70
     2
 71
     2
 72
     2
 73
     1
 90
        2
 40
-0.6
 41
30.0
 62
     5
 63
     7
 74
     0
 91
        4
 64
     7
 65
   257
 75
     1
175
     1
 42
1.0
 92
        0
 66
     7
 43
1.0
 76
     1
 77
     6
 78
     2
 67
     7
 79
     5
170
     0
171
     0
290
     0
174
     0
 93
       13
 44
0.0
173
     0
291
     1
 45
0.0
1001
ACAD
1000
AcDbSavedByObjectVersion
1070
     0
  0
VISUALSTYLE
  5
2E
102
{ACAD_REACTORS
330
2A
102
}
330
2A
100
AcDbVisualStyle
  2
GouraudWithEdges
 70
     3
 71
     2
 72
     2
 73
     1
 90
        2
 40
-0.6
 41
30.0
 62
     5
 63
     7
 74
     1
 91
        4
 64
     7
 65
   257
 75
     1
175
     1
 42
1.0
 92
        0
 66
   257
 43
1.0
 76
     1
 77
     6
 78
     2
 67
     7
 79
     5
170
     0
171
     0
290
     0
174
     0
 93
       13
 44
0.0
173
     0
291
     1
 45
0.0
1001
ACAD
1000
AcDbSavedByObjectVersion
1070
     0
  0
VISUALSTYLE
  5
38
102
{ACAD_REACTORS
330
2A
102
}
330
2A
100
AcDbVisualStyle
  2
Linepattern
 70
    14
 71
     2
 72
     2
 73
     0
 90
        0
 40
-0.6
 41
-30.0
 62
     5
 63
     7
 74
     1
 91
        4
 64
     7
 65
   257
 75
     7
175
     7
 42
1.0
 92
        8
 66
     7
 43
1.0
 76
     1
 77
     6
 78
     2
 67
     7
 79
     5
170
     0
171
     0
290
     0
174
     0
 93
        1
 44
0.0
173
     0
291
     1
 45
0.0
1001
ACAD
1000
AcDbSavedByObjectVersion
1070
     0
  0
VISUALSTYLE
  5
33
102
{ACAD_REACTORS
330
2A
102
}
330
2A
100
AcDbVisualStyle
  2
Realistic
 70
     8
 71
     2
 72
     2
 73
     0
 90
        0
 40
-0.6
 41
-30.0
 62
     5
 63
     7
 74
     1
 91
        0
 64
     7
 65
   257
 75
     1
175
     1
 42
1.0
 92
        8
 66
     8
 43
1.0
 76
     1
 77
     6
 78
     2
 67
     7
 79
     5
170
     0
171
     0
290
     0
174
     0
 93
       13
 44
0.0
173
     0
291
     0
 45
0.0
1001
ACAD
1000
AcDbSavedByObjectVersion
1070
     0
  0
VISUALSTYLE
  5
37
102
{ACAD_REACTORS
330
2A
102
}
330
2A
100
AcDbVisualStyle
  2
Thicken
 70
    13
 71
     2
 72
     2
 73
     0
 90
        0
 40
-0.6
 41
-30.0
 62
     5
 63
     7
 74
     1
 91
        4
 64
     7
 65
   257
 75
     1
175
     1
 42
1.0
 92
       12
 66
     7
 43
1.0
 76
     1
 77
     6
 78
     2
 67
     7
 79
     5
170
     0
171
     0
290
     0
174
     0
 93
        1
 44
0.0
173
     0
291
     1
 45
0.0
1001
ACAD
1000
AcDbSavedByObjectVersion
1070
     0
  0
XRECORD
  5
7F3
102
{ACAD_REACTORS
330
7EA
102
}
330
7EA
100
AcDbXrecord
 90
        0
  0
XRECORD
  5
809
102
{ACAD_REACTORS
330
7EA
102
}
330
7EA
100
AcDbXrecord
1000
DSTYLE
1002
{
1070
   340
340
11
1002
}
  0
XRECORD
  5
7F4
102
{ACAD_REACTORS
330
7EA
102
}
330
7EA
100
AcDbXrecord
  1
{DCF0E329-C41B-40C7-A9C7-EE09D0684AE6}
  0
XRECORD
  5
7ED
102
{ACAD_REACTORS
330
7EA
102
}
330
7EA
100
AcDbXrecord
  1

  0
XRECORD
  5
7F2
102
{ACAD_REACTORS
330
7EA
102
}
330
7EA
100
AcDbXrecord
 90
        1
  0
XRECORD
  5
7EF
102
{ACAD_REACTORS
330
7EA
102
}
330
7EA
100
AcDbXrecord
340
1A
  0
XRECORD
  5
7F1
102
{ACAD_REACTORS
330
7EA
102
}
330
7EA
100
AcDbXrecord
 90
    10269
  0
XRECORD
  5
7F0
102
{ACAD_REACTORS
330
7EA
102
}
330
7EA
100
AcDbXrecord
340
19
  0
XRECORD
  5
7F6
102
{ACAD_REACTORS
330
7EA
102
}
330
7EA
100
AcDbXrecord
 40
0.0
  0
XRECORD
  5
7F9
102
{ACAD_REACTORS
330
7EA
102
}
330
7EA
100
AcDbXrecord
340
0
  0
XRECORD
  5
7FF
102
{ACAD_REACTORS
330
7EA
102
}
330
7EA
100
AcDbXrecord
 10
0.0
 20
0.0
 30
0.0
  0
XRECORD
  5
7FB
102
{ACAD_REACTORS
330
7EA
102
}
330
7EA
100
AcDbXrecord
 10
0.0
 20
0.0
 30
0.0
  0
XRECORD
  5
7FE
102
{ACAD_REACTORS
330
7EA
102
}
330
7EA
100
AcDbXrecord
 10
0.0
 20
0.0
 30
0.0
  0
XRECORD
  5
7FC
102
{ACAD_REACTORS
330
7EA
102
}
330
7EA
100
AcDbXrecord
 10
0.0
 20
0.0
 30
0.0
  0
XRECORD
  5
7FD
102
{ACAD_REACTORS
330
7EA
102
}
330
7EA
100
AcDbXrecord
 10
0.0
 20
0.0
 30
0.0
  0
XRECORD
  5
7FA
102
{ACAD_REACTORS
330
7EA
102
}
330
7EA
100
AcDbXrecord
 10
0.0
 20
0.0
 30
0.0
  0
XRECORD
  5
7F7
102
{ACAD_REACTORS
330
7EA
102
}
330
7EA
100
AcDbXrecord
340
0
  0
XRECORD
  5
7F8
102
{ACAD_REACTORS
330
7EA
102
}
330
7EA
100
AcDbXrecord
 70
     0
  0
XRECORD
  5
7EE
102
{ACAD_REACTORS
330
7EA
102
}
330
7EA
100
AcDbXrecord
  1

  0
XRECORD
  5
7EB
102
{ACAD_REACTORS
330
7EA
102
}
330
7EA
100
AcDbXrecord
 90
        1
  0
XRECORD
  5
7EC
102
{ACAD_REACTORS
330
7EA
102
}
330
7EA
100
AcDbXrecord
 90
       70
  0
XRECORD
  5
802
102
{ACAD_REACTORS
330
7EA
102
}
330
7EA
100
AcDbXrecord
340
0
  0
XRECORD
  5
808
102
{ACAD_REACTORS
330
7EA
102
}
330
7EA
100
AcDbXrecord
 10
0.0
 20
0.0
 30
0.0
  0
XRECORD
  5
804
102
{ACAD_REACTORS
330
7EA
102
}
330
7EA
100
AcDbXrecord
 10
0.0
 20
0.0
 30
0.0
  0
XRECORD
  5
807
102
{ACAD_REACTORS
330
7EA
102
}
330
7EA
100
AcDbXrecord
 10
0.0
 20
0.0
 30
0.0
  0
XRECORD
  5
805
102
{ACAD_REACTORS
330
7EA
102
}
330
7EA
100
AcDbXrecord
 10
0.0
 20
0.0
 30
0.0
  0
XRECORD
  5
806
102
{ACAD_REACTORS
330
7EA
102
}
330
7EA
100
AcDbXrecord
 10
0.0
 20
0.0
 30
0.0
  0
XRECORD
  5
803
102
{ACAD_REACTORS
330
7EA
102
}
330
7EA
100
AcDbXrecord
 10
0.0
 20
0.0
 30
0.0
  0
XRECORD
  5
800
102
{ACAD_REACTORS
330
7EA
102
}
330
7EA
100
AcDbXrecord
340
0
  0
XRECORD
  5
801
102
{ACAD_REACTORS
330
7EA
102
}
330
7EA
100
AcDbXrecord
 70
     0
  0
XRECORD
  5
7F5
102
{ACAD_REACTORS
330
7EA
102
}
330
7EA
100
AcDbXrecord
  1
{FAEB1C32-E019-11D5-929B-00C0DF256EC4}
  0
ENDSEC
  0
EOF
