ISO-10303-21;
HEADER;
/* Generated by software containing ST-Developer
 * from STEP Tools, Inc. (www.steptools.com) 
 */
/* OPTION: using custom schema-name function */

FILE_DESCRIPTION(
/* description */ (''),
/* implementation_level */ '2;1');

FILE_NAME(
/* name */ '989519_stp.stp',
/* time_stamp */ '2013-02-08T07:12:48+01:00',
/* author */ (''),
/* organization */ (''),
/* preprocessor_version */ 'ST-DEVELOPER v11',
/* originating_system */ 'SIEMENS PLM Software NX 7.5',
/* authorisation */ '');

FILE_SCHEMA (('AUTOMOTIVE_DESIGN { 1 0 10303 214 1 1 1 1 }'));
ENDSEC;

DATA;
#10=SHAPE_REPRESENTATION_RELATIONSHIP('None',
'relationship between furtAA39w0cf-None and furtAA39w0cf-None',#22,#11);
#11=ADVANCED_BREP_SHAPE_REPRESENTATION('furtAA39w0cf-None',(#32),#607);
#12=SHAPE_DEFINITION_REPRESENTATION(#13,#22);
#13=PRODUCT_DEFINITION_SHAPE('','',#14);
#14=PRODUCT_DEFINITION(' ','',#16,#15);
#15=PRODUCT_DEFINITION_CONTEXT('part definition',#21,'design');
#16=PRODUCT_DEFINITION_FORMATION_WITH_SPECIFIED_SOURCE(' ',' ',#18,.NOT_KNOWN.);
#17=PRODUCT_RELATED_PRODUCT_CATEGORY('part','',(#18));
#18=PRODUCT('furtAA39w0cf','furtAA39w0cf',' ',(#19));
#19=PRODUCT_CONTEXT(' ',#21,'mechanical');
#20=APPLICATION_PROTOCOL_DEFINITION('international standard',
'automotive_design',2001,#21);
#21=APPLICATION_CONTEXT(
'core data for automotive mechanical design processes');
#22=SHAPE_REPRESENTATION('furtAA39w0cf-None',(#349),#607);
#23=PRESENTATION_LAYER_ASSIGNMENT('210','Layer 210',(#32));
#24=STYLED_ITEM('',(#25),#32);
#25=PRESENTATION_STYLE_ASSIGNMENT((#26));
#26=SURFACE_STYLE_USAGE(.BOTH.,#27);
#27=SURFACE_SIDE_STYLE('',(#28));
#28=SURFACE_STYLE_FILL_AREA(#29);
#29=FILL_AREA_STYLE('',(#30));
#30=FILL_AREA_STYLE_COLOUR('',#31);
#31=COLOUR_RGB('Lime',0.8,1.,0.2);
#32=MANIFOLD_SOLID_BREP('',#33);
#33=CLOSED_SHELL('',(#103,#104,#105,#106,#107,#108,#109,#110,#111,#112,#113,
#114,#115,#116,#117,#118,#119,#120,#121,#122,#123,#124,#125,#126));
#34=TOROIDAL_SURFACE('',#377,7.79999999999999,0.400000000000001);
#35=TOROIDAL_SURFACE('',#381,7.79999999999999,0.4);
#36=PLANE('',#365);
#37=PLANE('',#369);
#38=PLANE('',#389);
#39=PLANE('',#390);
#40=PLANE('',#391);
#41=PLANE('',#392);
#42=PLANE('',#393);
#43=PLANE('',#394);
#44=PLANE('',#395);
#45=PLANE('',#396);
#46=CYLINDRICAL_SURFACE('',#363,10.);
#47=CYLINDRICAL_SURFACE('',#373,7.99999999999999);
#48=CYLINDRICAL_SURFACE('',#379,8.19999999999999);
#49=CYLINDRICAL_SURFACE('',#385,5.5);
#50=CYLINDRICAL_SURFACE('',#388,5.);
#51=ELLIPSE('',#361,29.2380440016309,10.);
#52=ELLIPSE('',#362,29.2380440016309,10.);
#53=FACE_BOUND('',#146,.T.);
#54=FACE_BOUND('',#147,.T.);
#55=FACE_BOUND('',#148,.T.);
#56=FACE_BOUND('',#149,.T.);
#57=FACE_BOUND('',#150,.T.);
#58=FACE_BOUND('',#151,.T.);
#59=FACE_BOUND('',#152,.T.);
#60=FACE_BOUND('',#153,.T.);
#61=FACE_BOUND('',#154,.T.);
#62=FACE_BOUND('',#155,.T.);
#63=FACE_BOUND('',#156,.T.);
#64=FACE_BOUND('',#157,.T.);
#65=FACE_BOUND('',#158,.T.);
#66=FACE_BOUND('',#159,.T.);
#67=FACE_BOUND('',#160,.T.);
#68=FACE_BOUND('',#161,.T.);
#69=FACE_BOUND('',#162,.T.);
#70=FACE_BOUND('',#163,.T.);
#71=FACE_BOUND('',#164,.T.);
#72=FACE_BOUND('',#165,.T.);
#73=FACE_BOUND('',#166,.T.);
#74=FACE_BOUND('',#167,.T.);
#75=FACE_BOUND('',#168,.T.);
#76=FACE_BOUND('',#169,.T.);
#77=FACE_BOUND('',#170,.T.);
#78=FACE_BOUND('',#171,.T.);
#79=FACE_BOUND('',#172,.T.);
#80=FACE_BOUND('',#173,.T.);
#81=FACE_BOUND('',#174,.T.);
#82=FACE_BOUND('',#175,.T.);
#83=LINE('',#534,#93);
#84=LINE('',#539,#94);
#85=LINE('',#542,#95);
#86=LINE('',#547,#96);
#87=LINE('',#557,#97);
#88=LINE('',#558,#98);
#89=LINE('',#596,#99);
#90=LINE('',#598,#100);
#91=LINE('',#601,#101);
#92=LINE('',#603,#102);
#93=VECTOR('',#411,1.);
#94=VECTOR('',#414,1.);
#95=VECTOR('',#417,1.);
#96=VECTOR('',#420,1.);
#97=VECTOR('',#433,1.);
#98=VECTOR('',#434,1.);
#99=VECTOR('',#487,1.);
#100=VECTOR('',#490,1.);
#101=VECTOR('',#495,1.);
#102=VECTOR('',#498,1.);
#103=ADVANCED_FACE('',(#134),#127,.T.);
#104=ADVANCED_FACE('',(#135),#128,.T.);
#105=ADVANCED_FACE('',(#53,#54,#55,#56),#46,.T.);
#106=ADVANCED_FACE('',(#57,#58),#36,.T.);
#107=ADVANCED_FACE('',(#59,#60),#129,.T.);
#108=ADVANCED_FACE('',(#61,#62),#37,.T.);
#109=ADVANCED_FACE('',(#63,#64),#130,.F.);
#110=ADVANCED_FACE('',(#65,#66),#47,.F.);
#111=ADVANCED_FACE('',(#67,#68),#131,.F.);
#112=ADVANCED_FACE('',(#69,#70),#34,.F.);
#113=ADVANCED_FACE('',(#71,#72),#48,.F.);
#114=ADVANCED_FACE('',(#73,#74),#35,.F.);
#115=ADVANCED_FACE('',(#75,#76),#132,.F.);
#116=ADVANCED_FACE('',(#77,#78),#49,.F.);
#117=ADVANCED_FACE('',(#79,#80),#133,.F.);
#118=ADVANCED_FACE('',(#81,#82),#50,.F.);
#119=ADVANCED_FACE('',(#136),#38,.T.);
#120=ADVANCED_FACE('',(#137),#39,.T.);
#121=ADVANCED_FACE('',(#138),#40,.F.);
#122=ADVANCED_FACE('',(#139),#41,.F.);
#123=ADVANCED_FACE('',(#140),#42,.F.);
#124=ADVANCED_FACE('',(#141),#43,.F.);
#125=ADVANCED_FACE('',(#142),#44,.F.);
#126=ADVANCED_FACE('',(#143),#45,.F.);
#127=CONICAL_SURFACE('',#352,8.,45.);
#128=CONICAL_SURFACE('',#355,8.,45.);
#129=CONICAL_SURFACE('',#367,10.,45.0000000000007);
#130=CONICAL_SURFACE('',#371,8.34641016151377,30.0000000000005);
#131=CONICAL_SURFACE('',#375,7.99999999999999,15.0000000000006);
#132=CONICAL_SURFACE('',#383,8.00601522996402,59.0000000000001);
#133=CONICAL_SURFACE('',#387,5.49999999999999,59.0000000000007);
#134=FACE_OUTER_BOUND('',#144,.T.);
#135=FACE_OUTER_BOUND('',#145,.T.);
#136=FACE_OUTER_BOUND('',#176,.T.);
#137=FACE_OUTER_BOUND('',#177,.T.);
#138=FACE_OUTER_BOUND('',#178,.T.);
#139=FACE_OUTER_BOUND('',#179,.T.);
#140=FACE_OUTER_BOUND('',#180,.T.);
#141=FACE_OUTER_BOUND('',#181,.T.);
#142=FACE_OUTER_BOUND('',#182,.T.);
#143=FACE_OUTER_BOUND('',#183,.T.);
#144=EDGE_LOOP('',(#188,#189,#190,#191));
#145=EDGE_LOOP('',(#192,#193,#194,#195));
#146=EDGE_LOOP('',(#196,#197,#198,#199));
#147=EDGE_LOOP('',(#200,#201,#202,#203));
#148=EDGE_LOOP('',(#204));
#149=EDGE_LOOP('',(#205,#206,#207,#208));
#150=EDGE_LOOP('',(#209));
#151=EDGE_LOOP('',(#210,#211,#212,#213));
#152=EDGE_LOOP('',(#214));
#153=EDGE_LOOP('',(#215));
#154=EDGE_LOOP('',(#216));
#155=EDGE_LOOP('',(#217));
#156=EDGE_LOOP('',(#218));
#157=EDGE_LOOP('',(#219));
#158=EDGE_LOOP('',(#220));
#159=EDGE_LOOP('',(#221));
#160=EDGE_LOOP('',(#222));
#161=EDGE_LOOP('',(#223));
#162=EDGE_LOOP('',(#224));
#163=EDGE_LOOP('',(#225));
#164=EDGE_LOOP('',(#226));
#165=EDGE_LOOP('',(#227));
#166=EDGE_LOOP('',(#228));
#167=EDGE_LOOP('',(#229));
#168=EDGE_LOOP('',(#230));
#169=EDGE_LOOP('',(#231));
#170=EDGE_LOOP('',(#232));
#171=EDGE_LOOP('',(#233));
#172=EDGE_LOOP('',(#234));
#173=EDGE_LOOP('',(#235));
#174=EDGE_LOOP('',(#236));
#175=EDGE_LOOP('',(#237));
#176=EDGE_LOOP('',(#238,#239,#240,#241));
#177=EDGE_LOOP('',(#242,#243,#244,#245));
#178=EDGE_LOOP('',(#246,#247));
#179=EDGE_LOOP('',(#248,#249));
#180=EDGE_LOOP('',(#250,#251,#252,#253));
#181=EDGE_LOOP('',(#254,#255));
#182=EDGE_LOOP('',(#256,#257));
#183=EDGE_LOOP('',(#258,#259,#260,#261));
#184=B_SPLINE_CURVE_WITH_KNOTS('',3,(#507,#508,#509,#510),.UNSPECIFIED.,
 .F.,.F.,(4,4),(0.,1.),.UNSPECIFIED.);
#185=B_SPLINE_CURVE_WITH_KNOTS('',3,(#514,#515,#516,#517),.UNSPECIFIED.,
 .F.,.F.,(4,4),(0.,1.),.UNSPECIFIED.);
#186=B_SPLINE_CURVE_WITH_KNOTS('',3,(#522,#523,#524,#525),.UNSPECIFIED.,
 .F.,.F.,(4,4),(0.,1.),.UNSPECIFIED.);
#187=B_SPLINE_CURVE_WITH_KNOTS('',3,(#529,#530,#531,#532),.UNSPECIFIED.,
 .F.,.F.,(4,4),(0.,1.),.UNSPECIFIED.);
#188=ORIENTED_EDGE('',*,*,#291,.T.);
#189=ORIENTED_EDGE('',*,*,#292,.T.);
#190=ORIENTED_EDGE('',*,*,#293,.F.);
#191=ORIENTED_EDGE('',*,*,#294,.T.);
#192=ORIENTED_EDGE('',*,*,#295,.F.);
#193=ORIENTED_EDGE('',*,*,#296,.T.);
#194=ORIENTED_EDGE('',*,*,#297,.T.);
#195=ORIENTED_EDGE('',*,*,#298,.T.);
#196=ORIENTED_EDGE('',*,*,#299,.F.);
#197=ORIENTED_EDGE('',*,*,#300,.F.);
#198=ORIENTED_EDGE('',*,*,#301,.F.);
#199=ORIENTED_EDGE('',*,*,#302,.F.);
#200=ORIENTED_EDGE('',*,*,#303,.F.);
#201=ORIENTED_EDGE('',*,*,#304,.F.);
#202=ORIENTED_EDGE('',*,*,#305,.F.);
#203=ORIENTED_EDGE('',*,*,#306,.F.);
#204=ORIENTED_EDGE('',*,*,#307,.T.);
#205=ORIENTED_EDGE('',*,*,#297,.F.);
#206=ORIENTED_EDGE('',*,*,#308,.T.);
#207=ORIENTED_EDGE('',*,*,#291,.F.);
#208=ORIENTED_EDGE('',*,*,#309,.T.);
#209=ORIENTED_EDGE('',*,*,#310,.F.);
#210=ORIENTED_EDGE('',*,*,#293,.T.);
#211=ORIENTED_EDGE('',*,*,#311,.T.);
#212=ORIENTED_EDGE('',*,*,#295,.T.);
#213=ORIENTED_EDGE('',*,*,#312,.T.);
#214=ORIENTED_EDGE('',*,*,#313,.T.);
#215=ORIENTED_EDGE('',*,*,#307,.F.);
#216=ORIENTED_EDGE('',*,*,#314,.T.);
#217=ORIENTED_EDGE('',*,*,#313,.F.);
#218=ORIENTED_EDGE('',*,*,#315,.T.);
#219=ORIENTED_EDGE('',*,*,#314,.F.);
#220=ORIENTED_EDGE('',*,*,#316,.T.);
#221=ORIENTED_EDGE('',*,*,#315,.F.);
#222=ORIENTED_EDGE('',*,*,#317,.T.);
#223=ORIENTED_EDGE('',*,*,#316,.F.);
#224=ORIENTED_EDGE('',*,*,#318,.T.);
#225=ORIENTED_EDGE('',*,*,#317,.F.);
#226=ORIENTED_EDGE('',*,*,#319,.T.);
#227=ORIENTED_EDGE('',*,*,#318,.F.);
#228=ORIENTED_EDGE('',*,*,#320,.T.);
#229=ORIENTED_EDGE('',*,*,#319,.F.);
#230=ORIENTED_EDGE('',*,*,#321,.T.);
#231=ORIENTED_EDGE('',*,*,#320,.F.);
#232=ORIENTED_EDGE('',*,*,#322,.T.);
#233=ORIENTED_EDGE('',*,*,#321,.F.);
#234=ORIENTED_EDGE('',*,*,#323,.T.);
#235=ORIENTED_EDGE('',*,*,#322,.F.);
#236=ORIENTED_EDGE('',*,*,#310,.T.);
#237=ORIENTED_EDGE('',*,*,#323,.F.);
#238=ORIENTED_EDGE('',*,*,#309,.F.);
#239=ORIENTED_EDGE('',*,*,#294,.F.);
#240=ORIENTED_EDGE('',*,*,#312,.F.);
#241=ORIENTED_EDGE('',*,*,#298,.F.);
#242=ORIENTED_EDGE('',*,*,#308,.F.);
#243=ORIENTED_EDGE('',*,*,#296,.F.);
#244=ORIENTED_EDGE('',*,*,#311,.F.);
#245=ORIENTED_EDGE('',*,*,#292,.F.);
#246=ORIENTED_EDGE('',*,*,#304,.T.);
#247=ORIENTED_EDGE('',*,*,#324,.T.);
#248=ORIENTED_EDGE('',*,*,#306,.T.);
#249=ORIENTED_EDGE('',*,*,#325,.F.);
#250=ORIENTED_EDGE('',*,*,#303,.T.);
#251=ORIENTED_EDGE('',*,*,#325,.T.);
#252=ORIENTED_EDGE('',*,*,#305,.T.);
#253=ORIENTED_EDGE('',*,*,#324,.F.);
#254=ORIENTED_EDGE('',*,*,#300,.T.);
#255=ORIENTED_EDGE('',*,*,#326,.T.);
#256=ORIENTED_EDGE('',*,*,#302,.T.);
#257=ORIENTED_EDGE('',*,*,#327,.F.);
#258=ORIENTED_EDGE('',*,*,#299,.T.);
#259=ORIENTED_EDGE('',*,*,#327,.T.);
#260=ORIENTED_EDGE('',*,*,#301,.T.);
#261=ORIENTED_EDGE('',*,*,#326,.F.);
#262=VERTEX_POINT('',#505);
#263=VERTEX_POINT('',#506);
#264=VERTEX_POINT('',#511);
#265=VERTEX_POINT('',#513);
#266=VERTEX_POINT('',#520);
#267=VERTEX_POINT('',#521);
#268=VERTEX_POINT('',#526);
#269=VERTEX_POINT('',#528);
#270=VERTEX_POINT('',#535);
#271=VERTEX_POINT('',#536);
#272=VERTEX_POINT('',#538);
#273=VERTEX_POINT('',#540);
#274=VERTEX_POINT('',#543);
#275=VERTEX_POINT('',#544);
#276=VERTEX_POINT('',#546);
#277=VERTEX_POINT('',#548);
#278=VERTEX_POINT('',#551);
#279=VERTEX_POINT('',#556);
#280=VERTEX_POINT('',#561);
#281=VERTEX_POINT('',#564);
#282=VERTEX_POINT('',#567);
#283=VERTEX_POINT('',#570);
#284=VERTEX_POINT('',#573);
#285=VERTEX_POINT('',#576);
#286=VERTEX_POINT('',#579);
#287=VERTEX_POINT('',#582);
#288=VERTEX_POINT('',#585);
#289=VERTEX_POINT('',#588);
#290=VERTEX_POINT('',#591);
#291=EDGE_CURVE('',#262,#263,#328,.T.);
#292=EDGE_CURVE('',#263,#264,#184,.T.);
#293=EDGE_CURVE('',#265,#264,#329,.T.);
#294=EDGE_CURVE('',#265,#262,#185,.T.);
#295=EDGE_CURVE('',#266,#267,#330,.T.);
#296=EDGE_CURVE('',#266,#268,#186,.T.);
#297=EDGE_CURVE('',#268,#269,#331,.T.);
#298=EDGE_CURVE('',#269,#267,#187,.T.);
#299=EDGE_CURVE('',#270,#271,#83,.T.);
#300=EDGE_CURVE('',#272,#270,#332,.T.);
#301=EDGE_CURVE('',#273,#272,#84,.T.);
#302=EDGE_CURVE('',#271,#273,#333,.T.);
#303=EDGE_CURVE('',#274,#275,#85,.T.);
#304=EDGE_CURVE('',#276,#274,#334,.T.);
#305=EDGE_CURVE('',#277,#276,#86,.T.);
#306=EDGE_CURVE('',#275,#277,#335,.T.);
#307=EDGE_CURVE('',#278,#278,#336,.T.);
#308=EDGE_CURVE('',#268,#263,#51,.T.);
#309=EDGE_CURVE('',#262,#269,#52,.T.);
#310=EDGE_CURVE('',#279,#279,#337,.T.);
#311=EDGE_CURVE('',#264,#266,#87,.T.);
#312=EDGE_CURVE('',#267,#265,#88,.T.);
#313=EDGE_CURVE('',#280,#280,#338,.T.);
#314=EDGE_CURVE('',#281,#281,#339,.T.);
#315=EDGE_CURVE('',#282,#282,#340,.T.);
#316=EDGE_CURVE('',#283,#283,#341,.T.);
#317=EDGE_CURVE('',#284,#284,#342,.T.);
#318=EDGE_CURVE('',#285,#285,#343,.T.);
#319=EDGE_CURVE('',#286,#286,#344,.T.);
#320=EDGE_CURVE('',#287,#287,#345,.T.);
#321=EDGE_CURVE('',#288,#288,#346,.T.);
#322=EDGE_CURVE('',#289,#289,#347,.T.);
#323=EDGE_CURVE('',#290,#290,#348,.T.);
#324=EDGE_CURVE('',#274,#276,#89,.T.);
#325=EDGE_CURVE('',#275,#277,#90,.T.);
#326=EDGE_CURVE('',#270,#272,#91,.T.);
#327=EDGE_CURVE('',#271,#273,#92,.T.);
#328=CIRCLE('',#350,10.);
#329=CIRCLE('',#351,8.);
#330=CIRCLE('',#353,8.);
#331=CIRCLE('',#354,10.);
#332=CIRCLE('',#356,10.);
#333=CIRCLE('',#357,10.);
#334=CIRCLE('',#358,10.);
#335=CIRCLE('',#359,10.);
#336=CIRCLE('',#360,10.);
#337=CIRCLE('',#364,4.99999999999999);
#338=CIRCLE('',#366,9.5);
#339=CIRCLE('',#368,8.34641016151377);
#340=CIRCLE('',#370,7.99999999999999);
#341=CIRCLE('',#372,7.99999999999999);
#342=CIRCLE('',#374,8.18637033051562);
#343=CIRCLE('',#376,8.19999999999999);
#344=CIRCLE('',#378,8.19999999999999);
#345=CIRCLE('',#380,8.00601522996402);
#346=CIRCLE('',#382,5.5);
#347=CIRCLE('',#384,5.49999999999999);
#348=CIRCLE('',#386,5.);
#349=AXIS2_PLACEMENT_3D('',#503,#397,#398);
#350=AXIS2_PLACEMENT_3D('',#504,#399,#400);
#351=AXIS2_PLACEMENT_3D('',#512,#401,#402);
#352=AXIS2_PLACEMENT_3D('',#518,#403,#404);
#353=AXIS2_PLACEMENT_3D('',#519,#405,#406);
#354=AXIS2_PLACEMENT_3D('',#527,#407,#408);
#355=AXIS2_PLACEMENT_3D('',#533,#409,#410);
#356=AXIS2_PLACEMENT_3D('',#537,#412,#413);
#357=AXIS2_PLACEMENT_3D('',#541,#415,#416);
#358=AXIS2_PLACEMENT_3D('',#545,#418,#419);
#359=AXIS2_PLACEMENT_3D('',#549,#421,#422);
#360=AXIS2_PLACEMENT_3D('',#550,#423,#424);
#361=AXIS2_PLACEMENT_3D('',#552,#425,#426);
#362=AXIS2_PLACEMENT_3D('',#553,#427,#428);
#363=AXIS2_PLACEMENT_3D('',#554,#429,#430);
#364=AXIS2_PLACEMENT_3D('',#555,#431,#432);
#365=AXIS2_PLACEMENT_3D('',#559,#435,#436);
#366=AXIS2_PLACEMENT_3D('',#560,#437,#438);
#367=AXIS2_PLACEMENT_3D('',#562,#439,#440);
#368=AXIS2_PLACEMENT_3D('',#563,#441,#442);
#369=AXIS2_PLACEMENT_3D('',#565,#443,#444);
#370=AXIS2_PLACEMENT_3D('',#566,#445,#446);
#371=AXIS2_PLACEMENT_3D('',#568,#447,#448);
#372=AXIS2_PLACEMENT_3D('',#569,#449,#450);
#373=AXIS2_PLACEMENT_3D('',#571,#451,#452);
#374=AXIS2_PLACEMENT_3D('',#572,#453,#454);
#375=AXIS2_PLACEMENT_3D('',#574,#455,#456);
#376=AXIS2_PLACEMENT_3D('',#575,#457,#458);
#377=AXIS2_PLACEMENT_3D('',#577,#459,#460);
#378=AXIS2_PLACEMENT_3D('',#578,#461,#462);
#379=AXIS2_PLACEMENT_3D('',#580,#463,#464);
#380=AXIS2_PLACEMENT_3D('',#581,#465,#466);
#381=AXIS2_PLACEMENT_3D('',#583,#467,#468);
#382=AXIS2_PLACEMENT_3D('',#584,#469,#470);
#383=AXIS2_PLACEMENT_3D('',#586,#471,#472);
#384=AXIS2_PLACEMENT_3D('',#587,#473,#474);
#385=AXIS2_PLACEMENT_3D('',#589,#475,#476);
#386=AXIS2_PLACEMENT_3D('',#590,#477,#478);
#387=AXIS2_PLACEMENT_3D('',#592,#479,#480);
#388=AXIS2_PLACEMENT_3D('',#593,#481,#482);
#389=AXIS2_PLACEMENT_3D('',#594,#483,#484);
#390=AXIS2_PLACEMENT_3D('',#595,#485,#486);
#391=AXIS2_PLACEMENT_3D('',#597,#488,#489);
#392=AXIS2_PLACEMENT_3D('',#599,#491,#492);
#393=AXIS2_PLACEMENT_3D('',#600,#493,#494);
#394=AXIS2_PLACEMENT_3D('',#602,#496,#497);
#395=AXIS2_PLACEMENT_3D('',#604,#499,#500);
#396=AXIS2_PLACEMENT_3D('',#605,#501,#502);
#397=DIRECTION('',(0.,0.,1.));
#398=DIRECTION('',(1.,0.,0.));
#399=DIRECTION('',(0.,0.,1.));
#400=DIRECTION('',(1.,0.,0.));
#401=DIRECTION('',(0.,0.,1.));
#402=DIRECTION('',(1.,0.,0.));
#403=DIRECTION('',(0.,0.,-1.));
#404=DIRECTION('',(-1.,0.,-1.93590671948733E-019));
#405=DIRECTION('',(0.,0.,1.));
#406=DIRECTION('',(1.,0.,0.));
#407=DIRECTION('',(0.,0.,1.));
#408=DIRECTION('',(1.,0.,0.));
#409=DIRECTION('',(0.,0.,-1.));
#410=DIRECTION('',(-1.,0.,-1.93590671948733E-019));
#411=DIRECTION('',(0.,0.,-1.));
#412=DIRECTION('',(0.,0.,-1.));
#413=DIRECTION('',(1.,0.,0.));
#414=DIRECTION('',(0.,0.,1.));
#415=DIRECTION('',(0.,0.,1.));
#416=DIRECTION('',(-1.,0.,0.));
#417=DIRECTION('',(0.,0.,-1.));
#418=DIRECTION('',(0.,0.,-1.));
#419=DIRECTION('',(1.,0.,0.));
#420=DIRECTION('',(0.,0.,1.));
#421=DIRECTION('',(0.,0.,1.));
#422=DIRECTION('',(-1.,0.,0.));
#423=DIRECTION('',(0.,0.,1.));
#424=DIRECTION('',(1.,0.,0.));
#425=DIRECTION('',(-0.939692620785908,0.,-0.342020143325669));
#426=DIRECTION('',(-0.342020143325669,0.,0.939692620785908));
#427=DIRECTION('',(0.939692620785908,0.,-0.342020143325669));
#428=DIRECTION('',(0.342020143325669,0.,0.939692620785908));
#429=DIRECTION('',(0.,0.,1.));
#430=DIRECTION('',(1.,0.,0.));
#431=DIRECTION('',(0.,0.,1.));
#432=DIRECTION('',(1.,0.,0.));
#433=DIRECTION('',(0.,1.,0.));
#434=DIRECTION('',(0.,-1.,0.));
#435=DIRECTION('',(0.,0.,1.));
#436=DIRECTION('',(1.,0.,0.));
#437=DIRECTION('',(0.,0.,1.));
#438=DIRECTION('',(1.,0.,0.));
#439=DIRECTION('',(0.,0.,1.));
#440=DIRECTION('',(1.,0.,-4.12211519043984E-017));
#441=DIRECTION('',(0.,0.,1.));
#442=DIRECTION('',(1.,0.,0.));
#443=DIRECTION('',(0.,0.,-1.));
#444=DIRECTION('',(-1.,0.,0.));
#445=DIRECTION('',(0.,0.,1.));
#446=DIRECTION('',(1.,0.,0.));
#447=DIRECTION('',(0.,0.,-1.));
#448=DIRECTION('',(-1.,0.,-1.8955597048204E-016));
#449=DIRECTION('',(0.,0.,1.));
#450=DIRECTION('',(1.,0.,0.));
#451=DIRECTION('',(0.,0.,1.));
#452=DIRECTION('',(1.,0.,0.));
#453=DIRECTION('',(0.,0.,1.));
#454=DIRECTION('',(1.,0.,0.));
#455=DIRECTION('',(0.,0.,1.));
#456=DIRECTION('',(1.,0.,5.02910977399503E-017));
#457=DIRECTION('',(0.,0.,1.));
#458=DIRECTION('',(1.,0.,0.));
#459=DIRECTION('',(0.,0.,1.));
#460=DIRECTION('',(1.,0.,0.));
#461=DIRECTION('',(0.,0.,1.));
#462=DIRECTION('',(1.,0.,0.));
#463=DIRECTION('',(0.,0.,1.));
#464=DIRECTION('',(1.,0.,0.));
#465=DIRECTION('',(0.,0.,1.));
#466=DIRECTION('',(1.,0.,0.));
#467=DIRECTION('',(0.,0.,1.));
#468=DIRECTION('',(1.,0.,0.));
#469=DIRECTION('',(0.,0.,1.));
#470=DIRECTION('',(1.,0.,0.));
#471=DIRECTION('',(0.,0.,-1.));
#472=DIRECTION('',(-1.,0.,2.489608591576E-017));
#473=DIRECTION('',(0.,0.,1.));
#474=DIRECTION('',(1.,0.,0.));
#475=DIRECTION('',(0.,0.,1.));
#476=DIRECTION('',(1.,0.,0.));
#477=DIRECTION('',(0.,0.,1.));
#478=DIRECTION('',(1.,0.,0.));
#479=DIRECTION('',(0.,0.,-1.));
#480=DIRECTION('',(-1.,0.,-4.98669002266523E-017));
#481=DIRECTION('',(0.,0.,1.));
#482=DIRECTION('',(1.,0.,0.));
#483=DIRECTION('',(-0.939692620785908,0.,0.342020143325669));
#484=DIRECTION('',(0.342020143325669,0.,0.939692620785908));
#485=DIRECTION('',(0.939692620785908,0.,0.342020143325669));
#486=DIRECTION('',(0.342020143325669,0.,-0.939692620785908));
#487=DIRECTION('',(0.,1.,0.));
#488=DIRECTION('',(0.,0.,1.));
#489=DIRECTION('',(1.,0.,0.));
#490=DIRECTION('',(0.,1.,0.));
#491=DIRECTION('',(0.,0.,-1.));
#492=DIRECTION('',(-1.,0.,0.));
#493=DIRECTION('',(-1.,0.,0.));
#494=DIRECTION('',(0.,0.,1.));
#495=DIRECTION('',(1.22460635382238E-016,-1.,0.));
#496=DIRECTION('',(0.,0.,1.));
#497=DIRECTION('',(-1.,-1.23165366794353E-016,0.));
#498=DIRECTION('',(1.22460635382238E-016,-1.,0.));
#499=DIRECTION('',(0.,0.,-1.));
#500=DIRECTION('',(1.,1.23165366794353E-016,0.));
#501=DIRECTION('',(1.,1.22460635382238E-016,0.));
#502=DIRECTION('',(0.,0.,1.));
#503=CARTESIAN_POINT('',(0.,0.,0.));
#504=CARTESIAN_POINT('',(0.,0.,-2.));
#505=CARTESIAN_POINT('',(-6.7279404685324,-7.39829825377998,-2.));
#506=CARTESIAN_POINT('',(6.7279404685324,-7.39829825377998,-2.));
#507=CARTESIAN_POINT('',(6.7279404685324,-7.39829825377998,-2.));
#508=CARTESIAN_POINT('',(6.48153518384986,-6.70731104359177,-1.32300704430043));
#509=CARTESIAN_POINT('',(6.23748664156339,-6.00868900614215,-0.652489185117541));
#510=CARTESIAN_POINT('',(6.,-5.29150262212918,1.95139397324323E-016));
#511=CARTESIAN_POINT('',(6.,-5.29150262212918,1.95139397324323E-016));
#512=CARTESIAN_POINT('',(0.,0.,1.95139397324323E-016));
#513=CARTESIAN_POINT('',(-6.,-5.29150262212918,1.95139397324323E-016));
#514=CARTESIAN_POINT('',(-6.,-5.29150262212918,1.95139397324323E-016));
#515=CARTESIAN_POINT('',(-6.23748664156339,-6.00868900614215,-0.652489185117542));
#516=CARTESIAN_POINT('',(-6.48153518384986,-6.70731104359177,-1.32300704430043));
#517=CARTESIAN_POINT('',(-6.7279404685324,-7.39829825377998,-2.));
#518=CARTESIAN_POINT('',(0.,0.,1.95139397324323E-016));
#519=CARTESIAN_POINT('',(0.,0.,1.95139397324323E-016));
#520=CARTESIAN_POINT('',(6.,5.29150262212918,1.95139397324323E-016));
#521=CARTESIAN_POINT('',(-6.,5.29150262212918,1.95139397324323E-016));
#522=CARTESIAN_POINT('',(6.,5.29150262212918,1.95139397324323E-016));
#523=CARTESIAN_POINT('',(6.23748664156339,6.00868900614215,-0.652489185117541));
#524=CARTESIAN_POINT('',(6.48153518384986,6.70731104359177,-1.32300704430043));
#525=CARTESIAN_POINT('',(6.7279404685324,7.39829825377998,-2.));
#526=CARTESIAN_POINT('',(6.7279404685324,7.39829825377998,-2.));
#527=CARTESIAN_POINT('',(0.,0.,-2.));
#528=CARTESIAN_POINT('',(-6.7279404685324,7.39829825377998,-2.));
#529=CARTESIAN_POINT('',(-6.7279404685324,7.39829825377998,-2.));
#530=CARTESIAN_POINT('',(-6.48153518384986,6.70731104359177,-1.32300704430043));
#531=CARTESIAN_POINT('',(-6.23748664156339,6.00868900614215,-0.652489185117542));
#532=CARTESIAN_POINT('',(-6.,5.29150262212918,1.95139397324323E-016));
#533=CARTESIAN_POINT('',(0.,0.,1.95139397324323E-016));
#534=CARTESIAN_POINT('',(-9.4,3.4117444218464,0.));
#535=CARTESIAN_POINT('',(-9.4,3.4117444218464,-36.));
#536=CARTESIAN_POINT('',(-9.4,3.4117444218464,-108.));
#537=CARTESIAN_POINT('',(0.,0.,-36.));
#538=CARTESIAN_POINT('',(-9.4,-3.4117444218464,-36.));
#539=CARTESIAN_POINT('',(-9.4,-3.4117444218464,0.));
#540=CARTESIAN_POINT('',(-9.4,-3.4117444218464,-108.));
#541=CARTESIAN_POINT('',(0.,0.,-108.));
#542=CARTESIAN_POINT('',(9.4,-3.4117444218464,0.));
#543=CARTESIAN_POINT('',(9.4,-3.4117444218464,-36.));
#544=CARTESIAN_POINT('',(9.4,-3.4117444218464,-108.));
#545=CARTESIAN_POINT('',(0.,0.,-36.));
#546=CARTESIAN_POINT('',(9.4,3.4117444218464,-36.));
#547=CARTESIAN_POINT('',(9.4,3.4117444218464,0.));
#548=CARTESIAN_POINT('',(9.4,3.4117444218464,-108.));
#549=CARTESIAN_POINT('',(0.,0.,-108.));
#550=CARTESIAN_POINT('',(0.,0.,-119.5));
#551=CARTESIAN_POINT('',(10.,0.,-119.5));
#552=CARTESIAN_POINT('',(0.,0.,16.4848645167277));
#553=CARTESIAN_POINT('',(0.,0.,16.4848645167277));
#554=CARTESIAN_POINT('',(0.,0.,0.));
#555=CARTESIAN_POINT('',(0.,0.,0.));
#556=CARTESIAN_POINT('',(4.99999999999999,0.,0.));
#557=CARTESIAN_POINT('',(6.,4.99999999999999,9.75696986621614E-017));
#558=CARTESIAN_POINT('',(-6.,4.99999999999999,9.75696986621614E-017));
#559=CARTESIAN_POINT('',(0.,4.99999999999999,9.75696986621614E-017));
#560=CARTESIAN_POINT('',(0.,0.,-120.));
#561=CARTESIAN_POINT('',(9.5,0.,-120.));
#562=CARTESIAN_POINT('',(0.,0.,-119.5));
#563=CARTESIAN_POINT('',(0.,0.,-120.));
#564=CARTESIAN_POINT('',(8.34641016151377,0.,-120.));
#565=CARTESIAN_POINT('',(0.,9.5,-120.));
#566=CARTESIAN_POINT('',(0.,0.,-119.4));
#567=CARTESIAN_POINT('',(7.99999999999999,0.,-119.4));
#568=CARTESIAN_POINT('',(0.,0.,-120.));
#569=CARTESIAN_POINT('',(0.,0.,-112.));
#570=CARTESIAN_POINT('',(7.99999999999999,0.,-112.));
#571=CARTESIAN_POINT('',(0.,0.,0.));
#572=CARTESIAN_POINT('',(0.,0.,-111.304456457492));
#573=CARTESIAN_POINT('',(8.18637033051562,0.,-111.304456457492));
#574=CARTESIAN_POINT('',(0.,0.,-112.));
#575=CARTESIAN_POINT('',(0.,0.,-111.200928839451));
#576=CARTESIAN_POINT('',(8.19999999999999,0.,-111.200928839451));
#577=CARTESIAN_POINT('',(0.,0.,-111.200928839451));
#578=CARTESIAN_POINT('',(0.,0.,-110.226309111275));
#579=CARTESIAN_POINT('',(8.19999999999999,0.,-110.226309111275));
#580=CARTESIAN_POINT('',(0.,0.,0.));
#581=CARTESIAN_POINT('',(0.,0.,-109.883442190994));
#582=CARTESIAN_POINT('',(8.00601522996402,0.,-109.883442190994));
#583=CARTESIAN_POINT('',(0.,0.,-110.226309111275));
#584=CARTESIAN_POINT('',(0.,0.,-108.377676328626));
#585=CARTESIAN_POINT('',(5.5,0.,-108.377676328626));
#586=CARTESIAN_POINT('',(0.,0.,-109.883442190994));
#587=CARTESIAN_POINT('',(0.,0.,-90.));
#588=CARTESIAN_POINT('',(5.49999999999999,0.,-90.));
#589=CARTESIAN_POINT('',(0.,0.,0.));
#590=CARTESIAN_POINT('',(0.,0.,-89.6995696904862));
#591=CARTESIAN_POINT('',(5.,0.,-89.6995696904862));
#592=CARTESIAN_POINT('',(0.,0.,-90.));
#593=CARTESIAN_POINT('',(0.,0.,0.));
#594=CARTESIAN_POINT('',(-6.,14.901925,0.));
#595=CARTESIAN_POINT('',(6.,-14.901925,0.));
#596=CARTESIAN_POINT('',(9.4,-10.,-36.));
#597=CARTESIAN_POINT('',(9.4,-10.,-36.));
#598=CARTESIAN_POINT('',(9.4,-10.,-108.));
#599=CARTESIAN_POINT('',(9.4,10.,-108.));
#600=CARTESIAN_POINT('',(9.4,-10.,-108.));
#601=CARTESIAN_POINT('',(-9.4,10.,-36.));
#602=CARTESIAN_POINT('',(-9.4,10.,-36.));
#603=CARTESIAN_POINT('',(-9.4,10.,-108.));
#604=CARTESIAN_POINT('',(-9.4,-10.,-108.));
#605=CARTESIAN_POINT('',(-9.4,10.,-108.));
#606=MECHANICAL_DESIGN_GEOMETRIC_PRESENTATION_REPRESENTATION('',(#24),#607);
#607=(
GEOMETRIC_REPRESENTATION_CONTEXT(3)
GLOBAL_UNCERTAINTY_ASSIGNED_CONTEXT((#608))
GLOBAL_UNIT_ASSIGNED_CONTEXT((#614,#610,#609))
REPRESENTATION_CONTEXT('989519_stp','TOP_LEVEL_ASSEMBLY_PART')
);
#608=UNCERTAINTY_MEASURE_WITH_UNIT(LENGTH_MEASURE(0.0508),#614,
'DISTANCE_ACCURACY_VALUE','Maximum Tolerance applied to model');
#609=(
NAMED_UNIT(*)
SI_UNIT($,.STERADIAN.)
SOLID_ANGLE_UNIT()
);
#610=(
CONVERSION_BASED_UNIT('DEGREE',#612)
NAMED_UNIT(#611)
PLANE_ANGLE_UNIT()
);
#611=DIMENSIONAL_EXPONENTS(0.,0.,0.,0.,0.,0.,0.);
#612=PLANE_ANGLE_MEASURE_WITH_UNIT(PLANE_ANGLE_MEASURE(0.0174532925),#613);
#613=(
NAMED_UNIT(*)
PLANE_ANGLE_UNIT()
SI_UNIT($,.RADIAN.)
);
#614=(
LENGTH_UNIT()
NAMED_UNIT(*)
SI_UNIT(.MILLI.,.METRE.)
);
ENDSEC;
END-ISO-10303-21;
