ISO-10303-21;
HEADER;
/* Generated by software containing ST-Developer
 * from STEP Tools, Inc. (www.steptools.com) 
 */
/* OPTION: using custom schema-name function */

FILE_DESCRIPTION(
/* description */ (''),
/* implementation_level */ '2;1');

FILE_NAME(
/* name */ 'W9990568_stp.stp',
/* time_stamp */ '2017-05-29T14:44:27+02:00',
/* author */ (''),
/* organization */ (''),
/* preprocessor_version */ 'ST-DEVELOPER v15',
/* originating_system */ 'SIEMENS PLM Software NX 9.0',
/* authorisation */ '');

FILE_SCHEMA (('AUTOMOTIVE_DESIGN { 1 0 10303 214 3 1 1 1 }'));
ENDSEC;

DATA;
#10=PROPERTY_DEFINITION_REPRESENTATION(#14,#12);
#11=PROPERTY_DEFINITION_REPRESENTATION(#15,#13);
#12=REPRESENTATION('',(#16),#369);
#13=REPRESENTATION('',(#17),#369);
#14=PROPERTY_DEFINITION('pmi validation property','',#21);
#15=PROPERTY_DEFINITION('pmi validation property','',#21);
#16=VALUE_REPRESENTATION_ITEM('number of annotations',COUNT_MEASURE(0.));
#17=VALUE_REPRESENTATION_ITEM('number of views',COUNT_MEASURE(0.));
#18=SHAPE_REPRESENTATION_RELATIONSHIP('None',
'relationship between reic1C24C78Ap7ol-None and reic1C24C78Ap7ol-None',
#30,#19);
#19=ADVANCED_BREP_SHAPE_REPRESENTATION('reic1C24C78Ap7ol-None',(#76),#369);
#20=SHAPE_DEFINITION_REPRESENTATION(#21,#30);
#21=PRODUCT_DEFINITION_SHAPE('','',#22);
#22=PRODUCT_DEFINITION(' ','',#24,#23);
#23=PRODUCT_DEFINITION_CONTEXT('part definition',#29,'design');
#24=PRODUCT_DEFINITION_FORMATION_WITH_SPECIFIED_SOURCE(' ',' ',#26,
 .NOT_KNOWN.);
#25=PRODUCT_RELATED_PRODUCT_CATEGORY('part','',(#26));
#26=PRODUCT('reic1C24C78Ap7ol','reic1C24C78Ap7ol',' ',(#27));
#27=PRODUCT_CONTEXT(' ',#29,'mechanical');
#28=APPLICATION_PROTOCOL_DEFINITION('international standard',
'automotive_design',2010,#29);
#29=APPLICATION_CONTEXT(
'core data for automotive mechanical design processes');
#30=SHAPE_REPRESENTATION('reic1C24C78Ap7ol-None',(#234),#369);
#31=OVER_RIDING_STYLED_ITEM('',(#39),#91,#37);
#32=OVER_RIDING_STYLED_ITEM('',(#40),#92,#37);
#33=OVER_RIDING_STYLED_ITEM('',(#41),#93,#37);
#34=OVER_RIDING_STYLED_ITEM('',(#42),#94,#37);
#35=OVER_RIDING_STYLED_ITEM('',(#43),#95,#37);
#36=PRESENTATION_LAYER_ASSIGNMENT('210','Layer 210',(#76));
#37=STYLED_ITEM('',(#38),#76);
#38=PRESENTATION_STYLE_ASSIGNMENT((#44));
#39=PRESENTATION_STYLE_ASSIGNMENT((#45));
#40=PRESENTATION_STYLE_ASSIGNMENT((#46));
#41=PRESENTATION_STYLE_ASSIGNMENT((#47));
#42=PRESENTATION_STYLE_ASSIGNMENT((#48));
#43=PRESENTATION_STYLE_ASSIGNMENT((#49));
#44=SURFACE_STYLE_USAGE(.BOTH.,#50);
#45=SURFACE_STYLE_USAGE(.BOTH.,#51);
#46=SURFACE_STYLE_USAGE(.BOTH.,#52);
#47=SURFACE_STYLE_USAGE(.BOTH.,#53);
#48=SURFACE_STYLE_USAGE(.BOTH.,#54);
#49=SURFACE_STYLE_USAGE(.BOTH.,#55);
#50=SURFACE_SIDE_STYLE('',(#56));
#51=SURFACE_SIDE_STYLE('',(#57));
#52=SURFACE_SIDE_STYLE('',(#58));
#53=SURFACE_SIDE_STYLE('',(#59));
#54=SURFACE_SIDE_STYLE('',(#60));
#55=SURFACE_SIDE_STYLE('',(#61));
#56=SURFACE_STYLE_FILL_AREA(#62);
#57=SURFACE_STYLE_FILL_AREA(#63);
#58=SURFACE_STYLE_FILL_AREA(#64);
#59=SURFACE_STYLE_FILL_AREA(#65);
#60=SURFACE_STYLE_FILL_AREA(#66);
#61=SURFACE_STYLE_FILL_AREA(#67);
#62=FILL_AREA_STYLE('',(#68));
#63=FILL_AREA_STYLE('',(#69));
#64=FILL_AREA_STYLE('',(#70));
#65=FILL_AREA_STYLE('',(#71));
#66=FILL_AREA_STYLE('',(#72));
#67=FILL_AREA_STYLE('',(#73));
#68=FILL_AREA_STYLE_COLOUR('',#74);
#69=FILL_AREA_STYLE_COLOUR('',#75);
#70=FILL_AREA_STYLE_COLOUR('',#75);
#71=FILL_AREA_STYLE_COLOUR('',#75);
#72=FILL_AREA_STYLE_COLOUR('',#75);
#73=FILL_AREA_STYLE_COLOUR('',#75);
#74=COLOUR_RGB('Orange',1.,0.499992370489052,0.);
#75=COLOUR_RGB('RAL 7035',0.8,0.8,0.8);
#76=MANIFOLD_SOLID_BREP('',#77);
#77=CLOSED_SHELL('',(#90,#91,#92,#93,#94,#95,#96,#97,#98,#99,#100,#101,
#102,#103,#104));
#78=TOROIDAL_SURFACE('',#251,19.5446157048489,1.5);
#79=TOROIDAL_SURFACE('',#255,22.,1.5);
#80=TOROIDAL_SURFACE('',#258,25.,1.5);
#81=FACE_OUTER_BOUND('',#146,.T.);
#82=FACE_OUTER_BOUND('',#163,.T.);
#83=CONICAL_SURFACE('',#244,10.0723145172501,8.00000000000004);
#84=CONICAL_SURFACE('',#253,23.5,25.0120151656799);
#85=CYLINDRICAL_SURFACE('',#240,16.);
#86=CYLINDRICAL_SURFACE('',#246,8.);
#87=CYLINDRICAL_SURFACE('',#259,23.5);
#88=CYLINDRICAL_SURFACE('',#260,25.);
#89=CYLINDRICAL_SURFACE('',#262,12.5);
#90=ADVANCED_FACE('',(#110,#111),#105,.T.);
#91=ADVANCED_FACE('',(#112,#113),#85,.T.);
#92=ADVANCED_FACE('',(#114,#115),#106,.F.);
#93=ADVANCED_FACE('',(#116,#117),#83,.T.);
#94=ADVANCED_FACE('',(#118,#119),#86,.T.);
#95=ADVANCED_FACE('',(#81),#107,.F.);
#96=ADVANCED_FACE('',(#120,#121),#108,.T.);
#97=ADVANCED_FACE('',(#122,#123),#78,.T.);
#98=ADVANCED_FACE('',(#124,#125),#84,.T.);
#99=ADVANCED_FACE('',(#126,#127),#79,.T.);
#100=ADVANCED_FACE('',(#128,#129),#80,.F.);
#101=ADVANCED_FACE('',(#130,#131),#87,.T.);
#102=ADVANCED_FACE('',(#132,#133),#88,.T.);
#103=ADVANCED_FACE('',(#134,#135),#89,.F.);
#104=ADVANCED_FACE('',(#82),#109,.T.);
#105=PLANE('',#237);
#106=PLANE('',#242);
#107=PLANE('',#247);
#108=PLANE('',#249);
#109=PLANE('',#263);
#110=FACE_BOUND('',#136,.T.);
#111=FACE_BOUND('',#137,.T.);
#112=FACE_BOUND('',#138,.T.);
#113=FACE_BOUND('',#139,.T.);
#114=FACE_BOUND('',#140,.T.);
#115=FACE_BOUND('',#141,.T.);
#116=FACE_BOUND('',#142,.T.);
#117=FACE_BOUND('',#143,.T.);
#118=FACE_BOUND('',#144,.T.);
#119=FACE_BOUND('',#145,.T.);
#120=FACE_BOUND('',#147,.T.);
#121=FACE_BOUND('',#148,.T.);
#122=FACE_BOUND('',#149,.T.);
#123=FACE_BOUND('',#150,.T.);
#124=FACE_BOUND('',#151,.T.);
#125=FACE_BOUND('',#152,.T.);
#126=FACE_BOUND('',#153,.T.);
#127=FACE_BOUND('',#154,.T.);
#128=FACE_BOUND('',#155,.T.);
#129=FACE_BOUND('',#156,.T.);
#130=FACE_BOUND('',#157,.T.);
#131=FACE_BOUND('',#158,.T.);
#132=FACE_BOUND('',#159,.T.);
#133=FACE_BOUND('',#160,.T.);
#134=FACE_BOUND('',#161,.T.);
#135=FACE_BOUND('',#162,.T.);
#136=EDGE_LOOP('',(#164));
#137=EDGE_LOOP('',(#165));
#138=EDGE_LOOP('',(#166));
#139=EDGE_LOOP('',(#167));
#140=EDGE_LOOP('',(#168));
#141=EDGE_LOOP('',(#169));
#142=EDGE_LOOP('',(#170));
#143=EDGE_LOOP('',(#171));
#144=EDGE_LOOP('',(#172));
#145=EDGE_LOOP('',(#173));
#146=EDGE_LOOP('',(#174));
#147=EDGE_LOOP('',(#175));
#148=EDGE_LOOP('',(#176));
#149=EDGE_LOOP('',(#177));
#150=EDGE_LOOP('',(#178));
#151=EDGE_LOOP('',(#179));
#152=EDGE_LOOP('',(#180));
#153=EDGE_LOOP('',(#181));
#154=EDGE_LOOP('',(#182));
#155=EDGE_LOOP('',(#183));
#156=EDGE_LOOP('',(#184));
#157=EDGE_LOOP('',(#185));
#158=EDGE_LOOP('',(#186));
#159=EDGE_LOOP('',(#187));
#160=EDGE_LOOP('',(#188));
#161=EDGE_LOOP('',(#189));
#162=EDGE_LOOP('',(#190));
#163=EDGE_LOOP('',(#191));
#164=ORIENTED_EDGE('',*,*,#206,.T.);
#165=ORIENTED_EDGE('',*,*,#207,.T.);
#166=ORIENTED_EDGE('',*,*,#208,.T.);
#167=ORIENTED_EDGE('',*,*,#209,.F.);
#168=ORIENTED_EDGE('',*,*,#208,.F.);
#169=ORIENTED_EDGE('',*,*,#210,.T.);
#170=ORIENTED_EDGE('',*,*,#211,.F.);
#171=ORIENTED_EDGE('',*,*,#210,.F.);
#172=ORIENTED_EDGE('',*,*,#211,.T.);
#173=ORIENTED_EDGE('',*,*,#212,.T.);
#174=ORIENTED_EDGE('',*,*,#212,.F.);
#175=ORIENTED_EDGE('',*,*,#213,.T.);
#176=ORIENTED_EDGE('',*,*,#209,.T.);
#177=ORIENTED_EDGE('',*,*,#206,.F.);
#178=ORIENTED_EDGE('',*,*,#214,.F.);
#179=ORIENTED_EDGE('',*,*,#214,.T.);
#180=ORIENTED_EDGE('',*,*,#215,.T.);
#181=ORIENTED_EDGE('',*,*,#215,.F.);
#182=ORIENTED_EDGE('',*,*,#216,.F.);
#183=ORIENTED_EDGE('',*,*,#217,.F.);
#184=ORIENTED_EDGE('',*,*,#218,.F.);
#185=ORIENTED_EDGE('',*,*,#218,.T.);
#186=ORIENTED_EDGE('',*,*,#216,.T.);
#187=ORIENTED_EDGE('',*,*,#217,.T.);
#188=ORIENTED_EDGE('',*,*,#213,.F.);
#189=ORIENTED_EDGE('',*,*,#207,.F.);
#190=ORIENTED_EDGE('',*,*,#219,.F.);
#191=ORIENTED_EDGE('',*,*,#219,.T.);
#192=VERTEX_POINT('',#326);
#193=VERTEX_POINT('',#328);
#194=VERTEX_POINT('',#331);
#195=VERTEX_POINT('',#333);
#196=VERTEX_POINT('',#336);
#197=VERTEX_POINT('',#339);
#198=VERTEX_POINT('',#342);
#199=VERTEX_POINT('',#346);
#200=VERTEX_POINT('',#349);
#201=VERTEX_POINT('',#352);
#202=VERTEX_POINT('',#355);
#203=VERTEX_POINT('',#358);
#204=VERTEX_POINT('',#360);
#205=VERTEX_POINT('',#365);
#206=EDGE_CURVE('',#192,#192,#220,.T.);
#207=EDGE_CURVE('',#193,#193,#221,.T.);
#208=EDGE_CURVE('',#194,#194,#222,.T.);
#209=EDGE_CURVE('',#195,#195,#223,.T.);
#210=EDGE_CURVE('',#196,#196,#224,.T.);
#211=EDGE_CURVE('',#197,#197,#225,.T.);
#212=EDGE_CURVE('',#198,#198,#226,.T.);
#213=EDGE_CURVE('',#199,#199,#227,.T.);
#214=EDGE_CURVE('',#200,#200,#228,.T.);
#215=EDGE_CURVE('',#201,#201,#229,.T.);
#216=EDGE_CURVE('',#202,#202,#230,.T.);
#217=EDGE_CURVE('',#203,#203,#231,.T.);
#218=EDGE_CURVE('',#204,#204,#232,.T.);
#219=EDGE_CURVE('',#205,#205,#233,.T.);
#220=CIRCLE('',#235,19.5446157048489);
#221=CIRCLE('',#236,12.5);
#222=CIRCLE('',#238,16.);
#223=CIRCLE('',#239,16.);
#224=CIRCLE('',#241,10.0723145172501);
#225=CIRCLE('',#243,8.);
#226=CIRCLE('',#245,8.);
#227=CIRCLE('',#248,25.);
#228=CIRCLE('',#250,20.9039444182755);
#229=CIRCLE('',#252,23.3593287134267);
#230=CIRCLE('',#254,23.5);
#231=CIRCLE('',#256,25.);
#232=CIRCLE('',#257,23.5);
#233=CIRCLE('',#261,12.5);
#234=AXIS2_PLACEMENT_3D('',#324,#264,#265);
#235=AXIS2_PLACEMENT_3D('',#325,#266,#267);
#236=AXIS2_PLACEMENT_3D('',#327,#268,#269);
#237=AXIS2_PLACEMENT_3D('',#329,#270,#271);
#238=AXIS2_PLACEMENT_3D('',#330,#272,#273);
#239=AXIS2_PLACEMENT_3D('',#332,#274,#275);
#240=AXIS2_PLACEMENT_3D('',#334,#276,#277);
#241=AXIS2_PLACEMENT_3D('',#335,#278,#279);
#242=AXIS2_PLACEMENT_3D('',#337,#280,#281);
#243=AXIS2_PLACEMENT_3D('',#338,#282,#283);
#244=AXIS2_PLACEMENT_3D('',#340,#284,#285);
#245=AXIS2_PLACEMENT_3D('',#341,#286,#287);
#246=AXIS2_PLACEMENT_3D('',#343,#288,#289);
#247=AXIS2_PLACEMENT_3D('',#344,#290,#291);
#248=AXIS2_PLACEMENT_3D('',#345,#292,#293);
#249=AXIS2_PLACEMENT_3D('',#347,#294,#295);
#250=AXIS2_PLACEMENT_3D('',#348,#296,#297);
#251=AXIS2_PLACEMENT_3D('',#350,#298,#299);
#252=AXIS2_PLACEMENT_3D('',#351,#300,#301);
#253=AXIS2_PLACEMENT_3D('',#353,#302,#303);
#254=AXIS2_PLACEMENT_3D('',#354,#304,#305);
#255=AXIS2_PLACEMENT_3D('',#356,#306,#307);
#256=AXIS2_PLACEMENT_3D('',#357,#308,#309);
#257=AXIS2_PLACEMENT_3D('',#359,#310,#311);
#258=AXIS2_PLACEMENT_3D('',#361,#312,#313);
#259=AXIS2_PLACEMENT_3D('',#362,#314,#315);
#260=AXIS2_PLACEMENT_3D('',#363,#316,#317);
#261=AXIS2_PLACEMENT_3D('',#364,#318,#319);
#262=AXIS2_PLACEMENT_3D('',#366,#320,#321);
#263=AXIS2_PLACEMENT_3D('',#367,#322,#323);
#264=DIRECTION('',(0.,0.,1.));
#265=DIRECTION('',(1.,0.,0.));
#266=DIRECTION('',(0.,0.,1.));
#267=DIRECTION('',(1.,0.,0.));
#268=DIRECTION('',(0.,0.,-1.));
#269=DIRECTION('',(1.,0.,0.));
#270=DIRECTION('',(0.,0.,1.));
#271=DIRECTION('',(1.,0.,0.));
#272=DIRECTION('',(0.,0.,1.));
#273=DIRECTION('',(1.,0.,0.));
#274=DIRECTION('',(0.,0.,1.));
#275=DIRECTION('',(1.,0.,0.));
#276=DIRECTION('',(0.,0.,-1.));
#277=DIRECTION('',(1.,0.,0.));
#278=DIRECTION('',(0.,0.,1.));
#279=DIRECTION('',(1.,0.,0.));
#280=DIRECTION('',(0.,0.,1.));
#281=DIRECTION('',(-1.,0.,0.));
#282=DIRECTION('',(0.,0.,-1.));
#283=DIRECTION('',(1.,0.,0.));
#284=DIRECTION('',(0.,0.,1.));
#285=DIRECTION('',(-1.,0.,2.53390335898458E-016));
#286=DIRECTION('',(0.,0.,1.));
#287=DIRECTION('',(1.,0.,0.));
#288=DIRECTION('',(0.,0.,-1.));
#289=DIRECTION('',(1.,0.,0.));
#290=DIRECTION('',(0.,0.,1.));
#291=DIRECTION('',(-1.,0.,0.));
#292=DIRECTION('',(0.,0.,-1.));
#293=DIRECTION('',(-1.,0.,0.));
#294=DIRECTION('',(0.,0.,-1.));
#295=DIRECTION('',(-1.,0.,0.));
#296=DIRECTION('',(0.,0.,-1.));
#297=DIRECTION('',(1.,0.,0.));
#298=DIRECTION('',(0.,0.,1.));
#299=DIRECTION('',(1.,0.,0.));
#300=DIRECTION('',(0.,0.,1.));
#301=DIRECTION('',(1.,0.,0.));
#302=DIRECTION('',(0.,0.,-1.));
#303=DIRECTION('',(-1.,0.,-1.41591879045996E-017));
#304=DIRECTION('',(0.,0.,-1.));
#305=DIRECTION('',(1.,0.,0.));
#306=DIRECTION('',(0.,0.,1.));
#307=DIRECTION('',(1.,0.,0.));
#308=DIRECTION('',(0.,0.,-1.));
#309=DIRECTION('',(-1.,0.,0.));
#310=DIRECTION('',(0.,0.,1.));
#311=DIRECTION('',(1.,0.,0.));
#312=DIRECTION('',(0.,0.,1.));
#313=DIRECTION('',(1.,0.,0.));
#314=DIRECTION('',(0.,0.,-1.));
#315=DIRECTION('',(-1.,0.,0.));
#316=DIRECTION('',(0.,0.,-1.));
#317=DIRECTION('',(-1.,0.,0.));
#318=DIRECTION('',(0.,0.,1.));
#319=DIRECTION('',(1.,0.,0.));
#320=DIRECTION('',(0.,0.,-1.));
#321=DIRECTION('',(-1.,0.,0.));
#322=DIRECTION('',(0.,0.,1.));
#323=DIRECTION('',(1.,0.,0.));
#324=CARTESIAN_POINT('',(0.,0.,0.));
#325=CARTESIAN_POINT('',(0.,0.,60.));
#326=CARTESIAN_POINT('',(19.5446157048489,0.,60.));
#327=CARTESIAN_POINT('',(0.,0.,60.));
#328=CARTESIAN_POINT('',(12.5,0.,60.));
#329=CARTESIAN_POINT('',(-20.5,0.,60.));
#330=CARTESIAN_POINT('',(0.,0.,-18.5));
#331=CARTESIAN_POINT('',(16.,0.,-18.5));
#332=CARTESIAN_POINT('',(0.,0.,0.));
#333=CARTESIAN_POINT('',(16.,0.,0.));
#334=CARTESIAN_POINT('',(0.,0.,-41.));
#335=CARTESIAN_POINT('',(0.,0.,-18.5));
#336=CARTESIAN_POINT('',(10.0723145172501,0.,-18.5));
#337=CARTESIAN_POINT('',(0.,16.,-18.5));
#338=CARTESIAN_POINT('',(0.,0.,-33.2452839712988));
#339=CARTESIAN_POINT('',(8.,0.,-33.2452839712988));
#340=CARTESIAN_POINT('',(0.,0.,-18.5));
#341=CARTESIAN_POINT('',(0.,0.,-41.));
#342=CARTESIAN_POINT('',(8.,0.,-41.));
#343=CARTESIAN_POINT('',(0.,0.,-41.));
#344=CARTESIAN_POINT('',(0.,0.,-41.));
#345=CARTESIAN_POINT('',(0.,0.,6.93889390390723E-015));
#346=CARTESIAN_POINT('',(-25.,0.,6.93889390390723E-015));
#347=CARTESIAN_POINT('',(-16.,0.,0.));
#348=CARTESIAN_POINT('',(0.,0.,59.1342124634961));
#349=CARTESIAN_POINT('',(20.9039444182755,0.,59.1342124634961));
#350=CARTESIAN_POINT('',(0.,0.,58.5));
#351=CARTESIAN_POINT('',(0.,0.,53.8715054575555));
#352=CARTESIAN_POINT('',(23.3593287134267,0.,53.8715054575555));
#353=CARTESIAN_POINT('',(0.,0.,53.57));
#354=CARTESIAN_POINT('',(0.,0.,53.2372929940594));
#355=CARTESIAN_POINT('',(23.5,0.,53.2372929940594));
#356=CARTESIAN_POINT('',(0.,0.,53.2372929940594));
#357=CARTESIAN_POINT('',(0.,0.,10.));
#358=CARTESIAN_POINT('',(-25.,0.,10.));
#359=CARTESIAN_POINT('',(0.,0.,11.5));
#360=CARTESIAN_POINT('',(23.5,0.,11.5));
#361=CARTESIAN_POINT('',(0.,0.,11.5));
#362=CARTESIAN_POINT('',(0.,0.,-105.74));
#363=CARTESIAN_POINT('',(0.,0.,-105.74));
#364=CARTESIAN_POINT('',(0.,0.,0.));
#365=CARTESIAN_POINT('',(12.5,0.,0.));
#366=CARTESIAN_POINT('',(0.,0.,-105.74));
#367=CARTESIAN_POINT('',(0.,0.,0.));
#368=MECHANICAL_DESIGN_GEOMETRIC_PRESENTATION_REPRESENTATION('',(#37,#31,
#32,#33,#34,#35),#369);
#369=(
GEOMETRIC_REPRESENTATION_CONTEXT(3)
GLOBAL_UNCERTAINTY_ASSIGNED_CONTEXT((#370))
GLOBAL_UNIT_ASSIGNED_CONTEXT((#376,#372,#371))
REPRESENTATION_CONTEXT('W9990568_stp','TOP_LEVEL_ASSEMBLY_PART')
);
#370=UNCERTAINTY_MEASURE_WITH_UNIT(LENGTH_MEASURE(2.E-005),#376,
'DISTANCE_ACCURACY_VALUE','Maximum Tolerance applied to model');
#371=(
NAMED_UNIT(*)
SI_UNIT($,.STERADIAN.)
SOLID_ANGLE_UNIT()
);
#372=(
CONVERSION_BASED_UNIT('DEGREE',#374)
NAMED_UNIT(#373)
PLANE_ANGLE_UNIT()
);
#373=DIMENSIONAL_EXPONENTS(0.,0.,0.,0.,0.,0.,0.);
#374=PLANE_ANGLE_MEASURE_WITH_UNIT(PLANE_ANGLE_MEASURE(0.0174532925),#375);
#375=(
NAMED_UNIT(*)
PLANE_ANGLE_UNIT()
SI_UNIT($,.RADIAN.)
);
#376=(
LENGTH_UNIT()
NAMED_UNIT(*)
SI_UNIT(.MILLI.,.METRE.)
);
ENDSEC;
END-ISO-10303-21;
