ISO-10303-21;
HEADER;
/* Generated by software containing ST-Developer
 * from STEP Tools, Inc. (www.steptools.com) 
 */
/* OPTION: using custom schema-name function */

FILE_DESCRIPTION(
/* description */ (''),
/* implementation_level */ '2;1');

FILE_NAME(
/* name */ 'W9990186_stp.stp',
/* time_stamp */ '2017-05-09T07:15:51+02:00',
/* author */ (''),
/* organization */ (''),
/* preprocessor_version */ 'ST-DEVELOPER v15',
/* originating_system */ 'SIEMENS PLM Software NX 9.0',
/* authorisation */ '');

FILE_SCHEMA (('AUTOMOTIVE_DESIGN { 1 0 10303 214 3 1 1 1 }'));
ENDSEC;

DATA;
#10=PROPERTY_DEFINITION_REPRESENTATION(#14,#12);
#11=PROPERTY_DEFINITION_REPRESENTATION(#15,#13);
#12=REPRESENTATION('',(#16),#373);
#13=REPRESENTATION('',(#17),#373);
#14=PROPERTY_DEFINITION('pmi validation property','',#21);
#15=PROPERTY_DEFINITION('pmi validation property','',#21);
#16=VALUE_REPRESENTATION_ITEM('number of annotations',COUNT_MEASURE(0.));
#17=VALUE_REPRESENTATION_ITEM('number of views',COUNT_MEASURE(0.));
#18=SHAPE_REPRESENTATION_RELATIONSHIP('None',
'relationship between reic119C905Eo63c-None and reic119C905Eo63c-None',
#30,#19);
#19=ADVANCED_BREP_SHAPE_REPRESENTATION('reic119C905Eo63c-None',(#40),#373);
#20=SHAPE_DEFINITION_REPRESENTATION(#21,#30);
#21=PRODUCT_DEFINITION_SHAPE('','',#22);
#22=PRODUCT_DEFINITION(' ','',#24,#23);
#23=PRODUCT_DEFINITION_CONTEXT('part definition',#29,'design');
#24=PRODUCT_DEFINITION_FORMATION_WITH_SPECIFIED_SOURCE(' ',' ',#26,
 .NOT_KNOWN.);
#25=PRODUCT_RELATED_PRODUCT_CATEGORY('part','',(#26));
#26=PRODUCT('reic119C905Eo63c','reic119C905Eo63c',' ',(#27));
#27=PRODUCT_CONTEXT(' ',#29,'mechanical');
#28=APPLICATION_PROTOCOL_DEFINITION('international standard',
'automotive_design',2010,#29);
#29=APPLICATION_CONTEXT(
'core data for automotive mechanical design processes');
#30=SHAPE_REPRESENTATION('reic119C905Eo63c-None',(#220),#373);
#31=PRESENTATION_LAYER_ASSIGNMENT('210','Layer 210',(#40));
#32=STYLED_ITEM('',(#33),#40);
#33=PRESENTATION_STYLE_ASSIGNMENT((#34));
#34=SURFACE_STYLE_USAGE(.BOTH.,#35);
#35=SURFACE_SIDE_STYLE('',(#36));
#36=SURFACE_STYLE_FILL_AREA(#37);
#37=FILL_AREA_STYLE('',(#38));
#38=FILL_AREA_STYLE_COLOUR('',#39);
#39=COLOUR_RGB('Orange',1.,0.499992370489052,0.);
#40=MANIFOLD_SOLID_BREP('',#41);
#41=CLOSED_SHELL('',(#54,#55,#56,#57,#58,#59,#60,#61,#62,#63,#64,#65,#66,
#67,#68,#69,#70));
#42=FACE_OUTER_BOUND('',#122,.T.);
#43=FACE_OUTER_BOUND('',#127,.T.);
#44=CONICAL_SURFACE('',#229,8.50000000000003,45.0000000000014);
#45=CONICAL_SURFACE('',#248,5.71891801425414,7.99999805021224);
#46=PLANE('',#225);
#47=PLANE('',#231);
#48=PLANE('',#234);
#49=PLANE('',#237);
#50=PLANE('',#242);
#51=PLANE('',#246);
#52=PLANE('',#250);
#53=PLANE('',#253);
#54=ADVANCED_FACE('',(#78,#79),#71,.T.);
#55=ADVANCED_FACE('',(#80,#81),#46,.T.);
#56=ADVANCED_FACE('',(#82,#83),#72,.T.);
#57=ADVANCED_FACE('',(#84,#85),#44,.T.);
#58=ADVANCED_FACE('',(#86,#87),#47,.T.);
#59=ADVANCED_FACE('',(#88,#89),#48,.T.);
#60=ADVANCED_FACE('',(#90,#91),#73,.T.);
#61=ADVANCED_FACE('',(#42),#49,.T.);
#62=ADVANCED_FACE('',(#92,#93),#74,.T.);
#63=ADVANCED_FACE('',(#94,#95),#75,.T.);
#64=ADVANCED_FACE('',(#43),#50,.T.);
#65=ADVANCED_FACE('',(#96,#97),#76,.T.);
#66=ADVANCED_FACE('',(#98,#99),#51,.T.);
#67=ADVANCED_FACE('',(#100,#101),#45,.T.);
#68=ADVANCED_FACE('',(#102,#103),#52,.T.);
#69=ADVANCED_FACE('',(#104,#105),#77,.T.);
#70=ADVANCED_FACE('',(#106,#107),#53,.T.);
#71=CYLINDRICAL_SURFACE('',#223,5.0000000000001);
#72=CYLINDRICAL_SURFACE('',#227,8.50000000000005);
#73=CYLINDRICAL_SURFACE('',#235,8.);
#74=CYLINDRICAL_SURFACE('',#238,7.5);
#75=CYLINDRICAL_SURFACE('',#240,15.0000000000001);
#76=CYLINDRICAL_SURFACE('',#244,3.99999999999985);
#77=CYLINDRICAL_SURFACE('',#252,10.0000000000001);
#78=FACE_BOUND('',#108,.T.);
#79=FACE_BOUND('',#109,.T.);
#80=FACE_BOUND('',#110,.T.);
#81=FACE_BOUND('',#111,.T.);
#82=FACE_BOUND('',#112,.T.);
#83=FACE_BOUND('',#113,.T.);
#84=FACE_BOUND('',#114,.T.);
#85=FACE_BOUND('',#115,.T.);
#86=FACE_BOUND('',#116,.T.);
#87=FACE_BOUND('',#117,.T.);
#88=FACE_BOUND('',#118,.T.);
#89=FACE_BOUND('',#119,.T.);
#90=FACE_BOUND('',#120,.T.);
#91=FACE_BOUND('',#121,.T.);
#92=FACE_BOUND('',#123,.T.);
#93=FACE_BOUND('',#124,.T.);
#94=FACE_BOUND('',#125,.T.);
#95=FACE_BOUND('',#126,.T.);
#96=FACE_BOUND('',#128,.T.);
#97=FACE_BOUND('',#129,.T.);
#98=FACE_BOUND('',#130,.T.);
#99=FACE_BOUND('',#131,.T.);
#100=FACE_BOUND('',#132,.T.);
#101=FACE_BOUND('',#133,.T.);
#102=FACE_BOUND('',#134,.T.);
#103=FACE_BOUND('',#135,.T.);
#104=FACE_BOUND('',#136,.T.);
#105=FACE_BOUND('',#137,.T.);
#106=FACE_BOUND('',#138,.T.);
#107=FACE_BOUND('',#139,.T.);
#108=EDGE_LOOP('',(#140));
#109=EDGE_LOOP('',(#141));
#110=EDGE_LOOP('',(#142));
#111=EDGE_LOOP('',(#143));
#112=EDGE_LOOP('',(#144));
#113=EDGE_LOOP('',(#145));
#114=EDGE_LOOP('',(#146));
#115=EDGE_LOOP('',(#147));
#116=EDGE_LOOP('',(#148));
#117=EDGE_LOOP('',(#149));
#118=EDGE_LOOP('',(#150));
#119=EDGE_LOOP('',(#151));
#120=EDGE_LOOP('',(#152));
#121=EDGE_LOOP('',(#153));
#122=EDGE_LOOP('',(#154));
#123=EDGE_LOOP('',(#155));
#124=EDGE_LOOP('',(#156));
#125=EDGE_LOOP('',(#157));
#126=EDGE_LOOP('',(#158));
#127=EDGE_LOOP('',(#159));
#128=EDGE_LOOP('',(#160));
#129=EDGE_LOOP('',(#161));
#130=EDGE_LOOP('',(#162));
#131=EDGE_LOOP('',(#163));
#132=EDGE_LOOP('',(#164));
#133=EDGE_LOOP('',(#165));
#134=EDGE_LOOP('',(#166));
#135=EDGE_LOOP('',(#167));
#136=EDGE_LOOP('',(#168));
#137=EDGE_LOOP('',(#169));
#138=EDGE_LOOP('',(#170));
#139=EDGE_LOOP('',(#171));
#140=ORIENTED_EDGE('',*,*,#188,.F.);
#141=ORIENTED_EDGE('',*,*,#189,.T.);
#142=ORIENTED_EDGE('',*,*,#190,.T.);
#143=ORIENTED_EDGE('',*,*,#189,.F.);
#144=ORIENTED_EDGE('',*,*,#191,.T.);
#145=ORIENTED_EDGE('',*,*,#190,.F.);
#146=ORIENTED_EDGE('',*,*,#191,.F.);
#147=ORIENTED_EDGE('',*,*,#192,.T.);
#148=ORIENTED_EDGE('',*,*,#188,.T.);
#149=ORIENTED_EDGE('',*,*,#193,.T.);
#150=ORIENTED_EDGE('',*,*,#194,.F.);
#151=ORIENTED_EDGE('',*,*,#195,.T.);
#152=ORIENTED_EDGE('',*,*,#193,.F.);
#153=ORIENTED_EDGE('',*,*,#194,.T.);
#154=ORIENTED_EDGE('',*,*,#196,.F.);
#155=ORIENTED_EDGE('',*,*,#196,.T.);
#156=ORIENTED_EDGE('',*,*,#195,.F.);
#157=ORIENTED_EDGE('',*,*,#192,.F.);
#158=ORIENTED_EDGE('',*,*,#197,.T.);
#159=ORIENTED_EDGE('',*,*,#198,.T.);
#160=ORIENTED_EDGE('',*,*,#199,.T.);
#161=ORIENTED_EDGE('',*,*,#198,.F.);
#162=ORIENTED_EDGE('',*,*,#199,.F.);
#163=ORIENTED_EDGE('',*,*,#200,.F.);
#164=ORIENTED_EDGE('',*,*,#200,.T.);
#165=ORIENTED_EDGE('',*,*,#201,.F.);
#166=ORIENTED_EDGE('',*,*,#201,.T.);
#167=ORIENTED_EDGE('',*,*,#202,.F.);
#168=ORIENTED_EDGE('',*,*,#203,.F.);
#169=ORIENTED_EDGE('',*,*,#202,.T.);
#170=ORIENTED_EDGE('',*,*,#203,.T.);
#171=ORIENTED_EDGE('',*,*,#197,.F.);
#172=VERTEX_POINT('',#324);
#173=VERTEX_POINT('',#326);
#174=VERTEX_POINT('',#329);
#175=VERTEX_POINT('',#332);
#176=VERTEX_POINT('',#335);
#177=VERTEX_POINT('',#338);
#178=VERTEX_POINT('',#341);
#179=VERTEX_POINT('',#343);
#180=VERTEX_POINT('',#347);
#181=VERTEX_POINT('',#351);
#182=VERTEX_POINT('',#354);
#183=VERTEX_POINT('',#357);
#184=VERTEX_POINT('',#360);
#185=VERTEX_POINT('',#363);
#186=VERTEX_POINT('',#366);
#187=VERTEX_POINT('',#369);
#188=EDGE_CURVE('',#172,#172,#204,.T.);
#189=EDGE_CURVE('',#173,#173,#205,.T.);
#190=EDGE_CURVE('',#174,#174,#206,.T.);
#191=EDGE_CURVE('',#175,#175,#207,.T.);
#192=EDGE_CURVE('',#176,#176,#208,.T.);
#193=EDGE_CURVE('',#177,#177,#209,.T.);
#194=EDGE_CURVE('',#178,#178,#210,.T.);
#195=EDGE_CURVE('',#179,#179,#211,.T.);
#196=EDGE_CURVE('',#180,#180,#212,.T.);
#197=EDGE_CURVE('',#181,#181,#213,.T.);
#198=EDGE_CURVE('',#182,#182,#214,.T.);
#199=EDGE_CURVE('',#183,#183,#215,.T.);
#200=EDGE_CURVE('',#184,#184,#216,.T.);
#201=EDGE_CURVE('',#185,#185,#217,.T.);
#202=EDGE_CURVE('',#186,#186,#218,.T.);
#203=EDGE_CURVE('',#187,#187,#219,.T.);
#204=CIRCLE('',#221,5.0000000000001);
#205=CIRCLE('',#222,5.0000000000002);
#206=CIRCLE('',#224,8.50000000000006);
#207=CIRCLE('',#226,8.50000000000003);
#208=CIRCLE('',#228,15.0000000000001);
#209=CIRCLE('',#230,8.);
#210=CIRCLE('',#232,8.);
#211=CIRCLE('',#233,7.5);
#212=CIRCLE('',#236,7.5);
#213=CIRCLE('',#239,15.0000000000001);
#214=CIRCLE('',#241,4.);
#215=CIRCLE('',#243,4.);
#216=CIRCLE('',#245,4.3135099999998);
#217=CIRCLE('',#247,5.99999960000004);
#218=CIRCLE('',#249,10.);
#219=CIRCLE('',#251,10.0000000000001);
#220=AXIS2_PLACEMENT_3D('',#322,#254,#255);
#221=AXIS2_PLACEMENT_3D('',#323,#256,#257);
#222=AXIS2_PLACEMENT_3D('',#325,#258,#259);
#223=AXIS2_PLACEMENT_3D('',#327,#260,#261);
#224=AXIS2_PLACEMENT_3D('',#328,#262,#263);
#225=AXIS2_PLACEMENT_3D('',#330,#264,#265);
#226=AXIS2_PLACEMENT_3D('',#331,#266,#267);
#227=AXIS2_PLACEMENT_3D('',#333,#268,#269);
#228=AXIS2_PLACEMENT_3D('',#334,#270,#271);
#229=AXIS2_PLACEMENT_3D('',#336,#272,#273);
#230=AXIS2_PLACEMENT_3D('',#337,#274,#275);
#231=AXIS2_PLACEMENT_3D('',#339,#276,#277);
#232=AXIS2_PLACEMENT_3D('',#340,#278,#279);
#233=AXIS2_PLACEMENT_3D('',#342,#280,#281);
#234=AXIS2_PLACEMENT_3D('',#344,#282,#283);
#235=AXIS2_PLACEMENT_3D('',#345,#284,#285);
#236=AXIS2_PLACEMENT_3D('',#346,#286,#287);
#237=AXIS2_PLACEMENT_3D('',#348,#288,#289);
#238=AXIS2_PLACEMENT_3D('',#349,#290,#291);
#239=AXIS2_PLACEMENT_3D('',#350,#292,#293);
#240=AXIS2_PLACEMENT_3D('',#352,#294,#295);
#241=AXIS2_PLACEMENT_3D('',#353,#296,#297);
#242=AXIS2_PLACEMENT_3D('',#355,#298,#299);
#243=AXIS2_PLACEMENT_3D('',#356,#300,#301);
#244=AXIS2_PLACEMENT_3D('',#358,#302,#303);
#245=AXIS2_PLACEMENT_3D('',#359,#304,#305);
#246=AXIS2_PLACEMENT_3D('',#361,#306,#307);
#247=AXIS2_PLACEMENT_3D('',#362,#308,#309);
#248=AXIS2_PLACEMENT_3D('',#364,#310,#311);
#249=AXIS2_PLACEMENT_3D('',#365,#312,#313);
#250=AXIS2_PLACEMENT_3D('',#367,#314,#315);
#251=AXIS2_PLACEMENT_3D('',#368,#316,#317);
#252=AXIS2_PLACEMENT_3D('',#370,#318,#319);
#253=AXIS2_PLACEMENT_3D('',#371,#320,#321);
#254=DIRECTION('',(0.,0.,1.));
#255=DIRECTION('',(1.,0.,0.));
#256=DIRECTION('',(0.,0.,1.));
#257=DIRECTION('',(-1.,0.,0.));
#258=DIRECTION('',(0.,-3.11492123355343E-015,1.));
#259=DIRECTION('',(0.,1.,2.77555756156278E-015));
#260=DIRECTION('',(0.,-3.11492123355343E-015,1.));
#261=DIRECTION('',(0.,1.,2.77555756156284E-015));
#262=DIRECTION('',(0.,-3.11492123355343E-015,1.));
#263=DIRECTION('',(0.,1.,3.26536183713279E-015));
#264=DIRECTION('',(0.,-3.11492123355343E-015,1.));
#265=DIRECTION('',(0.,1.,3.11556336285435E-015));
#266=DIRECTION('',(0.,-3.11492123355343E-015,1.));
#267=DIRECTION('',(0.,1.,3.2653618371328E-015));
#268=DIRECTION('',(0.,-3.11492123355343E-015,1.));
#269=DIRECTION('',(0.,1.,3.2653618371328E-015));
#270=DIRECTION('',(0.,-3.11492123355343E-015,1.));
#271=DIRECTION('',(0.,1.,3.12250225675823E-015));
#272=DIRECTION('',(0.,3.11492123355343E-015,-1.));
#273=DIRECTION('',(0.,-1.,-3.10306509733466E-015));
#274=DIRECTION('',(0.,0.,-1.));
#275=DIRECTION('',(-1.,0.,0.));
#276=DIRECTION('',(0.,0.,-1.));
#277=DIRECTION('',(-1.,0.,0.));
#278=DIRECTION('',(0.,0.,-1.));
#279=DIRECTION('',(-1.,0.,0.));
#280=DIRECTION('',(0.,0.,-1.));
#281=DIRECTION('',(1.,0.,0.));
#282=DIRECTION('',(0.,0.,1.));
#283=DIRECTION('',(1.,0.,0.));
#284=DIRECTION('',(0.,0.,-1.));
#285=DIRECTION('',(-1.,0.,0.));
#286=DIRECTION('',(0.,0.,-1.));
#287=DIRECTION('',(-1.,0.,0.));
#288=DIRECTION('',(0.,0.,1.));
#289=DIRECTION('',(1.,0.,0.));
#290=DIRECTION('',(0.,0.,-1.));
#291=DIRECTION('',(-1.,0.,0.));
#292=DIRECTION('',(0.,-3.11492123355343E-015,1.));
#293=DIRECTION('',(0.,1.,3.11492123355343E-015));
#294=DIRECTION('',(0.,-3.11492123355343E-015,1.));
#295=DIRECTION('',(0.,1.,3.23815048849002E-015));
#296=DIRECTION('',(0.,0.,-1.));
#297=DIRECTION('',(-1.,0.,0.));
#298=DIRECTION('',(0.,0.,-1.));
#299=DIRECTION('',(0.,1.,0.));
#300=DIRECTION('',(0.,0.,-1.));
#301=DIRECTION('',(-1.,0.,0.));
#302=DIRECTION('',(0.,-3.11492123355343E-015,1.));
#303=DIRECTION('',(0.,1.,3.46944695195375E-015));
#304=DIRECTION('',(0.,-3.11492123355343E-015,1.));
#305=DIRECTION('',(0.,1.,3.21728425523879E-015));
#306=DIRECTION('',(0.,3.11492123355343E-015,-1.));
#307=DIRECTION('',(0.,-1.,-3.11556336285435E-015));
#308=DIRECTION('',(0.,-3.11492123355343E-015,1.));
#309=DIRECTION('',(0.,1.,3.1803265846459E-015));
#310=DIRECTION('',(0.,-3.11492123355343E-015,1.));
#311=DIRECTION('',(0.,1.,3.27351704125993E-015));
#312=DIRECTION('',(0.,0.,1.));
#313=DIRECTION('',(0.,-1.,0.));
#314=DIRECTION('',(0.,3.11492123355343E-015,-1.));
#315=DIRECTION('',(0.,-1.,-3.11556336285435E-015));
#316=DIRECTION('',(0.,-3.11492123355343E-015,1.));
#317=DIRECTION('',(0.,1.,3.11492123355343E-015));
#318=DIRECTION('',(0.,-3.11492123355343E-015,1.));
#319=DIRECTION('',(0.,1.,2.77555756156287E-015));
#320=DIRECTION('',(0.,3.11492123355343E-015,-1.));
#321=DIRECTION('',(0.,-1.,-3.11492123355343E-015));
#322=CARTESIAN_POINT('',(0.,0.,0.));
#323=CARTESIAN_POINT('',(0.,-1.46717463242696E-013,35.5));
#324=CARTESIAN_POINT('',(-5.0000000000001,-1.46717463242696E-013,35.5));
#325=CARTESIAN_POINT('',(0.,-1.17125711523938E-013,26.));
#326=CARTESIAN_POINT('',(0.,5.00000000000009,26.));
#327=CARTESIAN_POINT('',(0.,-1.70079372494346E-013,43.));
#328=CARTESIAN_POINT('',(0.,-1.17125711523938E-013,26.));
#329=CARTESIAN_POINT('',(0.,8.49999999999994,26.));
#330=CARTESIAN_POINT('',(0.,4.99999999999994,26.));
#331=CARTESIAN_POINT('',(0.,-8.75339598051798E-014,16.4999999999998));
#332=CARTESIAN_POINT('',(0.,8.49999999999994,16.4999999999998));
#333=CARTESIAN_POINT('',(0.,-1.70079372494346E-013,43.));
#334=CARTESIAN_POINT('',(0.,-6.72869717870832E-014,9.99999999999999));
#335=CARTESIAN_POINT('',(0.,15.0000000000001,10.));
#336=CARTESIAN_POINT('',(0.,-8.75339598051798E-014,16.4999999999998));
#337=CARTESIAN_POINT('',(4.33680868994202E-016,-1.86777758409896E-013,35.5));
#338=CARTESIAN_POINT('',(-8.,-1.86777758409896E-013,35.5));
#339=CARTESIAN_POINT('',(4.33680868994202E-016,-1.86777758409896E-013,35.5));
#340=CARTESIAN_POINT('',(4.33680868994202E-016,-1.86777758409896E-013,42.5));
#341=CARTESIAN_POINT('',(-8.,-1.86777758409896E-013,42.5));
#342=CARTESIAN_POINT('',(0.,-1.86777758409896E-013,42.5));
#343=CARTESIAN_POINT('',(7.5,-1.86777758409896E-013,42.5));
#344=CARTESIAN_POINT('',(4.33680868994202E-016,-1.86777758409896E-013,42.5));
#345=CARTESIAN_POINT('',(4.33680868994202E-016,-1.86777758409896E-013,42.5));
#346=CARTESIAN_POINT('',(0.,-1.86777758409896E-013,48.5));
#347=CARTESIAN_POINT('',(-7.5,-1.86777758409896E-013,48.5));
#348=CARTESIAN_POINT('',(0.,-1.86777758409896E-013,48.5));
#349=CARTESIAN_POINT('',(0.,-1.86777758409896E-013,48.5));
#350=CARTESIAN_POINT('',(0.,-3.6137759451549E-014,-6.93889390390723E-015));
#351=CARTESIAN_POINT('',(0.,15.0000000000001,3.97849245993945E-014));
#352=CARTESIAN_POINT('',(0.,-1.70079372494346E-013,43.));
#353=CARTESIAN_POINT('',(0.,0.,-28.));
#354=CARTESIAN_POINT('',(-4.,0.,-28.));
#355=CARTESIAN_POINT('',(0.,0.,-28.));
#356=CARTESIAN_POINT('',(0.,0.,-23.));
#357=CARTESIAN_POINT('',(-4.,0.,-23.));
#358=CARTESIAN_POINT('',(0.,-1.70079372494346E-013,43.));
#359=CARTESIAN_POINT('',(0.,3.55054289201798E-014,-23.));
#360=CARTESIAN_POINT('',(0.,4.31350999999984,-23.));
#361=CARTESIAN_POINT('',(0.,4.31350999999984,-23.));
#362=CARTESIAN_POINT('',(0.,-1.87362588246134E-015,-11.));
#363=CARTESIAN_POINT('',(0.,5.99999960000004,-11.));
#364=CARTESIAN_POINT('',(0.,4.3562162687194E-015,-12.9999998985765));
#365=CARTESIAN_POINT('',(0.,0.,-11.));
#366=CARTESIAN_POINT('',(0.,-10.,-11.));
#367=CARTESIAN_POINT('',(0.,10.0000000000001,-10.9999999999999));
#368=CARTESIAN_POINT('',(0.,-3.6137759451549E-014,2.08166817117217E-014));
#369=CARTESIAN_POINT('',(0.,10.0000000000001,5.19658940472562E-014));
#370=CARTESIAN_POINT('',(0.,-1.70079372494346E-013,43.));
#371=CARTESIAN_POINT('',(0.,15.0000000000001,4.85722573273506E-014));
#372=MECHANICAL_DESIGN_GEOMETRIC_PRESENTATION_REPRESENTATION('',(#32),#373);
#373=(
GEOMETRIC_REPRESENTATION_CONTEXT(3)
GLOBAL_UNCERTAINTY_ASSIGNED_CONTEXT((#374))
GLOBAL_UNIT_ASSIGNED_CONTEXT((#380,#376,#375))
REPRESENTATION_CONTEXT('W9990186_stp','TOP_LEVEL_ASSEMBLY_PART')
);
#374=UNCERTAINTY_MEASURE_WITH_UNIT(LENGTH_MEASURE(2.E-005),#380,
'DISTANCE_ACCURACY_VALUE','Maximum Tolerance applied to model');
#375=(
NAMED_UNIT(*)
SI_UNIT($,.STERADIAN.)
SOLID_ANGLE_UNIT()
);
#376=(
CONVERSION_BASED_UNIT('DEGREE',#378)
NAMED_UNIT(#377)
PLANE_ANGLE_UNIT()
);
#377=DIMENSIONAL_EXPONENTS(0.,0.,0.,0.,0.,0.,0.);
#378=PLANE_ANGLE_MEASURE_WITH_UNIT(PLANE_ANGLE_MEASURE(0.0174532925),#379);
#379=(
NAMED_UNIT(*)
PLANE_ANGLE_UNIT()
SI_UNIT($,.RADIAN.)
);
#380=(
LENGTH_UNIT()
NAMED_UNIT(*)
SI_UNIT(.MILLI.,.METRE.)
);
ENDSEC;
END-ISO-10303-21;
