  0
SECTION
  2
HEADER
  9
$ACADVER
  1
AC1014
  9
$ACADMAINTVER
 70
     9
  9
$DWGCODEPAGE
  3
ANSI_1252
  9
$INSBASE
 10
0.0
 20
0.0
 30
0.0
  9
$EXTMIN
 10
1.000000000000000E+20
 20
1.000000000000000E+20
 30
1.000000000000000E+20
  9
$EXTMAX
 10
-1.000000000000000E+20
 20
-1.000000000000000E+20
 30
-1.000000000000000E+20
  9
$LIMMIN
 10
0.0
 20
0.0
  9
$LIMMAX
 10
12.0
 20
9.0
  9
$ORTHOMODE
 70
     0
  9
$REGENMODE
 70
     1
  9
$FILLMODE
 70
     1
  9
$QTEXTMODE
 70
     0
  9
$MIRRTEXT
 70
     1
  9
$DRAGMODE
 70
     2
  9
$LTSCALE
 40
1.0
  9
$OSMODE
 70
    37
  9
$ATTMODE
 70
     1
  9
$TEXTSIZE
 40
0.2
  9
$TRACEWID
 40
0.05
  9
$TEXTSTYLE
  7
STANDARD
  9
$CLAYER
  8
0
  9
$CELTYPE
  6
BYLAYER
  9
$CECOLOR
 62
   256
  9
$CELTSCALE
 40
1.0
  9
$DELOBJ
 70
     1
  9
$DISPSILH
 70
     0
  9
$DIMSCALE
 40
1.0
  9
$DIMASZ
 40
0.18
  9
$DIMEXO
 40
0.0625
  9
$DIMDLI
 40
0.38
  9
$DIMRND
 40
0.0
  9
$DIMDLE
 40
0.0
  9
$DIMEXE
 40
0.18
  9
$DIMTP
 40
0.0
  9
$DIMTM
 40
0.0
  9
$DIMTXT
 40
0.18
  9
$DIMCEN
 40
0.09
  9
$DIMTSZ
 40
0.0
  9
$DIMTOL
 70
     0
  9
$DIMLIM
 70
     0
  9
$DIMTIH
 70
     1
  9
$DIMTOH
 70
     1
  9
$DIMSE1
 70
     0
  9
$DIMSE2
 70
     0
  9
$DIMTAD
 70
     0
  9
$DIMZIN
 70
     0
  9
$DIMBLK
  1

  9
$DIMASO
 70
     1
  9
$DIMSHO
 70
     1
  9
$DIMPOST
  1

  9
$DIMAPOST
  1

  9
$DIMALT
 70
     0
  9
$DIMALTD
 70
     2
  9
$DIMALTF
 40
25.4
  9
$DIMLFAC
 40
1.0
  9
$DIMTOFL
 70
     0
  9
$DIMTVP
 40
0.0
  9
$DIMTIX
 70
     0
  9
$DIMSOXD
 70
     0
  9
$DIMSAH
 70
     0
  9
$DIMBLK1
  1

  9
$DIMBLK2
  1

  9
$DIMSTYLE
  2
STANDARD
  9
$DIMCLRD
 70
     0
  9
$DIMCLRE
 70
     0
  9
$DIMCLRT
 70
     0
  9
$DIMTFAC
 40
1.0
  9
$DIMGAP
 40
0.09
  9
$DIMJUST
 70
     0
  9
$DIMSD1
 70
     0
  9
$DIMSD2
 70
     0
  9
$DIMTOLJ
 70
     1
  9
$DIMTZIN
 70
     0
  9
$DIMALTZ
 70
     0
  9
$DIMALTTZ
 70
     0
  9
$DIMFIT
 70
     3
  9
$DIMUPT
 70
     0
  9
$DIMUNIT
 70
     2
  9
$DIMDEC
 70
     4
  9
$DIMTDEC
 70
     4
  9
$DIMALTU
 70
     2
  9
$DIMALTTD
 70
     2
  9
$DIMTXSTY
  7
STANDARD
  9
$DIMAUNIT
 70
     0
  9
$LUNITS
 70
     2
  9
$LUPREC
 70
     4
  9
$SKETCHINC
 40
0.1
  9
$FILLETRAD
 40
0.5
  9
$AUNITS
 70
     0
  9
$AUPREC
 70
     0
  9
$MENU
  1
.
  9
$ELEVATION
 40
0.0
  9
$PELEVATION
 40
0.0
  9
$THICKNESS
 40
0.0
  9
$LIMCHECK
 70
     0
  9
$CHAMFERA
 40
0.5
  9
$CHAMFERB
 40
0.5
  9
$CHAMFERC
 40
1.0
  9
$CHAMFERD
 40
0.0
  9
$SKPOLY
 70
     0
  9
$TDCREATE
 40
2458453.456030451
  9
$TDUPDATE
 40
2458453.456030463
  9
$TDINDWG
 40
0.0000000116
  9
$TDUSRTIMER
 40
0.0000000116
  9
$USRTIMER
 70
     1
  9
$ANGBASE
 50
0.0
  9
$ANGDIR
 70
     0
  9
$PDMODE
 70
     0
  9
$PDSIZE
 40
0.0
  9
$PLINEWID
 40
0.0
  9
$COORDS
 70
     1
  9
$SPLFRAME
 70
     0
  9
$SPLINETYPE
 70
     6
  9
$SPLINESEGS
 70
     8
  9
$ATTDIA
 70
     0
  9
$ATTREQ
 70
     1
  9
$HANDLING
 70
     1
  9
$HANDSEED
  5
603
  9
$SURFTAB1
 70
     6
  9
$SURFTAB2
 70
     6
  9
$SURFTYPE
 70
     6
  9
$SURFU
 70
     6
  9
$SURFV
 70
     6
  9
$UCSNAME
  2

  9
$UCSORG
 10
0.0
 20
0.0
 30
0.0
  9
$UCSXDIR
 10
1.0
 20
0.0
 30
0.0
  9
$UCSYDIR
 10
0.0
 20
1.0
 30
0.0
  9
$PUCSNAME
  2

  9
$PUCSORG
 10
0.0
 20
0.0
 30
0.0
  9
$PUCSXDIR
 10
1.0
 20
0.0
 30
0.0
  9
$PUCSYDIR
 10
0.0
 20
1.0
 30
0.0
  9
$USERI1
 70
     0
  9
$USERI2
 70
     0
  9
$USERI3
 70
     0
  9
$USERI4
 70
     0
  9
$USERI5
 70
     0
  9
$USERR1
 40
0.0
  9
$USERR2
 40
0.0
  9
$USERR3
 40
0.0
  9
$USERR4
 40
0.0
  9
$USERR5
 40
0.0
  9
$WORLDVIEW
 70
     1
  9
$SHADEDGE
 70
     3
  9
$SHADEDIF
 70
    70
  9
$TILEMODE
 70
     1
  9
$MAXACTVP
 70
    64
  9
$PINSBASE
 10
0.0
 20
0.0
 30
0.0
  9
$PLIMCHECK
 70
     0
  9
$PEXTMIN
 10
1.000000000000000E+20
 20
1.000000000000000E+20
 30
1.000000000000000E+20
  9
$PEXTMAX
 10
-1.000000000000000E+20
 20
-1.000000000000000E+20
 30
-1.000000000000000E+20
  9
$PLIMMIN
 10
0.0
 20
0.0
  9
$PLIMMAX
 10
12.0
 20
9.0
  9
$UNITMODE
 70
     0
  9
$VISRETAIN
 70
     1
  9
$PLINEGEN
 70
     0
  9
$PSLTSCALE
 70
     1
  9
$TREEDEPTH
 70
  3020
  9
$PICKSTYLE
 70
     1
  9
$CMLSTYLE
  2
STANDARD
  9
$CMLJUST
 70
     0
  9
$CMLSCALE
 40
1.0
  9
$PROXYGRAPHICS
 70
     1
  9
$MEASUREMENT
 70
     0
  0
ENDSEC
  0
SECTION
  2
CLASSES
  0
CLASS
  1
ACDBDICTIONARYWDFLT
  2
AcDbDictionaryWithDefault
  3
ObjectDBX Classes
 90
        0
280
     0
281
     0
  0
CLASS
  1
VISUALSTYLE
  2
AcDbVisualStyle
  3
ObjectDBX Classes
 90
     4095
280
     0
281
     0
  0
CLASS
  1
XRECORD
  2
AcDbXrecord
  3
AutoCAD 2000
 90
        0
280
     0
281
     0
  0
CLASS
  1
LWPOLYLINE
  2
AcDbPolyline
  3
AutoCAD 2000
 90
        0
280
     0
281
     1
  0
CLASS
  1
HATCH
  2
AcDbHatch
  3
AutoCAD 2000
 90
        0
280
     0
281
     1
  0
CLASS
  1
ACDBPLACEHOLDER
  2
AcDbPlaceHolder
  3
ObjectDBX Classes
 90
        0
280
     0
281
     0
  0
CLASS
  1
LAYOUT
  2
AcDbLayout
  3
ObjectDBX Classes
 90
        0
280
     0
281
     0
  0
ENDSEC
  0
SECTION
  2
TABLES
  0
TABLE
  2
VPORT
  5
8
330
0
100
AcDbSymbolTable
 70
     1
  0
VPORT
  5
29
330
8
100
AcDbSymbolTableRecord
100
AcDbViewportTableRecord
  2
*ACTIVE
 70
     0
 10
0.0
 20
0.0
 11
1.0
 21
1.0
 12
0.0
 22
0.0
 13
0.0
 23
0.0
 14
0.5
 24
0.5
 15
0.5
 25
0.5
 16
0.0
 26
0.0
 36
1.0
 17
-31.41927082547852
 27
13.5983086446039
 37
0.0
 40
89.41331920507723
 41
1.491334602254776
 42
50.0
 43
0.0
 44
0.0
 50
0.0
 51
0.0
 71
     0
 72
   100
 73
     1
 74
     3
 75
     0
 76
     0
 77
     0
 78
     0
  0
ENDTAB
  0
TABLE
  2
LTYPE
  5
5
330
0
100
AcDbSymbolTable
 70
     2
  0
LTYPE
  5
14
330
5
100
AcDbSymbolTableRecord
100
AcDbLinetypeTableRecord
  2
BYBLOCK
 70
     0
  3

 72
    65
 73
     0
 40
0.0
  0
LTYPE
  5
15
330
5
100
AcDbSymbolTableRecord
100
AcDbLinetypeTableRecord
  2
BYLAYER
 70
     0
  3

 72
    65
 73
     0
 40
0.0
  0
LTYPE
  5
16
330
5
100
AcDbSymbolTableRecord
100
AcDbLinetypeTableRecord
  2
CONTINUOUS
 70
     0
  3
Solid line
 72
    65
 73
     0
 40
0.0
  0
LTYPE
  5
C3
330
5
100
AcDbSymbolTableRecord
100
AcDbLinetypeTableRecord
  2
AI-LINETYPE-1
 70
     0
  3
Adobe Illustrator Linetype No. 1
 72
    65
 73
     4
 40
8.819444442239584
 49
7.055555553791667
 74
     0
 49
-0.7055555553791667
 74
     0
 49
0.3527777776895833
 74
     0
 49
-0.7055555553791667
 74
     0
  0
ENDTAB
  0
TABLE
  2
LAYER
  5
2
330
0
100
AcDbSymbolTable
 70
     5
  0
LAYER
  5
10
330
2
100
AcDbSymbolTableRecord
100
AcDbLayerTableRecord
  2
0
 70
     0
 62
     7
  6
CONTINUOUS
  0
LAYER
  5
3B
330
2
100
AcDbSymbolTableRecord
100
AcDbLayerTableRecord
  2
GRAU_10_
 70
     1
 62
     7
  6
CONTINUOUS
  0
LAYER
  5
4E
330
2
100
AcDbSymbolTableRecord
100
AcDbLayerTableRecord
  2
STANDARDEBENE
 70
     0
 62
     7
  6
CONTINUOUS
  0
LAYER
  5
1A7
330
2
100
AcDbSymbolTableRecord
100
AcDbLayerTableRecord
  2
BEMAßUNG
 70
     1
 62
     7
  6
CONTINUOUS
  0
LAYER
  5
5DA
330
2
100
AcDbSymbolTableRecord
100
AcDbLayerTableRecord
  2
TEXT
 70
     1
 62
     7
  6
CONTINUOUS
  0
ENDTAB
  0
TABLE
  2
STYLE
  5
3
330
0
100
AcDbSymbolTable
 70
     1
  0
STYLE
  5
11
330
3
100
AcDbSymbolTableRecord
100
AcDbTextStyleTableRecord
  2
STANDARD
 70
     0
 40
0.0
 41
1.0
 50
0.0
 71
     0
 42
0.2
  3
txt
  4

  0
ENDTAB
  0
TABLE
  2
VIEW
  5
6
330
0
100
AcDbSymbolTable
 70
     0
  0
ENDTAB
  0
TABLE
  2
UCS
  5
7
330
0
100
AcDbSymbolTable
 70
     0
  0
ENDTAB
  0
TABLE
  2
APPID
  5
9
330
0
100
AcDbSymbolTable
 70
     1
  0
APPID
  5
12
330
9
100
AcDbSymbolTableRecord
100
AcDbRegAppTableRecord
  2
ACAD
 70
     0
  0
ENDTAB
  0
TABLE
  2
DIMSTYLE
  5
A
330
0
100
AcDbSymbolTable
 70
     1
  0
DIMSTYLE
105
27
330
A
100
AcDbSymbolTableRecord
100
AcDbDimStyleTableRecord
  2
STANDARD
 70
     0
  3

  4

  5

  6

  7

 40
1.0
 41
0.18
 42
0.0625
 43
0.38
 44
0.18
 45
0.0
 46
0.0
 47
0.0
 48
0.0
140
0.18
141
0.09
142
0.0
143
25.4
144
1.0
145
0.0
146
1.0
147
0.09
 71
     0
 72
     0
 73
     1
 74
     1
 75
     0
 76
     0
 77
     0
 78
     0
170
     0
171
     2
172
     0
173
     0
174
     0
175
     0
176
     0
177
     0
178
     0
270
     2
271
     4
272
     4
273
     2
274
     2
340
11
275
     0
280
     0
281
     0
282
     0
283
     1
284
     0
285
     0
286
     0
287
     3
288
     0
  0
ENDTAB
  0
TABLE
  2
BLOCK_RECORD
  5
1
330
0
100
AcDbSymbolTable
 70
     1
  0
BLOCK_RECORD
  5
1F
330
1
100
AcDbSymbolTableRecord
100
AcDbBlockTableRecord
  2
*MODEL_SPACE
  0
BLOCK_RECORD
  5
1B
330
1
100
AcDbSymbolTableRecord
100
AcDbBlockTableRecord
  2
*PAPER_SPACE
  0
ENDTAB
  0
ENDSEC
  0
SECTION
  2
BLOCKS
  0
BLOCK
  5
20
330
1F
100
AcDbEntity
  8
0
100
AcDbBlockBegin
  2
*MODEL_SPACE
 70
     0
 71
     0
 10
0.0
 20
0.0
 30
0.0
  3
*MODEL_SPACE
  1

  0
ENDBLK
  5
21
330
1F
100
AcDbEntity
  8
0
100
AcDbBlockEnd
  0
BLOCK
  5
1C
330
1B
100
AcDbEntity
 67
     1
  8
0
100
AcDbBlockBegin
  2
*PAPER_SPACE
 70
     0
 71
     0
 10
0.0
 20
0.0
 30
0.0
  3
*PAPER_SPACE
  1

  0
ENDBLK
  5
1D
330
1B
100
AcDbEntity
 67
     1
  8
0
100
AcDbBlockEnd
  0
ENDSEC
  0
SECTION
  2
ENTITIES
  0
POLYLINE
  5
3C
330
1F
100
AcDbEntity
  8
GRAU_10_
100
AcDb2dPolyline
 66
     1
 10
0.0
 20
0.0
 30
0.0
  0
VERTEX
  5
3D
330
3C
100
AcDbEntity
  8
GRAU_10_
100
AcDbVertex
100
AcDb2dVertex
 10
-68.92843694023317
 20
38.61073539616329
 30
0.0
  0
VERTEX
  5
3E
330
3C
100
AcDbEntity
  8
GRAU_10_
100
AcDbVertex
100
AcDb2dVertex
 10
-64.93488225373156
 20
38.61073539616329
 30
0.0
  0
VERTEX
  5
3F
330
3C
100
AcDbEntity
  8
GRAU_10_
100
AcDbVertex
100
AcDb2dVertex
 10
-64.93488225373156
 20
34.19619004136415
 30
0.0
  0
VERTEX
  5
40
330
3C
100
AcDbEntity
  8
GRAU_10_
100
AcDbVertex
100
AcDb2dVertex
 10
-63.84209796581031
 20
34.19619004136415
 30
0.0
  0
VERTEX
  5
41
330
3C
100
AcDbEntity
  8
GRAU_10_
100
AcDbVertex
100
AcDb2dVertex
 10
-61.90802136039105
 20
34.78530136934187
 30
0.0
  0
VERTEX
  5
42
330
3C
100
AcDbEntity
  8
GRAU_10_
100
AcDbVertex
100
AcDb2dVertex
 10
-19.95158148372738
 20
34.74258218532477
 30
0.0
  0
VERTEX
  5
43
330
3C
100
AcDbEntity
  8
GRAU_10_
100
AcDbVertex
100
AcDb2dVertex
 10
-18.73270670104599
 20
33.69251708142063
 30
0.0
  0
VERTEX
  5
44
330
3C
100
AcDbEntity
  8
GRAU_10_
100
AcDbVertex
100
AcDb2dVertex
 10
-18.81676703088609
 20
11.62047932652196
 30
0.0
  0
VERTEX
  5
45
330
3C
100
AcDbEntity
  8
GRAU_10_
100
AcDbVertex
100
AcDb2dVertex
 10
-19.95158148372738
 20
10.73784586320096
 30
0.0
  0
VERTEX
  5
46
330
3C
100
AcDbEntity
  8
GRAU_10_
100
AcDbVertex
100
AcDb2dVertex
 10
-61.99208169023115
 20
10.8639363579611
 30
0.0
  0
VERTEX
  5
47
330
3C
100
AcDbEntity
  8
GRAU_10_
100
AcDbVertex
100
AcDb2dVertex
 10
-64.00952960639346
 20
11.49507785085887
 30
0.0
  0
VERTEX
  5
48
330
3C
100
AcDbEntity
  8
GRAU_10_
100
AcDbVertex
100
AcDb2dVertex
 10
-64.72404241003427
 20
11.41101752101877
 30
0.0
  0
VERTEX
  5
49
330
3C
100
AcDbEntity
  8
GRAU_10_
100
AcDbVertex
100
AcDb2dVertex
 10
-64.85013290479442
 20
6.702261011779296
 30
0.0
  0
VERTEX
  5
4A
330
3C
100
AcDbEntity
  8
GRAU_10_
100
AcDbVertex
100
AcDb2dVertex
 10
-68.88640677531312
 20
6.534140352099104
 30
0.0
  0
VERTEX
  5
4B
330
3C
100
AcDbEntity
  8
GRAU_10_
100
AcDbVertex
100
AcDb2dVertex
 10
-68.92843694023317
 20
38.61073539616329
 30
0.0
  0
SEQEND
  5
4C
330
3C
100
AcDbEntity
  8
GRAU_10_
  0
HATCH
  5
4D
330
1F
100
AcDbEntity
  8
GRAU_10_
 62
   255
100
AcDbHatch
 10
0.0
 20
0.0
 30
0.0
210
0.0
220
0.0
230
1.0
  2
SOLID
 70
     1
 71
     0
 91
        1
 92
        1
 93
       14
 72
     1
 10
-68.92843694023317
 20
38.61073539616329
 11
-64.93488225373156
 21
38.61073539616329
 72
     1
 10
-64.93488225373156
 20
38.61073539616329
 11
-64.93488225373156
 21
34.19619004136415
 72
     1
 10
-64.93488225373156
 20
34.19619004136415
 11
-63.84209796581031
 21
34.19619004136415
 72
     1
 10
-63.84209796581031
 20
34.19619004136415
 11
-61.90802136039105
 21
34.78530136934187
 72
     1
 10
-61.90802136039105
 20
34.78530136934187
 11
-19.95158148372739
 21
34.74258218532477
 72
     1
 10
-19.95158148372738
 20
34.74258218532477
 11
-18.73270670104599
 21
33.69251708142063
 72
     1
 10
-18.73270670104599
 20
33.69251708142063
 11
-18.81676703088609
 21
11.62047932652197
 72
     1
 10
-18.81676703088609
 20
11.62047932652196
 11
-19.95158148372738
 21
10.73784586320096
 72
     1
 10
-19.95158148372738
 20
10.73784586320096
 11
-61.99208169023115
 21
10.8639363579611
 72
     1
 10
-61.99208169023115
 20
10.8639363579611
 11
-64.00952960639346
 21
11.49507785085887
 72
     1
 10
-64.00952960639346
 20
11.49507785085887
 11
-64.72404241003427
 21
11.41101752101877
 72
     1
 10
-64.72404241003427
 20
11.41101752101877
 11
-64.85013290479442
 21
6.702261011779296
 72
     1
 10
-64.85013290479442
 20
6.702261011779296
 11
-68.88640677531312
 21
6.534140352099104
 72
     1
 10
-68.88640677531312
 20
6.534140352099104
 11
-68.92843694023317
 21
38.61073539616329
 97
        0
 75
     0
 76
     1
 98
        0
  0
POLYLINE
  5
4F
330
1F
100
AcDbEntity
  8
STANDARDEBENE
 62
     7
100
AcDb2dPolyline
 66
     1
 10
0.0
 20
0.0
 30
0.0
  0
VERTEX
  5
50
330
4F
100
AcDbEntity
  8
STANDARDEBENE
 62
     7
100
AcDbVertex
100
AcDb2dVertex
 10
-68.91121146280692
 20
28.72331135349626
 30
0.0
  0
VERTEX
  5
51
330
4F
100
AcDbEntity
  8
STANDARDEBENE
 62
     7
100
AcDbVertex
100
AcDb2dVertex
 10
-67.87010360716442
 20
28.72331135349626
 30
0.0
  0
SEQEND
  5
52
330
4F
100
AcDbEntity
  8
STANDARDEBENE
  0
POLYLINE
  5
53
330
1F
100
AcDbEntity
  8
STANDARDEBENE
 62
     7
100
AcDb2dPolyline
 66
     1
 10
0.0
 20
0.0
 30
0.0
  0
VERTEX
  5
54
330
53
100
AcDbEntity
  8
STANDARDEBENE
 62
     7
100
AcDbVertex
100
AcDb2dVertex
 10
-65.78719887678237
 20
28.72331135349626
 30
0.0
  0
VERTEX
  5
55
330
53
100
AcDbEntity
  8
STANDARDEBENE
 62
     7
100
AcDbVertex
100
AcDb2dVertex
 10
-63.70429414640031
 20
28.72331135349626
 30
0.0
  0
SEQEND
  5
56
330
53
100
AcDbEntity
  8
STANDARDEBENE
  0
POLYLINE
  5
57
330
1F
100
AcDbEntity
  8
STANDARDEBENE
 62
     7
100
AcDb2dPolyline
 66
     1
 10
0.0
 20
0.0
 30
0.0
  0
VERTEX
  5
58
330
57
100
AcDbEntity
  8
STANDARDEBENE
 62
     7
100
AcDbVertex
100
AcDb2dVertex
 10
-61.62138941601827
 20
28.72331135349626
 30
0.0
  0
VERTEX
  5
59
330
57
100
AcDbEntity
  8
STANDARDEBENE
 62
     7
100
AcDbVertex
100
AcDb2dVertex
 10
-59.53710664744212
 20
28.72331135349626
 30
0.0
  0
SEQEND
  5
5A
330
57
100
AcDbEntity
  8
STANDARDEBENE
  0
POLYLINE
  5
5B
330
1F
100
AcDbEntity
  8
STANDARDEBENE
 62
     7
100
AcDb2dPolyline
 66
     1
 10
0.0
 20
0.0
 30
0.0
  0
VERTEX
  5
5C
330
5B
100
AcDbEntity
  8
STANDARDEBENE
 62
     7
100
AcDbVertex
100
AcDb2dVertex
 10
-57.45351289796302
 20
28.72331135349626
 30
0.0
  0
VERTEX
  5
5D
330
5B
100
AcDbEntity
  8
STANDARDEBENE
 62
     7
100
AcDbVertex
100
AcDb2dVertex
 10
-55.36923012938686
 20
28.72331135349626
 30
0.0
  0
SEQEND
  5
5E
330
5B
100
AcDbEntity
  8
STANDARDEBENE
  0
POLYLINE
  5
5F
330
1F
100
AcDbEntity
  8
STANDARDEBENE
 62
     7
100
AcDb2dPolyline
 66
     1
 10
0.0
 20
0.0
 30
0.0
  0
VERTEX
  5
60
330
5F
100
AcDbEntity
  8
STANDARDEBENE
 62
     7
100
AcDbVertex
100
AcDb2dVertex
 10
-53.28701441810186
 20
28.72331135349626
 30
0.0
  0
VERTEX
  5
61
330
5F
100
AcDbEntity
  8
STANDARDEBENE
 62
     7
100
AcDbVertex
100
AcDb2dVertex
 10
-51.20410968771981
 20
28.72331135349626
 30
0.0
  0
SEQEND
  5
62
330
5F
100
AcDbEntity
  8
STANDARDEBENE
  0
POLYLINE
  5
63
330
1F
100
AcDbEntity
  8
STANDARDEBENE
 62
     7
100
AcDb2dPolyline
 66
     1
 10
0.0
 20
0.0
 30
0.0
  0
VERTEX
  5
64
330
63
100
AcDbEntity
  8
STANDARDEBENE
 62
     7
100
AcDbVertex
100
AcDb2dVertex
 10
-49.12051593824071
 20
28.72331135349626
 30
0.0
  0
VERTEX
  5
65
330
63
100
AcDbEntity
  8
STANDARDEBENE
 62
     7
100
AcDbVertex
100
AcDb2dVertex
 10
-47.03692218876161
 20
28.72331135349626
 30
0.0
  0
SEQEND
  5
66
330
63
100
AcDbEntity
  8
STANDARDEBENE
  0
POLYLINE
  5
67
330
1F
100
AcDbEntity
  8
STANDARDEBENE
 62
     7
100
AcDb2dPolyline
 66
     1
 10
0.0
 20
0.0
 30
0.0
  0
VERTEX
  5
68
330
67
100
AcDbEntity
  8
STANDARDEBENE
 62
     7
100
AcDbVertex
100
AcDb2dVertex
 10
-44.95401745837955
 20
28.72331135349626
 30
0.0
  0
VERTEX
  5
69
330
67
100
AcDbEntity
  8
STANDARDEBENE
 62
     7
100
AcDbVertex
100
AcDb2dVertex
 10
-42.87042370890045
 20
28.72331135349626
 30
0.0
  0
SEQEND
  5
6A
330
67
100
AcDbEntity
  8
STANDARDEBENE
  0
POLYLINE
  5
6B
330
1F
100
AcDbEntity
  8
STANDARDEBENE
 62
     7
100
AcDb2dPolyline
 66
     1
 10
0.0
 20
0.0
 30
0.0
  0
VERTEX
  5
6C
330
6B
100
AcDbEntity
  8
STANDARDEBENE
 62
     7
100
AcDbVertex
100
AcDb2dVertex
 10
-40.7875189785184
 20
28.72331135349626
 30
0.0
  0
VERTEX
  5
6D
330
6B
100
AcDbEntity
  8
STANDARDEBENE
 62
     7
100
AcDbVertex
100
AcDb2dVertex
 10
-38.7039252290393
 20
28.72331135349626
 30
0.0
  0
SEQEND
  5
6E
330
6B
100
AcDbEntity
  8
STANDARDEBENE
  0
POLYLINE
  5
6F
330
1F
100
AcDbEntity
  8
STANDARDEBENE
 62
     7
100
AcDb2dPolyline
 66
     1
 10
0.0
 20
0.0
 30
0.0
  0
VERTEX
  5
70
330
6F
100
AcDbEntity
  8
STANDARDEBENE
 62
     7
100
AcDbVertex
100
AcDb2dVertex
 10
-36.62102049865724
 20
28.72331135349626
 30
0.0
  0
VERTEX
  5
71
330
6F
100
AcDbEntity
  8
STANDARDEBENE
 62
     7
100
AcDbVertex
100
AcDb2dVertex
 10
-34.53673773008109
 20
28.72331135349626
 30
0.0
  0
SEQEND
  5
72
330
6F
100
AcDbEntity
  8
STANDARDEBENE
  0
POLYLINE
  5
73
330
1F
100
AcDbEntity
  8
STANDARDEBENE
 62
     7
100
AcDb2dPolyline
 66
     1
 10
0.0
 20
0.0
 30
0.0
  0
VERTEX
  5
74
330
73
100
AcDbEntity
  8
STANDARDEBENE
 62
     7
100
AcDbVertex
100
AcDb2dVertex
 10
-32.45314398060199
 20
28.72331135349626
 30
0.0
  0
VERTEX
  5
75
330
73
100
AcDbEntity
  8
STANDARDEBENE
 62
     7
100
AcDbVertex
100
AcDb2dVertex
 10
-30.37092826931699
 20
28.72331135349626
 30
0.0
  0
SEQEND
  5
76
330
73
100
AcDbEntity
  8
STANDARDEBENE
  0
POLYLINE
  5
77
330
1F
100
AcDbEntity
  8
STANDARDEBENE
 62
     7
100
AcDb2dPolyline
 66
     1
 10
0.0
 20
0.0
 30
0.0
  0
VERTEX
  5
78
330
77
100
AcDbEntity
  8
STANDARDEBENE
 62
     7
100
AcDbVertex
100
AcDb2dVertex
 10
-28.28802353893494
 20
28.72331135349626
 30
0.0
  0
VERTEX
  5
79
330
77
100
AcDbEntity
  8
STANDARDEBENE
 62
     7
100
AcDbVertex
100
AcDb2dVertex
 10
-26.20442978945584
 20
28.72331135349626
 30
0.0
  0
SEQEND
  5
7A
330
77
100
AcDbEntity
  8
STANDARDEBENE
  0
POLYLINE
  5
7B
330
1F
100
AcDbEntity
  8
STANDARDEBENE
 62
     7
100
AcDb2dPolyline
 66
     1
 10
0.0
 20
0.0
 30
0.0
  0
VERTEX
  5
7C
330
7B
100
AcDbEntity
  8
STANDARDEBENE
 62
     7
100
AcDbVertex
100
AcDb2dVertex
 10
-24.12083603997674
 20
28.72331135349626
 30
0.0
  0
VERTEX
  5
7D
330
7B
100
AcDbEntity
  8
STANDARDEBENE
 62
     7
100
AcDbVertex
100
AcDb2dVertex
 10
-22.03655327140059
 20
28.72331135349626
 30
0.0
  0
SEQEND
  5
7E
330
7B
100
AcDbEntity
  8
STANDARDEBENE
  0
POLYLINE
  5
7F
330
1F
100
AcDbEntity
  8
STANDARDEBENE
 62
     7
100
AcDb2dPolyline
 66
     1
 10
0.0
 20
0.0
 30
0.0
  0
VERTEX
  5
80
330
7F
100
AcDbEntity
  8
STANDARDEBENE
 62
     7
100
AcDbVertex
100
AcDb2dVertex
 10
-19.95433756011558
 20
28.72331135349626
 30
0.0
  0
VERTEX
  5
81
330
7F
100
AcDbEntity
  8
STANDARDEBENE
 62
     7
100
AcDbVertex
100
AcDb2dVertex
 10
-18.91185166627898
 20
28.72331135349626
 30
0.0
  0
SEQEND
  5
82
330
7F
100
AcDbEntity
  8
STANDARDEBENE
  0
POLYLINE
  5
83
330
1F
100
AcDbEntity
  8
STANDARDEBENE
 62
     7
100
AcDb2dPolyline
 66
     1
 10
0.0
 20
0.0
 30
0.0
  0
VERTEX
  5
84
330
83
100
AcDbEntity
  8
STANDARDEBENE
 62
     7
100
AcDbVertex
100
AcDb2dVertex
 10
-18.91185166627898
 20
16.72266574017697
 30
0.0
  0
VERTEX
  5
85
330
83
100
AcDbEntity
  8
STANDARDEBENE
 62
     7
100
AcDbVertex
100
AcDb2dVertex
 10
-19.87372232576074
 20
16.72266574017697
 30
0.0
  0
SEQEND
  5
86
330
83
100
AcDbEntity
  8
STANDARDEBENE
  0
POLYLINE
  5
87
330
1F
100
AcDbEntity
  8
STANDARDEBENE
 62
     7
100
AcDb2dPolyline
 66
     1
 10
0.0
 20
0.0
 30
0.0
  0
VERTEX
  5
88
330
87
100
AcDbEntity
  8
STANDARDEBENE
 62
     7
100
AcDbVertex
100
AcDb2dVertex
 10
-21.79746364472425
 20
16.72266574017697
 30
0.0
  0
VERTEX
  5
89
330
87
100
AcDbEntity
  8
STANDARDEBENE
 62
     7
100
AcDbVertex
100
AcDb2dVertex
 10
-23.7191379063966
 20
16.72266574017697
 30
0.0
  0
SEQEND
  5
8A
330
87
100
AcDbEntity
  8
STANDARDEBENE
  0
POLYLINE
  5
8B
330
1F
100
AcDbEntity
  8
STANDARDEBENE
 62
     7
100
AcDb2dPolyline
 66
     1
 10
0.0
 20
0.0
 30
0.0
  0
VERTEX
  5
8C
330
8B
100
AcDbEntity
  8
STANDARDEBENE
 62
     7
100
AcDbVertex
100
AcDb2dVertex
 10
-25.64287922536012
 20
16.72266574017697
 30
0.0
  0
VERTEX
  5
8D
330
8B
100
AcDbEntity
  8
STANDARDEBENE
 62
     7
100
AcDbVertex
100
AcDb2dVertex
 10
-27.56662054432362
 20
16.72266574017697
 30
0.0
  0
SEQEND
  5
8E
330
8B
100
AcDbEntity
  8
STANDARDEBENE
  0
POLYLINE
  5
8F
330
1F
100
AcDbEntity
  8
STANDARDEBENE
 62
     7
100
AcDb2dPolyline
 66
     1
 10
0.0
 20
0.0
 30
0.0
  0
VERTEX
  5
90
330
8F
100
AcDbEntity
  8
STANDARDEBENE
 62
     7
100
AcDbVertex
100
AcDb2dVertex
 10
-29.48898382509303
 20
16.72266574017697
 30
0.0
  0
VERTEX
  5
91
330
8F
100
AcDbEntity
  8
STANDARDEBENE
 62
     7
100
AcDbVertex
100
AcDb2dVertex
 10
-31.41203612495949
 20
16.72266574017697
 30
0.0
  0
SEQEND
  5
92
330
8F
100
AcDbEntity
  8
STANDARDEBENE
  0
POLYLINE
  5
93
330
1F
100
AcDbEntity
  8
STANDARDEBENE
 62
     7
100
AcDb2dPolyline
 66
     1
 10
0.0
 20
0.0
 30
0.0
  0
VERTEX
  5
94
330
93
100
AcDbEntity
  8
STANDARDEBENE
 62
     7
100
AcDbVertex
100
AcDb2dVertex
 10
-33.33508842482595
 20
16.72266574017697
 30
0.0
  0
VERTEX
  5
95
330
93
100
AcDbEntity
  8
STANDARDEBENE
 62
     7
100
AcDbVertex
100
AcDb2dVertex
 10
-35.25814072469241
 20
16.72266574017697
 30
0.0
  0
SEQEND
  5
96
330
93
100
AcDbEntity
  8
STANDARDEBENE
  0
POLYLINE
  5
97
330
1F
100
AcDbEntity
  8
STANDARDEBENE
 62
     7
100
AcDb2dPolyline
 66
     1
 10
0.0
 20
0.0
 30
0.0
  0
VERTEX
  5
98
330
97
100
AcDbEntity
  8
STANDARDEBENE
 62
     7
100
AcDbVertex
100
AcDb2dVertex
 10
-37.18119302455887
 20
16.72266574017697
 30
0.0
  0
VERTEX
  5
99
330
97
100
AcDbEntity
  8
STANDARDEBENE
 62
     7
100
AcDbVertex
100
AcDb2dVertex
 10
-39.10493434352238
 20
16.72266574017697
 30
0.0
  0
SEQEND
  5
9A
330
97
100
AcDbEntity
  8
STANDARDEBENE
  0
POLYLINE
  5
9B
330
1F
100
AcDbEntity
  8
STANDARDEBENE
 62
     7
100
AcDb2dPolyline
 66
     1
 10
0.0
 20
0.0
 30
0.0
  0
VERTEX
  5
9C
330
9B
100
AcDbEntity
  8
STANDARDEBENE
 62
     7
100
AcDbVertex
100
AcDb2dVertex
 10
-41.02798664338884
 20
16.72266574017697
 30
0.0
  0
VERTEX
  5
9D
330
9B
100
AcDbEntity
  8
STANDARDEBENE
 62
     7
100
AcDbVertex
100
AcDb2dVertex
 10
-42.95172796235235
 20
16.72266574017697
 30
0.0
  0
SEQEND
  5
9E
330
9B
100
AcDbEntity
  8
STANDARDEBENE
  0
POLYLINE
  5
9F
330
1F
100
AcDbEntity
  8
STANDARDEBENE
 62
     7
100
AcDb2dPolyline
 66
     1
 10
0.0
 20
0.0
 30
0.0
  0
VERTEX
  5
A0
330
9F
100
AcDbEntity
  8
STANDARDEBENE
 62
     7
100
AcDbVertex
100
AcDb2dVertex
 10
-44.87409124312175
 20
16.72266574017697
 30
0.0
  0
VERTEX
  5
A1
330
9F
100
AcDbEntity
  8
STANDARDEBENE
 62
     7
100
AcDbVertex
100
AcDb2dVertex
 10
-46.79783256208527
 20
16.72266574017697
 30
0.0
  0
SEQEND
  5
A2
330
9F
100
AcDbEntity
  8
STANDARDEBENE
  0
POLYLINE
  5
A3
330
1F
100
AcDbEntity
  8
STANDARDEBENE
 62
     7
100
AcDb2dPolyline
 66
     1
 10
0.0
 20
0.0
 30
0.0
  0
VERTEX
  5
A4
330
A3
100
AcDbEntity
  8
STANDARDEBENE
 62
     7
100
AcDbVertex
100
AcDb2dVertex
 10
-48.71950682375763
 20
16.72266574017697
 30
0.0
  0
VERTEX
  5
A5
330
A3
100
AcDbEntity
  8
STANDARDEBENE
 62
     7
100
AcDbVertex
100
AcDb2dVertex
 10
-50.64255912362408
 20
16.72266574017697
 30
0.0
  0
SEQEND
  5
A6
330
A3
100
AcDbEntity
  8
STANDARDEBENE
  0
POLYLINE
  5
A7
330
1F
100
AcDbEntity
  8
STANDARDEBENE
 62
     7
100
AcDb2dPolyline
 66
     1
 10
0.0
 20
0.0
 30
0.0
  0
VERTEX
  5
A8
330
A7
100
AcDbEntity
  8
STANDARDEBENE
 62
     7
100
AcDbVertex
100
AcDb2dVertex
 10
-52.56561142349054
 20
16.72266574017697
 30
0.0
  0
VERTEX
  5
A9
330
A7
100
AcDbEntity
  8
STANDARDEBENE
 62
     7
100
AcDbVertex
100
AcDb2dVertex
 10
-54.488663723357
 20
16.72266574017697
 30
0.0
  0
SEQEND
  5
AA
330
A7
100
AcDbEntity
  8
STANDARDEBENE
  0
POLYLINE
  5
AB
330
1F
100
AcDbEntity
  8
STANDARDEBENE
 62
     7
100
AcDb2dPolyline
 66
     1
 10
0.0
 20
0.0
 30
0.0
  0
VERTEX
  5
AC
330
AB
100
AcDbEntity
  8
STANDARDEBENE
 62
     7
100
AcDbVertex
100
AcDb2dVertex
 10
-56.41171602322346
 20
16.72266574017697
 30
0.0
  0
VERTEX
  5
AD
330
AB
100
AcDbEntity
  8
STANDARDEBENE
 62
     7
100
AcDbVertex
100
AcDb2dVertex
 10
-58.33476832308992
 20
16.72266574017697
 30
0.0
  0
SEQEND
  5
AE
330
AB
100
AcDbEntity
  8
STANDARDEBENE
  0
POLYLINE
  5
AF
330
1F
100
AcDbEntity
  8
STANDARDEBENE
 62
     7
100
AcDb2dPolyline
 66
     1
 10
0.0
 20
0.0
 30
0.0
  0
VERTEX
  5
B0
330
AF
100
AcDbEntity
  8
STANDARDEBENE
 62
     7
100
AcDbVertex
100
AcDb2dVertex
 10
-60.25782062295638
 20
16.72266574017697
 30
0.0
  0
VERTEX
  5
B1
330
AF
100
AcDbEntity
  8
STANDARDEBENE
 62
     7
100
AcDbVertex
100
AcDb2dVertex
 10
-62.18156194191989
 20
16.72266574017697
 30
0.0
  0
SEQEND
  5
B2
330
AF
100
AcDbEntity
  8
STANDARDEBENE
  0
POLYLINE
  5
B3
330
1F
100
AcDbEntity
  8
STANDARDEBENE
 62
     7
100
AcDb2dPolyline
 66
     1
 10
0.0
 20
0.0
 30
0.0
  0
VERTEX
  5
B4
330
B3
100
AcDbEntity
  8
STANDARDEBENE
 62
     7
100
AcDbVertex
100
AcDb2dVertex
 10
-64.10461424178635
 20
16.72266574017697
 30
0.0
  0
VERTEX
  5
B5
330
B3
100
AcDbEntity
  8
STANDARDEBENE
 62
     7
100
AcDbVertex
100
AcDb2dVertex
 10
-66.02835556074986
 20
16.72266574017697
 30
0.0
  0
SEQEND
  5
B6
330
B3
100
AcDbEntity
  8
STANDARDEBENE
  0
POLYLINE
  5
B7
330
1F
100
AcDbEntity
  8
STANDARDEBENE
 62
     7
100
AcDb2dPolyline
 66
     1
 10
0.0
 20
0.0
 30
0.0
  0
VERTEX
  5
B8
330
B7
100
AcDbEntity
  8
STANDARDEBENE
 62
     7
100
AcDbVertex
100
AcDb2dVertex
 10
-67.95071884151926
 20
16.72266574017697
 30
0.0
  0
VERTEX
  5
B9
330
B7
100
AcDbEntity
  8
STANDARDEBENE
 62
     7
100
AcDbVertex
100
AcDb2dVertex
 10
-68.91121146280692
 20
16.72266574017697
 30
0.0
  0
SEQEND
  5
BA
330
B7
100
AcDbEntity
  8
STANDARDEBENE
  0
POLYLINE
  5
BB
330
1F
100
AcDbEntity
  8
STANDARDEBENE
 62
     7
100
AcDb2dPolyline
 66
     1
 10
0.0
 20
0.0
 30
0.0
  0
VERTEX
  5
BC
330
BB
100
AcDbEntity
  8
STANDARDEBENE
 62
     7
100
AcDbVertex
100
AcDb2dVertex
 10
-64.15215655948279
 20
28.12937689183919
 30
0.0
  0
VERTEX
  5
BD
330
BB
100
AcDbEntity
  8
STANDARDEBENE
 62
     7
100
AcDbVertex
100
AcDb2dVertex
 10
-64.15215655948279
 20
17.315911182737
 30
0.0
  0
SEQEND
  5
BE
330
BB
100
AcDbEntity
  8
STANDARDEBENE
  0
POLYLINE
  5
BF
330
1F
100
AcDbEntity
  8
STANDARDEBENE
  6
AI-LINETYPE-1
 62
     7
100
AcDb2dPolyline
 66
     1
 10
0.0
 20
0.0
 30
0.0
  0
VERTEX
  5
C0
330
BF
100
AcDbEntity
  8
STANDARDEBENE
  6
AI-LINETYPE-1
 62
     7
100
AcDbVertex
100
AcDb2dVertex
 10
-16.00143500033992
 20
22.72264403728809
 30
0.0
  0
VERTEX
  5
C1
330
BF
100
AcDbEntity
  8
STANDARDEBENE
  6
AI-LINETYPE-1
 62
     7
100
AcDbVertex
100
AcDb2dVertex
 10
-71.16637096745147
 20
22.72264403728809
 30
0.0
  0
SEQEND
  5
C2
330
BF
100
AcDbEntity
  8
STANDARDEBENE
  6
AI-LINETYPE-1
  0
POLYLINE
  5
C4
330
1F
100
AcDbEntity
  8
STANDARDEBENE
 62
     7
100
AcDb2dPolyline
 66
     1
 10
0.0
 20
0.0
 30
0.0
  0
VERTEX
  5
C5
330
C4
100
AcDbEntity
  8
STANDARDEBENE
 62
     7
100
AcDbVertex
100
AcDb2dVertex
 10
-68.91121146280692
 20
6.722931584690795
 30
0.0
  0
VERTEX
  5
C6
330
C4
100
AcDbEntity
  8
STANDARDEBENE
 62
     7
100
AcDbVertex
100
AcDb2dVertex
 10
-64.91214462352892
 20
6.722931584690795
 30
0.0
  0
SEQEND
  5
C7
330
C4
100
AcDbEntity
  8
STANDARDEBENE
  0
POLYLINE
  5
C8
330
1F
100
AcDbEntity
  8
STANDARDEBENE
 62
     7
100
AcDb2dPolyline
 66
     1
 10
0.0
 20
0.0
 30
0.0
  0
VERTEX
  5
C9
330
C8
100
AcDbEntity
  8
STANDARDEBENE
 62
     7
100
AcDbVertex
100
AcDb2dVertex
 10
-64.91214462352892
 20
38.72304550898244
 30
0.0
  0
VERTEX
  5
CA
330
C8
100
AcDbEntity
  8
STANDARDEBENE
 62
     7
100
AcDbVertex
100
AcDb2dVertex
 10
-68.91121146280692
 20
38.72304550898244
 30
0.0
  0
SEQEND
  5
CB
330
C8
100
AcDbEntity
  8
STANDARDEBENE
  0
POLYLINE
  5
CC
330
1F
100
AcDbEntity
  8
STANDARDEBENE
 62
     7
100
AcDb2dPolyline
 66
     1
 10
0.0
 20
0.0
 30
0.0
  0
VERTEX
  5
CD
330
CC
100
AcDbEntity
  8
STANDARDEBENE
 62
     7
100
AcDbVertex
100
AcDb2dVertex
 10
-61.91284449407041
 20
10.72337646216291
 30
0.0
  0
VERTEX
  5
CE
330
CC
100
AcDbEntity
  8
STANDARDEBENE
 62
     7
100
AcDbVertex
100
AcDb2dVertex
 10
-19.91230739519554
 20
10.72337646216291
 30
0.0
  0
SEQEND
  5
CF
330
CC
100
AcDbEntity
  8
STANDARDEBENE
  0
POLYLINE
  5
D0
330
1F
100
AcDbEntity
  8
STANDARDEBENE
 62
     7
100
AcDb2dPolyline
 66
     1
 10
0.0
 20
0.0
 30
0.0
  0
VERTEX
  5
D1
330
D0
100
AcDbEntity
  8
STANDARDEBENE
 62
     7
100
AcDbVertex
100
AcDb2dVertex
 10
-19.91230739519554
 20
34.72397866970442
 30
0.0
  0
VERTEX
  5
D2
330
D0
100
AcDbEntity
  8
STANDARDEBENE
 62
     7
100
AcDbVertex
100
AcDb2dVertex
 10
-61.91284449407041
 20
34.72397866970442
 30
0.0
  0
VERTEX
  5
D3
330
D0
100
AcDbEntity
  8
STANDARDEBENE
 62
     7
100
AcDbVertex
100
AcDb2dVertex
 10
-64.05087075221645
 20
34.1500257618618
 30
0.0
  0
SEQEND
  5
D4
330
D0
100
AcDbEntity
  8
STANDARDEBENE
  0
POLYLINE
  5
D5
330
1F
100
AcDbEntity
  8
STANDARDEBENE
 62
     7
100
AcDb2dPolyline
 66
     1
 10
0.0
 20
0.0
 30
0.0
  0
VERTEX
  5
D6
330
D5
100
AcDbEntity
  8
STANDARDEBENE
 62
     7
100
AcDbVertex
100
AcDb2dVertex
 10
-64.05087075221645
 20
11.29664035090848
 30
0.0
  0
VERTEX
  5
D7
330
D5
100
AcDbEntity
  8
STANDARDEBENE
 62
     7
100
AcDbVertex
100
AcDb2dVertex
 10
-61.91284449407041
 20
10.72337646216291
 30
0.0
  0
SEQEND
  5
D8
330
D5
100
AcDbEntity
  8
STANDARDEBENE
  0
POLYLINE
  5
D9
330
1F
100
AcDbEntity
  8
STANDARDEBENE
 62
     7
100
AcDb2dPolyline
 66
     1
 10
0.0
 20
0.0
 30
0.0
  0
VERTEX
  5
DA
330
D9
100
AcDbEntity
  8
STANDARDEBENE
 62
     7
100
AcDbVertex
100
AcDb2dVertex
 10
-19.91230739519554
 20
10.72337646216291
 30
0.0
  0
VERTEX
  5
DB
330
D9
100
AcDbEntity
  8
STANDARDEBENE
 62
     7
100
AcDbVertex
100
AcDb2dVertex
 10
-18.91185166627898
 20
11.72245415288536
 30
0.0
  0
SEQEND
  5
DC
330
D9
100
AcDbEntity
  8
STANDARDEBENE
  0
POLYLINE
  5
DD
330
1F
100
AcDbEntity
  8
STANDARDEBENE
 62
     7
100
AcDb2dPolyline
 66
     1
 10
0.0
 20
0.0
 30
0.0
  0
VERTEX
  5
DE
330
DD
100
AcDbEntity
  8
STANDARDEBENE
 62
     7
100
AcDbVertex
100
AcDb2dVertex
 10
-18.91185166627898
 20
33.72283392169082
 30
0.0
  0
VERTEX
  5
DF
330
DD
100
AcDbEntity
  8
STANDARDEBENE
 62
     7
100
AcDbVertex
100
AcDb2dVertex
 10
-19.91230739519554
 20
34.72397866970442
 30
0.0
  0
SEQEND
  5
E0
330
DD
100
AcDbEntity
  8
STANDARDEBENE
  0
POLYLINE
  5
E1
330
1F
100
AcDbEntity
  8
STANDARDEBENE
 62
     7
100
AcDb2dPolyline
 66
     1
 10
0.0
 20
0.0
 30
0.0
  0
VERTEX
  5
E2
330
E1
100
AcDbEntity
  8
STANDARDEBENE
 62
     7
100
AcDbVertex
100
AcDb2dVertex
 10
-64.77640786141006
 20
11.32420111479048
 30
0.0
  0
VERTEX
  5
E3
330
E1
100
AcDbEntity
  8
STANDARDEBENE
 62
     7
100
AcDbVertex
100
AcDb2dVertex
 10
-64.25757648133144
 20
11.32420111479048
 30
0.0
  0
SEQEND
  5
E4
330
E1
100
AcDbEntity
  8
STANDARDEBENE
  0
POLYLINE
  5
E5
330
1F
100
AcDbEntity
  8
STANDARDEBENE
 62
     7
100
AcDb2dPolyline
 66
     1
 10
0.0
 20
0.0
 30
0.0
  0
VERTEX
  5
E6
330
E5
100
AcDbEntity
  8
STANDARDEBENE
 62
     7
100
AcDbVertex
100
AcDb2dVertex
 10
-64.25757648133144
 20
34.12315401707685
 30
0.0
  0
VERTEX
  5
E7
330
E5
100
AcDbEntity
  8
STANDARDEBENE
 62
     7
100
AcDbVertex
100
AcDb2dVertex
 10
-64.77640786141006
 20
34.12315401707685
 30
0.0
  0
SEQEND
  5
E8
330
E5
100
AcDbEntity
  8
STANDARDEBENE
  0
SPLINE
  5
E9
330
1F
100
AcDbEntity
  8
STANDARDEBENE
 62
     7
100
AcDbSpline
210
0.0
220
0.0
230
1.0
 70
     8
 71
     3
 72
     8
 73
     4
 74
     0
 42
0.0000000001
 43
0.0000000001
 40
0.0
 40
0.0
 40
0.0
 40
0.0
 40
1.0
 40
1.0
 40
1.0
 40
1.0
 10
-64.91214462352892
 20
34.13417832262965
 30
0.0
 10
-64.86391328673541
 20
34.12728813165915
 30
0.0
 10
-64.81705998813601
 20
34.12315401707685
 30
0.0
 10
-64.77640786141006
 20
34.12315401707685
 30
0.0
  0
SPLINE
  5
EA
330
1F
100
AcDbEntity
  8
STANDARDEBENE
 62
     7
100
AcDbSpline
210
0.0
220
0.0
230
1.0
 70
     8
 71
     3
 72
     8
 73
     4
 74
     0
 42
0.0000000001
 43
0.0000000001
 40
0.0
 40
0.0
 40
0.0
 40
0.0
 40
1.0
 40
1.0
 40
1.0
 40
1.0
 10
-64.77640786141006
 20
11.32420111479048
 30
0.0
 10
-64.82326116000947
 20
11.32420111479048
 30
0.0
 10
-64.87149249680296
 20
11.31799994291703
 30
0.0
 10
-64.91214462352892
 20
11.31110975194653
 30
0.0
  0
SPLINE
  5
EB
330
1F
100
AcDbEntity
  8
STANDARDEBENE
 62
     7
100
AcDbSpline
210
0.0
220
0.0
230
1.0
 70
     8
 71
     3
 72
     8
 73
     4
 74
     0
 42
0.0000000001
 43
0.0000000001
 40
0.0
 40
0.0
 40
0.0
 40
0.0
 40
1.0
 40
1.0
 40
1.0
 40
1.0
 10
-64.25757648133144
 20
34.12315401707685
 30
0.0
 10
-64.18316241885005
 20
34.12315401707685
 30
0.0
 10
-64.1121934518539
 20
34.1334893035326
 30
0.0
 10
-64.05087075221645
 20
34.1500257618618
 30
0.0
  0
SPLINE
  5
EC
330
1F
100
AcDbEntity
  8
STANDARDEBENE
 62
     7
100
AcDbSpline
210
0.0
220
0.0
230
1.0
 70
     8
 71
     3
 72
     8
 73
     4
 74
     0
 42
0.0000000001
 43
0.0000000001
 40
0.0
 40
0.0
 40
0.0
 40
0.0
 40
1.0
 40
1.0
 40
1.0
 40
1.0
 10
-64.05087075221645
 20
11.29664035090848
 30
0.0
 10
-64.12115070011555
 20
11.31455484743178
 30
0.0
 10
-64.19280868620875
 20
11.32420111479048
 30
0.0
 10
-64.25757648133144
 20
11.32420111479048
 30
0.0
  0
POLYLINE
  5
ED
330
1F
100
AcDbEntity
  8
STANDARDEBENE
 62
     7
100
AcDb2dPolyline
 66
     1
 10
0.0
 20
0.0
 30
0.0
  0
VERTEX
  5
EE
330
ED
100
AcDbEntity
  8
STANDARDEBENE
 62
     7
100
AcDbVertex
100
AcDb2dVertex
 10
-52.41264918394545
 20
14.22359347517674
 30
0.0
  0
VERTEX
  5
EF
330
ED
100
AcDbEntity
  8
STANDARDEBENE
 62
     7
100
AcDbVertex
100
AcDb2dVertex
 10
-31.41203612495949
 20
14.22359347517674
 30
0.0
  0
VERTEX
  5
F0
330
ED
100
AcDbEntity
  8
STANDARDEBENE
 62
     7
100
AcDbVertex
100
AcDb2dVertex
 10
-30.81810166330242
 20
14.24426404808824
 30
0.0
  0
VERTEX
  5
F1
330
ED
100
AcDbEntity
  8
STANDARDEBENE
 62
     7
100
AcDbVertex
100
AcDb2dVertex
 10
-29.62196451082368
 20
14.41445176505958
 30
0.0
  0
VERTEX
  5
F2
330
ED
100
AcDbEntity
  8
STANDARDEBENE
 62
     7
100
AcDbVertex
100
AcDb2dVertex
 10
-29.033542201943
 20
14.56327989002238
 30
0.0
  0
VERTEX
  5
F3
330
ED
100
AcDbEntity
  8
STANDARDEBENE
 62
     7
100
AcDbVertex
100
AcDb2dVertex
 10
-28.48921711527353
 20
14.74173583615832
 30
0.0
  0
VERTEX
  5
F4
330
ED
100
AcDbEntity
  8
STANDARDEBENE
 62
     7
100
AcDbVertex
100
AcDb2dVertex
 10
-27.44604220233988
 20
15.20544568847295
 30
0.0
  0
VERTEX
  5
F5
330
ED
100
AcDbEntity
  8
STANDARDEBENE
 62
     7
100
AcDbVertex
100
AcDb2dVertex
 10
-26.95201550975505
 20
15.48725449916638
 30
0.0
  0
VERTEX
  5
F6
330
ED
100
AcDbEntity
  8
STANDARDEBENE
 62
     7
100
AcDbVertex
100
AcDb2dVertex
 10
-26.41113551857083
 20
15.84967854421467
 30
0.0
  0
VERTEX
  5
F7
330
ED
100
AcDbEntity
  8
STANDARDEBENE
 62
     7
100
AcDbVertex
100
AcDb2dVertex
 10
-25.8978162912686
 20
16.25551079237709
 30
0.0
  0
VERTEX
  5
F8
330
ED
100
AcDbEntity
  8
STANDARDEBENE
 62
     7
100
AcDbVertex
100
AcDb2dVertex
 10
-25.40999077055723
 20
16.70406222455662
 30
0.0
  0
VERTEX
  5
F9
330
ED
100
AcDbEntity
  8
STANDARDEBENE
 62
     7
100
AcDbVertex
100
AcDb2dVertex
 10
-24.9545491474072
 20
17.1960218598503
 30
0.0
  0
VERTEX
  5
FA
330
ED
100
AcDbEntity
  8
STANDARDEBENE
 62
     7
100
AcDbVertex
100
AcDb2dVertex
 10
-24.48532714231617
 20
17.79753553157492
 30
0.0
  0
VERTEX
  5
FB
330
ED
100
AcDbEntity
  8
STANDARDEBENE
 62
     7
100
AcDbVertex
100
AcDb2dVertex
 10
-24.06433647401864
 20
18.45210367377239
 30
0.0
  0
VERTEX
  5
FC
330
ED
100
AcDbEntity
  8
STANDARDEBENE
 62
     7
100
AcDbVertex
100
AcDb2dVertex
 10
-23.69088812341756
 20
19.16937255380141
 30
0.0
  0
VERTEX
  5
FD
330
ED
100
AcDbEntity
  8
STANDARDEBENE
 62
     7
100
AcDbVertex
100
AcDb2dVertex
 10
-23.38151854884212
 20
19.93831786610917
 30
0.0
  0
VERTEX
  5
FE
330
ED
100
AcDbEntity
  8
STANDARDEBENE
 62
     7
100
AcDbVertex
100
AcDb2dVertex
 10
-23.20995279367668
 20
20.49642333471964
 30
0.0
  0
VERTEX
  5
FF
330
ED
100
AcDbEntity
  8
STANDARDEBENE
 62
     7
100
AcDbVertex
100
AcDb2dVertex
 10
-22.97775335797084
 20
21.67051187609279
 30
0.0
  0
VERTEX
  5
100
330
ED
100
AcDbEntity
  8
STANDARDEBENE
 62
     7
100
AcDbVertex
100
AcDb2dVertex
 10
-22.92400986840094
 20
22.28304985337021
 30
0.0
  0
VERTEX
  5
101
330
ED
100
AcDbEntity
  8
STANDARDEBENE
 62
     7
100
AcDbVertex
100
AcDb2dVertex
 10
-22.91436360104224
 20
22.87767333412433
 30
0.0
  0
VERTEX
  5
102
330
ED
100
AcDbEntity
  8
STANDARDEBENE
 62
     7
100
AcDbVertex
100
AcDb2dVertex
 10
-23.02047254198794
 20
24.08207871576768
 30
0.0
  0
VERTEX
  5
103
330
ED
100
AcDbEntity
  8
STANDARDEBENE
 62
     7
100
AcDbVertex
100
AcDb2dVertex
 10
-23.14173990306873
 20
24.68290336839525
 30
0.0
  0
VERTEX
  5
104
330
ED
100
AcDbEntity
  8
STANDARDEBENE
 62
     7
100
AcDbVertex
100
AcDb2dVertex
 10
-23.29194606622563
 20
25.23549668422932
 30
0.0
  0
VERTEX
  5
105
330
ED
100
AcDbEntity
  8
STANDARDEBENE
 62
     7
100
AcDbVertex
100
AcDb2dVertex
 10
-23.70466850535855
 20
26.30692138014202
 30
0.0
  0
VERTEX
  5
106
330
ED
100
AcDbEntity
  8
STANDARDEBENE
 62
     7
100
AcDbVertex
100
AcDb2dVertex
 10
-23.96373968584934
 20
26.81886256925015
 30
0.0
  0
VERTEX
  5
107
330
ED
100
AcDbEntity
  8
STANDARDEBENE
 62
     7
100
AcDbVertex
100
AcDb2dVertex
 10
-24.28068847049233
 20
27.34734021668747
 30
0.0
  0
VERTEX
  5
108
330
ED
100
AcDbEntity
  8
STANDARDEBENE
 62
     7
100
AcDbVertex
100
AcDb2dVertex
 10
-25.02345105711219
 20
28.32919242998367
 30
0.0
  0
VERTEX
  5
109
330
ED
100
AcDbEntity
  8
STANDARDEBENE
 62
     7
100
AcDbVertex
100
AcDb2dVertex
 10
-25.44719780179792
 20
28.77774386216321
 30
0.0
  0
VERTEX
  5
10A
330
ED
100
AcDbEntity
  8
STANDARDEBENE
 62
     7
100
AcDbVertex
100
AcDb2dVertex
 10
-25.9708523155559
 20
29.25316703912768
 30
0.0
  0
VERTEX
  5
10B
330
ED
100
AcDbEntity
  8
STANDARDEBENE
 62
     7
100
AcDbVertex
100
AcDb2dVertex
 10
-26.53722601333097
 20
29.68587103207506
 30
0.0
  0
VERTEX
  5
10C
330
ED
100
AcDbEntity
  8
STANDARDEBENE
 62
     7
100
AcDbVertex
100
AcDb2dVertex
 10
-27.15114202880249
 20
30.07723387919944
 30
0.0
  0
VERTEX
  5
10D
330
ED
100
AcDbEntity
  8
STANDARDEBENE
 62
     7
100
AcDbVertex
100
AcDb2dVertex
 10
-27.80846624738816
 20
30.42174342772443
 30
0.0
  0
VERTEX
  5
10E
330
ED
100
AcDbEntity
  8
STANDARDEBENE
 62
     7
100
AcDbVertex
100
AcDb2dVertex
 10
-28.32247449378744
 20
30.64154051968337
 30
0.0
  0
VERTEX
  5
10F
330
ED
100
AcDbEntity
  8
STANDARDEBENE
 62
     7
100
AcDbVertex
100
AcDb2dVertex
 10
-29.42559406816444
 20
30.98742810640245
 30
0.0
  0
VERTEX
  5
110
330
ED
100
AcDbEntity
  8
STANDARDEBENE
 62
     7
100
AcDbVertex
100
AcDb2dVertex
 10
-30.01194931975396
 20
31.1080064483862
 30
0.0
  0
VERTEX
  5
111
330
ED
100
AcDbEntity
  8
STANDARDEBENE
 62
     7
100
AcDbVertex
100
AcDb2dVertex
 10
-30.70303547409507
 20
31.19275579732334
 30
0.0
  0
VERTEX
  5
112
330
ED
100
AcDbEntity
  8
STANDARDEBENE
 62
     7
100
AcDbVertex
100
AcDb2dVertex
 10
-31.41203612495949
 20
31.22307263759354
 30
0.0
  0
VERTEX
  5
113
330
ED
100
AcDbEntity
  8
STANDARDEBENE
 62
     7
100
AcDbVertex
100
AcDb2dVertex
 10
-52.41264918394545
 20
31.22307263759354
 30
0.0
  0
VERTEX
  5
114
330
ED
100
AcDbEntity
  8
STANDARDEBENE
 62
     7
100
AcDbVertex
100
AcDb2dVertex
 10
-53.00658364560253
 20
31.20240206468204
 30
0.0
  0
VERTEX
  5
115
330
ED
100
AcDbEntity
  8
STANDARDEBENE
 62
     7
100
AcDbVertex
100
AcDb2dVertex
 10
-54.20272079808127
 20
31.0335923859048
 30
0.0
  0
VERTEX
  5
116
330
ED
100
AcDbEntity
  8
STANDARDEBENE
 62
     7
100
AcDbVertex
100
AcDb2dVertex
 10
-54.79114310696194
 20
30.88338622274791
 30
0.0
  0
VERTEX
  5
117
330
ED
100
AcDbEntity
  8
STANDARDEBENE
 62
     7
100
AcDbVertex
100
AcDb2dVertex
 10
-55.33615721272847
 20
30.70424125751491
 30
0.0
  0
VERTEX
  5
118
330
ED
100
AcDbEntity
  8
STANDARDEBENE
 62
     7
100
AcDbVertex
100
AcDb2dVertex
 10
-56.37726506837097
 20
30.24190944339438
 30
0.0
  0
VERTEX
  5
119
330
ED
100
AcDbEntity
  8
STANDARDEBENE
 62
     7
100
AcDbVertex
100
AcDb2dVertex
 10
-56.87266979914989
 20
29.95872259450685
 30
0.0
  0
VERTEX
  5
11A
330
ED
100
AcDbEntity
  8
STANDARDEBENE
 62
     7
100
AcDbVertex
100
AcDb2dVertex
 10
-57.41492782852821
 20
29.59560953036151
 30
0.0
  0
VERTEX
  5
11B
330
ED
100
AcDbEntity
  8
STANDARDEBENE
 62
     7
100
AcDbVertex
100
AcDb2dVertex
 10
-57.92755803673339
 20
29.19115532039319
 30
0.0
  0
VERTEX
  5
11C
330
ED
100
AcDbEntity
  8
STANDARDEBENE
 62
     7
100
AcDbVertex
100
AcDb2dVertex
 10
-58.41469453834772
 20
28.74191486911661
 30
0.0
  0
VERTEX
  5
11D
330
ED
100
AcDbEntity
  8
STANDARDEBENE
 62
     7
100
AcDbVertex
100
AcDb2dVertex
 10
-58.86944714240069
 20
28.25064425291998
 30
0.0
  0
VERTEX
  5
11E
330
ED
100
AcDbEntity
  8
STANDARDEBENE
 62
     7
100
AcDbVertex
100
AcDb2dVertex
 10
-59.33935816658877
 20
27.64844156209831
 30
0.0
  0
VERTEX
  5
11F
330
ED
100
AcDbEntity
  8
STANDARDEBENE
 62
     7
100
AcDbVertex
100
AcDb2dVertex
 10
-59.7603488348863
 20
26.99594047719199
 30
0.0
  0
VERTEX
  5
120
330
ED
100
AcDbEntity
  8
STANDARDEBENE
 62
     7
100
AcDbVertex
100
AcDb2dVertex
 10
-60.13310816639034
 20
26.27729355896887
 30
0.0
  0
VERTEX
  5
121
330
ED
100
AcDbEntity
  8
STANDARDEBENE
 62
     7
100
AcDbVertex
100
AcDb2dVertex
 10
-60.44316676006282
 20
25.50765922756406
 30
0.0
  0
VERTEX
  5
122
330
ED
100
AcDbEntity
  8
STANDARDEBENE
 62
     7
100
AcDbVertex
100
AcDb2dVertex
 10
-60.61473251522826
 20
24.95093179714769
 30
0.0
  0
VERTEX
  5
123
330
ED
100
AcDbEntity
  8
STANDARDEBENE
 62
     7
100
AcDbVertex
100
AcDb2dVertex
 10
-60.84693195093411
 20
23.77615423667749
 30
0.0
  0
VERTEX
  5
124
330
ED
100
AcDbEntity
  8
STANDARDEBENE
 62
     7
100
AcDbVertex
100
AcDb2dVertex
 10
-60.90136445960105
 20
23.16292724030302
 30
0.0
  0
VERTEX
  5
125
330
ED
100
AcDbEntity
  8
STANDARDEBENE
 62
     7
100
AcDbVertex
100
AcDb2dVertex
 10
-60.9103217078627
 20
22.56899277864595
 30
0.0
  0
VERTEX
  5
126
330
ED
100
AcDbEntity
  8
STANDARDEBENE
 62
     7
100
AcDbVertex
100
AcDb2dVertex
 10
-60.80352374781995
 20
21.36458739700261
 30
0.0
  0
VERTEX
  5
127
330
ED
100
AcDbEntity
  8
STANDARDEBENE
 62
     7
100
AcDbVertex
100
AcDb2dVertex
 10
-60.68294540583621
 20
20.76445176347208
 30
0.0
  0
VERTEX
  5
128
330
ED
100
AcDbEntity
  8
STANDARDEBENE
 62
     7
100
AcDbVertex
100
AcDb2dVertex
 10
-60.53342826177636
 20
20.21185844763801
 30
0.0
  0
VERTEX
  5
129
330
ED
100
AcDbEntity
  8
STANDARDEBENE
 62
     7
100
AcDbVertex
100
AcDb2dVertex
 10
-60.11932778444934
 20
19.14043375172531
 30
0.0
  0
VERTEX
  5
12A
330
ED
100
AcDbEntity
  8
STANDARDEBENE
 62
     7
100
AcDbVertex
100
AcDb2dVertex
 10
-59.8609456230556
 20
18.62780354352013
 30
0.0
  0
VERTEX
  5
12B
330
ED
100
AcDbEntity
  8
STANDARDEBENE
 62
     7
100
AcDbVertex
100
AcDb2dVertex
 10
-59.54468585750966
 20
18.09863687698576
 30
0.0
  0
VERTEX
  5
12C
330
ED
100
AcDbEntity
  8
STANDARDEBENE
 62
     7
100
AcDbVertex
100
AcDb2dVertex
 10
-58.80261228998685
 20
17.11747368278661
 30
0.0
  0
VERTEX
  5
12D
330
ED
100
AcDbEntity
  8
STANDARDEBENE
 62
     7
100
AcDbVertex
100
AcDb2dVertex
 10
-58.37886554530112
 20
16.66754421241298
 30
0.0
  0
VERTEX
  5
12E
330
ED
100
AcDbEntity
  8
STANDARDEBENE
 62
     7
100
AcDbVertex
100
AcDb2dVertex
 10
-57.85314397425199
 20
16.19281005454555
 30
0.0
  0
VERTEX
  5
12F
330
ED
100
AcDbEntity
  8
STANDARDEBENE
 62
     7
100
AcDbVertex
100
AcDb2dVertex
 10
-57.28745929557397
 20
15.76148409979227
 30
0.0
  0
VERTEX
  5
130
330
ED
100
AcDbEntity
  8
STANDARDEBENE
 62
     7
100
AcDbVertex
100
AcDb2dVertex
 10
-56.6728542610054
 20
15.36805419537674
 30
0.0
  0
VERTEX
  5
131
330
ED
100
AcDbEntity
  8
STANDARDEBENE
 62
     7
100
AcDbVertex
100
AcDb2dVertex
 10
-56.01690808061383
 20
15.0256117041429
 30
0.0
  0
VERTEX
  5
132
330
ED
100
AcDbEntity
  8
STANDARDEBENE
 62
     7
100
AcDbVertex
100
AcDb2dVertex
 10
-55.50221081511751
 20
14.80512559308691
 30
0.0
  0
VERTEX
  5
133
330
ED
100
AcDbEntity
  8
STANDARDEBENE
 62
     7
100
AcDbVertex
100
AcDb2dVertex
 10
-54.39978025983756
 20
14.45854898727078
 30
0.0
  0
VERTEX
  5
134
330
ED
100
AcDbEntity
  8
STANDARDEBENE
 62
     7
100
AcDbVertex
100
AcDb2dVertex
 10
-53.81204697005393
 20
14.33934868348114
 30
0.0
  0
VERTEX
  5
135
330
ED
100
AcDbEntity
  8
STANDARDEBENE
 62
     7
100
AcDbVertex
100
AcDb2dVertex
 10
-53.12164983480987
 20
14.25253227725284
 30
0.0
  0
VERTEX
  5
136
330
ED
100
AcDbEntity
  8
STANDARDEBENE
 62
     7
100
AcDbVertex
100
AcDb2dVertex
 10
-52.41264918394545
 20
14.22359347517674
 30
0.0
  0
SEQEND
  5
137
330
ED
100
AcDbEntity
  8
STANDARDEBENE
  0
POLYLINE
  5
138
330
1F
100
AcDbEntity
  8
STANDARDEBENE
 62
     7
100
AcDb2dPolyline
 66
     1
 10
0.0
 20
0.0
 30
0.0
  0
VERTEX
  5
139
330
138
100
AcDbEntity
  8
STANDARDEBENE
 62
     7
100
AcDbVertex
100
AcDb2dVertex
 10
-19.91230739519554
 20
10.72337646216291
 30
0.0
  0
VERTEX
  5
13A
330
138
100
AcDbEntity
  8
STANDARDEBENE
 62
     7
100
AcDbVertex
100
AcDb2dVertex
 10
-19.91230739519554
 20
10.92801513398675
 30
0.0
  0
VERTEX
  5
13B
330
138
100
AcDbEntity
  8
STANDARDEBENE
 62
     7
100
AcDbVertex
100
AcDb2dVertex
 10
-19.91230739519554
 20
11.53435193939072
 30
0.0
  0
VERTEX
  5
13C
330
138
100
AcDbEntity
  8
STANDARDEBENE
 62
     7
100
AcDbVertex
100
AcDb2dVertex
 10
-19.91230739519554
 20
12.52102728636627
 30
0.0
  0
VERTEX
  5
13D
330
138
100
AcDbEntity
  8
STANDARDEBENE
 62
     7
100
AcDbVertex
100
AcDb2dVertex
 10
-19.91230739519554
 20
13.85565727735206
 30
0.0
  0
VERTEX
  5
13E
330
138
100
AcDbEntity
  8
STANDARDEBENE
 62
     7
100
AcDbVertex
100
AcDb2dVertex
 10
-19.91230739519554
 20
15.49069959465163
 30
0.0
  0
VERTEX
  5
13F
330
138
100
AcDbEntity
  8
STANDARDEBENE
 62
     7
100
AcDbVertex
100
AcDb2dVertex
 10
-19.91230739519554
 20
17.37378878688919
 30
0.0
  0
VERTEX
  5
140
330
138
100
AcDbEntity
  8
STANDARDEBENE
 62
     7
100
AcDbVertex
100
AcDb2dVertex
 10
-19.91230739519554
 20
19.43877902074794
 30
0.0
  0
VERTEX
  5
141
330
138
100
AcDbEntity
  8
STANDARDEBENE
 62
     7
100
AcDbVertex
100
AcDb2dVertex
 10
-19.91230739519554
 20
21.61607936742584
 30
0.0
  0
VERTEX
  5
142
330
138
100
AcDbEntity
  8
STANDARDEBENE
 62
     7
100
AcDbVertex
100
AcDb2dVertex
 10
-19.91230739519554
 20
23.83058674534444
 30
0.0
  0
VERTEX
  5
143
330
138
100
AcDbEntity
  8
STANDARDEBENE
 62
     7
100
AcDbVertex
100
AcDb2dVertex
 10
-19.91230739519554
 20
26.00650905382824
 30
0.0
  0
VERTEX
  5
144
330
138
100
AcDbEntity
  8
STANDARDEBENE
 62
     7
100
AcDbVertex
100
AcDb2dVertex
 10
-19.91230739519554
 20
28.07149928768699
 30
0.0
  0
VERTEX
  5
145
330
138
100
AcDbEntity
  8
STANDARDEBENE
 62
     7
100
AcDbVertex
100
AcDb2dVertex
 10
-19.91230739519554
 20
29.9538994608275
 30
0.0
  0
VERTEX
  5
146
330
138
100
AcDbEntity
  8
STANDARDEBENE
 62
     7
100
AcDbVertex
100
AcDb2dVertex
 10
-19.91230739519554
 20
31.59169785451527
 30
0.0
  0
VERTEX
  5
147
330
138
100
AcDbEntity
  8
STANDARDEBENE
 62
     7
100
AcDbVertex
100
AcDb2dVertex
 10
-19.91230739519554
 20
32.92563882640401
 30
0.0
  0
VERTEX
  5
148
330
138
100
AcDbEntity
  8
STANDARDEBENE
 62
     7
100
AcDbVertex
100
AcDb2dVertex
 10
-19.91230739519554
 20
33.91369221157366
 30
0.0
  0
VERTEX
  5
149
330
138
100
AcDbEntity
  8
STANDARDEBENE
 62
     7
100
AcDbVertex
100
AcDb2dVertex
 10
-19.91230739519554
 20
34.51933999788059
 30
0.0
  0
VERTEX
  5
14A
330
138
100
AcDbEntity
  8
STANDARDEBENE
 62
     7
100
AcDbVertex
100
AcDb2dVertex
 10
-19.91230739519554
 20
34.72397866970442
 30
0.0
  0
SEQEND
  5
14B
330
138
100
AcDbEntity
  8
STANDARDEBENE
  0
POLYLINE
  5
14C
330
1F
100
AcDbEntity
  8
STANDARDEBENE
 62
     7
100
AcDb2dPolyline
 66
     1
 10
0.0
 20
0.0
 30
0.0
  0
VERTEX
  5
14D
330
14C
100
AcDbEntity
  8
STANDARDEBENE
 62
     7
100
AcDbVertex
100
AcDb2dVertex
 10
-61.91284449407041
 20
10.72337646216291
 30
0.0
  0
VERTEX
  5
14E
330
14C
100
AcDbEntity
  8
STANDARDEBENE
 62
     7
100
AcDbVertex
100
AcDb2dVertex
 10
-61.91284449407041
 20
10.92801513398675
 30
0.0
  0
VERTEX
  5
14F
330
14C
100
AcDbEntity
  8
STANDARDEBENE
 62
     7
100
AcDbVertex
100
AcDb2dVertex
 10
-61.91284449407041
 20
11.53435193939072
 30
0.0
  0
VERTEX
  5
150
330
14C
100
AcDbEntity
  8
STANDARDEBENE
 62
     7
100
AcDbVertex
100
AcDb2dVertex
 10
-61.91284449407041
 20
12.52102728636627
 30
0.0
  0
VERTEX
  5
151
330
14C
100
AcDbEntity
  8
STANDARDEBENE
 62
     7
100
AcDbVertex
100
AcDb2dVertex
 10
-61.91284449407041
 20
13.85565727735206
 30
0.0
  0
VERTEX
  5
152
330
14C
100
AcDbEntity
  8
STANDARDEBENE
 62
     7
100
AcDbVertex
100
AcDb2dVertex
 10
-61.91284449407041
 20
15.49069959465163
 30
0.0
  0
VERTEX
  5
153
330
14C
100
AcDbEntity
  8
STANDARDEBENE
 62
     7
100
AcDbVertex
100
AcDb2dVertex
 10
-61.91284449407041
 20
17.37378878688919
 30
0.0
  0
VERTEX
  5
154
330
14C
100
AcDbEntity
  8
STANDARDEBENE
 62
     7
100
AcDbVertex
100
AcDb2dVertex
 10
-61.91284449407041
 20
19.43877902074794
 30
0.0
  0
VERTEX
  5
155
330
14C
100
AcDbEntity
  8
STANDARDEBENE
 62
     7
100
AcDbVertex
100
AcDb2dVertex
 10
-61.91284449407041
 20
21.61607936742584
 30
0.0
  0
VERTEX
  5
156
330
14C
100
AcDbEntity
  8
STANDARDEBENE
 62
     7
100
AcDbVertex
100
AcDb2dVertex
 10
-61.91284449407041
 20
23.83058674534444
 30
0.0
  0
VERTEX
  5
157
330
14C
100
AcDbEntity
  8
STANDARDEBENE
 62
     7
100
AcDbVertex
100
AcDb2dVertex
 10
-61.91284449407041
 20
26.00650905382824
 30
0.0
  0
VERTEX
  5
158
330
14C
100
AcDbEntity
  8
STANDARDEBENE
 62
     7
100
AcDbVertex
100
AcDb2dVertex
 10
-61.91284449407041
 20
28.07149928768699
 30
0.0
  0
VERTEX
  5
159
330
14C
100
AcDbEntity
  8
STANDARDEBENE
 62
     7
100
AcDbVertex
100
AcDb2dVertex
 10
-61.91284449407041
 20
29.9538994608275
 30
0.0
  0
VERTEX
  5
15A
330
14C
100
AcDbEntity
  8
STANDARDEBENE
 62
     7
100
AcDbVertex
100
AcDb2dVertex
 10
-61.91284449407041
 20
31.59169785451527
 30
0.0
  0
VERTEX
  5
15B
330
14C
100
AcDbEntity
  8
STANDARDEBENE
 62
     7
100
AcDbVertex
100
AcDb2dVertex
 10
-61.91284449407041
 20
32.92563882640401
 30
0.0
  0
VERTEX
  5
15C
330
14C
100
AcDbEntity
  8
STANDARDEBENE
 62
     7
100
AcDbVertex
100
AcDb2dVertex
 10
-61.91284449407041
 20
33.91369221157366
 30
0.0
  0
VERTEX
  5
15D
330
14C
100
AcDbEntity
  8
STANDARDEBENE
 62
     7
100
AcDbVertex
100
AcDb2dVertex
 10
-61.91284449407041
 20
34.51933999788059
 30
0.0
  0
VERTEX
  5
15E
330
14C
100
AcDbEntity
  8
STANDARDEBENE
 62
     7
100
AcDbVertex
100
AcDb2dVertex
 10
-61.91284449407041
 20
34.72397866970442
 30
0.0
  0
SEQEND
  5
15F
330
14C
100
AcDbEntity
  8
STANDARDEBENE
  0
POLYLINE
  5
160
330
1F
100
AcDbEntity
  8
STANDARDEBENE
 62
     7
100
AcDb2dPolyline
 66
     1
 10
0.0
 20
0.0
 30
0.0
  0
VERTEX
  5
161
330
160
100
AcDbEntity
  8
STANDARDEBENE
 62
     7
100
AcDbVertex
100
AcDb2dVertex
 10
-64.91214462352892
 20
6.722931584690795
 30
0.0
  0
VERTEX
  5
162
330
160
100
AcDbEntity
  8
STANDARDEBENE
 62
     7
100
AcDbVertex
100
AcDb2dVertex
 10
-64.91214462352892
 20
6.942039657552685
 30
0.0
  0
VERTEX
  5
163
330
160
100
AcDbEntity
  8
STANDARDEBENE
 62
     7
100
AcDbVertex
100
AcDb2dVertex
 10
-64.91214462352892
 20
7.590406627876704
 30
0.0
  0
VERTEX
  5
164
330
160
100
AcDbEntity
  8
STANDARDEBENE
 62
     7
100
AcDbVertex
100
AcDb2dVertex
 10
-64.91214462352892
 20
8.652185056430705
 30
0.0
  0
VERTEX
  5
165
330
160
100
AcDbEntity
  8
STANDARDEBENE
 62
     7
100
AcDbVertex
100
AcDb2dVertex
 10
-64.91214462352892
 20
10.09705810294449
 30
0.0
  0
VERTEX
  5
166
330
160
100
AcDbEntity
  8
STANDARDEBENE
 62
     7
100
AcDbVertex
100
AcDb2dVertex
 10
-64.91214462352892
 20
11.8871297170803
 30
0.0
  0
VERTEX
  5
167
330
160
100
AcDbEntity
  8
STANDARDEBENE
 62
     7
100
AcDbVertex
100
AcDb2dVertex
 10
-64.91214462352892
 20
13.9721015047535
 30
0.0
  0
VERTEX
  5
168
330
160
100
AcDbEntity
  8
STANDARDEBENE
 62
     7
100
AcDbVertex
100
AcDb2dVertex
 10
-64.91214462352892
 20
16.29685193820009
 30
0.0
  0
VERTEX
  5
169
330
160
100
AcDbEntity
  8
STANDARDEBENE
 62
     7
100
AcDbVertex
100
AcDb2dVertex
 10
-64.91214462352892
 20
18.79523518410328
 30
0.0
  0
VERTEX
  5
16A
330
160
100
AcDbEntity
  8
STANDARDEBENE
 62
     7
100
AcDbVertex
100
AcDb2dVertex
 10
-64.91214462352892
 20
21.4017944282433
 30
0.0
  0
VERTEX
  5
16B
330
160
100
AcDbEntity
  8
STANDARDEBENE
 62
     7
100
AcDbVertex
100
AcDb2dVertex
 10
-64.91214462352892
 20
24.04487168452698
 30
0.0
  0
VERTEX
  5
16C
330
160
100
AcDbEntity
  8
STANDARDEBENE
 62
     7
100
AcDbVertex
100
AcDb2dVertex
 10
-64.91214462352892
 20
26.651430928667
 30
0.0
  0
VERTEX
  5
16D
330
160
100
AcDbEntity
  8
STANDARDEBENE
 62
     7
100
AcDbVertex
100
AcDb2dVertex
 10
-64.91214462352892
 20
29.15050319366724
 30
0.0
  0
VERTEX
  5
16E
330
160
100
AcDbEntity
  8
STANDARDEBENE
 62
     7
100
AcDbVertex
100
AcDb2dVertex
 10
-64.91214462352892
 20
31.47456460801678
 30
0.0
  0
VERTEX
  5
16F
330
160
100
AcDbEntity
  8
STANDARDEBENE
 62
     7
100
AcDbVertex
100
AcDb2dVertex
 10
-64.91214462352892
 20
33.56022541478703
 30
0.0
  0
VERTEX
  5
170
330
160
100
AcDbEntity
  8
STANDARDEBENE
 62
     7
100
AcDbVertex
100
AcDb2dVertex
 10
-64.91214462352892
 20
35.34891899072874
 30
0.0
  0
VERTEX
  5
171
330
160
100
AcDbEntity
  8
STANDARDEBENE
 62
     7
100
AcDbVertex
100
AcDb2dVertex
 10
-64.91214462352892
 20
36.79517007543662
 30
0.0
  0
VERTEX
  5
172
330
160
100
AcDbEntity
  8
STANDARDEBENE
 62
     7
100
AcDbVertex
100
AcDb2dVertex
 10
-64.91214462352892
 20
37.85557046579653
 30
0.0
  0
VERTEX
  5
173
330
160
100
AcDbEntity
  8
STANDARDEBENE
 62
     7
100
AcDbVertex
100
AcDb2dVertex
 10
-64.91214462352892
 20
38.50531547431464
 30
0.0
  0
VERTEX
  5
174
330
160
100
AcDbEntity
  8
STANDARDEBENE
 62
     7
100
AcDbVertex
100
AcDb2dVertex
 10
-64.91214462352892
 20
38.72304550898244
 30
0.0
  0
SEQEND
  5
175
330
160
100
AcDbEntity
  8
STANDARDEBENE
  0
POLYLINE
  5
176
330
1F
100
AcDbEntity
  8
STANDARDEBENE
 62
     7
100
AcDb2dPolyline
 66
     1
 10
0.0
 20
0.0
 30
0.0
  0
VERTEX
  5
177
330
176
100
AcDbEntity
  8
STANDARDEBENE
 62
     7
100
AcDbVertex
100
AcDb2dVertex
 10
-18.91185166627898
 20
33.72283392169082
 30
0.0
  0
VERTEX
  5
178
330
176
100
AcDbEntity
  8
STANDARDEBENE
 62
     7
100
AcDbVertex
100
AcDb2dVertex
 10
-18.91185166627898
 20
33.51199407799353
 30
0.0
  0
VERTEX
  5
179
330
176
100
AcDbEntity
  8
STANDARDEBENE
 62
     7
100
AcDbVertex
100
AcDb2dVertex
 10
-18.91185166627898
 20
32.88567571877511
 30
0.0
  0
VERTEX
  5
17A
330
176
100
AcDbEntity
  8
STANDARDEBENE
 62
     7
100
AcDbVertex
100
AcDb2dVertex
 10
-18.91185166627898
 20
31.86937255062641
 30
0.0
  0
VERTEX
  5
17B
330
176
100
AcDbEntity
  8
STANDARDEBENE
 62
     7
100
AcDbVertex
100
AcDb2dVertex
 10
-18.91185166627898
 20
30.50098062388517
 30
0.0
  0
VERTEX
  5
17C
330
176
100
AcDbEntity
  8
STANDARDEBENE
 62
     7
100
AcDbVertex
100
AcDb2dVertex
 10
-18.91185166627898
 20
28.8356214663154
 30
0.0
  0
VERTEX
  5
17D
330
176
100
AcDbEntity
  8
STANDARDEBENE
 62
     7
100
AcDbVertex
100
AcDb2dVertex
 10
-18.91185166627898
 20
26.93255072026339
 30
0.0
  0
VERTEX
  5
17E
330
176
100
AcDbEntity
  8
STANDARDEBENE
 62
     7
100
AcDbVertex
100
AcDb2dVertex
 10
-18.91185166627898
 20
24.86893852459874
 30
0.0
  0
VERTEX
  5
17F
330
176
100
AcDbEntity
  8
STANDARDEBENE
 62
     7
100
AcDbVertex
100
AcDb2dVertex
 10
-18.91185166627898
 20
22.72264403728809
 30
0.0
  0
VERTEX
  5
180
330
176
100
AcDbEntity
  8
STANDARDEBENE
 62
     7
100
AcDbVertex
100
AcDb2dVertex
 10
-18.91185166627898
 20
20.57703856907449
 30
0.0
  0
VERTEX
  5
181
330
176
100
AcDbEntity
  8
STANDARDEBENE
 62
     7
100
AcDbVertex
100
AcDb2dVertex
 10
-18.91185166627898
 20
18.51411539250689
 30
0.0
  0
VERTEX
  5
182
330
176
100
AcDbEntity
  8
STANDARDEBENE
 62
     7
100
AcDbVertex
100
AcDb2dVertex
 10
-18.91185166627898
 20
16.61242268464898
 30
0.0
  0
VERTEX
  5
183
330
176
100
AcDbEntity
  8
STANDARDEBENE
 62
     7
100
AcDbVertex
100
AcDb2dVertex
 10
-18.91185166627898
 20
14.94499646978806
 30
0.0
  0
VERTEX
  5
184
330
176
100
AcDbEntity
  8
STANDARDEBENE
 62
     7
100
AcDbVertex
100
AcDb2dVertex
 10
-18.91185166627898
 20
13.57729356214387
 30
0.0
  0
VERTEX
  5
185
330
176
100
AcDbEntity
  8
STANDARDEBENE
 62
     7
100
AcDbVertex
100
AcDb2dVertex
 10
-18.91185166627898
 20
12.56030137489812
 30
0.0
  0
VERTEX
  5
186
330
176
100
AcDbEntity
  8
STANDARDEBENE
 62
     7
100
AcDbVertex
100
AcDb2dVertex
 10
-18.91185166627898
 20
11.93467203477675
 30
0.0
  0
VERTEX
  5
187
330
176
100
AcDbEntity
  8
STANDARDEBENE
 62
     7
100
AcDbVertex
100
AcDb2dVertex
 10
-18.91185166627898
 20
11.72245415288536
 30
0.0
  0
SEQEND
  5
188
330
176
100
AcDbEntity
  8
STANDARDEBENE
  0
POLYLINE
  5
189
330
1F
100
AcDbEntity
  8
STANDARDEBENE
 62
     7
100
AcDb2dPolyline
 66
     1
 10
0.0
 20
0.0
 30
0.0
  0
VERTEX
  5
18A
330
189
100
AcDbEntity
  8
STANDARDEBENE
 62
     7
100
AcDbVertex
100
AcDb2dVertex
 10
-68.91121146280692
 20
6.722931584690795
 30
0.0
  0
VERTEX
  5
18B
330
189
100
AcDbEntity
  8
STANDARDEBENE
 62
     7
100
AcDbVertex
100
AcDb2dVertex
 10
-68.91121146280692
 20
6.942039657552685
 30
0.0
  0
VERTEX
  5
18C
330
189
100
AcDbEntity
  8
STANDARDEBENE
 62
     7
100
AcDbVertex
100
AcDb2dVertex
 10
-68.91121146280692
 20
7.590406627876704
 30
0.0
  0
VERTEX
  5
18D
330
189
100
AcDbEntity
  8
STANDARDEBENE
 62
     7
100
AcDbVertex
100
AcDb2dVertex
 10
-68.91121146280692
 20
8.652185056430705
 30
0.0
  0
VERTEX
  5
18E
330
189
100
AcDbEntity
  8
STANDARDEBENE
 62
     7
100
AcDbVertex
100
AcDb2dVertex
 10
-68.91121146280692
 20
10.09705810294449
 30
0.0
  0
VERTEX
  5
18F
330
189
100
AcDbEntity
  8
STANDARDEBENE
 62
     7
100
AcDbVertex
100
AcDb2dVertex
 10
-68.91121146280692
 20
11.8871297170803
 30
0.0
  0
VERTEX
  5
190
330
189
100
AcDbEntity
  8
STANDARDEBENE
 62
     7
100
AcDbVertex
100
AcDb2dVertex
 10
-68.91121146280692
 20
13.9721015047535
 30
0.0
  0
VERTEX
  5
191
330
189
100
AcDbEntity
  8
STANDARDEBENE
 62
     7
100
AcDbVertex
100
AcDb2dVertex
 10
-68.91121146280692
 20
16.29685193820009
 30
0.0
  0
VERTEX
  5
192
330
189
100
AcDbEntity
  8
STANDARDEBENE
 62
     7
100
AcDbVertex
100
AcDb2dVertex
 10
-68.91121146280692
 20
18.79523518410328
 30
0.0
  0
VERTEX
  5
193
330
189
100
AcDbEntity
  8
STANDARDEBENE
 62
     7
100
AcDbVertex
100
AcDb2dVertex
 10
-68.91121146280692
 20
21.4017944282433
 30
0.0
  0
VERTEX
  5
194
330
189
100
AcDbEntity
  8
STANDARDEBENE
 62
     7
100
AcDbVertex
100
AcDb2dVertex
 10
-68.91121146280692
 20
24.04487168452698
 30
0.0
  0
VERTEX
  5
195
330
189
100
AcDbEntity
  8
STANDARDEBENE
 62
     7
100
AcDbVertex
100
AcDb2dVertex
 10
-68.91121146280692
 20
26.651430928667
 30
0.0
  0
VERTEX
  5
196
330
189
100
AcDbEntity
  8
STANDARDEBENE
 62
     7
100
AcDbVertex
100
AcDb2dVertex
 10
-68.91121146280692
 20
29.15050319366724
 30
0.0
  0
VERTEX
  5
197
330
189
100
AcDbEntity
  8
STANDARDEBENE
 62
     7
100
AcDbVertex
100
AcDb2dVertex
 10
-68.91121146280692
 20
31.47456460801678
 30
0.0
  0
VERTEX
  5
198
330
189
100
AcDbEntity
  8
STANDARDEBENE
 62
     7
100
AcDbVertex
100
AcDb2dVertex
 10
-68.91121146280692
 20
33.56022541478703
 30
0.0
  0
VERTEX
  5
199
330
189
100
AcDbEntity
  8
STANDARDEBENE
 62
     7
100
AcDbVertex
100
AcDb2dVertex
 10
-68.91121146280692
 20
35.34891899072874
 30
0.0
  0
VERTEX
  5
19A
330
189
100
AcDbEntity
  8
STANDARDEBENE
 62
     7
100
AcDbVertex
100
AcDb2dVertex
 10
-68.91121146280692
 20
36.79517007543662
 30
0.0
  0
VERTEX
  5
19B
330
189
100
AcDbEntity
  8
STANDARDEBENE
 62
     7
100
AcDbVertex
100
AcDb2dVertex
 10
-68.91121146280692
 20
37.85557046579653
 30
0.0
  0
VERTEX
  5
19C
330
189
100
AcDbEntity
  8
STANDARDEBENE
 62
     7
100
AcDbVertex
100
AcDb2dVertex
 10
-68.91121146280692
 20
38.50531547431464
 30
0.0
  0
VERTEX
  5
19D
330
189
100
AcDbEntity
  8
STANDARDEBENE
 62
     7
100
AcDbVertex
100
AcDb2dVertex
 10
-68.91121146280692
 20
38.72304550898244
 30
0.0
  0
SEQEND
  5
19E
330
189
100
AcDbEntity
  8
STANDARDEBENE
  0
POLYLINE
  5
19F
330
1F
100
AcDbEntity
  8
STANDARDEBENE
 62
     7
100
AcDb2dPolyline
 66
     1
 10
0.0
 20
0.0
 30
0.0
  0
VERTEX
  5
1A0
330
19F
100
AcDbEntity
  8
STANDARDEBENE
 62
     7
100
AcDbVertex
100
AcDb2dVertex
 10
-58.75575899138745
 20
17.06717528870196
 30
0.0
  0
VERTEX
  5
1A1
330
19F
100
AcDbEntity
  8
STANDARDEBENE
 62
     7
100
AcDbVertex
100
AcDb2dVertex
 10
-25.06823729842044
 20
17.06717528870196
 30
0.0
  0
SEQEND
  5
1A2
330
19F
100
AcDbEntity
  8
STANDARDEBENE
  0
POLYLINE
  5
1A3
330
1F
100
AcDbEntity
  8
STANDARDEBENE
 62
     7
100
AcDb2dPolyline
 66
     1
 10
0.0
 20
0.0
 30
0.0
  0
VERTEX
  5
1A4
330
1A3
100
AcDbEntity
  8
STANDARDEBENE
 62
     7
100
AcDbVertex
100
AcDb2dVertex
 10
-25.06823729842044
 20
28.38086886226242
 30
0.0
  0
VERTEX
  5
1A5
330
1A3
100
AcDbEntity
  8
STANDARDEBENE
 62
     7
100
AcDbVertex
100
AcDb2dVertex
 10
-58.75575899138745
 20
28.38086886226242
 30
0.0
  0
SEQEND
  5
1A6
330
1A3
100
AcDbEntity
  8
STANDARDEBENE
  0
POLYLINE
  5
1A8
330
1F
100
AcDbEntity
  8
BEMAßUNG
 62
     7
100
AcDb2dPolyline
 66
     1
 10
0.0
 20
0.0
 30
0.0
  0
VERTEX
  5
1A9
330
1A8
100
AcDbEntity
  8
BEMAßUNG
 62
     7
100
AcDbVertex
100
AcDb2dVertex
 10
-19.91230739519554
 20
34.72397866970442
 30
0.0
  0
VERTEX
  5
1AA
330
1A8
100
AcDbEntity
  8
BEMAßUNG
 62
     7
100
AcDbVertex
100
AcDb2dVertex
 10
34.05029024756382
 20
34.72397866970442
 30
0.0
  0
SEQEND
  5
1AB
330
1A8
100
AcDbEntity
  8
BEMAßUNG
  0
POLYLINE
  5
1AC
330
1F
100
AcDbEntity
  8
BEMAßUNG
 62
     7
100
AcDb2dPolyline
 66
     1
 10
0.0
 20
0.0
 30
0.0
  0
VERTEX
  5
1AD
330
1AC
100
AcDbEntity
  8
BEMAßUNG
 62
     7
100
AcDbVertex
100
AcDb2dVertex
 10
13.72353786549273
 20
10.72337646216291
 30
0.0
  0
VERTEX
  5
1AE
330
1AC
100
AcDbEntity
  8
BEMAßUNG
 62
     7
100
AcDbVertex
100
AcDb2dVertex
 10
35.20922036880187
 20
10.72337646216291
 30
0.0
  0
SEQEND
  5
1AF
330
1AC
100
AcDbEntity
  8
BEMAßUNG
  0
POLYLINE
  5
1B0
330
1F
100
AcDbEntity
  8
BEMAßUNG
 62
     7
100
AcDb2dPolyline
 66
     1
 10
0.0
 20
0.0
 30
0.0
  0
VERTEX
  5
1B1
330
1B0
100
AcDbEntity
  8
BEMAßUNG
 62
     7
100
AcDbVertex
100
AcDb2dVertex
 10
-19.91230739519554
 20
10.72337646216291
 30
0.0
  0
VERTEX
  5
1B2
330
1B0
100
AcDbEntity
  8
BEMAßUNG
 62
     7
100
AcDbVertex
100
AcDb2dVertex
 10
8.534535045609422
 20
10.72337646216291
 30
0.0
  0
SEQEND
  5
1B3
330
1B0
100
AcDbEntity
  8
BEMAßUNG
  0
POLYLINE
  5
1B4
330
1F
100
AcDbEntity
  8
BEMAßUNG
 62
     7
100
AcDb2dPolyline
 66
     1
 10
0.0
 20
0.0
 30
0.0
  0
VERTEX
  5
1B5
330
1B4
100
AcDbEntity
  8
BEMAßUNG
 62
     7
100
AcDbVertex
100
AcDb2dVertex
 10
31.2067084340386
 20
31.67162406977307
 30
0.0
  0
VERTEX
  5
1B6
330
1B4
100
AcDbEntity
  8
BEMAßUNG
 62
     7
100
AcDbVertex
100
AcDb2dVertex
 10
31.2067084340386
 20
-27.98158229552197
 30
0.0
  0
SEQEND
  5
1B7
330
1B4
100
AcDbEntity
  8
BEMAßUNG
  0
POLYLINE
  5
1B8
330
1F
100
AcDbEntity
  8
BEMAßUNG
 62
     7
100
AcDb2dPolyline
 66
     1
 10
0.0
 20
0.0
 30
0.0
  0
VERTEX
  5
1B9
330
1B8
100
AcDbEntity
  8
BEMAßUNG
 62
     7
100
AcDbVertex
100
AcDb2dVertex
 10
31.2067084340386
 20
34.72397866970442
 30
0.0
  0
VERTEX
  5
1BA
330
1B8
100
AcDbEntity
  8
BEMAßUNG
 62
     7
100
AcDbVertex
100
AcDb2dVertex
 10
30.54938421545293
 20
29.72376708241281
 30
0.0
  0
VERTEX
  5
1BB
330
1B8
100
AcDbEntity
  8
BEMAßUNG
 62
     7
100
AcDbVertex
100
AcDb2dVertex
 10
31.86609970991542
 20
29.72376708241281
 30
0.0
  0
VERTEX
  5
1BC
330
1B8
100
AcDbEntity
  8
BEMAßUNG
 62
     7
100
AcDbVertex
100
AcDb2dVertex
 10
31.2067084340386
 20
34.72397866970442
 30
0.0
  0
SEQEND
  5
1BD
330
1B8
100
AcDbEntity
  8
BEMAßUNG
  0
HATCH
  5
1BE
330
1F
100
AcDbEntity
  8
BEMAßUNG
 62
     7
100
AcDbHatch
 10
0.0
 20
0.0
 30
0.0
210
0.0
220
0.0
230
1.0
  2
SOLID
 70
     1
 71
     0
 91
        1
 92
        1
 93
        3
 72
     1
 10
31.2067084340386
 20
34.72397866970442
 11
30.54938421545293
 21
29.72376708241281
 72
     1
 10
30.54938421545293
 20
29.72376708241281
 11
31.86609970991542
 21
29.72376708241281
 72
     1
 10
31.86609970991542
 20
29.72376708241281
 11
31.2067084340386
 21
34.72397866970442
 97
        0
 75
     0
 76
     1
 98
        0
  0
POLYLINE
  5
1BF
330
1F
100
AcDbEntity
  8
BEMAßUNG
 62
     7
100
AcDb2dPolyline
 66
     1
 10
0.0
 20
0.0
 30
0.0
  0
VERTEX
  5
1C0
330
1BF
100
AcDbEntity
  8
BEMAßUNG
 62
     7
100
AcDbVertex
100
AcDb2dVertex
 10
30.59830457134348
 20
29.72376708241281
 30
0.0
  0
VERTEX
  5
1C1
330
1BF
100
AcDbEntity
  8
BEMAßUNG
 62
     7
100
AcDbVertex
100
AcDb2dVertex
 10
30.59830457134348
 20
30.09308131843159
 30
0.0
  0
SEQEND
  5
1C2
330
1BF
100
AcDbEntity
  8
BEMAßUNG
  0
POLYLINE
  5
1C3
330
1F
100
AcDbEntity
  8
BEMAßUNG
 62
     7
100
AcDb2dPolyline
 66
     1
 10
0.0
 20
0.0
 30
0.0
  0
VERTEX
  5
1C4
330
1C3
100
AcDbEntity
  8
BEMAßUNG
 62
     7
100
AcDbVertex
100
AcDb2dVertex
 10
30.59830457134348
 20
29.72376708241281
 30
0.0
  0
VERTEX
  5
1C5
330
1C3
100
AcDbEntity
  8
BEMAßUNG
 62
     7
100
AcDbVertex
100
AcDb2dVertex
 10
30.59830457134348
 20
30.09308131843159
 30
0.0
  0
SEQEND
  5
1C6
330
1C3
100
AcDbEntity
  8
BEMAßUNG
  0
POLYLINE
  5
1C7
330
1F
100
AcDbEntity
  8
BEMAßUNG
 62
     7
100
AcDb2dPolyline
 66
     1
 10
0.0
 20
0.0
 30
0.0
  0
VERTEX
  5
1C8
330
1C7
100
AcDbEntity
  8
BEMAßUNG
 62
     7
100
AcDbVertex
100
AcDb2dVertex
 10
30.69959037860983
 20
29.72376708241281
 30
0.0
  0
VERTEX
  5
1C9
330
1C7
100
AcDbEntity
  8
BEMAßUNG
 62
     7
100
AcDbVertex
100
AcDb2dVertex
 10
30.69959037860983
 20
30.8640936880305
 30
0.0
  0
SEQEND
  5
1CA
330
1C7
100
AcDbEntity
  8
BEMAßUNG
  0
POLYLINE
  5
1CB
330
1F
100
AcDbEntity
  8
BEMAßUNG
 62
     7
100
AcDb2dPolyline
 66
     1
 10
0.0
 20
0.0
 30
0.0
  0
VERTEX
  5
1CC
330
1CB
100
AcDbEntity
  8
BEMAßUNG
 62
     7
100
AcDbVertex
100
AcDb2dVertex
 10
30.80087618587617
 20
29.72376708241281
 30
0.0
  0
VERTEX
  5
1CD
330
1CB
100
AcDbEntity
  8
BEMAßUNG
 62
     7
100
AcDbVertex
100
AcDb2dVertex
 10
30.80087618587617
 20
31.63717311492057
 30
0.0
  0
SEQEND
  5
1CE
330
1CB
100
AcDbEntity
  8
BEMAßUNG
  0
POLYLINE
  5
1CF
330
1F
100
AcDbEntity
  8
BEMAßUNG
 62
     7
100
AcDb2dPolyline
 66
     1
 10
0.0
 20
0.0
 30
0.0
  0
VERTEX
  5
1D0
330
1CF
100
AcDbEntity
  8
BEMAßUNG
 62
     7
100
AcDbVertex
100
AcDb2dVertex
 10
30.90216199314252
 20
29.72376708241281
 30
0.0
  0
VERTEX
  5
1D1
330
1CF
100
AcDbEntity
  8
BEMAßUNG
 62
     7
100
AcDbVertex
100
AcDb2dVertex
 10
30.90216199314252
 20
32.40749646542243
 30
0.0
  0
SEQEND
  5
1D2
330
1CF
100
AcDbEntity
  8
BEMAßUNG
  0
POLYLINE
  5
1D3
330
1F
100
AcDbEntity
  8
BEMAßUNG
 62
     7
100
AcDb2dPolyline
 66
     1
 10
0.0
 20
0.0
 30
0.0
  0
VERTEX
  5
1D4
330
1D3
100
AcDbEntity
  8
BEMAßUNG
 62
     7
100
AcDbVertex
100
AcDb2dVertex
 10
31.00413681950591
 20
29.72376708241281
 30
0.0
  0
VERTEX
  5
1D5
330
1D3
100
AcDbEntity
  8
BEMAßUNG
 62
     7
100
AcDbVertex
100
AcDb2dVertex
 10
31.00413681950591
 20
33.17988687321544
 30
0.0
  0
SEQEND
  5
1D6
330
1D3
100
AcDbEntity
  8
BEMAßUNG
  0
POLYLINE
  5
1D7
330
1F
100
AcDbEntity
  8
BEMAßUNG
 62
     7
100
AcDb2dPolyline
 66
     1
 10
0.0
 20
0.0
 30
0.0
  0
VERTEX
  5
1D8
330
1D7
100
AcDbEntity
  8
BEMAßUNG
 62
     7
100
AcDbVertex
100
AcDb2dVertex
 10
31.10542262677226
 20
29.72376708241281
 30
0.0
  0
VERTEX
  5
1D9
330
1D7
100
AcDbEntity
  8
BEMAßUNG
 62
     7
100
AcDbVertex
100
AcDb2dVertex
 10
31.10542262677226
 20
33.95089924281436
 30
0.0
  0
SEQEND
  5
1DA
330
1D7
100
AcDbEntity
  8
BEMAßUNG
  0
POLYLINE
  5
1DB
330
1F
100
AcDbEntity
  8
BEMAßUNG
 62
     7
100
AcDb2dPolyline
 66
     1
 10
0.0
 20
0.0
 30
0.0
  0
VERTEX
  5
1DC
330
1DB
100
AcDbEntity
  8
BEMAßUNG
 62
     7
100
AcDbVertex
100
AcDb2dVertex
 10
31.2067084340386
 20
29.72376708241281
 30
0.0
  0
VERTEX
  5
1DD
330
1DB
100
AcDbEntity
  8
BEMAßUNG
 62
     7
100
AcDbVertex
100
AcDb2dVertex
 10
31.2067084340386
 20
34.72397866970442
 30
0.0
  0
SEQEND
  5
1DE
330
1DB
100
AcDbEntity
  8
BEMAßUNG
  0
POLYLINE
  5
1DF
330
1F
100
AcDbEntity
  8
BEMAßUNG
 62
     7
100
AcDb2dPolyline
 66
     1
 10
0.0
 20
0.0
 30
0.0
  0
VERTEX
  5
1E0
330
1DF
100
AcDbEntity
  8
BEMAßUNG
 62
     7
100
AcDbVertex
100
AcDb2dVertex
 10
31.81717935402487
 20
29.72376708241281
 30
0.0
  0
VERTEX
  5
1E1
330
1DF
100
AcDbEntity
  8
BEMAßUNG
 62
     7
100
AcDbVertex
100
AcDb2dVertex
 10
31.81717935402487
 20
30.09308131843159
 30
0.0
  0
SEQEND
  5
1E2
330
1DF
100
AcDbEntity
  8
BEMAßUNG
  0
POLYLINE
  5
1E3
330
1F
100
AcDbEntity
  8
BEMAßUNG
 62
     7
100
AcDb2dPolyline
 66
     1
 10
0.0
 20
0.0
 30
0.0
  0
VERTEX
  5
1E4
330
1E3
100
AcDbEntity
  8
BEMAßUNG
 62
     7
100
AcDbVertex
100
AcDb2dVertex
 10
31.81717935402487
 20
29.72376708241281
 30
0.0
  0
VERTEX
  5
1E5
330
1E3
100
AcDbEntity
  8
BEMAßUNG
 62
     7
100
AcDbVertex
100
AcDb2dVertex
 10
31.81717935402487
 20
30.09308131843159
 30
0.0
  0
SEQEND
  5
1E6
330
1E3
100
AcDbEntity
  8
BEMAßUNG
  0
POLYLINE
  5
1E7
330
1F
100
AcDbEntity
  8
BEMAßUNG
 62
     7
100
AcDb2dPolyline
 66
     1
 10
0.0
 20
0.0
 30
0.0
  0
VERTEX
  5
1E8
330
1E7
100
AcDbEntity
  8
BEMAßUNG
 62
     7
100
AcDbVertex
100
AcDb2dVertex
 10
31.71520452766148
 20
29.72376708241281
 30
0.0
  0
VERTEX
  5
1E9
330
1E7
100
AcDbEntity
  8
BEMAßUNG
 62
     7
100
AcDbVertex
100
AcDb2dVertex
 10
31.71520452766148
 20
30.8640936880305
 30
0.0
  0
SEQEND
  5
1EA
330
1E7
100
AcDbEntity
  8
BEMAßUNG
  0
POLYLINE
  5
1EB
330
1F
100
AcDbEntity
  8
BEMAßUNG
 62
     7
100
AcDb2dPolyline
 66
     1
 10
0.0
 20
0.0
 30
0.0
  0
VERTEX
  5
1EC
330
1EB
100
AcDbEntity
  8
BEMAßUNG
 62
     7
100
AcDbVertex
100
AcDb2dVertex
 10
31.61391872039513
 20
29.72376708241281
 30
0.0
  0
VERTEX
  5
1ED
330
1EB
100
AcDbEntity
  8
BEMAßUNG
 62
     7
100
AcDbVertex
100
AcDb2dVertex
 10
31.61391872039513
 20
31.63717311492057
 30
0.0
  0
SEQEND
  5
1EE
330
1EB
100
AcDbEntity
  8
BEMAßUNG
  0
POLYLINE
  5
1EF
330
1F
100
AcDbEntity
  8
BEMAßUNG
 62
     7
100
AcDb2dPolyline
 66
     1
 10
0.0
 20
0.0
 30
0.0
  0
VERTEX
  5
1F0
330
1EF
100
AcDbEntity
  8
BEMAßUNG
 62
     7
100
AcDbVertex
100
AcDb2dVertex
 10
31.51263291312879
 20
29.72376708241281
 30
0.0
  0
VERTEX
  5
1F1
330
1EF
100
AcDbEntity
  8
BEMAßUNG
 62
     7
100
AcDbVertex
100
AcDb2dVertex
 10
31.51263291312879
 20
32.40749646542243
 30
0.0
  0
SEQEND
  5
1F2
330
1EF
100
AcDbEntity
  8
BEMAßUNG
  0
POLYLINE
  5
1F3
330
1F
100
AcDbEntity
  8
BEMAßUNG
 62
     7
100
AcDb2dPolyline
 66
     1
 10
0.0
 20
0.0
 30
0.0
  0
VERTEX
  5
1F4
330
1F3
100
AcDbEntity
  8
BEMAßUNG
 62
     7
100
AcDbVertex
100
AcDb2dVertex
 10
31.40996906766834
 20
29.72376708241281
 30
0.0
  0
VERTEX
  5
1F5
330
1F3
100
AcDbEntity
  8
BEMAßUNG
 62
     7
100
AcDbVertex
100
AcDb2dVertex
 10
31.40996906766834
 20
33.17988687321544
 30
0.0
  0
SEQEND
  5
1F6
330
1F3
100
AcDbEntity
  8
BEMAßUNG
  0
POLYLINE
  5
1F7
330
1F
100
AcDbEntity
  8
BEMAßUNG
 62
     7
100
AcDb2dPolyline
 66
     1
 10
0.0
 20
0.0
 30
0.0
  0
VERTEX
  5
1F8
330
1F7
100
AcDbEntity
  8
BEMAßUNG
 62
     7
100
AcDbVertex
100
AcDb2dVertex
 10
31.30799424130495
 20
29.72376708241281
 30
0.0
  0
VERTEX
  5
1F9
330
1F7
100
AcDbEntity
  8
BEMAßUNG
 62
     7
100
AcDbVertex
100
AcDb2dVertex
 10
31.30799424130495
 20
33.95089924281436
 30
0.0
  0
SEQEND
  5
1FA
330
1F7
100
AcDbEntity
  8
BEMAßUNG
  0
POLYLINE
  5
1FB
330
1F
100
AcDbEntity
  8
BEMAßUNG
 62
     7
100
AcDb2dPolyline
 66
     1
 10
0.0
 20
0.0
 30
0.0
  0
VERTEX
  5
1FC
330
1FB
100
AcDbEntity
  8
BEMAßUNG
 62
     7
100
AcDbVertex
100
AcDb2dVertex
 10
31.2067084340386
 20
29.72376708241281
 30
0.0
  0
VERTEX
  5
1FD
330
1FB
100
AcDbEntity
  8
BEMAßUNG
 62
     7
100
AcDbVertex
100
AcDb2dVertex
 10
31.2067084340386
 20
34.72397866970442
 30
0.0
  0
SEQEND
  5
1FE
330
1FB
100
AcDbEntity
  8
BEMAßUNG
  0
POLYLINE
  5
1FF
330
1F
100
AcDbEntity
  8
BEMAßUNG
 62
     7
100
AcDb2dPolyline
 66
     1
 10
0.0
 20
0.0
 30
0.0
  0
VERTEX
  5
200
330
1FF
100
AcDbEntity
  8
BEMAßUNG
 62
     7
100
AcDbVertex
100
AcDb2dVertex
 10
31.2067084340386
 20
10.72337646216291
 30
0.0
  0
VERTEX
  5
201
330
1FF
100
AcDbEntity
  8
BEMAßUNG
 62
     7
100
AcDbVertex
100
AcDb2dVertex
 10
31.86609970991542
 20
15.72358804945452
 30
0.0
  0
VERTEX
  5
202
330
1FF
100
AcDbEntity
  8
BEMAßUNG
 62
     7
100
AcDbVertex
100
AcDb2dVertex
 10
30.54938421545293
 20
15.72358804945452
 30
0.0
  0
VERTEX
  5
203
330
1FF
100
AcDbEntity
  8
BEMAßUNG
 62
     7
100
AcDbVertex
100
AcDb2dVertex
 10
31.2067084340386
 20
10.72337646216291
 30
0.0
  0
SEQEND
  5
204
330
1FF
100
AcDbEntity
  8
BEMAßUNG
  0
HATCH
  5
205
330
1F
100
AcDbEntity
  8
BEMAßUNG
 62
     7
100
AcDbHatch
 10
0.0
 20
0.0
 30
0.0
210
0.0
220
0.0
230
1.0
  2
SOLID
 70
     1
 71
     0
 91
        1
 92
        1
 93
        3
 72
     1
 10
31.2067084340386
 20
10.72337646216291
 11
31.86609970991542
 21
15.72358804945452
 72
     1
 10
31.86609970991542
 20
15.72358804945452
 11
30.54938421545293
 21
15.72358804945452
 72
     1
 10
30.54938421545293
 20
15.72358804945452
 11
31.2067084340386
 21
10.72337646216291
 97
        0
 75
     0
 76
     1
 98
        0
  0
POLYLINE
  5
206
330
1F
100
AcDbEntity
  8
BEMAßUNG
 62
     7
100
AcDb2dPolyline
 66
     1
 10
0.0
 20
0.0
 30
0.0
  0
VERTEX
  5
207
330
206
100
AcDbEntity
  8
BEMAßUNG
 62
     7
100
AcDbVertex
100
AcDb2dVertex
 10
31.81717935402487
 20
15.72358804945452
 30
0.0
  0
VERTEX
  5
208
330
206
100
AcDbEntity
  8
BEMAßUNG
 62
     7
100
AcDbVertex
100
AcDb2dVertex
 10
31.81717935402487
 20
15.35358479433869
 30
0.0
  0
SEQEND
  5
209
330
206
100
AcDbEntity
  8
BEMAßUNG
  0
POLYLINE
  5
20A
330
1F
100
AcDbEntity
  8
BEMAßUNG
 62
     7
100
AcDb2dPolyline
 66
     1
 10
0.0
 20
0.0
 30
0.0
  0
VERTEX
  5
20B
330
20A
100
AcDbEntity
  8
BEMAßUNG
 62
     7
100
AcDbVertex
100
AcDb2dVertex
 10
31.81717935402487
 20
15.72358804945452
 30
0.0
  0
VERTEX
  5
20C
330
20A
100
AcDbEntity
  8
BEMAßUNG
 62
     7
100
AcDbVertex
100
AcDb2dVertex
 10
31.81717935402487
 20
15.35358479433869
 30
0.0
  0
SEQEND
  5
20D
330
20A
100
AcDbEntity
  8
BEMAßUNG
  0
POLYLINE
  5
20E
330
1F
100
AcDbEntity
  8
BEMAßUNG
 62
     7
100
AcDb2dPolyline
 66
     1
 10
0.0
 20
0.0
 30
0.0
  0
VERTEX
  5
20F
330
20E
100
AcDbEntity
  8
BEMAßUNG
 62
     7
100
AcDbVertex
100
AcDb2dVertex
 10
31.71520452766148
 20
15.72358804945452
 30
0.0
  0
VERTEX
  5
210
330
20E
100
AcDbEntity
  8
BEMAßUNG
 62
     7
100
AcDbVertex
100
AcDb2dVertex
 10
31.71520452766148
 20
14.58119438654567
 30
0.0
  0
SEQEND
  5
211
330
20E
100
AcDbEntity
  8
BEMAßUNG
  0
POLYLINE
  5
212
330
1F
100
AcDbEntity
  8
BEMAßUNG
 62
     7
100
AcDb2dPolyline
 66
     1
 10
0.0
 20
0.0
 30
0.0
  0
VERTEX
  5
213
330
212
100
AcDbEntity
  8
BEMAßUNG
 62
     7
100
AcDbVertex
100
AcDb2dVertex
 10
31.61391872039513
 20
15.72358804945452
 30
0.0
  0
VERTEX
  5
214
330
212
100
AcDbEntity
  8
BEMAßUNG
 62
     7
100
AcDbVertex
100
AcDb2dVertex
 10
31.61391872039513
 20
13.81018201694676
 30
0.0
  0
SEQEND
  5
215
330
212
100
AcDbEntity
  8
BEMAßUNG
  0
POLYLINE
  5
216
330
1F
100
AcDbEntity
  8
BEMAßUNG
 62
     7
100
AcDb2dPolyline
 66
     1
 10
0.0
 20
0.0
 30
0.0
  0
VERTEX
  5
217
330
216
100
AcDbEntity
  8
BEMAßUNG
 62
     7
100
AcDbVertex
100
AcDb2dVertex
 10
31.51263291312879
 20
15.72358804945452
 30
0.0
  0
VERTEX
  5
218
330
216
100
AcDbEntity
  8
BEMAßUNG
 62
     7
100
AcDbVertex
100
AcDb2dVertex
 10
31.51263291312879
 20
13.03779160915375
 30
0.0
  0
SEQEND
  5
219
330
216
100
AcDbEntity
  8
BEMAßUNG
  0
POLYLINE
  5
21A
330
1F
100
AcDbEntity
  8
BEMAßUNG
 62
     7
100
AcDb2dPolyline
 66
     1
 10
0.0
 20
0.0
 30
0.0
  0
VERTEX
  5
21B
330
21A
100
AcDbEntity
  8
BEMAßUNG
 62
     7
100
AcDbVertex
100
AcDb2dVertex
 10
31.40996906766834
 20
15.72358804945452
 30
0.0
  0
VERTEX
  5
21C
330
21A
100
AcDbEntity
  8
BEMAßUNG
 62
     7
100
AcDbVertex
100
AcDb2dVertex
 10
31.40996906766834
 20
12.26677923955483
 30
0.0
  0
SEQEND
  5
21D
330
21A
100
AcDbEntity
  8
BEMAßUNG
  0
POLYLINE
  5
21E
330
1F
100
AcDbEntity
  8
BEMAßUNG
 62
     7
100
AcDb2dPolyline
 66
     1
 10
0.0
 20
0.0
 30
0.0
  0
VERTEX
  5
21F
330
21E
100
AcDbEntity
  8
BEMAßUNG
 62
     7
100
AcDbVertex
100
AcDb2dVertex
 10
31.30799424130495
 20
15.72358804945452
 30
0.0
  0
VERTEX
  5
220
330
21E
100
AcDbEntity
  8
BEMAßUNG
 62
     7
100
AcDbVertex
100
AcDb2dVertex
 10
31.30799424130495
 20
11.49438883176182
 30
0.0
  0
SEQEND
  5
221
330
21E
100
AcDbEntity
  8
BEMAßUNG
  0
POLYLINE
  5
222
330
1F
100
AcDbEntity
  8
BEMAßUNG
 62
     7
100
AcDb2dPolyline
 66
     1
 10
0.0
 20
0.0
 30
0.0
  0
VERTEX
  5
223
330
222
100
AcDbEntity
  8
BEMAßUNG
 62
     7
100
AcDbVertex
100
AcDb2dVertex
 10
31.2067084340386
 20
15.72358804945452
 30
0.0
  0
VERTEX
  5
224
330
222
100
AcDbEntity
  8
BEMAßUNG
 62
     7
100
AcDbVertex
100
AcDb2dVertex
 10
31.2067084340386
 20
10.72337646216291
 30
0.0
  0
SEQEND
  5
225
330
222
100
AcDbEntity
  8
BEMAßUNG
  0
POLYLINE
  5
226
330
1F
100
AcDbEntity
  8
BEMAßUNG
 62
     7
100
AcDb2dPolyline
 66
     1
 10
0.0
 20
0.0
 30
0.0
  0
VERTEX
  5
227
330
226
100
AcDbEntity
  8
BEMAßUNG
 62
     7
100
AcDbVertex
100
AcDb2dVertex
 10
30.59830457134348
 20
15.72358804945452
 30
0.0
  0
VERTEX
  5
228
330
226
100
AcDbEntity
  8
BEMAßUNG
 62
     7
100
AcDbVertex
100
AcDb2dVertex
 10
30.59830457134348
 20
15.35358479433869
 30
0.0
  0
SEQEND
  5
229
330
226
100
AcDbEntity
  8
BEMAßUNG
  0
POLYLINE
  5
22A
330
1F
100
AcDbEntity
  8
BEMAßUNG
 62
     7
100
AcDb2dPolyline
 66
     1
 10
0.0
 20
0.0
 30
0.0
  0
VERTEX
  5
22B
330
22A
100
AcDbEntity
  8
BEMAßUNG
 62
     7
100
AcDbVertex
100
AcDb2dVertex
 10
30.59830457134348
 20
15.72358804945452
 30
0.0
  0
VERTEX
  5
22C
330
22A
100
AcDbEntity
  8
BEMAßUNG
 62
     7
100
AcDbVertex
100
AcDb2dVertex
 10
30.59830457134348
 20
15.35358479433869
 30
0.0
  0
SEQEND
  5
22D
330
22A
100
AcDbEntity
  8
BEMAßUNG
  0
POLYLINE
  5
22E
330
1F
100
AcDbEntity
  8
BEMAßUNG
 62
     7
100
AcDb2dPolyline
 66
     1
 10
0.0
 20
0.0
 30
0.0
  0
VERTEX
  5
22F
330
22E
100
AcDbEntity
  8
BEMAßUNG
 62
     7
100
AcDbVertex
100
AcDb2dVertex
 10
30.69959037860983
 20
15.72358804945452
 30
0.0
  0
VERTEX
  5
230
330
22E
100
AcDbEntity
  8
BEMAßUNG
 62
     7
100
AcDbVertex
100
AcDb2dVertex
 10
30.69959037860983
 20
14.58119438654567
 30
0.0
  0
SEQEND
  5
231
330
22E
100
AcDbEntity
  8
BEMAßUNG
  0
POLYLINE
  5
232
330
1F
100
AcDbEntity
  8
BEMAßUNG
 62
     7
100
AcDb2dPolyline
 66
     1
 10
0.0
 20
0.0
 30
0.0
  0
VERTEX
  5
233
330
232
100
AcDbEntity
  8
BEMAßUNG
 62
     7
100
AcDbVertex
100
AcDb2dVertex
 10
30.80087618587617
 20
15.72358804945452
 30
0.0
  0
VERTEX
  5
234
330
232
100
AcDbEntity
  8
BEMAßUNG
 62
     7
100
AcDbVertex
100
AcDb2dVertex
 10
30.80087618587617
 20
13.81018201694676
 30
0.0
  0
SEQEND
  5
235
330
232
100
AcDbEntity
  8
BEMAßUNG
  0
POLYLINE
  5
236
330
1F
100
AcDbEntity
  8
BEMAßUNG
 62
     7
100
AcDb2dPolyline
 66
     1
 10
0.0
 20
0.0
 30
0.0
  0
VERTEX
  5
237
330
236
100
AcDbEntity
  8
BEMAßUNG
 62
     7
100
AcDbVertex
100
AcDb2dVertex
 10
30.90216199314252
 20
15.72358804945452
 30
0.0
  0
VERTEX
  5
238
330
236
100
AcDbEntity
  8
BEMAßUNG
 62
     7
100
AcDbVertex
100
AcDb2dVertex
 10
30.90216199314252
 20
13.03779160915375
 30
0.0
  0
SEQEND
  5
239
330
236
100
AcDbEntity
  8
BEMAßUNG
  0
POLYLINE
  5
23A
330
1F
100
AcDbEntity
  8
BEMAßUNG
 62
     7
100
AcDb2dPolyline
 66
     1
 10
0.0
 20
0.0
 30
0.0
  0
VERTEX
  5
23B
330
23A
100
AcDbEntity
  8
BEMAßUNG
 62
     7
100
AcDbVertex
100
AcDb2dVertex
 10
31.00413681950591
 20
15.72358804945452
 30
0.0
  0
VERTEX
  5
23C
330
23A
100
AcDbEntity
  8
BEMAßUNG
 62
     7
100
AcDbVertex
100
AcDb2dVertex
 10
31.00413681950591
 20
12.26677923955483
 30
0.0
  0
SEQEND
  5
23D
330
23A
100
AcDbEntity
  8
BEMAßUNG
  0
POLYLINE
  5
23E
330
1F
100
AcDbEntity
  8
BEMAßUNG
 62
     7
100
AcDb2dPolyline
 66
     1
 10
0.0
 20
0.0
 30
0.0
  0
VERTEX
  5
23F
330
23E
100
AcDbEntity
  8
BEMAßUNG
 62
     7
100
AcDbVertex
100
AcDb2dVertex
 10
31.10542262677226
 20
15.72358804945452
 30
0.0
  0
VERTEX
  5
240
330
23E
100
AcDbEntity
  8
BEMAßUNG
 62
     7
100
AcDbVertex
100
AcDb2dVertex
 10
31.10542262677226
 20
11.49438883176182
 30
0.0
  0
SEQEND
  5
241
330
23E
100
AcDbEntity
  8
BEMAßUNG
  0
POLYLINE
  5
242
330
1F
100
AcDbEntity
  8
BEMAßUNG
 62
     7
100
AcDb2dPolyline
 66
     1
 10
0.0
 20
0.0
 30
0.0
  0
VERTEX
  5
243
330
242
100
AcDbEntity
  8
BEMAßUNG
 62
     7
100
AcDbVertex
100
AcDb2dVertex
 10
31.2067084340386
 20
15.72358804945452
 30
0.0
  0
VERTEX
  5
244
330
242
100
AcDbEntity
  8
BEMAßUNG
 62
     7
100
AcDbVertex
100
AcDb2dVertex
 10
31.2067084340386
 20
10.72337646216291
 30
0.0
  0
SEQEND
  5
245
330
242
100
AcDbEntity
  8
BEMAßUNG
  0
POLYLINE
  5
246
330
1F
100
AcDbEntity
  8
BEMAßUNG
 62
     7
100
AcDb2dPolyline
 66
     1
 10
0.0
 20
0.0
 30
0.0
  0
VERTEX
  5
247
330
246
100
AcDbEntity
  8
BEMAßUNG
 62
     7
100
AcDbVertex
100
AcDb2dVertex
 10
-68.91121146280692
 20
16.72266574017697
 30
0.0
  0
VERTEX
  5
248
330
246
100
AcDbEntity
  8
BEMAßUNG
 62
     7
100
AcDbVertex
100
AcDb2dVertex
 10
-93.09371471196962
 20
16.72266574017697
 30
0.0
  0
SEQEND
  5
249
330
246
100
AcDbEntity
  8
BEMAßUNG
  0
POLYLINE
  5
24A
330
1F
100
AcDbEntity
  8
BEMAßUNG
 62
     7
100
AcDb2dPolyline
 66
     1
 10
0.0
 20
0.0
 30
0.0
  0
VERTEX
  5
24B
330
24A
100
AcDbEntity
  8
BEMAßUNG
 62
     7
100
AcDbVertex
100
AcDb2dVertex
 10
-68.91121146280692
 20
28.72331135349626
 30
0.0
  0
VERTEX
  5
24C
330
24A
100
AcDbEntity
  8
BEMAßUNG
 62
     7
100
AcDbVertex
100
AcDb2dVertex
 10
-93.09371471196962
 20
28.72331135349626
 30
0.0
  0
SEQEND
  5
24D
330
24A
100
AcDbEntity
  8
BEMAßUNG
  0
POLYLINE
  5
24E
330
1F
100
AcDbEntity
  8
BEMAßUNG
 62
     7
100
AcDb2dPolyline
 66
     1
 10
0.0
 20
0.0
 30
0.0
  0
VERTEX
  5
24F
330
24E
100
AcDbEntity
  8
BEMAßUNG
 62
     7
100
AcDbVertex
100
AcDb2dVertex
 10
-89.09258081540047
 20
16.72266574017697
 30
0.0
  0
VERTEX
  5
250
330
24E
100
AcDbEntity
  8
BEMAßUNG
 62
     7
100
AcDbVertex
100
AcDb2dVertex
 10
-89.09258081540047
 20
28.72331135349626
 30
0.0
  0
SEQEND
  5
251
330
24E
100
AcDbEntity
  8
BEMAßUNG
  0
POLYLINE
  5
252
330
1F
100
AcDbEntity
  8
BEMAßUNG
 62
     7
100
AcDb2dPolyline
 66
     1
 10
0.0
 20
0.0
 30
0.0
  0
VERTEX
  5
253
330
252
100
AcDbEntity
  8
BEMAßUNG
 62
     7
100
AcDbVertex
100
AcDb2dVertex
 10
-89.09258081540047
 20
16.72266574017697
 30
0.0
  0
VERTEX
  5
254
330
252
100
AcDbEntity
  8
BEMAßUNG
 62
     7
100
AcDbVertex
100
AcDb2dVertex
 10
-88.4352565968148
 20
21.72356634656564
 30
0.0
  0
VERTEX
  5
255
330
252
100
AcDbEntity
  8
BEMAßUNG
 62
     7
100
AcDbVertex
100
AcDb2dVertex
 10
-89.75128307218024
 20
21.72356634656564
 30
0.0
  0
VERTEX
  5
256
330
252
100
AcDbEntity
  8
BEMAßUNG
 62
     7
100
AcDbVertex
100
AcDb2dVertex
 10
-89.09258081540047
 20
16.72266574017697
 30
0.0
  0
SEQEND
  5
257
330
252
100
AcDbEntity
  8
BEMAßUNG
  0
HATCH
  5
258
330
1F
100
AcDbEntity
  8
BEMAßUNG
 62
     7
100
AcDbHatch
 10
0.0
 20
0.0
 30
0.0
210
0.0
220
0.0
230
1.0
  2
SOLID
 70
     1
 71
     0
 91
        1
 92
        1
 93
        3
 72
     1
 10
-89.09258081540047
 20
16.72266574017697
 11
-88.4352565968148
 21
21.72356634656564
 72
     1
 10
-88.4352565968148
 20
21.72356634656564
 11
-89.75128307218024
 21
21.72356634656564
 72
     1
 10
-89.75128307218024
 20
21.72356634656564
 11
-89.09258081540047
 21
16.72266574017697
 97
        0
 75
     0
 76
     1
 98
        0
  0
POLYLINE
  5
259
330
1F
100
AcDbEntity
  8
BEMAßUNG
 62
     7
100
AcDb2dPolyline
 66
     1
 10
0.0
 20
0.0
 30
0.0
  0
VERTEX
  5
25A
330
259
100
AcDbEntity
  8
BEMAßUNG
 62
     7
100
AcDbVertex
100
AcDb2dVertex
 10
-88.4834879336083
 20
21.72356634656564
 30
0.0
  0
VERTEX
  5
25B
330
259
100
AcDbEntity
  8
BEMAßUNG
 62
     7
100
AcDbVertex
100
AcDb2dVertex
 10
-88.4834879336083
 20
21.35425211054686
 30
0.0
  0
SEQEND
  5
25C
330
259
100
AcDbEntity
  8
BEMAßUNG
  0
POLYLINE
  5
25D
330
1F
100
AcDbEntity
  8
BEMAßUNG
 62
     7
100
AcDb2dPolyline
 66
     1
 10
0.0
 20
0.0
 30
0.0
  0
VERTEX
  5
25E
330
25D
100
AcDbEntity
  8
BEMAßUNG
 62
     7
100
AcDbVertex
100
AcDb2dVertex
 10
-88.4834879336083
 20
21.72356634656564
 30
0.0
  0
VERTEX
  5
25F
330
25D
100
AcDbEntity
  8
BEMAßUNG
 62
     7
100
AcDbVertex
100
AcDb2dVertex
 10
-88.4834879336083
 20
21.35425211054686
 30
0.0
  0
SEQEND
  5
260
330
25D
100
AcDbEntity
  8
BEMAßUNG
  0
POLYLINE
  5
261
330
1F
100
AcDbEntity
  8
BEMAßUNG
 62
     7
100
AcDb2dPolyline
 66
     1
 10
0.0
 20
0.0
 30
0.0
  0
VERTEX
  5
262
330
261
100
AcDbEntity
  8
BEMAßUNG
 62
     7
100
AcDbVertex
100
AcDb2dVertex
 10
-88.58546275997169
 20
21.72356634656564
 30
0.0
  0
VERTEX
  5
263
330
261
100
AcDbEntity
  8
BEMAßUNG
 62
     7
100
AcDbVertex
100
AcDb2dVertex
 10
-88.58546275997169
 20
20.58117268365679
 30
0.0
  0
SEQEND
  5
264
330
261
100
AcDbEntity
  8
BEMAßUNG
  0
POLYLINE
  5
265
330
1F
100
AcDbEntity
  8
BEMAßUNG
 62
     7
100
AcDb2dPolyline
 66
     1
 10
0.0
 20
0.0
 30
0.0
  0
VERTEX
  5
266
330
265
100
AcDbEntity
  8
BEMAßUNG
 62
     7
100
AcDbVertex
100
AcDb2dVertex
 10
-88.68674856723804
 20
21.72356634656564
 30
0.0
  0
VERTEX
  5
267
330
265
100
AcDbEntity
  8
BEMAßUNG
 62
     7
100
AcDbVertex
100
AcDb2dVertex
 10
-88.68674856723804
 20
19.80947129496083
 30
0.0
  0
SEQEND
  5
268
330
265
100
AcDbEntity
  8
BEMAßUNG
  0
POLYLINE
  5
269
330
1F
100
AcDbEntity
  8
BEMAßUNG
 62
     7
100
AcDb2dPolyline
 66
     1
 10
0.0
 20
0.0
 30
0.0
  0
VERTEX
  5
26A
330
269
100
AcDbEntity
  8
BEMAßUNG
 62
     7
100
AcDbVertex
100
AcDb2dVertex
 10
-88.78872339360143
 20
21.72356634656564
 30
0.0
  0
VERTEX
  5
26B
330
269
100
AcDbEntity
  8
BEMAßUNG
 62
     7
100
AcDbVertex
100
AcDb2dVertex
 10
-88.78872339360143
 20
19.03845892536192
 30
0.0
  0
SEQEND
  5
26C
330
269
100
AcDbEntity
  8
BEMAßUNG
  0
POLYLINE
  5
26D
330
1F
100
AcDbEntity
  8
BEMAßUNG
 62
     7
100
AcDb2dPolyline
 66
     1
 10
0.0
 20
0.0
 30
0.0
  0
VERTEX
  5
26E
330
26D
100
AcDbEntity
  8
BEMAßUNG
 62
     7
100
AcDbVertex
100
AcDb2dVertex
 10
-88.89069821996483
 20
21.72356634656564
 30
0.0
  0
VERTEX
  5
26F
330
26D
100
AcDbEntity
  8
BEMAßUNG
 62
     7
100
AcDbVertex
100
AcDb2dVertex
 10
-88.89069821996483
 20
18.267446555763
 30
0.0
  0
SEQEND
  5
270
330
26D
100
AcDbEntity
  8
BEMAßUNG
  0
POLYLINE
  5
271
330
1F
100
AcDbEntity
  8
BEMAßUNG
 62
     7
100
AcDb2dPolyline
 66
     1
 10
0.0
 20
0.0
 30
0.0
  0
VERTEX
  5
272
330
271
100
AcDbEntity
  8
BEMAßUNG
 62
     7
100
AcDbVertex
100
AcDb2dVertex
 10
-88.99267304632822
 20
21.72356634656564
 30
0.0
  0
VERTEX
  5
273
330
271
100
AcDbEntity
  8
BEMAßUNG
 62
     7
100
AcDbVertex
100
AcDb2dVertex
 10
-88.99267304632822
 20
17.49436712887294
 30
0.0
  0
SEQEND
  5
274
330
271
100
AcDbEntity
  8
BEMAßUNG
  0
POLYLINE
  5
275
330
1F
100
AcDbEntity
  8
BEMAßUNG
 62
     7
100
AcDb2dPolyline
 66
     1
 10
0.0
 20
0.0
 30
0.0
  0
VERTEX
  5
276
330
275
100
AcDbEntity
  8
BEMAßUNG
 62
     7
100
AcDbVertex
100
AcDb2dVertex
 10
-89.09258081540047
 20
21.72356634656564
 30
0.0
  0
VERTEX
  5
277
330
275
100
AcDbEntity
  8
BEMAßUNG
 62
     7
100
AcDbVertex
100
AcDb2dVertex
 10
-89.09258081540047
 20
16.72266574017697
 30
0.0
  0
SEQEND
  5
278
330
275
100
AcDbEntity
  8
BEMAßUNG
  0
POLYLINE
  5
279
330
1F
100
AcDbEntity
  8
BEMAßUNG
 62
     7
100
AcDb2dPolyline
 66
     1
 10
0.0
 20
0.0
 30
0.0
  0
VERTEX
  5
27A
330
279
100
AcDbEntity
  8
BEMAßUNG
 62
     7
100
AcDbVertex
100
AcDb2dVertex
 10
-89.70305173538674
 20
21.72356634656564
 30
0.0
  0
VERTEX
  5
27B
330
279
100
AcDbEntity
  8
BEMAßUNG
 62
     7
100
AcDbVertex
100
AcDb2dVertex
 10
-89.70305173538674
 20
21.35425211054686
 30
0.0
  0
SEQEND
  5
27C
330
279
100
AcDbEntity
  8
BEMAßUNG
  0
POLYLINE
  5
27D
330
1F
100
AcDbEntity
  8
BEMAßUNG
 62
     7
100
AcDb2dPolyline
 66
     1
 10
0.0
 20
0.0
 30
0.0
  0
VERTEX
  5
27E
330
27D
100
AcDbEntity
  8
BEMAßUNG
 62
     7
100
AcDbVertex
100
AcDb2dVertex
 10
-89.70305173538674
 20
21.72356634656564
 30
0.0
  0
VERTEX
  5
27F
330
27D
100
AcDbEntity
  8
BEMAßUNG
 62
     7
100
AcDbVertex
100
AcDb2dVertex
 10
-89.70305173538674
 20
21.35425211054686
 30
0.0
  0
SEQEND
  5
280
330
27D
100
AcDbEntity
  8
BEMAßUNG
  0
POLYLINE
  5
281
330
1F
100
AcDbEntity
  8
BEMAßUNG
 62
     7
100
AcDb2dPolyline
 66
     1
 10
0.0
 20
0.0
 30
0.0
  0
VERTEX
  5
282
330
281
100
AcDbEntity
  8
BEMAßUNG
 62
     7
100
AcDbVertex
100
AcDb2dVertex
 10
-89.60107690902335
 20
21.72356634656564
 30
0.0
  0
VERTEX
  5
283
330
281
100
AcDbEntity
  8
BEMAßUNG
 62
     7
100
AcDbVertex
100
AcDb2dVertex
 10
-89.60107690902335
 20
20.58117268365679
 30
0.0
  0
SEQEND
  5
284
330
281
100
AcDbEntity
  8
BEMAßUNG
  0
POLYLINE
  5
285
330
1F
100
AcDbEntity
  8
BEMAßUNG
 62
     7
100
AcDb2dPolyline
 66
     1
 10
0.0
 20
0.0
 30
0.0
  0
VERTEX
  5
286
330
285
100
AcDbEntity
  8
BEMAßUNG
 62
     7
100
AcDbVertex
100
AcDb2dVertex
 10
-89.499791101757
 20
21.72356634656564
 30
0.0
  0
VERTEX
  5
287
330
285
100
AcDbEntity
  8
BEMAßUNG
 62
     7
100
AcDbVertex
100
AcDb2dVertex
 10
-89.499791101757
 20
19.80947129496083
 30
0.0
  0
SEQEND
  5
288
330
285
100
AcDbEntity
  8
BEMAßUNG
  0
POLYLINE
  5
289
330
1F
100
AcDbEntity
  8
BEMAßUNG
 62
     7
100
AcDb2dPolyline
 66
     1
 10
0.0
 20
0.0
 30
0.0
  0
VERTEX
  5
28A
330
289
100
AcDbEntity
  8
BEMAßUNG
 62
     7
100
AcDbVertex
100
AcDb2dVertex
 10
-89.39850529449066
 20
21.72356634656564
 30
0.0
  0
VERTEX
  5
28B
330
289
100
AcDbEntity
  8
BEMAßUNG
 62
     7
100
AcDbVertex
100
AcDb2dVertex
 10
-89.39850529449066
 20
19.03845892536192
 30
0.0
  0
SEQEND
  5
28C
330
289
100
AcDbEntity
  8
BEMAßUNG
  0
POLYLINE
  5
28D
330
1F
100
AcDbEntity
  8
BEMAßUNG
 62
     7
100
AcDb2dPolyline
 66
     1
 10
0.0
 20
0.0
 30
0.0
  0
VERTEX
  5
28E
330
28D
100
AcDbEntity
  8
BEMAßUNG
 62
     7
100
AcDbVertex
100
AcDb2dVertex
 10
-89.29653046812726
 20
21.72356634656564
 30
0.0
  0
VERTEX
  5
28F
330
28D
100
AcDbEntity
  8
BEMAßUNG
 62
     7
100
AcDbVertex
100
AcDb2dVertex
 10
-89.29653046812726
 20
18.267446555763
 30
0.0
  0
SEQEND
  5
290
330
28D
100
AcDbEntity
  8
BEMAßUNG
  0
POLYLINE
  5
291
330
1F
100
AcDbEntity
  8
BEMAßUNG
 62
     7
100
AcDb2dPolyline
 66
     1
 10
0.0
 20
0.0
 30
0.0
  0
VERTEX
  5
292
330
291
100
AcDbEntity
  8
BEMAßUNG
 62
     7
100
AcDbVertex
100
AcDb2dVertex
 10
-89.19524466086092
 20
21.72356634656564
 30
0.0
  0
VERTEX
  5
293
330
291
100
AcDbEntity
  8
BEMAßUNG
 62
     7
100
AcDbVertex
100
AcDb2dVertex
 10
-89.19524466086092
 20
17.49436712887294
 30
0.0
  0
SEQEND
  5
294
330
291
100
AcDbEntity
  8
BEMAßUNG
  0
POLYLINE
  5
295
330
1F
100
AcDbEntity
  8
BEMAßUNG
 62
     7
100
AcDb2dPolyline
 66
     1
 10
0.0
 20
0.0
 30
0.0
  0
VERTEX
  5
296
330
295
100
AcDbEntity
  8
BEMAßUNG
 62
     7
100
AcDbVertex
100
AcDb2dVertex
 10
-89.09258081540047
 20
21.72356634656564
 30
0.0
  0
VERTEX
  5
297
330
295
100
AcDbEntity
  8
BEMAßUNG
 62
     7
100
AcDbVertex
100
AcDb2dVertex
 10
-89.09258081540047
 20
16.72266574017697
 30
0.0
  0
SEQEND
  5
298
330
295
100
AcDbEntity
  8
BEMAßUNG
  0
POLYLINE
  5
299
330
1F
100
AcDbEntity
  8
BEMAßUNG
 62
     7
100
AcDb2dPolyline
 66
     1
 10
0.0
 20
0.0
 30
0.0
  0
VERTEX
  5
29A
330
299
100
AcDbEntity
  8
BEMAßUNG
 62
     7
100
AcDbVertex
100
AcDb2dVertex
 10
-89.09258081540047
 20
28.72331135349626
 30
0.0
  0
VERTEX
  5
29B
330
299
100
AcDbEntity
  8
BEMAßUNG
 62
     7
100
AcDbVertex
100
AcDb2dVertex
 10
-89.75128307218024
 20
23.72309976620464
 30
0.0
  0
VERTEX
  5
29C
330
299
100
AcDbEntity
  8
BEMAßUNG
 62
     7
100
AcDbVertex
100
AcDb2dVertex
 10
-88.4352565968148
 20
23.72309976620464
 30
0.0
  0
VERTEX
  5
29D
330
299
100
AcDbEntity
  8
BEMAßUNG
 62
     7
100
AcDbVertex
100
AcDb2dVertex
 10
-89.09258081540047
 20
28.72331135349626
 30
0.0
  0
SEQEND
  5
29E
330
299
100
AcDbEntity
  8
BEMAßUNG
  0
HATCH
  5
29F
330
1F
100
AcDbEntity
  8
BEMAßUNG
 62
     7
100
AcDbHatch
 10
0.0
 20
0.0
 30
0.0
210
0.0
220
0.0
230
1.0
  2
SOLID
 70
     1
 71
     0
 91
        1
 92
        1
 93
        3
 72
     1
 10
-89.09258081540047
 20
28.72331135349626
 11
-89.75128307218024
 21
23.72309976620464
 72
     1
 10
-89.75128307218024
 20
23.72309976620464
 11
-88.4352565968148
 21
23.72309976620464
 72
     1
 10
-88.4352565968148
 20
23.72309976620464
 11
-89.09258081540047
 21
28.72331135349626
 97
        0
 75
     0
 76
     1
 98
        0
  0
POLYLINE
  5
2A0
330
1F
100
AcDbEntity
  8
BEMAßUNG
 62
     7
100
AcDb2dPolyline
 66
     1
 10
0.0
 20
0.0
 30
0.0
  0
VERTEX
  5
2A1
330
2A0
100
AcDbEntity
  8
BEMAßUNG
 62
     7
100
AcDbVertex
100
AcDb2dVertex
 10
-89.70305173538674
 20
23.72309976620464
 30
0.0
  0
VERTEX
  5
2A2
330
2A0
100
AcDbEntity
  8
BEMAßUNG
 62
     7
100
AcDbVertex
100
AcDb2dVertex
 10
-89.70305173538674
 20
24.09241400222342
 30
0.0
  0
SEQEND
  5
2A3
330
2A0
100
AcDbEntity
  8
BEMAßUNG
  0
POLYLINE
  5
2A4
330
1F
100
AcDbEntity
  8
BEMAßUNG
 62
     7
100
AcDb2dPolyline
 66
     1
 10
0.0
 20
0.0
 30
0.0
  0
VERTEX
  5
2A5
330
2A4
100
AcDbEntity
  8
BEMAßUNG
 62
     7
100
AcDbVertex
100
AcDb2dVertex
 10
-89.70305173538674
 20
23.72309976620464
 30
0.0
  0
VERTEX
  5
2A6
330
2A4
100
AcDbEntity
  8
BEMAßUNG
 62
     7
100
AcDbVertex
100
AcDb2dVertex
 10
-89.70305173538674
 20
24.09241400222342
 30
0.0
  0
SEQEND
  5
2A7
330
2A4
100
AcDbEntity
  8
BEMAßUNG
  0
POLYLINE
  5
2A8
330
1F
100
AcDbEntity
  8
BEMAßUNG
 62
     7
100
AcDb2dPolyline
 66
     1
 10
0.0
 20
0.0
 30
0.0
  0
VERTEX
  5
2A9
330
2A8
100
AcDbEntity
  8
BEMAßUNG
 62
     7
100
AcDbVertex
100
AcDb2dVertex
 10
-89.60107690902335
 20
23.72309976620464
 30
0.0
  0
VERTEX
  5
2AA
330
2A8
100
AcDbEntity
  8
BEMAßUNG
 62
     7
100
AcDbVertex
100
AcDb2dVertex
 10
-89.60107690902335
 20
24.86480441001644
 30
0.0
  0
SEQEND
  5
2AB
330
2A8
100
AcDbEntity
  8
BEMAßUNG
  0
POLYLINE
  5
2AC
330
1F
100
AcDbEntity
  8
BEMAßUNG
 62
     7
100
AcDb2dPolyline
 66
     1
 10
0.0
 20
0.0
 30
0.0
  0
VERTEX
  5
2AD
330
2AC
100
AcDbEntity
  8
BEMAßUNG
 62
     7
100
AcDbVertex
100
AcDb2dVertex
 10
-89.499791101757
 20
23.72309976620464
 30
0.0
  0
VERTEX
  5
2AE
330
2AC
100
AcDbEntity
  8
BEMAßUNG
 62
     7
100
AcDbVertex
100
AcDb2dVertex
 10
-89.499791101757
 20
25.6365057987124
 30
0.0
  0
SEQEND
  5
2AF
330
2AC
100
AcDbEntity
  8
BEMAßUNG
  0
POLYLINE
  5
2B0
330
1F
100
AcDbEntity
  8
BEMAßUNG
 62
     7
100
AcDb2dPolyline
 66
     1
 10
0.0
 20
0.0
 30
0.0
  0
VERTEX
  5
2B1
330
2B0
100
AcDbEntity
  8
BEMAßUNG
 62
     7
100
AcDbVertex
100
AcDb2dVertex
 10
-89.39850529449066
 20
23.72309976620464
 30
0.0
  0
VERTEX
  5
2B2
330
2B0
100
AcDbEntity
  8
BEMAßUNG
 62
     7
100
AcDbVertex
100
AcDb2dVertex
 10
-89.39850529449066
 20
26.40889620650542
 30
0.0
  0
SEQEND
  5
2B3
330
2B0
100
AcDbEntity
  8
BEMAßUNG
  0
POLYLINE
  5
2B4
330
1F
100
AcDbEntity
  8
BEMAßUNG
 62
     7
100
AcDb2dPolyline
 66
     1
 10
0.0
 20
0.0
 30
0.0
  0
VERTEX
  5
2B5
330
2B4
100
AcDbEntity
  8
BEMAßUNG
 62
     7
100
AcDbVertex
100
AcDb2dVertex
 10
-89.29653046812726
 20
23.72309976620464
 30
0.0
  0
VERTEX
  5
2B6
330
2B4
100
AcDbEntity
  8
BEMAßUNG
 62
     7
100
AcDbVertex
100
AcDb2dVertex
 10
-89.29653046812726
 20
27.17921955700728
 30
0.0
  0
SEQEND
  5
2B7
330
2B4
100
AcDbEntity
  8
BEMAßUNG
  0
POLYLINE
  5
2B8
330
1F
100
AcDbEntity
  8
BEMAßUNG
 62
     7
100
AcDb2dPolyline
 66
     1
 10
0.0
 20
0.0
 30
0.0
  0
VERTEX
  5
2B9
330
2B8
100
AcDbEntity
  8
BEMAßUNG
 62
     7
100
AcDbVertex
100
AcDb2dVertex
 10
-89.19524466086092
 20
23.72309976620464
 30
0.0
  0
VERTEX
  5
2BA
330
2B8
100
AcDbEntity
  8
BEMAßUNG
 62
     7
100
AcDbVertex
100
AcDb2dVertex
 10
-89.19524466086092
 20
27.95160996480029
 30
0.0
  0
SEQEND
  5
2BB
330
2B8
100
AcDbEntity
  8
BEMAßUNG
  0
POLYLINE
  5
2BC
330
1F
100
AcDbEntity
  8
BEMAßUNG
 62
     7
100
AcDb2dPolyline
 66
     1
 10
0.0
 20
0.0
 30
0.0
  0
VERTEX
  5
2BD
330
2BC
100
AcDbEntity
  8
BEMAßUNG
 62
     7
100
AcDbVertex
100
AcDb2dVertex
 10
-89.09258081540047
 20
23.72309976620464
 30
0.0
  0
VERTEX
  5
2BE
330
2BC
100
AcDbEntity
  8
BEMAßUNG
 62
     7
100
AcDbVertex
100
AcDb2dVertex
 10
-89.09258081540047
 20
28.72331135349626
 30
0.0
  0
SEQEND
  5
2BF
330
2BC
100
AcDbEntity
  8
BEMAßUNG
  0
POLYLINE
  5
2C0
330
1F
100
AcDbEntity
  8
BEMAßUNG
 62
     7
100
AcDb2dPolyline
 66
     1
 10
0.0
 20
0.0
 30
0.0
  0
VERTEX
  5
2C1
330
2C0
100
AcDbEntity
  8
BEMAßUNG
 62
     7
100
AcDbVertex
100
AcDb2dVertex
 10
-88.4834879336083
 20
23.72309976620464
 30
0.0
  0
VERTEX
  5
2C2
330
2C0
100
AcDbEntity
  8
BEMAßUNG
 62
     7
100
AcDbVertex
100
AcDb2dVertex
 10
-88.4834879336083
 20
24.09241400222342
 30
0.0
  0
SEQEND
  5
2C3
330
2C0
100
AcDbEntity
  8
BEMAßUNG
  0
POLYLINE
  5
2C4
330
1F
100
AcDbEntity
  8
BEMAßUNG
 62
     7
100
AcDb2dPolyline
 66
     1
 10
0.0
 20
0.0
 30
0.0
  0
VERTEX
  5
2C5
330
2C4
100
AcDbEntity
  8
BEMAßUNG
 62
     7
100
AcDbVertex
100
AcDb2dVertex
 10
-88.4834879336083
 20
23.72309976620464
 30
0.0
  0
VERTEX
  5
2C6
330
2C4
100
AcDbEntity
  8
BEMAßUNG
 62
     7
100
AcDbVertex
100
AcDb2dVertex
 10
-88.4834879336083
 20
24.09241400222342
 30
0.0
  0
SEQEND
  5
2C7
330
2C4
100
AcDbEntity
  8
BEMAßUNG
  0
POLYLINE
  5
2C8
330
1F
100
AcDbEntity
  8
BEMAßUNG
 62
     7
100
AcDb2dPolyline
 66
     1
 10
0.0
 20
0.0
 30
0.0
  0
VERTEX
  5
2C9
330
2C8
100
AcDbEntity
  8
BEMAßUNG
 62
     7
100
AcDbVertex
100
AcDb2dVertex
 10
-88.58546275997169
 20
23.72309976620464
 30
0.0
  0
VERTEX
  5
2CA
330
2C8
100
AcDbEntity
  8
BEMAßUNG
 62
     7
100
AcDbVertex
100
AcDb2dVertex
 10
-88.58546275997169
 20
24.86480441001644
 30
0.0
  0
SEQEND
  5
2CB
330
2C8
100
AcDbEntity
  8
BEMAßUNG
  0
POLYLINE
  5
2CC
330
1F
100
AcDbEntity
  8
BEMAßUNG
 62
     7
100
AcDb2dPolyline
 66
     1
 10
0.0
 20
0.0
 30
0.0
  0
VERTEX
  5
2CD
330
2CC
100
AcDbEntity
  8
BEMAßUNG
 62
     7
100
AcDbVertex
100
AcDb2dVertex
 10
-88.68674856723804
 20
23.72309976620464
 30
0.0
  0
VERTEX
  5
2CE
330
2CC
100
AcDbEntity
  8
BEMAßUNG
 62
     7
100
AcDbVertex
100
AcDb2dVertex
 10
-88.68674856723804
 20
25.6365057987124
 30
0.0
  0
SEQEND
  5
2CF
330
2CC
100
AcDbEntity
  8
BEMAßUNG
  0
POLYLINE
  5
2D0
330
1F
100
AcDbEntity
  8
BEMAßUNG
 62
     7
100
AcDb2dPolyline
 66
     1
 10
0.0
 20
0.0
 30
0.0
  0
VERTEX
  5
2D1
330
2D0
100
AcDbEntity
  8
BEMAßUNG
 62
     7
100
AcDbVertex
100
AcDb2dVertex
 10
-88.78872339360143
 20
23.72309976620464
 30
0.0
  0
VERTEX
  5
2D2
330
2D0
100
AcDbEntity
  8
BEMAßUNG
 62
     7
100
AcDbVertex
100
AcDb2dVertex
 10
-88.78872339360143
 20
26.40889620650542
 30
0.0
  0
SEQEND
  5
2D3
330
2D0
100
AcDbEntity
  8
BEMAßUNG
  0
POLYLINE
  5
2D4
330
1F
100
AcDbEntity
  8
BEMAßUNG
 62
     7
100
AcDb2dPolyline
 66
     1
 10
0.0
 20
0.0
 30
0.0
  0
VERTEX
  5
2D5
330
2D4
100
AcDbEntity
  8
BEMAßUNG
 62
     7
100
AcDbVertex
100
AcDb2dVertex
 10
-88.89069821996483
 20
23.72309976620464
 30
0.0
  0
VERTEX
  5
2D6
330
2D4
100
AcDbEntity
  8
BEMAßUNG
 62
     7
100
AcDbVertex
100
AcDb2dVertex
 10
-88.89069821996483
 20
27.17921955700728
 30
0.0
  0
SEQEND
  5
2D7
330
2D4
100
AcDbEntity
  8
BEMAßUNG
  0
POLYLINE
  5
2D8
330
1F
100
AcDbEntity
  8
BEMAßUNG
 62
     7
100
AcDb2dPolyline
 66
     1
 10
0.0
 20
0.0
 30
0.0
  0
VERTEX
  5
2D9
330
2D8
100
AcDbEntity
  8
BEMAßUNG
 62
     7
100
AcDbVertex
100
AcDb2dVertex
 10
-88.99267304632822
 20
23.72309976620464
 30
0.0
  0
VERTEX
  5
2DA
330
2D8
100
AcDbEntity
  8
BEMAßUNG
 62
     7
100
AcDbVertex
100
AcDb2dVertex
 10
-88.99267304632822
 20
27.95160996480029
 30
0.0
  0
SEQEND
  5
2DB
330
2D8
100
AcDbEntity
  8
BEMAßUNG
  0
POLYLINE
  5
2DC
330
1F
100
AcDbEntity
  8
BEMAßUNG
 62
     7
100
AcDb2dPolyline
 66
     1
 10
0.0
 20
0.0
 30
0.0
  0
VERTEX
  5
2DD
330
2DC
100
AcDbEntity
  8
BEMAßUNG
 62
     7
100
AcDbVertex
100
AcDb2dVertex
 10
-89.09258081540047
 20
23.72309976620464
 30
0.0
  0
VERTEX
  5
2DE
330
2DC
100
AcDbEntity
  8
BEMAßUNG
 62
     7
100
AcDbVertex
100
AcDb2dVertex
 10
-89.09258081540047
 20
28.72331135349626
 30
0.0
  0
SEQEND
  5
2DF
330
2DC
100
AcDbEntity
  8
BEMAßUNG
  0
POLYLINE
  5
2E0
330
1F
100
AcDbEntity
  8
BEMAßUNG
 62
     7
100
AcDb2dPolyline
 66
     1
 10
0.0
 20
0.0
 30
0.0
  0
VERTEX
  5
2E1
330
2E0
100
AcDbEntity
  8
BEMAßUNG
 62
     7
100
AcDbVertex
100
AcDb2dVertex
 10
-68.91121146280692
 20
6.722931584690795
 30
0.0
  0
VERTEX
  5
2E2
330
2E0
100
AcDbEntity
  8
BEMAßUNG
 62
     7
100
AcDbVertex
100
AcDb2dVertex
 10
-68.91121146280692
 20
-31.06425373572352
 30
0.0
  0
SEQEND
  5
2E3
330
2E0
100
AcDbEntity
  8
BEMAßUNG
  0
POLYLINE
  5
2E4
330
1F
100
AcDbEntity
  8
BEMAßUNG
 62
     7
100
AcDb2dPolyline
 66
     1
 10
0.0
 20
0.0
 30
0.0
  0
VERTEX
  5
2E5
330
2E4
100
AcDbEntity
  8
BEMAßUNG
 62
     7
100
AcDbVertex
100
AcDb2dVertex
 10
-18.91185166627898
 20
11.72245415288536
 30
0.0
  0
VERTEX
  5
2E6
330
2E4
100
AcDbEntity
  8
BEMAßUNG
 62
     7
100
AcDbVertex
100
AcDb2dVertex
 10
-18.91185166627898
 20
-31.06425373572352
 30
0.0
  0
SEQEND
  5
2E7
330
2E4
100
AcDbEntity
  8
BEMAßUNG
  0
POLYLINE
  5
2E8
330
1F
100
AcDbEntity
  8
BEMAßUNG
 62
     7
100
AcDb2dPolyline
 66
     1
 10
0.0
 20
0.0
 30
0.0
  0
VERTEX
  5
2E9
330
2E8
100
AcDbEntity
  8
BEMAßUNG
 62
     7
100
AcDbVertex
100
AcDb2dVertex
 10
-68.91121146280692
 20
-27.06449787734846
 30
0.0
  0
VERTEX
  5
2EA
330
2E8
100
AcDbEntity
  8
BEMAßUNG
 62
     7
100
AcDbVertex
100
AcDb2dVertex
 10
-18.91185166627898
 20
-27.06449787734846
 30
0.0
  0
SEQEND
  5
2EB
330
2E8
100
AcDbEntity
  8
BEMAßUNG
  0
POLYLINE
  5
2EC
330
1F
100
AcDbEntity
  8
BEMAßUNG
 62
     7
100
AcDb2dPolyline
 66
     1
 10
0.0
 20
0.0
 30
0.0
  0
VERTEX
  5
2ED
330
2EC
100
AcDbEntity
  8
BEMAßUNG
 62
     7
100
AcDbVertex
100
AcDb2dVertex
 10
-68.91121146280692
 20
-27.06449787734846
 30
0.0
  0
VERTEX
  5
2EE
330
2EC
100
AcDbEntity
  8
BEMAßUNG
 62
     7
100
AcDbVertex
100
AcDb2dVertex
 10
-63.91237791370941
 20
-27.72113307683708
 30
0.0
  0
VERTEX
  5
2EF
330
2EC
100
AcDbEntity
  8
BEMAßUNG
 62
     7
100
AcDbVertex
100
AcDb2dVertex
 10
-63.91237791370941
 20
-26.40579562056869
 30
0.0
  0
VERTEX
  5
2F0
330
2EC
100
AcDbEntity
  8
BEMAßUNG
 62
     7
100
AcDbVertex
100
AcDb2dVertex
 10
-68.91121146280692
 20
-27.06449787734846
 30
0.0
  0
SEQEND
  5
2F1
330
2EC
100
AcDbEntity
  8
BEMAßUNG
  0
HATCH
  5
2F2
330
1F
100
AcDbEntity
  8
BEMAßUNG
 62
     7
100
AcDbHatch
 10
0.0
 20
0.0
 30
0.0
210
0.0
220
0.0
230
1.0
  2
SOLID
 70
     1
 71
     0
 91
        1
 92
        1
 93
        3
 72
     1
 10
-68.91121146280692
 20
-27.06449787734846
 11
-63.91237791370941
 21
-27.72113307683708
 72
     1
 10
-63.91237791370941
 20
-27.72113307683708
 11
-63.91237791370941
 21
-26.40579562056869
 72
     1
 10
-63.91237791370941
 20
-26.40579562056869
 11
-68.91121146280692
 21
-27.06449787734846
 97
        0
 75
     0
 76
     1
 98
        0
  0
POLYLINE
  5
2F3
330
1F
100
AcDbEntity
  8
BEMAßUNG
 62
     7
100
AcDb2dPolyline
 66
     1
 10
0.0
 20
0.0
 30
0.0
  0
VERTEX
  5
2F4
330
2F3
100
AcDbEntity
  8
BEMAßUNG
 62
     7
100
AcDbVertex
100
AcDb2dVertex
 10
-63.91237791370941
 20
-27.67290174004358
 30
0.0
  0
VERTEX
  5
2F5
330
2F3
100
AcDbEntity
  8
BEMAßUNG
 62
     7
100
AcDbVertex
100
AcDb2dVertex
 10
-64.28169214972819
 20
-27.67290174004358
 30
0.0
  0
SEQEND
  5
2F6
330
2F3
100
AcDbEntity
  8
BEMAßUNG
  0
POLYLINE
  5
2F7
330
1F
100
AcDbEntity
  8
BEMAßUNG
 62
     7
100
AcDb2dPolyline
 66
     1
 10
0.0
 20
0.0
 30
0.0
  0
VERTEX
  5
2F8
330
2F7
100
AcDbEntity
  8
BEMAßUNG
 62
     7
100
AcDbVertex
100
AcDb2dVertex
 10
-63.91237791370941
 20
-27.67290174004358
 30
0.0
  0
VERTEX
  5
2F9
330
2F7
100
AcDbEntity
  8
BEMAßUNG
 62
     7
100
AcDbVertex
100
AcDb2dVertex
 10
-64.28169214972819
 20
-27.67290174004358
 30
0.0
  0
SEQEND
  5
2FA
330
2F7
100
AcDbEntity
  8
BEMAßUNG
  0
POLYLINE
  5
2FB
330
1F
100
AcDbEntity
  8
BEMAßUNG
 62
     7
100
AcDb2dPolyline
 66
     1
 10
0.0
 20
0.0
 30
0.0
  0
VERTEX
  5
2FC
330
2FB
100
AcDbEntity
  8
BEMAßUNG
 62
     7
100
AcDbVertex
100
AcDb2dVertex
 10
-63.91237791370941
 20
-27.57230495187429
 30
0.0
  0
VERTEX
  5
2FD
330
2FB
100
AcDbEntity
  8
BEMAßUNG
 62
     7
100
AcDbVertex
100
AcDb2dVertex
 10
-65.05339353842416
 20
-27.57230495187429
 30
0.0
  0
SEQEND
  5
2FE
330
2FB
100
AcDbEntity
  8
BEMAßUNG
  0
POLYLINE
  5
2FF
330
1F
100
AcDbEntity
  8
BEMAßUNG
 62
     7
100
AcDb2dPolyline
 66
     1
 10
0.0
 20
0.0
 30
0.0
  0
VERTEX
  5
300
330
2FF
100
AcDbEntity
  8
BEMAßUNG
 62
     7
100
AcDbVertex
100
AcDb2dVertex
 10
-63.91237791370941
 20
-27.47033012551089
 30
0.0
  0
VERTEX
  5
301
330
2FF
100
AcDbEntity
  8
BEMAßUNG
 62
     7
100
AcDbVertex
100
AcDb2dVertex
 10
-65.82509492712012
 20
-27.47033012551089
 30
0.0
  0
SEQEND
  5
302
330
2FF
100
AcDbEntity
  8
BEMAßUNG
  0
POLYLINE
  5
303
330
1F
100
AcDbEntity
  8
BEMAßUNG
 62
     7
100
AcDb2dPolyline
 66
     1
 10
0.0
 20
0.0
 30
0.0
  0
VERTEX
  5
304
330
303
100
AcDbEntity
  8
BEMAßUNG
 62
     7
100
AcDbVertex
100
AcDb2dVertex
 10
-63.91237791370941
 20
-27.36766628005045
 30
0.0
  0
VERTEX
  5
305
330
303
100
AcDbEntity
  8
BEMAßUNG
 62
     7
100
AcDbVertex
100
AcDb2dVertex
 10
-66.59748533491313
 20
-27.36766628005045
 30
0.0
  0
SEQEND
  5
306
330
303
100
AcDbEntity
  8
BEMAßUNG
  0
POLYLINE
  5
307
330
1F
100
AcDbEntity
  8
BEMAßUNG
 62
     7
100
AcDb2dPolyline
 66
     1
 10
0.0
 20
0.0
 30
0.0
  0
VERTEX
  5
308
330
307
100
AcDbEntity
  8
BEMAßUNG
 62
     7
100
AcDbVertex
100
AcDb2dVertex
 10
-63.91237791370941
 20
-27.26706949188115
 30
0.0
  0
VERTEX
  5
309
330
307
100
AcDbEntity
  8
BEMAßUNG
 62
     7
100
AcDbVertex
100
AcDb2dVertex
 10
-67.36849770451205
 20
-27.26706949188115
 30
0.0
  0
SEQEND
  5
30A
330
307
100
AcDbEntity
  8
BEMAßUNG
  0
POLYLINE
  5
30B
330
1F
100
AcDbEntity
  8
BEMAßUNG
 62
     7
100
AcDb2dPolyline
 66
     1
 10
0.0
 20
0.0
 30
0.0
  0
VERTEX
  5
30C
330
30B
100
AcDbEntity
  8
BEMAßUNG
 62
     7
100
AcDbVertex
100
AcDb2dVertex
 10
-63.91237791370941
 20
-27.16647270371185
 30
0.0
  0
VERTEX
  5
30D
330
30B
100
AcDbEntity
  8
BEMAßUNG
 62
     7
100
AcDbVertex
100
AcDb2dVertex
 10
-68.14157713140212
 20
-27.16647270371185
 30
0.0
  0
SEQEND
  5
30E
330
30B
100
AcDbEntity
  8
BEMAßUNG
  0
POLYLINE
  5
30F
330
1F
100
AcDbEntity
  8
BEMAßUNG
 62
     7
100
AcDb2dPolyline
 66
     1
 10
0.0
 20
0.0
 30
0.0
  0
VERTEX
  5
310
330
30F
100
AcDbEntity
  8
BEMAßUNG
 62
     7
100
AcDbVertex
100
AcDb2dVertex
 10
-63.91237791370941
 20
-27.06449787734846
 30
0.0
  0
VERTEX
  5
311
330
30F
100
AcDbEntity
  8
BEMAßUNG
 62
     7
100
AcDbVertex
100
AcDb2dVertex
 10
-68.91121146280692
 20
-27.06449787734846
 30
0.0
  0
SEQEND
  5
312
330
30F
100
AcDbEntity
  8
BEMAßUNG
  0
POLYLINE
  5
313
330
1F
100
AcDbEntity
  8
BEMAßUNG
 62
     7
100
AcDb2dPolyline
 66
     1
 10
0.0
 20
0.0
 30
0.0
  0
VERTEX
  5
314
330
313
100
AcDbEntity
  8
BEMAßUNG
 62
     7
100
AcDbVertex
100
AcDb2dVertex
 10
-63.91237791370941
 20
-26.45540499555629
 30
0.0
  0
VERTEX
  5
315
330
313
100
AcDbEntity
  8
BEMAßUNG
 62
     7
100
AcDbVertex
100
AcDb2dVertex
 10
-64.28169214972819
 20
-26.45540499555629
 30
0.0
  0
SEQEND
  5
316
330
313
100
AcDbEntity
  8
BEMAßUNG
  0
POLYLINE
  5
317
330
1F
100
AcDbEntity
  8
BEMAßUNG
 62
     7
100
AcDb2dPolyline
 66
     1
 10
0.0
 20
0.0
 30
0.0
  0
VERTEX
  5
318
330
317
100
AcDbEntity
  8
BEMAßUNG
 62
     7
100
AcDbVertex
100
AcDb2dVertex
 10
-63.91237791370941
 20
-26.45540499555629
 30
0.0
  0
VERTEX
  5
319
330
317
100
AcDbEntity
  8
BEMAßUNG
 62
     7
100
AcDbVertex
100
AcDb2dVertex
 10
-64.28169214972819
 20
-26.45540499555629
 30
0.0
  0
SEQEND
  5
31A
330
317
100
AcDbEntity
  8
BEMAßUNG
  0
POLYLINE
  5
31B
330
1F
100
AcDbEntity
  8
BEMAßUNG
 62
     7
100
AcDb2dPolyline
 66
     1
 10
0.0
 20
0.0
 30
0.0
  0
VERTEX
  5
31C
330
31B
100
AcDbEntity
  8
BEMAßUNG
 62
     7
100
AcDbVertex
100
AcDb2dVertex
 10
-63.91237791370941
 20
-26.55600178372558
 30
0.0
  0
VERTEX
  5
31D
330
31B
100
AcDbEntity
  8
BEMAßUNG
 62
     7
100
AcDbVertex
100
AcDb2dVertex
 10
-65.05339353842416
 20
-26.55600178372558
 30
0.0
  0
SEQEND
  5
31E
330
31B
100
AcDbEntity
  8
BEMAßUNG
  0
POLYLINE
  5
31F
330
1F
100
AcDbEntity
  8
BEMAßUNG
 62
     7
100
AcDb2dPolyline
 66
     1
 10
0.0
 20
0.0
 30
0.0
  0
VERTEX
  5
320
330
31F
100
AcDbEntity
  8
BEMAßUNG
 62
     7
100
AcDbVertex
100
AcDb2dVertex
 10
-63.91237791370941
 20
-26.65728759099193
 30
0.0
  0
VERTEX
  5
321
330
31F
100
AcDbEntity
  8
BEMAßUNG
 62
     7
100
AcDbVertex
100
AcDb2dVertex
 10
-65.82509492712012
 20
-26.65728759099193
 30
0.0
  0
SEQEND
  5
322
330
31F
100
AcDbEntity
  8
BEMAßUNG
  0
POLYLINE
  5
323
330
1F
100
AcDbEntity
  8
BEMAßUNG
 62
     7
100
AcDb2dPolyline
 66
     1
 10
0.0
 20
0.0
 30
0.0
  0
VERTEX
  5
324
330
323
100
AcDbEntity
  8
BEMAßUNG
 62
     7
100
AcDbVertex
100
AcDb2dVertex
 10
-63.91237791370941
 20
-26.75926241735532
 30
0.0
  0
VERTEX
  5
325
330
323
100
AcDbEntity
  8
BEMAßUNG
 62
     7
100
AcDbVertex
100
AcDb2dVertex
 10
-66.59748533491313
 20
-26.75926241735532
 30
0.0
  0
SEQEND
  5
326
330
323
100
AcDbEntity
  8
BEMAßUNG
  0
POLYLINE
  5
327
330
1F
100
AcDbEntity
  8
BEMAßUNG
 62
     7
100
AcDb2dPolyline
 66
     1
 10
0.0
 20
0.0
 30
0.0
  0
VERTEX
  5
328
330
327
100
AcDbEntity
  8
BEMAßUNG
 62
     7
100
AcDbVertex
100
AcDb2dVertex
 10
-63.91237791370941
 20
-26.85985920552462
 30
0.0
  0
VERTEX
  5
329
330
327
100
AcDbEntity
  8
BEMAßUNG
 62
     7
100
AcDbVertex
100
AcDb2dVertex
 10
-67.36849770451205
 20
-26.85985920552462
 30
0.0
  0
SEQEND
  5
32A
330
327
100
AcDbEntity
  8
BEMAßUNG
  0
POLYLINE
  5
32B
330
1F
100
AcDbEntity
  8
BEMAßUNG
 62
     7
100
AcDb2dPolyline
 66
     1
 10
0.0
 20
0.0
 30
0.0
  0
VERTEX
  5
32C
330
32B
100
AcDbEntity
  8
BEMAßUNG
 62
     7
100
AcDbVertex
100
AcDb2dVertex
 10
-63.91237791370941
 20
-26.96114501279096
 30
0.0
  0
VERTEX
  5
32D
330
32B
100
AcDbEntity
  8
BEMAßUNG
 62
     7
100
AcDbVertex
100
AcDb2dVertex
 10
-68.14157713140212
 20
-26.96114501279096
 30
0.0
  0
SEQEND
  5
32E
330
32B
100
AcDbEntity
  8
BEMAßUNG
  0
POLYLINE
  5
32F
330
1F
100
AcDbEntity
  8
BEMAßUNG
 62
     7
100
AcDb2dPolyline
 66
     1
 10
0.0
 20
0.0
 30
0.0
  0
VERTEX
  5
330
330
32F
100
AcDbEntity
  8
BEMAßUNG
 62
     7
100
AcDbVertex
100
AcDb2dVertex
 10
-63.91237791370941
 20
-27.06449787734846
 30
0.0
  0
VERTEX
  5
331
330
32F
100
AcDbEntity
  8
BEMAßUNG
 62
     7
100
AcDbVertex
100
AcDb2dVertex
 10
-68.91121146280692
 20
-27.06449787734846
 30
0.0
  0
SEQEND
  5
332
330
32F
100
AcDbEntity
  8
BEMAßUNG
  0
POLYLINE
  5
333
330
1F
100
AcDbEntity
  8
BEMAßUNG
 62
     7
100
AcDb2dPolyline
 66
     1
 10
0.0
 20
0.0
 30
0.0
  0
VERTEX
  5
334
330
333
100
AcDbEntity
  8
BEMAßUNG
 62
     7
100
AcDbVertex
100
AcDb2dVertex
 10
-18.91185166627898
 20
-27.06449787734846
 30
0.0
  0
VERTEX
  5
335
330
333
100
AcDbEntity
  8
BEMAßUNG
 62
     7
100
AcDbVertex
100
AcDb2dVertex
 10
-23.9120632535706
 20
-26.40579562056869
 30
0.0
  0
VERTEX
  5
336
330
333
100
AcDbEntity
  8
BEMAßUNG
 62
     7
100
AcDbVertex
100
AcDb2dVertex
 10
-23.9120632535706
 20
-27.72113307683708
 30
0.0
  0
VERTEX
  5
337
330
333
100
AcDbEntity
  8
BEMAßUNG
 62
     7
100
AcDbVertex
100
AcDb2dVertex
 10
-18.91185166627898
 20
-27.06449787734846
 30
0.0
  0
SEQEND
  5
338
330
333
100
AcDbEntity
  8
BEMAßUNG
  0
HATCH
  5
339
330
1F
100
AcDbEntity
  8
BEMAßUNG
 62
     7
100
AcDbHatch
 10
0.0
 20
0.0
 30
0.0
210
0.0
220
0.0
230
1.0
  2
SOLID
 70
     1
 71
     0
 91
        1
 92
        1
 93
        3
 72
     1
 10
-18.91185166627898
 20
-27.06449787734846
 11
-23.9120632535706
 21
-26.40579562056869
 72
     1
 10
-23.9120632535706
 20
-26.40579562056869
 11
-23.9120632535706
 21
-27.72113307683708
 72
     1
 10
-23.9120632535706
 20
-27.72113307683708
 11
-18.91185166627898
 21
-27.06449787734846
 97
        0
 75
     0
 76
     1
 98
        0
  0
POLYLINE
  5
33A
330
1F
100
AcDbEntity
  8
BEMAßUNG
 62
     7
100
AcDb2dPolyline
 66
     1
 10
0.0
 20
0.0
 30
0.0
  0
VERTEX
  5
33B
330
33A
100
AcDbEntity
  8
BEMAßUNG
 62
     7
100
AcDbVertex
100
AcDb2dVertex
 10
-23.9120632535706
 20
-26.45540499555629
 30
0.0
  0
VERTEX
  5
33C
330
33A
100
AcDbEntity
  8
BEMAßUNG
 62
     7
100
AcDbVertex
100
AcDb2dVertex
 10
-23.54274901755181
 20
-26.45540499555629
 30
0.0
  0
SEQEND
  5
33D
330
33A
100
AcDbEntity
  8
BEMAßUNG
  0
POLYLINE
  5
33E
330
1F
100
AcDbEntity
  8
BEMAßUNG
 62
     7
100
AcDb2dPolyline
 66
     1
 10
0.0
 20
0.0
 30
0.0
  0
VERTEX
  5
33F
330
33E
100
AcDbEntity
  8
BEMAßUNG
 62
     7
100
AcDbVertex
100
AcDb2dVertex
 10
-23.9120632535706
 20
-26.45540499555629
 30
0.0
  0
VERTEX
  5
340
330
33E
100
AcDbEntity
  8
BEMAßUNG
 62
     7
100
AcDbVertex
100
AcDb2dVertex
 10
-23.54274901755181
 20
-26.45540499555629
 30
0.0
  0
SEQEND
  5
341
330
33E
100
AcDbEntity
  8
BEMAßUNG
  0
POLYLINE
  5
342
330
1F
100
AcDbEntity
  8
BEMAßUNG
 62
     7
100
AcDb2dPolyline
 66
     1
 10
0.0
 20
0.0
 30
0.0
  0
VERTEX
  5
343
330
342
100
AcDbEntity
  8
BEMAßUNG
 62
     7
100
AcDbVertex
100
AcDb2dVertex
 10
-23.9120632535706
 20
-26.55600178372558
 30
0.0
  0
VERTEX
  5
344
330
342
100
AcDbEntity
  8
BEMAßUNG
 62
     7
100
AcDbVertex
100
AcDb2dVertex
 10
-22.77104762885585
 20
-26.55600178372558
 30
0.0
  0
SEQEND
  5
345
330
342
100
AcDbEntity
  8
BEMAßUNG
  0
POLYLINE
  5
346
330
1F
100
AcDbEntity
  8
BEMAßUNG
 62
     7
100
AcDb2dPolyline
 66
     1
 10
0.0
 20
0.0
 30
0.0
  0
VERTEX
  5
347
330
346
100
AcDbEntity
  8
BEMAßUNG
 62
     7
100
AcDbVertex
100
AcDb2dVertex
 10
-23.9120632535706
 20
-26.65728759099193
 30
0.0
  0
VERTEX
  5
348
330
346
100
AcDbEntity
  8
BEMAßUNG
 62
     7
100
AcDbVertex
100
AcDb2dVertex
 10
-21.99865722106284
 20
-26.65728759099193
 30
0.0
  0
SEQEND
  5
349
330
346
100
AcDbEntity
  8
BEMAßUNG
  0
POLYLINE
  5
34A
330
1F
100
AcDbEntity
  8
BEMAßUNG
 62
     7
100
AcDb2dPolyline
 66
     1
 10
0.0
 20
0.0
 30
0.0
  0
VERTEX
  5
34B
330
34A
100
AcDbEntity
  8
BEMAßUNG
 62
     7
100
AcDbVertex
100
AcDb2dVertex
 10
-23.9120632535706
 20
-26.75926241735532
 30
0.0
  0
VERTEX
  5
34C
330
34A
100
AcDbEntity
  8
BEMAßUNG
 62
     7
100
AcDbVertex
100
AcDb2dVertex
 10
-21.22833387056097
 20
-26.75926241735532
 30
0.0
  0
SEQEND
  5
34D
330
34A
100
AcDbEntity
  8
BEMAßUNG
  0
POLYLINE
  5
34E
330
1F
100
AcDbEntity
  8
BEMAßUNG
 62
     7
100
AcDb2dPolyline
 66
     1
 10
0.0
 20
0.0
 30
0.0
  0
VERTEX
  5
34F
330
34E
100
AcDbEntity
  8
BEMAßUNG
 62
     7
100
AcDbVertex
100
AcDb2dVertex
 10
-23.9120632535706
 20
-26.85985920552462
 30
0.0
  0
VERTEX
  5
350
330
34E
100
AcDbEntity
  8
BEMAßUNG
 62
     7
100
AcDbVertex
100
AcDb2dVertex
 10
-20.45594346276796
 20
-26.85985920552462
 30
0.0
  0
SEQEND
  5
351
330
34E
100
AcDbEntity
  8
BEMAßUNG
  0
POLYLINE
  5
352
330
1F
100
AcDbEntity
  8
BEMAßUNG
 62
     7
100
AcDb2dPolyline
 66
     1
 10
0.0
 20
0.0
 30
0.0
  0
VERTEX
  5
353
330
352
100
AcDbEntity
  8
BEMAßUNG
 62
     7
100
AcDbVertex
100
AcDb2dVertex
 10
-23.9120632535706
 20
-26.96114501279096
 30
0.0
  0
VERTEX
  5
354
330
352
100
AcDbEntity
  8
BEMAßUNG
 62
     7
100
AcDbVertex
100
AcDb2dVertex
 10
-19.684242074072
 20
-26.96114501279096
 30
0.0
  0
SEQEND
  5
355
330
352
100
AcDbEntity
  8
BEMAßUNG
  0
POLYLINE
  5
356
330
1F
100
AcDbEntity
  8
BEMAßUNG
 62
     7
100
AcDb2dPolyline
 66
     1
 10
0.0
 20
0.0
 30
0.0
  0
VERTEX
  5
357
330
356
100
AcDbEntity
  8
BEMAßUNG
 62
     7
100
AcDbVertex
100
AcDb2dVertex
 10
-23.9120632535706
 20
-27.06449787734846
 30
0.0
  0
VERTEX
  5
358
330
356
100
AcDbEntity
  8
BEMAßUNG
 62
     7
100
AcDbVertex
100
AcDb2dVertex
 10
-18.91185166627898
 20
-27.06449787734846
 30
0.0
  0
SEQEND
  5
359
330
356
100
AcDbEntity
  8
BEMAßUNG
  0
POLYLINE
  5
35A
330
1F
100
AcDbEntity
  8
BEMAßUNG
 62
     7
100
AcDb2dPolyline
 66
     1
 10
0.0
 20
0.0
 30
0.0
  0
VERTEX
  5
35B
330
35A
100
AcDbEntity
  8
BEMAßUNG
 62
     7
100
AcDbVertex
100
AcDb2dVertex
 10
-23.9120632535706
 20
-27.67290174004358
 30
0.0
  0
VERTEX
  5
35C
330
35A
100
AcDbEntity
  8
BEMAßUNG
 62
     7
100
AcDbVertex
100
AcDb2dVertex
 10
-23.54274901755181
 20
-27.67290174004358
 30
0.0
  0
SEQEND
  5
35D
330
35A
100
AcDbEntity
  8
BEMAßUNG
  0
POLYLINE
  5
35E
330
1F
100
AcDbEntity
  8
BEMAßUNG
 62
     7
100
AcDb2dPolyline
 66
     1
 10
0.0
 20
0.0
 30
0.0
  0
VERTEX
  5
35F
330
35E
100
AcDbEntity
  8
BEMAßUNG
 62
     7
100
AcDbVertex
100
AcDb2dVertex
 10
-23.9120632535706
 20
-27.67290174004358
 30
0.0
  0
VERTEX
  5
360
330
35E
100
AcDbEntity
  8
BEMAßUNG
 62
     7
100
AcDbVertex
100
AcDb2dVertex
 10
-23.54274901755181
 20
-27.67290174004358
 30
0.0
  0
SEQEND
  5
361
330
35E
100
AcDbEntity
  8
BEMAßUNG
  0
POLYLINE
  5
362
330
1F
100
AcDbEntity
  8
BEMAßUNG
 62
     7
100
AcDb2dPolyline
 66
     1
 10
0.0
 20
0.0
 30
0.0
  0
VERTEX
  5
363
330
362
100
AcDbEntity
  8
BEMAßUNG
 62
     7
100
AcDbVertex
100
AcDb2dVertex
 10
-23.9120632535706
 20
-27.57230495187429
 30
0.0
  0
VERTEX
  5
364
330
362
100
AcDbEntity
  8
BEMAßUNG
 62
     7
100
AcDbVertex
100
AcDb2dVertex
 10
-22.77104762885585
 20
-27.57230495187429
 30
0.0
  0
SEQEND
  5
365
330
362
100
AcDbEntity
  8
BEMAßUNG
  0
POLYLINE
  5
366
330
1F
100
AcDbEntity
  8
BEMAßUNG
 62
     7
100
AcDb2dPolyline
 66
     1
 10
0.0
 20
0.0
 30
0.0
  0
VERTEX
  5
367
330
366
100
AcDbEntity
  8
BEMAßUNG
 62
     7
100
AcDbVertex
100
AcDb2dVertex
 10
-23.9120632535706
 20
-27.47033012551089
 30
0.0
  0
VERTEX
  5
368
330
366
100
AcDbEntity
  8
BEMAßUNG
 62
     7
100
AcDbVertex
100
AcDb2dVertex
 10
-21.99865722106284
 20
-27.47033012551089
 30
0.0
  0
SEQEND
  5
369
330
366
100
AcDbEntity
  8
BEMAßUNG
  0
POLYLINE
  5
36A
330
1F
100
AcDbEntity
  8
BEMAßUNG
 62
     7
100
AcDb2dPolyline
 66
     1
 10
0.0
 20
0.0
 30
0.0
  0
VERTEX
  5
36B
330
36A
100
AcDbEntity
  8
BEMAßUNG
 62
     7
100
AcDbVertex
100
AcDb2dVertex
 10
-23.9120632535706
 20
-27.36766628005045
 30
0.0
  0
VERTEX
  5
36C
330
36A
100
AcDbEntity
  8
BEMAßUNG
 62
     7
100
AcDbVertex
100
AcDb2dVertex
 10
-21.22833387056097
 20
-27.36766628005045
 30
0.0
  0
SEQEND
  5
36D
330
36A
100
AcDbEntity
  8
BEMAßUNG
  0
POLYLINE
  5
36E
330
1F
100
AcDbEntity
  8
BEMAßUNG
 62
     7
100
AcDb2dPolyline
 66
     1
 10
0.0
 20
0.0
 30
0.0
  0
VERTEX
  5
36F
330
36E
100
AcDbEntity
  8
BEMAßUNG
 62
     7
100
AcDbVertex
100
AcDb2dVertex
 10
-23.9120632535706
 20
-27.26706949188115
 30
0.0
  0
VERTEX
  5
370
330
36E
100
AcDbEntity
  8
BEMAßUNG
 62
     7
100
AcDbVertex
100
AcDb2dVertex
 10
-20.45594346276796
 20
-27.26706949188115
 30
0.0
  0
SEQEND
  5
371
330
36E
100
AcDbEntity
  8
BEMAßUNG
  0
POLYLINE
  5
372
330
1F
100
AcDbEntity
  8
BEMAßUNG
 62
     7
100
AcDb2dPolyline
 66
     1
 10
0.0
 20
0.0
 30
0.0
  0
VERTEX
  5
373
330
372
100
AcDbEntity
  8
BEMAßUNG
 62
     7
100
AcDbVertex
100
AcDb2dVertex
 10
-23.9120632535706
 20
-27.16647270371185
 30
0.0
  0
VERTEX
  5
374
330
372
100
AcDbEntity
  8
BEMAßUNG
 62
     7
100
AcDbVertex
100
AcDb2dVertex
 10
-19.684242074072
 20
-27.16647270371185
 30
0.0
  0
SEQEND
  5
375
330
372
100
AcDbEntity
  8
BEMAßUNG
  0
POLYLINE
  5
376
330
1F
100
AcDbEntity
  8
BEMAßUNG
 62
     7
100
AcDb2dPolyline
 66
     1
 10
0.0
 20
0.0
 30
0.0
  0
VERTEX
  5
377
330
376
100
AcDbEntity
  8
BEMAßUNG
 62
     7
100
AcDbVertex
100
AcDb2dVertex
 10
-23.9120632535706
 20
-27.06449787734846
 30
0.0
  0
VERTEX
  5
378
330
376
100
AcDbEntity
  8
BEMAßUNG
 62
     7
100
AcDbVertex
100
AcDb2dVertex
 10
-18.91185166627898
 20
-27.06449787734846
 30
0.0
  0
SEQEND
  5
379
330
376
100
AcDbEntity
  8
BEMAßUNG
  0
POLYLINE
  5
37A
330
1F
100
AcDbEntity
  8
BEMAßUNG
 62
     7
100
AcDb2dPolyline
 66
     1
 10
0.0
 20
0.0
 30
0.0
  0
VERTEX
  5
37B
330
37A
100
AcDbEntity
  8
BEMAßUNG
 62
     7
100
AcDbVertex
100
AcDb2dVertex
 10
-64.91214462352892
 20
6.722931584690795
 30
0.0
  0
VERTEX
  5
37C
330
37A
100
AcDbEntity
  8
BEMAßUNG
 62
     7
100
AcDbVertex
100
AcDb2dVertex
 10
-64.91214462352892
 20
-11.3231675861449
 30
0.0
  0
SEQEND
  5
37D
330
37A
100
AcDbEntity
  8
BEMAßUNG
  0
POLYLINE
  5
37E
330
1F
100
AcDbEntity
  8
BEMAßUNG
 62
     7
100
AcDb2dPolyline
 66
     1
 10
0.0
 20
0.0
 30
0.0
  0
VERTEX
  5
37F
330
37E
100
AcDbEntity
  8
BEMAßUNG
 62
     7
100
AcDbVertex
100
AcDb2dVertex
 10
-64.91214462352892
 20
-7.324100746866891
 30
0.0
  0
VERTEX
  5
380
330
37E
100
AcDbEntity
  8
BEMAßUNG
 62
     7
100
AcDbVertex
100
AcDb2dVertex
 10
-18.91185166627898
 20
-7.324100746866891
 30
0.0
  0
SEQEND
  5
381
330
37E
100
AcDbEntity
  8
BEMAßUNG
  0
POLYLINE
  5
382
330
1F
100
AcDbEntity
  8
BEMAßUNG
 62
     7
100
AcDb2dPolyline
 66
     1
 10
0.0
 20
0.0
 30
0.0
  0
VERTEX
  5
383
330
382
100
AcDbEntity
  8
BEMAßUNG
 62
     7
100
AcDbVertex
100
AcDb2dVertex
 10
-64.91214462352892
 20
-7.324100746866891
 30
0.0
  0
VERTEX
  5
384
330
382
100
AcDbEntity
  8
BEMAßUNG
 62
     7
100
AcDbVertex
100
AcDb2dVertex
 10
-59.9119330362373
 20
-7.982113984549611
 30
0.0
  0
VERTEX
  5
385
330
382
100
AcDbEntity
  8
BEMAßUNG
 62
     7
100
AcDbVertex
100
AcDb2dVertex
 10
-59.9119330362373
 20
-6.666776528281223
 30
0.0
  0
VERTEX
  5
386
330
382
100
AcDbEntity
  8
BEMAßUNG
 62
     7
100
AcDbVertex
100
AcDb2dVertex
 10
-64.91214462352892
 20
-7.324100746866891
 30
0.0
  0
SEQEND
  5
387
330
382
100
AcDbEntity
  8
BEMAßUNG
  0
HATCH
  5
388
330
1F
100
AcDbEntity
  8
BEMAßUNG
 62
     7
100
AcDbHatch
 10
0.0
 20
0.0
 30
0.0
210
0.0
220
0.0
230
1.0
  2
SOLID
 70
     1
 71
     0
 91
        1
 92
        1
 93
        3
 72
     1
 10
-64.91214462352892
 20
-7.324100746866891
 11
-59.9119330362373
 21
-7.982113984549611
 72
     1
 10
-59.9119330362373
 20
-7.982113984549611
 11
-59.9119330362373
 21
-6.666776528281223
 72
     1
 10
-59.9119330362373
 20
-6.666776528281223
 11
-64.91214462352892
 21
-7.324100746866891
 97
        0
 75
     0
 76
     1
 98
        0
  0
POLYLINE
  5
389
330
1F
100
AcDbEntity
  8
BEMAßUNG
 62
     7
100
AcDb2dPolyline
 66
     1
 10
0.0
 20
0.0
 30
0.0
  0
VERTEX
  5
38A
330
389
100
AcDbEntity
  8
BEMAßUNG
 62
     7
100
AcDbVertex
100
AcDb2dVertex
 10
-59.9119330362373
 20
-7.934571666853163
 30
0.0
  0
VERTEX
  5
38B
330
389
100
AcDbEntity
  8
BEMAßUNG
 62
     7
100
AcDbVertex
100
AcDb2dVertex
 10
-60.28193629135313
 20
-7.934571666853163
 30
0.0
  0
SEQEND
  5
38C
330
389
100
AcDbEntity
  8
BEMAßUNG
  0
POLYLINE
  5
38D
330
1F
100
AcDbEntity
  8
BEMAßUNG
 62
     7
100
AcDb2dPolyline
 66
     1
 10
0.0
 20
0.0
 30
0.0
  0
VERTEX
  5
38E
330
38D
100
AcDbEntity
  8
BEMAßUNG
 62
     7
100
AcDbVertex
100
AcDb2dVertex
 10
-59.9119330362373
 20
-7.934571666853163
 30
0.0
  0
VERTEX
  5
38F
330
38D
100
AcDbEntity
  8
BEMAßUNG
 62
     7
100
AcDbVertex
100
AcDb2dVertex
 10
-60.28193629135313
 20
-7.934571666853163
 30
0.0
  0
SEQEND
  5
390
330
38D
100
AcDbEntity
  8
BEMAßUNG
  0
POLYLINE
  5
391
330
1F
100
AcDbEntity
  8
BEMAßUNG
 62
     7
100
AcDb2dPolyline
 66
     1
 10
0.0
 20
0.0
 30
0.0
  0
VERTEX
  5
392
330
391
100
AcDbEntity
  8
BEMAßUNG
 62
     7
100
AcDbVertex
100
AcDb2dVertex
 10
-59.9119330362373
 20
-7.832596840489768
 30
0.0
  0
VERTEX
  5
393
330
391
100
AcDbEntity
  8
BEMAßUNG
 62
     7
100
AcDbVertex
100
AcDb2dVertex
 10
-61.05363768004909
 20
-7.832596840489768
 30
0.0
  0
SEQEND
  5
394
330
391
100
AcDbEntity
  8
BEMAßUNG
  0
POLYLINE
  5
395
330
1F
100
AcDbEntity
  8
BEMAßUNG
 62
     7
100
AcDb2dPolyline
 66
     1
 10
0.0
 20
0.0
 30
0.0
  0
VERTEX
  5
396
330
395
100
AcDbEntity
  8
BEMAßUNG
 62
     7
100
AcDbVertex
100
AcDb2dVertex
 10
-59.9119330362373
 20
-7.730622014126372
 30
0.0
  0
VERTEX
  5
397
330
395
100
AcDbEntity
  8
BEMAßUNG
 62
     7
100
AcDbVertex
100
AcDb2dVertex
 10
-61.82533906874506
 20
-7.730622014126372
 30
0.0
  0
SEQEND
  5
398
330
395
100
AcDbEntity
  8
BEMAßUNG
  0
POLYLINE
  5
399
330
1F
100
AcDbEntity
  8
BEMAßUNG
 62
     7
100
AcDb2dPolyline
 66
     1
 10
0.0
 20
0.0
 30
0.0
  0
VERTEX
  5
39A
330
399
100
AcDbEntity
  8
BEMAßUNG
 62
     7
100
AcDbVertex
100
AcDb2dVertex
 10
-59.9119330362373
 20
-7.629336206860027
 30
0.0
  0
VERTEX
  5
39B
330
399
100
AcDbEntity
  8
BEMAßUNG
 62
     7
100
AcDbVertex
100
AcDb2dVertex
 10
-62.59704045744102
 20
-7.629336206860027
 30
0.0
  0
SEQEND
  5
39C
330
399
100
AcDbEntity
  8
BEMAßUNG
  0
POLYLINE
  5
39D
330
1F
100
AcDbEntity
  8
BEMAßUNG
 62
     7
100
AcDb2dPolyline
 66
     1
 10
0.0
 20
0.0
 30
0.0
  0
VERTEX
  5
39E
330
39D
100
AcDbEntity
  8
BEMAßUNG
 62
     7
100
AcDbVertex
100
AcDb2dVertex
 10
-59.9119330362373
 20
-7.528050399593682
 30
0.0
  0
VERTEX
  5
39F
330
39D
100
AcDbEntity
  8
BEMAßUNG
 62
     7
100
AcDbVertex
100
AcDb2dVertex
 10
-63.36874184613698
 20
-7.528050399593682
 30
0.0
  0
SEQEND
  5
3A0
330
39D
100
AcDbEntity
  8
BEMAßUNG
  0
POLYLINE
  5
3A1
330
1F
100
AcDbEntity
  8
BEMAßUNG
 62
     7
100
AcDb2dPolyline
 66
     1
 10
0.0
 20
0.0
 30
0.0
  0
VERTEX
  5
3A2
330
3A1
100
AcDbEntity
  8
BEMAßUNG
 62
     7
100
AcDbVertex
100
AcDb2dVertex
 10
-59.9119330362373
 20
-7.425386554133237
 30
0.0
  0
VERTEX
  5
3A3
330
3A1
100
AcDbEntity
  8
BEMAßUNG
 62
     7
100
AcDbVertex
100
AcDb2dVertex
 10
-64.14044323483294
 20
-7.425386554133237
 30
0.0
  0
SEQEND
  5
3A4
330
3A1
100
AcDbEntity
  8
BEMAßUNG
  0
POLYLINE
  5
3A5
330
1F
100
AcDbEntity
  8
BEMAßUNG
 62
     7
100
AcDb2dPolyline
 66
     1
 10
0.0
 20
0.0
 30
0.0
  0
VERTEX
  5
3A6
330
3A5
100
AcDbEntity
  8
BEMAßUNG
 62
     7
100
AcDbVertex
100
AcDb2dVertex
 10
-59.9119330362373
 20
-7.324100746866891
 30
0.0
  0
VERTEX
  5
3A7
330
3A5
100
AcDbEntity
  8
BEMAßUNG
 62
     7
100
AcDbVertex
100
AcDb2dVertex
 10
-64.91214462352892
 20
-7.324100746866891
 30
0.0
  0
SEQEND
  5
3A8
330
3A5
100
AcDbEntity
  8
BEMAßUNG
  0
POLYLINE
  5
3A9
330
1F
100
AcDbEntity
  8
BEMAßUNG
 62
     7
100
AcDb2dPolyline
 66
     1
 10
0.0
 20
0.0
 30
0.0
  0
VERTEX
  5
3AA
330
3A9
100
AcDbEntity
  8
BEMAßUNG
 62
     7
100
AcDbVertex
100
AcDb2dVertex
 10
-59.9119330362373
 20
-6.713629826880621
 30
0.0
  0
VERTEX
  5
3AB
330
3A9
100
AcDbEntity
  8
BEMAßUNG
 62
     7
100
AcDbVertex
100
AcDb2dVertex
 10
-60.28193629135313
 20
-6.713629826880621
 30
0.0
  0
SEQEND
  5
3AC
330
3A9
100
AcDbEntity
  8
BEMAßUNG
  0
POLYLINE
  5
3AD
330
1F
100
AcDbEntity
  8
BEMAßUNG
 62
     7
100
AcDb2dPolyline
 66
     1
 10
0.0
 20
0.0
 30
0.0
  0
VERTEX
  5
3AE
330
3AD
100
AcDbEntity
  8
BEMAßUNG
 62
     7
100
AcDbVertex
100
AcDb2dVertex
 10
-59.9119330362373
 20
-6.713629826880621
 30
0.0
  0
VERTEX
  5
3AF
330
3AD
100
AcDbEntity
  8
BEMAßUNG
 62
     7
100
AcDbVertex
100
AcDb2dVertex
 10
-60.28193629135313
 20
-6.713629826880621
 30
0.0
  0
SEQEND
  5
3B0
330
3AD
100
AcDbEntity
  8
BEMAßUNG
  0
POLYLINE
  5
3B1
330
1F
100
AcDbEntity
  8
BEMAßUNG
 62
     7
100
AcDb2dPolyline
 66
     1
 10
0.0
 20
0.0
 30
0.0
  0
VERTEX
  5
3B2
330
3B1
100
AcDbEntity
  8
BEMAßUNG
 62
     7
100
AcDbVertex
100
AcDb2dVertex
 10
-59.9119330362373
 20
-6.815604653244016
 30
0.0
  0
VERTEX
  5
3B3
330
3B1
100
AcDbEntity
  8
BEMAßUNG
 62
     7
100
AcDbVertex
100
AcDb2dVertex
 10
-61.05363768004909
 20
-6.815604653244016
 30
0.0
  0
SEQEND
  5
3B4
330
3B1
100
AcDbEntity
  8
BEMAßUNG
  0
POLYLINE
  5
3B5
330
1F
100
AcDbEntity
  8
BEMAßUNG
 62
     7
100
AcDb2dPolyline
 66
     1
 10
0.0
 20
0.0
 30
0.0
  0
VERTEX
  5
3B6
330
3B5
100
AcDbEntity
  8
BEMAßUNG
 62
     7
100
AcDbVertex
100
AcDb2dVertex
 10
-59.9119330362373
 20
-6.916890460510361
 30
0.0
  0
VERTEX
  5
3B7
330
3B5
100
AcDbEntity
  8
BEMAßUNG
 62
     7
100
AcDbVertex
100
AcDb2dVertex
 10
-61.82533906874506
 20
-6.916890460510361
 30
0.0
  0
SEQEND
  5
3B8
330
3B5
100
AcDbEntity
  8
BEMAßUNG
  0
POLYLINE
  5
3B9
330
1F
100
AcDbEntity
  8
BEMAßUNG
 62
     7
100
AcDb2dPolyline
 66
     1
 10
0.0
 20
0.0
 30
0.0
  0
VERTEX
  5
3BA
330
3B9
100
AcDbEntity
  8
BEMAßUNG
 62
     7
100
AcDbVertex
100
AcDb2dVertex
 10
-59.9119330362373
 20
-7.019554305970806
 30
0.0
  0
VERTEX
  5
3BB
330
3B9
100
AcDbEntity
  8
BEMAßUNG
 62
     7
100
AcDbVertex
100
AcDb2dVertex
 10
-62.59704045744102
 20
-7.019554305970806
 30
0.0
  0
SEQEND
  5
3BC
330
3B9
100
AcDbEntity
  8
BEMAßUNG
  0
POLYLINE
  5
3BD
330
1F
100
AcDbEntity
  8
BEMAßUNG
 62
     7
100
AcDb2dPolyline
 66
     1
 10
0.0
 20
0.0
 30
0.0
  0
VERTEX
  5
3BE
330
3BD
100
AcDbEntity
  8
BEMAßUNG
 62
     7
100
AcDbVertex
100
AcDb2dVertex
 10
-59.9119330362373
 20
-7.121529132334201
 30
0.0
  0
VERTEX
  5
3BF
330
3BD
100
AcDbEntity
  8
BEMAßUNG
 62
     7
100
AcDbVertex
100
AcDb2dVertex
 10
-63.36874184613698
 20
-7.121529132334201
 30
0.0
  0
SEQEND
  5
3C0
330
3BD
100
AcDbEntity
  8
BEMAßUNG
  0
POLYLINE
  5
3C1
330
1F
100
AcDbEntity
  8
BEMAßUNG
 62
     7
100
AcDb2dPolyline
 66
     1
 10
0.0
 20
0.0
 30
0.0
  0
VERTEX
  5
3C2
330
3C1
100
AcDbEntity
  8
BEMAßUNG
 62
     7
100
AcDbVertex
100
AcDb2dVertex
 10
-59.9119330362373
 20
-7.222814939600546
 30
0.0
  0
VERTEX
  5
3C3
330
3C1
100
AcDbEntity
  8
BEMAßUNG
 62
     7
100
AcDbVertex
100
AcDb2dVertex
 10
-64.14044323483294
 20
-7.222814939600546
 30
0.0
  0
SEQEND
  5
3C4
330
3C1
100
AcDbEntity
  8
BEMAßUNG
  0
POLYLINE
  5
3C5
330
1F
100
AcDbEntity
  8
BEMAßUNG
 62
     7
100
AcDb2dPolyline
 66
     1
 10
0.0
 20
0.0
 30
0.0
  0
VERTEX
  5
3C6
330
3C5
100
AcDbEntity
  8
BEMAßUNG
 62
     7
100
AcDbVertex
100
AcDb2dVertex
 10
-59.9119330362373
 20
-7.324100746866891
 30
0.0
  0
VERTEX
  5
3C7
330
3C5
100
AcDbEntity
  8
BEMAßUNG
 62
     7
100
AcDbVertex
100
AcDb2dVertex
 10
-64.91214462352892
 20
-7.324100746866891
 30
0.0
  0
SEQEND
  5
3C8
330
3C5
100
AcDbEntity
  8
BEMAßUNG
  0
POLYLINE
  5
3C9
330
1F
100
AcDbEntity
  8
BEMAßUNG
 62
     7
100
AcDb2dPolyline
 66
     1
 10
0.0
 20
0.0
 30
0.0
  0
VERTEX
  5
3CA
330
3C9
100
AcDbEntity
  8
BEMAßUNG
 62
     7
100
AcDbVertex
100
AcDb2dVertex
 10
-18.91185166627898
 20
-7.324100746866891
 30
0.0
  0
VERTEX
  5
3CB
330
3C9
100
AcDbEntity
  8
BEMAßUNG
 62
     7
100
AcDbVertex
100
AcDb2dVertex
 10
-23.9120632535706
 20
-6.666776528281223
 30
0.0
  0
VERTEX
  5
3CC
330
3C9
100
AcDbEntity
  8
BEMAßUNG
 62
     7
100
AcDbVertex
100
AcDb2dVertex
 10
-23.9120632535706
 20
-7.982113984549611
 30
0.0
  0
VERTEX
  5
3CD
330
3C9
100
AcDbEntity
  8
BEMAßUNG
 62
     7
100
AcDbVertex
100
AcDb2dVertex
 10
-18.91185166627898
 20
-7.324100746866891
 30
0.0
  0
SEQEND
  5
3CE
330
3C9
100
AcDbEntity
  8
BEMAßUNG
  0
HATCH
  5
3CF
330
1F
100
AcDbEntity
  8
BEMAßUNG
 62
     7
100
AcDbHatch
 10
0.0
 20
0.0
 30
0.0
210
0.0
220
0.0
230
1.0
  2
SOLID
 70
     1
 71
     0
 91
        1
 92
        1
 93
        3
 72
     1
 10
-18.91185166627898
 20
-7.324100746866891
 11
-23.9120632535706
 21
-6.666776528281223
 72
     1
 10
-23.9120632535706
 20
-6.666776528281223
 11
-23.9120632535706
 21
-7.982113984549611
 72
     1
 10
-23.9120632535706
 20
-7.982113984549611
 11
-18.91185166627898
 21
-7.324100746866891
 97
        0
 75
     0
 76
     1
 98
        0
  0
POLYLINE
  5
3D0
330
1F
100
AcDbEntity
  8
BEMAßUNG
 62
     7
100
AcDb2dPolyline
 66
     1
 10
0.0
 20
0.0
 30
0.0
  0
VERTEX
  5
3D1
330
3D0
100
AcDbEntity
  8
BEMAßUNG
 62
     7
100
AcDbVertex
100
AcDb2dVertex
 10
-23.9120632535706
 20
-6.713629826880621
 30
0.0
  0
VERTEX
  5
3D2
330
3D0
100
AcDbEntity
  8
BEMAßUNG
 62
     7
100
AcDbVertex
100
AcDb2dVertex
 10
-23.54274901755181
 20
-6.713629826880621
 30
0.0
  0
SEQEND
  5
3D3
330
3D0
100
AcDbEntity
  8
BEMAßUNG
  0
POLYLINE
  5
3D4
330
1F
100
AcDbEntity
  8
BEMAßUNG
 62
     7
100
AcDb2dPolyline
 66
     1
 10
0.0
 20
0.0
 30
0.0
  0
VERTEX
  5
3D5
330
3D4
100
AcDbEntity
  8
BEMAßUNG
 62
     7
100
AcDbVertex
100
AcDb2dVertex
 10
-23.9120632535706
 20
-6.713629826880621
 30
0.0
  0
VERTEX
  5
3D6
330
3D4
100
AcDbEntity
  8
BEMAßUNG
 62
     7
100
AcDbVertex
100
AcDb2dVertex
 10
-23.54274901755181
 20
-6.713629826880621
 30
0.0
  0
SEQEND
  5
3D7
330
3D4
100
AcDbEntity
  8
BEMAßUNG
  0
POLYLINE
  5
3D8
330
1F
100
AcDbEntity
  8
BEMAßUNG
 62
     7
100
AcDb2dPolyline
 66
     1
 10
0.0
 20
0.0
 30
0.0
  0
VERTEX
  5
3D9
330
3D8
100
AcDbEntity
  8
BEMAßUNG
 62
     7
100
AcDbVertex
100
AcDb2dVertex
 10
-23.9120632535706
 20
-6.815604653244016
 30
0.0
  0
VERTEX
  5
3DA
330
3D8
100
AcDbEntity
  8
BEMAßUNG
 62
     7
100
AcDbVertex
100
AcDb2dVertex
 10
-22.77104762885585
 20
-6.815604653244016
 30
0.0
  0
SEQEND
  5
3DB
330
3D8
100
AcDbEntity
  8
BEMAßUNG
  0
POLYLINE
  5
3DC
330
1F
100
AcDbEntity
  8
BEMAßUNG
 62
     7
100
AcDb2dPolyline
 66
     1
 10
0.0
 20
0.0
 30
0.0
  0
VERTEX
  5
3DD
330
3DC
100
AcDbEntity
  8
BEMAßUNG
 62
     7
100
AcDbVertex
100
AcDb2dVertex
 10
-23.9120632535706
 20
-6.916890460510361
 30
0.0
  0
VERTEX
  5
3DE
330
3DC
100
AcDbEntity
  8
BEMAßUNG
 62
     7
100
AcDbVertex
100
AcDb2dVertex
 10
-21.99865722106284
 20
-6.916890460510361
 30
0.0
  0
SEQEND
  5
3DF
330
3DC
100
AcDbEntity
  8
BEMAßUNG
  0
POLYLINE
  5
3E0
330
1F
100
AcDbEntity
  8
BEMAßUNG
 62
     7
100
AcDb2dPolyline
 66
     1
 10
0.0
 20
0.0
 30
0.0
  0
VERTEX
  5
3E1
330
3E0
100
AcDbEntity
  8
BEMAßUNG
 62
     7
100
AcDbVertex
100
AcDb2dVertex
 10
-23.9120632535706
 20
-7.019554305970806
 30
0.0
  0
VERTEX
  5
3E2
330
3E0
100
AcDbEntity
  8
BEMAßUNG
 62
     7
100
AcDbVertex
100
AcDb2dVertex
 10
-21.22833387056097
 20
-7.019554305970806
 30
0.0
  0
SEQEND
  5
3E3
330
3E0
100
AcDbEntity
  8
BEMAßUNG
  0
POLYLINE
  5
3E4
330
1F
100
AcDbEntity
  8
BEMAßUNG
 62
     7
100
AcDb2dPolyline
 66
     1
 10
0.0
 20
0.0
 30
0.0
  0
VERTEX
  5
3E5
330
3E4
100
AcDbEntity
  8
BEMAßUNG
 62
     7
100
AcDbVertex
100
AcDb2dVertex
 10
-23.9120632535706
 20
-7.121529132334201
 30
0.0
  0
VERTEX
  5
3E6
330
3E4
100
AcDbEntity
  8
BEMAßUNG
 62
     7
100
AcDbVertex
100
AcDb2dVertex
 10
-20.45594346276796
 20
-7.121529132334201
 30
0.0
  0
SEQEND
  5
3E7
330
3E4
100
AcDbEntity
  8
BEMAßUNG
  0
POLYLINE
  5
3E8
330
1F
100
AcDbEntity
  8
BEMAßUNG
 62
     7
100
AcDb2dPolyline
 66
     1
 10
0.0
 20
0.0
 30
0.0
  0
VERTEX
  5
3E9
330
3E8
100
AcDbEntity
  8
BEMAßUNG
 62
     7
100
AcDbVertex
100
AcDb2dVertex
 10
-23.9120632535706
 20
-7.222814939600546
 30
0.0
  0
VERTEX
  5
3EA
330
3E8
100
AcDbEntity
  8
BEMAßUNG
 62
     7
100
AcDbVertex
100
AcDb2dVertex
 10
-19.684242074072
 20
-7.222814939600546
 30
0.0
  0
SEQEND
  5
3EB
330
3E8
100
AcDbEntity
  8
BEMAßUNG
  0
POLYLINE
  5
3EC
330
1F
100
AcDbEntity
  8
BEMAßUNG
 62
     7
100
AcDb2dPolyline
 66
     1
 10
0.0
 20
0.0
 30
0.0
  0
VERTEX
  5
3ED
330
3EC
100
AcDbEntity
  8
BEMAßUNG
 62
     7
100
AcDbVertex
100
AcDb2dVertex
 10
-23.9120632535706
 20
-7.324100746866891
 30
0.0
  0
VERTEX
  5
3EE
330
3EC
100
AcDbEntity
  8
BEMAßUNG
 62
     7
100
AcDbVertex
100
AcDb2dVertex
 10
-18.91185166627898
 20
-7.324100746866891
 30
0.0
  0
SEQEND
  5
3EF
330
3EC
100
AcDbEntity
  8
BEMAßUNG
  0
POLYLINE
  5
3F0
330
1F
100
AcDbEntity
  8
BEMAßUNG
 62
     7
100
AcDb2dPolyline
 66
     1
 10
0.0
 20
0.0
 30
0.0
  0
VERTEX
  5
3F1
330
3F0
100
AcDbEntity
  8
BEMAßUNG
 62
     7
100
AcDbVertex
100
AcDb2dVertex
 10
-23.9120632535706
 20
-7.934571666853163
 30
0.0
  0
VERTEX
  5
3F2
330
3F0
100
AcDbEntity
  8
BEMAßUNG
 62
     7
100
AcDbVertex
100
AcDb2dVertex
 10
-23.54274901755181
 20
-7.934571666853163
 30
0.0
  0
SEQEND
  5
3F3
330
3F0
100
AcDbEntity
  8
BEMAßUNG
  0
POLYLINE
  5
3F4
330
1F
100
AcDbEntity
  8
BEMAßUNG
 62
     7
100
AcDb2dPolyline
 66
     1
 10
0.0
 20
0.0
 30
0.0
  0
VERTEX
  5
3F5
330
3F4
100
AcDbEntity
  8
BEMAßUNG
 62
     7
100
AcDbVertex
100
AcDb2dVertex
 10
-23.9120632535706
 20
-7.934571666853163
 30
0.0
  0
VERTEX
  5
3F6
330
3F4
100
AcDbEntity
  8
BEMAßUNG
 62
     7
100
AcDbVertex
100
AcDb2dVertex
 10
-23.54274901755181
 20
-7.934571666853163
 30
0.0
  0
SEQEND
  5
3F7
330
3F4
100
AcDbEntity
  8
BEMAßUNG
  0
POLYLINE
  5
3F8
330
1F
100
AcDbEntity
  8
BEMAßUNG
 62
     7
100
AcDb2dPolyline
 66
     1
 10
0.0
 20
0.0
 30
0.0
  0
VERTEX
  5
3F9
330
3F8
100
AcDbEntity
  8
BEMAßUNG
 62
     7
100
AcDbVertex
100
AcDb2dVertex
 10
-23.9120632535706
 20
-7.832596840489768
 30
0.0
  0
VERTEX
  5
3FA
330
3F8
100
AcDbEntity
  8
BEMAßUNG
 62
     7
100
AcDbVertex
100
AcDb2dVertex
 10
-22.77104762885585
 20
-7.832596840489768
 30
0.0
  0
SEQEND
  5
3FB
330
3F8
100
AcDbEntity
  8
BEMAßUNG
  0
POLYLINE
  5
3FC
330
1F
100
AcDbEntity
  8
BEMAßUNG
 62
     7
100
AcDb2dPolyline
 66
     1
 10
0.0
 20
0.0
 30
0.0
  0
VERTEX
  5
3FD
330
3FC
100
AcDbEntity
  8
BEMAßUNG
 62
     7
100
AcDbVertex
100
AcDb2dVertex
 10
-23.9120632535706
 20
-7.730622014126372
 30
0.0
  0
VERTEX
  5
3FE
330
3FC
100
AcDbEntity
  8
BEMAßUNG
 62
     7
100
AcDbVertex
100
AcDb2dVertex
 10
-21.99865722106284
 20
-7.730622014126372
 30
0.0
  0
SEQEND
  5
3FF
330
3FC
100
AcDbEntity
  8
BEMAßUNG
  0
POLYLINE
  5
400
330
1F
100
AcDbEntity
  8
BEMAßUNG
 62
     7
100
AcDb2dPolyline
 66
     1
 10
0.0
 20
0.0
 30
0.0
  0
VERTEX
  5
401
330
400
100
AcDbEntity
  8
BEMAßUNG
 62
     7
100
AcDbVertex
100
AcDb2dVertex
 10
-23.9120632535706
 20
-7.629336206860027
 30
0.0
  0
VERTEX
  5
402
330
400
100
AcDbEntity
  8
BEMAßUNG
 62
     7
100
AcDbVertex
100
AcDb2dVertex
 10
-21.22833387056097
 20
-7.629336206860027
 30
0.0
  0
SEQEND
  5
403
330
400
100
AcDbEntity
  8
BEMAßUNG
  0
POLYLINE
  5
404
330
1F
100
AcDbEntity
  8
BEMAßUNG
 62
     7
100
AcDb2dPolyline
 66
     1
 10
0.0
 20
0.0
 30
0.0
  0
VERTEX
  5
405
330
404
100
AcDbEntity
  8
BEMAßUNG
 62
     7
100
AcDbVertex
100
AcDb2dVertex
 10
-23.9120632535706
 20
-7.528050399593682
 30
0.0
  0
VERTEX
  5
406
330
404
100
AcDbEntity
  8
BEMAßUNG
 62
     7
100
AcDbVertex
100
AcDb2dVertex
 10
-20.45594346276796
 20
-7.528050399593682
 30
0.0
  0
SEQEND
  5
407
330
404
100
AcDbEntity
  8
BEMAßUNG
  0
POLYLINE
  5
408
330
1F
100
AcDbEntity
  8
BEMAßUNG
 62
     7
100
AcDb2dPolyline
 66
     1
 10
0.0
 20
0.0
 30
0.0
  0
VERTEX
  5
409
330
408
100
AcDbEntity
  8
BEMAßUNG
 62
     7
100
AcDbVertex
100
AcDb2dVertex
 10
-23.9120632535706
 20
-7.425386554133237
 30
0.0
  0
VERTEX
  5
40A
330
408
100
AcDbEntity
  8
BEMAßUNG
 62
     7
100
AcDbVertex
100
AcDb2dVertex
 10
-19.684242074072
 20
-7.425386554133237
 30
0.0
  0
SEQEND
  5
40B
330
408
100
AcDbEntity
  8
BEMAßUNG
  0
POLYLINE
  5
40C
330
1F
100
AcDbEntity
  8
BEMAßUNG
 62
     7
100
AcDb2dPolyline
 66
     1
 10
0.0
 20
0.0
 30
0.0
  0
VERTEX
  5
40D
330
40C
100
AcDbEntity
  8
BEMAßUNG
 62
     7
100
AcDbVertex
100
AcDb2dVertex
 10
-23.9120632535706
 20
-7.324100746866891
 30
0.0
  0
VERTEX
  5
40E
330
40C
100
AcDbEntity
  8
BEMAßUNG
 62
     7
100
AcDbVertex
100
AcDb2dVertex
 10
-18.91185166627898
 20
-7.324100746866891
 30
0.0
  0
SEQEND
  5
40F
330
40C
100
AcDbEntity
  8
BEMAßUNG
  0
POLYLINE
  5
410
330
1F
100
AcDbEntity
  8
BEMAßUNG
 62
     7
100
AcDb2dPolyline
 66
     1
 10
0.0
 20
0.0
 30
0.0
  0
VERTEX
  5
411
330
410
100
AcDbEntity
  8
BEMAßUNG
 62
     7
100
AcDbVertex
100
AcDb2dVertex
 10
-64.91214462352892
 20
38.72304550898244
 30
0.0
  0
VERTEX
  5
412
330
410
100
AcDbEntity
  8
BEMAßUNG
 62
     7
100
AcDbVertex
100
AcDb2dVertex
 10
-64.91214462352892
 20
53.55142549659479
 30
0.0
  0
SEQEND
  5
413
330
410
100
AcDbEntity
  8
BEMAßUNG
  0
POLYLINE
  5
414
330
1F
100
AcDbEntity
  8
BEMAßUNG
 62
     7
100
AcDb2dPolyline
 66
     1
 10
0.0
 20
0.0
 30
0.0
  0
VERTEX
  5
415
330
414
100
AcDbEntity
  8
BEMAßUNG
 62
     7
100
AcDbVertex
100
AcDb2dVertex
 10
-60.91238876515385
 20
22.72264403728809
 30
0.0
  0
VERTEX
  5
416
330
414
100
AcDbEntity
  8
BEMAßUNG
 62
     7
100
AcDbVertex
100
AcDb2dVertex
 10
-60.91238876515385
 20
53.55142549659479
 30
0.0
  0
SEQEND
  5
417
330
414
100
AcDbEntity
  8
BEMAßUNG
  0
POLYLINE
  5
418
330
1F
100
AcDbEntity
  8
BEMAßUNG
 62
     7
100
AcDb2dPolyline
 66
     1
 10
0.0
 20
0.0
 30
0.0
  0
VERTEX
  5
419
330
418
100
AcDbEntity
  8
BEMAßUNG
 62
     7
100
AcDbVertex
100
AcDb2dVertex
 10
-57.49209796739781
 20
49.55235865731677
 30
0.0
  0
VERTEX
  5
41A
330
418
100
AcDbEntity
  8
BEMAßUNG
 62
     7
100
AcDbVertex
100
AcDb2dVertex
 10
-77.7182535612996
 20
49.55235865731677
 30
0.0
  0
SEQEND
  5
41B
330
418
100
AcDbEntity
  8
BEMAßUNG
  0
POLYLINE
  5
41C
330
1F
100
AcDbEntity
  8
BEMAßUNG
 62
     7
100
AcDb2dPolyline
 66
     1
 10
0.0
 20
0.0
 30
0.0
  0
VERTEX
  5
41D
330
41C
100
AcDbEntity
  8
BEMAßUNG
 62
     7
100
AcDbVertex
100
AcDb2dVertex
 10
-64.91214462352892
 20
49.55235865731677
 30
0.0
  0
VERTEX
  5
41E
330
41C
100
AcDbEntity
  8
BEMAßUNG
 62
     7
100
AcDbVertex
100
AcDb2dVertex
 10
-69.91235621082052
 20
50.20968287590244
 30
0.0
  0
VERTEX
  5
41F
330
41C
100
AcDbEntity
  8
BEMAßUNG
 62
     7
100
AcDbVertex
100
AcDb2dVertex
 10
-69.91235621082052
 20
48.893656400537
 30
0.0
  0
VERTEX
  5
420
330
41C
100
AcDbEntity
  8
BEMAßUNG
 62
     7
100
AcDbVertex
100
AcDb2dVertex
 10
-64.91214462352892
 20
49.55235865731677
 30
0.0
  0
SEQEND
  5
421
330
41C
100
AcDbEntity
  8
BEMAßUNG
  0
HATCH
  5
422
330
1F
100
AcDbEntity
  8
BEMAßUNG
 62
     7
100
AcDbHatch
 10
0.0
 20
0.0
 30
0.0
210
0.0
220
0.0
230
1.0
  2
SOLID
 70
     1
 71
     0
 91
        1
 92
        1
 93
        3
 72
     1
 10
-64.91214462352892
 20
49.55235865731677
 11
-69.91235621082052
 21
50.20968287590244
 72
     1
 10
-69.91235621082052
 20
50.20968287590244
 11
-69.91235621082052
 21
48.893656400537
 72
     1
 10
-69.91235621082052
 20
48.893656400537
 11
-64.91214462352892
 21
49.55235865731677
 97
        0
 75
     0
 76
     1
 98
        0
  0
POLYLINE
  5
423
330
1F
100
AcDbEntity
  8
BEMAßUNG
 62
     7
100
AcDb2dPolyline
 66
     1
 10
0.0
 20
0.0
 30
0.0
  0
VERTEX
  5
424
330
423
100
AcDbEntity
  8
BEMAßUNG
 62
     7
100
AcDbVertex
100
AcDb2dVertex
 10
-69.91235621082052
 20
50.16145153910895
 30
0.0
  0
VERTEX
  5
425
330
423
100
AcDbEntity
  8
BEMAßUNG
 62
     7
100
AcDbVertex
100
AcDb2dVertex
 10
-69.54235295570469
 20
50.16145153910895
 30
0.0
  0
SEQEND
  5
426
330
423
100
AcDbEntity
  8
BEMAßUNG
  0
POLYLINE
  5
427
330
1F
100
AcDbEntity
  8
BEMAßUNG
 62
     7
100
AcDb2dPolyline
 66
     1
 10
0.0
 20
0.0
 30
0.0
  0
VERTEX
  5
428
330
427
100
AcDbEntity
  8
BEMAßUNG
 62
     7
100
AcDbVertex
100
AcDb2dVertex
 10
-69.91235621082052
 20
50.16145153910895
 30
0.0
  0
VERTEX
  5
429
330
427
100
AcDbEntity
  8
BEMAßUNG
 62
     7
100
AcDbVertex
100
AcDb2dVertex
 10
-69.54235295570469
 20
50.16145153910895
 30
0.0
  0
SEQEND
  5
42A
330
427
100
AcDbEntity
  8
BEMAßUNG
  0
POLYLINE
  5
42B
330
1F
100
AcDbEntity
  8
BEMAßUNG
 62
     7
100
AcDb2dPolyline
 66
     1
 10
0.0
 20
0.0
 30
0.0
  0
VERTEX
  5
42C
330
42B
100
AcDbEntity
  8
BEMAßUNG
 62
     7
100
AcDbVertex
100
AcDb2dVertex
 10
-69.91235621082052
 20
50.0601657318426
 30
0.0
  0
VERTEX
  5
42D
330
42B
100
AcDbEntity
  8
BEMAßUNG
 62
     7
100
AcDbVertex
100
AcDb2dVertex
 10
-68.77065156700873
 20
50.0601657318426
 30
0.0
  0
SEQEND
  5
42E
330
42B
100
AcDbEntity
  8
BEMAßUNG
  0
POLYLINE
  5
42F
330
1F
100
AcDbEntity
  8
BEMAßUNG
 62
     7
100
AcDb2dPolyline
 66
     1
 10
0.0
 20
0.0
 30
0.0
  0
VERTEX
  5
430
330
42F
100
AcDbEntity
  8
BEMAßUNG
 62
     7
100
AcDbVertex
100
AcDb2dVertex
 10
-69.91235621082052
 20
49.95819090547921
 30
0.0
  0
VERTEX
  5
431
330
42F
100
AcDbEntity
  8
BEMAßUNG
 62
     7
100
AcDbVertex
100
AcDb2dVertex
 10
-67.99895017831277
 20
49.95819090547921
 30
0.0
  0
SEQEND
  5
432
330
42F
100
AcDbEntity
  8
BEMAßUNG
  0
POLYLINE
  5
433
330
1F
100
AcDbEntity
  8
BEMAßUNG
 62
     7
100
AcDb2dPolyline
 66
     1
 10
0.0
 20
0.0
 30
0.0
  0
VERTEX
  5
434
330
433
100
AcDbEntity
  8
BEMAßUNG
 62
     7
100
AcDbVertex
100
AcDb2dVertex
 10
-69.91235621082052
 20
49.85690509821286
 30
0.0
  0
VERTEX
  5
435
330
433
100
AcDbEntity
  8
BEMAßUNG
 62
     7
100
AcDbVertex
100
AcDb2dVertex
 10
-67.22724878961681
 20
49.85690509821286
 30
0.0
  0
SEQEND
  5
436
330
433
100
AcDbEntity
  8
BEMAßUNG
  0
POLYLINE
  5
437
330
1F
100
AcDbEntity
  8
BEMAßUNG
 62
     7
100
AcDb2dPolyline
 66
     1
 10
0.0
 20
0.0
 30
0.0
  0
VERTEX
  5
438
330
437
100
AcDbEntity
  8
BEMAßUNG
 62
     7
100
AcDbVertex
100
AcDb2dVertex
 10
-69.91235621082052
 20
49.75493027184947
 30
0.0
  0
VERTEX
  5
439
330
437
100
AcDbEntity
  8
BEMAßUNG
 62
     7
100
AcDbVertex
100
AcDb2dVertex
 10
-66.45554740092084
 20
49.75493027184947
 30
0.0
  0
SEQEND
  5
43A
330
437
100
AcDbEntity
  8
BEMAßUNG
  0
POLYLINE
  5
43B
330
1F
100
AcDbEntity
  8
BEMAßUNG
 62
     7
100
AcDb2dPolyline
 66
     1
 10
0.0
 20
0.0
 30
0.0
  0
VERTEX
  5
43C
330
43B
100
AcDbEntity
  8
BEMAßUNG
 62
     7
100
AcDbVertex
100
AcDb2dVertex
 10
-69.91235621082052
 20
49.65364446458312
 30
0.0
  0
VERTEX
  5
43D
330
43B
100
AcDbEntity
  8
BEMAßUNG
 62
     7
100
AcDbVertex
100
AcDb2dVertex
 10
-65.68384601222488
 20
49.65364446458312
 30
0.0
  0
SEQEND
  5
43E
330
43B
100
AcDbEntity
  8
BEMAßUNG
  0
POLYLINE
  5
43F
330
1F
100
AcDbEntity
  8
BEMAßUNG
 62
     7
100
AcDb2dPolyline
 66
     1
 10
0.0
 20
0.0
 30
0.0
  0
VERTEX
  5
440
330
43F
100
AcDbEntity
  8
BEMAßUNG
 62
     7
100
AcDbVertex
100
AcDb2dVertex
 10
-69.91235621082052
 20
49.55235865731677
 30
0.0
  0
VERTEX
  5
441
330
43F
100
AcDbEntity
  8
BEMAßUNG
 62
     7
100
AcDbVertex
100
AcDb2dVertex
 10
-64.91214462352892
 20
49.55235865731677
 30
0.0
  0
SEQEND
  5
442
330
43F
100
AcDbEntity
  8
BEMAßUNG
  0
POLYLINE
  5
443
330
1F
100
AcDbEntity
  8
BEMAßUNG
 62
     7
100
AcDb2dPolyline
 66
     1
 10
0.0
 20
0.0
 30
0.0
  0
VERTEX
  5
444
330
443
100
AcDbEntity
  8
BEMAßUNG
 62
     7
100
AcDbVertex
100
AcDb2dVertex
 10
-69.91235621082052
 20
48.94119871823345
 30
0.0
  0
VERTEX
  5
445
330
443
100
AcDbEntity
  8
BEMAßUNG
 62
     7
100
AcDbVertex
100
AcDb2dVertex
 10
-69.54235295570469
 20
48.94119871823345
 30
0.0
  0
SEQEND
  5
446
330
443
100
AcDbEntity
  8
BEMAßUNG
  0
POLYLINE
  5
447
330
1F
100
AcDbEntity
  8
BEMAßUNG
 62
     7
100
AcDb2dPolyline
 66
     1
 10
0.0
 20
0.0
 30
0.0
  0
VERTEX
  5
448
330
447
100
AcDbEntity
  8
BEMAßUNG
 62
     7
100
AcDbVertex
100
AcDb2dVertex
 10
-69.91235621082052
 20
48.94119871823345
 30
0.0
  0
VERTEX
  5
449
330
447
100
AcDbEntity
  8
BEMAßUNG
 62
     7
100
AcDbVertex
100
AcDb2dVertex
 10
-69.54235295570469
 20
48.94119871823345
 30
0.0
  0
SEQEND
  5
44A
330
447
100
AcDbEntity
  8
BEMAßUNG
  0
POLYLINE
  5
44B
330
1F
100
AcDbEntity
  8
BEMAßUNG
 62
     7
100
AcDb2dPolyline
 66
     1
 10
0.0
 20
0.0
 30
0.0
  0
VERTEX
  5
44C
330
44B
100
AcDbEntity
  8
BEMAßUNG
 62
     7
100
AcDbVertex
100
AcDb2dVertex
 10
-69.91235621082052
 20
49.04317354459685
 30
0.0
  0
VERTEX
  5
44D
330
44B
100
AcDbEntity
  8
BEMAßUNG
 62
     7
100
AcDbVertex
100
AcDb2dVertex
 10
-68.77065156700873
 20
49.04317354459685
 30
0.0
  0
SEQEND
  5
44E
330
44B
100
AcDbEntity
  8
BEMAßUNG
  0
POLYLINE
  5
44F
330
1F
100
AcDbEntity
  8
BEMAßUNG
 62
     7
100
AcDb2dPolyline
 66
     1
 10
0.0
 20
0.0
 30
0.0
  0
VERTEX
  5
450
330
44F
100
AcDbEntity
  8
BEMAßUNG
 62
     7
100
AcDbVertex
100
AcDb2dVertex
 10
-69.91235621082052
 20
49.1458373900573
 30
0.0
  0
VERTEX
  5
451
330
44F
100
AcDbEntity
  8
BEMAßUNG
 62
     7
100
AcDbVertex
100
AcDb2dVertex
 10
-67.99895017831277
 20
49.1458373900573
 30
0.0
  0
SEQEND
  5
452
330
44F
100
AcDbEntity
  8
BEMAßUNG
  0
POLYLINE
  5
453
330
1F
100
AcDbEntity
  8
BEMAßUNG
 62
     7
100
AcDb2dPolyline
 66
     1
 10
0.0
 20
0.0
 30
0.0
  0
VERTEX
  5
454
330
453
100
AcDbEntity
  8
BEMAßUNG
 62
     7
100
AcDbVertex
100
AcDb2dVertex
 10
-69.91235621082052
 20
49.24712319732364
 30
0.0
  0
VERTEX
  5
455
330
453
100
AcDbEntity
  8
BEMAßUNG
 62
     7
100
AcDbVertex
100
AcDb2dVertex
 10
-67.22724878961681
 20
49.24712319732364
 30
0.0
  0
SEQEND
  5
456
330
453
100
AcDbEntity
  8
BEMAßUNG
  0
POLYLINE
  5
457
330
1F
100
AcDbEntity
  8
BEMAßUNG
 62
     7
100
AcDb2dPolyline
 66
     1
 10
0.0
 20
0.0
 30
0.0
  0
VERTEX
  5
458
330
457
100
AcDbEntity
  8
BEMAßUNG
 62
     7
100
AcDbVertex
100
AcDb2dVertex
 10
-69.91235621082052
 20
49.34840900458998
 30
0.0
  0
VERTEX
  5
459
330
457
100
AcDbEntity
  8
BEMAßUNG
 62
     7
100
AcDbVertex
100
AcDb2dVertex
 10
-66.45554740092084
 20
49.34840900458998
 30
0.0
  0
SEQEND
  5
45A
330
457
100
AcDbEntity
  8
BEMAßUNG
  0
POLYLINE
  5
45B
330
1F
100
AcDbEntity
  8
BEMAßUNG
 62
     7
100
AcDb2dPolyline
 66
     1
 10
0.0
 20
0.0
 30
0.0
  0
VERTEX
  5
45C
330
45B
100
AcDbEntity
  8
BEMAßUNG
 62
     7
100
AcDbVertex
100
AcDb2dVertex
 10
-69.91235621082052
 20
49.45038383095338
 30
0.0
  0
VERTEX
  5
45D
330
45B
100
AcDbEntity
  8
BEMAßUNG
 62
     7
100
AcDbVertex
100
AcDb2dVertex
 10
-65.68384601222488
 20
49.45038383095338
 30
0.0
  0
SEQEND
  5
45E
330
45B
100
AcDbEntity
  8
BEMAßUNG
  0
POLYLINE
  5
45F
330
1F
100
AcDbEntity
  8
BEMAßUNG
 62
     7
100
AcDb2dPolyline
 66
     1
 10
0.0
 20
0.0
 30
0.0
  0
VERTEX
  5
460
330
45F
100
AcDbEntity
  8
BEMAßUNG
 62
     7
100
AcDbVertex
100
AcDb2dVertex
 10
-69.91235621082052
 20
49.55235865731677
 30
0.0
  0
VERTEX
  5
461
330
45F
100
AcDbEntity
  8
BEMAßUNG
 62
     7
100
AcDbVertex
100
AcDb2dVertex
 10
-64.91214462352892
 20
49.55235865731677
 30
0.0
  0
SEQEND
  5
462
330
45F
100
AcDbEntity
  8
BEMAßUNG
  0
POLYLINE
  5
463
330
1F
100
AcDbEntity
  8
BEMAßUNG
 62
     7
100
AcDb2dPolyline
 66
     1
 10
0.0
 20
0.0
 30
0.0
  0
VERTEX
  5
464
330
463
100
AcDbEntity
  8
BEMAßUNG
 62
     7
100
AcDbVertex
100
AcDb2dVertex
 10
-60.91238876515385
 20
49.55235865731677
 30
0.0
  0
VERTEX
  5
465
330
463
100
AcDbEntity
  8
BEMAßUNG
 62
     7
100
AcDbVertex
100
AcDb2dVertex
 10
-55.91286619695929
 20
48.893656400537
 30
0.0
  0
VERTEX
  5
466
330
463
100
AcDbEntity
  8
BEMAßUNG
 62
     7
100
AcDbVertex
100
AcDb2dVertex
 10
-55.91286619695929
 20
50.20968287590244
 30
0.0
  0
VERTEX
  5
467
330
463
100
AcDbEntity
  8
BEMAßUNG
 62
     7
100
AcDbVertex
100
AcDb2dVertex
 10
-60.91238876515385
 20
49.55235865731677
 30
0.0
  0
SEQEND
  5
468
330
463
100
AcDbEntity
  8
BEMAßUNG
  0
HATCH
  5
469
330
1F
100
AcDbEntity
  8
BEMAßUNG
 62
     7
100
AcDbHatch
 10
0.0
 20
0.0
 30
0.0
210
0.0
220
0.0
230
1.0
  2
SOLID
 70
     1
 71
     0
 91
        1
 92
        1
 93
        3
 72
     1
 10
-60.91238876515385
 20
49.55235865731677
 11
-55.91286619695929
 21
48.893656400537
 72
     1
 10
-55.91286619695929
 20
48.893656400537
 11
-55.91286619695929
 21
50.20968287590244
 72
     1
 10
-55.91286619695929
 20
50.20968287590244
 11
-60.91238876515385
 21
49.55235865731677
 97
        0
 75
     0
 76
     1
 98
        0
  0
POLYLINE
  5
46A
330
1F
100
AcDbEntity
  8
BEMAßUNG
 62
     7
100
AcDb2dPolyline
 66
     1
 10
0.0
 20
0.0
 30
0.0
  0
VERTEX
  5
46B
330
46A
100
AcDbEntity
  8
BEMAßUNG
 62
     7
100
AcDbVertex
100
AcDb2dVertex
 10
-55.91286619695929
 20
48.94119871823345
 30
0.0
  0
VERTEX
  5
46C
330
46A
100
AcDbEntity
  8
BEMAßUNG
 62
     7
100
AcDbVertex
100
AcDb2dVertex
 10
-56.28218043297807
 20
48.94119871823345
 30
0.0
  0
SEQEND
  5
46D
330
46A
100
AcDbEntity
  8
BEMAßUNG
  0
POLYLINE
  5
46E
330
1F
100
AcDbEntity
  8
BEMAßUNG
 62
     7
100
AcDb2dPolyline
 66
     1
 10
0.0
 20
0.0
 30
0.0
  0
VERTEX
  5
46F
330
46E
100
AcDbEntity
  8
BEMAßUNG
 62
     7
100
AcDbVertex
100
AcDb2dVertex
 10
-55.91286619695929
 20
48.94119871823345
 30
0.0
  0
VERTEX
  5
470
330
46E
100
AcDbEntity
  8
BEMAßUNG
 62
     7
100
AcDbVertex
100
AcDb2dVertex
 10
-56.28218043297807
 20
48.94119871823345
 30
0.0
  0
SEQEND
  5
471
330
46E
100
AcDbEntity
  8
BEMAßUNG
  0
POLYLINE
  5
472
330
1F
100
AcDbEntity
  8
BEMAßUNG
 62
     7
100
AcDb2dPolyline
 66
     1
 10
0.0
 20
0.0
 30
0.0
  0
VERTEX
  5
473
330
472
100
AcDbEntity
  8
BEMAßUNG
 62
     7
100
AcDbVertex
100
AcDb2dVertex
 10
-55.91286619695929
 20
49.04317354459685
 30
0.0
  0
VERTEX
  5
474
330
472
100
AcDbEntity
  8
BEMAßUNG
 62
     7
100
AcDbVertex
100
AcDb2dVertex
 10
-57.05319280257698
 20
49.04317354459685
 30
0.0
  0
SEQEND
  5
475
330
472
100
AcDbEntity
  8
BEMAßUNG
  0
POLYLINE
  5
476
330
1F
100
AcDbEntity
  8
BEMAßUNG
 62
     7
100
AcDb2dPolyline
 66
     1
 10
0.0
 20
0.0
 30
0.0
  0
VERTEX
  5
477
330
476
100
AcDbEntity
  8
BEMAßUNG
 62
     7
100
AcDbVertex
100
AcDb2dVertex
 10
-55.91286619695929
 20
49.1458373900573
 30
0.0
  0
VERTEX
  5
478
330
476
100
AcDbEntity
  8
BEMAßUNG
 62
     7
100
AcDbVertex
100
AcDb2dVertex
 10
-57.82558321037
 20
49.1458373900573
 30
0.0
  0
SEQEND
  5
479
330
476
100
AcDbEntity
  8
BEMAßUNG
  0
POLYLINE
  5
47A
330
1F
100
AcDbEntity
  8
BEMAßUNG
 62
     7
100
AcDb2dPolyline
 66
     1
 10
0.0
 20
0.0
 30
0.0
  0
VERTEX
  5
47B
330
47A
100
AcDbEntity
  8
BEMAßUNG
 62
     7
100
AcDbVertex
100
AcDb2dVertex
 10
-55.91286619695929
 20
49.24712319732364
 30
0.0
  0
VERTEX
  5
47C
330
47A
100
AcDbEntity
  8
BEMAßUNG
 62
     7
100
AcDbVertex
100
AcDb2dVertex
 10
-58.59659557996891
 20
49.24712319732364
 30
0.0
  0
SEQEND
  5
47D
330
47A
100
AcDbEntity
  8
BEMAßUNG
  0
POLYLINE
  5
47E
330
1F
100
AcDbEntity
  8
BEMAßUNG
 62
     7
100
AcDb2dPolyline
 66
     1
 10
0.0
 20
0.0
 30
0.0
  0
VERTEX
  5
47F
330
47E
100
AcDbEntity
  8
BEMAßUNG
 62
     7
100
AcDbVertex
100
AcDb2dVertex
 10
-55.91286619695929
 20
49.34840900458998
 30
0.0
  0
VERTEX
  5
480
330
47E
100
AcDbEntity
  8
BEMAßUNG
 62
     7
100
AcDbVertex
100
AcDb2dVertex
 10
-59.36898598776192
 20
49.34840900458998
 30
0.0
  0
SEQEND
  5
481
330
47E
100
AcDbEntity
  8
BEMAßUNG
  0
POLYLINE
  5
482
330
1F
100
AcDbEntity
  8
BEMAßUNG
 62
     7
100
AcDb2dPolyline
 66
     1
 10
0.0
 20
0.0
 30
0.0
  0
VERTEX
  5
483
330
482
100
AcDbEntity
  8
BEMAßUNG
 62
     7
100
AcDbVertex
100
AcDb2dVertex
 10
-55.91286619695929
 20
49.45038383095338
 30
0.0
  0
VERTEX
  5
484
330
482
100
AcDbEntity
  8
BEMAßUNG
 62
     7
100
AcDbVertex
100
AcDb2dVertex
 10
-60.13999835736084
 20
49.45038383095338
 30
0.0
  0
SEQEND
  5
485
330
482
100
AcDbEntity
  8
BEMAßUNG
  0
POLYLINE
  5
486
330
1F
100
AcDbEntity
  8
BEMAßUNG
 62
     7
100
AcDb2dPolyline
 66
     1
 10
0.0
 20
0.0
 30
0.0
  0
VERTEX
  5
487
330
486
100
AcDbEntity
  8
BEMAßUNG
 62
     7
100
AcDbVertex
100
AcDb2dVertex
 10
-55.91286619695929
 20
49.55235865731677
 30
0.0
  0
VERTEX
  5
488
330
486
100
AcDbEntity
  8
BEMAßUNG
 62
     7
100
AcDbVertex
100
AcDb2dVertex
 10
-60.91238876515385
 20
49.55235865731677
 30
0.0
  0
SEQEND
  5
489
330
486
100
AcDbEntity
  8
BEMAßUNG
  0
POLYLINE
  5
48A
330
1F
100
AcDbEntity
  8
BEMAßUNG
 62
     7
100
AcDb2dPolyline
 66
     1
 10
0.0
 20
0.0
 30
0.0
  0
VERTEX
  5
48B
330
48A
100
AcDbEntity
  8
BEMAßUNG
 62
     7
100
AcDbVertex
100
AcDb2dVertex
 10
-55.91286619695929
 20
50.16145153910895
 30
0.0
  0
VERTEX
  5
48C
330
48A
100
AcDbEntity
  8
BEMAßUNG
 62
     7
100
AcDbVertex
100
AcDb2dVertex
 10
-56.28218043297807
 20
50.16145153910895
 30
0.0
  0
SEQEND
  5
48D
330
48A
100
AcDbEntity
  8
BEMAßUNG
  0
POLYLINE
  5
48E
330
1F
100
AcDbEntity
  8
BEMAßUNG
 62
     7
100
AcDb2dPolyline
 66
     1
 10
0.0
 20
0.0
 30
0.0
  0
VERTEX
  5
48F
330
48E
100
AcDbEntity
  8
BEMAßUNG
 62
     7
100
AcDbVertex
100
AcDb2dVertex
 10
-55.91286619695929
 20
50.16145153910895
 30
0.0
  0
VERTEX
  5
490
330
48E
100
AcDbEntity
  8
BEMAßUNG
 62
     7
100
AcDbVertex
100
AcDb2dVertex
 10
-56.28218043297807
 20
50.16145153910895
 30
0.0
  0
SEQEND
  5
491
330
48E
100
AcDbEntity
  8
BEMAßUNG
  0
POLYLINE
  5
492
330
1F
100
AcDbEntity
  8
BEMAßUNG
 62
     7
100
AcDb2dPolyline
 66
     1
 10
0.0
 20
0.0
 30
0.0
  0
VERTEX
  5
493
330
492
100
AcDbEntity
  8
BEMAßUNG
 62
     7
100
AcDbVertex
100
AcDb2dVertex
 10
-55.91286619695929
 20
50.0601657318426
 30
0.0
  0
VERTEX
  5
494
330
492
100
AcDbEntity
  8
BEMAßUNG
 62
     7
100
AcDbVertex
100
AcDb2dVertex
 10
-57.05319280257698
 20
50.0601657318426
 30
0.0
  0
SEQEND
  5
495
330
492
100
AcDbEntity
  8
BEMAßUNG
  0
POLYLINE
  5
496
330
1F
100
AcDbEntity
  8
BEMAßUNG
 62
     7
100
AcDb2dPolyline
 66
     1
 10
0.0
 20
0.0
 30
0.0
  0
VERTEX
  5
497
330
496
100
AcDbEntity
  8
BEMAßUNG
 62
     7
100
AcDbVertex
100
AcDb2dVertex
 10
-55.91286619695929
 20
49.95819090547921
 30
0.0
  0
VERTEX
  5
498
330
496
100
AcDbEntity
  8
BEMAßUNG
 62
     7
100
AcDbVertex
100
AcDb2dVertex
 10
-57.82558321037
 20
49.95819090547921
 30
0.0
  0
SEQEND
  5
499
330
496
100
AcDbEntity
  8
BEMAßUNG
  0
POLYLINE
  5
49A
330
1F
100
AcDbEntity
  8
BEMAßUNG
 62
     7
100
AcDb2dPolyline
 66
     1
 10
0.0
 20
0.0
 30
0.0
  0
VERTEX
  5
49B
330
49A
100
AcDbEntity
  8
BEMAßUNG
 62
     7
100
AcDbVertex
100
AcDb2dVertex
 10
-55.91286619695929
 20
49.85690509821286
 30
0.0
  0
VERTEX
  5
49C
330
49A
100
AcDbEntity
  8
BEMAßUNG
 62
     7
100
AcDbVertex
100
AcDb2dVertex
 10
-58.59659557996891
 20
49.85690509821286
 30
0.0
  0
SEQEND
  5
49D
330
49A
100
AcDbEntity
  8
BEMAßUNG
  0
POLYLINE
  5
49E
330
1F
100
AcDbEntity
  8
BEMAßUNG
 62
     7
100
AcDb2dPolyline
 66
     1
 10
0.0
 20
0.0
 30
0.0
  0
VERTEX
  5
49F
330
49E
100
AcDbEntity
  8
BEMAßUNG
 62
     7
100
AcDbVertex
100
AcDb2dVertex
 10
-55.91286619695929
 20
49.75493027184947
 30
0.0
  0
VERTEX
  5
4A0
330
49E
100
AcDbEntity
  8
BEMAßUNG
 62
     7
100
AcDbVertex
100
AcDb2dVertex
 10
-59.36898598776192
 20
49.75493027184947
 30
0.0
  0
SEQEND
  5
4A1
330
49E
100
AcDbEntity
  8
BEMAßUNG
  0
POLYLINE
  5
4A2
330
1F
100
AcDbEntity
  8
BEMAßUNG
 62
     7
100
AcDb2dPolyline
 66
     1
 10
0.0
 20
0.0
 30
0.0
  0
VERTEX
  5
4A3
330
4A2
100
AcDbEntity
  8
BEMAßUNG
 62
     7
100
AcDbVertex
100
AcDb2dVertex
 10
-55.91286619695929
 20
49.65364446458312
 30
0.0
  0
VERTEX
  5
4A4
330
4A2
100
AcDbEntity
  8
BEMAßUNG
 62
     7
100
AcDbVertex
100
AcDb2dVertex
 10
-60.13999835736084
 20
49.65364446458312
 30
0.0
  0
SEQEND
  5
4A5
330
4A2
100
AcDbEntity
  8
BEMAßUNG
  0
POLYLINE
  5
4A6
330
1F
100
AcDbEntity
  8
BEMAßUNG
 62
     7
100
AcDb2dPolyline
 66
     1
 10
0.0
 20
0.0
 30
0.0
  0
VERTEX
  5
4A7
330
4A6
100
AcDbEntity
  8
BEMAßUNG
 62
     7
100
AcDbVertex
100
AcDb2dVertex
 10
-55.91286619695929
 20
49.55235865731677
 30
0.0
  0
VERTEX
  5
4A8
330
4A6
100
AcDbEntity
  8
BEMAßUNG
 62
     7
100
AcDbVertex
100
AcDb2dVertex
 10
-60.91238876515385
 20
49.55235865731677
 30
0.0
  0
SEQEND
  5
4A9
330
4A6
100
AcDbEntity
  8
BEMAßUNG
  0
POLYLINE
  5
4AA
330
1F
100
AcDbEntity
  8
BEMAßUNG
 62
     7
100
AcDb2dPolyline
 66
     1
 10
0.0
 20
0.0
 30
0.0
  0
VERTEX
  5
4AB
330
4AA
100
AcDbEntity
  8
BEMAßUNG
 62
     7
100
AcDbVertex
100
AcDb2dVertex
 10
-22.91229654375109
 20
22.72264403728809
 30
0.0
  0
VERTEX
  5
4AC
330
4AA
100
AcDbEntity
  8
BEMAßUNG
 62
     7
100
AcDbVertex
100
AcDb2dVertex
 10
-22.91229654375109
 20
53.55142549659479
 30
0.0
  0
SEQEND
  5
4AD
330
4AA
100
AcDbEntity
  8
BEMAßUNG
  0
POLYLINE
  5
4AE
330
1F
100
AcDbEntity
  8
BEMAßUNG
 62
     7
100
AcDb2dPolyline
 66
     1
 10
0.0
 20
0.0
 30
0.0
  0
VERTEX
  5
4AF
330
4AE
100
AcDbEntity
  8
BEMAßUNG
 62
     7
100
AcDbVertex
100
AcDb2dVertex
 10
-60.91238876515385
 20
49.55235865731677
 30
0.0
  0
VERTEX
  5
4B0
330
4AE
100
AcDbEntity
  8
BEMAßUNG
 62
     7
100
AcDbVertex
100
AcDb2dVertex
 10
-22.91229654375109
 20
49.55235865731677
 30
0.0
  0
SEQEND
  5
4B1
330
4AE
100
AcDbEntity
  8
BEMAßUNG
  0
POLYLINE
  5
4B2
330
1F
100
AcDbEntity
  8
BEMAßUNG
 62
     7
100
AcDb2dPolyline
 66
     1
 10
0.0
 20
0.0
 30
0.0
  0
VERTEX
  5
4B3
330
4B2
100
AcDbEntity
  8
BEMAßUNG
 62
     7
100
AcDbVertex
100
AcDb2dVertex
 10
-60.91238876515385
 20
49.55235865731677
 30
0.0
  0
VERTEX
  5
4B4
330
4B2
100
AcDbEntity
  8
BEMAßUNG
 62
     7
100
AcDbVertex
100
AcDb2dVertex
 10
-55.91286619695929
 20
48.893656400537
 30
0.0
  0
VERTEX
  5
4B5
330
4B2
100
AcDbEntity
  8
BEMAßUNG
 62
     7
100
AcDbVertex
100
AcDb2dVertex
 10
-55.91286619695929
 20
50.20968287590244
 30
0.0
  0
VERTEX
  5
4B6
330
4B2
100
AcDbEntity
  8
BEMAßUNG
 62
     7
100
AcDbVertex
100
AcDb2dVertex
 10
-60.91238876515385
 20
49.55235865731677
 30
0.0
  0
SEQEND
  5
4B7
330
4B2
100
AcDbEntity
  8
BEMAßUNG
  0
HATCH
  5
4B8
330
1F
100
AcDbEntity
  8
BEMAßUNG
 62
     7
100
AcDbHatch
 10
0.0
 20
0.0
 30
0.0
210
0.0
220
0.0
230
1.0
  2
SOLID
 70
     1
 71
     0
 91
        1
 92
        1
 93
        3
 72
     1
 10
-60.91238876515385
 20
49.55235865731677
 11
-55.91286619695929
 21
48.893656400537
 72
     1
 10
-55.91286619695929
 20
48.893656400537
 11
-55.91286619695929
 21
50.20968287590244
 72
     1
 10
-55.91286619695929
 20
50.20968287590244
 11
-60.91238876515385
 21
49.55235865731677
 97
        0
 75
     0
 76
     1
 98
        0
  0
POLYLINE
  5
4B9
330
1F
100
AcDbEntity
  8
BEMAßUNG
 62
     7
100
AcDb2dPolyline
 66
     1
 10
0.0
 20
0.0
 30
0.0
  0
VERTEX
  5
4BA
330
4B9
100
AcDbEntity
  8
BEMAßUNG
 62
     7
100
AcDbVertex
100
AcDb2dVertex
 10
-55.91286619695929
 20
48.94119871823345
 30
0.0
  0
VERTEX
  5
4BB
330
4B9
100
AcDbEntity
  8
BEMAßUNG
 62
     7
100
AcDbVertex
100
AcDb2dVertex
 10
-56.28218043297807
 20
48.94119871823345
 30
0.0
  0
SEQEND
  5
4BC
330
4B9
100
AcDbEntity
  8
BEMAßUNG
  0
POLYLINE
  5
4BD
330
1F
100
AcDbEntity
  8
BEMAßUNG
 62
     7
100
AcDb2dPolyline
 66
     1
 10
0.0
 20
0.0
 30
0.0
  0
VERTEX
  5
4BE
330
4BD
100
AcDbEntity
  8
BEMAßUNG
 62
     7
100
AcDbVertex
100
AcDb2dVertex
 10
-55.91286619695929
 20
48.94119871823345
 30
0.0
  0
VERTEX
  5
4BF
330
4BD
100
AcDbEntity
  8
BEMAßUNG
 62
     7
100
AcDbVertex
100
AcDb2dVertex
 10
-56.28218043297807
 20
48.94119871823345
 30
0.0
  0
SEQEND
  5
4C0
330
4BD
100
AcDbEntity
  8
BEMAßUNG
  0
POLYLINE
  5
4C1
330
1F
100
AcDbEntity
  8
BEMAßUNG
 62
     7
100
AcDb2dPolyline
 66
     1
 10
0.0
 20
0.0
 30
0.0
  0
VERTEX
  5
4C2
330
4C1
100
AcDbEntity
  8
BEMAßUNG
 62
     7
100
AcDbVertex
100
AcDb2dVertex
 10
-55.91286619695929
 20
49.04317354459685
 30
0.0
  0
VERTEX
  5
4C3
330
4C1
100
AcDbEntity
  8
BEMAßUNG
 62
     7
100
AcDbVertex
100
AcDb2dVertex
 10
-57.05319280257698
 20
49.04317354459685
 30
0.0
  0
SEQEND
  5
4C4
330
4C1
100
AcDbEntity
  8
BEMAßUNG
  0
POLYLINE
  5
4C5
330
1F
100
AcDbEntity
  8
BEMAßUNG
 62
     7
100
AcDb2dPolyline
 66
     1
 10
0.0
 20
0.0
 30
0.0
  0
VERTEX
  5
4C6
330
4C5
100
AcDbEntity
  8
BEMAßUNG
 62
     7
100
AcDbVertex
100
AcDb2dVertex
 10
-55.91286619695929
 20
49.1458373900573
 30
0.0
  0
VERTEX
  5
4C7
330
4C5
100
AcDbEntity
  8
BEMAßUNG
 62
     7
100
AcDbVertex
100
AcDb2dVertex
 10
-57.82558321037
 20
49.1458373900573
 30
0.0
  0
SEQEND
  5
4C8
330
4C5
100
AcDbEntity
  8
BEMAßUNG
  0
POLYLINE
  5
4C9
330
1F
100
AcDbEntity
  8
BEMAßUNG
 62
     7
100
AcDb2dPolyline
 66
     1
 10
0.0
 20
0.0
 30
0.0
  0
VERTEX
  5
4CA
330
4C9
100
AcDbEntity
  8
BEMAßUNG
 62
     7
100
AcDbVertex
100
AcDb2dVertex
 10
-55.91286619695929
 20
49.24712319732364
 30
0.0
  0
VERTEX
  5
4CB
330
4C9
100
AcDbEntity
  8
BEMAßUNG
 62
     7
100
AcDbVertex
100
AcDb2dVertex
 10
-58.59659557996891
 20
49.24712319732364
 30
0.0
  0
SEQEND
  5
4CC
330
4C9
100
AcDbEntity
  8
BEMAßUNG
  0
POLYLINE
  5
4CD
330
1F
100
AcDbEntity
  8
BEMAßUNG
 62
     7
100
AcDb2dPolyline
 66
     1
 10
0.0
 20
0.0
 30
0.0
  0
VERTEX
  5
4CE
330
4CD
100
AcDbEntity
  8
BEMAßUNG
 62
     7
100
AcDbVertex
100
AcDb2dVertex
 10
-55.91286619695929
 20
49.34840900458998
 30
0.0
  0
VERTEX
  5
4CF
330
4CD
100
AcDbEntity
  8
BEMAßUNG
 62
     7
100
AcDbVertex
100
AcDb2dVertex
 10
-59.36898598776192
 20
49.34840900458998
 30
0.0
  0
SEQEND
  5
4D0
330
4CD
100
AcDbEntity
  8
BEMAßUNG
  0
POLYLINE
  5
4D1
330
1F
100
AcDbEntity
  8
BEMAßUNG
 62
     7
100
AcDb2dPolyline
 66
     1
 10
0.0
 20
0.0
 30
0.0
  0
VERTEX
  5
4D2
330
4D1
100
AcDbEntity
  8
BEMAßUNG
 62
     7
100
AcDbVertex
100
AcDb2dVertex
 10
-55.91286619695929
 20
49.45038383095338
 30
0.0
  0
VERTEX
  5
4D3
330
4D1
100
AcDbEntity
  8
BEMAßUNG
 62
     7
100
AcDbVertex
100
AcDb2dVertex
 10
-60.13999835736084
 20
49.45038383095338
 30
0.0
  0
SEQEND
  5
4D4
330
4D1
100
AcDbEntity
  8
BEMAßUNG
  0
POLYLINE
  5
4D5
330
1F
100
AcDbEntity
  8
BEMAßUNG
 62
     7
100
AcDb2dPolyline
 66
     1
 10
0.0
 20
0.0
 30
0.0
  0
VERTEX
  5
4D6
330
4D5
100
AcDbEntity
  8
BEMAßUNG
 62
     7
100
AcDbVertex
100
AcDb2dVertex
 10
-55.91286619695929
 20
49.55235865731677
 30
0.0
  0
VERTEX
  5
4D7
330
4D5
100
AcDbEntity
  8
BEMAßUNG
 62
     7
100
AcDbVertex
100
AcDb2dVertex
 10
-60.91238876515385
 20
49.55235865731677
 30
0.0
  0
SEQEND
  5
4D8
330
4D5
100
AcDbEntity
  8
BEMAßUNG
  0
POLYLINE
  5
4D9
330
1F
100
AcDbEntity
  8
BEMAßUNG
 62
     7
100
AcDb2dPolyline
 66
     1
 10
0.0
 20
0.0
 30
0.0
  0
VERTEX
  5
4DA
330
4D9
100
AcDbEntity
  8
BEMAßUNG
 62
     7
100
AcDbVertex
100
AcDb2dVertex
 10
-55.91286619695929
 20
50.16145153910895
 30
0.0
  0
VERTEX
  5
4DB
330
4D9
100
AcDbEntity
  8
BEMAßUNG
 62
     7
100
AcDbVertex
100
AcDb2dVertex
 10
-56.28218043297807
 20
50.16145153910895
 30
0.0
  0
SEQEND
  5
4DC
330
4D9
100
AcDbEntity
  8
BEMAßUNG
  0
POLYLINE
  5
4DD
330
1F
100
AcDbEntity
  8
BEMAßUNG
 62
     7
100
AcDb2dPolyline
 66
     1
 10
0.0
 20
0.0
 30
0.0
  0
VERTEX
  5
4DE
330
4DD
100
AcDbEntity
  8
BEMAßUNG
 62
     7
100
AcDbVertex
100
AcDb2dVertex
 10
-55.91286619695929
 20
50.16145153910895
 30
0.0
  0
VERTEX
  5
4DF
330
4DD
100
AcDbEntity
  8
BEMAßUNG
 62
     7
100
AcDbVertex
100
AcDb2dVertex
 10
-56.28218043297807
 20
50.16145153910895
 30
0.0
  0
SEQEND
  5
4E0
330
4DD
100
AcDbEntity
  8
BEMAßUNG
  0
POLYLINE
  5
4E1
330
1F
100
AcDbEntity
  8
BEMAßUNG
 62
     7
100
AcDb2dPolyline
 66
     1
 10
0.0
 20
0.0
 30
0.0
  0
VERTEX
  5
4E2
330
4E1
100
AcDbEntity
  8
BEMAßUNG
 62
     7
100
AcDbVertex
100
AcDb2dVertex
 10
-55.91286619695929
 20
50.0601657318426
 30
0.0
  0
VERTEX
  5
4E3
330
4E1
100
AcDbEntity
  8
BEMAßUNG
 62
     7
100
AcDbVertex
100
AcDb2dVertex
 10
-57.05319280257698
 20
50.0601657318426
 30
0.0
  0
SEQEND
  5
4E4
330
4E1
100
AcDbEntity
  8
BEMAßUNG
  0
POLYLINE
  5
4E5
330
1F
100
AcDbEntity
  8
BEMAßUNG
 62
     7
100
AcDb2dPolyline
 66
     1
 10
0.0
 20
0.0
 30
0.0
  0
VERTEX
  5
4E6
330
4E5
100
AcDbEntity
  8
BEMAßUNG
 62
     7
100
AcDbVertex
100
AcDb2dVertex
 10
-55.91286619695929
 20
49.95819090547921
 30
0.0
  0
VERTEX
  5
4E7
330
4E5
100
AcDbEntity
  8
BEMAßUNG
 62
     7
100
AcDbVertex
100
AcDb2dVertex
 10
-57.82558321037
 20
49.95819090547921
 30
0.0
  0
SEQEND
  5
4E8
330
4E5
100
AcDbEntity
  8
BEMAßUNG
  0
POLYLINE
  5
4E9
330
1F
100
AcDbEntity
  8
BEMAßUNG
 62
     7
100
AcDb2dPolyline
 66
     1
 10
0.0
 20
0.0
 30
0.0
  0
VERTEX
  5
4EA
330
4E9
100
AcDbEntity
  8
BEMAßUNG
 62
     7
100
AcDbVertex
100
AcDb2dVertex
 10
-55.91286619695929
 20
49.85690509821286
 30
0.0
  0
VERTEX
  5
4EB
330
4E9
100
AcDbEntity
  8
BEMAßUNG
 62
     7
100
AcDbVertex
100
AcDb2dVertex
 10
-58.59659557996891
 20
49.85690509821286
 30
0.0
  0
SEQEND
  5
4EC
330
4E9
100
AcDbEntity
  8
BEMAßUNG
  0
POLYLINE
  5
4ED
330
1F
100
AcDbEntity
  8
BEMAßUNG
 62
     7
100
AcDb2dPolyline
 66
     1
 10
0.0
 20
0.0
 30
0.0
  0
VERTEX
  5
4EE
330
4ED
100
AcDbEntity
  8
BEMAßUNG
 62
     7
100
AcDbVertex
100
AcDb2dVertex
 10
-55.91286619695929
 20
49.75493027184947
 30
0.0
  0
VERTEX
  5
4EF
330
4ED
100
AcDbEntity
  8
BEMAßUNG
 62
     7
100
AcDbVertex
100
AcDb2dVertex
 10
-59.36898598776192
 20
49.75493027184947
 30
0.0
  0
SEQEND
  5
4F0
330
4ED
100
AcDbEntity
  8
BEMAßUNG
  0
POLYLINE
  5
4F1
330
1F
100
AcDbEntity
  8
BEMAßUNG
 62
     7
100
AcDb2dPolyline
 66
     1
 10
0.0
 20
0.0
 30
0.0
  0
VERTEX
  5
4F2
330
4F1
100
AcDbEntity
  8
BEMAßUNG
 62
     7
100
AcDbVertex
100
AcDb2dVertex
 10
-55.91286619695929
 20
49.65364446458312
 30
0.0
  0
VERTEX
  5
4F3
330
4F1
100
AcDbEntity
  8
BEMAßUNG
 62
     7
100
AcDbVertex
100
AcDb2dVertex
 10
-60.13999835736084
 20
49.65364446458312
 30
0.0
  0
SEQEND
  5
4F4
330
4F1
100
AcDbEntity
  8
BEMAßUNG
  0
POLYLINE
  5
4F5
330
1F
100
AcDbEntity
  8
BEMAßUNG
 62
     7
100
AcDb2dPolyline
 66
     1
 10
0.0
 20
0.0
 30
0.0
  0
VERTEX
  5
4F6
330
4F5
100
AcDbEntity
  8
BEMAßUNG
 62
     7
100
AcDbVertex
100
AcDb2dVertex
 10
-55.91286619695929
 20
49.55235865731677
 30
0.0
  0
VERTEX
  5
4F7
330
4F5
100
AcDbEntity
  8
BEMAßUNG
 62
     7
100
AcDbVertex
100
AcDb2dVertex
 10
-60.91238876515385
 20
49.55235865731677
 30
0.0
  0
SEQEND
  5
4F8
330
4F5
100
AcDbEntity
  8
BEMAßUNG
  0
POLYLINE
  5
4F9
330
1F
100
AcDbEntity
  8
BEMAßUNG
 62
     7
100
AcDb2dPolyline
 66
     1
 10
0.0
 20
0.0
 30
0.0
  0
VERTEX
  5
4FA
330
4F9
100
AcDbEntity
  8
BEMAßUNG
 62
     7
100
AcDbVertex
100
AcDb2dVertex
 10
-22.91229654375109
 20
49.55235865731677
 30
0.0
  0
VERTEX
  5
4FB
330
4F9
100
AcDbEntity
  8
BEMAßUNG
 62
     7
100
AcDbVertex
100
AcDb2dVertex
 10
-27.91181911194566
 20
50.20968287590244
 30
0.0
  0
VERTEX
  5
4FC
330
4F9
100
AcDbEntity
  8
BEMAßUNG
 62
     7
100
AcDbVertex
100
AcDb2dVertex
 10
-27.91181911194566
 20
48.893656400537
 30
0.0
  0
VERTEX
  5
4FD
330
4F9
100
AcDbEntity
  8
BEMAßUNG
 62
     7
100
AcDbVertex
100
AcDb2dVertex
 10
-22.91229654375109
 20
49.55235865731677
 30
0.0
  0
SEQEND
  5
4FE
330
4F9
100
AcDbEntity
  8
BEMAßUNG
  0
HATCH
  5
4FF
330
1F
100
AcDbEntity
  8
BEMAßUNG
 62
     7
100
AcDbHatch
 10
0.0
 20
0.0
 30
0.0
210
0.0
220
0.0
230
1.0
  2
SOLID
 70
     1
 71
     0
 91
        1
 92
        1
 93
        3
 72
     1
 10
-22.91229654375109
 20
49.55235865731677
 11
-27.91181911194566
 21
50.20968287590244
 72
     1
 10
-27.91181911194566
 20
50.20968287590244
 11
-27.91181911194566
 21
48.893656400537
 72
     1
 10
-27.91181911194566
 20
48.893656400537
 11
-22.91229654375109
 21
49.55235865731677
 97
        0
 75
     0
 76
     1
 98
        0
  0
POLYLINE
  5
500
330
1F
100
AcDbEntity
  8
BEMAßUNG
 62
     7
100
AcDb2dPolyline
 66
     1
 10
0.0
 20
0.0
 30
0.0
  0
VERTEX
  5
501
330
500
100
AcDbEntity
  8
BEMAßUNG
 62
     7
100
AcDbVertex
100
AcDb2dVertex
 10
-27.91181911194566
 20
50.16145153910895
 30
0.0
  0
VERTEX
  5
502
330
500
100
AcDbEntity
  8
BEMAßUNG
 62
     7
100
AcDbVertex
100
AcDb2dVertex
 10
-27.54181585682982
 20
50.16145153910895
 30
0.0
  0
SEQEND
  5
503
330
500
100
AcDbEntity
  8
BEMAßUNG
  0
POLYLINE
  5
504
330
1F
100
AcDbEntity
  8
BEMAßUNG
 62
     7
100
AcDb2dPolyline
 66
     1
 10
0.0
 20
0.0
 30
0.0
  0
VERTEX
  5
505
330
504
100
AcDbEntity
  8
BEMAßUNG
 62
     7
100
AcDbVertex
100
AcDb2dVertex
 10
-27.91181911194566
 20
50.16145153910895
 30
0.0
  0
VERTEX
  5
506
330
504
100
AcDbEntity
  8
BEMAßUNG
 62
     7
100
AcDbVertex
100
AcDb2dVertex
 10
-27.54181585682982
 20
50.16145153910895
 30
0.0
  0
SEQEND
  5
507
330
504
100
AcDbEntity
  8
BEMAßUNG
  0
POLYLINE
  5
508
330
1F
100
AcDbEntity
  8
BEMAßUNG
 62
     7
100
AcDb2dPolyline
 66
     1
 10
0.0
 20
0.0
 30
0.0
  0
VERTEX
  5
509
330
508
100
AcDbEntity
  8
BEMAßUNG
 62
     7
100
AcDbVertex
100
AcDb2dVertex
 10
-27.91181911194566
 20
50.0601657318426
 30
0.0
  0
VERTEX
  5
50A
330
508
100
AcDbEntity
  8
BEMAßUNG
 62
     7
100
AcDbVertex
100
AcDb2dVertex
 10
-26.77080348723091
 20
50.0601657318426
 30
0.0
  0
SEQEND
  5
50B
330
508
100
AcDbEntity
  8
BEMAßUNG
  0
POLYLINE
  5
50C
330
1F
100
AcDbEntity
  8
BEMAßUNG
 62
     7
100
AcDb2dPolyline
 66
     1
 10
0.0
 20
0.0
 30
0.0
  0
VERTEX
  5
50D
330
50C
100
AcDbEntity
  8
BEMAßUNG
 62
     7
100
AcDbVertex
100
AcDb2dVertex
 10
-27.91181911194566
 20
49.95819090547921
 30
0.0
  0
VERTEX
  5
50E
330
50C
100
AcDbEntity
  8
BEMAßUNG
 62
     7
100
AcDbVertex
100
AcDb2dVertex
 10
-25.99910209853495
 20
49.95819090547921
 30
0.0
  0
SEQEND
  5
50F
330
50C
100
AcDbEntity
  8
BEMAßUNG
  0
POLYLINE
  5
510
330
1F
100
AcDbEntity
  8
BEMAßUNG
 62
     7
100
AcDb2dPolyline
 66
     1
 10
0.0
 20
0.0
 30
0.0
  0
VERTEX
  5
511
330
510
100
AcDbEntity
  8
BEMAßUNG
 62
     7
100
AcDbVertex
100
AcDb2dVertex
 10
-27.91181911194566
 20
49.85690509821286
 30
0.0
  0
VERTEX
  5
512
330
510
100
AcDbEntity
  8
BEMAßUNG
 62
     7
100
AcDbVertex
100
AcDb2dVertex
 10
-25.22808972893603
 20
49.85690509821286
 30
0.0
  0
SEQEND
  5
513
330
510
100
AcDbEntity
  8
BEMAßUNG
  0
POLYLINE
  5
514
330
1F
100
AcDbEntity
  8
BEMAßUNG
 62
     7
100
AcDb2dPolyline
 66
     1
 10
0.0
 20
0.0
 30
0.0
  0
VERTEX
  5
515
330
514
100
AcDbEntity
  8
BEMAßUNG
 62
     7
100
AcDbVertex
100
AcDb2dVertex
 10
-27.91181911194566
 20
49.75493027184947
 30
0.0
  0
VERTEX
  5
516
330
514
100
AcDbEntity
  8
BEMAßUNG
 62
     7
100
AcDbVertex
100
AcDb2dVertex
 10
-24.45501030204597
 20
49.75493027184947
 30
0.0
  0
SEQEND
  5
517
330
514
100
AcDbEntity
  8
BEMAßUNG
  0
POLYLINE
  5
518
330
1F
100
AcDbEntity
  8
BEMAßUNG
 62
     7
100
AcDb2dPolyline
 66
     1
 10
0.0
 20
0.0
 30
0.0
  0
VERTEX
  5
519
330
518
100
AcDbEntity
  8
BEMAßUNG
 62
     7
100
AcDbVertex
100
AcDb2dVertex
 10
-27.91181911194566
 20
49.65364446458312
 30
0.0
  0
VERTEX
  5
51A
330
518
100
AcDbEntity
  8
BEMAßUNG
 62
     7
100
AcDbVertex
100
AcDb2dVertex
 10
-23.68399793244706
 20
49.65364446458312
 30
0.0
  0
SEQEND
  5
51B
330
518
100
AcDbEntity
  8
BEMAßUNG
  0
POLYLINE
  5
51C
330
1F
100
AcDbEntity
  8
BEMAßUNG
 62
     7
100
AcDb2dPolyline
 66
     1
 10
0.0
 20
0.0
 30
0.0
  0
VERTEX
  5
51D
330
51C
100
AcDbEntity
  8
BEMAßUNG
 62
     7
100
AcDbVertex
100
AcDb2dVertex
 10
-27.91181911194566
 20
49.55235865731677
 30
0.0
  0
VERTEX
  5
51E
330
51C
100
AcDbEntity
  8
BEMAßUNG
 62
     7
100
AcDbVertex
100
AcDb2dVertex
 10
-22.91229654375109
 20
49.55235865731677
 30
0.0
  0
SEQEND
  5
51F
330
51C
100
AcDbEntity
  8
BEMAßUNG
  0
POLYLINE
  5
520
330
1F
100
AcDbEntity
  8
BEMAßUNG
 62
     7
100
AcDb2dPolyline
 66
     1
 10
0.0
 20
0.0
 30
0.0
  0
VERTEX
  5
521
330
520
100
AcDbEntity
  8
BEMAßUNG
 62
     7
100
AcDbVertex
100
AcDb2dVertex
 10
-27.91181911194566
 20
48.94119871823345
 30
0.0
  0
VERTEX
  5
522
330
520
100
AcDbEntity
  8
BEMAßUNG
 62
     7
100
AcDbVertex
100
AcDb2dVertex
 10
-27.54181585682982
 20
48.94119871823345
 30
0.0
  0
SEQEND
  5
523
330
520
100
AcDbEntity
  8
BEMAßUNG
  0
POLYLINE
  5
524
330
1F
100
AcDbEntity
  8
BEMAßUNG
 62
     7
100
AcDb2dPolyline
 66
     1
 10
0.0
 20
0.0
 30
0.0
  0
VERTEX
  5
525
330
524
100
AcDbEntity
  8
BEMAßUNG
 62
     7
100
AcDbVertex
100
AcDb2dVertex
 10
-27.91181911194566
 20
48.94119871823345
 30
0.0
  0
VERTEX
  5
526
330
524
100
AcDbEntity
  8
BEMAßUNG
 62
     7
100
AcDbVertex
100
AcDb2dVertex
 10
-27.54181585682982
 20
48.94119871823345
 30
0.0
  0
SEQEND
  5
527
330
524
100
AcDbEntity
  8
BEMAßUNG
  0
POLYLINE
  5
528
330
1F
100
AcDbEntity
  8
BEMAßUNG
 62
     7
100
AcDb2dPolyline
 66
     1
 10
0.0
 20
0.0
 30
0.0
  0
VERTEX
  5
529
330
528
100
AcDbEntity
  8
BEMAßUNG
 62
     7
100
AcDbVertex
100
AcDb2dVertex
 10
-27.91181911194566
 20
49.04317354459685
 30
0.0
  0
VERTEX
  5
52A
330
528
100
AcDbEntity
  8
BEMAßUNG
 62
     7
100
AcDbVertex
100
AcDb2dVertex
 10
-26.77080348723091
 20
49.04317354459685
 30
0.0
  0
SEQEND
  5
52B
330
528
100
AcDbEntity
  8
BEMAßUNG
  0
POLYLINE
  5
52C
330
1F
100
AcDbEntity
  8
BEMAßUNG
 62
     7
100
AcDb2dPolyline
 66
     1
 10
0.0
 20
0.0
 30
0.0
  0
VERTEX
  5
52D
330
52C
100
AcDbEntity
  8
BEMAßUNG
 62
     7
100
AcDbVertex
100
AcDb2dVertex
 10
-27.91181911194566
 20
49.1458373900573
 30
0.0
  0
VERTEX
  5
52E
330
52C
100
AcDbEntity
  8
BEMAßUNG
 62
     7
100
AcDbVertex
100
AcDb2dVertex
 10
-25.99910209853495
 20
49.1458373900573
 30
0.0
  0
SEQEND
  5
52F
330
52C
100
AcDbEntity
  8
BEMAßUNG
  0
POLYLINE
  5
530
330
1F
100
AcDbEntity
  8
BEMAßUNG
 62
     7
100
AcDb2dPolyline
 66
     1
 10
0.0
 20
0.0
 30
0.0
  0
VERTEX
  5
531
330
530
100
AcDbEntity
  8
BEMAßUNG
 62
     7
100
AcDbVertex
100
AcDb2dVertex
 10
-27.91181911194566
 20
49.24712319732364
 30
0.0
  0
VERTEX
  5
532
330
530
100
AcDbEntity
  8
BEMAßUNG
 62
     7
100
AcDbVertex
100
AcDb2dVertex
 10
-25.22808972893603
 20
49.24712319732364
 30
0.0
  0
SEQEND
  5
533
330
530
100
AcDbEntity
  8
BEMAßUNG
  0
POLYLINE
  5
534
330
1F
100
AcDbEntity
  8
BEMAßUNG
 62
     7
100
AcDb2dPolyline
 66
     1
 10
0.0
 20
0.0
 30
0.0
  0
VERTEX
  5
535
330
534
100
AcDbEntity
  8
BEMAßUNG
 62
     7
100
AcDbVertex
100
AcDb2dVertex
 10
-27.91181911194566
 20
49.34840900458998
 30
0.0
  0
VERTEX
  5
536
330
534
100
AcDbEntity
  8
BEMAßUNG
 62
     7
100
AcDbVertex
100
AcDb2dVertex
 10
-24.45501030204597
 20
49.34840900458998
 30
0.0
  0
SEQEND
  5
537
330
534
100
AcDbEntity
  8
BEMAßUNG
  0
POLYLINE
  5
538
330
1F
100
AcDbEntity
  8
BEMAßUNG
 62
     7
100
AcDb2dPolyline
 66
     1
 10
0.0
 20
0.0
 30
0.0
  0
VERTEX
  5
539
330
538
100
AcDbEntity
  8
BEMAßUNG
 62
     7
100
AcDbVertex
100
AcDb2dVertex
 10
-27.91181911194566
 20
49.45038383095338
 30
0.0
  0
VERTEX
  5
53A
330
538
100
AcDbEntity
  8
BEMAßUNG
 62
     7
100
AcDbVertex
100
AcDb2dVertex
 10
-23.68399793244706
 20
49.45038383095338
 30
0.0
  0
SEQEND
  5
53B
330
538
100
AcDbEntity
  8
BEMAßUNG
  0
POLYLINE
  5
53C
330
1F
100
AcDbEntity
  8
BEMAßUNG
 62
     7
100
AcDb2dPolyline
 66
     1
 10
0.0
 20
0.0
 30
0.0
  0
VERTEX
  5
53D
330
53C
100
AcDbEntity
  8
BEMAßUNG
 62
     7
100
AcDbVertex
100
AcDb2dVertex
 10
-27.91181911194566
 20
49.55235865731677
 30
0.0
  0
VERTEX
  5
53E
330
53C
100
AcDbEntity
  8
BEMAßUNG
 62
     7
100
AcDbVertex
100
AcDb2dVertex
 10
-22.91229654375109
 20
49.55235865731677
 30
0.0
  0
SEQEND
  5
53F
330
53C
100
AcDbEntity
  8
BEMAßUNG
  0
POLYLINE
  5
540
330
1F
100
AcDbEntity
  8
BEMAßUNG
 62
     7
100
AcDb2dPolyline
 66
     1
 10
0.0
 20
0.0
 30
0.0
  0
VERTEX
  5
541
330
540
100
AcDbEntity
  8
BEMAßUNG
 62
     7
100
AcDbVertex
100
AcDb2dVertex
 10
-31.41203612495949
 20
31.22307263759354
 30
0.0
  0
VERTEX
  5
542
330
540
100
AcDbEntity
  8
BEMAßUNG
 62
     7
100
AcDbVertex
100
AcDb2dVertex
 10
15.24695908907021
 20
31.22307263759354
 30
0.0
  0
SEQEND
  5
543
330
540
100
AcDbEntity
  8
BEMAßUNG
  0
POLYLINE
  5
544
330
1F
100
AcDbEntity
  8
BEMAßUNG
 62
     7
100
AcDb2dPolyline
 66
     1
 10
0.0
 20
0.0
 30
0.0
  0
VERTEX
  5
545
330
544
100
AcDbEntity
  8
BEMAßUNG
 62
     7
100
AcDbVertex
100
AcDb2dVertex
 10
-31.41203612495949
 20
14.22359347517674
 30
0.0
  0
VERTEX
  5
546
330
544
100
AcDbEntity
  8
BEMAßUNG
 62
     7
100
AcDbVertex
100
AcDb2dVertex
 10
15.24695908907021
 20
14.22359347517674
 30
0.0
  0
SEQEND
  5
547
330
544
100
AcDbEntity
  8
BEMAßUNG
  0
POLYLINE
  5
548
330
1F
100
AcDbEntity
  8
BEMAßUNG
 62
     7
100
AcDb2dPolyline
 66
     1
 10
0.0
 20
0.0
 30
0.0
  0
VERTEX
  5
549
330
548
100
AcDbEntity
  8
BEMAßUNG
 62
     7
100
AcDbVertex
100
AcDb2dVertex
 10
11.24444715430695
 20
28.71021999065231
 30
0.0
  0
VERTEX
  5
54A
330
548
100
AcDbEntity
  8
BEMAßUNG
 62
     7
100
AcDbVertex
100
AcDb2dVertex
 10
11.24444715430695
 20
-12.73496771600029
 30
0.0
  0
SEQEND
  5
54B
330
548
100
AcDbEntity
  8
BEMAßUNG
  0
POLYLINE
  5
54C
330
1F
100
AcDbEntity
  8
BEMAßUNG
 62
     7
100
AcDb2dPolyline
 66
     1
 10
0.0
 20
0.0
 30
0.0
  0
VERTEX
  5
54D
330
54C
100
AcDbEntity
  8
BEMAßUNG
 62
     7
100
AcDbVertex
100
AcDb2dVertex
 10
11.24444715430695
 20
31.22307263759354
 30
0.0
  0
VERTEX
  5
54E
330
54C
100
AcDbEntity
  8
BEMAßUNG
 62
     7
100
AcDbVertex
100
AcDb2dVertex
 10
10.58643391662422
 20
26.22286105030193
 30
0.0
  0
VERTEX
  5
54F
330
54C
100
AcDbEntity
  8
BEMAßUNG
 62
     7
100
AcDbVertex
100
AcDb2dVertex
 10
11.90452744928081
 20
26.22286105030193
 30
0.0
  0
VERTEX
  5
550
330
54C
100
AcDbEntity
  8
BEMAßUNG
 62
     7
100
AcDbVertex
100
AcDb2dVertex
 10
11.24444715430695
 20
31.22307263759354
 30
0.0
  0
SEQEND
  5
551
330
54C
100
AcDbEntity
  8
BEMAßUNG
  0
HATCH
  5
552
330
1F
100
AcDbEntity
  8
BEMAßUNG
 62
     7
100
AcDbHatch
 10
0.0
 20
0.0
 30
0.0
210
0.0
220
0.0
230
1.0
  2
SOLID
 70
     1
 71
     0
 91
        1
 92
        1
 93
        3
 72
     1
 10
11.24444715430695
 20
31.22307263759354
 11
10.58643391662422
 21
26.22286105030193
 72
     1
 10
10.58643391662422
 20
26.22286105030193
 11
11.90452744928081
 21
26.22286105030193
 72
     1
 10
11.90452744928081
 20
26.22286105030193
 11
11.24444715430695
 21
31.22307263759354
 97
        0
 75
     0
 76
     1
 98
        0
  0
POLYLINE
  5
553
330
1F
100
AcDbEntity
  8
BEMAßUNG
 62
     7
100
AcDb2dPolyline
 66
     1
 10
0.0
 20
0.0
 30
0.0
  0
VERTEX
  5
554
330
553
100
AcDbEntity
  8
BEMAßUNG
 62
     7
100
AcDbVertex
100
AcDb2dVertex
 10
10.63397623432067
 20
26.22286105030193
 30
0.0
  0
VERTEX
  5
555
330
553
100
AcDbEntity
  8
BEMAßUNG
 62
     7
100
AcDbVertex
100
AcDb2dVertex
 10
10.63397623432067
 20
26.59286430541776
 30
0.0
  0
SEQEND
  5
556
330
553
100
AcDbEntity
  8
BEMAßUNG
  0
POLYLINE
  5
557
330
1F
100
AcDbEntity
  8
BEMAßUNG
 62
     7
100
AcDb2dPolyline
 66
     1
 10
0.0
 20
0.0
 30
0.0
  0
VERTEX
  5
558
330
557
100
AcDbEntity
  8
BEMAßUNG
 62
     7
100
AcDbVertex
100
AcDb2dVertex
 10
10.63397623432067
 20
26.22286105030193
 30
0.0
  0
VERTEX
  5
559
330
557
100
AcDbEntity
  8
BEMAßUNG
 62
     7
100
AcDbVertex
100
AcDb2dVertex
 10
10.63397623432067
 20
26.59286430541776
 30
0.0
  0
SEQEND
  5
55A
330
557
100
AcDbEntity
  8
BEMAßUNG
  0
POLYLINE
  5
55B
330
1F
100
AcDbEntity
  8
BEMAßUNG
 62
     7
100
AcDb2dPolyline
 66
     1
 10
0.0
 20
0.0
 30
0.0
  0
VERTEX
  5
55C
330
55B
100
AcDbEntity
  8
BEMAßUNG
 62
     7
100
AcDbVertex
100
AcDb2dVertex
 10
10.73664007978112
 20
26.22286105030193
 30
0.0
  0
VERTEX
  5
55D
330
55B
100
AcDbEntity
  8
BEMAßUNG
 62
     7
100
AcDbVertex
100
AcDb2dVertex
 10
10.73664007978112
 20
27.36456569411372
 30
0.0
  0
SEQEND
  5
55E
330
55B
100
AcDbEntity
  8
BEMAßUNG
  0
POLYLINE
  5
55F
330
1F
100
AcDbEntity
  8
BEMAßUNG
 62
     7
100
AcDb2dPolyline
 66
     1
 10
0.0
 20
0.0
 30
0.0
  0
VERTEX
  5
560
330
55F
100
AcDbEntity
  8
BEMAßUNG
 62
     7
100
AcDbVertex
100
AcDb2dVertex
 10
10.83792588704746
 20
26.22286105030193
 30
0.0
  0
VERTEX
  5
561
330
55F
100
AcDbEntity
  8
BEMAßUNG
 62
     7
100
AcDbVertex
100
AcDb2dVertex
 10
10.83792588704746
 20
28.13626708280968
 30
0.0
  0
SEQEND
  5
562
330
55F
100
AcDbEntity
  8
BEMAßUNG
  0
POLYLINE
  5
563
330
1F
100
AcDbEntity
  8
BEMAßUNG
 62
     7
100
AcDb2dPolyline
 66
     1
 10
0.0
 20
0.0
 30
0.0
  0
VERTEX
  5
564
330
563
100
AcDbEntity
  8
BEMAßUNG
 62
     7
100
AcDbVertex
100
AcDb2dVertex
 10
10.93990071341086
 20
26.22286105030193
 30
0.0
  0
VERTEX
  5
565
330
563
100
AcDbEntity
  8
BEMAßUNG
 62
     7
100
AcDbVertex
100
AcDb2dVertex
 10
10.93990071341086
 20
28.9086574906027
 30
0.0
  0
SEQEND
  5
566
330
563
100
AcDbEntity
  8
BEMAßUNG
  0
POLYLINE
  5
567
330
1F
100
AcDbEntity
  8
BEMAßUNG
 62
     7
100
AcDb2dPolyline
 66
     1
 10
0.0
 20
0.0
 30
0.0
  0
VERTEX
  5
568
330
567
100
AcDbEntity
  8
BEMAßUNG
 62
     7
100
AcDbVertex
100
AcDb2dVertex
 10
11.0411865206772
 20
26.22286105030193
 30
0.0
  0
VERTEX
  5
569
330
567
100
AcDbEntity
  8
BEMAßUNG
 62
     7
100
AcDbVertex
100
AcDb2dVertex
 10
11.0411865206772
 20
29.67966986020161
 30
0.0
  0
SEQEND
  5
56A
330
567
100
AcDbEntity
  8
BEMAßUNG
  0
POLYLINE
  5
56B
330
1F
100
AcDbEntity
  8
BEMAßUNG
 62
     7
100
AcDb2dPolyline
 66
     1
 10
0.0
 20
0.0
 30
0.0
  0
VERTEX
  5
56C
330
56B
100
AcDbEntity
  8
BEMAßUNG
 62
     7
100
AcDbVertex
100
AcDb2dVertex
 10
11.14247232794355
 20
26.22286105030193
 30
0.0
  0
VERTEX
  5
56D
330
56B
100
AcDbEntity
  8
BEMAßUNG
 62
     7
100
AcDbVertex
100
AcDb2dVertex
 10
11.14247232794355
 20
30.45137124889758
 30
0.0
  0
SEQEND
  5
56E
330
56B
100
AcDbEntity
  8
BEMAßUNG
  0
POLYLINE
  5
56F
330
1F
100
AcDbEntity
  8
BEMAßUNG
 62
     7
100
AcDb2dPolyline
 66
     1
 10
0.0
 20
0.0
 30
0.0
  0
VERTEX
  5
570
330
56F
100
AcDbEntity
  8
BEMAßUNG
 62
     7
100
AcDbVertex
100
AcDb2dVertex
 10
11.24444715430695
 20
26.22286105030193
 30
0.0
  0
VERTEX
  5
571
330
56F
100
AcDbEntity
  8
BEMAßUNG
 62
     7
100
AcDbVertex
100
AcDb2dVertex
 10
11.24444715430695
 20
31.22307263759354
 30
0.0
  0
SEQEND
  5
572
330
56F
100
AcDbEntity
  8
BEMAßUNG
  0
POLYLINE
  5
573
330
1F
100
AcDbEntity
  8
BEMAßUNG
 62
     7
100
AcDb2dPolyline
 66
     1
 10
0.0
 20
0.0
 30
0.0
  0
VERTEX
  5
574
330
573
100
AcDbEntity
  8
BEMAßUNG
 62
     7
100
AcDbVertex
100
AcDb2dVertex
 10
11.85285101700206
 20
26.22286105030193
 30
0.0
  0
VERTEX
  5
575
330
573
100
AcDbEntity
  8
BEMAßUNG
 62
     7
100
AcDbVertex
100
AcDb2dVertex
 10
11.85285101700206
 20
26.59286430541776
 30
0.0
  0
SEQEND
  5
576
330
573
100
AcDbEntity
  8
BEMAßUNG
  0
POLYLINE
  5
577
330
1F
100
AcDbEntity
  8
BEMAßUNG
 62
     7
100
AcDb2dPolyline
 66
     1
 10
0.0
 20
0.0
 30
0.0
  0
VERTEX
  5
578
330
577
100
AcDbEntity
  8
BEMAßUNG
 62
     7
100
AcDbVertex
100
AcDb2dVertex
 10
11.85285101700206
 20
26.22286105030193
 30
0.0
  0
VERTEX
  5
579
330
577
100
AcDbEntity
  8
BEMAßUNG
 62
     7
100
AcDbVertex
100
AcDb2dVertex
 10
11.85285101700206
 20
26.59286430541776
 30
0.0
  0
SEQEND
  5
57A
330
577
100
AcDbEntity
  8
BEMAßUNG
  0
POLYLINE
  5
57B
330
1F
100
AcDbEntity
  8
BEMAßUNG
 62
     7
100
AcDb2dPolyline
 66
     1
 10
0.0
 20
0.0
 30
0.0
  0
VERTEX
  5
57C
330
57B
100
AcDbEntity
  8
BEMAßUNG
 62
     7
100
AcDbVertex
100
AcDb2dVertex
 10
11.75294324792982
 20
26.22286105030193
 30
0.0
  0
VERTEX
  5
57D
330
57B
100
AcDbEntity
  8
BEMAßUNG
 62
     7
100
AcDbVertex
100
AcDb2dVertex
 10
11.75294324792982
 20
27.36456569411372
 30
0.0
  0
SEQEND
  5
57E
330
57B
100
AcDbEntity
  8
BEMAßUNG
  0
POLYLINE
  5
57F
330
1F
100
AcDbEntity
  8
BEMAßUNG
 62
     7
100
AcDb2dPolyline
 66
     1
 10
0.0
 20
0.0
 30
0.0
  0
VERTEX
  5
580
330
57F
100
AcDbEntity
  8
BEMAßUNG
 62
     7
100
AcDbVertex
100
AcDb2dVertex
 10
11.65234645976052
 20
26.22286105030193
 30
0.0
  0
VERTEX
  5
581
330
57F
100
AcDbEntity
  8
BEMAßUNG
 62
     7
100
AcDbVertex
100
AcDb2dVertex
 10
11.65234645976052
 20
28.13626708280968
 30
0.0
  0
SEQEND
  5
582
330
57F
100
AcDbEntity
  8
BEMAßUNG
  0
POLYLINE
  5
583
330
1F
100
AcDbEntity
  8
BEMAßUNG
 62
     7
100
AcDb2dPolyline
 66
     1
 10
0.0
 20
0.0
 30
0.0
  0
VERTEX
  5
584
330
583
100
AcDbEntity
  8
BEMAßUNG
 62
     7
100
AcDbVertex
100
AcDb2dVertex
 10
11.54830457610598
 20
26.22286105030193
 30
0.0
  0
VERTEX
  5
585
330
583
100
AcDbEntity
  8
BEMAßUNG
 62
     7
100
AcDbVertex
100
AcDb2dVertex
 10
11.54830457610598
 20
28.9086574906027
 30
0.0
  0
SEQEND
  5
586
330
583
100
AcDbEntity
  8
BEMAßUNG
  0
POLYLINE
  5
587
330
1F
100
AcDbEntity
  8
BEMAßUNG
 62
     7
100
AcDb2dPolyline
 66
     1
 10
0.0
 20
0.0
 30
0.0
  0
VERTEX
  5
588
330
587
100
AcDbEntity
  8
BEMAßUNG
 62
     7
100
AcDbVertex
100
AcDb2dVertex
 10
11.44977484522783
 20
26.22286105030193
 30
0.0
  0
VERTEX
  5
589
330
587
100
AcDbEntity
  8
BEMAßUNG
 62
     7
100
AcDbVertex
100
AcDb2dVertex
 10
11.44977484522783
 20
29.67966986020161
 30
0.0
  0
SEQEND
  5
58A
330
587
100
AcDbEntity
  8
BEMAßUNG
  0
POLYLINE
  5
58B
330
1F
100
AcDbEntity
  8
BEMAßUNG
 62
     7
100
AcDb2dPolyline
 66
     1
 10
0.0
 20
0.0
 30
0.0
  0
VERTEX
  5
58C
330
58B
100
AcDbEntity
  8
BEMAßUNG
 62
     7
100
AcDbVertex
100
AcDb2dVertex
 10
11.34573296157329
 20
26.22286105030193
 30
0.0
  0
VERTEX
  5
58D
330
58B
100
AcDbEntity
  8
BEMAßUNG
 62
     7
100
AcDbVertex
100
AcDb2dVertex
 10
11.34573296157329
 20
30.45137124889758
 30
0.0
  0
SEQEND
  5
58E
330
58B
100
AcDbEntity
  8
BEMAßUNG
  0
POLYLINE
  5
58F
330
1F
100
AcDbEntity
  8
BEMAßUNG
 62
     7
100
AcDb2dPolyline
 66
     1
 10
0.0
 20
0.0
 30
0.0
  0
VERTEX
  5
590
330
58F
100
AcDbEntity
  8
BEMAßUNG
 62
     7
100
AcDbVertex
100
AcDb2dVertex
 10
11.24444715430695
 20
26.22286105030193
 30
0.0
  0
VERTEX
  5
591
330
58F
100
AcDbEntity
  8
BEMAßUNG
 62
     7
100
AcDbVertex
100
AcDb2dVertex
 10
11.24444715430695
 20
31.22307263759354
 30
0.0
  0
SEQEND
  5
592
330
58F
100
AcDbEntity
  8
BEMAßUNG
  0
POLYLINE
  5
593
330
1F
100
AcDbEntity
  8
BEMAßUNG
 62
     7
100
AcDb2dPolyline
 66
     1
 10
0.0
 20
0.0
 30
0.0
  0
VERTEX
  5
594
330
593
100
AcDbEntity
  8
BEMAßUNG
 62
     7
100
AcDbVertex
100
AcDb2dVertex
 10
11.24444715430695
 20
14.22359347517674
 30
0.0
  0
VERTEX
  5
595
330
593
100
AcDbEntity
  8
BEMAßUNG
 62
     7
100
AcDbVertex
100
AcDb2dVertex
 10
11.90452744928081
 20
19.22242702427426
 30
0.0
  0
VERTEX
  5
596
330
593
100
AcDbEntity
  8
BEMAßUNG
 62
     7
100
AcDbVertex
100
AcDb2dVertex
 10
10.58643391662422
 20
19.22242702427426
 30
0.0
  0
VERTEX
  5
597
330
593
100
AcDbEntity
  8
BEMAßUNG
 62
     7
100
AcDbVertex
100
AcDb2dVertex
 10
11.24444715430695
 20
14.22359347517674
 30
0.0
  0
SEQEND
  5
598
330
593
100
AcDbEntity
  8
BEMAßUNG
  0
HATCH
  5
599
330
1F
100
AcDbEntity
  8
BEMAßUNG
 62
     7
100
AcDbHatch
 10
0.0
 20
0.0
 30
0.0
210
0.0
220
0.0
230
1.0
  2
SOLID
 70
     1
 71
     0
 91
        1
 92
        1
 93
        3
 72
     1
 10
11.24444715430695
 20
14.22359347517674
 11
11.90452744928081
 21
19.22242702427426
 72
     1
 10
11.90452744928081
 20
19.22242702427426
 11
10.58643391662422
 21
19.22242702427426
 72
     1
 10
10.58643391662422
 20
19.22242702427426
 11
11.24444715430695
 21
14.22359347517674
 97
        0
 75
     0
 76
     1
 98
        0
  0
POLYLINE
  5
59A
330
1F
100
AcDbEntity
  8
BEMAßUNG
 62
     7
100
AcDb2dPolyline
 66
     1
 10
0.0
 20
0.0
 30
0.0
  0
VERTEX
  5
59B
330
59A
100
AcDbEntity
  8
BEMAßUNG
 62
     7
100
AcDbVertex
100
AcDb2dVertex
 10
11.85285101700206
 20
19.22242702427426
 30
0.0
  0
VERTEX
  5
59C
330
59A
100
AcDbEntity
  8
BEMAßUNG
 62
     7
100
AcDbVertex
100
AcDb2dVertex
 10
11.85285101700206
 20
18.85242376915842
 30
0.0
  0
SEQEND
  5
59D
330
59A
100
AcDbEntity
  8
BEMAßUNG
  0
POLYLINE
  5
59E
330
1F
100
AcDbEntity
  8
BEMAßUNG
 62
     7
100
AcDb2dPolyline
 66
     1
 10
0.0
 20
0.0
 30
0.0
  0
VERTEX
  5
59F
330
59E
100
AcDbEntity
  8
BEMAßUNG
 62
     7
100
AcDbVertex
100
AcDb2dVertex
 10
11.85285101700206
 20
19.22242702427426
 30
0.0
  0
VERTEX
  5
5A0
330
59E
100
AcDbEntity
  8
BEMAßUNG
 62
     7
100
AcDbVertex
100
AcDb2dVertex
 10
11.85285101700206
 20
18.85242376915842
 30
0.0
  0
SEQEND
  5
5A1
330
59E
100
AcDbEntity
  8
BEMAßUNG
  0
POLYLINE
  5
5A2
330
1F
100
AcDbEntity
  8
BEMAßUNG
 62
     7
100
AcDb2dPolyline
 66
     1
 10
0.0
 20
0.0
 30
0.0
  0
VERTEX
  5
5A3
330
5A2
100
AcDbEntity
  8
BEMAßUNG
 62
     7
100
AcDbVertex
100
AcDb2dVertex
 10
11.75294324792982
 20
19.22242702427426
 30
0.0
  0
VERTEX
  5
5A4
330
5A2
100
AcDbEntity
  8
BEMAßUNG
 62
     7
100
AcDbVertex
100
AcDb2dVertex
 10
11.75294324792982
 20
18.08141139955951
 30
0.0
  0
SEQEND
  5
5A5
330
5A2
100
AcDbEntity
  8
BEMAßUNG
  0
POLYLINE
  5
5A6
330
1F
100
AcDbEntity
  8
BEMAßUNG
 62
     7
100
AcDb2dPolyline
 66
     1
 10
0.0
 20
0.0
 30
0.0
  0
VERTEX
  5
5A7
330
5A6
100
AcDbEntity
  8
BEMAßUNG
 62
     7
100
AcDbVertex
100
AcDb2dVertex
 10
11.65234645976052
 20
19.22242702427426
 30
0.0
  0
VERTEX
  5
5A8
330
5A6
100
AcDbEntity
  8
BEMAßUNG
 62
     7
100
AcDbVertex
100
AcDb2dVertex
 10
11.65234645976052
 20
17.3103990299606
 30
0.0
  0
SEQEND
  5
5A9
330
5A6
100
AcDbEntity
  8
BEMAßUNG
  0
POLYLINE
  5
5AA
330
1F
100
AcDbEntity
  8
BEMAßUNG
 62
     7
100
AcDb2dPolyline
 66
     1
 10
0.0
 20
0.0
 30
0.0
  0
VERTEX
  5
5AB
330
5AA
100
AcDbEntity
  8
BEMAßUNG
 62
     7
100
AcDbVertex
100
AcDb2dVertex
 10
11.54830457610598
 20
19.22242702427426
 30
0.0
  0
VERTEX
  5
5AC
330
5AA
100
AcDbEntity
  8
BEMAßUNG
 62
     7
100
AcDbVertex
100
AcDb2dVertex
 10
11.54830457610598
 20
16.53869764126463
 30
0.0
  0
SEQEND
  5
5AD
330
5AA
100
AcDbEntity
  8
BEMAßUNG
  0
POLYLINE
  5
5AE
330
1F
100
AcDbEntity
  8
BEMAßUNG
 62
     7
100
AcDb2dPolyline
 66
     1
 10
0.0
 20
0.0
 30
0.0
  0
VERTEX
  5
5AF
330
5AE
100
AcDbEntity
  8
BEMAßUNG
 62
     7
100
AcDbVertex
100
AcDb2dVertex
 10
11.44977484522783
 20
19.22242702427426
 30
0.0
  0
VERTEX
  5
5B0
330
5AE
100
AcDbEntity
  8
BEMAßUNG
 62
     7
100
AcDbVertex
100
AcDb2dVertex
 10
11.44977484522783
 20
15.76561821437457
 30
0.0
  0
SEQEND
  5
5B1
330
5AE
100
AcDbEntity
  8
BEMAßUNG
  0
POLYLINE
  5
5B2
330
1F
100
AcDbEntity
  8
BEMAßUNG
 62
     7
100
AcDb2dPolyline
 66
     1
 10
0.0
 20
0.0
 30
0.0
  0
VERTEX
  5
5B3
330
5B2
100
AcDbEntity
  8
BEMAßUNG
 62
     7
100
AcDbVertex
100
AcDb2dVertex
 10
11.34573296157329
 20
19.22242702427426
 30
0.0
  0
VERTEX
  5
5B4
330
5B2
100
AcDbEntity
  8
BEMAßUNG
 62
     7
100
AcDbVertex
100
AcDb2dVertex
 10
11.34573296157329
 20
14.99460584477566
 30
0.0
  0
SEQEND
  5
5B5
330
5B2
100
AcDbEntity
  8
BEMAßUNG
  0
POLYLINE
  5
5B6
330
1F
100
AcDbEntity
  8
BEMAßUNG
 62
     7
100
AcDb2dPolyline
 66
     1
 10
0.0
 20
0.0
 30
0.0
  0
VERTEX
  5
5B7
330
5B6
100
AcDbEntity
  8
BEMAßUNG
 62
     7
100
AcDbVertex
100
AcDb2dVertex
 10
11.24444715430695
 20
19.22242702427426
 30
0.0
  0
VERTEX
  5
5B8
330
5B6
100
AcDbEntity
  8
BEMAßUNG
 62
     7
100
AcDbVertex
100
AcDb2dVertex
 10
11.24444715430695
 20
14.22359347517674
 30
0.0
  0
SEQEND
  5
5B9
330
5B6
100
AcDbEntity
  8
BEMAßUNG
  0
POLYLINE
  5
5BA
330
1F
100
AcDbEntity
  8
BEMAßUNG
 62
     7
100
AcDb2dPolyline
 66
     1
 10
0.0
 20
0.0
 30
0.0
  0
VERTEX
  5
5BB
330
5BA
100
AcDbEntity
  8
BEMAßUNG
 62
     7
100
AcDbVertex
100
AcDb2dVertex
 10
10.63397623432067
 20
19.22242702427426
 30
0.0
  0
VERTEX
  5
5BC
330
5BA
100
AcDbEntity
  8
BEMAßUNG
 62
     7
100
AcDbVertex
100
AcDb2dVertex
 10
10.63397623432067
 20
18.85242376915842
 30
0.0
  0
SEQEND
  5
5BD
330
5BA
100
AcDbEntity
  8
BEMAßUNG
  0
POLYLINE
  5
5BE
330
1F
100
AcDbEntity
  8
BEMAßUNG
 62
     7
100
AcDb2dPolyline
 66
     1
 10
0.0
 20
0.0
 30
0.0
  0
VERTEX
  5
5BF
330
5BE
100
AcDbEntity
  8
BEMAßUNG
 62
     7
100
AcDbVertex
100
AcDb2dVertex
 10
10.63397623432067
 20
19.22242702427426
 30
0.0
  0
VERTEX
  5
5C0
330
5BE
100
AcDbEntity
  8
BEMAßUNG
 62
     7
100
AcDbVertex
100
AcDb2dVertex
 10
10.63397623432067
 20
18.85242376915842
 30
0.0
  0
SEQEND
  5
5C1
330
5BE
100
AcDbEntity
  8
BEMAßUNG
  0
POLYLINE
  5
5C2
330
1F
100
AcDbEntity
  8
BEMAßUNG
 62
     7
100
AcDb2dPolyline
 66
     1
 10
0.0
 20
0.0
 30
0.0
  0
VERTEX
  5
5C3
330
5C2
100
AcDbEntity
  8
BEMAßUNG
 62
     7
100
AcDbVertex
100
AcDb2dVertex
 10
10.73664007978112
 20
19.22242702427426
 30
0.0
  0
VERTEX
  5
5C4
330
5C2
100
AcDbEntity
  8
BEMAßUNG
 62
     7
100
AcDbVertex
100
AcDb2dVertex
 10
10.73664007978112
 20
18.08141139955951
 30
0.0
  0
SEQEND
  5
5C5
330
5C2
100
AcDbEntity
  8
BEMAßUNG
  0
POLYLINE
  5
5C6
330
1F
100
AcDbEntity
  8
BEMAßUNG
 62
     7
100
AcDb2dPolyline
 66
     1
 10
0.0
 20
0.0
 30
0.0
  0
VERTEX
  5
5C7
330
5C6
100
AcDbEntity
  8
BEMAßUNG
 62
     7
100
AcDbVertex
100
AcDb2dVertex
 10
10.83792588704746
 20
19.22242702427426
 30
0.0
  0
VERTEX
  5
5C8
330
5C6
100
AcDbEntity
  8
BEMAßUNG
 62
     7
100
AcDbVertex
100
AcDb2dVertex
 10
10.83792588704746
 20
17.3103990299606
 30
0.0
  0
SEQEND
  5
5C9
330
5C6
100
AcDbEntity
  8
BEMAßUNG
  0
POLYLINE
  5
5CA
330
1F
100
AcDbEntity
  8
BEMAßUNG
 62
     7
100
AcDb2dPolyline
 66
     1
 10
0.0
 20
0.0
 30
0.0
  0
VERTEX
  5
5CB
330
5CA
100
AcDbEntity
  8
BEMAßUNG
 62
     7
100
AcDbVertex
100
AcDb2dVertex
 10
10.93990071341086
 20
19.22242702427426
 30
0.0
  0
VERTEX
  5
5CC
330
5CA
100
AcDbEntity
  8
BEMAßUNG
 62
     7
100
AcDbVertex
100
AcDb2dVertex
 10
10.93990071341086
 20
16.53869764126463
 30
0.0
  0
SEQEND
  5
5CD
330
5CA
100
AcDbEntity
  8
BEMAßUNG
  0
POLYLINE
  5
5CE
330
1F
100
AcDbEntity
  8
BEMAßUNG
 62
     7
100
AcDb2dPolyline
 66
     1
 10
0.0
 20
0.0
 30
0.0
  0
VERTEX
  5
5CF
330
5CE
100
AcDbEntity
  8
BEMAßUNG
 62
     7
100
AcDbVertex
100
AcDb2dVertex
 10
11.0411865206772
 20
19.22242702427426
 30
0.0
  0
VERTEX
  5
5D0
330
5CE
100
AcDbEntity
  8
BEMAßUNG
 62
     7
100
AcDbVertex
100
AcDb2dVertex
 10
11.0411865206772
 20
15.76561821437457
 30
0.0
  0
SEQEND
  5
5D1
330
5CE
100
AcDbEntity
  8
BEMAßUNG
  0
POLYLINE
  5
5D2
330
1F
100
AcDbEntity
  8
BEMAßUNG
 62
     7
100
AcDb2dPolyline
 66
     1
 10
0.0
 20
0.0
 30
0.0
  0
VERTEX
  5
5D3
330
5D2
100
AcDbEntity
  8
BEMAßUNG
 62
     7
100
AcDbVertex
100
AcDb2dVertex
 10
11.14247232794355
 20
19.22242702427426
 30
0.0
  0
VERTEX
  5
5D4
330
5D2
100
AcDbEntity
  8
BEMAßUNG
 62
     7
100
AcDbVertex
100
AcDb2dVertex
 10
11.14247232794355
 20
14.99460584477566
 30
0.0
  0
SEQEND
  5
5D5
330
5D2
100
AcDbEntity
  8
BEMAßUNG
  0
POLYLINE
  5
5D6
330
1F
100
AcDbEntity
  8
BEMAßUNG
 62
     7
100
AcDb2dPolyline
 66
     1
 10
0.0
 20
0.0
 30
0.0
  0
VERTEX
  5
5D7
330
5D6
100
AcDbEntity
  8
BEMAßUNG
 62
     7
100
AcDbVertex
100
AcDb2dVertex
 10
11.24444715430695
 20
19.22242702427426
 30
0.0
  0
VERTEX
  5
5D8
330
5D6
100
AcDbEntity
  8
BEMAßUNG
 62
     7
100
AcDbVertex
100
AcDb2dVertex
 10
11.24444715430695
 20
14.22359347517674
 30
0.0
  0
SEQEND
  5
5D9
330
5D6
100
AcDbEntity
  8
BEMAßUNG
  0
MTEXT
  5
5DB
330
1F
100
AcDbEntity
  8
TEXT
 62
     7
100
AcDbMText
 10
29.96268445431489
 20
-27.67117919230096
 30
0.0
 40
5.997222220722918
 41
0.0
 71
     7
 72
     1
  1
\fINDEX Univers 45 Light|b0|i0|c0|p34;\W1;ø12h6
 11
-4.371139000186241E-8
 21
0.999999999999999
 31
0.0
  0
MTEXT
  5
5DC
330
1F
100
AcDbEntity
  8
TEXT
 62
     7
100
AcDbMText
 10
-90.48508841053845
 20
18.2660685175689
 30
0.0
 40
5.997222220722918
 41
0.0
 71
     7
 72
     1
  1
\fINDEX Univers 45 Light|b0|i0|c0|p34;\W1;D
 11
-4.371139000186241E-8
 21
0.999999999999999
 31
0.0
  0
MTEXT
  5
5DD
330
1F
100
AcDbEntity
  8
TEXT
 62
     7
100
AcDbMText
 10
-49.85190970975925
 20
-25.79394666238832
 30
0.0
 40
5.997222220722918
 41
0.0
 71
     7
 72
     1
  1
\fINDEX Univers 45 Light|b0|i0|c0|p34;\W1;25
  0
MTEXT
  5
5DE
330
1F
100
AcDbEntity
  8
TEXT
 62
     7
100
AcDbMText
 10
-49.8126356212274
 20
-6.299873859102116
 30
0.0
 40
5.997222220722918
 41
0.0
 71
     7
 72
     1
  1
\fINDEX Univers 45 Light|b0|i0|c0|p34;\W1;23
  0
MTEXT
  5
5DF
330
1F
100
AcDbEntity
  8
TEXT
 62
     7
100
AcDbMText
 10
-77.71032984168353
 20
50.57486299733893
 30
0.0
 40
5.997222220722918
 41
0.0
 71
     7
 72
     1
  1
\fINDEX Univers 45 Light|b0|i0|c0|p34;\W1;2
  0
MTEXT
  5
5E0
330
1F
100
AcDbEntity
  8
TEXT
 62
     7
100
AcDbMText
 10
-47.84514158960122
 20
50.69819741571087
 30
0.0
 40
5.997222220722918
 41
0.0
 71
     7
 72
     1
  1
\fINDEX Univers 45 Light|b0|i0|c0|p34;\W1;19
  0
MTEXT
  5
5E1
330
1F
100
AcDbEntity
  8
TEXT
 62
     7
100
AcDbMText
 10
9.606304251070647
 20
-11.01104193518127
 30
0.0
 40
5.997222220722918
 41
0.0
 71
     7
 72
     1
  1
\fINDEX Univers 45 Light|b0|i0|c0|p34;\W1;8,5
 11
-4.371139000186241E-8
 21
0.999999999999999
 31
0.0
  0
ENDSEC
  0
SECTION
  2
OBJECTS
  0
DICTIONARY
  5
C
330
0
100
AcDbDictionary
  3
ACAD_GROUP
350
D
  3
ACAD_LAYOUT
350
1A
  3
ACAD_MLINESTYLE
350
17
  3
ACAD_PLOTSETTINGS
350
19
  3
ACAD_TABLESTYLE
350
602
  3
ACAD_VISUALSTYLE
350
2A
  3
ACDBHEADERROUNDTRIPXREC
350
5E2
  0
DICTIONARY
  5
D
102
{ACAD_REACTORS
330
C
102
}
330
C
100
AcDbDictionary
  0
DICTIONARY
  5
1A
102
{ACAD_REACTORS
330
C
102
}
330
C
100
AcDbDictionary
  0
DICTIONARY
  5
17
102
{ACAD_REACTORS
330
C
102
}
330
C
100
AcDbDictionary
  3
STANDARD
350
18
  0
DICTIONARY
  5
19
102
{ACAD_REACTORS
330
C
102
}
330
C
100
AcDbDictionary
  0
DICTIONARY
  5
602
102
{ACAD_REACTORS
330
C
102
}
330
C
100
AcDbDictionary
  0
DICTIONARY
  5
2A
102
{ACAD_REACTORS
330
C
102
}
330
C
100
AcDbDictionary
  3
2DWIREFRAME
350
2F
  3
3D_HIDDEN
350
31
  3
3DWIREFRAME
350
30
  3
BASIC
350
32
  3
BRIGHTEN
350
36
  3
COLORCHANGE
350
3A
  3
CONCEPTUAL
350
34
  3
DIM
350
35
  3
FACEPATTERN
350
39
  3
FLAT
350
2B
  3
FLATWITHEDGES
350
2C
  3
GOURAUD
350
2D
  3
GOURAUDWITHEDGES
350
2E
  3
LINEPATTERN
350
38
  3
REALISTIC
350
33
  3
THICKEN
350
37
  0
DICTIONARY
  5
5E2
102
{ACAD_REACTORS
330
C
102
}
330
C
100
AcDbDictionary
  3
CEPSNTYPE
350
5EB
  3
DIMSTYLEDATA
350
601
  3
FINGERPRINTGUID
350
5EC
  3
HYPERLINKBASE
350
5E5
  3
INSUNITS
350
5EA
  3
LAYOUTDICT
350
5E7
  3
LWETCUNION
350
5E9
  3
PLOTSETDICT
350
5E8
  3
PSVPSCALE
350
5EE
  3
PUCSBASE
350
5F1
  3
PUCSORGBACK
350
5F7
  3
PUCSORGBOTTOM
350
5F3
  3
PUCSORGFRONT
350
5F6
  3
PUCSORGLEFT
350
5F4
  3
PUCSORGRIGHT
350
5F5
  3
PUCSORGTOP
350
5F2
  3
PUCSORTHOREF
350
5EF
  3
PUCSORTHOVIEW
350
5F0
  3
STYLESHEET
350
5E6
  3
TSTACKALIGN
350
5E3
  3
TSTACKSIZE
350
5E4
  3
UCSBASE
350
5FA
  3
UCSORGBACK
350
600
  3
UCSORGBOTTOM
350
5FC
  3
UCSORGFRONT
350
5FF
  3
UCSORGLEFT
350
5FD
  3
UCSORGRIGHT
350
5FE
  3
UCSORGTOP
350
5FB
  3
UCSORTHOREF
350
5F8
  3
UCSORTHOVIEW
350
5F9
  3
VERSIONGUID
350
5ED
  0
MLINESTYLE
  5
18
102
{ACAD_REACTORS
330
17
102
}
330
17
100
AcDbMlineStyle
  2
Standard
 70
     0
  3

 62
   256
 51
90.0
 52
90.0
 71
     2
 49
0.5
 62
   256
  6
BYLAYER
 49
-0.5
 62
   256
  6
BYLAYER
  0
VISUALSTYLE
  5
2F
102
{ACAD_REACTORS
330
2A
102
}
330
2A
100
AcDbVisualStyle
  2
2dWireframe
 70
     4
 71
     0
 72
     2
 73
     0
 90
        0
 40
-0.6
 41
-30.0
 62
     5
 63
     7
 74
     1
 91
        4
 64
     7
 65
   257
 75
     1
175
     1
 42
1.0
 92
        0
 66
   257
 43
1.0
 76
     1
 77
     6
 78
     2
 67
     7
 79
     5
170
     0
171
     0
290
     0
174
     0
 93
        1
 44
0.0
173
     0
291
     0
 45
0.0
1001
ACAD
1000
AcDbSavedByObjectVersion
1070
     0
  0
VISUALSTYLE
  5
31
102
{ACAD_REACTORS
330
2A
102
}
330
2A
100
AcDbVisualStyle
  2
3D Hidden
 70
     6
 71
     1
 72
     2
 73
     2
 90
        0
 40
-0.6
 41
-30.0
 62
     5
 63
     7
 74
     2
 91
        2
 64
     7
 65
   257
 75
     2
175
     1
 42
40.0
 92
        0
 66
   257
 43
1.0
 76
     1
 77
     6
 78
     2
 67
     7
 79
     3
170
     0
171
     0
290
     0
174
     0
 93
        1
 44
0.0
173
     0
291
     0
 45
0.0
1001
ACAD
1000
AcDbSavedByObjectVersion
1070
     0
  0
VISUALSTYLE
  5
30
102
{ACAD_REACTORS
330
2A
102
}
330
2A
100
AcDbVisualStyle
  2
3dWireframe
 70
     5
 71
     0
 72
     2
 73
     0
 90
        0
 40
-0.6
 41
-30.0
 62
     5
 63
     7
 74
     1
 91
        4
 64
     7
 65
   257
 75
     1
175
     1
 42
1.0
 92
        0
 66
   257
 43
1.0
 76
     1
 77
     6
 78
     2
 67
     7
 79
     5
170
     0
171
     0
290
     0
174
     0
 93
        1
 44
0.0
173
     0
291
     0
 45
0.0
1001
ACAD
1000
AcDbSavedByObjectVersion
1070
     0
  0
VISUALSTYLE
  5
32
102
{ACAD_REACTORS
330
2A
102
}
330
2A
100
AcDbVisualStyle
  2
Basic
 70
     7
 71
     1
 72
     0
 73
     1
 90
        0
 40
-0.6
 41
-30.0
 62
     5
 63
     7
 74
     0
 91
        4
 64
     7
 65
   257
 75
     1
175
     1
 42
1.0
 92
        8
 66
     7
 43
1.0
 76
     1
 77
     6
 78
     2
 67
     7
 79
     5
170
     0
171
     0
290
     0
174
     0
 93
        1
 44
0.0
173
     0
291
     1
 45
0.0
1001
ACAD
1000
AcDbSavedByObjectVersion
1070
     0
  0
VISUALSTYLE
  5
36
102
{ACAD_REACTORS
330
2A
102
}
330
2A
100
AcDbVisualStyle
  2
Brighten
 70
    12
 71
     2
 72
     2
 73
     0
 90
        0
 40
-0.6
 41
-30.0
 62
     5
 63
     7
 74
     1
 91
        4
 64
     7
 65
   257
 75
     1
175
     1
 42
1.0
 92
        8
 66
     7
 43
1.0
 76
     1
 77
     6
 78
     2
 67
     7
 79
     5
170
     0
171
     0
290
     0
174
     0
 93
        1
 44
50.0
173
     0
291
     1
 45
0.0
1001
ACAD
1000
AcDbSavedByObjectVersion
1070
     0
  0
VISUALSTYLE
  5
3A
102
{ACAD_REACTORS
330
2A
102
}
330
2A
100
AcDbVisualStyle
  2
ColorChange
 70
    16
 71
     2
 72
     2
 73
     3
 90
        0
 40
-0.6
 41
-30.0
 62
     5
 63
     8
 74
     1
 91
        4
 64
     7
 65
   257
 75
     1
175
     1
 42
1.0
 92
        8
 66
     8
 43
1.0
 76
     1
 77
     6
 78
     2
 67
     7
 79
     5
170
     0
171
     0
290
     0
174
     0
 93
        1
 44
0.0
173
     0
291
     1
 45
0.0
1001
ACAD
1000
AcDbSavedByObjectVersion
1070
     0
  0
VISUALSTYLE
  5
34
102
{ACAD_REACTORS
330
2A
102
}
330
2A
100
AcDbVisualStyle
  2
Conceptual
 70
     9
 71
     3
 72
     2
 73
     0
 90
        0
 40
-0.6
 41
-30.0
 62
     5
 63
     7
 74
     2
 91
        2
 64
     7
 65
   257
 75
     1
175
     1
 42
40.0
 92
        8
 66
     7
 43
1.0
 76
     1
 77
     6
 78
     2
 67
     7
 79
     3
170
     0
171
     0
290
     0
174
     0
 93
        1
 44
0.0
173
     0
291
     0
 45
0.0
1001
ACAD
1000
AcDbSavedByObjectVersion
1070
     0
  0
VISUALSTYLE
  5
35
102
{ACAD_REACTORS
330
2A
102
}
330
2A
100
AcDbVisualStyle
  2
Dim
 70
    11
 71
     2
 72
     2
 73
     0
 90
        0
 40
-0.6
 41
-30.0
 62
     5
 63
     7
 74
     1
 91
        4
 64
     7
 65
   257
 75
     1
175
     1
 42
1.0
 92
        8
 66
     7
 43
1.0
 76
     1
 77
     6
 78
     2
 67
     7
 79
     5
170
     0
171
     0
290
     0
174
     0
 93
        1
 44
-50.0
173
     0
291
     1
 45
0.0
1001
ACAD
1000
AcDbSavedByObjectVersion
1070
     0
  0
VISUALSTYLE
  5
39
102
{ACAD_REACTORS
330
2A
102
}
330
2A
100
AcDbVisualStyle
  2
Facepattern
 70
    15
 71
     2
 72
     2
 73
     0
 90
        0
 40
-0.6
 41
-30.0
 62
     5
 63
     7
 74
     1
 91
        4
 64
     7
 65
   257
 75
     1
175
     1
 42
1.0
 92
        8
 66
     7
 43
1.0
 76
     1
 77
     6
 78
     2
 67
     7
 79
     5
170
     0
171
     0
290
     0
174
     0
 93
        1
 44
0.0
173
     0
291
     1
 45
0.0
1001
ACAD
1000
AcDbSavedByObjectVersion
1070
     0
  0
VISUALSTYLE
  5
2B
102
{ACAD_REACTORS
330
2A
102
}
330
2A
100
AcDbVisualStyle
  2
Flat
 70
     0
 71
     2
 72
     1
 73
     1
 90
        2
 40
-0.6
 41
30.0
 62
     5
 63
     7
 74
     0
 91
        4
 64
     7
 65
   257
 75
     1
175
     1
 42
1.0
 92
        8
 66
     7
 43
1.0
 76
     1
 77
     6
 78
     2
 67
     7
 79
     5
170
     0
171
     0
290
     0
174
     0
 93
       13
 44
0.0
173
     0
291
     1
 45
0.0
1001
ACAD
1000
AcDbSavedByObjectVersion
1070
     0
  0
VISUALSTYLE
  5
2C
102
{ACAD_REACTORS
330
2A
102
}
330
2A
100
AcDbVisualStyle
  2
FlatWithEdges
 70
     1
 71
     2
 72
     1
 73
     1
 90
        2
 40
-0.6
 41
30.0
 62
     5
 63
     7
 74
     1
 91
        4
 64
     7
 65
   257
 75
     1
175
     1
 42
1.0
 92
        0
 66
   257
 43
1.0
 76
     1
 77
     6
 78
     2
 67
     7
 79
     5
170
     0
171
     0
290
     0
174
     0
 93
       13
 44
0.0
173
     0
291
     1
 45
0.0
1001
ACAD
1000
AcDbSavedByObjectVersion
1070
     0
  0
VISUALSTYLE
  5
2D
102
{ACAD_REACTORS
330
2A
102
}
330
2A
100
AcDbVisualStyle
  2
Gouraud
 70
     2
 71
     2
 72
     2
 73
     1
 90
        2
 40
-0.6
 41
30.0
 62
     5
 63
     7
 74
     0
 91
        4
 64
     7
 65
   257
 75
     1
175
     1
 42
1.0
 92
        0
 66
     7
 43
1.0
 76
     1
 77
     6
 78
     2
 67
     7
 79
     5
170
     0
171
     0
290
     0
174
     0
 93
       13
 44
0.0
173
     0
291
     1
 45
0.0
1001
ACAD
1000
AcDbSavedByObjectVersion
1070
     0
  0
VISUALSTYLE
  5
2E
102
{ACAD_REACTORS
330
2A
102
}
330
2A
100
AcDbVisualStyle
  2
GouraudWithEdges
 70
     3
 71
     2
 72
     2
 73
     1
 90
        2
 40
-0.6
 41
30.0
 62
     5
 63
     7
 74
     1
 91
        4
 64
     7
 65
   257
 75
     1
175
     1
 42
1.0
 92
        0
 66
   257
 43
1.0
 76
     1
 77
     6
 78
     2
 67
     7
 79
     5
170
     0
171
     0
290
     0
174
     0
 93
       13
 44
0.0
173
     0
291
     1
 45
0.0
1001
ACAD
1000
AcDbSavedByObjectVersion
1070
     0
  0
VISUALSTYLE
  5
38
102
{ACAD_REACTORS
330
2A
102
}
330
2A
100
AcDbVisualStyle
  2
Linepattern
 70
    14
 71
     2
 72
     2
 73
     0
 90
        0
 40
-0.6
 41
-30.0
 62
     5
 63
     7
 74
     1
 91
        4
 64
     7
 65
   257
 75
     7
175
     7
 42
1.0
 92
        8
 66
     7
 43
1.0
 76
     1
 77
     6
 78
     2
 67
     7
 79
     5
170
     0
171
     0
290
     0
174
     0
 93
        1
 44
0.0
173
     0
291
     1
 45
0.0
1001
ACAD
1000
AcDbSavedByObjectVersion
1070
     0
  0
VISUALSTYLE
  5
33
102
{ACAD_REACTORS
330
2A
102
}
330
2A
100
AcDbVisualStyle
  2
Realistic
 70
     8
 71
     2
 72
     2
 73
     0
 90
        0
 40
-0.6
 41
-30.0
 62
     5
 63
     7
 74
     1
 91
        0
 64
     7
 65
   257
 75
     1
175
     1
 42
1.0
 92
        8
 66
     8
 43
1.0
 76
     1
 77
     6
 78
     2
 67
     7
 79
     5
170
     0
171
     0
290
     0
174
     0
 93
       13
 44
0.0
173
     0
291
     0
 45
0.0
1001
ACAD
1000
AcDbSavedByObjectVersion
1070
     0
  0
VISUALSTYLE
  5
37
102
{ACAD_REACTORS
330
2A
102
}
330
2A
100
AcDbVisualStyle
  2
Thicken
 70
    13
 71
     2
 72
     2
 73
     0
 90
        0
 40
-0.6
 41
-30.0
 62
     5
 63
     7
 74
     1
 91
        4
 64
     7
 65
   257
 75
     1
175
     1
 42
1.0
 92
       12
 66
     7
 43
1.0
 76
     1
 77
     6
 78
     2
 67
     7
 79
     5
170
     0
171
     0
290
     0
174
     0
 93
        1
 44
0.0
173
     0
291
     1
 45
0.0
1001
ACAD
1000
AcDbSavedByObjectVersion
1070
     0
  0
XRECORD
  5
5EB
102
{ACAD_REACTORS
330
5E2
102
}
330
5E2
100
AcDbXrecord
 90
        0
  0
XRECORD
  5
601
102
{ACAD_REACTORS
330
5E2
102
}
330
5E2
100
AcDbXrecord
1000
DSTYLE
1002
{
1070
   340
340
11
1002
}
  0
XRECORD
  5
5EC
102
{ACAD_REACTORS
330
5E2
102
}
330
5E2
100
AcDbXrecord
  1
{EDB463F3-278C-4C28-995C-57D62C31096E}
  0
XRECORD
  5
5E5
102
{ACAD_REACTORS
330
5E2
102
}
330
5E2
100
AcDbXrecord
  1

  0
XRECORD
  5
5EA
102
{ACAD_REACTORS
330
5E2
102
}
330
5E2
100
AcDbXrecord
 90
        1
  0
XRECORD
  5
5E7
102
{ACAD_REACTORS
330
5E2
102
}
330
5E2
100
AcDbXrecord
340
1A
  0
XRECORD
  5
5E9
102
{ACAD_REACTORS
330
5E2
102
}
330
5E2
100
AcDbXrecord
 90
    10269
  0
XRECORD
  5
5E8
102
{ACAD_REACTORS
330
5E2
102
}
330
5E2
100
AcDbXrecord
340
19
  0
XRECORD
  5
5EE
102
{ACAD_REACTORS
330
5E2
102
}
330
5E2
100
AcDbXrecord
 40
0.0
  0
XRECORD
  5
5F1
102
{ACAD_REACTORS
330
5E2
102
}
330
5E2
100
AcDbXrecord
340
0
  0
XRECORD
  5
5F7
102
{ACAD_REACTORS
330
5E2
102
}
330
5E2
100
AcDbXrecord
 10
0.0
 20
0.0
 30
0.0
  0
XRECORD
  5
5F3
102
{ACAD_REACTORS
330
5E2
102
}
330
5E2
100
AcDbXrecord
 10
0.0
 20
0.0
 30
0.0
  0
XRECORD
  5
5F6
102
{ACAD_REACTORS
330
5E2
102
}
330
5E2
100
AcDbXrecord
 10
0.0
 20
0.0
 30
0.0
  0
XRECORD
  5
5F4
102
{ACAD_REACTORS
330
5E2
102
}
330
5E2
100
AcDbXrecord
 10
0.0
 20
0.0
 30
0.0
  0
XRECORD
  5
5F5
102
{ACAD_REACTORS
330
5E2
102
}
330
5E2
100
AcDbXrecord
 10
0.0
 20
0.0
 30
0.0
  0
XRECORD
  5
5F2
102
{ACAD_REACTORS
330
5E2
102
}
330
5E2
100
AcDbXrecord
 10
0.0
 20
0.0
 30
0.0
  0
XRECORD
  5
5EF
102
{ACAD_REACTORS
330
5E2
102
}
330
5E2
100
AcDbXrecord
340
0
  0
XRECORD
  5
5F0
102
{ACAD_REACTORS
330
5E2
102
}
330
5E2
100
AcDbXrecord
 70
     0
  0
XRECORD
  5
5E6
102
{ACAD_REACTORS
330
5E2
102
}
330
5E2
100
AcDbXrecord
  1

  0
XRECORD
  5
5E3
102
{ACAD_REACTORS
330
5E2
102
}
330
5E2
100
AcDbXrecord
 90
        1
  0
XRECORD
  5
5E4
102
{ACAD_REACTORS
330
5E2
102
}
330
5E2
100
AcDbXrecord
 90
       70
  0
XRECORD
  5
5FA
102
{ACAD_REACTORS
330
5E2
102
}
330
5E2
100
AcDbXrecord
340
0
  0
XRECORD
  5
600
102
{ACAD_REACTORS
330
5E2
102
}
330
5E2
100
AcDbXrecord
 10
0.0
 20
0.0
 30
0.0
  0
XRECORD
  5
5FC
102
{ACAD_REACTORS
330
5E2
102
}
330
5E2
100
AcDbXrecord
 10
0.0
 20
0.0
 30
0.0
  0
XRECORD
  5
5FF
102
{ACAD_REACTORS
330
5E2
102
}
330
5E2
100
AcDbXrecord
 10
0.0
 20
0.0
 30
0.0
  0
XRECORD
  5
5FD
102
{ACAD_REACTORS
330
5E2
102
}
330
5E2
100
AcDbXrecord
 10
0.0
 20
0.0
 30
0.0
  0
XRECORD
  5
5FE
102
{ACAD_REACTORS
330
5E2
102
}
330
5E2
100
AcDbXrecord
 10
0.0
 20
0.0
 30
0.0
  0
XRECORD
  5
5FB
102
{ACAD_REACTORS
330
5E2
102
}
330
5E2
100
AcDbXrecord
 10
0.0
 20
0.0
 30
0.0
  0
XRECORD
  5
5F8
102
{ACAD_REACTORS
330
5E2
102
}
330
5E2
100
AcDbXrecord
340
0
  0
XRECORD
  5
5F9
102
{ACAD_REACTORS
330
5E2
102
}
330
5E2
100
AcDbXrecord
 70
     0
  0
XRECORD
  5
5ED
102
{ACAD_REACTORS
330
5E2
102
}
330
5E2
100
AcDbXrecord
  1
{FAEB1C32-E019-11D5-929B-00C0DF256EC4}
  0
ENDSEC
  0
EOF
