  0
SECTION
  2
HEADER
  9
$ACADVER
  1
AC1032
  9
$ACADMAINTVER
 90
      228
  9
$DWGCODEPAGE
  3
ANSI_1252
  9
$REQUIREDVERSIONS
160
                 0
  9
$INSBASE
 10
0.0
 20
0.0
 30
0.0
  9
$EXTMIN
 10
1.000000000000000E+20
 20
1.000000000000000E+20
 30
1.000000000000000E+20
  9
$EXTMAX
 10
-1.000000000000000E+20
 20
-1.000000000000000E+20
 30
-1.000000000000000E+20
  9
$LIMMIN
 10
0.0
 20
0.0
  9
$LIMMAX
 10
12.0
 20
9.0
  9
$ORTHOMODE
 70
     0
  9
$REGENMODE
 70
     1
  9
$FILLMODE
 70
     1
  9
$QTEXTMODE
 70
     0
  9
$MIRRTEXT
 70
     0
  9
$LTSCALE
 40
1.0
  9
$ATTMODE
 70
     1
  9
$TEXTSIZE
 40
0.2
  9
$TRACEWID
 40
0.05
  9
$TEXTSTYLE
  7
Standard
  9
$CLAYER
  8
0
  9
$CELTYPE
  6
ByLayer
  9
$CECOLOR
 62
   256
  9
$CELTSCALE
 40
1.0
  9
$DISPSILH
 70
     0
  9
$DIMSCALE
 40
1.0
  9
$DIMASZ
 40
0.18
  9
$DIMEXO
 40
0.0625
  9
$DIMDLI
 40
0.38
  9
$DIMRND
 40
0.0
  9
$DIMDLE
 40
0.0
  9
$DIMEXE
 40
0.18
  9
$DIMTP
 40
0.0
  9
$DIMTM
 40
0.0
  9
$DIMTXT
 40
0.18
  9
$DIMCEN
 40
0.09
  9
$DIMTSZ
 40
0.0
  9
$DIMTOL
 70
     0
  9
$DIMLIM
 70
     0
  9
$DIMTIH
 70
     1
  9
$DIMTOH
 70
     1
  9
$DIMSE1
 70
     0
  9
$DIMSE2
 70
     0
  9
$DIMTAD
 70
     0
  9
$DIMZIN
 70
     0
  9
$DIMBLK
  1

  9
$DIMASO
 70
     1
  9
$DIMSHO
 70
     1
  9
$DIMPOST
  1

  9
$DIMAPOST
  1

  9
$DIMALT
 70
     0
  9
$DIMALTD
 70
     2
  9
$DIMALTF
 40
25.4
  9
$DIMLFAC
 40
1.0
  9
$DIMTOFL
 70
     0
  9
$DIMTVP
 40
0.0
  9
$DIMTIX
 70
     0
  9
$DIMSOXD
 70
     0
  9
$DIMSAH
 70
     0
  9
$DIMBLK1
  1

  9
$DIMBLK2
  1

  9
$DIMSTYLE
  2
Standard
  9
$DIMCLRD
 70
     0
  9
$DIMCLRE
 70
     0
  9
$DIMCLRT
 70
     0
  9
$DIMTFAC
 40
1.0
  9
$DIMGAP
 40
0.09
  9
$DIMJUST
 70
     0
  9
$DIMSD1
 70
     0
  9
$DIMSD2
 70
     0
  9
$DIMTOLJ
 70
     1
  9
$DIMTZIN
 70
     0
  9
$DIMALTZ
 70
     0
  9
$DIMALTTZ
 70
     0
  9
$DIMUPT
 70
     0
  9
$DIMDEC
 70
     4
  9
$DIMTDEC
 70
     4
  9
$DIMALTU
 70
     2
  9
$DIMALTTD
 70
     2
  9
$DIMTXSTY
  7
Standard
  9
$DIMAUNIT
 70
     0
  9
$DIMADEC
 70
     0
  9
$DIMALTRND
 40
0.0
  9
$DIMAZIN
 70
     0
  9
$DIMDSEP
 70
    46
  9
$DIMATFIT
 70
     3
  9
$DIMFRAC
 70
     0
  9
$DIMLDRBLK
  1

  9
$DIMLUNIT
 70
     2
  9
$DIMLWD
 70
    -2
  9
$DIMLWE
 70
    -2
  9
$DIMTMOVE
 70
     0
  9
$DIMFXL
 40
1.0
  9
$DIMFXLON
 70
     0
  9
$DIMJOGANG
 40
0.7853981633974483
  9
$DIMTFILL
 70
     0
  9
$DIMTFILLCLR
 70
     0
  9
$DIMARCSYM
 70
     0
  9
$DIMLTYPE
  6

  9
$DIMLTEX1
  6

  9
$DIMLTEX2
  6

  9
$DIMTXTDIRECTION
 70
     0
  9
$LUNITS
 70
     2
  9
$LUPREC
 70
     4
  9
$SKETCHINC
 40
0.1
  9
$FILLETRAD
 40
0.0
  9
$AUNITS
 70
     0
  9
$AUPREC
 70
     0
  9
$MENU
  1
.
  9
$ELEVATION
 40
0.0
  9
$PELEVATION
 40
0.0
  9
$THICKNESS
 40
0.0
  9
$LIMCHECK
 70
     0
  9
$CHAMFERA
 40
0.0
  9
$CHAMFERB
 40
0.0
  9
$CHAMFERC
 40
0.0
  9
$CHAMFERD
 40
0.0
  9
$SKPOLY
 70
     0
  9
$TDCREATE
 40
2460101.357962964
  9
$TDUCREATE
 40
2460101.274629630
  9
$TDUPDATE
 40
2460101.357962964
  9
$TDUUPDATE
 40
2460101.274629630
  9
$TDINDWG
 40
0.0000000000
  9
$TDUSRTIMER
 40
0.0000000000
  9
$USRTIMER
 70
     1
  9
$ANGBASE
 50
0.0
  9
$ANGDIR
 70
     0
  9
$PDMODE
 70
     0
  9
$PDSIZE
 40
0.0
  9
$PLINEWID
 40
0.0
  9
$SPLFRAME
 70
     0
  9
$SPLINETYPE
 70
     6
  9
$SPLINESEGS
 70
     8
  9
$HANDSEED
  5
30C
  9
$SURFTAB1
 70
     6
  9
$SURFTAB2
 70
     6
  9
$SURFTYPE
 70
     6
  9
$SURFU
 70
     6
  9
$SURFV
 70
     6
  9
$UCSBASE
  2

  9
$UCSNAME
  2

  9
$UCSORG
 10
0.0
 20
0.0
 30
0.0
  9
$UCSXDIR
 10
1.0
 20
0.0
 30
0.0
  9
$UCSYDIR
 10
0.0
 20
1.0
 30
0.0
  9
$UCSORTHOREF
  2

  9
$UCSORTHOVIEW
 70
     0
  9
$UCSORGTOP
 10
0.0
 20
0.0
 30
0.0
  9
$UCSORGBOTTOM
 10
0.0
 20
0.0
 30
0.0
  9
$UCSORGLEFT
 10
0.0
 20
0.0
 30
0.0
  9
$UCSORGRIGHT
 10
0.0
 20
0.0
 30
0.0
  9
$UCSORGFRONT
 10
0.0
 20
0.0
 30
0.0
  9
$UCSORGBACK
 10
0.0
 20
0.0
 30
0.0
  9
$PUCSBASE
  2

  9
$PUCSNAME
  2

  9
$PUCSORG
 10
0.0
 20
0.0
 30
0.0
  9
$PUCSXDIR
 10
1.0
 20
0.0
 30
0.0
  9
$PUCSYDIR
 10
0.0
 20
1.0
 30
0.0
  9
$PUCSORTHOREF
  2

  9
$PUCSORTHOVIEW
 70
     0
  9
$PUCSORGTOP
 10
0.0
 20
0.0
 30
0.0
  9
$PUCSORGBOTTOM
 10
0.0
 20
0.0
 30
0.0
  9
$PUCSORGLEFT
 10
0.0
 20
0.0
 30
0.0
  9
$PUCSORGRIGHT
 10
0.0
 20
0.0
 30
0.0
  9
$PUCSORGFRONT
 10
0.0
 20
0.0
 30
0.0
  9
$PUCSORGBACK
 10
0.0
 20
0.0
 30
0.0
  9
$USERI1
 70
     0
  9
$USERI2
 70
     0
  9
$USERI3
 70
     0
  9
$USERI4
 70
     0
  9
$USERI5
 70
     0
  9
$USERR1
 40
0.0
  9
$USERR2
 40
0.0
  9
$USERR3
 40
0.0
  9
$USERR4
 40
0.0
  9
$USERR5
 40
0.0
  9
$WORLDVIEW
 70
     1
  9
$SHADEDGE
 70
     3
  9
$SHADEDIF
 70
    70
  9
$TILEMODE
 70
     1
  9
$MAXACTVP
 70
    64
  9
$PINSBASE
 10
0.0
 20
0.0
 30
0.0
  9
$PLIMCHECK
 70
     0
  9
$PEXTMIN
 10
1.000000000000000E+20
 20
1.000000000000000E+20
 30
1.000000000000000E+20
  9
$PEXTMAX
 10
-1.000000000000000E+20
 20
-1.000000000000000E+20
 30
-1.000000000000000E+20
  9
$PLIMMIN
 10
0.0
 20
0.0
  9
$PLIMMAX
 10
12.0
 20
9.0
  9
$UNITMODE
 70
     0
  9
$VISRETAIN
 70
     1
  9
$PLINEGEN
 70
     0
  9
$PSLTSCALE
 70
     1
  9
$TREEDEPTH
 70
  3020
  9
$CMLSTYLE
  2
Standard
  9
$CMLJUST
 70
     0
  9
$CMLSCALE
 40
1.0
  9
$PROXYGRAPHICS
 70
     1
  9
$MEASUREMENT
 70
     0
  9
$CELWEIGHT
370
    -1
  9
$ENDCAPS
280
     0
  9
$JOINSTYLE
280
     0
  9
$LWDISPLAY
290
     1
  9
$INSUNITS
 70
     4
  9
$HYPERLINKBASE
  1

  9
$STYLESHEET
  1

  9
$XEDIT
290
     1
  9
$CEPSNTYPE
380
     0
  9
$PSTYLEMODE
290
     1
  9
$FINGERPRINTGUID
  2
{702DBD68-FDB1-8C41-975C-A9B65884DBBB}
  9
$VERSIONGUID
  2
{67514E6E-F8E7-E847-BD58-99B06EA35745}
  9
$EXTNAMES
290
     1
  9
$PSVPSCALE
 40
0.0
  9
$OLESTARTUP
290
     0
  9
$SORTENTS
280
   127
  9
$INDEXCTL
280
     0
  9
$HIDETEXT
280
     1
  9
$XCLIPFRAME
280
     2
  9
$HALOGAP
280
     0
  9
$OBSCOLOR
 70
   257
  9
$OBSLTYPE
280
     0
  9
$INTERSECTIONDISPLAY
280
     0
  9
$INTERSECTIONCOLOR
 70
   257
  9
$DIMASSOC
280
     2
  9
$PROJECTNAME
  1

  9
$CAMERADISPLAY
290
     0
  9
$LENSLENGTH
 40
50.0
  9
$CAMERAHEIGHT
 40
0.0
  9
$STEPSPERSEC
 40
2.0
  9
$STEPSIZE
 40
6.0
  9
$3DDWFPREC
 40
2.0
  9
$PSOLWIDTH
 40
0.25
  9
$PSOLHEIGHT
 40
4.0
  9
$LOFTANG1
 40
1.570796326794896
  9
$LOFTANG2
 40
1.570796326794896
  9
$LOFTMAG1
 40
0.0
  9
$LOFTMAG2
 40
0.0
  9
$LOFTPARAM
 70
     7
  9
$LOFTNORMALS
280
     1
  9
$LATITUDE
 40
37.795
  9
$LONGITUDE
 40
-122.394
  9
$NORTHDIRECTION
 40
0.0
  9
$TIMEZONE
 70
 -8000
  9
$LIGHTGLYPHDISPLAY
280
     1
  9
$TILEMODELIGHTSYNCH
280
     1
  9
$CMATERIAL
347
11
  9
$SOLIDHIST
280
     0
  9
$SHOWHIST
280
     1
  9
$DWFFRAME
280
     2
  9
$DGNFRAME
280
     0
  9
$REALWORLDSCALE
290
     1
  9
$INTERFERECOLOR
 62
     1
  9
$INTERFEREOBJVS
345
33
  9
$INTERFEREVPVS
346
30
  9
$CSHADOW
280
     0
  9
$SHADOWPLANELOCATION
 40
0.0
  0
ENDSEC
  0
SECTION
  2
CLASSES
  0
CLASS
  1
ACDBDICTIONARYWDFLT
  2
AcDbDictionaryWithDefault
  3
ObjectDBX Classes
 90
        0
 91
        1
280
     0
281
     0
  0
CLASS
  1
MATERIAL
  2
AcDbMaterial
  3
ObjectDBX Classes
 90
     1153
 91
        3
280
     0
281
     0
  0
CLASS
  1
VISUALSTYLE
  2
AcDbVisualStyle
  3
ObjectDBX Classes
 90
     4095
 91
       24
280
     0
281
     0
  0
CLASS
  1
SCALE
  2
AcDbScale
  3
ObjectDBX Classes
 90
     1153
 91
       17
280
     0
281
     0
  0
CLASS
  1
TABLESTYLE
  2
AcDbTableStyle
  3
ObjectDBX Classes
 90
     4095
 91
        1
280
     0
281
     0
  0
CLASS
  1
MLEADERSTYLE
  2
AcDbMLeaderStyle
  3
ACDB_MLEADERSTYLE_CLASS
 90
     4095
 91
        1
280
     0
281
     0
  0
CLASS
  1
ACDBSECTIONVIEWSTYLE
  2
AcDbSectionViewStyle
  3
ObjectDBX Classes
 90
     1025
 91
        1
280
     0
281
     0
  0
CLASS
  1
ACDBDETAILVIEWSTYLE
  2
AcDbDetailViewStyle
  3
ObjectDBX Classes
 90
     1025
 91
        1
280
     0
281
     0
  0
CLASS
  1
DICTIONARYVAR
  2
AcDbDictionaryVar
  3
ObjectDBX Classes
 90
        0
 91
        5
280
     0
281
     0
  0
CLASS
  1
CELLSTYLEMAP
  2
AcDbCellStyleMap
  3
ObjectDBX Classes
 90
     1152
 91
        1
280
     0
281
     0
  0
ENDSEC
  0
SECTION
  2
TABLES
  0
TABLE
  2
VPORT
  5
8
330
0
100
AcDbSymbolTable
 70
     1
  0
VPORT
  5
57
330
8
100
AcDbSymbolTableRecord
100
AcDbViewportTableRecord
  2
*Active
 70
     0
 10
0.0
 20
0.0
 11
1.0
 21
1.0
 12
0.0
 22
0.0
 13
0.0
 23
0.0
 14
1.0
 24
1.0
 15
0.0
 25
0.0
 16
0.0
 26
0.0
 36
1.0
 17
-99.04331358635014
 27
122.5189615500909
 37
0.0
 40
182.6611538217501
 41
0.891386425661877
 42
50.0
 43
0.0
 44
0.0
 50
0.0
 51
0.0
 71
     0
 72
   100
 73
     1
 74
     1
 75
     0
 76
     0
 77
     0
 78
     0
281
     0
 65
     1
110
0.0
120
0.0
130
0.0
111
1.0
121
0.0
131
0.0
112
0.0
122
1.0
132
0.0
 79
     0
146
0.0
 60
     3
 61
     5
292
     1
282
     1
141
0.0
142
0.0
 63
   250
421
  3355443
  0
ENDTAB
  0
TABLE
  2
LTYPE
  5
5
330
0
100
AcDbSymbolTable
 70
     5
  0
LTYPE
  5
5B
330
5
100
AcDbSymbolTableRecord
100
AcDbLinetypeTableRecord
  2
ByBlock
 70
     0
  3

 72
    65
 73
     0
 40
0.0
  0
LTYPE
  5
5C
330
5
100
AcDbSymbolTableRecord
100
AcDbLinetypeTableRecord
  2
ByLayer
 70
     0
  3

 72
    65
 73
     0
 40
0.0
  0
LTYPE
  5
5D
330
5
100
AcDbSymbolTableRecord
100
AcDbLinetypeTableRecord
  2
Continuous
 70
     0
  3
Solid line
 72
    65
 73
     0
 40
0.0
  0
LTYPE
  5
E1
330
5
100
AcDbSymbolTableRecord
100
AcDbLinetypeTableRecord
  2
AI-Linetype-0
 70
     0
  3
Adobe Illustrator Linetype No. 0
 72
    65
 73
     4
 40
8.819444442239584
 49
7.055555553791666
 74
     0
 49
-0.7055555553791667
 74
     0
 49
0.3527777776895833
 74
     0
 49
-0.7055555553791667
 74
     0
  0
LTYPE
  5
E3
330
5
100
AcDbSymbolTableRecord
100
AcDbLinetypeTableRecord
  2
AI-Linetype-1
 70
     0
  3
Adobe Illustrator Linetype No. 1
 72
    65
 73
     4
 40
8.819444442239584
 49
7.055555553791666
 74
     0
 49
-0.7055555553791667
 74
     0
 49
0.3527777776895833
 74
     0
 49
-0.7055555553791667
 74
     0
  0
LTYPE
  5
E5
330
5
100
AcDbSymbolTableRecord
100
AcDbLinetypeTableRecord
  2
AI-Linetype-2
 70
     0
  3
Adobe Illustrator Linetype No. 2
 72
    65
 73
     4
 40
8.819444442239584
 49
7.055555553791666
 74
     0
 49
-0.7055555553791667
 74
     0
 49
0.3527777776895833
 74
     0
 49
-0.7055555553791667
 74
     0
  0
LTYPE
  5
E7
330
5
100
AcDbSymbolTableRecord
100
AcDbLinetypeTableRecord
  2
AI-Linetype-3
 70
     0
  3
Adobe Illustrator Linetype No. 3
 72
    65
 73
     4
 40
8.819444442239584
 49
7.055555553791666
 74
     0
 49
-0.7055555553791667
 74
     0
 49
0.3527777776895833
 74
     0
 49
-0.7055555553791667
 74
     0
  0
ENDTAB
  0
TABLE
  2
LAYER
  5
2
330
0
100
AcDbSymbolTable
 70
     5
  0
LAYER
  5
54
330
2
100
AcDbSymbolTableRecord
100
AcDbLayerTableRecord
  2
0
 70
     0
 62
     7
  6
Continuous
370
    -3
390
F
347
21
348
0
  0
LAYER
  5
78
330
2
100
AcDbSymbolTableRecord
100
AcDbLayerTableRecord
  2
grau 10%
 70
     1
 62
     7
  6
Continuous
370
     0
390
F
347
21
348
0
  0
LAYER
  5
7D
330
2
100
AcDbSymbolTableRecord
100
AcDbLayerTableRecord
  2
Standardebene
 70
     0
 62
     7
  6
Continuous
370
     0
390
F
347
21
348
0
  0
LAYER
  5
171
330
2
100
AcDbSymbolTableRecord
100
AcDbLayerTableRecord
  2
Bemaßung
 70
     5
 62
     7
  6
Continuous
370
     0
390
F
347
21
348
0
  0
LAYER
  5
299
330
2
100
AcDbSymbolTableRecord
100
AcDbLayerTableRecord
  2
Text
 70
     5
 62
     7
  6
Continuous
370
     0
390
F
347
21
348
0
  0
ENDTAB
  0
TABLE
  2
STYLE
  5
3
330
0
100
AcDbSymbolTable
 70
     2
  0
STYLE
  5
55
330
3
100
AcDbSymbolTableRecord
100
AcDbTextStyleTableRecord
  2
Standard
 70
     0
 40
0.0
 41
1.0
 50
0.0
 71
     0
 42
0.2
  3
txt
  4

  0
STYLE
  5
5A
330
3
100
AcDbSymbolTableRecord
100
AcDbTextStyleTableRecord
  2
Annotative
 70
     0
 40
0.0
 41
1.0
 50
0.0
 71
     0
 42
0.2
  3
txt
  4

1001
AcadAnnotative
1000
AnnotativeData
1002
{
1070
     1
1070
     1
1002
}
  0
ENDTAB
  0
TABLE
  2
VIEW
  5
6
330
0
100
AcDbSymbolTable
 70
     0
  0
ENDTAB
  0
TABLE
  2
UCS
  5
7
330
0
100
AcDbSymbolTable
 70
     0
  0
ENDTAB
  0
TABLE
  2
APPID
  5
9
330
0
100
AcDbSymbolTable
 70
     2
  0
APPID
  5
56
330
9
100
AcDbSymbolTableRecord
100
AcDbRegAppTableRecord
  2
ACAD
 70
     0
  0
APPID
  5
5E
330
9
100
AcDbSymbolTableRecord
100
AcDbRegAppTableRecord
  2
AcadAnnotative
 70
     0
  0
ENDTAB
  0
TABLE
  2
DIMSTYLE
  5
A
330
0
100
AcDbSymbolTable
 70
     2
100
AcDbDimStyleTable
 71
     0
  0
DIMSTYLE
105
58
330
A
100
AcDbSymbolTableRecord
100
AcDbDimStyleTableRecord
  2
Standard
 70
     0
340
55
  0
DIMSTYLE
105
59
330
A
100
AcDbSymbolTableRecord
100
AcDbDimStyleTableRecord
  2
Annotative
 70
     0
340
55
1001
AcadAnnotative
1000
AnnotativeData
1002
{
1070
     1
1070
     1
1002
}
  0
ENDTAB
  0
TABLE
  2
BLOCK_RECORD
  5
1
330
0
100
AcDbSymbolTable
 70
     1
  0
BLOCK_RECORD
  5
70
330
1
100
AcDbSymbolTableRecord
100
AcDbBlockTableRecord
  2
*Model_Space
340
73
 70
     0
280
     1
281
     0
  0
BLOCK_RECORD
  5
6C
330
1
100
AcDbSymbolTableRecord
100
AcDbBlockTableRecord
  2
*Paper_Space
340
6F
 70
     0
280
     1
281
     0
  0
BLOCK_RECORD
  5
74
330
1
100
AcDbSymbolTableRecord
100
AcDbBlockTableRecord
  2
*Paper_Space0
340
77
 70
     0
280
     1
281
     0
  0
ENDTAB
  0
ENDSEC
  0
SECTION
  2
BLOCKS
  0
BLOCK
  5
71
330
70
100
AcDbEntity
  8
0
100
AcDbBlockBegin
  2
*Model_Space
 70
     0
 10
0.0
 20
0.0
 30
0.0
  3
*Model_Space
  1

  0
ENDBLK
  5
72
330
70
100
AcDbEntity
  8
0
100
AcDbBlockEnd
  0
BLOCK
  5
6D
330
6C
100
AcDbEntity
 67
     1
  8
0
100
AcDbBlockBegin
  2
*Paper_Space
 70
     0
 10
0.0
 20
0.0
 30
0.0
  3
*Paper_Space
  1

  0
ENDBLK
  5
6E
330
6C
100
AcDbEntity
 67
     1
  8
0
100
AcDbBlockEnd
  0
BLOCK
  5
75
330
74
100
AcDbEntity
 67
     1
  8
0
100
AcDbBlockBegin
  2
*Paper_Space0
 70
     0
 10
0.0
 20
0.0
 30
0.0
  3
*Paper_Space0
  1

  0
ENDBLK
  5
76
330
74
100
AcDbEntity
 67
     1
  8
0
100
AcDbBlockEnd
  0
ENDSEC
  0
SECTION
  2
ENTITIES
  0
SPLINE
  5
79
330
70
100
AcDbEntity
  8
grau 10%
100
AcDbSpline
210
0.0
220
0.0
230
1.0
 70
    11
 71
     3
 72
   179
 73
   175
 74
     0
 42
0.0000000001
 43
0.0000000001
 40
0.0
 40
0.0
 40
0.0
 40
0.0
 40
1.0
 40
1.0
 40
1.0
 40
2.0
 40
2.0
 40
2.0
 40
3.0
 40
3.0
 40
3.0
 40
4.0
 40
4.0
 40
4.0
 40
5.0
 40
5.0
 40
5.0
 40
6.0
 40
6.0
 40
6.0
 40
7.0
 40
7.0
 40
7.0
 40
8.0
 40
8.0
 40
8.0
 40
9.0
 40
9.0
 40
9.0
 40
10.0
 40
10.0
 40
10.0
 40
11.0
 40
11.0
 40
11.0
 40
12.0
 40
12.0
 40
12.0
 40
13.0
 40
13.0
 40
13.0
 40
14.0
 40
14.0
 40
14.0
 40
15.0
 40
15.0
 40
15.0
 40
16.0
 40
16.0
 40
16.0
 40
17.0
 40
17.0
 40
17.0
 40
18.0
 40
18.0
 40
18.0
 40
19.0
 40
19.0
 40
19.0
 40
20.0
 40
20.0
 40
20.0
 40
21.0
 40
21.0
 40
21.0
 40
22.0
 40
22.0
 40
22.0
 40
23.0
 40
23.0
 40
23.0
 40
24.0
 40
24.0
 40
24.0
 40
25.0
 40
25.0
 40
25.0
 40
26.0
 40
26.0
 40
26.0
 40
27.0
 40
27.0
 40
27.0
 40
28.0
 40
28.0
 40
28.0
 40
29.0
 40
29.0
 40
29.0
 40
30.0
 40
30.0
 40
30.0
 40
31.0
 40
31.0
 40
31.0
 40
32.0
 40
32.0
 40
32.0
 40
33.0
 40
33.0
 40
33.0
 40
34.0
 40
34.0
 40
34.0
 40
35.0
 40
35.0
 40
35.0
 40
36.0
 40
36.0
 40
36.0
 40
37.0
 40
37.0
 40
37.0
 40
38.0
 40
38.0
 40
38.0
 40
39.0
 40
39.0
 40
39.0
 40
40.0
 40
40.0
 40
40.0
 40
41.0
 40
41.0
 40
41.0
 40
42.0
 40
42.0
 40
42.0
 40
43.0
 40
43.0
 40
43.0
 40
44.0
 40
44.0
 40
44.0
 40
45.0
 40
45.0
 40
45.0
 40
46.0
 40
46.0
 40
46.0
 40
47.0
 40
47.0
 40
47.0
 40
48.0
 40
48.0
 40
48.0
 40
49.0
 40
49.0
 40
49.0
 40
50.0
 40
50.0
 40
50.0
 40
51.0
 40
51.0
 40
51.0
 40
52.0
 40
52.0
 40
52.0
 40
53.0
 40
53.0
 40
53.0
 40
54.0
 40
54.0
 40
54.0
 40
55.0
 40
55.0
 40
55.0
 40
56.0
 40
56.0
 40
56.0
 40
57.0
 40
57.0
 40
57.0
 40
58.0
 40
58.0
 40
58.0
 40
58.0
 10
-119.8779458033638
 20
74.31330727077625
 30
0.0
 10
-119.8779458033638
 20
74.31330727077625
 30
0.0
 10
-120.5173555254261
 20
74.38185199124975
 30
0.0
 10
-120.5402860809761
 20
74.79301448076012
 30
0.0
 10
-120.563181358748
 20
75.20417697027049
 30
0.0
 10
-120.357688303244
 20
75.52372498111894
 30
0.0
 10
-120.3347577476939
 20
75.61519834867334
 30
0.0
 10
-120.3118624699221
 20
75.70667362411739
 30
0.0
 10
-120.1749141366229
 20
76.39173277330676
 30
0.0
 10
-120.1749141366229
 20
76.68870109906379
 30
0.0
 10
-120.1749141366229
 20
76.98566942482083
 30
0.0
 10
-120.1749141366229
 20
77.41972719152487
 30
0.0
 10
-120.1749141366229
 20
77.41972719152487
 30
0.0
 10
-120.1749141366229
 20
77.41972719152487
 30
0.0
 10
-120.4262330254491
 20
79.17846547998905
 30
0.0
 10
-120.517531914315
 20
79.33831109127644
 30
0.0
 10
-120.6088308031812
 20
79.49815269405537
 30
0.0
 10
-120.6088308031812
 20
81.94212652059331
 30
0.0
 10
-120.6088308031812
 20
81.94212652059331
 30
0.0
 10
-120.6088308031812
 20
81.94212652059331
 30
0.0
 10
-120.1749141366229
 20
83.31256231896389
 30
0.0
 10
-120.1749141366229
 20
83.9521484137578
 30
0.0
 10
-120.1749141366229
 20
84.59173450855173
 30
0.0
 10
-120.5860766365201
 20
86.07639974845254
 30
0.0
 10
-120.5860766365201
 20
86.07639974845254
 30
0.0
 10
-120.5860766365201
 20
86.07639974845254
 30
0.0
 10
-120.5628285809705
 20
118.3955353128116
 30
0.0
 10
-120.5628285809705
 20
118.3955353128116
 30
0.0
 10
-120.5628285809705
 20
118.3955353128116
 30
0.0
 10
-122.2073727472259
 20
118.4413611449758
 30
0.0
 10
-122.2073727472259
 20
118.4413611449758
 30
0.0
 10
-122.2073727472259
 20
118.4413611449758
 30
0.0
 10
-122.2759174694311
 20
124.9737470894318
 30
0.0
 10
-122.2759174694311
 20
124.9737470894318
 30
0.0
 10
-122.2759174694311
 20
124.9737470894318
 30
0.0
 10
-120.5857591365202
 20
124.9737470894318
 30
0.0
 10
-120.5857591365202
 20
124.9737470894318
 30
0.0
 10
-120.5857591365202
 20
124.9737470894318
 30
0.0
 10
-120.6312321920643
 20
156.9279027385458
 30
0.0
 10
-120.6312321920643
 20
156.9279027385458
 30
0.0
 10
-120.6312321920643
 20
156.9279027385458
 30
0.0
 10
-126.6611921905569
 20
157.0192721829674
 30
0.0
 10
-126.6611921905569
 20
157.0192721829674
 30
0.0
 10
-126.6611921905569
 20
157.0192721829674
 30
0.0
 10
-126.546962746141
 20
159.1891689943015
 30
0.0
 10
-126.546962746141
 20
159.1891689943015
 30
0.0
 10
-126.546962746141
 20
159.1891689943015
 30
0.0
 10
-127.0267052460212
 20
158.1384909655509
 30
0.0
 10
-127.0267052460212
 20
158.1384909655509
 30
0.0
 10
-127.0267052460212
 20
158.1384909655509
 30
0.0
 10
-129.6304874675924
 20
158.0471215234375
 30
0.0
 10
-129.6304874675924
 20
158.0471215234375
 30
0.0
 10
-129.6304874675924
 20
158.0471215234375
 30
0.0
 10
-130.1100535785834
 20
158.8007999602998
 30
0.0
 10
-130.1100535785834
 20
158.8007999602998
 30
0.0
 10
-130.1100535785834
 20
158.8007999602998
 30
0.0
 10
-130.1329841341335
 20
159.6688056487316
 30
0.0
 10
-130.1329841341335
 20
159.6688056487316
 30
0.0
 10
-130.1329841341335
 20
159.6688056487316
 30
0.0
 10
-130.1102299674723
 20
160.1940917464415
 30
0.0
 10
-130.4756019118256
 20
160.1940917464415
 30
0.0
 10
-130.840938578401
 20
160.1940917464415
 30
0.0
 10
-136.7795996880273
 20
160.0798975826882
 30
0.0
 10
-136.7795996880273
 20
160.0798975826882
 30
0.0
 10
-136.7795996880273
 20
160.0798975826882
 30
0.0
 10
-137.3962552434285
 20
160.6737284008717
 30
0.0
 10
-137.3962552434285
 20
160.6737284008717
 30
0.0
 10
-137.3962552434285
 20
160.6737284008717
 30
0.0
 10
-139.0180452430232
 20
160.6965531225119
 30
0.0
 10
-139.0180452430232
 20
160.6965531225119
 30
0.0
 10
-139.0180452430232
 20
160.6965531225119
 30
0.0
 10
-139.4977877429034
 20
160.1711964692479
 30
0.0
 10
-139.4977877429034
 20
160.1711964692479
 30
0.0
 10
-139.4977877429034
 20
160.1711964692479
 30
0.0
 10
-142.3070630199786
 20
160.2397411897214
 30
0.0
 10
-142.3070630199786
 20
160.2397411897214
 30
0.0
 10
-142.3070630199786
 20
160.2397411897214
 30
0.0
 10
-142.8324549642918
 20
160.331040076281
 30
0.0
 10
-142.8324549642918
 20
160.7422025657914
 30
0.0
 10
-142.8324549642918
 20
161.1533650553018
 30
0.0
 10
-142.8324549642918
 20
166.0642079855713
 30
0.0
 10
-142.8324549642918
 20
166.0642079855713
 30
0.0
 10
-142.8324549642918
 20
166.0642079855713
 30
0.0
 10
-142.4669419088278
 20
166.8407071324278
 30
0.0
 10
-141.9644452422865
 20
166.8407071324278
 30
0.0
 10
-141.4619838535234
 20
166.8407071324278
 30
0.0
 10
-139.5205066317867
 20
166.795057689148
 30
0.0
 10
-139.5205066317867
 20
166.795057689148
 30
0.0
 10
-139.5205066317867
 20
166.795057689148
 30
0.0
 10
-138.8809205208354
 20
166.292596313078
 30
0.0
 10
-138.8809205208354
 20
166.292596313078
 30
0.0
 10
-138.8809205208354
 20
166.292596313078
 30
0.0
 10
-137.5104846878445
 20
166.2697010358843
 30
0.0
 10
-137.5104846878445
 20
166.2697010358843
 30
0.0
 10
-137.5104846878445
 20
166.2697010358843
 30
0.0
 10
-136.8252491324603
 20
166.795057689148
 30
0.0
 10
-136.8252491324603
 20
166.795057689148
 30
0.0
 10
-136.8252491324603
 20
166.795057689148
 30
0.0
 10
-130.4526713562756
 20
166.8407071324278
 30
0.0
 10
-130.4526713562756
 20
166.8407071324278
 30
0.0
 10
-130.4526713562756
 20
166.8407071324278
 30
0.0
 10
-130.0873346897005
 20
166.954936573958
 30
0.0
 10
-130.0873346897005
 20
167.1605001798248
 30
0.0
 10
-130.0873346897005
 20
167.3660990634684
 30
0.0
 10
-129.9729288563957
 20
168.279652373495
 30
0.0
 10
-129.9729288563957
 20
168.279652373495
 30
0.0
 10
-129.9729288563957
 20
168.279652373495
 30
0.0
 10
-129.6759605231365
 20
168.9420631899289
 30
0.0
 10
-129.6759605231365
 20
168.9420631899289
 30
0.0
 10
-129.6759605231365
 20
168.9420631899289
 30
0.0
 10
-127.0721783015653
 20
168.8963079133184
 30
0.0
 10
-127.0721783015653
 20
168.8963079133184
 30
0.0
 10
-127.0721783015653
 20
168.8963079133184
 30
0.0
 10
-126.661015801668
 20
168.4623249578844
 30
0.0
 10
-126.661015801668
 20
168.5765148659214
 30
0.0
 10
-126.661015801668
 20
168.6907443074517
 30
0.0
 10
-126.6153663572351
 20
170.1297601040726
 30
0.0
 10
-126.6153663572351
 20
170.1297601040726
 30
0.0
 10
-126.6153663572351
 20
170.1297601040726
 30
0.0
 10
-120.7676513586969
 20
170.0611801058222
 30
0.0
 10
-120.7676513586969
 20
170.0611801058222
 30
0.0
 10
-120.7676513586969
 20
170.0611801058222
 30
0.0
 10
-120.7676513586969
 20
170.2667832907665
 30
0.0
 10
-120.7676513586969
 20
170.2667832907665
 30
0.0
 10
-120.7676513586969
 20
170.2667832907665
 30
0.0
 10
-120.5850535809647
 20
170.5636414818923
 30
0.0
 10
-120.5850535809647
 20
170.5636414818923
 30
0.0
 10
-120.5850535809647
 20
170.5636414818923
 30
0.0
 10
-109.6670399725831
 20
170.6093967585028
 30
0.0
 10
-109.6670399725831
 20
170.6093967585028
 30
0.0
 10
-109.6670399725831
 20
170.6093967585028
 30
0.0
 10
-109.3700716393243
 20
170.4495531514696
 30
0.0
 10
-109.3700716393243
 20
170.4495531514696
 30
0.0
 10
-109.3700716393243
 20
170.4495531514696
 30
0.0
 10
-109.3016680282302
 20
170.1525848257126
 30
0.0
 10
-109.3016680282302
 20
170.1525848257126
 30
0.0
 10
-109.3016680282302
 20
170.1525848257126
 30
0.0
 10
-108.2738499729314
 20
170.0611801058222
 30
0.0
 10
-108.2738499729314
 20
170.0611801058222
 30
0.0
 10
-108.2738499729314
 20
170.0611801058222
 30
0.0
 10
-108.1367252507436
 20
156.8592482204094
 30
0.0
 10
-108.1367252507436
 20
156.8592482204094
 30
0.0
 10
-108.1367252507436
 20
156.8592482204094
 30
0.0
 10
-109.7812341392212
 20
156.9049721829961
 30
0.0
 10
-109.7812341392212
 20
156.9049721829961
 30
0.0
 10
-109.7812341392212
 20
156.9049721829961
 30
0.0
 10
-109.6442858059223
 20
156.5394551730124
 30
0.0
 10
-109.6442858059223
 20
156.5394551730124
 30
0.0
 10
-109.6442858059223
 20
156.5394551730124
 30
0.0
 10
-109.5983188614894
 20
125.0647284759996
 30
0.0
 10
-109.5983188614894
 20
125.0647284759996
 30
0.0
 10
-109.5983188614894
 20
125.0647284759996
 30
0.0
 10
-103.3170399741706
 20
124.9732532005559
 30
0.0
 10
-103.3170399741706
 20
124.9732532005559
 30
0.0
 10
-103.3170399741706
 20
124.9732532005559
 30
0.0
 10
-103.3855846963757
 20
118.4635508666319
 30
0.0
 10
-103.3855846963757
 20
118.4635508666319
 30
0.0
 10
-103.3855846963757
 20
118.4635508666319
 30
0.0
 10
-109.6212141392613
 20
118.3493567028786
 30
0.0
 10
-109.6212141392613
 20
118.3493567028786
 30
0.0
 10
-109.6212141392613
 20
118.3493567028786
 30
0.0
 10
-109.5068435837343
 20
77.4190569137642
 30
0.0
 10
-109.5068435837343
 20
77.4190569137642
 30
0.0
 10
-109.5068435837343
 20
77.4190569137642
 30
0.0
 10
-109.7581624725605
 20
75.79726695513951
 30
0.0
 10
-109.7581624725605
 20
75.79726695513951
 30
0.0
 10
-109.7581624725605
 20
75.79726695513951
 30
0.0
 10
-109.4839130281846
 20
75.27187502409893
 30
0.0
 10
-109.5524930281672
 20
75.04348669659226
 30
0.0
 10
-109.6210377503724
 20
74.81506309130873
 30
0.0
 10
-109.8952871947483
 20
74.40390060179836
 30
0.0
 10
-110.2149744168907
 20
74.40390060179836
 30
0.0
 10
-110.5346969168106
 20
74.40390060179836
 30
0.0
 10
-119.8779458033638
 20
74.31330727077625
 30
0.0
 10
-119.8779458033638
 20
74.31330727077625
 30
0.0
  0
HATCH
  5
7A
330
70
100
AcDbEntity
  8
grau 10%
 62
   255
440
 33554687
100
AcDbHatch
 10
0.0
 20
0.0
 30
0.0
210
0.0
220
0.0
230
1.0
  2
SOLID
 70
     1
 71
     1
 91
        1
 92
        1
 93
        1
 72
     4
 94
        3
 73
     0
 74
     0
 95
      179
 96
      175
 40
0.0
 40
0.0
 40
0.0
 40
0.0
 40
1.0
 40
1.0
 40
1.0
 40
2.0
 40
2.0
 40
2.0
 40
3.0
 40
3.0
 40
3.0
 40
4.0
 40
4.0
 40
4.0
 40
5.0
 40
5.0
 40
5.0
 40
6.0
 40
6.0
 40
6.0
 40
7.0
 40
7.0
 40
7.0
 40
8.0
 40
8.0
 40
8.0
 40
9.0
 40
9.0
 40
9.0
 40
10.0
 40
10.0
 40
10.0
 40
11.0
 40
11.0
 40
11.0
 40
12.0
 40
12.0
 40
12.0
 40
13.0
 40
13.0
 40
13.0
 40
14.0
 40
14.0
 40
14.0
 40
15.0
 40
15.0
 40
15.0
 40
16.0
 40
16.0
 40
16.0
 40
17.0
 40
17.0
 40
17.0
 40
18.0
 40
18.0
 40
18.0
 40
19.0
 40
19.0
 40
19.0
 40
20.0
 40
20.0
 40
20.0
 40
21.0
 40
21.0
 40
21.0
 40
22.0
 40
22.0
 40
22.0
 40
23.0
 40
23.0
 40
23.0
 40
24.0
 40
24.0
 40
24.0
 40
25.0
 40
25.0
 40
25.0
 40
26.0
 40
26.0
 40
26.0
 40
27.0
 40
27.0
 40
27.0
 40
28.0
 40
28.0
 40
28.0
 40
29.0
 40
29.0
 40
29.0
 40
30.0
 40
30.0
 40
30.0
 40
31.0
 40
31.0
 40
31.0
 40
32.0
 40
32.0
 40
32.0
 40
33.0
 40
33.0
 40
33.0
 40
34.0
 40
34.0
 40
34.0
 40
35.0
 40
35.0
 40
35.0
 40
36.0
 40
36.0
 40
36.0
 40
37.0
 40
37.0
 40
37.0
 40
38.0
 40
38.0
 40
38.0
 40
39.0
 40
39.0
 40
39.0
 40
40.0
 40
40.0
 40
40.0
 40
41.0
 40
41.0
 40
41.0
 40
42.0
 40
42.0
 40
42.0
 40
43.0
 40
43.0
 40
43.0
 40
44.0
 40
44.0
 40
44.0
 40
45.0
 40
45.0
 40
45.0
 40
46.0
 40
46.0
 40
46.0
 40
47.0
 40
47.0
 40
47.0
 40
48.0
 40
48.0
 40
48.0
 40
49.0
 40
49.0
 40
49.0
 40
50.0
 40
50.0
 40
50.0
 40
51.0
 40
51.0
 40
51.0
 40
52.0
 40
52.0
 40
52.0
 40
53.0
 40
53.0
 40
53.0
 40
54.0
 40
54.0
 40
54.0
 40
55.0
 40
55.0
 40
55.0
 40
56.0
 40
56.0
 40
56.0
 40
57.0
 40
57.0
 40
57.0
 40
58.0
 40
58.0
 40
58.0
 40
58.0
 10
-119.8779458033638
 20
74.31330727077625
 10
-119.8779458033638
 20
74.31330727077625
 10
-120.5173555254261
 20
74.38185199124975
 10
-120.5402860809761
 20
74.79301448076012
 10
-120.563181358748
 20
75.20417697027049
 10
-120.357688303244
 20
75.52372498111894
 10
-120.3347577476939
 20
75.61519834867334
 10
-120.3118624699221
 20
75.70667362411739
 10
-120.1749141366229
 20
76.39173277330676
 10
-120.1749141366229
 20
76.68870109906379
 10
-120.1749141366229
 20
76.98566942482083
 10
-120.1749141366229
 20
77.41972719152487
 10
-120.1749141366229
 20
77.41972719152487
 10
-120.1749141366229
 20
77.41972719152487
 10
-120.4262330254491
 20
79.17846547998905
 10
-120.517531914315
 20
79.33831109127644
 10
-120.6088308031812
 20
79.49815269405537
 10
-120.6088308031812
 20
81.94212652059331
 10
-120.6088308031812
 20
81.94212652059331
 10
-120.6088308031812
 20
81.94212652059331
 10
-120.1749141366229
 20
83.31256231896389
 10
-120.1749141366229
 20
83.9521484137578
 10
-120.1749141366229
 20
84.59173450855173
 10
-120.5860766365201
 20
86.07639974845254
 10
-120.5860766365201
 20
86.07639974845254
 10
-120.5860766365201
 20
86.07639974845254
 10
-120.5628285809705
 20
118.3955353128116
 10
-120.5628285809705
 20
118.3955353128116
 10
-120.5628285809705
 20
118.3955353128116
 10
-122.2073727472259
 20
118.4413611449758
 10
-122.2073727472259
 20
118.4413611449758
 10
-122.2073727472259
 20
118.4413611449758
 10
-122.2759174694311
 20
124.9737470894318
 10
-122.2759174694311
 20
124.9737470894318
 10
-122.2759174694311
 20
124.9737470894318
 10
-120.5857591365202
 20
124.9737470894318
 10
-120.5857591365202
 20
124.9737470894318
 10
-120.5857591365202
 20
124.9737470894318
 10
-120.6312321920643
 20
156.9279027385458
 10
-120.6312321920643
 20
156.9279027385458
 10
-120.6312321920643
 20
156.9279027385458
 10
-126.6611921905569
 20
157.0192721829674
 10
-126.6611921905569
 20
157.0192721829674
 10
-126.6611921905569
 20
157.0192721829674
 10
-126.546962746141
 20
159.1891689943015
 10
-126.546962746141
 20
159.1891689943015
 10
-126.546962746141
 20
159.1891689943015
 10
-127.0267052460212
 20
158.1384909655509
 10
-127.0267052460212
 20
158.1384909655509
 10
-127.0267052460212
 20
158.1384909655509
 10
-129.6304874675924
 20
158.0471215234375
 10
-129.6304874675924
 20
158.0471215234375
 10
-129.6304874675924
 20
158.0471215234375
 10
-130.1100535785834
 20
158.8007999602998
 10
-130.1100535785834
 20
158.8007999602998
 10
-130.1100535785834
 20
158.8007999602998
 10
-130.1329841341335
 20
159.6688056487316
 10
-130.1329841341335
 20
159.6688056487316
 10
-130.1329841341335
 20
159.6688056487316
 10
-130.1102299674723
 20
160.1940917464415
 10
-130.4756019118256
 20
160.1940917464415
 10
-130.840938578401
 20
160.1940917464415
 10
-136.7795996880273
 20
160.0798975826882
 10
-136.7795996880273
 20
160.0798975826882
 10
-136.7795996880273
 20
160.0798975826882
 10
-137.3962552434285
 20
160.6737284008717
 10
-137.3962552434285
 20
160.6737284008717
 10
-137.3962552434285
 20
160.6737284008717
 10
-139.0180452430232
 20
160.6965531225119
 10
-139.0180452430232
 20
160.6965531225119
 10
-139.0180452430232
 20
160.6965531225119
 10
-139.4977877429034
 20
160.1711964692479
 10
-139.4977877429034
 20
160.1711964692479
 10
-139.4977877429034
 20
160.1711964692479
 10
-142.3070630199786
 20
160.2397411897214
 10
-142.3070630199786
 20
160.2397411897214
 10
-142.3070630199786
 20
160.2397411897214
 10
-142.8324549642918
 20
160.331040076281
 10
-142.8324549642918
 20
160.7422025657914
 10
-142.8324549642918
 20
161.1533650553018
 10
-142.8324549642918
 20
166.0642079855713
 10
-142.8324549642918
 20
166.0642079855713
 10
-142.8324549642918
 20
166.0642079855713
 10
-142.4669419088278
 20
166.8407071324278
 10
-141.9644452422865
 20
166.8407071324278
 10
-141.4619838535234
 20
166.8407071324278
 10
-139.5205066317867
 20
166.795057689148
 10
-139.5205066317867
 20
166.795057689148
 10
-139.5205066317867
 20
166.795057689148
 10
-138.8809205208354
 20
166.292596313078
 10
-138.8809205208354
 20
166.292596313078
 10
-138.8809205208354
 20
166.292596313078
 10
-137.5104846878445
 20
166.2697010358843
 10
-137.5104846878445
 20
166.2697010358843
 10
-137.5104846878445
 20
166.2697010358843
 10
-136.8252491324603
 20
166.795057689148
 10
-136.8252491324603
 20
166.795057689148
 10
-136.8252491324603
 20
166.795057689148
 10
-130.4526713562756
 20
166.8407071324278
 10
-130.4526713562756
 20
166.8407071324278
 10
-130.4526713562756
 20
166.8407071324278
 10
-130.0873346897005
 20
166.954936573958
 10
-130.0873346897005
 20
167.1605001798248
 10
-130.0873346897005
 20
167.3660990634684
 10
-129.9729288563957
 20
168.279652373495
 10
-129.9729288563957
 20
168.279652373495
 10
-129.9729288563957
 20
168.279652373495
 10
-129.6759605231365
 20
168.9420631899289
 10
-129.6759605231365
 20
168.9420631899289
 10
-129.6759605231365
 20
168.9420631899289
 10
-127.0721783015653
 20
168.8963079133184
 10
-127.0721783015653
 20
168.8963079133184
 10
-127.0721783015653
 20
168.8963079133184
 10
-126.661015801668
 20
168.4623249578844
 10
-126.661015801668
 20
168.5765148659214
 10
-126.661015801668
 20
168.6907443074517
 10
-126.6153663572351
 20
170.1297601040726
 10
-126.6153663572351
 20
170.1297601040726
 10
-126.6153663572351
 20
170.1297601040726
 10
-120.7676513586969
 20
170.0611801058222
 10
-120.7676513586969
 20
170.0611801058222
 10
-120.7676513586969
 20
170.0611801058222
 10
-120.7676513586969
 20
170.2667832907665
 10
-120.7676513586969
 20
170.2667832907665
 10
-120.7676513586969
 20
170.2667832907665
 10
-120.5850535809647
 20
170.5636414818923
 10
-120.5850535809647
 20
170.5636414818923
 10
-120.5850535809647
 20
170.5636414818923
 10
-109.6670399725831
 20
170.6093967585028
 10
-109.6670399725831
 20
170.6093967585028
 10
-109.6670399725831
 20
170.6093967585028
 10
-109.3700716393243
 20
170.4495531514696
 10
-109.3700716393243
 20
170.4495531514696
 10
-109.3700716393243
 20
170.4495531514696
 10
-109.3016680282302
 20
170.1525848257126
 10
-109.3016680282302
 20
170.1525848257126
 10
-109.3016680282302
 20
170.1525848257126
 10
-108.2738499729314
 20
170.0611801058222
 10
-108.2738499729314
 20
170.0611801058222
 10
-108.2738499729314
 20
170.0611801058222
 10
-108.1367252507436
 20
156.8592482204094
 10
-108.1367252507436
 20
156.8592482204094
 10
-108.1367252507436
 20
156.8592482204094
 10
-109.7812341392212
 20
156.9049721829961
 10
-109.7812341392212
 20
156.9049721829961
 10
-109.7812341392212
 20
156.9049721829961
 10
-109.6442858059223
 20
156.5394551730124
 10
-109.6442858059223
 20
156.5394551730124
 10
-109.6442858059223
 20
156.5394551730124
 10
-109.5983188614894
 20
125.0647284759996
 10
-109.5983188614894
 20
125.0647284759996
 10
-109.5983188614894
 20
125.0647284759996
 10
-103.3170399741706
 20
124.9732532005559
 10
-103.3170399741706
 20
124.9732532005559
 10
-103.3170399741706
 20
124.9732532005559
 10
-103.3855846963757
 20
118.4635508666319
 10
-103.3855846963757
 20
118.4635508666319
 10
-103.3855846963757
 20
118.4635508666319
 10
-109.6212141392613
 20
118.3493567028786
 10
-109.6212141392613
 20
118.3493567028786
 10
-109.6212141392613
 20
118.3493567028786
 10
-109.5068435837343
 20
77.4190569137642
 10
-109.5068435837343
 20
77.4190569137642
 10
-109.5068435837343
 20
77.4190569137642
 10
-109.7581624725605
 20
75.79726695513951
 10
-109.7581624725605
 20
75.79726695513951
 10
-109.7581624725605
 20
75.79726695513951
 10
-109.4839130281846
 20
75.27187502409893
 10
-109.5524930281672
 20
75.04348669659226
 10
-109.6210377503724
 20
74.81506309130873
 10
-109.8952871947483
 20
74.40390060179836
 10
-110.2149744168907
 20
74.40390060179836
 10
-110.5346969168106
 20
74.40390060179836
 10
-119.8779458033638
 20
74.31330727077625
 10
-119.8779458033638
 20
74.31330727077625
 97
        0
 97
        1
330
79
 75
     0
 76
     1
 98
        1
 10
0.0
 20
0.0
450
        0
451
        0
460
0.0
461
0.0
452
        0
462
0.0
453
        0
470

  0
SPLINE
  5
7B
330
70
100
AcDbEntity
  8
grau 10%
100
AcDbSpline
210
0.0
220
0.0
230
1.0
 70
    11
 71
     3
 72
   113
 73
   109
 74
     0
 42
0.0000000001
 43
0.0000000001
 40
0.0
 40
0.0
 40
0.0
 40
0.0
 40
1.0
 40
1.0
 40
1.0
 40
2.0
 40
2.0
 40
2.0
 40
3.0
 40
3.0
 40
3.0
 40
4.0
 40
4.0
 40
4.0
 40
5.0
 40
5.0
 40
5.0
 40
6.0
 40
6.0
 40
6.0
 40
7.0
 40
7.0
 40
7.0
 40
8.0
 40
8.0
 40
8.0
 40
9.0
 40
9.0
 40
9.0
 40
10.0
 40
10.0
 40
10.0
 40
11.0
 40
11.0
 40
11.0
 40
12.0
 40
12.0
 40
12.0
 40
13.0
 40
13.0
 40
13.0
 40
14.0
 40
14.0
 40
14.0
 40
15.0
 40
15.0
 40
15.0
 40
16.0
 40
16.0
 40
16.0
 40
17.0
 40
17.0
 40
17.0
 40
18.0
 40
18.0
 40
18.0
 40
19.0
 40
19.0
 40
19.0
 40
20.0
 40
20.0
 40
20.0
 40
21.0
 40
21.0
 40
21.0
 40
22.0
 40
22.0
 40
22.0
 40
23.0
 40
23.0
 40
23.0
 40
24.0
 40
24.0
 40
24.0
 40
25.0
 40
25.0
 40
25.0
 40
26.0
 40
26.0
 40
26.0
 40
27.0
 40
27.0
 40
27.0
 40
28.0
 40
28.0
 40
28.0
 40
29.0
 40
29.0
 40
29.0
 40
30.0
 40
30.0
 40
30.0
 40
31.0
 40
31.0
 40
31.0
 40
32.0
 40
32.0
 40
32.0
 40
33.0
 40
33.0
 40
33.0
 40
34.0
 40
34.0
 40
34.0
 40
35.0
 40
35.0
 40
35.0
 40
36.0
 40
36.0
 40
36.0
 40
36.0
 10
-71.85864609314646
 20
74.32018643726741
 30
0.0
 10
-71.85864609314646
 20
74.32018643726741
 30
0.0
 10
-72.45843887077436
 20
74.52723170976303
 30
0.0
 10
-72.43776609300166
 20
74.87881003412685
 30
0.0
 10
-72.41712859300678
 20
75.23038835849067
 30
0.0
 10
-72.16887887084661
 20
75.60278057121237
 30
0.0
 10
-72.16887887084661
 20
75.60278057121237
 30
0.0
 10
-72.16887887084661
 20
75.60278057121237
 30
0.0
 10
-72.41695220411789
 20
77.48467357875653
 30
0.0
 10
-72.41695220411789
 20
77.48467357875653
 30
0.0
 10
-72.41695220411789
 20
77.48467357875653
 30
0.0
 10
-72.4789352596582
 20
80.54614961176319
 30
0.0
 10
-72.4789352596582
 20
80.54614961176319
 30
0.0
 10
-72.4789352596582
 20
80.54614961176319
 30
0.0
 10
-72.37385192619176
 20
82.05614429546224
 30
0.0
 10
-72.37385192619176
 20
82.51122761718544
 30
0.0
 10
-72.37385192619176
 20
82.9663462166855
 30
0.0
 10
-72.4376249818906
 20
84.49715478874274
 30
0.0
 10
-72.4376249818906
 20
84.55917312049354
 30
0.0
 10
-72.4376249818906
 20
84.62119145224466
 30
0.0
 10
-72.45776859299668
 20
118.3588464248587
 30
0.0
 10
-72.45776859299668
 20
118.3588464248587
 30
0.0
 10
-72.45776859299668
 20
118.3588464248587
 30
0.0
 10
-78.51856136925919
 20
118.3588464248587
 30
0.0
 10
-78.51856136925919
 20
118.3588464248587
 30
0.0
 10
-78.51856136925919
 20
118.3588464248587
 30
0.0
 10
-78.55990692480462
 20
125.0404220877308
 30
0.0
 10
-78.55990692480462
 20
125.0404220877308
 30
0.0
 10
-78.55990692480462
 20
125.0404220877308
 30
0.0
 10
-72.45776859299668
 20
125.0195729215961
 30
0.0
 10
-72.45776859299668
 20
125.0195729215961
 30
0.0
 10
-72.45776859299668
 20
125.0195729215961
 30
0.0
 10
-72.43744859300173
 20
156.6272968374381
 30
0.0
 10
-72.43744859300173
 20
156.6272968374381
 30
0.0
 10
-72.43744859300173
 20
156.6272968374381
 30
0.0
 10
-72.33390831524991
 20
156.87551127555
 30
0.0
 10
-72.33390831524991
 20
156.87551127555
 30
0.0
 10
-72.33390831524991
 20
156.87551127555
 30
0.0
 10
-76.86403359189518
 20
156.9789457173556
 30
0.0
 10
-76.86403359189518
 20
156.9789457173556
 30
0.0
 10
-76.86403359189518
 20
156.9789457173556
 30
0.0
 10
-76.86403359189518
 20
170.1559362145159
 30
0.0
 10
-76.86403359189518
 20
170.1559362145159
 30
0.0
 10
-76.86403359189518
 20
170.1559362145159
 30
0.0
 10
-72.7890269262473
 20
170.1145201044614
 30
0.0
 10
-72.7890269262473
 20
170.1145201044614
 30
0.0
 10
-72.7890269262473
 20
170.1145201044614
 30
0.0
 10
-72.7270085929295
 20
170.3213889880727
 30
0.0
 10
-72.7270085929295
 20
170.3213889880727
 30
0.0
 10
-72.7270085929295
 20
170.3213889880727
 30
0.0
 10
-72.43744859300173
 20
170.6316923134895
 30
0.0
 10
-72.43744859300173
 20
170.6316923134895
 30
0.0
 10
-72.43744859300173
 20
170.6316923134895
 30
0.0
 10
-61.45343026241471
 20
170.6316217579357
 30
0.0
 10
-61.45343026241471
 20
170.6316217579357
 30
0.0
 10
-61.45343026241471
 20
170.6316217579357
 30
0.0
 10
-61.18454304025934
 20
170.4040800970745
 30
0.0
 10
-61.18454304025934
 20
170.4040800970745
 30
0.0
 10
-61.18454304025934
 20
170.4040800970745
 30
0.0
 10
-61.12238359583049
 20
170.135157603935
 30
0.0
 10
-61.12238359583049
 20
170.135157603935
 30
0.0
 10
-61.12238359583049
 20
170.135157603935
 30
0.0
 10
-57.00599609685967
 20
170.135157603935
 30
0.0
 10
-57.00599609685967
 20
170.135157603935
 30
0.0
 10
-57.00599609685967
 20
170.135157603935
 30
0.0
 10
-56.98549970797583
 20
156.9995479390523
 30
0.0
 10
-56.98549970797583
 20
156.9995479390523
 30
0.0
 10
-56.98549970797583
 20
156.9995479390523
 30
0.0
 10
-61.5156249846211
 20
156.8961134972466
 30
0.0
 10
-61.5156249846211
 20
156.8961134972466
 30
0.0
 10
-61.5156249846211
 20
156.8961134972466
 30
0.0
 10
-61.41208470686929
 20
156.668571836385
 30
0.0
 10
-61.41208470686929
 20
156.668571836385
 30
0.0
 10
-61.41208470686929
 20
156.668571836385
 30
0.0
 10
-61.45360665130295
 20
124.9779098671034
 30
0.0
 10
-61.45360665130295
 20
124.9779098671034
 30
0.0
 10
-61.45360665130295
 20
124.9779098671034
 30
0.0
 10
-55.20661776397626
 20
124.9985826443538
 30
0.0
 10
-55.20661776397626
 20
124.9985826443538
 30
0.0
 10
-55.20661776397626
 20
124.9985826443538
 30
0.0
 10
-55.20661776397626
 20
122.9092915865449
 30
0.0
 10
-55.20661776397626
 20
122.9092915865449
 30
0.0
 10
-55.20661776397626
 20
122.9092915865449
 30
0.0
 10
-55.30998165283919
 20
122.4335354875714
 30
0.0
 10
-55.30998165283919
 20
121.9163985563202
 30
0.0
 10
-55.30998165283919
 20
121.3992999696501
 30
0.0
 10
-55.20661776397626
 20
120.4684574821491
 30
0.0
 10
-55.20661776397626
 20
120.4684574821491
 30
0.0
 10
-55.20661776397626
 20
120.4684574821491
 30
0.0
 10
-55.26863609729376
 20
118.4825333037126
 30
0.0
 10
-55.26863609729376
 20
118.4825333037126
 30
0.0
 10
-55.26863609729376
 20
118.4825333037126
 30
0.0
 10
-61.41226109575817
 20
118.3791694148497
 30
0.0
 10
-61.41226109575817
 20
118.3791694148497
 30
0.0
 10
-61.41226109575817
 20
118.3791694148497
 30
0.0
 10
-61.39176470687433
 20
77.48329774545862
 30
0.0
 10
-61.39176470687433
 20
77.48329774545862
 30
0.0
 10
-61.39176470687433
 20
77.48329774545862
 30
0.0
 10
-61.66065192902905
 20
75.76643609216941
 30
0.0
 10
-61.66065192902905
 20
75.76643609216941
 30
0.0
 10
-61.66065192902905
 20
75.76643609216941
 30
0.0
 10
-61.39176470687433
 20
75.20763609230917
 30
0.0
 10
-61.39176470687433
 20
75.02161447492804
 30
0.0
 10
-61.39176470687433
 20
74.83555947967471
 30
0.0
 10
-61.5571469290554
 20
74.42182171245225
 30
0.0
 10
-62.01223026227463
 20
74.40114893520188
 30
0.0
 10
-62.46734887327202
 20
74.38047615795183
 30
0.0
 10
-71.85864609314646
 20
74.32018643726741
 30
0.0
 10
-71.85864609314646
 20
74.32018643726741
 30
0.0
  0
HATCH
  5
7C
330
70
100
AcDbEntity
  8
grau 10%
 62
   255
440
 33554687
100
AcDbHatch
 10
0.0
 20
0.0
 30
0.0
210
0.0
220
0.0
230
1.0
  2
SOLID
 70
     1
 71
     1
 91
        1
 92
        1
 93
        1
 72
     4
 94
        3
 73
     0
 74
     0
 95
      113
 96
      109
 40
0.0
 40
0.0
 40
0.0
 40
0.0
 40
1.0
 40
1.0
 40
1.0
 40
2.0
 40
2.0
 40
2.0
 40
3.0
 40
3.0
 40
3.0
 40
4.0
 40
4.0
 40
4.0
 40
5.0
 40
5.0
 40
5.0
 40
6.0
 40
6.0
 40
6.0
 40
7.0
 40
7.0
 40
7.0
 40
8.0
 40
8.0
 40
8.0
 40
9.0
 40
9.0
 40
9.0
 40
10.0
 40
10.0
 40
10.0
 40
11.0
 40
11.0
 40
11.0
 40
12.0
 40
12.0
 40
12.0
 40
13.0
 40
13.0
 40
13.0
 40
14.0
 40
14.0
 40
14.0
 40
15.0
 40
15.0
 40
15.0
 40
16.0
 40
16.0
 40
16.0
 40
17.0
 40
17.0
 40
17.0
 40
18.0
 40
18.0
 40
18.0
 40
19.0
 40
19.0
 40
19.0
 40
20.0
 40
20.0
 40
20.0
 40
21.0
 40
21.0
 40
21.0
 40
22.0
 40
22.0
 40
22.0
 40
23.0
 40
23.0
 40
23.0
 40
24.0
 40
24.0
 40
24.0
 40
25.0
 40
25.0
 40
25.0
 40
26.0
 40
26.0
 40
26.0
 40
27.0
 40
27.0
 40
27.0
 40
28.0
 40
28.0
 40
28.0
 40
29.0
 40
29.0
 40
29.0
 40
30.0
 40
30.0
 40
30.0
 40
31.0
 40
31.0
 40
31.0
 40
32.0
 40
32.0
 40
32.0
 40
33.0
 40
33.0
 40
33.0
 40
34.0
 40
34.0
 40
34.0
 40
35.0
 40
35.0
 40
35.0
 40
36.0
 40
36.0
 40
36.0
 40
36.0
 10
-71.85864609314646
 20
74.32018643726741
 10
-71.85864609314646
 20
74.32018643726741
 10
-72.45843887077436
 20
74.52723170976303
 10
-72.43776609300166
 20
74.87881003412685
 10
-72.41712859300678
 20
75.23038835849067
 10
-72.16887887084661
 20
75.60278057121237
 10
-72.16887887084661
 20
75.60278057121237
 10
-72.16887887084661
 20
75.60278057121237
 10
-72.41695220411789
 20
77.48467357875653
 10
-72.41695220411789
 20
77.48467357875653
 10
-72.41695220411789
 20
77.48467357875653
 10
-72.4789352596582
 20
80.54614961176319
 10
-72.4789352596582
 20
80.54614961176319
 10
-72.4789352596582
 20
80.54614961176319
 10
-72.37385192619176
 20
82.05614429546224
 10
-72.37385192619176
 20
82.51122761718544
 10
-72.37385192619176
 20
82.9663462166855
 10
-72.4376249818906
 20
84.49715478874274
 10
-72.4376249818906
 20
84.55917312049354
 10
-72.4376249818906
 20
84.62119145224466
 10
-72.45776859299668
 20
118.3588464248587
 10
-72.45776859299668
 20
118.3588464248587
 10
-72.45776859299668
 20
118.3588464248587
 10
-78.51856136925919
 20
118.3588464248587
 10
-78.51856136925919
 20
118.3588464248587
 10
-78.51856136925919
 20
118.3588464248587
 10
-78.55990692480462
 20
125.0404220877308
 10
-78.55990692480462
 20
125.0404220877308
 10
-78.55990692480462
 20
125.0404220877308
 10
-72.45776859299668
 20
125.0195729215961
 10
-72.45776859299668
 20
125.0195729215961
 10
-72.45776859299668
 20
125.0195729215961
 10
-72.43744859300173
 20
156.6272968374381
 10
-72.43744859300173
 20
156.6272968374381
 10
-72.43744859300173
 20
156.6272968374381
 10
-72.33390831524991
 20
156.87551127555
 10
-72.33390831524991
 20
156.87551127555
 10
-72.33390831524991
 20
156.87551127555
 10
-76.86403359189518
 20
156.9789457173556
 10
-76.86403359189518
 20
156.9789457173556
 10
-76.86403359189518
 20
156.9789457173556
 10
-76.86403359189518
 20
170.1559362145159
 10
-76.86403359189518
 20
170.1559362145159
 10
-76.86403359189518
 20
170.1559362145159
 10
-72.7890269262473
 20
170.1145201044614
 10
-72.7890269262473
 20
170.1145201044614
 10
-72.7890269262473
 20
170.1145201044614
 10
-72.7270085929295
 20
170.3213889880727
 10
-72.7270085929295
 20
170.3213889880727
 10
-72.7270085929295
 20
170.3213889880727
 10
-72.43744859300173
 20
170.6316923134895
 10
-72.43744859300173
 20
170.6316923134895
 10
-72.43744859300173
 20
170.6316923134895
 10
-61.45343026241471
 20
170.6316217579357
 10
-61.45343026241471
 20
170.6316217579357
 10
-61.45343026241471
 20
170.6316217579357
 10
-61.18454304025934
 20
170.4040800970745
 10
-61.18454304025934
 20
170.4040800970745
 10
-61.18454304025934
 20
170.4040800970745
 10
-61.12238359583049
 20
170.135157603935
 10
-61.12238359583049
 20
170.135157603935
 10
-61.12238359583049
 20
170.135157603935
 10
-57.00599609685967
 20
170.135157603935
 10
-57.00599609685967
 20
170.135157603935
 10
-57.00599609685967
 20
170.135157603935
 10
-56.98549970797583
 20
156.9995479390523
 10
-56.98549970797583
 20
156.9995479390523
 10
-56.98549970797583
 20
156.9995479390523
 10
-61.5156249846211
 20
156.8961134972466
 10
-61.5156249846211
 20
156.8961134972466
 10
-61.5156249846211
 20
156.8961134972466
 10
-61.41208470686929
 20
156.668571836385
 10
-61.41208470686929
 20
156.668571836385
 10
-61.41208470686929
 20
156.668571836385
 10
-61.45360665130295
 20
124.9779098671034
 10
-61.45360665130295
 20
124.9779098671034
 10
-61.45360665130295
 20
124.9779098671034
 10
-55.20661776397626
 20
124.9985826443538
 10
-55.20661776397626
 20
124.9985826443538
 10
-55.20661776397626
 20
124.9985826443538
 10
-55.20661776397626
 20
122.9092915865449
 10
-55.20661776397626
 20
122.9092915865449
 10
-55.20661776397626
 20
122.9092915865449
 10
-55.30998165283919
 20
122.4335354875714
 10
-55.30998165283919
 20
121.9163985563202
 10
-55.30998165283919
 20
121.3992999696501
 10
-55.20661776397626
 20
120.4684574821491
 10
-55.20661776397626
 20
120.4684574821491
 10
-55.20661776397626
 20
120.4684574821491
 10
-55.26863609729376
 20
118.4825333037126
 10
-55.26863609729376
 20
118.4825333037126
 10
-55.26863609729376
 20
118.4825333037126
 10
-61.41226109575817
 20
118.3791694148497
 10
-61.41226109575817
 20
118.3791694148497
 10
-61.41226109575817
 20
118.3791694148497
 10
-61.39176470687433
 20
77.48329774545862
 10
-61.39176470687433
 20
77.48329774545862
 10
-61.39176470687433
 20
77.48329774545862
 10
-61.66065192902905
 20
75.76643609216941
 10
-61.66065192902905
 20
75.76643609216941
 10
-61.66065192902905
 20
75.76643609216941
 10
-61.39176470687433
 20
75.20763609230917
 10
-61.39176470687433
 20
75.02161447492804
 10
-61.39176470687433
 20
74.83555947967471
 10
-61.5571469290554
 20
74.42182171245225
 10
-62.01223026227463
 20
74.40114893520188
 10
-62.46734887327202
 20
74.38047615795183
 10
-71.85864609314646
 20
74.32018643726741
 10
-71.85864609314646
 20
74.32018643726741
 97
        0
 97
        1
330
7B
 75
     0
 76
     1
 98
        1
 10
0.0
 20
0.0
450
        0
451
        0
460
0.0
461
0.0
452
        0
462
0.0
453
        0
470

  0
LINE
  5
7E
330
70
100
AcDbEntity
  8
Standardebene
 62
     7
370
     9
100
AcDbLine
 10
-133.7590495689715
 20
35.04212306029663
 30
0.0
 11
-133.6146673901569
 21
35.29208189486964
 31
0.0
  0
LWPOLYLINE
  5
7F
330
70
100
AcDbEntity
  8
Standardebene
 62
     7
370
     9
100
AcDbPolyline
 90
        3
 70
     0
 43
0.0
 10
-133.326223739279
 20
35.79251269480296
 10
-133.1818415604657
 20
36.04247152937596
 10
-133.1818415604657
 20
36.54232505717363
  0
LINE
  5
80
330
70
100
AcDbEntity
  8
Standardebene
 62
     7
370
     9
100
AcDbLine
 10
-133.1818415604657
 20
37.54203559350049
 30
0.0
 11
-133.1818415604657
 21
38.5417391683643
 31
0.0
  0
LINE
  5
81
330
70
100
AcDbEntity
  8
Standardebene
 62
     7
370
     9
100
AcDbLine
 10
-133.1818415604657
 20
39.54266490957865
 30
0.0
 11
-133.1818415604657
 21
40.54301337865733
 31
0.0
  0
LINE
  5
82
330
70
100
AcDbEntity
  8
Standardebene
 62
     7
370
     9
100
AcDbLine
 10
-133.1818415604657
 20
41.54272043425267
 30
0.0
 11
-133.1818415604657
 21
42.542427489848
 31
0.0
  0
LINE
  5
83
330
70
100
AcDbEntity
  8
Standardebene
 62
     7
370
     9
100
AcDbLine
 10
-133.1818415604657
 20
43.542711817579
 30
0.0
 11
-133.1818415604657
 21
44.54242253075041
 31
0.0
  0
LINE
  5
84
330
70
100
AcDbEntity
  8
Standardebene
 62
     7
370
     9
100
AcDbLine
 10
-133.1818415604657
 20
45.54276734225303
 30
0.0
 11
-133.1818415604657
 21
46.54247439784836
 31
0.0
  0
LINE
  5
85
330
70
100
AcDbEntity
  8
Standardebene
 62
     7
370
     9
100
AcDbLine
 10
-133.1818415604657
 20
47.5421814534437
 30
0.0
 11
-133.1818415604657
 21
48.54252992252303
 31
0.0
  0
LINE
  5
86
330
70
100
AcDbEntity
  8
Standardebene
 62
     7
370
     9
100
AcDbLine
 10
-133.1818415604657
 20
49.54217283677003
 30
0.0
 11
-133.1818415604657
 21
50.54252130584871
 31
0.0
  0
LINE
  5
87
330
70
100
AcDbEntity
  8
Standardebene
 62
     7
370
     9
100
AcDbLine
 10
-133.1818415604657
 20
51.54222836144406
 30
0.0
 11
-133.1818415604657
 21
52.54193541703939
 31
0.0
  0
LINE
  5
88
330
70
100
AcDbEntity
  8
Standardebene
 62
     7
370
     9
100
AcDbLine
 10
-133.1818415604657
 20
53.54228388611872
 30
0.0
 11
-133.1818415604657
 21
54.54256821384907
 31
0.0
  0
LINE
  5
89
330
70
100
AcDbEntity
  8
Standardebene
 62
     7
370
     9
100
AcDbLine
 10
-133.1818415604657
 20
55.5422752694444
 30
0.0
 11
-133.1818415604657
 21
56.54198628575059
 31
0.0
  0
LINE
  5
8A
330
70
100
AcDbEntity
  8
Standardebene
 62
     7
370
     9
100
AcDbLine
 10
-133.1818415604657
 20
57.54297220760243
 30
0.0
 11
-133.1818415604657
 21
58.54267926319776
 31
0.0
  0
LINE
  5
8B
330
70
100
AcDbEntity
  8
Standardebene
 62
     7
370
     9
100
AcDbLine
 10
-133.1818415604657
 20
59.54238631879309
 30
0.0
 11
-133.1818415604657
 21
60.54209337438844
 31
0.0
  0
LINE
  5
8C
330
70
100
AcDbEntity
  8
Standardebene
 62
     7
370
     9
100
AcDbLine
 10
-133.1818415604657
 20
61.54180451700025
 30
0.0
 11
-133.1818415604657
 21
62.54272617119812
 31
0.0
  0
LINE
  5
8D
330
70
100
AcDbEntity
  8
Standardebene
 62
     7
370
     9
100
AcDbLine
 10
-133.1818415604657
 20
63.54243322679345
 30
0.0
 11
-133.1818415604657
 21
64.54214028238879
 31
0.0
  0
LINE
  5
8E
330
70
100
AcDbEntity
  8
Standardebene
 62
     7
370
     9
100
AcDbLine
 10
-133.1818415604657
 20
65.54248875146747
 30
0.0
 11
-133.1818415604657
 21
66.54219580706281
 31
0.0
  0
LWPOLYLINE
  5
8F
330
70
100
AcDbEntity
  8
Standardebene
 62
     7
370
     9
100
AcDbPolyline
 90
        3
 70
     0
 43
0.0
 10
-133.1818415604657
 20
67.5424801347938
 10
-133.1818415604657
 20
68.04169224910748
 10
-133.2366182733518
 20
68.1369421514275
  0
LINE
  5
90
330
70
100
AcDbEntity
  8
Standardebene
 62
     7
370
     9
100
AcDbLine
 10
-133.3468772539742
 20
68.3279593453038
 30
0.0
 11
-133.4013332601109
 21
68.42320498917422
 31
0.0
  0
LINE
  5
91
330
70
100
AcDbEntity
  8
Standardebene
 62
     7
370
     9
100
AcDbLine
 10
-133.4815099475904
 20
68.72261680333607
 30
0.0
 11
-133.4815099475904
 21
69.15294110950765
 31
0.0
  0
LINE
  5
92
330
70
100
AcDbEntity
  8
Standardebene
 62
     7
370
     9
100
AcDbLine
 10
-133.4815099475904
 20
70.01231119588286
 30
0.0
 11
-133.4815099475904
 21
70.44198978757108
 31
0.0
  0
LINE
  5
93
330
70
100
AcDbEntity
  8
Standardebene
 62
     7
370
     9
100
AcDbLine
 10
-132.8817883252401
 20
71.04209624286084
 30
0.0
 11
-132.4116963712081
 21
71.04209624286084
 31
0.0
  0
LINE
  5
94
330
70
100
AcDbEntity
  8
Standardebene
 62
     7
370
     9
100
AcDbLine
 10
-131.4711917563929
 20
71.04209624286084
 30
0.0
 11
-130.531264413728
 21
71.04209624286084
 31
0.0
  0
LINE
  5
95
330
70
100
AcDbEntity
  8
Standardebene
 62
     7
370
     9
100
AcDbLine
 10
-129.5917219191628
 20
71.04209624286084
 30
0.0
 11
-128.6518587178482
 21
71.04209624286084
 31
0.0
  0
LINE
  5
96
330
70
100
AcDbEntity
  8
Standardebene
 62
     7
370
     9
100
AcDbLine
 10
-127.711354103033
 20
71.04209624286084
 30
0.0
 11
-126.7714267603682
 21
71.04209624286084
 31
0.0
  0
LINE
  5
97
330
70
100
AcDbEntity
  8
Standardebene
 62
     7
370
     9
100
AcDbLine
 10
-125.831884265803
 20
71.04209624286084
 30
0.0
 11
-124.8917003577384
 21
71.04209624286084
 31
0.0
  0
LINE
  5
98
330
70
100
AcDbEntity
  8
Standardebene
 62
     7
370
     9
100
AcDbLine
 10
-123.9514523083229
 20
71.04209624286084
 30
0.0
 11
-123.4813603542909
 21
71.04209624286084
 31
0.0
  0
LINE
  5
99
330
70
100
AcDbEntity
  8
Standardebene
 62
     7
370
     9
100
AcDbLine
 10
-122.96181541942
 20
68.42320498917422
 30
0.0
 11
-123.0165921323068
 21
68.3279593453038
 31
0.0
  0
LWPOLYLINE
  5
9A
330
70
100
AcDbEntity
  8
Standardebene
 62
     7
370
     9
100
AcDbPolyline
 90
        3
 70
     0
 43
0.0
 10
-123.1265304061792
 20
68.1369421514275
 10
-123.1813712604156
 20
68.04169224910748
 10
-123.1813712604156
 20
67.5424801347938
  0
LINE
  5
9B
330
70
100
AcDbEntity
  8
Standardebene
 62
     7
370
     9
100
AcDbLine
 10
-123.1813712604156
 20
66.54219580706281
 30
0.0
 11
-123.1813712604156
 21
65.54248875146747
 31
0.0
  0
LINE
  5
9C
330
70
100
AcDbEntity
  8
Standardebene
 62
     7
370
     9
100
AcDbLine
 10
-123.1813712604156
 20
64.54214028238879
 30
0.0
 11
-123.1813712604156
 21
63.54243322679345
 31
0.0
  0
LINE
  5
9D
330
70
100
AcDbEntity
  8
Standardebene
 62
     7
370
     9
100
AcDbLine
 10
-123.1813712604156
 20
62.54272617119812
 30
0.0
 11
-123.1813712604156
 21
61.54180451700025
 31
0.0
  0
LINE
  5
9E
330
70
100
AcDbEntity
  8
Standardebene
 62
     7
370
     9
100
AcDbLine
 10
-123.1813712604156
 20
60.54209337438844
 30
0.0
 11
-123.1813712604156
 21
59.54238631879309
 31
0.0
  0
LINE
  5
9F
330
70
100
AcDbEntity
  8
Standardebene
 62
     7
370
     9
100
AcDbLine
 10
-123.1813712604156
 20
58.54267926319776
 30
0.0
 11
-123.1813712604156
 21
57.54297220760243
 31
0.0
  0
LINE
  5
A0
330
70
100
AcDbEntity
  8
Standardebene
 62
     7
370
     9
100
AcDbLine
 10
-123.1813712604156
 20
56.54198628575059
 30
0.0
 11
-123.1813712604156
 21
55.5422752694444
 31
0.0
  0
LINE
  5
A1
330
70
100
AcDbEntity
  8
Standardebene
 62
     7
370
     9
100
AcDbLine
 10
-123.1813712604156
 20
54.54256821384907
 30
0.0
 11
-123.1813712604156
 21
53.54228388611872
 31
0.0
  0
LINE
  5
A2
330
70
100
AcDbEntity
  8
Standardebene
 62
     7
370
     9
100
AcDbLine
 10
-123.1813712604156
 20
52.54193541703939
 30
0.0
 11
-123.1813712604156
 21
51.54222836144406
 31
0.0
  0
LINE
  5
A3
330
70
100
AcDbEntity
  8
Standardebene
 62
     7
370
     9
100
AcDbLine
 10
-123.1813712604156
 20
50.54252130584871
 30
0.0
 11
-123.1813712604156
 21
49.54217283677003
 31
0.0
  0
LINE
  5
A4
330
70
100
AcDbEntity
  8
Standardebene
 62
     7
370
     9
100
AcDbLine
 10
-123.1813712604156
 20
48.54252992252303
 30
0.0
 11
-123.1813712604156
 21
47.5421814534437
 31
0.0
  0
LINE
  5
A5
330
70
100
AcDbEntity
  8
Standardebene
 62
     7
370
     9
100
AcDbLine
 10
-123.1813712604156
 20
46.54247439784836
 30
0.0
 11
-123.1813712604156
 21
45.54276734225303
 31
0.0
  0
LINE
  5
A6
330
70
100
AcDbEntity
  8
Standardebene
 62
     7
370
     9
100
AcDbLine
 10
-123.1813712604156
 20
44.54242253075041
 30
0.0
 11
-123.1813712604156
 21
43.542711817579
 31
0.0
  0
LINE
  5
A7
330
70
100
AcDbEntity
  8
Standardebene
 62
     7
370
     9
100
AcDbLine
 10
-123.1813712604156
 20
42.542427489848
 30
0.0
 11
-123.1813712604156
 21
41.54272043425267
 31
0.0
  0
LINE
  5
A8
330
70
100
AcDbEntity
  8
Standardebene
 62
     7
370
     9
100
AcDbLine
 10
-123.1813712604156
 20
40.54301337865733
 30
0.0
 11
-123.1813712604156
 21
39.54266490957865
 31
0.0
  0
LINE
  5
A9
330
70
100
AcDbEntity
  8
Standardebene
 62
     7
370
     9
100
AcDbLine
 10
-123.1813712604156
 20
38.5417391683643
 30
0.0
 11
-123.1813712604156
 21
37.54203559350049
 31
0.0
  0
LWPOLYLINE
  5
AA
330
70
100
AcDbEntity
  8
Standardebene
 62
     7
370
     9
100
AcDbPolyline
 90
        3
 70
     0
 43
0.0
 10
-123.1813712604156
 20
36.54232505717363
 10
-123.1813712604156
 20
36.04247152937596
 10
-123.0369890816016
 20
35.79251269480296
  0
LINE
  5
AB
330
70
100
AcDbEntity
  8
Standardebene
 62
     7
370
     9
100
AcDbLine
 10
-122.7484812893741
 20
35.29208189486964
 30
0.0
 11
-122.6041632519098
 21
35.04212306029663
 31
0.0
  0
LINE
  5
AC
330
70
100
AcDbEntity
  8
Standardebene
 62
     7
370
     9
100
AcDbLine
 10
-123.1813712604156
 20
36.04247152937596
 30
0.0
 11
-123.6812248008406
 21
36.04247152937596
 31
0.0
  0
LINE
  5
AD
330
70
100
AcDbEntity
  8
Standardebene
 62
     7
370
     9
100
AcDbLine
 10
-124.6815091538411
 20
36.04247152937596
 30
0.0
 11
-125.6815369414405
 21
36.04247152937596
 31
0.0
  0
LINE
  5
AE
330
70
100
AcDbEntity
  8
Standardebene
 62
     7
370
     9
100
AcDbLine
 10
-126.6815647290405
 20
36.04247152937596
 30
0.0
 11
-127.6819132233906
 21
36.04247152937596
 31
0.0
  0
LINE
  5
AF
330
70
100
AcDbEntity
  8
Standardebene
 62
     7
370
     9
100
AcDbLine
 10
-128.6815561628904
 20
36.04247152937596
 30
0.0
 11
-129.6815839504911
 21
36.04247152937596
 31
0.0
  0
LINE
  5
B0
330
70
100
AcDbEntity
  8
Standardebene
 62
     7
370
     9
100
AcDbLine
 10
-130.6812910313405
 20
36.04247152937596
 30
0.0
 11
-131.6816395256906
 21
36.04247152937596
 31
0.0
  0
LINE
  5
B1
330
70
100
AcDbEntity
  8
Standardebene
 62
     7
370
     9
100
AcDbLine
 10
-132.6816673132906
 20
36.04247152937596
 30
0.0
 11
-133.1818415604657
 21
36.04247152937596
 31
0.0
  0
LINE
  5
B2
330
70
100
AcDbEntity
  8
Standardebene
 62
     7
370
     9
100
AcDbLine
 10
-133.1818415604657
 20
68.04169224910748
 30
0.0
 11
-132.6816673132906
 21
68.04169224910748
 31
0.0
  0
LINE
  5
B3
330
70
100
AcDbEntity
  8
Standardebene
 62
     7
370
     9
100
AcDbLine
 10
-131.6816395256906
 20
68.04169224910748
 30
0.0
 11
-130.6812910313405
 21
68.04169224910748
 31
0.0
  0
LINE
  5
B4
330
70
100
AcDbEntity
  8
Standardebene
 62
     7
370
     9
100
AcDbLine
 10
-129.6815839504911
 20
68.04169224910748
 30
0.0
 11
-128.6815561628904
 21
68.04169224910748
 31
0.0
  0
LINE
  5
B5
330
70
100
AcDbEntity
  8
Standardebene
 62
     7
370
     9
100
AcDbLine
 10
-127.6819132233906
 20
68.04169224910748
 30
0.0
 11
-126.6815647290405
 21
68.04169224910748
 31
0.0
  0
LINE
  5
B6
330
70
100
AcDbEntity
  8
Standardebene
 62
     7
370
     9
100
AcDbLine
 10
-125.6815369414405
 20
68.04169224910748
 30
0.0
 11
-124.6815091538411
 21
68.04169224910748
 31
0.0
  0
LINE
  5
B7
330
70
100
AcDbEntity
  8
Standardebene
 62
     7
370
     9
100
AcDbLine
 10
-123.6812248008406
 20
68.04169224910748
 30
0.0
 11
-123.1813712604156
 21
68.04169224910748
 31
0.0
  0
LINE
  5
B8
330
70
100
AcDbEntity
  8
Standardebene
 62
     7
370
     9
100
AcDbLine
 10
-122.8819594386907
 20
68.72261680333607
 30
0.0
 11
-122.8819594386907
 21
69.15294110950765
 31
0.0
  0
LINE
  5
B9
330
70
100
AcDbEntity
  8
Standardebene
 62
     7
370
     9
100
AcDbLine
 10
-122.8819594386907
 20
70.01231119588286
 30
0.0
 11
-122.8819594386907
 21
70.44198978757108
 31
0.0
  0
LINE
  5
BA
330
70
100
AcDbEntity
  8
Standardebene
 62
     7
370
     9
100
AcDbLine
 10
-122.8819594386907
 20
70.44198978757108
 30
0.0
 11
-122.9693199573684
 21
70.65500752272264
 31
0.0
  0
LINE
  5
BB
330
70
100
AcDbEntity
  8
Standardebene
 62
     7
370
     9
100
AcDbLine
 10
-123.269052485844
 20
70.95377360616422
 30
0.0
 11
-123.4813603542909
 21
71.04209624286084
 31
0.0
  0
LINE
  5
BC
330
70
100
AcDbEntity
  8
Standardebene
 62
     7
370
     9
100
AcDbLine
 10
-132.8817883252401
 20
71.04209624286084
 30
0.0
 11
-133.094096193687
 21
70.95377360616422
 31
0.0
  0
LINE
  5
BD
330
70
100
AcDbEntity
  8
Standardebene
 62
     7
370
     9
100
AcDbLine
 10
-133.3938287221626
 20
70.65500752272264
 30
0.0
 11
-133.4815099475904
 21
70.44198978757108
 31
0.0
  0
LINE
  5
BE
330
70
100
AcDbEntity
  8
Standardebene
 62
     7
370
     9
100
AcDbLine
 10
-133.4815099475904
 20
68.72261680333607
 30
0.0
 11
-133.4711831902434
 21
68.64494163046758
 31
0.0
  0
LINE
  5
BF
330
70
100
AcDbEntity
  8
Standardebene
 62
     7
370
     9
100
AcDbLine
 10
-133.4314155532534
 20
68.49523572338665
 30
0.0
 11
-133.4013332601109
 21
68.42320498917422
 31
0.0
  0
LINE
  5
C0
330
70
100
AcDbEntity
  8
Standardebene
 62
     7
370
     9
100
AcDbLine
 10
-122.96181541942
 20
68.42320498917422
 30
0.0
 11
-122.9317331262783
 21
68.49523572338665
 31
0.0
  0
LINE
  5
C1
330
70
100
AcDbEntity
  8
Standardebene
 62
     7
370
     9
100
AcDbLine
 10
-122.8919654892883
 20
68.64494163046758
 30
0.0
 11
-122.8819594386907
 21
68.72261680333607
 31
0.0
  0
SPLINE
  5
C2
330
70
100
AcDbEntity
  8
Standardebene
 62
     7
370
     9
100
AcDbSpline
210
0.0
220
0.0
230
1.0
 70
     8
 71
     3
 72
    17
 73
    13
 74
     0
 42
0.0000000001
 43
0.0000000001
 40
0.0
 40
0.0
 40
0.0
 40
0.0
 40
1.0
 40
1.0
 40
1.0
 40
2.0
 40
2.0
 40
2.0
 40
3.0
 40
3.0
 40
3.0
 40
4.0
 40
4.0
 40
4.0
 40
4.0
 10
-127.663697079995
 20
122.974652076251
 30
0.0
 10
-127.84162518485
 20
123.0222449567369
 30
0.0
 10
-128.0201305618567
 20
123.0435398843938
 30
0.0
 10
-128.1814460570656
 20
123.0423211987748
 30
0.0
 10
-129.2860242451394
 20
123.0423211987748
 30
0.0
 10
-130.1817581976655
 20
122.1465872688769
 30
0.0
 10
-130.1817581976655
 20
121.0429070875841
 30
0.0
 10
-130.1817581976655
 20
119.9373026658406
 30
0.0
 10
-129.2860242451394
 20
119.0422101494261
 30
0.0
 10
-128.1814460570656
 20
119.0422101494261
 30
0.0
 10
-127.2612742501956
 20
119.0422101494261
 30
0.0
 10
-126.4861260356395
 20
119.6636115323734
 30
0.0
 10
-126.2493803128487
 20
120.524907135255
 30
0.0
  0
SPLINE
  5
C3
330
70
100
AcDbEntity
  8
Standardebene
 62
     7
370
     9
100
AcDbSpline
210
0.0
220
0.0
230
1.0
 70
     8
 71
     3
 72
    17
 73
    13
 74
     0
 42
0.0000000001
 43
0.0000000001
 40
0.0
 40
0.0
 40
0.0
 40
0.0
 40
1.0
 40
1.0
 40
1.0
 40
2.0
 40
2.0
 40
2.0
 40
3.0
 40
3.0
 40
3.0
 40
4.0
 40
4.0
 40
4.0
 40
4.0
 10
-113.16178683807
 20
122.98280366664
 30
0.0
 10
-113.3402922150755
 20
123.0310323214627
 30
0.0
 10
-113.519759712331
 20
123.0535459347386
 30
0.0
 10
-113.6813317729409
 20
123.0516858356356
 30
0.0
 10
-114.790977127664
 20
123.0516858356356
 30
0.0
 10
-115.6910726919886
 20
122.1522317075329
 30
0.0
 10
-115.6910726919886
 20
121.0429070875841
 30
0.0
 10
-115.6910726919886
 20
119.9329410541519
 30
0.0
 10
-114.790977127664
 20
119.0328455125647
 30
0.0
 10
-113.6813317729409
 20
119.0328455125647
 30
0.0
 10
-112.7567983542718
 20
119.0328455125647
 30
0.0
 10
-111.9781865068165
 20
119.6579670937166
 30
0.0
 10
-111.7411200772756
 20
120.5224000456135
 30
0.0
  0
SPLINE
  5
C4
330
70
100
AcDbEntity
  8
Standardebene
 62
     7
370
     9
100
AcDbSpline
210
0.0
220
0.0
230
1.0
 70
     9
 71
     3
 72
    17
 73
    13
 74
     0
 42
0.0000000001
 43
0.0000000001
 40
0.0
 40
0.0
 40
0.0
 40
0.0
 40
1.0
 40
1.0
 40
1.0
 40
2.0
 40
2.0
 40
2.0
 40
3.0
 40
3.0
 40
3.0
 40
4.0
 40
4.0
 40
4.0
 40
4.0
 10
-111.6725529741426
 20
121.0429070875841
 30
0.0
 10
-111.6725529741426
 20
122.1522317075329
 30
0.0
 10
-112.5720071249678
 20
123.0516858356356
 30
0.0
 10
-113.6813317729409
 20
123.0516858356356
 30
0.0
 10
-114.790977127664
 20
123.0516858356356
 30
0.0
 10
-115.6910726919886
 20
122.1522317075329
 30
0.0
 10
-115.6910726919886
 20
121.0429070875841
 30
0.0
 10
-115.6910726919886
 20
119.9329410541519
 30
0.0
 10
-114.790977127664
 20
119.0328455125647
 30
0.0
 10
-113.6813317729409
 20
119.0328455125647
 30
0.0
 10
-112.5720071249678
 20
119.0328455125647
 30
0.0
 10
-111.6725529741426
 20
119.9329410541519
 30
0.0
 10
-111.6725529741426
 20
121.0429070875841
 30
0.0
  0
LINE
  5
C5
330
70
100
AcDbEntity
  8
Standardebene
 62
     7
370
     9
100
AcDbLine
 10
-61.91009012283313
 20
127.0417266932911
 30
0.0
 11
-61.91009012283313
 21
115.0421632414257
 31
0.0
  0
SPLINE
  5
C6
330
70
100
AcDbEntity
  8
Standardebene
 62
     7
370
     9
100
AcDbSpline
210
0.0
220
0.0
230
1.0
 70
     8
 71
     3
 72
    17
 73
    13
 74
     0
 42
0.0000000001
 43
0.0000000001
 40
0.0
 40
0.0
 40
0.0
 40
0.0
 40
1.0
 40
1.0
 40
1.0
 40
2.0
 40
2.0
 40
2.0
 40
3.0
 40
3.0
 40
3.0
 40
4.0
 40
4.0
 40
4.0
 40
4.0
 10
-40.03782563695126
 20
54.84762446666633
 30
0.0
 10
-40.24981279864816
 20
54.90464612536193
 30
0.0
 10
-40.46314692869475
 20
54.93094407819088
 30
0.0
 10
-40.65569926134687
 20
54.92844256560452
 30
0.0
 10
-41.97393228621723
 20
54.92844256560452
 30
0.0
 10
-43.04252717695028
 20
53.86048911535045
 30
0.0
 10
-43.04252717695028
 20
52.54193541703939
 30
0.0
 10
-43.04252717695028
 20
51.22402695858027
 30
0.0
 10
-41.97393228621723
 20
50.1560734813466
 30
0.0
 10
-40.65569926134687
 20
50.1560734813466
 30
0.0
 10
-39.55734278422269
 20
50.1560734813466
 30
0.0
 10
-38.63191138665314
 20
50.89767195173816
 30
0.0
 10
-38.3500101534729
 20
51.92431837364645
 30
0.0
  0
SPLINE
  5
C7
330
70
100
AcDbEntity
  8
Standardebene
 62
     7
370
     9
100
AcDbSpline
210
0.0
220
0.0
230
1.0
 70
     8
 71
     3
 72
    17
 73
    13
 74
     0
 42
0.0000000001
 43
0.0000000001
 40
0.0
 40
0.0
 40
0.0
 40
0.0
 40
1.0
 40
1.0
 40
1.0
 40
2.0
 40
2.0
 40
2.0
 40
3.0
 40
3.0
 40
3.0
 40
4.0
 40
4.0
 40
4.0
 40
4.0
 10
-40.03782563695126
 20
42.84741960131693
 30
0.0
 10
-40.24981279864816
 20
42.90379984652854
 30
0.0
 10
-40.46314692869475
 20
42.93073921284148
 30
0.0
 10
-40.65569926134687
 20
42.92887911373976
 30
0.0
 10
-41.97393228621723
 20
42.92887911373976
 30
0.0
 10
-43.04252717695028
 20
41.86028425000105
 30
0.0
 10
-43.04252717695028
 20
40.54301337865733
 30
0.0
 10
-43.04252717695028
 20
39.22382179008005
 30
0.0
 10
-41.97393228621723
 20
38.15586831284703
 30
0.0
 10
-40.65569926134687
 20
38.15586831284703
 30
0.0
 10
-39.55734278422269
 20
38.15586831284703
 30
0.0
 10
-38.63191138665314
 20
38.89810849987276
 30
0.0
 10
-38.3500101534729
 20
39.92475492178041
 30
0.0
  0
SPLINE
  5
C8
330
70
100
AcDbEntity
  8
Standardebene
 62
     7
370
     9
100
AcDbSpline
210
0.0
220
0.0
230
1.0
 70
     9
 71
     3
 72
    17
 73
    13
 74
     0
 42
0.0000000001
 43
0.0000000001
 40
0.0
 40
0.0
 40
0.0
 40
0.0
 40
1.0
 40
1.0
 40
1.0
 40
2.0
 40
2.0
 40
2.0
 40
3.0
 40
3.0
 40
3.0
 40
4.0
 40
4.0
 40
4.0
 40
4.0
 10
-38.71798907833145
 20
52.54193541703939
 30
0.0
 10
-38.71798907833145
 20
53.61245452122815
 30
0.0
 10
-39.58588568496464
 20
54.47996625784639
 30
0.0
 10
-40.65569926134687
 20
54.47996625784639
 30
0.0
 10
-41.72557697908
 20
54.47996625784639
 30
0.0
 10
-42.59340944436228
 20
53.61245452122815
 30
0.0
 10
-42.59340944436228
 20
52.54193541703939
 30
0.0
 10
-42.59340944436228
 20
51.47269913981798
 30
0.0
 10
-41.72557697908
 20
50.60518740319973
 30
0.0
 10
-40.65569926134687
 20
50.60518740319973
 30
0.0
 10
-39.58588568496464
 20
50.60518740319973
 30
0.0
 10
-38.71798907833145
 20
51.47269913981798
 30
0.0
 10
-38.71798907833145
 20
52.54193541703939
 30
0.0
  0
SPLINE
  5
C9
330
70
100
AcDbEntity
  8
Standardebene
 62
     7
370
     9
100
AcDbSpline
210
0.0
220
0.0
230
1.0
 70
     8
 71
     3
 72
     8
 73
     4
 74
     0
 42
0.0000000001
 43
0.0000000001
 40
0.0
 40
0.0
 40
0.0
 40
0.0
 40
1.0
 40
1.0
 40
1.0
 40
1.0
 10
-40.91412476043196
 20
51.06431499711957
 30
0.0
 10
-40.79167892331331
 20
51.04365766061373
 30
0.0
 10
-40.66948965159314
 20
51.03737563012707
 30
0.0
 10
-40.56115491147013
 20
51.04551775971609
 30
0.0
  0
LWPOLYLINE
  5
CA
330
70
100
AcDbEntity
  8
Standardebene
 62
     7
370
     9
100
AcDbPolyline
 90
        3
 70
     0
 43
0.0
 10
-40.91412476043196
 20
51.06431499711957
 10
-41.59594731076172
 20
51.10253941841168
 10
-41.90472376958484
 20
51.71201051056286
  0
SPLINE
  5
CB
330
70
100
AcDbEntity
  8
Standardebene
 62
     7
370
     9
100
AcDbSpline
210
0.0
220
0.0
230
1.0
 70
     8
 71
     3
 72
     8
 73
     4
 74
     0
 42
0.0000000001
 43
0.0000000001
 40
0.0
 40
0.0
 40
0.0
 40
0.0
 40
1.0
 40
1.0
 40
1.0
 40
1.0
 10
-42.06411502429552
 20
52.02707666037952
 30
0.0
 10
-42.02184587465563
 20
51.90995071161297
 30
0.0
 10
-41.96578633476947
 20
51.80219324636183
 30
0.0
 10
-41.90472376958484
 20
51.71201051056286
 30
0.0
  0
LWPOLYLINE
  5
CC
330
70
100
AcDbEntity
  8
Standardebene
 62
     7
370
     9
100
AcDbPolyline
 90
        3
 70
     0
 43
0.0
 10
-42.06411502429552
 20
52.02707666037952
 10
-42.37827935651611
 20
52.64776864183919
 10
-41.43116818265357
 20
54.09787624564399
  0
LINE
  5
CD
330
70
100
AcDbEntity
  8
Standardebene
 62
     7
370
     9
100
AcDbLine
 10
-39.7014683976356
 20
54.00204907118897
 30
0.0
 11
-41.43116818265357
 21
54.09787624564399
 31
0.0
  0
LINE
  5
CE
330
70
100
AcDbEntity
  8
Standardebene
 62
     7
370
     9
100
AcDbLine
 10
-38.91971362403164
 20
52.45739711989648
 30
0.0
 11
-39.7014683976356
 21
54.00204907118897
 31
0.0
  0
LINE
  5
CF
330
70
100
AcDbEntity
  8
Standardebene
 62
     7
370
     9
100
AcDbLine
 10
-39.86682479789418
 20
51.00671224395601
 30
0.0
 11
-38.91971362403164
 21
52.45739711989648
 31
0.0
  0
LINE
  5
D0
330
70
100
AcDbEntity
  8
Standardebene
 62
     7
370
     9
100
AcDbLine
 10
-39.86682479789418
 20
51.00671224395601
 30
0.0
 11
-40.56115491147013
 21
51.04551775971609
 31
0.0
  0
SPLINE
  5
D1
330
70
100
AcDbEntity
  8
Standardebene
 62
     7
370
     9
100
AcDbSpline
210
0.0
220
0.0
230
1.0
 70
     8
 71
     3
 72
    14
 73
    10
 74
     0
 42
0.0000000001
 43
0.0000000001
 40
0.0
 40
0.0
 40
0.0
 40
0.0
 40
1.0
 40
1.0
 40
1.0
 40
2.0
 40
2.0
 40
2.0
 40
3.0
 40
3.0
 40
3.0
 40
3.0
 10
-39.15556136792139
 20
52.54193541703939
 30
0.0
 10
-39.15556136792139
 20
53.37064163789756
 30
0.0
 10
-39.82731372630457
 20
54.04213741391639
 30
0.0
 10
-40.65569926134687
 20
54.04213741391639
 30
0.0
 10
-41.48408479639044
 20
54.04213741391639
 30
0.0
 10
-42.15590129612197
 20
53.37064163789756
 30
0.0
 10
-42.15590129612197
 20
52.54193541703939
 30
0.0
 10
-42.15590129612197
 20
52.35714419240375
 30
0.0
 10
-42.1220988046805
 20
52.18049891901053
 30
0.0
 10
-42.06411502429552
 20
52.02707666037952
 30
0.0
  0
SPLINE
  5
D2
330
70
100
AcDbEntity
  8
Standardebene
 62
     7
370
     9
100
AcDbSpline
210
0.0
220
0.0
230
1.0
 70
     8
 71
     3
 72
     8
 73
     4
 74
     0
 42
0.0000000001
 43
0.0000000001
 40
0.0
 40
0.0
 40
0.0
 40
0.0
 40
1.0
 40
1.0
 40
1.0
 40
1.0
 10
-41.90472376958484
 20
51.71201051056286
 30
0.0
 10
-41.66797804679401
 20
51.35557703770605
 30
0.0
 10
-41.30557941938436
 20
51.13319898292935
 30
0.0
 10
-40.91412476043196
 20
51.06431499711957
 30
0.0
  0
SPLINE
  5
D3
330
70
100
AcDbEntity
  8
Standardebene
 62
     7
370
     9
100
AcDbSpline
210
0.0
220
0.0
230
1.0
 70
     8
 71
     3
 72
     8
 73
     4
 74
     0
 42
0.0000000001
 43
0.0000000001
 40
0.0
 40
0.0
 40
0.0
 40
0.0
 40
1.0
 40
1.0
 40
1.0
 40
1.0
 10
-40.56115491147013
 20
51.04551775971609
 30
0.0
 10
-39.76785469486938
 20
51.09497073930429
 30
0.0
 10
-39.15710076032122
 20
51.75331753890865
 30
0.0
 10
-39.15556136792139
 20
52.54193541703939
 30
0.0
  0
SPLINE
  5
D4
330
70
100
AcDbEntity
  8
Standardebene
 62
     7
370
     9
100
AcDbSpline
210
0.0
220
0.0
230
1.0
 70
     9
 71
     3
 72
    17
 73
    13
 74
     0
 42
0.0000000001
 43
0.0000000001
 40
0.0
 40
0.0
 40
0.0
 40
0.0
 40
1.0
 40
1.0
 40
1.0
 40
2.0
 40
2.0
 40
2.0
 40
3.0
 40
3.0
 40
3.0
 40
4.0
 40
4.0
 40
4.0
 40
4.0
 10
-38.71798907833145
 20
40.54301337865733
 30
0.0
 10
-38.71798907833145
 20
41.61282692801441
 30
0.0
 10
-39.58588568496464
 20
42.479761392497
 30
0.0
 10
-40.65569926134687
 20
42.479761392497
 30
0.0
 10
-41.72557697908
 20
42.479761392497
 30
0.0
 10
-42.59340944436228
 20
41.61282692801441
 30
0.0
 10
-42.59340944436228
 20
40.54301337865733
 30
0.0
 10
-42.59340944436228
 20
39.47249427446922
 30
0.0
 10
-41.72557697908
 20
38.60498253785161
 30
0.0
 10
-40.65569926134687
 20
38.60498253785161
 30
0.0
 10
-39.58588568496464
 20
38.60498253785161
 30
0.0
 10
-38.71798907833145
 20
39.47249427446922
 30
0.0
 10
-38.71798907833145
 20
40.54301337865733
 30
0.0
  0
SPLINE
  5
D5
330
70
100
AcDbEntity
  8
Standardebene
 62
     7
370
     9
100
AcDbSpline
210
0.0
220
0.0
230
1.0
 70
     8
 71
     3
 72
     8
 73
     4
 74
     0
 42
0.0000000001
 43
0.0000000001
 40
0.0
 40
0.0
 40
0.0
 40
0.0
 40
1.0
 40
1.0
 40
1.0
 40
1.0
 10
-40.91412476043196
 20
39.06475124212003
 30
0.0
 10
-40.79167892331331
 20
39.04345279526433
 30
0.0
 10
-40.66948965159314
 20
39.03717046162685
 30
0.0
 10
-40.56115491147013
 20
39.0453128943667
 30
0.0
  0
LWPOLYLINE
  5
D6
330
70
100
AcDbEntity
  8
Standardebene
 62
     7
370
     9
100
AcDbPolyline
 90
        3
 70
     0
 43
0.0
 10
-40.91412476043196
 20
39.06475124212003
 10
-41.59594731076172
 20
39.10297596654564
 10
-41.90472376958484
 20
39.71244705869681
  0
SPLINE
  5
D7
330
70
100
AcDbEntity
  8
Standardebene
 62
     7
370
     9
100
AcDbSpline
210
0.0
220
0.0
230
1.0
 70
     8
 71
     3
 72
     8
 73
     4
 74
     0
 42
0.0000000001
 43
0.0000000001
 40
0.0
 40
0.0
 40
0.0
 40
0.0
 40
1.0
 40
1.0
 40
1.0
 40
1.0
 10
-42.06411502429552
 20
40.02751290537933
 30
0.0
 10
-42.02184587465563
 20
39.91032311839859
 30
0.0
 10
-41.96578633476947
 20
39.80198838101243
 30
0.0
 10
-41.90472376958484
 20
39.71244705869681
 30
0.0
  0
LWPOLYLINE
  5
D8
330
70
100
AcDbEntity
  8
Standardebene
 62
     7
370
     9
100
AcDbPolyline
 90
        3
 70
     0
 43
0.0
 10
-42.06411502429552
 20
40.02751290537933
 10
-42.37827935651611
 20
40.64762791783876
 10
-41.43116818265357
 20
42.0976713802946
  0
LINE
  5
D9
330
70
100
AcDbEntity
  8
Standardebene
 62
     7
370
     9
100
AcDbLine
 10
-39.7014683976356
 20
42.00248561932292
 30
0.0
 11
-41.43116818265357
 21
42.0976713802946
 31
0.0
  0
LINE
  5
DA
330
70
100
AcDbEntity
  8
Standardebene
 62
     7
370
     9
100
AcDbLine
 10
-38.91971362403164
 20
40.45719225454707
 30
0.0
 11
-39.7014683976356
 21
42.00248561932292
 31
0.0
  0
LINE
  5
DB
330
70
100
AcDbEntity
  8
Standardebene
 62
     7
370
     9
100
AcDbLine
 10
-39.86682479789418
 20
39.00708465074227
 30
0.0
 11
-38.91971362403164
 21
40.45719225454707
 31
0.0
  0
LINE
  5
DC
330
70
100
AcDbEntity
  8
Standardebene
 62
     7
370
     9
100
AcDbLine
 10
-39.86682479789418
 20
39.00708465074227
 30
0.0
 11
-40.56115491147013
 21
39.0453128943667
 31
0.0
  0
SPLINE
  5
DD
330
70
100
AcDbEntity
  8
Standardebene
 62
     7
370
     9
100
AcDbSpline
210
0.0
220
0.0
230
1.0
 70
     8
 71
     3
 72
    14
 73
    10
 74
     0
 42
0.0000000001
 43
0.0000000001
 40
0.0
 40
0.0
 40
0.0
 40
0.0
 40
1.0
 40
1.0
 40
1.0
 40
2.0
 40
2.0
 40
2.0
 40
3.0
 40
3.0
 40
3.0
 40
3.0
 10
-39.15556136792139
 20
40.54301337865733
 30
0.0
 10
-39.15556136792139
 20
41.3710781860315
 30
0.0
 10
-39.82731372630457
 20
42.04257396205034
 30
0.0
 10
-40.65569926134687
 20
42.04257396205034
 30
0.0
 10
-41.48408479639044
 20
42.04257396205034
 30
0.0
 10
-42.15590129612197
 20
41.3710781860315
 30
0.0
 10
-42.15590129612197
 20
40.54301337865733
 30
0.0
 10
-42.15590129612197
 20
40.35758074053834
 30
0.0
 10
-42.1220988046805
 20
40.18029405366113
 30
0.0
 10
-42.06411502429552
 20
40.02751290537933
 30
0.0
  0
SPLINE
  5
DE
330
70
100
AcDbEntity
  8
Standardebene
 62
     7
370
     9
100
AcDbSpline
210
0.0
220
0.0
230
1.0
 70
     8
 71
     3
 72
     8
 73
     4
 74
     0
 42
0.0000000001
 43
0.0000000001
 40
0.0
 40
0.0
 40
0.0
 40
0.0
 40
1.0
 40
1.0
 40
1.0
 40
1.0
 10
-41.90472376958484
 20
39.71244705869681
 30
0.0
 10
-41.66797804679401
 20
39.35601358584001
 30
0.0
 10
-41.30557941938436
 20
39.13299411757996
 30
0.0
 10
-40.91412476043196
 20
39.06475124212003
 30
0.0
  0
SPLINE
  5
DF
330
70
100
AcDbEntity
  8
Standardebene
 62
     7
370
     9
100
AcDbSpline
210
0.0
220
0.0
230
1.0
 70
     8
 71
     3
 72
     8
 73
     4
 74
     0
 42
0.0000000001
 43
0.0000000001
 40
0.0
 40
0.0
 40
0.0
 40
0.0
 40
1.0
 40
1.0
 40
1.0
 40
1.0
 10
-40.56115491147013
 20
39.0453128943667
 30
0.0
 10
-39.76785469486938
 20
39.09540728743889
 30
0.0
 10
-39.15710076032122
 20
39.75375408704324
 30
0.0
 10
-39.15556136792139
 20
40.54301337865733
 30
0.0
  0
LINE
  5
E0
330
70
100
AcDbEntity
  8
Standardebene
  6
AI-Linetype-0
 62
   250
370
     9
100
AcDbLine
 10
-128.1814460570656
 20
162.9486949207283
 30
0.0
 11
-128.1814460570656
 21
212.0146456130513
 31
0.0
  0
LINE
  5
E2
330
70
100
AcDbEntity
  8
Standardebene
  6
AI-Linetype-1
 62
   250
370
     9
100
AcDbLine
 10
-128.1814460570656
 20
33.02327748713047
 30
0.0
 11
-128.1814460570656
 21
153.8819946227892
 31
0.0
  0
LINE
  5
E4
330
70
100
AcDbEntity
  8
Standardebene
  6
AI-Linetype-2
 62
   250
370
     9
100
AcDbLine
 10
-40.65569926134687
 20
163.9072232306739
 30
0.0
 11
-40.65569926134687
 21
211.1472621591304
 31
0.0
  0
LINE
  5
E6
330
70
100
AcDbEntity
  8
Standardebene
  6
AI-Linetype-3
 62
   250
370
     9
100
AcDbLine
 10
-40.65569926134687
 20
33.60208564818493
 30
0.0
 11
-40.65569926134687
 21
154.4712611902058
 31
0.0
  0
LINE
  5
E8
330
70
100
AcDbEntity
  8
Standardebene
 62
     7
370
    35
100
AcDbLine
 10
-167.6816136176906
 20
203.0424896626006
 30
0.0
 11
-168.6809999917906
 21
202.0424619002629
 31
0.0
  0
LWPOLYLINE
  5
E9
330
70
100
AcDbEntity
  8
Standardebene
 62
     7
370
    35
100
AcDbPolyline
 90
        3
 70
     0
 43
0.0
 10
-168.6809999917906
 20
192.0423125595882
 10
-167.6816136176906
 20
191.0420282318578
 10
-156.1812619896154
 20
191.0420282318578
  0
LINE
  5
EA
330
70
100
AcDbEntity
  8
Standardebene
 62
     7
370
    35
100
AcDbLine
 10
-156.1812619896154
 20
203.0424896626006
 30
0.0
 11
-167.6816136176906
 21
203.0424896626006
 31
0.0
  0
LINE
  5
EB
330
70
100
AcDbEntity
  8
Standardebene
 62
     7
370
    35
100
AcDbLine
 10
-172.6816884143406
 20
191.0420282318578
 30
0.0
 11
-171.6813399199905
 21
192.0423125595882
 31
0.0
  0
LINE
  5
EC
330
70
100
AcDbEntity
  8
Standardebene
 62
     7
370
    35
100
AcDbLine
 10
-171.6813399199905
 20
202.0424619002629
 30
0.0
 11
-172.6816884143406
 21
203.0424896626006
 31
0.0
  0
LINE
  5
ED
330
70
100
AcDbEntity
  8
Standardebene
 62
     7
370
    35
100
AcDbLine
 10
-177.4816421990406
 20
191.0420282318578
 30
0.0
 11
-172.6816884143406
 21
191.0420282318578
 31
0.0
  0
LINE
  5
EE
330
70
100
AcDbEntity
  8
Standardebene
 62
     7
370
    35
100
AcDbLine
 10
-172.6816884143406
 20
203.0424896626006
 30
0.0
 11
-177.4816421990406
 21
203.0424896626006
 31
0.0
  0
LINE
  5
EF
330
70
100
AcDbEntity
  8
Standardebene
 62
     7
370
    35
100
AcDbLine
 10
-171.6813399199905
 20
192.0423125595882
 30
0.0
 11
-168.6809999917906
 21
192.0423125595882
 31
0.0
  0
LINE
  5
F0
330
70
100
AcDbEntity
  8
Standardebene
 62
     7
370
    35
100
AcDbLine
 10
-168.6809999917906
 20
202.0424619002629
 30
0.0
 11
-171.6813399199905
 21
202.0424619002629
 31
0.0
  0
LINE
  5
F1
330
70
100
AcDbEntity
  8
Standardebene
 62
     7
370
    35
100
AcDbLine
 10
-149.9409500496758
 20
187.2273498206281
 30
0.0
 11
-149.1814523245158
 21
188.5421191793855
 31
0.0
  0
LINE
  5
F2
330
70
100
AcDbEntity
  8
Standardebene
 62
     7
370
    35
100
AcDbLine
 10
-155.3819966274661
 20
188.5421191793855
 30
0.0
 11
-154.6221781955555
 21
187.2273498206281
 31
0.0
  0
LINE
  5
F3
330
70
100
AcDbEntity
  8
Standardebene
 62
     7
370
    35
100
AcDbLine
 10
-149.1814523245158
 20
205.5419497256339
 30
0.0
 11
-149.9409500496758
 21
206.8574887805719
 31
0.0
  0
LINE
  5
F4
330
70
100
AcDbEntity
  8
Standardebene
 62
     7
370
    35
100
AcDbLine
 10
-154.6221781955555
 20
206.8574887805719
 30
0.0
 11
-155.3819966274661
 21
205.5419497256339
 31
0.0
  0
LINE
  5
F5
330
70
100
AcDbEntity
  8
Standardebene
 62
     7
370
    35
100
AcDbLine
 10
-138.6811284840407
 20
209.4422568369289
 30
0.0
 11
-138.6811284840407
 21
209.0421431058366
 31
0.0
  0
LWPOLYLINE
  5
F6
330
70
100
AcDbEntity
  8
Standardebene
 62
     7
370
    35
100
AcDbPolyline
 90
        3
 70
     0
 43
0.0
 10
-117.6820201954903
 20
209.0421431058366
 10
-117.6820201954903
 20
209.4422568369289
 10
-118.1815530291653
 20
209.9425593541649
  0
LINE
  5
F7
330
70
100
AcDbEntity
  8
Standardebene
 62
     7
370
    35
100
AcDbLine
 10
-138.1815956503657
 20
209.9425593541649
 30
0.0
 11
-138.6811284840407
 21
209.4422568369289
 31
0.0
  0
LINE
  5
F8
330
70
100
AcDbEntity
  8
Standardebene
 62
     7
370
    35
100
AcDbLine
 10
-115.6813873481404
 20
185.0425030713185
 30
0.0
 11
-115.6813873481404
 21
209.0421431058366
 31
0.0
  0
LINE
  5
F9
330
70
100
AcDbEntity
  8
Standardebene
 62
     7
370
    35
100
AcDbLine
 10
-118.5783955615164
 20
37.30964800764749
 30
0.0
 11
-118.1815530291653
 21
40.54301337865733
 31
0.0
  0
LINE
  5
FA
330
70
100
AcDbEntity
  8
Standardebene
 62
     7
370
    35
100
AcDbLine
 10
-138.1815956503657
 20
184.5426495435208
 30
0.0
 11
-138.1815956503657
 21
127.0405080076728
 31
0.0
  0
LINE
  5
FB
330
70
100
AcDbEntity
  8
Standardebene
 62
     7
370
    35
100
AcDbLine
 10
-138.1815956503657
 20
115.0440287791251
 30
0.0
 11
-138.1815956503657
 21
56.04277021072543
 31
0.0
  0
LINE
  5
FC
330
70
100
AcDbEntity
  8
Standardebene
 62
     7
370
    35
100
AcDbLine
 10
-118.1815530291653
 20
40.54301337865733
 30
0.0
 11
-118.1815530291653
 21
115.0421632414257
 31
0.0
  0
LWPOLYLINE
  5
FD
330
70
100
AcDbEntity
  8
Standardebene
 62
     7
370
    35
100
AcDbPolyline
 90
        3
 70
     0
 43
0.0
 10
-118.1815530291653
 20
127.0417266932911
 10
-118.1815530291653
 20
184.5426495435208
 10
-118.6814065695909
 20
185.0425030713185
  0
LINE
  5
FE
330
70
100
AcDbEntity
  8
Standardebene
 62
     7
370
    35
100
AcDbLine
 10
-137.6817421099401
 20
185.0425030713185
 30
0.0
 11
-138.1815956503657
 21
184.5426495435208
 31
0.0
  0
LINE
  5
FF
330
70
100
AcDbEntity
  8
Standardebene
 62
     7
370
    35
100
AcDbLine
 10
-118.312786231233
 20
36.78721672522559
 30
0.0
 11
-118.5783955615164
 21
37.30964800764749
 31
0.0
  0
LINE
  5
100
330
70
100
AcDbEntity
  8
Standardebene
 62
     7
370
    35
100
AcDbLine
 10
-137.9194499529809
 20
37.045321511041
 30
0.0
 11
-138.050683155048
 21
36.78721672522559
 31
0.0
  0
LINE
  5
101
330
70
100
AcDbEntity
  8
Standardebene
 62
     7
370
    35
100
AcDbLine
 10
-138.1815956503657
 20
49.05424959976783
 30
0.0
 11
-138.1815956503657
 21
44.04198807324101
 31
0.0
  0
SPLINE
  5
102
330
70
100
AcDbEntity
  8
Standardebene
 62
     7
370
    35
100
AcDbSpline
210
0.0
220
0.0
230
1.0
 70
     8
 71
     3
 72
     8
 73
     4
 74
     0
 42
0.0000000001
 43
0.0000000001
 40
0.0
 40
0.0
 40
0.0
 40
0.0
 40
1.0
 40
1.0
 40
1.0
 40
1.0
 10
-155.3819966274661
 20
190.2418007696739
 30
0.0
 10
-155.3819966274661
 20
190.6839985747147
 30
0.0
 10
-155.7399695017257
 20
191.0420282318578
 30
0.0
 10
-156.1812619896154
 20
191.0420282318578
 30
0.0
  0
SPLINE
  5
103
330
70
100
AcDbEntity
  8
Standardebene
 62
     7
370
    35
100
AcDbSpline
210
0.0
220
0.0
230
1.0
 70
     8
 71
     3
 72
     8
 73
     4
 74
     0
 42
0.0000000001
 43
0.0000000001
 40
0.0
 40
0.0
 40
0.0
 40
0.0
 40
1.0
 40
1.0
 40
1.0
 40
1.0
 10
-156.1812619896154
 20
203.0424896626006
 30
0.0
 10
-155.7399695017257
 20
203.0424896626006
 30
0.0
 10
-155.3819966274661
 20
203.4007832345598
 30
0.0
 10
-155.3819966274661
 20
203.8420757113017
 30
0.0
  0
SPLINE
  5
104
330
70
100
AcDbEntity
  8
Standardebene
 62
     7
370
    35
100
AcDbSpline
210
0.0
220
0.0
230
1.0
 70
     8
 71
     3
 72
     8
 73
     4
 74
     0
 42
0.0000000001
 43
0.0000000001
 40
0.0
 40
0.0
 40
0.0
 40
0.0
 40
1.0
 40
1.0
 40
1.0
 40
1.0
 10
-178.6814702918407
 20
192.242433566483
 30
0.0
 10
-178.6814702918407
 20
191.5797251551899
 30
0.0
 10
-178.1443506270749
 20
191.0420282318578
 30
0.0
 10
-177.4816421990406
 20
191.0420282318578
 30
0.0
  0
SPLINE
  5
105
330
70
100
AcDbEntity
  8
Standardebene
 62
     7
370
    35
100
AcDbSpline
210
0.0
220
0.0
230
1.0
 70
     8
 71
     3
 72
     8
 73
     4
 74
     0
 42
0.0000000001
 43
0.0000000001
 40
0.0
 40
0.0
 40
0.0
 40
0.0
 40
1.0
 40
1.0
 40
1.0
 40
1.0
 10
-177.4816421990406
 20
203.0424896626006
 30
0.0
 10
-178.1443506270749
 20
203.0424896626006
 30
0.0
 10
-178.6814702918407
 20
202.5053700114035
 30
0.0
 10
-178.6814702918407
 20
201.8423408933688
 30
0.0
  0
SPLINE
  5
106
330
70
100
AcDbEntity
  8
Standardebene
 62
     7
370
    35
100
AcDbSpline
210
0.0
220
0.0
230
1.0
 70
     8
 71
     3
 72
    11
 73
     7
 74
     0
 42
0.0000000001
 43
0.0000000001
 40
0.0
 40
0.0
 40
0.0
 40
0.0
 40
1.0
 40
1.0
 40
1.0
 40
2.0
 40
2.0
 40
2.0
 40
2.0
 10
-138.050683155048
 20
36.78721672522559
 30
0.0
 10
-138.1411865998757
 20
36.61057145183236
 30
0.0
 10
-138.1828143360155
 20
36.42141861550802
 30
0.0
 10
-138.1815956503657
 20
36.24227182952843
 30
0.0
 10
-138.1815956503657
 20
35.57956341823537
 30
0.0
 10
-137.6444759855999
 20
35.04212306029663
 30
0.0
 10
-136.9817675575656
 20
35.04212306029663
 30
0.0
  0
SPLINE
  5
107
330
70
100
AcDbEntity
  8
Standardebene
 62
     7
370
    35
100
AcDbSpline
210
0.0
220
0.0
230
1.0
 70
     8
 71
     3
 72
     8
 73
     4
 74
     0
 42
0.0000000001
 43
0.0000000001
 40
0.0
 40
0.0
 40
0.0
 40
0.0
 40
1.0
 40
1.0
 40
1.0
 40
1.0
 10
-118.1815530291653
 20
36.24227182952843
 30
0.0
 10
-118.1815530291653
 20
36.44143071619756
 30
0.0
 10
-118.2301080311037
 20
36.62872345341955
 30
0.0
 10
-118.312786231233
 20
36.78721672522559
 30
0.0
  0
SPLINE
  5
108
330
70
100
AcDbEntity
  8
Standardebene
 62
     7
370
    35
100
AcDbSpline
210
0.0
220
0.0
230
1.0
 70
     8
 71
     3
 72
     8
 73
     4
 74
     0
 42
0.0000000001
 43
0.0000000001
 40
0.0
 40
0.0
 40
0.0
 40
0.0
 40
1.0
 40
1.0
 40
1.0
 40
1.0
 10
-119.3813811219654
 20
35.04212306029663
 30
0.0
 10
-118.7186726939317
 20
35.04212306029663
 30
0.0
 10
-118.1815530291653
 20
35.57956341823537
 30
0.0
 10
-118.1815530291653
 20
36.24227182952843
 30
0.0
  0
LWPOLYLINE
  5
109
330
70
100
AcDbEntity
  8
Standardebene
 62
     7
370
    35
100
AcDbPolyline
 90
       15
 70
     0
 43
0.0
 10
-138.1815956503657
 20
56.04277021072543
 10
-138.1183522792812
 20
55.85862039957443
 10
-137.9557539570716
 20
55.33182750546317
 10
-137.7499885063237
 20
54.49183240729353
 10
-137.6566628420968
 20
53.9656809266669
 10
-137.5877750322137
 20
53.39507949162415
 10
-137.5533311272729
 20
52.81819220444134
 10
-137.554549812922
 20
52.23251755253341
 10
-137.6497997176484
 20
51.16263986182801
 10
-137.8317687275532
 20
50.22309739099797
 10
-137.9376019550263
 20
49.81656952506899
 10
-138.0347119589019
 20
49.48585673290676
 10
-138.1139265261325
 20
49.24025951002247
 10
-138.1653037474696
 20
49.08997633080653
 10
-138.1809542368657
 20
49.04296072245571
  0
LWPOLYLINE
  5
10A
330
70
100
AcDbEntity
  8
Standardebene
 62
     7
370
    35
100
AcDbPolyline
 90
       12
 70
     0
 43
0.0
 10
-128.1814460570656
 20
184.5426495435208
 10
-129.6048708959097
 20
184.5426495435208
 10
-130.998598289711
 20
184.5426495435208
 10
-132.3358812955272
 20
184.5426495435208
 10
-133.5880487299144
 20
184.5426495435208
 10
-134.7298930423283
 20
184.5426495435208
 10
-135.7387081948768
 20
184.5426495435208
 10
-136.5943538036629
 20
184.5426495435208
 10
-137.2780364531412
 20
184.5426495435208
 10
-137.7766071665668
 20
184.5426495435208
 10
-138.079482621191
 20
184.5426495435208
 10
-138.1815956503657
 20
184.5426495435208
  0
LWPOLYLINE
  5
10B
330
70
100
AcDbEntity
  8
Standardebene
 62
     7
370
    35
100
AcDbPolyline
 90
       12
 70
     0
 43
0.0
 10
-118.1815530291653
 20
184.5426495435208
 10
-118.28302464484
 20
184.5426495435208
 10
-118.5865415129642
 20
184.5426495435208
 10
-119.0851122263898
 20
184.5426495435208
 10
-119.7687948758687
 20
184.5426495435208
 10
-120.6244404846549
 20
184.5426495435208
 10
-121.6326142237027
 20
184.5426495435208
 10
-122.7751640909675
 20
184.5426495435208
 10
-124.0272673840038
 20
184.5426495435208
 10
-125.3639731176696
 20
184.5426495435208
 10
-126.7582777836213
 20
184.5426495435208
 10
-128.1814460570656
 20
184.5426495435208
  0
LWPOLYLINE
  5
10C
330
70
100
AcDbEntity
  8
Standardebene
 62
     7
370
    35
100
AcDbPolyline
 90
       20
 70
     0
 43
0.0
 10
-137.5492260808735
 20
40.54301337865733
 10
-136.9375741674268
 20
40.54301337865733
 10
-136.1383088052763
 20
40.54301337865733
 10
-135.1686840175687
 20
40.54301337865733
 10
-134.0493533189986
 20
40.54301337865733
 10
-132.80443385716
 20
40.54301337865733
 10
-131.4608649990459
 20
40.54301337865733
 10
-130.04584267705
 20
40.54301337865733
 10
-128.5910527180634
 20
40.54301337865733
 10
-127.1285016557287
 20
40.54301337865733
 10
-125.687502086989
 20
40.54301337865733
 10
-124.3003812522356
 20
40.54301337865733
 10
-122.9965800311122
 20
40.54301337865733
 10
-121.8036150627598
 20
40.54301337865733
 10
-120.7472070285242
 20
40.54301337865733
 10
-119.8502543903482
 20
40.54301337865733
 10
-119.1327051080775
 20
40.54301337865733
 10
-118.6078364411588
 20
40.54301337865733
 10
-118.2889897903891
 20
40.54301337865733
 10
-118.1815530291653
 20
40.54301337865733
  0
LWPOLYLINE
  5
10D
330
70
100
AcDbEntity
  8
Standardebene
 62
     7
370
    35
100
AcDbPolyline
 90
       33
 70
     0
 43
0.0
 10
-138.177169897217
 20
44.0300577824449
 10
-138.177169897217
 20
44.0287749554782
 10
-138.0857684734895
 20
43.75758533459665
 10
-137.9075196618839
 20
43.15876170627425
 10
-137.8023278479101
 20
42.73408183875871
 10
-137.7023956246353
 20
42.24609446040817
 10
-137.6206795447561
 20
41.69742936650566
 10
-137.5664801040191
 20
41.11239612808108
 10
-137.5492260808735
 20
40.54301337865733
 10
-137.4696908068935
 20
39.44497763602062
 10
-137.511061977633
 20
38.45713672987241
 10
-137.6190760110066
 20
37.67102036432802
 10
-137.6902087681385
 20
37.30964800764749
 10
-137.3835489738649
 20
37.30964800764749
 10
-136.8690070642932
 20
37.30964800764749
 10
-136.1593471680712
 20
37.30964800764749
 10
-135.2701556332434
 20
37.30964800764749
 10
-134.2222142572055
 20
37.30964800764749
 10
-133.0383573605515
 20
37.30964800764749
 10
-131.7448828967757
 20
37.30964800764749
 10
-130.372193865768
 20
37.30964800764749
 10
-128.9493462990737
 20
37.30964800764749
 10
-127.5093088505841
 20
37.30964800764749
 10
-126.0842804779899
 20
37.30964800764749
 10
-124.7072298351837
 20
37.30964800764749
 10
-123.4077902258588
 20
37.30964800764749
 10
-122.215787377757
 20
37.30964800764749
 10
-121.1575192443716
 20
37.30964800764749
 10
-120.257102973297
 20
37.30964800764749
 10
-119.5358334927266
 20
37.30964800764749
 10
-119.008078465059
 20
37.30964800764749
 10
-118.6864095948894
 20
37.30964800764749
 10
-118.5783955615164
 20
37.30964800764749
  0
LWPOLYLINE
  5
10E
330
70
100
AcDbEntity
  8
Standardebene
 62
     7
370
    35
100
AcDbPolyline
 90
        3
 70
     0
 43
0.0
 10
-137.6902087681385
 20
37.30964800764749
 10
-137.8853267547894
 20
37.08284419983374
 10
-137.8937934129872
 20
37.07283814948897
  0
LWPOLYLINE
  5
10F
330
70
100
AcDbEntity
  8
Standardebene
 62
     7
370
    35
100
AcDbPolyline
 90
       21
 70
     0
 43
0.0
 10
-136.9817675575656
 20
35.04212306029663
 10
-136.8730479693423
 20
35.04212306029663
 10
-136.5511225337736
 20
35.04212306029663
 10
-136.0221488204556
 20
35.04212306029663
 10
-135.3005586331358
 20
35.04212306029663
 10
-134.4038625603602
 20
35.04212306029663
 10
-133.3540610851726
 20
35.04212306029663
 10
-132.1768107475671
 20
35.04212306029663
 10
-130.901167579086
 20
35.04212306029663
 10
-129.5581759931218
 20
35.04212306029663
 10
-128.1814460570656
 20
35.04212306029663
 10
-126.8049726864099
 20
35.04212306029663
 10
-125.4619811004449
 20
35.04212306029663
 10
-124.1866586387139
 20
35.04212306029663
 10
-123.0090875943597
 20
35.04212306029663
 10
-121.9592861191707
 20
35.04212306029663
 10
-121.0625900463959
 20
35.04212306029663
 10
-120.3404225869263
 20
35.04212306029663
 10
-119.812346852508
 20
35.04212306029663
 10
-119.4901007101887
 20
35.04212306029663
 10
-119.3813811219654
 20
35.04212306029663
  0
LINE
  5
110
330
70
100
AcDbEntity
  8
Standardebene
 62
     7
370
    35
100
AcDbLine
 10
-127.9314872161783
 20
126.8425678066227
 30
0.0
 11
-127.9314872161783
 21
127.0417266932911
 31
0.0
  0
LWPOLYLINE
  5
111
330
70
100
AcDbEntity
  8
Standardebene
 62
     7
370
    35
100
AcDbPolyline
 90
        3
 70
     0
 43
0.0
 10
-128.4316614633533
 20
126.8425678066227
 10
-128.1814460570656
 20
126.8425678066227
 10
-127.9314872161783
 20
126.8425678066227
  0
LINE
  5
112
330
70
100
AcDbEntity
  8
Standardebene
 62
     7
370
    35
100
AcDbLine
 10
-128.4316614633533
 20
127.0417266932911
 30
0.0
 11
-128.4316614633533
 21
126.8425678066227
 31
0.0
  0
LWPOLYLINE
  5
113
330
70
100
AcDbEntity
  8
Standardebene
 62
     7
370
    35
100
AcDbPolyline
 90
       14
 70
     0
 43
0.0
 10
-128.4316614633533
 20
127.0417266932911
 10
-130.7151576641322
 20
127.0417266932911
 10
-132.9697902574185
 20
127.0417266932911
 10
-135.1683633108186
 20
127.0417266932911
 10
-137.2865031113396
 20
127.0417266932911
 10
-139.2984248362865
 20
127.0417266932911
 10
-141.1816148718156
 20
127.0417266932911
 10
-141.1816148718156
 20
115.0421632414257
 10
-139.2984248362865
 20
115.0421632414257
 10
-137.2865031113396
 20
115.0421632414257
 10
-135.1683633108186
 20
115.0421632414257
 10
-132.9697902574185
 20
115.0421632414257
 10
-130.7151576641322
 20
115.0421632414257
 10
-128.4316614633533
 20
115.0421632414257
  0
LINE
  5
114
330
70
100
AcDbEntity
  8
Standardebene
 62
     7
370
    35
100
AcDbLine
 10
-128.4316614633533
 20
115.2419635415788
 30
0.0
 11
-128.4316614633533
 21
115.0421632414257
 31
0.0
  0
LWPOLYLINE
  5
115
330
70
100
AcDbEntity
  8
Standardebene
 62
     7
370
    35
100
AcDbPolyline
 90
        3
 70
     0
 43
0.0
 10
-127.9314872161783
 20
115.2419635415788
 10
-128.1814460570656
 20
115.2419635415788
 10
-128.4316614633533
 20
115.2419635415788
  0
LINE
  5
116
330
70
100
AcDbEntity
  8
Standardebene
 62
     7
370
    35
100
AcDbLine
 10
-127.9314872161783
 20
115.0421632414257
 30
0.0
 11
-127.9314872161783
 21
115.2419635415788
 31
0.0
  0
LWPOLYLINE
  5
117
330
70
100
AcDbEntity
  8
Standardebene
 62
     7
370
    35
100
AcDbPolyline
 90
       16
 70
     0
 43
0.0
 10
-127.9314872161783
 20
115.0421632414257
 10
-125.7942974347122
 20
115.0421632414257
 10
-123.6824434864904
 20
115.0421632414257
 10
-121.6153602005571
 20
115.0421632414257
 10
-119.6144066464572
 20
115.0421632414257
 10
-117.7014550245357
 20
115.0421632414257
 10
-115.8943366300873
 20
115.0421632414257
 10
-114.2119090200077
 20
115.0421632414257
 10
-112.6716186414932
 20
115.0421632414257
 10
-111.2886028531386
 20
115.0421632414257
 10
-110.077165175992
 20
115.0421632414257
 10
-109.0495566078988
 20
115.0421632414257
 10
-108.2161680475574
 20
115.0421632414257
 10
-107.5854020118146
 20
115.0421632414257
 10
-107.1635443529698
 20
115.0421632414257
 10
-106.9549566828225
 20
115.0421632414257
  0
LINE
  5
118
330
70
100
AcDbEntity
  8
Standardebene
 62
     7
370
    35
100
AcDbLine
 10
-106.9549566828225
 20
127.0417266932911
 30
0.0
 11
-106.9549566828225
 21
115.0421632414257
 31
0.0
  0
LWPOLYLINE
  5
119
330
70
100
AcDbEntity
  8
Standardebene
 62
     7
370
    35
100
AcDbPolyline
 90
       16
 70
     0
 43
0.0
 10
-106.9549566828225
 20
127.0417266932911
 10
-107.1635443529698
 20
127.0417266932911
 10
-107.5854020118146
 20
127.0417266932911
 10
-108.2161680475574
 20
127.0417266932911
 10
-109.0495566078988
 20
127.0417266932911
 10
-110.077165175992
 20
127.0417266932911
 10
-111.2886028531386
 20
127.0417266932911
 10
-112.6716186414932
 20
127.0417266932911
 10
-114.2119090200077
 20
127.0417266932911
 10
-115.8943366300873
 20
127.0417266932911
 10
-117.7014550245357
 20
127.0417266932911
 10
-119.6144066464572
 20
127.0417266932911
 10
-121.6153602005571
 20
127.0417266932911
 10
-123.6824434864904
 20
127.0417266932911
 10
-125.7942974347122
 20
127.0417266932911
 10
-127.9314872161783
 20
127.0417266932911
  0
LWPOLYLINE
  5
11A
330
70
100
AcDbEntity
  8
Standardebene
 62
     7
370
    35
100
AcDbPolyline
 90
       25
 70
     0
 43
0.0
 10
-111.5817288225656
 20
121.0429070875841
 10
-111.6465757273995
 20
121.5615540304523
 10
-111.8187952521064
 20
122.0112490238294
 10
-112.2212822232554
 20
122.5511908943545
 10
-112.5792550975157
 20
122.8299491943428
 10
-112.9741733893674
 20
123.0197434441505
 10
-113.4076406325593
 20
123.123716569848
 10
-113.8592598777959
 20
123.1350054471601
 10
-114.6582045331965
 20
122.9013441521612
 10
-115.2231615438552
 20
122.4679354241783
 10
-115.5789536122163
 20
121.9417198022034
 10
-115.7672084744196
 20
121.2890815826034
 10
-115.7502751580234
 20
120.683977683215
 10
-115.5814551248662
 20
120.1478145711696
 10
-115.2767195710915
 20
119.6761190953038
 10
-114.8288846655035
 20
119.2833816192733
 10
-114.0784950120414
 20
118.9802496069068
 10
-113.6033358913601
 20
118.9438814623847
 10
-113.1429934225253
 20
119.0127692705274
 10
-112.704843860785
 20
119.1831928331296
 10
-112.3061412292846
 20
119.4556708310219
 10
-111.886785083089
 20
119.9510930557385
 10
-111.6697307547434
 20
120.4409405331913
 10
-111.5867318478647
 20
120.8932011805032
 10
-111.5817288225656
 20
121.0429070875841
  0
LWPOLYLINE
  5
11B
330
70
100
AcDbEntity
  8
Standardebene
 62
     7
370
    35
100
AcDbPolyline
 90
       20
 70
     0
 43
0.0
 10
-128.1814460570656
 20
123.2427629124112
 10
-128.9070771494345
 20
123.1187135446759
 10
-129.5513128686728
 20
122.7635628987865
 10
-130.0436618711501
 20
122.2136149779166
 10
-130.3267817899795
 20
121.5301889111023
 10
-130.3671908404689
 20
120.7935896664944
 10
-130.1636061956201
 20
120.0876499864049
 10
-129.7376434903766
 20
119.4876076724628
 10
-129.1354203553771
 20
119.0597848788776
 10
-128.424156925405
 20
118.8555588256881
 10
-127.6887763478383
 20
118.8981486810012
 10
-127.0104174304078
 20
119.1794084935759
 10
-126.4610467677956
 20
119.6704746566478
 10
-126.1037153070347
 20
120.3188154059074
 10
-125.981269469916
 20
121.0472686992728
 10
-126.1062168196846
 20
121.7720017944335
 10
-126.4626503015457
 20
122.4146981050364
 10
-127.0129189430577
 20
122.9057642681083
 10
-127.6972430060367
 20
123.188242766302
 10
-128.1814460570656
 20
123.2427629124112
  0
SPLINE
  5
11C
330
70
100
AcDbEntity
  8
Standardebene
 62
     7
370
    35
100
AcDbSpline
210
0.0
220
0.0
230
1.0
 70
     9
 71
     3
 72
    17
 73
    13
 74
     0
 42
0.0000000001
 43
0.0000000001
 40
0.0
 40
0.0
 40
0.0
 40
0.0
 40
1.0
 40
1.0
 40
1.0
 40
2.0
 40
2.0
 40
2.0
 40
3.0
 40
3.0
 40
3.0
 40
4.0
 40
4.0
 40
4.0
 40
4.0
 10
-126.5315381114281
 20
121.0429070875841
 30
0.0
 10
-126.5315381114281
 20
121.9536500929988
 30
0.0
 10
-127.2700616151434
 20
122.692173578058
 30
0.0
 10
-128.1814460570656
 20
122.692173578058
 30
0.0
 10
-129.0928304989879
 20
122.692173578058
 30
0.0
 10
-129.8316105681029
 20
121.9536500929988
 30
0.0
 10
-129.8316105681029
 20
121.0429070875841
 30
0.0
 10
-129.8316105681029
 20
120.130881255202
 30
0.0
 10
-129.0928304989879
 20
119.3923577701428
 30
0.0
 10
-128.1814460570656
 20
119.3923577701428
 30
0.0
 10
-127.2700616151434
 20
119.3923577701428
 30
0.0
 10
-126.5315381114281
 20
120.130881255202
 30
0.0
 10
-126.5315381114281
 20
121.0429070875841
 30
0.0
  0
LINE
  5
11D
330
70
100
AcDbEntity
  8
Standardebene
 62
     7
370
    35
100
AcDbLine
 10
-149.1814523245158
 20
209.0421431058366
 30
0.0
 11
-149.1814523245158
 21
185.0425030713185
 31
0.0
  0
LWPOLYLINE
  5
11E
330
70
100
AcDbEntity
  8
Standardebene
 62
     7
370
    35
100
AcDbPolyline
 90
       25
 70
     0
 43
0.0
 10
-115.6813873481404
 20
209.0421431058366
 10
-115.7878619891142
 20
209.0421431058366
 10
-116.1051051061351
 20
209.0421431058366
 10
-116.6297172076534
 20
209.0421431058366
 10
-117.3556690067722
 20
209.0421431058366
 10
-118.2743014212424
 20
209.0421431058366
 10
-119.3748387042677
 20
209.0421431058366
 10
-120.6435546069503
 20
209.0421431058366
 10
-122.0667228803946
 20
209.0421431058366
 10
-123.6270253601043
 20
209.0421431058366
 10
-125.3054120651342
 20
209.0421431058366
 10
-127.0830895799408
 20
209.0421431058366
 10
-128.9383781282267
 20
209.0421431058366
 10
-130.8494696509983
 20
209.0421431058366
 10
-132.7941070998123
 20
209.0421431058366
 10
-134.7496485781237
 20
209.0421431058366
 10
-136.6917203729382
 20
209.0421431058366
 10
-138.5990916974115
 20
209.0421431058366
 10
-140.4484792414991
 20
209.0421431058366
 10
-142.2170486846066
 20
209.0421431058366
 10
-143.8860066111893
 20
209.0421431058366
 10
-145.4341222344022
 20
209.0421431058366
 10
-146.8435001175996
 20
209.0421431058366
 10
-148.0972069443867
 20
209.0421431058366
 10
-149.1814523245158
 20
209.0421431058366
  0
LWPOLYLINE
  5
11F
330
70
100
AcDbEntity
  8
Standardebene
 62
     7
370
    35
100
AcDbPolyline
 90
       25
 70
     0
 43
0.0
 10
-149.1814523245158
 20
185.0425030713185
 10
-148.0972069443867
 20
185.0425030713185
 10
-146.8435001175996
 20
185.0425030713185
 10
-145.4341222344022
 20
185.0425030713185
 10
-143.8860066111893
 20
185.0425030713185
 10
-142.2170486846066
 20
185.0425030713185
 10
-140.4484792414991
 20
185.0425030713185
 10
-138.5990916974115
 20
185.0425030713185
 10
-136.6917203729382
 20
185.0425030713185
 10
-134.7496485781237
 20
185.0425030713185
 10
-132.7941070998123
 20
185.0425030713185
 10
-130.8494696509983
 20
185.0425030713185
 10
-128.9383781282267
 20
185.0425030713185
 10
-127.0830895799408
 20
185.0425030713185
 10
-125.3054120651342
 20
185.0425030713185
 10
-123.6270253601043
 20
185.0425030713185
 10
-122.0667228803946
 20
185.0425030713185
 10
-120.6435546069503
 20
185.0425030713185
 10
-119.3748387042677
 20
185.0425030713185
 10
-118.2743014212424
 20
185.0425030713185
 10
-117.3556690067722
 20
185.0425030713185
 10
-116.6297172076534
 20
185.0425030713185
 10
-116.1051051061351
 20
185.0425030713185
 10
-115.7878619891142
 20
185.0425030713185
 10
-115.6813873481404
 20
185.0425030713185
  0
LWPOLYLINE
  5
120
330
70
100
AcDbEntity
  8
Standardebene
 62
     7
370
    35
100
AcDbPolyline
 90
       18
 70
     0
 43
0.0
 10
-167.6816136176906
 20
203.0424896626006
 10
-167.6816136176906
 20
202.9397993638705
 10
-167.6816136176906
 20
202.6372446236389
 10
-167.6816136176906
 20
202.1436769479813
 10
-167.6816136176906
 20
201.4762220769095
 10
-167.6816136176906
 20
200.6578426131378
 10
-167.6816136176906
 20
199.7167607499471
 10
-167.6816136176906
 20
198.6844698893827
 10
-167.6816136176906
 20
197.5957987836068
 10
-167.6816136176906
 20
196.4883984041093
 10
-167.6816136176906
 20
195.4003687118173
 10
-167.6816136176906
 20
194.3677571445113
 10
-167.6816136176906
 20
193.42629043323
 10
-167.6816136176906
 20
192.6082390742339
 10
-167.6816136176906
 20
191.9408409464771
 10
-167.6816136176906
 20
191.4472806395246
 10
-167.6816136176906
 20
191.1440771171039
 10
-167.6816136176906
 20
191.0420282318578
  0
LWPOLYLINE
  5
121
330
70
100
AcDbEntity
  8
Standardebene
 62
     7
370
    35
100
AcDbPolyline
 90
        8
 70
     0
 43
0.0
 10
-149.9409500496758
 20
192.1347402425802
 10
-154.6221781955555
 20
192.1347402425802
 10
-155.1734089573175
 20
190.9326672328976
 10
-155.3277971867285
 20
190.308828478713
 10
-155.3819966274661
 20
189.6812053849753
 10
-155.377314308917
 20
189.5067409174261
 10
-155.1514726156235
 20
188.3651531992506
 10
-154.6221781955555
 20
187.2273498206281
  0
LINE
  5
122
330
70
100
AcDbEntity
  8
Standardebene
 62
     7
370
    35
100
AcDbLine
 10
-149.9409500496758
 20
187.2273498206281
 30
0.0
 11
-154.6221781955555
 21
187.2273498206281
 31
0.0
  0
LWPOLYLINE
  5
123
330
70
100
AcDbEntity
  8
Standardebene
 62
     7
370
    35
100
AcDbPolyline
 90
        4
 70
     0
 43
0.0
 10
-149.1814523245158
 20
189.6812053849753
 10
-149.186134643065
 20
189.5067409174261
 10
-149.4113349228584
 20
188.3651531992506
 10
-149.9409500496758
 20
187.2273498206281
  0
LWPOLYLINE
  5
124
330
70
100
AcDbEntity
  8
Standardebene
 62
     7
370
    35
100
AcDbPolyline
 90
        4
 70
     0
 43
0.0
 10
-149.9409500496758
 20
192.1347402425802
 10
-149.3897192879137
 20
190.9326672328976
 10
-149.2353310585022
 20
190.308828478713
 10
-149.1814523245158
 20
189.6812053849753
  0
LWPOLYLINE
  5
125
330
70
100
AcDbEntity
  8
Standardebene
 62
     7
370
    35
100
AcDbPolyline
 90
        8
 70
     0
 43
0.0
 10
-149.9409500496758
 20
201.9494569451359
 10
-154.6221781955555
 20
201.9494569451359
 10
-155.1734089573175
 20
199.5454392084676
 10
-155.3277971867285
 20
198.2976975587499
 10
-155.3819966274661
 20
197.0423872299256
 10
-155.377314308917
 20
196.6932017294351
 10
-155.1514726156235
 20
194.4103469998244
 10
-154.6221781955555
 20
192.1347402425802
  0
LWPOLYLINE
  5
126
330
70
100
AcDbEntity
  8
Standardebene
 62
     7
370
    35
100
AcDbPolyline
 90
        4
 70
     0
 43
0.0
 10
-149.1814523245158
 20
197.0423872299256
 10
-149.186134643065
 20
196.6932017294351
 10
-149.4113349228584
 20
194.4103469998244
 10
-149.9409500496758
 20
192.1347402425802
  0
LWPOLYLINE
  5
127
330
70
100
AcDbEntity
  8
Standardebene
 62
     7
370
    35
100
AcDbPolyline
 90
        4
 70
     0
 43
0.0
 10
-149.9409500496758
 20
201.9494569451359
 10
-149.3897192879137
 20
199.5454392084676
 10
-149.2353310585022
 20
198.2976975587499
 10
-149.1814523245158
 20
197.0423872299256
  0
LWPOLYLINE
  5
128
330
70
100
AcDbEntity
  8
Standardebene
 62
     7
370
    35
100
AcDbPolyline
 90
        8
 70
     0
 43
0.0
 10
-149.9409500496758
 20
206.8574887805719
 10
-154.6221781955555
 20
206.8574887805719
 10
-155.058146951396
 20
205.9709912048382
 10
-155.3231148681807
 20
205.0608896129068
 10
-155.3819966274661
 20
204.4034407921798
 10
-155.2667346215445
 20
203.4803185065306
 10
-154.9378819201766
 20
202.5564265247008
 10
-154.6221781955555
 20
201.9494569451359
  0
LWPOLYLINE
  5
129
330
70
100
AcDbEntity
  8
Standardebene
 62
     7
370
    35
100
AcDbPolyline
 90
        4
 70
     0
 43
0.0
 10
-149.1814523245158
 20
204.4034407921798
 10
-149.2963936236868
 20
203.4803185065306
 10
-149.6252463250547
 20
202.5564265247008
 10
-149.9409500496758
 20
201.9494569451359
  0
LWPOLYLINE
  5
12A
330
70
100
AcDbEntity
  8
Standardebene
 62
     7
370
    35
100
AcDbPolyline
 90
        4
 70
     0
 43
0.0
 10
-149.9409500496758
 20
206.8574887805719
 10
-149.5049812938346
 20
205.9709912048382
 10
-149.2400133770512
 20
205.0608896129068
 10
-149.1814523245158
 20
204.4034407921798
  0
LWPOLYLINE
  5
12B
330
70
100
AcDbEntity
  8
Standardebene
 62
     7
370
    35
100
AcDbPolyline
 90
        4
 70
     0
 43
0.0
 10
-155.3819966274661
 20
204.4034407921798
 10
-155.3819966274661
 20
205.0293962108602
 10
-155.3819966274661
 20
205.4128973327265
 10
-155.3819966274661
 20
205.5419497256339
  0
LWPOLYLINE
  5
12C
330
70
100
AcDbEntity
  8
Standardebene
 62
     7
370
    35
100
AcDbPolyline
 90
        7
 70
     0
 43
0.0
 10
-155.3819966274661
 20
197.0423872299256
 10
-155.3819966274661
 20
198.518151373076
 10
-155.3819966274661
 20
199.9494655618102
 10
-155.3819966274661
 20
201.2923929724989
 10
-155.3819966274661
 20
202.5056907181452
 10
-155.3819966274661
 20
203.5536320677103
 10
-155.3819966274661
 20
204.4034407921798
  0
LWPOLYLINE
  5
12D
330
70
100
AcDbEntity
  8
Standardebene
 62
     7
370
    35
100
AcDbPolyline
 90
        7
 70
     0
 43
0.0
 10
-155.3819966274661
 20
189.6812053849753
 10
-155.3819966274661
 20
190.530885826748
 10
-155.3819966274661
 20
191.5781857628292
 10
-155.3819966274661
 20
192.7921249219588
 10
-155.3819966274661
 20
194.1353730393898
 10
-155.3819966274661
 20
195.5666230867758
 10
-155.3819966274661
 20
197.0423872299256
  0
LWPOLYLINE
  5
12E
330
70
100
AcDbEntity
  8
Standardebene
 62
     7
370
    35
100
AcDbPolyline
 90
        4
 70
     0
 43
0.0
 10
-155.3819966274661
 20
188.5421191793855
 10
-155.3819966274661
 20
188.6711715722935
 10
-155.3819966274661
 20
189.0544802701143
 10
-155.3819966274661
 20
189.6812053849753
  0
LWPOLYLINE
  5
12F
330
70
100
AcDbEntity
  8
Standardebene
 62
     7
370
    35
100
AcDbPolyline
 90
       16
 70
     0
 43
0.0
 10
-171.6813399199905
 20
192.0423125595882
 10
-171.6813399199905
 20
192.1512887104583
 10
-171.6813399199905
 20
192.4748250662676
 10
-171.6813399199905
 20
192.9972489540257
 10
-171.6813399199905
 20
193.6962613684925
 10
-171.6813399199905
 20
194.5422216120605
 10
-171.6813399199905
 20
195.4971654775118
 10
-171.6813399199905
 20
196.5196993821109
 10
-171.6813399199905
 20
197.5651392190891
 10
-171.6813399199905
 20
198.5873598879603
 10
-171.6813399199905
 20
199.5422962823979
 10
-171.6813399199905
 20
200.3876151124819
 10
-171.6813399199905
 20
201.0875896471744
 10
-171.6813399199905
 20
201.6099567882473
 10
-171.6813399199905
 20
201.9325877705161
 10
-171.6813399199905
 20
202.0424619002629
  0
LWPOLYLINE
  5
130
330
70
100
AcDbEntity
  8
Standardebene
 62
     7
370
    35
100
AcDbPolyline
 90
       16
 70
     0
 43
0.0
 10
-168.6809999917906
 20
192.0423125595882
 10
-168.6809999917906
 20
192.1512887104583
 10
-168.6809999917906
 20
192.4748250662676
 10
-168.6809999917906
 20
192.9972489540257
 10
-168.6809999917906
 20
193.6962613684925
 10
-168.6809999917906
 20
194.5422216120605
 10
-168.6809999917906
 20
195.4971654775118
 10
-168.6809999917906
 20
196.5196993821109
 10
-168.6809999917906
 20
197.5651392190891
 10
-168.6809999917906
 20
198.5873598879603
 10
-168.6809999917906
 20
199.5422962823979
 10
-168.6809999917906
 20
200.3876151124819
 10
-168.6809999917906
 20
201.0875896471744
 10
-168.6809999917906
 20
201.6099567882473
 10
-168.6809999917906
 20
201.9325877705161
 10
-168.6809999917906
 20
202.0424619002629
  0
LWPOLYLINE
  5
131
330
70
100
AcDbEntity
  8
Standardebene
 62
     7
370
    35
100
AcDbPolyline
 90
       16
 70
     0
 43
0.0
 10
-178.6814702918407
 20
192.242433566483
 10
-178.6814702918407
 20
192.3473688124061
 10
-178.6814702918407
 20
192.6571073836537
 10
-178.6814702918407
 20
193.1588210105537
 10
-178.6814702918407
 20
193.8303167865732
 10
-178.6814702918407
 20
194.6424103982043
 10
-178.6814702918407
 20
195.5585412768817
 10
-178.6814702918407
 20
196.5403528962845
 10
-178.6814702918407
 20
197.5441649981745
 10
-178.6814702918407
 20
198.5250786386993
 10
-178.6814702918407
 20
199.4423640616481
 10
-178.6814702918407
 20
200.2542011078858
 10
-178.6814702918407
 20
200.9250554704207
 10
-178.6814702918407
 20
201.427089804063
 10
-178.6814702918407
 20
201.7371490820523
 10
-178.6814702918407
 20
201.8423408933688
  0
LWPOLYLINE
  5
132
330
70
100
AcDbEntity
  8
Standardebene
 62
     7
370
    35
100
AcDbPolyline
 90
       18
 70
     0
 43
0.0
 10
-172.6816884143406
 20
191.0420282318578
 10
-172.6816884143406
 20
191.1440771171039
 10
-172.6816884143406
 20
191.4472806395246
 10
-172.6816884143406
 20
191.9408409464771
 10
-172.6816884143406
 20
192.6082390742339
 10
-172.6816884143406
 20
193.42629043323
 10
-172.6816884143406
 20
194.3677571445113
 10
-172.6816884143406
 20
195.4003687118173
 10
-172.6816884143406
 20
196.4883984041093
 10
-172.6816884143406
 20
197.5957987836068
 10
-172.6816884143406
 20
198.6844698893827
 10
-172.6816884143406
 20
199.7167607499471
 10
-172.6816884143406
 20
200.6578426131378
 10
-172.6816884143406
 20
201.4762220769095
 10
-172.6816884143406
 20
202.1436769479813
 10
-172.6816884143406
 20
202.6372446236389
 10
-172.6816884143406
 20
202.9397993638705
 10
-172.6816884143406
 20
203.0424896626006
  0
LWPOLYLINE
  5
133
330
70
100
AcDbEntity
  8
Standardebene
 62
     7
370
    35
100
AcDbPolyline
 90
       23
 70
     0
 43
0.0
 10
-138.1815956503657
 20
209.9425593541649
 10
-138.079482621191
 20
209.9425593541649
 10
-137.7766071665668
 20
209.9425593541649
 10
-137.2780364531412
 20
209.9425593541649
 10
-136.5943538036629
 20
209.9425593541649
 10
-135.7387081948768
 20
209.9425593541649
 10
-134.7298930423283
 20
209.9425593541649
 10
-133.5880487299144
 20
209.9425593541649
 10
-132.3358812955272
 20
209.9425593541649
 10
-130.998598289711
 20
209.9425593541649
 10
-129.6048708959097
 20
209.9425593541649
 10
-128.1814460570656
 20
209.9425593541649
 10
-126.7582777836213
 20
209.9425593541649
 10
-125.3639731176696
 20
209.9425593541649
 10
-124.0272673840038
 20
209.9425593541649
 10
-122.7751640909675
 20
209.9425593541649
 10
-121.6326142237027
 20
209.9425593541649
 10
-120.6244404846549
 20
209.9425593541649
 10
-119.7687948758687
 20
209.9425593541649
 10
-119.0851122263898
 20
209.9425593541649
 10
-118.5865415129642
 20
209.9425593541649
 10
-118.28302464484
 20
209.9425593541649
 10
-118.1815530291653
 20
209.9425593541649
  0
LWPOLYLINE
  5
134
330
70
100
AcDbEntity
  8
Standardebene
 62
     7
370
    35
100
AcDbPolyline
 90
       12
 70
     0
 43
0.0
 10
-128.1814460570656
 20
209.4422568369289
 10
-129.6756829462922
 20
209.4422568369289
 10
-131.1398375423757
 20
209.4422568369289
 10
-132.5432502800252
 20
209.4422568369289
 10
-133.8585969441461
 20
209.4422568369289
 10
-135.0575270580464
 20
209.4422568369289
 10
-136.1166931703317
 20
209.4422568369289
 10
-137.0143513633572
 20
209.4422568369289
 10
-137.7327986245277
 20
209.4422568369289
 10
-138.2558071922972
 20
209.4422568369289
 10
-138.5743331363169
 20
209.4422568369289
 10
-138.6811284840407
 20
209.4422568369289
  0
LWPOLYLINE
  5
135
330
70
100
AcDbEntity
  8
Standardebene
 62
     7
370
    35
100
AcDbPolyline
 90
       12
 70
     0
 43
0.0
 10
-117.6820201954903
 20
209.4422568369289
 10
-117.7888155432141
 20
209.4422568369289
 10
-118.1067000737344
 20
209.4422568369289
 10
-118.6303500550033
 20
209.4422568369289
 10
-119.348540750774
 20
209.4422568369289
 10
-120.24613480245
 20
209.4422568369289
 10
-121.3053009147346
 20
209.4422568369289
 10
-122.5045517353849
 20
209.4422568369289
 10
-123.819962540856
 20
209.4422568369289
 10
-125.2233111371553
 20
209.4422568369289
 10
-126.686888461089
 20
209.4422568369289
 10
-128.1814460570656
 20
209.4422568369289
  0
LINE
  5
136
330
70
100
AcDbEntity
  8
Standardebene
 62
     7
370
    35
100
AcDbLine
 10
-51.15512512292285
 20
209.4422568369289
 30
0.0
 11
-51.15512512292285
 21
209.0421431058366
 31
0.0
  0
LWPOLYLINE
  5
137
330
70
100
AcDbEntity
  8
Standardebene
 62
     7
370
    35
100
AcDbPolyline
 90
        3
 70
     0
 43
0.0
 10
-30.15601683437113
 20
209.0421431058366
 10
-30.15601683437113
 20
209.4422568369289
 10
-30.65554966804678
 20
209.9425593541649
  0
LINE
  5
138
330
70
100
AcDbEntity
  8
Standardebene
 62
     7
370
    35
100
AcDbLine
 10
-50.65527158249783
 20
209.9425593541649
 30
0.0
 11
-51.15512512292285
 21
209.4422568369289
 31
0.0
  0
LINE
  5
139
330
70
100
AcDbEntity
  8
Standardebene
 62
     7
370
    35
100
AcDbLine
 10
-58.65510903519676
 20
209.0421431058366
 30
0.0
 11
-58.65510903519676
 21
185.0425030713185
 31
0.0
  0
LINE
  5
13A
330
70
100
AcDbEntity
  8
Standardebene
 62
     7
370
    35
100
AcDbLine
 10
-22.65577635669746
 20
185.0425030713185
 30
0.0
 11
-22.65577635669746
 21
209.0421431058366
 31
0.0
  0
LINE
  5
13B
330
70
100
AcDbEntity
  8
Standardebene
 62
     7
370
    35
100
AcDbLine
 10
-19.40515688085954
 20
123.2427629124112
 30
0.0
 11
-19.40515688085954
 21
126.8425678066227
 31
0.0
  0
LINE
  5
13C
330
70
100
AcDbEntity
  8
Standardebene
 62
     7
370
    35
100
AcDbLine
 10
-19.40515688085954
 20
115.2419635415788
 30
0.0
 11
-19.40515688085954
 21
118.848695701413
 31
0.0
  0
LINE
  5
13D
330
70
100
AcDbEntity
  8
Standardebene
 62
     7
370
    35
100
AcDbLine
 10
-50.65527158249783
 20
46.53997288526201
 30
0.0
 11
-50.65527158249783
 21
40.54301337865733
 31
0.0
  0
LINE
  5
13E
330
70
100
AcDbEntity
  8
Standardebene
 62
     7
370
    35
100
AcDbLine
 10
-50.65527158249783
 20
184.5426495435208
 30
0.0
 11
-50.65527158249783
 21
127.0417266932911
 31
0.0
  0
LINE
  5
13F
330
70
100
AcDbEntity
  8
Standardebene
 62
     7
370
    35
100
AcDbLine
 10
-50.65527158249783
 20
115.0440287791251
 30
0.0
 11
-50.65527158249783
 21
45.90691284856148
 31
0.0
  0
LINE
  5
140
330
70
100
AcDbEntity
  8
Standardebene
 62
     7
370
    35
100
AcDbLine
 10
-30.65554966804678
 20
40.54301337865733
 30
0.0
 11
-30.65554966804678
 21
115.0421632414257
 31
0.0
  0
LWPOLYLINE
  5
141
330
70
100
AcDbEntity
  8
Standardebene
 62
     7
370
    35
100
AcDbPolyline
 90
        3
 70
     0
 43
0.0
 10
-30.65554966804678
 20
127.0417266932911
 10
-30.65554966804678
 20
184.5426495435208
 10
-31.15572391522117
 20
185.0425030713185
  0
LINE
  5
142
330
70
100
AcDbEntity
  8
Standardebene
 62
     7
370
    35
100
AcDbLine
 10
-50.15573874882218
 20
185.0425030713185
 30
0.0
 11
-50.65527158249783
 21
184.5426495435208
 31
0.0
  0
LINE
  5
143
330
70
100
AcDbEntity
  8
Standardebene
 62
     7
370
    35
100
AcDbLine
 10
-30.78646216336384
 20
36.78721672522559
 30
0.0
 11
-31.05239220039794
 21
37.30964800764749
 31
0.0
  0
LINE
  5
144
330
70
100
AcDbEntity
  8
Standardebene
 62
     7
370
    35
100
AcDbLine
 10
-50.25842905014666
 20
37.30964800764749
 30
0.0
 11
-50.52435908717948
 21
36.78721672522559
 31
0.0
  0
LINE
  5
145
330
70
100
AcDbEntity
  8
Standardebene
 62
     7
370
    35
100
AcDbLine
 10
-50.65527158249783
 20
40.54301337865733
 30
0.0
 11
-50.25842905014666
 21
37.30964800764749
 31
0.0
  0
LINE
  5
146
330
70
100
AcDbEntity
  8
Standardebene
 62
     7
370
    35
100
AcDbLine
 10
-31.05239220039794
 20
37.30964800764749
 30
0.0
 11
-30.65554966804678
 21
40.54301337865733
 31
0.0
  0
SPLINE
  5
147
330
70
100
AcDbEntity
  8
Standardebene
 62
     7
370
    35
100
AcDbSpline
210
0.0
220
0.0
230
1.0
 70
     8
 71
     3
 72
    11
 73
     7
 74
     0
 42
0.0000000001
 43
0.0000000001
 40
0.0
 40
0.0
 40
0.0
 40
0.0
 40
1.0
 40
1.0
 40
1.0
 40
2.0
 40
2.0
 40
2.0
 40
2.0
 10
-50.52435908717948
 20
36.78721672522559
 30
0.0
 10
-50.6151832387578
 20
36.61057145183236
 30
0.0
 10
-50.65681097489766
 20
36.42141861550802
 30
0.0
 10
-50.65527158249783
 20
36.24227182952843
 30
0.0
 10
-50.65527158249783
 20
35.57956341823537
 30
0.0
 10
-50.11847262448077
 20
35.04212306029663
 30
0.0
 10
-49.45576419644642
 20
35.04212306029663
 30
0.0
  0
SPLINE
  5
148
330
70
100
AcDbEntity
  8
Standardebene
 62
     7
370
    35
100
AcDbSpline
210
0.0
220
0.0
230
1.0
 70
     8
 71
     3
 72
     8
 73
     4
 74
     0
 42
0.0000000001
 43
0.0000000001
 40
0.0
 40
0.0
 40
0.0
 40
0.0
 40
1.0
 40
1.0
 40
1.0
 40
1.0
 10
-30.65554966804678
 20
36.24227182952843
 30
0.0
 10
-30.65554966804678
 20
36.44143071619756
 30
0.0
 10
-30.70410466998521
 20
36.62872345341955
 30
0.0
 10
-30.78646216336384
 20
36.78721672522559
 30
0.0
  0
SPLINE
  5
149
330
70
100
AcDbEntity
  8
Standardebene
 62
     7
370
    35
100
AcDbSpline
210
0.0
220
0.0
230
1.0
 70
     8
 71
     3
 72
     8
 73
     4
 74
     0
 42
0.0000000001
 43
0.0000000001
 40
0.0
 40
0.0
 40
0.0
 40
0.0
 40
1.0
 40
1.0
 40
1.0
 40
1.0
 10
-31.85569846759693
 20
35.04212306029663
 30
0.0
 10
-31.1926693328132
 20
35.04212306029663
 30
0.0
 10
-30.65554966804678
 20
35.57956341823537
 30
0.0
 10
-30.65554966804678
 20
36.24227182952843
 30
0.0
  0
LWPOLYLINE
  5
14A
330
70
100
AcDbEntity
  8
Standardebene
 62
     7
370
    35
100
AcDbPolyline
 90
       29
 70
     0
 43
0.0
 10
-40.65569926134687
 20
56.04277021072543
 10
-39.535470583877
 20
55.85862039957443
 10
-38.54262662747592
 20
55.33182750546317
 10
-37.74900570412322
 20
54.49183240729353
 10
-37.45838124734739
 20
53.9656809266669
 10
-37.26108245479655
 20
53.39507949162415
 10
-37.16679467031958
 20
52.81819220444134
 10
-37.16929618296882
 20
52.23251755253341
 10
-37.43926712505198
 20
51.16263986182801
 10
-38.03430642885249
 20
50.22309739099797
 10
-38.46058984084667
 20
49.81656952506899
 10
-38.94979591717342
 20
49.48585673290676
 10
-39.49692163253681
 20
49.24025951002247
 10
-40.0813134722416
 20
49.08997633080653
 10
-40.65512198919773
 20
49.04296072245571
 10
-41.22982848505365
 20
49.08997633080653
 10
-42.27802642649124
 20
49.44134263714229
 10
-43.1797255245659
 20
50.11720002484984
 10
-43.55213020257251
 20
50.57888945037078
 10
-43.84339607284966
 20
51.09753639323898
 10
-44.04287567130036
 20
51.66185197614233
 10
-44.14338516672499
 20
52.2538124801903
 10
-44.05352313539736
 20
53.38193051520967
 10
-43.62666245125404
 20
54.39228503463313
 10
-42.87377128514268
 20
55.24979072090597
 10
-42.37949804216527
 20
55.58800805082789
 10
-41.83205162005251
 20
55.83860829888424
 10
-41.25362492589817
 20
55.99081571855087
 10
-40.65569926134687
 20
56.04277021072543
  0
LWPOLYLINE
  5
14B
330
70
100
AcDbEntity
  8
Standardebene
 62
     7
370
    35
100
AcDbPolyline
 90
       23
 70
     0
 43
0.0
 10
-30.65554966804678
 20
184.5426495435208
 10
-30.75734199047147
 20
184.5426495435208
 10
-31.06085885859506
 20
184.5426495435208
 10
-31.55910886527064
 20
184.5426495435208
 10
-32.24279151475089
 20
184.5426495435208
 10
-33.09843712353635
 20
184.5426495435208
 10
-34.10693156933419
 20
184.5426495435208
 10
-35.24909658849936
 20
184.5426495435208
 10
-36.50126402288532
 20
184.5426495435208
 10
-37.83829046330043
 20
184.5426495435208
 10
-39.23227442250278
 20
184.5426495435208
 10
-40.65569926134687
 20
184.5426495435208
 10
-42.0788675347912
 20
184.5426495435208
 10
-43.47317220074291
 20
184.5426495435208
 10
-44.80987793440865
 20
184.5426495435208
 10
-46.0620453687959
 20
184.5426495435208
 10
-47.20453109471045
 20
184.5426495435208
 10
-48.21270483375762
 20
184.5426495435208
 10
-49.06802973579371
 20
184.5426495435208
 10
-49.75235379877272
 20
184.5426495435208
 10
-50.25060380544829
 20
184.5426495435208
 10
-50.55412067357316
 20
184.5426495435208
 10
-50.65527158249783
 20
184.5426495435208
  0
LWPOLYLINE
  5
14C
330
70
100
AcDbEntity
  8
Standardebene
 62
     7
370
    35
100
AcDbPolyline
 90
        9
 70
     0
 43
0.0
 10
-37.15550579272254
 20
40.54301337865733
 10
-35.78063595581561
 20
40.54301337865733
 10
-34.51717964383134
 20
40.54301337865733
 10
-33.39534743261202
 20
40.54301337865733
 10
-32.43919232840065
 20
40.54301337865733
 10
-31.67251077204302
 20
40.54301337865733
 10
-31.11191537318274
 20
40.54301337865733
 10
-30.77017026046833
 20
40.54301337865733
 10
-30.65554966804678
 20
40.54301337865733
  0
LWPOLYLINE
  5
14D
330
70
100
AcDbEntity
  8
Standardebene
 62
     7
370
    35
100
AcDbPolyline
 90
       37
 70
     0
 43
0.0
 10
-50.65527158249783
 20
40.54301337865733
 10
-50.54097169682565
 20
40.54301337865733
 10
-50.19954729086061
 20
40.54301337865733
 10
-49.63863118525096
 20
40.54301337865733
 10
-48.87162892214266
 20
40.54301337865733
 10
-47.91611523143133
 20
40.54301337865733
 10
-46.79364160671198
 20
40.54301337865733
 10
-45.53082670822902
 20
40.54301337865733
 10
-44.15531545782205
 20
40.54301337865733
 10
-44.10926196853414
 20
41.10989461549537
 10
-43.9723843276679
 20
41.66048394984858
 10
-43.44937575989969
 20
42.65012081375082
 10
-42.60752054135921
 20
43.44752968652424
 10
-42.08136904744043
 20
43.73815050604276
 10
-41.51102416338296
 20
43.93609070709287
 10
-40.93445756837782
 20
44.0306991959289
 10
-40.35070714217434
 20
44.0287749554782
 10
-39.27300417974283
 20
43.75758533459665
 10
-38.33121673792815
 20
43.15876170627425
 10
-37.92719037437866
 20
42.73408183875871
 10
-37.598337673012
 20
42.24609446040817
 10
-37.35248387852273
 20
41.69742936650566
 10
-37.20220069551049
 20
41.11239612808108
 10
-37.15550579272254
 20
40.54301337865733
 10
-37.33247177732752
 20
39.44497763602062
 10
-37.84451217424937
 20
38.45713672987241
 10
-38.65384772834716
 20
37.67102036432802
 10
-39.31463191588141
 20
37.30964800764749
 10
-37.82571875870462
 20
37.30964800764749
 10
-36.4091570443095
 20
37.30964800764749
 10
-35.09881340548714
 20
37.30964800764749
 10
-33.92932417122917
 20
37.30964800764749
 10
-32.92929638362847
 20
37.30964800764749
 10
-32.12348860378023
 20
37.30964800764749
 10
-31.53345232527821
 20
37.30964800764749
 10
-31.17355521051779
 20
37.30964800764749
 10
-31.05239220039794
 20
37.30964800764749
  0
LWPOLYLINE
  5
14E
330
70
100
AcDbEntity
  8
Standardebene
 62
     7
370
    35
100
AcDbPolyline
 90
       17
 70
     0
 43
0.0
 10
-50.25842905014666
 20
37.30964800764749
 10
-50.13758674677618
 20
37.30964800764749
 10
-49.77768963201706
 20
37.30964800764749
 10
-49.18733264676436
 20
37.30964800764749
 10
-48.38210213906527
 20
37.30964800764749
 10
-47.38149707931543
 20
37.30964800764749
 10
-46.21200784505875
 20
37.30964800764749
 10
-44.90198491298577
 20
37.30964800764749
 10
-43.48510249183997
 20
37.30964800764749
 10
-41.99651004141257
 20
37.30964800764749
 10
-42.52105800158189
 20
37.58212045549639
 10
-42.99307419611333
 20
37.93662968790185
 10
-43.39767783181069
 20
38.36823682104078
 10
-43.72563255427883
 20
38.8618044966984
 10
-43.96237827706966
 20
39.39732061418644
 10
-44.10772257613431
 20
39.96484326450783
 10
-44.15531545782205
 20
40.54301337865733
  0
LWPOLYLINE
  5
14F
330
70
100
AcDbEntity
  8
Standardebene
 62
     7
370
    35
100
AcDbPolyline
 90
        5
 70
     0
 43
0.0
 10
-39.31463191588141
 20
37.30964800764749
 10
-40.12518615562965
 20
37.08284419983374
 10
-41.06383067129505
 20
37.06661643869789
 10
-41.91319042778324
 20
37.27578137571114
 10
-41.99651004141257
 20
37.30964800764749
  0
LWPOLYLINE
  5
150
330
70
100
AcDbEntity
  8
Standardebene
 62
     7
370
    35
100
AcDbPolyline
 90
       21
 70
     0
 43
0.0
 10
-49.45576419644642
 20
35.04212306029663
 10
-49.34704460822443
 20
35.04212306029663
 10
-49.02479846590441
 20
35.04212306029663
 10
-48.49678687283644
 20
35.04212306029663
 10
-47.77487597876665
 20
35.04212306029663
 10
-46.87785919924237
 20
35.04212306029663
 10
-45.82805772405406
 20
35.04212306029663
 10
-44.65080738644863
 20
35.04212306029663
 10
-43.37516421796753
 20
35.04212306029663
 10
-42.03217263200325
 20
35.04212306029663
 10
-40.65569926134687
 20
35.04212306029663
 10
-39.27896932529073
 20
35.04212306029663
 10
-37.93597773932773
 20
35.04212306029663
 10
-36.660655277596
 20
35.04212306029663
 10
-35.48308423323991
 20
35.04212306029663
 10
-34.43328275805288
 20
35.04212306029663
 10
-33.5365866852767
 20
35.04212306029663
 10
-32.81499649795757
 20
35.04212306029663
 10
-32.28666419814022
 20
35.04212306029663
 10
-31.96409734906955
 20
35.04212306029663
 10
-31.85569846759693
 20
35.04212306029663
  0
SPLINE
  5
151
330
70
100
AcDbEntity
  8
Standardebene
 62
     7
370
    35
100
AcDbSpline
210
0.0
220
0.0
230
1.0
 70
     9
 71
     3
 72
    17
 73
    13
 74
     0
 42
0.0000000001
 43
0.0000000001
 40
0.0
 40
0.0
 40
0.0
 40
0.0
 40
1.0
 40
1.0
 40
1.0
 40
2.0
 40
2.0
 40
2.0
 40
3.0
 40
3.0
 40
3.0
 40
4.0
 40
4.0
 40
4.0
 40
4.0
 10
-38.15553358032197
 20
40.54301337865733
 30
0.0
 10
-38.15553358032197
 20
41.92288979740523
 30
0.0
 10
-39.27454357214138
 20
43.04228101764567
 30
0.0
 10
-40.65569926134687
 20
43.04228101764567
 30
0.0
 10
-42.03595697165256
 20
43.04228101764567
 30
0.0
 10
-43.15528767022263
 20
41.92288979740523
 30
0.0
 10
-43.15528767022263
 20
40.54301337865733
 30
0.0
 10
-43.15528767022263
 20
39.1618577243436
 30
0.0
 10
-42.03595697165256
 20
38.04246291270165
 30
0.0
 10
-40.65569926134687
 20
38.04246291270165
 30
0.0
 10
-39.27454357214138
 20
38.04246291270165
 30
0.0
 10
-38.15553358032197
 20
39.1618577243436
 30
0.0
 10
-38.15553358032197
 20
40.54301337865733
 30
0.0
  0
SPLINE
  5
152
330
70
100
AcDbEntity
  8
Standardebene
 62
     7
370
    35
100
AcDbSpline
210
0.0
220
0.0
230
1.0
 70
     9
 71
     3
 72
    17
 73
    13
 74
     0
 42
0.0000000001
 43
0.0000000001
 40
0.0
 40
0.0
 40
0.0
 40
0.0
 40
1.0
 40
1.0
 40
1.0
 40
2.0
 40
2.0
 40
2.0
 40
3.0
 40
3.0
 40
3.0
 40
4.0
 40
4.0
 40
4.0
 40
4.0
 10
-38.15553358032197
 20
52.54193541703939
 30
0.0
 10
-38.15553358032197
 20
53.92251379921812
 30
0.0
 10
-39.27454357214138
 20
55.04184446951172
 30
0.0
 10
-40.65569926134687
 20
55.04184446951172
 30
0.0
 10
-42.03595697165256
 20
55.04184446951172
 30
0.0
 10
-43.15528767022263
 20
53.92251379921812
 30
0.0
 10
-43.15528767022263
 20
52.54193541703939
 30
0.0
 10
-43.15528767022263
 20
51.161421176209
 30
0.0
 10
-42.03595697165256
 20
50.0420263645677
 30
0.0
 10
-40.65569926134687
 20
50.0420263645677
 30
0.0
 10
-39.27454357214138
 20
50.0420263645677
 30
0.0
 10
-38.15553358032197
 20
51.161421176209
 30
0.0
 10
-38.15553358032197
 20
52.54193541703939
 30
0.0
  0
LWPOLYLINE
  5
153
330
70
100
AcDbEntity
  8
Standardebene
 62
     7
370
    35
100
AcDbPolyline
 90
        3
 70
     0
 43
0.0
 10
-19.40701698000874
 20
126.8425678066227
 10
-19.40637556650871
 20
126.8425678066227
 10
-19.40515688085954
 20
126.8425678066227
  0
LINE
  5
154
330
70
100
AcDbEntity
  8
Standardebene
 62
     7
370
    35
100
AcDbLine
 10
-19.40701698000874
 20
127.0417266932911
 30
0.0
 11
-19.40701698000874
 21
126.8425678066227
 31
0.0
  0
LWPOLYLINE
  5
155
330
70
100
AcDbEntity
  8
Standardebene
 62
     7
370
    35
100
AcDbPolyline
 90
       14
 70
     0
 43
0.0
 10
-19.40701698000874
 20
127.0417266932911
 10
-19.55736430437059
 20
127.0417266932911
 10
-19.95164118272289
 20
127.0417266932911
 10
-20.58715367836498
 20
127.0417266932911
 10
-21.45466543689661
 20
127.0417266932911
 10
-22.54583808282373
 20
127.0417266932911
 10
-23.84553425755038
 20
127.0417266932911
 10
-23.84553425755038
 20
115.0421632414257
 10
-22.54583808282373
 20
115.0421632414257
 10
-21.45466543689661
 20
115.0421632414257
 10
-20.58715367836498
 20
115.0421632414257
 10
-19.95164118272289
 20
115.0421632414257
 10
-19.55736430437059
 20
115.0421632414257
 10
-19.40701698000874
 20
115.0421632414257
  0
LINE
  5
156
330
70
100
AcDbEntity
  8
Standardebene
 62
     7
370
    35
100
AcDbLine
 10
-19.40701698000874
 20
115.2419635415788
 30
0.0
 11
-19.40701698000874
 21
115.0421632414257
 31
0.0
  0
LWPOLYLINE
  5
157
330
70
100
AcDbEntity
  8
Standardebene
 62
     7
370
    35
100
AcDbPolyline
 90
        3
 70
     0
 43
0.0
 10
-19.40515688085954
 20
115.2419635415788
 10
-19.40637556650871
 20
115.2419635415788
 10
-19.40701698000874
 20
115.2419635415788
  0
LWPOLYLINE
  5
158
330
70
100
AcDbEntity
  8
Standardebene
 62
     7
370
    35
100
AcDbPolyline
 90
       10
 70
     0
 43
0.0
 10
-19.40515688085954
 20
123.2427629124112
 10
-19.41830585760705
 20
123.1187135446759
 10
-19.449606836398
 20
122.7635628987865
 10
-19.48719366748879
 20
122.2136149779166
 10
-19.51695525388247
 20
121.0391227480304
 10
-19.51849464628102
 20
120.7935896664944
 10
-19.4984825450871
 20
120.0876499864049
 10
-19.46275581314552
 20
119.4876076724628
 10
-19.42709322255485
 20
119.0597848788776
 10
-19.40829980700881
 20
118.8693492155859
  0
LWPOLYLINE
  5
159
330
70
100
AcDbEntity
  8
Standardebene
 62
     7
370
    35
100
AcDbPolyline
 90
       12
 70
     0
 43
0.0
 10
-61.81015789955892
 20
115.0421632414257
 10
-61.45000421939875
 20
115.0421632414257
 10
-60.82610130810435
 20
115.0421632414257
 10
-59.94576127957458
 20
115.0421632414257
 10
-58.82078614220599
 20
115.0421632414257
 10
-57.46528699299422
 20
115.0421632414257
 10
-57.46528699299422
 20
127.0417266932911
 10
-58.82078614220599
 20
127.0417266932911
 10
-59.94576127957458
 20
127.0417266932911
 10
-60.82610130810435
 20
127.0417266932911
 10
-61.45000421939875
 20
127.0417266932911
 10
-61.81015789955892
 20
127.0417266932911
  0
LINE
  5
15A
330
70
100
AcDbEntity
  8
Standardebene
 62
     7
370
    35
100
AcDbLine
 10
-61.81015789955892
 20
115.0421632414257
 30
0.0
 11
-61.81015789955892
 21
127.0417266932911
 31
0.0
  0
LINE
  5
15B
330
70
100
AcDbEntity
  8
Standardebene
 62
     7
370
    35
100
AcDbLine
 10
-57.46528699299422
 20
127.0417266932911
 30
0.0
 11
-23.84553425755038
 21
127.0417266932911
 31
0.0
  0
LINE
  5
15C
330
70
100
AcDbEntity
  8
Standardebene
 62
     7
370
    35
100
AcDbLine
 10
-23.84553425755038
 20
115.0421632414257
 30
0.0
 11
-57.46528699299422
 21
115.0421632414257
 31
0.0
  0
LINE
  5
15D
330
70
100
AcDbEntity
  8
Standardebene
 62
     7
370
    35
100
AcDbLine
 10
-31.50401144563389
 20
209.0421431058366
 30
0.0
 11
-31.50401144563389
 21
185.0425030713185
 31
0.0
  0
LINE
  5
15E
330
70
100
AcDbEntity
  8
Standardebene
 62
     7
370
    35
100
AcDbLine
 10
-49.80713051165881
 20
209.0421431058366
 30
0.0
 11
-31.50401144563389
 21
209.0421431058366
 31
0.0
  0
LINE
  5
15F
330
70
100
AcDbEntity
  8
Standardebene
 62
     7
370
    35
100
AcDbLine
 10
-49.80713051165881
 20
185.0425030713185
 30
0.0
 11
-49.80713051165881
 21
209.0421431058366
 31
0.0
  0
LINE
  5
160
330
70
100
AcDbEntity
  8
Standardebene
 62
     7
370
    35
100
AcDbLine
 10
-31.50401144563389
 20
185.0425030713185
 30
0.0
 11
-49.80713051165881
 21
185.0425030713185
 31
0.0
  0
LWPOLYLINE
  5
161
330
70
100
AcDbEntity
  8
Standardebene
 62
     7
370
    35
100
AcDbPolyline
 90
       10
 70
     0
 43
0.0
 10
-49.80713051165881
 20
209.0421431058366
 10
-51.52971060682804
 20
209.0421431058366
 10
-53.10720296833366
 20
209.0421431058366
 10
-54.519723777681
 20
209.0421431058366
 10
-55.74803062987412
 20
209.0421431058366
 10
-56.7762806114674
 20
209.0421431058366
 10
-57.58991363601402
 20
209.0421431058366
 10
-58.17962920776538
 20
209.0421431058366
 10
-58.53638339637652
 20
209.0421431058366
 10
-58.65510903519676
 20
209.0421431058366
  0
LWPOLYLINE
  5
162
330
70
100
AcDbEntity
  8
Standardebene
 62
     7
370
    35
100
AcDbPolyline
 90
       10
 70
     0
 43
0.0
 10
-22.65577635669746
 20
209.0421431058366
 10
-22.77507926766683
 20
209.0421431058366
 10
-23.13176931492835
 20
209.0421431058366
 10
-23.72122832127996
 20
209.0421431058366
 10
-24.53550275932661
 20
209.0421431058366
 10
-25.56343203417052
 20
209.0421431058366
 10
-26.79141817961426
 20
209.0421431058366
 10
-28.20419555436007
 20
209.0421431058366
 10
-29.78175205721531
 20
209.0421431058366
 10
-31.50401144563389
 20
209.0421431058366
  0
LWPOLYLINE
  5
163
330
70
100
AcDbEntity
  8
Standardebene
 62
     7
370
    35
100
AcDbPolyline
 90
       10
 70
     0
 43
0.0
 10
-31.50401144563389
 20
185.0425030713185
 10
-29.78175205721531
 20
185.0425030713185
 10
-28.20419555436007
 20
185.0425030713185
 10
-26.79141817961426
 20
185.0425030713185
 10
-25.56343203417052
 20
185.0425030713185
 10
-24.53550275932661
 20
185.0425030713185
 10
-23.72122832127996
 20
185.0425030713185
 10
-23.13176931492835
 20
185.0425030713185
 10
-22.77507926766683
 20
185.0425030713185
 10
-22.65577635669746
 20
185.0425030713185
  0
LWPOLYLINE
  5
164
330
70
100
AcDbEntity
  8
Standardebene
 62
     7
370
    35
100
AcDbPolyline
 90
       10
 70
     0
 43
0.0
 10
-58.65510903519676
 20
185.0425030713185
 10
-58.53638339637652
 20
185.0425030713185
 10
-58.17962920776538
 20
185.0425030713185
 10
-57.58991363601402
 20
185.0425030713185
 10
-56.7762806114674
 20
185.0425030713185
 10
-55.74803062987412
 20
185.0425030713185
 10
-54.519723777681
 20
185.0425030713185
 10
-53.10720296833366
 20
185.0425030713185
 10
-51.52971060682804
 20
185.0425030713185
 10
-49.80713051165881
 20
185.0425030713185
  0
LWPOLYLINE
  5
165
330
70
100
AcDbEntity
  8
Standardebene
 62
     7
370
    35
100
AcDbPolyline
 90
        7
 70
     0
 43
0.0
 10
-32.15575170282188
 20
192.1347402425802
 10
-34.23752335790187
 20
190.9326672328976
 10
-35.31458490683335
 20
190.3106959178083
 10
-36.40575755275918
 20
189.6812053849753
 10
-36.70799159388399
 20
189.5067409174261
 10
-38.68450729364064
 20
188.3651531992506
 10
-40.65569926134687
 20
187.2273498206281
  0
LWPOLYLINE
  5
166
330
70
100
AcDbEntity
  8
Standardebene
 62
     7
370
    35
100
AcDbPolyline
 90
        7
 70
     0
 43
0.0
 10
-32.15575170282188
 20
201.9494569451359
 10
-32.15575170282188
 20
199.5454392084676
 10
-32.15575170282188
 20
198.3023798771809
 10
-32.15575170282188
 20
197.0423872299256
 10
-32.15575170282188
 20
196.6932017294351
 10
-32.15575170282188
 20
194.4103469998244
 10
-32.15575170282188
 20
192.1347402425802
  0
LWPOLYLINE
  5
167
330
70
100
AcDbEntity
  8
Standardebene
 62
     7
370
    35
100
AcDbPolyline
 90
        7
 70
     0
 43
0.0
 10
-40.65569926134687
 20
206.8574887805719
 10
-39.12143816973054
 20
205.9709912048382
 10
-37.54420237362467
 20
205.0608896129068
 10
-36.40575755275918
 20
204.4034407921798
 10
-34.80626470820862
 20
203.4803185065306
 10
-33.20715671175835
 20
202.5564265247008
 10
-32.15575170282188
 20
201.9494569451359
  0
LWPOLYLINE
  5
168
330
70
100
AcDbEntity
  8
Standardebene
 62
     7
370
    35
100
AcDbPolyline
 90
        7
 70
     0
 43
0.0
 10
-49.1553902544721
 20
201.9494569451359
 10
-47.07329789264273
 20
203.1514658134701
 10
-45.99687775721257
 20
203.7738293166424
 10
-44.90538440453479
 20
204.4034407921798
 10
-44.60315036340999
 20
204.5782259664707
 10
-42.62599325015458
 20
205.7193724244561
 10
-40.65569926134687
 20
206.8574887805719
  0
LWPOLYLINE
  5
169
330
70
100
AcDbEntity
  8
Standardebene
 62
     7
370
    35
100
AcDbPolyline
 90
        7
 70
     0
 43
0.0
 10
-49.1553902544721
 20
192.1347402425802
 10
-49.1553902544721
 20
194.5390786859902
 10
-49.1553902544721
 20
195.7824587240191
 10
-49.1553902544721
 20
197.0423872299256
 10
-49.1553902544721
 20
197.3913161650239
 10
-49.1553902544721
 20
199.6741708946333
 10
-49.1553902544721
 20
201.9494569451359
  0
LWPOLYLINE
  5
16A
330
70
100
AcDbEntity
  8
Standardebene
 62
     7
370
    35
100
AcDbPolyline
 90
        7
 70
     0
 43
0.0
 10
-40.65569926134687
 20
187.2273498206281
 10
-41.70678356353525
 20
187.8343194001929
 10
-43.28555875203966
 20
188.7457038190916
 10
-44.90538440453479
 20
189.6812053849753
 10
-46.04350851864962
 20
190.33794865087
 10
-47.60669735910947
 20
191.2402249983013
 10
-49.1553902544721
 20
192.1347402425802
  0
SPLINE
  5
16B
330
70
100
AcDbEntity
  8
Standardebene
 62
     7
370
    35
100
AcDbSpline
210
0.0
220
0.0
230
1.0
 70
     9
 71
     3
 72
    17
 73
    13
 74
     0
 42
0.0000000001
 43
0.0000000001
 40
0.0
 40
0.0
 40
0.0
 40
0.0
 40
1.0
 40
1.0
 40
1.0
 40
2.0
 40
2.0
 40
2.0
 40
3.0
 40
3.0
 40
3.0
 40
4.0
 40
4.0
 40
4.0
 40
4.0
 10
-32.15575170282188
 20
197.0423872299256
 30
0.0
 10
-32.15575170282188
 20
201.7365076685696
 30
0.0
 10
-35.96164284547094
 20
205.5419497256339
 30
0.0
 10
-40.65569926134687
 20
205.5419497256339
 30
0.0
 10
-45.34981981857369
 20
205.5419497256339
 30
0.0
 10
-49.1553902544721
 20
201.7365076685696
 30
0.0
 10
-49.1553902544721
 20
197.0423872299256
 30
0.0
 10
-49.1553902544721
 20
192.3476895191477
 30
0.0
 10
-45.34981981857369
 20
188.5421191793855
 30
0.0
 10
-40.65569926134687
 20
188.5421191793855
 30
0.0
 10
-35.96164284547094
 20
188.5421191793855
 30
0.0
 10
-32.15575170282188
 20
192.3476895191477
 30
0.0
 10
-32.15575170282188
 20
197.0423872299256
 30
0.0
  0
SPLINE
  5
16C
330
70
100
AcDbEntity
  8
Standardebene
 62
     7
370
    35
100
AcDbSpline
210
0.0
220
0.0
230
1.0
 70
     9
 71
     3
 72
    17
 73
    13
 74
     0
 42
0.0000000001
 43
0.0000000001
 40
0.0
 40
0.0
 40
0.0
 40
0.0
 40
1.0
 40
1.0
 40
1.0
 40
2.0
 40
2.0
 40
2.0
 40
3.0
 40
3.0
 40
3.0
 40
4.0
 40
4.0
 40
4.0
 40
4.0
 10
-37.15550579272254
 20
197.0423872299256
 30
0.0
 10
-37.15550579272254
 20
198.9754150455598
 30
0.0
 10
-38.72273553823145
 20
200.5420033379933
 30
0.0
 10
-40.65569926134687
 20
200.5420033379933
 30
0.0
 10
-42.5884064190638
 20
200.5420033379933
 30
0.0
 10
-44.15531545782205
 20
198.9754150455598
 30
0.0
 10
-44.15531545782205
 20
197.0423872299256
 30
0.0
 10
-44.15531545782205
 20
195.1091103101091
 30
0.0
 10
-42.5884064190638
 20
193.5418731429812
 30
0.0
 10
-40.65569926134687
 20
193.5418731429812
 30
0.0
 10
-38.72273553823145
 20
193.5418731429812
 30
0.0
 10
-37.15550579272254
 20
195.1091103101091
 30
0.0
 10
-37.15550579272254
 20
197.0423872299256
 30
0.0
  0
SPLINE
  5
16D
330
70
100
AcDbEntity
  8
Standardebene
 62
     7
370
    35
100
AcDbSpline
210
0.0
220
0.0
230
1.0
 70
    11
 71
     3
 72
    17
 73
    13
 74
     0
 42
0.0000000001
 43
0.0000000001
 40
0.0
 40
0.0
 40
0.0
 40
0.0
 40
1.0
 40
1.0
 40
1.0
 40
2.0
 40
2.0
 40
2.0
 40
3.0
 40
3.0
 40
3.0
 40
4.0
 40
4.0
 40
4.0
 40
4.0
 10
-34.65591738384678
 20
197.0423872299256
 30
0.0
 10
-34.65591738384678
 20
200.3562499931319
 30
0.0
 10
-37.34215712117511
 20
203.0424896626006
 30
0.0
 10
-40.65569926134687
 20
203.0424896626006
 30
0.0
 10
-43.96930554286824
 20
203.0424896626006
 30
0.0
 10
-46.65548113884695
 20
200.3562499931319
 30
0.0
 10
-46.65548113884695
 20
197.0423872299256
 30
0.0
 10
-46.65548113884695
 20
193.7285244667192
 30
0.0
 10
-43.96930554286824
 20
191.0420282318578
 30
0.0
 10
-40.65569926134687
 20
191.0420282318578
 30
0.0
 10
-37.34215712117511
 20
191.0420282318578
 30
0.0
 10
-34.65591738384678
 20
193.7285244667192
 30
0.0
 10
-34.65591738384678
 20
197.0423872299256
 30
0.0
  0
SPLINE
  5
16E
330
70
100
AcDbEntity
  8
Standardebene
 62
     7
370
    35
100
AcDbSpline
210
0.0
220
0.0
230
1.0
 70
     9
 71
     3
 72
    17
 73
    13
 74
     0
 42
0.0000000001
 43
0.0000000001
 40
0.0
 40
0.0
 40
0.0
 40
0.0
 40
1.0
 40
1.0
 40
1.0
 40
2.0
 40
2.0
 40
2.0
 40
3.0
 40
3.0
 40
3.0
 40
4.0
 40
4.0
 40
4.0
 40
4.0
 10
-37.65600074664632
 20
197.0423872299256
 30
0.0
 10
-37.65600074664632
 20
198.6991582581579
 30
0.0
 10
-38.99892819126099
 20
200.0424705169372
 30
0.0
 10
-40.65569926134687
 20
200.0424705169372
 30
0.0
 10
-42.31221376603299
 20
200.0424705169372
 30
0.0
 10
-43.65546191739703
 20
198.6991582581579
 30
0.0
 10
-43.65546191739703
 20
197.0423872299256
 30
0.0
 10
-43.65546191739703
 20
195.3852954949521
 30
0.0
 10
-42.31221376603299
 20
194.0420473775205
 30
0.0
 10
-40.65569926134687
 20
194.0420473775205
 30
0.0
 10
-38.99892819126099
 20
194.0420473775205
 30
0.0
 10
-37.65600074664632
 20
195.3852954949521
 30
0.0
 10
-37.65600074664632
 20
197.0423872299256
 30
0.0
  0
LWPOLYLINE
  5
16F
330
70
100
AcDbEntity
  8
Standardebene
 62
     7
370
    35
100
AcDbPolyline
 90
       23
 70
     0
 43
0.0
 10
-50.65527158249783
 20
209.9425593541649
 10
-50.55412067357316
 20
209.9425593541649
 10
-50.25060380544829
 20
209.9425593541649
 10
-49.75235379877272
 20
209.9425593541649
 10
-49.06802973579371
 20
209.9425593541649
 10
-48.21270483375762
 20
209.9425593541649
 10
-47.20453109471045
 20
209.9425593541649
 10
-46.0620453687959
 20
209.9425593541649
 10
-44.80987793440865
 20
209.9425593541649
 10
-43.47317220074291
 20
209.9425593541649
 10
-42.0788675347912
 20
209.9425593541649
 10
-40.65569926134687
 20
209.9425593541649
 10
-39.23227442250278
 20
209.9425593541649
 10
-37.83829046330043
 20
209.9425593541649
 10
-36.50126402288532
 20
209.9425593541649
 10
-35.24909658849936
 20
209.9425593541649
 10
-34.10693156933419
 20
209.9425593541649
 10
-33.09843712353635
 20
209.9425593541649
 10
-32.24279151475089
 20
209.9425593541649
 10
-31.55910886527064
 20
209.9425593541649
 10
-31.06085885859506
 20
209.9425593541649
 10
-30.75734199047147
 20
209.9425593541649
 10
-30.65554966804678
 20
209.9425593541649
  0
LWPOLYLINE
  5
170
330
70
100
AcDbEntity
  8
Standardebene
 62
     7
370
    35
100
AcDbPolyline
 90
       23
 70
     0
 43
0.0
 10
-30.15601683437113
 20
209.4422568369289
 10
-30.26281218209558
 20
209.4422568369289
 10
-30.58069671261587
 20
209.4422568369289
 10
-31.1043466938854
 20
209.4422568369289
 10
-31.82221668290484
 20
209.4422568369289
 10
-32.72045214808084
 20
209.4422568369289
 10
-33.77961826036608
 20
209.4422568369289
 10
-34.97854837426706
 20
209.4422568369289
 10
-36.29395917973753
 20
209.4422568369289
 10
-37.6973077760368
 20
209.4422568369289
 10
-39.1612058067199
 20
209.4422568369289
 10
-40.65569926134687
 20
209.4422568369289
 10
-42.15025685732345
 20
209.4422568369289
 10
-43.61383418125718
 20
209.4422568369289
 10
-45.01718277755645
 20
209.4422568369289
 10
-46.33201631087778
 20
209.4422568369289
 10
-47.53184440367856
 20
209.4422568369289
 10
-48.59101051596251
 20
209.4422568369289
 10
-49.48892527438914
 20
209.4422568369289
 10
-50.20711597015924
 20
209.4422568369289
 10
-50.7304452446781
 20
209.4422568369289
 10
-51.04832977519839
 20
209.4422568369289
 10
-51.15512512292285
 20
209.4422568369289
  0
LINE
  5
172
330
70
100
AcDbEntity
  8
Bemaßung
 62
     7
370
     9
100
AcDbLine
 10
-78.62002025812291
 20
125.0064848663744
 30
0.0
 11
-78.62002025812291
 21
141.7898872159719
 31
0.0
  0
LINE
  5
173
330
70
100
AcDbEntity
  8
Bemaßung
 62
     7
370
     9
100
AcDbLine
 10
-55.24228359730063
 20
124.8969473691689
 30
0.0
 11
-55.24228359730063
 21
141.7898872159719
 31
0.0
  0
LINE
  5
174
330
70
100
AcDbEntity
  8
Bemaßung
 62
     7
370
     9
100
AcDbLine
 10
-78.62002025812291
 20
140.689679188485
 30
0.0
 11
-55.24228359730063
 21
140.689679188485
 31
0.0
  0
LWPOLYLINE
  5
175
330
70
100
AcDbEntity
  8
Bemaßung
 62
     7
370
     9
100
AcDbPolyline
 90
        4
 70
     0
 43
0.0
 10
-78.62002025812291
 20
140.689679188485
 10
-76.69522942527065
 20
140.4364553060564
 10
-76.69522942527065
 20
140.943079459798
 10
-78.62002025812291
 20
140.689679188485
  0
LINE
  5
176
330
70
100
AcDbEntity
  8
Bemaßung
 62
     7
370
     9
100
AcDbLine
 10
-76.69522942527065
 20
140.4385366948922
 30
0.0
 11
-76.7102224808223
 21
140.4385366948922
 31
0.0
  0
LINE
  5
177
330
70
100
AcDbEntity
  8
Bemaßung
 62
     7
370
     9
100
AcDbLine
 10
-76.69522942527065
 20
140.4385366948922
 30
0.0
 11
-76.7102224808223
 21
140.4385366948922
 31
0.0
  0
LINE
  5
178
330
70
100
AcDbEntity
  8
Bemaßung
 62
     7
370
     9
100
AcDbLine
 10
-76.69522942527065
 20
140.4664414164025
 30
0.0
 11
-76.92227720299179
 21
140.4664414164025
 31
0.0
  0
LINE
  5
179
330
70
100
AcDbEntity
  8
Bemaßung
 62
     7
370
     9
100
AcDbLine
 10
-76.69522942527065
 20
140.4943461379128
 30
0.0
 11
-77.13464942516087
 21
140.4943461379128
 31
0.0
  0
LINE
  5
17A
330
70
100
AcDbEntity
  8
Bemaßung
 62
     7
370
     9
100
AcDbLine
 10
-76.69522942527065
 20
140.5222508594231
 30
0.0
 11
-77.34670414733002
 21
140.5222508594231
 31
0.0
  0
LINE
  5
17B
330
70
100
AcDbEntity
  8
Bemaßung
 62
     7
370
     9
100
AcDbLine
 10
-76.69522942527065
 20
140.5501555809335
 30
0.0
 11
-77.55907636949911
 21
140.5501555809335
 31
0.0
  0
LINE
  5
17C
330
70
100
AcDbEntity
  8
Bemaßung
 62
     7
370
     9
100
AcDbLine
 10
-76.69522942527065
 20
140.5782366913285
 30
0.0
 11
-77.77113109166826
 21
140.5782366913285
 31
0.0
  0
LINE
  5
17D
330
70
100
AcDbEntity
  8
Bemaßung
 62
     7
370
     9
100
AcDbLine
 10
-76.69522942527065
 20
140.6061414128385
 30
0.0
 11
-77.98353859161519
 21
140.6061414128385
 31
0.0
  0
LINE
  5
17E
330
70
100
AcDbEntity
  8
Bemaßung
 62
     7
370
     9
100
AcDbLine
 10
-76.69522942527065
 20
140.6340461343488
 30
0.0
 11
-78.1955580360065
 21
140.6340461343488
 31
0.0
  0
LINE
  5
17F
330
70
100
AcDbEntity
  8
Bemaßung
 62
     7
370
     9
100
AcDbLine
 10
-76.69522942527065
 20
140.6617744669747
 30
0.0
 11
-78.40814192484231
 21
140.6617744669747
 31
0.0
  0
LINE
  5
180
330
70
100
AcDbEntity
  8
Bemaßung
 62
     7
370
     9
100
AcDbLine
 10
-76.69522942527065
 20
140.689679188485
 30
0.0
 11
-78.62002025812291
 21
140.689679188485
 31
0.0
  0
LINE
  5
181
330
70
100
AcDbEntity
  8
Bemaßung
 62
     7
370
     9
100
AcDbLine
 10
-76.69522942527065
 20
140.941350848731
 30
0.0
 11
-76.7102224808223
 21
140.941350848731
 31
0.0
  0
LINE
  5
182
330
70
100
AcDbEntity
  8
Bemaßung
 62
     7
370
     9
100
AcDbLine
 10
-76.69522942527065
 20
140.941350848731
 30
0.0
 11
-76.7102224808223
 21
140.941350848731
 31
0.0
  0
LINE
  5
183
330
70
100
AcDbEntity
  8
Bemaßung
 62
     7
370
     9
100
AcDbLine
 10
-76.69522942527065
 20
140.9132697383363
 30
0.0
 11
-76.92227720299179
 21
140.9132697383363
 31
0.0
  0
LINE
  5
184
330
70
100
AcDbEntity
  8
Bemaßung
 62
     7
370
     9
100
AcDbLine
 10
-76.69522942527065
 20
140.885365016826
 30
0.0
 11
-77.13464942516087
 21
140.885365016826
 31
0.0
  0
LINE
  5
185
330
70
100
AcDbEntity
  8
Bemaßung
 62
     7
370
     9
100
AcDbLine
 10
-76.69522942527065
 20
140.8572839064313
 30
0.0
 11
-77.34670414733002
 21
140.8572839064313
 31
0.0
  0
LINE
  5
186
330
70
100
AcDbEntity
  8
Bemaßung
 62
     7
370
     9
100
AcDbLine
 10
-76.69522942527065
 20
140.8293791849209
 30
0.0
 11
-77.55907636949911
 21
140.8293791849209
 31
0.0
  0
LINE
  5
187
330
70
100
AcDbEntity
  8
Bemaßung
 62
     7
370
     9
100
AcDbLine
 10
-76.69522942527065
 20
140.8014744634106
 30
0.0
 11
-77.77113109166826
 21
140.8014744634106
 31
0.0
  0
LINE
  5
188
330
70
100
AcDbEntity
  8
Bemaßung
 62
     7
370
     9
100
AcDbLine
 10
-76.69522942527065
 20
140.7735697419003
 30
0.0
 11
-77.98353859161519
 21
140.7735697419003
 31
0.0
  0
LINE
  5
189
330
70
100
AcDbEntity
  8
Bemaßung
 62
     7
370
     9
100
AcDbLine
 10
-76.69522942527065
 20
140.74566502039
 30
0.0
 11
-78.1955580360065
 21
140.74566502039
 31
0.0
  0
LINE
  5
18A
330
70
100
AcDbEntity
  8
Bemaßung
 62
     7
370
     9
100
AcDbLine
 10
-76.69522942527065
 20
140.7177638537095
 30
0.0
 11
-78.40814192484231
 21
140.7177638537095
 31
0.0
  0
LINE
  5
18B
330
70
100
AcDbEntity
  8
Bemaßung
 62
     7
370
     9
100
AcDbLine
 10
-76.69522942527065
 20
140.689679188485
 30
0.0
 11
-78.62002025812291
 21
140.689679188485
 31
0.0
  0
LWPOLYLINE
  5
18C
330
70
100
AcDbEntity
  8
Bemaßung
 62
     7
370
     9
100
AcDbPolyline
 90
        4
 70
     0
 43
0.0
 10
-55.24228359730063
 20
140.689679188485
 10
-57.16774470793057
 20
140.943079459798
 10
-57.16774470793057
 20
140.4364553060564
 10
-55.24228359730063
 20
140.689679188485
  0
LINE
  5
18D
330
70
100
AcDbEntity
  8
Bemaßung
 62
     7
370
     9
100
AcDbLine
 10
-57.16774470793057
 20
140.941350848731
 30
0.0
 11
-57.15275165237827
 21
140.941350848731
 31
0.0
  0
LINE
  5
18E
330
70
100
AcDbEntity
  8
Bemaßung
 62
     7
370
     9
100
AcDbLine
 10
-57.16774470793057
 20
140.941350848731
 30
0.0
 11
-57.15275165237827
 21
140.941350848731
 31
0.0
  0
LINE
  5
18F
330
70
100
AcDbEntity
  8
Bemaßung
 62
     7
370
     9
100
AcDbLine
 10
-57.16774470793057
 20
140.9132697383363
 30
0.0
 11
-56.94037943020951
 21
140.9132697383363
 31
0.0
  0
LINE
  5
190
330
70
100
AcDbEntity
  8
Bemaßung
 62
     7
370
     9
100
AcDbLine
 10
-57.16774470793057
 20
140.885365016826
 30
0.0
 11
-56.72814831915147
 21
140.885365016826
 31
0.0
  0
LINE
  5
191
330
70
100
AcDbEntity
  8
Bemaßung
 62
     7
370
     9
100
AcDbLine
 10
-57.16774470793057
 20
140.8572839064313
 30
0.0
 11
-56.51574081920455
 21
140.8572839064313
 31
0.0
  0
LINE
  5
192
330
70
100
AcDbEntity
  8
Bemaßung
 62
     7
370
     9
100
AcDbLine
 10
-57.16774470793057
 20
140.8293791849209
 30
0.0
 11
-56.30372137481291
 21
140.8293791849209
 31
0.0
  0
LINE
  5
193
330
70
100
AcDbEntity
  8
Bemaßung
 62
     7
370
     9
100
AcDbLine
 10
-57.16774470793057
 20
140.8014744634106
 30
0.0
 11
-56.09149026375487
 21
140.8014744634106
 31
0.0
  0
LINE
  5
194
330
70
100
AcDbEntity
  8
Bemaßung
 62
     7
370
     9
100
AcDbLine
 10
-57.16774470793057
 20
140.7735697419003
 30
0.0
 11
-55.87925915269683
 21
140.7735697419003
 31
0.0
  0
LINE
  5
195
330
70
100
AcDbEntity
  8
Bemaßung
 62
     7
370
     9
100
AcDbLine
 10
-57.16774470793057
 20
140.74566502039
 30
0.0
 11
-55.66688693052743
 21
140.74566502039
 31
0.0
  0
LINE
  5
196
330
70
100
AcDbEntity
  8
Bemaßung
 62
     7
370
     9
100
AcDbLine
 10
-57.16774470793057
 20
140.7177638537095
 30
0.0
 11
-55.45483220835826
 21
140.7177638537095
 31
0.0
  0
LINE
  5
197
330
70
100
AcDbEntity
  8
Bemaßung
 62
     7
370
     9
100
AcDbLine
 10
-57.16774470793057
 20
140.689679188485
 30
0.0
 11
-55.24228359730063
 21
140.689679188485
 31
0.0
  0
LINE
  5
198
330
70
100
AcDbEntity
  8
Bemaßung
 62
     7
370
     9
100
AcDbLine
 10
-57.16774470793057
 20
140.4385366948922
 30
0.0
 11
-57.15275165237827
 21
140.4385366948922
 31
0.0
  0
LINE
  5
199
330
70
100
AcDbEntity
  8
Bemaßung
 62
     7
370
     9
100
AcDbLine
 10
-57.16774470793057
 20
140.4385366948922
 30
0.0
 11
-57.15275165237827
 21
140.4385366948922
 31
0.0
  0
LINE
  5
19A
330
70
100
AcDbEntity
  8
Bemaßung
 62
     7
370
     9
100
AcDbLine
 10
-57.16774470793057
 20
140.4664414164025
 30
0.0
 11
-56.94037943020951
 21
140.4664414164025
 31
0.0
  0
LINE
  5
19B
330
70
100
AcDbEntity
  8
Bemaßung
 62
     7
370
     9
100
AcDbLine
 10
-57.16774470793057
 20
140.4943461379128
 30
0.0
 11
-56.72814831915147
 21
140.4943461379128
 31
0.0
  0
LINE
  5
19C
330
70
100
AcDbEntity
  8
Bemaßung
 62
     7
370
     9
100
AcDbLine
 10
-57.16774470793057
 20
140.5222508594231
 30
0.0
 11
-56.51574081920455
 21
140.5222508594231
 31
0.0
  0
LINE
  5
19D
330
70
100
AcDbEntity
  8
Bemaßung
 62
     7
370
     9
100
AcDbLine
 10
-57.16774470793057
 20
140.5501555809335
 30
0.0
 11
-56.30372137481291
 21
140.5501555809335
 31
0.0
  0
LINE
  5
19E
330
70
100
AcDbEntity
  8
Bemaßung
 62
     7
370
     9
100
AcDbLine
 10
-57.16774470793057
 20
140.5782366913285
 30
0.0
 11
-56.09149026375487
 21
140.5782366913285
 31
0.0
  0
LINE
  5
19F
330
70
100
AcDbEntity
  8
Bemaßung
 62
     7
370
     9
100
AcDbLine
 10
-57.16774470793057
 20
140.6061414128385
 30
0.0
 11
-55.87925915269683
 21
140.6061414128385
 31
0.0
  0
LINE
  5
1A0
330
70
100
AcDbEntity
  8
Bemaßung
 62
     7
370
     9
100
AcDbLine
 10
-57.16774470793057
 20
140.6340461343488
 30
0.0
 11
-55.66688693052743
 21
140.6340461343488
 31
0.0
  0
LINE
  5
1A1
330
70
100
AcDbEntity
  8
Bemaßung
 62
     7
370
     9
100
AcDbLine
 10
-57.16774470793057
 20
140.6617744669747
 30
0.0
 11
-55.45483220835826
 21
140.6617744669747
 31
0.0
  0
LINE
  5
1A2
330
70
100
AcDbEntity
  8
Bemaßung
 62
     7
370
     9
100
AcDbLine
 10
-57.16774470793057
 20
140.689679188485
 30
0.0
 11
-55.24228359730063
 21
140.689679188485
 31
0.0
  0
LINE
  5
1A3
330
70
100
AcDbEntity
  8
Bemaßung
 62
     7
370
     9
100
AcDbLine
 10
-61.43000581797559
 20
170.6019884253584
 30
0.0
 11
-48.58014582118845
 21
170.6019884253584
 31
0.0
  0
LINE
  5
1A4
330
70
100
AcDbEntity
  8
Bemaßung
 62
     7
370
     9
100
AcDbLine
 10
-57.03012609685367
 20
156.9069437747481
 30
0.0
 11
-48.58014582118845
 21
156.9069437747481
 31
0.0
  0
LINE
  5
1A5
330
70
100
AcDbEntity
  8
Bemaßung
 62
     7
370
     9
100
AcDbLine
 10
-49.68017748757976
 20
170.6019884253584
 30
0.0
 11
-49.68017748757976
 21
156.9069437747481
 31
0.0
  0
LWPOLYLINE
  5
1A6
330
70
100
AcDbEntity
  8
Bemaßung
 62
     7
370
     9
100
AcDbPolyline
 90
        4
 70
     0
 43
0.0
 10
-49.68017748757976
 20
170.6019884253584
 10
-49.9337188764057
 20
168.6767037522546
 10
-49.42695359875468
 20
168.6767037522546
 10
-49.68017748757976
 20
170.6019884253584
  0
LINE
  5
1A7
330
70
100
AcDbEntity
  8
Bemaßung
 62
     7
370
     9
100
AcDbLine
 10
-49.93167276529481
 20
168.6767037522546
 30
0.0
 11
-49.93167276529481
 21
168.6917673629811
 31
0.0
  0
LINE
  5
1A8
330
70
100
AcDbEntity
  8
Bemaßung
 62
     7
370
     9
100
AcDbLine
 10
-49.93167276529481
 20
168.6767037522546
 30
0.0
 11
-49.93167276529481
 21
168.6917673629811
 31
0.0
  0
LINE
  5
1A9
330
70
100
AcDbEntity
  8
Bemaßung
 62
     7
370
     9
100
AcDbLine
 10
-49.90359165419103
 20
168.6767037522546
 30
0.0
 11
-49.90359165419103
 21
168.9040690242315
 31
0.0
  0
LINE
  5
1AA
330
70
100
AcDbEntity
  8
Bemaßung
 62
     7
370
     9
100
AcDbLine
 10
-49.87568693197549
 20
168.6767037522546
 30
0.0
 11
-49.87568693197549
 21
169.1160221799432
 31
0.0
  0
LINE
  5
1AB
330
70
100
AcDbEntity
  8
Bemaßung
 62
     7
370
     9
100
AcDbLine
 10
-49.8477822097606
 20
168.6767037522546
 30
0.0
 11
-49.8477822097606
 21
169.3286017911786
 31
0.0
  0
LINE
  5
1AC
330
70
100
AcDbEntity
  8
Bemaßung
 62
     7
370
     9
100
AcDbLine
 10
-49.81987748754505
 20
168.6767037522546
 30
0.0
 11
-49.81987748754505
 21
169.5406212302139
 31
0.0
  0
LINE
  5
1AD
330
70
100
AcDbEntity
  8
Bemaßung
 62
     7
370
     9
100
AcDbLine
 10
-49.79179637644063
 20
168.6767037522546
 30
0.0
 11
-49.79179637644063
 21
169.7529581692412
 31
0.0
  0
LINE
  5
1AE
330
70
100
AcDbEntity
  8
Bemaßung
 62
     7
370
     9
100
AcDbLine
 10
-49.76406804311461
 20
168.6767037522546
 30
0.0
 11
-49.76406804311461
 21
169.9649070527228
 31
0.0
  0
LINE
  5
1AF
330
70
100
AcDbEntity
  8
Bemaßung
 62
     7
370
     9
100
AcDbLine
 10
-49.73598693201019
 20
168.6767037522546
 30
0.0
 11
-49.73598693201019
 21
170.1774556584114
 31
0.0
  0
LINE
  5
1B0
330
70
100
AcDbEntity
  8
Bemaßung
 62
     7
370
     9
100
AcDbLine
 10
-49.70808220979529
 20
168.6767037522546
 30
0.0
 11
-49.70808220979529
 21
170.3895103752237
 31
0.0
  0
LINE
  5
1B1
330
70
100
AcDbEntity
  8
Bemaßung
 62
     7
370
     9
100
AcDbLine
 10
-49.68017748757976
 20
168.6767037522546
 30
0.0
 11
-49.68017748757976
 21
170.6019884253584
 31
0.0
  0
LINE
  5
1B2
330
70
100
AcDbEntity
  8
Bemaßung
 62
     7
370
     9
100
AcDbLine
 10
-49.42885859875421
 20
168.6767037522546
 30
0.0
 11
-49.42885859875421
 21
168.6917673629811
 31
0.0
  0
LINE
  5
1B3
330
70
100
AcDbEntity
  8
Bemaßung
 62
     7
370
     9
100
AcDbLine
 10
-49.42885859875421
 20
168.6767037522546
 30
0.0
 11
-49.42885859875421
 21
168.6917673629811
 31
0.0
  0
LINE
  5
1B4
330
70
100
AcDbEntity
  8
Bemaßung
 62
     7
370
     9
100
AcDbLine
 10
-49.45693970985799
 20
168.6767037522546
 30
0.0
 11
-49.45693970985799
 21
168.9040690242315
 31
0.0
  0
LINE
  5
1B5
330
70
100
AcDbEntity
  8
Bemaßung
 62
     7
370
     9
100
AcDbLine
 10
-49.48466804318465
 20
168.6767037522546
 30
0.0
 11
-49.48466804318465
 21
169.1160221799432
 31
0.0
  0
LINE
  5
1B6
330
70
100
AcDbEntity
  8
Bemaßung
 62
     7
370
     9
100
AcDbLine
 10
-49.51274915428843
 20
168.6767037522546
 30
0.0
 11
-49.51274915428843
 21
169.3286017911786
 31
0.0
  0
LINE
  5
1B7
330
70
100
AcDbEntity
  8
Bemaßung
 62
     7
370
     9
100
AcDbLine
 10
-49.54083026539286
 20
168.6767037522546
 30
0.0
 11
-49.54083026539286
 21
169.5406212302139
 31
0.0
  0
LINE
  5
1B8
330
70
100
AcDbEntity
  8
Bemaßung
 62
     7
370
     9
100
AcDbLine
 10
-49.56855859871887
 20
168.6767037522546
 30
0.0
 11
-49.56855859871887
 21
169.7529581692412
 31
0.0
  0
LINE
  5
1B9
330
70
100
AcDbEntity
  8
Bemaßung
 62
     7
370
     9
100
AcDbLine
 10
-49.59646332093441
 20
168.6767037522546
 30
0.0
 11
-49.59646332093441
 21
169.9649070527228
 31
0.0
  0
LINE
  5
1BA
330
70
100
AcDbEntity
  8
Bemaßung
 62
     7
370
     9
100
AcDbLine
 10
-49.62454443203819
 20
168.6767037522546
 30
0.0
 11
-49.62454443203819
 21
170.1774556584114
 31
0.0
  0
LINE
  5
1BB
330
70
100
AcDbEntity
  8
Bemaßung
 62
     7
370
     9
100
AcDbLine
 10
-49.65244915425373
 20
168.6767037522546
 30
0.0
 11
-49.65244915425373
 21
170.3895103752237
 31
0.0
  0
LINE
  5
1BC
330
70
100
AcDbEntity
  8
Bemaßung
 62
     7
370
     9
100
AcDbLine
 10
-49.68017748757976
 20
168.6767037522546
 30
0.0
 11
-49.68017748757976
 21
170.6019884253584
 31
0.0
  0
LWPOLYLINE
  5
1BD
330
70
100
AcDbEntity
  8
Bemaßung
 62
     7
370
     9
100
AcDbPolyline
 90
        4
 70
     0
 43
0.0
 10
-49.68017748757976
 20
156.9069437747481
 10
-49.42695359875468
 20
158.8317345589759
 10
-49.9337188764057
 20
158.8317345589759
 10
-49.68017748757976
 20
156.9069437747481
  0
LINE
  5
1BE
330
70
100
AcDbEntity
  8
Bemaßung
 62
     7
370
     9
100
AcDbLine
 10
-49.42885859875421
 20
158.8317345589759
 30
0.0
 11
-49.42885859875421
 21
158.8167415038029
 31
0.0
  0
LINE
  5
1BF
330
70
100
AcDbEntity
  8
Bemaßung
 62
     7
370
     9
100
AcDbLine
 10
-49.42885859875421
 20
158.8317345589759
 30
0.0
 11
-49.42885859875421
 21
158.8167415038029
 31
0.0
  0
LINE
  5
1C0
330
70
100
AcDbEntity
  8
Bemaßung
 62
     7
370
     9
100
AcDbLine
 10
-49.45693970985799
 20
158.8317345589759
 30
0.0
 11
-49.45693970985799
 21
158.6046867869906
 31
0.0
  0
LINE
  5
1C1
330
70
100
AcDbEntity
  8
Bemaßung
 62
     7
370
     9
100
AcDbLine
 10
-49.48466804318465
 20
158.8317345589759
 30
0.0
 11
-49.48466804318465
 21
158.3923145701865
 31
0.0
  0
LINE
  5
1C2
330
70
100
AcDbEntity
  8
Bemaßung
 62
     7
370
     9
100
AcDbLine
 10
-49.51274915428843
 20
158.8317345589759
 30
0.0
 11
-49.51274915428843
 21
158.1802638493439
 31
0.0
  0
LINE
  5
1C3
330
70
100
AcDbEntity
  8
Bemaßung
 62
     7
370
     9
100
AcDbLine
 10
-49.54083026539286
 20
158.8317345589759
 30
0.0
 11
-49.54083026539286
 21
157.9678916271748
 31
0.0
  0
LINE
  5
1C4
330
70
100
AcDbEntity
  8
Bemaßung
 62
     7
370
     9
100
AcDbLine
 10
-49.56855859871887
 20
158.8317345589759
 30
0.0
 11
-49.56855859871887
 21
157.7558329197578
 31
0.0
  0
LINE
  5
1C5
330
70
100
AcDbEntity
  8
Bemaßung
 62
     7
370
     9
100
AcDbLine
 10
-49.59646332093441
 20
158.8317345589759
 30
0.0
 11
-49.59646332093441
 21
157.5434254251768
 31
0.0
  0
LINE
  5
1C6
330
70
100
AcDbEntity
  8
Bemaßung
 62
     7
370
     9
100
AcDbLine
 10
-49.62454443203819
 20
158.8317345589759
 30
0.0
 11
-49.62454443203819
 21
157.3314059861414
 31
0.0
  0
LINE
  5
1C7
330
70
100
AcDbEntity
  8
Bemaßung
 62
     7
370
     9
100
AcDbLine
 10
-49.65244915425373
 20
158.8317345589759
 30
0.0
 11
-49.65244915425373
 21
157.1189984915604
 31
0.0
  0
LINE
  5
1C8
330
70
100
AcDbEntity
  8
Bemaßung
 62
     7
370
     9
100
AcDbLine
 10
-49.68017748757976
 20
158.8317345589759
 30
0.0
 11
-49.68017748757976
 21
156.9069437747481
 31
0.0
  0
LINE
  5
1C9
330
70
100
AcDbEntity
  8
Bemaßung
 62
     7
370
     9
100
AcDbLine
 10
-49.93167276529481
 20
158.8317345589759
 30
0.0
 11
-49.93167276529481
 21
158.8167415038029
 31
0.0
  0
LINE
  5
1CA
330
70
100
AcDbEntity
  8
Bemaßung
 62
     7
370
     9
100
AcDbLine
 10
-49.93167276529481
 20
158.8317345589759
 30
0.0
 11
-49.93167276529481
 21
158.8167415038029
 31
0.0
  0
LINE
  5
1CB
330
70
100
AcDbEntity
  8
Bemaßung
 62
     7
370
     9
100
AcDbLine
 10
-49.90359165419103
 20
158.8317345589759
 30
0.0
 11
-49.90359165419103
 21
158.6046867869906
 31
0.0
  0
LINE
  5
1CC
330
70
100
AcDbEntity
  8
Bemaßung
 62
     7
370
     9
100
AcDbLine
 10
-49.87568693197549
 20
158.8317345589759
 30
0.0
 11
-49.87568693197549
 21
158.3923145701865
 31
0.0
  0
LINE
  5
1CD
330
70
100
AcDbEntity
  8
Bemaßung
 62
     7
370
     9
100
AcDbLine
 10
-49.8477822097606
 20
158.8317345589759
 30
0.0
 11
-49.8477822097606
 21
158.1802638493439
 31
0.0
  0
LINE
  5
1CE
330
70
100
AcDbEntity
  8
Bemaßung
 62
     7
370
     9
100
AcDbLine
 10
-49.81987748754505
 20
158.8317345589759
 30
0.0
 11
-49.81987748754505
 21
157.9678916271748
 31
0.0
  0
LINE
  5
1CF
330
70
100
AcDbEntity
  8
Bemaßung
 62
     7
370
     9
100
AcDbLine
 10
-49.79179637644063
 20
158.8317345589759
 30
0.0
 11
-49.79179637644063
 21
157.7558329197578
 31
0.0
  0
LINE
  5
1D0
330
70
100
AcDbEntity
  8
Bemaßung
 62
     7
370
     9
100
AcDbLine
 10
-49.76406804311461
 20
158.8317345589759
 30
0.0
 11
-49.76406804311461
 21
157.5434254251768
 31
0.0
  0
LINE
  5
1D1
330
70
100
AcDbEntity
  8
Bemaßung
 62
     7
370
     9
100
AcDbLine
 10
-49.73598693201019
 20
158.8317345589759
 30
0.0
 11
-49.73598693201019
 21
157.3314059861414
 31
0.0
  0
LINE
  5
1D2
330
70
100
AcDbEntity
  8
Bemaßung
 62
     7
370
     9
100
AcDbLine
 10
-49.70808220979529
 20
158.8317345589759
 30
0.0
 11
-49.70808220979529
 21
157.1189984915604
 31
0.0
  0
LINE
  5
1D3
330
70
100
AcDbEntity
  8
Bemaßung
 62
     7
370
     9
100
AcDbLine
 10
-49.68017748757976
 20
158.8317345589759
 30
0.0
 11
-49.68017748757976
 21
156.9069437747481
 31
0.0
  0
LINE
  5
1D4
330
70
100
AcDbEntity
  8
Bemaßung
 62
     7
370
     9
100
AcDbLine
 10
-57.03012609685367
 20
156.9069437747481
 30
0.0
 11
-48.58014582118845
 21
156.9069437747481
 31
0.0
  0
LINE
  5
1D5
330
70
100
AcDbEntity
  8
Bemaßung
 62
     7
370
     9
100
AcDbLine
 10
-62.09008831781067
 20
74.40665226839482
 30
0.0
 11
-48.58014582118845
 21
74.40665226839482
 31
0.0
  0
LINE
  5
1D6
330
70
100
AcDbEntity
  8
Bemaßung
 62
     7
370
     9
100
AcDbLine
 10
-49.68017748757976
 20
156.9069437747481
 30
0.0
 11
-49.68017748757976
 21
74.40665226839482
 31
0.0
  0
LWPOLYLINE
  5
1D7
330
70
100
AcDbEntity
  8
Bemaßung
 62
     7
370
     9
100
AcDbPolyline
 90
        4
 70
     0
 43
0.0
 10
-49.68017748757976
 20
156.9069437747481
 10
-49.9337188764057
 20
154.9820118794128
 10
-49.42695359875468
 20
154.9820118794128
 10
-49.68017748757976
 20
156.9069437747481
  0
LINE
  5
1D8
330
70
100
AcDbEntity
  8
Bemaßung
 62
     7
370
     9
100
AcDbLine
 10
-49.93167276529481
 20
154.9820118794128
 30
0.0
 11
-49.93167276529481
 21
154.9968285457014
 31
0.0
  0
LINE
  5
1D9
330
70
100
AcDbEntity
  8
Bemaßung
 62
     7
370
     9
100
AcDbLine
 10
-49.93167276529481
 20
154.9820118794128
 30
0.0
 11
-49.93167276529481
 21
154.9968285457014
 31
0.0
  0
LINE
  5
1DA
330
70
100
AcDbEntity
  8
Bemaßung
 62
     7
370
     9
100
AcDbLine
 10
-49.90359165419103
 20
154.9820118794128
 30
0.0
 11
-49.90359165419103
 21
155.2092007625056
 31
0.0
  0
LINE
  5
1DB
330
70
100
AcDbEntity
  8
Bemaßung
 62
     7
370
     9
100
AcDbLine
 10
-49.87568693197549
 20
154.9820118794128
 30
0.0
 11
-49.87568693197549
 21
155.4212554793179
 31
0.0
  0
LINE
  5
1DC
330
70
100
AcDbEntity
  8
Bemaßung
 62
     7
370
     9
100
AcDbLine
 10
-49.8477822097606
 20
154.9820118794128
 30
0.0
 11
-49.8477822097606
 21
155.6333101961301
 31
0.0
  0
LINE
  5
1DD
330
70
100
AcDbEntity
  8
Bemaßung
 62
     7
370
     9
100
AcDbLine
 10
-49.81987748754505
 20
154.9820118794128
 30
0.0
 11
-49.81987748754505
 21
155.8456824129343
 31
0.0
  0
LINE
  5
1DE
330
70
100
AcDbEntity
  8
Bemaßung
 62
     7
370
     9
100
AcDbLine
 10
-49.79179637644063
 20
154.9820118794128
 30
0.0
 11
-49.79179637644063
 21
156.0580899075153
 31
0.0
  0
LINE
  5
1DF
330
70
100
AcDbEntity
  8
Bemaßung
 62
     7
370
     9
100
AcDbLine
 10
-49.76406804311461
 20
154.9820118794128
 30
0.0
 11
-49.76406804311461
 21
156.2701446243275
 31
0.0
  0
LINE
  5
1E0
330
70
100
AcDbEntity
  8
Bemaßung
 62
     7
370
     9
100
AcDbLine
 10
-49.73598693201019
 20
154.9820118794128
 30
0.0
 11
-49.73598693201019
 21
156.4821640633629
 31
0.0
  0
LINE
  5
1E1
330
70
100
AcDbEntity
  8
Bemaßung
 62
     7
370
     9
100
AcDbLine
 10
-49.70808220979529
 20
154.9820118794128
 30
0.0
 11
-49.70808220979529
 21
156.694571557944
 31
0.0
  0
LINE
  5
1E2
330
70
100
AcDbEntity
  8
Bemaßung
 62
     7
370
     9
100
AcDbLine
 10
-49.68017748757976
 20
154.9820118794128
 30
0.0
 11
-49.68017748757976
 21
156.9069437747481
 31
0.0
  0
LINE
  5
1E3
330
70
100
AcDbEntity
  8
Bemaßung
 62
     7
370
     9
100
AcDbLine
 10
-49.42885859875421
 20
154.9820118794128
 30
0.0
 11
-49.42885859875421
 21
154.9968285457014
 31
0.0
  0
LINE
  5
1E4
330
70
100
AcDbEntity
  8
Bemaßung
 62
     7
370
     9
100
AcDbLine
 10
-49.42885859875421
 20
154.9820118794128
 30
0.0
 11
-49.42885859875421
 21
154.9968285457014
 31
0.0
  0
LINE
  5
1E5
330
70
100
AcDbEntity
  8
Bemaßung
 62
     7
370
     9
100
AcDbLine
 10
-49.45693970985799
 20
154.9820118794128
 30
0.0
 11
-49.45693970985799
 21
155.2092007625056
 31
0.0
  0
LINE
  5
1E6
330
70
100
AcDbEntity
  8
Bemaßung
 62
     7
370
     9
100
AcDbLine
 10
-49.48466804318465
 20
154.9820118794128
 30
0.0
 11
-49.48466804318465
 21
155.4212554793179
 31
0.0
  0
LINE
  5
1E7
330
70
100
AcDbEntity
  8
Bemaßung
 62
     7
370
     9
100
AcDbLine
 10
-49.51274915428843
 20
154.9820118794128
 30
0.0
 11
-49.51274915428843
 21
155.6333101961301
 31
0.0
  0
LINE
  5
1E8
330
70
100
AcDbEntity
  8
Bemaßung
 62
     7
370
     9
100
AcDbLine
 10
-49.54083026539286
 20
154.9820118794128
 30
0.0
 11
-49.54083026539286
 21
155.8456824129343
 31
0.0
  0
LINE
  5
1E9
330
70
100
AcDbEntity
  8
Bemaßung
 62
     7
370
     9
100
AcDbLine
 10
-49.56855859871887
 20
154.9820118794128
 30
0.0
 11
-49.56855859871887
 21
156.0580899075153
 31
0.0
  0
LINE
  5
1EA
330
70
100
AcDbEntity
  8
Bemaßung
 62
     7
370
     9
100
AcDbLine
 10
-49.59646332093441
 20
154.9820118794128
 30
0.0
 11
-49.59646332093441
 21
156.2701446243275
 31
0.0
  0
LINE
  5
1EB
330
70
100
AcDbEntity
  8
Bemaßung
 62
     7
370
     9
100
AcDbLine
 10
-49.62454443203819
 20
154.9820118794128
 30
0.0
 11
-49.62454443203819
 21
156.4821640633629
 31
0.0
  0
LINE
  5
1EC
330
70
100
AcDbEntity
  8
Bemaßung
 62
     7
370
     9
100
AcDbLine
 10
-49.65244915425373
 20
154.9820118794128
 30
0.0
 11
-49.65244915425373
 21
156.694571557944
 31
0.0
  0
LINE
  5
1ED
330
70
100
AcDbEntity
  8
Bemaßung
 62
     7
370
     9
100
AcDbLine
 10
-49.68017748757976
 20
154.9820118794128
 30
0.0
 11
-49.68017748757976
 21
156.9069437747481
 31
0.0
  0
LWPOLYLINE
  5
1EE
330
70
100
AcDbEntity
  8
Bemaßung
 62
     7
370
     9
100
AcDbPolyline
 90
        4
 70
     0
 43
0.0
 10
-49.68017748757976
 20
74.40665226839482
 10
-49.42695359875468
 20
76.33144305262264
 10
-49.9337188764057
 20
76.33144305262264
 10
-49.68017748757976
 20
74.40665226839482
  0
LINE
  5
1EF
330
70
100
AcDbEntity
  8
Bemaßung
 62
     7
370
     9
100
AcDbLine
 10
-49.42885859875421
 20
76.33144305262264
 30
0.0
 11
-49.42885859875421
 21
76.31662638633399
 31
0.0
  0
LINE
  5
1F0
330
70
100
AcDbEntity
  8
Bemaßung
 62
     7
370
     9
100
AcDbLine
 10
-49.42885859875421
 20
76.33144305262264
 30
0.0
 11
-49.42885859875421
 21
76.31662638633399
 31
0.0
  0
LINE
  5
1F1
330
70
100
AcDbEntity
  8
Bemaßung
 62
     7
370
     9
100
AcDbLine
 10
-49.45693970985799
 20
76.33144305262264
 30
0.0
 11
-49.45693970985799
 21
76.10439720319623
 31
0.0
  0
LINE
  5
1F2
330
70
100
AcDbEntity
  8
Bemaßung
 62
     7
370
     9
100
AcDbLine
 10
-49.48466804318465
 20
76.33144305262264
 30
0.0
 11
-49.48466804318465
 21
75.8921641749407
 31
0.0
  0
LINE
  5
1F3
330
70
100
AcDbEntity
  8
Bemaßung
 62
     7
370
     9
100
AcDbLine
 10
-49.51274915428843
 20
76.33144305262264
 30
0.0
 11
-49.51274915428843
 21
75.67996834702093
 31
0.0
  0
LINE
  5
1F4
330
70
100
AcDbEntity
  8
Bemaßung
 62
     7
370
     9
100
AcDbLine
 10
-49.54083026539286
 20
76.33144305262264
 30
0.0
 11
-49.54083026539286
 21
75.46773724132428
 31
0.0
  0
LINE
  5
1F5
330
70
100
AcDbEntity
  8
Bemaßung
 62
     7
370
     9
100
AcDbLine
 10
-49.56855859871887
 20
76.33144305262264
 30
0.0
 11
-49.56855859871887
 21
75.25554141340451
 31
0.0
  0
LINE
  5
1F6
330
70
100
AcDbEntity
  8
Bemaßung
 62
     7
370
     9
100
AcDbLine
 10
-49.59646332093441
 20
76.33144305262264
 30
0.0
 11
-49.59646332093441
 21
75.0433103077082
 31
0.0
  0
LINE
  5
1F7
330
70
100
AcDbEntity
  8
Bemaßung
 62
     7
370
     9
100
AcDbLine
 10
-49.62454443203819
 20
76.33144305262264
 30
0.0
 11
-49.62454443203819
 21
74.83107920201124
 31
0.0
  0
LINE
  5
1F8
330
70
100
AcDbEntity
  8
Bemaßung
 62
     7
370
     9
100
AcDbLine
 10
-49.65244915425373
 20
76.33144305262264
 30
0.0
 11
-49.65244915425373
 21
74.61888337409146
 31
0.0
  0
LINE
  5
1F9
330
70
100
AcDbEntity
  8
Bemaßung
 62
     7
370
     9
100
AcDbLine
 10
-49.68017748757976
 20
76.33144305262264
 30
0.0
 11
-49.68017748757976
 21
74.40665226839482
 31
0.0
  0
LINE
  5
1FA
330
70
100
AcDbEntity
  8
Bemaßung
 62
     7
370
     9
100
AcDbLine
 10
-49.93167276529481
 20
76.33144305262264
 30
0.0
 11
-49.93167276529481
 21
76.31662638633399
 31
0.0
  0
LINE
  5
1FB
330
70
100
AcDbEntity
  8
Bemaßung
 62
     7
370
     9
100
AcDbLine
 10
-49.93167276529481
 20
76.33144305262264
 30
0.0
 11
-49.93167276529481
 21
76.31662638633399
 31
0.0
  0
LINE
  5
1FC
330
70
100
AcDbEntity
  8
Bemaßung
 62
     7
370
     9
100
AcDbLine
 10
-49.90359165419103
 20
76.33144305262264
 30
0.0
 11
-49.90359165419103
 21
76.10439720319623
 31
0.0
  0
LINE
  5
1FD
330
70
100
AcDbEntity
  8
Bemaßung
 62
     7
370
     9
100
AcDbLine
 10
-49.87568693197549
 20
76.33144305262264
 30
0.0
 11
-49.87568693197549
 21
75.8921641749407
 31
0.0
  0
LINE
  5
1FE
330
70
100
AcDbEntity
  8
Bemaßung
 62
     7
370
     9
100
AcDbLine
 10
-49.8477822097606
 20
76.33144305262264
 30
0.0
 11
-49.8477822097606
 21
75.67996834702093
 31
0.0
  0
LINE
  5
1FF
330
70
100
AcDbEntity
  8
Bemaßung
 62
     7
370
     9
100
AcDbLine
 10
-49.81987748754505
 20
76.33144305262264
 30
0.0
 11
-49.81987748754505
 21
75.46773724132428
 31
0.0
  0
LINE
  5
200
330
70
100
AcDbEntity
  8
Bemaßung
 62
     7
370
     9
100
AcDbLine
 10
-49.79179637644063
 20
76.33144305262264
 30
0.0
 11
-49.79179637644063
 21
75.25554141340451
 31
0.0
  0
LINE
  5
201
330
70
100
AcDbEntity
  8
Bemaßung
 62
     7
370
     9
100
AcDbLine
 10
-49.76406804311461
 20
76.33144305262264
 30
0.0
 11
-49.76406804311461
 21
75.0433103077082
 31
0.0
  0
LINE
  5
202
330
70
100
AcDbEntity
  8
Bemaßung
 62
     7
370
     9
100
AcDbLine
 10
-49.73598693201019
 20
76.33144305262264
 30
0.0
 11
-49.73598693201019
 21
74.83107920201124
 31
0.0
  0
LINE
  5
203
330
70
100
AcDbEntity
  8
Bemaßung
 62
     7
370
     9
100
AcDbLine
 10
-49.70808220979529
 20
76.33144305262264
 30
0.0
 11
-49.70808220979529
 21
74.61888337409146
 31
0.0
  0
LINE
  5
204
330
70
100
AcDbEntity
  8
Bemaßung
 62
     7
370
     9
100
AcDbLine
 10
-49.68017748757976
 20
76.33144305262264
 30
0.0
 11
-49.68017748757976
 21
74.40665226839482
 31
0.0
  0
LINE
  5
205
330
70
100
AcDbEntity
  8
Bemaßung
 62
     7
370
     9
100
AcDbLine
 10
-119.9094841366892
 20
74.40665226839482
 30
0.0
 11
-93.95414136540022
 21
74.40665226839482
 31
0.0
  0
LINE
  5
206
330
70
100
AcDbEntity
  8
Bemaßung
 62
     7
370
     9
100
AcDbLine
 10
-112.4842527496567
 20
94.20665731881015
 30
0.0
 11
-93.95414136540022
 21
94.20665731881015
 31
0.0
  0
LINE
  5
207
330
70
100
AcDbEntity
  8
Bemaßung
 62
     7
370
     9
100
AcDbLine
 10
-95.05449053179209
 20
74.40665226839482
 30
0.0
 11
-95.05449053179209
 21
94.20665731881015
 31
0.0
  0
LWPOLYLINE
  5
208
330
70
100
AcDbEntity
  8
Bemaßung
 62
     7
370
     9
100
AcDbPolyline
 90
        4
 70
     0
 43
0.0
 10
-95.05449053179209
 20
74.40665226839482
 10
-94.80126664296639
 20
76.33144305262264
 10
-95.30820830950627
 20
76.33144305262264
 10
-95.05449053179209
 20
74.40665226839482
  0
LINE
  5
209
330
70
100
AcDbEntity
  8
Bemaßung
 62
     7
370
     9
100
AcDbLine
 10
-94.80334803185478
 20
76.33144305262264
 30
0.0
 11
-94.80334803185478
 21
76.31662638633399
 31
0.0
  0
LINE
  5
20A
330
70
100
AcDbEntity
  8
Bemaßung
 62
     7
370
     9
100
AcDbLine
 10
-94.80334803185478
 20
76.33144305262264
 30
0.0
 11
-94.80334803185478
 21
76.31662638633399
 31
0.0
  0
LINE
  5
20B
330
70
100
AcDbEntity
  8
Bemaßung
 62
     7
370
     9
100
AcDbLine
 10
-94.83107636518111
 20
76.33144305262264
 30
0.0
 11
-94.83107636518111
 21
76.10439720319623
 31
0.0
  0
LINE
  5
20C
330
70
100
AcDbEntity
  8
Bemaßung
 62
     7
370
     9
100
AcDbLine
 10
-94.85898108739634
 20
76.33144305262264
 30
0.0
 11
-94.85898108739634
 21
75.8921641749407
 31
0.0
  0
LINE
  5
20D
330
70
100
AcDbEntity
  8
Bemaßung
 62
     7
370
     9
100
AcDbLine
 10
-94.88688580961158
 20
76.33144305262264
 30
0.0
 11
-94.88688580961158
 21
75.67996834702093
 31
0.0
  0
LINE
  5
20E
330
70
100
AcDbEntity
  8
Bemaßung
 62
     7
370
     9
100
AcDbLine
 10
-94.91496692071567
 20
76.33144305262264
 30
0.0
 11
-94.91496692071567
 21
75.46773724132428
 31
0.0
  0
LINE
  5
20F
330
70
100
AcDbEntity
  8
Bemaßung
 62
     7
370
     9
100
AcDbLine
 10
-94.94287164293089
 20
76.33144305262264
 30
0.0
 11
-94.94287164293089
 21
75.25554141340451
 31
0.0
  0
LINE
  5
210
330
70
100
AcDbEntity
  8
Bemaßung
 62
     7
370
     9
100
AcDbLine
 10
-94.97059997625722
 20
76.33144305262264
 30
0.0
 11
-94.97059997625722
 21
75.0433103077082
 31
0.0
  0
LINE
  5
211
330
70
100
AcDbEntity
  8
Bemaßung
 62
     7
370
     9
100
AcDbLine
 10
-94.99868108736132
 20
76.33144305262264
 30
0.0
 11
-94.99868108736132
 21
74.83107920201124
 31
0.0
  0
LINE
  5
212
330
70
100
AcDbEntity
  8
Bemaßung
 62
     7
370
     9
100
AcDbLine
 10
-95.02658580957719
 20
76.33144305262264
 30
0.0
 11
-95.02658580957719
 21
74.61888337409146
 31
0.0
  0
LINE
  5
213
330
70
100
AcDbEntity
  8
Bemaßung
 62
     7
370
     9
100
AcDbLine
 10
-95.05449053179209
 20
76.33144305262264
 30
0.0
 11
-95.05449053179209
 21
74.40665226839482
 31
0.0
  0
LINE
  5
214
330
70
100
AcDbEntity
  8
Bemaßung
 62
     7
370
     9
100
AcDbLine
 10
-95.30633858728458
 20
76.33144305262264
 30
0.0
 11
-95.30633858728458
 21
76.31662638633399
 31
0.0
  0
LINE
  5
215
330
70
100
AcDbEntity
  8
Bemaßung
 62
     7
370
     9
100
AcDbLine
 10
-95.30633858728458
 20
76.33144305262264
 30
0.0
 11
-95.30633858728458
 21
76.31662638633399
 31
0.0
  0
LINE
  5
216
330
70
100
AcDbEntity
  8
Bemaßung
 62
     7
370
     9
100
AcDbLine
 10
-95.27825747618049
 20
76.33144305262264
 30
0.0
 11
-95.27825747618049
 21
76.10439720319623
 31
0.0
  0
LINE
  5
217
330
70
100
AcDbEntity
  8
Bemaßung
 62
     7
370
     9
100
AcDbLine
 10
-95.25035275396525
 20
76.33144305262264
 30
0.0
 11
-95.25035275396525
 21
75.8921641749407
 31
0.0
  0
LINE
  5
218
330
70
100
AcDbEntity
  8
Bemaßung
 62
     7
370
     9
100
AcDbLine
 10
-95.22244803175004
 20
76.33144305262264
 30
0.0
 11
-95.22244803175004
 21
75.67996834702093
 31
0.0
  0
LINE
  5
219
330
70
100
AcDbEntity
  8
Bemaßung
 62
     7
370
     9
100
AcDbLine
 10
-95.19454330953482
 20
76.33144305262264
 30
0.0
 11
-95.19454330953482
 21
75.46773724132428
 31
0.0
  0
LINE
  5
21A
330
70
100
AcDbEntity
  8
Bemaßung
 62
     7
370
     9
100
AcDbLine
 10
-95.16646219843073
 20
76.33144305262264
 30
0.0
 11
-95.16646219843073
 21
75.25554141340451
 31
0.0
  0
LINE
  5
21B
330
70
100
AcDbEntity
  8
Bemaßung
 62
     7
370
     9
100
AcDbLine
 10
-95.13855747621551
 20
76.33144305262264
 30
0.0
 11
-95.13855747621551
 21
75.0433103077082
 31
0.0
  0
LINE
  5
21C
330
70
100
AcDbEntity
  8
Bemaßung
 62
     7
370
     9
100
AcDbLine
 10
-95.11065275399998
 20
76.33144305262264
 30
0.0
 11
-95.11065275399998
 21
74.83107920201124
 31
0.0
  0
LINE
  5
21D
330
70
100
AcDbEntity
  8
Bemaßung
 62
     7
370
     9
100
AcDbLine
 10
-95.0823952540073
 20
76.33144305262264
 30
0.0
 11
-95.0823952540073
 21
74.61888337409146
 31
0.0
  0
LINE
  5
21E
330
70
100
AcDbEntity
  8
Bemaßung
 62
     7
370
     9
100
AcDbLine
 10
-95.05449053179209
 20
76.33144305262264
 30
0.0
 11
-95.05449053179209
 21
74.40665226839482
 31
0.0
  0
LWPOLYLINE
  5
21F
330
70
100
AcDbEntity
  8
Bemaßung
 62
     7
370
     9
100
AcDbPolyline
 90
        4
 70
     0
 43
0.0
 10
-95.05449053179209
 20
94.20665731881015
 10
-95.30820830950627
 20
92.28186653458234
 10
-94.80126664296639
 20
92.28186653458234
 10
-95.05449053179209
 20
94.20665731881015
  0
LINE
  5
220
330
70
100
AcDbEntity
  8
Bemaßung
 62
     7
370
     9
100
AcDbLine
 10
-95.30633858728458
 20
92.28186653458234
 30
0.0
 11
-95.30633858728458
 21
92.296683200871
 31
0.0
  0
LINE
  5
221
330
70
100
AcDbEntity
  8
Bemaßung
 62
     7
370
     9
100
AcDbLine
 10
-95.30633858728458
 20
92.28186653458234
 30
0.0
 11
-95.30633858728458
 21
92.296683200871
 31
0.0
  0
LINE
  5
222
330
70
100
AcDbEntity
  8
Bemaßung
 62
     7
370
     9
100
AcDbLine
 10
-95.27825747618049
 20
92.28186653458234
 30
0.0
 11
-95.27825747618049
 21
92.50891664353929
 31
0.0
  0
LINE
  5
223
330
70
100
AcDbEntity
  8
Bemaßung
 62
     7
370
     9
100
AcDbLine
 10
-95.25035275396525
 20
92.28186653458234
 30
0.0
 11
-95.25035275396525
 21
92.72146291225618
 31
0.0
  0
LINE
  5
224
330
70
100
AcDbEntity
  8
Bemaßung
 62
     7
370
     9
100
AcDbLine
 10
-95.22244803175004
 20
92.28186653458234
 30
0.0
 11
-95.22244803175004
 21
92.93369401795283
 31
0.0
  0
LINE
  5
225
330
70
100
AcDbEntity
  8
Bemaßung
 62
     7
370
     9
100
AcDbLine
 10
-95.19454330953482
 20
92.28186653458234
 30
0.0
 11
-95.19454330953482
 21
93.1455723458807
 31
0.0
  0
LINE
  5
226
330
70
100
AcDbEntity
  8
Bemaßung
 62
     7
370
     9
100
AcDbLine
 10
-95.16646219843073
 20
92.28186653458234
 30
0.0
 11
-95.16646219843073
 21
93.35776817380047
 31
0.0
  0
LINE
  5
227
330
70
100
AcDbEntity
  8
Bemaßung
 62
     7
370
     9
100
AcDbLine
 10
-95.13855747621551
 20
92.28186653458234
 30
0.0
 11
-95.13855747621551
 21
93.57035205726587
 31
0.0
  0
LINE
  5
228
330
70
100
AcDbEntity
  8
Bemaßung
 62
     7
370
     9
100
AcDbLine
 10
-95.11065275399998
 20
92.28186653458234
 30
0.0
 11
-95.11065275399998
 21
93.78254788518566
 31
0.0
  0
LINE
  5
229
330
70
100
AcDbEntity
  8
Bemaßung
 62
     7
370
     9
100
AcDbLine
 10
-95.0823952540073
 20
92.28186653458234
 30
0.0
 11
-95.0823952540073
 21
93.9947789908823
 31
0.0
  0
LINE
  5
22A
330
70
100
AcDbEntity
  8
Bemaßung
 62
     7
370
     9
100
AcDbLine
 10
-95.05449053179209
 20
92.28186653458234
 30
0.0
 11
-95.05449053179209
 21
94.20665731881015
 31
0.0
  0
LINE
  5
22B
330
70
100
AcDbEntity
  8
Bemaßung
 62
     7
370
     9
100
AcDbLine
 10
-94.80334803185478
 20
92.28186653458234
 30
0.0
 11
-94.80334803185478
 21
92.296683200871
 31
0.0
  0
LINE
  5
22C
330
70
100
AcDbEntity
  8
Bemaßung
 62
     7
370
     9
100
AcDbLine
 10
-94.80334803185478
 20
92.28186653458234
 30
0.0
 11
-94.80334803185478
 21
92.296683200871
 31
0.0
  0
LINE
  5
22D
330
70
100
AcDbEntity
  8
Bemaßung
 62
     7
370
     9
100
AcDbLine
 10
-94.83107636518111
 20
92.28186653458234
 30
0.0
 11
-94.83107636518111
 21
92.50891664353929
 31
0.0
  0
LINE
  5
22E
330
70
100
AcDbEntity
  8
Bemaßung
 62
     7
370
     9
100
AcDbLine
 10
-94.85898108739634
 20
92.28186653458234
 30
0.0
 11
-94.85898108739634
 21
92.72146291225618
 31
0.0
  0
LINE
  5
22F
330
70
100
AcDbEntity
  8
Bemaßung
 62
     7
370
     9
100
AcDbLine
 10
-94.88688580961158
 20
92.28186653458234
 30
0.0
 11
-94.88688580961158
 21
92.93369401795283
 31
0.0
  0
LINE
  5
230
330
70
100
AcDbEntity
  8
Bemaßung
 62
     7
370
     9
100
AcDbLine
 10
-94.91496692071567
 20
92.28186653458234
 30
0.0
 11
-94.91496692071567
 21
93.1455723458807
 31
0.0
  0
LINE
  5
231
330
70
100
AcDbEntity
  8
Bemaßung
 62
     7
370
     9
100
AcDbLine
 10
-94.94287164293089
 20
92.28186653458234
 30
0.0
 11
-94.94287164293089
 21
93.35776817380047
 31
0.0
  0
LINE
  5
232
330
70
100
AcDbEntity
  8
Bemaßung
 62
     7
370
     9
100
AcDbLine
 10
-94.97059997625722
 20
92.28186653458234
 30
0.0
 11
-94.97059997625722
 21
93.57035205726587
 31
0.0
  0
LINE
  5
233
330
70
100
AcDbEntity
  8
Bemaßung
 62
     7
370
     9
100
AcDbLine
 10
-94.99868108736132
 20
92.28186653458234
 30
0.0
 11
-94.99868108736132
 21
93.78254788518566
 31
0.0
  0
LINE
  5
234
330
70
100
AcDbEntity
  8
Bemaßung
 62
     7
370
     9
100
AcDbLine
 10
-95.02658580957719
 20
92.28186653458234
 30
0.0
 11
-95.02658580957719
 21
93.9947789908823
 31
0.0
  0
LINE
  5
235
330
70
100
AcDbEntity
  8
Bemaßung
 62
     7
370
     9
100
AcDbLine
 10
-95.05449053179209
 20
92.28186653458234
 30
0.0
 11
-95.05449053179209
 21
94.20665731881015
 31
0.0
  0
LINE
  5
236
330
70
100
AcDbEntity
  8
Bemaßung
 62
     7
370
     9
100
AcDbLine
 10
-117.8195227483229
 20
74.95684447658047
 30
0.0
 11
-117.8195227483229
 21
67.87511299058383
 31
0.0
  0
LINE
  5
237
330
70
100
AcDbEntity
  8
Bemaßung
 62
     7
370
     9
100
AcDbLine
 10
-112.3192585830312
 20
74.95684447658047
 30
0.0
 11
-112.3192585830312
 21
67.87511299058383
 31
0.0
  0
LINE
  5
238
330
70
100
AcDbEntity
  8
Bemaßung
 62
     7
370
     9
100
AcDbLine
 10
-117.8195227483229
 20
68.97475831608973
 30
0.0
 11
-102.4626474743844
 21
68.97475831608973
 31
0.0
  0
LWPOLYLINE
  5
239
330
70
100
AcDbEntity
  8
Bemaßung
 62
     7
370
     9
100
AcDbPolyline
 90
        4
 70
     0
 43
0.0
 10
-117.8195227483229
 20
68.97475831608973
 10
-115.8943791376932
 20
68.72156796898896
 10
-115.8943791376932
 20
69.22868601160685
 10
-117.8195227483229
 20
68.97475831608973
  0
LINE
  5
23A
330
70
100
AcDbEntity
  8
Bemaßung
 62
     7
370
     9
100
AcDbLine
 10
-115.8943791376932
 20
68.72361408004787
 30
0.0
 11
-115.9093721932448
 21
68.72361408004787
 31
0.0
  0
LINE
  5
23B
330
70
100
AcDbEntity
  8
Bemaßung
 62
     7
370
     9
100
AcDbLine
 10
-115.8943791376932
 20
68.72361408004787
 30
0.0
 11
-115.9093721932448
 21
68.72361408004787
 31
0.0
  0
LINE
  5
23C
330
70
100
AcDbEntity
  8
Bemaßung
 62
     7
370
     9
100
AcDbLine
 10
-115.8943791376932
 20
68.75151880155851
 30
0.0
 11
-116.121426915414
 21
68.75151880155851
 31
0.0
  0
LINE
  5
23D
330
70
100
AcDbEntity
  8
Bemaßung
 62
     7
370
     9
100
AcDbLine
 10
-115.8943791376932
 20
68.7794235230685
 30
0.0
 11
-116.3339755264719
 21
68.7794235230685
 31
0.0
  0
LINE
  5
23E
330
70
100
AcDbEntity
  8
Bemaßung
 62
     7
370
     9
100
AcDbLine
 10
-115.8943791376932
 20
68.8070107445869
 30
0.0
 11
-116.5460302486417
 21
68.8070107445869
 31
0.0
  0
LINE
  5
23F
330
70
100
AcDbEntity
  8
Bemaßung
 62
     7
370
     9
100
AcDbLine
 10
-115.8943791376932
 20
68.83491546609754
 30
0.0
 11
-116.7582613596995
 21
68.83491546609754
 31
0.0
  0
LINE
  5
240
330
70
100
AcDbEntity
  8
Bemaßung
 62
     7
370
     9
100
AcDbLine
 10
-115.8943791376932
 20
68.86313768759944
 30
0.0
 11
-116.9702808040908
 21
68.86313768759944
 31
0.0
  0
LINE
  5
241
330
70
100
AcDbEntity
  8
Bemaßung
 62
     7
370
     9
100
AcDbLine
 10
-115.8943791376932
 20
68.89104240910976
 30
0.0
 11
-117.1828646929266
 21
68.89104240910976
 31
0.0
  0
LINE
  5
242
330
70
100
AcDbEntity
  8
Bemaßung
 62
     7
370
     9
100
AcDbLine
 10
-115.8943791376932
 20
68.91894713062007
 30
0.0
 11
-117.3948841373179
 21
68.91894713062007
 31
0.0
  0
LINE
  5
243
330
70
100
AcDbEntity
  8
Bemaßung
 62
     7
370
     9
100
AcDbLine
 10
-115.8943791376932
 20
68.94685185213038
 30
0.0
 11
-117.6071152483759
 21
68.94685185213038
 31
0.0
  0
LINE
  5
244
330
70
100
AcDbEntity
  8
Bemaßung
 62
     7
370
     9
100
AcDbLine
 10
-115.8943791376932
 20
68.97475831608973
 30
0.0
 11
-117.8195227483229
 21
68.97475831608973
 31
0.0
  0
LINE
  5
245
330
70
100
AcDbEntity
  8
Bemaßung
 62
     7
370
     9
100
AcDbLine
 10
-115.8943791376932
 20
69.2262518450023
 30
0.0
 11
-115.9093721932448
 21
69.2262518450023
 31
0.0
  0
LINE
  5
246
330
70
100
AcDbEntity
  8
Bemaßung
 62
     7
370
     9
100
AcDbLine
 10
-115.8943791376932
 20
69.2262518450023
 30
0.0
 11
-115.9093721932448
 21
69.2262518450023
 31
0.0
  0
LINE
  5
247
330
70
100
AcDbEntity
  8
Bemaßung
 62
     7
370
     9
100
AcDbLine
 10
-115.8943791376932
 20
69.19834712349166
 30
0.0
 11
-116.121426915414
 21
69.19834712349166
 31
0.0
  0
LINE
  5
248
330
70
100
AcDbEntity
  8
Bemaßung
 62
     7
370
     9
100
AcDbLine
 10
-115.8943791376932
 20
69.17044240198165
 30
0.0
 11
-116.3339755264719
 21
69.17044240198165
 31
0.0
  0
LINE
  5
249
330
70
100
AcDbEntity
  8
Bemaßung
 62
     7
370
     9
100
AcDbLine
 10
-115.8943791376932
 20
69.14253768047135
 30
0.0
 11
-116.5460302486417
 21
69.14253768047135
 31
0.0
  0
LINE
  5
24A
330
70
100
AcDbEntity
  8
Bemaßung
 62
     7
370
     9
100
AcDbLine
 10
-115.8943791376932
 20
69.11431545896913
 30
0.0
 11
-116.7582613596995
 21
69.11431545896913
 31
0.0
  0
LINE
  5
24B
330
70
100
AcDbEntity
  8
Bemaßung
 62
     7
370
     9
100
AcDbLine
 10
-115.8943791376932
 20
69.08637545968194
 30
0.0
 11
-116.9702808040908
 21
69.08637545968194
 31
0.0
  0
LINE
  5
24C
330
70
100
AcDbEntity
  8
Bemaßung
 62
     7
370
     9
100
AcDbLine
 10
-115.8943791376932
 20
69.05882351594041
 30
0.0
 11
-117.1828646929266
 21
69.05882351594041
 31
0.0
  0
LINE
  5
24D
330
70
100
AcDbEntity
  8
Bemaßung
 62
     7
370
     9
100
AcDbLine
 10
-115.8943791376932
 20
69.03091879443009
 30
0.0
 11
-117.3948841373179
 21
69.03091879443009
 31
0.0
  0
LINE
  5
24E
330
70
100
AcDbEntity
  8
Bemaßung
 62
     7
370
     9
100
AcDbLine
 10
-115.8943791376932
 20
69.002661295151
 30
0.0
 11
-117.6071152483759
 21
69.002661295151
 31
0.0
  0
LINE
  5
24F
330
70
100
AcDbEntity
  8
Bemaßung
 62
     7
370
     9
100
AcDbLine
 10
-115.8943791376932
 20
68.97475831608973
 30
0.0
 11
-117.8195227483229
 21
68.97475831608973
 31
0.0
  0
LWPOLYLINE
  5
250
330
70
100
AcDbEntity
  8
Bemaßung
 62
     7
370
     9
100
AcDbPolyline
 90
        4
 70
     0
 43
0.0
 10
-112.3192585830312
 20
68.97475831608973
 10
-114.2443669158834
 20
69.22868601160685
 10
-114.2443669158834
 20
68.72156796898896
 10
-112.3192585830312
 20
68.97475831608973
  0
LINE
  5
251
330
70
100
AcDbEntity
  8
Bemaßung
 62
     7
370
     9
100
AcDbLine
 10
-114.2443669158834
 20
69.2262518450023
 30
0.0
 11
-114.2293738603314
 21
69.2262518450023
 31
0.0
  0
LINE
  5
252
330
70
100
AcDbEntity
  8
Bemaßung
 62
     7
370
     9
100
AcDbLine
 10
-114.2443669158834
 20
69.2262518450023
 30
0.0
 11
-114.2293738603314
 21
69.2262518450023
 31
0.0
  0
LINE
  5
253
330
70
100
AcDbEntity
  8
Bemaßung
 62
     7
370
     9
100
AcDbLine
 10
-114.2443669158834
 20
69.19834712349166
 30
0.0
 11
-114.0170016381624
 21
69.19834712349166
 31
0.0
  0
LINE
  5
254
330
70
100
AcDbEntity
  8
Bemaßung
 62
     7
370
     9
100
AcDbLine
 10
-114.2443669158834
 20
69.17044240198165
 30
0.0
 11
-113.8049469159932
 21
69.17044240198165
 31
0.0
  0
LINE
  5
255
330
70
100
AcDbEntity
  8
Bemaßung
 62
     7
370
     9
100
AcDbLine
 10
-114.2443669158834
 20
69.14253768047135
 30
0.0
 11
-113.5927158049352
 21
69.14253768047135
 31
0.0
  0
LINE
  5
256
330
70
100
AcDbEntity
  8
Bemaßung
 62
     7
370
     9
100
AcDbLine
 10
-114.2443669158834
 20
69.11431545896913
 30
0.0
 11
-113.380519971655
 21
69.11431545896913
 31
0.0
  0
LINE
  5
257
330
70
100
AcDbEntity
  8
Bemaßung
 62
     7
370
     9
100
AcDbLine
 10
-114.2443669158834
 20
69.08637545968194
 30
0.0
 11
-113.1681124717081
 21
69.08637545968194
 31
0.0
  0
LINE
  5
258
330
70
100
AcDbEntity
  8
Bemaßung
 62
     7
370
     9
100
AcDbLine
 10
-114.2443669158834
 20
69.05882351594041
 30
0.0
 11
-112.9560577495389
 21
69.05882351594041
 31
0.0
  0
LINE
  5
259
330
70
100
AcDbEntity
  8
Bemaßung
 62
     7
370
     9
100
AcDbLine
 10
-114.2443669158834
 20
69.03091879443009
 30
0.0
 11
-112.7438619162584
 21
69.03091879443009
 31
0.0
  0
LINE
  5
25A
330
70
100
AcDbEntity
  8
Bemaßung
 62
     7
370
     9
100
AcDbLine
 10
-114.2443669158834
 20
69.002661295151
 30
0.0
 11
-112.5316308052003
 21
69.002661295151
 31
0.0
  0
LINE
  5
25B
330
70
100
AcDbEntity
  8
Bemaßung
 62
     7
370
     9
100
AcDbLine
 10
-114.2443669158834
 20
68.97475831608973
 30
0.0
 11
-112.3192585830312
 21
68.97475831608973
 31
0.0
  0
LINE
  5
25C
330
70
100
AcDbEntity
  8
Bemaßung
 62
     7
370
     9
100
AcDbLine
 10
-114.2443669158834
 20
68.72361408004787
 30
0.0
 11
-114.2293738603314
 21
68.72361408004787
 31
0.0
  0
LINE
  5
25D
330
70
100
AcDbEntity
  8
Bemaßung
 62
     7
370
     9
100
AcDbLine
 10
-114.2443669158834
 20
68.72361408004787
 30
0.0
 11
-114.2293738603314
 21
68.72361408004787
 31
0.0
  0
LINE
  5
25E
330
70
100
AcDbEntity
  8
Bemaßung
 62
     7
370
     9
100
AcDbLine
 10
-114.2443669158834
 20
68.75151880155851
 30
0.0
 11
-114.0170016381624
 21
68.75151880155851
 31
0.0
  0
LINE
  5
25F
330
70
100
AcDbEntity
  8
Bemaßung
 62
     7
370
     9
100
AcDbLine
 10
-114.2443669158834
 20
68.7794235230685
 30
0.0
 11
-113.8049469159932
 21
68.7794235230685
 31
0.0
  0
LINE
  5
260
330
70
100
AcDbEntity
  8
Bemaßung
 62
     7
370
     9
100
AcDbLine
 10
-114.2443669158834
 20
68.8070107445869
 30
0.0
 11
-113.5927158049352
 21
68.8070107445869
 31
0.0
  0
LINE
  5
261
330
70
100
AcDbEntity
  8
Bemaßung
 62
     7
370
     9
100
AcDbLine
 10
-114.2443669158834
 20
68.83491546609754
 30
0.0
 11
-113.380519971655
 21
68.83491546609754
 31
0.0
  0
LINE
  5
262
330
70
100
AcDbEntity
  8
Bemaßung
 62
     7
370
     9
100
AcDbLine
 10
-114.2443669158834
 20
68.86313768759944
 30
0.0
 11
-113.1681124717081
 21
68.86313768759944
 31
0.0
  0
LINE
  5
263
330
70
100
AcDbEntity
  8
Bemaßung
 62
     7
370
     9
100
AcDbLine
 10
-114.2443669158834
 20
68.89104240910976
 30
0.0
 11
-112.9560577495389
 21
68.89104240910976
 31
0.0
  0
LINE
  5
264
330
70
100
AcDbEntity
  8
Bemaßung
 62
     7
370
     9
100
AcDbLine
 10
-114.2443669158834
 20
68.91894713062007
 30
0.0
 11
-112.7438619162584
 21
68.91894713062007
 31
0.0
  0
LINE
  5
265
330
70
100
AcDbEntity
  8
Bemaßung
 62
     7
370
     9
100
AcDbLine
 10
-114.2443669158834
 20
68.94685185213038
 30
0.0
 11
-112.5316308052003
 21
68.94685185213038
 31
0.0
  0
LINE
  5
266
330
70
100
AcDbEntity
  8
Bemaßung
 62
     7
370
     9
100
AcDbLine
 10
-114.2443669158834
 20
68.97475831608973
 30
0.0
 11
-112.3192585830312
 21
68.97475831608973
 31
0.0
  0
LINE
  5
267
330
70
100
AcDbEntity
  8
Bemaßung
 62
     7
370
     9
100
AcDbLine
 10
-120.5693902476353
 20
156.6320240595397
 30
0.0
 11
-120.5693902476353
 21
139.5436806066108
 31
0.0
  0
LINE
  5
268
330
70
100
AcDbEntity
  8
Bemaßung
 62
     7
370
     9
100
AcDbLine
 10
-120.5693902476353
 20
140.6436805203947
 30
0.0
 11
-109.5693558059409
 21
140.6436805203947
 31
0.0
  0
LWPOLYLINE
  5
269
330
70
100
AcDbEntity
  8
Bemaßung
 62
     7
370
     9
100
AcDbPolyline
 90
        4
 70
     0
 43
0.0
 10
-120.5693902476353
 20
140.6436805203947
 10
-118.6445994147834
 20
140.3904883627847
 10
-118.6445994147834
 20
140.8970772387494
 10
-120.5693902476353
 20
140.6436805203947
  0
LINE
  5
26A
330
70
100
AcDbEntity
  8
Bemaßung
 62
     7
370
     9
100
AcDbLine
 10
-118.6445994147834
 20
140.3923580849592
 30
0.0
 11
-118.6592396925573
 21
140.3923580849592
 31
0.0
  0
LINE
  5
26B
330
70
100
AcDbEntity
  8
Bemaßung
 62
     7
370
     9
100
AcDbLine
 10
-118.6445994147834
 20
140.3923580849592
 30
0.0
 11
-118.6592396925573
 21
140.3923580849592
 31
0.0
  0
LINE
  5
26C
330
70
100
AcDbEntity
  8
Bemaßung
 62
     7
370
     9
100
AcDbLine
 10
-118.6445994147834
 20
140.4202628064695
 30
0.0
 11
-118.8716471925042
 21
140.4202628064695
 31
0.0
  0
LINE
  5
26D
330
70
100
AcDbEntity
  8
Bemaßung
 62
     7
370
     9
100
AcDbLine
 10
-118.6445994147834
 20
140.4481675279798
 30
0.0
 11
-119.0838430257844
 21
140.4481675279798
 31
0.0
  0
LINE
  5
26E
330
70
100
AcDbEntity
  8
Bemaßung
 62
     7
370
     9
100
AcDbLine
 10
-118.6445994147834
 20
140.4762486383745
 30
0.0
 11
-119.2958977479539
 21
140.4762486383745
 31
0.0
  0
LINE
  5
26F
330
70
100
AcDbEntity
  8
Bemaßung
 62
     7
370
     9
100
AcDbLine
 10
-118.6445994147834
 20
140.5041533598848
 30
0.0
 11
-119.508128859012
 21
140.5041533598848
 31
0.0
  0
LINE
  5
270
330
70
100
AcDbEntity
  8
Bemaßung
 62
     7
370
     9
100
AcDbLine
 10
-118.6445994147834
 20
140.5320580813951
 30
0.0
 11
-119.720501081181
 21
140.5320580813951
 31
0.0
  0
LINE
  5
271
330
70
100
AcDbEntity
  8
Bemaßung
 62
     7
370
     9
100
AcDbLine
 10
-118.6445994147834
 20
140.5599628029055
 30
0.0
 11
-119.9327321922391
 21
140.5599628029055
 31
0.0
  0
LINE
  5
272
330
70
100
AcDbEntity
  8
Bemaßung
 62
     7
370
     9
100
AcDbLine
 10
-118.6445994147834
 20
140.5878675244158
 30
0.0
 11
-120.1447869144082
 21
140.5878675244158
 31
0.0
  0
LINE
  5
273
330
70
100
AcDbEntity
  8
Bemaßung
 62
     7
370
     9
100
AcDbLine
 10
-118.6445994147834
 20
140.6157722459261
 30
0.0
 11
-120.3569827476884
 21
140.6157722459261
 31
0.0
  0
LINE
  5
274
330
70
100
AcDbEntity
  8
Bemaßung
 62
     7
370
     9
100
AcDbLine
 10
-118.6445994147834
 20
140.6436805203947
 30
0.0
 11
-120.5693902476353
 21
140.6436805203947
 31
0.0
  0
LINE
  5
275
330
70
100
AcDbEntity
  8
Bemaßung
 62
     7
370
     9
100
AcDbLine
 10
-118.6445994147834
 20
140.8953486276824
 30
0.0
 11
-118.6592396925573
 21
140.8953486276824
 31
0.0
  0
LINE
  5
276
330
70
100
AcDbEntity
  8
Bemaßung
 62
     7
370
     9
100
AcDbLine
 10
-118.6445994147834
 20
140.8953486276824
 30
0.0
 11
-118.6592396925573
 21
140.8953486276824
 31
0.0
  0
LINE
  5
277
330
70
100
AcDbEntity
  8
Bemaßung
 62
     7
370
     9
100
AcDbLine
 10
-118.6445994147834
 20
140.8672675172877
 30
0.0
 11
-118.8716471925042
 21
140.8672675172877
 31
0.0
  0
LINE
  5
278
330
70
100
AcDbEntity
  8
Bemaßung
 62
     7
370
     9
100
AcDbLine
 10
-118.6445994147834
 20
140.839186406893
 30
0.0
 11
-119.0838430257844
 21
140.839186406893
 31
0.0
  0
LINE
  5
279
330
70
100
AcDbEntity
  8
Bemaßung
 62
     7
370
     9
100
AcDbLine
 10
-118.6445994147834
 20
140.8112816853827
 30
0.0
 11
-119.2958977479539
 21
140.8112816853827
 31
0.0
  0
LINE
  5
27A
330
70
100
AcDbEntity
  8
Bemaßung
 62
     7
370
     9
100
AcDbLine
 10
-118.6445994147834
 20
140.7833805203597
 30
0.0
 11
-119.508128859012
 21
140.7833805203597
 31
0.0
  0
LINE
  5
27B
330
70
100
AcDbEntity
  8
Bemaßung
 62
     7
370
     9
100
AcDbLine
 10
-118.6445994147834
 20
140.755472242362
 30
0.0
 11
-119.720501081181
 21
140.755472242362
 31
0.0
  0
LINE
  5
27C
330
70
100
AcDbEntity
  8
Bemaßung
 62
     7
370
     9
100
AcDbLine
 10
-118.6445994147834
 20
140.7274264097442
 30
0.0
 11
-119.9327321922391
 21
140.7274264097442
 31
0.0
  0
LINE
  5
27D
330
70
100
AcDbEntity
  8
Bemaßung
 62
     7
370
     9
100
AcDbLine
 10
-118.6445994147834
 20
140.6995216882339
 30
0.0
 11
-120.1447869144082
 21
140.6995216882339
 31
0.0
  0
LINE
  5
27E
330
70
100
AcDbEntity
  8
Bemaßung
 62
     7
370
     9
100
AcDbLine
 10
-118.6445994147834
 20
140.6716169667236
 30
0.0
 11
-120.3569827476884
 21
140.6716169667236
 31
0.0
  0
LINE
  5
27F
330
70
100
AcDbEntity
  8
Bemaßung
 62
     7
370
     9
100
AcDbLine
 10
-118.6445994147834
 20
140.6436805203947
 30
0.0
 11
-120.5693902476353
 21
140.6436805203947
 31
0.0
  0
LWPOLYLINE
  5
280
330
70
100
AcDbEntity
  8
Bemaßung
 62
     7
370
     9
100
AcDbPolyline
 90
        4
 70
     0
 43
0.0
 10
-109.5693558059409
 20
140.6436805203947
 10
-111.4944994165709
 20
140.8970772387494
 10
-111.4944994165709
 20
140.3904883627847
 10
-109.5693558059409
 20
140.6436805203947
  0
LINE
  5
281
330
70
100
AcDbEntity
  8
Bemaßung
 62
     7
370
     9
100
AcDbLine
 10
-111.4944994165709
 20
140.8953486276824
 30
0.0
 11
-111.479506361019
 21
140.8953486276824
 31
0.0
  0
LINE
  5
282
330
70
100
AcDbEntity
  8
Bemaßung
 62
     7
370
     9
100
AcDbLine
 10
-111.4944994165709
 20
140.8953486276824
 30
0.0
 11
-111.479506361019
 21
140.8953486276824
 31
0.0
  0
LINE
  5
283
330
70
100
AcDbEntity
  8
Bemaßung
 62
     7
370
     9
100
AcDbLine
 10
-111.4944994165709
 20
140.8672675172877
 30
0.0
 11
-111.267098861072
 21
140.8672675172877
 31
0.0
  0
LINE
  5
284
330
70
100
AcDbEntity
  8
Bemaßung
 62
     7
370
     9
100
AcDbLine
 10
-111.4944994165709
 20
140.839186406893
 30
0.0
 11
-111.0550794166807
 21
140.839186406893
 31
0.0
  0
LINE
  5
285
330
70
100
AcDbEntity
  8
Bemaßung
 62
     7
370
     9
100
AcDbLine
 10
-111.4944994165709
 20
140.8112816853827
 30
0.0
 11
-110.8428483056227
 21
140.8112816853827
 31
0.0
  0
LINE
  5
286
330
70
100
AcDbEntity
  8
Bemaßung
 62
     7
370
     9
100
AcDbLine
 10
-111.4944994165709
 20
140.7833805203597
 30
0.0
 11
-110.6306171945646
 21
140.7833805203597
 31
0.0
  0
LINE
  5
287
330
70
100
AcDbEntity
  8
Bemaßung
 62
     7
370
     9
100
AcDbLine
 10
-111.4944994165709
 20
140.755472242362
 30
0.0
 11
-110.4182449723956
 21
140.755472242362
 31
0.0
  0
LINE
  5
288
330
70
100
AcDbEntity
  8
Bemaßung
 62
     7
370
     9
100
AcDbLine
 10
-111.4944994165709
 20
140.7274264097442
 30
0.0
 11
-110.2061902502261
 21
140.7274264097442
 31
0.0
  0
LINE
  5
289
330
70
100
AcDbEntity
  8
Bemaßung
 62
     7
370
     9
100
AcDbLine
 10
-111.4944994165709
 20
140.6995216882339
 30
0.0
 11
-109.993959139168
 21
140.6995216882339
 31
0.0
  0
LINE
  5
28A
330
70
100
AcDbEntity
  8
Bemaßung
 62
     7
370
     9
100
AcDbLine
 10
-111.4944994165709
 20
140.6716169667236
 30
0.0
 11
-109.7817633058878
 21
140.6716169667236
 31
0.0
  0
LINE
  5
28B
330
70
100
AcDbEntity
  8
Bemaßung
 62
     7
370
     9
100
AcDbLine
 10
-111.4944994165709
 20
140.6436805203947
 30
0.0
 11
-109.5693558059409
 21
140.6436805203947
 31
0.0
  0
LINE
  5
28C
330
70
100
AcDbEntity
  8
Bemaßung
 62
     7
370
     9
100
AcDbLine
 10
-111.4944994165709
 20
140.3923580849592
 30
0.0
 11
-111.479506361019
 21
140.3923580849592
 31
0.0
  0
LINE
  5
28D
330
70
100
AcDbEntity
  8
Bemaßung
 62
     7
370
     9
100
AcDbLine
 10
-111.4944994165709
 20
140.3923580849592
 30
0.0
 11
-111.479506361019
 21
140.3923580849592
 31
0.0
  0
LINE
  5
28E
330
70
100
AcDbEntity
  8
Bemaßung
 62
     7
370
     9
100
AcDbLine
 10
-111.4944994165709
 20
140.4202628064695
 30
0.0
 11
-111.267098861072
 21
140.4202628064695
 31
0.0
  0
LINE
  5
28F
330
70
100
AcDbEntity
  8
Bemaßung
 62
     7
370
     9
100
AcDbLine
 10
-111.4944994165709
 20
140.4481675279798
 30
0.0
 11
-111.0550794166807
 21
140.4481675279798
 31
0.0
  0
LINE
  5
290
330
70
100
AcDbEntity
  8
Bemaßung
 62
     7
370
     9
100
AcDbLine
 10
-111.4944994165709
 20
140.4762486383745
 30
0.0
 11
-110.8428483056227
 21
140.4762486383745
 31
0.0
  0
LINE
  5
291
330
70
100
AcDbEntity
  8
Bemaßung
 62
     7
370
     9
100
AcDbLine
 10
-111.4944994165709
 20
140.5041533598848
 30
0.0
 11
-110.6306171945646
 21
140.5041533598848
 31
0.0
  0
LINE
  5
292
330
70
100
AcDbEntity
  8
Bemaßung
 62
     7
370
     9
100
AcDbLine
 10
-111.4944994165709
 20
140.5320580813951
 30
0.0
 11
-110.4182449723956
 21
140.5320580813951
 31
0.0
  0
LINE
  5
293
330
70
100
AcDbEntity
  8
Bemaßung
 62
     7
370
     9
100
AcDbLine
 10
-111.4944994165709
 20
140.5599628029055
 30
0.0
 11
-110.2061902502261
 21
140.5599628029055
 31
0.0
  0
LINE
  5
294
330
70
100
AcDbEntity
  8
Bemaßung
 62
     7
370
     9
100
AcDbLine
 10
-111.4944994165709
 20
140.5878675244158
 30
0.0
 11
-109.993959139168
 21
140.5878675244158
 31
0.0
  0
LINE
  5
295
330
70
100
AcDbEntity
  8
Bemaßung
 62
     7
370
     9
100
AcDbLine
 10
-111.4944994165709
 20
140.6157722459261
 30
0.0
 11
-109.7817633058878
 21
140.6157722459261
 31
0.0
  0
LINE
  5
296
330
70
100
AcDbEntity
  8
Bemaßung
 62
     7
370
     9
100
AcDbLine
 10
-111.4944994165709
 20
140.6436805203947
 30
0.0
 11
-109.5693558059409
 21
140.6436805203947
 31
0.0
  0
LINE
  5
297
330
70
100
AcDbEntity
  8
Bemaßung
 62
     7
370
     9
100
AcDbLine
 10
-120.5934849698515
 20
118.3064589261952
 30
0.0
 11
-120.5934849698515
 21
125.1598020846852
 31
0.0
  0
LINE
  5
298
330
70
100
AcDbEntity
  8
Bemaßung
 62
     7
370
     9
100
AcDbLine
 10
-109.581244417049
 20
118.221368928366
 30
0.0
 11
-109.581244417049
 21
125.2869110797895
 31
0.0
  0
MTEXT
  5
29A
330
70
100
AcDbEntity
  8
Text
100
AcDbMText
 10
-71.50157462405229
 20
141.3869612062725
 30
0.0
 40
0.2
 41
0.0
 46
0.0
 71
     7
 72
     1
  1
\C7;\FINDEX Univers 45 Light|b0|i0|c1;\H2.497667;\W1.000000;ø42,5
 73
     1
 44
1.0
  0
MTEXT
  5
29B
330
70
100
AcDbEntity
  8
Text
100
AcDbMText
 10
-50.38658439495605
 20
161.8811452289267
 30
0.0
 40
0.2
 41
0.0
 46
0.0
 71
     7
 72
     1
  1
\C7;\FINDEX Univers 45 Light|b0|i0|c1;\H2.497667;\W1.000000;25
 11
0.0000000000000001
 21
1.0
 31
0.0
 73
     1
 44
1.0
  0
MTEXT
  5
29C
330
70
100
AcDbEntity
  8
Text
100
AcDbMText
 10
-50.3459322682301
 20
113.4751420943268
 30
0.0
 40
0.2
 41
0.0
 46
0.0
 71
     7
 72
     1
  1
\C7;\FINDEX Univers 45 Light|b0|i0|c1;\H2.497667;\W0.999990;150
 11
0.0000000000000001
 21
1.0
 31
0.0
 73
     1
 44
1.0
  0
MTEXT
  5
29D
330
70
100
AcDbEntity
  8
Text
100
AcDbMText
 10
-95.69656634434904
 20
82.0940257013475
 30
0.0
 40
0.2
 41
0.0
 46
0.0
 71
     7
 72
     1
  1
\C7;\FINDEX Univers 45 Light|b0|i0|c1;\H2.497667;\W1.000000;36
 11
0.0000000000000001
 21
1.0
 31
0.0
 73
     1
 44
1.0
  0
MTEXT
  5
29E
330
70
100
AcDbEntity
  8
Text
100
AcDbMText
 10
-111.9432060158516
 20
69.61942107664497
 30
0.0
 40
0.2
 41
0.0
 46
0.0
 71
     7
 72
     1
  1
\C7;\FINDEX Univers 45 Light|b0|i0|c1;\H2.497667;\W1.000000;ø10H5
 73
     1
 44
1.0
  0
MTEXT
  5
29F
330
70
100
AcDbEntity
  8
Text
100
AcDbMText
 10
-118.0192347957996
 20
141.3985884035352
 30
0.0
 40
0.2
 41
0.0
 46
0.0
 71
     7
 72
     1
  1
\C7;\FINDEX Univers 45 Light|b0|i0|c1;\H2.497667;\W1.000000;ø20
 73
     1
 44
1.0
  0
LINE
  5
2A0
330
70
100
AcDbEntity
  8
Text
 62
     7
370
     9
100
AcDbLine
 10
-86.1657086356933
 20
74.3988460751974
 30
0.0
 11
-69.3475748898984
 21
74.3988460751974
 31
0.0
  0
LINE
  5
2A1
330
70
100
AcDbEntity
  8
Text
 62
     7
370
     9
100
AcDbLine
 10
-86.10875323929132
 20
84.02378801723562
 30
0.0
 11
-66.3558224124892
 21
84.02378801723562
 31
0.0
  0
LINE
  5
2A2
330
70
100
AcDbEntity
  8
Text
 62
     7
370
     9
100
AcDbLine
 10
-84.86003041793495
 20
74.3988460751974
 30
0.0
 11
-84.86003041793495
 21
84.02378801723562
 31
0.0
  0
MTEXT
  5
2A3
330
70
100
AcDbEntity
  8
Text
100
AcDbMText
 10
-86.14297205420271
 20
76.27724573962623
 30
0.0
 40
0.2
 41
0.0
 46
0.0
 71
     7
 72
     1
  1
\C7;\FINDEX Univers 45 Light|b0|i0|c1;\H2.497667;\W1.000000;17,5
 11
0.0000000000000001
 21
1.0
 31
0.0
 73
     1
 44
1.0
  0
LWPOLYLINE
  5
2A4
330
70
100
AcDbEntity
  8
Text
 62
     7
370
     9
100
AcDbPolyline
 90
        4
 70
     0
 43
0.0
 10
-84.86003041793495
 20
74.3988460751974
 10
-84.60663014022037
 20
76.32379565804978
 10
-85.11323666787159
 20
76.32379565804978
 10
-84.86003041793495
 20
74.3988460751974
  0
LINE
  5
2A5
330
70
100
AcDbEntity
  8
Text
 62
     7
370
     9
100
AcDbLine
 10
-84.60857041799711
 20
76.32379565804978
 30
0.0
 11
-84.60857041799711
 21
76.30885551916441
 31
0.0
  0
LINE
  5
2A6
330
70
100
AcDbEntity
  8
Text
 62
     7
370
     9
100
AcDbLine
 10
-84.60857041799711
 20
76.32379565804978
 30
0.0
 11
-84.60857041799711
 21
76.30885551916441
 31
0.0
  0
LINE
  5
2A7
330
70
100
AcDbEntity
  8
Text
 62
     7
370
     9
100
AcDbLine
 10
-84.63651041799048
 20
76.32379565804978
 30
0.0
 11
-84.63651041799048
 21
76.09658913032852
 31
0.0
  0
LINE
  5
2A8
330
70
100
AcDbEntity
  8
Text
 62
     7
370
     9
100
AcDbLine
 10
-84.66445041798353
 20
76.32379565804978
 30
0.0
 11
-84.66445041798353
 21
75.88451676927061
 31
0.0
  0
LINE
  5
2A9
330
70
100
AcDbEntity
  8
Text
 62
     7
370
     9
100
AcDbLine
 10
-84.6923904179766
 20
76.32379565804978
 30
0.0
 11
-84.6923904179766
 21
75.67225038043472
 31
0.0
  0
LINE
  5
2AA
330
70
100
AcDbEntity
  8
Text
 62
     7
370
     9
100
AcDbLine
 10
-84.72033041796965
 20
76.32379565804978
 30
0.0
 11
-84.72033041796965
 21
75.45998399159884
 31
0.0
  0
LINE
  5
2AB
330
70
100
AcDbEntity
  8
Text
 62
     7
370
     9
100
AcDbLine
 10
-84.74827041796272
 20
76.32379565804978
 30
0.0
 11
-84.74827041796272
 21
75.24771760276296
 31
0.0
  0
LINE
  5
2AC
330
70
100
AcDbEntity
  8
Text
 62
     7
370
     9
100
AcDbLine
 10
-84.77621041795577
 20
76.32379565804978
 30
0.0
 11
-84.77621041795577
 21
75.03545121392709
 31
0.0
  0
LINE
  5
2AD
330
70
100
AcDbEntity
  8
Text
 62
     7
370
     9
100
AcDbLine
 10
-84.80415041794882
 20
76.32379565804978
 30
0.0
 11
-84.80415041794882
 21
74.82337885286916
 31
0.0
  0
LINE
  5
2AE
330
70
100
AcDbEntity
  8
Text
 62
     7
370
     9
100
AcDbLine
 10
-84.83209041794157
 20
76.32379565804978
 30
0.0
 11
-84.83209041794157
 21
74.61111246403328
 31
0.0
  0
LINE
  5
2AF
330
70
100
AcDbEntity
  8
Text
 62
     7
370
     9
100
AcDbLine
 10
-84.86003041793495
 20
76.32379565804978
 30
0.0
 11
-84.86003041793495
 21
74.3988460751974
 31
0.0
  0
LINE
  5
2B0
330
70
100
AcDbEntity
  8
Text
 62
     7
370
     9
100
AcDbLine
 10
-85.11129639009389
 20
76.32379565804978
 30
0.0
 11
-85.11129639009389
 21
76.30885551916441
 31
0.0
  0
LINE
  5
2B1
330
70
100
AcDbEntity
  8
Text
 62
     7
370
     9
100
AcDbLine
 10
-85.11129639009389
 20
76.32379565804978
 30
0.0
 11
-85.11129639009389
 21
76.30885551916441
 31
0.0
  0
LINE
  5
2B2
330
70
100
AcDbEntity
  8
Text
 62
     7
370
     9
100
AcDbLine
 10
-85.08335639010146
 20
76.32379565804978
 30
0.0
 11
-85.08335639010146
 21
76.09658913032852
 31
0.0
  0
LINE
  5
2B3
330
70
100
AcDbEntity
  8
Text
 62
     7
370
     9
100
AcDbLine
 10
-85.05541639010841
 20
76.32379565804978
 30
0.0
 11
-85.05541639010841
 21
75.88451676927061
 31
0.0
  0
LINE
  5
2B4
330
70
100
AcDbEntity
  8
Text
 62
     7
370
     9
100
AcDbLine
 10
-85.02747639011536
 20
76.32379565804978
 30
0.0
 11
-85.02747639011536
 21
75.67225038043472
 31
0.0
  0
LINE
  5
2B5
330
70
100
AcDbEntity
  8
Text
 62
     7
370
     9
100
AcDbLine
 10
-84.99953639012231
 20
76.32379565804978
 30
0.0
 11
-84.99953639012231
 21
75.45998399159884
 31
0.0
  0
LINE
  5
2B6
330
70
100
AcDbEntity
  8
Text
 62
     7
370
     9
100
AcDbLine
 10
-84.9715963901289
 20
76.32379565804978
 30
0.0
 11
-84.9715963901289
 21
75.24771760276296
 31
0.0
  0
LINE
  5
2B7
330
70
100
AcDbEntity
  8
Text
 62
     7
370
     9
100
AcDbLine
 10
-84.94365639013617
 20
76.32379565804978
 30
0.0
 11
-84.94365639013617
 21
75.03545121392709
 31
0.0
  0
LINE
  5
2B8
330
70
100
AcDbEntity
  8
Text
 62
     7
370
     9
100
AcDbLine
 10
-84.91571639014312
 20
76.32379565804978
 30
0.0
 11
-84.91571639014312
 21
74.82337885286916
 31
0.0
  0
LINE
  5
2B9
330
70
100
AcDbEntity
  8
Text
 62
     7
370
     9
100
AcDbLine
 10
-84.88777639015005
 20
76.32379565804978
 30
0.0
 11
-84.88777639015005
 21
74.61111246403328
 31
0.0
  0
LINE
  5
2BA
330
70
100
AcDbEntity
  8
Text
 62
     7
370
     9
100
AcDbLine
 10
-84.86003041793495
 20
76.32379565804978
 30
0.0
 11
-84.86003041793495
 21
74.3988460751974
 31
0.0
  0
LWPOLYLINE
  5
2BB
330
70
100
AcDbEntity
  8
Text
 62
     7
370
     9
100
AcDbPolyline
 90
        4
 70
     0
 43
0.0
 10
-84.86003041793495
 20
84.02378801723562
 10
-85.11323666787159
 20
82.09883843438358
 10
-84.60663014022037
 20
82.09883843438358
 10
-84.86003041793495
 20
84.02378801723562
  0
LINE
  5
2BC
330
70
100
AcDbEntity
  8
Text
 62
     7
370
     9
100
AcDbLine
 10
-85.11129639009389
 20
82.09883843438358
 30
0.0
 11
-85.11129639009389
 21
82.11377857326864
 31
0.0
  0
LINE
  5
2BD
330
70
100
AcDbEntity
  8
Text
 62
     7
370
     9
100
AcDbLine
 10
-85.11129639009389
 20
82.09883843438358
 30
0.0
 11
-85.11129639009389
 21
82.11377857326864
 31
0.0
  0
LINE
  5
2BE
330
70
100
AcDbEntity
  8
Text
 62
     7
370
     9
100
AcDbLine
 10
-85.08335639010146
 20
82.09883843438358
 30
0.0
 11
-85.08335639010146
 21
82.32604496210452
 31
0.0
  0
LINE
  5
2BF
330
70
100
AcDbEntity
  8
Text
 62
     7
370
     9
100
AcDbLine
 10
-85.05541639010841
 20
82.09883843438358
 30
0.0
 11
-85.05541639010841
 21
82.53831135094038
 31
0.0
  0
LINE
  5
2C0
330
70
100
AcDbEntity
  8
Text
 62
     7
370
     9
100
AcDbLine
 10
-85.02747639011536
 20
82.09883843438358
 30
0.0
 11
-85.02747639011536
 21
82.75057773977627
 31
0.0
  0
LINE
  5
2C1
330
70
100
AcDbEntity
  8
Text
 62
     7
370
     9
100
AcDbLine
 10
-84.99953639012231
 20
82.09883843438358
 30
0.0
 11
-84.99953639012231
 21
82.9626501008342
 31
0.0
  0
LINE
  5
2C2
330
70
100
AcDbEntity
  8
Text
 62
     7
370
     9
100
AcDbLine
 10
-84.9715963901289
 20
82.09883843438358
 30
0.0
 11
-84.9715963901289
 21
83.17491648967006
 31
0.0
  0
LINE
  5
2C3
330
70
100
AcDbEntity
  8
Text
 62
     7
370
     9
100
AcDbLine
 10
-84.94365639013617
 20
82.09883843438358
 30
0.0
 11
-84.94365639013617
 21
83.38718287850594
 31
0.0
  0
LINE
  5
2C4
330
70
100
AcDbEntity
  8
Text
 62
     7
370
     9
100
AcDbLine
 10
-84.91571639014312
 20
82.09883843438358
 30
0.0
 11
-84.91571639014312
 21
83.59944926734184
 31
0.0
  0
LINE
  5
2C5
330
70
100
AcDbEntity
  8
Text
 62
     7
370
     9
100
AcDbLine
 10
-84.88777639015005
 20
82.09883843438358
 30
0.0
 11
-84.88777639015005
 21
83.81190968395534
 31
0.0
  0
LINE
  5
2C6
330
70
100
AcDbEntity
  8
Text
 62
     7
370
     9
100
AcDbLine
 10
-84.86003041793495
 20
82.09883843438358
 30
0.0
 11
-84.86003041793495
 21
84.02378801723562
 31
0.0
  0
LINE
  5
2C7
330
70
100
AcDbEntity
  8
Text
 62
     7
370
     9
100
AcDbLine
 10
-84.60857041799711
 20
82.09883843438358
 30
0.0
 11
-84.60857041799711
 21
82.11377857326864
 31
0.0
  0
LINE
  5
2C8
330
70
100
AcDbEntity
  8
Text
 62
     7
370
     9
100
AcDbLine
 10
-84.60857041799711
 20
82.09883843438358
 30
0.0
 11
-84.60857041799711
 21
82.11377857326864
 31
0.0
  0
LINE
  5
2C9
330
70
100
AcDbEntity
  8
Text
 62
     7
370
     9
100
AcDbLine
 10
-84.63651041799048
 20
82.09883843438358
 30
0.0
 11
-84.63651041799048
 21
82.32604496210452
 31
0.0
  0
LINE
  5
2CA
330
70
100
AcDbEntity
  8
Text
 62
     7
370
     9
100
AcDbLine
 10
-84.66445041798353
 20
82.09883843438358
 30
0.0
 11
-84.66445041798353
 21
82.53831135094038
 31
0.0
  0
LINE
  5
2CB
330
70
100
AcDbEntity
  8
Text
 62
     7
370
     9
100
AcDbLine
 10
-84.6923904179766
 20
82.09883843438358
 30
0.0
 11
-84.6923904179766
 21
82.75057773977627
 31
0.0
  0
LINE
  5
2CC
330
70
100
AcDbEntity
  8
Text
 62
     7
370
     9
100
AcDbLine
 10
-84.72033041796965
 20
82.09883843438358
 30
0.0
 11
-84.72033041796965
 21
82.9626501008342
 31
0.0
  0
LINE
  5
2CD
330
70
100
AcDbEntity
  8
Text
 62
     7
370
     9
100
AcDbLine
 10
-84.74827041796272
 20
82.09883843438358
 30
0.0
 11
-84.74827041796272
 21
83.17491648967006
 31
0.0
  0
LINE
  5
2CE
330
70
100
AcDbEntity
  8
Text
 62
     7
370
     9
100
AcDbLine
 10
-84.77621041795577
 20
82.09883843438358
 30
0.0
 11
-84.77621041795577
 21
83.38718287850594
 31
0.0
  0
LINE
  5
2CF
330
70
100
AcDbEntity
  8
Text
 62
     7
370
     9
100
AcDbLine
 10
-84.80415041794882
 20
82.09883843438358
 30
0.0
 11
-84.80415041794882
 21
83.59944926734184
 31
0.0
  0
LINE
  5
2D0
330
70
100
AcDbEntity
  8
Text
 62
     7
370
     9
100
AcDbLine
 10
-84.83209041794157
 20
82.09883843438358
 30
0.0
 11
-84.83209041794157
 21
83.81190968395534
 31
0.0
  0
LINE
  5
2D1
330
70
100
AcDbEntity
  8
Text
 62
     7
370
     9
100
AcDbLine
 10
-84.86003041793495
 20
82.09883843438358
 30
0.0
 11
-84.86003041793495
 21
84.02378801723562
 31
0.0
  0
LINE
  5
2D2
330
70
100
AcDbEntity
  8
Text
 62
     7
370
     9
100
AcDbLine
 10
-79.9565316289472
 20
77.42412718555224
 30
0.0
 11
-67.26132477176173
 21
77.42412718555224
 31
0.0
  0
LINE
  5
2D3
330
70
100
AcDbEntity
  8
Text
 62
     7
370
     9
100
AcDbLine
 10
-78.98061120545598
 20
84.02378801723562
 30
0.0
 11
-78.98061120545598
 21
77.42412718555224
 31
0.0
  0
MTEXT
  5
2D4
330
70
100
AcDbEntity
  8
Text
100
AcDbMText
 10
-80.26335678060751
 20
78.60233529965966
 30
0.0
 40
0.2
 41
0.0
 46
0.0
 71
     7
 72
     1
  1
\C7;\FINDEX Univers 45 Light|b0|i0|c1;\H2.497667;\W1.000000;12
 11
0.0000000000000001
 21
1.0
 31
0.0
 73
     1
 44
1.0
  0
LWPOLYLINE
  5
2D5
330
70
100
AcDbEntity
  8
Text
 62
     7
370
     9
100
AcDbPolyline
 90
        4
 70
     0
 43
0.0
 10
-78.98061120545598
 20
84.02378801723562
 10
-79.23381745539325
 20
82.09883843438358
 10
-78.72721092774236
 20
82.09883843438358
 10
-78.98061120545598
 20
84.02378801723562
  0
LINE
  5
2D6
330
70
100
AcDbEntity
  8
Text
 62
     7
370
     9
100
AcDbLine
 10
-79.23187717761621
 20
82.09883843438358
 30
0.0
 11
-79.23187717761621
 21
82.11377857326864
 31
0.0
  0
LINE
  5
2D7
330
70
100
AcDbEntity
  8
Text
 62
     7
370
     9
100
AcDbLine
 10
-79.23187717761621
 20
82.09883843438358
 30
0.0
 11
-79.23187717761621
 21
82.11377857326864
 31
0.0
  0
LINE
  5
2D8
330
70
100
AcDbEntity
  8
Text
 62
     7
370
     9
100
AcDbLine
 10
-79.20393717762284
 20
82.09883843438358
 30
0.0
 11
-79.20393717762284
 21
82.32604496210452
 31
0.0
  0
LINE
  5
2D9
330
70
100
AcDbEntity
  8
Text
 62
     7
370
     9
100
AcDbLine
 10
-79.17599717763009
 20
82.09883843438358
 30
0.0
 11
-79.17599717763009
 21
82.53831135094038
 31
0.0
  0
LINE
  5
2DA
330
70
100
AcDbEntity
  8
Text
 62
     7
370
     9
100
AcDbLine
 10
-79.14805717763703
 20
82.09883843438358
 30
0.0
 11
-79.14805717763703
 21
82.75057773977627
 31
0.0
  0
LINE
  5
2DB
330
70
100
AcDbEntity
  8
Text
 62
     7
370
     9
100
AcDbLine
 10
-79.12011717764396
 20
82.09883843438358
 30
0.0
 11
-79.12011717764396
 21
82.9626501008342
 31
0.0
  0
LINE
  5
2DC
330
70
100
AcDbEntity
  8
Text
 62
     7
370
     9
100
AcDbLine
 10
-79.09217717765091
 20
82.09883843438358
 30
0.0
 11
-79.09217717765091
 21
83.17491648967006
 31
0.0
  0
LINE
  5
2DD
330
70
100
AcDbEntity
  8
Text
 62
     7
370
     9
100
AcDbLine
 10
-79.06423717765784
 20
82.09883843438358
 30
0.0
 11
-79.06423717765784
 21
83.38718287850594
 31
0.0
  0
LINE
  5
2DE
330
70
100
AcDbEntity
  8
Text
 62
     7
370
     9
100
AcDbLine
 10
-79.03649120544243
 20
82.09883843438358
 30
0.0
 11
-79.03649120544243
 21
83.59944926734184
 31
0.0
  0
LINE
  5
2DF
330
70
100
AcDbEntity
  8
Text
 62
     7
370
     9
100
AcDbLine
 10
-79.00855120544905
 20
82.09883843438358
 30
0.0
 11
-79.00855120544905
 21
83.81190968395534
 31
0.0
  0
LINE
  5
2E0
330
70
100
AcDbEntity
  8
Text
 62
     7
370
     9
100
AcDbLine
 10
-78.98061120545598
 20
82.09883843438358
 30
0.0
 11
-78.98061120545598
 21
84.02378801723562
 31
0.0
  0
LINE
  5
2E1
330
70
100
AcDbEntity
  8
Text
 62
     7
370
     9
100
AcDbLine
 10
-78.72895717774176
 20
82.09883843438358
 30
0.0
 11
-78.72895717774176
 21
82.11377857326864
 31
0.0
  0
LINE
  5
2E2
330
70
100
AcDbEntity
  8
Text
 62
     7
370
     9
100
AcDbLine
 10
-78.72895717774176
 20
82.09883843438358
 30
0.0
 11
-78.72895717774176
 21
82.11377857326864
 31
0.0
  0
LINE
  5
2E3
330
70
100
AcDbEntity
  8
Text
 62
     7
370
     9
100
AcDbLine
 10
-78.75709120551279
 20
82.09883843438358
 30
0.0
 11
-78.75709120551279
 21
82.32604496210452
 31
0.0
  0
LINE
  5
2E4
330
70
100
AcDbEntity
  8
Text
 62
     7
370
     9
100
AcDbLine
 10
-78.78503120550584
 20
82.09883843438358
 30
0.0
 11
-78.78503120550584
 21
82.53831135094038
 31
0.0
  0
LINE
  5
2E5
330
70
100
AcDbEntity
  8
Text
 62
     7
370
     9
100
AcDbLine
 10
-78.81297120549827
 20
82.09883843438358
 30
0.0
 11
-78.81297120549827
 21
82.75057773977627
 31
0.0
  0
LINE
  5
2E6
330
70
100
AcDbEntity
  8
Text
 62
     7
370
     9
100
AcDbLine
 10
-78.84091120549101
 20
82.09883843438358
 30
0.0
 11
-78.84091120549101
 21
82.9626501008342
 31
0.0
  0
LINE
  5
2E7
330
70
100
AcDbEntity
  8
Text
 62
     7
370
     9
100
AcDbLine
 10
-78.86885120548439
 20
82.09883843438358
 30
0.0
 11
-78.86885120548439
 21
83.17491648967006
 31
0.0
  0
LINE
  5
2E8
330
70
100
AcDbEntity
  8
Text
 62
     7
370
     9
100
AcDbLine
 10
-78.89679120547744
 20
82.09883843438358
 30
0.0
 11
-78.89679120547744
 21
83.38718287850594
 31
0.0
  0
LINE
  5
2E9
330
70
100
AcDbEntity
  8
Text
 62
     7
370
     9
100
AcDbLine
 10
-78.92473120547051
 20
82.09883843438358
 30
0.0
 11
-78.92473120547051
 21
83.59944926734184
 31
0.0
  0
LINE
  5
2EA
330
70
100
AcDbEntity
  8
Text
 62
     7
370
     9
100
AcDbLine
 10
-78.95267120546293
 20
82.09883843438358
 30
0.0
 11
-78.95267120546293
 21
83.81190968395534
 31
0.0
  0
LINE
  5
2EB
330
70
100
AcDbEntity
  8
Text
 62
     7
370
     9
100
AcDbLine
 10
-78.98061120545598
 20
82.09883843438358
 30
0.0
 11
-78.98061120545598
 21
84.02378801723562
 31
0.0
  0
LWPOLYLINE
  5
2EC
330
70
100
AcDbEntity
  8
Text
 62
     7
370
     9
100
AcDbPolyline
 90
        4
 70
     0
 43
0.0
 10
-78.98061120545598
 20
77.42412718555224
 10
-78.72721092774236
 20
79.34888274062664
 10
-79.23381745539325
 20
79.34888274062664
 10
-78.98061120545598
 20
77.42412718555224
  0
LINE
  5
2ED
330
70
100
AcDbEntity
  8
Text
 62
     7
370
     9
100
AcDbLine
 10
-78.72895717774176
 20
79.34888274062664
 30
0.0
 11
-78.72895717774176
 21
79.33394260174127
 31
0.0
  0
LINE
  5
2EE
330
70
100
AcDbEntity
  8
Text
 62
     7
370
     9
100
AcDbLine
 10
-78.72895717774176
 20
79.34888274062664
 30
0.0
 11
-78.72895717774176
 21
79.33394260174127
 31
0.0
  0
LINE
  5
2EF
330
70
100
AcDbEntity
  8
Text
 62
     7
370
     9
100
AcDbLine
 10
-78.75709120551279
 20
79.34888274062664
 30
0.0
 11
-78.75709120551279
 21
79.12187024068336
 31
0.0
  0
LINE
  5
2F0
330
70
100
AcDbEntity
  8
Text
 62
     7
370
     9
100
AcDbLine
 10
-78.78503120550584
 20
79.34888274062664
 30
0.0
 11
-78.78503120550584
 21
78.90960385184747
 31
0.0
  0
LINE
  5
2F1
330
70
100
AcDbEntity
  8
Text
 62
     7
370
     9
100
AcDbLine
 10
-78.81297120549827
 20
79.34888274062664
 30
0.0
 11
-78.81297120549827
 21
78.69733746301159
 31
0.0
  0
LINE
  5
2F2
330
70
100
AcDbEntity
  8
Text
 62
     7
370
     9
100
AcDbLine
 10
-78.84091120549101
 20
79.34888274062664
 30
0.0
 11
-78.84091120549101
 21
78.48507107417572
 31
0.0
  0
LINE
  5
2F3
330
70
100
AcDbEntity
  8
Text
 62
     7
370
     9
100
AcDbLine
 10
-78.86885120548439
 20
79.34888274062664
 30
0.0
 11
-78.86885120548439
 21
78.2729987131178
 31
0.0
  0
LINE
  5
2F4
330
70
100
AcDbEntity
  8
Text
 62
     7
370
     9
100
AcDbLine
 10
-78.89679120547744
 20
79.34888274062664
 30
0.0
 11
-78.89679120547744
 21
78.06073232428191
 31
0.0
  0
LINE
  5
2F5
330
70
100
AcDbEntity
  8
Text
 62
     7
370
     9
100
AcDbLine
 10
-78.92473120547051
 20
79.34888274062664
 30
0.0
 11
-78.92473120547051
 21
77.84846593544604
 31
0.0
  0
LINE
  5
2F6
330
70
100
AcDbEntity
  8
Text
 62
     7
370
     9
100
AcDbLine
 10
-78.95267120546293
 20
79.34888274062664
 30
0.0
 11
-78.95267120546293
 21
77.63619954661016
 31
0.0
  0
LINE
  5
2F7
330
70
100
AcDbEntity
  8
Text
 62
     7
370
     9
100
AcDbLine
 10
-78.98061120545598
 20
79.34888274062664
 30
0.0
 11
-78.98061120545598
 21
77.42412718555224
 31
0.0
  0
LINE
  5
2F8
330
70
100
AcDbEntity
  8
Text
 62
     7
370
     9
100
AcDbLine
 10
-79.23187717761621
 20
79.34888274062664
 30
0.0
 11
-79.23187717761621
 21
79.33394260174127
 31
0.0
  0
LINE
  5
2F9
330
70
100
AcDbEntity
  8
Text
 62
     7
370
     9
100
AcDbLine
 10
-79.23187717761621
 20
79.34888274062664
 30
0.0
 11
-79.23187717761621
 21
79.33394260174127
 31
0.0
  0
LINE
  5
2FA
330
70
100
AcDbEntity
  8
Text
 62
     7
370
     9
100
AcDbLine
 10
-79.20393717762284
 20
79.34888274062664
 30
0.0
 11
-79.20393717762284
 21
79.12187024068336
 31
0.0
  0
LINE
  5
2FB
330
70
100
AcDbEntity
  8
Text
 62
     7
370
     9
100
AcDbLine
 10
-79.17599717763009
 20
79.34888274062664
 30
0.0
 11
-79.17599717763009
 21
78.90960385184747
 31
0.0
  0
LINE
  5
2FC
330
70
100
AcDbEntity
  8
Text
 62
     7
370
     9
100
AcDbLine
 10
-79.14805717763703
 20
79.34888274062664
 30
0.0
 11
-79.14805717763703
 21
78.69733746301159
 31
0.0
  0
LINE
  5
2FD
330
70
100
AcDbEntity
  8
Text
 62
     7
370
     9
100
AcDbLine
 10
-79.12011717764396
 20
79.34888274062664
 30
0.0
 11
-79.12011717764396
 21
78.48507107417572
 31
0.0
  0
LINE
  5
2FE
330
70
100
AcDbEntity
  8
Text
 62
     7
370
     9
100
AcDbLine
 10
-79.09217717765091
 20
79.34888274062664
 30
0.0
 11
-79.09217717765091
 21
78.2729987131178
 31
0.0
  0
LINE
  5
2FF
330
70
100
AcDbEntity
  8
Text
 62
     7
370
     9
100
AcDbLine
 10
-79.06423717765784
 20
79.34888274062664
 30
0.0
 11
-79.06423717765784
 21
78.06073232428191
 31
0.0
  0
LINE
  5
300
330
70
100
AcDbEntity
  8
Text
 62
     7
370
     9
100
AcDbLine
 10
-79.03649120544243
 20
79.34888274062664
 30
0.0
 11
-79.03649120544243
 21
77.84846593544604
 31
0.0
  0
LINE
  5
301
330
70
100
AcDbEntity
  8
Text
 62
     7
370
     9
100
AcDbLine
 10
-79.00855120544905
 20
79.34888274062664
 30
0.0
 11
-79.00855120544905
 21
77.63619954661016
 31
0.0
  0
LINE
  5
302
330
70
100
AcDbEntity
  8
Text
 62
     7
370
     9
100
AcDbLine
 10
-78.98061120545598
 20
79.34888274062664
 30
0.0
 11
-78.98061120545598
 21
77.42412718555224
 31
0.0
  0
ENDSEC
  0
SECTION
  2
OBJECTS
  0
DICTIONARY
  5
C
330
0
100
AcDbDictionary
281
     1
  3
ACAD_COLOR
350
63
  3
ACAD_DETAILVIEWSTYLE
350
6A
  3
ACAD_GROUP
350
D
  3
ACAD_LAYOUT
350
62
  3
ACAD_MATERIAL
350
10
  3
ACAD_MLEADERSTYLE
350
66
  3
ACAD_MLINESTYLE
350
5F
  3
ACAD_PLOTSETTINGS
350
61
  3
ACAD_PLOTSTYLENAME
350
E
  3
ACAD_SCALELIST
350
42
  3
ACAD_SECTIONVIEWSTYLE
350
68
  3
ACAD_TABLESTYLE
350
64
  3
ACAD_VISUALSTYLE
350
29
  3
ACDB_RECOMPOSE_DATA
350
30B
  3
AcDbVariableDictionary
350
303
  0
DICTIONARY
  5
63
102
{ACAD_REACTORS
330
C
102
}
330
C
100
AcDbDictionary
281
     1
  0
DICTIONARY
  5
6A
102
{ACAD_REACTORS
330
C
102
}
330
C
100
AcDbDictionary
281
     1
  3
Imperial24
350
6B
  0
DICTIONARY
  5
D
102
{ACAD_REACTORS
330
C
102
}
330
C
100
AcDbDictionary
281
     1
  0
DICTIONARY
  5
62
102
{ACAD_REACTORS
330
C
102
}
330
C
100
AcDbDictionary
281
     1
  3
Layout1
350
6F
  3
Layout2
350
77
  3
Model
350
73
  0
DICTIONARY
  5
10
102
{ACAD_REACTORS
330
C
102
}
330
C
100
AcDbDictionary
281
     1
  3
ByBlock
350
19
  3
ByLayer
350
11
  3
Global
350
21
  0
DICTIONARY
  5
66
102
{ACAD_REACTORS
330
C
102
}
330
C
100
AcDbDictionary
281
     1
  3
Standard
350
67
  0
DICTIONARY
  5
5F
102
{ACAD_REACTORS
330
C
102
}
330
C
100
AcDbDictionary
281
     1
  3
Standard
350
60
  0
DICTIONARY
  5
61
102
{ACAD_REACTORS
330
C
102
}
330
C
100
AcDbDictionary
281
     1
  0
ACDBDICTIONARYWDFLT
  5
E
102
{ACAD_REACTORS
330
C
102
}
330
C
100
AcDbDictionary
281
     1
  3
Normal
350
F
100
AcDbDictionaryWithDefault
340
F
  0
DICTIONARY
  5
42
102
{ACAD_REACTORS
330
C
102
}
330
C
100
AcDbDictionary
281
     1
  3
A0
350
43
  3
A1
350
44
  3
A2
350
45
  3
A3
350
46
  3
A4
350
47
  3
A5
350
48
  3
A6
350
49
  3
A7
350
4A
  3
A8
350
4B
  3
A9
350
4C
  3
B0
350
4D
  3
B1
350
4E
  3
B2
350
4F
  3
B3
350
50
  3
B4
350
51
  3
B5
350
52
  3
B6
350
53
  0
DICTIONARY
  5
68
102
{ACAD_REACTORS
330
C
102
}
330
C
100
AcDbDictionary
281
     1
  3
Imperial24
350
69
  0
DICTIONARY
  5
64
102
{ACAD_REACTORS
330
C
102
}
330
C
100
AcDbDictionary
281
     1
  3
Standard
350
65
  0
DICTIONARY
  5
29
102
{ACAD_REACTORS
330
C
102
}
330
C
100
AcDbDictionary
281
     1
  3
2dWireframe
350
2F
  3
Basic
350
2E
  3
Brighten
350
35
  3
ColorChange
350
39
  3
Conceptual
350
32
  3
Dim
350
34
  3
EdgeColorOff
350
41
  3
Facepattern
350
38
  3
Flat
350
2A
  3
FlatWithEdges
350
2B
  3
Gouraud
350
2C
  3
GouraudWithEdges
350
2D
  3
Hidden
350
31
  3
JitterOff
350
3F
  3
Linepattern
350
37
  3
OverhangOff
350
40
  3
Realistic
350
33
  3
Shaded
350
3E
  3
Shaded with edges
350
3D
  3
Shades of Gray
350
3A
  3
Sketchy
350
3B
  3
Thicken
350
36
  3
Wireframe
350
30
  3
X-Ray
350
3C
  0
XRECORD
  5
30B
102
{ACAD_REACTORS
330
C
102
}
330
C
100
AcDbXrecord
280
     1
 90
        1
330
65
  0
DICTIONARY
  5
303
102
{ACAD_REACTORS
330
C
102
}
330
C
100
AcDbDictionary
281
     1
  3
CANNOSCALE
350
308
  3
CMLEADERSTYLE
350
305
  3
CTABLESTYLE
350
304
  3
CVIEWDETAILSTYLE
350
306
  3
CVIEWSECTIONSTYLE
350
307
  0
ACDBDETAILVIEWSTYLE
  5
6B
102
{ACAD_REACTORS
330
6A
102
}
330
6A
100
AcDbModelDocViewStyle
 70
     0
  3
Imperial24
290
     1
300
Imperial24
 90
        0
100
AcDbDetailViewStyle
 70
     0
 71
     0
 90
        3
 71
     1
340
55
 62
   256
 40
0.24
340
0
 62
   256
 40
0.24
300

 40
0.36
280
     3
 71
     2
340
5D
 90
       25
 62
   256
 71
     3
340
55
 62
   256
 40
0.24
 90
        1
 40
0.75
 90
        1
300
%<\AcVar ViewType \f "%tc1">% %<\AcVar ViewDetailId>%\PSCALE %<\AcVar ViewScale \f "%sn">%
 71
     4
340
5D
 90
       25
 62
   256
340
5D
 90
       25
 62
   256
280
     0
  0
LAYOUT
  5
6F
102
{ACAD_REACTORS
330
62
102
}
330
62
100
AcDbPlotSettings
  1

  2

  4

  6

 40
0.0
 41
0.0
 42
0.0
 43
0.0
 44
0.0
 45
0.0
 46
0.0
 47
0.0
 48
0.0
 49
0.0
140
0.0
141
0.0
142
1.0
143
1.0
 70
   688
 72
     0
 73
     0
 74
     5
  7

 75
    16
147
1.0
 76
     0
 77
     2
 78
   300
148
0.0
149
0.0
100
AcDbLayout
  1
Layout1
 70
     1
 71
     1
 10
0.0
 20
0.0
 11
12.0
 21
9.0
 12
0.0
 22
0.0
 32
0.0
 14
0.0
 24
0.0
 34
0.0
 15
0.0
 25
0.0
 35
0.0
146
0.0
 13
0.0
 23
0.0
 33
0.0
 16
1.0
 26
0.0
 36
0.0
 17
0.0
 27
1.0
 37
0.0
 76
     0
330
6C
  0
LAYOUT
  5
77
102
{ACAD_REACTORS
330
62
102
}
330
62
100
AcDbPlotSettings
  1

  2

  4

  6

 40
0.0
 41
0.0
 42
0.0
 43
0.0
 44
0.0
 45
0.0
 46
0.0
 47
0.0
 48
0.0
 49
0.0
140
0.0
141
0.0
142
1.0
143
1.0
 70
   688
 72
     0
 73
     0
 74
     5
  7

 75
    16
147
1.0
 76
     0
 77
     2
 78
   300
148
0.0
149
0.0
100
AcDbLayout
  1
Layout2
 70
     1
 71
     2
 10
0.0
 20
0.0
 11
12.0
 21
9.0
 12
0.0
 22
0.0
 32
0.0
 14
0.0
 24
0.0
 34
0.0
 15
0.0
 25
0.0
 35
0.0
146
0.0
 13
0.0
 23
0.0
 33
0.0
 16
1.0
 26
0.0
 36
0.0
 17
0.0
 27
1.0
 37
0.0
 76
     0
330
74
  0
LAYOUT
  5
73
102
{ACAD_REACTORS
330
62
102
}
330
62
100
AcDbPlotSettings
  1

  2

  4

  6

 40
0.0
 41
0.0
 42
0.0
 43
0.0
 44
0.0
 45
0.0
 46
0.0
 47
0.0
 48
0.0
 49
0.0
140
0.0
141
0.0
142
1.0
143
1.0
 70
  1712
 72
     0
 73
     0
 74
     0
  7

 75
     0
147
1.0
 76
     0
 77
     2
 78
   300
148
0.0
149
0.0
100
AcDbLayout
  1
Model
 70
     1
 71
     0
 10
0.0
 20
0.0
 11
12.0
 21
9.0
 12
0.0
 22
0.0
 32
0.0
 14
0.0
 24
0.0
 34
0.0
 15
0.0
 25
0.0
 35
0.0
146
0.0
 13
0.0
 23
0.0
 33
0.0
 16
1.0
 26
0.0
 36
0.0
 17
0.0
 27
1.0
 37
0.0
 76
     0
330
70
  0
MATERIAL
  5
19
102
{ACAD_XDICTIONARY
360
1A
102
}
102
{ACAD_REACTORS
330
10
102
}
330
10
100
AcDbMaterial
  1
ByBlock
 72
     0
 43
0.0208333333333333
 43
0.0
 43
0.0
 43
0.0
 43
0.0
 43
0.0208333333333333
 43
0.0
 43
0.0
 43
0.0
 43
0.0
 43
1.0
 43
0.0
 43
0.0
 43
0.0
 43
0.0
 43
1.0
 77
     0
 47
0.0208333333333333
 47
0.0
 47
0.0
 47
0.0
 47
0.0
 47
0.0208333333333333
 47
0.0
 47
0.0
 47
0.0
 47
0.0
 47
1.0
 47
0.0
 47
0.0
 47
0.0
 47
0.0
 47
1.0
171
     0
 49
0.0208333333333333
 49
0.0
 49
0.0
 49
0.0
 49
0.0
 49
0.0208333333333333
 49
0.0
 49
0.0
 49
0.0
 49
0.0
 49
1.0
 49
0.0
 49
0.0
 49
0.0
 49
0.0
 49
1.0
175
     0
142
0.0208333333333333
142
0.0
142
0.0
142
0.0
142
0.0
142
0.0208333333333333
142
0.0
142
0.0
142
0.0
142
0.0
142
1.0
142
0.0
142
0.0
142
0.0
142
0.0
142
1.0
179
     0
144
0.0208333333333333
144
0.0
144
0.0
144
0.0
144
0.0
144
0.0208333333333333
144
0.0
144
0.0
144
0.0
144
0.0
144
1.0
144
0.0
144
0.0
144
0.0
144
0.0
144
1.0
147
0.0208333333333333
147
0.0
147
0.0
147
0.0
147
0.0
147
0.0208333333333333
147
0.0
147
0.0
147
0.0
147
0.0
147
1.0
147
0.0
147
0.0
147
0.0
147
0.0
147
1.0
  0
MATERIAL
  5
11
102
{ACAD_XDICTIONARY
360
12
102
}
102
{ACAD_REACTORS
330
10
102
}
330
10
100
AcDbMaterial
  1
ByLayer
 72
     0
 43
0.0208333333333333
 43
0.0
 43
0.0
 43
0.0
 43
0.0
 43
0.0208333333333333
 43
0.0
 43
0.0
 43
0.0
 43
0.0
 43
1.0
 43
0.0
 43
0.0
 43
0.0
 43
0.0
 43
1.0
 77
     0
 47
0.0208333333333333
 47
0.0
 47
0.0
 47
0.0
 47
0.0
 47
0.0208333333333333
 47
0.0
 47
0.0
 47
0.0
 47
0.0
 47
1.0
 47
0.0
 47
0.0
 47
0.0
 47
0.0
 47
1.0
171
     0
 49
0.0208333333333333
 49
0.0
 49
0.0
 49
0.0
 49
0.0
 49
0.0208333333333333
 49
0.0
 49
0.0
 49
0.0
 49
0.0
 49
1.0
 49
0.0
 49
0.0
 49
0.0
 49
0.0
 49
1.0
175
     0
142
0.0208333333333333
142
0.0
142
0.0
142
0.0
142
0.0
142
0.0208333333333333
142
0.0
142
0.0
142
0.0
142
0.0
142
1.0
142
0.0
142
0.0
142
0.0
142
0.0
142
1.0
179
     0
144
0.0208333333333333
144
0.0
144
0.0
144
0.0
144
0.0
144
0.0208333333333333
144
0.0
144
0.0
144
0.0
144
0.0
144
1.0
144
0.0
144
0.0
144
0.0
144
0.0
144
1.0
147
0.0208333333333333
147
0.0
147
0.0
147
0.0
147
0.0
147
0.0208333333333333
147
0.0
147
0.0
147
0.0
147
0.0
147
1.0
147
0.0
147
0.0
147
0.0
147
0.0
147
1.0
  0
MATERIAL
  5
21
102
{ACAD_XDICTIONARY
360
22
102
}
102
{ACAD_REACTORS
330
10
102
}
330
10
100
AcDbMaterial
  1
Global
 72
     0
 43
0.0208333333333333
 43
0.0
 43
0.0
 43
0.0
 43
0.0
 43
0.0208333333333333
 43
0.0
 43
0.0
 43
0.0
 43
0.0
 43
1.0
 43
0.0
 43
0.0
 43
0.0
 43
0.0
 43
1.0
 77
     0
 47
0.0208333333333333
 47
0.0
 47
0.0
 47
0.0
 47
0.0
 47
0.0208333333333333
 47
0.0
 47
0.0
 47
0.0
 47
0.0
 47
1.0
 47
0.0
 47
0.0
 47
0.0
 47
0.0
 47
1.0
171
     0
 49
0.0208333333333333
 49
0.0
 49
0.0
 49
0.0
 49
0.0
 49
0.0208333333333333
 49
0.0
 49
0.0
 49
0.0
 49
0.0
 49
1.0
 49
0.0
 49
0.0
 49
0.0
 49
0.0
 49
1.0
175
     0
142
0.0208333333333333
142
0.0
142
0.0
142
0.0
142
0.0
142
0.0208333333333333
142
0.0
142
0.0
142
0.0
142
0.0
142
1.0
142
0.0
142
0.0
142
0.0
142
0.0
142
1.0
179
     0
144
0.0208333333333333
144
0.0
144
0.0
144
0.0
144
0.0
144
0.0208333333333333
144
0.0
144
0.0
144
0.0
144
0.0
144
1.0
144
0.0
144
0.0
144
0.0
144
0.0
144
1.0
147
0.0208333333333333
147
0.0
147
0.0
147
0.0
147
0.0
147
0.0208333333333333
147
0.0
147
0.0
147
0.0
147
0.0
147
1.0
147
0.0
147
0.0
147
0.0
147
0.0
147
1.0
  0
MLEADERSTYLE
  5
67
102
{ACAD_REACTORS
330
66
102
}
330
66
100
AcDbMLeaderStyle
179
     2
170
     2
171
     1
172
     0
 90
        2
 40
0.0
 41
0.0
173
     1
 91
-1056964608
340
5B
 92
       -2
290
     1
 42
0.09
291
     1
 43
0.36
  3
Standard
 44
0.18
300

342
55
174
     1
178
     6
175
     1
176
     0
 93
-1056964608
 45
0.18
292
     0
297
     0
 46
0.18
 94
-1056964608
 47
1.0
 49
1.0
140
1.0
293
     1
141
0.0
294
     1
177
     0
142
1.0
295
     1
296
     0
143
0.125
271
     0
272
     9
273
     9
298
     1
  0
MLINESTYLE
  5
60
102
{ACAD_REACTORS
330
5F
102
}
330
5F
100
AcDbMlineStyle
  2
STANDARD
 70
     0
  3

 62
   256
 51
90.0
 52
90.0
 71
     2
 49
0.5
 62
   256
  6
BYLAYER
 49
-0.5
 62
   256
  6
BYLAYER
  0
ACDBPLACEHOLDER
  5
F
102
{ACAD_REACTORS
330
E
102
}
330
E
  0
SCALE
  5
43
102
{ACAD_REACTORS
330
42
102
}
330
42
100
AcDbScale
 70
     0
300
1:1
140
1.0
141
1.0
290
     1
  0
SCALE
  5
44
102
{ACAD_REACTORS
330
42
102
}
330
42
100
AcDbScale
 70
     0
300
1/128" = 1'-0"
140
0.0078125
141
12.0
290
     0
  0
SCALE
  5
45
102
{ACAD_REACTORS
330
42
102
}
330
42
100
AcDbScale
 70
     0
300
1/64" = 1'-0"
140
0.015625
141
12.0
290
     0
  0
SCALE
  5
46
102
{ACAD_REACTORS
330
42
102
}
330
42
100
AcDbScale
 70
     0
300
1/32" = 1'-0"
140
0.03125
141
12.0
290
     0
  0
SCALE
  5
47
102
{ACAD_REACTORS
330
42
102
}
330
42
100
AcDbScale
 70
     0
300
1/16" = 1'-0"
140
0.0625
141
12.0
290
     0
  0
SCALE
  5
48
102
{ACAD_REACTORS
330
42
102
}
330
42
100
AcDbScale
 70
     0
300
3/32" = 1'-0"
140
0.09375
141
12.0
290
     0
  0
SCALE
  5
49
102
{ACAD_REACTORS
330
42
102
}
330
42
100
AcDbScale
 70
     0
300
1/8" = 1'-0"
140
0.125
141
12.0
290
     0
  0
SCALE
  5
4A
102
{ACAD_REACTORS
330
42
102
}
330
42
100
AcDbScale
 70
     0
300
3/16" = 1'-0"
140
0.1875
141
12.0
290
     0
  0
SCALE
  5
4B
102
{ACAD_REACTORS
330
42
102
}
330
42
100
AcDbScale
 70
     0
300
1/4" = 1'-0"
140
0.25
141
12.0
290
     0
  0
SCALE
  5
4C
102
{ACAD_REACTORS
330
42
102
}
330
42
100
AcDbScale
 70
     0
300
3/8" = 1'-0"
140
0.375
141
12.0
290
     0
  0
SCALE
  5
4D
102
{ACAD_REACTORS
330
42
102
}
330
42
100
AcDbScale
 70
     0
300
1/2" = 1'-0"
140
0.5
141
12.0
290
     0
  0
SCALE
  5
4E
102
{ACAD_REACTORS
330
42
102
}
330
42
100
AcDbScale
 70
     0
300
3/4" = 1'-0"
140
0.75
141
12.0
290
     0
  0
SCALE
  5
4F
102
{ACAD_REACTORS
330
42
102
}
330
42
100
AcDbScale
 70
     0
300
1" = 1'-0"
140
1.0
141
12.0
290
     0
  0
SCALE
  5
50
102
{ACAD_REACTORS
330
42
102
}
330
42
100
AcDbScale
 70
     0
300
1-1/2" = 1'-0"
140
1.5
141
12.0
290
     0
  0
SCALE
  5
51
102
{ACAD_REACTORS
330
42
102
}
330
42
100
AcDbScale
 70
     0
300
3" = 1'-0"
140
3.0
141
12.0
290
     0
  0
SCALE
  5
52
102
{ACAD_REACTORS
330
42
102
}
330
42
100
AcDbScale
 70
     0
300
6" = 1'-0"
140
6.0
141
12.0
290
     0
  0
SCALE
  5
53
102
{ACAD_REACTORS
330
42
102
}
330
42
100
AcDbScale
 70
     0
300
1'-0" = 1'-0"
140
12.0
141
12.0
290
     0
  0
ACDBSECTIONVIEWSTYLE
  5
69
102
{ACAD_REACTORS
330
68
102
}
330
68
100
AcDbModelDocViewStyle
 70
     0
  3
Imperial24
290
     1
300
Imperial24
 90
        0
100
AcDbSectionViewStyle
 70
     0
 71
     0
 90
       78
 71
     1
340
55
 62
   256
 40
0.24
340
0
340
0
 62
   256
 40
0.24
300
I, O, Q, S, X, Z
 40
0.48
 90
        3
 40
0.18
 90
        1
 71
     2
340
5D
 90
       25
 62
   256
340
5D
 90
       50
 62
   256
 40
0.24
 40
0.0
 40
0.24
 71
     3
340
55
 62
   256
 40
0.24
 90
        1
 40
0.75
 90
        1
300
%<\AcVar ViewType \f "%tc1">% %<\AcVar ViewSectionStartId>%-%<\AcVar ViewSectionEndId>%\PSCALE %<\AcVar ViewScale \f "%sn">%
 71
     4
 62
   256
 62
   257
300
ANSI31
 40
1.0
 90
        0
290
     0
290
     0
 90
        6
 40
0.0
 40
1.570796326794896
 40
0.2617993877991494
 40
1.308996938995747
 40
-0.2617993877991494
 40
1.832595714594046
  0
TABLESTYLE
  5
65
102
{ACAD_XDICTIONARY
360
309
102
}
102
{ACAD_REACTORS
330
64
102
}
330
64
100
AcDbTableStyle
280
     0
  3
Standard
 70
     0
 71
     0
 40
0.06
 41
0.06
280
     0
281
     0
  7
Standard
140
0.18
170
     2
 62
     0
 63
     7
283
     0
 90
      512
 91
        0
  1

274
    -2
284
     1
 64
     0
275
    -2
285
     1
 65
     0
276
    -2
286
     1
 66
     0
277
    -2
287
     1
 67
     0
278
    -2
288
     1
 68
     0
279
    -2
289
     1
 69
     0
  7
Standard
140
0.25
170
     5
 62
     0
 63
     7
283
     0
 90
      512
 91
        0
  1

274
    -2
284
     1
 64
     0
275
    -2
285
     1
 65
     0
276
    -2
286
     1
 66
     0
277
    -2
287
     1
 67
     0
278
    -2
288
     1
 68
     0
279
    -2
289
     1
 69
     0
  7
Standard
140
0.18
170
     5
 62
     0
 63
     7
283
     0
 90
      512
 91
        0
  1

274
    -2
284
     1
 64
     0
275
    -2
285
     1
 65
     0
276
    -2
286
     1
 66
     0
277
    -2
287
     1
 67
     0
278
    -2
288
     1
 68
     0
279
    -2
289
     1
 69
     0
  0
VISUALSTYLE
  5
2F
102
{ACAD_REACTORS
330
29
102
}
330
29
100
AcDbVisualStyle
  2
2dWireframe
 70
     4
177
     3
291
     0
 70
    58
 90
        0
176
     1
 90
        2
176
     1
 90
        0
176
     1
 90
        0
176
     1
 40
0.6
176
     1
 40
30.0
176
     1
 62
     7
420
 16777215
176
     1
 90
        1
176
     1
 90
        4
176
     1
 62
     7
176
     1
 62
   257
176
     1
 90
        1
176
     1
 90
        1
176
     1
 40
1.0
176
     1
 90
        0
176
     1
 62
   257
176
     1
 40
1.0
176
     1
 90
        1
176
     1
 90
        6
176
     1
 90
        2
176
     1
 62
     7
176
     1
 90
        5
176
     1
 90
        0
176
     1
 90
        0
176
     1
290
     0
176
     1
 90
        1
176
     1
 40
0.0
176
     1
 90
        0
176
     1
290
     1
176
     1
290
     1
176
     1
290
     0
176
     1
290
     0
176
     1
290
     0
176
     1
290
     0
176
     1
290
     0
176
     1
290
     0
176
     1
290
     0
176
     1
 90
       50
176
     1
 40
0.0
176
     1
 40
1.0
176
     1
 90
        0
176
     1
 62
    18
420
        0
176
     1
 90
       50
176
     1
 90
        3
176
     1
 62
     5
420
      255
176
     1
290
     0
176
     1
 90
       50
176
     1
 90
       50
176
     1
 90
       50
176
     1
290
     0
176
     1
 90
       50
176
     1
 62
   256
176
     0
 40
1.0
176
     0
 90
        2
176
     1
  1
strokes_ogs.tif
176
     1
290
     0
176
     1
 40
1.0
176
     1
 40
1.0
176
     1
  0
VISUALSTYLE
  5
2E
102
{ACAD_REACTORS
330
29
102
}
330
29
100
AcDbVisualStyle
  2
Basic
 70
     7
177
     3
291
     1
 70
    58
 90
        1
176
     1
 90
        0
176
     1
 90
        1
176
     1
 90
        0
176
     1
 40
0.6
176
     1
 40
30.0
176
     1
 62
     7
420
 16777215
176
     1
 90
        0
176
     1
 90
        4
176
     1
 62
     7
176
     1
 62
   257
176
     1
 90
        1
176
     1
 90
        1
176
     1
 40
1.0
176
     1
 90
        8
176
     1
 62
     7
176
     1
 40
1.0
176
     1
 90
        1
176
     1
 90
        6
176
     1
 90
        2
176
     1
 62
     7
176
     1
 90
        5
176
     1
 90
        0
176
     1
 90
        0
176
     1
290
     0
176
     1
 90
        1
176
     1
 40
0.0
176
     1
 90
        0
176
     1
290
     0
176
     1
290
     1
176
     1
290
     1
176
     1
290
     0
176
     1
290
     0
176
     1
290
     0
176
     1
290
     0
176
     1
290
     0
176
     1
290
     0
176
     1
 90
       50
176
     1
 40
0.0
176
     1
 40
1.0
176
     1
 90
        0
176
     1
 62
    18
420
        0
176
     1
 90
       50
176
     1
 90
        3
176
     1
 62
     5
420
      255
176
     1
290
     0
176
     1
 90
       50
176
     1
 90
       50
176
     1
 90
       50
176
     1
290
     0
176
     1
 90
       50
176
     1
 62
   256
176
     0
 40
1.0
176
     0
 90
        2
176
     1
  1
strokes_ogs.tif
176
     1
290
     0
176
     1
 40
1.0
176
     1
 40
1.0
176
     1
  0
VISUALSTYLE
  5
35
102
{ACAD_REACTORS
330
29
102
}
330
29
100
AcDbVisualStyle
  2
Brighten
 70
    12
177
     3
291
     1
 70
    58
 90
        2
176
     1
 90
        2
176
     1
 90
        0
176
     1
 90
        0
176
     1
 40
0.6
176
     1
 40
30.0
176
     1
 62
     7
420
 16777215
176
     1
 90
        1
176
     1
 90
        4
176
     1
 62
     7
176
     1
 62
   257
176
     1
 90
        1
176
     1
 90
        1
176
     1
 40
1.0
176
     1
 90
        8
176
     1
 62
     7
176
     1
 40
1.0
176
     1
 90
        1
176
     1
 90
        6
176
     1
 90
        2
176
     1
 62
     7
176
     1
 90
        5
176
     1
 90
        0
176
     1
 90
        0
176
     1
290
     0
176
     1
 90
        1
176
     1
 40
50.0
176
     1
 90
        0
176
     1
290
     0
176
     1
290
     1
176
     1
290
     1
176
     1
290
     0
176
     1
290
     0
176
     1
290
     0
176
     1
290
     0
176
     1
290
     0
176
     1
290
     0
176
     1
 90
       50
176
     1
 40
0.0
176
     1
 40
1.0
176
     1
 90
        0
176
     1
 62
    18
420
        0
176
     1
 90
       50
176
     1
 90
        3
176
     1
 62
     5
420
      255
176
     1
290
     0
176
     1
 90
       50
176
     1
 90
       50
176
     1
 90
       50
176
     1
290
     0
176
     1
 90
       50
176
     1
 62
   256
176
     0
 40
1.0
176
     0
 90
        2
176
     1
  1
strokes_ogs.tif
176
     1
290
     0
176
     1
 40
1.0
176
     1
 40
1.0
176
     1
  0
VISUALSTYLE
  5
39
102
{ACAD_REACTORS
330
29
102
}
330
29
100
AcDbVisualStyle
  2
ColorChange
 70
    16
177
     3
291
     1
 70
    58
 90
        2
176
     1
 90
        2
176
     1
 90
        3
176
     1
 90
        0
176
     1
 40
0.6
176
     1
 40
30.0
176
     1
 62
     8
420
  8421504
176
     1
 90
        1
176
     1
 90
        4
176
     1
 62
     7
176
     1
 62
   257
176
     1
 90
        1
176
     1
 90
        1
176
     1
 40
1.0
176
     1
 90
        8
176
     1
 62
     8
420
  8421504
176
     1
 40
1.0
176
     1
 90
        1
176
     1
 90
        6
176
     1
 90
        2
176
     1
 62
     7
176
     1
 90
        5
176
     1
 90
        0
176
     1
 90
        0
176
     1
290
     0
176
     1
 90
        1
176
     1
 40
0.0
176
     1
 90
        0
176
     1
290
     0
176
     1
290
     1
176
     1
290
     1
176
     1
290
     0
176
     1
290
     0
176
     1
290
     0
176
     1
290
     0
176
     1
290
     0
176
     1
290
     0
176
     1
 90
       50
176
     1
 40
0.0
176
     1
 40
1.0
176
     1
 90
        0
176
     1
 62
    18
420
        0
176
     1
 90
       50
176
     1
 90
        3
176
     1
 62
     5
420
      255
176
     1
290
     0
176
     1
 90
       50
176
     1
 90
       50
176
     1
 90
       50
176
     1
290
     0
176
     1
 90
       50
176
     1
 62
   256
176
     0
 40
1.0
176
     0
 90
        2
176
     1
  1
strokes_ogs.tif
176
     1
290
     0
176
     1
 40
1.0
176
     1
 40
1.0
176
     1
  0
VISUALSTYLE
  5
32
102
{ACAD_REACTORS
330
29
102
}
330
29
100
AcDbVisualStyle
  2
Conceptual
 70
     9
177
     3
291
     0
 70
    58
 90
        3
176
     1
 90
        2
176
     1
 90
        0
176
     1
 90
        0
176
     1
 40
0.6
176
     1
 40
30.0
176
     1
 62
     7
420
 16777215
176
     1
 90
        2
176
     1
 90
        2
176
     1
 62
     7
176
     1
 62
   257
176
     1
 90
        1
176
     1
 90
        1
176
     1
 40
179.0
176
     1
 90
        8
176
     1
 62
     7
176
     1
 40
1.0
176
     1
 90
        1
176
     1
 90
        6
176
     1
 90
        2
176
     1
 62
     7
176
     1
 90
        3
176
     1
 90
        0
176
     1
 90
        0
176
     1
290
     0
176
     1
 90
        1
176
     1
 40
0.0
176
     1
 90
        0
176
     1
290
     0
176
     1
290
     1
176
     1
290
     1
176
     1
290
     0
176
     1
290
     0
176
     1
290
     0
176
     1
290
     0
176
     1
290
     0
176
     1
290
     0
176
     1
 90
       50
176
     1
 40
0.0
176
     1
 40
1.0
176
     1
 90
        0
176
     1
 62
    18
420
        0
176
     1
 90
       50
176
     1
 90
        3
176
     1
 62
     5
420
      255
176
     1
290
     0
176
     1
 90
       50
176
     1
 90
       50
176
     1
 90
       50
176
     1
290
     0
176
     1
 90
       50
176
     1
 62
   256
176
     0
 40
1.0
176
     0
 90
        2
176
     1
  1
strokes_ogs.tif
176
     1
290
     0
176
     1
 40
1.0
176
     1
 40
1.0
176
     1
  0
VISUALSTYLE
  5
34
102
{ACAD_REACTORS
330
29
102
}
330
29
100
AcDbVisualStyle
  2
Dim
 70
    11
177
     3
291
     1
 70
    58
 90
        2
176
     1
 90
        2
176
     1
 90
        0
176
     1
 90
        0
176
     1
 40
0.6
176
     1
 40
30.0
176
     1
 62
     7
420
 16777215
176
     1
 90
        1
176
     1
 90
        4
176
     1
 62
     7
176
     1
 62
   257
176
     1
 90
        1
176
     1
 90
        1
176
     1
 40
1.0
176
     1
 90
        8
176
     1
 62
     7
176
     1
 40
1.0
176
     1
 90
        1
176
     1
 90
        6
176
     1
 90
        2
176
     1
 62
     7
176
     1
 90
        5
176
     1
 90
        0
176
     1
 90
        0
176
     1
290
     0
176
     1
 90
        1
176
     1
 40
-50.0
176
     1
 90
        0
176
     1
290
     0
176
     1
290
     1
176
     1
290
     1
176
     1
290
     0
176
     1
290
     0
176
     1
290
     0
176
     1
290
     0
176
     1
290
     0
176
     1
290
     0
176
     1
 90
       50
176
     1
 40
0.0
176
     1
 40
1.0
176
     1
 90
        0
176
     1
 62
    18
420
        0
176
     1
 90
       50
176
     1
 90
        3
176
     1
 62
     5
420
      255
176
     1
290
     0
176
     1
 90
       50
176
     1
 90
       50
176
     1
 90
       50
176
     1
290
     0
176
     1
 90
       50
176
     1
 62
   256
176
     0
 40
1.0
176
     0
 90
        2
176
     1
  1
strokes_ogs.tif
176
     1
290
     0
176
     1
 40
1.0
176
     1
 40
1.0
176
     1
  0
VISUALSTYLE
  5
41
102
{ACAD_REACTORS
330
29
102
}
330
29
100
AcDbVisualStyle
  2
EdgeColorOff
 70
    22
177
     3
291
     1
 70
    58
 90
        2
176
     0
 90
        2
176
     0
 90
        0
176
     0
 90
        0
176
     0
 40
0.6
176
     0
 40
30.0
176
     0
 62
     7
420
 16777215
176
     0
 90
        1
176
     0
 90
        4
176
     0
 62
     7
176
     0
 62
   257
176
     0
 90
        1
176
     0
 90
        1
176
     0
 40
1.0
176
     0
 90
        8
176
     2
 62
     7
176
     0
 40
1.0
176
     0
 90
        1
176
     0
 90
        6
176
     0
 90
        2
176
     0
 62
     7
176
     0
 90
        5
176
     0
 90
        0
176
     0
 90
        0
176
     0
290
     0
176
     0
 90
        1
176
     0
 40
0.0
176
     0
 90
        0
176
     0
290
     0
176
     0
290
     1
176
     0
290
     1
176
     0
290
     0
176
     0
290
     0
176
     0
290
     0
176
     0
290
     0
176
     0
290
     0
176
     0
290
     0
176
     0
 90
       50
176
     0
 40
0.0
176
     0
 40
1.0
176
     0
 90
        0
176
     0
 62
    18
420
        0
176
     0
 90
       50
176
     0
 90
        3
176
     0
 62
     5
420
      255
176
     0
290
     0
176
     0
 90
       50
176
     0
 90
       50
176
     0
 90
       50
176
     0
290
     0
176
     0
 90
       50
176
     0
 62
   256
176
     0
 40
1.0
176
     0
 90
        2
176
     0
  1
strokes_ogs.tif
176
     0
290
     0
176
     0
 40
1.0
176
     0
 40
1.0
176
     0
  0
VISUALSTYLE
  5
38
102
{ACAD_REACTORS
330
29
102
}
330
29
100
AcDbVisualStyle
  2
Facepattern
 70
    15
177
     3
291
     1
 70
    58
 90
        2
176
     1
 90
        2
176
     1
 90
        0
176
     1
 90
        0
176
     1
 40
0.6
176
     1
 40
30.0
176
     1
 62
     7
420
 16777215
176
     1
 90
        1
176
     1
 90
        4
176
     1
 62
     7
176
     1
 62
   257
176
     1
 90
        1
176
     1
 90
        1
176
     1
 40
1.0
176
     1
 90
        8
176
     1
 62
     7
176
     1
 40
1.0
176
     1
 90
        1
176
     1
 90
        6
176
     1
 90
        2
176
     1
 62
     7
176
     1
 90
        5
176
     1
 90
        0
176
     1
 90
        0
176
     1
290
     0
176
     1
 90
        1
176
     1
 40
0.0
176
     1
 90
        0
176
     1
290
     0
176
     1
290
     1
176
     1
290
     1
176
     1
290
     0
176
     1
290
     0
176
     1
290
     0
176
     1
290
     0
176
     1
290
     0
176
     1
290
     0
176
     1
 90
       50
176
     1
 40
0.0
176
     1
 40
1.0
176
     1
 90
        0
176
     1
 62
    18
420
        0
176
     1
 90
       50
176
     1
 90
        3
176
     1
 62
     5
420
      255
176
     1
290
     0
176
     1
 90
       50
176
     1
 90
       50
176
     1
 90
       50
176
     1
290
     0
176
     1
 90
       50
176
     1
 62
   256
176
     0
 40
1.0
176
     0
 90
        2
176
     1
  1
strokes_ogs.tif
176
     1
290
     0
176
     1
 40
1.0
176
     1
 40
1.0
176
     1
  0
VISUALSTYLE
  5
2A
102
{ACAD_REACTORS
330
29
102
}
330
29
100
AcDbVisualStyle
  2
Flat
 70
     0
177
     3
291
     1
 70
    58
 90
        2
176
     1
 90
        1
176
     1
 90
        1
176
     1
 90
        2
176
     1
 40
0.6
176
     1
 40
30.0
176
     1
 62
     7
420
 16777215
176
     1
 90
        0
176
     1
 90
        0
176
     1
 62
     7
176
     1
 62
   257
176
     1
 90
        1
176
     1
 90
        1
176
     1
 40
1.0
176
     1
 90
        8
176
     1
 62
     7
176
     1
 40
1.0
176
     1
 90
        1
176
     1
 90
        6
176
     1
 90
        2
176
     1
 62
     7
176
     1
 90
        5
176
     1
 90
        0
176
     1
 90
        0
176
     1
290
     0
176
     1
 90
       13
176
     1
 40
0.0
176
     1
 90
        0
176
     1
290
     0
176
     1
290
     1
176
     1
290
     1
176
     1
290
     0
176
     1
290
     0
176
     1
290
     0
176
     1
290
     0
176
     1
290
     0
176
     1
290
     0
176
     1
 90
       50
176
     1
 40
0.0
176
     1
 40
1.0
176
     1
 90
        0
176
     1
 62
    18
420
        0
176
     1
 90
       50
176
     1
 90
        3
176
     1
 62
     5
420
      255
176
     1
290
     0
176
     1
 90
       50
176
     1
 90
       50
176
     1
 90
       50
176
     1
290
     0
176
     1
 90
       50
176
     1
 62
   256
176
     0
 40
1.0
176
     0
 90
        2
176
     1
  1
strokes_ogs.tif
176
     1
290
     0
176
     1
 40
1.0
176
     1
 40
1.0
176
     1
  0
VISUALSTYLE
  5
2B
102
{ACAD_REACTORS
330
29
102
}
330
29
100
AcDbVisualStyle
  2
FlatWithEdges
 70
     1
177
     3
291
     1
 70
    58
 90
        2
176
     1
 90
        1
176
     1
 90
        1
176
     1
 90
        2
176
     1
 40
0.6
176
     1
 40
30.0
176
     1
 62
     7
420
 16777215
176
     1
 90
        1
176
     1
 90
        0
176
     1
 62
     7
176
     1
 62
   257
176
     1
 90
        1
176
     1
 90
        1
176
     1
 40
1.0
176
     1
 90
        0
176
     1
 62
   257
176
     1
 40
1.0
176
     1
 90
        1
176
     1
 90
        6
176
     1
 90
        2
176
     1
 62
     7
176
     1
 90
        5
176
     1
 90
        0
176
     1
 90
        0
176
     1
290
     0
176
     1
 90
       13
176
     1
 40
0.0
176
     1
 90
        0
176
     1
290
     0
176
     1
290
     1
176
     1
290
     1
176
     1
290
     0
176
     1
290
     0
176
     1
290
     0
176
     1
290
     0
176
     1
290
     0
176
     1
290
     0
176
     1
 90
       50
176
     1
 40
0.0
176
     1
 40
1.0
176
     1
 90
        0
176
     1
 62
    18
420
        0
176
     1
 90
       50
176
     1
 90
        3
176
     1
 62
     5
420
      255
176
     1
290
     0
176
     1
 90
       50
176
     1
 90
       50
176
     1
 90
       50
176
     1
290
     0
176
     1
 90
       50
176
     1
 62
   256
176
     0
 40
1.0
176
     0
 90
        2
176
     1
  1
strokes_ogs.tif
176
     1
290
     0
176
     1
 40
1.0
176
     1
 40
1.0
176
     1
  0
VISUALSTYLE
  5
2C
102
{ACAD_REACTORS
330
29
102
}
330
29
100
AcDbVisualStyle
  2
Gouraud
 70
     2
177
     3
291
     1
 70
    58
 90
        2
176
     1
 90
        2
176
     1
 90
        1
176
     1
 90
        2
176
     1
 40
0.6
176
     1
 40
30.0
176
     1
 62
     7
420
 16777215
176
     1
 90
        0
176
     1
 90
        0
176
     1
 62
     7
176
     1
 62
   257
176
     1
 90
        1
176
     1
 90
        1
176
     1
 40
1.0
176
     1
 90
        0
176
     1
 62
     7
176
     1
 40
1.0
176
     1
 90
        1
176
     1
 90
        6
176
     1
 90
        2
176
     1
 62
     7
176
     1
 90
        5
176
     1
 90
        0
176
     1
 90
        0
176
     1
290
     0
176
     1
 90
       13
176
     1
 40
0.0
176
     1
 90
        0
176
     1
290
     0
176
     1
290
     1
176
     1
290
     1
176
     1
290
     0
176
     1
290
     0
176
     1
290
     0
176
     1
290
     0
176
     1
290
     0
176
     1
290
     0
176
     1
 90
       50
176
     1
 40
0.0
176
     1
 40
1.0
176
     1
 90
        0
176
     1
 62
    18
420
        0
176
     1
 90
       50
176
     1
 90
        3
176
     1
 62
     5
420
      255
176
     1
290
     0
176
     1
 90
       50
176
     1
 90
       50
176
     1
 90
       50
176
     1
290
     0
176
     1
 90
       50
176
     1
 62
   256
176
     0
 40
1.0
176
     0
 90
        2
176
     1
  1
strokes_ogs.tif
176
     1
290
     0
176
     1
 40
1.0
176
     1
 40
1.0
176
     1
  0
VISUALSTYLE
  5
2D
102
{ACAD_REACTORS
330
29
102
}
330
29
100
AcDbVisualStyle
  2
GouraudWithEdges
 70
     3
177
     3
291
     1
 70
    58
 90
        2
176
     1
 90
        2
176
     1
 90
        1
176
     1
 90
        2
176
     1
 40
0.6
176
     1
 40
30.0
176
     1
 62
     7
420
 16777215
176
     1
 90
        1
176
     1
 90
        0
176
     1
 62
     7
176
     1
 62
   257
176
     1
 90
        1
176
     1
 90
        1
176
     1
 40
1.0
176
     1
 90
        0
176
     1
 62
   257
176
     1
 40
1.0
176
     1
 90
        1
176
     1
 90
        6
176
     1
 90
        2
176
     1
 62
     7
176
     1
 90
        5
176
     1
 90
        0
176
     1
 90
        0
176
     1
290
     0
176
     1
 90
       13
176
     1
 40
0.0
176
     1
 90
        0
176
     1
290
     0
176
     1
290
     1
176
     1
290
     1
176
     1
290
     0
176
     1
290
     0
176
     1
290
     0
176
     1
290
     0
176
     1
290
     0
176
     1
290
     0
176
     1
 90
       50
176
     1
 40
0.0
176
     1
 40
1.0
176
     1
 90
        0
176
     1
 62
    18
420
        0
176
     1
 90
       50
176
     1
 90
        3
176
     1
 62
     5
420
      255
176
     1
290
     0
176
     1
 90
       50
176
     1
 90
       50
176
     1
 90
       50
176
     1
290
     0
176
     1
 90
       50
176
     1
 62
   256
176
     0
 40
1.0
176
     0
 90
        2
176
     1
  1
strokes_ogs.tif
176
     1
290
     0
176
     1
 40
1.0
176
     1
 40
1.0
176
     1
  0
VISUALSTYLE
  5
31
102
{ACAD_REACTORS
330
29
102
}
330
29
100
AcDbVisualStyle
  2
Hidden
 70
     6
177
     3
291
     0
 70
    58
 90
        1
176
     1
 90
        2
176
     1
 90
        2
176
     1
 90
        0
176
     1
 40
0.6
176
     1
 40
30.0
176
     1
 62
     7
420
 16777215
176
     1
 90
        2
176
     1
 90
        2
176
     1
 62
     7
176
     1
 62
   257
176
     1
 90
        2
176
     1
 90
        1
176
     1
 40
40.0
176
     1
 90
        0
176
     1
 62
   257
176
     1
 40
1.0
176
     1
 90
        1
176
     1
 90
        6
176
     1
 90
        2
176
     1
 62
     7
176
     1
 90
        3
176
     1
 90
        0
176
     1
 90
        0
176
     1
290
     0
176
     1
 90
        1
176
     1
 40
0.0
176
     1
 90
        0
176
     1
290
     0
176
     1
290
     1
176
     1
290
     1
176
     1
290
     0
176
     1
290
     0
176
     1
290
     0
176
     1
290
     0
176
     1
290
     0
176
     1
290
     0
176
     1
 90
       50
176
     1
 40
0.0
176
     1
 40
1.0
176
     1
 90
        0
176
     1
 62
    18
420
        0
176
     1
 90
       50
176
     1
 90
        3
176
     1
 62
     5
420
      255
176
     1
290
     0
176
     1
 90
       50
176
     1
 90
       50
176
     1
 90
       50
176
     1
290
     0
176
     1
 90
       50
176
     1
 62
   256
176
     0
 40
1.0
176
     0
 90
        2
176
     1
  1
strokes_ogs.tif
176
     1
290
     0
176
     1
 40
1.0
176
     1
 40
1.0
176
     1
  0
VISUALSTYLE
  5
3F
102
{ACAD_REACTORS
330
29
102
}
330
29
100
AcDbVisualStyle
  2
JitterOff
 70
    20
177
     3
291
     1
 70
    58
 90
        2
176
     0
 90
        2
176
     0
 90
        0
176
     0
 90
        0
176
     0
 40
0.6
176
     0
 40
30.0
176
     0
 62
     7
420
 16777215
176
     0
 90
        1
176
     0
 90
        4
176
     0
 62
     7
176
     0
 62
   257
176
     0
 90
        1
176
     0
 90
        1
176
     0
 40
1.0
176
     0
 90
       10
176
     2
 62
     7
176
     0
 40
1.0
176
     0
 90
        1
176
     0
 90
        6
176
     0
 90
        2
176
     0
 62
     7
176
     0
 90
        5
176
     0
 90
        0
176
     0
 90
        0
176
     0
290
     0
176
     0
 90
        1
176
     0
 40
0.0
176
     0
 90
        0
176
     0
290
     0
176
     0
290
     1
176
     0
290
     1
176
     0
290
     0
176
     0
290
     0
176
     0
290
     0
176
     0
290
     0
176
     0
290
     0
176
     0
290
     0
176
     0
 90
       50
176
     0
 40
0.0
176
     0
 40
1.0
176
     0
 90
        0
176
     0
 62
    18
420
        0
176
     0
 90
       50
176
     0
 90
        3
176
     0
 62
     5
420
      255
176
     0
290
     0
176
     0
 90
       50
176
     0
 90
       50
176
     0
 90
       50
176
     0
290
     0
176
     0
 90
       50
176
     0
 62
   256
176
     0
 40
1.0
176
     0
 90
        2
176
     0
  1
strokes_ogs.tif
176
     0
290
     0
176
     0
 40
1.0
176
     0
 40
1.0
176
     0
  0
VISUALSTYLE
  5
37
102
{ACAD_REACTORS
330
29
102
}
330
29
100
AcDbVisualStyle
  2
Linepattern
 70
    14
177
     3
291
     1
 70
    58
 90
        2
176
     1
 90
        2
176
     1
 90
        0
176
     1
 90
        0
176
     1
 40
0.6
176
     1
 40
30.0
176
     1
 62
     7
420
 16777215
176
     1
 90
        1
176
     1
 90
        4
176
     1
 62
     7
176
     1
 62
   257
176
     1
 90
        7
176
     1
 90
        7
176
     1
 40
1.0
176
     1
 90
        8
176
     1
 62
     7
176
     1
 40
1.0
176
     1
 90
        1
176
     1
 90
        6
176
     1
 90
        2
176
     1
 62
     7
176
     1
 90
        5
176
     1
 90
        0
176
     1
 90
        0
176
     1
290
     0
176
     1
 90
        1
176
     1
 40
0.0
176
     1
 90
        0
176
     1
290
     0
176
     1
290
     1
176
     1
290
     1
176
     1
290
     0
176
     1
290
     0
176
     1
290
     0
176
     1
290
     0
176
     1
290
     0
176
     1
290
     0
176
     1
 90
       50
176
     1
 40
0.0
176
     1
 40
1.0
176
     1
 90
        0
176
     1
 62
    18
420
        0
176
     1
 90
       50
176
     1
 90
        3
176
     1
 62
     5
420
      255
176
     1
290
     0
176
     1
 90
       50
176
     1
 90
       50
176
     1
 90
       50
176
     1
290
     0
176
     1
 90
       50
176
     1
 62
   256
176
     0
 40
1.0
176
     0
 90
        2
176
     1
  1
strokes_ogs.tif
176
     1
290
     0
176
     1
 40
1.0
176
     1
 40
1.0
176
     1
  0
VISUALSTYLE
  5
40
102
{ACAD_REACTORS
330
29
102
}
330
29
100
AcDbVisualStyle
  2
OverhangOff
 70
    21
177
     3
291
     1
 70
    58
 90
        2
176
     0
 90
        2
176
     0
 90
        0
176
     0
 90
        0
176
     0
 40
0.6
176
     0
 40
30.0
176
     0
 62
     7
420
 16777215
176
     0
 90
        1
176
     0
 90
        4
176
     0
 62
     7
176
     0
 62
   257
176
     0
 90
        1
176
     0
 90
        1
176
     0
 40
1.0
176
     0
 90
        9
176
     2
 62
     7
176
     0
 40
1.0
176
     0
 90
        1
176
     0
 90
        6
176
     0
 90
        2
176
     0
 62
     7
176
     0
 90
        5
176
     0
 90
        0
176
     0
 90
        0
176
     0
290
     0
176
     0
 90
        1
176
     0
 40
0.0
176
     0
 90
        0
176
     0
290
     0
176
     0
290
     1
176
     0
290
     1
176
     0
290
     0
176
     0
290
     0
176
     0
290
     0
176
     0
290
     0
176
     0
290
     0
176
     0
290
     0
176
     0
 90
       50
176
     0
 40
0.0
176
     0
 40
1.0
176
     0
 90
        0
176
     0
 62
    18
420
        0
176
     0
 90
       50
176
     0
 90
        3
176
     0
 62
     5
420
      255
176
     0
290
     0
176
     0
 90
       50
176
     0
 90
       50
176
     0
 90
       50
176
     0
290
     0
176
     0
 90
       50
176
     0
 62
   256
176
     0
 40
1.0
176
     0
 90
        2
176
     0
  1
strokes_ogs.tif
176
     0
290
     0
176
     0
 40
1.0
176
     0
 40
1.0
176
     0
  0
VISUALSTYLE
  5
33
102
{ACAD_REACTORS
330
29
102
}
330
29
100
AcDbVisualStyle
  2
Realistic
 70
     8
177
     3
291
     0
 70
    58
 90
        2
176
     1
 90
        3
176
     1
 90
        0
176
     1
 90
        2
176
     1
 40
0.6
176
     1
 40
30.0
176
     1
 62
     7
420
 16777215
176
     1
 90
        0
176
     1
 90
        0
176
     1
 62
     7
176
     1
 62
   257
176
     1
 90
        1
176
     1
 90
        1
176
     1
 40
1.0
176
     1
 90
        8
176
     1
 62
   257
176
     1
 40
1.0
176
     1
 90
        1
176
     1
 90
        6
176
     1
 90
        2
176
     1
 62
     7
176
     1
 90
        3
176
     1
 90
        0
176
     1
 90
        0
176
     1
290
     0
176
     1
 90
       13
176
     1
 40
0.0
176
     1
 90
        0
176
     1
290
     0
176
     1
290
     1
176
     1
290
     1
176
     1
290
     0
176
     1
290
     0
176
     1
290
     0
176
     1
290
     0
176
     1
290
     0
176
     1
290
     0
176
     1
 90
       50
176
     1
 40
0.0
176
     1
 40
1.0
176
     1
 90
        0
176
     1
 62
    18
420
        0
176
     1
 90
       50
176
     1
 90
        3
176
     1
 62
     5
420
      255
176
     1
290
     0
176
     1
 90
       50
176
     1
 90
       50
176
     1
 90
       50
176
     1
290
     0
176
     1
 90
       50
176
     1
 62
   256
176
     0
 40
1.0
176
     0
 90
        2
176
     1
  1
strokes_ogs.tif
176
     1
290
     0
176
     1
 40
1.0
176
     1
 40
1.0
176
     1
  0
VISUALSTYLE
  5
3E
102
{ACAD_REACTORS
330
29
102
}
330
29
100
AcDbVisualStyle
  2
Shaded
 70
    27
177
     3
291
     0
 70
    58
 90
        2
176
     1
 90
        2
176
     1
 90
        1
176
     1
 90
        2
176
     1
 40
0.6
176
     1
 40
30.0
176
     1
 62
     7
420
 16777215
176
     1
 90
        0
176
     1
 90
        4
176
     1
 62
     7
176
     1
 62
   257
176
     1
 90
        1
176
     1
 90
        1
176
     1
 40
1.0
176
     1
 90
        8
176
     1
 62
   257
176
     1
 40
1.0
176
     1
 90
        1
176
     1
 90
        6
176
     1
 90
        2
176
     1
 62
     8
420
  7895160
176
     1
 90
        3
176
     1
 90
        0
176
     1
 90
        0
176
     1
290
     0
176
     1
 90
        5
176
     1
 40
0.0
176
     1
 90
        0
176
     1
290
     0
176
     1
290
     1
176
     1
290
     1
176
     1
290
     0
176
     1
290
     0
176
     1
290
     0
176
     1
290
     0
176
     1
290
     0
176
     1
290
     0
176
     1
 90
       50
176
     1
 40
0.0
176
     1
 40
1.0
176
     1
 90
        0
176
     1
 62
    18
420
        0
176
     1
 90
       50
176
     1
 90
        3
176
     1
 62
     5
420
      255
176
     1
290
     0
176
     1
 90
       50
176
     1
 90
       50
176
     1
 90
       50
176
     1
290
     0
176
     1
 90
       50
176
     1
 62
   256
176
     0
 40
1.0
176
     0
 90
        2
176
     1
  1
strokes_ogs.tif
176
     1
290
     0
176
     1
 40
1.0
176
     1
 40
1.0
176
     1
  0
VISUALSTYLE
  5
3D
102
{ACAD_REACTORS
330
29
102
}
330
29
100
AcDbVisualStyle
  2
Shaded with edges
 70
    26
177
     3
291
     0
 70
    58
 90
        2
176
     1
 90
        2
176
     1
 90
        1
176
     1
 90
        2
176
     1
 40
0.6
176
     1
 40
30.0
176
     1
 62
     7
420
 16777215
176
     1
 90
        1
176
     1
 90
        2
176
     1
 62
     7
176
     1
 62
   257
176
     1
 90
        2
176
     1
 90
        1
176
     1
 40
1.0
176
     1
 90
        8
176
     1
 62
   257
176
     1
 40
1.0
176
     1
 90
        1
176
     1
 90
        6
176
     1
 90
        2
176
     1
 62
     7
176
     1
 90
        3
176
     1
 90
        0
176
     1
 90
        0
176
     1
290
     0
176
     1
 90
        5
176
     1
 40
0.0
176
     1
 90
        0
176
     1
290
     0
176
     1
290
     1
176
     1
290
     1
176
     1
290
     0
176
     1
290
     0
176
     1
290
     0
176
     1
290
     0
176
     1
290
     0
176
     1
290
     0
176
     1
 90
       50
176
     1
 40
0.0
176
     1
 40
1.0
176
     1
 90
        0
176
     1
 62
    18
420
        0
176
     1
 90
       50
176
     1
 90
        3
176
     1
 62
     5
420
      255
176
     1
290
     0
176
     1
 90
       50
176
     1
 90
       50
176
     1
 90
       50
176
     1
290
     0
176
     1
 90
       50
176
     1
 62
   256
176
     0
 40
1.0
176
     0
 90
        2
176
     1
  1
strokes_ogs.tif
176
     1
290
     0
176
     1
 40
1.0
176
     1
 40
1.0
176
     1
  0
VISUALSTYLE
  5
3A
102
{ACAD_REACTORS
330
29
102
}
330
29
100
AcDbVisualStyle
  2
Shades of Gray
 70
    23
177
     3
291
     0
 70
    58
 90
        2
176
     1
 90
        2
176
     1
 90
        3
176
     1
 90
        0
176
     1
 40
0.6
176
     1
 40
30.0
176
     1
 62
     7
420
 16777215
176
     1
 90
        2
176
     1
 90
        2
176
     1
 62
     7
176
     1
 62
     7
176
     1
 90
        1
176
     1
 90
        1
176
     1
 40
40.0
176
     1
 90
        8
176
     1
 62
     7
176
     1
 40
1.0
176
     1
 90
        1
176
     1
 90
        6
176
     1
 90
        2
176
     1
 62
     7
176
     1
 90
        3
176
     1
 90
        0
176
     1
 90
        0
176
     1
290
     0
176
     1
 90
        1
176
     1
 40
0.0
176
     1
 90
        0
176
     1
290
     0
176
     1
290
     1
176
     1
290
     1
176
     1
290
     0
176
     1
290
     0
176
     1
290
     0
176
     1
290
     0
176
     1
290
     0
176
     1
290
     0
176
     1
 90
       50
176
     1
 40
0.0
176
     1
 40
1.0
176
     1
 90
        0
176
     1
 62
    18
420
        0
176
     1
 90
       50
176
     1
 90
        3
176
     1
 62
     5
420
      255
176
     1
290
     0
176
     1
 90
       50
176
     1
 90
       50
176
     1
 90
       50
176
     1
290
     0
176
     1
 90
       50
176
     1
 62
   256
176
     0
 40
1.0
176
     0
 90
        2
176
     1
  1
strokes_ogs.tif
176
     1
290
     0
176
     1
 40
1.0
176
     1
 40
1.0
176
     1
  0
VISUALSTYLE
  5
3B
102
{ACAD_REACTORS
330
29
102
}
330
29
100
AcDbVisualStyle
  2
Sketchy
 70
    24
177
     3
291
     0
 70
    58
 90
        1
176
     1
 90
        2
176
     1
 90
        2
176
     1
 90
        0
176
     1
 40
0.6
176
     1
 40
30.0
176
     1
 62
     7
420
 16777215
176
     1
 90
        2
176
     1
 90
        2
176
     1
 62
     7
176
     1
 62
     7
176
     1
 90
        1
176
     1
 90
        1
176
     1
 40
40.0
176
     1
 90
       11
176
     1
 62
     7
176
     1
 40
1.0
176
     1
 90
        1
176
     1
 90
        6
176
     1
 90
        2
176
     1
 62
     7
176
     1
 90
        6
176
     1
 90
        0
176
     1
 90
        0
176
     1
290
     0
176
     1
 90
        1
176
     1
 40
0.0
176
     1
 90
        0
176
     1
290
     0
176
     1
290
     1
176
     1
290
     1
176
     1
290
     0
176
     1
290
     0
176
     1
290
     0
176
     1
290
     0
176
     1
290
     0
176
     1
290
     0
176
     1
 90
       50
176
     1
 40
0.0
176
     1
 40
1.0
176
     1
 90
        0
176
     1
 62
    18
420
        0
176
     1
 90
       50
176
     1
 90
        3
176
     1
 62
     5
420
      255
176
     1
290
     0
176
     1
 90
       50
176
     1
 90
       50
176
     1
 90
       50
176
     1
290
     0
176
     1
 90
       50
176
     1
 62
   256
176
     0
 40
1.0
176
     0
 90
        2
176
     1
  1
strokes_ogs.tif
176
     1
290
     0
176
     1
 40
1.0
176
     1
 40
1.0
176
     1
  0
VISUALSTYLE
  5
36
102
{ACAD_REACTORS
330
29
102
}
330
29
100
AcDbVisualStyle
  2
Thicken
 70
    13
177
     3
291
     1
 70
    58
 90
        2
176
     1
 90
        2
176
     1
 90
        0
176
     1
 90
        0
176
     1
 40
0.6
176
     1
 40
30.0
176
     1
 62
     7
420
 16777215
176
     1
 90
        1
176
     1
 90
        4
176
     1
 62
     7
176
     1
 62
   257
176
     1
 90
        1
176
     1
 90
        1
176
     1
 40
1.0
176
     1
 90
       12
176
     1
 62
     7
176
     1
 40
1.0
176
     1
 90
        1
176
     1
 90
        6
176
     1
 90
        2
176
     1
 62
     7
176
     1
 90
        5
176
     1
 90
        0
176
     1
 90
        0
176
     1
290
     0
176
     1
 90
        1
176
     1
 40
0.0
176
     1
 90
        0
176
     1
290
     0
176
     1
290
     1
176
     1
290
     1
176
     1
290
     0
176
     1
290
     0
176
     1
290
     0
176
     1
290
     0
176
     1
290
     0
176
     1
290
     0
176
     1
 90
       50
176
     1
 40
0.0
176
     1
 40
1.0
176
     1
 90
        0
176
     1
 62
    18
420
        0
176
     1
 90
       50
176
     1
 90
        3
176
     1
 62
     5
420
      255
176
     1
290
     0
176
     1
 90
       50
176
     1
 90
       50
176
     1
 90
       50
176
     1
290
     0
176
     1
 90
       50
176
     1
 62
   256
176
     0
 40
1.0
176
     0
 90
        2
176
     1
  1
strokes_ogs.tif
176
     1
290
     0
176
     1
 40
1.0
176
     1
 40
1.0
176
     1
  0
VISUALSTYLE
  5
30
102
{ACAD_REACTORS
330
29
102
}
330
29
100
AcDbVisualStyle
  2
Wireframe
 70
     5
177
     3
291
     0
 70
    58
 90
        0
176
     1
 90
        2
176
     1
 90
        0
176
     1
 90
        0
176
     1
 40
0.6
176
     1
 40
30.0
176
     1
 62
     7
420
 16777215
176
     1
 90
        1
176
     1
 90
        4
176
     1
 62
     7
176
     1
 62
   257
176
     1
 90
        1
176
     1
 90
        1
176
     1
 40
1.0
176
     1
 90
        0
176
     1
 62
   257
176
     1
 40
1.0
176
     1
 90
        1
176
     1
 90
        6
176
     1
 90
        2
176
     1
 62
     7
176
     1
 90
        3
176
     1
 90
        0
176
     1
 90
        0
176
     1
290
     0
176
     1
 90
        1
176
     1
 40
0.0
176
     1
 90
        0
176
     1
290
     0
176
     1
290
     1
176
     1
290
     1
176
     1
290
     0
176
     1
290
     0
176
     1
290
     0
176
     1
290
     0
176
     1
290
     0
176
     1
290
     0
176
     1
 90
       50
176
     1
 40
0.0
176
     1
 40
1.0
176
     1
 90
        0
176
     1
 62
    18
420
        0
176
     1
 90
       50
176
     1
 90
        3
176
     1
 62
     5
420
      255
176
     1
290
     0
176
     1
 90
       50
176
     1
 90
       50
176
     1
 90
       50
176
     1
290
     0
176
     1
 90
       50
176
     1
 62
   256
176
     0
 40
1.0
176
     0
 90
        2
176
     1
  1
strokes_ogs.tif
176
     1
290
     0
176
     1
 40
1.0
176
     1
 40
1.0
176
     1
  0
VISUALSTYLE
  5
3C
102
{ACAD_REACTORS
330
29
102
}
330
29
100
AcDbVisualStyle
  2
X-Ray
 70
    25
177
     3
291
     0
 70
    58
 90
        2
176
     1
 90
        2
176
     1
 90
        1
176
     1
 90
        1
176
     1
 40
0.5
176
     1
 40
30.0
176
     1
 62
     7
420
 16777215
176
     1
 90
        1
176
     1
 90
        0
176
     1
 62
     7
176
     1
 62
   257
176
     1
 90
        1
176
     1
 90
        1
176
     1
 40
1.0
176
     1
 90
        8
176
     1
 62
     7
176
     1
 40
1.0
176
     1
 90
        1
176
     1
 90
        6
176
     1
 90
        2
176
     1
 62
     7
176
     1
 90
        3
176
     1
 90
        0
176
     1
 90
        0
176
     1
290
     0
176
     1
 90
       13
176
     1
 40
0.0
176
     1
 90
        0
176
     1
290
     0
176
     1
290
     1
176
     1
290
     1
176
     1
290
     0
176
     1
290
     0
176
     1
290
     0
176
     1
290
     0
176
     1
290
     0
176
     1
290
     0
176
     1
 90
       50
176
     1
 40
0.0
176
     1
 40
1.0
176
     1
 90
        0
176
     1
 62
    18
420
        0
176
     1
 90
       50
176
     1
 90
        3
176
     1
 62
     5
420
      255
176
     1
290
     0
176
     1
 90
       50
176
     1
 90
       50
176
     1
 90
       50
176
     1
290
     0
176
     1
 90
       50
176
     1
 62
   256
176
     0
 40
1.0
176
     0
 90
        2
176
     1
  1
strokes_ogs.tif
176
     1
290
     0
176
     1
 40
1.0
176
     1
 40
1.0
176
     1
  0
DICTIONARYVAR
  5
308
102
{ACAD_REACTORS
330
303
102
}
330
303
100
DictionaryVariables
280
     0
  1
1:1
  0
DICTIONARYVAR
  5
305
102
{ACAD_REACTORS
330
303
102
}
330
303
100
DictionaryVariables
280
     0
  1
STANDARD
  0
DICTIONARYVAR
  5
304
102
{ACAD_REACTORS
330
303
102
}
330
303
100
DictionaryVariables
280
     0
  1
STANDARD
  0
DICTIONARYVAR
  5
306
102
{ACAD_REACTORS
330
303
102
}
330
303
100
DictionaryVariables
280
     0
  1
Imperial24
  0
DICTIONARYVAR
  5
307
102
{ACAD_REACTORS
330
303
102
}
330
303
100
DictionaryVariables
280
     0
  1
Imperial24
  0
DICTIONARY
  5
1A
330
19
100
AcDbDictionary
280
     1
281
     1
  3
BUMPTILE
360
1C
  3
DIFFUSETILE
360
1B
  3
OPACITYTILE
360
1F
  3
REFLECTIONTILE
360
1E
  3
REFRACTIONTILE
360
20
  3
SPECULARTILE
360
1D
  0
DICTIONARY
  5
12
330
11
100
AcDbDictionary
280
     1
281
     1
  3
BUMPTILE
360
14
  3
DIFFUSETILE
360
13
  3
OPACITYTILE
360
17
  3
REFLECTIONTILE
360
16
  3
REFRACTIONTILE
360
18
  3
SPECULARTILE
360
15
  0
DICTIONARY
  5
22
330
21
100
AcDbDictionary
280
     1
281
     1
  3
BUMPTILE
360
24
  3
DIFFUSETILE
360
23
  3
OPACITYTILE
360
27
  3
REFLECTIONTILE
360
26
  3
REFRACTIONTILE
360
28
  3
SPECULARTILE
360
25
  0
DICTIONARY
  5
309
330
65
100
AcDbDictionary
280
     1
281
     1
  3
ACAD_ROUNDTRIP_2008_TABLESTYLE_CELLSTYLEMAP
360
30A
  0
XRECORD
  5
1C
102
{ACAD_REACTORS
330
1A
102
}
330
1A
100
AcDbXrecord
280
     1
270
     1
271
     1
  0
XRECORD
  5
1B
102
{ACAD_REACTORS
330
1A
102
}
330
1A
100
AcDbXrecord
280
     1
270
     1
271
     1
  0
XRECORD
  5
1F
102
{ACAD_REACTORS
330
1A
102
}
330
1A
100
AcDbXrecord
280
     1
270
     1
271
     1
  0
XRECORD
  5
1E
102
{ACAD_REACTORS
330
1A
102
}
330
1A
100
AcDbXrecord
280
     1
270
     1
271
     1
  0
XRECORD
  5
20
102
{ACAD_REACTORS
330
1A
102
}
330
1A
100
AcDbXrecord
280
     1
270
     1
271
     1
  0
XRECORD
  5
1D
102
{ACAD_REACTORS
330
1A
102
}
330
1A
100
AcDbXrecord
280
     1
270
     1
271
     1
  0
XRECORD
  5
14
102
{ACAD_REACTORS
330
12
102
}
330
12
100
AcDbXrecord
280
     1
270
     1
271
     1
  0
XRECORD
  5
13
102
{ACAD_REACTORS
330
12
102
}
330
12
100
AcDbXrecord
280
     1
270
     1
271
     1
  0
XRECORD
  5
17
102
{ACAD_REACTORS
330
12
102
}
330
12
100
AcDbXrecord
280
     1
270
     1
271
     1
  0
XRECORD
  5
16
102
{ACAD_REACTORS
330
12
102
}
330
12
100
AcDbXrecord
280
     1
270
     1
271
     1
  0
XRECORD
  5
18
102
{ACAD_REACTORS
330
12
102
}
330
12
100
AcDbXrecord
280
     1
270
     1
271
     1
  0
XRECORD
  5
15
102
{ACAD_REACTORS
330
12
102
}
330
12
100
AcDbXrecord
280
     1
270
     1
271
     1
  0
XRECORD
  5
24
102
{ACAD_REACTORS
330
22
102
}
330
22
100
AcDbXrecord
280
     1
270
     1
271
     1
  0
XRECORD
  5
23
102
{ACAD_REACTORS
330
22
102
}
330
22
100
AcDbXrecord
280
     1
270
     1
271
     1
  0
XRECORD
  5
27
102
{ACAD_REACTORS
330
22
102
}
330
22
100
AcDbXrecord
280
     1
270
     1
271
     1
  0
XRECORD
  5
26
102
{ACAD_REACTORS
330
22
102
}
330
22
100
AcDbXrecord
280
     1
270
     1
271
     1
  0
XRECORD
  5
28
102
{ACAD_REACTORS
330
22
102
}
330
22
100
AcDbXrecord
280
     1
270
     1
271
     1
  0
XRECORD
  5
25
102
{ACAD_REACTORS
330
22
102
}
330
22
100
AcDbXrecord
280
     1
270
     1
271
     1
  0
CELLSTYLEMAP
  5
30A
102
{ACAD_REACTORS
330
309
102
}
330
309
100
AcDbCellStyleMap
 90
        3
300
CELLSTYLE
  1
TABLEFORMAT_BEGIN
 90
        5
170
     1
 91
        0
 92
    32768
 62
   257
 93
        1
300
CONTENTFORMAT
  1
CONTENTFORMAT_BEGIN
 90
        0
 91
        0
 92
      512
 93
        0
300

 40
0.0
140
1.0
 94
        5
 62
     0
340
55
144
0.25
309
CONTENTFORMAT_END
171
     0
 94
        0
309
TABLEFORMAT_END
  1
CELLSTYLE_BEGIN
 90
        1
 91
        1
300
_TITLE
309
CELLSTYLE_END
300
CELLSTYLE
  1
TABLEFORMAT_BEGIN
 90
        5
170
     1
 91
        0
 92
        0
 62
   257
 93
        1
300
CONTENTFORMAT
  1
CONTENTFORMAT_BEGIN
 90
        0
 91
        0
 92
      512
 93
        0
300

 40
0.0
140
1.0
 94
        5
 62
     0
340
55
144
0.18
309
CONTENTFORMAT_END
171
     0
 94
        0
309
TABLEFORMAT_END
  1
CELLSTYLE_BEGIN
 90
        2
 91
        1
300
_HEADER
309
CELLSTYLE_END
300
CELLSTYLE
  1
TABLEFORMAT_BEGIN
 90
        5
170
     1
 91
        0
 92
        0
 62
   257
 93
        1
300
CONTENTFORMAT
  1
CONTENTFORMAT_BEGIN
 90
        0
 91
        0
 92
      512
 93
        0
300

 40
0.0
140
1.0
 94
        2
 62
     0
340
55
144
0.18
309
CONTENTFORMAT_END
171
     0
 94
        0
309
TABLEFORMAT_END
  1
CELLSTYLE_BEGIN
 90
        3
 91
        2
300
_DATA
309
CELLSTYLE_END
  0
ENDSEC
  0
EOF
