  0
SECTION
  2
HEADER
  9
$ACADVER
  1
AC1014
  9
$ACADMAINTVER
 70
     9
  9
$DWGCODEPAGE
  3
ANSI_1252
  9
$INSBASE
 10
0.0
 20
0.0
 30
0.0
  9
$EXTMIN
 10
1.000000000000000E+20
 20
1.000000000000000E+20
 30
1.000000000000000E+20
  9
$EXTMAX
 10
-1.000000000000000E+20
 20
-1.000000000000000E+20
 30
-1.000000000000000E+20
  9
$LIMMIN
 10
0.0
 20
0.0
  9
$LIMMAX
 10
12.0
 20
9.0
  9
$ORTHOMODE
 70
     0
  9
$REGENMODE
 70
     1
  9
$FILLMODE
 70
     1
  9
$QTEXTMODE
 70
     0
  9
$MIRRTEXT
 70
     1
  9
$DRAGMODE
 70
     2
  9
$LTSCALE
 40
1.0
  9
$OSMODE
 70
    37
  9
$ATTMODE
 70
     1
  9
$TEXTSIZE
 40
0.2
  9
$TRACEWID
 40
0.05
  9
$TEXTSTYLE
  7
STANDARD
  9
$CLAYER
  8
0
  9
$CELTYPE
  6
BYLAYER
  9
$CECOLOR
 62
   256
  9
$CELTSCALE
 40
1.0
  9
$DELOBJ
 70
     1
  9
$DISPSILH
 70
     0
  9
$DIMSCALE
 40
1.0
  9
$DIMASZ
 40
0.18
  9
$DIMEXO
 40
0.0625
  9
$DIMDLI
 40
0.38
  9
$DIMRND
 40
0.0
  9
$DIMDLE
 40
0.0
  9
$DIMEXE
 40
0.18
  9
$DIMTP
 40
0.0
  9
$DIMTM
 40
0.0
  9
$DIMTXT
 40
0.18
  9
$DIMCEN
 40
0.09
  9
$DIMTSZ
 40
0.0
  9
$DIMTOL
 70
     0
  9
$DIMLIM
 70
     0
  9
$DIMTIH
 70
     1
  9
$DIMTOH
 70
     1
  9
$DIMSE1
 70
     0
  9
$DIMSE2
 70
     0
  9
$DIMTAD
 70
     0
  9
$DIMZIN
 70
     0
  9
$DIMBLK
  1

  9
$DIMASO
 70
     1
  9
$DIMSHO
 70
     1
  9
$DIMPOST
  1

  9
$DIMAPOST
  1

  9
$DIMALT
 70
     0
  9
$DIMALTD
 70
     2
  9
$DIMALTF
 40
25.4
  9
$DIMLFAC
 40
1.0
  9
$DIMTOFL
 70
     0
  9
$DIMTVP
 40
0.0
  9
$DIMTIX
 70
     0
  9
$DIMSOXD
 70
     0
  9
$DIMSAH
 70
     0
  9
$DIMBLK1
  1

  9
$DIMBLK2
  1

  9
$DIMSTYLE
  2
STANDARD
  9
$DIMCLRD
 70
     0
  9
$DIMCLRE
 70
     0
  9
$DIMCLRT
 70
     0
  9
$DIMTFAC
 40
1.0
  9
$DIMGAP
 40
0.09
  9
$DIMJUST
 70
     0
  9
$DIMSD1
 70
     0
  9
$DIMSD2
 70
     0
  9
$DIMTOLJ
 70
     1
  9
$DIMTZIN
 70
     0
  9
$DIMALTZ
 70
     0
  9
$DIMALTTZ
 70
     0
  9
$DIMFIT
 70
     3
  9
$DIMUPT
 70
     0
  9
$DIMUNIT
 70
     2
  9
$DIMDEC
 70
     4
  9
$DIMTDEC
 70
     4
  9
$DIMALTU
 70
     2
  9
$DIMALTTD
 70
     2
  9
$DIMTXSTY
  7
STANDARD
  9
$DIMAUNIT
 70
     0
  9
$LUNITS
 70
     2
  9
$LUPREC
 70
     4
  9
$SKETCHINC
 40
0.1
  9
$FILLETRAD
 40
0.5
  9
$AUNITS
 70
     0
  9
$AUPREC
 70
     0
  9
$MENU
  1
.
  9
$ELEVATION
 40
0.0
  9
$PELEVATION
 40
0.0
  9
$THICKNESS
 40
0.0
  9
$LIMCHECK
 70
     0
  9
$CHAMFERA
 40
0.5
  9
$CHAMFERB
 40
0.5
  9
$CHAMFERC
 40
1.0
  9
$CHAMFERD
 40
0.0
  9
$SKPOLY
 70
     0
  9
$TDCREATE
 40
2458283.523893194
  9
$TDUPDATE
 40
2458283.523893206
  9
$TDINDWG
 40
0.0000000116
  9
$TDUSRTIMER
 40
0.0000000116
  9
$USRTIMER
 70
     1
  9
$ANGBASE
 50
0.0
  9
$ANGDIR
 70
     0
  9
$PDMODE
 70
     0
  9
$PDSIZE
 40
0.0
  9
$PLINEWID
 40
0.0
  9
$COORDS
 70
     1
  9
$SPLFRAME
 70
     0
  9
$SPLINETYPE
 70
     6
  9
$SPLINESEGS
 70
     8
  9
$ATTDIA
 70
     0
  9
$ATTREQ
 70
     1
  9
$HANDLING
 70
     1
  9
$HANDSEED
  5
522
  9
$SURFTAB1
 70
     6
  9
$SURFTAB2
 70
     6
  9
$SURFTYPE
 70
     6
  9
$SURFU
 70
     6
  9
$SURFV
 70
     6
  9
$UCSNAME
  2

  9
$UCSORG
 10
0.0
 20
0.0
 30
0.0
  9
$UCSXDIR
 10
1.0
 20
0.0
 30
0.0
  9
$UCSYDIR
 10
0.0
 20
1.0
 30
0.0
  9
$PUCSNAME
  2

  9
$PUCSORG
 10
0.0
 20
0.0
 30
0.0
  9
$PUCSXDIR
 10
1.0
 20
0.0
 30
0.0
  9
$PUCSYDIR
 10
0.0
 20
1.0
 30
0.0
  9
$USERI1
 70
     0
  9
$USERI2
 70
     0
  9
$USERI3
 70
     0
  9
$USERI4
 70
     0
  9
$USERI5
 70
     0
  9
$USERR1
 40
0.0
  9
$USERR2
 40
0.0
  9
$USERR3
 40
0.0
  9
$USERR4
 40
0.0
  9
$USERR5
 40
0.0
  9
$WORLDVIEW
 70
     1
  9
$SHADEDGE
 70
     3
  9
$SHADEDIF
 70
    70
  9
$TILEMODE
 70
     1
  9
$MAXACTVP
 70
    64
  9
$PINSBASE
 10
0.0
 20
0.0
 30
0.0
  9
$PLIMCHECK
 70
     0
  9
$PEXTMIN
 10
1.000000000000000E+20
 20
1.000000000000000E+20
 30
1.000000000000000E+20
  9
$PEXTMAX
 10
-1.000000000000000E+20
 20
-1.000000000000000E+20
 30
-1.000000000000000E+20
  9
$PLIMMIN
 10
0.0
 20
0.0
  9
$PLIMMAX
 10
12.0
 20
9.0
  9
$UNITMODE
 70
     0
  9
$VISRETAIN
 70
     1
  9
$PLINEGEN
 70
     0
  9
$PSLTSCALE
 70
     1
  9
$TREEDEPTH
 70
  3020
  9
$PICKSTYLE
 70
     1
  9
$CMLSTYLE
  2
STANDARD
  9
$CMLJUST
 70
     0
  9
$CMLSCALE
 40
1.0
  9
$PROXYGRAPHICS
 70
     1
  9
$MEASUREMENT
 70
     0
  0
ENDSEC
  0
SECTION
  2
CLASSES
  0
CLASS
  1
ACDBDICTIONARYWDFLT
  2
AcDbDictionaryWithDefault
  3
ObjectDBX Classes
 90
        0
280
     0
281
     0
  0
CLASS
  1
VISUALSTYLE
  2
AcDbVisualStyle
  3
ObjectDBX Classes
 90
     4095
280
     0
281
     0
  0
CLASS
  1
XRECORD
  2
AcDbXrecord
  3
AutoCAD 2000
 90
        0
280
     0
281
     0
  0
CLASS
  1
LWPOLYLINE
  2
AcDbPolyline
  3
AutoCAD 2000
 90
        0
280
     0
281
     1
  0
CLASS
  1
HATCH
  2
AcDbHatch
  3
AutoCAD 2000
 90
        0
280
     0
281
     1
  0
CLASS
  1
ACDBPLACEHOLDER
  2
AcDbPlaceHolder
  3
ObjectDBX Classes
 90
        0
280
     0
281
     0
  0
CLASS
  1
LAYOUT
  2
AcDbLayout
  3
ObjectDBX Classes
 90
        0
280
     0
281
     0
  0
ENDSEC
  0
SECTION
  2
TABLES
  0
TABLE
  2
VPORT
  5
8
330
0
100
AcDbSymbolTable
 70
     1
  0
VPORT
  5
29
330
8
100
AcDbSymbolTableRecord
100
AcDbViewportTableRecord
  2
*ACTIVE
 70
     0
 10
0.0
 20
0.0
 11
1.0
 21
1.0
 12
0.0
 22
0.0
 13
0.0
 23
0.0
 14
0.5
 24
0.5
 15
0.5
 25
0.5
 16
0.0
 26
0.0
 36
1.0
 17
59.0341796875
 27
83.822265625
 37
0.0
 40
620.0
 41
1.188709677419355
 42
50.0
 43
0.0
 44
0.0
 50
0.0
 51
0.0
 71
     0
 72
   100
 73
     1
 74
     3
 75
     0
 76
     0
 77
     0
 78
     0
  0
ENDTAB
  0
TABLE
  2
LTYPE
  5
5
330
0
100
AcDbSymbolTable
 70
     2
  0
LTYPE
  5
14
330
5
100
AcDbSymbolTableRecord
100
AcDbLinetypeTableRecord
  2
BYBLOCK
 70
     0
  3

 72
    65
 73
     0
 40
0.0
  0
LTYPE
  5
15
330
5
100
AcDbSymbolTableRecord
100
AcDbLinetypeTableRecord
  2
BYLAYER
 70
     0
  3

 72
    65
 73
     0
 40
0.0
  0
LTYPE
  5
16
330
5
100
AcDbSymbolTableRecord
100
AcDbLinetypeTableRecord
  2
CONTINUOUS
 70
     0
  3
Solid line
 72
    65
 73
     0
 40
0.0
  0
LTYPE
  5
CD
330
5
100
AcDbSymbolTableRecord
100
AcDbLinetypeTableRecord
  2
AI-LINETYPE-1
 70
     0
  3
Adobe Illustrator Linetype No. 1
 72
    65
 73
     4
 40
25.0
 49
20.0
 74
     0
 49
-2.0
 74
     0
 49
1.0
 74
     0
 49
-2.0
 74
     0
  0
ENDTAB
  0
TABLE
  2
LAYER
  5
2
330
0
100
AcDbSymbolTable
 70
     5
  0
LAYER
  5
10
330
2
100
AcDbSymbolTableRecord
100
AcDbLayerTableRecord
  2
0
 70
     0
 62
     7
  6
CONTINUOUS
  0
LAYER
  5
3B
330
2
100
AcDbSymbolTableRecord
100
AcDbLayerTableRecord
  2
GRAU_10_
 70
     1
 62
     7
  6
CONTINUOUS
  0
LAYER
  5
50
330
2
100
AcDbSymbolTableRecord
100
AcDbLayerTableRecord
  2
STANDARDEBENE
 70
     0
 62
     7
  6
CONTINUOUS
  0
LAYER
  5
29F
330
2
100
AcDbSymbolTableRecord
100
AcDbLayerTableRecord
  2
BEMAßUNG
 70
     1
 62
     7
  6
CONTINUOUS
  0
LAYER
  5
4F5
330
2
100
AcDbSymbolTableRecord
100
AcDbLayerTableRecord
  2
TEXT
 70
     1
 62
     7
  6
CONTINUOUS
  0
ENDTAB
  0
TABLE
  2
STYLE
  5
3
330
0
100
AcDbSymbolTable
 70
     1
  0
STYLE
  5
11
330
3
100
AcDbSymbolTableRecord
100
AcDbTextStyleTableRecord
  2
STANDARD
 70
     0
 40
0.0
 41
1.0
 50
0.0
 71
     0
 42
0.2
  3
txt
  4

  0
ENDTAB
  0
TABLE
  2
VIEW
  5
6
330
0
100
AcDbSymbolTable
 70
     0
  0
ENDTAB
  0
TABLE
  2
UCS
  5
7
330
0
100
AcDbSymbolTable
 70
     0
  0
ENDTAB
  0
TABLE
  2
APPID
  5
9
330
0
100
AcDbSymbolTable
 70
     1
  0
APPID
  5
12
330
9
100
AcDbSymbolTableRecord
100
AcDbRegAppTableRecord
  2
ACAD
 70
     0
  0
ENDTAB
  0
TABLE
  2
DIMSTYLE
  5
A
330
0
100
AcDbSymbolTable
 70
     1
  0
DIMSTYLE
105
27
330
A
100
AcDbSymbolTableRecord
100
AcDbDimStyleTableRecord
  2
STANDARD
 70
     0
  3

  4

  5

  6

  7

 40
1.0
 41
0.18
 42
0.0625
 43
0.38
 44
0.18
 45
0.0
 46
0.0
 47
0.0
 48
0.0
140
0.18
141
0.09
142
0.0
143
25.4
144
1.0
145
0.0
146
1.0
147
0.09
 71
     0
 72
     0
 73
     1
 74
     1
 75
     0
 76
     0
 77
     0
 78
     0
170
     0
171
     2
172
     0
173
     0
174
     0
175
     0
176
     0
177
     0
178
     0
270
     2
271
     4
272
     4
273
     2
274
     2
340
11
275
     0
280
     0
281
     0
282
     0
283
     1
284
     0
285
     0
286
     0
287
     3
288
     0
  0
ENDTAB
  0
TABLE
  2
BLOCK_RECORD
  5
1
330
0
100
AcDbSymbolTable
 70
     1
  0
BLOCK_RECORD
  5
1F
330
1
100
AcDbSymbolTableRecord
100
AcDbBlockTableRecord
  2
*MODEL_SPACE
  0
BLOCK_RECORD
  5
1B
330
1
100
AcDbSymbolTableRecord
100
AcDbBlockTableRecord
  2
*PAPER_SPACE
  0
ENDTAB
  0
ENDSEC
  0
SECTION
  2
BLOCKS
  0
BLOCK
  5
20
330
1F
100
AcDbEntity
  8
0
100
AcDbBlockBegin
  2
*MODEL_SPACE
 70
     0
 71
     0
 10
0.0
 20
0.0
 30
0.0
  3
*MODEL_SPACE
  1

  0
ENDBLK
  5
21
330
1F
100
AcDbEntity
  8
0
100
AcDbBlockEnd
  0
BLOCK
  5
1C
330
1B
100
AcDbEntity
 67
     1
  8
0
100
AcDbBlockBegin
  2
*PAPER_SPACE
 70
     0
 71
     0
 10
0.0
 20
0.0
 30
0.0
  3
*PAPER_SPACE
  1

  0
ENDBLK
  5
1D
330
1B
100
AcDbEntity
 67
     1
  8
0
100
AcDbBlockEnd
  0
ENDSEC
  0
SECTION
  2
ENTITIES
  0
POLYLINE
  5
3C
330
1F
100
AcDbEntity
  8
GRAU_10_
100
AcDb2dPolyline
 66
     1
 10
0.0
 20
0.0
 30
0.0
  0
VERTEX
  5
3D
330
3C
100
AcDbEntity
  8
GRAU_10_
100
AcDbVertex
100
AcDb2dVertex
 10
7.58740234375
 20
277.55322265625
 30
0.0
  0
VERTEX
  5
3E
330
3C
100
AcDbEntity
  8
GRAU_10_
100
AcDbVertex
100
AcDb2dVertex
 10
18.3544921875
 20
283.62451171875
 30
0.0
  0
VERTEX
  5
3F
330
3C
100
AcDbEntity
  8
GRAU_10_
100
AcDbVertex
100
AcDb2dVertex
 10
18.927734375
 20
279.15673828125
 30
0.0
  0
VERTEX
  5
40
330
3C
100
AcDbEntity
  8
GRAU_10_
100
AcDbVertex
100
AcDb2dVertex
 10
26.2587890625
 20
279.04248046875
 30
0.0
  0
VERTEX
  5
41
330
3C
100
AcDbEntity
  8
GRAU_10_
100
AcDbVertex
100
AcDb2dVertex
 10
26.48828125
 20
283.509765625
 30
0.0
  0
VERTEX
  5
42
330
3C
100
AcDbEntity
  8
GRAU_10_
100
AcDbVertex
100
AcDb2dVertex
 10
85.482421875
 20
275.37646484375
 30
0.0
  0
VERTEX
  5
43
330
3C
100
AcDbEntity
  8
GRAU_10_
100
AcDbVertex
100
AcDb2dVertex
 10
85.369140625
 20
243.6455078125
 30
0.0
  0
VERTEX
  5
44
330
3C
100
AcDbEntity
  8
GRAU_10_
100
AcDbVertex
100
AcDb2dVertex
 10
26.3740234375
 20
235.39794921875
 30
0.0
  0
VERTEX
  5
45
330
3C
100
AcDbEntity
  8
GRAU_10_
100
AcDbVertex
100
AcDb2dVertex
 10
26.48828125
 20
239.63623046875
 30
0.0
  0
VERTEX
  5
46
330
3C
100
AcDbEntity
  8
GRAU_10_
100
AcDbVertex
100
AcDb2dVertex
 10
19.0419921875
 20
239.75048828125
 30
0.0
  0
VERTEX
  5
47
330
3C
100
AcDbEntity
  8
GRAU_10_
100
AcDbVertex
100
AcDb2dVertex
 10
18.8134765625
 20
235.51220703125
 30
0.0
  0
VERTEX
  5
48
330
3C
100
AcDbEntity
  8
GRAU_10_
100
AcDbVertex
100
AcDb2dVertex
 10
7.12890625
 20
241.46923828125
 30
0.0
  0
VERTEX
  5
49
330
3C
100
AcDbEntity
  8
GRAU_10_
100
AcDbVertex
100
AcDb2dVertex
 10
7.24365234375
 20
258.0791015625
 30
0.0
  0
VERTEX
  5
4A
330
3C
100
AcDbEntity
  8
GRAU_10_
100
AcDbVertex
100
AcDb2dVertex
 10
73.9140625
 20
258.19384765625
 30
0.0
  0
VERTEX
  5
4B
330
3C
100
AcDbEntity
  8
GRAU_10_
100
AcDbVertex
100
AcDb2dVertex
 10
73.9140625
 20
260.82861328125
 30
0.0
  0
VERTEX
  5
4C
330
3C
100
AcDbEntity
  8
GRAU_10_
100
AcDbVertex
100
AcDb2dVertex
 10
7.47265625
 20
260.82861328125
 30
0.0
  0
VERTEX
  5
4D
330
3C
100
AcDbEntity
  8
GRAU_10_
100
AcDbVertex
100
AcDb2dVertex
 10
7.58740234375
 20
277.55322265625
 30
0.0
  0
SEQEND
  5
4E
330
3C
100
AcDbEntity
  8
GRAU_10_
  0
HATCH
  5
4F
330
1F
100
AcDbEntity
  8
GRAU_10_
 62
   255
100
AcDbHatch
 10
0.0
 20
0.0
 30
0.0
210
0.0
220
0.0
230
1.0
  2
SOLID
 70
     1
 71
     0
 91
        1
 92
        1
 93
       16
 72
     1
 10
7.58740234375
 20
277.55322265625
 11
18.3544921875
 21
283.62451171875
 72
     1
 10
18.3544921875
 20
283.62451171875
 11
18.927734375
 21
279.15673828125
 72
     1
 10
18.927734375
 20
279.15673828125
 11
26.2587890625
 21
279.04248046875
 72
     1
 10
26.2587890625
 20
279.04248046875
 11
26.48828125
 21
283.509765625
 72
     1
 10
26.48828125
 20
283.509765625
 11
85.482421875
 21
275.37646484375
 72
     1
 10
85.482421875
 20
275.37646484375
 11
85.369140625
 21
243.6455078125
 72
     1
 10
85.369140625
 20
243.6455078125
 11
26.3740234375
 21
235.39794921875
 72
     1
 10
26.3740234375
 20
235.39794921875
 11
26.48828125
 21
239.63623046875
 72
     1
 10
26.48828125
 20
239.63623046875
 11
19.0419921875
 21
239.75048828125
 72
     1
 10
19.0419921875
 20
239.75048828125
 11
18.8134765625
 21
235.51220703125
 72
     1
 10
18.8134765625
 20
235.51220703125
 11
7.12890625
 21
241.46923828125
 72
     1
 10
7.12890625
 20
241.46923828125
 11
7.24365234375
 21
258.0791015625
 72
     1
 10
7.24365234375
 20
258.0791015625
 11
73.9140625
 21
258.19384765625
 72
     1
 10
73.9140625
 20
258.19384765625
 11
73.9140625
 21
260.82861328125
 72
     1
 10
73.9140625
 20
260.82861328125
 11
7.47265625
 21
260.82861328125
 72
     1
 10
7.47265625
 20
260.82861328125
 11
7.58740234375
 21
277.55322265625
 97
        0
 75
     0
 76
     1
 98
        0
  0
POLYLINE
  5
51
330
1F
100
AcDbEntity
  8
STANDARDEBENE
 62
     7
100
AcDb2dPolyline
 66
     1
 10
0.0
 20
0.0
 30
0.0
  0
VERTEX
  5
52
330
51
100
AcDbEntity
  8
STANDARDEBENE
 62
     7
100
AcDbVertex
100
AcDb2dVertex
 10
85.48046875
 20
273.69140625
 30
0.0
  0
VERTEX
  5
53
330
51
100
AcDbEntity
  8
STANDARDEBENE
 62
     7
100
AcDbVertex
100
AcDb2dVertex
 10
84.08984375
 20
273.69140625
 30
0.0
  0
SEQEND
  5
54
330
51
100
AcDbEntity
  8
STANDARDEBENE
  0
POLYLINE
  5
55
330
1F
100
AcDbEntity
  8
STANDARDEBENE
 62
     7
100
AcDb2dPolyline
 66
     1
 10
0.0
 20
0.0
 30
0.0
  0
VERTEX
  5
56
330
55
100
AcDbEntity
  8
STANDARDEBENE
 62
     7
100
AcDbVertex
100
AcDb2dVertex
 10
81.3056640625
 20
273.69140625
 30
0.0
  0
VERTEX
  5
57
330
55
100
AcDbEntity
  8
STANDARDEBENE
 62
     7
100
AcDbVertex
100
AcDb2dVertex
 10
78.521484375
 20
273.69140625
 30
0.0
  0
SEQEND
  5
58
330
55
100
AcDbEntity
  8
STANDARDEBENE
  0
POLYLINE
  5
59
330
1F
100
AcDbEntity
  8
STANDARDEBENE
 62
     7
100
AcDb2dPolyline
 66
     1
 10
0.0
 20
0.0
 30
0.0
  0
VERTEX
  5
5A
330
59
100
AcDbEntity
  8
STANDARDEBENE
 62
     7
100
AcDbVertex
100
AcDb2dVertex
 10
75.736328125
 20
273.69140625
 30
0.0
  0
VERTEX
  5
5B
330
59
100
AcDbEntity
  8
STANDARDEBENE
 62
     7
100
AcDbVertex
100
AcDb2dVertex
 10
72.9521484375
 20
273.69140625
 30
0.0
  0
SEQEND
  5
5C
330
59
100
AcDbEntity
  8
STANDARDEBENE
  0
POLYLINE
  5
5D
330
1F
100
AcDbEntity
  8
STANDARDEBENE
 62
     7
100
AcDb2dPolyline
 66
     1
 10
0.0
 20
0.0
 30
0.0
  0
VERTEX
  5
5E
330
5D
100
AcDbEntity
  8
STANDARDEBENE
 62
     7
100
AcDbVertex
100
AcDb2dVertex
 10
70.1689453125
 20
273.69140625
 30
0.0
  0
VERTEX
  5
5F
330
5D
100
AcDbEntity
  8
STANDARDEBENE
 62
     7
100
AcDbVertex
100
AcDb2dVertex
 10
67.384765625
 20
273.69140625
 30
0.0
  0
SEQEND
  5
60
330
5D
100
AcDbEntity
  8
STANDARDEBENE
  0
POLYLINE
  5
61
330
1F
100
AcDbEntity
  8
STANDARDEBENE
 62
     7
100
AcDb2dPolyline
 66
     1
 10
0.0
 20
0.0
 30
0.0
  0
VERTEX
  5
62
330
61
100
AcDbEntity
  8
STANDARDEBENE
 62
     7
100
AcDbVertex
100
AcDb2dVertex
 10
64.6015625
 20
273.69140625
 30
0.0
  0
VERTEX
  5
63
330
61
100
AcDbEntity
  8
STANDARDEBENE
 62
     7
100
AcDbVertex
100
AcDb2dVertex
 10
61.8173828125
 20
273.69140625
 30
0.0
  0
SEQEND
  5
64
330
61
100
AcDbEntity
  8
STANDARDEBENE
  0
POLYLINE
  5
65
330
1F
100
AcDbEntity
  8
STANDARDEBENE
 62
     7
100
AcDb2dPolyline
 66
     1
 10
0.0
 20
0.0
 30
0.0
  0
VERTEX
  5
66
330
65
100
AcDbEntity
  8
STANDARDEBENE
 62
     7
100
AcDbVertex
100
AcDb2dVertex
 10
59.03125
 20
273.69140625
 30
0.0
  0
VERTEX
  5
67
330
65
100
AcDbEntity
  8
STANDARDEBENE
 62
     7
100
AcDbVertex
100
AcDb2dVertex
 10
56.248046875
 20
273.69140625
 30
0.0
  0
SEQEND
  5
68
330
65
100
AcDbEntity
  8
STANDARDEBENE
  0
POLYLINE
  5
69
330
1F
100
AcDbEntity
  8
STANDARDEBENE
 62
     7
100
AcDb2dPolyline
 66
     1
 10
0.0
 20
0.0
 30
0.0
  0
VERTEX
  5
6A
330
69
100
AcDbEntity
  8
STANDARDEBENE
 62
     7
100
AcDbVertex
100
AcDb2dVertex
 10
53.46484375
 20
273.69140625
 30
0.0
  0
VERTEX
  5
6B
330
69
100
AcDbEntity
  8
STANDARDEBENE
 62
     7
100
AcDbVertex
100
AcDb2dVertex
 10
50.6806640625
 20
273.69140625
 30
0.0
  0
SEQEND
  5
6C
330
69
100
AcDbEntity
  8
STANDARDEBENE
  0
POLYLINE
  5
6D
330
1F
100
AcDbEntity
  8
STANDARDEBENE
 62
     7
100
AcDb2dPolyline
 66
     1
 10
0.0
 20
0.0
 30
0.0
  0
VERTEX
  5
6E
330
6D
100
AcDbEntity
  8
STANDARDEBENE
 62
     7
100
AcDbVertex
100
AcDb2dVertex
 10
47.896484375
 20
273.69140625
 30
0.0
  0
VERTEX
  5
6F
330
6D
100
AcDbEntity
  8
STANDARDEBENE
 62
     7
100
AcDbVertex
100
AcDb2dVertex
 10
45.111328125
 20
273.69140625
 30
0.0
  0
SEQEND
  5
70
330
6D
100
AcDbEntity
  8
STANDARDEBENE
  0
POLYLINE
  5
71
330
1F
100
AcDbEntity
  8
STANDARDEBENE
 62
     7
100
AcDb2dPolyline
 66
     1
 10
0.0
 20
0.0
 30
0.0
  0
VERTEX
  5
72
330
71
100
AcDbEntity
  8
STANDARDEBENE
 62
     7
100
AcDbVertex
100
AcDb2dVertex
 10
42.3271484375
 20
273.69140625
 30
0.0
  0
VERTEX
  5
73
330
71
100
AcDbEntity
  8
STANDARDEBENE
 62
     7
100
AcDbVertex
100
AcDb2dVertex
 10
39.5439453125
 20
273.69140625
 30
0.0
  0
SEQEND
  5
74
330
71
100
AcDbEntity
  8
STANDARDEBENE
  0
POLYLINE
  5
75
330
1F
100
AcDbEntity
  8
STANDARDEBENE
 62
     7
100
AcDb2dPolyline
 66
     1
 10
0.0
 20
0.0
 30
0.0
  0
VERTEX
  5
76
330
75
100
AcDbEntity
  8
STANDARDEBENE
 62
     7
100
AcDbVertex
100
AcDb2dVertex
 10
36.759765625
 20
273.69140625
 30
0.0
  0
VERTEX
  5
77
330
75
100
AcDbEntity
  8
STANDARDEBENE
 62
     7
100
AcDbVertex
100
AcDb2dVertex
 10
33.9755859375
 20
273.69140625
 30
0.0
  0
SEQEND
  5
78
330
75
100
AcDbEntity
  8
STANDARDEBENE
  0
POLYLINE
  5
79
330
1F
100
AcDbEntity
  8
STANDARDEBENE
 62
     7
100
AcDb2dPolyline
 66
     1
 10
0.0
 20
0.0
 30
0.0
  0
VERTEX
  5
7A
330
79
100
AcDbEntity
  8
STANDARDEBENE
 62
     7
100
AcDbVertex
100
AcDb2dVertex
 10
31.1923828125
 20
273.69140625
 30
0.0
  0
VERTEX
  5
7B
330
79
100
AcDbEntity
  8
STANDARDEBENE
 62
     7
100
AcDbVertex
100
AcDb2dVertex
 10
28.408203125
 20
273.69140625
 30
0.0
  0
SEQEND
  5
7C
330
79
100
AcDbEntity
  8
STANDARDEBENE
  0
POLYLINE
  5
7D
330
1F
100
AcDbEntity
  8
STANDARDEBENE
 62
     7
100
AcDb2dPolyline
 66
     1
 10
0.0
 20
0.0
 30
0.0
  0
VERTEX
  5
7E
330
7D
100
AcDbEntity
  8
STANDARDEBENE
 62
     7
100
AcDbVertex
100
AcDb2dVertex
 10
25.623046875
 20
273.69140625
 30
0.0
  0
VERTEX
  5
7F
330
7D
100
AcDbEntity
  8
STANDARDEBENE
 62
     7
100
AcDbVertex
100
AcDb2dVertex
 10
22.83984375
 20
273.69140625
 30
0.0
  0
SEQEND
  5
80
330
7D
100
AcDbEntity
  8
STANDARDEBENE
  0
POLYLINE
  5
81
330
1F
100
AcDbEntity
  8
STANDARDEBENE
 62
     7
100
AcDb2dPolyline
 66
     1
 10
0.0
 20
0.0
 30
0.0
  0
VERTEX
  5
82
330
81
100
AcDbEntity
  8
STANDARDEBENE
 62
     7
100
AcDbVertex
100
AcDb2dVertex
 10
20.0556640625
 20
273.69140625
 30
0.0
  0
VERTEX
  5
83
330
81
100
AcDbEntity
  8
STANDARDEBENE
 62
     7
100
AcDbVertex
100
AcDb2dVertex
 10
17.2705078125
 20
273.69140625
 30
0.0
  0
SEQEND
  5
84
330
81
100
AcDbEntity
  8
STANDARDEBENE
  0
POLYLINE
  5
85
330
1F
100
AcDbEntity
  8
STANDARDEBENE
 62
     7
100
AcDb2dPolyline
 66
     1
 10
0.0
 20
0.0
 30
0.0
  0
VERTEX
  5
86
330
85
100
AcDbEntity
  8
STANDARDEBENE
 62
     7
100
AcDbVertex
100
AcDb2dVertex
 10
14.4873046875
 20
273.69140625
 30
0.0
  0
VERTEX
  5
87
330
85
100
AcDbEntity
  8
STANDARDEBENE
 62
     7
100
AcDbVertex
100
AcDb2dVertex
 10
11.7041015625
 20
273.69140625
 30
0.0
  0
SEQEND
  5
88
330
85
100
AcDbEntity
  8
STANDARDEBENE
  0
POLYLINE
  5
89
330
1F
100
AcDbEntity
  8
STANDARDEBENE
 62
     7
100
AcDb2dPolyline
 66
     1
 10
0.0
 20
0.0
 30
0.0
  0
VERTEX
  5
8A
330
89
100
AcDbEntity
  8
STANDARDEBENE
 62
     7
100
AcDbVertex
100
AcDb2dVertex
 10
8.9189453125
 20
273.69140625
 30
0.0
  0
VERTEX
  5
8B
330
89
100
AcDbEntity
  8
STANDARDEBENE
 62
     7
100
AcDbVertex
100
AcDb2dVertex
 10
7.52685546875
 20
273.69140625
 30
0.0
  0
SEQEND
  5
8C
330
89
100
AcDbEntity
  8
STANDARDEBENE
  0
POLYLINE
  5
8D
330
1F
100
AcDbEntity
  8
STANDARDEBENE
 62
     7
100
AcDb2dPolyline
 66
     1
 10
0.0
 20
0.0
 30
0.0
  0
VERTEX
  5
8E
330
8D
100
AcDbEntity
  8
STANDARDEBENE
 62
     7
100
AcDbVertex
100
AcDb2dVertex
 10
85.48046875
 20
245.34521484375
 30
0.0
  0
VERTEX
  5
8F
330
8D
100
AcDbEntity
  8
STANDARDEBENE
 62
     7
100
AcDbVertex
100
AcDb2dVertex
 10
84.08984375
 20
245.34521484375
 30
0.0
  0
SEQEND
  5
90
330
8D
100
AcDbEntity
  8
STANDARDEBENE
  0
POLYLINE
  5
91
330
1F
100
AcDbEntity
  8
STANDARDEBENE
 62
     7
100
AcDb2dPolyline
 66
     1
 10
0.0
 20
0.0
 30
0.0
  0
VERTEX
  5
92
330
91
100
AcDbEntity
  8
STANDARDEBENE
 62
     7
100
AcDbVertex
100
AcDb2dVertex
 10
81.3056640625
 20
245.34521484375
 30
0.0
  0
VERTEX
  5
93
330
91
100
AcDbEntity
  8
STANDARDEBENE
 62
     7
100
AcDbVertex
100
AcDb2dVertex
 10
78.521484375
 20
245.34521484375
 30
0.0
  0
SEQEND
  5
94
330
91
100
AcDbEntity
  8
STANDARDEBENE
  0
POLYLINE
  5
95
330
1F
100
AcDbEntity
  8
STANDARDEBENE
 62
     7
100
AcDb2dPolyline
 66
     1
 10
0.0
 20
0.0
 30
0.0
  0
VERTEX
  5
96
330
95
100
AcDbEntity
  8
STANDARDEBENE
 62
     7
100
AcDbVertex
100
AcDb2dVertex
 10
75.736328125
 20
245.34521484375
 30
0.0
  0
VERTEX
  5
97
330
95
100
AcDbEntity
  8
STANDARDEBENE
 62
     7
100
AcDbVertex
100
AcDb2dVertex
 10
72.9521484375
 20
245.34521484375
 30
0.0
  0
SEQEND
  5
98
330
95
100
AcDbEntity
  8
STANDARDEBENE
  0
POLYLINE
  5
99
330
1F
100
AcDbEntity
  8
STANDARDEBENE
 62
     7
100
AcDb2dPolyline
 66
     1
 10
0.0
 20
0.0
 30
0.0
  0
VERTEX
  5
9A
330
99
100
AcDbEntity
  8
STANDARDEBENE
 62
     7
100
AcDbVertex
100
AcDb2dVertex
 10
70.1689453125
 20
245.34521484375
 30
0.0
  0
VERTEX
  5
9B
330
99
100
AcDbEntity
  8
STANDARDEBENE
 62
     7
100
AcDbVertex
100
AcDb2dVertex
 10
67.384765625
 20
245.34521484375
 30
0.0
  0
SEQEND
  5
9C
330
99
100
AcDbEntity
  8
STANDARDEBENE
  0
POLYLINE
  5
9D
330
1F
100
AcDbEntity
  8
STANDARDEBENE
 62
     7
100
AcDb2dPolyline
 66
     1
 10
0.0
 20
0.0
 30
0.0
  0
VERTEX
  5
9E
330
9D
100
AcDbEntity
  8
STANDARDEBENE
 62
     7
100
AcDbVertex
100
AcDb2dVertex
 10
64.6015625
 20
245.34521484375
 30
0.0
  0
VERTEX
  5
9F
330
9D
100
AcDbEntity
  8
STANDARDEBENE
 62
     7
100
AcDbVertex
100
AcDb2dVertex
 10
61.8173828125
 20
245.34521484375
 30
0.0
  0
SEQEND
  5
A0
330
9D
100
AcDbEntity
  8
STANDARDEBENE
  0
POLYLINE
  5
A1
330
1F
100
AcDbEntity
  8
STANDARDEBENE
 62
     7
100
AcDb2dPolyline
 66
     1
 10
0.0
 20
0.0
 30
0.0
  0
VERTEX
  5
A2
330
A1
100
AcDbEntity
  8
STANDARDEBENE
 62
     7
100
AcDbVertex
100
AcDb2dVertex
 10
59.03125
 20
245.34521484375
 30
0.0
  0
VERTEX
  5
A3
330
A1
100
AcDbEntity
  8
STANDARDEBENE
 62
     7
100
AcDbVertex
100
AcDb2dVertex
 10
56.248046875
 20
245.34521484375
 30
0.0
  0
SEQEND
  5
A4
330
A1
100
AcDbEntity
  8
STANDARDEBENE
  0
POLYLINE
  5
A5
330
1F
100
AcDbEntity
  8
STANDARDEBENE
 62
     7
100
AcDb2dPolyline
 66
     1
 10
0.0
 20
0.0
 30
0.0
  0
VERTEX
  5
A6
330
A5
100
AcDbEntity
  8
STANDARDEBENE
 62
     7
100
AcDbVertex
100
AcDb2dVertex
 10
53.46484375
 20
245.34521484375
 30
0.0
  0
VERTEX
  5
A7
330
A5
100
AcDbEntity
  8
STANDARDEBENE
 62
     7
100
AcDbVertex
100
AcDb2dVertex
 10
50.6806640625
 20
245.34521484375
 30
0.0
  0
SEQEND
  5
A8
330
A5
100
AcDbEntity
  8
STANDARDEBENE
  0
POLYLINE
  5
A9
330
1F
100
AcDbEntity
  8
STANDARDEBENE
 62
     7
100
AcDb2dPolyline
 66
     1
 10
0.0
 20
0.0
 30
0.0
  0
VERTEX
  5
AA
330
A9
100
AcDbEntity
  8
STANDARDEBENE
 62
     7
100
AcDbVertex
100
AcDb2dVertex
 10
47.896484375
 20
245.34521484375
 30
0.0
  0
VERTEX
  5
AB
330
A9
100
AcDbEntity
  8
STANDARDEBENE
 62
     7
100
AcDbVertex
100
AcDb2dVertex
 10
45.111328125
 20
245.34521484375
 30
0.0
  0
SEQEND
  5
AC
330
A9
100
AcDbEntity
  8
STANDARDEBENE
  0
POLYLINE
  5
AD
330
1F
100
AcDbEntity
  8
STANDARDEBENE
 62
     7
100
AcDb2dPolyline
 66
     1
 10
0.0
 20
0.0
 30
0.0
  0
VERTEX
  5
AE
330
AD
100
AcDbEntity
  8
STANDARDEBENE
 62
     7
100
AcDbVertex
100
AcDb2dVertex
 10
42.3271484375
 20
245.34521484375
 30
0.0
  0
VERTEX
  5
AF
330
AD
100
AcDbEntity
  8
STANDARDEBENE
 62
     7
100
AcDbVertex
100
AcDb2dVertex
 10
39.5439453125
 20
245.34521484375
 30
0.0
  0
SEQEND
  5
B0
330
AD
100
AcDbEntity
  8
STANDARDEBENE
  0
POLYLINE
  5
B1
330
1F
100
AcDbEntity
  8
STANDARDEBENE
 62
     7
100
AcDb2dPolyline
 66
     1
 10
0.0
 20
0.0
 30
0.0
  0
VERTEX
  5
B2
330
B1
100
AcDbEntity
  8
STANDARDEBENE
 62
     7
100
AcDbVertex
100
AcDb2dVertex
 10
36.759765625
 20
245.34521484375
 30
0.0
  0
VERTEX
  5
B3
330
B1
100
AcDbEntity
  8
STANDARDEBENE
 62
     7
100
AcDbVertex
100
AcDb2dVertex
 10
33.9755859375
 20
245.34521484375
 30
0.0
  0
SEQEND
  5
B4
330
B1
100
AcDbEntity
  8
STANDARDEBENE
  0
POLYLINE
  5
B5
330
1F
100
AcDbEntity
  8
STANDARDEBENE
 62
     7
100
AcDb2dPolyline
 66
     1
 10
0.0
 20
0.0
 30
0.0
  0
VERTEX
  5
B6
330
B5
100
AcDbEntity
  8
STANDARDEBENE
 62
     7
100
AcDbVertex
100
AcDb2dVertex
 10
31.1923828125
 20
245.34521484375
 30
0.0
  0
VERTEX
  5
B7
330
B5
100
AcDbEntity
  8
STANDARDEBENE
 62
     7
100
AcDbVertex
100
AcDb2dVertex
 10
28.408203125
 20
245.34521484375
 30
0.0
  0
SEQEND
  5
B8
330
B5
100
AcDbEntity
  8
STANDARDEBENE
  0
POLYLINE
  5
B9
330
1F
100
AcDbEntity
  8
STANDARDEBENE
 62
     7
100
AcDb2dPolyline
 66
     1
 10
0.0
 20
0.0
 30
0.0
  0
VERTEX
  5
BA
330
B9
100
AcDbEntity
  8
STANDARDEBENE
 62
     7
100
AcDbVertex
100
AcDb2dVertex
 10
25.623046875
 20
245.34521484375
 30
0.0
  0
VERTEX
  5
BB
330
B9
100
AcDbEntity
  8
STANDARDEBENE
 62
     7
100
AcDbVertex
100
AcDb2dVertex
 10
22.83984375
 20
245.34521484375
 30
0.0
  0
SEQEND
  5
BC
330
B9
100
AcDbEntity
  8
STANDARDEBENE
  0
POLYLINE
  5
BD
330
1F
100
AcDbEntity
  8
STANDARDEBENE
 62
     7
100
AcDb2dPolyline
 66
     1
 10
0.0
 20
0.0
 30
0.0
  0
VERTEX
  5
BE
330
BD
100
AcDbEntity
  8
STANDARDEBENE
 62
     7
100
AcDbVertex
100
AcDb2dVertex
 10
20.0556640625
 20
245.34521484375
 30
0.0
  0
VERTEX
  5
BF
330
BD
100
AcDbEntity
  8
STANDARDEBENE
 62
     7
100
AcDbVertex
100
AcDb2dVertex
 10
17.2705078125
 20
245.34521484375
 30
0.0
  0
SEQEND
  5
C0
330
BD
100
AcDbEntity
  8
STANDARDEBENE
  0
POLYLINE
  5
C1
330
1F
100
AcDbEntity
  8
STANDARDEBENE
 62
     7
100
AcDb2dPolyline
 66
     1
 10
0.0
 20
0.0
 30
0.0
  0
VERTEX
  5
C2
330
C1
100
AcDbEntity
  8
STANDARDEBENE
 62
     7
100
AcDbVertex
100
AcDb2dVertex
 10
14.4873046875
 20
245.34521484375
 30
0.0
  0
VERTEX
  5
C3
330
C1
100
AcDbEntity
  8
STANDARDEBENE
 62
     7
100
AcDbVertex
100
AcDb2dVertex
 10
11.7041015625
 20
245.34521484375
 30
0.0
  0
SEQEND
  5
C4
330
C1
100
AcDbEntity
  8
STANDARDEBENE
  0
POLYLINE
  5
C5
330
1F
100
AcDbEntity
  8
STANDARDEBENE
 62
     7
100
AcDb2dPolyline
 66
     1
 10
0.0
 20
0.0
 30
0.0
  0
VERTEX
  5
C6
330
C5
100
AcDbEntity
  8
STANDARDEBENE
 62
     7
100
AcDbVertex
100
AcDb2dVertex
 10
8.9189453125
 20
245.34521484375
 30
0.0
  0
VERTEX
  5
C7
330
C5
100
AcDbEntity
  8
STANDARDEBENE
 62
     7
100
AcDbVertex
100
AcDb2dVertex
 10
7.52685546875
 20
245.34521484375
 30
0.0
  0
SEQEND
  5
C8
330
C5
100
AcDbEntity
  8
STANDARDEBENE
  0
POLYLINE
  5
C9
330
1F
100
AcDbEntity
  8
STANDARDEBENE
  6
AI-LINETYPE-1
 62
     7
100
AcDb2dPolyline
 66
     1
 10
0.0
 20
0.0
 30
0.0
  0
VERTEX
  5
CA
330
C9
100
AcDbEntity
  8
STANDARDEBENE
  6
AI-LINETYPE-1
 62
     7
100
AcDbVertex
100
AcDb2dVertex
 10
90.953125
 20
259.5185546875
 30
0.0
  0
VERTEX
  5
CB
330
C9
100
AcDbEntity
  8
STANDARDEBENE
  6
AI-LINETYPE-1
 62
     7
100
AcDbVertex
100
AcDb2dVertex
 10
4.86328125
 20
259.5185546875
 30
0.0
  0
SEQEND
  5
CC
330
C9
100
AcDbEntity
  8
STANDARDEBENE
  6
AI-LINETYPE-1
  0
POLYLINE
  5
CE
330
1F
100
AcDbEntity
  8
STANDARDEBENE
 62
     7
100
AcDb2dPolyline
 66
     1
 10
0.0
 20
0.0
 30
0.0
  0
VERTEX
  5
CF
330
CE
100
AcDbEntity
  8
STANDARDEBENE
 62
     7
100
AcDbVertex
100
AcDb2dVertex
 10
81.9853515625
 20
243.21923828125
 30
0.0
  0
VERTEX
  5
D0
330
CE
100
AcDbEntity
  8
STANDARDEBENE
 62
     7
100
AcDbVertex
100
AcDb2dVertex
 10
85.48046875
 20
243.7099609375
 30
0.0
  0
SEQEND
  5
D1
330
CE
100
AcDbEntity
  8
STANDARDEBENE
  0
POLYLINE
  5
D2
330
1F
100
AcDbEntity
  8
STANDARDEBENE
 62
     7
100
AcDb2dPolyline
 66
     1
 10
0.0
 20
0.0
 30
0.0
  0
VERTEX
  5
D3
330
D2
100
AcDbEntity
  8
STANDARDEBENE
 62
     7
100
AcDbVertex
100
AcDb2dVertex
 10
85.48046875
 20
275.326171875
 30
0.0
  0
VERTEX
  5
D4
330
D2
100
AcDbEntity
  8
STANDARDEBENE
 62
     7
100
AcDbVertex
100
AcDb2dVertex
 10
81.9853515625
 20
275.8173828125
 30
0.0
  0
SEQEND
  5
D5
330
D2
100
AcDbEntity
  8
STANDARDEBENE
  0
POLYLINE
  5
D6
330
1F
100
AcDbEntity
  8
STANDARDEBENE
 62
     7
100
AcDb2dPolyline
 66
     1
 10
0.0
 20
0.0
 30
0.0
  0
VERTEX
  5
D7
330
D6
100
AcDbEntity
  8
STANDARDEBENE
 62
     7
100
AcDbVertex
100
AcDb2dVertex
 10
18.8662109375
 20
283.611328125
 30
0.0
  0
VERTEX
  5
D8
330
D6
100
AcDbEntity
  8
STANDARDEBENE
 62
     7
100
AcDbVertex
100
AcDb2dVertex
 10
18.251953125
 20
283.611328125
 30
0.0
  0
SEQEND
  5
D9
330
D6
100
AcDbEntity
  8
STANDARDEBENE
  0
POLYLINE
  5
DA
330
1F
100
AcDbEntity
  8
STANDARDEBENE
 62
     7
100
AcDb2dPolyline
 66
     1
 10
0.0
 20
0.0
 30
0.0
  0
VERTEX
  5
DB
330
DA
100
AcDbEntity
  8
STANDARDEBENE
 62
     7
100
AcDbVertex
100
AcDb2dVertex
 10
18.251953125
 20
235.42236328125
 30
0.0
  0
VERTEX
  5
DC
330
DA
100
AcDbEntity
  8
STANDARDEBENE
 62
     7
100
AcDbVertex
100
AcDb2dVertex
 10
18.8662109375
 20
235.42236328125
 30
0.0
  0
SEQEND
  5
DD
330
DA
100
AcDbEntity
  8
STANDARDEBENE
  0
POLYLINE
  5
DE
330
1F
100
AcDbEntity
  8
STANDARDEBENE
 62
     7
100
AcDb2dPolyline
 66
     1
 10
0.0
 20
0.0
 30
0.0
  0
VERTEX
  5
DF
330
DE
100
AcDbEntity
  8
STANDARDEBENE
 62
     7
100
AcDbVertex
100
AcDb2dVertex
 10
18.8662109375
 20
270.443359375
 30
0.0
  0
VERTEX
  5
E0
330
DE
100
AcDbEntity
  8
STANDARDEBENE
 62
     7
100
AcDbVertex
100
AcDb2dVertex
 10
18.8662109375
 20
272.6533203125
 30
0.0
  0
VERTEX
  5
E1
330
DE
100
AcDbEntity
  8
STANDARDEBENE
 62
     7
100
AcDbVertex
100
AcDb2dVertex
 10
18.8662109375
 20
276.55419921875
 30
0.0
  0
VERTEX
  5
E2
330
DE
100
AcDbEntity
  8
STANDARDEBENE
 62
     7
100
AcDbVertex
100
AcDb2dVertex
 10
18.8662109375
 20
279.71630859375
 30
0.0
  0
SEQEND
  5
E3
330
DE
100
AcDbEntity
  8
STANDARDEBENE
  0
POLYLINE
  5
E4
330
1F
100
AcDbEntity
  8
STANDARDEBENE
 62
     7
100
AcDb2dPolyline
 66
     1
 10
0.0
 20
0.0
 30
0.0
  0
VERTEX
  5
E5
330
E4
100
AcDbEntity
  8
STANDARDEBENE
 62
     7
100
AcDbVertex
100
AcDb2dVertex
 10
26.5205078125
 20
272.6533203125
 30
0.0
  0
VERTEX
  5
E6
330
E4
100
AcDbEntity
  8
STANDARDEBENE
 62
     7
100
AcDbVertex
100
AcDb2dVertex
 10
26.5205078125
 20
270.443359375
 30
0.0
  0
SEQEND
  5
E7
330
E4
100
AcDbEntity
  8
STANDARDEBENE
  0
POLYLINE
  5
E8
330
1F
100
AcDbEntity
  8
STANDARDEBENE
 62
     7
100
AcDb2dPolyline
 66
     1
 10
0.0
 20
0.0
 30
0.0
  0
VERTEX
  5
E9
330
E8
100
AcDbEntity
  8
STANDARDEBENE
 62
     7
100
AcDbVertex
100
AcDb2dVertex
 10
26.5205078125
 20
279.71630859375
 30
0.0
  0
VERTEX
  5
EA
330
E8
100
AcDbEntity
  8
STANDARDEBENE
 62
     7
100
AcDbVertex
100
AcDb2dVertex
 10
26.5205078125
 20
276.55419921875
 30
0.0
  0
VERTEX
  5
EB
330
E8
100
AcDbEntity
  8
STANDARDEBENE
 62
     7
100
AcDbVertex
100
AcDb2dVertex
 10
26.5205078125
 20
272.6533203125
 30
0.0
  0
SEQEND
  5
EC
330
E8
100
AcDbEntity
  8
STANDARDEBENE
  0
POLYLINE
  5
ED
330
1F
100
AcDbEntity
  8
STANDARDEBENE
 62
     7
100
AcDb2dPolyline
 66
     1
 10
0.0
 20
0.0
 30
0.0
  0
VERTEX
  5
EE
330
ED
100
AcDbEntity
  8
STANDARDEBENE
 62
     7
100
AcDbVertex
100
AcDb2dVertex
 10
26.5205078125
 20
270.38037109375
 30
0.0
  0
VERTEX
  5
EF
330
ED
100
AcDbEntity
  8
STANDARDEBENE
 62
     7
100
AcDbVertex
100
AcDb2dVertex
 10
18.8662109375
 20
270.38037109375
 30
0.0
  0
SEQEND
  5
F0
330
ED
100
AcDbEntity
  8
STANDARDEBENE
  0
POLYLINE
  5
F1
330
1F
100
AcDbEntity
  8
STANDARDEBENE
 62
     7
100
AcDb2dPolyline
 66
     1
 10
0.0
 20
0.0
 30
0.0
  0
VERTEX
  5
F2
330
F1
100
AcDbEntity
  8
STANDARDEBENE
 62
     7
100
AcDbVertex
100
AcDb2dVertex
 10
18.8662109375
 20
275.783203125
 30
0.0
  0
VERTEX
  5
F3
330
F1
100
AcDbEntity
  8
STANDARDEBENE
 62
     7
100
AcDbVertex
100
AcDb2dVertex
 10
26.5205078125
 20
275.783203125
 30
0.0
  0
SEQEND
  5
F4
330
F1
100
AcDbEntity
  8
STANDARDEBENE
  0
POLYLINE
  5
F5
330
1F
100
AcDbEntity
  8
STANDARDEBENE
 62
     7
100
AcDb2dPolyline
 66
     1
 10
0.0
 20
0.0
 30
0.0
  0
VERTEX
  5
F6
330
F5
100
AcDbEntity
  8
STANDARDEBENE
 62
     7
100
AcDbVertex
100
AcDb2dVertex
 10
18.8662109375
 20
272.6533203125
 30
0.0
  0
VERTEX
  5
F7
330
F5
100
AcDbEntity
  8
STANDARDEBENE
 62
     7
100
AcDbVertex
100
AcDb2dVertex
 10
18.251953125
 20
272.6533203125
 30
0.0
  0
SEQEND
  5
F8
330
F5
100
AcDbEntity
  8
STANDARDEBENE
  0
POLYLINE
  5
F9
330
1F
100
AcDbEntity
  8
STANDARDEBENE
 62
     7
100
AcDb2dPolyline
 66
     1
 10
0.0
 20
0.0
 30
0.0
  0
VERTEX
  5
FA
330
F9
100
AcDbEntity
  8
STANDARDEBENE
 62
     7
100
AcDbVertex
100
AcDb2dVertex
 10
18.251953125
 20
279.71630859375
 30
0.0
  0
VERTEX
  5
FB
330
F9
100
AcDbEntity
  8
STANDARDEBENE
 62
     7
100
AcDbVertex
100
AcDb2dVertex
 10
18.8662109375
 20
279.71630859375
 30
0.0
  0
SEQEND
  5
FC
330
F9
100
AcDbEntity
  8
STANDARDEBENE
  0
POLYLINE
  5
FD
330
1F
100
AcDbEntity
  8
STANDARDEBENE
 62
     7
100
AcDb2dPolyline
 66
     1
 10
0.0
 20
0.0
 30
0.0
  0
VERTEX
  5
FE
330
FD
100
AcDbEntity
  8
STANDARDEBENE
 62
     7
100
AcDbVertex
100
AcDb2dVertex
 10
18.251953125
 20
272.6533203125
 30
0.0
  0
VERTEX
  5
FF
330
FD
100
AcDbEntity
  8
STANDARDEBENE
 62
     7
100
AcDbVertex
100
AcDb2dVertex
 10
18.251953125
 20
276.55419921875
 30
0.0
  0
VERTEX
  5
100
330
FD
100
AcDbEntity
  8
STANDARDEBENE
 62
     7
100
AcDbVertex
100
AcDb2dVertex
 10
18.251953125
 20
279.71630859375
 30
0.0
  0
SEQEND
  5
101
330
FD
100
AcDbEntity
  8
STANDARDEBENE
  0
POLYLINE
  5
102
330
1F
100
AcDbEntity
  8
STANDARDEBENE
 62
     7
100
AcDb2dPolyline
 66
     1
 10
0.0
 20
0.0
 30
0.0
  0
VERTEX
  5
103
330
102
100
AcDbEntity
  8
STANDARDEBENE
 62
     7
100
AcDbVertex
100
AcDb2dVertex
 10
18.251953125
 20
272.6533203125
 30
0.0
  0
VERTEX
  5
104
330
102
100
AcDbEntity
  8
STANDARDEBENE
 62
     7
100
AcDbVertex
100
AcDb2dVertex
 10
7.52685546875
 20
269.55126953125
 30
0.0
  0
SEQEND
  5
105
330
102
100
AcDbEntity
  8
STANDARDEBENE
  0
POLYLINE
  5
106
330
1F
100
AcDbEntity
  8
STANDARDEBENE
 62
     7
100
AcDb2dPolyline
 66
     1
 10
0.0
 20
0.0
 30
0.0
  0
VERTEX
  5
107
330
106
100
AcDbEntity
  8
STANDARDEBENE
 62
     7
100
AcDbVertex
100
AcDb2dVertex
 10
7.52685546875
 20
274.34521484375
 30
0.0
  0
VERTEX
  5
108
330
106
100
AcDbEntity
  8
STANDARDEBENE
 62
     7
100
AcDbVertex
100
AcDb2dVertex
 10
18.251953125
 20
279.71630859375
 30
0.0
  0
SEQEND
  5
109
330
106
100
AcDbEntity
  8
STANDARDEBENE
  0
POLYLINE
  5
10A
330
1F
100
AcDbEntity
  8
STANDARDEBENE
 62
     7
100
AcDb2dPolyline
 66
     1
 10
0.0
 20
0.0
 30
0.0
  0
VERTEX
  5
10B
330
10A
100
AcDbEntity
  8
STANDARDEBENE
 62
     7
100
AcDbVertex
100
AcDb2dVertex
 10
7.52685546875
 20
269.55126953125
 30
0.0
  0
VERTEX
  5
10C
330
10A
100
AcDbEntity
  8
STANDARDEBENE
 62
     7
100
AcDbVertex
100
AcDb2dVertex
 10
7.52685546875
 20
272.17724609375
 30
0.0
  0
VERTEX
  5
10D
330
10A
100
AcDbEntity
  8
STANDARDEBENE
 62
     7
100
AcDbVertex
100
AcDb2dVertex
 10
7.52685546875
 20
274.34521484375
 30
0.0
  0
SEQEND
  5
10E
330
10A
100
AcDbEntity
  8
STANDARDEBENE
  0
POLYLINE
  5
10F
330
1F
100
AcDbEntity
  8
STANDARDEBENE
 62
     7
100
AcDb2dPolyline
 66
     1
 10
0.0
 20
0.0
 30
0.0
  0
VERTEX
  5
110
330
10F
100
AcDbEntity
  8
STANDARDEBENE
 62
     7
100
AcDbVertex
100
AcDb2dVertex
 10
18.8662109375
 20
248.59130859375
 30
0.0
  0
VERTEX
  5
111
330
10F
100
AcDbEntity
  8
STANDARDEBENE
 62
     7
100
AcDbVertex
100
AcDb2dVertex
 10
18.8662109375
 20
253.2822265625
 30
0.0
  0
VERTEX
  5
112
330
10F
100
AcDbEntity
  8
STANDARDEBENE
 62
     7
100
AcDbVertex
100
AcDb2dVertex
 10
18.8662109375
 20
258.2412109375
 30
0.0
  0
SEQEND
  5
113
330
10F
100
AcDbEntity
  8
STANDARDEBENE
  0
POLYLINE
  5
114
330
1F
100
AcDbEntity
  8
STANDARDEBENE
 62
     7
100
AcDb2dPolyline
 66
     1
 10
0.0
 20
0.0
 30
0.0
  0
VERTEX
  5
115
330
114
100
AcDbEntity
  8
STANDARDEBENE
 62
     7
100
AcDbVertex
100
AcDb2dVertex
 10
26.5205078125
 20
258.2412109375
 30
0.0
  0
VERTEX
  5
116
330
114
100
AcDbEntity
  8
STANDARDEBENE
 62
     7
100
AcDbVertex
100
AcDb2dVertex
 10
26.5205078125
 20
253.2822265625
 30
0.0
  0
VERTEX
  5
117
330
114
100
AcDbEntity
  8
STANDARDEBENE
 62
     7
100
AcDbVertex
100
AcDb2dVertex
 10
26.5205078125
 20
248.59130859375
 30
0.0
  0
SEQEND
  5
118
330
114
100
AcDbEntity
  8
STANDARDEBENE
  0
POLYLINE
  5
119
330
1F
100
AcDbEntity
  8
STANDARDEBENE
 62
     7
100
AcDb2dPolyline
 66
     1
 10
0.0
 20
0.0
 30
0.0
  0
VERTEX
  5
11A
330
119
100
AcDbEntity
  8
STANDARDEBENE
 62
     7
100
AcDbVertex
100
AcDb2dVertex
 10
26.5205078125
 20
250.8642578125
 30
0.0
  0
VERTEX
  5
11B
330
119
100
AcDbEntity
  8
STANDARDEBENE
 62
     7
100
AcDbVertex
100
AcDb2dVertex
 10
18.8662109375
 20
250.8642578125
 30
0.0
  0
SEQEND
  5
11C
330
119
100
AcDbEntity
  8
STANDARDEBENE
  0
POLYLINE
  5
11D
330
1F
100
AcDbEntity
  8
STANDARDEBENE
 62
     7
100
AcDb2dPolyline
 66
     1
 10
0.0
 20
0.0
 30
0.0
  0
VERTEX
  5
11E
330
11D
100
AcDbEntity
  8
STANDARDEBENE
 62
     7
100
AcDbVertex
100
AcDb2dVertex
 10
18.8662109375
 20
258.2412109375
 30
0.0
  0
VERTEX
  5
11F
330
11D
100
AcDbEntity
  8
STANDARDEBENE
 62
     7
100
AcDbVertex
100
AcDb2dVertex
 10
26.5205078125
 20
258.2412109375
 30
0.0
  0
SEQEND
  5
120
330
11D
100
AcDbEntity
  8
STANDARDEBENE
  0
POLYLINE
  5
121
330
1F
100
AcDbEntity
  8
STANDARDEBENE
 62
     7
100
AcDb2dPolyline
 66
     1
 10
0.0
 20
0.0
 30
0.0
  0
VERTEX
  5
122
330
121
100
AcDbEntity
  8
STANDARDEBENE
 62
     7
100
AcDbVertex
100
AcDb2dVertex
 10
18.8662109375
 20
248.59130859375
 30
0.0
  0
VERTEX
  5
123
330
121
100
AcDbEntity
  8
STANDARDEBENE
 62
     7
100
AcDbVertex
100
AcDb2dVertex
 10
18.251953125
 20
248.59130859375
 30
0.0
  0
SEQEND
  5
124
330
121
100
AcDbEntity
  8
STANDARDEBENE
  0
POLYLINE
  5
125
330
1F
100
AcDbEntity
  8
STANDARDEBENE
 62
     7
100
AcDb2dPolyline
 66
     1
 10
0.0
 20
0.0
 30
0.0
  0
VERTEX
  5
126
330
125
100
AcDbEntity
  8
STANDARDEBENE
 62
     7
100
AcDbVertex
100
AcDb2dVertex
 10
18.251953125
 20
258.2412109375
 30
0.0
  0
VERTEX
  5
127
330
125
100
AcDbEntity
  8
STANDARDEBENE
 62
     7
100
AcDbVertex
100
AcDb2dVertex
 10
18.8662109375
 20
258.2412109375
 30
0.0
  0
SEQEND
  5
128
330
125
100
AcDbEntity
  8
STANDARDEBENE
  0
POLYLINE
  5
129
330
1F
100
AcDbEntity
  8
STANDARDEBENE
 62
     7
100
AcDb2dPolyline
 66
     1
 10
0.0
 20
0.0
 30
0.0
  0
VERTEX
  5
12A
330
129
100
AcDbEntity
  8
STANDARDEBENE
 62
     7
100
AcDbVertex
100
AcDb2dVertex
 10
18.251953125
 20
248.59130859375
 30
0.0
  0
VERTEX
  5
12B
330
129
100
AcDbEntity
  8
STANDARDEBENE
 62
     7
100
AcDbVertex
100
AcDb2dVertex
 10
18.251953125
 20
253.2822265625
 30
0.0
  0
VERTEX
  5
12C
330
129
100
AcDbEntity
  8
STANDARDEBENE
 62
     7
100
AcDbVertex
100
AcDb2dVertex
 10
18.251953125
 20
258.2412109375
 30
0.0
  0
SEQEND
  5
12D
330
129
100
AcDbEntity
  8
STANDARDEBENE
  0
POLYLINE
  5
12E
330
1F
100
AcDbEntity
  8
STANDARDEBENE
 62
     7
100
AcDb2dPolyline
 66
     1
 10
0.0
 20
0.0
 30
0.0
  0
VERTEX
  5
12F
330
12E
100
AcDbEntity
  8
STANDARDEBENE
 62
     7
100
AcDbVertex
100
AcDb2dVertex
 10
18.251953125
 20
248.59130859375
 30
0.0
  0
VERTEX
  5
130
330
12E
100
AcDbEntity
  8
STANDARDEBENE
 62
     7
100
AcDbVertex
100
AcDb2dVertex
 10
7.52685546875
 20
251.693359375
 30
0.0
  0
SEQEND
  5
131
330
12E
100
AcDbEntity
  8
STANDARDEBENE
  0
POLYLINE
  5
132
330
1F
100
AcDbEntity
  8
STANDARDEBENE
 62
     7
100
AcDb2dPolyline
 66
     1
 10
0.0
 20
0.0
 30
0.0
  0
VERTEX
  5
133
330
132
100
AcDbEntity
  8
STANDARDEBENE
 62
     7
100
AcDbVertex
100
AcDb2dVertex
 10
7.52685546875
 20
258.2412109375
 30
0.0
  0
VERTEX
  5
134
330
132
100
AcDbEntity
  8
STANDARDEBENE
 62
     7
100
AcDbVertex
100
AcDb2dVertex
 10
8.322265625
 20
258.2412109375
 30
0.0
  0
VERTEX
  5
135
330
132
100
AcDbEntity
  8
STANDARDEBENE
 62
     7
100
AcDbVertex
100
AcDb2dVertex
 10
18.251953125
 20
258.2412109375
 30
0.0
  0
SEQEND
  5
136
330
132
100
AcDbEntity
  8
STANDARDEBENE
  0
POLYLINE
  5
137
330
1F
100
AcDbEntity
  8
STANDARDEBENE
 62
     7
100
AcDb2dPolyline
 66
     1
 10
0.0
 20
0.0
 30
0.0
  0
VERTEX
  5
138
330
137
100
AcDbEntity
  8
STANDARDEBENE
 62
     7
100
AcDbVertex
100
AcDb2dVertex
 10
7.52685546875
 20
251.693359375
 30
0.0
  0
VERTEX
  5
139
330
137
100
AcDbEntity
  8
STANDARDEBENE
 62
     7
100
AcDbVertex
100
AcDb2dVertex
 10
7.52685546875
 20
254.88427734375
 30
0.0
  0
VERTEX
  5
13A
330
137
100
AcDbEntity
  8
STANDARDEBENE
 62
     7
100
AcDbVertex
100
AcDb2dVertex
 10
7.52685546875
 20
258.2412109375
 30
0.0
  0
SEQEND
  5
13B
330
137
100
AcDbEntity
  8
STANDARDEBENE
  0
POLYLINE
  5
13C
330
1F
100
AcDbEntity
  8
STANDARDEBENE
 62
     7
100
AcDb2dPolyline
 66
     1
 10
0.0
 20
0.0
 30
0.0
  0
VERTEX
  5
13D
330
13C
100
AcDbEntity
  8
STANDARDEBENE
 62
     7
100
AcDbVertex
100
AcDb2dVertex
 10
18.8662109375
 20
238.04296875
 30
0.0
  0
VERTEX
  5
13E
330
13C
100
AcDbEntity
  8
STANDARDEBENE
 62
     7
100
AcDbVertex
100
AcDb2dVertex
 10
18.8662109375
 20
239.318359375
 30
0.0
  0
SEQEND
  5
13F
330
13C
100
AcDbEntity
  8
STANDARDEBENE
  0
POLYLINE
  5
140
330
1F
100
AcDbEntity
  8
STANDARDEBENE
 62
     7
100
AcDb2dPolyline
 66
     1
 10
0.0
 20
0.0
 30
0.0
  0
VERTEX
  5
141
330
140
100
AcDbEntity
  8
STANDARDEBENE
 62
     7
100
AcDbVertex
100
AcDb2dVertex
 10
18.8662109375
 20
235.4560546875
 30
0.0
  0
VERTEX
  5
142
330
140
100
AcDbEntity
  8
STANDARDEBENE
 62
     7
100
AcDbVertex
100
AcDb2dVertex
 10
18.8662109375
 20
236.244140625
 30
0.0
  0
VERTEX
  5
143
330
140
100
AcDbEntity
  8
STANDARDEBENE
 62
     7
100
AcDbVertex
100
AcDb2dVertex
 10
18.8662109375
 20
238.04296875
 30
0.0
  0
SEQEND
  5
144
330
140
100
AcDbEntity
  8
STANDARDEBENE
  0
POLYLINE
  5
145
330
1F
100
AcDbEntity
  8
STANDARDEBENE
 62
     7
100
AcDb2dPolyline
 66
     1
 10
0.0
 20
0.0
 30
0.0
  0
VERTEX
  5
146
330
145
100
AcDbEntity
  8
STANDARDEBENE
 62
     7
100
AcDbVertex
100
AcDb2dVertex
 10
26.5205078125
 20
238.04296875
 30
0.0
  0
VERTEX
  5
147
330
145
100
AcDbEntity
  8
STANDARDEBENE
 62
     7
100
AcDbVertex
100
AcDb2dVertex
 10
26.5205078125
 20
236.244140625
 30
0.0
  0
VERTEX
  5
148
330
145
100
AcDbEntity
  8
STANDARDEBENE
 62
     7
100
AcDbVertex
100
AcDb2dVertex
 10
26.5205078125
 20
235.4560546875
 30
0.0
  0
SEQEND
  5
149
330
145
100
AcDbEntity
  8
STANDARDEBENE
  0
POLYLINE
  5
14A
330
1F
100
AcDbEntity
  8
STANDARDEBENE
 62
     7
100
AcDb2dPolyline
 66
     1
 10
0.0
 20
0.0
 30
0.0
  0
VERTEX
  5
14B
330
14A
100
AcDbEntity
  8
STANDARDEBENE
 62
     7
100
AcDbVertex
100
AcDb2dVertex
 10
26.5205078125
 20
239.318359375
 30
0.0
  0
VERTEX
  5
14C
330
14A
100
AcDbEntity
  8
STANDARDEBENE
 62
     7
100
AcDbVertex
100
AcDb2dVertex
 10
26.5205078125
 20
238.04296875
 30
0.0
  0
SEQEND
  5
14D
330
14A
100
AcDbEntity
  8
STANDARDEBENE
  0
POLYLINE
  5
14E
330
1F
100
AcDbEntity
  8
STANDARDEBENE
 62
     7
100
AcDb2dPolyline
 66
     1
 10
0.0
 20
0.0
 30
0.0
  0
VERTEX
  5
14F
330
14E
100
AcDbEntity
  8
STANDARDEBENE
 62
     7
100
AcDbVertex
100
AcDb2dVertex
 10
26.5205078125
 20
240.0
 30
0.0
  0
VERTEX
  5
150
330
14E
100
AcDbEntity
  8
STANDARDEBENE
 62
     7
100
AcDbVertex
100
AcDb2dVertex
 10
18.8662109375
 20
240.0
 30
0.0
  0
SEQEND
  5
151
330
14E
100
AcDbEntity
  8
STANDARDEBENE
  0
POLYLINE
  5
152
330
1F
100
AcDbEntity
  8
STANDARDEBENE
 62
     7
100
AcDb2dPolyline
 66
     1
 10
0.0
 20
0.0
 30
0.0
  0
VERTEX
  5
153
330
152
100
AcDbEntity
  8
STANDARDEBENE
 62
     7
100
AcDbVertex
100
AcDb2dVertex
 10
18.8662109375
 20
241.9775390625
 30
0.0
  0
VERTEX
  5
154
330
152
100
AcDbEntity
  8
STANDARDEBENE
 62
     7
100
AcDbVertex
100
AcDb2dVertex
 10
26.5205078125
 20
241.9775390625
 30
0.0
  0
SEQEND
  5
155
330
152
100
AcDbEntity
  8
STANDARDEBENE
  0
POLYLINE
  5
156
330
1F
100
AcDbEntity
  8
STANDARDEBENE
 62
     7
100
AcDb2dPolyline
 66
     1
 10
0.0
 20
0.0
 30
0.0
  0
VERTEX
  5
157
330
156
100
AcDbEntity
  8
STANDARDEBENE
 62
     7
100
AcDbVertex
100
AcDb2dVertex
 10
18.8662109375
 20
235.4560546875
 30
0.0
  0
VERTEX
  5
158
330
156
100
AcDbEntity
  8
STANDARDEBENE
 62
     7
100
AcDbVertex
100
AcDb2dVertex
 10
18.251953125
 20
235.4560546875
 30
0.0
  0
SEQEND
  5
159
330
156
100
AcDbEntity
  8
STANDARDEBENE
  0
POLYLINE
  5
15A
330
1F
100
AcDbEntity
  8
STANDARDEBENE
 62
     7
100
AcDb2dPolyline
 66
     1
 10
0.0
 20
0.0
 30
0.0
  0
VERTEX
  5
15B
330
15A
100
AcDbEntity
  8
STANDARDEBENE
 62
     7
100
AcDbVertex
100
AcDb2dVertex
 10
18.251953125
 20
238.04296875
 30
0.0
  0
VERTEX
  5
15C
330
15A
100
AcDbEntity
  8
STANDARDEBENE
 62
     7
100
AcDbVertex
100
AcDb2dVertex
 10
18.8662109375
 20
238.04296875
 30
0.0
  0
SEQEND
  5
15D
330
15A
100
AcDbEntity
  8
STANDARDEBENE
  0
POLYLINE
  5
15E
330
1F
100
AcDbEntity
  8
STANDARDEBENE
 62
     7
100
AcDb2dPolyline
 66
     1
 10
0.0
 20
0.0
 30
0.0
  0
VERTEX
  5
15F
330
15E
100
AcDbEntity
  8
STANDARDEBENE
 62
     7
100
AcDbVertex
100
AcDb2dVertex
 10
18.251953125
 20
235.4560546875
 30
0.0
  0
VERTEX
  5
160
330
15E
100
AcDbEntity
  8
STANDARDEBENE
 62
     7
100
AcDbVertex
100
AcDb2dVertex
 10
18.251953125
 20
236.244140625
 30
0.0
  0
VERTEX
  5
161
330
15E
100
AcDbEntity
  8
STANDARDEBENE
 62
     7
100
AcDbVertex
100
AcDb2dVertex
 10
18.251953125
 20
238.04296875
 30
0.0
  0
SEQEND
  5
162
330
15E
100
AcDbEntity
  8
STANDARDEBENE
  0
POLYLINE
  5
163
330
1F
100
AcDbEntity
  8
STANDARDEBENE
 62
     7
100
AcDb2dPolyline
 66
     1
 10
0.0
 20
0.0
 30
0.0
  0
VERTEX
  5
164
330
163
100
AcDbEntity
  8
STANDARDEBENE
 62
     7
100
AcDbVertex
100
AcDb2dVertex
 10
18.251953125
 20
235.4560546875
 30
0.0
  0
VERTEX
  5
165
330
163
100
AcDbEntity
  8
STANDARDEBENE
 62
     7
100
AcDbVertex
100
AcDb2dVertex
 10
16.41796875
 20
236.5185546875
 30
0.0
  0
VERTEX
  5
166
330
163
100
AcDbEntity
  8
STANDARDEBENE
 62
     7
100
AcDbVertex
100
AcDb2dVertex
 10
7.52685546875
 20
241.6611328125
 30
0.0
  0
SEQEND
  5
167
330
163
100
AcDbEntity
  8
STANDARDEBENE
  0
POLYLINE
  5
168
330
1F
100
AcDbEntity
  8
STANDARDEBENE
 62
     7
100
AcDb2dPolyline
 66
     1
 10
0.0
 20
0.0
 30
0.0
  0
VERTEX
  5
169
330
168
100
AcDbEntity
  8
STANDARDEBENE
 62
     7
100
AcDbVertex
100
AcDb2dVertex
 10
7.52685546875
 20
243.416015625
 30
0.0
  0
VERTEX
  5
16A
330
168
100
AcDbEntity
  8
STANDARDEBENE
 62
     7
100
AcDbVertex
100
AcDb2dVertex
 10
18.251953125
 20
238.04296875
 30
0.0
  0
SEQEND
  5
16B
330
168
100
AcDbEntity
  8
STANDARDEBENE
  0
POLYLINE
  5
16C
330
1F
100
AcDbEntity
  8
STANDARDEBENE
 62
     7
100
AcDb2dPolyline
 66
     1
 10
0.0
 20
0.0
 30
0.0
  0
VERTEX
  5
16D
330
16C
100
AcDbEntity
  8
STANDARDEBENE
 62
     7
100
AcDbVertex
100
AcDb2dVertex
 10
7.52685546875
 20
241.6611328125
 30
0.0
  0
VERTEX
  5
16E
330
16C
100
AcDbEntity
  8
STANDARDEBENE
 62
     7
100
AcDbVertex
100
AcDb2dVertex
 10
7.52685546875
 20
242.2255859375
 30
0.0
  0
VERTEX
  5
16F
330
16C
100
AcDbEntity
  8
STANDARDEBENE
 62
     7
100
AcDbVertex
100
AcDb2dVertex
 10
7.52685546875
 20
243.416015625
 30
0.0
  0
SEQEND
  5
170
330
16C
100
AcDbEntity
  8
STANDARDEBENE
  0
POLYLINE
  5
171
330
1F
100
AcDbEntity
  8
STANDARDEBENE
 62
     7
100
AcDb2dPolyline
 66
     1
 10
0.0
 20
0.0
 30
0.0
  0
VERTEX
  5
172
330
171
100
AcDbEntity
  8
STANDARDEBENE
 62
     7
100
AcDbVertex
100
AcDb2dVertex
 10
7.52685546875
 20
244.69140625
 30
0.0
  0
VERTEX
  5
173
330
171
100
AcDbEntity
  8
STANDARDEBENE
 62
     7
100
AcDbVertex
100
AcDb2dVertex
 10
7.52685546875
 20
243.416015625
 30
0.0
  0
SEQEND
  5
174
330
171
100
AcDbEntity
  8
STANDARDEBENE
  0
POLYLINE
  5
175
330
1F
100
AcDbEntity
  8
STANDARDEBENE
 62
     7
100
AcDb2dPolyline
 66
     1
 10
0.0
 20
0.0
 30
0.0
  0
VERTEX
  5
176
330
175
100
AcDbEntity
  8
STANDARDEBENE
 62
     7
100
AcDbVertex
100
AcDb2dVertex
 10
18.8662109375
 20
280.9931640625
 30
0.0
  0
VERTEX
  5
177
330
175
100
AcDbEntity
  8
STANDARDEBENE
 62
     7
100
AcDbVertex
100
AcDb2dVertex
 10
18.8662109375
 20
282.791015625
 30
0.0
  0
VERTEX
  5
178
330
175
100
AcDbEntity
  8
STANDARDEBENE
 62
     7
100
AcDbVertex
100
AcDb2dVertex
 10
18.8662109375
 20
283.578125
 30
0.0
  0
SEQEND
  5
179
330
175
100
AcDbEntity
  8
STANDARDEBENE
  0
POLYLINE
  5
17A
330
1F
100
AcDbEntity
  8
STANDARDEBENE
 62
     7
100
AcDb2dPolyline
 66
     1
 10
0.0
 20
0.0
 30
0.0
  0
VERTEX
  5
17B
330
17A
100
AcDbEntity
  8
STANDARDEBENE
 62
     7
100
AcDbVertex
100
AcDb2dVertex
 10
18.8662109375
 20
279.71630859375
 30
0.0
  0
VERTEX
  5
17C
330
17A
100
AcDbEntity
  8
STANDARDEBENE
 62
     7
100
AcDbVertex
100
AcDb2dVertex
 10
18.8662109375
 20
280.9931640625
 30
0.0
  0
SEQEND
  5
17D
330
17A
100
AcDbEntity
  8
STANDARDEBENE
  0
POLYLINE
  5
17E
330
1F
100
AcDbEntity
  8
STANDARDEBENE
 62
     7
100
AcDb2dPolyline
 66
     1
 10
0.0
 20
0.0
 30
0.0
  0
VERTEX
  5
17F
330
17E
100
AcDbEntity
  8
STANDARDEBENE
 62
     7
100
AcDbVertex
100
AcDb2dVertex
 10
26.5205078125
 20
280.9931640625
 30
0.0
  0
VERTEX
  5
180
330
17E
100
AcDbEntity
  8
STANDARDEBENE
 62
     7
100
AcDbVertex
100
AcDb2dVertex
 10
26.5205078125
 20
279.71630859375
 30
0.0
  0
SEQEND
  5
181
330
17E
100
AcDbEntity
  8
STANDARDEBENE
  0
POLYLINE
  5
182
330
1F
100
AcDbEntity
  8
STANDARDEBENE
 62
     7
100
AcDb2dPolyline
 66
     1
 10
0.0
 20
0.0
 30
0.0
  0
VERTEX
  5
183
330
182
100
AcDbEntity
  8
STANDARDEBENE
 62
     7
100
AcDbVertex
100
AcDb2dVertex
 10
26.5205078125
 20
283.578125
 30
0.0
  0
VERTEX
  5
184
330
182
100
AcDbEntity
  8
STANDARDEBENE
 62
     7
100
AcDbVertex
100
AcDb2dVertex
 10
26.5205078125
 20
282.791015625
 30
0.0
  0
VERTEX
  5
185
330
182
100
AcDbEntity
  8
STANDARDEBENE
 62
     7
100
AcDbVertex
100
AcDb2dVertex
 10
26.5205078125
 20
280.9931640625
 30
0.0
  0
SEQEND
  5
186
330
182
100
AcDbEntity
  8
STANDARDEBENE
  0
POLYLINE
  5
187
330
1F
100
AcDbEntity
  8
STANDARDEBENE
 62
     7
100
AcDb2dPolyline
 66
     1
 10
0.0
 20
0.0
 30
0.0
  0
VERTEX
  5
188
330
187
100
AcDbEntity
  8
STANDARDEBENE
 62
     7
100
AcDbVertex
100
AcDb2dVertex
 10
18.8662109375
 20
279.0341796875
 30
0.0
  0
VERTEX
  5
189
330
187
100
AcDbEntity
  8
STANDARDEBENE
 62
     7
100
AcDbVertex
100
AcDb2dVertex
 10
26.5205078125
 20
279.0341796875
 30
0.0
  0
SEQEND
  5
18A
330
187
100
AcDbEntity
  8
STANDARDEBENE
  0
POLYLINE
  5
18B
330
1F
100
AcDbEntity
  8
STANDARDEBENE
 62
     7
100
AcDb2dPolyline
 66
     1
 10
0.0
 20
0.0
 30
0.0
  0
VERTEX
  5
18C
330
18B
100
AcDbEntity
  8
STANDARDEBENE
 62
     7
100
AcDbVertex
100
AcDb2dVertex
 10
26.5205078125
 20
277.0576171875
 30
0.0
  0
VERTEX
  5
18D
330
18B
100
AcDbEntity
  8
STANDARDEBENE
 62
     7
100
AcDbVertex
100
AcDb2dVertex
 10
18.8662109375
 20
277.0576171875
 30
0.0
  0
SEQEND
  5
18E
330
18B
100
AcDbEntity
  8
STANDARDEBENE
  0
POLYLINE
  5
18F
330
1F
100
AcDbEntity
  8
STANDARDEBENE
 62
     7
100
AcDb2dPolyline
 66
     1
 10
0.0
 20
0.0
 30
0.0
  0
VERTEX
  5
190
330
18F
100
AcDbEntity
  8
STANDARDEBENE
 62
     7
100
AcDbVertex
100
AcDb2dVertex
 10
18.251953125
 20
283.578125
 30
0.0
  0
VERTEX
  5
191
330
18F
100
AcDbEntity
  8
STANDARDEBENE
 62
     7
100
AcDbVertex
100
AcDb2dVertex
 10
18.8662109375
 20
283.578125
 30
0.0
  0
SEQEND
  5
192
330
18F
100
AcDbEntity
  8
STANDARDEBENE
  0
POLYLINE
  5
193
330
1F
100
AcDbEntity
  8
STANDARDEBENE
 62
     7
100
AcDb2dPolyline
 66
     1
 10
0.0
 20
0.0
 30
0.0
  0
VERTEX
  5
194
330
193
100
AcDbEntity
  8
STANDARDEBENE
 62
     7
100
AcDbVertex
100
AcDb2dVertex
 10
18.251953125
 20
280.9931640625
 30
0.0
  0
VERTEX
  5
195
330
193
100
AcDbEntity
  8
STANDARDEBENE
 62
     7
100
AcDbVertex
100
AcDb2dVertex
 10
18.251953125
 20
282.791015625
 30
0.0
  0
VERTEX
  5
196
330
193
100
AcDbEntity
  8
STANDARDEBENE
 62
     7
100
AcDbVertex
100
AcDb2dVertex
 10
18.251953125
 20
283.578125
 30
0.0
  0
SEQEND
  5
197
330
193
100
AcDbEntity
  8
STANDARDEBENE
  0
POLYLINE
  5
198
330
1F
100
AcDbEntity
  8
STANDARDEBENE
 62
     7
100
AcDb2dPolyline
 66
     1
 10
0.0
 20
0.0
 30
0.0
  0
VERTEX
  5
199
330
198
100
AcDbEntity
  8
STANDARDEBENE
 62
     7
100
AcDbVertex
100
AcDb2dVertex
 10
18.8662109375
 20
280.9931640625
 30
0.0
  0
VERTEX
  5
19A
330
198
100
AcDbEntity
  8
STANDARDEBENE
 62
     7
100
AcDbVertex
100
AcDb2dVertex
 10
18.251953125
 20
280.9931640625
 30
0.0
  0
SEQEND
  5
19B
330
198
100
AcDbEntity
  8
STANDARDEBENE
  0
POLYLINE
  5
19C
330
1F
100
AcDbEntity
  8
STANDARDEBENE
 62
     7
100
AcDb2dPolyline
 66
     1
 10
0.0
 20
0.0
 30
0.0
  0
VERTEX
  5
19D
330
19C
100
AcDbEntity
  8
STANDARDEBENE
 62
     7
100
AcDbVertex
100
AcDb2dVertex
 10
7.52685546875
 20
274.34521484375
 30
0.0
  0
VERTEX
  5
19E
330
19C
100
AcDbEntity
  8
STANDARDEBENE
 62
     7
100
AcDbVertex
100
AcDb2dVertex
 10
7.52685546875
 20
275.6201171875
 30
0.0
  0
VERTEX
  5
19F
330
19C
100
AcDbEntity
  8
STANDARDEBENE
 62
     7
100
AcDbVertex
100
AcDb2dVertex
 10
7.52685546875
 20
276.810546875
 30
0.0
  0
VERTEX
  5
1A0
330
19C
100
AcDbEntity
  8
STANDARDEBENE
 62
     7
100
AcDbVertex
100
AcDb2dVertex
 10
7.52685546875
 20
277.3740234375
 30
0.0
  0
VERTEX
  5
1A1
330
19C
100
AcDbEntity
  8
STANDARDEBENE
 62
     7
100
AcDbVertex
100
AcDb2dVertex
 10
16.41796875
 20
282.5185546875
 30
0.0
  0
VERTEX
  5
1A2
330
19C
100
AcDbEntity
  8
STANDARDEBENE
 62
     7
100
AcDbVertex
100
AcDb2dVertex
 10
18.251953125
 20
283.578125
 30
0.0
  0
SEQEND
  5
1A3
330
19C
100
AcDbEntity
  8
STANDARDEBENE
  0
POLYLINE
  5
1A4
330
1F
100
AcDbEntity
  8
STANDARDEBENE
 62
     7
100
AcDb2dPolyline
 66
     1
 10
0.0
 20
0.0
 30
0.0
  0
VERTEX
  5
1A5
330
1A4
100
AcDbEntity
  8
STANDARDEBENE
 62
     7
100
AcDbVertex
100
AcDb2dVertex
 10
18.251953125
 20
280.9931640625
 30
0.0
  0
VERTEX
  5
1A6
330
1A4
100
AcDbEntity
  8
STANDARDEBENE
 62
     7
100
AcDbVertex
100
AcDb2dVertex
 10
7.52685546875
 20
275.6201171875
 30
0.0
  0
SEQEND
  5
1A7
330
1A4
100
AcDbEntity
  8
STANDARDEBENE
  0
POLYLINE
  5
1A8
330
1F
100
AcDbEntity
  8
STANDARDEBENE
 62
     7
100
AcDb2dPolyline
 66
     1
 10
0.0
 20
0.0
 30
0.0
  0
VERTEX
  5
1A9
330
1A8
100
AcDbEntity
  8
STANDARDEBENE
 62
     7
100
AcDbVertex
100
AcDb2dVertex
 10
18.8662109375
 20
260.79296875
 30
0.0
  0
VERTEX
  5
1AA
330
1A8
100
AcDbEntity
  8
STANDARDEBENE
 62
     7
100
AcDbVertex
100
AcDb2dVertex
 10
18.8662109375
 20
265.75439453125
 30
0.0
  0
VERTEX
  5
1AB
330
1A8
100
AcDbEntity
  8
STANDARDEBENE
 62
     7
100
AcDbVertex
100
AcDb2dVertex
 10
18.8662109375
 20
270.443359375
 30
0.0
  0
SEQEND
  5
1AC
330
1A8
100
AcDbEntity
  8
STANDARDEBENE
  0
POLYLINE
  5
1AD
330
1F
100
AcDbEntity
  8
STANDARDEBENE
 62
     7
100
AcDb2dPolyline
 66
     1
 10
0.0
 20
0.0
 30
0.0
  0
VERTEX
  5
1AE
330
1AD
100
AcDbEntity
  8
STANDARDEBENE
 62
     7
100
AcDbVertex
100
AcDb2dVertex
 10
26.5205078125
 20
270.443359375
 30
0.0
  0
VERTEX
  5
1AF
330
1AD
100
AcDbEntity
  8
STANDARDEBENE
 62
     7
100
AcDbVertex
100
AcDb2dVertex
 10
26.5205078125
 20
265.75439453125
 30
0.0
  0
VERTEX
  5
1B0
330
1AD
100
AcDbEntity
  8
STANDARDEBENE
 62
     7
100
AcDbVertex
100
AcDb2dVertex
 10
26.5205078125
 20
260.79296875
 30
0.0
  0
SEQEND
  5
1B1
330
1AD
100
AcDbEntity
  8
STANDARDEBENE
  0
POLYLINE
  5
1B2
330
1F
100
AcDbEntity
  8
STANDARDEBENE
 62
     7
100
AcDb2dPolyline
 66
     1
 10
0.0
 20
0.0
 30
0.0
  0
VERTEX
  5
1B3
330
1B2
100
AcDbEntity
  8
STANDARDEBENE
 62
     7
100
AcDbVertex
100
AcDb2dVertex
 10
18.8662109375
 20
268.17236328125
 30
0.0
  0
VERTEX
  5
1B4
330
1B2
100
AcDbEntity
  8
STANDARDEBENE
 62
     7
100
AcDbVertex
100
AcDb2dVertex
 10
26.5205078125
 20
268.17236328125
 30
0.0
  0
SEQEND
  5
1B5
330
1B2
100
AcDbEntity
  8
STANDARDEBENE
  0
POLYLINE
  5
1B6
330
1F
100
AcDbEntity
  8
STANDARDEBENE
 62
     7
100
AcDb2dPolyline
 66
     1
 10
0.0
 20
0.0
 30
0.0
  0
VERTEX
  5
1B7
330
1B6
100
AcDbEntity
  8
STANDARDEBENE
 62
     7
100
AcDbVertex
100
AcDb2dVertex
 10
26.5205078125
 20
260.79296875
 30
0.0
  0
VERTEX
  5
1B8
330
1B6
100
AcDbEntity
  8
STANDARDEBENE
 62
     7
100
AcDbVertex
100
AcDb2dVertex
 10
18.8662109375
 20
260.79296875
 30
0.0
  0
SEQEND
  5
1B9
330
1B6
100
AcDbEntity
  8
STANDARDEBENE
  0
POLYLINE
  5
1BA
330
1F
100
AcDbEntity
  8
STANDARDEBENE
 62
     7
100
AcDb2dPolyline
 66
     1
 10
0.0
 20
0.0
 30
0.0
  0
VERTEX
  5
1BB
330
1BA
100
AcDbEntity
  8
STANDARDEBENE
 62
     7
100
AcDbVertex
100
AcDb2dVertex
 10
18.251953125
 20
270.443359375
 30
0.0
  0
VERTEX
  5
1BC
330
1BA
100
AcDbEntity
  8
STANDARDEBENE
 62
     7
100
AcDbVertex
100
AcDb2dVertex
 10
18.8662109375
 20
270.443359375
 30
0.0
  0
SEQEND
  5
1BD
330
1BA
100
AcDbEntity
  8
STANDARDEBENE
  0
POLYLINE
  5
1BE
330
1F
100
AcDbEntity
  8
STANDARDEBENE
 62
     7
100
AcDb2dPolyline
 66
     1
 10
0.0
 20
0.0
 30
0.0
  0
VERTEX
  5
1BF
330
1BE
100
AcDbEntity
  8
STANDARDEBENE
 62
     7
100
AcDbVertex
100
AcDb2dVertex
 10
18.251953125
 20
260.79296875
 30
0.0
  0
VERTEX
  5
1C0
330
1BE
100
AcDbEntity
  8
STANDARDEBENE
 62
     7
100
AcDbVertex
100
AcDb2dVertex
 10
18.251953125
 20
265.75439453125
 30
0.0
  0
VERTEX
  5
1C1
330
1BE
100
AcDbEntity
  8
STANDARDEBENE
 62
     7
100
AcDbVertex
100
AcDb2dVertex
 10
18.251953125
 20
270.443359375
 30
0.0
  0
SEQEND
  5
1C2
330
1BE
100
AcDbEntity
  8
STANDARDEBENE
  0
POLYLINE
  5
1C3
330
1F
100
AcDbEntity
  8
STANDARDEBENE
 62
     7
100
AcDb2dPolyline
 66
     1
 10
0.0
 20
0.0
 30
0.0
  0
VERTEX
  5
1C4
330
1C3
100
AcDbEntity
  8
STANDARDEBENE
 62
     7
100
AcDbVertex
100
AcDb2dVertex
 10
18.8662109375
 20
260.79296875
 30
0.0
  0
VERTEX
  5
1C5
330
1C3
100
AcDbEntity
  8
STANDARDEBENE
 62
     7
100
AcDbVertex
100
AcDb2dVertex
 10
18.251953125
 20
260.79296875
 30
0.0
  0
SEQEND
  5
1C6
330
1C3
100
AcDbEntity
  8
STANDARDEBENE
  0
POLYLINE
  5
1C7
330
1F
100
AcDbEntity
  8
STANDARDEBENE
 62
     7
100
AcDb2dPolyline
 66
     1
 10
0.0
 20
0.0
 30
0.0
  0
VERTEX
  5
1C8
330
1C7
100
AcDbEntity
  8
STANDARDEBENE
 62
     7
100
AcDbVertex
100
AcDb2dVertex
 10
7.52685546875
 20
269.55126953125
 30
0.0
  0
VERTEX
  5
1C9
330
1C7
100
AcDbEntity
  8
STANDARDEBENE
 62
     7
100
AcDbVertex
100
AcDb2dVertex
 10
7.52685546875
 20
268.7724609375
 30
0.0
  0
SEQEND
  5
1CA
330
1C7
100
AcDbEntity
  8
STANDARDEBENE
  0
POLYLINE
  5
1CB
330
1F
100
AcDbEntity
  8
STANDARDEBENE
 62
     7
100
AcDb2dPolyline
 66
     1
 10
0.0
 20
0.0
 30
0.0
  0
VERTEX
  5
1CC
330
1CB
100
AcDbEntity
  8
STANDARDEBENE
 62
     7
100
AcDbVertex
100
AcDb2dVertex
 10
7.52685546875
 20
260.79296875
 30
0.0
  0
VERTEX
  5
1CD
330
1CB
100
AcDbEntity
  8
STANDARDEBENE
 62
     7
100
AcDbVertex
100
AcDb2dVertex
 10
7.52685546875
 20
264.150390625
 30
0.0
  0
VERTEX
  5
1CE
330
1CB
100
AcDbEntity
  8
STANDARDEBENE
 62
     7
100
AcDbVertex
100
AcDb2dVertex
 10
7.52685546875
 20
267.34130859375
 30
0.0
  0
VERTEX
  5
1CF
330
1CB
100
AcDbEntity
  8
STANDARDEBENE
 62
     7
100
AcDbVertex
100
AcDb2dVertex
 10
7.52685546875
 20
268.7724609375
 30
0.0
  0
SEQEND
  5
1D0
330
1CB
100
AcDbEntity
  8
STANDARDEBENE
  0
POLYLINE
  5
1D1
330
1F
100
AcDbEntity
  8
STANDARDEBENE
 62
     7
100
AcDb2dPolyline
 66
     1
 10
0.0
 20
0.0
 30
0.0
  0
VERTEX
  5
1D2
330
1D1
100
AcDbEntity
  8
STANDARDEBENE
 62
     7
100
AcDbVertex
100
AcDb2dVertex
 10
7.52685546875
 20
267.34130859375
 30
0.0
  0
VERTEX
  5
1D3
330
1D1
100
AcDbEntity
  8
STANDARDEBENE
 62
     7
100
AcDbVertex
100
AcDb2dVertex
 10
18.251953125
 20
270.443359375
 30
0.0
  0
SEQEND
  5
1D4
330
1D1
100
AcDbEntity
  8
STANDARDEBENE
  0
POLYLINE
  5
1D5
330
1F
100
AcDbEntity
  8
STANDARDEBENE
 62
     7
100
AcDb2dPolyline
 66
     1
 10
0.0
 20
0.0
 30
0.0
  0
VERTEX
  5
1D6
330
1D5
100
AcDbEntity
  8
STANDARDEBENE
 62
     7
100
AcDbVertex
100
AcDb2dVertex
 10
18.251953125
 20
260.79296875
 30
0.0
  0
VERTEX
  5
1D7
330
1D5
100
AcDbEntity
  8
STANDARDEBENE
 62
     7
100
AcDbVertex
100
AcDb2dVertex
 10
8.322265625
 20
260.79296875
 30
0.0
  0
VERTEX
  5
1D8
330
1D5
100
AcDbEntity
  8
STANDARDEBENE
 62
     7
100
AcDbVertex
100
AcDb2dVertex
 10
7.52685546875
 20
260.79296875
 30
0.0
  0
SEQEND
  5
1D9
330
1D5
100
AcDbEntity
  8
STANDARDEBENE
  0
POLYLINE
  5
1DA
330
1F
100
AcDbEntity
  8
STANDARDEBENE
 62
     7
100
AcDb2dPolyline
 66
     1
 10
0.0
 20
0.0
 30
0.0
  0
VERTEX
  5
1DB
330
1DA
100
AcDbEntity
  8
STANDARDEBENE
 62
     7
100
AcDbVertex
100
AcDb2dVertex
 10
18.8662109375
 20
246.38330078125
 30
0.0
  0
VERTEX
  5
1DC
330
1DA
100
AcDbEntity
  8
STANDARDEBENE
 62
     7
100
AcDbVertex
100
AcDb2dVertex
 10
18.8662109375
 20
248.59130859375
 30
0.0
  0
SEQEND
  5
1DD
330
1DA
100
AcDbEntity
  8
STANDARDEBENE
  0
POLYLINE
  5
1DE
330
1F
100
AcDbEntity
  8
STANDARDEBENE
 62
     7
100
AcDb2dPolyline
 66
     1
 10
0.0
 20
0.0
 30
0.0
  0
VERTEX
  5
1DF
330
1DE
100
AcDbEntity
  8
STANDARDEBENE
 62
     7
100
AcDbVertex
100
AcDb2dVertex
 10
18.8662109375
 20
239.318359375
 30
0.0
  0
VERTEX
  5
1E0
330
1DE
100
AcDbEntity
  8
STANDARDEBENE
 62
     7
100
AcDbVertex
100
AcDb2dVertex
 10
18.8662109375
 20
242.48046875
 30
0.0
  0
VERTEX
  5
1E1
330
1DE
100
AcDbEntity
  8
STANDARDEBENE
 62
     7
100
AcDbVertex
100
AcDb2dVertex
 10
18.8662109375
 20
246.38330078125
 30
0.0
  0
SEQEND
  5
1E2
330
1DE
100
AcDbEntity
  8
STANDARDEBENE
  0
POLYLINE
  5
1E3
330
1F
100
AcDbEntity
  8
STANDARDEBENE
 62
     7
100
AcDb2dPolyline
 66
     1
 10
0.0
 20
0.0
 30
0.0
  0
VERTEX
  5
1E4
330
1E3
100
AcDbEntity
  8
STANDARDEBENE
 62
     7
100
AcDbVertex
100
AcDb2dVertex
 10
26.5205078125
 20
248.59130859375
 30
0.0
  0
VERTEX
  5
1E5
330
1E3
100
AcDbEntity
  8
STANDARDEBENE
 62
     7
100
AcDbVertex
100
AcDb2dVertex
 10
26.5205078125
 20
246.38330078125
 30
0.0
  0
VERTEX
  5
1E6
330
1E3
100
AcDbEntity
  8
STANDARDEBENE
 62
     7
100
AcDbVertex
100
AcDb2dVertex
 10
26.5205078125
 20
242.48046875
 30
0.0
  0
VERTEX
  5
1E7
330
1E3
100
AcDbEntity
  8
STANDARDEBENE
 62
     7
100
AcDbVertex
100
AcDb2dVertex
 10
26.5205078125
 20
239.318359375
 30
0.0
  0
SEQEND
  5
1E8
330
1E3
100
AcDbEntity
  8
STANDARDEBENE
  0
POLYLINE
  5
1E9
330
1F
100
AcDbEntity
  8
STANDARDEBENE
 62
     7
100
AcDb2dPolyline
 66
     1
 10
0.0
 20
0.0
 30
0.0
  0
VERTEX
  5
1EA
330
1E9
100
AcDbEntity
  8
STANDARDEBENE
 62
     7
100
AcDbVertex
100
AcDb2dVertex
 10
85.48046875
 20
243.7099609375
 30
0.0
  0
VERTEX
  5
1EB
330
1E9
100
AcDbEntity
  8
STANDARDEBENE
 62
     7
100
AcDbVertex
100
AcDb2dVertex
 10
85.48046875
 20
244.01416015625
 30
0.0
  0
VERTEX
  5
1EC
330
1E9
100
AcDbEntity
  8
STANDARDEBENE
 62
     7
100
AcDbVertex
100
AcDb2dVertex
 10
85.48046875
 20
244.9130859375
 30
0.0
  0
VERTEX
  5
1ED
330
1E9
100
AcDbEntity
  8
STANDARDEBENE
 62
     7
100
AcDbVertex
100
AcDb2dVertex
 10
85.48046875
 20
246.3740234375
 30
0.0
  0
VERTEX
  5
1EE
330
1E9
100
AcDbEntity
  8
STANDARDEBENE
 62
     7
100
AcDbVertex
100
AcDb2dVertex
 10
85.48046875
 20
248.34033203125
 30
0.0
  0
VERTEX
  5
1EF
330
1E9
100
AcDbEntity
  8
STANDARDEBENE
 62
     7
100
AcDbVertex
100
AcDb2dVertex
 10
85.48046875
 20
250.7353515625
 30
0.0
  0
VERTEX
  5
1F0
330
1E9
100
AcDbEntity
  8
STANDARDEBENE
 62
     7
100
AcDbVertex
100
AcDb2dVertex
 10
85.48046875
 20
253.46728515625
 30
0.0
  0
VERTEX
  5
1F1
330
1E9
100
AcDbEntity
  8
STANDARDEBENE
 62
     7
100
AcDbVertex
100
AcDb2dVertex
 10
85.48046875
 20
256.43359375
 30
0.0
  0
VERTEX
  5
1F2
330
1E9
100
AcDbEntity
  8
STANDARDEBENE
 62
     7
100
AcDbVertex
100
AcDb2dVertex
 10
85.48046875
 20
259.5185546875
 30
0.0
  0
VERTEX
  5
1F3
330
1E9
100
AcDbEntity
  8
STANDARDEBENE
 62
     7
100
AcDbVertex
100
AcDb2dVertex
 10
85.48046875
 20
262.6015625
 30
0.0
  0
VERTEX
  5
1F4
330
1E9
100
AcDbEntity
  8
STANDARDEBENE
 62
     7
100
AcDbVertex
100
AcDb2dVertex
 10
85.48046875
 20
265.5673828125
 30
0.0
  0
VERTEX
  5
1F5
330
1E9
100
AcDbEntity
  8
STANDARDEBENE
 62
     7
100
AcDbVertex
100
AcDb2dVertex
 10
85.48046875
 20
268.29931640625
 30
0.0
  0
VERTEX
  5
1F6
330
1E9
100
AcDbEntity
  8
STANDARDEBENE
 62
     7
100
AcDbVertex
100
AcDb2dVertex
 10
85.48046875
 20
270.6962890625
 30
0.0
  0
VERTEX
  5
1F7
330
1E9
100
AcDbEntity
  8
STANDARDEBENE
 62
     7
100
AcDbVertex
100
AcDb2dVertex
 10
85.48046875
 20
272.662109375
 30
0.0
  0
VERTEX
  5
1F8
330
1E9
100
AcDbEntity
  8
STANDARDEBENE
 62
     7
100
AcDbVertex
100
AcDb2dVertex
 10
85.48046875
 20
274.123046875
 30
0.0
  0
VERTEX
  5
1F9
330
1E9
100
AcDbEntity
  8
STANDARDEBENE
 62
     7
100
AcDbVertex
100
AcDb2dVertex
 10
85.48046875
 20
275.0224609375
 30
0.0
  0
VERTEX
  5
1FA
330
1E9
100
AcDbEntity
  8
STANDARDEBENE
 62
     7
100
AcDbVertex
100
AcDb2dVertex
 10
85.48046875
 20
275.326171875
 30
0.0
  0
SEQEND
  5
1FB
330
1E9
100
AcDbEntity
  8
STANDARDEBENE
  0
POLYLINE
  5
1FC
330
1F
100
AcDbEntity
  8
STANDARDEBENE
 62
     7
100
AcDb2dPolyline
 66
     1
 10
0.0
 20
0.0
 30
0.0
  0
VERTEX
  5
1FD
330
1FC
100
AcDbEntity
  8
STANDARDEBENE
 62
     7
100
AcDbVertex
100
AcDb2dVertex
 10
81.630859375
 20
275.8173828125
 30
0.0
  0
VERTEX
  5
1FE
330
1FC
100
AcDbEntity
  8
STANDARDEBENE
 62
     7
100
AcDbVertex
100
AcDb2dVertex
 10
81.9326171875
 20
275.8173828125
 30
0.0
  0
VERTEX
  5
1FF
330
1FC
100
AcDbEntity
  8
STANDARDEBENE
 62
     7
100
AcDbVertex
100
AcDb2dVertex
 10
81.9853515625
 20
275.8173828125
 30
0.0
  0
SEQEND
  5
200
330
1FC
100
AcDbEntity
  8
STANDARDEBENE
  0
POLYLINE
  5
201
330
1F
100
AcDbEntity
  8
STANDARDEBENE
 62
     7
100
AcDb2dPolyline
 66
     1
 10
0.0
 20
0.0
 30
0.0
  0
VERTEX
  5
202
330
201
100
AcDbEntity
  8
STANDARDEBENE
 62
     7
100
AcDbVertex
100
AcDb2dVertex
 10
26.5205078125
 20
283.578125
 30
0.0
  0
VERTEX
  5
203
330
201
100
AcDbEntity
  8
STANDARDEBENE
 62
     7
100
AcDbVertex
100
AcDb2dVertex
 10
52.7392578125
 20
279.88818359375
 30
0.0
  0
VERTEX
  5
204
330
201
100
AcDbEntity
  8
STANDARDEBENE
 62
     7
100
AcDbVertex
100
AcDb2dVertex
 10
81.2529296875
 20
275.8701171875
 30
0.0
  0
VERTEX
  5
205
330
201
100
AcDbEntity
  8
STANDARDEBENE
 62
     7
100
AcDbVertex
100
AcDb2dVertex
 10
81.630859375
 20
275.8173828125
 30
0.0
  0
SEQEND
  5
206
330
201
100
AcDbEntity
  8
STANDARDEBENE
  0
POLYLINE
  5
207
330
1F
100
AcDbEntity
  8
STANDARDEBENE
 62
     7
100
AcDb2dPolyline
 66
     1
 10
0.0
 20
0.0
 30
0.0
  0
VERTEX
  5
208
330
207
100
AcDbEntity
  8
STANDARDEBENE
 62
     7
100
AcDbVertex
100
AcDb2dVertex
 10
74.0009765625
 20
275.2021484375
 30
0.0
  0
VERTEX
  5
209
330
207
100
AcDbEntity
  8
STANDARDEBENE
 62
     7
100
AcDbVertex
100
AcDb2dVertex
 10
43.71484375
 20
278.8974609375
 30
0.0
  0
VERTEX
  5
20A
330
207
100
AcDbEntity
  8
STANDARDEBENE
 62
     7
100
AcDbVertex
100
AcDb2dVertex
 10
26.5205078125
 20
280.9931640625
 30
0.0
  0
SEQEND
  5
20B
330
207
100
AcDbEntity
  8
STANDARDEBENE
  0
POLYLINE
  5
20C
330
1F
100
AcDbEntity
  8
STANDARDEBENE
 62
     7
100
AcDb2dPolyline
 66
     1
 10
0.0
 20
0.0
 30
0.0
  0
VERTEX
  5
20D
330
20C
100
AcDbEntity
  8
STANDARDEBENE
 62
     7
100
AcDbVertex
100
AcDb2dVertex
 10
74.0009765625
 20
273.92724609375
 30
0.0
  0
VERTEX
  5
20E
330
20C
100
AcDbEntity
  8
STANDARDEBENE
 62
     7
100
AcDbVertex
100
AcDb2dVertex
 10
74.0009765625
 20
274.60546875
 30
0.0
  0
VERTEX
  5
20F
330
20C
100
AcDbEntity
  8
STANDARDEBENE
 62
     7
100
AcDbVertex
100
AcDb2dVertex
 10
74.0009765625
 20
275.2021484375
 30
0.0
  0
SEQEND
  5
210
330
20C
100
AcDbEntity
  8
STANDARDEBENE
  0
POLYLINE
  5
211
330
1F
100
AcDbEntity
  8
STANDARDEBENE
 62
     7
100
AcDb2dPolyline
 66
     1
 10
0.0
 20
0.0
 30
0.0
  0
VERTEX
  5
212
330
211
100
AcDbEntity
  8
STANDARDEBENE
 62
     7
100
AcDbVertex
100
AcDb2dVertex
 10
26.5205078125
 20
279.71630859375
 30
0.0
  0
VERTEX
  5
213
330
211
100
AcDbEntity
  8
STANDARDEBENE
 62
     7
100
AcDbVertex
100
AcDb2dVertex
 10
68.4072265625
 20
274.6103515625
 30
0.0
  0
VERTEX
  5
214
330
211
100
AcDbEntity
  8
STANDARDEBENE
 62
     7
100
AcDbVertex
100
AcDb2dVertex
 10
74.0009765625
 20
273.92724609375
 30
0.0
  0
SEQEND
  5
215
330
211
100
AcDbEntity
  8
STANDARDEBENE
  0
POLYLINE
  5
216
330
1F
100
AcDbEntity
  8
STANDARDEBENE
 62
     7
100
AcDb2dPolyline
 66
     1
 10
0.0
 20
0.0
 30
0.0
  0
VERTEX
  5
217
330
216
100
AcDbEntity
  8
STANDARDEBENE
 62
     7
100
AcDbVertex
100
AcDb2dVertex
 10
81.630859375
 20
268.7724609375
 30
0.0
  0
VERTEX
  5
218
330
216
100
AcDbEntity
  8
STANDARDEBENE
 62
     7
100
AcDbVertex
100
AcDb2dVertex
 10
53.21484375
 20
270.7734375
 30
0.0
  0
VERTEX
  5
219
330
216
100
AcDbEntity
  8
STANDARDEBENE
 62
     7
100
AcDbVertex
100
AcDb2dVertex
 10
26.5205078125
 20
272.6533203125
 30
0.0
  0
SEQEND
  5
21A
330
216
100
AcDbEntity
  8
STANDARDEBENE
  0
POLYLINE
  5
21B
330
1F
100
AcDbEntity
  8
STANDARDEBENE
 62
     7
100
AcDb2dPolyline
 66
     1
 10
0.0
 20
0.0
 30
0.0
  0
VERTEX
  5
21C
330
21B
100
AcDbEntity
  8
STANDARDEBENE
 62
     7
100
AcDbVertex
100
AcDb2dVertex
 10
81.630859375
 20
266.5625
 30
0.0
  0
VERTEX
  5
21D
330
21B
100
AcDbEntity
  8
STANDARDEBENE
 62
     7
100
AcDbVertex
100
AcDb2dVertex
 10
81.9423828125
 20
267.2744140625
 30
0.0
  0
VERTEX
  5
21E
330
21B
100
AcDbEntity
  8
STANDARDEBENE
 62
     7
100
AcDbVertex
100
AcDb2dVertex
 10
81.9443359375
 20
268.0419921875
 30
0.0
  0
VERTEX
  5
21F
330
21B
100
AcDbEntity
  8
STANDARDEBENE
 62
     7
100
AcDbVertex
100
AcDb2dVertex
 10
81.6865234375
 20
268.68115234375
 30
0.0
  0
VERTEX
  5
220
330
21B
100
AcDbEntity
  8
STANDARDEBENE
 62
     7
100
AcDbVertex
100
AcDb2dVertex
 10
81.630859375
 20
268.7724609375
 30
0.0
  0
SEQEND
  5
221
330
21B
100
AcDbEntity
  8
STANDARDEBENE
  0
POLYLINE
  5
222
330
1F
100
AcDbEntity
  8
STANDARDEBENE
 62
     7
100
AcDb2dPolyline
 66
     1
 10
0.0
 20
0.0
 30
0.0
  0
VERTEX
  5
223
330
222
100
AcDbEntity
  8
STANDARDEBENE
 62
     7
100
AcDbVertex
100
AcDb2dVertex
 10
26.5205078125
 20
270.443359375
 30
0.0
  0
VERTEX
  5
224
330
222
100
AcDbEntity
  8
STANDARDEBENE
 62
     7
100
AcDbVertex
100
AcDb2dVertex
 10
68.4072265625
 20
267.4951171875
 30
0.0
  0
VERTEX
  5
225
330
222
100
AcDbEntity
  8
STANDARDEBENE
 62
     7
100
AcDbVertex
100
AcDb2dVertex
 10
81.630859375
 20
266.5625
 30
0.0
  0
SEQEND
  5
226
330
222
100
AcDbEntity
  8
STANDARDEBENE
  0
POLYLINE
  5
227
330
1F
100
AcDbEntity
  8
STANDARDEBENE
 62
     7
100
AcDb2dPolyline
 66
     1
 10
0.0
 20
0.0
 30
0.0
  0
VERTEX
  5
228
330
227
100
AcDbEntity
  8
STANDARDEBENE
 62
     7
100
AcDbVertex
100
AcDb2dVertex
 10
74.0009765625
 20
260.79296875
 30
0.0
  0
VERTEX
  5
229
330
227
100
AcDbEntity
  8
STANDARDEBENE
 62
     7
100
AcDbVertex
100
AcDb2dVertex
 10
68.0849609375
 20
260.79296875
 30
0.0
  0
VERTEX
  5
22A
330
227
100
AcDbEntity
  8
STANDARDEBENE
 62
     7
100
AcDbVertex
100
AcDb2dVertex
 10
36.3515625
 20
260.79296875
 30
0.0
  0
VERTEX
  5
22B
330
227
100
AcDbEntity
  8
STANDARDEBENE
 62
     7
100
AcDbVertex
100
AcDb2dVertex
 10
26.5205078125
 20
260.79296875
 30
0.0
  0
SEQEND
  5
22C
330
227
100
AcDbEntity
  8
STANDARDEBENE
  0
POLYLINE
  5
22D
330
1F
100
AcDbEntity
  8
STANDARDEBENE
 62
     7
100
AcDb2dPolyline
 66
     1
 10
0.0
 20
0.0
 30
0.0
  0
VERTEX
  5
22E
330
22D
100
AcDbEntity
  8
STANDARDEBENE
 62
     7
100
AcDbVertex
100
AcDb2dVertex
 10
74.0009765625
 20
258.2412109375
 30
0.0
  0
VERTEX
  5
22F
330
22D
100
AcDbEntity
  8
STANDARDEBENE
 62
     7
100
AcDbVertex
100
AcDb2dVertex
 10
74.0009765625
 20
259.5185546875
 30
0.0
  0
VERTEX
  5
230
330
22D
100
AcDbEntity
  8
STANDARDEBENE
 62
     7
100
AcDbVertex
100
AcDb2dVertex
 10
74.0009765625
 20
260.79296875
 30
0.0
  0
SEQEND
  5
231
330
22D
100
AcDbEntity
  8
STANDARDEBENE
  0
POLYLINE
  5
232
330
1F
100
AcDbEntity
  8
STANDARDEBENE
 62
     7
100
AcDb2dPolyline
 66
     1
 10
0.0
 20
0.0
 30
0.0
  0
VERTEX
  5
233
330
232
100
AcDbEntity
  8
STANDARDEBENE
 62
     7
100
AcDbVertex
100
AcDb2dVertex
 10
26.5205078125
 20
258.2412109375
 30
0.0
  0
VERTEX
  5
234
330
232
100
AcDbEntity
  8
STANDARDEBENE
 62
     7
100
AcDbVertex
100
AcDb2dVertex
 10
36.3515625
 20
258.2412109375
 30
0.0
  0
VERTEX
  5
235
330
232
100
AcDbEntity
  8
STANDARDEBENE
 62
     7
100
AcDbVertex
100
AcDb2dVertex
 10
68.0849609375
 20
258.2412109375
 30
0.0
  0
VERTEX
  5
236
330
232
100
AcDbEntity
  8
STANDARDEBENE
 62
     7
100
AcDbVertex
100
AcDb2dVertex
 10
74.0009765625
 20
258.2412109375
 30
0.0
  0
SEQEND
  5
237
330
232
100
AcDbEntity
  8
STANDARDEBENE
  0
POLYLINE
  5
238
330
1F
100
AcDbEntity
  8
STANDARDEBENE
 62
     7
100
AcDb2dPolyline
 66
     1
 10
0.0
 20
0.0
 30
0.0
  0
VERTEX
  5
239
330
238
100
AcDbEntity
  8
STANDARDEBENE
 62
     7
100
AcDbVertex
100
AcDb2dVertex
 10
81.630859375
 20
252.47216796875
 30
0.0
  0
VERTEX
  5
23A
330
238
100
AcDbEntity
  8
STANDARDEBENE
 62
     7
100
AcDbVertex
100
AcDb2dVertex
 10
53.21484375
 20
250.47119140625
 30
0.0
  0
VERTEX
  5
23B
330
238
100
AcDbEntity
  8
STANDARDEBENE
 62
     7
100
AcDbVertex
100
AcDb2dVertex
 10
26.5205078125
 20
248.59130859375
 30
0.0
  0
SEQEND
  5
23C
330
238
100
AcDbEntity
  8
STANDARDEBENE
  0
POLYLINE
  5
23D
330
1F
100
AcDbEntity
  8
STANDARDEBENE
 62
     7
100
AcDb2dPolyline
 66
     1
 10
0.0
 20
0.0
 30
0.0
  0
VERTEX
  5
23E
330
23D
100
AcDbEntity
  8
STANDARDEBENE
 62
     7
100
AcDbVertex
100
AcDb2dVertex
 10
81.630859375
 20
250.26416015625
 30
0.0
  0
VERTEX
  5
23F
330
23D
100
AcDbEntity
  8
STANDARDEBENE
 62
     7
100
AcDbVertex
100
AcDb2dVertex
 10
81.9423828125
 20
250.9755859375
 30
0.0
  0
VERTEX
  5
240
330
23D
100
AcDbEntity
  8
STANDARDEBENE
 62
     7
100
AcDbVertex
100
AcDb2dVertex
 10
81.9443359375
 20
251.7431640625
 30
0.0
  0
VERTEX
  5
241
330
23D
100
AcDbEntity
  8
STANDARDEBENE
 62
     7
100
AcDbVertex
100
AcDb2dVertex
 10
81.6865234375
 20
252.38134765625
 30
0.0
  0
VERTEX
  5
242
330
23D
100
AcDbEntity
  8
STANDARDEBENE
 62
     7
100
AcDbVertex
100
AcDb2dVertex
 10
81.630859375
 20
252.47216796875
 30
0.0
  0
SEQEND
  5
243
330
23D
100
AcDbEntity
  8
STANDARDEBENE
  0
POLYLINE
  5
244
330
1F
100
AcDbEntity
  8
STANDARDEBENE
 62
     7
100
AcDb2dPolyline
 66
     1
 10
0.0
 20
0.0
 30
0.0
  0
VERTEX
  5
245
330
244
100
AcDbEntity
  8
STANDARDEBENE
 62
     7
100
AcDbVertex
100
AcDb2dVertex
 10
26.5205078125
 20
246.38330078125
 30
0.0
  0
VERTEX
  5
246
330
244
100
AcDbEntity
  8
STANDARDEBENE
 62
     7
100
AcDbVertex
100
AcDb2dVertex
 10
68.4072265625
 20
249.3310546875
 30
0.0
  0
VERTEX
  5
247
330
244
100
AcDbEntity
  8
STANDARDEBENE
 62
     7
100
AcDbVertex
100
AcDb2dVertex
 10
81.630859375
 20
250.26416015625
 30
0.0
  0
SEQEND
  5
248
330
244
100
AcDbEntity
  8
STANDARDEBENE
  0
POLYLINE
  5
249
330
1F
100
AcDbEntity
  8
STANDARDEBENE
 62
     7
100
AcDb2dPolyline
 66
     1
 10
0.0
 20
0.0
 30
0.0
  0
VERTEX
  5
24A
330
249
100
AcDbEntity
  8
STANDARDEBENE
 62
     7
100
AcDbVertex
100
AcDb2dVertex
 10
74.0009765625
 20
245.109375
 30
0.0
  0
VERTEX
  5
24B
330
249
100
AcDbEntity
  8
STANDARDEBENE
 62
     7
100
AcDbVertex
100
AcDb2dVertex
 10
43.71484375
 20
241.4130859375
 30
0.0
  0
VERTEX
  5
24C
330
249
100
AcDbEntity
  8
STANDARDEBENE
 62
     7
100
AcDbVertex
100
AcDb2dVertex
 10
26.5205078125
 20
239.318359375
 30
0.0
  0
SEQEND
  5
24D
330
249
100
AcDbEntity
  8
STANDARDEBENE
  0
POLYLINE
  5
24E
330
1F
100
AcDbEntity
  8
STANDARDEBENE
 62
     7
100
AcDb2dPolyline
 66
     1
 10
0.0
 20
0.0
 30
0.0
  0
VERTEX
  5
24F
330
24E
100
AcDbEntity
  8
STANDARDEBENE
 62
     7
100
AcDbVertex
100
AcDb2dVertex
 10
74.0009765625
 20
243.83203125
 30
0.0
  0
VERTEX
  5
250
330
24E
100
AcDbEntity
  8
STANDARDEBENE
 62
     7
100
AcDbVertex
100
AcDb2dVertex
 10
74.0009765625
 20
244.42919921875
 30
0.0
  0
VERTEX
  5
251
330
24E
100
AcDbEntity
  8
STANDARDEBENE
 62
     7
100
AcDbVertex
100
AcDb2dVertex
 10
74.0009765625
 20
245.109375
 30
0.0
  0
SEQEND
  5
252
330
24E
100
AcDbEntity
  8
STANDARDEBENE
  0
POLYLINE
  5
253
330
1F
100
AcDbEntity
  8
STANDARDEBENE
 62
     7
100
AcDb2dPolyline
 66
     1
 10
0.0
 20
0.0
 30
0.0
  0
VERTEX
  5
254
330
253
100
AcDbEntity
  8
STANDARDEBENE
 62
     7
100
AcDbVertex
100
AcDb2dVertex
 10
26.5205078125
 20
238.04296875
 30
0.0
  0
VERTEX
  5
255
330
253
100
AcDbEntity
  8
STANDARDEBENE
 62
     7
100
AcDbVertex
100
AcDb2dVertex
 10
68.4072265625
 20
243.150390625
 30
0.0
  0
VERTEX
  5
256
330
253
100
AcDbEntity
  8
STANDARDEBENE
 62
     7
100
AcDbVertex
100
AcDb2dVertex
 10
74.0009765625
 20
243.83203125
 30
0.0
  0
SEQEND
  5
257
330
253
100
AcDbEntity
  8
STANDARDEBENE
  0
POLYLINE
  5
258
330
1F
100
AcDbEntity
  8
STANDARDEBENE
 62
     7
100
AcDb2dPolyline
 66
     1
 10
0.0
 20
0.0
 30
0.0
  0
VERTEX
  5
259
330
258
100
AcDbEntity
  8
STANDARDEBENE
 62
     7
100
AcDbVertex
100
AcDb2dVertex
 10
81.630859375
 20
243.21923828125
 30
0.0
  0
VERTEX
  5
25A
330
258
100
AcDbEntity
  8
STANDARDEBENE
 62
     7
100
AcDbVertex
100
AcDb2dVertex
 10
81.2529296875
 20
243.166015625
 30
0.0
  0
VERTEX
  5
25B
330
258
100
AcDbEntity
  8
STANDARDEBENE
 62
     7
100
AcDbVertex
100
AcDb2dVertex
 10
52.7392578125
 20
239.1484375
 30
0.0
  0
VERTEX
  5
25C
330
258
100
AcDbEntity
  8
STANDARDEBENE
 62
     7
100
AcDbVertex
100
AcDb2dVertex
 10
26.5205078125
 20
235.4560546875
 30
0.0
  0
SEQEND
  5
25D
330
258
100
AcDbEntity
  8
STANDARDEBENE
  0
POLYLINE
  5
25E
330
1F
100
AcDbEntity
  8
STANDARDEBENE
 62
     7
100
AcDb2dPolyline
 66
     1
 10
0.0
 20
0.0
 30
0.0
  0
VERTEX
  5
25F
330
25E
100
AcDbEntity
  8
STANDARDEBENE
 62
     7
100
AcDbVertex
100
AcDb2dVertex
 10
81.9853515625
 20
243.21923828125
 30
0.0
  0
VERTEX
  5
260
330
25E
100
AcDbEntity
  8
STANDARDEBENE
 62
     7
100
AcDbVertex
100
AcDb2dVertex
 10
81.828125
 20
243.21923828125
 30
0.0
  0
VERTEX
  5
261
330
25E
100
AcDbEntity
  8
STANDARDEBENE
 62
     7
100
AcDbVertex
100
AcDb2dVertex
 10
81.630859375
 20
243.21923828125
 30
0.0
  0
SEQEND
  5
262
330
25E
100
AcDbEntity
  8
STANDARDEBENE
  0
POLYLINE
  5
263
330
1F
100
AcDbEntity
  8
STANDARDEBENE
 62
     7
100
AcDb2dPolyline
 66
     1
 10
0.0
 20
0.0
 30
0.0
  0
VERTEX
  5
264
330
263
100
AcDbEntity
  8
STANDARDEBENE
 62
     7
100
AcDbVertex
100
AcDb2dVertex
 10
18.8662109375
 20
248.6533203125
 30
0.0
  0
VERTEX
  5
265
330
263
100
AcDbEntity
  8
STANDARDEBENE
 62
     7
100
AcDbVertex
100
AcDb2dVertex
 10
26.5205078125
 20
248.6533203125
 30
0.0
  0
SEQEND
  5
266
330
263
100
AcDbEntity
  8
STANDARDEBENE
  0
POLYLINE
  5
267
330
1F
100
AcDbEntity
  8
STANDARDEBENE
 62
     7
100
AcDb2dPolyline
 66
     1
 10
0.0
 20
0.0
 30
0.0
  0
VERTEX
  5
268
330
267
100
AcDbEntity
  8
STANDARDEBENE
 62
     7
100
AcDbVertex
100
AcDb2dVertex
 10
26.5205078125
 20
243.25341796875
 30
0.0
  0
VERTEX
  5
269
330
267
100
AcDbEntity
  8
STANDARDEBENE
 62
     7
100
AcDbVertex
100
AcDb2dVertex
 10
18.8662109375
 20
243.25341796875
 30
0.0
  0
SEQEND
  5
26A
330
267
100
AcDbEntity
  8
STANDARDEBENE
  0
POLYLINE
  5
26B
330
1F
100
AcDbEntity
  8
STANDARDEBENE
 62
     7
100
AcDb2dPolyline
 66
     1
 10
0.0
 20
0.0
 30
0.0
  0
VERTEX
  5
26C
330
26B
100
AcDbEntity
  8
STANDARDEBENE
 62
     7
100
AcDbVertex
100
AcDb2dVertex
 10
18.251953125
 20
246.38330078125
 30
0.0
  0
VERTEX
  5
26D
330
26B
100
AcDbEntity
  8
STANDARDEBENE
 62
     7
100
AcDbVertex
100
AcDb2dVertex
 10
18.8662109375
 20
246.38330078125
 30
0.0
  0
SEQEND
  5
26E
330
26B
100
AcDbEntity
  8
STANDARDEBENE
  0
POLYLINE
  5
26F
330
1F
100
AcDbEntity
  8
STANDARDEBENE
 62
     7
100
AcDb2dPolyline
 66
     1
 10
0.0
 20
0.0
 30
0.0
  0
VERTEX
  5
270
330
26F
100
AcDbEntity
  8
STANDARDEBENE
 62
     7
100
AcDbVertex
100
AcDb2dVertex
 10
18.251953125
 20
239.318359375
 30
0.0
  0
VERTEX
  5
271
330
26F
100
AcDbEntity
  8
STANDARDEBENE
 62
     7
100
AcDbVertex
100
AcDb2dVertex
 10
18.251953125
 20
242.48046875
 30
0.0
  0
VERTEX
  5
272
330
26F
100
AcDbEntity
  8
STANDARDEBENE
 62
     7
100
AcDbVertex
100
AcDb2dVertex
 10
18.251953125
 20
246.38330078125
 30
0.0
  0
SEQEND
  5
273
330
26F
100
AcDbEntity
  8
STANDARDEBENE
  0
POLYLINE
  5
274
330
1F
100
AcDbEntity
  8
STANDARDEBENE
 62
     7
100
AcDb2dPolyline
 66
     1
 10
0.0
 20
0.0
 30
0.0
  0
VERTEX
  5
275
330
274
100
AcDbEntity
  8
STANDARDEBENE
 62
     7
100
AcDbVertex
100
AcDb2dVertex
 10
18.8662109375
 20
239.318359375
 30
0.0
  0
VERTEX
  5
276
330
274
100
AcDbEntity
  8
STANDARDEBENE
 62
     7
100
AcDbVertex
100
AcDb2dVertex
 10
18.251953125
 20
239.318359375
 30
0.0
  0
SEQEND
  5
277
330
274
100
AcDbEntity
  8
STANDARDEBENE
  0
POLYLINE
  5
278
330
1F
100
AcDbEntity
  8
STANDARDEBENE
 62
     7
100
AcDb2dPolyline
 66
     1
 10
0.0
 20
0.0
 30
0.0
  0
VERTEX
  5
279
330
278
100
AcDbEntity
  8
STANDARDEBENE
 62
     7
100
AcDbVertex
100
AcDb2dVertex
 10
7.52685546875
 20
244.69140625
 30
0.0
  0
VERTEX
  5
27A
330
278
100
AcDbEntity
  8
STANDARDEBENE
 62
     7
100
AcDbVertex
100
AcDb2dVertex
 10
7.52685546875
 20
246.859375
 30
0.0
  0
VERTEX
  5
27B
330
278
100
AcDbEntity
  8
STANDARDEBENE
 62
     7
100
AcDbVertex
100
AcDb2dVertex
 10
7.52685546875
 20
249.4853515625
 30
0.0
  0
VERTEX
  5
27C
330
278
100
AcDbEntity
  8
STANDARDEBENE
 62
     7
100
AcDbVertex
100
AcDb2dVertex
 10
7.52685546875
 20
250.26416015625
 30
0.0
  0
VERTEX
  5
27D
330
278
100
AcDbEntity
  8
STANDARDEBENE
 62
     7
100
AcDbVertex
100
AcDb2dVertex
 10
7.52685546875
 20
251.693359375
 30
0.0
  0
SEQEND
  5
27E
330
278
100
AcDbEntity
  8
STANDARDEBENE
  0
POLYLINE
  5
27F
330
1F
100
AcDbEntity
  8
STANDARDEBENE
 62
     7
100
AcDb2dPolyline
 66
     1
 10
0.0
 20
0.0
 30
0.0
  0
VERTEX
  5
280
330
27F
100
AcDbEntity
  8
STANDARDEBENE
 62
     7
100
AcDbVertex
100
AcDb2dVertex
 10
7.52685546875
 20
249.4853515625
 30
0.0
  0
VERTEX
  5
281
330
27F
100
AcDbEntity
  8
STANDARDEBENE
 62
     7
100
AcDbVertex
100
AcDb2dVertex
 10
18.251953125
 20
246.38330078125
 30
0.0
  0
SEQEND
  5
282
330
27F
100
AcDbEntity
  8
STANDARDEBENE
  0
POLYLINE
  5
283
330
1F
100
AcDbEntity
  8
STANDARDEBENE
 62
     7
100
AcDb2dPolyline
 66
     1
 10
0.0
 20
0.0
 30
0.0
  0
VERTEX
  5
284
330
283
100
AcDbEntity
  8
STANDARDEBENE
 62
     7
100
AcDbVertex
100
AcDb2dVertex
 10
18.251953125
 20
239.318359375
 30
0.0
  0
VERTEX
  5
285
330
283
100
AcDbEntity
  8
STANDARDEBENE
 62
     7
100
AcDbVertex
100
AcDb2dVertex
 10
7.52685546875
 20
244.69140625
 30
0.0
  0
SEQEND
  5
286
330
283
100
AcDbEntity
  8
STANDARDEBENE
  0
POLYLINE
  5
287
330
1F
100
AcDbEntity
  8
STANDARDEBENE
 62
     7
100
AcDb2dPolyline
 66
     1
 10
0.0
 20
0.0
 30
0.0
  0
VERTEX
  5
288
330
287
100
AcDbEntity
  8
STANDARDEBENE
 62
     7
100
AcDbVertex
100
AcDb2dVertex
 10
7.52685546875
 20
250.26416015625
 30
0.0
  0
VERTEX
  5
289
330
287
100
AcDbEntity
  8
STANDARDEBENE
 62
     7
100
AcDbVertex
100
AcDb2dVertex
 10
12.4736328125
 20
250.26416015625
 30
0.0
  0
SEQEND
  5
28A
330
287
100
AcDbEntity
  8
STANDARDEBENE
  0
POLYLINE
  5
28B
330
1F
100
AcDbEntity
  8
STANDARDEBENE
 62
     7
100
AcDb2dPolyline
 66
     1
 10
0.0
 20
0.0
 30
0.0
  0
VERTEX
  5
28C
330
28B
100
AcDbEntity
  8
STANDARDEBENE
 62
     7
100
AcDbVertex
100
AcDb2dVertex
 10
18.8662109375
 20
250.26416015625
 30
0.0
  0
VERTEX
  5
28D
330
28B
100
AcDbEntity
  8
STANDARDEBENE
 62
     7
100
AcDbVertex
100
AcDb2dVertex
 10
26.5205078125
 20
250.26416015625
 30
0.0
  0
SEQEND
  5
28E
330
28B
100
AcDbEntity
  8
STANDARDEBENE
  0
POLYLINE
  5
28F
330
1F
100
AcDbEntity
  8
STANDARDEBENE
 62
     7
100
AcDb2dPolyline
 66
     1
 10
0.0
 20
0.0
 30
0.0
  0
VERTEX
  5
290
330
28F
100
AcDbEntity
  8
STANDARDEBENE
 62
     7
100
AcDbVertex
100
AcDb2dVertex
 10
50.2646484375
 20
250.26416015625
 30
0.0
  0
VERTEX
  5
291
330
28F
100
AcDbEntity
  8
STANDARDEBENE
 62
     7
100
AcDbVertex
100
AcDb2dVertex
 10
81.630859375
 20
250.26416015625
 30
0.0
  0
SEQEND
  5
292
330
28F
100
AcDbEntity
  8
STANDARDEBENE
  0
POLYLINE
  5
293
330
1F
100
AcDbEntity
  8
STANDARDEBENE
 62
     7
100
AcDb2dPolyline
 66
     1
 10
0.0
 20
0.0
 30
0.0
  0
VERTEX
  5
294
330
293
100
AcDbEntity
  8
STANDARDEBENE
 62
     7
100
AcDbVertex
100
AcDb2dVertex
 10
7.52685546875
 20
268.7724609375
 30
0.0
  0
VERTEX
  5
295
330
293
100
AcDbEntity
  8
STANDARDEBENE
 62
     7
100
AcDbVertex
100
AcDb2dVertex
 10
12.4736328125
 20
268.7724609375
 30
0.0
  0
SEQEND
  5
296
330
293
100
AcDbEntity
  8
STANDARDEBENE
  0
POLYLINE
  5
297
330
1F
100
AcDbEntity
  8
STANDARDEBENE
 62
     7
100
AcDb2dPolyline
 66
     1
 10
0.0
 20
0.0
 30
0.0
  0
VERTEX
  5
298
330
297
100
AcDbEntity
  8
STANDARDEBENE
 62
     7
100
AcDbVertex
100
AcDb2dVertex
 10
18.8662109375
 20
268.7724609375
 30
0.0
  0
VERTEX
  5
299
330
297
100
AcDbEntity
  8
STANDARDEBENE
 62
     7
100
AcDbVertex
100
AcDb2dVertex
 10
26.5205078125
 20
268.7724609375
 30
0.0
  0
SEQEND
  5
29A
330
297
100
AcDbEntity
  8
STANDARDEBENE
  0
POLYLINE
  5
29B
330
1F
100
AcDbEntity
  8
STANDARDEBENE
 62
     7
100
AcDb2dPolyline
 66
     1
 10
0.0
 20
0.0
 30
0.0
  0
VERTEX
  5
29C
330
29B
100
AcDbEntity
  8
STANDARDEBENE
 62
     7
100
AcDbVertex
100
AcDb2dVertex
 10
50.259765625
 20
268.7724609375
 30
0.0
  0
VERTEX
  5
29D
330
29B
100
AcDbEntity
  8
STANDARDEBENE
 62
     7
100
AcDbVertex
100
AcDb2dVertex
 10
81.630859375
 20
268.7724609375
 30
0.0
  0
SEQEND
  5
29E
330
29B
100
AcDbEntity
  8
STANDARDEBENE
  0
POLYLINE
  5
2A0
330
1F
100
AcDbEntity
  8
BEMAßUNG
 62
     7
100
AcDb2dPolyline
 66
     1
 10
0.0
 20
0.0
 30
0.0
  0
VERTEX
  5
2A1
330
2A0
100
AcDbEntity
  8
BEMAßUNG
 62
     7
100
AcDbVertex
100
AcDb2dVertex
 10
85.48046875
 20
275.326171875
 30
0.0
  0
VERTEX
  5
2A2
330
2A0
100
AcDbEntity
  8
BEMAßUNG
 62
     7
100
AcDbVertex
100
AcDb2dVertex
 10
85.48046875
 20
202.751953125
 30
0.0
  0
SEQEND
  5
2A3
330
2A0
100
AcDbEntity
  8
BEMAßUNG
  0
POLYLINE
  5
2A4
330
1F
100
AcDbEntity
  8
BEMAßUNG
 62
     7
100
AcDb2dPolyline
 66
     1
 10
0.0
 20
0.0
 30
0.0
  0
VERTEX
  5
2A5
330
2A4
100
AcDbEntity
  8
BEMAßUNG
 62
     7
100
AcDbVertex
100
AcDb2dVertex
 10
7.52685546875
 20
274.34521484375
 30
0.0
  0
VERTEX
  5
2A6
330
2A4
100
AcDbEntity
  8
BEMAßUNG
 62
     7
100
AcDbVertex
100
AcDb2dVertex
 10
7.52685546875
 20
202.751953125
 30
0.0
  0
SEQEND
  5
2A7
330
2A4
100
AcDbEntity
  8
BEMAßUNG
  0
POLYLINE
  5
2A8
330
1F
100
AcDbEntity
  8
BEMAßUNG
 62
     7
100
AcDb2dPolyline
 66
     1
 10
0.0
 20
0.0
 30
0.0
  0
VERTEX
  5
2A9
330
2A8
100
AcDbEntity
  8
BEMAßUNG
 62
     7
100
AcDbVertex
100
AcDb2dVertex
 10
85.48046875
 20
207.181640625
 30
0.0
  0
VERTEX
  5
2AA
330
2A8
100
AcDbEntity
  8
BEMAßUNG
 62
     7
100
AcDbVertex
100
AcDb2dVertex
 10
7.52685546875
 20
207.181640625
 30
0.0
  0
SEQEND
  5
2AB
330
2A8
100
AcDbEntity
  8
BEMAßUNG
  0
POLYLINE
  5
2AC
330
1F
100
AcDbEntity
  8
BEMAßUNG
 62
     7
100
AcDb2dPolyline
 66
     1
 10
0.0
 20
0.0
 30
0.0
  0
VERTEX
  5
2AD
330
2AC
100
AcDbEntity
  8
BEMAßUNG
 62
     7
100
AcDbVertex
100
AcDb2dVertex
 10
85.48046875
 20
207.181640625
 30
0.0
  0
VERTEX
  5
2AE
330
2AC
100
AcDbEntity
  8
BEMAßUNG
 62
     7
100
AcDbVertex
100
AcDb2dVertex
 10
78.3935546875
 20
208.1142578125
 30
0.0
  0
VERTEX
  5
2AF
330
2AC
100
AcDbEntity
  8
BEMAßUNG
 62
     7
100
AcDbVertex
100
AcDb2dVertex
 10
78.3935546875
 20
206.248046875
 30
0.0
  0
VERTEX
  5
2B0
330
2AC
100
AcDbEntity
  8
BEMAßUNG
 62
     7
100
AcDbVertex
100
AcDb2dVertex
 10
85.48046875
 20
207.181640625
 30
0.0
  0
SEQEND
  5
2B1
330
2AC
100
AcDbEntity
  8
BEMAßUNG
  0
POLYLINE
  5
2B2
330
1F
100
AcDbEntity
  8
BEMAßUNG
 62
     7
100
AcDb2dPolyline
 66
     1
 10
0.0
 20
0.0
 30
0.0
  0
VERTEX
  5
2B3
330
2B2
100
AcDbEntity
  8
BEMAßUNG
 62
     7
100
AcDbVertex
100
AcDb2dVertex
 10
78.3935546875
 20
208.046875
 30
0.0
  0
VERTEX
  5
2B4
330
2B2
100
AcDbEntity
  8
BEMAßUNG
 62
     7
100
AcDbVertex
100
AcDb2dVertex
 10
78.9189453125
 20
208.046875
 30
0.0
  0
SEQEND
  5
2B5
330
2B2
100
AcDbEntity
  8
BEMAßUNG
  0
POLYLINE
  5
2B6
330
1F
100
AcDbEntity
  8
BEMAßUNG
 62
     7
100
AcDb2dPolyline
 66
     1
 10
0.0
 20
0.0
 30
0.0
  0
VERTEX
  5
2B7
330
2B6
100
AcDbEntity
  8
BEMAßUNG
 62
     7
100
AcDbVertex
100
AcDb2dVertex
 10
78.3935546875
 20
208.046875
 30
0.0
  0
VERTEX
  5
2B8
330
2B6
100
AcDbEntity
  8
BEMAßUNG
 62
     7
100
AcDbVertex
100
AcDb2dVertex
 10
78.9189453125
 20
208.046875
 30
0.0
  0
SEQEND
  5
2B9
330
2B6
100
AcDbEntity
  8
BEMAßUNG
  0
POLYLINE
  5
2BA
330
1F
100
AcDbEntity
  8
BEMAßUNG
 62
     7
100
AcDb2dPolyline
 66
     1
 10
0.0
 20
0.0
 30
0.0
  0
VERTEX
  5
2BB
330
2BA
100
AcDbEntity
  8
BEMAßUNG
 62
     7
100
AcDbVertex
100
AcDb2dVertex
 10
78.3935546875
 20
207.90234375
 30
0.0
  0
VERTEX
  5
2BC
330
2BA
100
AcDbEntity
  8
BEMAßUNG
 62
     7
100
AcDbVertex
100
AcDb2dVertex
 10
80.01171875
 20
207.90234375
 30
0.0
  0
SEQEND
  5
2BD
330
2BA
100
AcDbEntity
  8
BEMAßUNG
  0
POLYLINE
  5
2BE
330
1F
100
AcDbEntity
  8
BEMAßUNG
 62
     7
100
AcDb2dPolyline
 66
     1
 10
0.0
 20
0.0
 30
0.0
  0
VERTEX
  5
2BF
330
2BE
100
AcDbEntity
  8
BEMAßUNG
 62
     7
100
AcDbVertex
100
AcDb2dVertex
 10
78.3935546875
 20
207.7568359375
 30
0.0
  0
VERTEX
  5
2C0
330
2BE
100
AcDbEntity
  8
BEMAßUNG
 62
     7
100
AcDbVertex
100
AcDb2dVertex
 10
81.10546875
 20
207.7568359375
 30
0.0
  0
SEQEND
  5
2C1
330
2BE
100
AcDbEntity
  8
BEMAßUNG
  0
POLYLINE
  5
2C2
330
1F
100
AcDbEntity
  8
BEMAßUNG
 62
     7
100
AcDb2dPolyline
 66
     1
 10
0.0
 20
0.0
 30
0.0
  0
VERTEX
  5
2C3
330
2C2
100
AcDbEntity
  8
BEMAßUNG
 62
     7
100
AcDbVertex
100
AcDb2dVertex
 10
78.3935546875
 20
207.6142578125
 30
0.0
  0
VERTEX
  5
2C4
330
2C2
100
AcDbEntity
  8
BEMAßUNG
 62
     7
100
AcDbVertex
100
AcDb2dVertex
 10
82.1982421875
 20
207.6142578125
 30
0.0
  0
SEQEND
  5
2C5
330
2C2
100
AcDbEntity
  8
BEMAßUNG
  0
POLYLINE
  5
2C6
330
1F
100
AcDbEntity
  8
BEMAßUNG
 62
     7
100
AcDb2dPolyline
 66
     1
 10
0.0
 20
0.0
 30
0.0
  0
VERTEX
  5
2C7
330
2C6
100
AcDbEntity
  8
BEMAßUNG
 62
     7
100
AcDbVertex
100
AcDb2dVertex
 10
78.3935546875
 20
207.46875
 30
0.0
  0
VERTEX
  5
2C8
330
2C6
100
AcDbEntity
  8
BEMAßUNG
 62
     7
100
AcDbVertex
100
AcDb2dVertex
 10
83.2939453125
 20
207.46875
 30
0.0
  0
SEQEND
  5
2C9
330
2C6
100
AcDbEntity
  8
BEMAßUNG
  0
POLYLINE
  5
2CA
330
1F
100
AcDbEntity
  8
BEMAßUNG
 62
     7
100
AcDb2dPolyline
 66
     1
 10
0.0
 20
0.0
 30
0.0
  0
VERTEX
  5
2CB
330
2CA
100
AcDbEntity
  8
BEMAßUNG
 62
     7
100
AcDbVertex
100
AcDb2dVertex
 10
78.3935546875
 20
207.326171875
 30
0.0
  0
VERTEX
  5
2CC
330
2CA
100
AcDbEntity
  8
BEMAßUNG
 62
     7
100
AcDbVertex
100
AcDb2dVertex
 10
84.38671875
 20
207.326171875
 30
0.0
  0
SEQEND
  5
2CD
330
2CA
100
AcDbEntity
  8
BEMAßUNG
  0
POLYLINE
  5
2CE
330
1F
100
AcDbEntity
  8
BEMAßUNG
 62
     7
100
AcDb2dPolyline
 66
     1
 10
0.0
 20
0.0
 30
0.0
  0
VERTEX
  5
2CF
330
2CE
100
AcDbEntity
  8
BEMAßUNG
 62
     7
100
AcDbVertex
100
AcDb2dVertex
 10
78.3935546875
 20
207.181640625
 30
0.0
  0
VERTEX
  5
2D0
330
2CE
100
AcDbEntity
  8
BEMAßUNG
 62
     7
100
AcDbVertex
100
AcDb2dVertex
 10
85.48046875
 20
207.181640625
 30
0.0
  0
SEQEND
  5
2D1
330
2CE
100
AcDbEntity
  8
BEMAßUNG
  0
POLYLINE
  5
2D2
330
1F
100
AcDbEntity
  8
BEMAßUNG
 62
     7
100
AcDb2dPolyline
 66
     1
 10
0.0
 20
0.0
 30
0.0
  0
VERTEX
  5
2D3
330
2D2
100
AcDbEntity
  8
BEMAßUNG
 62
     7
100
AcDbVertex
100
AcDb2dVertex
 10
78.3935546875
 20
206.3173828125
 30
0.0
  0
VERTEX
  5
2D4
330
2D2
100
AcDbEntity
  8
BEMAßUNG
 62
     7
100
AcDbVertex
100
AcDb2dVertex
 10
78.9189453125
 20
206.3173828125
 30
0.0
  0
SEQEND
  5
2D5
330
2D2
100
AcDbEntity
  8
BEMAßUNG
  0
POLYLINE
  5
2D6
330
1F
100
AcDbEntity
  8
BEMAßUNG
 62
     7
100
AcDb2dPolyline
 66
     1
 10
0.0
 20
0.0
 30
0.0
  0
VERTEX
  5
2D7
330
2D6
100
AcDbEntity
  8
BEMAßUNG
 62
     7
100
AcDbVertex
100
AcDb2dVertex
 10
78.3935546875
 20
206.3173828125
 30
0.0
  0
VERTEX
  5
2D8
330
2D6
100
AcDbEntity
  8
BEMAßUNG
 62
     7
100
AcDbVertex
100
AcDb2dVertex
 10
78.9189453125
 20
206.3173828125
 30
0.0
  0
SEQEND
  5
2D9
330
2D6
100
AcDbEntity
  8
BEMAßUNG
  0
POLYLINE
  5
2DA
330
1F
100
AcDbEntity
  8
BEMAßUNG
 62
     7
100
AcDb2dPolyline
 66
     1
 10
0.0
 20
0.0
 30
0.0
  0
VERTEX
  5
2DB
330
2DA
100
AcDbEntity
  8
BEMAßUNG
 62
     7
100
AcDbVertex
100
AcDb2dVertex
 10
78.3935546875
 20
206.4599609375
 30
0.0
  0
VERTEX
  5
2DC
330
2DA
100
AcDbEntity
  8
BEMAßUNG
 62
     7
100
AcDbVertex
100
AcDb2dVertex
 10
80.01171875
 20
206.4599609375
 30
0.0
  0
SEQEND
  5
2DD
330
2DA
100
AcDbEntity
  8
BEMAßUNG
  0
POLYLINE
  5
2DE
330
1F
100
AcDbEntity
  8
BEMAßUNG
 62
     7
100
AcDb2dPolyline
 66
     1
 10
0.0
 20
0.0
 30
0.0
  0
VERTEX
  5
2DF
330
2DE
100
AcDbEntity
  8
BEMAßUNG
 62
     7
100
AcDbVertex
100
AcDb2dVertex
 10
78.3935546875
 20
206.60546875
 30
0.0
  0
VERTEX
  5
2E0
330
2DE
100
AcDbEntity
  8
BEMAßUNG
 62
     7
100
AcDbVertex
100
AcDb2dVertex
 10
81.10546875
 20
206.60546875
 30
0.0
  0
SEQEND
  5
2E1
330
2DE
100
AcDbEntity
  8
BEMAßUNG
  0
POLYLINE
  5
2E2
330
1F
100
AcDbEntity
  8
BEMAßUNG
 62
     7
100
AcDb2dPolyline
 66
     1
 10
0.0
 20
0.0
 30
0.0
  0
VERTEX
  5
2E3
330
2E2
100
AcDbEntity
  8
BEMAßUNG
 62
     7
100
AcDbVertex
100
AcDb2dVertex
 10
78.3935546875
 20
206.748046875
 30
0.0
  0
VERTEX
  5
2E4
330
2E2
100
AcDbEntity
  8
BEMAßUNG
 62
     7
100
AcDbVertex
100
AcDb2dVertex
 10
82.1982421875
 20
206.748046875
 30
0.0
  0
SEQEND
  5
2E5
330
2E2
100
AcDbEntity
  8
BEMAßUNG
  0
POLYLINE
  5
2E6
330
1F
100
AcDbEntity
  8
BEMAßUNG
 62
     7
100
AcDb2dPolyline
 66
     1
 10
0.0
 20
0.0
 30
0.0
  0
VERTEX
  5
2E7
330
2E6
100
AcDbEntity
  8
BEMAßUNG
 62
     7
100
AcDbVertex
100
AcDb2dVertex
 10
78.3935546875
 20
206.8935546875
 30
0.0
  0
VERTEX
  5
2E8
330
2E6
100
AcDbEntity
  8
BEMAßUNG
 62
     7
100
AcDbVertex
100
AcDb2dVertex
 10
83.2939453125
 20
206.8935546875
 30
0.0
  0
SEQEND
  5
2E9
330
2E6
100
AcDbEntity
  8
BEMAßUNG
  0
POLYLINE
  5
2EA
330
1F
100
AcDbEntity
  8
BEMAßUNG
 62
     7
100
AcDb2dPolyline
 66
     1
 10
0.0
 20
0.0
 30
0.0
  0
VERTEX
  5
2EB
330
2EA
100
AcDbEntity
  8
BEMAßUNG
 62
     7
100
AcDbVertex
100
AcDb2dVertex
 10
78.3935546875
 20
207.0361328125
 30
0.0
  0
VERTEX
  5
2EC
330
2EA
100
AcDbEntity
  8
BEMAßUNG
 62
     7
100
AcDbVertex
100
AcDb2dVertex
 10
84.38671875
 20
207.0361328125
 30
0.0
  0
SEQEND
  5
2ED
330
2EA
100
AcDbEntity
  8
BEMAßUNG
  0
POLYLINE
  5
2EE
330
1F
100
AcDbEntity
  8
BEMAßUNG
 62
     7
100
AcDb2dPolyline
 66
     1
 10
0.0
 20
0.0
 30
0.0
  0
VERTEX
  5
2EF
330
2EE
100
AcDbEntity
  8
BEMAßUNG
 62
     7
100
AcDbVertex
100
AcDb2dVertex
 10
78.3935546875
 20
207.181640625
 30
0.0
  0
VERTEX
  5
2F0
330
2EE
100
AcDbEntity
  8
BEMAßUNG
 62
     7
100
AcDbVertex
100
AcDb2dVertex
 10
85.48046875
 20
207.181640625
 30
0.0
  0
SEQEND
  5
2F1
330
2EE
100
AcDbEntity
  8
BEMAßUNG
  0
POLYLINE
  5
2F2
330
1F
100
AcDbEntity
  8
BEMAßUNG
 62
     7
100
AcDb2dPolyline
 66
     1
 10
0.0
 20
0.0
 30
0.0
  0
VERTEX
  5
2F3
330
2F2
100
AcDbEntity
  8
BEMAßUNG
 62
     7
100
AcDbVertex
100
AcDb2dVertex
 10
7.52685546875
 20
207.181640625
 30
0.0
  0
VERTEX
  5
2F4
330
2F2
100
AcDbEntity
  8
BEMAßUNG
 62
     7
100
AcDbVertex
100
AcDb2dVertex
 10
14.615234375
 20
206.248046875
 30
0.0
  0
VERTEX
  5
2F5
330
2F2
100
AcDbEntity
  8
BEMAßUNG
 62
     7
100
AcDbVertex
100
AcDb2dVertex
 10
14.615234375
 20
208.1142578125
 30
0.0
  0
VERTEX
  5
2F6
330
2F2
100
AcDbEntity
  8
BEMAßUNG
 62
     7
100
AcDbVertex
100
AcDb2dVertex
 10
7.52685546875
 20
207.181640625
 30
0.0
  0
SEQEND
  5
2F7
330
2F2
100
AcDbEntity
  8
BEMAßUNG
  0
POLYLINE
  5
2F8
330
1F
100
AcDbEntity
  8
BEMAßUNG
 62
     7
100
AcDb2dPolyline
 66
     1
 10
0.0
 20
0.0
 30
0.0
  0
VERTEX
  5
2F9
330
2F8
100
AcDbEntity
  8
BEMAßUNG
 62
     7
100
AcDbVertex
100
AcDb2dVertex
 10
14.615234375
 20
206.3173828125
 30
0.0
  0
VERTEX
  5
2FA
330
2F8
100
AcDbEntity
  8
BEMAßUNG
 62
     7
100
AcDbVertex
100
AcDb2dVertex
 10
14.0908203125
 20
206.3173828125
 30
0.0
  0
SEQEND
  5
2FB
330
2F8
100
AcDbEntity
  8
BEMAßUNG
  0
POLYLINE
  5
2FC
330
1F
100
AcDbEntity
  8
BEMAßUNG
 62
     7
100
AcDb2dPolyline
 66
     1
 10
0.0
 20
0.0
 30
0.0
  0
VERTEX
  5
2FD
330
2FC
100
AcDbEntity
  8
BEMAßUNG
 62
     7
100
AcDbVertex
100
AcDb2dVertex
 10
14.615234375
 20
206.3173828125
 30
0.0
  0
VERTEX
  5
2FE
330
2FC
100
AcDbEntity
  8
BEMAßUNG
 62
     7
100
AcDbVertex
100
AcDb2dVertex
 10
14.0908203125
 20
206.3173828125
 30
0.0
  0
SEQEND
  5
2FF
330
2FC
100
AcDbEntity
  8
BEMAßUNG
  0
POLYLINE
  5
300
330
1F
100
AcDbEntity
  8
BEMAßUNG
 62
     7
100
AcDb2dPolyline
 66
     1
 10
0.0
 20
0.0
 30
0.0
  0
VERTEX
  5
301
330
300
100
AcDbEntity
  8
BEMAßUNG
 62
     7
100
AcDbVertex
100
AcDb2dVertex
 10
14.615234375
 20
206.4599609375
 30
0.0
  0
VERTEX
  5
302
330
300
100
AcDbEntity
  8
BEMAßUNG
 62
     7
100
AcDbVertex
100
AcDb2dVertex
 10
12.99609375
 20
206.4599609375
 30
0.0
  0
SEQEND
  5
303
330
300
100
AcDbEntity
  8
BEMAßUNG
  0
POLYLINE
  5
304
330
1F
100
AcDbEntity
  8
BEMAßUNG
 62
     7
100
AcDb2dPolyline
 66
     1
 10
0.0
 20
0.0
 30
0.0
  0
VERTEX
  5
305
330
304
100
AcDbEntity
  8
BEMAßUNG
 62
     7
100
AcDbVertex
100
AcDb2dVertex
 10
14.615234375
 20
206.60546875
 30
0.0
  0
VERTEX
  5
306
330
304
100
AcDbEntity
  8
BEMAßUNG
 62
     7
100
AcDbVertex
100
AcDb2dVertex
 10
11.9013671875
 20
206.60546875
 30
0.0
  0
SEQEND
  5
307
330
304
100
AcDbEntity
  8
BEMAßUNG
  0
POLYLINE
  5
308
330
1F
100
AcDbEntity
  8
BEMAßUNG
 62
     7
100
AcDb2dPolyline
 66
     1
 10
0.0
 20
0.0
 30
0.0
  0
VERTEX
  5
309
330
308
100
AcDbEntity
  8
BEMAßUNG
 62
     7
100
AcDbVertex
100
AcDb2dVertex
 10
14.615234375
 20
206.748046875
 30
0.0
  0
VERTEX
  5
30A
330
308
100
AcDbEntity
  8
BEMAßUNG
 62
     7
100
AcDbVertex
100
AcDb2dVertex
 10
10.80908203125
 20
206.748046875
 30
0.0
  0
SEQEND
  5
30B
330
308
100
AcDbEntity
  8
BEMAßUNG
  0
POLYLINE
  5
30C
330
1F
100
AcDbEntity
  8
BEMAßUNG
 62
     7
100
AcDb2dPolyline
 66
     1
 10
0.0
 20
0.0
 30
0.0
  0
VERTEX
  5
30D
330
30C
100
AcDbEntity
  8
BEMAßUNG
 62
     7
100
AcDbVertex
100
AcDb2dVertex
 10
14.615234375
 20
206.8935546875
 30
0.0
  0
VERTEX
  5
30E
330
30C
100
AcDbEntity
  8
BEMAßUNG
 62
     7
100
AcDbVertex
100
AcDb2dVertex
 10
9.7158203125
 20
206.8935546875
 30
0.0
  0
SEQEND
  5
30F
330
30C
100
AcDbEntity
  8
BEMAßUNG
  0
POLYLINE
  5
310
330
1F
100
AcDbEntity
  8
BEMAßUNG
 62
     7
100
AcDb2dPolyline
 66
     1
 10
0.0
 20
0.0
 30
0.0
  0
VERTEX
  5
311
330
310
100
AcDbEntity
  8
BEMAßUNG
 62
     7
100
AcDbVertex
100
AcDb2dVertex
 10
14.615234375
 20
207.0361328125
 30
0.0
  0
VERTEX
  5
312
330
310
100
AcDbEntity
  8
BEMAßUNG
 62
     7
100
AcDbVertex
100
AcDb2dVertex
 10
8.62109375
 20
207.0361328125
 30
0.0
  0
SEQEND
  5
313
330
310
100
AcDbEntity
  8
BEMAßUNG
  0
POLYLINE
  5
314
330
1F
100
AcDbEntity
  8
BEMAßUNG
 62
     7
100
AcDb2dPolyline
 66
     1
 10
0.0
 20
0.0
 30
0.0
  0
VERTEX
  5
315
330
314
100
AcDbEntity
  8
BEMAßUNG
 62
     7
100
AcDbVertex
100
AcDb2dVertex
 10
14.615234375
 20
207.181640625
 30
0.0
  0
VERTEX
  5
316
330
314
100
AcDbEntity
  8
BEMAßUNG
 62
     7
100
AcDbVertex
100
AcDb2dVertex
 10
7.52685546875
 20
207.181640625
 30
0.0
  0
SEQEND
  5
317
330
314
100
AcDbEntity
  8
BEMAßUNG
  0
POLYLINE
  5
318
330
1F
100
AcDbEntity
  8
BEMAßUNG
 62
     7
100
AcDb2dPolyline
 66
     1
 10
0.0
 20
0.0
 30
0.0
  0
VERTEX
  5
319
330
318
100
AcDbEntity
  8
BEMAßUNG
 62
     7
100
AcDbVertex
100
AcDb2dVertex
 10
14.615234375
 20
208.046875
 30
0.0
  0
VERTEX
  5
31A
330
318
100
AcDbEntity
  8
BEMAßUNG
 62
     7
100
AcDbVertex
100
AcDb2dVertex
 10
14.0908203125
 20
208.046875
 30
0.0
  0
SEQEND
  5
31B
330
318
100
AcDbEntity
  8
BEMAßUNG
  0
POLYLINE
  5
31C
330
1F
100
AcDbEntity
  8
BEMAßUNG
 62
     7
100
AcDb2dPolyline
 66
     1
 10
0.0
 20
0.0
 30
0.0
  0
VERTEX
  5
31D
330
31C
100
AcDbEntity
  8
BEMAßUNG
 62
     7
100
AcDbVertex
100
AcDb2dVertex
 10
14.615234375
 20
208.046875
 30
0.0
  0
VERTEX
  5
31E
330
31C
100
AcDbEntity
  8
BEMAßUNG
 62
     7
100
AcDbVertex
100
AcDb2dVertex
 10
14.0908203125
 20
208.046875
 30
0.0
  0
SEQEND
  5
31F
330
31C
100
AcDbEntity
  8
BEMAßUNG
  0
POLYLINE
  5
320
330
1F
100
AcDbEntity
  8
BEMAßUNG
 62
     7
100
AcDb2dPolyline
 66
     1
 10
0.0
 20
0.0
 30
0.0
  0
VERTEX
  5
321
330
320
100
AcDbEntity
  8
BEMAßUNG
 62
     7
100
AcDbVertex
100
AcDb2dVertex
 10
14.615234375
 20
207.90234375
 30
0.0
  0
VERTEX
  5
322
330
320
100
AcDbEntity
  8
BEMAßUNG
 62
     7
100
AcDbVertex
100
AcDb2dVertex
 10
12.99609375
 20
207.90234375
 30
0.0
  0
SEQEND
  5
323
330
320
100
AcDbEntity
  8
BEMAßUNG
  0
POLYLINE
  5
324
330
1F
100
AcDbEntity
  8
BEMAßUNG
 62
     7
100
AcDb2dPolyline
 66
     1
 10
0.0
 20
0.0
 30
0.0
  0
VERTEX
  5
325
330
324
100
AcDbEntity
  8
BEMAßUNG
 62
     7
100
AcDbVertex
100
AcDb2dVertex
 10
14.615234375
 20
207.7568359375
 30
0.0
  0
VERTEX
  5
326
330
324
100
AcDbEntity
  8
BEMAßUNG
 62
     7
100
AcDbVertex
100
AcDb2dVertex
 10
11.9013671875
 20
207.7568359375
 30
0.0
  0
SEQEND
  5
327
330
324
100
AcDbEntity
  8
BEMAßUNG
  0
POLYLINE
  5
328
330
1F
100
AcDbEntity
  8
BEMAßUNG
 62
     7
100
AcDb2dPolyline
 66
     1
 10
0.0
 20
0.0
 30
0.0
  0
VERTEX
  5
329
330
328
100
AcDbEntity
  8
BEMAßUNG
 62
     7
100
AcDbVertex
100
AcDb2dVertex
 10
14.615234375
 20
207.6142578125
 30
0.0
  0
VERTEX
  5
32A
330
328
100
AcDbEntity
  8
BEMAßUNG
 62
     7
100
AcDbVertex
100
AcDb2dVertex
 10
10.80908203125
 20
207.6142578125
 30
0.0
  0
SEQEND
  5
32B
330
328
100
AcDbEntity
  8
BEMAßUNG
  0
POLYLINE
  5
32C
330
1F
100
AcDbEntity
  8
BEMAßUNG
 62
     7
100
AcDb2dPolyline
 66
     1
 10
0.0
 20
0.0
 30
0.0
  0
VERTEX
  5
32D
330
32C
100
AcDbEntity
  8
BEMAßUNG
 62
     7
100
AcDbVertex
100
AcDb2dVertex
 10
14.615234375
 20
207.46875
 30
0.0
  0
VERTEX
  5
32E
330
32C
100
AcDbEntity
  8
BEMAßUNG
 62
     7
100
AcDbVertex
100
AcDb2dVertex
 10
9.7158203125
 20
207.46875
 30
0.0
  0
SEQEND
  5
32F
330
32C
100
AcDbEntity
  8
BEMAßUNG
  0
POLYLINE
  5
330
330
1F
100
AcDbEntity
  8
BEMAßUNG
 62
     7
100
AcDb2dPolyline
 66
     1
 10
0.0
 20
0.0
 30
0.0
  0
VERTEX
  5
331
330
330
100
AcDbEntity
  8
BEMAßUNG
 62
     7
100
AcDbVertex
100
AcDb2dVertex
 10
14.615234375
 20
207.326171875
 30
0.0
  0
VERTEX
  5
332
330
330
100
AcDbEntity
  8
BEMAßUNG
 62
     7
100
AcDbVertex
100
AcDb2dVertex
 10
8.62109375
 20
207.326171875
 30
0.0
  0
SEQEND
  5
333
330
330
100
AcDbEntity
  8
BEMAßUNG
  0
POLYLINE
  5
334
330
1F
100
AcDbEntity
  8
BEMAßUNG
 62
     7
100
AcDb2dPolyline
 66
     1
 10
0.0
 20
0.0
 30
0.0
  0
VERTEX
  5
335
330
334
100
AcDbEntity
  8
BEMAßUNG
 62
     7
100
AcDbVertex
100
AcDb2dVertex
 10
14.615234375
 20
207.181640625
 30
0.0
  0
VERTEX
  5
336
330
334
100
AcDbEntity
  8
BEMAßUNG
 62
     7
100
AcDbVertex
100
AcDb2dVertex
 10
7.52685546875
 20
207.181640625
 30
0.0
  0
SEQEND
  5
337
330
334
100
AcDbEntity
  8
BEMAßUNG
  0
POLYLINE
  5
338
330
1F
100
AcDbEntity
  8
BEMAßUNG
 62
     7
100
AcDb2dPolyline
 66
     1
 10
0.0
 20
0.0
 30
0.0
  0
VERTEX
  5
339
330
338
100
AcDbEntity
  8
BEMAßUNG
 62
     7
100
AcDbVertex
100
AcDb2dVertex
 10
18.251953125
 20
235.42236328125
 30
0.0
  0
VERTEX
  5
33A
330
338
100
AcDbEntity
  8
BEMAßUNG
 62
     7
100
AcDbVertex
100
AcDb2dVertex
 10
-56.642578125
 20
235.42236328125
 30
0.0
  0
SEQEND
  5
33B
330
338
100
AcDbEntity
  8
BEMAßUNG
  0
POLYLINE
  5
33C
330
1F
100
AcDbEntity
  8
BEMAßUNG
 62
     7
100
AcDb2dPolyline
 66
     1
 10
0.0
 20
0.0
 30
0.0
  0
VERTEX
  5
33D
330
33C
100
AcDbEntity
  8
BEMAßUNG
 62
     7
100
AcDbVertex
100
AcDb2dVertex
 10
18.251953125
 20
283.611328125
 30
0.0
  0
VERTEX
  5
33E
330
33C
100
AcDbEntity
  8
BEMAßUNG
 62
     7
100
AcDbVertex
100
AcDb2dVertex
 10
-56.642578125
 20
283.611328125
 30
0.0
  0
SEQEND
  5
33F
330
33C
100
AcDbEntity
  8
BEMAßUNG
  0
POLYLINE
  5
340
330
1F
100
AcDbEntity
  8
BEMAßUNG
 62
     7
100
AcDb2dPolyline
 66
     1
 10
0.0
 20
0.0
 30
0.0
  0
VERTEX
  5
341
330
340
100
AcDbEntity
  8
BEMAßUNG
 62
     7
100
AcDbVertex
100
AcDb2dVertex
 10
-50.97119140625
 20
235.42236328125
 30
0.0
  0
VERTEX
  5
342
330
340
100
AcDbEntity
  8
BEMAßUNG
 62
     7
100
AcDbVertex
100
AcDb2dVertex
 10
-50.97119140625
 20
283.611328125
 30
0.0
  0
SEQEND
  5
343
330
340
100
AcDbEntity
  8
BEMAßUNG
  0
POLYLINE
  5
344
330
1F
100
AcDbEntity
  8
BEMAßUNG
 62
     7
100
AcDb2dPolyline
 66
     1
 10
0.0
 20
0.0
 30
0.0
  0
VERTEX
  5
345
330
344
100
AcDbEntity
  8
BEMAßUNG
 62
     7
100
AcDbVertex
100
AcDb2dVertex
 10
-50.97119140625
 20
235.42236328125
 30
0.0
  0
VERTEX
  5
346
330
344
100
AcDbEntity
  8
BEMAßUNG
 62
     7
100
AcDbVertex
100
AcDb2dVertex
 10
-50.03857421875
 20
242.50927734375
 30
0.0
  0
VERTEX
  5
347
330
344
100
AcDbEntity
  8
BEMAßUNG
 62
     7
100
AcDbVertex
100
AcDb2dVertex
 10
-51.9052734375
 20
242.50927734375
 30
0.0
  0
VERTEX
  5
348
330
344
100
AcDbEntity
  8
BEMAßUNG
 62
     7
100
AcDbVertex
100
AcDb2dVertex
 10
-50.97119140625
 20
235.42236328125
 30
0.0
  0
SEQEND
  5
349
330
344
100
AcDbEntity
  8
BEMAßUNG
  0
POLYLINE
  5
34A
330
1F
100
AcDbEntity
  8
BEMAßUNG
 62
     7
100
AcDb2dPolyline
 66
     1
 10
0.0
 20
0.0
 30
0.0
  0
VERTEX
  5
34B
330
34A
100
AcDbEntity
  8
BEMAßUNG
 62
     7
100
AcDbVertex
100
AcDb2dVertex
 10
-50.1083984375
 20
242.50927734375
 30
0.0
  0
VERTEX
  5
34C
330
34A
100
AcDbEntity
  8
BEMAßUNG
 62
     7
100
AcDbVertex
100
AcDb2dVertex
 10
-50.1083984375
 20
241.9853515625
 30
0.0
  0
SEQEND
  5
34D
330
34A
100
AcDbEntity
  8
BEMAßUNG
  0
POLYLINE
  5
34E
330
1F
100
AcDbEntity
  8
BEMAßUNG
 62
     7
100
AcDb2dPolyline
 66
     1
 10
0.0
 20
0.0
 30
0.0
  0
VERTEX
  5
34F
330
34E
100
AcDbEntity
  8
BEMAßUNG
 62
     7
100
AcDbVertex
100
AcDb2dVertex
 10
-50.1083984375
 20
242.50927734375
 30
0.0
  0
VERTEX
  5
350
330
34E
100
AcDbEntity
  8
BEMAßUNG
 62
     7
100
AcDbVertex
100
AcDb2dVertex
 10
-50.1083984375
 20
241.9853515625
 30
0.0
  0
SEQEND
  5
351
330
34E
100
AcDbEntity
  8
BEMAßUNG
  0
POLYLINE
  5
352
330
1F
100
AcDbEntity
  8
BEMAßUNG
 62
     7
100
AcDb2dPolyline
 66
     1
 10
0.0
 20
0.0
 30
0.0
  0
VERTEX
  5
353
330
352
100
AcDbEntity
  8
BEMAßUNG
 62
     7
100
AcDbVertex
100
AcDb2dVertex
 10
-50.25146484375
 20
242.50927734375
 30
0.0
  0
VERTEX
  5
354
330
352
100
AcDbEntity
  8
BEMAßUNG
 62
     7
100
AcDbVertex
100
AcDb2dVertex
 10
-50.25146484375
 20
240.892578125
 30
0.0
  0
SEQEND
  5
355
330
352
100
AcDbEntity
  8
BEMAßUNG
  0
POLYLINE
  5
356
330
1F
100
AcDbEntity
  8
BEMAßUNG
 62
     7
100
AcDb2dPolyline
 66
     1
 10
0.0
 20
0.0
 30
0.0
  0
VERTEX
  5
357
330
356
100
AcDbEntity
  8
BEMAßUNG
 62
     7
100
AcDbVertex
100
AcDb2dVertex
 10
-50.3955078125
 20
242.50927734375
 30
0.0
  0
VERTEX
  5
358
330
356
100
AcDbEntity
  8
BEMAßUNG
 62
     7
100
AcDbVertex
100
AcDb2dVertex
 10
-50.3955078125
 20
239.79833984375
 30
0.0
  0
SEQEND
  5
359
330
356
100
AcDbEntity
  8
BEMAßUNG
  0
POLYLINE
  5
35A
330
1F
100
AcDbEntity
  8
BEMAßUNG
 62
     7
100
AcDb2dPolyline
 66
     1
 10
0.0
 20
0.0
 30
0.0
  0
VERTEX
  5
35B
330
35A
100
AcDbEntity
  8
BEMAßUNG
 62
     7
100
AcDbVertex
100
AcDb2dVertex
 10
-50.54052734375
 20
242.50927734375
 30
0.0
  0
VERTEX
  5
35C
330
35A
100
AcDbEntity
  8
BEMAßUNG
 62
     7
100
AcDbVertex
100
AcDb2dVertex
 10
-50.54052734375
 20
238.705078125
 30
0.0
  0
SEQEND
  5
35D
330
35A
100
AcDbEntity
  8
BEMAßUNG
  0
POLYLINE
  5
35E
330
1F
100
AcDbEntity
  8
BEMAßUNG
 62
     7
100
AcDb2dPolyline
 66
     1
 10
0.0
 20
0.0
 30
0.0
  0
VERTEX
  5
35F
330
35E
100
AcDbEntity
  8
BEMAßUNG
 62
     7
100
AcDbVertex
100
AcDb2dVertex
 10
-50.6845703125
 20
242.50927734375
 30
0.0
  0
VERTEX
  5
360
330
35E
100
AcDbEntity
  8
BEMAßUNG
 62
     7
100
AcDbVertex
100
AcDb2dVertex
 10
-50.6845703125
 20
237.6103515625
 30
0.0
  0
SEQEND
  5
361
330
35E
100
AcDbEntity
  8
BEMAßUNG
  0
POLYLINE
  5
362
330
1F
100
AcDbEntity
  8
BEMAßUNG
 62
     7
100
AcDb2dPolyline
 66
     1
 10
0.0
 20
0.0
 30
0.0
  0
VERTEX
  5
363
330
362
100
AcDbEntity
  8
BEMAßUNG
 62
     7
100
AcDbVertex
100
AcDb2dVertex
 10
-50.828125
 20
242.50927734375
 30
0.0
  0
VERTEX
  5
364
330
362
100
AcDbEntity
  8
BEMAßUNG
 62
     7
100
AcDbVertex
100
AcDb2dVertex
 10
-50.828125
 20
236.517578125
 30
0.0
  0
SEQEND
  5
365
330
362
100
AcDbEntity
  8
BEMAßUNG
  0
POLYLINE
  5
366
330
1F
100
AcDbEntity
  8
BEMAßUNG
 62
     7
100
AcDb2dPolyline
 66
     1
 10
0.0
 20
0.0
 30
0.0
  0
VERTEX
  5
367
330
366
100
AcDbEntity
  8
BEMAßUNG
 62
     7
100
AcDbVertex
100
AcDb2dVertex
 10
-50.97119140625
 20
242.50927734375
 30
0.0
  0
VERTEX
  5
368
330
366
100
AcDbEntity
  8
BEMAßUNG
 62
     7
100
AcDbVertex
100
AcDb2dVertex
 10
-50.97119140625
 20
235.42236328125
 30
0.0
  0
SEQEND
  5
369
330
366
100
AcDbEntity
  8
BEMAßUNG
  0
POLYLINE
  5
36A
330
1F
100
AcDbEntity
  8
BEMAßUNG
 62
     7
100
AcDb2dPolyline
 66
     1
 10
0.0
 20
0.0
 30
0.0
  0
VERTEX
  5
36B
330
36A
100
AcDbEntity
  8
BEMAßUNG
 62
     7
100
AcDbVertex
100
AcDb2dVertex
 10
-51.83544921875
 20
242.50927734375
 30
0.0
  0
VERTEX
  5
36C
330
36A
100
AcDbEntity
  8
BEMAßUNG
 62
     7
100
AcDbVertex
100
AcDb2dVertex
 10
-51.83544921875
 20
241.9853515625
 30
0.0
  0
SEQEND
  5
36D
330
36A
100
AcDbEntity
  8
BEMAßUNG
  0
POLYLINE
  5
36E
330
1F
100
AcDbEntity
  8
BEMAßUNG
 62
     7
100
AcDb2dPolyline
 66
     1
 10
0.0
 20
0.0
 30
0.0
  0
VERTEX
  5
36F
330
36E
100
AcDbEntity
  8
BEMAßUNG
 62
     7
100
AcDbVertex
100
AcDb2dVertex
 10
-51.83544921875
 20
242.50927734375
 30
0.0
  0
VERTEX
  5
370
330
36E
100
AcDbEntity
  8
BEMAßUNG
 62
     7
100
AcDbVertex
100
AcDb2dVertex
 10
-51.83544921875
 20
241.9853515625
 30
0.0
  0
SEQEND
  5
371
330
36E
100
AcDbEntity
  8
BEMAßUNG
  0
POLYLINE
  5
372
330
1F
100
AcDbEntity
  8
BEMAßUNG
 62
     7
100
AcDb2dPolyline
 66
     1
 10
0.0
 20
0.0
 30
0.0
  0
VERTEX
  5
373
330
372
100
AcDbEntity
  8
BEMAßUNG
 62
     7
100
AcDbVertex
100
AcDb2dVertex
 10
-51.69140625
 20
242.50927734375
 30
0.0
  0
VERTEX
  5
374
330
372
100
AcDbEntity
  8
BEMAßUNG
 62
     7
100
AcDbVertex
100
AcDb2dVertex
 10
-51.69140625
 20
240.892578125
 30
0.0
  0
SEQEND
  5
375
330
372
100
AcDbEntity
  8
BEMAßUNG
  0
POLYLINE
  5
376
330
1F
100
AcDbEntity
  8
BEMAßUNG
 62
     7
100
AcDb2dPolyline
 66
     1
 10
0.0
 20
0.0
 30
0.0
  0
VERTEX
  5
377
330
376
100
AcDbEntity
  8
BEMAßUNG
 62
     7
100
AcDbVertex
100
AcDb2dVertex
 10
-51.54833984375
 20
242.50927734375
 30
0.0
  0
VERTEX
  5
378
330
376
100
AcDbEntity
  8
BEMAßUNG
 62
     7
100
AcDbVertex
100
AcDb2dVertex
 10
-51.54833984375
 20
239.79833984375
 30
0.0
  0
SEQEND
  5
379
330
376
100
AcDbEntity
  8
BEMAßUNG
  0
POLYLINE
  5
37A
330
1F
100
AcDbEntity
  8
BEMAßUNG
 62
     7
100
AcDb2dPolyline
 66
     1
 10
0.0
 20
0.0
 30
0.0
  0
VERTEX
  5
37B
330
37A
100
AcDbEntity
  8
BEMAßUNG
 62
     7
100
AcDbVertex
100
AcDb2dVertex
 10
-51.404296875
 20
242.50927734375
 30
0.0
  0
VERTEX
  5
37C
330
37A
100
AcDbEntity
  8
BEMAßUNG
 62
     7
100
AcDbVertex
100
AcDb2dVertex
 10
-51.404296875
 20
238.705078125
 30
0.0
  0
SEQEND
  5
37D
330
37A
100
AcDbEntity
  8
BEMAßUNG
  0
POLYLINE
  5
37E
330
1F
100
AcDbEntity
  8
BEMAßUNG
 62
     7
100
AcDb2dPolyline
 66
     1
 10
0.0
 20
0.0
 30
0.0
  0
VERTEX
  5
37F
330
37E
100
AcDbEntity
  8
BEMAßUNG
 62
     7
100
AcDbVertex
100
AcDb2dVertex
 10
-51.26025390625
 20
242.50927734375
 30
0.0
  0
VERTEX
  5
380
330
37E
100
AcDbEntity
  8
BEMAßUNG
 62
     7
100
AcDbVertex
100
AcDb2dVertex
 10
-51.26025390625
 20
237.6103515625
 30
0.0
  0
SEQEND
  5
381
330
37E
100
AcDbEntity
  8
BEMAßUNG
  0
POLYLINE
  5
382
330
1F
100
AcDbEntity
  8
BEMAßUNG
 62
     7
100
AcDb2dPolyline
 66
     1
 10
0.0
 20
0.0
 30
0.0
  0
VERTEX
  5
383
330
382
100
AcDbEntity
  8
BEMAßUNG
 62
     7
100
AcDbVertex
100
AcDb2dVertex
 10
-51.115234375
 20
242.50927734375
 30
0.0
  0
VERTEX
  5
384
330
382
100
AcDbEntity
  8
BEMAßUNG
 62
     7
100
AcDbVertex
100
AcDb2dVertex
 10
-51.115234375
 20
236.517578125
 30
0.0
  0
SEQEND
  5
385
330
382
100
AcDbEntity
  8
BEMAßUNG
  0
POLYLINE
  5
386
330
1F
100
AcDbEntity
  8
BEMAßUNG
 62
     7
100
AcDb2dPolyline
 66
     1
 10
0.0
 20
0.0
 30
0.0
  0
VERTEX
  5
387
330
386
100
AcDbEntity
  8
BEMAßUNG
 62
     7
100
AcDbVertex
100
AcDb2dVertex
 10
-50.97119140625
 20
242.50927734375
 30
0.0
  0
VERTEX
  5
388
330
386
100
AcDbEntity
  8
BEMAßUNG
 62
     7
100
AcDbVertex
100
AcDb2dVertex
 10
-50.97119140625
 20
235.42236328125
 30
0.0
  0
SEQEND
  5
389
330
386
100
AcDbEntity
  8
BEMAßUNG
  0
POLYLINE
  5
38A
330
1F
100
AcDbEntity
  8
BEMAßUNG
 62
     7
100
AcDb2dPolyline
 66
     1
 10
0.0
 20
0.0
 30
0.0
  0
VERTEX
  5
38B
330
38A
100
AcDbEntity
  8
BEMAßUNG
 62
     7
100
AcDbVertex
100
AcDb2dVertex
 10
-50.97119140625
 20
283.611328125
 30
0.0
  0
VERTEX
  5
38C
330
38A
100
AcDbEntity
  8
BEMAßUNG
 62
     7
100
AcDbVertex
100
AcDb2dVertex
 10
-51.9052734375
 20
276.525390625
 30
0.0
  0
VERTEX
  5
38D
330
38A
100
AcDbEntity
  8
BEMAßUNG
 62
     7
100
AcDbVertex
100
AcDb2dVertex
 10
-50.03857421875
 20
276.525390625
 30
0.0
  0
VERTEX
  5
38E
330
38A
100
AcDbEntity
  8
BEMAßUNG
 62
     7
100
AcDbVertex
100
AcDb2dVertex
 10
-50.97119140625
 20
283.611328125
 30
0.0
  0
SEQEND
  5
38F
330
38A
100
AcDbEntity
  8
BEMAßUNG
  0
POLYLINE
  5
390
330
1F
100
AcDbEntity
  8
BEMAßUNG
 62
     7
100
AcDb2dPolyline
 66
     1
 10
0.0
 20
0.0
 30
0.0
  0
VERTEX
  5
391
330
390
100
AcDbEntity
  8
BEMAßUNG
 62
     7
100
AcDbVertex
100
AcDb2dVertex
 10
-51.83544921875
 20
276.525390625
 30
0.0
  0
VERTEX
  5
392
330
390
100
AcDbEntity
  8
BEMAßUNG
 62
     7
100
AcDbVertex
100
AcDb2dVertex
 10
-51.83544921875
 20
277.04931640625
 30
0.0
  0
SEQEND
  5
393
330
390
100
AcDbEntity
  8
BEMAßUNG
  0
POLYLINE
  5
394
330
1F
100
AcDbEntity
  8
BEMAßUNG
 62
     7
100
AcDb2dPolyline
 66
     1
 10
0.0
 20
0.0
 30
0.0
  0
VERTEX
  5
395
330
394
100
AcDbEntity
  8
BEMAßUNG
 62
     7
100
AcDbVertex
100
AcDb2dVertex
 10
-51.83544921875
 20
276.525390625
 30
0.0
  0
VERTEX
  5
396
330
394
100
AcDbEntity
  8
BEMAßUNG
 62
     7
100
AcDbVertex
100
AcDb2dVertex
 10
-51.83544921875
 20
277.04931640625
 30
0.0
  0
SEQEND
  5
397
330
394
100
AcDbEntity
  8
BEMAßUNG
  0
POLYLINE
  5
398
330
1F
100
AcDbEntity
  8
BEMAßUNG
 62
     7
100
AcDb2dPolyline
 66
     1
 10
0.0
 20
0.0
 30
0.0
  0
VERTEX
  5
399
330
398
100
AcDbEntity
  8
BEMAßUNG
 62
     7
100
AcDbVertex
100
AcDb2dVertex
 10
-51.69140625
 20
276.525390625
 30
0.0
  0
VERTEX
  5
39A
330
398
100
AcDbEntity
  8
BEMAßUNG
 62
     7
100
AcDbVertex
100
AcDb2dVertex
 10
-51.69140625
 20
278.1435546875
 30
0.0
  0
SEQEND
  5
39B
330
398
100
AcDbEntity
  8
BEMAßUNG
  0
POLYLINE
  5
39C
330
1F
100
AcDbEntity
  8
BEMAßUNG
 62
     7
100
AcDb2dPolyline
 66
     1
 10
0.0
 20
0.0
 30
0.0
  0
VERTEX
  5
39D
330
39C
100
AcDbEntity
  8
BEMAßUNG
 62
     7
100
AcDbVertex
100
AcDb2dVertex
 10
-51.54833984375
 20
276.525390625
 30
0.0
  0
VERTEX
  5
39E
330
39C
100
AcDbEntity
  8
BEMAßUNG
 62
     7
100
AcDbVertex
100
AcDb2dVertex
 10
-51.54833984375
 20
279.236328125
 30
0.0
  0
SEQEND
  5
39F
330
39C
100
AcDbEntity
  8
BEMAßUNG
  0
POLYLINE
  5
3A0
330
1F
100
AcDbEntity
  8
BEMAßUNG
 62
     7
100
AcDb2dPolyline
 66
     1
 10
0.0
 20
0.0
 30
0.0
  0
VERTEX
  5
3A1
330
3A0
100
AcDbEntity
  8
BEMAßUNG
 62
     7
100
AcDbVertex
100
AcDb2dVertex
 10
-51.404296875
 20
276.525390625
 30
0.0
  0
VERTEX
  5
3A2
330
3A0
100
AcDbEntity
  8
BEMAßUNG
 62
     7
100
AcDbVertex
100
AcDb2dVertex
 10
-51.404296875
 20
280.3310546875
 30
0.0
  0
SEQEND
  5
3A3
330
3A0
100
AcDbEntity
  8
BEMAßUNG
  0
POLYLINE
  5
3A4
330
1F
100
AcDbEntity
  8
BEMAßUNG
 62
     7
100
AcDb2dPolyline
 66
     1
 10
0.0
 20
0.0
 30
0.0
  0
VERTEX
  5
3A5
330
3A4
100
AcDbEntity
  8
BEMAßUNG
 62
     7
100
AcDbVertex
100
AcDb2dVertex
 10
-51.26025390625
 20
276.525390625
 30
0.0
  0
VERTEX
  5
3A6
330
3A4
100
AcDbEntity
  8
BEMAßUNG
 62
     7
100
AcDbVertex
100
AcDb2dVertex
 10
-51.26025390625
 20
281.42431640625
 30
0.0
  0
SEQEND
  5
3A7
330
3A4
100
AcDbEntity
  8
BEMAßUNG
  0
POLYLINE
  5
3A8
330
1F
100
AcDbEntity
  8
BEMAßUNG
 62
     7
100
AcDb2dPolyline
 66
     1
 10
0.0
 20
0.0
 30
0.0
  0
VERTEX
  5
3A9
330
3A8
100
AcDbEntity
  8
BEMAßUNG
 62
     7
100
AcDbVertex
100
AcDb2dVertex
 10
-51.115234375
 20
276.525390625
 30
0.0
  0
VERTEX
  5
3AA
330
3A8
100
AcDbEntity
  8
BEMAßUNG
 62
     7
100
AcDbVertex
100
AcDb2dVertex
 10
-51.115234375
 20
282.51953125
 30
0.0
  0
SEQEND
  5
3AB
330
3A8
100
AcDbEntity
  8
BEMAßUNG
  0
POLYLINE
  5
3AC
330
1F
100
AcDbEntity
  8
BEMAßUNG
 62
     7
100
AcDb2dPolyline
 66
     1
 10
0.0
 20
0.0
 30
0.0
  0
VERTEX
  5
3AD
330
3AC
100
AcDbEntity
  8
BEMAßUNG
 62
     7
100
AcDbVertex
100
AcDb2dVertex
 10
-50.97119140625
 20
276.525390625
 30
0.0
  0
VERTEX
  5
3AE
330
3AC
100
AcDbEntity
  8
BEMAßUNG
 62
     7
100
AcDbVertex
100
AcDb2dVertex
 10
-50.97119140625
 20
283.611328125
 30
0.0
  0
SEQEND
  5
3AF
330
3AC
100
AcDbEntity
  8
BEMAßUNG
  0
POLYLINE
  5
3B0
330
1F
100
AcDbEntity
  8
BEMAßUNG
 62
     7
100
AcDb2dPolyline
 66
     1
 10
0.0
 20
0.0
 30
0.0
  0
VERTEX
  5
3B1
330
3B0
100
AcDbEntity
  8
BEMAßUNG
 62
     7
100
AcDbVertex
100
AcDb2dVertex
 10
-50.1083984375
 20
276.525390625
 30
0.0
  0
VERTEX
  5
3B2
330
3B0
100
AcDbEntity
  8
BEMAßUNG
 62
     7
100
AcDbVertex
100
AcDb2dVertex
 10
-50.1083984375
 20
277.04931640625
 30
0.0
  0
SEQEND
  5
3B3
330
3B0
100
AcDbEntity
  8
BEMAßUNG
  0
POLYLINE
  5
3B4
330
1F
100
AcDbEntity
  8
BEMAßUNG
 62
     7
100
AcDb2dPolyline
 66
     1
 10
0.0
 20
0.0
 30
0.0
  0
VERTEX
  5
3B5
330
3B4
100
AcDbEntity
  8
BEMAßUNG
 62
     7
100
AcDbVertex
100
AcDb2dVertex
 10
-50.1083984375
 20
276.525390625
 30
0.0
  0
VERTEX
  5
3B6
330
3B4
100
AcDbEntity
  8
BEMAßUNG
 62
     7
100
AcDbVertex
100
AcDb2dVertex
 10
-50.1083984375
 20
277.04931640625
 30
0.0
  0
SEQEND
  5
3B7
330
3B4
100
AcDbEntity
  8
BEMAßUNG
  0
POLYLINE
  5
3B8
330
1F
100
AcDbEntity
  8
BEMAßUNG
 62
     7
100
AcDb2dPolyline
 66
     1
 10
0.0
 20
0.0
 30
0.0
  0
VERTEX
  5
3B9
330
3B8
100
AcDbEntity
  8
BEMAßUNG
 62
     7
100
AcDbVertex
100
AcDb2dVertex
 10
-50.25146484375
 20
276.525390625
 30
0.0
  0
VERTEX
  5
3BA
330
3B8
100
AcDbEntity
  8
BEMAßUNG
 62
     7
100
AcDbVertex
100
AcDb2dVertex
 10
-50.25146484375
 20
278.1435546875
 30
0.0
  0
SEQEND
  5
3BB
330
3B8
100
AcDbEntity
  8
BEMAßUNG
  0
POLYLINE
  5
3BC
330
1F
100
AcDbEntity
  8
BEMAßUNG
 62
     7
100
AcDb2dPolyline
 66
     1
 10
0.0
 20
0.0
 30
0.0
  0
VERTEX
  5
3BD
330
3BC
100
AcDbEntity
  8
BEMAßUNG
 62
     7
100
AcDbVertex
100
AcDb2dVertex
 10
-50.3955078125
 20
276.525390625
 30
0.0
  0
VERTEX
  5
3BE
330
3BC
100
AcDbEntity
  8
BEMAßUNG
 62
     7
100
AcDbVertex
100
AcDb2dVertex
 10
-50.3955078125
 20
279.236328125
 30
0.0
  0
SEQEND
  5
3BF
330
3BC
100
AcDbEntity
  8
BEMAßUNG
  0
POLYLINE
  5
3C0
330
1F
100
AcDbEntity
  8
BEMAßUNG
 62
     7
100
AcDb2dPolyline
 66
     1
 10
0.0
 20
0.0
 30
0.0
  0
VERTEX
  5
3C1
330
3C0
100
AcDbEntity
  8
BEMAßUNG
 62
     7
100
AcDbVertex
100
AcDb2dVertex
 10
-50.54052734375
 20
276.525390625
 30
0.0
  0
VERTEX
  5
3C2
330
3C0
100
AcDbEntity
  8
BEMAßUNG
 62
     7
100
AcDbVertex
100
AcDb2dVertex
 10
-50.54052734375
 20
280.3310546875
 30
0.0
  0
SEQEND
  5
3C3
330
3C0
100
AcDbEntity
  8
BEMAßUNG
  0
POLYLINE
  5
3C4
330
1F
100
AcDbEntity
  8
BEMAßUNG
 62
     7
100
AcDb2dPolyline
 66
     1
 10
0.0
 20
0.0
 30
0.0
  0
VERTEX
  5
3C5
330
3C4
100
AcDbEntity
  8
BEMAßUNG
 62
     7
100
AcDbVertex
100
AcDb2dVertex
 10
-50.6845703125
 20
276.525390625
 30
0.0
  0
VERTEX
  5
3C6
330
3C4
100
AcDbEntity
  8
BEMAßUNG
 62
     7
100
AcDbVertex
100
AcDb2dVertex
 10
-50.6845703125
 20
281.42431640625
 30
0.0
  0
SEQEND
  5
3C7
330
3C4
100
AcDbEntity
  8
BEMAßUNG
  0
POLYLINE
  5
3C8
330
1F
100
AcDbEntity
  8
BEMAßUNG
 62
     7
100
AcDb2dPolyline
 66
     1
 10
0.0
 20
0.0
 30
0.0
  0
VERTEX
  5
3C9
330
3C8
100
AcDbEntity
  8
BEMAßUNG
 62
     7
100
AcDbVertex
100
AcDb2dVertex
 10
-50.828125
 20
276.525390625
 30
0.0
  0
VERTEX
  5
3CA
330
3C8
100
AcDbEntity
  8
BEMAßUNG
 62
     7
100
AcDbVertex
100
AcDb2dVertex
 10
-50.828125
 20
282.51953125
 30
0.0
  0
SEQEND
  5
3CB
330
3C8
100
AcDbEntity
  8
BEMAßUNG
  0
POLYLINE
  5
3CC
330
1F
100
AcDbEntity
  8
BEMAßUNG
 62
     7
100
AcDb2dPolyline
 66
     1
 10
0.0
 20
0.0
 30
0.0
  0
VERTEX
  5
3CD
330
3CC
100
AcDbEntity
  8
BEMAßUNG
 62
     7
100
AcDbVertex
100
AcDb2dVertex
 10
-50.97119140625
 20
276.525390625
 30
0.0
  0
VERTEX
  5
3CE
330
3CC
100
AcDbEntity
  8
BEMAßUNG
 62
     7
100
AcDbVertex
100
AcDb2dVertex
 10
-50.97119140625
 20
283.611328125
 30
0.0
  0
SEQEND
  5
3CF
330
3CC
100
AcDbEntity
  8
BEMAßUNG
  0
POLYLINE
  5
3D0
330
1F
100
AcDbEntity
  8
BEMAßUNG
 62
     7
100
AcDb2dPolyline
 66
     1
 10
0.0
 20
0.0
 30
0.0
  0
VERTEX
  5
3D1
330
3D0
100
AcDbEntity
  8
BEMAßUNG
 62
     7
100
AcDbVertex
100
AcDb2dVertex
 10
7.52685546875
 20
273.69140625
 30
0.0
  0
VERTEX
  5
3D2
330
3D0
100
AcDbEntity
  8
BEMAßUNG
 62
     7
100
AcDbVertex
100
AcDb2dVertex
 10
-28.5078125
 20
273.69140625
 30
0.0
  0
SEQEND
  5
3D3
330
3D0
100
AcDbEntity
  8
BEMAßUNG
  0
POLYLINE
  5
3D4
330
1F
100
AcDbEntity
  8
BEMAßUNG
 62
     7
100
AcDb2dPolyline
 66
     1
 10
0.0
 20
0.0
 30
0.0
  0
VERTEX
  5
3D5
330
3D4
100
AcDbEntity
  8
BEMAßUNG
 62
     7
100
AcDbVertex
100
AcDb2dVertex
 10
7.52685546875
 20
245.34521484375
 30
0.0
  0
VERTEX
  5
3D6
330
3D4
100
AcDbEntity
  8
BEMAßUNG
 62
     7
100
AcDbVertex
100
AcDb2dVertex
 10
-28.5078125
 20
245.34521484375
 30
0.0
  0
SEQEND
  5
3D7
330
3D4
100
AcDbEntity
  8
BEMAßUNG
  0
POLYLINE
  5
3D8
330
1F
100
AcDbEntity
  8
BEMAßUNG
 62
     7
100
AcDb2dPolyline
 66
     1
 10
0.0
 20
0.0
 30
0.0
  0
VERTEX
  5
3D9
330
3D8
100
AcDbEntity
  8
BEMAßUNG
 62
     7
100
AcDbVertex
100
AcDb2dVertex
 10
-22.837890625
 20
273.69140625
 30
0.0
  0
VERTEX
  5
3DA
330
3D8
100
AcDbEntity
  8
BEMAßUNG
 62
     7
100
AcDbVertex
100
AcDb2dVertex
 10
-22.837890625
 20
245.34521484375
 30
0.0
  0
SEQEND
  5
3DB
330
3D8
100
AcDbEntity
  8
BEMAßUNG
  0
POLYLINE
  5
3DC
330
1F
100
AcDbEntity
  8
BEMAßUNG
 62
     7
100
AcDb2dPolyline
 66
     1
 10
0.0
 20
0.0
 30
0.0
  0
VERTEX
  5
3DD
330
3DC
100
AcDbEntity
  8
BEMAßUNG
 62
     7
100
AcDbVertex
100
AcDb2dVertex
 10
-22.837890625
 20
273.69140625
 30
0.0
  0
VERTEX
  5
3DE
330
3DC
100
AcDbEntity
  8
BEMAßUNG
 62
     7
100
AcDbVertex
100
AcDb2dVertex
 10
-23.771484375
 20
266.60546875
 30
0.0
  0
VERTEX
  5
3DF
330
3DC
100
AcDbEntity
  8
BEMAßUNG
 62
     7
100
AcDbVertex
100
AcDb2dVertex
 10
-21.90478515625
 20
266.60546875
 30
0.0
  0
VERTEX
  5
3E0
330
3DC
100
AcDbEntity
  8
BEMAßUNG
 62
     7
100
AcDbVertex
100
AcDb2dVertex
 10
-22.837890625
 20
273.69140625
 30
0.0
  0
SEQEND
  5
3E1
330
3DC
100
AcDbEntity
  8
BEMAßUNG
  0
POLYLINE
  5
3E2
330
1F
100
AcDbEntity
  8
BEMAßUNG
 62
     7
100
AcDb2dPolyline
 66
     1
 10
0.0
 20
0.0
 30
0.0
  0
VERTEX
  5
3E3
330
3E2
100
AcDbEntity
  8
BEMAßUNG
 62
     7
100
AcDbVertex
100
AcDb2dVertex
 10
-23.70166015625
 20
266.60546875
 30
0.0
  0
VERTEX
  5
3E4
330
3E2
100
AcDbEntity
  8
BEMAßUNG
 62
     7
100
AcDbVertex
100
AcDb2dVertex
 10
-23.70166015625
 20
267.12841796875
 30
0.0
  0
SEQEND
  5
3E5
330
3E2
100
AcDbEntity
  8
BEMAßUNG
  0
POLYLINE
  5
3E6
330
1F
100
AcDbEntity
  8
BEMAßUNG
 62
     7
100
AcDb2dPolyline
 66
     1
 10
0.0
 20
0.0
 30
0.0
  0
VERTEX
  5
3E7
330
3E6
100
AcDbEntity
  8
BEMAßUNG
 62
     7
100
AcDbVertex
100
AcDb2dVertex
 10
-23.70166015625
 20
266.60546875
 30
0.0
  0
VERTEX
  5
3E8
330
3E6
100
AcDbEntity
  8
BEMAßUNG
 62
     7
100
AcDbVertex
100
AcDb2dVertex
 10
-23.70166015625
 20
267.12841796875
 30
0.0
  0
SEQEND
  5
3E9
330
3E6
100
AcDbEntity
  8
BEMAßUNG
  0
POLYLINE
  5
3EA
330
1F
100
AcDbEntity
  8
BEMAßUNG
 62
     7
100
AcDb2dPolyline
 66
     1
 10
0.0
 20
0.0
 30
0.0
  0
VERTEX
  5
3EB
330
3EA
100
AcDbEntity
  8
BEMAßUNG
 62
     7
100
AcDbVertex
100
AcDb2dVertex
 10
-23.5576171875
 20
266.60546875
 30
0.0
  0
VERTEX
  5
3EC
330
3EA
100
AcDbEntity
  8
BEMAßUNG
 62
     7
100
AcDbVertex
100
AcDb2dVertex
 10
-23.5576171875
 20
268.22119140625
 30
0.0
  0
SEQEND
  5
3ED
330
3EA
100
AcDbEntity
  8
BEMAßUNG
  0
POLYLINE
  5
3EE
330
1F
100
AcDbEntity
  8
BEMAßUNG
 62
     7
100
AcDb2dPolyline
 66
     1
 10
0.0
 20
0.0
 30
0.0
  0
VERTEX
  5
3EF
330
3EE
100
AcDbEntity
  8
BEMAßUNG
 62
     7
100
AcDbVertex
100
AcDb2dVertex
 10
-23.41455078125
 20
266.60546875
 30
0.0
  0
VERTEX
  5
3F0
330
3EE
100
AcDbEntity
  8
BEMAßUNG
 62
     7
100
AcDbVertex
100
AcDb2dVertex
 10
-23.41455078125
 20
269.31640625
 30
0.0
  0
SEQEND
  5
3F1
330
3EE
100
AcDbEntity
  8
BEMAßUNG
  0
POLYLINE
  5
3F2
330
1F
100
AcDbEntity
  8
BEMAßUNG
 62
     7
100
AcDb2dPolyline
 66
     1
 10
0.0
 20
0.0
 30
0.0
  0
VERTEX
  5
3F3
330
3F2
100
AcDbEntity
  8
BEMAßUNG
 62
     7
100
AcDbVertex
100
AcDb2dVertex
 10
-23.2705078125
 20
266.60546875
 30
0.0
  0
VERTEX
  5
3F4
330
3F2
100
AcDbEntity
  8
BEMAßUNG
 62
     7
100
AcDbVertex
100
AcDb2dVertex
 10
-23.2705078125
 20
270.4091796875
 30
0.0
  0
SEQEND
  5
3F5
330
3F2
100
AcDbEntity
  8
BEMAßUNG
  0
POLYLINE
  5
3F6
330
1F
100
AcDbEntity
  8
BEMAßUNG
 62
     7
100
AcDb2dPolyline
 66
     1
 10
0.0
 20
0.0
 30
0.0
  0
VERTEX
  5
3F7
330
3F6
100
AcDbEntity
  8
BEMAßUNG
 62
     7
100
AcDbVertex
100
AcDb2dVertex
 10
-23.12646484375
 20
266.60546875
 30
0.0
  0
VERTEX
  5
3F8
330
3F6
100
AcDbEntity
  8
BEMAßUNG
 62
     7
100
AcDbVertex
100
AcDb2dVertex
 10
-23.12646484375
 20
271.50439453125
 30
0.0
  0
SEQEND
  5
3F9
330
3F6
100
AcDbEntity
  8
BEMAßUNG
  0
POLYLINE
  5
3FA
330
1F
100
AcDbEntity
  8
BEMAßUNG
 62
     7
100
AcDb2dPolyline
 66
     1
 10
0.0
 20
0.0
 30
0.0
  0
VERTEX
  5
3FB
330
3FA
100
AcDbEntity
  8
BEMAßUNG
 62
     7
100
AcDbVertex
100
AcDb2dVertex
 10
-22.98193359375
 20
266.60546875
 30
0.0
  0
VERTEX
  5
3FC
330
3FA
100
AcDbEntity
  8
BEMAßUNG
 62
     7
100
AcDbVertex
100
AcDb2dVertex
 10
-22.98193359375
 20
272.59619140625
 30
0.0
  0
SEQEND
  5
3FD
330
3FA
100
AcDbEntity
  8
BEMAßUNG
  0
POLYLINE
  5
3FE
330
1F
100
AcDbEntity
  8
BEMAßUNG
 62
     7
100
AcDb2dPolyline
 66
     1
 10
0.0
 20
0.0
 30
0.0
  0
VERTEX
  5
3FF
330
3FE
100
AcDbEntity
  8
BEMAßUNG
 62
     7
100
AcDbVertex
100
AcDb2dVertex
 10
-22.837890625
 20
266.60546875
 30
0.0
  0
VERTEX
  5
400
330
3FE
100
AcDbEntity
  8
BEMAßUNG
 62
     7
100
AcDbVertex
100
AcDb2dVertex
 10
-22.837890625
 20
273.69140625
 30
0.0
  0
SEQEND
  5
401
330
3FE
100
AcDbEntity
  8
BEMAßUNG
  0
POLYLINE
  5
402
330
1F
100
AcDbEntity
  8
BEMAßUNG
 62
     7
100
AcDb2dPolyline
 66
     1
 10
0.0
 20
0.0
 30
0.0
  0
VERTEX
  5
403
330
402
100
AcDbEntity
  8
BEMAßUNG
 62
     7
100
AcDbVertex
100
AcDb2dVertex
 10
-21.9736328125
 20
266.60546875
 30
0.0
  0
VERTEX
  5
404
330
402
100
AcDbEntity
  8
BEMAßUNG
 62
     7
100
AcDbVertex
100
AcDb2dVertex
 10
-21.9736328125
 20
267.12841796875
 30
0.0
  0
SEQEND
  5
405
330
402
100
AcDbEntity
  8
BEMAßUNG
  0
POLYLINE
  5
406
330
1F
100
AcDbEntity
  8
BEMAßUNG
 62
     7
100
AcDb2dPolyline
 66
     1
 10
0.0
 20
0.0
 30
0.0
  0
VERTEX
  5
407
330
406
100
AcDbEntity
  8
BEMAßUNG
 62
     7
100
AcDbVertex
100
AcDb2dVertex
 10
-21.9736328125
 20
266.60546875
 30
0.0
  0
VERTEX
  5
408
330
406
100
AcDbEntity
  8
BEMAßUNG
 62
     7
100
AcDbVertex
100
AcDb2dVertex
 10
-21.9736328125
 20
267.12841796875
 30
0.0
  0
SEQEND
  5
409
330
406
100
AcDbEntity
  8
BEMAßUNG
  0
POLYLINE
  5
40A
330
1F
100
AcDbEntity
  8
BEMAßUNG
 62
     7
100
AcDb2dPolyline
 66
     1
 10
0.0
 20
0.0
 30
0.0
  0
VERTEX
  5
40B
330
40A
100
AcDbEntity
  8
BEMAßUNG
 62
     7
100
AcDbVertex
100
AcDb2dVertex
 10
-22.11767578125
 20
266.60546875
 30
0.0
  0
VERTEX
  5
40C
330
40A
100
AcDbEntity
  8
BEMAßUNG
 62
     7
100
AcDbVertex
100
AcDb2dVertex
 10
-22.11767578125
 20
268.22119140625
 30
0.0
  0
SEQEND
  5
40D
330
40A
100
AcDbEntity
  8
BEMAßUNG
  0
POLYLINE
  5
40E
330
1F
100
AcDbEntity
  8
BEMAßUNG
 62
     7
100
AcDb2dPolyline
 66
     1
 10
0.0
 20
0.0
 30
0.0
  0
VERTEX
  5
40F
330
40E
100
AcDbEntity
  8
BEMAßUNG
 62
     7
100
AcDbVertex
100
AcDb2dVertex
 10
-22.26171875
 20
266.60546875
 30
0.0
  0
VERTEX
  5
410
330
40E
100
AcDbEntity
  8
BEMAßUNG
 62
     7
100
AcDbVertex
100
AcDb2dVertex
 10
-22.26171875
 20
269.31640625
 30
0.0
  0
SEQEND
  5
411
330
40E
100
AcDbEntity
  8
BEMAßUNG
  0
POLYLINE
  5
412
330
1F
100
AcDbEntity
  8
BEMAßUNG
 62
     7
100
AcDb2dPolyline
 66
     1
 10
0.0
 20
0.0
 30
0.0
  0
VERTEX
  5
413
330
412
100
AcDbEntity
  8
BEMAßUNG
 62
     7
100
AcDbVertex
100
AcDb2dVertex
 10
-22.40673828125
 20
266.60546875
 30
0.0
  0
VERTEX
  5
414
330
412
100
AcDbEntity
  8
BEMAßUNG
 62
     7
100
AcDbVertex
100
AcDb2dVertex
 10
-22.40673828125
 20
270.4091796875
 30
0.0
  0
SEQEND
  5
415
330
412
100
AcDbEntity
  8
BEMAßUNG
  0
POLYLINE
  5
416
330
1F
100
AcDbEntity
  8
BEMAßUNG
 62
     7
100
AcDb2dPolyline
 66
     1
 10
0.0
 20
0.0
 30
0.0
  0
VERTEX
  5
417
330
416
100
AcDbEntity
  8
BEMAßUNG
 62
     7
100
AcDbVertex
100
AcDb2dVertex
 10
-22.55078125
 20
266.60546875
 30
0.0
  0
VERTEX
  5
418
330
416
100
AcDbEntity
  8
BEMAßUNG
 62
     7
100
AcDbVertex
100
AcDb2dVertex
 10
-22.55078125
 20
271.50439453125
 30
0.0
  0
SEQEND
  5
419
330
416
100
AcDbEntity
  8
BEMAßUNG
  0
POLYLINE
  5
41A
330
1F
100
AcDbEntity
  8
BEMAßUNG
 62
     7
100
AcDb2dPolyline
 66
     1
 10
0.0
 20
0.0
 30
0.0
  0
VERTEX
  5
41B
330
41A
100
AcDbEntity
  8
BEMAßUNG
 62
     7
100
AcDbVertex
100
AcDb2dVertex
 10
-22.69384765625
 20
266.60546875
 30
0.0
  0
VERTEX
  5
41C
330
41A
100
AcDbEntity
  8
BEMAßUNG
 62
     7
100
AcDbVertex
100
AcDb2dVertex
 10
-22.69384765625
 20
272.59619140625
 30
0.0
  0
SEQEND
  5
41D
330
41A
100
AcDbEntity
  8
BEMAßUNG
  0
POLYLINE
  5
41E
330
1F
100
AcDbEntity
  8
BEMAßUNG
 62
     7
100
AcDb2dPolyline
 66
     1
 10
0.0
 20
0.0
 30
0.0
  0
VERTEX
  5
41F
330
41E
100
AcDbEntity
  8
BEMAßUNG
 62
     7
100
AcDbVertex
100
AcDb2dVertex
 10
-22.837890625
 20
266.60546875
 30
0.0
  0
VERTEX
  5
420
330
41E
100
AcDbEntity
  8
BEMAßUNG
 62
     7
100
AcDbVertex
100
AcDb2dVertex
 10
-22.837890625
 20
273.69140625
 30
0.0
  0
SEQEND
  5
421
330
41E
100
AcDbEntity
  8
BEMAßUNG
  0
POLYLINE
  5
422
330
1F
100
AcDbEntity
  8
BEMAßUNG
 62
     7
100
AcDb2dPolyline
 66
     1
 10
0.0
 20
0.0
 30
0.0
  0
VERTEX
  5
423
330
422
100
AcDbEntity
  8
BEMAßUNG
 62
     7
100
AcDbVertex
100
AcDb2dVertex
 10
-22.837890625
 20
245.34521484375
 30
0.0
  0
VERTEX
  5
424
330
422
100
AcDbEntity
  8
BEMAßUNG
 62
     7
100
AcDbVertex
100
AcDb2dVertex
 10
-21.90478515625
 20
252.43115234375
 30
0.0
  0
VERTEX
  5
425
330
422
100
AcDbEntity
  8
BEMAßUNG
 62
     7
100
AcDbVertex
100
AcDb2dVertex
 10
-23.771484375
 20
252.43115234375
 30
0.0
  0
VERTEX
  5
426
330
422
100
AcDbEntity
  8
BEMAßUNG
 62
     7
100
AcDbVertex
100
AcDb2dVertex
 10
-22.837890625
 20
245.34521484375
 30
0.0
  0
SEQEND
  5
427
330
422
100
AcDbEntity
  8
BEMAßUNG
  0
POLYLINE
  5
428
330
1F
100
AcDbEntity
  8
BEMAßUNG
 62
     7
100
AcDb2dPolyline
 66
     1
 10
0.0
 20
0.0
 30
0.0
  0
VERTEX
  5
429
330
428
100
AcDbEntity
  8
BEMAßUNG
 62
     7
100
AcDbVertex
100
AcDb2dVertex
 10
-21.9736328125
 20
252.43115234375
 30
0.0
  0
VERTEX
  5
42A
330
428
100
AcDbEntity
  8
BEMAßUNG
 62
     7
100
AcDbVertex
100
AcDb2dVertex
 10
-21.9736328125
 20
251.9072265625
 30
0.0
  0
SEQEND
  5
42B
330
428
100
AcDbEntity
  8
BEMAßUNG
  0
POLYLINE
  5
42C
330
1F
100
AcDbEntity
  8
BEMAßUNG
 62
     7
100
AcDb2dPolyline
 66
     1
 10
0.0
 20
0.0
 30
0.0
  0
VERTEX
  5
42D
330
42C
100
AcDbEntity
  8
BEMAßUNG
 62
     7
100
AcDbVertex
100
AcDb2dVertex
 10
-21.9736328125
 20
252.43115234375
 30
0.0
  0
VERTEX
  5
42E
330
42C
100
AcDbEntity
  8
BEMAßUNG
 62
     7
100
AcDbVertex
100
AcDb2dVertex
 10
-21.9736328125
 20
251.9072265625
 30
0.0
  0
SEQEND
  5
42F
330
42C
100
AcDbEntity
  8
BEMAßUNG
  0
POLYLINE
  5
430
330
1F
100
AcDbEntity
  8
BEMAßUNG
 62
     7
100
AcDb2dPolyline
 66
     1
 10
0.0
 20
0.0
 30
0.0
  0
VERTEX
  5
431
330
430
100
AcDbEntity
  8
BEMAßUNG
 62
     7
100
AcDbVertex
100
AcDb2dVertex
 10
-22.11767578125
 20
252.43115234375
 30
0.0
  0
VERTEX
  5
432
330
430
100
AcDbEntity
  8
BEMAßUNG
 62
     7
100
AcDbVertex
100
AcDb2dVertex
 10
-22.11767578125
 20
250.8134765625
 30
0.0
  0
SEQEND
  5
433
330
430
100
AcDbEntity
  8
BEMAßUNG
  0
POLYLINE
  5
434
330
1F
100
AcDbEntity
  8
BEMAßUNG
 62
     7
100
AcDb2dPolyline
 66
     1
 10
0.0
 20
0.0
 30
0.0
  0
VERTEX
  5
435
330
434
100
AcDbEntity
  8
BEMAßUNG
 62
     7
100
AcDbVertex
100
AcDb2dVertex
 10
-22.26171875
 20
252.43115234375
 30
0.0
  0
VERTEX
  5
436
330
434
100
AcDbEntity
  8
BEMAßUNG
 62
     7
100
AcDbVertex
100
AcDb2dVertex
 10
-22.26171875
 20
249.72021484375
 30
0.0
  0
SEQEND
  5
437
330
434
100
AcDbEntity
  8
BEMAßUNG
  0
POLYLINE
  5
438
330
1F
100
AcDbEntity
  8
BEMAßUNG
 62
     7
100
AcDb2dPolyline
 66
     1
 10
0.0
 20
0.0
 30
0.0
  0
VERTEX
  5
439
330
438
100
AcDbEntity
  8
BEMAßUNG
 62
     7
100
AcDbVertex
100
AcDb2dVertex
 10
-22.40673828125
 20
252.43115234375
 30
0.0
  0
VERTEX
  5
43A
330
438
100
AcDbEntity
  8
BEMAßUNG
 62
     7
100
AcDbVertex
100
AcDb2dVertex
 10
-22.40673828125
 20
248.625
 30
0.0
  0
SEQEND
  5
43B
330
438
100
AcDbEntity
  8
BEMAßUNG
  0
POLYLINE
  5
43C
330
1F
100
AcDbEntity
  8
BEMAßUNG
 62
     7
100
AcDb2dPolyline
 66
     1
 10
0.0
 20
0.0
 30
0.0
  0
VERTEX
  5
43D
330
43C
100
AcDbEntity
  8
BEMAßUNG
 62
     7
100
AcDbVertex
100
AcDb2dVertex
 10
-22.55078125
 20
252.43115234375
 30
0.0
  0
VERTEX
  5
43E
330
43C
100
AcDbEntity
  8
BEMAßUNG
 62
     7
100
AcDbVertex
100
AcDb2dVertex
 10
-22.55078125
 20
247.5322265625
 30
0.0
  0
SEQEND
  5
43F
330
43C
100
AcDbEntity
  8
BEMAßUNG
  0
POLYLINE
  5
440
330
1F
100
AcDbEntity
  8
BEMAßUNG
 62
     7
100
AcDb2dPolyline
 66
     1
 10
0.0
 20
0.0
 30
0.0
  0
VERTEX
  5
441
330
440
100
AcDbEntity
  8
BEMAßUNG
 62
     7
100
AcDbVertex
100
AcDb2dVertex
 10
-22.69384765625
 20
252.43115234375
 30
0.0
  0
VERTEX
  5
442
330
440
100
AcDbEntity
  8
BEMAßUNG
 62
     7
100
AcDbVertex
100
AcDb2dVertex
 10
-22.69384765625
 20
246.4384765625
 30
0.0
  0
SEQEND
  5
443
330
440
100
AcDbEntity
  8
BEMAßUNG
  0
POLYLINE
  5
444
330
1F
100
AcDbEntity
  8
BEMAßUNG
 62
     7
100
AcDb2dPolyline
 66
     1
 10
0.0
 20
0.0
 30
0.0
  0
VERTEX
  5
445
330
444
100
AcDbEntity
  8
BEMAßUNG
 62
     7
100
AcDbVertex
100
AcDb2dVertex
 10
-22.837890625
 20
252.43115234375
 30
0.0
  0
VERTEX
  5
446
330
444
100
AcDbEntity
  8
BEMAßUNG
 62
     7
100
AcDbVertex
100
AcDb2dVertex
 10
-22.837890625
 20
245.34521484375
 30
0.0
  0
SEQEND
  5
447
330
444
100
AcDbEntity
  8
BEMAßUNG
  0
POLYLINE
  5
448
330
1F
100
AcDbEntity
  8
BEMAßUNG
 62
     7
100
AcDb2dPolyline
 66
     1
 10
0.0
 20
0.0
 30
0.0
  0
VERTEX
  5
449
330
448
100
AcDbEntity
  8
BEMAßUNG
 62
     7
100
AcDbVertex
100
AcDb2dVertex
 10
-23.70166015625
 20
252.43115234375
 30
0.0
  0
VERTEX
  5
44A
330
448
100
AcDbEntity
  8
BEMAßUNG
 62
     7
100
AcDbVertex
100
AcDb2dVertex
 10
-23.70166015625
 20
251.9072265625
 30
0.0
  0
SEQEND
  5
44B
330
448
100
AcDbEntity
  8
BEMAßUNG
  0
POLYLINE
  5
44C
330
1F
100
AcDbEntity
  8
BEMAßUNG
 62
     7
100
AcDb2dPolyline
 66
     1
 10
0.0
 20
0.0
 30
0.0
  0
VERTEX
  5
44D
330
44C
100
AcDbEntity
  8
BEMAßUNG
 62
     7
100
AcDbVertex
100
AcDb2dVertex
 10
-23.70166015625
 20
252.43115234375
 30
0.0
  0
VERTEX
  5
44E
330
44C
100
AcDbEntity
  8
BEMAßUNG
 62
     7
100
AcDbVertex
100
AcDb2dVertex
 10
-23.70166015625
 20
251.9072265625
 30
0.0
  0
SEQEND
  5
44F
330
44C
100
AcDbEntity
  8
BEMAßUNG
  0
POLYLINE
  5
450
330
1F
100
AcDbEntity
  8
BEMAßUNG
 62
     7
100
AcDb2dPolyline
 66
     1
 10
0.0
 20
0.0
 30
0.0
  0
VERTEX
  5
451
330
450
100
AcDbEntity
  8
BEMAßUNG
 62
     7
100
AcDbVertex
100
AcDb2dVertex
 10
-23.5576171875
 20
252.43115234375
 30
0.0
  0
VERTEX
  5
452
330
450
100
AcDbEntity
  8
BEMAßUNG
 62
     7
100
AcDbVertex
100
AcDb2dVertex
 10
-23.5576171875
 20
250.8134765625
 30
0.0
  0
SEQEND
  5
453
330
450
100
AcDbEntity
  8
BEMAßUNG
  0
POLYLINE
  5
454
330
1F
100
AcDbEntity
  8
BEMAßUNG
 62
     7
100
AcDb2dPolyline
 66
     1
 10
0.0
 20
0.0
 30
0.0
  0
VERTEX
  5
455
330
454
100
AcDbEntity
  8
BEMAßUNG
 62
     7
100
AcDbVertex
100
AcDb2dVertex
 10
-23.41455078125
 20
252.43115234375
 30
0.0
  0
VERTEX
  5
456
330
454
100
AcDbEntity
  8
BEMAßUNG
 62
     7
100
AcDbVertex
100
AcDb2dVertex
 10
-23.41455078125
 20
249.72021484375
 30
0.0
  0
SEQEND
  5
457
330
454
100
AcDbEntity
  8
BEMAßUNG
  0
POLYLINE
  5
458
330
1F
100
AcDbEntity
  8
BEMAßUNG
 62
     7
100
AcDb2dPolyline
 66
     1
 10
0.0
 20
0.0
 30
0.0
  0
VERTEX
  5
459
330
458
100
AcDbEntity
  8
BEMAßUNG
 62
     7
100
AcDbVertex
100
AcDb2dVertex
 10
-23.2705078125
 20
252.43115234375
 30
0.0
  0
VERTEX
  5
45A
330
458
100
AcDbEntity
  8
BEMAßUNG
 62
     7
100
AcDbVertex
100
AcDb2dVertex
 10
-23.2705078125
 20
248.625
 30
0.0
  0
SEQEND
  5
45B
330
458
100
AcDbEntity
  8
BEMAßUNG
  0
POLYLINE
  5
45C
330
1F
100
AcDbEntity
  8
BEMAßUNG
 62
     7
100
AcDb2dPolyline
 66
     1
 10
0.0
 20
0.0
 30
0.0
  0
VERTEX
  5
45D
330
45C
100
AcDbEntity
  8
BEMAßUNG
 62
     7
100
AcDbVertex
100
AcDb2dVertex
 10
-23.12646484375
 20
252.43115234375
 30
0.0
  0
VERTEX
  5
45E
330
45C
100
AcDbEntity
  8
BEMAßUNG
 62
     7
100
AcDbVertex
100
AcDb2dVertex
 10
-23.12646484375
 20
247.5322265625
 30
0.0
  0
SEQEND
  5
45F
330
45C
100
AcDbEntity
  8
BEMAßUNG
  0
POLYLINE
  5
460
330
1F
100
AcDbEntity
  8
BEMAßUNG
 62
     7
100
AcDb2dPolyline
 66
     1
 10
0.0
 20
0.0
 30
0.0
  0
VERTEX
  5
461
330
460
100
AcDbEntity
  8
BEMAßUNG
 62
     7
100
AcDbVertex
100
AcDb2dVertex
 10
-22.98193359375
 20
252.43115234375
 30
0.0
  0
VERTEX
  5
462
330
460
100
AcDbEntity
  8
BEMAßUNG
 62
     7
100
AcDbVertex
100
AcDb2dVertex
 10
-22.98193359375
 20
246.4384765625
 30
0.0
  0
SEQEND
  5
463
330
460
100
AcDbEntity
  8
BEMAßUNG
  0
POLYLINE
  5
464
330
1F
100
AcDbEntity
  8
BEMAßUNG
 62
     7
100
AcDb2dPolyline
 66
     1
 10
0.0
 20
0.0
 30
0.0
  0
VERTEX
  5
465
330
464
100
AcDbEntity
  8
BEMAßUNG
 62
     7
100
AcDbVertex
100
AcDb2dVertex
 10
-22.837890625
 20
252.43115234375
 30
0.0
  0
VERTEX
  5
466
330
464
100
AcDbEntity
  8
BEMAßUNG
 62
     7
100
AcDbVertex
100
AcDb2dVertex
 10
-22.837890625
 20
245.34521484375
 30
0.0
  0
SEQEND
  5
467
330
464
100
AcDbEntity
  8
BEMAßUNG
  0
POLYLINE
  5
468
330
1F
100
AcDbEntity
  8
BEMAßUNG
 62
     7
100
AcDb2dPolyline
 66
     1
 10
0.0
 20
0.0
 30
0.0
  0
VERTEX
  5
469
330
468
100
AcDbEntity
  8
BEMAßUNG
 62
     7
100
AcDbVertex
100
AcDb2dVertex
 10
85.48046875
 20
275.326171875
 30
0.0
  0
VERTEX
  5
46A
330
468
100
AcDbEntity
  8
BEMAßUNG
 62
     7
100
AcDbVertex
100
AcDb2dVertex
 10
117.427734375
 20
270.83642578125
 30
0.0
  0
SEQEND
  5
46B
330
468
100
AcDbEntity
  8
BEMAßUNG
  0
POLYLINE
  5
46C
330
1F
100
AcDbEntity
  8
BEMAßUNG
 62
     7
100
AcDb2dPolyline
 66
     1
 10
0.0
 20
0.0
 30
0.0
  0
VERTEX
  5
46D
330
46C
100
AcDbEntity
  8
BEMAßUNG
 62
     7
100
AcDbVertex
100
AcDb2dVertex
 10
85.48046875
 20
243.7099609375
 30
0.0
  0
VERTEX
  5
46E
330
46C
100
AcDbEntity
  8
BEMAßUNG
 62
     7
100
AcDbVertex
100
AcDb2dVertex
 10
117.427734375
 20
248.2001953125
 30
0.0
  0
SEQEND
  5
46F
330
46C
100
AcDbEntity
  8
BEMAßUNG
  0
SPLINE
  5
470
330
1F
100
AcDbEntity
  8
BEMAßUNG
 62
     7
100
AcDbSpline
210
0.0
220
0.0
230
1.0
 70
     8
 71
     3
 72
     8
 73
     4
 74
     0
 42
0.0000000001
 43
0.0000000001
 40
0.0
 40
0.0
 40
0.0
 40
0.0
 40
1.0
 40
1.0
 40
1.0
 40
1.0
 10
111.814453125
 20
271.6240234375
 30
0.0
 10
110.6259765625
 20
263.1669921875
 30
0.0
 10
110.693359375
 20
254.822265625
 30
0.0
 10
111.814453125
 20
247.4111328125
 30
0.0
  0
POLYLINE
  5
471
330
1F
100
AcDbEntity
  8
BEMAßUNG
 62
     7
100
AcDb2dPolyline
 66
     1
 10
0.0
 20
0.0
 30
0.0
  0
VERTEX
  5
472
330
471
100
AcDbEntity
  8
BEMAßUNG
 62
     7
100
AcDbVertex
100
AcDb2dVertex
 10
111.814453125
 20
271.6240234375
 30
0.0
  0
VERTEX
  5
473
330
471
100
AcDbEntity
  8
BEMAßUNG
 62
     7
100
AcDbVertex
100
AcDb2dVertex
 10
110.0439453125
 20
264.7001953125
 30
0.0
  0
VERTEX
  5
474
330
471
100
AcDbEntity
  8
BEMAßUNG
 62
     7
100
AcDbVertex
100
AcDb2dVertex
 10
111.896484375
 20
264.4775390625
 30
0.0
  0
VERTEX
  5
475
330
471
100
AcDbEntity
  8
BEMAßUNG
 62
     7
100
AcDbVertex
100
AcDb2dVertex
 10
111.814453125
 20
271.6240234375
 30
0.0
  0
SEQEND
  5
476
330
471
100
AcDbEntity
  8
BEMAßUNG
  0
POLYLINE
  5
477
330
1F
100
AcDbEntity
  8
BEMAßUNG
 62
     7
100
AcDb2dPolyline
 66
     1
 10
0.0
 20
0.0
 30
0.0
  0
VERTEX
  5
478
330
477
100
AcDbEntity
  8
BEMAßUNG
 62
     7
100
AcDbVertex
100
AcDb2dVertex
 10
110.1142578125
 20
264.6923828125
 30
0.0
  0
VERTEX
  5
479
330
477
100
AcDbEntity
  8
BEMAßUNG
 62
     7
100
AcDbVertex
100
AcDb2dVertex
 10
110.173828125
 20
265.21142578125
 30
0.0
  0
SEQEND
  5
47A
330
477
100
AcDbEntity
  8
BEMAßUNG
  0
POLYLINE
  5
47B
330
1F
100
AcDbEntity
  8
BEMAßUNG
 62
     7
100
AcDb2dPolyline
 66
     1
 10
0.0
 20
0.0
 30
0.0
  0
VERTEX
  5
47C
330
47B
100
AcDbEntity
  8
BEMAßUNG
 62
     7
100
AcDbVertex
100
AcDb2dVertex
 10
110.1142578125
 20
264.6923828125
 30
0.0
  0
VERTEX
  5
47D
330
47B
100
AcDbEntity
  8
BEMAßUNG
 62
     7
100
AcDbVertex
100
AcDb2dVertex
 10
110.173828125
 20
265.21142578125
 30
0.0
  0
SEQEND
  5
47E
330
47B
100
AcDbEntity
  8
BEMAßUNG
  0
POLYLINE
  5
47F
330
1F
100
AcDbEntity
  8
BEMAßUNG
 62
     7
100
AcDb2dPolyline
 66
     1
 10
0.0
 20
0.0
 30
0.0
  0
VERTEX
  5
480
330
47F
100
AcDbEntity
  8
BEMAßUNG
 62
     7
100
AcDbVertex
100
AcDb2dVertex
 10
110.255859375
 20
264.67431640625
 30
0.0
  0
VERTEX
  5
481
330
47F
100
AcDbEntity
  8
BEMAßUNG
 62
     7
100
AcDbVertex
100
AcDb2dVertex
 10
110.4482421875
 20
266.2802734375
 30
0.0
  0
SEQEND
  5
482
330
47F
100
AcDbEntity
  8
BEMAßUNG
  0
POLYLINE
  5
483
330
1F
100
AcDbEntity
  8
BEMAßUNG
 62
     7
100
AcDb2dPolyline
 66
     1
 10
0.0
 20
0.0
 30
0.0
  0
VERTEX
  5
484
330
483
100
AcDbEntity
  8
BEMAßUNG
 62
     7
100
AcDbVertex
100
AcDb2dVertex
 10
110.3984375
 20
264.6572265625
 30
0.0
  0
VERTEX
  5
485
330
483
100
AcDbEntity
  8
BEMAßUNG
 62
     7
100
AcDbVertex
100
AcDb2dVertex
 10
110.7216796875
 20
267.3505859375
 30
0.0
  0
SEQEND
  5
486
330
483
100
AcDbEntity
  8
BEMAßUNG
  0
POLYLINE
  5
487
330
1F
100
AcDbEntity
  8
BEMAßUNG
 62
     7
100
AcDb2dPolyline
 66
     1
 10
0.0
 20
0.0
 30
0.0
  0
VERTEX
  5
488
330
487
100
AcDbEntity
  8
BEMAßUNG
 62
     7
100
AcDbVertex
100
AcDb2dVertex
 10
110.5400390625
 20
264.63916015625
 30
0.0
  0
VERTEX
  5
489
330
487
100
AcDbEntity
  8
BEMAßUNG
 62
     7
100
AcDbVertex
100
AcDb2dVertex
 10
110.994140625
 20
268.41796875
 30
0.0
  0
SEQEND
  5
48A
330
487
100
AcDbEntity
  8
BEMAßUNG
  0
POLYLINE
  5
48B
330
1F
100
AcDbEntity
  8
BEMAßUNG
 62
     7
100
AcDb2dPolyline
 66
     1
 10
0.0
 20
0.0
 30
0.0
  0
VERTEX
  5
48C
330
48B
100
AcDbEntity
  8
BEMAßUNG
 62
     7
100
AcDbVertex
100
AcDb2dVertex
 10
110.6826171875
 20
264.623046875
 30
0.0
  0
VERTEX
  5
48D
330
48B
100
AcDbEntity
  8
BEMAßUNG
 62
     7
100
AcDbVertex
100
AcDb2dVertex
 10
111.265625
 20
269.486328125
 30
0.0
  0
SEQEND
  5
48E
330
48B
100
AcDbEntity
  8
BEMAßUNG
  0
POLYLINE
  5
48F
330
1F
100
AcDbEntity
  8
BEMAßUNG
 62
     7
100
AcDb2dPolyline
 66
     1
 10
0.0
 20
0.0
 30
0.0
  0
VERTEX
  5
490
330
48F
100
AcDbEntity
  8
BEMAßUNG
 62
     7
100
AcDbVertex
100
AcDb2dVertex
 10
110.8271484375
 20
264.60546875
 30
0.0
  0
VERTEX
  5
491
330
48F
100
AcDbEntity
  8
BEMAßUNG
 62
     7
100
AcDbVertex
100
AcDb2dVertex
 10
111.5400390625
 20
270.55615234375
 30
0.0
  0
SEQEND
  5
492
330
48F
100
AcDbEntity
  8
BEMAßUNG
  0
POLYLINE
  5
493
330
1F
100
AcDbEntity
  8
BEMAßUNG
 62
     7
100
AcDb2dPolyline
 66
     1
 10
0.0
 20
0.0
 30
0.0
  0
VERTEX
  5
494
330
493
100
AcDbEntity
  8
BEMAßUNG
 62
     7
100
AcDbVertex
100
AcDb2dVertex
 10
111.8271484375
 20
264.4853515625
 30
0.0
  0
VERTEX
  5
495
330
493
100
AcDbEntity
  8
BEMAßUNG
 62
     7
100
AcDbVertex
100
AcDb2dVertex
 10
111.890625
 20
265.00537109375
 30
0.0
  0
SEQEND
  5
496
330
493
100
AcDbEntity
  8
BEMAßUNG
  0
POLYLINE
  5
497
330
1F
100
AcDbEntity
  8
BEMAßUNG
 62
     7
100
AcDb2dPolyline
 66
     1
 10
0.0
 20
0.0
 30
0.0
  0
VERTEX
  5
498
330
497
100
AcDbEntity
  8
BEMAßUNG
 62
     7
100
AcDbVertex
100
AcDb2dVertex
 10
111.8271484375
 20
264.4853515625
 30
0.0
  0
VERTEX
  5
499
330
497
100
AcDbEntity
  8
BEMAßUNG
 62
     7
100
AcDbVertex
100
AcDb2dVertex
 10
111.890625
 20
265.00537109375
 30
0.0
  0
SEQEND
  5
49A
330
497
100
AcDbEntity
  8
BEMAßUNG
  0
POLYLINE
  5
49B
330
1F
100
AcDbEntity
  8
BEMAßUNG
 62
     7
100
AcDb2dPolyline
 66
     1
 10
0.0
 20
0.0
 30
0.0
  0
VERTEX
  5
49C
330
49B
100
AcDbEntity
  8
BEMAßUNG
 62
     7
100
AcDbVertex
100
AcDb2dVertex
 10
111.685546875
 20
264.50341796875
 30
0.0
  0
VERTEX
  5
49D
330
49B
100
AcDbEntity
  8
BEMAßUNG
 62
     7
100
AcDbVertex
100
AcDb2dVertex
 10
111.876953125
 20
266.109375
 30
0.0
  0
SEQEND
  5
49E
330
49B
100
AcDbEntity
  8
BEMAßUNG
  0
POLYLINE
  5
49F
330
1F
100
AcDbEntity
  8
BEMAßUNG
 62
     7
100
AcDb2dPolyline
 66
     1
 10
0.0
 20
0.0
 30
0.0
  0
VERTEX
  5
4A0
330
49F
100
AcDbEntity
  8
BEMAßUNG
 62
     7
100
AcDbVertex
100
AcDb2dVertex
 10
111.5400390625
 20
264.51953125
 30
0.0
  0
VERTEX
  5
4A1
330
49F
100
AcDbEntity
  8
BEMAßUNG
 62
     7
100
AcDbVertex
100
AcDb2dVertex
 10
111.8642578125
 20
267.21240234375
 30
0.0
  0
SEQEND
  5
4A2
330
49F
100
AcDbEntity
  8
BEMAßUNG
  0
POLYLINE
  5
4A3
330
1F
100
AcDbEntity
  8
BEMAßUNG
 62
     7
100
AcDb2dPolyline
 66
     1
 10
0.0
 20
0.0
 30
0.0
  0
VERTEX
  5
4A4
330
4A3
100
AcDbEntity
  8
BEMAßUNG
 62
     7
100
AcDbVertex
100
AcDb2dVertex
 10
111.3984375
 20
264.5380859375
 30
0.0
  0
VERTEX
  5
4A5
330
4A3
100
AcDbEntity
  8
BEMAßUNG
 62
     7
100
AcDbVertex
100
AcDb2dVertex
 10
111.8515625
 20
268.31640625
 30
0.0
  0
SEQEND
  5
4A6
330
4A3
100
AcDbEntity
  8
BEMAßUNG
  0
POLYLINE
  5
4A7
330
1F
100
AcDbEntity
  8
BEMAßUNG
 62
     7
100
AcDb2dPolyline
 66
     1
 10
0.0
 20
0.0
 30
0.0
  0
VERTEX
  5
4A8
330
4A7
100
AcDbEntity
  8
BEMAßUNG
 62
     7
100
AcDbVertex
100
AcDb2dVertex
 10
111.255859375
 20
264.55419921875
 30
0.0
  0
VERTEX
  5
4A9
330
4A7
100
AcDbEntity
  8
BEMAßUNG
 62
     7
100
AcDbVertex
100
AcDb2dVertex
 10
111.83984375
 20
269.41796875
 30
0.0
  0
SEQEND
  5
4AA
330
4A7
100
AcDbEntity
  8
BEMAßUNG
  0
POLYLINE
  5
4AB
330
1F
100
AcDbEntity
  8
BEMAßUNG
 62
     7
100
AcDb2dPolyline
 66
     1
 10
0.0
 20
0.0
 30
0.0
  0
VERTEX
  5
4AC
330
4AB
100
AcDbEntity
  8
BEMAßUNG
 62
     7
100
AcDbVertex
100
AcDb2dVertex
 10
111.1142578125
 20
264.572265625
 30
0.0
  0
VERTEX
  5
4AD
330
4AB
100
AcDbEntity
  8
BEMAßUNG
 62
     7
100
AcDbVertex
100
AcDb2dVertex
 10
111.8271484375
 20
270.5224609375
 30
0.0
  0
SEQEND
  5
4AE
330
4AB
100
AcDbEntity
  8
BEMAßUNG
  0
POLYLINE
  5
4AF
330
1F
100
AcDbEntity
  8
BEMAßUNG
 62
     7
100
AcDb2dPolyline
 66
     1
 10
0.0
 20
0.0
 30
0.0
  0
VERTEX
  5
4B0
330
4AF
100
AcDbEntity
  8
BEMAßUNG
 62
     7
100
AcDbVertex
100
AcDb2dVertex
 10
111.814453125
 20
247.4111328125
 30
0.0
  0
VERTEX
  5
4B1
330
4AF
100
AcDbEntity
  8
BEMAßUNG
 62
     7
100
AcDbVertex
100
AcDb2dVertex
 10
111.896484375
 20
254.5576171875
 30
0.0
  0
VERTEX
  5
4B2
330
4AF
100
AcDbEntity
  8
BEMAßUNG
 62
     7
100
AcDbVertex
100
AcDb2dVertex
 10
110.0439453125
 20
254.33642578125
 30
0.0
  0
VERTEX
  5
4B3
330
4AF
100
AcDbEntity
  8
BEMAßUNG
 62
     7
100
AcDbVertex
100
AcDb2dVertex
 10
111.814453125
 20
247.4111328125
 30
0.0
  0
SEQEND
  5
4B4
330
4AF
100
AcDbEntity
  8
BEMAßUNG
  0
POLYLINE
  5
4B5
330
1F
100
AcDbEntity
  8
BEMAßUNG
 62
     7
100
AcDb2dPolyline
 66
     1
 10
0.0
 20
0.0
 30
0.0
  0
VERTEX
  5
4B6
330
4B5
100
AcDbEntity
  8
BEMAßUNG
 62
     7
100
AcDbVertex
100
AcDb2dVertex
 10
111.8271484375
 20
254.54931640625
 30
0.0
  0
VERTEX
  5
4B7
330
4B5
100
AcDbEntity
  8
BEMAßUNG
 62
     7
100
AcDbVertex
100
AcDb2dVertex
 10
111.890625
 20
254.029296875
 30
0.0
  0
SEQEND
  5
4B8
330
4B5
100
AcDbEntity
  8
BEMAßUNG
  0
POLYLINE
  5
4B9
330
1F
100
AcDbEntity
  8
BEMAßUNG
 62
     7
100
AcDb2dPolyline
 66
     1
 10
0.0
 20
0.0
 30
0.0
  0
VERTEX
  5
4BA
330
4B9
100
AcDbEntity
  8
BEMAßUNG
 62
     7
100
AcDbVertex
100
AcDb2dVertex
 10
111.8271484375
 20
254.54931640625
 30
0.0
  0
VERTEX
  5
4BB
330
4B9
100
AcDbEntity
  8
BEMAßUNG
 62
     7
100
AcDbVertex
100
AcDb2dVertex
 10
111.890625
 20
254.029296875
 30
0.0
  0
SEQEND
  5
4BC
330
4B9
100
AcDbEntity
  8
BEMAßUNG
  0
POLYLINE
  5
4BD
330
1F
100
AcDbEntity
  8
BEMAßUNG
 62
     7
100
AcDb2dPolyline
 66
     1
 10
0.0
 20
0.0
 30
0.0
  0
VERTEX
  5
4BE
330
4BD
100
AcDbEntity
  8
BEMAßUNG
 62
     7
100
AcDbVertex
100
AcDb2dVertex
 10
111.685546875
 20
254.533203125
 30
0.0
  0
VERTEX
  5
4BF
330
4BD
100
AcDbEntity
  8
BEMAßUNG
 62
     7
100
AcDbVertex
100
AcDb2dVertex
 10
111.876953125
 20
252.92626953125
 30
0.0
  0
SEQEND
  5
4C0
330
4BD
100
AcDbEntity
  8
BEMAßUNG
  0
POLYLINE
  5
4C1
330
1F
100
AcDbEntity
  8
BEMAßUNG
 62
     7
100
AcDb2dPolyline
 66
     1
 10
0.0
 20
0.0
 30
0.0
  0
VERTEX
  5
4C2
330
4C1
100
AcDbEntity
  8
BEMAßUNG
 62
     7
100
AcDbVertex
100
AcDb2dVertex
 10
111.5400390625
 20
254.51416015625
 30
0.0
  0
VERTEX
  5
4C3
330
4C1
100
AcDbEntity
  8
BEMAßUNG
 62
     7
100
AcDbVertex
100
AcDb2dVertex
 10
111.8642578125
 20
251.822265625
 30
0.0
  0
SEQEND
  5
4C4
330
4C1
100
AcDbEntity
  8
BEMAßUNG
  0
POLYLINE
  5
4C5
330
1F
100
AcDbEntity
  8
BEMAßUNG
 62
     7
100
AcDb2dPolyline
 66
     1
 10
0.0
 20
0.0
 30
0.0
  0
VERTEX
  5
4C6
330
4C5
100
AcDbEntity
  8
BEMAßUNG
 62
     7
100
AcDbVertex
100
AcDb2dVertex
 10
111.3984375
 20
254.498046875
 30
0.0
  0
VERTEX
  5
4C7
330
4C5
100
AcDbEntity
  8
BEMAßUNG
 62
     7
100
AcDbVertex
100
AcDb2dVertex
 10
111.8515625
 20
250.72021484375
 30
0.0
  0
SEQEND
  5
4C8
330
4C5
100
AcDbEntity
  8
BEMAßUNG
  0
POLYLINE
  5
4C9
330
1F
100
AcDbEntity
  8
BEMAßUNG
 62
     7
100
AcDb2dPolyline
 66
     1
 10
0.0
 20
0.0
 30
0.0
  0
VERTEX
  5
4CA
330
4C9
100
AcDbEntity
  8
BEMAßUNG
 62
     7
100
AcDbVertex
100
AcDb2dVertex
 10
111.255859375
 20
254.48046875
 30
0.0
  0
VERTEX
  5
4CB
330
4C9
100
AcDbEntity
  8
BEMAßUNG
 62
     7
100
AcDbVertex
100
AcDb2dVertex
 10
111.83984375
 20
249.6162109375
 30
0.0
  0
SEQEND
  5
4CC
330
4C9
100
AcDbEntity
  8
BEMAßUNG
  0
POLYLINE
  5
4CD
330
1F
100
AcDbEntity
  8
BEMAßUNG
 62
     7
100
AcDb2dPolyline
 66
     1
 10
0.0
 20
0.0
 30
0.0
  0
VERTEX
  5
4CE
330
4CD
100
AcDbEntity
  8
BEMAßUNG
 62
     7
100
AcDbVertex
100
AcDb2dVertex
 10
111.1142578125
 20
254.46435546875
 30
0.0
  0
VERTEX
  5
4CF
330
4CD
100
AcDbEntity
  8
BEMAßUNG
 62
     7
100
AcDbVertex
100
AcDb2dVertex
 10
111.8271484375
 20
248.51416015625
 30
0.0
  0
SEQEND
  5
4D0
330
4CD
100
AcDbEntity
  8
BEMAßUNG
  0
POLYLINE
  5
4D1
330
1F
100
AcDbEntity
  8
BEMAßUNG
 62
     7
100
AcDb2dPolyline
 66
     1
 10
0.0
 20
0.0
 30
0.0
  0
VERTEX
  5
4D2
330
4D1
100
AcDbEntity
  8
BEMAßUNG
 62
     7
100
AcDbVertex
100
AcDb2dVertex
 10
110.96875
 20
254.447265625
 30
0.0
  0
VERTEX
  5
4D3
330
4D1
100
AcDbEntity
  8
BEMAßUNG
 62
     7
100
AcDbVertex
100
AcDb2dVertex
 10
111.814453125
 20
247.4111328125
 30
0.0
  0
SEQEND
  5
4D4
330
4D1
100
AcDbEntity
  8
BEMAßUNG
  0
POLYLINE
  5
4D5
330
1F
100
AcDbEntity
  8
BEMAßUNG
 62
     7
100
AcDb2dPolyline
 66
     1
 10
0.0
 20
0.0
 30
0.0
  0
VERTEX
  5
4D6
330
4D5
100
AcDbEntity
  8
BEMAßUNG
 62
     7
100
AcDbVertex
100
AcDb2dVertex
 10
110.1142578125
 20
254.34423828125
 30
0.0
  0
VERTEX
  5
4D7
330
4D5
100
AcDbEntity
  8
BEMAßUNG
 62
     7
100
AcDbVertex
100
AcDb2dVertex
 10
110.173828125
 20
253.8232421875
 30
0.0
  0
SEQEND
  5
4D8
330
4D5
100
AcDbEntity
  8
BEMAßUNG
  0
POLYLINE
  5
4D9
330
1F
100
AcDbEntity
  8
BEMAßUNG
 62
     7
100
AcDb2dPolyline
 66
     1
 10
0.0
 20
0.0
 30
0.0
  0
VERTEX
  5
4DA
330
4D9
100
AcDbEntity
  8
BEMAßUNG
 62
     7
100
AcDbVertex
100
AcDb2dVertex
 10
110.1142578125
 20
254.34423828125
 30
0.0
  0
VERTEX
  5
4DB
330
4D9
100
AcDbEntity
  8
BEMAßUNG
 62
     7
100
AcDbVertex
100
AcDb2dVertex
 10
110.173828125
 20
253.8232421875
 30
0.0
  0
SEQEND
  5
4DC
330
4D9
100
AcDbEntity
  8
BEMAßUNG
  0
POLYLINE
  5
4DD
330
1F
100
AcDbEntity
  8
BEMAßUNG
 62
     7
100
AcDb2dPolyline
 66
     1
 10
0.0
 20
0.0
 30
0.0
  0
VERTEX
  5
4DE
330
4DD
100
AcDbEntity
  8
BEMAßUNG
 62
     7
100
AcDbVertex
100
AcDb2dVertex
 10
110.255859375
 20
254.3603515625
 30
0.0
  0
VERTEX
  5
4DF
330
4DD
100
AcDbEntity
  8
BEMAßUNG
 62
     7
100
AcDbVertex
100
AcDb2dVertex
 10
110.4482421875
 20
252.75439453125
 30
0.0
  0
SEQEND
  5
4E0
330
4DD
100
AcDbEntity
  8
BEMAßUNG
  0
POLYLINE
  5
4E1
330
1F
100
AcDbEntity
  8
BEMAßUNG
 62
     7
100
AcDb2dPolyline
 66
     1
 10
0.0
 20
0.0
 30
0.0
  0
VERTEX
  5
4E2
330
4E1
100
AcDbEntity
  8
BEMAßUNG
 62
     7
100
AcDbVertex
100
AcDb2dVertex
 10
110.3984375
 20
254.37841796875
 30
0.0
  0
VERTEX
  5
4E3
330
4E1
100
AcDbEntity
  8
BEMAßUNG
 62
     7
100
AcDbVertex
100
AcDb2dVertex
 10
110.7216796875
 20
251.6865234375
 30
0.0
  0
SEQEND
  5
4E4
330
4E1
100
AcDbEntity
  8
BEMAßUNG
  0
POLYLINE
  5
4E5
330
1F
100
AcDbEntity
  8
BEMAßUNG
 62
     7
100
AcDb2dPolyline
 66
     1
 10
0.0
 20
0.0
 30
0.0
  0
VERTEX
  5
4E6
330
4E5
100
AcDbEntity
  8
BEMAßUNG
 62
     7
100
AcDbVertex
100
AcDb2dVertex
 10
110.5400390625
 20
254.3955078125
 30
0.0
  0
VERTEX
  5
4E7
330
4E5
100
AcDbEntity
  8
BEMAßUNG
 62
     7
100
AcDbVertex
100
AcDb2dVertex
 10
110.994140625
 20
250.6162109375
 30
0.0
  0
SEQEND
  5
4E8
330
4E5
100
AcDbEntity
  8
BEMAßUNG
  0
POLYLINE
  5
4E9
330
1F
100
AcDbEntity
  8
BEMAßUNG
 62
     7
100
AcDb2dPolyline
 66
     1
 10
0.0
 20
0.0
 30
0.0
  0
VERTEX
  5
4EA
330
4E9
100
AcDbEntity
  8
BEMAßUNG
 62
     7
100
AcDbVertex
100
AcDb2dVertex
 10
110.6826171875
 20
254.4130859375
 30
0.0
  0
VERTEX
  5
4EB
330
4E9
100
AcDbEntity
  8
BEMAßUNG
 62
     7
100
AcDbVertex
100
AcDb2dVertex
 10
111.265625
 20
249.54736328125
 30
0.0
  0
SEQEND
  5
4EC
330
4E9
100
AcDbEntity
  8
BEMAßUNG
  0
POLYLINE
  5
4ED
330
1F
100
AcDbEntity
  8
BEMAßUNG
 62
     7
100
AcDb2dPolyline
 66
     1
 10
0.0
 20
0.0
 30
0.0
  0
VERTEX
  5
4EE
330
4ED
100
AcDbEntity
  8
BEMAßUNG
 62
     7
100
AcDbVertex
100
AcDb2dVertex
 10
110.8271484375
 20
254.42919921875
 30
0.0
  0
VERTEX
  5
4EF
330
4ED
100
AcDbEntity
  8
BEMAßUNG
 62
     7
100
AcDbVertex
100
AcDb2dVertex
 10
111.5400390625
 20
248.48046875
 30
0.0
  0
SEQEND
  5
4F0
330
4ED
100
AcDbEntity
  8
BEMAßUNG
  0
POLYLINE
  5
4F1
330
1F
100
AcDbEntity
  8
BEMAßUNG
 62
     7
100
AcDb2dPolyline
 66
     1
 10
0.0
 20
0.0
 30
0.0
  0
VERTEX
  5
4F2
330
4F1
100
AcDbEntity
  8
BEMAßUNG
 62
     7
100
AcDbVertex
100
AcDb2dVertex
 10
110.96875
 20
254.447265625
 30
0.0
  0
VERTEX
  5
4F3
330
4F1
100
AcDbEntity
  8
BEMAßUNG
 62
     7
100
AcDbVertex
100
AcDb2dVertex
 10
111.814453125
 20
247.4111328125
 30
0.0
  0
SEQEND
  5
4F4
330
4F1
100
AcDbEntity
  8
BEMAßUNG
  0
MTEXT
  5
4F6
330
1F
100
AcDbEntity
  8
TEXT
 62
     7
100
AcDbMText
 10
42.353515625
 20
209.673828125
 30
0.0
 40
6.800000000000001
 41
0.0
 71
     7
 72
     1
  1
\fINDEX Univers 45 Light|b0|i0|c0|p34;\W1;27
  0
MTEXT
  5
4F7
330
1F
100
AcDbEntity
  8
TEXT
 62
     7
100
AcDbMText
 10
-53.15869140625
 20
253.806640625
 30
0.0
 40
6.800000000000001
 41
0.0
 71
     7
 72
     1
  1
\fINDEX Univers 45 Light|b0|i0|c0|p34;\W1;17
 11
-4.371139000186241E-8
 21
0.999999999999999
 31
0.0
  0
MTEXT
  5
4F8
330
1F
100
AcDbEntity
  8
TEXT
 62
     7
100
AcDbMText
 10
-24.8505859375
 20
257.10546875
 30
0.0
 40
6.800000000000001
 41
0.0
 71
     7
 72
     1
  1
\fINDEX Univers 45 Light|b0|i0|c0|p34;\W1;D
 11
-4.371139000186241E-8
 21
0.999999999999999
 31
0.0
  0
MTEXT
  5
4F9
330
1F
100
AcDbEntity
  8
TEXT
 62
     7
100
AcDbMText
 10
108.5595703125
 20
254.1318359375
 30
0.0
 40
6.799966926574707
 41
0.0
 71
     7
 72
     1
  1
\fINDEX Univers 45 Light|b0|i0|c0|p34;\W0.999998;16°
 11
0.03248008543733813
 21
0.9994723828350552
 31
0.0
  0
POLYLINE
  5
4FA
330
1F
100
AcDbEntity
  8
TEXT
100
AcDb2dPolyline
 66
     1
 10
0.0
 20
0.0
 30
0.0
  0
VERTEX
  5
4FB
330
4FA
100
AcDbEntity
  8
TEXT
100
AcDbVertex
100
AcDb2dVertex
 10
427.5341796875
 20
-226.1767578125
 30
0.0
  0
VERTEX
  5
4FC
330
4FA
100
AcDbEntity
  8
TEXT
100
AcDbVertex
100
AcDb2dVertex
 10
-309.4658203125
 20
-226.1767578125
 30
0.0
  0
VERTEX
  5
4FD
330
4FA
100
AcDbEntity
  8
TEXT
100
AcDbVertex
100
AcDb2dVertex
 10
-309.4658203125
 20
393.8232421875
 30
0.0
  0
VERTEX
  5
4FE
330
4FA
100
AcDbEntity
  8
TEXT
100
AcDbVertex
100
AcDb2dVertex
 10
427.5341796875
 20
393.8232421875
 30
0.0
  0
VERTEX
  5
4FF
330
4FA
100
AcDbEntity
  8
TEXT
100
AcDbVertex
100
AcDb2dVertex
 10
427.5341796875
 20
-226.1767578125
 30
0.0
  0
SEQEND
  5
500
330
4FA
100
AcDbEntity
  8
TEXT
  0
ENDSEC
  0
SECTION
  2
OBJECTS
  0
DICTIONARY
  5
C
330
0
100
AcDbDictionary
  3
ACAD_GROUP
350
D
  3
ACAD_LAYOUT
350
1A
  3
ACAD_MLINESTYLE
350
17
  3
ACAD_PLOTSETTINGS
350
19
  3
ACAD_TABLESTYLE
350
521
  3
ACAD_VISUALSTYLE
350
2A
  3
ACDBHEADERROUNDTRIPXREC
350
501
  0
DICTIONARY
  5
D
102
{ACAD_REACTORS
330
C
102
}
330
C
100
AcDbDictionary
  0
DICTIONARY
  5
1A
102
{ACAD_REACTORS
330
C
102
}
330
C
100
AcDbDictionary
  0
DICTIONARY
  5
17
102
{ACAD_REACTORS
330
C
102
}
330
C
100
AcDbDictionary
  3
STANDARD
350
18
  0
DICTIONARY
  5
19
102
{ACAD_REACTORS
330
C
102
}
330
C
100
AcDbDictionary
  0
DICTIONARY
  5
521
102
{ACAD_REACTORS
330
C
102
}
330
C
100
AcDbDictionary
  0
DICTIONARY
  5
2A
102
{ACAD_REACTORS
330
C
102
}
330
C
100
AcDbDictionary
  3
2DWIREFRAME
350
2F
  3
3D_HIDDEN
350
31
  3
3DWIREFRAME
350
30
  3
BASIC
350
32
  3
BRIGHTEN
350
36
  3
COLORCHANGE
350
3A
  3
CONCEPTUAL
350
34
  3
DIM
350
35
  3
FACEPATTERN
350
39
  3
FLAT
350
2B
  3
FLATWITHEDGES
350
2C
  3
GOURAUD
350
2D
  3
GOURAUDWITHEDGES
350
2E
  3
LINEPATTERN
350
38
  3
REALISTIC
350
33
  3
THICKEN
350
37
  0
DICTIONARY
  5
501
102
{ACAD_REACTORS
330
C
102
}
330
C
100
AcDbDictionary
  3
CEPSNTYPE
350
50A
  3
DIMSTYLEDATA
350
520
  3
FINGERPRINTGUID
350
50B
  3
HYPERLINKBASE
350
504
  3
INSUNITS
350
509
  3
LAYOUTDICT
350
506
  3
LWETCUNION
350
508
  3
PLOTSETDICT
350
507
  3
PSVPSCALE
350
50D
  3
PUCSBASE
350
510
  3
PUCSORGBACK
350
516
  3
PUCSORGBOTTOM
350
512
  3
PUCSORGFRONT
350
515
  3
PUCSORGLEFT
350
513
  3
PUCSORGRIGHT
350
514
  3
PUCSORGTOP
350
511
  3
PUCSORTHOREF
350
50E
  3
PUCSORTHOVIEW
350
50F
  3
STYLESHEET
350
505
  3
TSTACKALIGN
350
502
  3
TSTACKSIZE
350
503
  3
UCSBASE
350
519
  3
UCSORGBACK
350
51F
  3
UCSORGBOTTOM
350
51B
  3
UCSORGFRONT
350
51E
  3
UCSORGLEFT
350
51C
  3
UCSORGRIGHT
350
51D
  3
UCSORGTOP
350
51A
  3
UCSORTHOREF
350
517
  3
UCSORTHOVIEW
350
518
  3
VERSIONGUID
350
50C
  0
MLINESTYLE
  5
18
102
{ACAD_REACTORS
330
17
102
}
330
17
100
AcDbMlineStyle
  2
Standard
 70
     0
  3

 62
   256
 51
90.0
 52
90.0
 71
     2
 49
0.5
 62
   256
  6
BYLAYER
 49
-0.5
 62
   256
  6
BYLAYER
  0
VISUALSTYLE
  5
2F
102
{ACAD_REACTORS
330
2A
102
}
330
2A
100
AcDbVisualStyle
  2
2dWireframe
 70
     4
 71
     0
 72
     2
 73
     0
 90
        0
 40
-0.6
 41
-30.0
 62
     5
 63
     7
 74
     1
 91
        4
 64
     7
 65
   257
 75
     1
175
     1
 42
1.0
 92
        0
 66
   257
 43
1.0
 76
     1
 77
     6
 78
     2
 67
     7
 79
     5
170
     0
171
     0
290
     0
174
     0
 93
        1
 44
0.0
173
     0
291
     0
 45
0.0
1001
ACAD
1000
AcDbSavedByObjectVersion
1070
     0
  0
VISUALSTYLE
  5
31
102
{ACAD_REACTORS
330
2A
102
}
330
2A
100
AcDbVisualStyle
  2
3D Hidden
 70
     6
 71
     1
 72
     2
 73
     2
 90
        0
 40
-0.6
 41
-30.0
 62
     5
 63
     7
 74
     2
 91
        2
 64
     7
 65
   257
 75
     2
175
     1
 42
40.0
 92
        0
 66
   257
 43
1.0
 76
     1
 77
     6
 78
     2
 67
     7
 79
     3
170
     0
171
     0
290
     0
174
     0
 93
        1
 44
0.0
173
     0
291
     0
 45
0.0
1001
ACAD
1000
AcDbSavedByObjectVersion
1070
     0
  0
VISUALSTYLE
  5
30
102
{ACAD_REACTORS
330
2A
102
}
330
2A
100
AcDbVisualStyle
  2
3dWireframe
 70
     5
 71
     0
 72
     2
 73
     0
 90
        0
 40
-0.6
 41
-30.0
 62
     5
 63
     7
 74
     1
 91
        4
 64
     7
 65
   257
 75
     1
175
     1
 42
1.0
 92
        0
 66
   257
 43
1.0
 76
     1
 77
     6
 78
     2
 67
     7
 79
     5
170
     0
171
     0
290
     0
174
     0
 93
        1
 44
0.0
173
     0
291
     0
 45
0.0
1001
ACAD
1000
AcDbSavedByObjectVersion
1070
     0
  0
VISUALSTYLE
  5
32
102
{ACAD_REACTORS
330
2A
102
}
330
2A
100
AcDbVisualStyle
  2
Basic
 70
     7
 71
     1
 72
     0
 73
     1
 90
        0
 40
-0.6
 41
-30.0
 62
     5
 63
     7
 74
     0
 91
        4
 64
     7
 65
   257
 75
     1
175
     1
 42
1.0
 92
        8
 66
     7
 43
1.0
 76
     1
 77
     6
 78
     2
 67
     7
 79
     5
170
     0
171
     0
290
     0
174
     0
 93
        1
 44
0.0
173
     0
291
     1
 45
0.0
1001
ACAD
1000
AcDbSavedByObjectVersion
1070
     0
  0
VISUALSTYLE
  5
36
102
{ACAD_REACTORS
330
2A
102
}
330
2A
100
AcDbVisualStyle
  2
Brighten
 70
    12
 71
     2
 72
     2
 73
     0
 90
        0
 40
-0.6
 41
-30.0
 62
     5
 63
     7
 74
     1
 91
        4
 64
     7
 65
   257
 75
     1
175
     1
 42
1.0
 92
        8
 66
     7
 43
1.0
 76
     1
 77
     6
 78
     2
 67
     7
 79
     5
170
     0
171
     0
290
     0
174
     0
 93
        1
 44
50.0
173
     0
291
     1
 45
0.0
1001
ACAD
1000
AcDbSavedByObjectVersion
1070
     0
  0
VISUALSTYLE
  5
3A
102
{ACAD_REACTORS
330
2A
102
}
330
2A
100
AcDbVisualStyle
  2
ColorChange
 70
    16
 71
     2
 72
     2
 73
     3
 90
        0
 40
-0.6
 41
-30.0
 62
     5
 63
     8
 74
     1
 91
        4
 64
     7
 65
   257
 75
     1
175
     1
 42
1.0
 92
        8
 66
     8
 43
1.0
 76
     1
 77
     6
 78
     2
 67
     7
 79
     5
170
     0
171
     0
290
     0
174
     0
 93
        1
 44
0.0
173
     0
291
     1
 45
0.0
1001
ACAD
1000
AcDbSavedByObjectVersion
1070
     0
  0
VISUALSTYLE
  5
34
102
{ACAD_REACTORS
330
2A
102
}
330
2A
100
AcDbVisualStyle
  2
Conceptual
 70
     9
 71
     3
 72
     2
 73
     0
 90
        0
 40
-0.6
 41
-30.0
 62
     5
 63
     7
 74
     2
 91
        2
 64
     7
 65
   257
 75
     1
175
     1
 42
40.0
 92
        8
 66
     7
 43
1.0
 76
     1
 77
     6
 78
     2
 67
     7
 79
     3
170
     0
171
     0
290
     0
174
     0
 93
        1
 44
0.0
173
     0
291
     0
 45
0.0
1001
ACAD
1000
AcDbSavedByObjectVersion
1070
     0
  0
VISUALSTYLE
  5
35
102
{ACAD_REACTORS
330
2A
102
}
330
2A
100
AcDbVisualStyle
  2
Dim
 70
    11
 71
     2
 72
     2
 73
     0
 90
        0
 40
-0.6
 41
-30.0
 62
     5
 63
     7
 74
     1
 91
        4
 64
     7
 65
   257
 75
     1
175
     1
 42
1.0
 92
        8
 66
     7
 43
1.0
 76
     1
 77
     6
 78
     2
 67
     7
 79
     5
170
     0
171
     0
290
     0
174
     0
 93
        1
 44
-50.0
173
     0
291
     1
 45
0.0
1001
ACAD
1000
AcDbSavedByObjectVersion
1070
     0
  0
VISUALSTYLE
  5
39
102
{ACAD_REACTORS
330
2A
102
}
330
2A
100
AcDbVisualStyle
  2
Facepattern
 70
    15
 71
     2
 72
     2
 73
     0
 90
        0
 40
-0.6
 41
-30.0
 62
     5
 63
     7
 74
     1
 91
        4
 64
     7
 65
   257
 75
     1
175
     1
 42
1.0
 92
        8
 66
     7
 43
1.0
 76
     1
 77
     6
 78
     2
 67
     7
 79
     5
170
     0
171
     0
290
     0
174
     0
 93
        1
 44
0.0
173
     0
291
     1
 45
0.0
1001
ACAD
1000
AcDbSavedByObjectVersion
1070
     0
  0
VISUALSTYLE
  5
2B
102
{ACAD_REACTORS
330
2A
102
}
330
2A
100
AcDbVisualStyle
  2
Flat
 70
     0
 71
     2
 72
     1
 73
     1
 90
        2
 40
-0.6
 41
30.0
 62
     5
 63
     7
 74
     0
 91
        4
 64
     7
 65
   257
 75
     1
175
     1
 42
1.0
 92
        8
 66
     7
 43
1.0
 76
     1
 77
     6
 78
     2
 67
     7
 79
     5
170
     0
171
     0
290
     0
174
     0
 93
       13
 44
0.0
173
     0
291
     1
 45
0.0
1001
ACAD
1000
AcDbSavedByObjectVersion
1070
     0
  0
VISUALSTYLE
  5
2C
102
{ACAD_REACTORS
330
2A
102
}
330
2A
100
AcDbVisualStyle
  2
FlatWithEdges
 70
     1
 71
     2
 72
     1
 73
     1
 90
        2
 40
-0.6
 41
30.0
 62
     5
 63
     7
 74
     1
 91
        4
 64
     7
 65
   257
 75
     1
175
     1
 42
1.0
 92
        0
 66
   257
 43
1.0
 76
     1
 77
     6
 78
     2
 67
     7
 79
     5
170
     0
171
     0
290
     0
174
     0
 93
       13
 44
0.0
173
     0
291
     1
 45
0.0
1001
ACAD
1000
AcDbSavedByObjectVersion
1070
     0
  0
VISUALSTYLE
  5
2D
102
{ACAD_REACTORS
330
2A
102
}
330
2A
100
AcDbVisualStyle
  2
Gouraud
 70
     2
 71
     2
 72
     2
 73
     1
 90
        2
 40
-0.6
 41
30.0
 62
     5
 63
     7
 74
     0
 91
        4
 64
     7
 65
   257
 75
     1
175
     1
 42
1.0
 92
        0
 66
     7
 43
1.0
 76
     1
 77
     6
 78
     2
 67
     7
 79
     5
170
     0
171
     0
290
     0
174
     0
 93
       13
 44
0.0
173
     0
291
     1
 45
0.0
1001
ACAD
1000
AcDbSavedByObjectVersion
1070
     0
  0
VISUALSTYLE
  5
2E
102
{ACAD_REACTORS
330
2A
102
}
330
2A
100
AcDbVisualStyle
  2
GouraudWithEdges
 70
     3
 71
     2
 72
     2
 73
     1
 90
        2
 40
-0.6
 41
30.0
 62
     5
 63
     7
 74
     1
 91
        4
 64
     7
 65
   257
 75
     1
175
     1
 42
1.0
 92
        0
 66
   257
 43
1.0
 76
     1
 77
     6
 78
     2
 67
     7
 79
     5
170
     0
171
     0
290
     0
174
     0
 93
       13
 44
0.0
173
     0
291
     1
 45
0.0
1001
ACAD
1000
AcDbSavedByObjectVersion
1070
     0
  0
VISUALSTYLE
  5
38
102
{ACAD_REACTORS
330
2A
102
}
330
2A
100
AcDbVisualStyle
  2
Linepattern
 70
    14
 71
     2
 72
     2
 73
     0
 90
        0
 40
-0.6
 41
-30.0
 62
     5
 63
     7
 74
     1
 91
        4
 64
     7
 65
   257
 75
     7
175
     7
 42
1.0
 92
        8
 66
     7
 43
1.0
 76
     1
 77
     6
 78
     2
 67
     7
 79
     5
170
     0
171
     0
290
     0
174
     0
 93
        1
 44
0.0
173
     0
291
     1
 45
0.0
1001
ACAD
1000
AcDbSavedByObjectVersion
1070
     0
  0
VISUALSTYLE
  5
33
102
{ACAD_REACTORS
330
2A
102
}
330
2A
100
AcDbVisualStyle
  2
Realistic
 70
     8
 71
     2
 72
     2
 73
     0
 90
        0
 40
-0.6
 41
-30.0
 62
     5
 63
     7
 74
     1
 91
        0
 64
     7
 65
   257
 75
     1
175
     1
 42
1.0
 92
        8
 66
     8
 43
1.0
 76
     1
 77
     6
 78
     2
 67
     7
 79
     5
170
     0
171
     0
290
     0
174
     0
 93
       13
 44
0.0
173
     0
291
     0
 45
0.0
1001
ACAD
1000
AcDbSavedByObjectVersion
1070
     0
  0
VISUALSTYLE
  5
37
102
{ACAD_REACTORS
330
2A
102
}
330
2A
100
AcDbVisualStyle
  2
Thicken
 70
    13
 71
     2
 72
     2
 73
     0
 90
        0
 40
-0.6
 41
-30.0
 62
     5
 63
     7
 74
     1
 91
        4
 64
     7
 65
   257
 75
     1
175
     1
 42
1.0
 92
       12
 66
     7
 43
1.0
 76
     1
 77
     6
 78
     2
 67
     7
 79
     5
170
     0
171
     0
290
     0
174
     0
 93
        1
 44
0.0
173
     0
291
     1
 45
0.0
1001
ACAD
1000
AcDbSavedByObjectVersion
1070
     0
  0
XRECORD
  5
50A
102
{ACAD_REACTORS
330
501
102
}
330
501
100
AcDbXrecord
 90
        0
  0
XRECORD
  5
520
102
{ACAD_REACTORS
330
501
102
}
330
501
100
AcDbXrecord
1000
DSTYLE
1002
{
1070
   340
340
11
1002
}
  0
XRECORD
  5
50B
102
{ACAD_REACTORS
330
501
102
}
330
501
100
AcDbXrecord
  1
{CCE46DBC-33B8-4221-9675-655A00F9ADB4}
  0
XRECORD
  5
504
102
{ACAD_REACTORS
330
501
102
}
330
501
100
AcDbXrecord
  1

  0
XRECORD
  5
509
102
{ACAD_REACTORS
330
501
102
}
330
501
100
AcDbXrecord
 90
        1
  0
XRECORD
  5
506
102
{ACAD_REACTORS
330
501
102
}
330
501
100
AcDbXrecord
340
1A
  0
XRECORD
  5
508
102
{ACAD_REACTORS
330
501
102
}
330
501
100
AcDbXrecord
 90
    10269
  0
XRECORD
  5
507
102
{ACAD_REACTORS
330
501
102
}
330
501
100
AcDbXrecord
340
19
  0
XRECORD
  5
50D
102
{ACAD_REACTORS
330
501
102
}
330
501
100
AcDbXrecord
 40
0.0
  0
XRECORD
  5
510
102
{ACAD_REACTORS
330
501
102
}
330
501
100
AcDbXrecord
340
0
  0
XRECORD
  5
516
102
{ACAD_REACTORS
330
501
102
}
330
501
100
AcDbXrecord
 10
0.0
 20
0.0
 30
0.0
  0
XRECORD
  5
512
102
{ACAD_REACTORS
330
501
102
}
330
501
100
AcDbXrecord
 10
0.0
 20
0.0
 30
0.0
  0
XRECORD
  5
515
102
{ACAD_REACTORS
330
501
102
}
330
501
100
AcDbXrecord
 10
0.0
 20
0.0
 30
0.0
  0
XRECORD
  5
513
102
{ACAD_REACTORS
330
501
102
}
330
501
100
AcDbXrecord
 10
0.0
 20
0.0
 30
0.0
  0
XRECORD
  5
514
102
{ACAD_REACTORS
330
501
102
}
330
501
100
AcDbXrecord
 10
0.0
 20
0.0
 30
0.0
  0
XRECORD
  5
511
102
{ACAD_REACTORS
330
501
102
}
330
501
100
AcDbXrecord
 10
0.0
 20
0.0
 30
0.0
  0
XRECORD
  5
50E
102
{ACAD_REACTORS
330
501
102
}
330
501
100
AcDbXrecord
340
0
  0
XRECORD
  5
50F
102
{ACAD_REACTORS
330
501
102
}
330
501
100
AcDbXrecord
 70
     0
  0
XRECORD
  5
505
102
{ACAD_REACTORS
330
501
102
}
330
501
100
AcDbXrecord
  1

  0
XRECORD
  5
502
102
{ACAD_REACTORS
330
501
102
}
330
501
100
AcDbXrecord
 90
        1
  0
XRECORD
  5
503
102
{ACAD_REACTORS
330
501
102
}
330
501
100
AcDbXrecord
 90
       70
  0
XRECORD
  5
519
102
{ACAD_REACTORS
330
501
102
}
330
501
100
AcDbXrecord
340
0
  0
XRECORD
  5
51F
102
{ACAD_REACTORS
330
501
102
}
330
501
100
AcDbXrecord
 10
0.0
 20
0.0
 30
0.0
  0
XRECORD
  5
51B
102
{ACAD_REACTORS
330
501
102
}
330
501
100
AcDbXrecord
 10
0.0
 20
0.0
 30
0.0
  0
XRECORD
  5
51E
102
{ACAD_REACTORS
330
501
102
}
330
501
100
AcDbXrecord
 10
0.0
 20
0.0
 30
0.0
  0
XRECORD
  5
51C
102
{ACAD_REACTORS
330
501
102
}
330
501
100
AcDbXrecord
 10
0.0
 20
0.0
 30
0.0
  0
XRECORD
  5
51D
102
{ACAD_REACTORS
330
501
102
}
330
501
100
AcDbXrecord
 10
0.0
 20
0.0
 30
0.0
  0
XRECORD
  5
51A
102
{ACAD_REACTORS
330
501
102
}
330
501
100
AcDbXrecord
 10
0.0
 20
0.0
 30
0.0
  0
XRECORD
  5
517
102
{ACAD_REACTORS
330
501
102
}
330
501
100
AcDbXrecord
340
0
  0
XRECORD
  5
518
102
{ACAD_REACTORS
330
501
102
}
330
501
100
AcDbXrecord
 70
     0
  0
XRECORD
  5
50C
102
{ACAD_REACTORS
330
501
102
}
330
501
100
AcDbXrecord
  1
{FAEB1C32-E019-11D5-929B-00C0DF256EC4}
  0
ENDSEC
  0
EOF
