ISO-10303-21;
HEADER;
/* Generated by software containing ST-Developer
 * from STEP Tools, Inc. (www.steptools.com) 
 */
/* OPTION: using custom schema-name function */

FILE_DESCRIPTION(
/* description */ (''),
/* implementation_level */ '2;1');

FILE_NAME(
/* name */ 'W9990790_stp.stp',
/* time_stamp */ '2017-05-29T14:48:41+02:00',
/* author */ (''),
/* organization */ (''),
/* preprocessor_version */ 'ST-DEVELOPER v15',
/* originating_system */ 'SIEMENS PLM Software NX 9.0',
/* authorisation */ '');

FILE_SCHEMA (('AUTOMOTIVE_DESIGN { 1 0 10303 214 3 1 1 1 }'));
ENDSEC;

DATA;
#10=PROPERTY_DEFINITION_REPRESENTATION(#14,#12);
#11=PROPERTY_DEFINITION_REPRESENTATION(#15,#13);
#12=REPRESENTATION('',(#16),#322);
#13=REPRESENTATION('',(#17),#322);
#14=PROPERTY_DEFINITION('pmi validation property','',#21);
#15=PROPERTY_DEFINITION('pmi validation property','',#21);
#16=VALUE_REPRESENTATION_ITEM('number of annotations',COUNT_MEASURE(0.));
#17=VALUE_REPRESENTATION_ITEM('number of views',COUNT_MEASURE(0.));
#18=SHAPE_REPRESENTATION_RELATIONSHIP('None',
'relationship between reic1C24C78Ap7p5-None and reic1C24C78Ap7p5-None',
#30,#19);
#19=ADVANCED_BREP_SHAPE_REPRESENTATION('reic1C24C78Ap7p5-None',(#40),#322);
#20=SHAPE_DEFINITION_REPRESENTATION(#21,#30);
#21=PRODUCT_DEFINITION_SHAPE('','',#22);
#22=PRODUCT_DEFINITION(' ','',#24,#23);
#23=PRODUCT_DEFINITION_CONTEXT('part definition',#29,'design');
#24=PRODUCT_DEFINITION_FORMATION_WITH_SPECIFIED_SOURCE(' ',' ',#26,
 .NOT_KNOWN.);
#25=PRODUCT_RELATED_PRODUCT_CATEGORY('part','',(#26));
#26=PRODUCT('reic1C24C78Ap7p5','reic1C24C78Ap7p5',' ',(#27));
#27=PRODUCT_CONTEXT(' ',#29,'mechanical');
#28=APPLICATION_PROTOCOL_DEFINITION('international standard',
'automotive_design',2010,#29);
#29=APPLICATION_CONTEXT(
'core data for automotive mechanical design processes');
#30=SHAPE_REPRESENTATION('reic1C24C78Ap7p5-None',(#197),#322);
#31=PRESENTATION_LAYER_ASSIGNMENT('210','Layer 210',(#40));
#32=STYLED_ITEM('',(#33),#40);
#33=PRESENTATION_STYLE_ASSIGNMENT((#34));
#34=SURFACE_STYLE_USAGE(.BOTH.,#35);
#35=SURFACE_SIDE_STYLE('',(#36));
#36=SURFACE_STYLE_FILL_AREA(#37);
#37=FILL_AREA_STYLE('',(#38));
#38=FILL_AREA_STYLE_COLOUR('',#39);
#39=COLOUR_RGB('RAL 7035',0.8,0.8,0.8);
#40=MANIFOLD_SOLID_BREP('',#41);
#41=CLOSED_SHELL('',(#77,#78,#79,#80,#81,#82,#83,#84,#85,#86,#87));
#42=CONICAL_SURFACE('',#216,10.0723145172501,8.00000000000004);
#43=TOROIDAL_SURFACE('',#208,23.,2.);
#44=CYLINDRICAL_SURFACE('',#207,25.);
#45=CYLINDRICAL_SURFACE('',#212,16.);
#46=CYLINDRICAL_SURFACE('',#218,8.);
#47=CYLINDRICAL_SURFACE('',#220,12.5);
#48=LINE('',#283,#53);
#49=LINE('',#286,#54);
#50=LINE('',#292,#55);
#51=LINE('',#295,#56);
#52=LINE('',#299,#57);
#53=VECTOR('',#233,1.);
#54=VECTOR('',#234,1.);
#55=VECTOR('',#237,1.);
#56=VECTOR('',#240,1.);
#57=VECTOR('',#243,1.);
#58=FACE_BOUND('',#96,.T.);
#59=FACE_BOUND('',#97,.T.);
#60=FACE_BOUND('',#98,.T.);
#61=FACE_BOUND('',#99,.T.);
#62=FACE_BOUND('',#100,.T.);
#63=FACE_BOUND('',#101,.T.);
#64=FACE_BOUND('',#102,.T.);
#65=FACE_BOUND('',#103,.T.);
#66=FACE_BOUND('',#104,.T.);
#67=FACE_BOUND('',#105,.T.);
#68=FACE_BOUND('',#106,.T.);
#69=FACE_BOUND('',#107,.T.);
#70=FACE_BOUND('',#108,.T.);
#71=FACE_BOUND('',#109,.T.);
#72=FACE_BOUND('',#110,.T.);
#73=FACE_BOUND('',#111,.T.);
#74=FACE_BOUND('',#112,.T.);
#75=FACE_BOUND('',#114,.T.);
#76=FACE_BOUND('',#115,.T.);
#77=ADVANCED_FACE('',(#93),#88,.T.);
#78=ADVANCED_FACE('',(#58,#59),#89,.F.);
#79=ADVANCED_FACE('',(#60,#61,#62),#44,.T.);
#80=ADVANCED_FACE('',(#63,#64),#43,.T.);
#81=ADVANCED_FACE('',(#65,#66),#90,.F.);
#82=ADVANCED_FACE('',(#67,#68),#45,.T.);
#83=ADVANCED_FACE('',(#69,#70),#91,.F.);
#84=ADVANCED_FACE('',(#71,#72),#42,.T.);
#85=ADVANCED_FACE('',(#73,#74),#46,.T.);
#86=ADVANCED_FACE('',(#94),#92,.F.);
#87=ADVANCED_FACE('',(#75,#76),#47,.F.);
#88=PLANE('',#199);
#89=PLANE('',#202);
#90=PLANE('',#210);
#91=PLANE('',#214);
#92=PLANE('',#219);
#93=FACE_OUTER_BOUND('',#95,.T.);
#94=FACE_OUTER_BOUND('',#113,.T.);
#95=EDGE_LOOP('',(#116));
#96=EDGE_LOOP('',(#117));
#97=EDGE_LOOP('',(#118));
#98=EDGE_LOOP('',(#119,#120));
#99=EDGE_LOOP('',(#121,#122));
#100=EDGE_LOOP('',(#123,#124,#125,#126,#127,#128,#129,#130,#131,#132));
#101=EDGE_LOOP('',(#133));
#102=EDGE_LOOP('',(#134,#135));
#103=EDGE_LOOP('',(#136));
#104=EDGE_LOOP('',(#137,#138));
#105=EDGE_LOOP('',(#139));
#106=EDGE_LOOP('',(#140));
#107=EDGE_LOOP('',(#141));
#108=EDGE_LOOP('',(#142));
#109=EDGE_LOOP('',(#143));
#110=EDGE_LOOP('',(#144));
#111=EDGE_LOOP('',(#145));
#112=EDGE_LOOP('',(#146));
#113=EDGE_LOOP('',(#147));
#114=EDGE_LOOP('',(#148));
#115=EDGE_LOOP('',(#149));
#116=ORIENTED_EDGE('',*,*,#168,.T.);
#117=ORIENTED_EDGE('',*,*,#169,.F.);
#118=ORIENTED_EDGE('',*,*,#170,.T.);
#119=ORIENTED_EDGE('',*,*,#171,.F.);
#120=ORIENTED_EDGE('',*,*,#171,.T.);
#121=ORIENTED_EDGE('',*,*,#172,.T.);
#122=ORIENTED_EDGE('',*,*,#172,.F.);
#123=ORIENTED_EDGE('',*,*,#173,.T.);
#124=ORIENTED_EDGE('',*,*,#174,.F.);
#125=ORIENTED_EDGE('',*,*,#174,.T.);
#126=ORIENTED_EDGE('',*,*,#175,.T.);
#127=ORIENTED_EDGE('',*,*,#176,.F.);
#128=ORIENTED_EDGE('',*,*,#177,.F.);
#129=ORIENTED_EDGE('',*,*,#178,.F.);
#130=ORIENTED_EDGE('',*,*,#178,.T.);
#131=ORIENTED_EDGE('',*,*,#179,.F.);
#132=ORIENTED_EDGE('',*,*,#176,.T.);
#133=ORIENTED_EDGE('',*,*,#169,.T.);
#134=ORIENTED_EDGE('',*,*,#175,.F.);
#135=ORIENTED_EDGE('',*,*,#173,.F.);
#136=ORIENTED_EDGE('',*,*,#180,.T.);
#137=ORIENTED_EDGE('',*,*,#177,.T.);
#138=ORIENTED_EDGE('',*,*,#179,.T.);
#139=ORIENTED_EDGE('',*,*,#181,.T.);
#140=ORIENTED_EDGE('',*,*,#180,.F.);
#141=ORIENTED_EDGE('',*,*,#181,.F.);
#142=ORIENTED_EDGE('',*,*,#182,.T.);
#143=ORIENTED_EDGE('',*,*,#183,.F.);
#144=ORIENTED_EDGE('',*,*,#182,.F.);
#145=ORIENTED_EDGE('',*,*,#183,.T.);
#146=ORIENTED_EDGE('',*,*,#184,.T.);
#147=ORIENTED_EDGE('',*,*,#184,.F.);
#148=ORIENTED_EDGE('',*,*,#168,.F.);
#149=ORIENTED_EDGE('',*,*,#170,.F.);
#150=VERTEX_POINT('',#276);
#151=VERTEX_POINT('',#279);
#152=VERTEX_POINT('',#281);
#153=VERTEX_POINT('',#284);
#154=VERTEX_POINT('',#285);
#155=VERTEX_POINT('',#287);
#156=VERTEX_POINT('',#288);
#157=VERTEX_POINT('',#290);
#158=VERTEX_POINT('',#291);
#159=VERTEX_POINT('',#293);
#160=VERTEX_POINT('',#296);
#161=VERTEX_POINT('',#298);
#162=VERTEX_POINT('',#300);
#163=VERTEX_POINT('',#305);
#164=VERTEX_POINT('',#308);
#165=VERTEX_POINT('',#311);
#166=VERTEX_POINT('',#314);
#167=VERTEX_POINT('',#317);
#168=EDGE_CURVE('',#150,#150,#185,.T.);
#169=EDGE_CURVE('',#151,#151,#186,.T.);
#170=EDGE_CURVE('',#152,#152,#187,.T.);
#171=EDGE_CURVE('',#153,#154,#48,.T.);
#172=EDGE_CURVE('',#155,#156,#49,.T.);
#173=EDGE_CURVE('',#157,#158,#188,.T.);
#174=EDGE_CURVE('',#159,#158,#50,.T.);
#175=EDGE_CURVE('',#158,#157,#189,.T.);
#176=EDGE_CURVE('',#160,#157,#51,.T.);
#177=EDGE_CURVE('',#161,#160,#190,.T.);
#178=EDGE_CURVE('',#162,#161,#52,.T.);
#179=EDGE_CURVE('',#160,#161,#191,.T.);
#180=EDGE_CURVE('',#163,#163,#192,.T.);
#181=EDGE_CURVE('',#164,#164,#193,.T.);
#182=EDGE_CURVE('',#165,#165,#194,.T.);
#183=EDGE_CURVE('',#166,#166,#195,.T.);
#184=EDGE_CURVE('',#167,#167,#196,.T.);
#185=CIRCLE('',#198,12.5);
#186=CIRCLE('',#200,23.);
#187=CIRCLE('',#201,12.5);
#188=CIRCLE('',#203,25.);
#189=CIRCLE('',#204,25.);
#190=CIRCLE('',#205,25.);
#191=CIRCLE('',#206,25.);
#192=CIRCLE('',#209,16.);
#193=CIRCLE('',#211,16.);
#194=CIRCLE('',#213,10.0723145172501);
#195=CIRCLE('',#215,8.);
#196=CIRCLE('',#217,8.);
#197=AXIS2_PLACEMENT_3D('',#274,#221,#222);
#198=AXIS2_PLACEMENT_3D('',#275,#223,#224);
#199=AXIS2_PLACEMENT_3D('',#277,#225,#226);
#200=AXIS2_PLACEMENT_3D('',#278,#227,#228);
#201=AXIS2_PLACEMENT_3D('',#280,#229,#230);
#202=AXIS2_PLACEMENT_3D('',#282,#231,#232);
#203=AXIS2_PLACEMENT_3D('',#289,#235,#236);
#204=AXIS2_PLACEMENT_3D('',#294,#238,#239);
#205=AXIS2_PLACEMENT_3D('',#297,#241,#242);
#206=AXIS2_PLACEMENT_3D('',#301,#244,#245);
#207=AXIS2_PLACEMENT_3D('',#302,#246,#247);
#208=AXIS2_PLACEMENT_3D('',#303,#248,#249);
#209=AXIS2_PLACEMENT_3D('',#304,#250,#251);
#210=AXIS2_PLACEMENT_3D('',#306,#252,#253);
#211=AXIS2_PLACEMENT_3D('',#307,#254,#255);
#212=AXIS2_PLACEMENT_3D('',#309,#256,#257);
#213=AXIS2_PLACEMENT_3D('',#310,#258,#259);
#214=AXIS2_PLACEMENT_3D('',#312,#260,#261);
#215=AXIS2_PLACEMENT_3D('',#313,#262,#263);
#216=AXIS2_PLACEMENT_3D('',#315,#264,#265);
#217=AXIS2_PLACEMENT_3D('',#316,#266,#267);
#218=AXIS2_PLACEMENT_3D('',#318,#268,#269);
#219=AXIS2_PLACEMENT_3D('',#319,#270,#271);
#220=AXIS2_PLACEMENT_3D('',#320,#272,#273);
#221=DIRECTION('',(0.,0.,1.));
#222=DIRECTION('',(1.,0.,0.));
#223=DIRECTION('',(0.,0.,1.));
#224=DIRECTION('',(1.,0.,0.));
#225=DIRECTION('',(0.,0.,1.));
#226=DIRECTION('',(-1.,0.,0.));
#227=DIRECTION('',(0.,0.,-1.));
#228=DIRECTION('',(-1.,0.,0.));
#229=DIRECTION('',(0.,0.,-1.));
#230=DIRECTION('',(-1.,0.,0.));
#231=DIRECTION('',(0.,0.,-1.));
#232=DIRECTION('',(1.,0.,0.));
#233=DIRECTION('',(0.,0.,-1.));
#234=DIRECTION('',(0.,0.,-1.));
#235=DIRECTION('',(0.,0.,-1.));
#236=DIRECTION('',(-1.,0.,0.));
#237=DIRECTION('',(0.,0.,1.));
#238=DIRECTION('',(0.,0.,-1.));
#239=DIRECTION('',(-1.,0.,0.));
#240=DIRECTION('',(0.,0.,1.));
#241=DIRECTION('',(0.,0.,-1.));
#242=DIRECTION('',(1.,0.,0.));
#243=DIRECTION('',(0.,0.,-1.));
#244=DIRECTION('',(0.,0.,-1.));
#245=DIRECTION('',(1.,0.,0.));
#246=DIRECTION('',(0.,0.,-1.));
#247=DIRECTION('',(1.,0.,0.));
#248=DIRECTION('',(0.,0.,-1.));
#249=DIRECTION('',(1.,0.,0.));
#250=DIRECTION('',(0.,0.,1.));
#251=DIRECTION('',(1.,0.,0.));
#252=DIRECTION('',(0.,0.,1.));
#253=DIRECTION('',(-1.,0.,0.));
#254=DIRECTION('',(0.,0.,1.));
#255=DIRECTION('',(1.,0.,0.));
#256=DIRECTION('',(0.,0.,-1.));
#257=DIRECTION('',(1.,0.,0.));
#258=DIRECTION('',(0.,0.,1.));
#259=DIRECTION('',(1.,0.,0.));
#260=DIRECTION('',(0.,0.,1.));
#261=DIRECTION('',(-1.,0.,0.));
#262=DIRECTION('',(0.,0.,-1.));
#263=DIRECTION('',(1.,0.,0.));
#264=DIRECTION('',(0.,0.,1.));
#265=DIRECTION('',(-1.,0.,2.53390335898458E-016));
#266=DIRECTION('',(0.,0.,1.));
#267=DIRECTION('',(1.,0.,0.));
#268=DIRECTION('',(0.,0.,-1.));
#269=DIRECTION('',(1.,0.,0.));
#270=DIRECTION('',(0.,0.,1.));
#271=DIRECTION('',(-1.,0.,0.));
#272=DIRECTION('',(0.,0.,-1.));
#273=DIRECTION('',(1.,0.,0.));
#274=CARTESIAN_POINT('',(0.,0.,0.));
#275=CARTESIAN_POINT('',(0.,0.,3.99999999999999));
#276=CARTESIAN_POINT('',(12.5,0.,3.99999999999999));
#277=CARTESIAN_POINT('',(0.,12.75,3.99999999999999));
#278=CARTESIAN_POINT('',(0.,0.,55.));
#279=CARTESIAN_POINT('',(-23.,0.,55.));
#280=CARTESIAN_POINT('',(0.,0.,55.));
#281=CARTESIAN_POINT('',(-12.5,0.,55.));
#282=CARTESIAN_POINT('',(0.,0.,55.));
#283=CARTESIAN_POINT('',(25.,3.06151588455594E-015,-41.));
#284=CARTESIAN_POINT('',(25.,2.40328993385259E-015,31.5));
#285=CARTESIAN_POINT('',(25.,1.53075794227797E-015,26.5));
#286=CARTESIAN_POINT('',(25.,3.06151588455594E-015,-41.));
#287=CARTESIAN_POINT('',(25.,2.40328993385259E-015,43.5));
#288=CARTESIAN_POINT('',(25.,1.53075794227797E-015,38.5));
#289=CARTESIAN_POINT('',(0.,0.,53.));
#290=CARTESIAN_POINT('',(-25.,0.,53.));
#291=CARTESIAN_POINT('',(25.,3.06151588455594E-015,53.));
#292=CARTESIAN_POINT('',(25.,3.06151588455594E-015,-41.));
#293=CARTESIAN_POINT('',(25.,1.53075794227797E-015,50.5));
#294=CARTESIAN_POINT('',(0.,0.,53.));
#295=CARTESIAN_POINT('',(-25.,0.,-41.));
#296=CARTESIAN_POINT('',(-25.,0.,0.));
#297=CARTESIAN_POINT('',(0.,0.,0.));
#298=CARTESIAN_POINT('',(25.,3.06151588455594E-015,0.));
#299=CARTESIAN_POINT('',(25.,3.06151588455594E-015,-41.));
#300=CARTESIAN_POINT('',(25.,2.40328993385259E-015,19.5));
#301=CARTESIAN_POINT('',(0.,0.,0.));
#302=CARTESIAN_POINT('',(0.,0.,-41.));
#303=CARTESIAN_POINT('',(0.,0.,53.));
#304=CARTESIAN_POINT('',(0.,0.,0.));
#305=CARTESIAN_POINT('',(16.,0.,0.));
#306=CARTESIAN_POINT('',(0.,25.,0.));
#307=CARTESIAN_POINT('',(0.,0.,-18.5));
#308=CARTESIAN_POINT('',(16.,0.,-18.5));
#309=CARTESIAN_POINT('',(0.,0.,-41.));
#310=CARTESIAN_POINT('',(0.,0.,-18.5));
#311=CARTESIAN_POINT('',(10.0723145172501,0.,-18.5));
#312=CARTESIAN_POINT('',(0.,16.,-18.5));
#313=CARTESIAN_POINT('',(0.,0.,-33.2452839712988));
#314=CARTESIAN_POINT('',(8.,0.,-33.2452839712988));
#315=CARTESIAN_POINT('',(0.,0.,-18.5));
#316=CARTESIAN_POINT('',(0.,0.,-41.));
#317=CARTESIAN_POINT('',(8.,0.,-41.));
#318=CARTESIAN_POINT('',(0.,0.,-41.));
#319=CARTESIAN_POINT('',(0.,0.,-41.));
#320=CARTESIAN_POINT('',(0.,0.,-42.4884705629218));
#321=MECHANICAL_DESIGN_GEOMETRIC_PRESENTATION_REPRESENTATION('',(#32),#322);
#322=(
GEOMETRIC_REPRESENTATION_CONTEXT(3)
GLOBAL_UNCERTAINTY_ASSIGNED_CONTEXT((#323))
GLOBAL_UNIT_ASSIGNED_CONTEXT((#329,#325,#324))
REPRESENTATION_CONTEXT('W9990790_stp','TOP_LEVEL_ASSEMBLY_PART')
);
#323=UNCERTAINTY_MEASURE_WITH_UNIT(LENGTH_MEASURE(2.E-005),#329,
'DISTANCE_ACCURACY_VALUE','Maximum Tolerance applied to model');
#324=(
NAMED_UNIT(*)
SI_UNIT($,.STERADIAN.)
SOLID_ANGLE_UNIT()
);
#325=(
CONVERSION_BASED_UNIT('DEGREE',#327)
NAMED_UNIT(#326)
PLANE_ANGLE_UNIT()
);
#326=DIMENSIONAL_EXPONENTS(0.,0.,0.,0.,0.,0.,0.);
#327=PLANE_ANGLE_MEASURE_WITH_UNIT(PLANE_ANGLE_MEASURE(0.0174532925),#328);
#328=(
NAMED_UNIT(*)
PLANE_ANGLE_UNIT()
SI_UNIT($,.RADIAN.)
);
#329=(
LENGTH_UNIT()
NAMED_UNIT(*)
SI_UNIT(.MILLI.,.METRE.)
);
ENDSEC;
END-ISO-10303-21;
